  0
SECTION
  2
HEADER
  9
$ACADVER
  1
AC1015
  9
$DWGCODEPAGE
  3
ANSI_1252
  9
$EXTMAX
 10
297.0
 20
210.0
 30
0.0
  9
$EXTMIN
 10
0.0
 20
0.0
 30
0.0
  9
$LIMMIN
 10
0.0
 20
0.0
  9
$LIMMAX
 10
297.0
 20
210.0
  9
$VIEWCTR
 10
148.5
 20
105.0
  9
$VIEWSIZE
 40
210.0
  9
$CLAYER
  8
0
  9
$LTSCALE
 40
16.335
  9
$CELTYPE
  6
BYLAYER
  9
$DIMSCALE
 40
1.0
  9
$DIMASZ
 40
3.0
  9
$DIMEXO
 40
1.85625
  9
$DIMDLI
 40
11.286
  9
$DIMEXE
 40
5.346
  9
$DIMCEN
 40
2.673
  9
$DIMLFAC
 40
1.0
  9
$DIMBLK
  1
_FILLED
  9
$DIMTXT
 40
3.0
  9
$DIMTOL
 70
1
  9
$DIMLIM
 70
0
  9
$DIMTFAC
 40
1.0
  9
$DIMTP
 40
0.01
  9
$DIMTM
 40
0.01
  9
$PDMODE
 70
3
  9
$PDSIZE
 40
3.0
  9
$HANDSEED
  5
650
  9
$TILEMODE
 70
1
  9
$MEASUREMENT
 70
1
  9
$INSUNITS
 70
4
  0
ENDSEC
  0
SECTION
  2
CLASSES
  0
CLASS
  1
ACDBDICTIONARYWDFLT
  2
AcDbDictionaryWithDefault
  3
AutoCAD 2000
 90
0
280
0
281
0
  0
CLASS
  1
ACDBPLACEHOLDER
  2
AcDbPlaceHolder
  3
AutoCAD 2000
 90
0
280
0
281
0
  0
CLASS
  1
LAYOUT
  2
AcDbLayout
  3
AutoCAD 2000
 90
0
280
0
281
0
  0
ENDSEC
  0
SECTION
  2
TABLES
  0
TABLE
  2
VPORT
  5
8
100
AcDbSymbolTable
 70
2
  0
VPORT
  5
1F4
100
AcDbSymbolTableRecord
100
AcDbViewportTableRecord
  2
*ACTIVE
 70
0
 10
0.0
 20
0.0
 11
1.0
 21
1.0
 12
148.5
 22
105.0
 13
0.0
 23
0.0
 14
1.0
 24
1.0
 15
0.0
 25
0.0
 16
0.0
 26
0.0
 36
1.0
 17
0.0
 27
0.0
 37
0.0
 40
210.0
 41
1.4142857143
 42
50.0
 43
0.0
 44
0.0
 50
0.0
 51
0.0
 71
0
 72
100
 73
1
 74
1
 75
0
 76
0
 77
0
 78
0
  0
ENDTAB
  0
TABLE
  2
LTYPE
  5
5
100
AcDbSymbolTable
 70
6
  0
LTYPE
  5
14
100
AcDbSymbolTableRecord
100
AcDbLinetypeTableRecord
  2
BYBLOCK
 70
0
  3

 72
65
 73
0
 40
0.0
  0
LTYPE
  5
15
100
AcDbSymbolTableRecord
100
AcDbLinetypeTableRecord
  2
BYLAYER
 70
0
  3

 72
65
 73
0
 40
0.0
  0
LTYPE
  5
16
100
AcDbSymbolTableRecord
100
AcDbLinetypeTableRecord
  2
CONTINUOUS
 70
64
  3
Solid line
 72
65
 73
0
 40
0.0
  0
LTYPE
  5
1F5
100
AcDbSymbolTableRecord
100
AcDbLinetypeTableRecord
  2
CENTER
 70
64
  3
____ _ ____ _ ____ _ ____ _ ____ _ ____ _ ____
 72
65
 73
4
 40
0.6
 49
0.375
 74
0
 49
-0.075
 74
0
 49
0.075
 74
0
 49
-0.075
 74
0
  0
LTYPE
  5
1F6
100
AcDbSymbolTableRecord
100
AcDbLinetypeTableRecord
  2
HIDDEN
 70
64
  3
- - - - - - - - - - - - - - - - - - - -
 72
65
 73
2
 40
0.2
 49
0.1
 74
0
 49
-0.1
 74
0
  0
LTYPE
  5
1F7
100
AcDbSymbolTableRecord
100
AcDbLinetypeTableRecord
  2
PHANTOM
 70
64
  3
_____ _ _ _____ _ _ _____ _ _ _____
 72
65
 73
6
 40
0.8
 49
0.45
 74
0
 49
-0.05
 74
0
 49
0.1
 74
0
 49
-0.05
 74
0
 49
0.1
 74
0
 49
-0.05
 74
0
  0
LTYPE
  5
1F8
100
AcDbSymbolTableRecord
100
AcDbLinetypeTableRecord
  2
DOT
 70
64
  3
. . . . . . . . . . . . . . . . . . . .
 72
65
 73
2
 40
0.2
 49
0.1
 74
0
 49
-0.1
 74
0
  0
LTYPE
  5
1F9
100
AcDbSymbolTableRecord
100
AcDbLinetypeTableRecord
  2
DASHED
 70
64
  3
- - - - - - - - - - - - - - - - - - - -
 72
65
 73
2
 40
0.2
 49
0.1
 74
0
 49
-0.1
 74
0
  0
ENDTAB
  0
TABLE
  2
LAYER
  5
2
100
AcDbSymbolTable
 70
36
  0
LAYER
  5
10
100
AcDbSymbolTableRecord
100
AcDbLayerTableRecord
  2
0
 70
0
 62
7
  6
CONTINUOUS
370
-3
390
F
  0
LAYER
  5
1FA
100
AcDbSymbolTableRecord
100
AcDbLayerTableRecord
  2
DEFAULT_1
 70
0
 62
7
  6
CENTER
370
-3
390
F
  0
LAYER
  5
1FB
100
AcDbSymbolTableRecord
100
AcDbLayerTableRecord
  2
DEFAULT_2
 70
0
 62
7
  6
HIDDEN
370
-3
390
F
  0
LAYER
  5
1FC
100
AcDbSymbolTableRecord
100
AcDbLayerTableRecord
  2
DEFAULT_3
 70
0
 62
7
  6
PHANTOM
370
-3
390
F
  0
LAYER
  5
1FD
100
AcDbSymbolTableRecord
100
AcDbLayerTableRecord
  2
320200000
 70
0
 62
7
  6
CONTINUOUS
370
-3
390
F
  0
LAYER
  5
1FE
100
AcDbSymbolTableRecord
100
AcDbLayerTableRecord
  2
361200000
 70
0
 62
7
  6
CONTINUOUS
370
-3
390
F
  0
LAYER
  5
1FF
100
AcDbSymbolTableRecord
100
AcDbLayerTableRecord
  2
ASSI
 70
0
 62
7
  6
CONTINUOUS
370
-3
390
F
  0
LAYER
  5
200
100
AcDbSymbolTableRecord
100
AcDbLayerTableRecord
  2
COLOR5
 70
0
 62
7
  6
CONTINUOUS
370
-3
390
F
  0
LAYER
  5
201
100
AcDbSymbolTableRecord
100
AcDbLayerTableRecord
  2
COLOR7
 70
0
 62
7
  6
CONTINUOUS
370
-3
390
F
  0
LAYER
  5
202
100
AcDbSymbolTableRecord
100
AcDbLayerTableRecord
  2
COORDINATE
 70
0
 62
7
  6
CONTINUOUS
370
-3
390
F
  0
LAYER
  5
203
100
AcDbSymbolTableRecord
100
AcDbLayerTableRecord
  2
COORD_ORIGINE
 70
0
 62
7
  6
CONTINUOUS
370
-3
390
F
  0
LAYER
  5
204
100
AcDbSymbolTableRecord
100
AcDbLayerTableRecord
  2
COPY_PUBLISH
 70
0
 62
7
  6
CONTINUOUS
370
-3
390
F
  0
LAYER
  5
205
100
AcDbSymbolTableRecord
100
AcDbLayerTableRecord
  2
COSMETIC
 70
0
 62
7
  6
CONTINUOUS
370
-3
390
F
  0
LAYER
  5
206
100
AcDbSymbolTableRecord
100
AcDbLayerTableRecord
  2
CURVE
 70
0
 62
7
  6
CONTINUOUS
370
-3
390
F
  0
LAYER
  5
207
100
AcDbSymbolTableRecord
100
AcDbLayerTableRecord
  2
DRAFT
 70
0
 62
7
  6
CONTINUOUS
370
-3
390
F
  0
LAYER
  5
208
100
AcDbSymbolTableRecord
100
AcDbLayerTableRecord
  2
GUSCI_ESTERNI
 70
0
 62
7
  6
CONTINUOUS
370
-3
390
F
  0
LAYER
  5
209
100
AcDbSymbolTableRecord
100
AcDbLayerTableRecord
  2
IMPORT
 70
0
 62
7
  6
CONTINUOUS
370
-3
390
F
  0
LAYER
  5
20A
100
AcDbSymbolTableRecord
100
AcDbLayerTableRecord
  2
IMPORT_FEATURES
 70
0
 62
7
  6
CONTINUOUS
370
-3
390
F
  0
LAYER
  5
20B
100
AcDbSymbolTableRecord
100
AcDbLayerTableRecord
  2
IMPORT_IGES
 70
0
 62
7
  6
CONTINUOUS
370
-3
390
F
  0
LAYER
  5
20C
100
AcDbSymbolTableRecord
100
AcDbLayerTableRecord
  2
INTF_1
 70
0
 62
7
  6
CONTINUOUS
370
-3
390
F
  0
LAYER
  5
20D
100
AcDbSymbolTableRecord
100
AcDbLayerTableRecord
  2
INTF_YELLOW
 70
0
 62
7
  6
CONTINUOUS
370
-3
390
F
  0
LAYER
  5
20E
100
AcDbSymbolTableRecord
100
AcDbLayerTableRecord
  2
NOTE
 70
0
 62
7
  6
CONTINUOUS
370
-3
390
F
  0
LAYER
  5
20F
100
AcDbSymbolTableRecord
100
AcDbLayerTableRecord
  2
PIANI
 70
0
 62
7
  6
CONTINUOUS
370
-3
390
F
  0
LAYER
  5
210
100
AcDbSymbolTableRecord
100
AcDbLayerTableRecord
  2
PIANI_ORIGINE
 70
0
 62
7
  6
CONTINUOUS
370
-3
390
F
  0
LAYER
  5
211
100
AcDbSymbolTableRecord
100
AcDbLayerTableRecord
  2
PIANI_RIFERIMENTO
 70
0
 62
7
  6
CONTINUOUS
370
-3
390
F
  0
LAYER
  5
212
100
AcDbSymbolTableRecord
100
AcDbLayerTableRecord
  2
PIANI_SFORMI
 70
0
 62
7
  6
CONTINUOUS
370
-3
390
F
  0
LAYER
  5
213
100
AcDbSymbolTableRecord
100
AcDbLayerTableRecord
  2
PRECARICO_MOLLA
 70
0
 62
7
  6
CONTINUOUS
370
-3
390
F
  0
LAYER
  5
214
100
AcDbSymbolTableRecord
100
AcDbLayerTableRecord
  2
PUNTI
 70
0
 62
7
  6
CONTINUOUS
370
-3
390
F
  0
LAYER
  5
215
100
AcDbSymbolTableRecord
100
AcDbLayerTableRecord
  2
RACCORDO
 70
0
 62
7
  6
CONTINUOUS
370
-3
390
F
  0
LAYER
  5
216
100
AcDbSymbolTableRecord
100
AcDbLayerTableRecord
  2
RGB____0____0____0__
 70
0
 62
7
  6
CONTINUOUS
370
-3
390
F
  0
LAYER
  5
217
100
AcDbSymbolTableRecord
100
AcDbLayerTableRecord
  2
SMUSSO
 70
0
 62
7
  6
CONTINUOUS
370
-3
390
F
  0
LAYER
  5
218
100
AcDbSymbolTableRecord
100
AcDbLayerTableRecord
  2
SUPERFICI
 70
0
 62
7
  6
CONTINUOUS
370
-3
390
F
  0
LAYER
  5
219
100
AcDbSymbolTableRecord
100
AcDbLayerTableRecord
  2
TRASH
 70
0
 62
7
  6
CONTINUOUS
370
-3
390
F
  0
LAYER
  5
21A
100
AcDbSymbolTableRecord
100
AcDbLayerTableRecord
  2
TRECCIE
 70
0
 62
7
  6
CONTINUOUS
370
-3
390
F
  0
LAYER
  5
21B
100
AcDbSymbolTableRecord
100
AcDbLayerTableRecord
  2
VARIE
 70
0
 62
7
  6
CONTINUOUS
370
-3
390
F
  0
LAYER
  5
21C
100
AcDbSymbolTableRecord
100
AcDbLayerTableRecord
  2
XSEC_DATUMS
 70
0
 62
7
  6
CONTINUOUS
370
-3
390
F
  0
LAYER
  5
21D
100
AcDbSymbolTableRecord
100
AcDbLayerTableRecord
  2
___SHELL
 70
0
 62
7
  6
CONTINUOUS
370
-3
390
F
  0
ENDTAB
  0
TABLE
  2
STYLE
  5
3
100
AcDbSymbolTable
 70
1
  0
STYLE
  5
11
100
AcDbSymbolTableRecord
100
AcDbTextStyleTableRecord
  2
STANDARD
 70
0
 40
0.0
 41
0.8
 50
0.0
 71
0
 42
0.2
  3
txt
  4

  0
STYLE
  5
21E
100
AcDbSymbolTableRecord
100
AcDbTextStyleTableRecord
  2
TEXTSTYLE_1
 70
0
 40
0.0
 41
0.8
 50
0.0
 71
0
 42
0.2
  3
gdt
  4

  0
ENDTAB
  0
TABLE
  2
VIEW
  5
6
100
AcDbSymbolTable
 70
0
  0
ENDTAB
  0
TABLE
  2
UCS
  5
7
100
AcDbSymbolTable
 70
0
  0
ENDTAB
  0
TABLE
  2
APPID
  5
9
100
AcDbSymbolTable
 70
1
  0
APPID
  5
21F
100
AcDbSymbolTableRecord
100
AcDbRegAppTableRecord
  2
ACAD
 70
0
  0
ENDTAB
  0
TABLE
  2
BLOCK_RECORD
  5
1
100
AcDbSymbolTable
 70
0
  0
BLOCK_RECORD
  5
220
100
AcDbSymbolTableRecord
100
AcDbBlockTableRecord
  2
*Model_Space
  0
BLOCK_RECORD
  5
221
100
AcDbSymbolTableRecord
100
AcDbBlockTableRecord
  2
*Paper_Space
  0
ENDTAB
  0
TABLE
  2
DIMSTYLE
  5
A
100
AcDbSymbolTable
 70
1
100
AcDbDimStyleTable
 71
0
  0
DIMSTYLE
105
222
100
AcDbSymbolTableRecord
100
AcDbDimStyleTableRecord
  2
STANDARD
 70
0
  3

  4

 40
1.0
 41
3.0
 42
0.0625
 43
0.38
 44
0.18
 45
0.0
 46
0.0
 47
0.01
 48
0.01
140
3.0
141
0.09
142
0.0
143
25.4
144
1.0
145
0.0
146
1.0
147
0.09
 71
1.0
 72
0.0
 73
0
 74
0
 75
0
 76
0
 77
1
 78
8
170
0
171
2
172
0
173
0
174
0
175
0
176
0
177
0
178
0
270
2
271
2
272
2
273
2
274
2
275
0
280
0
281
0
282
0
283
1
284
8
285
0
286
0
287
3
288
0
340
11
  0
ENDTAB
  0
ENDSEC
  0
SECTION
  2
BLOCKS
  0
BLOCK
  5
20
100
AcDbEntity
  8
0
100
AcDbBlockBegin
  2
*Model_Space
 70
0
 10
0.0
 20
0.0
 30
0.0
  3
*Model_Space
  1

  0
ENDBLK
  5
21
100
AcDbEntity
  8
0
100
AcDbBlockEnd
  0
BLOCK
  5
1C
100
AcDbEntity
  8
0
100
AcDbBlockBegin
  2
*Paper_Space
 70
0
 10
0.0
 20
0.0
 30
0.0
  3
*Paper_Space
  1

  0
ENDBLK
  5
1D
100
AcDbEntity
  8
0
100
AcDbBlockEnd
  0
ENDSEC
  0
SECTION
  2
ENTITIES
  0
LINE
  5
223
100
AcDbEntity
  8
0
100
AcDbLine
 62
253
  6
CONTINUOUS
 10
-8.3529167171
 20
24.7757241818
 11
-8.3485448831
 21
24.7800960158
  0
LINE
  5
224
100
AcDbEntity
  8
RACCORDO
100
AcDbLine
 62
253
  6
CONTINUOUS
 10
-8.3529167171
 20
24.7757241818
 11
-8.3485448831
 21
24.7800960158
  0
LINE
  5
225
100
AcDbEntity
  8
0
100
AcDbLine
 62
253
  6
CONTINUOUS
 10
-10.4983967887
 20
22.6800960158
 11
-10.4809417238
 21
22.6888228836
  0
LINE
  5
226
100
AcDbEntity
  8
RACCORDO
100
AcDbLine
 62
253
  6
CONTINUOUS
 10
-10.4983967887
 20
22.6800960158
 11
-10.4809417238
 21
22.6888228836
  0
LINE
  5
227
100
AcDbEntity
  8
0
100
AcDbLine
 62
7
  6
CONTINUOUS
 10
-10.2485533446
 20
-24.2199039842
 11
-8.3485448831
 21
-24.2199039842
  0
LINE
  5
228
100
AcDbEntity
  8
RACCORDO
100
AcDbLine
 62
7
  6
CONTINUOUS
 10
-10.2485533446
 20
-24.2199039842
 11
-8.3485448831
 21
-24.2199039842
  0
LINE
  5
229
100
AcDbEntity
  8
0
100
AcDbLine
 62
7
  6
CONTINUOUS
 10
8.6514466554
 20
-24.2199039842
 11
10.5514551169
 21
-24.2199039842
  0
LINE
  5
22A
100
AcDbEntity
  8
RACCORDO
100
AcDbLine
 62
7
  6
CONTINUOUS
 10
8.6514466554
 20
-24.2199039842
 11
10.5514551169
 21
-24.2199039842
  0
LINE
  5
22B
100
AcDbEntity
  8
0
100
AcDbLine
 62
253
  6
CONTINUOUS
 10
-10.2441815106
 20
-24.2155321502
 11
-8.3529167171
 21
-24.2155321502
  0
LINE
  5
22C
100
AcDbEntity
  8
RACCORDO
100
AcDbLine
 62
253
  6
CONTINUOUS
 10
-10.2441815106
 20
-24.2155321502
 11
-8.3529167171
 21
-24.2155321502
  0
LINE
  5
22D
100
AcDbEntity
  8
0
100
AcDbLine
 62
253
  6
CONTINUOUS
 10
8.6558184894
 20
-24.2155321502
 11
10.5470832829
 21
-24.2155321502
  0
LINE
  5
22E
100
AcDbEntity
  8
RACCORDO
100
AcDbLine
 62
253
  6
CONTINUOUS
 10
8.6558184894
 20
-24.2155321502
 11
10.5470832829
 21
-24.2155321502
  0
LINE
  5
22F
100
AcDbEntity
  8
0
100
AcDbLine
 62
253
  6
CONTINUOUS
 10
8.4058227201
 20
-23.9655363809
 11
10.7970790521
 21
-23.9655363809
  0
LINE
  5
230
100
AcDbEntity
  8
0
100
AcDbLine
 62
253
  6
CONTINUOUS
 10
-8.1029209479
 20
-23.9655363809
 11
-10.4941772799
 21
-23.9655363809
  0
LINE
  5
231
100
AcDbEntity
  8
RACCORDO
100
AcDbLine
 62
253
  6
CONTINUOUS
 10
8.4058227201
 20
-23.9655363809
 11
10.7970790521
 21
-23.9655363809
  0
LINE
  5
232
100
AcDbEntity
  8
RACCORDO
100
AcDbLine
 62
253
  6
CONTINUOUS
 10
-8.1029209479
 20
-23.9655363809
 11
-10.4941772799
 21
-23.9655363809
  0
LINE
  5
233
100
AcDbEntity
  8
0
100
AcDbLine
 62
253
  6
CONTINUOUS
 10
-8.1029209479
 20
-23.5642415515
 11
-10.4941772799
 21
-23.5642415515
  0
LINE
  5
234
100
AcDbEntity
  8
RACCORDO
100
AcDbLine
 62
253
  6
CONTINUOUS
 10
8.4058227201
 20
-23.5642415515
 11
10.7970790521
 21
-23.5642415515
  0
LINE
  5
235
100
AcDbEntity
  8
RACCORDO
100
AcDbLine
 62
253
  6
CONTINUOUS
 10
-8.1029209479
 20
-23.5642415515
 11
-10.4941772799
 21
-23.5642415515
  0
LINE
  5
236
100
AcDbEntity
  8
0
100
AcDbLine
 62
7
  6
CONTINUOUS
 10
-4.2485491139
 20
-23.5199039842
 11
4.5514508861
 21
-23.5199039842
  0
LINE
  5
237
100
AcDbEntity
  8
DRAFT
100
AcDbLine
 62
7
  6
CONTINUOUS
 10
-4.2485491139
 20
-23.5199039842
 11
4.5514508861
 21
-23.5199039842
  0
LINE
  5
238
100
AcDbEntity
  8
0
100
AcDbLine
 62
7
  6
CONTINUOUS
 10
-3.3485491139
 20
-23.5140861543
 11
3.6514508861
 21
-23.5140861543
  0
LINE
  5
239
100
AcDbEntity
  8
DRAFT
100
AcDbLine
 62
7
  6
CONTINUOUS
 10
3.6514508861
 20
-23.5140861543
 11
-3.3485491139
 21
-23.5140861543
  0
LINE
  5
23A
100
AcDbEntity
  8
0
100
AcDbLine
 62
253
  6
CONTINUOUS
 10
-4.204898467
 20
-23.4762533373
 11
-3.3485491139
 21
-23.4762533373
  0
LINE
  5
23B
100
AcDbEntity
  8
ASSI
100
AcDbLine
 62
253
  6
CONTINUOUS
 10
4.5078002393
 20
-23.4762533373
 11
3.6514508861
 21
-23.4762533373
  0
LINE
  5
23C
100
AcDbEntity
  8
0
100
AcDbLine
 62
253
  6
CONTINUOUS
 10
3.6514508861
 20
-23.4762533373
 11
4.5078002393
 21
-23.4762533373
  0
LINE
  5
23D
100
AcDbEntity
  8
ASSI
100
AcDbLine
 62
253
  6
CONTINUOUS
 10
-3.3485491139
 20
-23.4762533373
 11
-4.204898467
 21
-23.4762533373
  0
LINE
  5
23E
100
AcDbEntity
  8
0
100
AcDbLine
 62
7
  6
CONTINUOUS
 10
8.6558184894
 20
-23.4199039842
 11
10.5470832829
 21
-23.4199039842
  0
LINE
  5
23F
100
AcDbEntity
  8
RACCORDO
100
AcDbLine
 62
253
  6
CONTINUOUS
 10
10.5470832829
 20
-23.3477352005
 11
8.6558184894
 21
-23.3477352005
  0
LINE
  5
240
100
AcDbEntity
  8
0
100
AcDbLine
 62
253
  6
CONTINUOUS
 10
-8.3529167171
 20
-23.3477352005
 11
-10.2441815106
 21
-23.3477352005
  0
LINE
  5
241
100
AcDbEntity
  8
RACCORDO
100
AcDbLine
 62
253
  6
CONTINUOUS
 10
-8.3529167171
 20
-23.3477352005
 11
-10.2441815106
 21
-23.3477352005
  0
LINE
  5
242
100
AcDbEntity
  8
RACCORDO
100
AcDbLine
 62
7
  6
CONTINUOUS
 10
-10.2492721117
 20
-22.842553715
 11
-8.347826116
 21
-22.842553715
  0
LINE
  5
243
100
AcDbEntity
  8
0
100
AcDbLine
 62
7
  6
CONTINUOUS
 10
10.552173884
 20
-22.842553715
 11
8.6507278883
 21
-22.842553715
  0
LINE
  5
244
100
AcDbEntity
  8
RACCORDO
100
AcDbLine
 62
7
  6
CONTINUOUS
 10
8.6507278883
 20
-22.842553715
 11
10.552173884
 21
-22.842553715
  0
LINE
  5
245
100
AcDbEntity
  8
0
100
AcDbLine
 62
7
  6
CONTINUOUS
 10
-8.347826116
 20
-22.842553715
 11
-10.2492721117
 21
-22.842553715
  0
LINE
  5
246
100
AcDbEntity
  8
0
100
AcDbLine
 62
253
  6
CONTINUOUS
 10
-10.4809417238
 20
-22.1286308519
 11
-10.4983967887
 21
-22.1199039842
  0
LINE
  5
247
100
AcDbEntity
  8
RACCORDO
100
AcDbLine
 62
253
  6
CONTINUOUS
 10
-10.4809417238
 20
-22.1286308519
 11
-10.4983967887
 21
-22.1199039842
  0
LINE
  5
248
100
AcDbEntity
  8
0
100
AcDbLine
 62
253
  6
CONTINUOUS
 10
-8.3529167171
 20
-24.2155321502
 11
-8.3485448831
 21
-24.2199039842
  0
LINE
  5
249
100
AcDbEntity
  8
RACCORDO
100
AcDbLine
 62
253
  6
CONTINUOUS
 10
-8.3529167171
 20
-24.2155321502
 11
-8.3485448831
 21
-24.2199039842
  0
LINE
  5
24A
100
AcDbEntity
  8
0
100
AcDbLine
 62
253
  6
CONTINUOUS
 10
-8.1029209479
 20
24.5257284126
 11
-8.0985491139
 21
24.5301002466
  0
LINE
  5
24B
100
AcDbEntity
  8
RACCORDO
100
AcDbLine
 62
253
  6
CONTINUOUS
 10
-8.1029209479
 20
24.5257284126
 11
-8.0985491139
 21
24.5301002466
  0
LINE
  5
24C
100
AcDbEntity
  8
GUSCI_ESTERNI
100
AcDbLine
 62
7
  6
CONTINUOUS
 10
5.6014508861
 20
-21.3199039842
 11
8.5269816059
 21
-21.2943732643
  0
LINE
  5
24D
100
AcDbEntity
  8
ASSI
100
AcDbLine
 62
7
  6
CONTINUOUS
 10
5.6014508861
 20
-21.3199039842
 11
8.5269816059
 21
-21.2943732643
  0
LINE
  5
24E
100
AcDbEntity
  8
0
100
AcDbLine
 62
7
  6
CONTINUOUS
 10
10.7838434961
 20
-22.1286308519
 11
8.2599020511
 21
-22.1286308519
  0
LINE
  5
24F
100
AcDbEntity
  8
RACCORDO
100
AcDbLine
 62
7
  6
CONTINUOUS
 10
10.7838434961
 20
-22.1286308519
 11
8.2599020511
 21
-22.1286308519
  0
LINE
  5
250
100
AcDbEntity
  8
0
100
AcDbLine
 62
7
  6
CONTINUOUS
 10
-7.9570002788
 20
-22.1286308519
 11
-10.4809417238
 21
-22.1286308519
  0
LINE
  5
251
100
AcDbEntity
  8
RACCORDO
100
AcDbLine
 62
7
  6
CONTINUOUS
 10
-7.9570002788
 20
-22.1286308519
 11
-10.4809417238
 21
-22.1286308519
  0
LINE
  5
252
100
AcDbEntity
  8
0
100
AcDbLine
 62
7
  6
CONTINUOUS
 10
-7.8977761401
 20
-22.1273851063
 11
-4.2477186285
 21
-22.1273851063
  0
LINE
  5
253
100
AcDbEntity
  8
RACCORDO
100
AcDbLine
 62
7
  6
CONTINUOUS
 10
8.2006779124
 20
-22.1273851063
 11
4.5506204007
 21
-22.1273851063
  0
LINE
  5
254
100
AcDbEntity
  8
0
100
AcDbLine
 62
7
  6
CONTINUOUS
 10
4.5506204007
 20
-22.1273851063
 11
8.2006779124
 21
-22.1273851063
  0
LINE
  5
255
100
AcDbEntity
  8
RACCORDO
100
AcDbLine
 62
7
  6
CONTINUOUS
 10
-4.2477186285
 20
-22.1273851063
 11
-7.8977761401
 21
-22.1273851063
  0
LINE
  5
256
100
AcDbEntity
  8
0
100
AcDbLine
 62
7
  6
CONTINUOUS
 10
-10.4983967887
 20
-22.1199039842
 11
-7.0985491139
 21
-22.1199039842
  0
LINE
  5
257
100
AcDbEntity
  8
RACCORDO
100
AcDbLine
 62
7
  6
CONTINUOUS
 10
-10.4983967887
 20
-22.1199039842
 11
-7.0985491139
 21
-22.1199039842
  0
LINE
  5
258
100
AcDbEntity
  8
0
100
AcDbLine
 62
7
  6
CONTINUOUS
 10
-3.3485491139
 20
-22.1199039842
 11
-2.8485491139
 21
-22.1199039842
  0
LINE
  5
259
100
AcDbEntity
  8
DRAFT
100
AcDbLine
 62
7
  6
CONTINUOUS
 10
-3.3485491139
 20
-22.1199039842
 11
-2.8485491139
 21
-22.1199039842
  0
LINE
  5
25A
100
AcDbEntity
  8
0
100
AcDbLine
 62
7
  6
CONTINUOUS
 10
3.1514508861
 20
-22.1199039842
 11
3.6514508861
 21
-22.1199039842
  0
LINE
  5
25B
100
AcDbEntity
  8
DRAFT
100
AcDbLine
 62
7
  6
CONTINUOUS
 10
3.1514508861
 20
-22.1199039842
 11
3.6514508861
 21
-22.1199039842
  0
LINE
  5
25C
100
AcDbEntity
  8
0
100
AcDbLine
 62
7
  6
CONTINUOUS
 10
7.4014508861
 20
-22.1199039842
 11
10.801298561
 21
-22.1199039842
  0
LINE
  5
25D
100
AcDbEntity
  8
RACCORDO
100
AcDbLine
 62
7
  6
CONTINUOUS
 10
7.4014508861
 20
-22.1199039842
 11
10.801298561
 21
-22.1199039842
  0
LINE
  5
25E
100
AcDbEntity
  8
0
100
AcDbLine
 62
253
  6
CONTINUOUS
 10
-7.1771670793
 20
-22.0412860187
 11
-2.8485491139
 21
-22.0412860187
  0
LINE
  5
25F
100
AcDbEntity
  8
RACCORDO
100
AcDbLine
 62
253
  6
CONTINUOUS
 10
-7.1771670793
 20
-22.0412860187
 11
-2.8485491139
 21
-22.0412860187
  0
LINE
  5
260
100
AcDbEntity
  8
0
100
AcDbLine
 62
253
  6
CONTINUOUS
 10
3.1514508861
 20
-22.0412860187
 11
7.4800688516
 21
-22.0412860187
  0
LINE
  5
261
100
AcDbEntity
  8
RACCORDO
100
AcDbLine
 62
253
  6
CONTINUOUS
 10
3.1514508861
 20
-22.0412860187
 11
7.4800688516
 21
-22.0412860187
  0
LINE
  5
262
100
AcDbEntity
  8
ASSI
100
AcDbLine
 62
7
  6
CONTINUOUS
 10
-5.2985491139
 20
-21.4786308519
 11
5.6014508861
 21
-21.4786308519
  0
LINE
  5
263
100
AcDbEntity
  8
ASSI
100
AcDbLine
 62
7
  6
CONTINUOUS
 10
-5.2985491139
 20
-21.4223425547
 11
-7.598549542
 21
-21.402270755
  0
LINE
  5
264
100
AcDbEntity
  8
GUSCI_ESTERNI
100
AcDbLine
 62
7
  6
CONTINUOUS
 10
-5.2985491139
 20
-21.2199039842
 11
-8.2240798337
 21
-21.1943732643
  0
LINE
  5
265
100
AcDbEntity
  8
0
100
AcDbLine
 62
253
  6
CONTINUOUS
 10
-8.1029209479
 20
-23.9655363809
 11
-8.0985491139
 21
-23.9699082149
  0
LINE
  5
266
100
AcDbEntity
  8
RACCORDO
100
AcDbLine
 62
253
  6
CONTINUOUS
 10
-8.1029209479
 20
-23.9655363809
 11
-8.0985491139
 21
-23.9699082149
  0
LINE
  5
267
100
AcDbEntity
  8
GUSCI_ESTERNI
100
AcDbLine
 62
7
  6
CONTINUOUS
 10
-10.6985491139
 20
19.2800960158
 11
-8.2240798337
 21
21.754565296
  0
LINE
  5
268
100
AcDbEntity
  8
0
100
AcDbLine
 62
7
  6
CONTINUOUS
 10
-10.6985491139
 20
19.2300960158
 11
-11.0212406983
 21
18.9074044314
  0
LINE
  5
269
100
AcDbEntity
  8
DRAFT
100
AcDbLine
 62
7
  6
CONTINUOUS
 10
-10.6985491139
 20
19.2300960158
 11
-11.0212406983
 21
18.9074044314
  0
LINE
  5
26A
100
AcDbEntity
  8
0
100
AcDbLine
 62
7
  6
CONTINUOUS
 10
-8.0223190944
 20
21.7563260353
 11
-7.0985491139
 21
22.6800960158
  0
LINE
  5
26B
100
AcDbEntity
  8
RACCORDO
100
AcDbLine
 62
7
  6
CONTINUOUS
 10
-8.0223190944
 20
21.7563260353
 11
-7.0985491139
 21
22.6800960158
  0
LINE
  5
26C
100
AcDbEntity
  8
GUSCI_ESTERNI
100
AcDbLine
 62
253
  6
CONTINUOUS
 10
5.6014508861
 20
-20.3199420611
 11
9.5357468903
 21
-20.28560798
  0
LINE
  5
26D
100
AcDbEntity
  8
ASSI
100
AcDbLine
 62
253
  6
CONTINUOUS
 10
5.6014508861
 20
-20.3199420611
 11
9.5357468903
 21
-20.28560798
  0
LINE
  5
26E
100
AcDbEntity
  8
GUSCI_ESTERNI
100
AcDbLine
 62
7
  6
CONTINUOUS
 10
11.0014508861
 20
-19.2010543517
 11
10.6189653869
 21
-19.2023894834
  0
LINE
  5
26F
100
AcDbEntity
  8
ASSI
100
AcDbLine
 62
7
  6
CONTINUOUS
 10
11.0014508861
 20
-19.2010543517
 11
10.6189653869
 21
-19.2023894834
  0
LINE
  5
270
100
AcDbEntity
  8
0
100
AcDbLine
 62
7
  6
CONTINUOUS
 10
-9.4985491139
 20
-20.6199039842
 11
-8.7985491139
 21
-20.6199039842
  0
LINE
  5
271
100
AcDbEntity
  8
DRAFT
100
AcDbLine
 62
7
  6
CONTINUOUS
 10
9.8014508861
 20
-20.6199039842
 11
9.2014508861
 21
-20.6199039842
  0
LINE
  5
272
100
AcDbEntity
  8
0
100
AcDbLine
 62
7
  6
CONTINUOUS
 10
9.2014508861
 20
-20.6199039842
 11
9.8014508861
 21
-20.6199039842
  0
LINE
  5
273
100
AcDbEntity
  8
DRAFT
100
AcDbLine
 62
7
  6
CONTINUOUS
 10
-8.7985491139
 20
-20.6199039842
 11
-9.4985491139
 21
-20.6199039842
  0
LINE
  5
274
100
AcDbEntity
  8
0
100
AcDbLine
 62
253
  6
CONTINUOUS
 10
9.6582431926
 20
-20.5483055906
 11
9.2730492797
 21
-20.5483055906
  0
LINE
  5
275
100
AcDbEntity
  8
RACCORDO
100
AcDbLine
 62
253
  6
CONTINUOUS
 10
-9.3553414203
 20
-20.5483055906
 11
-8.8701475074
 21
-20.5483055906
  0
LINE
  5
276
100
AcDbEntity
  8
0
100
AcDbLine
 62
253
  6
CONTINUOUS
 10
-8.8701475074
 20
-20.5483055906
 11
-9.3553414203
 21
-20.5483055906
  0
LINE
  5
277
100
AcDbEntity
  8
RACCORDO
100
AcDbLine
 62
253
  6
CONTINUOUS
 10
9.2730492797
 20
-20.5483055906
 11
9.6582431926
 21
-20.5483055906
  0
LINE
  5
278
100
AcDbEntity
  8
ASSI
100
AcDbLine
 62
253
  6
CONTINUOUS
 10
5.6014508861
 20
-20.4785927736
 11
-5.2985491139
 21
-20.4785927736
  0
LINE
  5
279
100
AcDbEntity
  8
GUSCI_ESTERNI
100
AcDbLine
 62
253
  6
CONTINUOUS
 10
-5.2985491139
 20
-20.2199420611
 11
-9.232845118
 21
-20.18560798
  0
LINE
  5
27A
100
AcDbEntity
  8
GUSCI_ESTERNI
100
AcDbLine
 62
7
  6
CONTINUOUS
 10
-8.2240798337
 20
-21.1943732643
 11
-10.6985491139
 21
-18.7199039842
  0
LINE
  5
27B
100
AcDbEntity
  8
0
100
AcDbLine
 62
7
  6
CONTINUOUS
 10
-11.0212406983
 20
-18.3472123998
 11
-10.6985491139
 21
-18.6699039842
  0
LINE
  5
27C
100
AcDbEntity
  8
DRAFT
100
AcDbLine
 62
7
  6
CONTINUOUS
 10
-11.0212406983
 20
-18.3472123998
 11
-10.6985491139
 21
-18.6699039842
  0
LINE
  5
27D
100
AcDbEntity
  8
0
100
AcDbLine
 62
7
  6
CONTINUOUS
 10
-7.0985491139
 20
-22.1199039842
 11
-8.0223190944
 21
-21.1961340036
  0
LINE
  5
27E
100
AcDbEntity
  8
RACCORDO
100
AcDbLine
 62
7
  6
CONTINUOUS
 10
-7.0985491139
 20
-22.1199039842
 11
-8.0223190944
 21
-21.1961340036
  0
LINE
  5
27F
100
AcDbEntity
  8
GUSCI_ESTERNI
100
AcDbLine
 62
7
  6
CONTINUOUS
 10
8.5014508861
 20
-18.3899039842
 11
5.6014508861
 21
-18.3899039842
  0
LINE
  5
280
100
AcDbEntity
  8
ASSI
100
AcDbLine
 62
7
  6
CONTINUOUS
 10
8.5014508861
 20
-18.3899039842
 11
5.6014508861
 21
-18.3899039842
  0
LINE
  5
281
100
AcDbEntity
  8
ASSI
100
AcDbLine
 62
7
  6
CONTINUOUS
 10
-5.2985491139
 20
-18.3699039842
 11
5.6014508861
 21
-18.3699039842
  0
LINE
  5
282
100
AcDbEntity
  8
GUSCI_ESTERNI
100
AcDbLine
 62
7
  6
CONTINUOUS
 10
-5.2985491139
 20
-18.3699039842
 11
-8.1985491139
 21
-18.3699039842
  0
LINE
  5
283
100
AcDbEntity
  8
ASSI
100
AcDbLine
 62
7
  6
CONTINUOUS
 10
5.6014508861
 20
-18.3524502486
 11
-5.2985491139
 21
-18.3524502486
  0
LINE
  5
284
100
AcDbEntity
  8
GUSCI_ESTERNI
100
AcDbLine
 62
7
  6
CONTINUOUS
 10
5.6014508861
 20
-16.8699039842
 11
8.7514508861
 21
-16.8630315758
  0
LINE
  5
285
100
AcDbEntity
  8
ASSI
100
AcDbLine
 62
7
  6
CONTINUOUS
 10
5.6014508861
 20
-16.8699039842
 11
8.7514508861
 21
-16.8630315758
  0
LINE
  5
286
100
AcDbEntity
  8
GUSCI_ESTERNI
100
AcDbLine
 62
7
  6
CONTINUOUS
 10
5.6014508861
 20
-17.3949039842
 11
8.8014508861
 21
-17.3949039842
  0
LINE
  5
287
100
AcDbEntity
  8
ASSI
100
AcDbLine
 62
7
  6
CONTINUOUS
 10
5.6014508861
 20
-17.3949039842
 11
8.8014508861
 21
-17.3949039842
  0
LINE
  5
288
100
AcDbEntity
  8
ASSI
100
AcDbLine
 62
7
  6
CONTINUOUS
 10
-5.2985491139
 20
-17.3873577197
 11
-2.0810382629
 21
-17.3873577197
  0
LINE
  5
289
100
AcDbEntity
  8
ASSI
100
AcDbLine
 62
7
  6
CONTINUOUS
 10
5.6014508861
 20
-17.3873577197
 11
2.3839400352
 21
-17.3873577197
  0
LINE
  5
28A
100
AcDbEntity
  8
GUSCI_ESTERNI
100
AcDbLine
 62
7
  6
CONTINUOUS
 10
-8.4985491139
 20
-17.3699039842
 11
-5.2985491139
 21
-17.3699039842
  0
LINE
  5
28B
100
AcDbEntity
  8
ASSI
100
AcDbLine
 62
7
  6
CONTINUOUS
 10
-5.2985491139
 20
-17.3699039842
 11
-2.0984919985
 21
-17.3699039842
  0
LINE
  5
28C
100
AcDbEntity
  8
ASSI
100
AcDbLine
 62
7
  6
CONTINUOUS
 10
5.6014508861
 20
-17.3699039842
 11
2.4013937707
 21
-17.3699039842
  0
LINE
  5
28D
100
AcDbEntity
  8
ASSI
100
AcDbLine
 62
7
  6
CONTINUOUS
 10
5.6014508861
 20
-16.8699039842
 11
2.4014508861
 21
-16.8699039842
  0
LINE
  5
28E
100
AcDbEntity
  8
DRAFT
100
AcDbLine
 62
7
  6
CONTINUOUS
 10
-8.2985491139
 20
-16.7699039842
 11
-5.2985491139
 21
-16.7699039842
  0
LINE
  5
28F
100
AcDbEntity
  8
GUSCI_ESTERNI
100
AcDbLine
 62
7
  6
CONTINUOUS
 10
5.6014508861
 20
-16.6199039842
 11
8.7514508861
 21
-16.6199039842
  0
LINE
  5
290
100
AcDbEntity
  8
ASSI
100
AcDbLine
 62
7
  6
CONTINUOUS
 10
2.4014508861
 20
-16.6199039842
 11
8.7514508861
 21
-16.6199039842
  0
LINE
  5
291
100
AcDbEntity
  8
GUSCI_ESTERNI
100
AcDbLine
 62
253
  6
CONTINUOUS
 10
-9.4803023102
 20
-16.1199039842
 11
-9.3645745176
 21
-16.1199039842
  0
LINE
  5
292
100
AcDbEntity
  8
GUSCI_ESTERNI
100
AcDbLine
 62
253
  6
CONTINUOUS
 10
9.7424164713
 20
-15.8699039842
 11
9.7196967227
 21
-15.8699039842
  0
LINE
  5
293
100
AcDbEntity
  8
ASSI
100
AcDbLine
 62
253
  6
CONTINUOUS
 10
9.7424164713
 20
-15.8699039842
 11
9.7196967227
 21
-15.8699039842
  0
LINE
  5
294
100
AcDbEntity
  8
GUSCI_ESTERNI
100
AcDbLine
 62
7
  6
CONTINUOUS
 10
-5.2985491139
 20
-17.1199039842
 11
-8.4985491139
 21
-17.1059409957
  0
LINE
  5
295
100
AcDbEntity
  8
ASSI
100
AcDbLine
 62
7
  6
CONTINUOUS
 10
0.1556620094
 20
22.0343071391
 11
0.1601015986
 21
22.0387467283
  0
LINE
  5
296
100
AcDbEntity
  8
RACCORDO
100
AcDbLine
 62
7
  6
CONTINUOUS
 10
9.8014508861
 20
21.1800960158
 11
9.6582431926
 21
21.1084976223
  0
LINE
  5
297
100
AcDbEntity
  8
0
100
AcDbLine
 62
7
  6
CONTINUOUS
 10
9.6582431926
 20
21.1084976223
 11
9.8014508861
 21
21.1800960158
  0
LINE
  5
298
100
AcDbEntity
  8
GUSCI_ESTERNI
100
AcDbLine
 62
253
  6
CONTINUOUS
 10
9.7424164713
 20
-13.8699039842
 11
9.7196967227
 21
-13.8699039842
  0
LINE
  5
299
100
AcDbEntity
  8
ASSI
100
AcDbLine
 62
253
  6
CONTINUOUS
 10
9.7424164713
 20
-13.8699039842
 11
9.7196967227
 21
-13.8699039842
  0
LINE
  5
29A
100
AcDbEntity
  8
GUSCI_ESTERNI
100
AcDbLine
 62
7
  6
CONTINUOUS
 10
-9.4985491139
 20
-14.8832511394
 11
-9.2985491139
 21
-14.884996513
  0
LINE
  5
29B
100
AcDbEntity
  8
GUSCI_ESTERNI
100
AcDbLine
 62
7
  6
CONTINUOUS
 10
-9.4985491139
 20
-14.3941597242
 11
-9.2985491139
 21
-14.3959050977
  0
LINE
  5
29C
100
AcDbEntity
  8
0
100
AcDbLine
 62
7
  6
CONTINUOUS
 10
9.8014508861
 20
-20.6199039842
 11
9.6582431926
 21
-20.5483055906
  0
LINE
  5
29D
100
AcDbEntity
  8
RACCORDO
100
AcDbLine
 62
7
  6
CONTINUOUS
 10
9.6582431926
 20
-20.5483055906
 11
9.8014508861
 21
-20.6199039842
  0
LINE
  5
29E
100
AcDbEntity
  8
0
100
AcDbLine
 62
7
  6
CONTINUOUS
 10
4.5514508861
 20
24.0800960158
 11
4.5078002393
 21
24.036445369
  0
LINE
  5
29F
100
AcDbEntity
  8
ASSI
100
AcDbLine
 62
7
  6
CONTINUOUS
 10
4.5514508861
 20
24.0800960158
 11
4.5078002393
 21
24.036445369
  0
LINE
  5
2A0
100
AcDbEntity
  8
GUSCI_ESTERNI
100
AcDbLine
 62
7
  6
CONTINUOUS
 10
-5.2985491139
 20
-12.6199039842
 11
-8.4985491139
 21
-12.6338669726
  0
LINE
  5
2A1
100
AcDbEntity
  8
GUSCI_ESTERNI
100
AcDbLine
 62
253
  6
CONTINUOUS
 10
-9.4803023102
 20
-13.6199039842
 11
-9.3645745176
 21
-13.6199039842
  0
LINE
  5
2A2
100
AcDbEntity
  8
0
100
AcDbLine
 62
7
  6
CONTINUOUS
 10
1.6874444544
 20
-13.4199039842
 11
2.8514508861
 21
-13.4199039842
  0
LINE
  5
2A3
100
AcDbEntity
  8
0
100
AcDbLine
 62
7
  6
CONTINUOUS
 10
8.3514508861
 20
-13.4199039842
 11
9.4653426845
 21
-13.4199039842
  0
LINE
  5
2A4
100
AcDbEntity
  8
GUSCI_ESTERNI
100
AcDbLine
 62
7
  6
CONTINUOUS
 10
8.7514508861
 20
-13.1199039842
 11
5.6014508861
 21
-13.1199039842
  0
LINE
  5
2A5
100
AcDbEntity
  8
ASSI
100
AcDbLine
 62
7
  6
CONTINUOUS
 10
2.4014508861
 20
-13.1199039842
 11
8.7514508861
 21
-13.1199039842
  0
LINE
  5
2A6
100
AcDbEntity
  8
DRAFT
100
AcDbLine
 62
7
  6
CONTINUOUS
 10
-5.2985491139
 20
-12.9699039842
 11
-8.2985491139
 21
-12.9699039842
  0
LINE
  5
2A7
100
AcDbEntity
  8
ASSI
100
AcDbLine
 62
7
  6
CONTINUOUS
 10
2.4014508861
 20
-12.8699039842
 11
5.6014508861
 21
-12.8699039842
  0
LINE
  5
2A8
100
AcDbEntity
  8
ASSI
100
AcDbLine
 62
7
  6
CONTINUOUS
 10
-5.2985491139
 20
-12.3699039842
 11
-2.0984919985
 21
-12.3699039842
  0
LINE
  5
2A9
100
AcDbEntity
  8
ASSI
100
AcDbLine
 62
7
  6
CONTINUOUS
 10
5.6014508861
 20
-12.3699039842
 11
2.4013937707
 21
-12.3699039842
  0
LINE
  5
2AA
100
AcDbEntity
  8
GUSCI_ESTERNI
100
AcDbLine
 62
7
  6
CONTINUOUS
 10
-5.2985491139
 20
-12.3699039842
 11
-8.4985491139
 21
-12.3699039842
  0
LINE
  5
2AB
100
AcDbEntity
  8
ASSI
100
AcDbLine
 62
7
  6
CONTINUOUS
 10
-5.2985491139
 20
-12.3524502486
 11
-2.0810382629
 21
-12.3524502486
  0
LINE
  5
2AC
100
AcDbEntity
  8
ASSI
100
AcDbLine
 62
7
  6
CONTINUOUS
 10
5.6014508861
 20
-12.3524502486
 11
2.3839400352
 21
-12.3524502486
  0
LINE
  5
2AD
100
AcDbEntity
  8
GUSCI_ESTERNI
100
AcDbLine
 62
7
  6
CONTINUOUS
 10
8.8014508861
 20
-12.3449039842
 11
5.6014508861
 21
-12.3449039842
  0
LINE
  5
2AE
100
AcDbEntity
  8
ASSI
100
AcDbLine
 62
7
  6
CONTINUOUS
 10
8.8014508861
 20
-12.3449039842
 11
5.6014508861
 21
-12.3449039842
  0
LINE
  5
2AF
100
AcDbEntity
  8
GUSCI_ESTERNI
100
AcDbLine
 62
7
  6
CONTINUOUS
 10
5.6014508861
 20
-12.8699039842
 11
8.7514508861
 21
-12.8767763925
  0
LINE
  5
2B0
100
AcDbEntity
  8
ASSI
100
AcDbLine
 62
7
  6
CONTINUOUS
 10
5.6014508861
 20
-12.8699039842
 11
8.7514508861
 21
-12.8767763925
  0
LINE
  5
2B1
100
AcDbEntity
  8
ASSI
100
AcDbLine
 62
253
  6
CONTINUOUS
 10
-2.0984919985
 20
-17.3699039842
 11
-2.0810382629
 21
-17.3873577197
  0
LINE
  5
2B2
100
AcDbEntity
  8
0
100
AcDbLine
 62
7
  6
CONTINUOUS
 10
4.5514508861
 20
-23.5199039842
 11
4.5078002393
 21
-23.4762533373
  0
LINE
  5
2B3
100
AcDbEntity
  8
ASSI
100
AcDbLine
 62
7
  6
CONTINUOUS
 10
4.5514508861
 20
-23.5199039842
 11
4.5078002393
 21
-23.4762533373
  0
LINE
  5
2B4
100
AcDbEntity
  8
DRAFT
100
AcDbLine
 62
7
  6
CONTINUOUS
 10
-11.0212406983
 20
11.7800960158
 11
-10.8973097373
 21
4.4278307879
  0
LINE
  5
2B5
100
AcDbEntity
  8
0
100
AcDbLine
 62
7
  6
CONTINUOUS
 10
-10.8973097373
 20
4.4278307879
 11
-11.0212406983
 21
11.7800960158
  0
LINE
  5
2B6
100
AcDbEntity
  8
0
100
AcDbLine
 62
253
  6
CONTINUOUS
 10
-10.4941772799
 20
-23.5642415515
 11
-10.4985491139
 21
-23.1303891324
  0
LINE
  5
2B7
100
AcDbEntity
  8
RACCORDO
100
AcDbLine
 62
253
  6
CONTINUOUS
 10
-10.4941772799
 20
-23.5642415515
 11
-10.4985491139
 21
-23.1303891324
  0
LINE
  5
2B8
100
AcDbEntity
  8
0
100
AcDbLine
 62
253
  6
CONTINUOUS
 10
-10.2441815106
 20
-23.3477352005
 11
-10.2492721117
 21
-22.842553715
  0
LINE
  5
2B9
100
AcDbEntity
  8
RACCORDO
100
AcDbLine
 62
253
  6
CONTINUOUS
 10
-10.2441815106
 20
-23.3477352005
 11
-10.2492721117
 21
-22.842553715
  0
LINE
  5
2BA
100
AcDbEntity
  8
0
100
AcDbLine
 62
7
  6
CONTINUOUS
 10
-11.0212406983
 20
18.9074044314
 11
-11.0212406983
 21
11.7800960158
  0
LINE
  5
2BB
100
AcDbEntity
  8
0
100
AcDbLine
 62
7
  6
CONTINUOUS
 10
-11.0212406983
 20
-11.2199039842
 11
-11.0212406983
 21
-18.3472123998
  0
LINE
  5
2BC
100
AcDbEntity
  8
DRAFT
100
AcDbLine
 62
7
  6
CONTINUOUS
 10
-11.0212406983
 20
-18.3472123998
 11
-11.0212406983
 21
-11.2199039842
  0
LINE
  5
2BD
100
AcDbEntity
  8
DRAFT
100
AcDbLine
 62
7
  6
CONTINUOUS
 10
-11.0212406983
 20
11.7800960158
 11
-11.0212406983
 21
18.9074044314
  0
LINE
  5
2BE
100
AcDbEntity
  8
0
100
AcDbLine
 62
7
  6
CONTINUOUS
 10
-10.9985491139
 20
-21.6198087925
 11
-10.9985491139
 21
-18.3699039842
  0
LINE
  5
2BF
100
AcDbEntity
  8
RACCORDO
100
AcDbLine
 62
7
  6
CONTINUOUS
 10
-10.9985491139
 20
-21.6198087925
 11
-10.9985491139
 21
-18.3699039842
  0
LINE
  5
2C0
100
AcDbEntity
  8
0
100
AcDbLine
 62
7
  6
CONTINUOUS
 10
-10.9985491139
 20
18.9300960158
 11
-10.9985491139
 21
22.1800008242
  0
LINE
  5
2C1
100
AcDbEntity
  8
RACCORDO
100
AcDbLine
 62
7
  6
CONTINUOUS
 10
-10.9985491139
 20
18.9300960158
 11
-10.9985491139
 21
22.1800008242
  0
LINE
  5
2C2
100
AcDbEntity
  8
0
100
AcDbLine
 62
7
  6
CONTINUOUS
 10
-10.8973097373
 20
4.4278307879
 11
-10.8973097373
 21
-3.8676387562
  0
LINE
  5
2C3
100
AcDbEntity
  8
DRAFT
100
AcDbLine
 62
7
  6
CONTINUOUS
 10
-10.8973097373
 20
4.4278307879
 11
-10.8973097373
 21
-3.8676387562
  0
LINE
  5
2C4
100
AcDbEntity
  8
0
100
AcDbLine
 62
253
  6
CONTINUOUS
 10
-10.7985491139
 20
-3.8676387562
 11
-10.7985491139
 21
4.4278307879
  0
LINE
  5
2C5
100
AcDbEntity
  8
RACCORDO
100
AcDbLine
 62
253
  6
CONTINUOUS
 10
-10.7985491139
 20
-3.8676387562
 11
-10.7985491139
 21
4.4278307879
  0
LINE
  5
2C6
100
AcDbEntity
  8
GUSCI_ESTERNI
100
AcDbLine
 62
7
  6
CONTINUOUS
 10
-10.6985491139
 20
-18.7199039842
 11
-10.6985491139
 21
19.2800960158
  0
LINE
  5
2C7
100
AcDbEntity
  8
0
100
AcDbLine
 62
7
  6
CONTINUOUS
 10
-10.4985491139
 20
-22.2856160296
 11
-10.4985491139
 21
-23.9699082149
  0
LINE
  5
2C8
100
AcDbEntity
  8
RACCORDO
100
AcDbLine
 62
7
  6
CONTINUOUS
 10
-10.4985491139
 20
-22.2856160296
 11
-10.4985491139
 21
-23.9699082149
  0
LINE
  5
2C9
100
AcDbEntity
  8
0
100
AcDbLine
 62
7
  6
CONTINUOUS
 10
-10.4985491139
 20
22.8458080613
 11
-10.4985491139
 21
24.5301002466
  0
LINE
  5
2CA
100
AcDbEntity
  8
RACCORDO
100
AcDbLine
 62
7
  6
CONTINUOUS
 10
-10.4985491139
 20
22.8458080613
 11
-10.4985491139
 21
24.5301002466
  0
LINE
  5
2CB
100
AcDbEntity
  8
0
100
AcDbLine
 62
253
  6
CONTINUOUS
 10
-10.4941772799
 20
24.5257284126
 11
-10.4941772799
 21
24.1244335831
  0
LINE
  5
2CC
100
AcDbEntity
  8
RACCORDO
100
AcDbLine
 62
253
  6
CONTINUOUS
 10
-10.4941772799
 20
24.5257284126
 11
-10.4941772799
 21
24.1244335831
  0
LINE
  5
2CD
100
AcDbEntity
  8
0
100
AcDbLine
 62
253
  6
CONTINUOUS
 10
-10.4941772799
 20
-23.5642415515
 11
-10.4941772799
 21
-23.9655363809
  0
LINE
  5
2CE
100
AcDbEntity
  8
RACCORDO
100
AcDbLine
 62
253
  6
CONTINUOUS
 10
-10.4941772799
 20
-23.5642415515
 11
-10.4941772799
 21
-23.9655363809
  0
LINE
  5
2CF
100
AcDbEntity
  8
0
100
AcDbLine
 62
253
  6
CONTINUOUS
 10
-10.4985491139
 20
23.6905811641
 11
-10.4941772799
 21
24.1244335831
  0
LINE
  5
2D0
100
AcDbEntity
  8
RACCORDO
100
AcDbLine
 62
253
  6
CONTINUOUS
 10
-10.4985491139
 20
23.6905811641
 11
-10.4941772799
 21
24.1244335831
  0
LINE
  5
2D1
100
AcDbEntity
  8
0
100
AcDbLine
 62
253
  6
CONTINUOUS
 10
-10.2492721117
 20
23.4027457467
 11
-10.2441815106
 21
23.9079272322
  0
LINE
  5
2D2
100
AcDbEntity
  8
RACCORDO
100
AcDbLine
 62
253
  6
CONTINUOUS
 10
-10.2492721117
 20
23.4027457467
 11
-10.2434542819
 21
23.9800960158
  0
LINE
  5
2D3
100
AcDbEntity
  8
DRAFT
100
AcDbLine
 62
7
  6
CONTINUOUS
 10
-10.8973097373
 20
-3.8676387562
 11
-11.0212406983
 21
-11.2199039842
  0
LINE
  5
2D4
100
AcDbEntity
  8
0
100
AcDbLine
 62
7
  6
CONTINUOUS
 10
-11.0212406983
 20
-11.2199039842
 11
-10.8973097373
 21
-3.8676387562
  0
LINE
  5
2D5
100
AcDbEntity
  8
ASSI
100
AcDbLine
 62
7
  6
CONTINUOUS
 10
5.6014508861
 20
-11.3873577197
 11
-5.2985491139
 21
-11.3873577197
  0
LINE
  5
2D6
100
AcDbEntity
  8
ASSI
100
AcDbLine
 62
7
  6
CONTINUOUS
 10
-1.0354588122
 20
-11.3829942858
 11
0.1383605845
 21
-11.3829942858
  0
LINE
  5
2D7
100
AcDbEntity
  8
GUSCI_ESTERNI
100
AcDbLine
 62
7
  6
CONTINUOUS
 10
-8.1985491139
 20
-11.3699039842
 11
-5.2985491139
 21
-11.3699039842
  0
LINE
  5
2D8
100
AcDbEntity
  8
ASSI
100
AcDbLine
 62
7
  6
CONTINUOUS
 10
-5.2985491139
 20
-11.3699039842
 11
-1.0485491139
 21
-11.3699039842
  0
LINE
  5
2D9
100
AcDbEntity
  8
ASSI
100
AcDbLine
 62
7
  6
CONTINUOUS
 10
0.1514508861
 20
-11.3699039842
 11
5.6014508861
 21
-11.3699039842
  0
LINE
  5
2DA
100
AcDbEntity
  8
GUSCI_ESTERNI
100
AcDbLine
 62
7
  6
CONTINUOUS
 10
5.6014508861
 20
-11.3499039842
 11
8.5014508861
 21
-11.3499039842
  0
LINE
  5
2DB
100
AcDbEntity
  8
ASSI
100
AcDbLine
 62
7
  6
CONTINUOUS
 10
5.6014508861
 20
-11.3499039842
 11
8.5014508861
 21
-11.3499039842
  0
LINE
  5
2DC
100
AcDbEntity
  8
0
100
AcDbLine
 62
7
  6
CONTINUOUS
 10
-11.0212406983
 20
-11.2199039842
 11
-10.6985491139
 21
-11.2199039842
  0
LINE
  5
2DD
100
AcDbEntity
  8
DRAFT
100
AcDbLine
 62
7
  6
CONTINUOUS
 10
11.3241424705
 20
-11.2199039842
 11
11.0014508861
 21
-11.2199039842
  0
LINE
  5
2DE
100
AcDbEntity
  8
ASSI
100
AcDbLine
 62
7
  6
CONTINUOUS
 10
-5.2985491139
 20
-11.2199039842
 11
-1.2985491139
 21
-11.2199039842
  0
LINE
  5
2DF
100
AcDbEntity
  8
0
100
AcDbLine
 62
7
  6
CONTINUOUS
 10
11.0014508861
 20
-11.2199039842
 11
11.3241424705
 21
-11.2199039842
  0
LINE
  5
2E0
100
AcDbEntity
  8
DRAFT
100
AcDbLine
 62
7
  6
CONTINUOUS
 10
-10.6985491139
 20
-11.2199039842
 11
-11.0212406983
 21
-11.2199039842
  0
LINE
  5
2E1
100
AcDbEntity
  8
ASSI
100
AcDbLine
 62
7
  6
CONTINUOUS
 10
-5.2985491139
 20
-11.2146674647
 11
-1.3037856333
 21
-11.2146674647
  0
LINE
  5
2E2
100
AcDbEntity
  8
ASSI
100
AcDbLine
 62
253
  6
CONTINUOUS
 10
-0.5985491139
 20
-15.8699610996
 11
-0.5810953783
 21
-15.8874148351
  0
LINE
  5
2E3
100
AcDbEntity
  8
0
100
AcDbLine
 62
253
  6
CONTINUOUS
 10
-10.2441815106
 20
-23.3477352005
 11
-10.2441815106
 21
-24.2155321502
  0
LINE
  5
2E4
100
AcDbEntity
  8
RACCORDO
100
AcDbLine
 62
253
  6
CONTINUOUS
 10
-10.2441815106
 20
-23.3477352005
 11
-10.2441815106
 21
-24.2155321502
  0
LINE
  5
2E5
100
AcDbEntity
  8
0
100
AcDbLine
 62
253
  6
CONTINUOUS
 10
-10.2441815106
 20
23.9079272322
 11
-10.2441815106
 21
24.7757241818
  0
LINE
  5
2E6
100
AcDbEntity
  8
RACCORDO
100
AcDbLine
 62
253
  6
CONTINUOUS
 10
-10.2441815106
 20
23.9800960158
 11
-10.2441815106
 21
24.7757241818
  0
LINE
  5
2E7
100
AcDbEntity
  8
GUSCI_ESTERNI
100
AcDbLine
 62
7
  6
CONTINUOUS
 10
-9.9985491139
 20
-13.8699039842
 11
-9.9985491139
 21
-15.8699039842
  0
LINE
  5
2E8
100
AcDbEntity
  8
GUSCI_ESTERNI
100
AcDbLine
 62
7
  6
CONTINUOUS
 10
-9.4985491139
 20
16.1800960158
 11
-9.4985491139
 21
14.6800960158
  0
LINE
  5
2E9
100
AcDbEntity
  8
GUSCI_ESTERNI
100
AcDbLine
 62
7
  6
CONTINUOUS
 10
-9.4985491139
 20
-14.1199039842
 11
-9.4985491139
 21
-15.6199039842
  0
LINE
  5
2EA
100
AcDbEntity
  8
0
100
AcDbLine
 62
7
  6
CONTINUOUS
 10
-9.4985491139
 20
-19.9199039842
 11
-9.4985491139
 21
-20.6199039842
  0
LINE
  5
2EB
100
AcDbEntity
  8
DRAFT
100
AcDbLine
 62
7
  6
CONTINUOUS
 10
-9.4985491139
 20
-19.9199039842
 11
-9.4985491139
 21
-20.6199039842
  0
LINE
  5
2EC
100
AcDbEntity
  8
0
100
AcDbLine
 62
7
  6
CONTINUOUS
 10
-9.4985491139
 20
20.4800960158
 11
-9.4985491139
 21
21.1800960158
  0
LINE
  5
2ED
100
AcDbEntity
  8
DRAFT
100
AcDbLine
 62
7
  6
CONTINUOUS
 10
-9.4985491139
 20
20.4800960158
 11
-9.4985491139
 21
21.1800960158
  0
LINE
  5
2EE
100
AcDbEntity
  8
GUSCI_ESTERNI
100
AcDbLine
 62
7
  6
CONTINUOUS
 10
-9.4803023102
 20
-13.6199039842
 11
-9.4803023102
 21
-13.9297444158
  0
LINE
  5
2EF
100
AcDbEntity
  8
GUSCI_ESTERNI
100
AcDbLine
 62
7
  6
CONTINUOUS
 10
-9.4803023102
 20
-15.8100635525
 11
-9.4803023102
 21
-16.1199039842
  0
LINE
  5
2F0
100
AcDbEntity
  8
GUSCI_ESTERNI
100
AcDbLine
 62
7
  6
CONTINUOUS
 10
-9.4803023102
 20
14.1800960158
 11
-9.4803023102
 21
14.4899364475
  0
LINE
  5
2F1
100
AcDbEntity
  8
GUSCI_ESTERNI
100
AcDbLine
 62
7
  6
CONTINUOUS
 10
-9.4803023102
 20
16.3702555842
 11
-9.4803023102
 21
16.6800960158
  0
LINE
  5
2F2
100
AcDbEntity
  8
DRAFT
100
AcDbLine
 62
7
  6
CONTINUOUS
 10
-9.2985491139
 20
16.3300960158
 11
-9.2985491139
 21
14.5300960158
  0
LINE
  5
2F3
100
AcDbEntity
  8
DRAFT
100
AcDbLine
 62
7
  6
CONTINUOUS
 10
-9.2985491139
 20
-13.9699039842
 11
-9.2985491139
 21
-15.7699039842
  0
LINE
  5
2F4
100
AcDbEntity
  8
0
100
AcDbLine
 62
7
  6
CONTINUOUS
 10
4.5506204007
 20
22.687577138
 11
4.5073836189
 21
22.6227210505
  0
LINE
  5
2F5
100
AcDbEntity
  8
DRAFT
100
AcDbLine
 62
7
  6
CONTINUOUS
 10
4.5506204007
 20
22.687577138
 11
4.5073836189
 21
22.6227210505
  0
LINE
  5
2F6
100
AcDbEntity
  8
0
100
AcDbLine
 62
253
  6
CONTINUOUS
 10
10.5470832829
 20
24.7757241818
 11
10.5514551169
 21
24.7800960158
  0
LINE
  5
2F7
100
AcDbEntity
  8
RACCORDO
100
AcDbLine
 62
253
  6
CONTINUOUS
 10
10.5470832829
 20
24.7757241818
 11
10.5514551169
 21
24.7800960158
  0
LINE
  5
2F8
100
AcDbEntity
  8
0
100
AcDbLine
 62
253
  6
CONTINUOUS
 10
10.7970790521
 20
24.5257284126
 11
10.8014508861
 21
24.5301002466
  0
LINE
  5
2F9
100
AcDbEntity
  8
RACCORDO
100
AcDbLine
 62
253
  6
CONTINUOUS
 10
10.7970790521
 20
24.5257284126
 11
10.8014508861
 21
24.5301002466
  0
LINE
  5
2FA
100
AcDbEntity
  8
ASSI
100
AcDbLine
 62
7
  6
CONTINUOUS
 10
-1.2985491139
 20
11.7800960158
 11
-1.3037856333
 21
11.7748594964
  0
LINE
  5
2FB
100
AcDbEntity
  8
ASSI
100
AcDbLine
 62
253
  6
CONTINUOUS
 10
0.1383605845
 20
-9.7243054964
 11
-1.0354588122
 21
-9.7243054964
  0
LINE
  5
2FC
100
AcDbEntity
  8
ASSI
100
AcDbLine
 62
7
  6
CONTINUOUS
 10
-4.9985491139
 20
-9.4699039842
 11
-4.4985491139
 21
-9.4699039842
  0
LINE
  5
2FD
100
AcDbEntity
  8
ASSI
100
AcDbLine
 62
7
  6
CONTINUOUS
 10
-2.41521586
 20
-9.4699039842
 11
-1.66521586
 21
-9.4699039842
  0
LINE
  5
2FE
100
AcDbEntity
  8
ASSI
100
AcDbLine
 62
253
  6
CONTINUOUS
 10
0.1470112969
 20
-8.7243435734
 11
-1.0441095246
 21
-8.7243435734
  0
LINE
  5
2FF
100
AcDbEntity
  8
ASSI
100
AcDbLine
 62
7
  6
CONTINUOUS
 10
0.1514508861
 20
-8.7199039842
 11
-1.0485491139
 21
-8.7199039842
  0
LINE
  5
300
100
AcDbEntity
  8
0
100
AcDbLine
 62
253
  6
CONTINUOUS
 10
10.5470832829
 20
-24.2155321502
 11
10.5514551169
 21
-24.2199039842
  0
LINE
  5
301
100
AcDbEntity
  8
RACCORDO
100
AcDbLine
 62
253
  6
CONTINUOUS
 10
10.5470832829
 20
-24.2155321502
 11
10.5514551169
 21
-24.2199039842
  0
LINE
  5
302
100
AcDbEntity
  8
0
100
AcDbLine
 62
253
  6
CONTINUOUS
 10
10.7970790521
 20
-23.9655363809
 11
10.8014508861
 21
-23.9699082149
  0
LINE
  5
303
100
AcDbEntity
  8
RACCORDO
100
AcDbLine
 62
253
  6
CONTINUOUS
 10
10.7970790521
 20
-23.9655363809
 11
10.8014508861
 21
-23.9699082149
  0
LINE
  5
304
100
AcDbEntity
  8
ASSI
100
AcDbLine
 62
253
  6
CONTINUOUS
 10
0.9014508861
 20
-13.8698468688
 11
0.8839971506
 21
-13.8523931332
  0
LINE
  5
305
100
AcDbEntity
  8
ASSI
100
AcDbLine
 62
7
  6
CONTINUOUS
 10
-1.2985491139
 20
-11.2199039842
 11
-1.3037856333
 21
-11.2146674647
  0
LINE
  5
306
100
AcDbEntity
  8
ASSI
100
AcDbLine
 62
7
  6
CONTINUOUS
 10
-1.0485491139
 20
-11.3699039842
 11
-1.0354588122
 21
-11.3829942858
  0
LINE
  5
307
100
AcDbEntity
  8
0
100
AcDbLine
 62
7
  6
CONTINUOUS
 10
4.5506204007
 20
-22.1273851063
 11
4.5073836189
 21
-22.0625290188
  0
LINE
  5
308
100
AcDbEntity
  8
DRAFT
100
AcDbLine
 62
7
  6
CONTINUOUS
 10
4.5506204007
 20
-22.1273851063
 11
4.5073836189
 21
-22.0625290188
  0
LINE
  5
309
100
AcDbEntity
  8
0
100
AcDbLine
 62
253
  6
CONTINUOUS
 10
-8.3529167171
 20
23.9079272322
 11
-8.347826116
 21
23.4027457467
  0
LINE
  5
30A
100
AcDbEntity
  8
RACCORDO
100
AcDbLine
 62
253
  6
CONTINUOUS
 10
-8.3536439458
 20
23.9800960158
 11
-8.347826116
 21
23.4027457467
  0
LINE
  5
30B
100
AcDbEntity
  8
0
100
AcDbLine
 62
253
  6
CONTINUOUS
 10
-8.1029209479
 20
24.1244335831
 11
-8.0985491139
 21
23.6905811641
  0
LINE
  5
30C
100
AcDbEntity
  8
RACCORDO
100
AcDbLine
 62
253
  6
CONTINUOUS
 10
-8.1029209479
 20
24.1244335831
 11
-8.0985491139
 21
23.6905811641
  0
LINE
  5
30D
100
AcDbEntity
  8
GUSCI_ESTERNI
100
AcDbLine
 62
253
  6
CONTINUOUS
 10
-8.4985491139
 20
17.6661330274
 11
-8.4985491139
 21
17.3097212988
  0
LINE
  5
30E
100
AcDbEntity
  8
GUSCI_ESTERNI
100
AcDbLine
 62
253
  6
CONTINUOUS
 10
-8.4985491139
 20
-12.6338669726
 11
-8.4985491139
 21
-12.9902787012
  0
LINE
  5
30F
100
AcDbEntity
  8
GUSCI_ESTERNI
100
AcDbLine
 62
253
  6
CONTINUOUS
 10
-8.4985491139
 20
-17.1059409957
 11
-8.4985491139
 21
-16.7495292671
  0
LINE
  5
310
100
AcDbEntity
  8
GUSCI_ESTERNI
100
AcDbLine
 62
253
  6
CONTINUOUS
 10
-8.4985491139
 20
13.1940590043
 11
-8.4985491139
 21
13.5504707329
  0
LINE
  5
311
100
AcDbEntity
  8
0
100
AcDbLine
 62
253
  6
CONTINUOUS
 10
-8.3529167171
 20
-23.3477352005
 11
-8.3529167171
 21
-24.2155321502
  0
LINE
  5
312
100
AcDbEntity
  8
RACCORDO
100
AcDbLine
 62
253
  6
CONTINUOUS
 10
-8.3529167171
 20
-23.3477352005
 11
-8.3529167171
 21
-24.2155321502
  0
LINE
  5
313
100
AcDbEntity
  8
0
100
AcDbLine
 62
253
  6
CONTINUOUS
 10
-8.3529167171
 20
23.9079272322
 11
-8.3529167171
 21
24.7757241818
  0
LINE
  5
314
100
AcDbEntity
  8
RACCORDO
100
AcDbLine
 62
253
  6
CONTINUOUS
 10
-8.3529167171
 20
23.9800960158
 11
-8.3529167171
 21
24.7757241818
  0
LINE
  5
315
100
AcDbEntity
  8
0
100
AcDbLine
 62
253
  6
CONTINUOUS
 10
-8.1029209479
 20
-23.9655363809
 11
-8.1029209479
 21
-23.5642415515
  0
LINE
  5
316
100
AcDbEntity
  8
RACCORDO
100
AcDbLine
 62
253
  6
CONTINUOUS
 10
-8.1029209479
 20
-23.9655363809
 11
-8.1029209479
 21
-23.5642415515
  0
LINE
  5
317
100
AcDbEntity
  8
0
100
AcDbLine
 62
253
  6
CONTINUOUS
 10
-8.1029209479
 20
24.1244335831
 11
-8.1029209479
 21
24.5257284126
  0
LINE
  5
318
100
AcDbEntity
  8
RACCORDO
100
AcDbLine
 62
253
  6
CONTINUOUS
 10
-8.1029209479
 20
24.1244335831
 11
-8.1029209479
 21
24.5257284126
  0
LINE
  5
319
100
AcDbEntity
  8
0
100
AcDbLine
 62
7
  6
CONTINUOUS
 10
-8.0985491139
 20
-22.3201174745
 11
-8.0985491139
 21
-23.9699082149
  0
LINE
  5
31A
100
AcDbEntity
  8
RACCORDO
100
AcDbLine
 62
7
  6
CONTINUOUS
 10
-8.0985491139
 20
-22.3201174745
 11
-8.0985491139
 21
-23.9699082149
  0
LINE
  5
31B
100
AcDbEntity
  8
0
100
AcDbLine
 62
7
  6
CONTINUOUS
 10
-8.0985491139
 20
22.8803095062
 11
-8.0985491139
 21
24.5301002466
  0
LINE
  5
31C
100
AcDbEntity
  8
RACCORDO
100
AcDbLine
 62
7
  6
CONTINUOUS
 10
-8.0985491139
 20
22.8803095062
 11
-8.0985491139
 21
24.5301002466
  0
LINE
  5
31D
100
AcDbEntity
  8
0
100
AcDbLine
 62
253
  6
CONTINUOUS
 10
-7.9325736806
 20
21.8460714491
 11
-7.9325736806
 21
21.7571092317
  0
LINE
  5
31E
100
AcDbEntity
  8
RACCORDO
100
AcDbLine
 62
253
  6
CONTINUOUS
 10
-7.9325736806
 20
21.8460714491
 11
-7.9325736806
 21
21.7571092317
  0
LINE
  5
31F
100
AcDbEntity
  8
0
100
AcDbLine
 62
253
  6
CONTINUOUS
 10
-7.9325736806
 20
-21.1969172
 11
-7.9325736806
 21
-21.2858794174
  0
LINE
  5
320
100
AcDbEntity
  8
RACCORDO
100
AcDbLine
 62
253
  6
CONTINUOUS
 10
-7.9325736806
 20
-21.1969172
 11
-7.9325736806
 21
-21.2858794174
  0
LINE
  5
321
100
AcDbEntity
  8
0
100
AcDbLine
 62
7
  6
CONTINUOUS
 10
-7.5985491139
 20
21.9624854954
 11
-7.5985491139
 21
21.7600242199
  0
LINE
  5
322
100
AcDbEntity
  8
ASSI
100
AcDbLine
 62
7
  6
CONTINUOUS
 10
-7.5985491139
 20
-21.1998321882
 11
-7.5985491139
 21
-21.4022934637
  0
LINE
  5
323
100
AcDbEntity
  8
0
100
AcDbLine
 62
253
  6
CONTINUOUS
 10
-8.347826116
 20
-22.842553715
 11
-8.3529167171
 21
-23.3477352005
  0
LINE
  5
324
100
AcDbEntity
  8
RACCORDO
100
AcDbLine
 62
253
  6
CONTINUOUS
 10
-8.347826116
 20
-22.842553715
 11
-8.3529167171
 21
-23.3477352005
  0
LINE
  5
325
100
AcDbEntity
  8
0
100
AcDbLine
 62
253
  6
CONTINUOUS
 10
-8.0985491139
 20
-23.1303891324
 11
-8.1029209479
 21
-23.5642415515
  0
LINE
  5
326
100
AcDbEntity
  8
RACCORDO
100
AcDbLine
 62
253
  6
CONTINUOUS
 10
-8.0985491139
 20
-23.1303891324
 11
-8.1029209479
 21
-23.5642415515
  0
LINE
  5
327
100
AcDbEntity
  8
ASSI
100
AcDbLine
 62
253
  6
CONTINUOUS
 10
2.4013937707
 20
-12.3699039842
 11
2.3839400352
 21
-12.3524502486
  0
LINE
  5
328
100
AcDbEntity
  8
ASSI
100
AcDbLine
 62
7
  6
CONTINUOUS
 10
-1.0485491139
 20
-8.7199039842
 11
-1.0441095246
 21
-8.7243435734
  0
LINE
  5
329
100
AcDbEntity
  8
ASSI
100
AcDbLine
 62
7
  6
CONTINUOUS
 10
-4.4985491139
 20
-5.9805422212
 11
-2.41521586
 21
-9.4699039842
  0
LINE
  5
32A
100
AcDbEntity
  8
GUSCI_ESTERNI
100
AcDbLine
 62
7
  6
CONTINUOUS
 10
-5.2985491139
 20
20.9856678359
 11
-5.2985491139
 21
17.6800960158
  0
LINE
  5
32B
100
AcDbEntity
  8
DRAFT
100
AcDbLine
 62
7
  6
CONTINUOUS
 10
-5.2985491139
 20
21.0387848052
 11
-5.2985491139
 21
17.3300960158
  0
LINE
  5
32C
100
AcDbEntity
  8
DRAFT
100
AcDbLine
 62
7
  6
CONTINUOUS
 10
-5.2985491139
 20
13.5300960158
 11
-5.2985491139
 21
11.7800960158
  0
LINE
  5
32D
100
AcDbEntity
  8
GUSCI_ESTERNI
100
AcDbLine
 62
7
  6
CONTINUOUS
 10
-5.2985491139
 20
13.1800960158
 11
-5.2985491139
 21
2.1800960158
  0
LINE
  5
32E
100
AcDbEntity
  8
ASSI
100
AcDbLine
 62
7
  6
CONTINUOUS
 10
-5.2985491139
 20
-11.3873577197
 11
-5.2985491139
 21
-12.3524502486
  0
LINE
  5
32F
100
AcDbEntity
  8
GUSCI_ESTERNI
100
AcDbLine
 62
7
  6
CONTINUOUS
 10
-5.2985491139
 20
1.3800960158
 11
-5.2985491139
 21
-12.6199039842
  0
LINE
  5
330
100
AcDbEntity
  8
DRAFT
100
AcDbLine
 62
7
  6
CONTINUOUS
 10
-5.2985491139
 20
-12.3699039842
 11
-5.2985491139
 21
-12.9699039842
  0
LINE
  5
331
100
AcDbEntity
  8
DRAFT
100
AcDbLine
 62
7
  6
CONTINUOUS
 10
-5.2985491139
 20
-16.7699039842
 11
-5.2985491139
 21
-17.3699039842
  0
LINE
  5
332
100
AcDbEntity
  8
ASSI
100
AcDbLine
 62
7
  6
CONTINUOUS
 10
-5.2985491139
 20
-17.3873577197
 11
-5.2985491139
 21
-18.3524502486
  0
LINE
  5
333
100
AcDbEntity
  8
GUSCI_ESTERNI
100
AcDbLine
 62
7
  6
CONTINUOUS
 10
-5.2985491139
 20
-17.1199039842
 11
-5.2985491139
 21
-20.4253822719
  0
LINE
  5
334
100
AcDbEntity
  8
ASSI
100
AcDbLine
 62
7
  6
CONTINUOUS
 10
-5.2985491139
 20
-21.4786308519
 11
-5.2985491139
 21
-18.3699039842
  0
LINE
  5
335
100
AcDbEntity
  8
ASSI
100
AcDbLine
 62
7
  6
CONTINUOUS
 10
-5.2985491139
 20
-11.3699039842
 11
-5.2985491139
 21
-11.2199039842
  0
LINE
  5
336
100
AcDbEntity
  8
ASSI
100
AcDbLine
 62
7
  6
CONTINUOUS
 10
-5.2985491139
 20
-3.7199039842
 11
-5.2985491139
 21
0.3800960158
  0
LINE
  5
337
100
AcDbEntity
  8
ASSI
100
AcDbLine
 62
7
  6
CONTINUOUS
 10
-5.2985491139
 20
1.1800960158
 11
-5.2985491139
 21
4.2800960158
  0
LINE
  5
338
100
AcDbEntity
  8
ASSI
100
AcDbLine
 62
7
  6
CONTINUOUS
 10
-5.2985491139
 20
21.0387848052
 11
-5.2985491139
 21
22.0387467283
  0
LINE
  5
339
100
AcDbEntity
  8
ASSI
100
AcDbLine
 62
7
  6
CONTINUOUS
 10
-4.9985491139
 20
10.0300960158
 11
-4.9985491139
 21
6.0300960158
  0
LINE
  5
33A
100
AcDbEntity
  8
ASSI
100
AcDbLine
 62
7
  6
CONTINUOUS
 10
-4.9985491139
 20
-5.4699039842
 11
-4.9985491139
 21
-9.4699039842
  0
LINE
  5
33B
100
AcDbEntity
  8
0
100
AcDbLine
 62
7
  6
CONTINUOUS
 10
5.6014508861
 20
13.9800960158
 11
5.3014508861
 21
13.6800960158
  0
LINE
  5
33C
100
AcDbEntity
  8
ASSI
100
AcDbLine
 62
7
  6
CONTINUOUS
 10
-1.66521586
 20
-5.4699039842
 11
-2.16521586
 21
-5.4699039842
  0
LINE
  5
33D
100
AcDbEntity
  8
ASSI
100
AcDbLine
 62
7
  6
CONTINUOUS
 10
-4.2485491139
 20
-5.4699039842
 11
-4.9985491139
 21
-5.4699039842
  0
LINE
  5
33E
100
AcDbEntity
  8
0
100
AcDbLine
 62
7
  6
CONTINUOUS
 10
5.3014508861
 20
-13.1199039842
 11
5.6014508861
 21
-13.4199039842
  0
LINE
  5
33F
100
AcDbEntity
  8
ASSI
100
AcDbLine
 62
7
  6
CONTINUOUS
 10
-2.16521586
 20
-8.8741593147
 11
-4.2485491139
 21
-5.4699039842
  0
LINE
  5
340
100
AcDbEntity
  8
ASSI
100
AcDbLine
 62
7
  6
CONTINUOUS
 10
-4.4985491139
 20
-9.4699039842
 11
-4.4985491139
 21
-5.9805422212
  0
LINE
  5
341
100
AcDbEntity
  8
ASSI
100
AcDbLine
 62
7
  6
CONTINUOUS
 10
-4.4985491139
 20
6.0300960158
 11
-4.4985491139
 21
9.5194577788
  0
LINE
  5
342
100
AcDbEntity
  8
0
100
AcDbLine
 62
7
  6
CONTINUOUS
 10
-4.2485491139
 20
24.0800960158
 11
-4.2485491139
 21
22.687577138
  0
LINE
  5
343
100
AcDbEntity
  8
DRAFT
100
AcDbLine
 62
7
  6
CONTINUOUS
 10
-4.2485491139
 20
24.0800960158
 11
-4.2485491139
 21
22.687577138
  0
LINE
  5
344
100
AcDbEntity
  8
0
100
AcDbLine
 62
7
  6
CONTINUOUS
 10
-4.2485491139
 20
-22.1273851063
 11
-4.2485491139
 21
-23.5199039842
  0
LINE
  5
345
100
AcDbEntity
  8
DRAFT
100
AcDbLine
 62
7
  6
CONTINUOUS
 10
-4.2485491139
 20
-22.1273851063
 11
-4.2485491139
 21
-23.5199039842
  0
LINE
  5
346
100
AcDbEntity
  8
0
100
AcDbLine
 62
253
  6
CONTINUOUS
 10
-4.2044818466
 20
-22.0625290188
 11
-4.2044818466
 21
-23.4706774089
  0
LINE
  5
347
100
AcDbEntity
  8
ASSI
100
AcDbLine
 62
253
  6
CONTINUOUS
 10
-4.2044818466
 20
-22.0625290188
 11
-4.2044818466
 21
-23.4706774089
  0
LINE
  5
348
100
AcDbEntity
  8
0
100
AcDbLine
 62
253
  6
CONTINUOUS
 10
-4.2044818466
 20
22.6227210505
 11
-4.2044818466
 21
24.0308694406
  0
LINE
  5
349
100
AcDbEntity
  8
ASSI
100
AcDbLine
 62
253
  6
CONTINUOUS
 10
-4.2044818466
 20
22.6227210505
 11
-4.2044818466
 21
24.0308694406
  0
LINE
  5
34A
100
AcDbEntity
  8
RACCORDO
100
AcDbLine
 62
7
  6
CONTINUOUS
 10
-3.3485491139
 20
-22.0625507471
 11
-3.3485491139
 21
-23.4710462745
  0
LINE
  5
34B
100
AcDbEntity
  8
ASSI
100
AcDbLine
 62
7
  6
CONTINUOUS
 10
-3.3485491139
 20
-22.0625507471
 11
-3.3485491139
 21
-23.4710462745
  0
LINE
  5
34C
100
AcDbEntity
  8
0
100
AcDbLine
 62
7
  6
CONTINUOUS
 10
-3.3485491139
 20
-22.0625507471
 11
-3.3485491139
 21
-23.5140861543
  0
LINE
  5
34D
100
AcDbEntity
  8
ASSI
100
AcDbLine
 62
7
  6
CONTINUOUS
 10
-3.3485491139
 20
-23.4725774131
 11
-3.3485491139
 21
-23.5140861543
  0
LINE
  5
34E
100
AcDbEntity
  8
0
100
AcDbLine
 62
7
  6
CONTINUOUS
 10
-3.3485491139
 20
22.6227427788
 11
-3.3485491139
 21
24.074278186
  0
LINE
  5
34F
100
AcDbEntity
  8
ASSI
100
AcDbLine
 62
7
  6
CONTINUOUS
 10
-3.3485491139
 20
24.0327694448
 11
-3.3485491139
 21
24.074278186
  0
LINE
  5
350
100
AcDbEntity
  8
ASSI
100
AcDbLine
 62
7
  6
CONTINUOUS
 10
-3.3485491139
 20
22.6227427788
 11
-3.3485491139
 21
24.0312383062
  0
LINE
  5
351
100
AcDbEntity
  8
GUSCI_ESTERNI
100
AcDbLine
 62
7
  6
CONTINUOUS
 10
6.5347842056
 20
6.5364789342
 11
6.3597842056
 21
6.4769044732
  0
LINE
  5
352
100
AcDbEntity
  8
ASSI
100
AcDbLine
 62
7
  6
CONTINUOUS
 10
6.5347842056
 20
6.5364789342
 11
6.3597842056
 21
6.4769044732
  0
LINE
  5
353
100
AcDbEntity
  8
GUSCI_ESTERNI
100
AcDbLine
 62
7
  6
CONTINUOUS
 10
6.3597842056
 20
6.2386066293
 11
6.5347842056
 21
6.2981810903
  0
LINE
  5
354
100
AcDbEntity
  8
ASSI
100
AcDbLine
 62
7
  6
CONTINUOUS
 10
6.3597842056
 20
6.2386066293
 11
6.5347842056
 21
6.2981810903
  0
LINE
  5
355
100
AcDbEntity
  8
GUSCI_ESTERNI
100
AcDbLine
 62
7
  6
CONTINUOUS
 10
7.4681176084
 20
6.5364789342
 11
7.293117525
 21
6.4769044732
  0
LINE
  5
356
100
AcDbEntity
  8
ASSI
100
AcDbLine
 62
7
  6
CONTINUOUS
 10
7.4681176084
 20
6.5364789342
 11
7.293117525
 21
6.4769044732
  0
LINE
  5
357
100
AcDbEntity
  8
0
100
AcDbLine
 62
7
  6
CONTINUOUS
 10
-10.7985491139
 20
-3.8676387562
 11
-10.8973097373
 21
-3.8676387562
  0
LINE
  5
358
100
AcDbEntity
  8
RACCORDO
100
AcDbLine
 62
7
  6
CONTINUOUS
 10
-10.7985491139
 20
-3.8676387562
 11
-10.8973097373
 21
-3.8676387562
  0
LINE
  5
359
100
AcDbEntity
  8
0
100
AcDbLine
 62
7
  6
CONTINUOUS
 10
11.1014508861
 20
-3.8676387562
 11
11.2002115096
 21
-3.8676387562
  0
LINE
  5
35A
100
AcDbEntity
  8
RACCORDO
100
AcDbLine
 62
7
  6
CONTINUOUS
 10
11.1014508861
 20
-3.8676387562
 11
11.2002115096
 21
-3.8676387562
  0
LINE
  5
35B
100
AcDbEntity
  8
ASSI
100
AcDbLine
 62
7
  6
CONTINUOUS
 10
-1.3037856333
 20
-3.7251405036
 11
-5.2985491139
 21
-3.7251405036
  0
LINE
  5
35C
100
AcDbEntity
  8
ASSI
100
AcDbLine
 62
7
  6
CONTINUOUS
 10
-5.2985491139
 20
-3.7199039842
 11
-1.2985491139
 21
-3.7199039842
  0
LINE
  5
35D
100
AcDbEntity
  8
0
100
AcDbLine
 62
7
  6
CONTINUOUS
 10
-2.8485491139
 20
-21.4786308519
 11
-2.8485491139
 21
-22.1199039842
  0
LINE
  5
35E
100
AcDbEntity
  8
RACCORDO
100
AcDbLine
 62
7
  6
CONTINUOUS
 10
-2.8485491139
 20
-21.4786308519
 11
-2.8485491139
 21
-22.1199039842
  0
LINE
  5
35F
100
AcDbEntity
  8
0
100
AcDbLine
 62
7
  6
CONTINUOUS
 10
-2.8485491139
 20
22.0388228836
 11
-2.8485491139
 21
22.6800960158
  0
LINE
  5
360
100
AcDbEntity
  8
RACCORDO
100
AcDbLine
 62
7
  6
CONTINUOUS
 10
-2.8485491139
 20
22.0388228836
 11
-2.8485491139
 21
22.6800960158
  0
LINE
  5
361
100
AcDbEntity
  8
ASSI
100
AcDbLine
 62
7
  6
CONTINUOUS
 10
-2.16521586
 20
10.0300960158
 11
-2.16521586
 21
6.6258406853
  0
LINE
  5
362
100
AcDbEntity
  8
ASSI
100
AcDbLine
 62
7
  6
CONTINUOUS
 10
-2.16521586
 20
-5.4699039842
 11
-2.16521586
 21
-8.8741593147
  0
LINE
  5
363
100
AcDbEntity
  8
ASSI
100
AcDbLine
 62
7
  6
CONTINUOUS
 10
-1.66521586
 20
-9.4699039842
 11
-1.66521586
 21
-5.4699039842
  0
LINE
  5
364
100
AcDbEntity
  8
ASSI
100
AcDbLine
 62
7
  6
CONTINUOUS
 10
-1.66521586
 20
6.0300960158
 11
-1.66521586
 21
10.0300960158
  0
LINE
  5
365
100
AcDbEntity
  8
ASSI
100
AcDbLine
 62
7
  6
CONTINUOUS
 10
0.1514508861
 20
4.2800960158
 11
0.1566874056
 21
4.2853325353
  0
LINE
  5
366
100
AcDbEntity
  8
ASSI
100
AcDbLine
 62
7
  6
CONTINUOUS
 10
3.8714508861
 20
6.4300960158
 11
3.6014508861
 21
6.1620109414
  0
LINE
  5
367
100
AcDbEntity
  8
GUSCI_ESTERNI
100
AcDbLine
 62
7
  6
CONTINUOUS
 10
7.293117525
 20
6.2386066293
 11
7.4097841638
 21
6.2981810903
  0
LINE
  5
368
100
AcDbEntity
  8
ASSI
100
AcDbLine
 62
7
  6
CONTINUOUS
 10
7.293117525
 20
6.2386066293
 11
7.4097841638
 21
6.2981810903
  0
LINE
  5
369
100
AcDbEntity
  8
GUSCI_ESTERNI
100
AcDbLine
 62
7
  6
CONTINUOUS
 10
9.1597843307
 20
6.5364789342
 11
8.9847843307
 21
6.4769044732
  0
LINE
  5
36A
100
AcDbEntity
  8
ASSI
100
AcDbLine
 62
7
  6
CONTINUOUS
 10
9.1597843307
 20
6.5364789342
 11
8.9847843307
 21
6.4769044732
  0
LINE
  5
36B
100
AcDbEntity
  8
GUSCI_ESTERNI
100
AcDbLine
 62
7
  6
CONTINUOUS
 10
8.9847843307
 20
6.2386066293
 11
9.1597843307
 21
6.2981810903
  0
LINE
  5
36C
100
AcDbEntity
  8
ASSI
100
AcDbLine
 62
7
  6
CONTINUOUS
 10
8.9847843307
 20
6.2386066293
 11
9.1597843307
 21
6.2981810903
  0
LINE
  5
36D
100
AcDbEntity
  8
GUSCI_ESTERNI
100
AcDbLine
 62
7
  6
CONTINUOUS
 10
10.0931174415
 20
6.5364789342
 11
9.9181174415
 21
6.4769044732
  0
LINE
  5
36E
100
AcDbEntity
  8
ASSI
100
AcDbLine
 62
7
  6
CONTINUOUS
 10
10.0931174415
 20
6.5364789342
 11
9.9181174415
 21
6.4769044732
  0
LINE
  5
36F
100
AcDbEntity
  8
ASSI
100
AcDbLine
 62
7
  6
CONTINUOUS
 10
0.1383605845
 20
14.4781722272
 11
0.1514508861
 21
11.8800960158
  0
LINE
  5
370
100
AcDbEntity
  8
ASSI
100
AcDbLine
 62
7
  6
CONTINUOUS
 10
-1.3037856333
 20
-11.2146674647
 11
-1.3037856333
 21
-3.7251405036
  0
LINE
  5
371
100
AcDbEntity
  8
ASSI
100
AcDbLine
 62
7
  6
CONTINUOUS
 10
-1.3037856333
 20
4.2853325353
 11
-1.3037856333
 21
11.7748594964
  0
LINE
  5
372
100
AcDbEntity
  8
ASSI
100
AcDbLine
 62
7
  6
CONTINUOUS
 10
-1.2985491139
 20
-11.2199039842
 11
-1.2985491139
 21
-3.7199039842
  0
LINE
  5
373
100
AcDbEntity
  8
ASSI
100
AcDbLine
 62
7
  6
CONTINUOUS
 10
-1.2985491139
 20
4.2800960158
 11
-1.2985491139
 21
11.7800960158
  0
LINE
  5
374
100
AcDbEntity
  8
ASSI
100
AcDbLine
 62
7
  6
CONTINUOUS
 10
-1.0485491139
 20
21.0387848052
 11
-1.0485491139
 21
11.8800960158
  0
LINE
  5
375
100
AcDbEntity
  8
ASSI
100
AcDbLine
 62
7
  6
CONTINUOUS
 10
-1.0485491139
 20
-8.7199039842
 11
-1.0485491139
 21
-11.3699039842
  0
LINE
  5
376
100
AcDbEntity
  8
ASSI
100
AcDbLine
 62
7
  6
CONTINUOUS
 10
-1.0354588122
 20
20.034383293
 11
-1.0354588122
 21
14.4781722272
  0
LINE
  5
377
100
AcDbEntity
  8
ASSI
100
AcDbLine
 62
7
  6
CONTINUOUS
 10
-1.0354588122
 20
-11.3829942858
 11
-1.0354588122
 21
-9.7243054964
  0
LINE
  5
378
100
AcDbEntity
  8
ASSI
100
AcDbLine
 62
7
  6
CONTINUOUS
 10
-0.5985491139
 20
-13.8698468688
 11
-0.5985491139
 21
-15.8699610996
  0
LINE
  5
379
100
AcDbEntity
  8
ASSI
100
AcDbLine
 62
7
  6
CONTINUOUS
 10
-0.5810953783
 20
-13.8523931332
 11
-0.5810953783
 21
-15.8874148351
  0
LINE
  5
37A
100
AcDbEntity
  8
ASSI
100
AcDbLine
 62
7
  6
CONTINUOUS
 10
0.1383605845
 20
20.034383293
 11
0.1383605845
 21
14.4781722272
  0
LINE
  5
37B
100
AcDbEntity
  8
ASSI
100
AcDbLine
 62
7
  6
CONTINUOUS
 10
0.1383605845
 20
-9.7243054964
 11
0.1383605845
 21
-11.3829942858
  0
LINE
  5
37C
100
AcDbEntity
  8
ASSI
100
AcDbLine
 62
7
  6
CONTINUOUS
 10
0.1514508861
 20
21.0387848052
 11
0.1514508861
 21
11.8800960158
  0
LINE
  5
37D
100
AcDbEntity
  8
ASSI
100
AcDbLine
 62
7
  6
CONTINUOUS
 10
0.1514508861
 20
6.7800960158
 11
0.1514508861
 21
4.2800960158
  0
LINE
  5
37E
100
AcDbEntity
  8
ASSI
100
AcDbLine
 62
7
  6
CONTINUOUS
 10
0.1514508861
 20
-8.7199039842
 11
0.1514508861
 21
-11.3699039842
  0
LINE
  5
37F
100
AcDbEntity
  8
ASSI
100
AcDbLine
 62
7
  6
CONTINUOUS
 10
0.1566874056
 20
6.7748594964
 11
0.1566874056
 21
4.2853325353
  0
LINE
  5
380
100
AcDbEntity
  8
ASSI
100
AcDbLine
 62
7
  6
CONTINUOUS
 10
-1.0354588122
 20
14.4781722272
 11
-1.0485491139
 21
11.8800960158
  0
LINE
  5
381
100
AcDbEntity
  8
GUSCI_ESTERNI
100
AcDbLine
 62
7
  6
CONTINUOUS
 10
6.3597842056
 20
6.4769044732
 11
6.2431175459
 21
6.3577555512
  0
LINE
  5
382
100
AcDbEntity
  8
ASSI
100
AcDbLine
 62
7
  6
CONTINUOUS
 10
6.3597842056
 20
6.4769044732
 11
6.2431175459
 21
6.3577555512
  0
LINE
  5
383
100
AcDbEntity
  8
ASSI
100
AcDbLine
 62
7
  6
CONTINUOUS
 10
3.6014508861
 20
5.8556278919
 11
3.8714508861
 21
6.1237130736
  0
LINE
  5
384
100
AcDbEntity
  8
ASSI
100
AcDbLine
 62
7
  6
CONTINUOUS
 10
4.7714509291
 20
6.4300960158
 11
4.5014508647
 21
6.1620109414
  0
LINE
  5
385
100
AcDbEntity
  8
ASSI
100
AcDbLine
 62
7
  6
CONTINUOUS
 10
4.5014508647
 20
5.8556278919
 11
4.7714509291
 21
6.1237130736
  0
LINE
  5
386
100
AcDbEntity
  8
GUSCI_ESTERNI
100
AcDbLine
 62
7
  6
CONTINUOUS
 10
9.9181174415
 20
6.2386066293
 11
10.0347843307
 21
6.2981810903
  0
LINE
  5
387
100
AcDbEntity
  8
ASSI
100
AcDbLine
 62
7
  6
CONTINUOUS
 10
9.9181174415
 20
6.2386066293
 11
10.0347843307
 21
6.2981810903
  0
LINE
  5
388
100
AcDbEntity
  8
ASSI
100
AcDbLine
 62
7
  6
CONTINUOUS
 10
0.8839971506
 20
-15.8874148351
 11
0.8839971506
 21
-13.8523931332
  0
LINE
  5
389
100
AcDbEntity
  8
ASSI
100
AcDbLine
 62
7
  6
CONTINUOUS
 10
0.9014508861
 20
-15.8699610996
 11
0.9014508861
 21
-13.8698468688
  0
LINE
  5
38A
100
AcDbEntity
  8
ASSI
100
AcDbLine
 62
7
  6
CONTINUOUS
 10
1.4014508861
 20
-15.8391275778
 11
1.4014508861
 21
-13.9006803906
  0
LINE
  5
38B
100
AcDbEntity
  8
ASSI
100
AcDbLine
 62
7
  6
CONTINUOUS
 10
1.4014508861
 20
14.4608724222
 11
1.4014508861
 21
16.3993196094
  0
LINE
  5
38C
100
AcDbEntity
  8
GUSCI_ESTERNI
100
AcDbLine
 62
7
  6
CONTINUOUS
 10
6.2431175459
 20
6.1194577073
 11
6.3597842056
 21
6.2386066293
  0
LINE
  5
38D
100
AcDbEntity
  8
ASSI
100
AcDbLine
 62
7
  6
CONTINUOUS
 10
6.2431175459
 20
6.1194577073
 11
6.3597842056
 21
6.2386066293
  0
LINE
  5
38E
100
AcDbEntity
  8
GUSCI_ESTERNI
100
AcDbLine
 62
7
  6
CONTINUOUS
 10
7.293117525
 20
6.4769044732
 11
7.118117525
 21
6.2981810903
  0
LINE
  5
38F
100
AcDbEntity
  8
ASSI
100
AcDbLine
 62
7
  6
CONTINUOUS
 10
7.293117525
 20
6.4769044732
 11
7.118117525
 21
6.2981810903
  0
LINE
  5
390
100
AcDbEntity
  8
GUSCI_ESTERNI
100
AcDbLine
 62
7
  6
CONTINUOUS
 10
7.2347842473
 20
6.1790321683
 11
7.293117525
 21
6.2386066293
  0
LINE
  5
391
100
AcDbEntity
  8
ASSI
100
AcDbLine
 62
7
  6
CONTINUOUS
 10
7.2347842473
 20
6.1790321683
 11
7.293117525
 21
6.2386066293
  0
LINE
  5
392
100
AcDbEntity
  8
GUSCI_ESTERNI
100
AcDbLine
 62
7
  6
CONTINUOUS
 10
8.9847843307
 20
6.4769044732
 11
8.8681174415
 21
6.3577555512
  0
LINE
  5
393
100
AcDbEntity
  8
ASSI
100
AcDbLine
 62
7
  6
CONTINUOUS
 10
8.9847843307
 20
6.4769044732
 11
8.8681174415
 21
6.3577555512
  0
LINE
  5
394
100
AcDbEntity
  8
ASSI
100
AcDbLine
 62
7
  6
CONTINUOUS
 10
-1.2985491139
 20
-3.7199039842
 11
-1.3037856333
 21
-3.7251405036
  0
LINE
  5
395
100
AcDbEntity
  8
GUSCI_ESTERNI
100
AcDbLine
 62
7
  6
CONTINUOUS
 10
5.6014508861
 20
1.3800960158
 11
6.2014508861
 21
1.3800960158
  0
LINE
  5
396
100
AcDbEntity
  8
ASSI
100
AcDbLine
 62
7
  6
CONTINUOUS
 10
5.6014508861
 20
1.3800960158
 11
6.2014508861
 21
1.3800960158
  0
LINE
  5
397
100
AcDbEntity
  8
GUSCI_ESTERNI
100
AcDbLine
 62
7
  6
CONTINUOUS
 10
-5.2985491139
 20
1.3800960158
 11
-5.8985491139
 21
1.3800960158
  0
LINE
  5
398
100
AcDbEntity
  8
GUSCI_ESTERNI
100
AcDbLine
 62
7
  6
CONTINUOUS
 10
5.6014508861
 20
2.1800960158
 11
6.2014508861
 21
2.1800960158
  0
LINE
  5
399
100
AcDbEntity
  8
ASSI
100
AcDbLine
 62
7
  6
CONTINUOUS
 10
5.6014508861
 20
2.1800960158
 11
6.2014508861
 21
2.1800960158
  0
LINE
  5
39A
100
AcDbEntity
  8
GUSCI_ESTERNI
100
AcDbLine
 62
7
  6
CONTINUOUS
 10
-5.2985491139
 20
2.1800960158
 11
-5.8985491139
 21
2.1800960158
  0
LINE
  5
39B
100
AcDbEntity
  8
ASSI
100
AcDbLine
 62
7
  6
CONTINUOUS
 10
-1.2985491139
 20
4.2800960158
 11
-1.3037856333
 21
4.2853325353
  0
LINE
  5
39C
100
AcDbEntity
  8
ASSI
100
AcDbLine
 62
7
  6
CONTINUOUS
 10
-2.16521586
 20
6.6258406853
 11
-4.2485491139
 21
10.0300960158
  0
LINE
  5
39D
100
AcDbEntity
  8
ASSI
100
AcDbLine
 62
7
  6
CONTINUOUS
 10
-4.4985491139
 20
9.5194577788
 11
-2.41521586
 21
6.0300960158
  0
LINE
  5
39E
100
AcDbEntity
  8
ASSI
100
AcDbLine
 62
253
  6
CONTINUOUS
 10
2.4014508861
 20
-16.8699039842
 11
2.4014508861
 21
-16.6199039842
  0
LINE
  5
39F
100
AcDbEntity
  8
ASSI
100
AcDbLine
 62
253
  6
CONTINUOUS
 10
2.4014508861
 20
-13.1199039842
 11
2.4014508861
 21
-12.8699039842
  0
LINE
  5
3A0
100
AcDbEntity
  8
ASSI
100
AcDbLine
 62
253
  6
CONTINUOUS
 10
2.4014508861
 20
13.4300960158
 11
2.4014508861
 21
13.6800960158
  0
LINE
  5
3A1
100
AcDbEntity
  8
ASSI
100
AcDbLine
 62
253
  6
CONTINUOUS
 10
2.4014508861
 20
17.1800960158
 11
2.4014508861
 21
17.4300960158
  0
LINE
  5
3A2
100
AcDbEntity
  8
0
100
AcDbLine
 62
7
  6
CONTINUOUS
 10
3.1514508861
 20
-21.4786308519
 11
3.1514508861
 21
-22.1199039842
  0
LINE
  5
3A3
100
AcDbEntity
  8
RACCORDO
100
AcDbLine
 62
7
  6
CONTINUOUS
 10
3.1514508861
 20
-21.4786308519
 11
3.1514508861
 21
-22.1199039842
  0
LINE
  5
3A4
100
AcDbEntity
  8
0
100
AcDbLine
 62
7
  6
CONTINUOUS
 10
3.1514508861
 20
22.0388228836
 11
3.1514508861
 21
22.6800960158
  0
LINE
  5
3A5
100
AcDbEntity
  8
RACCORDO
100
AcDbLine
 62
7
  6
CONTINUOUS
 10
3.1514508861
 20
22.0388228836
 11
3.1514508861
 21
22.6800960158
  0
LINE
  5
3A6
100
AcDbEntity
  8
ASSI
100
AcDbLine
 62
7
  6
CONTINUOUS
 10
3.6014508861
 20
6.1620109414
 11
3.6014508861
 21
5.8556278919
  0
LINE
  5
3A7
100
AcDbEntity
  8
ASSI
100
AcDbLine
 62
7
  6
CONTINUOUS
 10
3.6514508861
 20
-22.0625507471
 11
3.6514508861
 21
-23.4710462745
  0
LINE
  5
3A8
100
AcDbEntity
  8
0
100
AcDbLine
 62
7
  6
CONTINUOUS
 10
3.6514508861
 20
-22.0625507471
 11
3.6514508861
 21
-23.5140861543
  0
LINE
  5
3A9
100
AcDbEntity
  8
ASSI
100
AcDbLine
 62
7
  6
CONTINUOUS
 10
3.6514508861
 20
-23.4725774131
 11
3.6514508861
 21
-23.5140861543
  0
LINE
  5
3AA
100
AcDbEntity
  8
0
100
AcDbLine
 62
7
  6
CONTINUOUS
 10
3.6514508861
 20
22.6227427788
 11
3.6514508861
 21
24.074278186
  0
LINE
  5
3AB
100
AcDbEntity
  8
RACCORDO
100
AcDbLine
 62
7
  6
CONTINUOUS
 10
3.6514508861
 20
22.6227427788
 11
3.6514508861
 21
24.0312383062
  0
LINE
  5
3AC
100
AcDbEntity
  8
ASSI
100
AcDbLine
 62
7
  6
CONTINUOUS
 10
3.6514508861
 20
24.0327694448
 11
3.6514508861
 21
24.074278186
  0
LINE
  5
3AD
100
AcDbEntity
  8
ASSI
100
AcDbLine
 62
7
  6
CONTINUOUS
 10
3.6514508861
 20
22.6227427788
 11
3.6514508861
 21
24.0312383062
  0
LINE
  5
3AE
100
AcDbEntity
  8
ASSI
100
AcDbLine
 62
7
  6
CONTINUOUS
 10
3.8714508861
 20
6.1237130736
 11
3.8714508861
 21
4.6300960158
  0
LINE
  5
3AF
100
AcDbEntity
  8
GUSCI_ESTERNI
100
AcDbLine
 62
7
  6
CONTINUOUS
 10
7.1764508861
 20
6.0598832463
 11
7.2347842473
 21
6.1790321683
  0
LINE
  5
3B0
100
AcDbEntity
  8
ASSI
100
AcDbLine
 62
7
  6
CONTINUOUS
 10
7.1764508861
 20
6.0598832463
 11
7.2347842473
 21
6.1790321683
  0
LINE
  5
3B1
100
AcDbEntity
  8
GUSCI_ESTERNI
100
AcDbLine
 62
7
  6
CONTINUOUS
 10
8.8681174415
 20
6.1194577073
 11
8.9847843307
 21
6.2386066293
  0
LINE
  5
3B2
100
AcDbEntity
  8
ASSI
100
AcDbLine
 62
7
  6
CONTINUOUS
 10
8.8681174415
 20
6.1194577073
 11
8.9847843307
 21
6.2386066293
  0
LINE
  5
3B3
100
AcDbEntity
  8
GUSCI_ESTERNI
100
AcDbLine
 62
7
  6
CONTINUOUS
 10
9.9181174415
 20
6.4769044732
 11
9.7431174415
 21
6.2981810903
  0
LINE
  5
3B4
100
AcDbEntity
  8
ASSI
100
AcDbLine
 62
7
  6
CONTINUOUS
 10
9.9181174415
 20
6.4769044732
 11
9.7431174415
 21
6.2981810903
  0
LINE
  5
3B5
100
AcDbEntity
  8
GUSCI_ESTERNI
100
AcDbLine
 62
7
  6
CONTINUOUS
 10
9.8597843307
 20
6.1790321683
 11
9.9181174415
 21
6.2386066293
  0
LINE
  5
3B6
100
AcDbEntity
  8
ASSI
100
AcDbLine
 62
7
  6
CONTINUOUS
 10
9.8597843307
 20
6.1790321683
 11
9.9181174415
 21
6.2386066293
  0
LINE
  5
3B7
100
AcDbEntity
  8
0
100
AcDbLine
 62
7
  6
CONTINUOUS
 10
4.1014508861
 20
17.1800960158
 11
4.1014508861
 21
13.6800960158
  0
LINE
  5
3B8
100
AcDbEntity
  8
0
100
AcDbLine
 62
7
  6
CONTINUOUS
 10
4.1014508861
 20
-16.6199039842
 11
4.1014508861
 21
-13.1199039842
  0
LINE
  5
3B9
100
AcDbEntity
  8
ASSI
100
AcDbLine
 62
7
  6
CONTINUOUS
 10
4.1414508861
 20
4.6300960158
 11
4.1414508861
 21
6.4300960158
  0
LINE
  5
3BA
100
AcDbEntity
  8
0
100
AcDbLine
 62
7
  6
CONTINUOUS
 10
4.4079508861
 20
-13.1199039842
 11
4.4079508861
 21
-16.6199039842
  0
LINE
  5
3BB
100
AcDbEntity
  8
0
100
AcDbLine
 62
7
  6
CONTINUOUS
 10
4.4079508861
 20
13.6800960158
 11
4.4079508861
 21
17.1800960158
  0
LINE
  5
3BC
100
AcDbEntity
  8
ASSI
100
AcDbLine
 62
7
  6
CONTINUOUS
 10
4.5014508647
 20
6.1620109414
 11
4.5014508647
 21
5.8556278919
  0
LINE
  5
3BD
100
AcDbEntity
  8
0
100
AcDbLine
 62
253
  6
CONTINUOUS
 10
4.5073836189
 20
-22.0625290188
 11
4.5073836189
 21
-23.4706774089
  0
LINE
  5
3BE
100
AcDbEntity
  8
ASSI
100
AcDbLine
 62
253
  6
CONTINUOUS
 10
4.5073836189
 20
-22.0625290188
 11
4.5073836189
 21
-23.4706774089
  0
LINE
  5
3BF
100
AcDbEntity
  8
0
100
AcDbLine
 62
253
  6
CONTINUOUS
 10
4.5073836189
 20
22.6227210505
 11
4.5073836189
 21
24.0308694406
  0
LINE
  5
3C0
100
AcDbEntity
  8
ASSI
100
AcDbLine
 62
253
  6
CONTINUOUS
 10
4.5073836189
 20
22.6227210505
 11
4.5073836189
 21
24.0308694406
  0
LINE
  5
3C1
100
AcDbEntity
  8
0
100
AcDbLine
 62
7
  6
CONTINUOUS
 10
4.5514508861
 20
-23.5199039842
 11
4.5514508861
 21
-22.1273851063
  0
LINE
  5
3C2
100
AcDbEntity
  8
DRAFT
100
AcDbLine
 62
7
  6
CONTINUOUS
 10
4.5514508861
 20
-23.5199039842
 11
4.5514508861
 21
-22.1273851063
  0
LINE
  5
3C3
100
AcDbEntity
  8
0
100
AcDbLine
 62
7
  6
CONTINUOUS
 10
4.5514508861
 20
22.687577138
 11
4.5514508861
 21
24.0800960158
  0
LINE
  5
3C4
100
AcDbEntity
  8
DRAFT
100
AcDbLine
 62
7
  6
CONTINUOUS
 10
4.5514508861
 20
22.687577138
 11
4.5514508861
 21
24.0800960158
  0
LINE
  5
3C5
100
AcDbEntity
  8
ASSI
100
AcDbLine
 62
7
  6
CONTINUOUS
 10
4.7714509291
 20
6.1237130736
 11
4.7714509291
 21
4.6300960158
  0
LINE
  5
3C6
100
AcDbEntity
  8
ASSI
100
AcDbLine
 62
7
  6
CONTINUOUS
 10
5.0414509291
 20
4.6300960158
 11
5.0414509291
 21
6.4300960158
  0
LINE
  5
3C7
100
AcDbEntity
  8
ASSI
100
AcDbLine
 62
7
  6
CONTINUOUS
 10
5.6014508861
 20
22.0388228836
 11
5.6014508861
 21
17.1800960158
  0
LINE
  5
3C8
100
AcDbEntity
  8
GUSCI_ESTERNI
100
AcDbLine
 62
7
  6
CONTINUOUS
 10
5.6014508861
 20
6.7748594964
 11
5.6014508861
 21
4.2853325353
  0
LINE
  5
3C9
100
AcDbEntity
  8
ASSI
100
AcDbLine
 62
7
  6
CONTINUOUS
 10
5.6014508861
 20
13.6800960158
 11
5.6014508861
 21
2.1800960158
  0
LINE
  5
3CA
100
AcDbEntity
  8
ASSI
100
AcDbLine
 62
7
  6
CONTINUOUS
 10
5.6014508861
 20
-21.4785546966
 11
5.6014508861
 21
-16.6199039842
  0
LINE
  5
3CB
100
AcDbEntity
  8
GUSCI_ESTERNI
100
AcDbLine
 62
7
  6
CONTINUOUS
 10
5.6014508861
 20
-20.3199420611
 11
5.6014508861
 21
-17.3949039842
  0
LINE
  5
3CC
100
AcDbEntity
  8
GUSCI_ESTERNI
100
AcDbLine
 62
7
  6
CONTINUOUS
 10
5.6014508861
 20
-17.3699039842
 11
5.6014508861
 21
-16.6199039842
  0
LINE
  5
3CD
100
AcDbEntity
  8
GUSCI_ESTERNI
100
AcDbLine
 62
7
  6
CONTINUOUS
 10
5.6014508861
 20
-13.1199039842
 11
5.6014508861
 21
-12.3699039842
  0
LINE
  5
3CE
100
AcDbEntity
  8
ASSI
100
AcDbLine
 62
7
  6
CONTINUOUS
 10
5.6014508861
 20
-13.1199039842
 11
5.6014508861
 21
1.3800960158
  0
LINE
  5
3CF
100
AcDbEntity
  8
GUSCI_ESTERNI
100
AcDbLine
 62
7
  6
CONTINUOUS
 10
5.6014508861
 20
-12.3449039842
 11
5.6014508861
 21
1.3800960158
  0
LINE
  5
3D0
100
AcDbEntity
  8
GUSCI_ESTERNI
100
AcDbLine
 62
7
  6
CONTINUOUS
 10
5.6014508861
 20
2.1800960158
 11
5.6014508861
 21
4.2800960158
  0
LINE
  5
3D1
100
AcDbEntity
  8
GUSCI_ESTERNI
100
AcDbLine
 62
7
  6
CONTINUOUS
 10
5.6014508861
 20
6.7800960158
 11
5.6014508861
 21
13.6800960158
  0
LINE
  5
3D2
100
AcDbEntity
  8
GUSCI_ESTERNI
100
AcDbLine
 62
7
  6
CONTINUOUS
 10
5.6014508861
 20
17.1800960158
 11
5.6014508861
 21
20.8801340928
  0
LINE
  5
3D3
100
AcDbEntity
  8
ASSI
100
AcDbLine
 62
7
  6
CONTINUOUS
 10
-5.2985491139
 20
4.2800960158
 11
-1.2985491139
 21
4.2800960158
  0
LINE
  5
3D4
100
AcDbEntity
  8
ASSI
100
AcDbLine
 62
7
  6
CONTINUOUS
 10
5.6014508861
 20
4.2800960158
 11
0.1514508861
 21
4.2800960158
  0
LINE
  5
3D5
100
AcDbEntity
  8
ASSI
100
AcDbLine
 62
7
  6
CONTINUOUS
 10
-5.2985491139
 20
4.2853325353
 11
-1.3037856333
 21
4.2853325353
  0
LINE
  5
3D6
100
AcDbEntity
  8
ASSI
100
AcDbLine
 62
7
  6
CONTINUOUS
 10
0.1566874056
 20
4.2853325353
 11
5.6014508861
 21
4.2853325353
  0
LINE
  5
3D7
100
AcDbEntity
  8
0
100
AcDbLine
 62
7
  6
CONTINUOUS
 10
-10.7985491139
 20
4.4278307879
 11
-10.8973097373
 21
4.4278307879
  0
LINE
  5
3D8
100
AcDbEntity
  8
RACCORDO
100
AcDbLine
 62
7
  6
CONTINUOUS
 10
-10.7985491139
 20
4.4278307879
 11
-10.8973097373
 21
4.4278307879
  0
LINE
  5
3D9
100
AcDbEntity
  8
0
100
AcDbLine
 62
7
  6
CONTINUOUS
 10
11.1014508861
 20
4.4278307879
 11
11.2002115096
 21
4.4278307879
  0
LINE
  5
3DA
100
AcDbEntity
  8
RACCORDO
100
AcDbLine
 62
7
  6
CONTINUOUS
 10
11.1014508861
 20
4.4278307879
 11
11.2002115096
 21
4.4278307879
  0
LINE
  5
3DB
100
AcDbEntity
  8
ASSI
100
AcDbLine
 62
7
  6
CONTINUOUS
 10
3.8714508861
 20
4.6300960158
 11
4.1414508861
 21
4.6300960158
  0
LINE
  5
3DC
100
AcDbEntity
  8
ASSI
100
AcDbLine
 62
7
  6
CONTINUOUS
 10
4.7714509291
 20
4.6300960158
 11
5.0414509291
 21
4.6300960158
  0
LINE
  5
3DD
100
AcDbEntity
  8
GUSCI_ESTERNI
100
AcDbLine
 62
7
  6
CONTINUOUS
 10
5.9514508861
 20
4.6300960158
 11
6.2431175459
 21
4.6300960158
  0
LINE
  5
3DE
100
AcDbEntity
  8
ASSI
100
AcDbLine
 62
7
  6
CONTINUOUS
 10
5.9514508861
 20
4.6300960158
 11
6.2431175459
 21
4.6300960158
  0
LINE
  5
3DF
100
AcDbEntity
  8
GUSCI_ESTERNI
100
AcDbLine
 62
7
  6
CONTINUOUS
 10
6.8847842473
 20
4.6300960158
 11
7.1764508861
 21
4.6300960158
  0
LINE
  5
3E0
100
AcDbEntity
  8
ASSI
100
AcDbLine
 62
7
  6
CONTINUOUS
 10
6.8847842473
 20
4.6300960158
 11
7.1764508861
 21
4.6300960158
  0
LINE
  5
3E1
100
AcDbEntity
  8
GUSCI_ESTERNI
100
AcDbLine
 62
7
  6
CONTINUOUS
 10
7.8181176084
 20
4.6300960158
 11
8.1097841638
 21
4.6300960158
  0
LINE
  5
3E2
100
AcDbEntity
  8
ASSI
100
AcDbLine
 62
7
  6
CONTINUOUS
 10
7.8181176084
 20
4.6300960158
 11
8.1097841638
 21
4.6300960158
  0
LINE
  5
3E3
100
AcDbEntity
  8
GUSCI_ESTERNI
100
AcDbLine
 62
7
  6
CONTINUOUS
 10
8.5764508861
 20
4.6300960158
 11
8.8681174415
 21
4.6300960158
  0
LINE
  5
3E4
100
AcDbEntity
  8
ASSI
100
AcDbLine
 62
7
  6
CONTINUOUS
 10
8.5764508861
 20
4.6300960158
 11
8.8681174415
 21
4.6300960158
  0
LINE
  5
3E5
100
AcDbEntity
  8
GUSCI_ESTERNI
100
AcDbLine
 62
7
  6
CONTINUOUS
 10
9.5097843307
 20
4.6300960158
 11
9.8014508861
 21
4.6300960158
  0
LINE
  5
3E6
100
AcDbEntity
  8
ASSI
100
AcDbLine
 62
7
  6
CONTINUOUS
 10
9.5097843307
 20
4.6300960158
 11
9.8014508861
 21
4.6300960158
  0
LINE
  5
3E7
100
AcDbEntity
  8
GUSCI_ESTERNI
100
AcDbLine
 62
7
  6
CONTINUOUS
 10
10.4431174415
 20
4.6300960158
 11
10.7347843307
 21
4.6300960158
  0
LINE
  5
3E8
100
AcDbEntity
  8
ASSI
100
AcDbLine
 62
7
  6
CONTINUOUS
 10
10.4431174415
 20
4.6300960158
 11
10.7347843307
 21
4.6300960158
  0
LINE
  5
3E9
100
AcDbEntity
  8
GUSCI_ESTERNI
100
AcDbLine
 62
7
  6
CONTINUOUS
 10
11.0014508861
 20
4.2329709298
 11
5.6014508861
 21
4.2800960158
  0
LINE
  5
3EA
100
AcDbEntity
  8
ASSI
100
AcDbLine
 62
7
  6
CONTINUOUS
 10
11.0014508861
 20
4.2329709298
 11
5.6014508861
 21
4.2800960158
  0
LINE
  5
3EB
100
AcDbEntity
  8
ASSI
100
AcDbLine
 62
7
  6
CONTINUOUS
 10
0.1514508861
 20
6.7800960158
 11
0.1566874056
 21
6.7748594964
  0
LINE
  5
3EC
100
AcDbEntity
  8
GUSCI_ESTERNI
100
AcDbLine
 62
7
  6
CONTINUOUS
 10
5.9514508861
 20
6.5364789342
 11
5.9514508861
 21
4.6300960158
  0
LINE
  5
3ED
100
AcDbEntity
  8
ASSI
100
AcDbLine
 62
7
  6
CONTINUOUS
 10
5.9514508861
 20
6.5364789342
 11
5.9514508861
 21
4.6300960158
  0
LINE
  5
3EE
100
AcDbEntity
  8
GUSCI_ESTERNI
100
AcDbLine
 62
7
  6
CONTINUOUS
 10
6.2431175459
 20
4.6300960158
 11
6.2431175459
 21
6.1194577073
  0
LINE
  5
3EF
100
AcDbEntity
  8
ASSI
100
AcDbLine
 62
7
  6
CONTINUOUS
 10
6.2431175459
 20
4.6300960158
 11
6.2431175459
 21
6.1194577073
  0
LINE
  5
3F0
100
AcDbEntity
  8
GUSCI_ESTERNI
100
AcDbLine
 62
7
  6
CONTINUOUS
 10
6.2431175459
 20
6.3577555512
 11
6.2431175459
 21
6.5364789342
  0
LINE
  5
3F1
100
AcDbEntity
  8
ASSI
100
AcDbLine
 62
7
  6
CONTINUOUS
 10
6.2431175459
 20
6.3577555512
 11
6.2431175459
 21
6.5364789342
  0
LINE
  5
3F2
100
AcDbEntity
  8
0
100
AcDbLine
 62
7
  6
CONTINUOUS
 10
6.7949508861
 20
-13.1199039842
 11
6.7949508861
 21
-16.6199039842
  0
LINE
  5
3F3
100
AcDbEntity
  8
0
100
AcDbLine
 62
7
  6
CONTINUOUS
 10
6.7949508861
 20
13.6800960158
 11
6.7949508861
 21
17.1800960158
  0
LINE
  5
3F4
100
AcDbEntity
  8
GUSCI_ESTERNI
100
AcDbLine
 62
7
  6
CONTINUOUS
 10
6.8847842473
 20
6.0598832463
 11
6.8847842473
 21
4.6300960158
  0
LINE
  5
3F5
100
AcDbEntity
  8
ASSI
100
AcDbLine
 62
7
  6
CONTINUOUS
 10
6.8847842473
 20
6.0598832463
 11
6.8847842473
 21
4.6300960158
  0
LINE
  5
3F6
100
AcDbEntity
  8
0
100
AcDbLine
 62
7
  6
CONTINUOUS
 10
7.1014508861
 20
17.1800960158
 11
7.1014508861
 21
13.6800960158
  0
LINE
  5
3F7
100
AcDbEntity
  8
0
100
AcDbLine
 62
7
  6
CONTINUOUS
 10
7.1014508861
 20
-16.6199039842
 11
7.1014508861
 21
-13.1199039842
  0
LINE
  5
3F8
100
AcDbEntity
  8
GUSCI_ESTERNI
100
AcDbLine
 62
7
  6
CONTINUOUS
 10
7.1764508861
 20
4.6300960158
 11
7.1764508861
 21
6.0598832463
  0
LINE
  5
3F9
100
AcDbEntity
  8
ASSI
100
AcDbLine
 62
7
  6
CONTINUOUS
 10
7.1764508861
 20
4.6300960158
 11
7.1764508861
 21
6.0598832463
  0
LINE
  5
3FA
100
AcDbEntity
  8
GUSCI_ESTERNI
100
AcDbLine
 62
7
  6
CONTINUOUS
 10
9.8014508861
 20
6.0598832463
 11
9.8597843307
 21
6.1790321683
  0
LINE
  5
3FB
100
AcDbEntity
  8
ASSI
100
AcDbLine
 62
7
  6
CONTINUOUS
 10
9.8014508861
 20
6.0598832463
 11
9.8597843307
 21
6.1790321683
  0
LINE
  5
3FC
100
AcDbEntity
  8
ASSI
100
AcDbLine
 62
7
  6
CONTINUOUS
 10
0.1514508861
 20
-8.7199039842
 11
0.1470112969
 21
-8.7243435734
  0
LINE
  5
3FD
100
AcDbEntity
  8
ASSI
100
AcDbLine
 62
253
  6
CONTINUOUS
 10
-2.0984919985
 20
-12.3699039842
 11
-2.0810382629
 21
-12.3524502486
  0
LINE
  5
3FE
100
AcDbEntity
  8
GUSCI_ESTERNI
100
AcDbLine
 62
7
  6
CONTINUOUS
 10
11.0014508861
 20
6.8272211019
 11
5.6014508861
 21
6.7800960158
  0
LINE
  5
3FF
100
AcDbEntity
  8
ASSI
100
AcDbLine
 62
7
  6
CONTINUOUS
 10
11.0014508861
 20
6.8272211019
 11
5.6014508861
 21
6.7800960158
  0
LINE
  5
400
100
AcDbEntity
  8
ASSI
100
AcDbLine
 62
7
  6
CONTINUOUS
 10
-4.9985491139
 20
6.0300960158
 11
-4.4985491139
 21
6.0300960158
  0
LINE
  5
401
100
AcDbEntity
  8
ASSI
100
AcDbLine
 62
7
  6
CONTINUOUS
 10
-2.41521586
 20
6.0300960158
 11
-1.66521586
 21
6.0300960158
  0
LINE
  5
402
100
AcDbEntity
  8
GUSCI_ESTERNI
100
AcDbLine
 62
7
  6
CONTINUOUS
 10
6.5347842056
 20
6.2981810903
 11
6.6514508861
 21
6.2981810903
  0
LINE
  5
403
100
AcDbEntity
  8
ASSI
100
AcDbLine
 62
7
  6
CONTINUOUS
 10
6.5347842056
 20
6.2981810903
 11
6.6514508861
 21
6.2981810903
  0
LINE
  5
404
100
AcDbEntity
  8
GUSCI_ESTERNI
100
AcDbLine
 62
7
  6
CONTINUOUS
 10
7.4097841638
 20
6.2981810903
 11
7.5847841638
 21
6.2981810903
  0
LINE
  5
405
100
AcDbEntity
  8
ASSI
100
AcDbLine
 62
7
  6
CONTINUOUS
 10
7.4097841638
 20
6.2981810903
 11
7.5847841638
 21
6.2981810903
  0
LINE
  5
406
100
AcDbEntity
  8
GUSCI_ESTERNI
100
AcDbLine
 62
7
  6
CONTINUOUS
 10
9.1597843307
 20
6.2981810903
 11
9.2764508861
 21
6.2981810903
  0
LINE
  5
407
100
AcDbEntity
  8
ASSI
100
AcDbLine
 62
7
  6
CONTINUOUS
 10
9.1597843307
 20
6.2981810903
 11
9.2764508861
 21
6.2981810903
  0
LINE
  5
408
100
AcDbEntity
  8
GUSCI_ESTERNI
100
AcDbLine
 62
7
  6
CONTINUOUS
 10
10.0347843307
 20
6.2981810903
 11
10.2097843307
 21
6.2981810903
  0
LINE
  5
409
100
AcDbEntity
  8
ASSI
100
AcDbLine
 62
7
  6
CONTINUOUS
 10
10.0347843307
 20
6.2981810903
 11
10.2097843307
 21
6.2981810903
  0
LINE
  5
40A
100
AcDbEntity
  8
ASSI
100
AcDbLine
 62
7
  6
CONTINUOUS
 10
5.0414509291
 20
6.4300960158
 11
4.7714509291
 21
6.4300960158
  0
LINE
  5
40B
100
AcDbEntity
  8
ASSI
100
AcDbLine
 62
7
  6
CONTINUOUS
 10
4.1414508861
 20
6.4300960158
 11
3.8714508861
 21
6.4300960158
  0
LINE
  5
40C
100
AcDbEntity
  8
GUSCI_ESTERNI
100
AcDbLine
 62
7
  6
CONTINUOUS
 10
10.3264508861
 20
6.5364789342
 11
10.0931174415
 21
6.5364789342
  0
LINE
  5
40D
100
AcDbEntity
  8
ASSI
100
AcDbLine
 62
7
  6
CONTINUOUS
 10
10.3264508861
 20
6.5364789342
 11
10.0931174415
 21
6.5364789342
  0
LINE
  5
40E
100
AcDbEntity
  8
GUSCI_ESTERNI
100
AcDbLine
 62
7
  6
CONTINUOUS
 10
9.3931174415
 20
6.5364789342
 11
9.1597843307
 21
6.5364789342
  0
LINE
  5
40F
100
AcDbEntity
  8
ASSI
100
AcDbLine
 62
7
  6
CONTINUOUS
 10
9.3931174415
 20
6.5364789342
 11
9.1597843307
 21
6.5364789342
  0
LINE
  5
410
100
AcDbEntity
  8
GUSCI_ESTERNI
100
AcDbLine
 62
7
  6
CONTINUOUS
 10
8.8681174415
 20
6.5364789342
 11
8.5764508861
 21
6.5364789342
  0
LINE
  5
411
100
AcDbEntity
  8
ASSI
100
AcDbLine
 62
7
  6
CONTINUOUS
 10
8.8681174415
 20
6.5364789342
 11
8.5764508861
 21
6.5364789342
  0
LINE
  5
412
100
AcDbEntity
  8
GUSCI_ESTERNI
100
AcDbLine
 62
7
  6
CONTINUOUS
 10
7.7014508861
 20
6.5364789342
 11
7.4681176084
 21
6.5364789342
  0
LINE
  5
413
100
AcDbEntity
  8
ASSI
100
AcDbLine
 62
7
  6
CONTINUOUS
 10
7.7014508861
 20
6.5364789342
 11
7.4681176084
 21
6.5364789342
  0
LINE
  5
414
100
AcDbEntity
  8
GUSCI_ESTERNI
100
AcDbLine
 62
7
  6
CONTINUOUS
 10
6.768117525
 20
6.5364789342
 11
6.5347842056
 21
6.5364789342
  0
LINE
  5
415
100
AcDbEntity
  8
ASSI
100
AcDbLine
 62
7
  6
CONTINUOUS
 10
6.768117525
 20
6.5364789342
 11
6.5347842056
 21
6.5364789342
  0
LINE
  5
416
100
AcDbEntity
  8
GUSCI_ESTERNI
100
AcDbLine
 62
7
  6
CONTINUOUS
 10
6.2431175459
 20
6.5364789342
 11
5.9514508861
 21
6.5364789342
  0
LINE
  5
417
100
AcDbEntity
  8
ASSI
100
AcDbLine
 62
7
  6
CONTINUOUS
 10
6.2431175459
 20
6.5364789342
 11
5.9514508861
 21
6.5364789342
  0
LINE
  5
418
100
AcDbEntity
  8
ASSI
100
AcDbLine
 62
7
  6
CONTINUOUS
 10
5.6014508861
 20
6.7748594964
 11
0.1566874056
 21
6.7748594964
  0
LINE
  5
419
100
AcDbEntity
  8
ASSI
100
AcDbLine
 62
7
  6
CONTINUOUS
 10
5.6014508861
 20
6.7800960158
 11
0.1514508861
 21
6.7800960158
  0
LINE
  5
41A
100
AcDbEntity
  8
0
100
AcDbLine
 62
253
  6
CONTINUOUS
 10
8.4058227201
 20
-23.5642415515
 11
8.4014508861
 21
-23.1303891324
  0
LINE
  5
41B
100
AcDbEntity
  8
RACCORDO
100
AcDbLine
 62
253
  6
CONTINUOUS
 10
8.4058227201
 20
-23.5642415515
 11
8.4014508861
 21
-23.1303891324
  0
LINE
  5
41C
100
AcDbEntity
  8
0
100
AcDbLine
 62
253
  6
CONTINUOUS
 10
8.6565457181
 20
-23.4199039842
 11
8.6507278883
 21
-22.842553715
  0
LINE
  5
41D
100
AcDbEntity
  8
RACCORDO
100
AcDbLine
 62
253
  6
CONTINUOUS
 10
8.6558184894
 20
-23.3477352005
 11
8.6507278883
 21
-22.842553715
  0
LINE
  5
41E
100
AcDbEntity
  8
GUSCI_ESTERNI
100
AcDbLine
 62
7
  6
CONTINUOUS
 10
7.8181176084
 20
6.0598832463
 11
7.8181176084
 21
4.6300960158
  0
LINE
  5
41F
100
AcDbEntity
  8
ASSI
100
AcDbLine
 62
7
  6
CONTINUOUS
 10
7.8181176084
 20
6.0598832463
 11
7.8181176084
 21
4.6300960158
  0
LINE
  5
420
100
AcDbEntity
  8
GUSCI_ESTERNI
100
AcDbLine
 62
7
  6
CONTINUOUS
 10
8.1097841638
 20
4.6300960158
 11
8.1097841638
 21
6.0598832463
  0
LINE
  5
421
100
AcDbEntity
  8
ASSI
100
AcDbLine
 62
7
  6
CONTINUOUS
 10
8.1097841638
 20
4.6300960158
 11
8.1097841638
 21
6.0598832463
  0
LINE
  5
422
100
AcDbEntity
  8
0
100
AcDbLine
 62
7
  6
CONTINUOUS
 10
8.4014508861
 20
-22.3201174745
 11
8.4014508861
 21
-23.9699082149
  0
LINE
  5
423
100
AcDbEntity
  8
RACCORDO
100
AcDbLine
 62
7
  6
CONTINUOUS
 10
8.4014508861
 20
-22.3201174745
 11
8.4014508861
 21
-23.9699082149
  0
LINE
  5
424
100
AcDbEntity
  8
0
100
AcDbLine
 62
7
  6
CONTINUOUS
 10
8.4014508861
 20
22.8803095062
 11
8.4014508861
 21
24.5301002466
  0
LINE
  5
425
100
AcDbEntity
  8
RACCORDO
100
AcDbLine
 62
7
  6
CONTINUOUS
 10
8.4014508861
 20
22.8803095062
 11
8.4014508861
 21
24.5301002466
  0
LINE
  5
426
100
AcDbEntity
  8
0
100
AcDbLine
 62
253
  6
CONTINUOUS
 10
8.4058227201
 20
24.5257284126
 11
8.4058227201
 21
24.1244335831
  0
LINE
  5
427
100
AcDbEntity
  8
RACCORDO
100
AcDbLine
 62
253
  6
CONTINUOUS
 10
8.4058227201
 20
24.5257284126
 11
8.4058227201
 21
24.1244335831
  0
LINE
  5
428
100
AcDbEntity
  8
0
100
AcDbLine
 62
253
  6
CONTINUOUS
 10
8.4058227201
 20
-23.5642415515
 11
8.4058227201
 21
-23.9655363809
  0
LINE
  5
429
100
AcDbEntity
  8
RACCORDO
100
AcDbLine
 62
253
  6
CONTINUOUS
 10
8.4058227201
 20
-23.5642415515
 11
8.4058227201
 21
-23.9655363809
  0
LINE
  5
42A
100
AcDbEntity
  8
GUSCI_ESTERNI
100
AcDbLine
 62
7
  6
CONTINUOUS
 10
8.5764508861
 20
6.5364789342
 11
8.5764508861
 21
4.6300960158
  0
LINE
  5
42B
100
AcDbEntity
  8
ASSI
100
AcDbLine
 62
7
  6
CONTINUOUS
 10
8.5764508861
 20
6.5364789342
 11
8.5764508861
 21
4.6300960158
  0
LINE
  5
42C
100
AcDbEntity
  8
0
100
AcDbLine
 62
253
  6
CONTINUOUS
 10
8.6558184894
 20
-23.4199039842
 11
8.6558184894
 21
-24.2155321502
  0
LINE
  5
42D
100
AcDbEntity
  8
RACCORDO
100
AcDbLine
 62
253
  6
CONTINUOUS
 10
8.6558184894
 20
-23.3477352005
 11
8.6558184894
 21
-24.2155321502
  0
LINE
  5
42E
100
AcDbEntity
  8
0
100
AcDbLine
 62
253
  6
CONTINUOUS
 10
8.6558184894
 20
23.9079272322
 11
8.6558184894
 21
24.7757241818
  0
LINE
  5
42F
100
AcDbEntity
  8
RACCORDO
100
AcDbLine
 62
253
  6
CONTINUOUS
 10
8.6558184894
 20
23.9079272322
 11
8.6558184894
 21
24.7757241818
  0
LINE
  5
430
100
AcDbEntity
  8
GUSCI_ESTERNI
100
AcDbLine
 62
253
  6
CONTINUOUS
 10
8.7514508861
 20
17.4232236075
 11
8.7514508861
 21
17.1800960158
  0
LINE
  5
431
100
AcDbEntity
  8
ASSI
100
AcDbLine
 62
253
  6
CONTINUOUS
 10
8.7514508861
 20
17.4232236075
 11
8.7514508861
 21
17.1800960158
  0
LINE
  5
432
100
AcDbEntity
  8
GUSCI_ESTERNI
100
AcDbLine
 62
253
  6
CONTINUOUS
 10
8.7514508861
 20
-12.8767763925
 11
8.7514508861
 21
-13.1199039842
  0
LINE
  5
433
100
AcDbEntity
  8
ASSI
100
AcDbLine
 62
253
  6
CONTINUOUS
 10
8.7514508861
 20
-12.8767763925
 11
8.7514508861
 21
-13.1199039842
  0
LINE
  5
434
100
AcDbEntity
  8
GUSCI_ESTERNI
100
AcDbLine
 62
253
  6
CONTINUOUS
 10
8.7514508861
 20
-16.8630315758
 11
8.7514508861
 21
-16.6199039842
  0
LINE
  5
435
100
AcDbEntity
  8
ASSI
100
AcDbLine
 62
253
  6
CONTINUOUS
 10
8.7514508861
 20
-16.8630315758
 11
8.7514508861
 21
-16.6199039842
  0
LINE
  5
436
100
AcDbEntity
  8
GUSCI_ESTERNI
100
AcDbLine
 62
253
  6
CONTINUOUS
 10
8.7514508861
 20
13.4369684242
 11
8.7514508861
 21
13.6800960158
  0
LINE
  5
437
100
AcDbEntity
  8
ASSI
100
AcDbLine
 62
253
  6
CONTINUOUS
 10
8.7514508861
 20
13.4369684242
 11
8.7514508861
 21
13.6800960158
  0
LINE
  5
438
100
AcDbEntity
  8
GUSCI_ESTERNI
100
AcDbLine
 62
7
  6
CONTINUOUS
 10
8.8681174415
 20
4.6300960158
 11
8.8681174415
 21
6.1194577073
  0
LINE
  5
439
100
AcDbEntity
  8
ASSI
100
AcDbLine
 62
7
  6
CONTINUOUS
 10
8.8681174415
 20
4.6300960158
 11
8.8681174415
 21
6.1194577073
  0
LINE
  5
43A
100
AcDbEntity
  8
GUSCI_ESTERNI
100
AcDbLine
 62
7
  6
CONTINUOUS
 10
8.8681174415
 20
6.3577555512
 11
8.8681174415
 21
6.5364789342
  0
LINE
  5
43B
100
AcDbEntity
  8
ASSI
100
AcDbLine
 62
7
  6
CONTINUOUS
 10
8.8681174415
 20
6.3577555512
 11
8.8681174415
 21
6.5364789342
  0
LINE
  5
43C
100
AcDbEntity
  8
0
100
AcDbLine
 62
253
  6
CONTINUOUS
 10
8.4014508861
 20
23.6905811641
 11
8.4058227201
 21
24.1244335831
  0
LINE
  5
43D
100
AcDbEntity
  8
RACCORDO
100
AcDbLine
 62
253
  6
CONTINUOUS
 10
8.4014508861
 20
23.6905811641
 11
8.4058227201
 21
24.1244335831
  0
LINE
  5
43E
100
AcDbEntity
  8
0
100
AcDbLine
 62
253
  6
CONTINUOUS
 10
8.6507278883
 20
23.4027457467
 11
8.6558184894
 21
23.9079272322
  0
LINE
  5
43F
100
AcDbEntity
  8
RACCORDO
100
AcDbLine
 62
253
  6
CONTINUOUS
 10
8.6507278883
 20
23.4027457467
 11
8.6558184894
 21
23.9079272322
  0
LINE
  5
440
100
AcDbEntity
  8
0
100
AcDbLine
 62
7
  6
CONTINUOUS
 10
-4.2477186285
 20
-22.1273851063
 11
-4.2044818466
 21
-22.0625290188
  0
LINE
  5
441
100
AcDbEntity
  8
DRAFT
100
AcDbLine
 62
7
  6
CONTINUOUS
 10
-4.2477186285
 20
-22.1273851063
 11
-4.2044818466
 21
-22.0625290188
  0
LINE
  5
442
100
AcDbEntity
  8
ASSI
100
AcDbLine
 62
7
  6
CONTINUOUS
 10
0.1514508861
 20
-11.3699039842
 11
0.1383605845
 21
-11.3829942858
  0
LINE
  5
443
100
AcDbEntity
  8
GUSCI_ESTERNI
100
AcDbLine
 62
7
  6
CONTINUOUS
 10
11.0014508861
 20
9.1984729725
 11
9.8014508861
 21
9.2166114265
  0
LINE
  5
444
100
AcDbEntity
  8
ASSI
100
AcDbLine
 62
7
  6
CONTINUOUS
 10
11.0014508861
 20
9.1984729725
 11
9.8014508861
 21
9.2166114265
  0
LINE
  5
445
100
AcDbEntity
  8
GUSCI_ESTERNI
100
AcDbLine
 62
7
  6
CONTINUOUS
 10
6.943117525
 20
6.4769044732
 11
6.768117525
 21
6.5364789342
  0
LINE
  5
446
100
AcDbEntity
  8
ASSI
100
AcDbLine
 62
7
  6
CONTINUOUS
 10
6.943117525
 20
6.4769044732
 11
6.768117525
 21
6.5364789342
  0
LINE
  5
447
100
AcDbEntity
  8
GUSCI_ESTERNI
100
AcDbLine
 62
7
  6
CONTINUOUS
 10
7.8764508861
 20
6.4769044732
 11
7.7014508861
 21
6.5364789342
  0
LINE
  5
448
100
AcDbEntity
  8
ASSI
100
AcDbLine
 62
7
  6
CONTINUOUS
 10
7.8764508861
 20
6.4769044732
 11
7.7014508861
 21
6.5364789342
  0
LINE
  5
449
100
AcDbEntity
  8
GUSCI_ESTERNI
100
AcDbLine
 62
7
  6
CONTINUOUS
 10
9.5681174415
 20
6.4769044732
 11
9.3931174415
 21
6.5364789342
  0
LINE
  5
44A
100
AcDbEntity
  8
ASSI
100
AcDbLine
 62
7
  6
CONTINUOUS
 10
9.5681174415
 20
6.4769044732
 11
9.3931174415
 21
6.5364789342
  0
LINE
  5
44B
100
AcDbEntity
  8
GUSCI_ESTERNI
100
AcDbLine
 62
7
  6
CONTINUOUS
 10
10.5014508861
 20
6.4769044732
 11
10.3264508861
 21
6.5364789342
  0
LINE
  5
44C
100
AcDbEntity
  8
ASSI
100
AcDbLine
 62
7
  6
CONTINUOUS
 10
10.5014508861
 20
6.4769044732
 11
10.3264508861
 21
6.5364789342
  0
LINE
  5
44D
100
AcDbEntity
  8
GUSCI_ESTERNI
100
AcDbLine
 62
7
  6
CONTINUOUS
 10
6.6514508861
 20
6.2981810903
 11
6.768117525
 21
6.2386066293
  0
LINE
  5
44E
100
AcDbEntity
  8
ASSI
100
AcDbLine
 62
7
  6
CONTINUOUS
 10
6.6514508861
 20
6.2981810903
 11
6.768117525
 21
6.2386066293
  0
LINE
  5
44F
100
AcDbEntity
  8
GUSCI_ESTERNI
100
AcDbLine
 62
7
  6
CONTINUOUS
 10
7.5847841638
 20
6.2981810903
 11
7.7014508861
 21
6.2386066293
  0
LINE
  5
450
100
AcDbEntity
  8
ASSI
100
AcDbLine
 62
7
  6
CONTINUOUS
 10
7.5847841638
 20
6.2981810903
 11
7.7014508861
 21
6.2386066293
  0
LINE
  5
451
100
AcDbEntity
  8
GUSCI_ESTERNI
100
AcDbLine
 62
7
  6
CONTINUOUS
 10
6.768117525
 20
6.2386066293
 11
6.8264508861
 21
6.1790321683
  0
LINE
  5
452
100
AcDbEntity
  8
ASSI
100
AcDbLine
 62
7
  6
CONTINUOUS
 10
6.768117525
 20
6.2386066293
 11
6.8264508861
 21
6.1790321683
  0
LINE
  5
453
100
AcDbEntity
  8
GUSCI_ESTERNI
100
AcDbLine
 62
7
  6
CONTINUOUS
 10
7.118117525
 20
6.2981810903
 11
6.943117525
 21
6.4769044732
  0
LINE
  5
454
100
AcDbEntity
  8
ASSI
100
AcDbLine
 62
7
  6
CONTINUOUS
 10
7.118117525
 20
6.2981810903
 11
6.943117525
 21
6.4769044732
  0
LINE
  5
455
100
AcDbEntity
  8
0
100
AcDbLine
 62
7
  6
CONTINUOUS
 10
-4.2477186285
 20
22.687577138
 11
-4.2044818466
 21
22.6227210505
  0
LINE
  5
456
100
AcDbEntity
  8
DRAFT
100
AcDbLine
 62
7
  6
CONTINUOUS
 10
-4.2477186285
 20
22.687577138
 11
-4.2044818466
 21
22.6227210505
  0
LINE
  5
457
100
AcDbEntity
  8
GUSCI_ESTERNI
100
AcDbLine
 62
7
  6
CONTINUOUS
 10
6.8264508861
 20
6.1790321683
 11
6.8847842473
 21
6.0598832463
  0
LINE
  5
458
100
AcDbEntity
  8
ASSI
100
AcDbLine
 62
7
  6
CONTINUOUS
 10
6.8264508861
 20
6.1790321683
 11
6.8847842473
 21
6.0598832463
  0
LINE
  5
459
100
AcDbEntity
  8
DRAFT
100
AcDbLine
 62
7
  6
CONTINUOUS
 10
11.2002115096
 20
-3.8676387562
 11
11.3241424705
 21
-11.2199039842
  0
LINE
  5
45A
100
AcDbEntity
  8
0
100
AcDbLine
 62
7
  6
CONTINUOUS
 10
11.3241424705
 20
-11.2199039842
 11
11.2002115096
 21
-3.8676387562
  0
LINE
  5
45B
100
AcDbEntity
  8
0
100
AcDbLine
 62
253
  6
CONTINUOUS
 10
10.5470832829
 20
23.9079272322
 11
10.552173884
 21
23.4027457467
  0
LINE
  5
45C
100
AcDbEntity
  8
RACCORDO
100
AcDbLine
 62
253
  6
CONTINUOUS
 10
10.5470832829
 20
23.9079272322
 11
10.552173884
 21
23.4027457467
  0
LINE
  5
45D
100
AcDbEntity
  8
0
100
AcDbLine
 62
253
  6
CONTINUOUS
 10
10.7970790521
 20
24.1244335831
 11
10.8014508861
 21
23.6905811641
  0
LINE
  5
45E
100
AcDbEntity
  8
RACCORDO
100
AcDbLine
 62
253
  6
CONTINUOUS
 10
10.7970790521
 20
24.1244335831
 11
10.8014508861
 21
23.6905811641
  0
LINE
  5
45F
100
AcDbEntity
  8
GUSCI_ESTERNI
100
AcDbLine
 62
7
  6
CONTINUOUS
 10
9.5097843307
 20
6.0598832463
 11
9.5097843307
 21
4.6300960158
  0
LINE
  5
460
100
AcDbEntity
  8
ASSI
100
AcDbLine
 62
7
  6
CONTINUOUS
 10
9.5097843307
 20
6.0598832463
 11
9.5097843307
 21
4.6300960158
  0
LINE
  5
461
100
AcDbEntity
  8
GUSCI_ESTERNI
100
AcDbLine
 62
7
  6
CONTINUOUS
 10
9.7424164713
 20
-13.8699039842
 11
9.7424164713
 21
-13.9857875834
  0
LINE
  5
462
100
AcDbEntity
  8
ASSI
100
AcDbLine
 62
7
  6
CONTINUOUS
 10
9.7424164713
 20
-13.8699039842
 11
9.7424164713
 21
-13.9857875834
  0
LINE
  5
463
100
AcDbEntity
  8
GUSCI_ESTERNI
100
AcDbLine
 62
7
  6
CONTINUOUS
 10
9.7424164713
 20
-15.7540203849
 11
9.7424164713
 21
-15.8699039842
  0
LINE
  5
464
100
AcDbEntity
  8
ASSI
100
AcDbLine
 62
7
  6
CONTINUOUS
 10
9.7424164713
 20
-15.7540203849
 11
9.7424164713
 21
-15.8699039842
  0
LINE
  5
465
100
AcDbEntity
  8
GUSCI_ESTERNI
100
AcDbLine
 62
7
  6
CONTINUOUS
 10
9.7424164713
 20
14.4300960158
 11
9.7424164713
 21
14.5459796151
  0
LINE
  5
466
100
AcDbEntity
  8
ASSI
100
AcDbLine
 62
7
  6
CONTINUOUS
 10
9.7424164713
 20
14.4300960158
 11
9.7424164713
 21
14.5459796151
  0
LINE
  5
467
100
AcDbEntity
  8
GUSCI_ESTERNI
100
AcDbLine
 62
7
  6
CONTINUOUS
 10
9.7424164713
 20
16.3142124166
 11
9.7424164713
 21
16.4300960158
  0
LINE
  5
468
100
AcDbEntity
  8
ASSI
100
AcDbLine
 62
7
  6
CONTINUOUS
 10
9.7424164713
 20
16.3142124166
 11
9.7424164713
 21
16.4300960158
  0
LINE
  5
469
100
AcDbEntity
  8
GUSCI_ESTERNI
100
AcDbLine
 62
7
  6
CONTINUOUS
 10
9.7514508861
 20
-15.6199039842
 11
9.7514508861
 21
-14.1199039842
  0
LINE
  5
46A
100
AcDbEntity
  8
ASSI
100
AcDbLine
 62
7
  6
CONTINUOUS
 10
9.7514508861
 20
-15.6199039842
 11
9.7514508861
 21
-14.1199039842
  0
LINE
  5
46B
100
AcDbEntity
  8
GUSCI_ESTERNI
100
AcDbLine
 62
7
  6
CONTINUOUS
 10
9.7514508861
 20
14.6800960158
 11
9.7514508861
 21
16.1800960158
  0
LINE
  5
46C
100
AcDbEntity
  8
ASSI
100
AcDbLine
 62
7
  6
CONTINUOUS
 10
9.7514508861
 20
14.6800960158
 11
9.7514508861
 21
16.1800960158
  0
LINE
  5
46D
100
AcDbEntity
  8
0
100
AcDbLine
 62
7
  6
CONTINUOUS
 10
9.8014508861
 20
-20.0199039842
 11
9.8014508861
 21
-20.6199039842
  0
LINE
  5
46E
100
AcDbEntity
  8
DRAFT
100
AcDbLine
 62
7
  6
CONTINUOUS
 10
9.8014508861
 20
-20.0199039842
 11
9.8014508861
 21
-20.6199039842
  0
LINE
  5
46F
100
AcDbEntity
  8
GUSCI_ESTERNI
100
AcDbLine
 62
7
  6
CONTINUOUS
 10
9.8014508861
 20
4.6300960158
 11
9.8014508861
 21
6.0598832463
  0
LINE
  5
470
100
AcDbEntity
  8
ASSI
100
AcDbLine
 62
7
  6
CONTINUOUS
 10
9.8014508861
 20
4.6300960158
 11
9.8014508861
 21
6.0598832463
  0
LINE
  5
471
100
AcDbEntity
  8
GUSCI_ESTERNI
100
AcDbLine
 62
7
  6
CONTINUOUS
 10
9.8014508861
 20
9.2166114265
 11
9.8014508861
 21
20.5800960158
  0
LINE
  5
472
100
AcDbEntity
  8
ASSI
100
AcDbLine
 62
7
  6
CONTINUOUS
 10
9.8014508861
 20
9.2166114265
 11
9.8014508861
 21
20.5800960158
  0
LINE
  5
473
100
AcDbEntity
  8
0
100
AcDbLine
 62
7
  6
CONTINUOUS
 10
9.8014508861
 20
20.5800960158
 11
9.8014508861
 21
21.1800960158
  0
LINE
  5
474
100
AcDbEntity
  8
DRAFT
100
AcDbLine
 62
7
  6
CONTINUOUS
 10
9.8014508861
 20
20.5800960158
 11
9.8014508861
 21
21.1800960158
  0
LINE
  5
475
100
AcDbEntity
  8
GUSCI_ESTERNI
100
AcDbLine
 62
7
  6
CONTINUOUS
 10
10.3014508861
 20
-15.8949039842
 11
10.3014508861
 21
-13.8449039842
  0
LINE
  5
476
100
AcDbEntity
  8
ASSI
100
AcDbLine
 62
7
  6
CONTINUOUS
 10
10.3014508861
 20
-15.8949039842
 11
10.3014508861
 21
-13.8449039842
  0
LINE
  5
477
100
AcDbEntity
  8
GUSCI_ESTERNI
100
AcDbLine
 62
7
  6
CONTINUOUS
 10
10.4431174415
 20
6.0598832463
 11
10.4431174415
 21
4.6300960158
  0
LINE
  5
478
100
AcDbEntity
  8
ASSI
100
AcDbLine
 62
7
  6
CONTINUOUS
 10
10.4431174415
 20
6.0598832463
 11
10.4431174415
 21
4.6300960158
  0
LINE
  5
479
100
AcDbEntity
  8
0
100
AcDbLine
 62
253
  6
CONTINUOUS
 10
10.5470832829
 20
-23.4199039842
 11
10.5470832829
 21
-24.2155321502
  0
LINE
  5
47A
100
AcDbEntity
  8
RACCORDO
100
AcDbLine
 62
253
  6
CONTINUOUS
 10
10.5470832829
 20
-23.3477352005
 11
10.5470832829
 21
-24.2155321502
  0
LINE
  5
47B
100
AcDbEntity
  8
0
100
AcDbLine
 62
253
  6
CONTINUOUS
 10
10.5470832829
 20
23.9079272322
 11
10.5470832829
 21
24.7757241818
  0
LINE
  5
47C
100
AcDbEntity
  8
RACCORDO
100
AcDbLine
 62
253
  6
CONTINUOUS
 10
10.5470832829
 20
23.9079272322
 11
10.5470832829
 21
24.7757241818
  0
LINE
  5
47D
100
AcDbEntity
  8
GUSCI_ESTERNI
100
AcDbLine
 62
7
  6
CONTINUOUS
 10
10.7347843307
 20
4.6300960158
 11
10.7347843307
 21
6.0598832463
  0
LINE
  5
47E
100
AcDbEntity
  8
ASSI
100
AcDbLine
 62
7
  6
CONTINUOUS
 10
10.7347843307
 20
4.6300960158
 11
10.7347843307
 21
6.0598832463
  0
LINE
  5
47F
100
AcDbEntity
  8
0
100
AcDbLine
 62
253
  6
CONTINUOUS
 10
10.7970790521
 20
-23.9655363809
 11
10.7970790521
 21
-23.5642415515
  0
LINE
  5
480
100
AcDbEntity
  8
RACCORDO
100
AcDbLine
 62
253
  6
CONTINUOUS
 10
10.7970790521
 20
-23.9655363809
 11
10.7970790521
 21
-23.5642415515
  0
LINE
  5
481
100
AcDbEntity
  8
0
100
AcDbLine
 62
253
  6
CONTINUOUS
 10
10.7970790521
 20
24.1244335831
 11
10.7970790521
 21
24.5257284126
  0
LINE
  5
482
100
AcDbEntity
  8
RACCORDO
100
AcDbLine
 62
253
  6
CONTINUOUS
 10
10.7970790521
 20
24.1244335831
 11
10.7970790521
 21
24.5257284126
  0
LINE
  5
483
100
AcDbEntity
  8
0
100
AcDbLine
 62
7
  6
CONTINUOUS
 10
10.8014508861
 20
-22.2856160296
 11
10.8014508861
 21
-23.9699082149
  0
LINE
  5
484
100
AcDbEntity
  8
RACCORDO
100
AcDbLine
 62
7
  6
CONTINUOUS
 10
10.8014508861
 20
-22.2856160296
 11
10.8014508861
 21
-23.9699082149
  0
LINE
  5
485
100
AcDbEntity
  8
0
100
AcDbLine
 62
7
  6
CONTINUOUS
 10
10.8014508861
 20
22.8458080613
 11
10.8014508861
 21
24.5301002466
  0
LINE
  5
486
100
AcDbEntity
  8
RACCORDO
100
AcDbLine
 62
7
  6
CONTINUOUS
 10
10.8014508861
 20
22.8458080613
 11
10.8014508861
 21
24.5301002466
  0
LINE
  5
487
100
AcDbEntity
  8
GUSCI_ESTERNI
100
AcDbLine
 62
7
  6
CONTINUOUS
 10
11.0014508861
 20
-19.2010543517
 11
11.0014508861
 21
19.7612463834
  0
LINE
  5
488
100
AcDbEntity
  8
ASSI
100
AcDbLine
 62
7
  6
CONTINUOUS
 10
11.0014508861
 20
-19.2010543517
 11
11.0014508861
 21
19.7612463834
  0
LINE
  5
489
100
AcDbEntity
  8
0
100
AcDbLine
 62
253
  6
CONTINUOUS
 10
11.1014508861
 20
4.4278307879
 11
11.1014508861
 21
-3.8676387562
  0
LINE
  5
48A
100
AcDbEntity
  8
RACCORDO
100
AcDbLine
 62
253
  6
CONTINUOUS
 10
11.1014508861
 20
4.4278307879
 11
11.1014508861
 21
-3.8676387562
  0
LINE
  5
48B
100
AcDbEntity
  8
0
100
AcDbLine
 62
253
  6
CONTINUOUS
 10
10.552173884
 20
-22.842553715
 11
10.5463560542
 21
-23.4199039842
  0
LINE
  5
48C
100
AcDbEntity
  8
RACCORDO
100
AcDbLine
 62
253
  6
CONTINUOUS
 10
10.552173884
 20
-22.842553715
 11
10.5470832829
 21
-23.3477352005
  0
LINE
  5
48D
100
AcDbEntity
  8
0
100
AcDbLine
 62
253
  6
CONTINUOUS
 10
10.8014508861
 20
-23.1303891324
 11
10.7970790521
 21
-23.5642415515
  0
LINE
  5
48E
100
AcDbEntity
  8
RACCORDO
100
AcDbLine
 62
253
  6
CONTINUOUS
 10
10.8014508861
 20
-23.1303891324
 11
10.7970790521
 21
-23.5642415515
  0
LINE
  5
48F
100
AcDbEntity
  8
DRAFT
100
AcDbLine
 62
7
  6
CONTINUOUS
 10
11.3241424705
 20
11.7800960158
 11
11.2002115096
 21
4.4278307879
  0
LINE
  5
490
100
AcDbEntity
  8
0
100
AcDbLine
 62
7
  6
CONTINUOUS
 10
11.2002115096
 20
4.4278307879
 11
11.3241424705
 21
11.7800960158
  0
LINE
  5
491
100
AcDbEntity
  8
ASSI
100
AcDbLine
 62
253
  6
CONTINUOUS
 10
-0.5985491139
 20
-13.8698468688
 11
-0.5810953783
 21
-13.8523931332
  0
LINE
  5
492
100
AcDbEntity
  8
0
100
AcDbLine
 62
253
  6
CONTINUOUS
 10
-10.4941772799
 20
-23.9655363809
 11
-10.4985491139
 21
-23.9699082149
  0
LINE
  5
493
100
AcDbEntity
  8
RACCORDO
100
AcDbLine
 62
253
  6
CONTINUOUS
 10
-10.4941772799
 20
-23.9655363809
 11
-10.4985491139
 21
-23.9699082149
  0
LINE
  5
494
100
AcDbEntity
  8
0
100
AcDbLine
 62
253
  6
CONTINUOUS
 10
-10.2441815106
 20
-24.2155321502
 11
-10.2485533446
 21
-24.2199039842
  0
LINE
  5
495
100
AcDbEntity
  8
RACCORDO
100
AcDbLine
 62
253
  6
CONTINUOUS
 10
-10.2441815106
 20
-24.2155321502
 11
-10.2485533446
 21
-24.2199039842
  0
LINE
  5
496
100
AcDbEntity
  8
ASSI
100
AcDbLine
 62
7
  6
CONTINUOUS
 10
-1.66521586
 20
10.0300960158
 11
-2.16521586
 21
10.0300960158
  0
LINE
  5
497
100
AcDbEntity
  8
ASSI
100
AcDbLine
 62
7
  6
CONTINUOUS
 10
-4.2485491139
 20
10.0300960158
 11
-4.9985491139
 21
10.0300960158
  0
LINE
  5
498
100
AcDbEntity
  8
GUSCI_ESTERNI
100
AcDbLine
 62
7
  6
CONTINUOUS
 10
9.2764508861
 20
6.2981810903
 11
9.3931174415
 21
6.2386066293
  0
LINE
  5
499
100
AcDbEntity
  8
ASSI
100
AcDbLine
 62
7
  6
CONTINUOUS
 10
9.2764508861
 20
6.2981810903
 11
9.3931174415
 21
6.2386066293
  0
LINE
  5
49A
100
AcDbEntity
  8
GUSCI_ESTERNI
100
AcDbLine
 62
7
  6
CONTINUOUS
 10
10.2097843307
 20
6.2981810903
 11
10.3264508861
 21
6.2386066293
  0
LINE
  5
49B
100
AcDbEntity
  8
ASSI
100
AcDbLine
 62
7
  6
CONTINUOUS
 10
10.2097843307
 20
6.2981810903
 11
10.3264508861
 21
6.2386066293
  0
LINE
  5
49C
100
AcDbEntity
  8
0
100
AcDbLine
 62
253
  6
CONTINUOUS
 10
-10.4941772799
 20
24.5257284126
 11
-10.4985491139
 21
24.5301002466
  0
LINE
  5
49D
100
AcDbEntity
  8
RACCORDO
100
AcDbLine
 62
253
  6
CONTINUOUS
 10
-10.4941772799
 20
24.5257284126
 11
-10.4985491139
 21
24.5301002466
  0
LINE
  5
49E
100
AcDbEntity
  8
0
100
AcDbLine
 62
253
  6
CONTINUOUS
 10
-10.2441815106
 20
24.7757241818
 11
-10.2485533446
 21
24.7800960158
  0
LINE
  5
49F
100
AcDbEntity
  8
RACCORDO
100
AcDbLine
 62
253
  6
CONTINUOUS
 10
-10.2441815106
 20
24.7757241818
 11
-10.2485533446
 21
24.7800960158
  0
LINE
  5
4A0
100
AcDbEntity
  8
GUSCI_ESTERNI
100
AcDbLine
 62
7
  6
CONTINUOUS
 10
7.7014508861
 20
6.2386066293
 11
7.7597841638
 21
6.1790321683
  0
LINE
  5
4A1
100
AcDbEntity
  8
ASSI
100
AcDbLine
 62
7
  6
CONTINUOUS
 10
7.7014508861
 20
6.2386066293
 11
7.7597841638
 21
6.1790321683
  0
LINE
  5
4A2
100
AcDbEntity
  8
GUSCI_ESTERNI
100
AcDbLine
 62
7
  6
CONTINUOUS
 10
7.9931176084
 20
6.3577555512
 11
7.8764508861
 21
6.4769044732
  0
LINE
  5
4A3
100
AcDbEntity
  8
ASSI
100
AcDbLine
 62
7
  6
CONTINUOUS
 10
7.9931176084
 20
6.3577555512
 11
7.8764508861
 21
6.4769044732
  0
LINE
  5
4A4
100
AcDbEntity
  8
GUSCI_ESTERNI
100
AcDbLine
 62
7
  6
CONTINUOUS
 10
9.3931174415
 20
6.2386066293
 11
9.4514508861
 21
6.1790321683
  0
LINE
  5
4A5
100
AcDbEntity
  8
ASSI
100
AcDbLine
 62
7
  6
CONTINUOUS
 10
9.3931174415
 20
6.2386066293
 11
9.4514508861
 21
6.1790321683
  0
LINE
  5
4A6
100
AcDbEntity
  8
GUSCI_ESTERNI
100
AcDbLine
 62
7
  6
CONTINUOUS
 10
7.7597841638
 20
6.1790321683
 11
7.8181176084
 21
6.0598832463
  0
LINE
  5
4A7
100
AcDbEntity
  8
ASSI
100
AcDbLine
 62
7
  6
CONTINUOUS
 10
7.7597841638
 20
6.1790321683
 11
7.8181176084
 21
6.0598832463
  0
LINE
  5
4A8
100
AcDbEntity
  8
GUSCI_ESTERNI
100
AcDbLine
 62
7
  6
CONTINUOUS
 10
9.4514508861
 20
6.1790321683
 11
9.5097843307
 21
6.0598832463
  0
LINE
  5
4A9
100
AcDbEntity
  8
ASSI
100
AcDbLine
 62
7
  6
CONTINUOUS
 10
9.4514508861
 20
6.1790321683
 11
9.5097843307
 21
6.0598832463
  0
LINE
  5
4AA
100
AcDbEntity
  8
GUSCI_ESTERNI
100
AcDbLine
 62
7
  6
CONTINUOUS
 10
8.1097841638
 20
6.0598832463
 11
7.9931176084
 21
6.3577555512
  0
LINE
  5
4AB
100
AcDbEntity
  8
ASSI
100
AcDbLine
 62
7
  6
CONTINUOUS
 10
8.1097841638
 20
6.0598832463
 11
7.9931176084
 21
6.3577555512
  0
LINE
  5
4AC
100
AcDbEntity
  8
0
100
AcDbLine
 62
7
  6
CONTINUOUS
 10
11.2002115096
 20
-3.8676387562
 11
11.2002115096
 21
4.4278307879
  0
LINE
  5
4AD
100
AcDbEntity
  8
DRAFT
100
AcDbLine
 62
7
  6
CONTINUOUS
 10
11.2002115096
 20
-3.8676387562
 11
11.2002115096
 21
4.4278307879
  0
LINE
  5
4AE
100
AcDbEntity
  8
0
100
AcDbLine
 62
7
  6
CONTINUOUS
 10
11.3014508861
 20
22.1800008242
 11
11.3014508861
 21
18.9300960158
  0
LINE
  5
4AF
100
AcDbEntity
  8
RACCORDO
100
AcDbLine
 62
7
  6
CONTINUOUS
 10
11.3014508861
 20
22.1800008242
 11
11.3014508861
 21
18.9300960158
  0
LINE
  5
4B0
100
AcDbEntity
  8
0
100
AcDbLine
 62
7
  6
CONTINUOUS
 10
11.3014508861
 20
-18.3699039842
 11
11.3014508861
 21
-21.6198087925
  0
LINE
  5
4B1
100
AcDbEntity
  8
RACCORDO
100
AcDbLine
 62
7
  6
CONTINUOUS
 10
11.3014508861
 20
-18.3699039842
 11
11.3014508861
 21
-21.6198087925
  0
LINE
  5
4B2
100
AcDbEntity
  8
0
100
AcDbLine
 62
7
  6
CONTINUOUS
 10
11.3241424705
 20
18.9074044314
 11
11.3241424705
 21
11.7800960158
  0
LINE
  5
4B3
100
AcDbEntity
  8
0
100
AcDbLine
 62
7
  6
CONTINUOUS
 10
11.3241424705
 20
-11.2199039842
 11
11.3241424705
 21
-18.3472123998
  0
LINE
  5
4B4
100
AcDbEntity
  8
DRAFT
100
AcDbLine
 62
7
  6
CONTINUOUS
 10
11.3241424705
 20
-18.3472123998
 11
11.3241424705
 21
-11.2199039842
  0
LINE
  5
4B5
100
AcDbEntity
  8
DRAFT
100
AcDbLine
 62
7
  6
CONTINUOUS
 10
11.3241424705
 20
11.7800960158
 11
11.3241424705
 21
18.9074044314
  0
LINE
  5
4B6
100
AcDbEntity
  8
ASSI
100
AcDbLine
 62
253
  6
CONTINUOUS
 10
0.9014508861
 20
-15.8699610996
 11
0.8839971506
 21
-15.8874148351
  0
LINE
  5
4B7
100
AcDbEntity
  8
ASSI
100
AcDbLine
 62
7
  6
CONTINUOUS
 10
-1.3037856333
 20
11.7748594964
 11
-5.2985491139
 21
11.7748594964
  0
LINE
  5
4B8
100
AcDbEntity
  8
0
100
AcDbLine
 62
7
  6
CONTINUOUS
 10
-11.0212406983
 20
11.7800960158
 11
-10.6985491139
 21
11.7800960158
  0
LINE
  5
4B9
100
AcDbEntity
  8
DRAFT
100
AcDbLine
 62
7
  6
CONTINUOUS
 10
11.3241424705
 20
11.7800960158
 11
11.0014508861
 21
11.7800960158
  0
LINE
  5
4BA
100
AcDbEntity
  8
ASSI
100
AcDbLine
 62
7
  6
CONTINUOUS
 10
-5.2985491139
 20
11.7800960158
 11
-1.2985491139
 21
11.7800960158
  0
LINE
  5
4BB
100
AcDbEntity
  8
0
100
AcDbLine
 62
7
  6
CONTINUOUS
 10
11.0014508861
 20
11.7800960158
 11
11.3241424705
 21
11.7800960158
  0
LINE
  5
4BC
100
AcDbEntity
  8
DRAFT
100
AcDbLine
 62
7
  6
CONTINUOUS
 10
-10.6985491139
 20
11.7800960158
 11
-11.0212406983
 21
11.7800960158
  0
LINE
  5
4BD
100
AcDbEntity
  8
GUSCI_ESTERNI
100
AcDbLine
 62
7
  6
CONTINUOUS
 10
11.0014508861
 20
11.8781722272
 11
9.8014508861
 21
11.8781722272
  0
LINE
  5
4BE
100
AcDbEntity
  8
ASSI
100
AcDbLine
 62
7
  6
CONTINUOUS
 10
11.0014508861
 20
11.8781722272
 11
9.8014508861
 21
11.8781722272
  0
LINE
  5
4BF
100
AcDbEntity
  8
ASSI
100
AcDbLine
 62
7
  6
CONTINUOUS
 10
-1.0485491139
 20
11.8800960158
 11
0.1514508861
 21
11.8800960158
  0
LINE
  5
4C0
100
AcDbEntity
  8
GUSCI_ESTERNI
100
AcDbLine
 62
7
  6
CONTINUOUS
 10
9.7431174415
 20
6.2981810903
 11
9.5681174415
 21
6.4769044732
  0
LINE
  5
4C1
100
AcDbEntity
  8
ASSI
100
AcDbLine
 62
7
  6
CONTINUOUS
 10
9.7431174415
 20
6.2981810903
 11
9.5681174415
 21
6.4769044732
  0
LINE
  5
4C2
100
AcDbEntity
  8
GUSCI_ESTERNI
100
AcDbLine
 62
7
  6
CONTINUOUS
 10
10.3264508861
 20
6.2386066293
 11
10.3847843307
 21
6.1790321683
  0
LINE
  5
4C3
100
AcDbEntity
  8
ASSI
100
AcDbLine
 62
7
  6
CONTINUOUS
 10
10.3264508861
 20
6.2386066293
 11
10.3847843307
 21
6.1790321683
  0
LINE
  5
4C4
100
AcDbEntity
  8
GUSCI_ESTERNI
100
AcDbLine
 62
7
  6
CONTINUOUS
 10
10.6181174415
 20
6.3577555512
 11
10.5014508861
 21
6.4769044732
  0
LINE
  5
4C5
100
AcDbEntity
  8
ASSI
100
AcDbLine
 62
7
  6
CONTINUOUS
 10
10.6181174415
 20
6.3577555512
 11
10.5014508861
 21
6.4769044732
  0
LINE
  5
4C6
100
AcDbEntity
  8
GUSCI_ESTERNI
100
AcDbLine
 62
7
  6
CONTINUOUS
 10
10.3847843307
 20
6.1790321683
 11
10.4431174415
 21
6.0598832463
  0
LINE
  5
4C7
100
AcDbEntity
  8
ASSI
100
AcDbLine
 62
7
  6
CONTINUOUS
 10
10.3847843307
 20
6.1790321683
 11
10.4431174415
 21
6.0598832463
  0
LINE
  5
4C8
100
AcDbEntity
  8
GUSCI_ESTERNI
100
AcDbLine
 62
7
  6
CONTINUOUS
 10
10.7347843307
 20
6.0598832463
 11
10.6181174415
 21
6.3577555512
  0
LINE
  5
4C9
100
AcDbEntity
  8
ASSI
100
AcDbLine
 62
7
  6
CONTINUOUS
 10
10.7347843307
 20
6.0598832463
 11
10.6181174415
 21
6.3577555512
  0
LINE
  5
4CA
100
AcDbEntity
  8
0
100
AcDbLine
 62
7
  6
CONTINUOUS
 10
5.6014508861
 20
-13.4199039842
 11
5.9014508861
 21
-13.1199039842
  0
LINE
  5
4CB
100
AcDbEntity
  8
0
100
AcDbLine
 62
7
  6
CONTINUOUS
 10
-4.2485491139
 20
-23.5199039842
 11
-4.204898467
 21
-23.4762533373
  0
LINE
  5
4CC
100
AcDbEntity
  8
ASSI
100
AcDbLine
 62
7
  6
CONTINUOUS
 10
-4.2485491139
 20
-23.5199039842
 11
-4.204898467
 21
-23.4762533373
  0
LINE
  5
4CD
100
AcDbEntity
  8
ASSI
100
AcDbLine
 62
253
  6
CONTINUOUS
 10
2.4013937707
 20
-17.3699039842
 11
2.3839400352
 21
-17.3873577197
  0
LINE
  5
4CE
100
AcDbEntity
  8
0
100
AcDbLine
 62
7
  6
CONTINUOUS
 10
-9.4985491139
 20
-20.6199039842
 11
-9.3553414203
 21
-20.5483055906
  0
LINE
  5
4CF
100
AcDbEntity
  8
RACCORDO
100
AcDbLine
 62
7
  6
CONTINUOUS
 10
-9.3553414203
 20
-20.5483055906
 11
-9.4985491139
 21
-20.6199039842
  0
LINE
  5
4D0
100
AcDbEntity
  8
GUSCI_ESTERNI
100
AcDbLine
 62
7
  6
CONTINUOUS
 10
5.6014508861
 20
13.4300960158
 11
8.7514508861
 21
13.4369684242
  0
LINE
  5
4D1
100
AcDbEntity
  8
ASSI
100
AcDbLine
 62
7
  6
CONTINUOUS
 10
5.6014508861
 20
13.4300960158
 11
8.7514508861
 21
13.4369684242
  0
LINE
  5
4D2
100
AcDbEntity
  8
ASSI
100
AcDbLine
 62
7
  6
CONTINUOUS
 10
5.6014508861
 20
13.4300960158
 11
2.4014508861
 21
13.4300960158
  0
LINE
  5
4D3
100
AcDbEntity
  8
DRAFT
100
AcDbLine
 62
7
  6
CONTINUOUS
 10
-8.2985491139
 20
13.5300960158
 11
-5.2985491139
 21
13.5300960158
  0
LINE
  5
4D4
100
AcDbEntity
  8
GUSCI_ESTERNI
100
AcDbLine
 62
7
  6
CONTINUOUS
 10
5.6014508861
 20
13.6800960158
 11
8.7514508861
 21
13.6800960158
  0
LINE
  5
4D5
100
AcDbEntity
  8
ASSI
100
AcDbLine
 62
7
  6
CONTINUOUS
 10
2.4014508861
 20
13.6800960158
 11
8.7514508861
 21
13.6800960158
  0
LINE
  5
4D6
100
AcDbEntity
  8
0
100
AcDbLine
 62
7
  6
CONTINUOUS
 10
1.6874444544
 20
13.9800960158
 11
2.8514508861
 21
13.9800960158
  0
LINE
  5
4D7
100
AcDbEntity
  8
0
100
AcDbLine
 62
7
  6
CONTINUOUS
 10
8.3514508861
 20
13.9800960158
 11
9.4653186333
 21
13.9800960158
  0
LINE
  5
4D8
100
AcDbEntity
  8
GUSCI_ESTERNI
100
AcDbLine
 62
253
  6
CONTINUOUS
 10
-9.4803023102
 20
14.1800960158
 11
-9.3645745176
 21
14.1800960158
  0
LINE
  5
4D9
100
AcDbEntity
  8
GUSCI_ESTERNI
100
AcDbLine
 62
253
  6
CONTINUOUS
 10
9.7424164713
 20
14.4300960158
 11
9.7196967227
 21
14.4300960158
  0
LINE
  5
4DA
100
AcDbEntity
  8
ASSI
100
AcDbLine
 62
253
  6
CONTINUOUS
 10
9.7424164713
 20
14.4300960158
 11
9.7196967227
 21
14.4300960158
  0
LINE
  5
4DB
100
AcDbEntity
  8
ASSI
100
AcDbLine
 62
7
  6
CONTINUOUS
 10
0.1383605845
 20
14.4781722272
 11
-1.0354588122
 21
14.4781722272
  0
LINE
  5
4DC
100
AcDbEntity
  8
GUSCI_ESTERNI
100
AcDbLine
 62
7
  6
CONTINUOUS
 10
-5.2985491139
 20
13.1800960158
 11
-8.4985491139
 21
13.1940590043
  0
LINE
  5
4DD
100
AcDbEntity
  8
RACCORDO
100
AcDbLine
 62
7
  6
CONTINUOUS
 10
-9.4985491139
 20
21.1800960158
 11
-9.3553414203
 21
21.1084976223
  0
LINE
  5
4DE
100
AcDbEntity
  8
0
100
AcDbLine
 62
7
  6
CONTINUOUS
 10
-9.3553414203
 20
21.1084976223
 11
-9.4985491139
 21
21.1800960158
  0
LINE
  5
4DF
100
AcDbEntity
  8
0
100
AcDbLine
 62
7
  6
CONTINUOUS
 10
5.9014508861
 20
13.6800960158
 11
5.6014508861
 21
13.9800960158
  0
LINE
  5
4E0
100
AcDbEntity
  8
0
100
AcDbLine
 62
7
  6
CONTINUOUS
 10
-4.2485491139
 20
24.0800960158
 11
-4.204898467
 21
24.036445369
  0
LINE
  5
4E1
100
AcDbEntity
  8
ASSI
100
AcDbLine
 62
7
  6
CONTINUOUS
 10
-4.2485491139
 20
24.0800960158
 11
-4.204898467
 21
24.036445369
  0
LINE
  5
4E2
100
AcDbEntity
  8
ASSI
100
AcDbLine
 62
7
  6
CONTINUOUS
 10
-1.0571998263
 20
22.0387467283
 11
-1.0527602371
 21
22.0343071391
  0
LINE
  5
4E3
100
AcDbEntity
  8
GUSCI_ESTERNI
100
AcDbLine
 62
7
  6
CONTINUOUS
 10
-9.2985491139
 20
15.7451885447
 11
-9.4985491139
 21
15.7434431711
  0
LINE
  5
4E4
100
AcDbEntity
  8
GUSCI_ESTERNI
100
AcDbLine
 62
253
  6
CONTINUOUS
 10
9.7424164713
 20
16.4300960158
 11
9.7196967227
 21
16.4300960158
  0
LINE
  5
4E5
100
AcDbEntity
  8
ASSI
100
AcDbLine
 62
253
  6
CONTINUOUS
 10
9.7424164713
 20
16.4300960158
 11
9.7196967227
 21
16.4300960158
  0
LINE
  5
4E6
100
AcDbEntity
  8
GUSCI_ESTERNI
100
AcDbLine
 62
7
  6
CONTINUOUS
 10
-5.2985491139
 20
17.6800960158
 11
-8.4985491139
 21
17.6661330274
  0
LINE
  5
4E7
100
AcDbEntity
  8
GUSCI_ESTERNI
100
AcDbLine
 62
253
  6
CONTINUOUS
 10
-9.4803023102
 20
16.6800960158
 11
-9.3645745176
 21
16.6800960158
  0
LINE
  5
4E8
100
AcDbEntity
  8
GUSCI_ESTERNI
100
AcDbLine
 62
7
  6
CONTINUOUS
 10
8.7514508861
 20
17.1800960158
 11
5.6014508861
 21
17.1800960158
  0
LINE
  5
4E9
100
AcDbEntity
  8
ASSI
100
AcDbLine
 62
7
  6
CONTINUOUS
 10
2.4014508861
 20
17.1800960158
 11
8.7514508861
 21
17.1800960158
  0
LINE
  5
4EA
100
AcDbEntity
  8
DRAFT
100
AcDbLine
 62
7
  6
CONTINUOUS
 10
-5.2985491139
 20
17.3300960158
 11
-8.2985491139
 21
17.3300960158
  0
LINE
  5
4EB
100
AcDbEntity
  8
ASSI
100
AcDbLine
 62
7
  6
CONTINUOUS
 10
2.4014508861
 20
17.4300960158
 11
5.6014508861
 21
17.4300960158
  0
LINE
  5
4EC
100
AcDbEntity
  8
GUSCI_ESTERNI
100
AcDbLine
 62
7
  6
CONTINUOUS
 10
5.6014508861
 20
17.4300960158
 11
8.7514508861
 21
17.4232236075
  0
LINE
  5
4ED
100
AcDbEntity
  8
ASSI
100
AcDbLine
 62
7
  6
CONTINUOUS
 10
5.6014508861
 20
17.4300960158
 11
8.7514508861
 21
17.4232236075
  0
LINE
  5
4EE
100
AcDbEntity
  8
GUSCI_ESTERNI
100
AcDbLine
 62
7
  6
CONTINUOUS
 10
-9.1735152014
 20
16.8139123326
 11
-9.2709106175
 21
16.8147622895
  0
LINE
  5
4EF
100
AcDbEntity
  8
ASSI
100
AcDbLine
 62
253
  6
CONTINUOUS
 10
0.1383605845
 20
20.034383293
 11
-1.0354588122
 21
20.034383293
  0
LINE
  5
4F0
100
AcDbEntity
  8
GUSCI_ESTERNI
100
AcDbLine
 62
7
  6
CONTINUOUS
 10
11.0014508861
 20
19.7612463834
 11
10.6189653869
 21
19.762581515
  0
LINE
  5
4F1
100
AcDbEntity
  8
ASSI
100
AcDbLine
 62
7
  6
CONTINUOUS
 10
11.0014508861
 20
19.7612463834
 11
10.6189653869
 21
19.762581515
  0
LINE
  5
4F2
100
AcDbEntity
  8
0
100
AcDbLine
 62
7
  6
CONTINUOUS
 10
8.224340497
 20
-21.2970143733
 11
7.4014508861
 21
-22.1199039842
  0
LINE
  5
4F3
100
AcDbEntity
  8
RACCORDO
100
AcDbLine
 62
7
  6
CONTINUOUS
 10
8.224340497
 20
-21.2970143733
 11
7.4014508861
 21
-22.1199039842
  0
LINE
  5
4F4
100
AcDbEntity
  8
0
100
AcDbLine
 62
7
  6
CONTINUOUS
 10
11.0014508861
 20
-18.6699039842
 11
11.3241424705
 21
-18.3472123998
  0
LINE
  5
4F5
100
AcDbEntity
  8
DRAFT
100
AcDbLine
 62
7
  6
CONTINUOUS
 10
11.0014508861
 20
-18.6699039842
 11
11.3241424705
 21
-18.3472123998
  0
LINE
  5
4F6
100
AcDbEntity
  8
GUSCI_ESTERNI
100
AcDbLine
 62
7
  6
CONTINUOUS
 10
11.0014508861
 20
-18.8199039842
 11
8.5269816059
 21
-21.2943732643
  0
LINE
  5
4F7
100
AcDbEntity
  8
ASSI
100
AcDbLine
 62
7
  6
CONTINUOUS
 10
11.0014508861
 20
-18.8199039842
 11
8.5269816059
 21
-21.2943732643
  0
LINE
  5
4F8
100
AcDbEntity
  8
GUSCI_ESTERNI
100
AcDbLine
 62
253
  6
CONTINUOUS
 10
-5.2985491139
 20
20.7801340928
 11
-9.232845118
 21
20.7458000117
  0
LINE
  5
4F9
100
AcDbEntity
  8
GUSCI_ESTERNI
100
AcDbLine
 62
7
  6
CONTINUOUS
 10
-5.2985491139
 20
21.7800960158
 11
-8.2240798337
 21
21.754565296
  0
LINE
  5
4FA
100
AcDbEntity
  8
0
100
AcDbLine
 62
7
  6
CONTINUOUS
 10
-5.2985491139
 20
21.9825345864
 11
-7.598549542
 21
21.9624627867
  0
LINE
  5
4FB
100
AcDbEntity
  8
ASSI
100
AcDbLine
 62
253
  6
CONTINUOUS
 10
5.6014508861
 20
21.0387848052
 11
0.1514508861
 21
21.0387848052
  0
LINE
  5
4FC
100
AcDbEntity
  8
ASSI
100
AcDbLine
 62
253
  6
CONTINUOUS
 10
-1.0485491139
 20
21.0387848052
 11
-5.2985491139
 21
21.0387848052
  0
LINE
  5
4FD
100
AcDbEntity
  8
0
100
AcDbLine
 62
253
  6
CONTINUOUS
 10
9.6582431926
 20
21.1084976223
 11
9.2730492797
 21
21.1084976223
  0
LINE
  5
4FE
100
AcDbEntity
  8
RACCORDO
100
AcDbLine
 62
253
  6
CONTINUOUS
 10
-9.3553414203
 20
21.1084976223
 11
-8.8701475074
 21
21.1084976223
  0
LINE
  5
4FF
100
AcDbEntity
  8
0
100
AcDbLine
 62
253
  6
CONTINUOUS
 10
-8.8701475074
 20
21.1084976223
 11
-9.3553414203
 21
21.1084976223
  0
LINE
  5
500
100
AcDbEntity
  8
RACCORDO
100
AcDbLine
 62
253
  6
CONTINUOUS
 10
9.2730492797
 20
21.1084976223
 11
9.6582431926
 21
21.1084976223
  0
LINE
  5
501
100
AcDbEntity
  8
0
100
AcDbLine
 62
7
  6
CONTINUOUS
 10
-9.4985491139
 20
21.1800960158
 11
-8.7985491139
 21
21.1800960158
  0
LINE
  5
502
100
AcDbEntity
  8
DRAFT
100
AcDbLine
 62
7
  6
CONTINUOUS
 10
9.8014508861
 20
21.1800960158
 11
9.2014508861
 21
21.1800960158
  0
LINE
  5
503
100
AcDbEntity
  8
0
100
AcDbLine
 62
7
  6
CONTINUOUS
 10
9.2014508861
 20
21.1800960158
 11
9.8014508861
 21
21.1800960158
  0
LINE
  5
504
100
AcDbEntity
  8
DRAFT
100
AcDbLine
 62
7
  6
CONTINUOUS
 10
-8.7985491139
 20
21.1800960158
 11
-9.4985491139
 21
21.1800960158
  0
LINE
  5
505
100
AcDbEntity
  8
ASSI
100
AcDbLine
 62
253
  6
CONTINUOUS
 10
0.1556620094
 20
22.0343071391
 11
-1.0527602371
 21
22.0343071391
  0
LINE
  5
506
100
AcDbEntity
  8
ASSI
100
AcDbLine
 62
7
  6
CONTINUOUS
 10
5.6014508861
 20
22.0388228836
 11
-5.2985491139
 21
22.0388228836
  0
LINE
  5
507
100
AcDbEntity
  8
GUSCI_ESTERNI
100
AcDbLine
 62
253
  6
CONTINUOUS
 10
5.6014508861
 20
20.8801340928
 11
9.5357468903
 21
20.8458000117
  0
LINE
  5
508
100
AcDbEntity
  8
ASSI
100
AcDbLine
 62
253
  6
CONTINUOUS
 10
5.6014508861
 20
20.8801340928
 11
9.5357468903
 21
20.8458000117
  0
LINE
  5
509
100
AcDbEntity
  8
GUSCI_ESTERNI
100
AcDbLine
 62
7
  6
CONTINUOUS
 10
5.6014508861
 20
21.8800960158
 11
8.5269816059
 21
21.854565296
  0
LINE
  5
50A
100
AcDbEntity
  8
ASSI
100
AcDbLine
 62
7
  6
CONTINUOUS
 10
5.6014508861
 20
21.8800960158
 11
8.5269816059
 21
21.854565296
  0
LINE
  5
50B
100
AcDbEntity
  8
0
100
AcDbLine
 62
7
  6
CONTINUOUS
 10
8.224340497
 20
21.857206405
 11
7.4014508861
 21
22.6800960158
  0
LINE
  5
50C
100
AcDbEntity
  8
RACCORDO
100
AcDbLine
 62
7
  6
CONTINUOUS
 10
8.224340497
 20
21.857206405
 11
7.4014508861
 21
22.6800960158
  0
LINE
  5
50D
100
AcDbEntity
  8
0
100
AcDbLine
 62
7
  6
CONTINUOUS
 10
11.3241424705
 20
18.9074044314
 11
11.0014508861
 21
19.2300960158
  0
LINE
  5
50E
100
AcDbEntity
  8
DRAFT
100
AcDbLine
 62
7
  6
CONTINUOUS
 10
11.3241424705
 20
18.9074044314
 11
11.0014508861
 21
19.2300960158
  0
LINE
  5
50F
100
AcDbEntity
  8
GUSCI_ESTERNI
100
AcDbLine
 62
7
  6
CONTINUOUS
 10
8.5269816059
 20
21.854565296
 11
11.0014508861
 21
19.3800960158
  0
LINE
  5
510
100
AcDbEntity
  8
ASSI
100
AcDbLine
 62
7
  6
CONTINUOUS
 10
8.5269816059
 20
21.854565296
 11
11.0014508861
 21
19.3800960158
  0
LINE
  5
511
100
AcDbEntity
  8
0
100
AcDbLine
 62
253
  6
CONTINUOUS
 10
8.4058227201
 20
-23.9655363809
 11
8.4014508861
 21
-23.9699082149
  0
LINE
  5
512
100
AcDbEntity
  8
RACCORDO
100
AcDbLine
 62
253
  6
CONTINUOUS
 10
8.4058227201
 20
-23.9655363809
 11
8.4014508861
 21
-23.9699082149
  0
LINE
  5
513
100
AcDbEntity
  8
0
100
AcDbLine
 62
253
  6
CONTINUOUS
 10
8.6558184894
 20
-24.2155321502
 11
8.6514466554
 21
-24.2199039842
  0
LINE
  5
514
100
AcDbEntity
  8
RACCORDO
100
AcDbLine
 62
253
  6
CONTINUOUS
 10
8.6558184894
 20
-24.2155321502
 11
8.6514466554
 21
-24.2199039842
  0
LINE
  5
515
100
AcDbEntity
  8
0
100
AcDbLine
 62
253
  6
CONTINUOUS
 10
7.4800688516
 20
22.6014780504
 11
3.1514508861
 21
22.6014780504
  0
LINE
  5
516
100
AcDbEntity
  8
RACCORDO
100
AcDbLine
 62
253
  6
CONTINUOUS
 10
7.4800688516
 20
22.6014780504
 11
3.1514508861
 21
22.6014780504
  0
LINE
  5
517
100
AcDbEntity
  8
0
100
AcDbLine
 62
253
  6
CONTINUOUS
 10
-2.8485491139
 20
22.6014780504
 11
-7.1771670793
 21
22.6014780504
  0
LINE
  5
518
100
AcDbEntity
  8
RACCORDO
100
AcDbLine
 62
253
  6
CONTINUOUS
 10
-2.8485491139
 20
22.6014780504
 11
-7.1771670793
 21
22.6014780504
  0
LINE
  5
519
100
AcDbEntity
  8
0
100
AcDbLine
 62
7
  6
CONTINUOUS
 10
10.801298561
 20
22.6800960158
 11
7.4014508861
 21
22.6800960158
  0
LINE
  5
51A
100
AcDbEntity
  8
RACCORDO
100
AcDbLine
 62
7
  6
CONTINUOUS
 10
10.801298561
 20
22.6800960158
 11
7.4014508861
 21
22.6800960158
  0
LINE
  5
51B
100
AcDbEntity
  8
0
100
AcDbLine
 62
7
  6
CONTINUOUS
 10
3.6514508861
 20
22.6800960158
 11
3.1514508861
 21
22.6800960158
  0
LINE
  5
51C
100
AcDbEntity
  8
DRAFT
100
AcDbLine
 62
7
  6
CONTINUOUS
 10
3.6514508861
 20
22.6800960158
 11
3.1514508861
 21
22.6800960158
  0
LINE
  5
51D
100
AcDbEntity
  8
0
100
AcDbLine
 62
7
  6
CONTINUOUS
 10
-2.8485491139
 20
22.6800960158
 11
-3.3485491139
 21
22.6800960158
  0
LINE
  5
51E
100
AcDbEntity
  8
DRAFT
100
AcDbLine
 62
7
  6
CONTINUOUS
 10
-2.8485491139
 20
22.6800960158
 11
-3.3485491139
 21
22.6800960158
  0
LINE
  5
51F
100
AcDbEntity
  8
0
100
AcDbLine
 62
7
  6
CONTINUOUS
 10
-7.0985491139
 20
22.6800960158
 11
-10.4983967887
 21
22.6800960158
  0
LINE
  5
520
100
AcDbEntity
  8
RACCORDO
100
AcDbLine
 62
7
  6
CONTINUOUS
 10
-7.0985491139
 20
22.6800960158
 11
-10.4983967887
 21
22.6800960158
  0
LINE
  5
521
100
AcDbEntity
  8
0
100
AcDbLine
 62
7
  6
CONTINUOUS
 10
-7.8977761401
 20
22.687577138
 11
-4.2477186285
 21
22.687577138
  0
LINE
  5
522
100
AcDbEntity
  8
RACCORDO
100
AcDbLine
 62
7
  6
CONTINUOUS
 10
8.2006779124
 20
22.687577138
 11
4.5506204007
 21
22.687577138
  0
LINE
  5
523
100
AcDbEntity
  8
0
100
AcDbLine
 62
7
  6
CONTINUOUS
 10
4.5506204007
 20
22.687577138
 11
8.2006779124
 21
22.687577138
  0
LINE
  5
524
100
AcDbEntity
  8
RACCORDO
100
AcDbLine
 62
7
  6
CONTINUOUS
 10
-4.2477186285
 20
22.687577138
 11
-7.8977761401
 21
22.687577138
  0
LINE
  5
525
100
AcDbEntity
  8
0
100
AcDbLine
 62
7
  6
CONTINUOUS
 10
-10.4809417238
 20
22.6888228836
 11
-7.9570002788
 21
22.6888228836
  0
LINE
  5
526
100
AcDbEntity
  8
RACCORDO
100
AcDbLine
 62
7
  6
CONTINUOUS
 10
-10.4809417238
 20
22.6888228836
 11
-7.9570002788
 21
22.6888228836
  0
LINE
  5
527
100
AcDbEntity
  8
0
100
AcDbLine
 62
7
  6
CONTINUOUS
 10
8.2599020511
 20
22.6888228836
 11
10.7838434961
 21
22.6888228836
  0
LINE
  5
528
100
AcDbEntity
  8
RACCORDO
100
AcDbLine
 62
7
  6
CONTINUOUS
 10
8.2599020511
 20
22.6888228836
 11
10.7838434961
 21
22.6888228836
  0
LINE
  5
529
100
AcDbEntity
  8
RACCORDO
100
AcDbLine
 62
7
  6
CONTINUOUS
 10
-10.2492721117
 20
23.4027457467
 11
-8.347826116
 21
23.4027457467
  0
LINE
  5
52A
100
AcDbEntity
  8
0
100
AcDbLine
 62
7
  6
CONTINUOUS
 10
10.552173884
 20
23.4027457467
 11
8.6507278883
 21
23.4027457467
  0
LINE
  5
52B
100
AcDbEntity
  8
RACCORDO
100
AcDbLine
 62
7
  6
CONTINUOUS
 10
8.6507278883
 20
23.4027457467
 11
10.552173884
 21
23.4027457467
  0
LINE
  5
52C
100
AcDbEntity
  8
0
100
AcDbLine
 62
7
  6
CONTINUOUS
 10
-8.347826116
 20
23.4027457467
 11
-10.2492721117
 21
23.4027457467
  0
LINE
  5
52D
100
AcDbEntity
  8
0
100
AcDbLine
 62
253
  6
CONTINUOUS
 10
8.4058227201
 20
24.5257284126
 11
8.4014508861
 21
24.5301002466
  0
LINE
  5
52E
100
AcDbEntity
  8
RACCORDO
100
AcDbLine
 62
253
  6
CONTINUOUS
 10
8.4058227201
 20
24.5257284126
 11
8.4014508861
 21
24.5301002466
  0
LINE
  5
52F
100
AcDbEntity
  8
0
100
AcDbLine
 62
253
  6
CONTINUOUS
 10
8.6558184894
 20
24.7757241818
 11
8.6514466554
 21
24.7800960158
  0
LINE
  5
530
100
AcDbEntity
  8
RACCORDO
100
AcDbLine
 62
253
  6
CONTINUOUS
 10
8.6558184894
 20
24.7757241818
 11
8.6514466554
 21
24.7800960158
  0
LINE
  5
531
100
AcDbEntity
  8
0
100
AcDbLine
 62
253
  6
CONTINUOUS
 10
10.801298561
 20
-22.1199039842
 11
10.7838434961
 21
-22.1286308519
  0
LINE
  5
532
100
AcDbEntity
  8
RACCORDO
100
AcDbLine
 62
253
  6
CONTINUOUS
 10
10.801298561
 20
-22.1199039842
 11
10.7838434961
 21
-22.1286308519
  0
LINE
  5
533
100
AcDbEntity
  8
0
100
AcDbLine
 62
253
  6
CONTINUOUS
 10
-10.2441815106
 20
23.9079272322
 11
-8.3529167171
 21
23.9079272322
  0
LINE
  5
534
100
AcDbEntity
  8
0
100
AcDbLine
 62
253
  6
CONTINUOUS
 10
8.6558184894
 20
23.9079272322
 11
10.5470832829
 21
23.9079272322
  0
LINE
  5
535
100
AcDbEntity
  8
RACCORDO
100
AcDbLine
 62
253
  6
CONTINUOUS
 10
8.6558184894
 20
23.9079272322
 11
10.5470832829
 21
23.9079272322
  0
LINE
  5
536
100
AcDbEntity
  8
RACCORDO
100
AcDbLine
 62
7
  6
CONTINUOUS
 10
-8.3529167171
 20
23.9800960158
 11
-10.2441815106
 21
23.9800960158
  0
LINE
  5
537
100
AcDbEntity
  8
0
100
AcDbLine
 62
253
  6
CONTINUOUS
 10
-4.204898467
 20
24.036445369
 11
-3.3485491139
 21
24.036445369
  0
LINE
  5
538
100
AcDbEntity
  8
ASSI
100
AcDbLine
 62
253
  6
CONTINUOUS
 10
4.5078002393
 20
24.036445369
 11
3.6514508861
 21
24.036445369
  0
LINE
  5
539
100
AcDbEntity
  8
0
100
AcDbLine
 62
253
  6
CONTINUOUS
 10
3.6514508861
 20
24.036445369
 11
4.5078002393
 21
24.036445369
  0
LINE
  5
53A
100
AcDbEntity
  8
ASSI
100
AcDbLine
 62
253
  6
CONTINUOUS
 10
-3.3485491139
 20
24.036445369
 11
-4.204898467
 21
24.036445369
  0
LINE
  5
53B
100
AcDbEntity
  8
0
100
AcDbLine
 62
7
  6
CONTINUOUS
 10
-3.3485491139
 20
24.074278186
 11
3.6514508861
 21
24.074278186
  0
LINE
  5
53C
100
AcDbEntity
  8
DRAFT
100
AcDbLine
 62
7
  6
CONTINUOUS
 10
3.6514508861
 20
24.074278186
 11
-3.3485491139
 21
24.074278186
  0
LINE
  5
53D
100
AcDbEntity
  8
0
100
AcDbLine
 62
7
  6
CONTINUOUS
 10
4.5514508861
 20
24.0800960158
 11
-4.2485491139
 21
24.0800960158
  0
LINE
  5
53E
100
AcDbEntity
  8
DRAFT
100
AcDbLine
 62
7
  6
CONTINUOUS
 10
4.5514508861
 20
24.0800960158
 11
-4.2485491139
 21
24.0800960158
  0
LINE
  5
53F
100
AcDbEntity
  8
0
100
AcDbLine
 62
253
  6
CONTINUOUS
 10
8.4058227201
 20
24.1244335831
 11
10.7970790521
 21
24.1244335831
  0
LINE
  5
540
100
AcDbEntity
  8
0
100
AcDbLine
 62
253
  6
CONTINUOUS
 10
-8.1029209479
 20
24.1244335831
 11
-10.4941772799
 21
24.1244335831
  0
LINE
  5
541
100
AcDbEntity
  8
RACCORDO
100
AcDbLine
 62
253
  6
CONTINUOUS
 10
8.4058227201
 20
24.1244335831
 11
10.7970790521
 21
24.1244335831
  0
LINE
  5
542
100
AcDbEntity
  8
0
100
AcDbLine
 62
253
  6
CONTINUOUS
 10
8.4058227201
 20
24.5257284126
 11
10.7970790521
 21
24.5257284126
  0
LINE
  5
543
100
AcDbEntity
  8
0
100
AcDbLine
 62
253
  6
CONTINUOUS
 10
-8.1029209479
 20
24.5257284126
 11
-10.4941772799
 21
24.5257284126
  0
LINE
  5
544
100
AcDbEntity
  8
RACCORDO
100
AcDbLine
 62
253
  6
CONTINUOUS
 10
8.4058227201
 20
24.5257284126
 11
10.7970790521
 21
24.5257284126
  0
LINE
  5
545
100
AcDbEntity
  8
RACCORDO
100
AcDbLine
 62
253
  6
CONTINUOUS
 10
-8.1029209479
 20
24.5257284126
 11
-10.4941772799
 21
24.5257284126
  0
LINE
  5
546
100
AcDbEntity
  8
0
100
AcDbLine
 62
253
  6
CONTINUOUS
 10
10.5470832829
 20
24.7757241818
 11
8.6558184894
 21
24.7757241818
  0
LINE
  5
547
100
AcDbEntity
  8
RACCORDO
100
AcDbLine
 62
253
  6
CONTINUOUS
 10
10.5470832829
 20
24.7757241818
 11
8.6558184894
 21
24.7757241818
  0
LINE
  5
548
100
AcDbEntity
  8
0
100
AcDbLine
 62
253
  6
CONTINUOUS
 10
-8.3529167171
 20
24.7757241818
 11
-10.2441815106
 21
24.7757241818
  0
LINE
  5
549
100
AcDbEntity
  8
RACCORDO
100
AcDbLine
 62
253
  6
CONTINUOUS
 10
-8.3529167171
 20
24.7757241818
 11
-10.2441815106
 21
24.7757241818
  0
LINE
  5
54A
100
AcDbEntity
  8
0
100
AcDbLine
 62
7
  6
CONTINUOUS
 10
10.5514551169
 20
24.7800960158
 11
8.6514466554
 21
24.7800960158
  0
LINE
  5
54B
100
AcDbEntity
  8
RACCORDO
100
AcDbLine
 62
7
  6
CONTINUOUS
 10
10.5514551169
 20
24.7800960158
 11
8.6514466554
 21
24.7800960158
  0
LINE
  5
54C
100
AcDbEntity
  8
0
100
AcDbLine
 62
7
  6
CONTINUOUS
 10
-8.3485448831
 20
24.7800960158
 11
-10.2485533446
 21
24.7800960158
  0
LINE
  5
54D
100
AcDbEntity
  8
RACCORDO
100
AcDbLine
 62
7
  6
CONTINUOUS
 10
-8.3485448831
 20
24.7800960158
 11
-10.2485533446
 21
24.7800960158
  0
LINE
  5
54E
100
AcDbEntity
  8
0
100
AcDbLine
 62
253
  6
CONTINUOUS
 10
10.7838434961
 20
22.6888228836
 11
10.801298561
 21
22.6800960158
  0
LINE
  5
54F
100
AcDbEntity
  8
RACCORDO
100
AcDbLine
 62
253
  6
CONTINUOUS
 10
10.7838434961
 20
22.6888228836
 11
10.801298561
 21
22.6800960158
  0
ARC
  5
550
100
AcDbEntity
  8
GUSCI_ESTERNI
100
AcDbCircle
 62
7
  6
CONTINUOUS
 10
-8.1985491139
 20
-13.8699039842
 40
2.5
100
AcDbArc
 50
90.0
 51
180.0
  0
ARC
  5
551
100
AcDbEntity
  8
GUSCI_ESTERNI
100
AcDbCircle
 62
7
  6
CONTINUOUS
 10
-8.1985491139
 20
-15.8699039842
 40
2.5
100
AcDbArc
 50
180.0
 51
270.0
  0
ARC
  5
552
100
AcDbEntity
  8
GUSCI_ESTERNI
100
AcDbCircle
 62
7
  6
CONTINUOUS
 10
-8.4985491139
 20
-15.8699039842
 40
1.5
100
AcDbArc
 50
180.0
 51
270.0
  0
ARC
  5
553
100
AcDbEntity
  8
GUSCI_ESTERNI
100
AcDbCircle
 62
7
  6
CONTINUOUS
 10
-8.4985491139
 20
-13.8699039842
 40
1.5
100
AcDbArc
 50
90.0
 51
180.0
  0
ARC
  5
554
100
AcDbEntity
  8
GUSCI_ESTERNI
100
AcDbCircle
 62
7
  6
CONTINUOUS
 10
-8.4985491139
 20
-15.6199039842
 40
1.0
100
AcDbArc
 50
180.0
 51
240.2462861003
  0
ARC
  5
555
100
AcDbEntity
  8
GUSCI_ESTERNI
100
AcDbCircle
 62
7
  6
CONTINUOUS
 10
-8.4985491139
 20
-14.1199039842
 40
1.0
100
AcDbArc
 50
119.7501332207
 51
180.0
  0
ARC
  5
556
100
AcDbEntity
  8
DRAFT
100
AcDbCircle
 62
7
  6
CONTINUOUS
 10
-8.2985491139
 20
-15.7699039842
 40
1.0
100
AcDbArc
 50
180.0
 51
270.0
  0
ARC
  5
557
100
AcDbEntity
  8
DRAFT
100
AcDbCircle
 62
7
  6
CONTINUOUS
 10
-8.2985491139
 20
-13.9699039842
 40
1.0
100
AcDbArc
 50
90.0
 51
180.0
  0
ARC
  5
558
100
AcDbEntity
  8
0
100
AcDbCircle
 62
7
  6
CONTINUOUS
 10
-10.4834238779
 20
-21.6273030551
 40
0.5000947882
100
AcDbArc
 50
243.4349775539
 51
252.0220797126
  0
ARC
  5
559
100
AcDbEntity
  8
RACCORDO
100
AcDbCircle
 62
7
  6
CONTINUOUS
 10
-10.4834238779
 20
-21.6273030551
 40
0.5000947882
100
AcDbArc
 50
243.4349775538
 51
252.0220797126
  0
ARC
  5
55A
100
AcDbEntity
  8
0
100
AcDbCircle
 62
253
  6
CONTINUOUS
 10
-8.3529269311
 20
-23.9655261669
 40
0.2500059834
100
AcDbArc
 50
270.0023408215
 51
359.9976591785
  0
ARC
  5
55B
100
AcDbEntity
  8
0
100
AcDbCircle
 62
253
  6
CONTINUOUS
 10
-10.2441712966
 20
-23.9655261669
 40
0.2500059834
100
AcDbArc
 50
180.0023408215
 51
269.9976591785
  0
ARC
  5
55C
100
AcDbEntity
  8
RACCORDO
100
AcDbCircle
 62
253
  6
CONTINUOUS
 10
-10.2441712966
 20
-23.9655261669
 40
0.2500059834
100
AcDbArc
 50
180.0023408215
 51
269.9976591785
  0
ARC
  5
55D
100
AcDbEntity
  8
RACCORDO
100
AcDbCircle
 62
253
  6
CONTINUOUS
 10
-8.3529269311
 20
-23.9655261669
 40
0.2500059834
100
AcDbArc
 50
270.0023408215
 51
359.9976591785
  0
ARC
  5
55E
100
AcDbEntity
  8
0
100
AcDbCircle
 62
7
  6
CONTINUOUS
 10
-8.348543146
 20
-23.9699099521
 40
0.2499940321
100
AcDbArc
 50
269.9996018723
 51
0.0003981277
  0
ARC
  5
55F
100
AcDbEntity
  8
0
100
AcDbCircle
 62
7
  6
CONTINUOUS
 10
-10.2485550818
 20
-23.9699099521
 40
0.2499940321
100
AcDbArc
 50
179.9996018723
 51
270.0003981277
  0
ARC
  5
560
100
AcDbEntity
  8
RACCORDO
100
AcDbCircle
 62
7
  6
CONTINUOUS
 10
-8.348543146
 20
-23.9699099521
 40
0.2499940321
100
AcDbArc
 50
269.9996018723
 51
0.0003981277
  0
ARC
  5
561
100
AcDbEntity
  8
RACCORDO
100
AcDbCircle
 62
7
  6
CONTINUOUS
 10
-10.2485550818
 20
-23.9699099521
 40
0.2499940321
100
AcDbArc
 50
179.9996018723
 51
270.0003981277
  0
ARC
  5
562
100
AcDbEntity
  8
0
100
AcDbCircle
 62
7
  6
CONTINUOUS
 10
-10.6988657222
 20
-22.2855454233
 40
0.2003126717
100
AcDbArc
 50
359.9798047652
 51
57.7410851133
  0
ARC
  5
563
100
AcDbEntity
  8
RACCORDO
100
AcDbCircle
 62
7
  6
CONTINUOUS
 10
-10.6988657222
 20
-22.2855454233
 40
0.2003126717
100
AcDbArc
 50
359.9798047652
 51
57.7410851133
  0
ARC
  5
564
100
AcDbEntity
  8
GUSCI_ESTERNI
100
AcDbCircle
 62
7
  6
CONTINUOUS
 10
-8.4985491139
 20
14.6800960158
 40
1.0
100
AcDbArc
 50
180.0
 51
240.2462861003
  0
ARC
  5
565
100
AcDbEntity
  8
GUSCI_ESTERNI
100
AcDbCircle
 62
7
  6
CONTINUOUS
 10
-8.4985491139
 20
16.1800960158
 40
1.0
100
AcDbArc
 50
119.7501332207
 51
180.0
  0
ARC
  5
566
100
AcDbEntity
  8
DRAFT
100
AcDbCircle
 62
7
  6
CONTINUOUS
 10
-8.2985491139
 20
14.5300960158
 40
1.0
100
AcDbArc
 50
180.0
 51
270.0
  0
ARC
  5
567
100
AcDbEntity
  8
DRAFT
100
AcDbCircle
 62
7
  6
CONTINUOUS
 10
-8.2985491139
 20
16.3300960158
 40
1.0
100
AcDbArc
 50
90.0
 51
180.0
  0
ARC
  5
568
100
AcDbEntity
  8
0
100
AcDbCircle
 62
7
  6
CONTINUOUS
 10
-10.4834238779
 20
22.1874950867
 40
0.5000947883
100
AcDbArc
 50
107.9779194038
 51
116.5650224981
  0
ARC
  5
569
100
AcDbEntity
  8
RACCORDO
100
AcDbCircle
 62
7
  6
CONTINUOUS
 10
-10.4834238779
 20
22.1874950867
 40
0.5000947883
100
AcDbArc
 50
107.9779194038
 51
116.5650224981
  0
ARC
  5
56A
100
AcDbEntity
  8
GUSCI_ESTERNI
100
AcDbCircle
 62
7
  6
CONTINUOUS
 10
-5.8985491139
 20
1.7800960158
 40
0.4
100
AcDbArc
 50
90.0
 51
270.0
  0
ARC
  5
56B
100
AcDbEntity
  8
ASSI
100
AcDbCircle
 62
7
  6
CONTINUOUS
 10
-5.2985491139
 20
0.7800960158
 40
0.4
100
AcDbArc
 50
270.0
 51
90.0
  0
ARC
  5
56C
100
AcDbEntity
  8
0
100
AcDbCircle
 62
253
  6
CONTINUOUS
 10
-8.3529269311
 20
24.5257181986
 40
0.2500059834
100
AcDbArc
 50
0.0023408215
 51
89.9976591785
  0
ARC
  5
56D
100
AcDbEntity
  8
0
100
AcDbCircle
 62
253
  6
CONTINUOUS
 10
-10.2441712966
 20
24.5257181986
 40
0.2500059834
100
AcDbArc
 50
90.0023408215
 51
179.9976591785
  0
ARC
  5
56E
100
AcDbEntity
  8
RACCORDO
100
AcDbCircle
 62
253
  6
CONTINUOUS
 10
-10.2441712966
 20
24.5257181986
 40
0.2500059834
100
AcDbArc
 50
90.0023408215
 51
179.9976591785
  0
ARC
  5
56F
100
AcDbEntity
  8
RACCORDO
100
AcDbCircle
 62
253
  6
CONTINUOUS
 10
-8.3529269311
 20
24.5257181986
 40
0.2500059834
100
AcDbArc
 50
0.0023408215
 51
89.9976591785
  0
ARC
  5
570
100
AcDbEntity
  8
0
100
AcDbCircle
 62
7
  6
CONTINUOUS
 10
-8.348543146
 20
24.5301019837
 40
0.2499940321
100
AcDbArc
 50
359.9996018723
 51
90.0003981277
  0
ARC
  5
571
100
AcDbEntity
  8
0
100
AcDbCircle
 62
7
  6
CONTINUOUS
 10
-10.2485550818
 20
24.5301019837
 40
0.2499940321
100
AcDbArc
 50
89.9996018723
 51
180.0003981277
  0
ARC
  5
572
100
AcDbEntity
  8
RACCORDO
100
AcDbCircle
 62
7
  6
CONTINUOUS
 10
-10.2485550818
 20
24.5301019837
 40
0.2499940321
100
AcDbArc
 50
89.9996018723
 51
180.0003981277
  0
ARC
  5
573
100
AcDbEntity
  8
RACCORDO
100
AcDbCircle
 62
7
  6
CONTINUOUS
 10
-8.348543146
 20
24.5301019837
 40
0.2499940321
100
AcDbArc
 50
359.9996018723
 51
90.0003981277
  0
ARC
  5
574
100
AcDbEntity
  8
0
100
AcDbCircle
 62
7
  6
CONTINUOUS
 10
-10.6988657342
 20
22.8457374391
 40
0.2003126717
100
AcDbArc
 50
302.2589202112
 51
0.0201997759
  0
ARC
  5
575
100
AcDbEntity
  8
RACCORDO
100
AcDbCircle
 62
7
  6
CONTINUOUS
 10
-10.6988657342
 20
22.8457374391
 40
0.2003126717
100
AcDbArc
 50
302.2589202113
 51
0.0201997759
  0
ARC
  5
576
100
AcDbEntity
  8
0
100
AcDbCircle
 62
7
  6
CONTINUOUS
 10
3.3307700739
 20
-18.4301257753
 40
7.0929231079
100
AcDbArc
 50
44.9402588609
 51
48.4752605848
  0
ARC
  5
577
100
AcDbEntity
  8
ASSI
100
AcDbCircle
 62
7
  6
CONTINUOUS
 10
2.4014508861
 20
-15.6199039842
 40
1.0
100
AcDbArc
 50
180.0
 51
270.0
  0
ARC
  5
578
100
AcDbEntity
  8
ASSI
100
AcDbCircle
 62
7
  6
CONTINUOUS
 10
2.4014508861
 20
-14.1199039842
 40
1.0
100
AcDbArc
 50
90.0
 51
180.0
  0
ARC
  5
579
100
AcDbEntity
  8
0
100
AcDbCircle
 62
7
  6
CONTINUOUS
 10
10.7863256501
 20
-21.627303055
 40
0.5000947883
100
AcDbArc
 50
287.9779194038
 51
296.5650224981
  0
ARC
  5
57A
100
AcDbEntity
  8
RACCORDO
100
AcDbCircle
 62
7
  6
CONTINUOUS
 10
10.7863256501
 20
-21.627303055
 40
0.5000947883
100
AcDbArc
 50
287.9779194038
 51
296.5650224981
  0
ARC
  5
57B
100
AcDbEntity
  8
0
100
AcDbCircle
 62
253
  6
CONTINUOUS
 10
8.6558287034
 20
-23.9655261669
 40
0.2500059834
100
AcDbArc
 50
180.0023408215
 51
269.9976591785
  0
ARC
  5
57C
100
AcDbEntity
  8
0
100
AcDbCircle
 62
253
  6
CONTINUOUS
 10
10.5470730689
 20
-23.9655261669
 40
0.2500059834
100
AcDbArc
 50
270.0023408215
 51
359.9976591785
  0
ARC
  5
57D
100
AcDbEntity
  8
RACCORDO
100
AcDbCircle
 62
253
  6
CONTINUOUS
 10
10.5470730689
 20
-23.9655261669
 40
0.2500059834
100
AcDbArc
 50
270.0023408215
 51
359.9976591785
  0
ARC
  5
57E
100
AcDbEntity
  8
RACCORDO
100
AcDbCircle
 62
253
  6
CONTINUOUS
 10
8.6558287034
 20
-23.9655261669
 40
0.2500059834
100
AcDbArc
 50
180.0023408215
 51
269.9976591785
  0
ARC
  5
57F
100
AcDbEntity
  8
0
100
AcDbCircle
 62
7
  6
CONTINUOUS
 10
8.6514449182
 20
-23.9699099521
 40
0.2499940321
100
AcDbArc
 50
179.9996018723
 51
270.0003981277
  0
ARC
  5
580
100
AcDbEntity
  8
0
100
AcDbCircle
 62
7
  6
CONTINUOUS
 10
10.551456854
 20
-23.9699099521
 40
0.2499940321
100
AcDbArc
 50
269.9996018723
 51
0.0003981277
  0
ARC
  5
581
100
AcDbEntity
  8
RACCORDO
100
AcDbCircle
 62
7
  6
CONTINUOUS
 10
10.551456854
 20
-23.9699099521
 40
0.2499940321
100
AcDbArc
 50
269.9996018723
 51
0.0003981277
  0
ARC
  5
582
100
AcDbEntity
  8
RACCORDO
100
AcDbCircle
 62
7
  6
CONTINUOUS
 10
8.6514449182
 20
-23.9699099521
 40
0.2499940321
100
AcDbArc
 50
179.9996018723
 51
270.0003981277
  0
ARC
  5
583
100
AcDbEntity
  8
0
100
AcDbCircle
 62
7
  6
CONTINUOUS
 10
11.0017674882
 20
-22.2855454213
 40
0.2003126717
100
AcDbArc
 50
122.2589136785
 51
180.0201958139
  0
ARC
  5
584
100
AcDbEntity
  8
RACCORDO
100
AcDbCircle
 62
7
  6
CONTINUOUS
 10
11.0017674882
 20
-22.2855454213
 40
0.2003126717
100
AcDbArc
 50
122.2589136785
 51
180.0201958139
  0
ARC
  5
585
100
AcDbEntity
  8
0
100
AcDbCircle
 62
7
  6
CONTINUOUS
 10
7.872286561
 20
-18.4302901953
 40
7.0931488677
100
AcDbArc
 50
131.5247848031
 51
135.059684648
  0
ARC
  5
586
100
AcDbEntity
  8
GUSCI_ESTERNI
100
AcDbCircle
 62
7
  6
CONTINUOUS
 10
8.5014508861
 20
-15.8899039842
 40
2.5
100
AcDbArc
 50
270.0
 51
360.0
  0
ARC
  5
587
100
AcDbEntity
  8
GUSCI_ESTERNI
100
AcDbCircle
 62
7
  6
CONTINUOUS
 10
8.5014508861
 20
-13.8499039842
 40
2.5
100
AcDbArc
 50
0.0
 51
90.0
  0
ARC
  5
588
100
AcDbEntity
  8
ASSI
100
AcDbCircle
 62
7
  6
CONTINUOUS
 10
8.5014508861
 20
-15.8899039842
 40
2.5
100
AcDbArc
 50
270.0
 51
360.0
  0
ARC
  5
589
100
AcDbEntity
  8
ASSI
100
AcDbCircle
 62
7
  6
CONTINUOUS
 10
8.5014508861
 20
-13.8499039842
 40
2.5
100
AcDbArc
 50
0.0
 51
90.0
  0
ARC
  5
58A
100
AcDbEntity
  8
GUSCI_ESTERNI
100
AcDbCircle
 62
7
  6
CONTINUOUS
 10
8.8014508861
 20
-13.8449039842
 40
1.5
100
AcDbArc
 50
0.0
 51
90.0
  0
ARC
  5
58B
100
AcDbEntity
  8
GUSCI_ESTERNI
100
AcDbCircle
 62
7
  6
CONTINUOUS
 10
8.8014508861
 20
-15.8949039842
 40
1.5
100
AcDbArc
 50
270.0
 51
360.0
  0
ARC
  5
58C
100
AcDbEntity
  8
ASSI
100
AcDbCircle
 62
7
  6
CONTINUOUS
 10
8.8014508861
 20
-13.8449039842
 40
1.5
100
AcDbArc
 50
0.0
 51
90.0
  0
ARC
  5
58D
100
AcDbEntity
  8
ASSI
100
AcDbCircle
 62
7
  6
CONTINUOUS
 10
8.8014508861
 20
-15.8949039842
 40
1.5
100
AcDbArc
 50
270.0
 51
360.0
  0
ARC
  5
58E
100
AcDbEntity
  8
GUSCI_ESTERNI
100
AcDbCircle
 62
7
  6
CONTINUOUS
 10
8.7514508861
 20
-14.1199039842
 40
1.0
100
AcDbArc
 50
0.0
 51
90.0
  0
ARC
  5
58F
100
AcDbEntity
  8
GUSCI_ESTERNI
100
AcDbCircle
 62
7
  6
CONTINUOUS
 10
8.7514508861
 20
-15.6199039842
 40
1.0
100
AcDbArc
 50
270.0
 51
360.0
  0
ARC
  5
590
100
AcDbEntity
  8
ASSI
100
AcDbCircle
 62
7
  6
CONTINUOUS
 10
8.7514508861
 20
-14.1199039842
 40
1.0
100
AcDbArc
 50
0.0
 51
90.0
  0
ARC
  5
591
100
AcDbEntity
  8
ASSI
100
AcDbCircle
 62
7
  6
CONTINUOUS
 10
8.7514508861
 20
-15.6199039842
 40
1.0
100
AcDbArc
 50
270.0
 51
360.0
  0
ARC
  5
592
100
AcDbEntity
  8
SMUSSO
100
AcDbCircle
 62
7
  6
CONTINUOUS
 10
5.2014508861
 20
1.7800960158
 40
1.35
100
AcDbArc
 50
350.4031420291
 51
9.5968579709
  0
ARC
  5
593
100
AcDbEntity
  8
SMUSSO
100
AcDbCircle
 62
7
  6
CONTINUOUS
 10
5.2014508861
 20
1.7800960158
 40
0.85
100
AcDbArc
 50
331.9249350285
 51
28.0750649715
  0
ARC
  5
594
100
AcDbEntity
  8
ASSI
100
AcDbCircle
 62
7
  6
CONTINUOUS
 10
5.6014508861
 20
1.7800960158
 40
0.4
100
AcDbArc
 50
90.0
 51
270.0
  0
ARC
  5
595
100
AcDbEntity
  8
GUSCI_ESTERNI
100
AcDbCircle
 62
7
  6
CONTINUOUS
 10
6.2014508861
 20
1.7800960158
 40
0.4
100
AcDbArc
 50
270.0
 51
90.0
  0
ARC
  5
596
100
AcDbEntity
  8
ASSI
100
AcDbCircle
 62
7
  6
CONTINUOUS
 10
6.2014508861
 20
1.7800960158
 40
0.4
100
AcDbArc
 50
270.0
 51
90.0
  0
ARC
  5
597
100
AcDbEntity
  8
0
100
AcDbCircle
 62
7
  6
CONTINUOUS
 10
5.2014508861
 20
1.7800960158
 40
0.2
100
AcDbArc
 50
284.5103154316
 51
75.4896845684
  0
ARC
  5
598
100
AcDbEntity
  8
0
100
AcDbCircle
 62
7
  6
CONTINUOUS
 10
3.3306152113
 20
18.990482227
 40
7.0931488677
100
AcDbArc
 50
311.5247848031
 51
315.059684648
  0
ARC
  5
599
100
AcDbEntity
  8
ASSI
100
AcDbCircle
 62
7
  6
CONTINUOUS
 10
2.4014508861
 20
16.1800960158
 40
1.0
100
AcDbArc
 50
90.0
 51
180.0
  0
ARC
  5
59A
100
AcDbEntity
  8
ASSI
100
AcDbCircle
 62
7
  6
CONTINUOUS
 10
2.4014508861
 20
14.6800960158
 40
1.0
100
AcDbArc
 50
180.0
 51
270.0
  0
ARC
  5
59B
100
AcDbEntity
  8
0
100
AcDbCircle
 62
7
  6
CONTINUOUS
 10
7.8721316984
 20
18.990317807
 40
7.0929231079
100
AcDbArc
 50
224.9402588609
 51
228.4752605848
  0
ARC
  5
59C
100
AcDbEntity
  8
GUSCI_ESTERNI
100
AcDbCircle
 62
7
  6
CONTINUOUS
 10
8.7514508861
 20
16.1800960158
 40
1.0
100
AcDbArc
 50
0.0
 51
90.0
  0
ARC
  5
59D
100
AcDbEntity
  8
GUSCI_ESTERNI
100
AcDbCircle
 62
7
  6
CONTINUOUS
 10
8.7514508861
 20
14.6800960158
 40
1.0
100
AcDbArc
 50
270.0
 51
360.0
  0
ARC
  5
59E
100
AcDbEntity
  8
ASSI
100
AcDbCircle
 62
7
  6
CONTINUOUS
 10
8.7514508861
 20
16.1800960158
 40
1.0
100
AcDbArc
 50
0.0
 51
90.0
  0
ARC
  5
59F
100
AcDbEntity
  8
ASSI
100
AcDbCircle
 62
7
  6
CONTINUOUS
 10
8.7514508861
 20
14.6800960158
 40
1.0
100
AcDbArc
 50
270.0
 51
360.0
  0
ARC
  5
5A0
100
AcDbEntity
  8
0
100
AcDbCircle
 62
7
  6
CONTINUOUS
 10
10.7863256502
 20
22.1874950867
 40
0.5000947882
100
AcDbArc
 50
63.4349775538
 51
72.0220797127
  0
ARC
  5
5A1
100
AcDbEntity
  8
RACCORDO
100
AcDbCircle
 62
7
  6
CONTINUOUS
 10
10.7863256502
 20
22.1874950867
 40
0.5000947882
100
AcDbArc
 50
63.4349775538
 51
72.0220797127
  0
ARC
  5
5A2
100
AcDbEntity
  8
0
100
AcDbCircle
 62
253
  6
CONTINUOUS
 10
10.5470730689
 20
24.5257181986
 40
0.2500059834
100
AcDbArc
 50
0.0023408215
 51
89.9976591785
  0
ARC
  5
5A3
100
AcDbEntity
  8
0
100
AcDbCircle
 62
253
  6
CONTINUOUS
 10
8.6558287034
 20
24.5257181986
 40
0.2500059834
100
AcDbArc
 50
90.0023408215
 51
179.9976591785
  0
ARC
  5
5A4
100
AcDbEntity
  8
RACCORDO
100
AcDbCircle
 62
253
  6
CONTINUOUS
 10
8.6558287034
 20
24.5257181986
 40
0.2500059834
100
AcDbArc
 50
90.0023408215
 51
179.9976591785
  0
ARC
  5
5A5
100
AcDbEntity
  8
RACCORDO
100
AcDbCircle
 62
253
  6
CONTINUOUS
 10
10.5470730689
 20
24.5257181986
 40
0.2500059834
100
AcDbArc
 50
0.0023408215
 51
89.9976591785
  0
ARC
  5
5A6
100
AcDbEntity
  8
0
100
AcDbCircle
 62
7
  6
CONTINUOUS
 10
8.6514449182
 20
24.5301019837
 40
0.2499940321
100
AcDbArc
 50
89.9996018723
 51
180.0003981277
  0
ARC
  5
5A7
100
AcDbEntity
  8
0
100
AcDbCircle
 62
7
  6
CONTINUOUS
 10
10.551456854
 20
24.5301019837
 40
0.2499940321
100
AcDbArc
 50
359.9996018723
 51
90.0003981277
  0
ARC
  5
5A8
100
AcDbEntity
  8
RACCORDO
100
AcDbCircle
 62
7
  6
CONTINUOUS
 10
8.6514449182
 20
24.5301019837
 40
0.2499940321
100
AcDbArc
 50
89.9996018723
 51
180.0003981277
  0
ARC
  5
5A9
100
AcDbEntity
  8
RACCORDO
100
AcDbCircle
 62
7
  6
CONTINUOUS
 10
10.551456854
 20
24.5301019837
 40
0.2499940321
100
AcDbArc
 50
359.9996018723
 51
90.0003981277
  0
ARC
  5
5AA
100
AcDbEntity
  8
0
100
AcDbCircle
 62
7
  6
CONTINUOUS
 10
11.0017675005
 20
22.8457374367
 40
0.2003126717
100
AcDbArc
 50
179.9797995229
 51
237.7410808526
  0
ARC
  5
5AB
100
AcDbEntity
  8
RACCORDO
100
AcDbCircle
 62
7
  6
CONTINUOUS
 10
11.0017675005
 20
22.8457374367
 40
0.2003126717
100
AcDbArc
 50
179.9797995229
 51
237.7410808526
  0
SPLINE
  5
5AC
100
AcDbEntity
  8
0
100
AcDbSpline
 62
7
  6
CONTINUOUS
 70
0
 71
3
 72
27
 73
23
 74
21
 42
0.0000001
 43
0.0000001
 44
0.0000000001
 12
-0.0453620884
 22
0.0147190314
 32
0.0
 13
-0.0461863849
 23
0.0118822052
 33
0.0
 40
0.0
 40
0.0
 40
0.0
 40
0.0
 40
0.0715553232
 40
0.1399234144
 40
0.2036475075
 40
0.2627461471
 40
0.3173243211
 40
0.3689504796
 40
0.4184203839
 40
0.4660926464
 40
0.5121065567
 40
0.5570474287
 40
0.6013263698
 40
0.6452205536
 40
0.6889445492
 40
0.7326652251
 40
0.7765111923
 40
0.8205785335
 40
0.8649343278
 40
0.9096190888
 40
0.9546482816
 40
1.0
 40
1.0
 40
1.0
 40
1.0
 10
10.940680141
 20
22.6631730117
 30
0.0
 10
10.9395981747
 20
22.6635240868
 30
0.0
 10
10.9374804987
 20
22.6642046466
 30
0.0
 10
10.9343931497
 20
22.6651786758
 30
0.0
 10
10.9314902088
 20
22.6660789314
 30
0.0
 10
10.9287929813
 20
22.6669023352
 30
0.0
 10
10.9262766581
 20
22.6676595707
 30
0.0
 10
10.9239043394
 20
22.6683641017
 30
0.0
 10
10.9216350077
 20
22.6690297468
 30
0.0
 10
10.9194492776
 20
22.6696633914
 30
0.0
 10
10.9173308871
 20
22.6702707081
 30
0.0
 10
10.9152626946
 20
22.6708573508
 30
0.0
 10
10.9132253756
 20
22.6714293242
 30
0.0
 10
10.9112052203
 20
22.6719908395
 30
0.0
 10
10.9091922203
 20
22.6725449335
 30
0.0
 10
10.9071786164
 20
22.673093922
 30
0.0
 10
10.9051584471
 20
22.673639557
 30
0.0
 10
10.9031272686
 20
22.6741831298
 30
0.0
 10
10.9010819808
 20
22.6747255381
 30
0.0
 10
10.8990207172
 20
22.6752673344
 30
0.0
 10
10.8969429778
 20
22.6758087074
 30
0.0
 10
10.8955518812
 20
22.6761680804
 30
0.0
 10
10.8948536706
 20
22.6763477065
 30
0.0
 11
10.940680141
 21
22.6631730117
 31
0.0
 11
10.9374313202
 21
22.6642171889
 31
0.0
 11
10.934321924
 21
22.6651982606
 31
0.0
 11
10.9314192952
 21
22.6660984897
 31
0.0
 11
10.9287236876
 21
22.6669214552
 31
0.0
 11
10.9262312583
 21
22.6676715448
 31
0.0
 11
10.9238710811
 21
22.6683725077
 31
0.0
 11
10.9216072328
 21
22.6690365777
 31
0.0
 11
10.9194236409
 21
22.6696696326
 31
0.0
 11
10.9173142047
 21
22.6702744093
 31
0.0
 11
10.9152523087
 21
22.6708592914
 31
0.0
 11
10.9132192406
 21
22.6714300959
 31
0.0
 11
10.9112023801
 21
22.6719907194
 31
0.0
 11
10.9091919458
 21
22.6725441312
 31
0.0
 11
10.9071803225
 21
22.6730926039
 31
0.0
 11
10.9051616358
 21
22.6736378632
 31
0.0
 11
10.9031314955
 21
22.6741811835
 31
0.0
 11
10.9010868384
 21
22.6747234507
 31
0.0
 11
10.8990258209
 21
22.6752652096
 31
0.0
 11
10.8969477529
 21
22.6758066964
 31
0.0
 11
10.8948536706
 21
22.6763477065
 31
0.0
  0
SPLINE
  5
5AD
100
AcDbEntity
  8
0
100
AcDbSpline
 62
7
  6
CONTINUOUS
 70
0
 71
3
 72
27
 73
23
 74
21
 42
0.0000001
 43
0.0000001
 44
0.0000000001
 12
0.0453620884
 22
-0.0147190314
 32
0.0
 13
0.0461863849
 23
-0.0118822052
 33
0.0
 40
0.0
 40
0.0
 40
0.0
 40
0.0
 40
0.0715553232
 40
0.1399234144
 40
0.2036475075
 40
0.2627461471
 40
0.3173243211
 40
0.3689504796
 40
0.4184203839
 40
0.4660926464
 40
0.5121065567
 40
0.5570474287
 40
0.6013263698
 40
0.6452205536
 40
0.6889445492
 40
0.7326652251
 40
0.7765111923
 40
0.8205785335
 40
0.8649343278
 40
0.9096190888
 40
0.9546482816
 40
1.0
 40
1.0
 40
1.0
 40
1.0
 10
-10.6377783687
 20
-22.1029809801
 30
0.0
 10
-10.6366964024
 20
-22.1033320551
 30
0.0
 10
-10.6345787264
 20
-22.1040126149
 30
0.0
 10
-10.6314913774
 20
-22.1049866441
 30
0.0
 10
-10.6285884365
 20
-22.1058868997
 30
0.0
 10
-10.625891209
 20
-22.1067103035
 30
0.0
 10
-10.6233748859
 20
-22.107467539
 30
0.0
 10
-10.6210025671
 20
-22.10817207
 30
0.0
 10
-10.6187332355
 20
-22.1088377151
 30
0.0
 10
-10.6165475054
 20
-22.1094713598
 30
0.0
 10
-10.6144291148
 20
-22.1100786765
 30
0.0
 10
-10.6123609223
 20
-22.1106653191
 30
0.0
 10
-10.6103236033
 20
-22.1112372925
 30
0.0
 10
-10.608303448
 20
-22.1117988078
 30
0.0
 10
-10.606290448
 20
-22.1123529018
 30
0.0
 10
-10.6042768441
 20
-22.1129018903
 30
0.0
 10
-10.6022566748
 20
-22.1134475253
 30
0.0
 10
-10.6002254963
 20
-22.1139910981
 30
0.0
 10
-10.5981802085
 20
-22.1145335064
 30
0.0
 10
-10.5961189449
 20
-22.1150753027
 30
0.0
 10
-10.5940412056
 20
-22.1156166758
 30
0.0
 10
-10.5926501089
 20
-22.1159760487
 30
0.0
 10
-10.5919518983
 20
-22.1161556749
 30
0.0
 11
-10.6377783687
 21
-22.1029809801
 31
0.0
 11
-10.6345295479
 21
-22.1040251572
 31
0.0
 11
-10.6314201517
 21
-22.1050062289
 31
0.0
 11
-10.6285175229
 21
-22.1059064581
 31
0.0
 11
-10.6258219153
 21
-22.1067294235
 31
0.0
 11
-10.623329486
 21
-22.1074795131
 31
0.0
 11
-10.6209693089
 21
-22.108180476
 31
0.0
 11
-10.6187054606
 21
-22.1088445461
 31
0.0
 11
-10.6165218686
 21
-22.1094776009
 31
0.0
 11
-10.6144124324
 21
-22.1100823776
 31
0.0
 11
-10.6123505365
 21
-22.1106672597
 31
0.0
 11
-10.6103174683
 21
-22.1112380642
 31
0.0
 11
-10.6083006078
 21
-22.1117986877
 31
0.0
 11
-10.6062901735
 21
-22.1123520995
 31
0.0
 11
-10.6042785502
 21
-22.1129005722
 31
0.0
 11
-10.6022598636
 21
-22.1134458315
 31
0.0
 11
-10.6002297233
 21
-22.1139891518
 31
0.0
 11
-10.5981850661
 21
-22.114531419
 31
0.0
 11
-10.5961240486
 21
-22.1150731779
 31
0.0
 11
-10.5940459806
 21
-22.1156146647
 31
0.0
 11
-10.5919518983
 21
-22.1161556749
 31
0.0
  0
SPLINE
  5
5AE
100
AcDbEntity
  8
0
100
AcDbSpline
 62
7
  6
CONTINUOUS
 70
0
 71
3
 72
27
 73
23
 74
21
 42
0.0000001
 43
0.0000001
 44
0.0000000001
 12
0.0461863775
 22
0.0118822033
 32
0.0
 13
0.0453620813
 23
0.0147190284
 33
0.0
 40
0.0
 40
0.0
 40
0.0
 40
0.0
 40
0.0453774781
 40
0.0903306196
 40
0.1348597099
 40
0.1789956283
 40
0.222798043
 40
0.266358374
 40
0.3098034547
 40
0.3533008102
 40
0.397067014
 40
0.4413811152
 40
0.4866064474
 40
0.5332469531
 40
0.5817198678
 40
0.6320325446
 40
0.6843908057
 40
0.7400338972
 40
0.7987405076
 40
0.8607759224
 40
0.9281047811
 40
1.0
 40
1.0
 40
1.0
 40
1.0
 10
10.8948536706
 20
-22.1161556749
 30
0.0
 10
10.8955522777
 20
-22.1159759467
 30
0.0
 10
10.8969425998
 20
-22.115616773
 30
0.0
 10
10.8990171708
 20
-22.1150762267
 30
0.0
 10
10.9010714943
 20
-22.1145362681
 30
0.0
 10
10.903106949
 20
-22.1139965019
 30
0.0
 10
10.9051263115
 20
-22.1134561536
 30
0.0
 10
10.9071338255
 20
-22.1129140322
 30
0.0
 10
10.9091353788
 20
-22.1123684606
 30
0.0
 10
10.9111387618
 20
-22.1118171797
 30
0.0
 10
10.9131540739
 20
-22.1112572046
 30
0.0
 10
10.9151943798
 20
-22.1106846006
 30
0.0
 10
10.9172770945
 20
-22.1100940352
 30
0.0
 10
10.9194216793
 20
-22.1094793508
 30
0.0
 10
10.9216420792
 20
-22.1088356962
 30
0.0
 10
10.9239476224
 20
-22.1081593379
 30
0.0
 10
10.9263601038
 20
-22.1074426414
 30
0.0
 10
10.9288976958
 20
-22.1066785763
 30
0.0
 10
10.931579328
 20
-22.1058593945
 30
0.0
 10
10.9344347957
 20
-22.1049735054
 30
0.0
 10
10.9374859273
 20
-22.1040108552
 30
0.0
 10
10.9395930281
 20
-22.103333725
 30
0.0
 10
10.9406801336
 20
-22.1029809824
 30
0.0
 11
10.8948536706
 21
-22.1161556749
 31
0.0
 11
10.8969489417
 21
-22.1156143563
 31
0.0
 11
10.8990235
 21
-22.1150737853
 31
0.0
 11
10.9010773404
 21
-22.1145339267
 31
0.0
 11
10.9031118702
 21
-22.1139943799
 31
0.0
 11
10.9051298209
 21
-22.1134543845
 31
0.0
 11
10.9071353806
 21
-22.1129127667
 31
0.0
 11
10.9091343565
 21
-22.1123678738
 31
0.0
 11
10.911134412
 21
-22.1118174849
 31
0.0
 11
10.9131454418
 21
-22.1112586758
 31
0.0
 11
10.9151801779
 21
-22.1106876104
 31
0.0
 11
10.9172551759
 21
-22.1100992071
 31
0.0
 11
10.9193933743
 21
-22.109486325
 31
0.0
 11
10.9216136499
 21
-22.108842675
 31
0.0
 11
10.9239160398
 21
-22.1081672066
 31
0.0
 11
10.9263096211
 21
-22.1074560855
 31
0.0
 11
10.9288505627
 21
-22.1066909649
 31
0.0
 11
10.9315281385
 21
-22.105872967
 31
0.0
 11
10.9343537491
 21
-22.104996276
 31
0.0
 11
10.9374158673
 21
-22.1040300766
 31
0.0
 11
10.9406801336
 21
-22.1029809824
 31
0.0
  0
SPLINE
  5
5AF
100
AcDbEntity
  8
0
100
AcDbSpline
 62
7
  6
CONTINUOUS
 70
0
 71
3
 72
27
 73
23
 74
21
 42
0.0000001
 43
0.0000001
 44
0.0000000001
 12
-0.0461863775
 22
-0.0118822033
 32
0.0
 13
-0.0453620813
 23
-0.0147190284
 33
0.0
 40
0.0
 40
0.0
 40
0.0
 40
0.0
 40
0.0453774781
 40
0.0903306196
 40
0.1348597099
 40
0.1789956283
 40
0.222798043
 40
0.266358374
 40
0.3098034547
 40
0.3533008102
 40
0.397067014
 40
0.4413811152
 40
0.4866064474
 40
0.5332469531
 40
0.5817198678
 40
0.6320325446
 40
0.6843908057
 40
0.7400338972
 40
0.7987405076
 40
0.8607759224
 40
0.9281047811
 40
1.0
 40
1.0
 40
1.0
 40
1.0
 10
-10.5919518983
 20
22.6763477065
 30
0.0
 10
-10.5926505054
 20
22.6761679784
 30
0.0
 10
-10.5940408275
 20
22.6758088047
 30
0.0
 10
-10.5961153985
 20
22.6752682584
 30
0.0
 10
-10.598169722
 20
22.6747282998
 30
0.0
 10
-10.6002051767
 20
22.6741885336
 30
0.0
 10
-10.6022245392
 20
22.6736481853
 30
0.0
 10
-10.6042320533
 20
22.6731060639
 30
0.0
 10
-10.6062336066
 20
22.6725604923
 30
0.0
 10
-10.6082369895
 20
22.6720092113
 30
0.0
 10
-10.6102523017
 20
22.6714492362
 30
0.0
 10
-10.6122926075
 20
22.6708766323
 30
0.0
 10
-10.6143753222
 20
22.6702860668
 30
0.0
 10
-10.616519907
 20
22.6696713824
 30
0.0
 10
-10.6187403069
 20
22.6690277279
 30
0.0
 10
-10.6210458501
 20
22.6683513696
 30
0.0
 10
-10.6234583315
 20
22.6676346731
 30
0.0
 10
-10.6259959235
 20
22.666870608
 30
0.0
 10
-10.6286775557
 20
22.6660514261
 30
0.0
 10
-10.6315330235
 20
22.6651655371
 30
0.0
 10
-10.6345841551
 20
22.6642028869
 30
0.0
 10
-10.6366912558
 20
22.6635257567
 30
0.0
 10
-10.6377783614
 20
22.6631730141
 30
0.0
 11
-10.5919518983
 21
22.6763477065
 31
0.0
 11
-10.5940471694
 21
22.675806388
 31
0.0
 11
-10.5961217277
 21
22.675265817
 31
0.0
 11
-10.5981755682
 21
22.6747259584
 31
0.0
 11
-10.600210098
 21
22.6741864116
 31
0.0
 11
-10.6022280487
 21
22.6736464162
 31
0.0
 11
-10.6042336083
 21
22.6731047984
 31
0.0
 11
-10.6062325843
 21
22.6725599055
 31
0.0
 11
-10.6082326398
 21
22.6720095166
 31
0.0
 11
-10.6102436695
 21
22.6714507075
 31
0.0
 11
-10.6122784057
 21
22.6708796421
 31
0.0
 11
-10.6143534036
 21
22.6702912388
 31
0.0
 11
-10.616491602
 21
22.6696783567
 31
0.0
 11
-10.6187118776
 21
22.6690347066
 31
0.0
 11
-10.6210142676
 21
22.6683592383
 31
0.0
 11
-10.6234078489
 21
22.6676481172
 31
0.0
 11
-10.6259487904
 21
22.6668829966
 31
0.0
 11
-10.6286263662
 21
22.6660649987
 31
0.0
 11
-10.6314519768
 21
22.6651883077
 31
0.0
 11
-10.6345140951
 21
22.6642221083
 31
0.0
 11
-10.6377783614
 21
22.6631730141
 31
0.0
  0
SPLINE
  5
5B0
100
AcDbEntity
  8
0
100
AcDbSpline
 62
7
  6
CONTINUOUS
 70
0
 71
3
 72
18
 73
14
 74
12
 42
0.0000001
 43
0.0000001
 44
0.0000000001
 12
0.4450903692
 22
-0.4810902355
 32
0.0
 13
0.0252793885
 23
-0.6549154174
 33
0.0
 40
0.0
 40
0.0
 40
0.0
 40
0.0
 40
0.1610700427
 40
0.3161797675
 40
0.459639169
 40
0.5858983805
 40
0.6937258751
 40
0.7831374497
 40
0.8554530788
 40
0.9120560403
 40
0.9545072575
 40
0.9834021834
 40
1.0
 40
1.0
 40
1.0
 40
1.0
 10
4.0794208738
 20
-22.9762617989
 30
0.0
 10
4.1033177821
 20
-23.0020915405
 30
0.0
 10
4.1502275107
 20
-23.0527950445
 30
0.0
 10
4.2183095005
 20
-23.1266075152
 30
0.0
 10
4.2810173663
 20
-23.1950308104
 30
0.0
 10
4.3364281923
 20
-23.2561277001
 30
0.0
 10
4.3835026491
 20
-23.3088462188
 30
0.0
 10
4.4222239813
 20
-23.3532091328
 30
0.0
 10
4.4530077802
 20
-23.3896690235
 30
0.0
 10
4.4763931053
 20
-23.4188593573
 30
0.0
 10
4.4930597873
 20
-23.4414411531
 30
0.0
 10
4.5030754411
 20
-23.4576296789
 30
0.0
 10
4.507243758
 20
-23.4670540202
 30
0.0
 10
4.5073836189
 20
-23.4706774089
 30
0.0
 11
4.0794208738
 21
-22.9762617989
 31
0.0
 11
4.1510918204
 21
-23.0537693172
 31
0.0
 11
4.2199938164
 21
-23.1285165453
 31
0.0
 11
4.2834920098
 21
-23.1978594831
 31
0.0
 11
4.3390482893
 21
-23.2591879028
 31
0.0
 11
4.3860723849
 21
-23.3119425299
 31
0.0
 11
4.4245486734
 21
-23.3561421734
 31
0.0
 11
4.4550392359
 21
-23.392428478
 31
0.0
 11
4.4781237007
 21
-23.421468986
 31
0.0
 11
4.4944120616
 21
-23.4440253537
 31
0.0
 11
4.5040673724
 21
-23.4603169519
 31
0.0
 11
4.5073836189
 21
-23.4706774089
 31
0.0
  0
SPLINE
  5
5B1
100
AcDbEntity
  8
0
100
AcDbSpline
 62
7
  6
CONTINUOUS
 70
0
 71
3
 72
8
 73
4
 74
2
 42
0.0000001
 43
0.0000001
 44
0.0000000001
 12
0.0
 22
0.0062881995
 32
0.0
 13
0.0022476677
 23
0.0059728434
 33
0.0
 40
0.0
 40
0.0
 40
0.0
 40
0.0
 40
1.0
 40
1.0
 40
1.0
 40
1.0
 10
3.6514508861
 20
-23.4710462745
 30
0.0
 10
3.6514508861
 20
-23.468950208
 30
0.0
 10
3.6519637493
 20
-23.4669072376
 30
0.0
 10
3.6527129718
 20
-23.4649162898
 30
0.0
 11
3.6514508861
 21
-23.4710462745
 31
0.0
 11
3.6527129718
 21
-23.4649162898
 31
0.0
  0
SPLINE
  5
5B2
100
AcDbEntity
  8
0
100
AcDbSpline
 62
7
  6
CONTINUOUS
 70
0
 71
3
 72
18
 73
14
 74
12
 42
0.0000001
 43
0.0000001
 44
0.0000000001
 12
0.232149697
 22
0.6169033864
 32
0.0
 13
0.4410644187
 23
0.4767386574
 33
0.0
 40
0.0
 40
0.0
 40
0.0
 40
0.0
 40
0.0066271058
 40
0.0353775591
 40
0.0779097127
 40
0.1348025639
 40
0.2076256814
 40
0.2978091982
 40
0.4067225147
 40
0.5344206762
 40
0.6796844479
 40
0.8368312717
 40
1.0
 40
1.0
 40
1.0
 40
1.0
 10
3.6527129718
 20
-23.4649162898
 30
0.0
 10
3.6532257987
 20
-23.4635535285
 30
0.0
 10
3.6565545773
 20
-23.4564087946
 30
0.0
 10
3.6652701705
 20
-23.4421824218
 30
0.0
 10
3.6817821112
 20
-23.4197197738
 30
0.0
 10
3.7050419755
 20
-23.3906275055
 30
0.0
 10
3.7357483765
 20
-23.354218743
 30
0.0
 10
3.7744418808
 20
-23.3098601329
 30
0.0
 10
3.8215570016
 20
-23.257077618
 30
0.0
 10
3.8770906211
 20
-23.1958341762
 30
0.0
 10
3.9400009178
 20
-23.1271844389
 30
0.0
 10
4.0083380921
 20
-23.0530935181
 30
0.0
 10
4.055431567
 20
-23.0021914124
 30
0.0
 10
4.0794208738
 20
-22.9762617989
 30
0.0
 11
3.6527129718
 21
-23.4649162898
 31
0.0
 11
3.6544949926
 21
-23.460900781
 31
0.0
 11
3.6639250512
 21
-23.4447842188
 31
0.0
 11
3.6800451844
 21
-23.4223520416
 31
0.0
 11
3.7030056186
 21
-23.3934011159
 31
0.0
 11
3.7334107081
 21
-23.3571724506
 31
0.0
 11
3.7718533096
 21
-23.3129815375
 31
0.0
 11
3.8189114014
 21
-23.2601688248
 31
0.0
 11
3.8745865043
 21
-23.1986969916
 31
0.0
 11
3.9382986116
 21
-23.1291141091
 31
0.0
 11
4.0074729641
 21
-23.0540691478
 31
0.0
 11
4.0794208738
 21
-22.9762617989
 31
0.0
  0
SPLINE
  5
5B3
100
AcDbEntity
  8
0
100
AcDbSpline
 62
7
  6
CONTINUOUS
 70
0
 71
3
 72
18
 73
14
 74
12
 42
0.0000001
 43
0.0000001
 44
0.0000000001
 12
0.4453347054
 22
-0.4813543341
 32
0.0
 13
0.0
 23
-0.6557629105
 33
0.0
 40
0.0
 40
0.0
 40
0.0
 40
0.0
 40
0.1614952952
 40
0.3171097781
 40
0.4609917901
 40
0.5874696091
 40
0.6953300589
 40
0.7846477581
 40
0.8567778755
 40
0.9131578401
 40
0.9553196044
 40
0.9838298659
 40
1.0
 40
1.0
 40
1.0
 40
1.0
 10
-3.7765191015
 20
-22.9762617989
 30
0.0
 10
-3.7525459483
 20
-23.0021739523
 30
0.0
 10
-3.7054724086
 20
-23.053054512
 30
0.0
 10
-3.6371533533
 20
-23.1271255316
 30
0.0
 10
-3.5742443001
 20
-23.1957733972
 30
0.0
 10
-3.5187093105
 20
-23.2570176039
 30
0.0
 10
-3.4715944277
 20
-23.3097987472
 30
0.0
 10
-3.4329007023
 20
-23.3541559156
 30
0.0
 10
-3.4021878258
 20
-23.3905697897
 30
0.0
 10
-3.3789159887
 20
-23.4196734643
 30
0.0
 10
-3.3623879348
 20
-23.4421532317
 30
0.0
 10
-3.3525770656
 20
-23.4581625138
 30
0.0
 10
-3.3485491139
 20
-23.4675116831
 30
0.0
 10
-3.3485491139
 20
-23.4710462745
 30
0.0
 11
-3.7765191015
 21
-22.9762617989
 31
0.0
 11
-3.7046196117
 21
-23.0540167299
 31
0.0
 11
-3.6354564352
 21
-23.1290492777
 31
0.0
 11
-3.5717391139
 21
-23.1986373136
 31
0.0
 11
-3.5160617926
 21
-23.2601108069
 31
0.0
 11
-3.469006815
 21
-23.3129188254
 31
0.0
 11
-3.4305637504
 21
-23.3571084201
 31
0.0
 11
-3.4001550415
 21
-23.3933385818
 31
0.0
 11
-3.3771793811
 21
-23.422304763
 31
0.0
 11
-3.3610425278
 21
-23.4447551656
 31
0.0
 11
-3.3515981627
 21
-23.4608903241
 31
0.0
 11
-3.3485491139
 21
-23.4710462745
 31
0.0
  0
SPLINE
  5
5B4
100
AcDbEntity
  8
0
100
AcDbSpline
 62
7
  6
CONTINUOUS
 70
0
 71
3
 72
18
 73
14
 74
12
 42
0.0000001
 43
0.0000001
 44
0.0000000001
 12
0.0252793929
 22
0.654915531
 32
0.0
 13
0.4450904464
 23
0.4810903189
 33
0.0
 40
0.0
 40
0.0
 40
0.0
 40
0.0
 40
0.0165806563
 40
0.0454411065
 40
0.0878560839
 40
0.1444275358
 40
0.2167384756
 40
0.3061519021
 40
0.4139889825
 40
0.5402449784
 40
0.6836932136
 40
0.8388260589
 40
1.0
 40
1.0
 40
1.0
 40
1.0
 10
-4.2044818466
 20
-23.4706774089
 30
0.0
 10
-4.2043421303
 20
-23.4670577658
 30
0.0
 10
-4.2001809019
 20
-23.4576434614
 30
0.0
 10
-4.1901771367
 20
-23.4414695309
 30
0.0
 10
-4.1735260009
 20
-23.418904276
 30
0.0
 10
-4.1501521751
 20
-23.3897248957
 30
0.0
 10
-4.1193744241
 20
-23.3532697258
 30
0.0
 10
-4.0806529084
 20
-23.3089049904
 30
0.0
 10
-4.0335777641
 20
-23.2561846616
 30
0.0
 10
-3.9781679787
 20
-23.195088222
 30
0.0
 10
-3.9154590521
 20
-23.1266632874
 30
0.0
 10
-3.8473600112
 20
-23.0528320878
 30
0.0
 10
-3.8004314287
 20
-23.0021082064
 30
0.0
 10
-3.7765191015
 20
-22.9762617989
 30
0.0
 11
-4.2044818466
 21
-23.4706774089
 31
0.0
 11
-4.2011705511
 21
-23.4603271744
 31
0.0
 11
-4.191529141
 21
-23.4440535998
 31
0.0
 11
-4.1752569352
 21
-23.4215148575
 31
0.0
 11
-4.1521871393
 21
-23.3924890622
 31
0.0
 11
-4.1216998695
 21
-23.3562039945
 31
0.0
 11
-4.0832236483
 21
-23.3120026698
 31
0.0
 11
-4.0361959261
 21
-23.2592428427
 31
0.0
 11
-3.980641419
 21
-23.1979156418
 31
0.0
 11
-3.9171484088
 21
-23.1285778587
 31
0.0
 11
-3.8482362661
 21
-23.0538193509
 31
0.0
 11
-3.7765191015
 21
-22.9762617989
 31
0.0
  0
SPLINE
  5
5B5
100
AcDbEntity
  8
0
100
AcDbSpline
 62
7
  6
CONTINUOUS
 70
0
 71
3
 72
18
 73
14
 74
12
 42
0.0000001
 43
0.0000001
 44
0.0000000001
 12
-0.4453347138
 22
0.4813543431
 32
0.0
 13
0.0
 23
0.6557629228
 33
0.0
 40
0.0
 40
0.0
 40
0.0
 40
0.0
 40
0.1612016661
 40
0.3168616821
 40
0.4607450366
 40
0.5870767765
 40
0.6948071043
 40
0.7840907429
 40
0.8562933587
 40
0.9129036648
 40
0.95526983
 40
0.9838485666
 40
1.0
 40
1.0
 40
1.0
 40
1.0
 10
4.0794208738
 20
23.5364538305
 30
0.0
 10
4.0554913079
 20
23.5623188713
 30
0.0
 10
4.008454599
 20
23.6131596272
 30
0.0
 10
3.9401718039
 20
23.6871907169
 30
0.0
 10
3.877276912
 20
23.7558221477
 30
0.0
 10
3.8217813597
 20
23.8170210154
 30
0.0
 10
3.774709692
 20
23.8697498014
 30
0.0
 10
3.7360256001
 20
23.9140887933
 30
0.0
 10
3.705269679
 20
23.9505431656
 30
0.0
 10
3.6819221023
 20
23.9797280841
 30
0.0
 10
3.6653233883
 20
24.0022930233
 30
0.0
 10
3.6554804614
 20
24.0183477121
 30
0.0
 10
3.6514508861
 20
24.0277078025
 30
0.0
 10
3.6514508861
 20
24.0312383062
 30
0.0
 11
4.0794208738
 21
23.5364538305
 31
0.0
 11
4.0076520361
 21
23.614067322
 31
0.0
 11
3.938468308
 21
23.6891215373
 31
0.0
 11
3.8747498714
 21
23.7587097481
 31
0.0
 11
3.8191357971
 21
23.8201112836
 31
0.0
 11
3.7721353561
 21
23.8728536095
 31
0.0
 11
3.7337030851
 21
23.9170229905
 31
0.0
 11
3.703258118
 21
23.9532847883
 31
0.0
 11
3.6801820948
 21
23.9823641592
 31
0.0
 11
3.6639623093
 21
24.0049200231
 31
0.0
 11
3.6544946354
 21
24.0210935687
 31
0.0
 11
3.6514508861
 21
24.0312383062
 31
0.0
  0
SPLINE
  5
5B6
100
AcDbEntity
  8
0
100
AcDbSpline
 62
7
  6
CONTINUOUS
 70
0
 71
3
 72
18
 73
14
 74
12
 42
0.0000001
 43
0.0000001
 44
0.0000000001
 12
-0.0252793934
 22
-0.6549155442
 32
0.0
 13
-0.4450904554
 23
-0.4810903286
 33
0.0
 40
0.0
 40
0.0
 40
0.0
 40
0.0
 40
0.0165612013
 40
0.0454873726
 40
0.088099836
 40
0.1448866598
 40
0.2172643667
 40
0.3066417466
 40
0.4143507724
 40
0.5404648439
 40
0.6839186683
 40
0.8391027189
 40
1.0
 40
1.0
 40
1.0
 40
1.0
 10
4.5073836189
 20
24.0308694406
 30
0.0
 10
4.5072440665
 20
24.0272540445
 30
0.0
 10
4.503081348
 20
24.0178295915
 30
0.0
 10
4.4930468411
 20
24.0016120816
 30
0.0
 10
4.4763285222
 20
23.9789659814
 30
0.0
 10
4.4528831279
 20
23.9497097945
 30
0.0
 10
4.4220658777
 20
23.913217663
 30
0.0
 10
4.3833550594
 20
23.8688718039
 30
0.0
 10
4.3363226549
 20
23.8162029637
 30
0.0
 10
4.2809508464
 20
23.755150056
 30
0.0
 10
4.2182540471
 20
23.6867392333
 30
0.0
 10
4.1501872865
 20
23.6129436026
 30
0.0
 10
4.1032921552
 20
23.5622558725
 30
0.0
 10
4.0794208738
 20
23.5364538305
 30
0.0
 11
4.5073836189
 21
24.0308694406
 31
0.0
 11
4.5040779351
 21
24.0205307982
 31
0.0
 11
4.4944141019
 21
24.004220442
 31
0.0
 11
4.4780617812
 21
23.9815798994
 31
0.0
 11
4.4548980999
 21
23.9524484147
 31
0.0
 11
4.4243773755
 21
23.9161343004
 31
0.0
 11
4.3859130735
 21
23.8719539209
 31
0.0
 11
4.3389391429
 21
23.8192585733
 31
0.0
 11
4.2834461295
 21
23.7580011733
 31
0.0
 11
4.2199501813
 21
23.688661111
 31
0.0
 11
4.1510150038
 21
23.6138781906
 31
0.0
 11
4.0794208738
 21
23.5364538305
 31
0.0
  0
SPLINE
  5
5B7
100
AcDbEntity
  8
0
100
AcDbSpline
 62
7
  6
CONTINUOUS
 70
0
 71
3
 72
18
 73
14
 74
12
 42
0.0000001
 43
0.0000001
 44
0.0000000001
 12
-0.4450903719
 22
0.4810902383
 32
0.0
 13
-0.0252793887
 23
0.6549154213
 33
0.0
 40
0.0
 40
0.0
 40
0.0
 40
0.0
 40
0.1607870617
 40
0.3159451345
 40
0.4594086114
 40
0.5855248047
 40
0.6932231358
 40
0.782598559
 40
0.8549817506
 40
0.9118040473
 40
0.9544563951
 40
0.9834203014
 40
1.0
 40
1.0
 40
1.0
 40
1.0
 10
-3.7765191015
 20
23.5364538305
 30
0.0
 10
-3.8003740259
 20
23.5622381925
 30
0.0
 10
-3.8472489409
 20
23.6129040728
 30
0.0
 10
-3.9152970732
 20
23.6866792494
 30
0.0
 10
-3.9779920228
 20
23.7550875346
 30
0.0
 10
-4.0333643584
 20
23.8161402602
 30
0.0
 10
-4.0803957914
 20
23.8688068667
 30
0.0
 10
-4.1191064462
 20
23.9131507637
 30
0.0
 10
-4.1499305213
 20
23.9496482906
 30
0.0
 10
-4.173388724
 20
23.9789167238
 30
0.0
 10
-4.1901242124
 20
24.0015811406
 30
0.0
 10
-4.2001717254
 20
24.0178146176
 30
0.0
 10
-4.2043421384
 20
24.0272500071
 30
0.0
 10
-4.2044818466
 20
24.0308694406
 30
0.0
 11
-3.7765191015
 21
23.5364538305
 31
0.0
 11
-3.8480642014
 21
23.6138251129
 31
0.0
 11
-3.9169879709
 21
23.6885953672
 31
0.0
 11
-3.980488452
 21
23.7579398326
 31
0.0
 11
-4.035982791
 21
23.8191978872
 31
0.0
 11
-4.0829526676
 21
23.8718874411
 31
0.0
 11
-4.1214170789
 21
23.9160660104
 31
0.0
 11
-4.1519415621
 21
23.9523816496
 31
0.0
 11
-4.1751217087
 21
23.9815297358
 31
0.0
 11
-4.1914917967
 21
24.0041896847
 31
0.0
 11
-4.2011708282
 21
24.0205197783
 31
0.0
 11
-4.2044818466
 21
24.0308694406
 31
0.0
  0
SPLINE
  5
5B8
100
AcDbEntity
  8
0
100
AcDbSpline
 62
7
  6
CONTINUOUS
 70
0
 71
3
 72
8
 73
4
 74
2
 42
0.0000001
 43
0.0000001
 44
0.0000000001
 12
0.0
 22
-0.0062742889
 32
0.0
 13
-0.0022398713
 23
-0.0059603371
 33
0.0
 40
0.0
 40
0.0
 40
0.0
 40
0.0
 40
1.0
 40
1.0
 40
1.0
 40
1.0
 10
-3.3485491139
 20
24.0312383062
 30
0.0
 10
-3.3485491139
 20
24.0291468765
 30
0.0
 10
-3.3490599557
 20
24.0271083031
 30
0.0
 10
-3.3498065794
 20
24.0251215241
 30
0.0
 11
-3.3485491139
 21
24.0312383062
 31
0.0
 11
-3.3498065794
 21
24.0251215241
 31
0.0
  0
SPLINE
  5
5B9
100
AcDbEntity
  8
0
100
AcDbSpline
 62
7
  6
CONTINUOUS
 70
0
 71
3
 72
18
 73
14
 74
12
 42
0.0000001
 43
0.0000001
 44
0.0000000001
 12
-0.2318623307
 22
-0.6169897634
 32
0.0
 13
-0.4410738809
 23
-0.4767488849
 33
0.0
 40
0.0
 40
0.0
 40
0.0
 40
0.0
 40
0.0066281586
 40
0.0354438089
 40
0.0781775225
 40
0.1352977049
 40
0.2081916
 40
0.2983390118
 40
0.4071197443
 40
0.5346687078
 40
0.6799322081
 40
0.8371246023
 40
1.0
 40
1.0
 40
1.0
 40
1.0
 10
-3.3498065794
 20
24.0251215241
 30
0.0
 10
-3.3503188529
 20
24.0237583554
 30
0.0
 10
-3.3536517653
 20
24.016599252
 30
0.0
 10
-3.362400321
 20
24.0023248304
 30
0.0
 10
-3.3789812524
 20
23.9797788328
 30
0.0
 10
-3.4023155017
 20
23.9506066592
 30
0.0
 10
-3.4330641703
 20
23.9141580641
 30
0.0
 10
-3.4717480275
 20
23.8698174776
 30
0.0
 10
-3.518820222
 20
23.8170868883
 30
0.0
 10
-3.5743149005
 20
23.75588817
 30
0.0
 10
-3.6372118184
 20
23.6872539747
 30
0.0
 10
-3.7055143516
 20
23.6132012124
 30
0.0
 10
-3.752572407
 20
23.5623373853
 30
0.0
 10
-3.7765191015
 20
23.5364538305
 30
0.0
 11
-3.3498065794
 21
24.0251215241
 31
0.0
 11
-3.3515875464
 21
24.0211048233
 31
0.0
 11
-3.3610396047
 21
24.0049516087
 31
0.0
 11
-3.377240965
 21
23.9824158665
 31
0.0
 11
-3.400299952
 21
23.9533536438
 31
0.0
 11
-3.430740804
 21
23.9170936554
 31
0.0
 11
-3.4691726142
 21
23.8729227705
 31
0.0
 11
-3.5161765991
 21
23.8201751508
 31
0.0
 11
-3.5717888675
 21
23.7587747469
 31
0.0
 11
-3.6355027208
 21
23.6891909577
 31
0.0
 11
-3.704698921
 21
23.6141229039
 31
0.0
 11
-3.7765191015
 21
23.5364538305
 31
0.0
  0
SPLINE
  5
5BA
100
AcDbEntity
  8
0
100
AcDbSpline
 62
7
  6
CONTINUOUS
 70
0
 71
3
 72
9
 73
5
 74
3
 42
0.0000001
 43
0.0000001
 44
0.0000000001
 12
-0.1190437227
 22
-0.1848643536
 32
0.0
 13
-0.1246584854
 23
-0.1811265558
 33
0.0
 40
0.0
 40
0.0
 40
0.0
 40
0.0
 40
0.5884034581
 40
1.0
 40
1.0
 40
1.0
 40
1.0
 10
8.0389189942
 20
22.0426279077
 30
0.0
 10
8.0155704149
 20
22.0063696328
 30
0.0
 10
7.9750755276
 20
21.9452717588
 30
0.0
 10
7.9337624139
 20
21.8847311784
 30
0.0
 10
7.9166594134
 20
21.8598808238
 30
0.0
 11
8.0389189942
 21
22.0426279077
 31
0.0
 11
7.9676324662
 21
21.9346621775
 31
0.0
 11
7.9166594134
 21
21.8598808238
 31
0.0
  0
SPLINE
  5
5BB
100
AcDbEntity
  8
0
100
AcDbSpline
 62
7
  6
CONTINUOUS
 70
0
 71
3
 72
9
 73
5
 74
3
 42
0.0000001
 43
0.0000001
 44
0.0000000001
 12
-0.1402706335
 22
0.2028500307
 32
0.0
 13
-0.1335246193
 23
0.207351903
 33
0.0
 40
0.0
 40
0.0
 40
0.0
 40
0.0
 40
0.4754095652
 40
1.0
 40
1.0
 40
1.0
 40
1.0
 10
-7.5985689227
 20
21.8378650721
 30
0.0
 10
-7.6207975896
 20
21.8700106871
 30
0.0
 10
-7.667247815
 20
21.9378395988
 30
0.0
 10
-7.7126686426
 20
22.0063696328
 30
0.0
 10
-7.736017222
 20
22.0426279077
 30
0.0
 11
-7.5985689227
 21
21.8378650721
 31
0.0
 11
-7.664730694
 21
21.9346621775
 31
0.0
 11
-7.736017222
 21
22.0426279077
 31
0.0
  0
SPLINE
  5
5BC
100
AcDbEntity
  8
0
100
AcDbSpline
 62
7
  6
CONTINUOUS
 70
0
 71
3
 72
9
 73
5
 74
3
 42
0.0000001
 43
0.0000001
 44
0.0000000001
 12
0.1246584854
 22
-0.1811265558
 32
0.0
 13
0.1190437227
 23
-0.1848643536
 33
0.0
 40
0.0
 40
0.0
 40
0.0
 40
0.0
 40
0.4115965419
 40
1.0
 40
1.0
 40
1.0
 40
1.0
 10
7.9166594134
 20
-21.2996887921
 30
0.0
 10
7.9337624139
 20
-21.3245391468
 30
0.0
 10
7.9750755276
 20
-21.3850797271
 30
0.0
 10
8.0155704149
 20
-21.4461776011
 30
0.0
 10
8.0389189942
 20
-21.4824358761
 30
0.0
 11
7.9166594134
 21
-21.2996887921
 31
0.0
 11
7.9676324662
 21
-21.3744701459
 31
0.0
 11
8.0389189942
 21
-21.4824358761
 31
0.0
  0
SPLINE
  5
5BD
100
AcDbEntity
  8
0
100
AcDbSpline
 62
7
  6
CONTINUOUS
 70
0
 71
3
 72
9
 73
5
 74
3
 42
0.0000001
 43
0.0000001
 44
0.0000000001
 12
0.1335246193
 22
0.207351903
 32
0.0
 13
0.1402706335
 23
0.2028500307
 33
0.0
 40
0.0
 40
0.0
 40
0.0
 40
0.0
 40
0.5245904348
 40
1.0
 40
1.0
 40
1.0
 40
1.0
 10
-7.736017222
 20
-21.4824358761
 30
0.0
 10
-7.7126686426
 20
-21.4461776011
 30
0.0
 10
-7.667247815
 20
-21.3776475671
 30
0.0
 10
-7.6207975896
 20
-21.3098186554
 30
0.0
 10
-7.5985689227
 20
-21.2776730404
 30
0.0
 11
-7.736017222
 21
-21.4824358761
 31
0.0
 11
-7.664730694
 21
-21.3744701459
 31
0.0
 11
-7.5985689227
 21
-21.2776730404
 31
0.0
  0
SPLINE
  5
5BE
100
AcDbEntity
  8
0
100
AcDbSpline
 62
253
  6
CONTINUOUS
 70
0
 71
3
 72
17
 73
13
 74
11
 42
0.0000001
 43
0.0000001
 44
0.0000000001
 12
-0.0012298291
 22
-0.3661500354
 32
0.0
 13
-0.3661509389
 23
-0.0009224053
 33
0.0
 40
0.0
 40
0.0
 40
0.0
 40
0.0
 40
0.0926637669
 40
0.1861959939
 40
0.2811621264
 40
0.3780472439
 40
0.4771141944
 40
0.5784104998
 40
0.6817687109
 40
0.7868361684
 40
0.8931123906
 40
1.0
 40
1.0
 40
1.0
 40
1.0
 10
10.7970790521
 20
24.1244335831
 30
0.0
 10
10.7970410653
 20
24.1131239693
 30
0.0
 10
10.7948929974
 20
24.0903532059
 30
0.0
 10
10.7855584195
 20
24.0571515328
 30
0.0
 10
10.7703486714
 20
24.0256218755
 30
0.0
 10
10.7496627855
 20
23.9965641345
 30
0.0
 10
10.7240276811
 20
23.9706785552
 30
0.0
 10
10.6940844171
 20
23.9485866041
 30
0.0
 10
10.660571518
 20
23.9308129664
 30
0.0
 10
10.6243052163
 20
23.9177786995
 30
0.0
 10
10.586176033
 20
23.9097920441
 30
0.0
 10
10.5601289491
 20
23.9079600968
 30
0.0
 10
10.5470832829
 20
23.9079272322
 30
0.0
 11
10.7970790521
 21
24.1244335831
 31
0.0
 11
10.7939039924
 21
24.090653437
 31
0.0
 11
10.7846733698
 21
24.0576738361
 31
0.0
 11
10.7696137457
 21
24.0263321209
 31
0.0
 11
10.7490928703
 21
23.9973951678
 31
0.0
 11
10.723615181
 21
23.97157542
 31
0.0
 11
10.6938056074
 21
23.9495062863
 31
0.0
 11
10.6603957799
 21
23.9317294954
 31
0.0
 11
10.6242055071
 21
23.918681253
 31
0.0
 11
10.5861233481
 21
23.9106818076
 31
0.0
 11
10.5470832829
 21
23.9079272322
 31
0.0
  0
SPLINE
  5
5BF
100
AcDbEntity
  8
0
100
AcDbSpline
 62
253
  6
CONTINUOUS
 70
0
 71
3
 72
17
 73
13
 74
11
 42
0.0000001
 43
0.0000001
 44
0.0000000001
 12
0.001229829
 22
-0.3661500127
 32
0.0
 13
0.3661509162
 23
-0.0009224053
 33
0.0
 40
0.0
 40
0.0
 40
0.0
 40
0.0
 40
0.092740981
 40
0.1862742706
 40
0.2812426722
 40
0.3781228716
 40
0.4771847111
 40
0.5784746944
 40
0.6818263867
 40
0.7868857196
 40
0.8931548188
 40
1.0
 40
1.0
 40
1.0
 40
1.0
 10
8.4058227201
 20
24.1244335831
 30
0.0
 10
8.4058607387
 20
24.113114546
 30
0.0
 10
8.4080114728
 20
24.0903341082
 30
0.0
 10
8.4173536517
 20
24.0571243617
 30
0.0
 10
8.4325678707
 20
24.0255970747
 30
0.0
 10
8.4532570638
 20
23.9965429071
 30
0.0
 10
8.4788937566
 20
23.9706617664
 30
0.0
 10
8.508837445
 20
23.9485741514
 30
0.0
 10
8.5423495729
 20
23.9308045972
 30
0.0
 10
8.5786142705
 20
23.9177738396
 30
0.0
 10
8.6167370082
 20
23.9097909004
 30
0.0
 10
8.6427780024
 20
23.9079600837
 30
0.0
 10
8.6558184894
 20
23.9079272322
 30
0.0
 11
8.4058227201
 21
24.1244335831
 31
0.0
 11
8.4090029657
 21
24.0906255299
 31
0.0
 11
8.4182385687
 21
24.0576469215
 31
0.0
 11
8.4333030736
 21
24.0263066326
 31
0.0
 11
8.4538267751
 21
23.9973738943
 31
0.0
 11
8.4793061705
 21
23.9715584627
 31
0.0
 11
8.5091161095
 21
23.9494937169
 31
0.0
 11
8.5425253558
 21
23.9317209205
 31
0.0
 11
8.5787137672
 21
23.9186762938
 31
0.0
 11
8.6167938487
 21
23.9106796573
 31
0.0
 11
8.6558184894
 21
23.9079272322
 31
0.0
  0
SPLINE
  5
5C0
100
AcDbEntity
  8
0
100
AcDbSpline
 62
253
  6
CONTINUOUS
 70
0
 71
3
 72
17
 73
13
 74
11
 42
0.0000001
 43
0.0000001
 44
0.0000000001
 12
-0.0012298291
 22
-0.3661500354
 32
0.0
 13
-0.3661509389
 23
-0.0009224053
 33
0.0
 40
0.0
 40
0.0
 40
0.0
 40
0.0
 40
0.0926637669
 40
0.1861959939
 40
0.2811621264
 40
0.3780472439
 40
0.4771141944
 40
0.5784104998
 40
0.6817687109
 40
0.7868361684
 40
0.8931123906
 40
1.0
 40
1.0
 40
1.0
 40
1.0
 10
-8.1029209479
 20
24.1244335831
 30
0.0
 10
-8.1029589347
 20
24.1131239693
 30
0.0
 10
-8.1051070026
 20
24.0903532059
 30
0.0
 10
-8.1144415805
 20
24.0571515328
 30
0.0
 10
-8.1296513286
 20
24.0256218755
 30
0.0
 10
-8.1503372145
 20
23.9965641345
 30
0.0
 10
-8.1759723189
 20
23.9706785552
 30
0.0
 10
-8.2059155829
 20
23.9485866041
 30
0.0
 10
-8.239428482
 20
23.9308129664
 30
0.0
 10
-8.2756947837
 20
23.9177786995
 30
0.0
 10
-8.313823967
 20
23.9097920441
 30
0.0
 10
-8.3398710509
 20
23.9079600968
 30
0.0
 10
-8.3529167171
 20
23.9079272322
 30
0.0
 11
-8.1029209479
 21
24.1244335831
 31
0.0
 11
-8.1060960076
 21
24.090653437
 31
0.0
 11
-8.1153266302
 21
24.0576738361
 31
0.0
 11
-8.1303862543
 21
24.0263321209
 31
0.0
 11
-8.1509071297
 21
23.9973951678
 31
0.0
 11
-8.176384819
 21
23.97157542
 31
0.0
 11
-8.2061943926
 21
23.9495062863
 31
0.0
 11
-8.2396042201
 21
23.9317294954
 31
0.0
 11
-8.2757944929
 21
23.918681253
 31
0.0
 11
-8.3138766519
 21
23.9106818076
 31
0.0
 11
-8.3529167171
 21
23.9079272322
 31
0.0
  0
SPLINE
  5
5C1
100
AcDbEntity
  8
0
100
AcDbSpline
 62
253
  6
CONTINUOUS
 70
0
 71
3
 72
17
 73
13
 74
11
 42
0.0000001
 43
0.0000001
 44
0.0000000001
 12
0.0012298291
 22
-0.3661500354
 32
0.0
 13
0.3661509389
 23
-0.0009224053
 33
0.0
 40
0.0
 40
0.0
 40
0.0
 40
0.0
 40
0.0926637669
 40
0.1861959939
 40
0.2811621264
 40
0.3780472439
 40
0.4771141944
 40
0.5784104998
 40
0.6817687109
 40
0.7868361684
 40
0.8931123906
 40
1.0
 40
1.0
 40
1.0
 40
1.0
 10
-10.4941772799
 20
24.1244335831
 30
0.0
 10
-10.494139293
 20
24.1131239693
 30
0.0
 10
-10.4919912251
 20
24.0903532059
 30
0.0
 10
-10.4826566472
 20
24.0571515328
 30
0.0
 10
-10.4674468992
 20
24.0256218755
 30
0.0
 10
-10.4467610132
 20
23.9965641345
 30
0.0
 10
-10.4211259088
 20
23.9706785552
 30
0.0
 10
-10.3911826448
 20
23.9485866041
 30
0.0
 10
-10.3576697457
 20
23.9308129664
 30
0.0
 10
-10.321403444
 20
23.9177786995
 30
0.0
 10
-10.2832742608
 20
23.9097920441
 30
0.0
 10
-10.2572271768
 20
23.9079600968
 30
0.0
 10
-10.2441815106
 20
23.9079272322
 30
0.0
 11
-10.4941772799
 21
24.1244335831
 31
0.0
 11
-10.4910022201
 21
24.090653437
 31
0.0
 11
-10.4817715975
 21
24.0576738361
 31
0.0
 11
-10.4667119735
 21
24.0263321209
 31
0.0
 11
-10.4461910981
 21
23.9973951678
 31
0.0
 11
-10.4207134087
 21
23.97157542
 31
0.0
 11
-10.3909038351
 21
23.9495062863
 31
0.0
 11
-10.3574940076
 21
23.9317294954
 31
0.0
 11
-10.3213037349
 21
23.918681253
 31
0.0
 11
-10.2832215758
 21
23.9106818076
 31
0.0
 11
-10.2441815106
 21
23.9079272322
 31
0.0
  0
SPLINE
  5
5C2
100
AcDbEntity
  8
0
100
AcDbSpline
 62
7
  6
CONTINUOUS
 70
0
 71
3
 72
18
 73
14
 74
12
 42
0.0000001
 43
0.0000001
 44
0.0000000001
 12
0.0031763781
 22
0.3152256661
 32
0.0
 13
0.3152416691
 23
-0.0
 33
0.0
 40
0.0
 40
0.0
 40
0.0
 40
0.0
 40
0.0600923894
 40
0.1232193774
 40
0.1912702092
 40
0.2657636629
 40
0.3477531865
 40
0.4378167491
 40
0.5360799495
 40
0.6422378908
 40
0.7555663097
 40
0.8749375201
 40
1.0
 40
1.0
 40
1.0
 40
1.0
 10
8.4058227201
 20
-23.5642415515
 30
0.0
 10
8.4058863455
 20
-23.5579273303
 30
0.0
 10
8.4075140049
 20
-23.5449515873
 30
0.0
 10
8.414401272
 20
-23.5259146131
 30
0.0
 10
8.4257717222
 20
-23.5073786467
 30
0.0
 10
8.44156256
 20
-23.4897025703
 30
0.0
 10
8.4616640498
 20
-23.4732175388
 30
0.0
 10
8.4859061001
 20
-23.4582707318
 30
0.0
 10
8.514036212
 20
-23.4452226031
 30
0.0
 10
8.5456983833
 20
-23.4344447739
 30
0.0
 10
8.5804181263
 20
-23.4263009253
 30
0.0
 10
8.6177047693
 20
-23.4211441463
 30
0.0
 10
8.6434040831
 20
-23.4199039842
 30
0.0
 10
8.6565457181
 20
-23.4199039842
 30
0.0
 11
8.4058227201
 21
-23.5642415515
 31
0.0
 11
8.4081420607
 21
-23.5454404453
 31
0.0
 11
8.4148095707
 21
-23.5266903909
 31
0.0
 11
8.425904243
 21
-23.5083296667
 31
0.0
 11
8.4414327399
 21
-23.4907132605
 31
0.0
 11
8.461324109
 21
-23.4742094507
 31
0.0
 11
8.4854224121
 21
-23.4591972755
 31
0.0
 11
8.5134767749
 21
-23.4460631254
 31
0.0
 11
8.545128474
 21
-23.4351955874
 31
0.0
 11
8.5798961538
 21
-23.4269770666
 31
0.0
 11
8.6171650305
 21
-23.4217706859
 31
0.0
 11
8.6565457181
 21
-23.4199039842
 31
0.0
  0
SPLINE
  5
5C3
100
AcDbEntity
  8
0
100
AcDbSpline
 62
7
  6
CONTINUOUS
 70
0
 71
3
 72
18
 73
14
 74
12
 42
0.0000001
 43
0.0000001
 44
0.0000000001
 12
0.3145151746
 22
0.0
 32
0.0
 13
0.0031690579
 23
-0.3144992085
 33
0.0
 40
0.0
 40
0.0
 40
0.0
 40
0.0
 40
0.1233645867
 40
0.2431315365
 40
0.3566833685
 40
0.4629485722
 40
0.5612613068
 40
0.6513651559
 40
0.7334201413
 40
0.8080244445
 40
0.8762413066
 40
0.9395978155
 40
1.0
 40
1.0
 40
1.0
 40
1.0
 10
10.5470832829
 20
-23.4199039842
 30
0.0
 10
10.5600166278
 20
-23.4199039842
 30
0.0
 10
10.5855172644
 20
-23.4211933348
 30
0.0
 10
10.6226047598
 20
-23.4263201527
 30
0.0
 10
10.657315797
 20
-23.4344782535
 30
0.0
 10
10.6889392406
 20
-23.4452535371
 30
0.0
 10
10.7170203965
 20
-23.4582863291
 30
0.0
 10
10.7412199434
 20
-23.4732075504
 30
0.0
 10
10.7612962778
 20
-23.4896641737
 30
0.0
 10
10.7770834925
 20
-23.5073181001
 30
0.0
 10
10.7884690232
 20
-23.5258484528
 30
0.0
 10
10.7953798063
 20
-23.5449067006
 30
0.0
 10
10.7970152461
 20
-23.557909405
 30
0.0
 10
10.7970790521
 20
-23.5642415515
 30
0.0
 11
10.5470832829
 21
-23.4199039842
 31
0.0
 11
10.5858379287
 21
-23.4217801805
 31
0.0
 11
10.6231426496
 21
-23.4270027691
 31
0.0
 11
10.6578956558
 21
-23.4352309056
 31
0.0
 11
10.6895028264
 21
-23.4460945204
 31
0.0
 11
10.7175040175
 21
-23.4592106202
 31
0.0
 11
10.7415574961
 21
-23.4741949674
 31
0.0
 11
10.7614230415
 21
-23.4906688598
 31
0.0
 11
10.7769480577
 21
-23.5082626618
 31
0.0
 11
10.78805751
 21
-23.5266176971
 31
0.0
 11
10.7947471862
 21
-23.5453878053
 31
0.0
 11
10.7970790521
 21
-23.5642415515
 31
0.0
  0
SPLINE
  5
5C4
100
AcDbEntity
  8
0
100
AcDbSpline
 62
253
  6
CONTINUOUS
 70
0
 71
3
 72
17
 73
13
 74
11
 42
0.0000001
 43
0.0000001
 44
0.0000000001
 12
-0.001229829
 22
0.3661500177
 32
0.0
 13
-0.3661509212
 23
0.0009224053
 33
0.0
 40
0.0
 40
0.0
 40
0.0
 40
0.0
 40
0.0927380474
 40
0.1862683312
 40
0.2812329042
 40
0.3781093545
 40
0.4771672798
 40
0.578453321
 40
0.681800696
 40
0.7868568096
 40
0.893122764
 40
1.0
 40
1.0
 40
1.0
 40
1.0
 10
-8.1029209479
 20
-23.5642415515
 30
0.0
 10
-8.1029589652
 20
-23.5529228722
 30
0.0
 10
-8.1051095642
 20
-23.5301431636
 30
0.0
 10
-8.114451133
 20
-23.4969345004
 30
0.0
 10
-8.1296643288
 20
-23.465408175
 30
0.0
 10
-8.1503521171
 20
-23.4363547482
 30
0.0
 10
-8.1759871597
 20
-23.4104739868
 30
0.0
 10
-8.2059289999
 20
-23.38838639
 30
0.0
 10
-8.2394392888
 20
-23.3706163862
 30
0.0
 10
-8.2757022776
 20
-23.3575847456
 30
0.0
 10
-8.3138277636
 20
-23.3495996597
 30
0.0
 10
-8.3398723176
 20
-23.3477680619
 30
0.0
 10
-8.3529167171
 20
-23.3477352005
 30
0.0
 11
-8.1029209479
 21
-23.5642415515
 31
0.0
 11
-8.1061009964
 21
-23.5304345582
 31
0.0
 11
-8.1153360252
 21
-23.4974569313
 31
0.0
 11
-8.1303994768
 21
-23.466117691
 31
0.0
 11
-8.1509218089
 21
-23.4371856638
 31
0.0
 11
-8.1763995593
 21
-23.4113706216
 31
0.0
 11
-8.206207698
 21
-23.389305869
 31
0.0
 11
-8.2396149601
 21
-23.3715327074
 31
0.0
 11
-8.2758017853
 21
-23.3584871548
 31
0.0
 11
-8.3138804244
 21
-23.3504892499
 31
0.0
 11
-8.3529167171
 21
-23.3477352005
 31
0.0
  0
SPLINE
  5
5C5
100
AcDbEntity
  8
0
100
AcDbSpline
 62
253
  6
CONTINUOUS
 70
0
 71
3
 72
17
 73
13
 74
11
 42
0.0000001
 43
0.0000001
 44
0.0000000001
 12
0.0012298291
 22
0.3661500354
 32
0.0
 13
0.3661509389
 23
0.0009224053
 33
0.0
 40
0.0
 40
0.0
 40
0.0
 40
0.0
 40
0.0926637669
 40
0.1861959939
 40
0.2811621264
 40
0.3780472439
 40
0.4771141944
 40
0.5784104998
 40
0.6817687109
 40
0.7868361684
 40
0.8931123906
 40
1.0
 40
1.0
 40
1.0
 40
1.0
 10
-10.4941772799
 20
-23.5642415515
 30
0.0
 10
-10.494139293
 20
-23.5529319376
 30
0.0
 10
-10.4919912251
 20
-23.5301611742
 30
0.0
 10
-10.4826566472
 20
-23.4969595012
 30
0.0
 10
-10.4674468992
 20
-23.4654298438
 30
0.0
 10
-10.4467610132
 20
-23.4363721029
 30
0.0
 10
-10.4211259088
 20
-23.4104865235
 30
0.0
 10
-10.3911826448
 20
-23.3883945724
 30
0.0
 10
-10.3576697457
 20
-23.3706209347
 30
0.0
 10
-10.321403444
 20
-23.3575866678
 30
0.0
 10
-10.2832742608
 20
-23.3496000125
 30
0.0
 10
-10.2572271768
 20
-23.3477680651
 30
0.0
 10
-10.2441815106
 20
-23.3477352005
 30
0.0
 11
-10.4941772799
 21
-23.5642415515
 31
0.0
 11
-10.4910022201
 21
-23.5304614053
 31
0.0
 11
-10.4817715975
 21
-23.4974818044
 31
0.0
 11
-10.4667119735
 21
-23.4661400892
 31
0.0
 11
-10.4461910981
 21
-23.4372031361
 31
0.0
 11
-10.4207134087
 21
-23.4113833883
 31
0.0
 11
-10.3909038351
 21
-23.3893142546
 31
0.0
 11
-10.3574940076
 21
-23.3715374637
 31
0.0
 11
-10.3213037349
 21
-23.3584892213
 31
0.0
 11
-10.2832215758
 21
-23.350489776
 31
0.0
 11
-10.2441815106
 21
-23.3477352005
 31
0.0
  0
SPLINE
  5
5C6
100
AcDbEntity
  8
RACCORDO
100
AcDbSpline
 62
7
  6
CONTINUOUS
 70
0
 71
3
 72
27
 73
23
 74
21
 42
0.0000001
 43
0.0000001
 44
0.0000000001
 12
0.0453620884
 22
-0.0147190314
 32
0.0
 13
0.0461863849
 23
-0.0118822052
 33
0.0
 40
0.0
 40
0.0
 40
0.0
 40
0.0
 40
0.0715553232
 40
0.1399234144
 40
0.2036475075
 40
0.2627461471
 40
0.3173243211
 40
0.3689504796
 40
0.4184203839
 40
0.4660926464
 40
0.5121065567
 40
0.5570474287
 40
0.6013263698
 40
0.6452205536
 40
0.6889445492
 40
0.7326652251
 40
0.7765111923
 40
0.8205785335
 40
0.8649343278
 40
0.9096190888
 40
0.9546482816
 40
1.0
 40
1.0
 40
1.0
 40
1.0
 10
-10.6377783687
 20
-22.1029809801
 30
0.0
 10
-10.6366964024
 20
-22.1033320551
 30
0.0
 10
-10.6345787264
 20
-22.1040126149
 30
0.0
 10
-10.6314913774
 20
-22.1049866441
 30
0.0
 10
-10.6285884365
 20
-22.1058868997
 30
0.0
 10
-10.625891209
 20
-22.1067103035
 30
0.0
 10
-10.6233748859
 20
-22.107467539
 30
0.0
 10
-10.6210025671
 20
-22.10817207
 30
0.0
 10
-10.6187332355
 20
-22.1088377151
 30
0.0
 10
-10.6165475054
 20
-22.1094713598
 30
0.0
 10
-10.6144291148
 20
-22.1100786765
 30
0.0
 10
-10.6123609223
 20
-22.1106653191
 30
0.0
 10
-10.6103236033
 20
-22.1112372925
 30
0.0
 10
-10.608303448
 20
-22.1117988078
 30
0.0
 10
-10.606290448
 20
-22.1123529018
 30
0.0
 10
-10.6042768441
 20
-22.1129018903
 30
0.0
 10
-10.6022566748
 20
-22.1134475253
 30
0.0
 10
-10.6002254963
 20
-22.1139910981
 30
0.0
 10
-10.5981802085
 20
-22.1145335064
 30
0.0
 10
-10.5961189449
 20
-22.1150753027
 30
0.0
 10
-10.5940412056
 20
-22.1156166758
 30
0.0
 10
-10.5926501089
 20
-22.1159760487
 30
0.0
 10
-10.5919518983
 20
-22.1161556749
 30
0.0
 11
-10.6377783687
 21
-22.1029809801
 31
0.0
 11
-10.6345295479
 21
-22.1040251572
 31
0.0
 11
-10.6314201517
 21
-22.1050062289
 31
0.0
 11
-10.6285175229
 21
-22.1059064581
 31
0.0
 11
-10.6258219153
 21
-22.1067294235
 31
0.0
 11
-10.623329486
 21
-22.1074795131
 31
0.0
 11
-10.6209693089
 21
-22.108180476
 31
0.0
 11
-10.6187054606
 21
-22.1088445461
 31
0.0
 11
-10.6165218686
 21
-22.1094776009
 31
0.0
 11
-10.6144124324
 21
-22.1100823776
 31
0.0
 11
-10.6123505365
 21
-22.1106672597
 31
0.0
 11
-10.6103174683
 21
-22.1112380642
 31
0.0
 11
-10.6083006078
 21
-22.1117986877
 31
0.0
 11
-10.6062901735
 21
-22.1123520995
 31
0.0
 11
-10.6042785502
 21
-22.1129005722
 31
0.0
 11
-10.6022598636
 21
-22.1134458315
 31
0.0
 11
-10.6002297233
 21
-22.1139891518
 31
0.0
 11
-10.5981850661
 21
-22.114531419
 31
0.0
 11
-10.5961240486
 21
-22.1150731779
 31
0.0
 11
-10.5940459806
 21
-22.1156146647
 31
0.0
 11
-10.5919518983
 21
-22.1161556749
 31
0.0
  0
SPLINE
  5
5C7
100
AcDbEntity
  8
RACCORDO
100
AcDbSpline
 62
7
  6
CONTINUOUS
 70
0
 71
3
 72
27
 73
23
 74
21
 42
0.0000001
 43
0.0000001
 44
0.0000000001
 12
-0.0453620884
 22
0.0147190314
 32
0.0
 13
-0.0461863849
 23
0.0118822052
 33
0.0
 40
0.0
 40
0.0
 40
0.0
 40
0.0
 40
0.0715553232
 40
0.1399234144
 40
0.2036475075
 40
0.2627461471
 40
0.3173243211
 40
0.3689504796
 40
0.4184203839
 40
0.4660926464
 40
0.5121065567
 40
0.5570474287
 40
0.6013263698
 40
0.6452205536
 40
0.6889445492
 40
0.7326652251
 40
0.7765111923
 40
0.8205785335
 40
0.8649343278
 40
0.9096190888
 40
0.9546482816
 40
1.0
 40
1.0
 40
1.0
 40
1.0
 10
10.940680141
 20
22.6631730117
 30
0.0
 10
10.9395981747
 20
22.6635240868
 30
0.0
 10
10.9374804987
 20
22.6642046466
 30
0.0
 10
10.9343931497
 20
22.6651786758
 30
0.0
 10
10.9314902088
 20
22.6660789314
 30
0.0
 10
10.9287929813
 20
22.6669023352
 30
0.0
 10
10.9262766581
 20
22.6676595707
 30
0.0
 10
10.9239043394
 20
22.6683641017
 30
0.0
 10
10.9216350077
 20
22.6690297468
 30
0.0
 10
10.9194492776
 20
22.6696633914
 30
0.0
 10
10.9173308871
 20
22.6702707081
 30
0.0
 10
10.9152626946
 20
22.6708573508
 30
0.0
 10
10.9132253756
 20
22.6714293242
 30
0.0
 10
10.9112052203
 20
22.6719908395
 30
0.0
 10
10.9091922203
 20
22.6725449335
 30
0.0
 10
10.9071786164
 20
22.673093922
 30
0.0
 10
10.9051584471
 20
22.673639557
 30
0.0
 10
10.9031272686
 20
22.6741831298
 30
0.0
 10
10.9010819808
 20
22.6747255381
 30
0.0
 10
10.8990207172
 20
22.6752673344
 30
0.0
 10
10.8969429778
 20
22.6758087074
 30
0.0
 10
10.8955518812
 20
22.6761680804
 30
0.0
 10
10.8948536706
 20
22.6763477065
 30
0.0
 11
10.940680141
 21
22.6631730117
 31
0.0
 11
10.9374313202
 21
22.6642171889
 31
0.0
 11
10.934321924
 21
22.6651982606
 31
0.0
 11
10.9314192952
 21
22.6660984897
 31
0.0
 11
10.9287236876
 21
22.6669214552
 31
0.0
 11
10.9262312583
 21
22.6676715448
 31
0.0
 11
10.9238710811
 21
22.6683725077
 31
0.0
 11
10.9216072328
 21
22.6690365777
 31
0.0
 11
10.9194236409
 21
22.6696696326
 31
0.0
 11
10.9173142047
 21
22.6702744093
 31
0.0
 11
10.9152523087
 21
22.6708592914
 31
0.0
 11
10.9132192406
 21
22.6714300959
 31
0.0
 11
10.9112023801
 21
22.6719907194
 31
0.0
 11
10.9091919458
 21
22.6725441312
 31
0.0
 11
10.9071803225
 21
22.6730926039
 31
0.0
 11
10.9051616358
 21
22.6736378632
 31
0.0
 11
10.9031314955
 21
22.6741811835
 31
0.0
 11
10.9010868384
 21
22.6747234507
 31
0.0
 11
10.8990258209
 21
22.6752652096
 31
0.0
 11
10.8969477529
 21
22.6758066964
 31
0.0
 11
10.8948536706
 21
22.6763477065
 31
0.0
  0
SPLINE
  5
5C8
100
AcDbEntity
  8
RACCORDO
100
AcDbSpline
 62
7
  6
CONTINUOUS
 70
0
 71
3
 72
27
 73
23
 74
21
 42
0.0000001
 43
0.0000001
 44
0.0000000001
 12
-0.0461863775
 22
-0.0118822033
 32
0.0
 13
-0.0453620813
 23
-0.0147190284
 33
0.0
 40
0.0
 40
0.0
 40
0.0
 40
0.0
 40
0.0453774781
 40
0.0903306196
 40
0.1348597099
 40
0.1789956283
 40
0.222798043
 40
0.266358374
 40
0.3098034547
 40
0.3533008102
 40
0.397067014
 40
0.4413811152
 40
0.4866064474
 40
0.5332469531
 40
0.5817198678
 40
0.6320325446
 40
0.6843908057
 40
0.7400338972
 40
0.7987405076
 40
0.8607759224
 40
0.9281047811
 40
1.0
 40
1.0
 40
1.0
 40
1.0
 10
-10.5919518983
 20
22.6763477065
 30
0.0
 10
-10.5926505054
 20
22.6761679784
 30
0.0
 10
-10.5940408275
 20
22.6758088047
 30
0.0
 10
-10.5961153985
 20
22.6752682584
 30
0.0
 10
-10.598169722
 20
22.6747282998
 30
0.0
 10
-10.6002051767
 20
22.6741885336
 30
0.0
 10
-10.6022245392
 20
22.6736481853
 30
0.0
 10
-10.6042320533
 20
22.6731060639
 30
0.0
 10
-10.6062336066
 20
22.6725604923
 30
0.0
 10
-10.6082369895
 20
22.6720092113
 30
0.0
 10
-10.6102523017
 20
22.6714492362
 30
0.0
 10
-10.6122926075
 20
22.6708766323
 30
0.0
 10
-10.6143753222
 20
22.6702860668
 30
0.0
 10
-10.616519907
 20
22.6696713824
 30
0.0
 10
-10.6187403069
 20
22.6690277279
 30
0.0
 10
-10.6210458501
 20
22.6683513696
 30
0.0
 10
-10.6234583315
 20
22.6676346731
 30
0.0
 10
-10.6259959235
 20
22.666870608
 30
0.0
 10
-10.6286775557
 20
22.6660514261
 30
0.0
 10
-10.6315330235
 20
22.6651655371
 30
0.0
 10
-10.6345841551
 20
22.6642028869
 30
0.0
 10
-10.6366912558
 20
22.6635257567
 30
0.0
 10
-10.6377783614
 20
22.6631730141
 30
0.0
 11
-10.5919518983
 21
22.6763477065
 31
0.0
 11
-10.5940471694
 21
22.675806388
 31
0.0
 11
-10.5961217277
 21
22.675265817
 31
0.0
 11
-10.5981755682
 21
22.6747259584
 31
0.0
 11
-10.600210098
 21
22.6741864116
 31
0.0
 11
-10.6022280487
 21
22.6736464162
 31
0.0
 11
-10.6042336083
 21
22.6731047984
 31
0.0
 11
-10.6062325843
 21
22.6725599055
 31
0.0
 11
-10.6082326398
 21
22.6720095166
 31
0.0
 11
-10.6102436695
 21
22.6714507075
 31
0.0
 11
-10.6122784057
 21
22.6708796421
 31
0.0
 11
-10.6143534036
 21
22.6702912388
 31
0.0
 11
-10.616491602
 21
22.6696783567
 31
0.0
 11
-10.6187118776
 21
22.6690347066
 31
0.0
 11
-10.6210142676
 21
22.6683592383
 31
0.0
 11
-10.6234078489
 21
22.6676481172
 31
0.0
 11
-10.6259487904
 21
22.6668829966
 31
0.0
 11
-10.6286263662
 21
22.6660649987
 31
0.0
 11
-10.6314519768
 21
22.6651883077
 31
0.0
 11
-10.6345140951
 21
22.6642221083
 31
0.0
 11
-10.6377783614
 21
22.6631730141
 31
0.0
  0
SPLINE
  5
5C9
100
AcDbEntity
  8
RACCORDO
100
AcDbSpline
 62
7
  6
CONTINUOUS
 70
0
 71
3
 72
27
 73
23
 74
21
 42
0.0000001
 43
0.0000001
 44
0.0000000001
 12
0.0461863775
 22
0.0118822033
 32
0.0
 13
0.0453620813
 23
0.0147190284
 33
0.0
 40
0.0
 40
0.0
 40
0.0
 40
0.0
 40
0.0453774781
 40
0.0903306196
 40
0.1348597099
 40
0.1789956283
 40
0.222798043
 40
0.266358374
 40
0.3098034547
 40
0.3533008102
 40
0.397067014
 40
0.4413811152
 40
0.4866064474
 40
0.5332469531
 40
0.5817198678
 40
0.6320325446
 40
0.6843908057
 40
0.7400338972
 40
0.7987405076
 40
0.8607759224
 40
0.9281047811
 40
1.0
 40
1.0
 40
1.0
 40
1.0
 10
10.8948536706
 20
-22.1161556749
 30
0.0
 10
10.8955522777
 20
-22.1159759467
 30
0.0
 10
10.8969425998
 20
-22.115616773
 30
0.0
 10
10.8990171708
 20
-22.1150762267
 30
0.0
 10
10.9010714943
 20
-22.1145362681
 30
0.0
 10
10.903106949
 20
-22.1139965019
 30
0.0
 10
10.9051263115
 20
-22.1134561536
 30
0.0
 10
10.9071338255
 20
-22.1129140322
 30
0.0
 10
10.9091353788
 20
-22.1123684606
 30
0.0
 10
10.9111387618
 20
-22.1118171797
 30
0.0
 10
10.9131540739
 20
-22.1112572046
 30
0.0
 10
10.9151943798
 20
-22.1106846006
 30
0.0
 10
10.9172770945
 20
-22.1100940352
 30
0.0
 10
10.9194216793
 20
-22.1094793508
 30
0.0
 10
10.9216420792
 20
-22.1088356962
 30
0.0
 10
10.9239476224
 20
-22.1081593379
 30
0.0
 10
10.9263601038
 20
-22.1074426414
 30
0.0
 10
10.9288976958
 20
-22.1066785763
 30
0.0
 10
10.931579328
 20
-22.1058593945
 30
0.0
 10
10.9344347957
 20
-22.1049735054
 30
0.0
 10
10.9374859273
 20
-22.1040108552
 30
0.0
 10
10.9395930281
 20
-22.103333725
 30
0.0
 10
10.9406801336
 20
-22.1029809824
 30
0.0
 11
10.8948536706
 21
-22.1161556749
 31
0.0
 11
10.8969489417
 21
-22.1156143563
 31
0.0
 11
10.8990235
 21
-22.1150737853
 31
0.0
 11
10.9010773404
 21
-22.1145339267
 31
0.0
 11
10.9031118702
 21
-22.1139943799
 31
0.0
 11
10.9051298209
 21
-22.1134543845
 31
0.0
 11
10.9071353806
 21
-22.1129127667
 31
0.0
 11
10.9091343565
 21
-22.1123678738
 31
0.0
 11
10.911134412
 21
-22.1118174849
 31
0.0
 11
10.9131454418
 21
-22.1112586758
 31
0.0
 11
10.9151801779
 21
-22.1106876104
 31
0.0
 11
10.9172551759
 21
-22.1100992071
 31
0.0
 11
10.9193933743
 21
-22.109486325
 31
0.0
 11
10.9216136499
 21
-22.108842675
 31
0.0
 11
10.9239160398
 21
-22.1081672066
 31
0.0
 11
10.9263096211
 21
-22.1074560855
 31
0.0
 11
10.9288505627
 21
-22.1066909649
 31
0.0
 11
10.9315281385
 21
-22.105872967
 31
0.0
 11
10.9343537491
 21
-22.104996276
 31
0.0
 11
10.9374158673
 21
-22.1040300766
 31
0.0
 11
10.9406801336
 21
-22.1029809824
 31
0.0
  0
SPLINE
  5
5CA
100
AcDbEntity
  8
RACCORDO
100
AcDbSpline
 62
253
  6
CONTINUOUS
 70
0
 71
3
 72
17
 73
13
 74
11
 42
0.0000001
 43
0.0000001
 44
0.0000000001
 12
0.001229829
 22
-0.3661500177
 32
0.0
 13
0.3661509212
 23
-0.0009224053
 33
0.0
 40
0.0
 40
0.0
 40
0.0
 40
0.0
 40
0.0927380474
 40
0.1862683312
 40
0.2812329042
 40
0.3781093545
 40
0.4771672798
 40
0.578453321
 40
0.681800696
 40
0.7868568096
 40
0.893122764
 40
1.0
 40
1.0
 40
1.0
 40
1.0
 10
8.4058227201
 20
24.1244335831
 30
0.0
 10
8.4058607375
 20
24.1131149039
 30
0.0
 10
8.4080113364
 20
24.0903351953
 30
0.0
 10
8.4173529053
 20
24.0571265321
 30
0.0
 10
8.4325661011
 20
24.0256002067
 30
0.0
 10
8.4532538894
 20
23.9965467799
 30
0.0
 10
8.478888932
 20
23.9706660185
 30
0.0
 10
8.5088307722
 20
23.9485784216
 30
0.0
 10
8.5423410611
 20
23.9308084179
 30
0.0
 10
8.5786040499
 20
23.9177767773
 30
0.0
 10
8.6167295359
 20
23.9097916914
 30
0.0
 10
8.6427740899
 20
23.9079600936
 30
0.0
 10
8.6558184894
 20
23.9079272322
 30
0.0
 11
8.4058227201
 21
24.1244335831
 31
0.0
 11
8.4090027687
 21
24.0906265899
 31
0.0
 11
8.4182377975
 21
24.057648963
 31
0.0
 11
8.4333012491
 21
24.0263097227
 31
0.0
 11
8.4538235811
 21
23.9973776955
 31
0.0
 11
8.4793013316
 21
23.9715626533
 31
0.0
 11
8.5091094703
 21
23.9494979007
 31
0.0
 11
8.5425167324
 21
23.9317247391
 31
0.0
 11
8.5787035576
 21
23.9186791865
 31
0.0
 11
8.6167821966
 21
23.9106812816
 31
0.0
 11
8.6558184894
 21
23.9079272322
 31
0.0
  0
SPLINE
  5
5CB
100
AcDbEntity
  8
RACCORDO
100
AcDbSpline
 62
253
  6
CONTINUOUS
 70
0
 71
3
 72
17
 73
13
 74
11
 42
0.0000001
 43
0.0000001
 44
0.0000000001
 12
-0.0012298291
 22
-0.3661500354
 32
0.0
 13
-0.3661509389
 23
-0.0009224053
 33
0.0
 40
0.0
 40
0.0
 40
0.0
 40
0.0
 40
0.0926637669
 40
0.1861959939
 40
0.2811621264
 40
0.3780472439
 40
0.4771141944
 40
0.5784104998
 40
0.6817687109
 40
0.7868361684
 40
0.8931123906
 40
1.0
 40
1.0
 40
1.0
 40
1.0
 10
10.7970790521
 20
24.1244335831
 30
0.0
 10
10.7970410653
 20
24.1131239693
 30
0.0
 10
10.7948929974
 20
24.0903532059
 30
0.0
 10
10.7855584195
 20
24.0571515328
 30
0.0
 10
10.7703486714
 20
24.0256218755
 30
0.0
 10
10.7496627855
 20
23.9965641345
 30
0.0
 10
10.7240276811
 20
23.9706785552
 30
0.0
 10
10.6940844171
 20
23.9485866041
 30
0.0
 10
10.660571518
 20
23.9308129664
 30
0.0
 10
10.6243052163
 20
23.9177786995
 30
0.0
 10
10.586176033
 20
23.9097920441
 30
0.0
 10
10.5601289491
 20
23.9079600968
 30
0.0
 10
10.5470832829
 20
23.9079272322
 30
0.0
 11
10.7970790521
 21
24.1244335831
 31
0.0
 11
10.7939039924
 21
24.090653437
 31
0.0
 11
10.7846733698
 21
24.0576738361
 31
0.0
 11
10.7696137457
 21
24.0263321209
 31
0.0
 11
10.7490928703
 21
23.9973951678
 31
0.0
 11
10.723615181
 21
23.97157542
 31
0.0
 11
10.6938056074
 21
23.9495062863
 31
0.0
 11
10.6603957799
 21
23.9317294954
 31
0.0
 11
10.6242055071
 21
23.918681253
 31
0.0
 11
10.5861233481
 21
23.9106818076
 31
0.0
 11
10.5470832829
 21
23.9079272322
 31
0.0
  0
SPLINE
  5
5CC
100
AcDbEntity
  8
ASSI
100
AcDbSpline
 62
7
  6
CONTINUOUS
 70
0
 71
3
 72
18
 73
14
 74
12
 42
0.0000001
 43
0.0000001
 44
0.0000000001
 12
-0.4450903692
 22
0.4810902355
 32
0.0
 13
-0.0252793885
 23
0.6549154174
 33
0.0
 40
0.0
 40
0.0
 40
0.0
 40
0.0
 40
0.1610700427
 40
0.3161797675
 40
0.459639169
 40
0.5858983805
 40
0.6937258751
 40
0.7831374497
 40
0.8554530788
 40
0.9120560403
 40
0.9545072575
 40
0.9834021834
 40
1.0
 40
1.0
 40
1.0
 40
1.0
 10
-3.7765191015
 20
23.5364538305
 30
0.0
 10
-3.8004160098
 20
23.5622835721
 30
0.0
 10
-3.8473257384
 20
23.6129870762
 30
0.0
 10
-3.9154077282
 20
23.6867995469
 30
0.0
 10
-3.978115594
 20
23.7552228421
 30
0.0
 10
-4.03352642
 20
23.8163197317
 30
0.0
 10
-4.0806008769
 20
23.8690382505
 30
0.0
 10
-4.119322209
 20
23.9134011645
 30
0.0
 10
-4.1501060079
 20
23.9498610552
 30
0.0
 10
-4.173491333
 20
23.9790513889
 30
0.0
 10
-4.190158015
 20
24.0016331848
 30
0.0
 10
-4.2001736688
 20
24.0178217106
 30
0.0
 10
-4.2043419857
 20
24.0272460519
 30
0.0
 10
-4.2044818466
 20
24.0308694406
 30
0.0
 11
-3.7765191015
 21
23.5364538305
 31
0.0
 11
-3.8481900481
 21
23.6139613489
 31
0.0
 11
-3.9170920441
 21
23.6887085769
 31
0.0
 11
-3.9805902375
 21
23.7580515148
 31
0.0
 11
-4.036146517
 21
23.8193799345
 31
0.0
 11
-4.0831706126
 21
23.8721345616
 31
0.0
 11
-4.1216469011
 21
23.9163342051
 31
0.0
 11
-4.1521374636
 21
23.9526205097
 31
0.0
 11
-4.1752219285
 21
23.9816610177
 31
0.0
 11
-4.1915102894
 21
24.0042173854
 31
0.0
 11
-4.2011656001
 21
24.0205089836
 31
0.0
 11
-4.2044818466
 21
24.0308694406
 31
0.0
  0
SPLINE
  5
5CD
100
AcDbEntity
  8
ASSI
100
AcDbSpline
 62
7
  6
CONTINUOUS
 70
0
 71
3
 72
8
 73
4
 74
2
 42
0.0000001
 43
0.0000001
 44
0.0000000001
 12
0.0
 22
-0.0062881995
 32
0.0
 13
-0.0022476677
 23
-0.0059728434
 33
0.0
 40
0.0
 40
0.0
 40
0.0
 40
0.0
 40
1.0
 40
1.0
 40
1.0
 40
1.0
 10
-3.3485491139
 20
24.0312383062
 30
0.0
 10
-3.3485491139
 20
24.0291422397
 30
0.0
 10
-3.349061977
 20
24.0270992693
 30
0.0
 10
-3.3498111995
 20
24.0251083215
 30
0.0
 11
-3.3485491139
 21
24.0312383062
 31
0.0
 11
-3.3498111995
 21
24.0251083215
 31
0.0
  0
SPLINE
  5
5CE
100
AcDbEntity
  8
ASSI
100
AcDbSpline
 62
7
  6
CONTINUOUS
 70
0
 71
3
 72
18
 73
14
 74
12
 42
0.0000001
 43
0.0000001
 44
0.0000000001
 12
-0.232149697
 22
-0.6169033864
 32
0.0
 13
-0.4410644187
 23
-0.4767386574
 33
0.0
 40
0.0
 40
0.0
 40
0.0
 40
0.0
 40
0.0066271058
 40
0.0353775591
 40
0.0779097127
 40
0.1348025639
 40
0.2076256814
 40
0.2978091982
 40
0.4067225147
 40
0.5344206762
 40
0.6796844479
 40
0.8368312717
 40
1.0
 40
1.0
 40
1.0
 40
1.0
 10
-3.3498111995
 20
24.0251083215
 30
0.0
 10
-3.3503240264
 20
24.0237455602
 30
0.0
 10
-3.353652805
 20
24.0166008263
 30
0.0
 10
-3.3623683982
 20
24.0023744535
 30
0.0
 10
-3.3788803389
 20
23.9799118055
 30
0.0
 10
-3.4021402032
 20
23.9508195371
 30
0.0
 10
-3.4328466042
 20
23.9144107747
 30
0.0
 10
-3.4715401085
 20
23.8700521645
 30
0.0
 10
-3.5186552294
 20
23.8172696497
 30
0.0
 10
-3.5741888488
 20
23.7560262079
 30
0.0
 10
-3.6370991456
 20
23.6873764706
 30
0.0
 10
-3.7054363199
 20
23.6132855498
 30
0.0
 10
-3.7525297948
 20
23.562383444
 30
0.0
 10
-3.7765191015
 20
23.5364538305
 30
0.0
 11
-3.3498111995
 21
24.0251083215
 31
0.0
 11
-3.3515932204
 21
24.0210928127
 31
0.0
 11
-3.3610232789
 21
24.0049762505
 31
0.0
 11
-3.3771434122
 21
23.9825440733
 31
0.0
 11
-3.4001038464
 21
23.9535931476
 31
0.0
 11
-3.4305089358
 21
23.9173644823
 31
0.0
 11
-3.4689515374
 21
23.8731735692
 31
0.0
 11
-3.5160096291
 21
23.8203608565
 31
0.0
 11
-3.571684732
 21
23.7588890232
 31
0.0
 11
-3.6353968394
 21
23.6893061408
 31
0.0
 11
-3.7045711918
 21
23.6142611795
 31
0.0
 11
-3.7765191015
 21
23.5364538305
 31
0.0
  0
SPLINE
  5
5CF
100
AcDbEntity
  8
ASSI
100
AcDbSpline
 62
7
  6
CONTINUOUS
 70
0
 71
3
 72
18
 73
14
 74
12
 42
0.0000001
 43
0.0000001
 44
0.0000000001
 12
-0.4453347054
 22
0.4813543341
 32
0.0
 13
0.0
 23
0.6557629105
 33
0.0
 40
0.0
 40
0.0
 40
0.0
 40
0.0
 40
0.1614952952
 40
0.3171097781
 40
0.4609917901
 40
0.5874696091
 40
0.6953300589
 40
0.7846477581
 40
0.8567778755
 40
0.9131578401
 40
0.9553196044
 40
0.9838298659
 40
1.0
 40
1.0
 40
1.0
 40
1.0
 10
4.0794208738
 20
23.5364538305
 30
0.0
 10
4.0554477206
 20
23.562365984
 30
0.0
 10
4.0083741809
 20
23.6132465437
 30
0.0
 10
3.9400551255
 20
23.6873175633
 30
0.0
 10
3.8771460724
 20
23.7559654289
 30
0.0
 10
3.8216110827
 20
23.8172096356
 30
0.0
 10
3.7744961999
 20
23.8699907789
 30
0.0
 10
3.7358024746
 20
23.9143479473
 30
0.0
 10
3.7050895981
 20
23.9507618214
 30
0.0
 10
3.6818177609
 20
23.9798654959
 30
0.0
 10
3.6652897071
 20
24.0023452634
 30
0.0
 10
3.6554788379
 20
24.0183545455
 30
0.0
 10
3.6514508861
 20
24.0277037148
 30
0.0
 10
3.6514508861
 20
24.0312383062
 30
0.0
 11
4.0794208738
 21
23.5364538305
 31
0.0
 11
4.007521384
 21
23.6142087616
 31
0.0
 11
3.9383582075
 21
23.6892413094
 31
0.0
 11
3.8746408861
 21
23.7588293453
 31
0.0
 11
3.8189635649
 21
23.8203028386
 31
0.0
 11
3.7719085872
 21
23.8731108571
 31
0.0
 11
3.7334655227
 21
23.9173004518
 31
0.0
 11
3.7030568138
 21
23.9535306135
 31
0.0
 11
3.6800811534
 21
23.9824967947
 31
0.0
 11
3.6639443001
 21
24.0049471973
 31
0.0
 11
3.654499935
 21
24.0210823558
 31
0.0
 11
3.6514508861
 21
24.0312383062
 31
0.0
  0
SPLINE
  5
5D0
100
AcDbEntity
  8
ASSI
100
AcDbSpline
 62
7
  6
CONTINUOUS
 70
0
 71
3
 72
18
 73
14
 74
12
 42
0.0000001
 43
0.0000001
 44
0.0000000001
 12
-0.0252793929
 22
-0.654915531
 32
0.0
 13
-0.4450904464
 23
-0.4810903189
 33
0.0
 40
0.0
 40
0.0
 40
0.0
 40
0.0
 40
0.0165806563
 40
0.0454411065
 40
0.0878560839
 40
0.1444275358
 40
0.2167384756
 40
0.3061519021
 40
0.4139889825
 40
0.5402449784
 40
0.6836932136
 40
0.8388260589
 40
1.0
 40
1.0
 40
1.0
 40
1.0
 10
4.5073836189
 20
24.0308694406
 30
0.0
 10
4.5072439026
 20
24.0272497975
 30
0.0
 10
4.5030826742
 20
24.0178354931
 30
0.0
 10
4.493078909
 20
24.0016615626
 30
0.0
 10
4.4764277732
 20
23.9790963077
 30
0.0
 10
4.4530539474
 20
23.9499169274
 30
0.0
 10
4.4222761964
 20
23.9134617574
 30
0.0
 10
4.3835546807
 20
23.8690970221
 30
0.0
 10
4.3364795364
 20
23.8163766933
 30
0.0
 10
4.281069751
 20
23.7552802536
 30
0.0
 10
4.2183608244
 20
23.6868553191
 30
0.0
 10
4.1502617835
 20
23.6130241194
 30
0.0
 10
4.1033332009
 20
23.5623002381
 30
0.0
 10
4.0794208738
 20
23.5364538305
 30
0.0
 11
4.5073836189
 21
24.0308694406
 31
0.0
 11
4.5040723233
 21
24.0205192061
 31
0.0
 11
4.4944309133
 21
24.0042456315
 31
0.0
 11
4.4781587075
 21
23.9817068892
 31
0.0
 11
4.4550889116
 21
23.9526810939
 31
0.0
 11
4.4246016418
 21
23.9163960262
 31
0.0
 11
4.3861254206
 21
23.8721947015
 31
0.0
 11
4.3390976984
 21
23.8194348744
 31
0.0
 11
4.2835431913
 21
23.7581076734
 31
0.0
 11
4.2200501811
 21
23.6887698904
 31
0.0
 11
4.1511380383
 21
23.6140113826
 31
0.0
 11
4.0794208738
 21
23.5364538305
 31
0.0
  0
SPLINE
  5
5D1
100
AcDbEntity
  8
ASSI
100
AcDbSpline
 62
7
  6
CONTINUOUS
 70
0
 71
3
 72
18
 73
14
 74
12
 42
0.0000001
 43
0.0000001
 44
0.0000000001
 12
0.4453347138
 22
-0.4813543431
 32
0.0
 13
0.0
 23
-0.6557629228
 33
0.0
 40
0.0
 40
0.0
 40
0.0
 40
0.0
 40
0.1612016661
 40
0.3168616821
 40
0.4607450366
 40
0.5870767765
 40
0.6948071043
 40
0.7840907429
 40
0.8562933587
 40
0.9129036648
 40
0.95526983
 40
0.9838485666
 40
1.0
 40
1.0
 40
1.0
 40
1.0
 10
-3.7765191015
 20
-22.9762617989
 30
0.0
 10
-3.7525895356
 20
-23.0021268396
 30
0.0
 10
-3.7055528267
 20
-23.0529675955
 30
0.0
 10
-3.6372700316
 20
-23.1269986852
 30
0.0
 10
-3.5743751397
 20
-23.195630116
 30
0.0
 10
-3.5188795874
 20
-23.2568289837
 30
0.0
 10
-3.4718079197
 20
-23.3095577697
 30
0.0
 10
-3.4331238278
 20
-23.3538967616
 30
0.0
 10
-3.4023679068
 20
-23.3903511339
 30
0.0
 10
-3.3790203301
 20
-23.4195360525
 30
0.0
 10
-3.362421616
 20
-23.4421009916
 30
0.0
 10
-3.3525786891
 20
-23.4581556804
 30
0.0
 10
-3.3485491139
 20
-23.4675157708
 30
0.0
 10
-3.3485491139
 20
-23.4710462745
 30
0.0
 11
-3.7765191015
 21
-22.9762617989
 31
0.0
 11
-3.7047502638
 21
-23.0538752903
 31
0.0
 11
-3.6355665358
 21
-23.1289295056
 31
0.0
 11
-3.5718480991
 21
-23.1985177164
 31
0.0
 11
-3.5162340248
 21
-23.2599192519
 31
0.0
 11
-3.4692335838
 21
-23.3126615778
 31
0.0
 11
-3.4308013128
 21
-23.3568309588
 31
0.0
 11
-3.4003563457
 21
-23.3930927566
 31
0.0
 11
-3.3772803225
 21
-23.4221721275
 31
0.0
 11
-3.361060537
 21
-23.4447279914
 31
0.0
 11
-3.3515928631
 21
-23.460901537
 31
0.0
 11
-3.3485491139
 21
-23.4710462745
 31
0.0
  0
SPLINE
  5
5D2
100
AcDbEntity
  8
ASSI
100
AcDbSpline
 62
7
  6
CONTINUOUS
 70
0
 71
3
 72
18
 73
14
 74
12
 42
0.0000001
 43
0.0000001
 44
0.0000000001
 12
0.0252793934
 22
0.6549155442
 32
0.0
 13
0.4450904554
 23
0.4810903286
 33
0.0
 40
0.0
 40
0.0
 40
0.0
 40
0.0
 40
0.0165612013
 40
0.0454873726
 40
0.088099836
 40
0.1448866598
 40
0.2172643667
 40
0.3066417466
 40
0.4143507724
 40
0.5404648439
 40
0.6839186683
 40
0.8391027189
 40
1.0
 40
1.0
 40
1.0
 40
1.0
 10
-4.2044818466
 20
-23.4706774089
 30
0.0
 10
-4.2043422942
 20
-23.4670620128
 30
0.0
 10
-4.2001795757
 20
-23.4576375599
 30
0.0
 10
-4.1901450689
 20
-23.44142005
 30
0.0
 10
-4.1734267499
 20
-23.4187739497
 30
0.0
 10
-4.1499813556
 20
-23.3895177628
 30
0.0
 10
-4.1191641054
 20
-23.3530256313
 30
0.0
 10
-4.0804532872
 20
-23.3086797722
 30
0.0
 10
-4.0334208826
 20
-23.2560109321
 30
0.0
 10
-3.9780490741
 20
-23.1949580243
 30
0.0
 10
-3.9153522748
 20
-23.1265472016
 30
0.0
 10
-3.8472855142
 20
-23.0527515709
 30
0.0
 10
-3.8003903829
 20
-23.0020638408
 30
0.0
 10
-3.7765191015
 20
-22.9762617989
 30
0.0
 11
-4.2044818466
 21
-23.4706774089
 31
0.0
 11
-4.2011761628
 21
-23.4603387665
 31
0.0
 11
-4.1915123296
 21
-23.4440284103
 31
0.0
 11
-4.1751600089
 21
-23.4213878677
 31
0.0
 11
-4.1519963276
 21
-23.3922563831
 31
0.0
 11
-4.1214756033
 21
-23.3559422687
 31
0.0
 11
-4.0830113013
 21
-23.3117618892
 31
0.0
 11
-4.0360373706
 21
-23.2590665416
 31
0.0
 11
-3.9805443572
 21
-23.1978091416
 31
0.0
 11
-3.917048409
 21
-23.1284690793
 31
0.0
 11
-3.8481132316
 21
-23.053686159
 31
0.0
 11
-3.7765191015
 21
-22.9762617989
 31
0.0
  0
SPLINE
  5
5D3
100
AcDbEntity
  8
ASSI
100
AcDbSpline
 62
7
  6
CONTINUOUS
 70
0
 71
3
 72
18
 73
14
 74
12
 42
0.0000001
 43
0.0000001
 44
0.0000000001
 12
0.4450903719
 22
-0.4810902383
 32
0.0
 13
0.0252793887
 23
-0.6549154213
 33
0.0
 40
0.0
 40
0.0
 40
0.0
 40
0.0
 40
0.1607870617
 40
0.3159451345
 40
0.4594086114
 40
0.5855248047
 40
0.6932231358
 40
0.782598559
 40
0.8549817506
 40
0.9118040473
 40
0.9544563951
 40
0.9834203014
 40
1.0
 40
1.0
 40
1.0
 40
1.0
 10
4.0794208738
 20
-22.9762617989
 30
0.0
 10
4.1032757982
 20
-23.0020461608
 30
0.0
 10
4.1501507132
 20
-23.0527120411
 30
0.0
 10
4.2181988454
 20
-23.1264872178
 30
0.0
 10
4.2808937951
 20
-23.1948955029
 30
0.0
 10
4.3362661307
 20
-23.2559482286
 30
0.0
 10
4.3832975637
 20
-23.308614835
 30
0.0
 10
4.4220082185
 20
-23.352958732
 30
0.0
 10
4.4528322936
 20
-23.3894562589
 30
0.0
 10
4.4762904963
 20
-23.4187246921
 30
0.0
 10
4.4930259847
 20
-23.4413891089
 30
0.0
 10
4.5030734976
 20
-23.4576225859
 30
0.0
 10
4.5072439107
 20
-23.4670579754
 30
0.0
 10
4.5073836189
 20
-23.4706774089
 30
0.0
 11
4.0794208738
 21
-22.9762617989
 31
0.0
 11
4.1509659737
 21
-23.0536330812
 31
0.0
 11
4.2198897432
 21
-23.1284033355
 31
0.0
 11
4.2833902243
 21
-23.1977478009
 31
0.0
 11
4.3388845633
 21
-23.2590058555
 31
0.0
 11
4.3858544398
 21
-23.3116954094
 31
0.0
 11
4.4243188511
 21
-23.3558739787
 31
0.0
 11
4.4548433344
 21
-23.3921896179
 31
0.0
 11
4.478023481
 21
-23.4213377041
 31
0.0
 11
4.494393569
 21
-23.443997653
 31
0.0
 11
4.5040726004
 21
-23.4603277466
 31
0.0
 11
4.5073836189
 21
-23.4706774089
 31
0.0
  0
SPLINE
  5
5D4
100
AcDbEntity
  8
ASSI
100
AcDbSpline
 62
7
  6
CONTINUOUS
 70
0
 71
3
 72
8
 73
4
 74
2
 42
0.0000001
 43
0.0000001
 44
0.0000000001
 12
0.0
 22
0.0062742889
 32
0.0
 13
0.0022398713
 23
0.0059603371
 33
0.0
 40
0.0
 40
0.0
 40
0.0
 40
0.0
 40
1.0
 40
1.0
 40
1.0
 40
1.0
 10
3.6514508861
 20
-23.4710462745
 30
0.0
 10
3.6514508861
 20
-23.4689548448
 30
0.0
 10
3.6519617279
 20
-23.4669162715
 30
0.0
 10
3.6527083517
 20
-23.4649294924
 30
0.0
 11
3.6514508861
 21
-23.4710462745
 31
0.0
 11
3.6527083517
 21
-23.4649294924
 31
0.0
  0
SPLINE
  5
5D5
100
AcDbEntity
  8
ASSI
100
AcDbSpline
 62
7
  6
CONTINUOUS
 70
0
 71
3
 72
18
 73
14
 74
12
 42
0.0000001
 43
0.0000001
 44
0.0000000001
 12
0.2318623307
 22
0.6169897634
 32
0.0
 13
0.4410738809
 23
0.4767488849
 33
0.0
 40
0.0
 40
0.0
 40
0.0
 40
0.0
 40
0.0066281586
 40
0.0354438089
 40
0.0781775225
 40
0.1352977049
 40
0.2081916
 40
0.2983390118
 40
0.4071197443
 40
0.5346687078
 40
0.6799322081
 40
0.8371246023
 40
1.0
 40
1.0
 40
1.0
 40
1.0
 10
3.6527083517
 20
-23.4649294924
 30
0.0
 10
3.6532206251
 20
-23.4635663237
 30
0.0
 10
3.6565535376
 20
-23.4564072203
 30
0.0
 10
3.6653020933
 20
-23.4421327987
 30
0.0
 10
3.6818830247
 20
-23.4195868011
 30
0.0
 10
3.7052172739
 20
-23.3904146275
 30
0.0
 10
3.7359659426
 20
-23.3539660324
 30
0.0
 10
3.7746497997
 20
-23.3096254459
 30
0.0
 10
3.8217219943
 20
-23.2568948566
 30
0.0
 10
3.8772166727
 20
-23.1956961383
 30
0.0
 10
3.9401135907
 20
-23.1270619431
 30
0.0
 10
4.0084161239
 20
-23.0530091808
 30
0.0
 10
4.0554741792
 20
-23.0021453536
 30
0.0
 10
4.0794208738
 20
-22.9762617989
 30
0.0
 11
3.6527083517
 21
-23.4649294924
 31
0.0
 11
3.6544893187
 21
-23.4609127916
 31
0.0
 11
3.663941377
 21
-23.4447595771
 31
0.0
 11
3.6801427373
 21
-23.4222238348
 31
0.0
 11
3.7032017242
 21
-23.3931616121
 31
0.0
 11
3.7336425763
 21
-23.3569016237
 31
0.0
 11
3.7720743865
 21
-23.3127307388
 31
0.0
 11
3.8190783714
 21
-23.2599831191
 31
0.0
 11
3.8746906398
 21
-23.1985827152
 31
0.0
 11
3.9384044931
 21
-23.1289989261
 31
0.0
 11
4.0076006933
 21
-23.0539308722
 31
0.0
 11
4.0794208738
 21
-22.9762617989
 31
0.0
  0
SPLINE
  5
5D6
100
AcDbEntity
  8
RACCORDO
100
AcDbSpline
 62
7
  6
CONTINUOUS
 70
0
 71
3
 72
18
 73
14
 74
12
 42
0.0000001
 43
0.0000001
 44
0.0000000001
 12
-0.3145151746
 22
0.0
 32
0.0
 13
-0.0031690579
 23
0.3144992085
 33
0.0
 40
0.0
 40
0.0
 40
0.0
 40
0.0
 40
0.1233645867
 40
0.2431315365
 40
0.3566833685
 40
0.4629485722
 40
0.5612613068
 40
0.6513651559
 40
0.7334201413
 40
0.8080244445
 40
0.8762413066
 40
0.9395978155
 40
1.0
 40
1.0
 40
1.0
 40
1.0
 10
-10.2441815106
 20
23.9800960158
 30
0.0
 10
-10.2571148555
 20
23.9800960158
 30
0.0
 10
-10.2826154921
 20
23.9813853665
 30
0.0
 10
-10.3197029875
 20
23.9865121844
 30
0.0
 10
-10.3544140247
 20
23.9946702852
 30
0.0
 10
-10.3860374683
 20
24.0054455688
 30
0.0
 10
-10.4141186242
 20
24.0184783608
 30
0.0
 10
-10.4383181711
 20
24.0333995821
 30
0.0
 10
-10.4583945056
 20
24.0498562054
 30
0.0
 10
-10.4741817203
 20
24.0675101318
 30
0.0
 10
-10.485567251
 20
24.0860404845
 30
0.0
 10
-10.492478034
 20
24.1050987323
 30
0.0
 10
-10.4941134739
 20
24.1181014367
 30
0.0
 10
-10.4941772799
 20
24.1244335831
 30
0.0
 11
-10.2441815106
 21
23.9800960158
 31
0.0
 11
-10.2829361564
 21
23.9819722121
 31
0.0
 11
-10.3202408773
 21
23.9871948007
 31
0.0
 11
-10.3549938836
 21
23.9954229373
 31
0.0
 11
-10.3866010542
 21
24.0062865521
 31
0.0
 11
-10.4146022452
 21
24.0194026518
 31
0.0
 11
-10.4386557238
 21
24.0343869991
 31
0.0
 11
-10.4585212692
 21
24.0508608915
 31
0.0
 11
-10.4740462854
 21
24.0684546935
 31
0.0
 11
-10.4851557377
 21
24.0868097288
 31
0.0
 11
-10.4918454139
 21
24.105579837
 31
0.0
 11
-10.4941772799
 21
24.1244335831
 31
0.0
  0
SPLINE
  5
5D7
100
AcDbEntity
  8
RACCORDO
100
AcDbSpline
 62
7
  6
CONTINUOUS
 70
0
 71
3
 72
18
 73
14
 74
12
 42
0.0000001
 43
0.0000001
 44
0.0000000001
 12
-0.0031763781
 22
-0.3152256661
 32
0.0
 13
-0.3152416691
 23
0.0
 33
0.0
 40
0.0
 40
0.0
 40
0.0
 40
0.0
 40
0.0600923894
 40
0.1232193774
 40
0.1912702092
 40
0.2657636629
 40
0.3477531865
 40
0.4378167491
 40
0.5360799495
 40
0.6422378908
 40
0.7555663097
 40
0.8749375201
 40
1.0
 40
1.0
 40
1.0
 40
1.0
 10
-8.1029209479
 20
24.1244335831
 30
0.0
 10
-8.1029845732
 20
24.118119362
 30
0.0
 10
-8.1046122326
 20
24.105143619
 30
0.0
 10
-8.1114994997
 20
24.0861066448
 30
0.0
 10
-8.12286995
 20
24.0675706784
 30
0.0
 10
-8.1386607877
 20
24.049894602
 30
0.0
 10
-8.1587622775
 20
24.0334095704
 30
0.0
 10
-8.1830043278
 20
24.0184627635
 30
0.0
 10
-8.2111344397
 20
24.0054146348
 30
0.0
 10
-8.242796611
 20
23.9946368056
 30
0.0
 10
-8.277516354
 20
23.986492957
 30
0.0
 10
-8.314802997
 20
23.9813361779
 30
0.0
 10
-8.3405023108
 20
23.9800960158
 30
0.0
 10
-8.3536439458
 20
23.9800960158
 30
0.0
 11
-8.1029209479
 21
24.1244335831
 31
0.0
 11
-8.1052402884
 21
24.105632477
 31
0.0
 11
-8.1119077984
 21
24.0868824225
 31
0.0
 11
-8.1230024708
 21
24.0685216984
 31
0.0
 11
-8.1385309677
 21
24.0509052921
 31
0.0
 11
-8.1584223367
 21
24.0344014823
 31
0.0
 11
-8.1825206398
 21
24.0193893072
 31
0.0
 11
-8.2105750027
 21
24.006255157
 31
0.0
 11
-8.2422267018
 21
23.9953876191
 31
0.0
 11
-8.2769943815
 21
23.9871690983
 31
0.0
 11
-8.3142632582
 21
23.9819627176
 31
0.0
 11
-8.3536439458
 21
23.9800960158
 31
0.0
  0
SPLINE
  5
5D8
100
AcDbEntity
  8
RACCORDO
100
AcDbSpline
 62
7
  6
CONTINUOUS
 70
0
 71
3
 72
9
 73
5
 74
3
 42
0.0000001
 43
0.0000001
 44
0.0000000001
 12
0.1335246193
 22
0.207351903
 32
0.0
 13
0.1402706335
 23
0.2028500307
 33
0.0
 40
0.0
 40
0.0
 40
0.0
 40
0.0
 40
0.5245904348
 40
1.0
 40
1.0
 40
1.0
 40
1.0
 10
-7.736017222
 20
-21.4824358761
 30
0.0
 10
-7.7126686426
 20
-21.4461776011
 30
0.0
 10
-7.667247815
 20
-21.3776475671
 30
0.0
 10
-7.6207975896
 20
-21.3098186554
 30
0.0
 10
-7.5985689227
 20
-21.2776730404
 30
0.0
 11
-7.736017222
 21
-21.4824358761
 31
0.0
 11
-7.664730694
 21
-21.3744701459
 31
0.0
 11
-7.5985689227
 21
-21.2776730404
 31
0.0
  0
SPLINE
  5
5D9
100
AcDbEntity
  8
RACCORDO
100
AcDbSpline
 62
7
  6
CONTINUOUS
 70
0
 71
3
 72
9
 73
5
 74
3
 42
0.0000001
 43
0.0000001
 44
0.0000000001
 12
0.1246584854
 22
-0.1811265558
 32
0.0
 13
0.1190437227
 23
-0.1848643536
 33
0.0
 40
0.0
 40
0.0
 40
0.0
 40
0.0
 40
0.4115965419
 40
1.0
 40
1.0
 40
1.0
 40
1.0
 10
7.9166594134
 20
-21.2996887921
 30
0.0
 10
7.9337624139
 20
-21.3245391468
 30
0.0
 10
7.9750755276
 20
-21.3850797271
 30
0.0
 10
8.0155704149
 20
-21.4461776011
 30
0.0
 10
8.0389189942
 20
-21.4824358761
 30
0.0
 11
7.9166594134
 21
-21.2996887921
 31
0.0
 11
7.9676324662
 21
-21.3744701459
 31
0.0
 11
8.0389189942
 21
-21.4824358761
 31
0.0
  0
SPLINE
  5
5DA
100
AcDbEntity
  8
RACCORDO
100
AcDbSpline
 62
7
  6
CONTINUOUS
 70
0
 71
3
 72
9
 73
5
 74
3
 42
0.0000001
 43
0.0000001
 44
0.0000000001
 12
-0.1402706335
 22
0.2028500307
 32
0.0
 13
-0.1335246193
 23
0.207351903
 33
0.0
 40
0.0
 40
0.0
 40
0.0
 40
0.0
 40
0.4754095652
 40
1.0
 40
1.0
 40
1.0
 40
1.0
 10
-7.5985689227
 20
21.8378650721
 30
0.0
 10
-7.6207975896
 20
21.8700106871
 30
0.0
 10
-7.667247815
 20
21.9378395988
 30
0.0
 10
-7.7126686426
 20
22.0063696328
 30
0.0
 10
-7.736017222
 20
22.0426279077
 30
0.0
 11
-7.5985689227
 21
21.8378650721
 31
0.0
 11
-7.664730694
 21
21.9346621775
 31
0.0
 11
-7.736017222
 21
22.0426279077
 31
0.0
  0
SPLINE
  5
5DB
100
AcDbEntity
  8
RACCORDO
100
AcDbSpline
 62
7
  6
CONTINUOUS
 70
0
 71
3
 72
9
 73
5
 74
3
 42
0.0000001
 43
0.0000001
 44
0.0000000001
 12
-0.1190437227
 22
-0.1848643536
 32
0.0
 13
-0.1246584854
 23
-0.1811265558
 33
0.0
 40
0.0
 40
0.0
 40
0.0
 40
0.0
 40
0.5884034581
 40
1.0
 40
1.0
 40
1.0
 40
1.0
 10
8.0389189942
 20
22.0426279077
 30
0.0
 10
8.0155704149
 20
22.0063696328
 30
0.0
 10
7.9750755276
 20
21.9452717588
 30
0.0
 10
7.9337624139
 20
21.8847311784
 30
0.0
 10
7.9166594134
 20
21.8598808238
 30
0.0
 11
8.0389189942
 21
22.0426279077
 31
0.0
 11
7.9676324662
 21
21.9346621775
 31
0.0
 11
7.9166594134
 21
21.8598808238
 31
0.0
  0
SPLINE
  5
5DC
100
AcDbEntity
  8
RACCORDO
100
AcDbSpline
 62
253
  6
CONTINUOUS
 70
0
 71
3
 72
17
 73
13
 74
11
 42
0.0000001
 43
0.0000001
 44
0.0000000001
 12
-0.0012298291
 22
0.3661500354
 32
0.0
 13
-0.3661509389
 23
0.0009224053
 33
0.0
 40
0.0
 40
0.0
 40
0.0
 40
0.0
 40
0.0926637669
 40
0.1861959939
 40
0.2811621264
 40
0.3780472439
 40
0.4771141944
 40
0.5784104998
 40
0.6817687109
 40
0.7868361684
 40
0.8931123906
 40
1.0
 40
1.0
 40
1.0
 40
1.0
 10
10.7970790521
 20
-23.5642415515
 30
0.0
 10
10.7970410653
 20
-23.5529319376
 30
0.0
 10
10.7948929974
 20
-23.5301611742
 30
0.0
 10
10.7855584195
 20
-23.4969595012
 30
0.0
 10
10.7703486714
 20
-23.4654298438
 30
0.0
 10
10.7496627855
 20
-23.4363721029
 30
0.0
 10
10.7240276811
 20
-23.4104865235
 30
0.0
 10
10.6940844171
 20
-23.3883945724
 30
0.0
 10
10.660571518
 20
-23.3706209347
 30
0.0
 10
10.6243052163
 20
-23.3575866678
 30
0.0
 10
10.586176033
 20
-23.3496000125
 30
0.0
 10
10.5601289491
 20
-23.3477680651
 30
0.0
 10
10.5470832829
 20
-23.3477352005
 30
0.0
 11
10.7970790521
 21
-23.5642415515
 31
0.0
 11
10.7939039924
 21
-23.5304614053
 31
0.0
 11
10.7846733698
 21
-23.4974818044
 31
0.0
 11
10.7696137457
 21
-23.4661400892
 31
0.0
 11
10.7490928703
 21
-23.4372031361
 31
0.0
 11
10.723615181
 21
-23.4113833883
 31
0.0
 11
10.6938056074
 21
-23.3893142546
 31
0.0
 11
10.6603957799
 21
-23.3715374637
 31
0.0
 11
10.6242055071
 21
-23.3584892213
 31
0.0
 11
10.5861233481
 21
-23.350489776
 31
0.0
 11
10.5470832829
 21
-23.3477352005
 31
0.0
  0
SPLINE
  5
5DD
100
AcDbEntity
  8
RACCORDO
100
AcDbSpline
 62
253
  6
CONTINUOUS
 70
0
 71
3
 72
17
 73
13
 74
11
 42
0.0000001
 43
0.0000001
 44
0.0000000001
 12
0.0012298291
 22
0.3661500354
 32
0.0
 13
0.3661509389
 23
0.0009224053
 33
0.0
 40
0.0
 40
0.0
 40
0.0
 40
0.0
 40
0.0926637669
 40
0.1861959939
 40
0.2811621264
 40
0.3780472439
 40
0.4771141944
 40
0.5784104998
 40
0.6817687109
 40
0.7868361684
 40
0.8931123906
 40
1.0
 40
1.0
 40
1.0
 40
1.0
 10
8.4058227201
 20
-23.5642415515
 30
0.0
 10
8.405860707
 20
-23.5529319376
 30
0.0
 10
8.4080087749
 20
-23.5301611742
 30
0.0
 10
8.4173433528
 20
-23.4969595012
 30
0.0
 10
8.4325531008
 20
-23.4654298438
 30
0.0
 10
8.4532389868
 20
-23.4363721029
 30
0.0
 10
8.4788740912
 20
-23.4104865235
 30
0.0
 10
8.5088173552
 20
-23.3883945724
 30
0.0
 10
8.5423302543
 20
-23.3706209347
 30
0.0
 10
8.578596556
 20
-23.3575866678
 30
0.0
 10
8.6167257392
 20
-23.3496000125
 30
0.0
 10
8.6427728232
 20
-23.3477680651
 30
0.0
 10
8.6558184894
 20
-23.3477352005
 30
0.0
 11
8.4058227201
 21
-23.5642415515
 31
0.0
 11
8.4089977799
 21
-23.5304614053
 31
0.0
 11
8.4182284025
 21
-23.4974818044
 31
0.0
 11
8.4332880265
 21
-23.4661400892
 31
0.0
 11
8.4538089019
 21
-23.4372031361
 31
0.0
 11
8.4792865913
 21
-23.4113833883
 31
0.0
 11
8.5090961649
 21
-23.3893142546
 31
0.0
 11
8.5425059924
 21
-23.3715374637
 31
0.0
 11
8.5786962651
 21
-23.3584892213
 31
0.0
 11
8.6167784242
 21
-23.350489776
 31
0.0
 11
8.6558184894
 21
-23.3477352005
 31
0.0
  0
SPLINE
  5
5DE
100
AcDbEntity
  8
RACCORDO
100
AcDbSpline
 62
253
  6
CONTINUOUS
 70
0
 71
3
 72
17
 73
13
 74
11
 42
0.0000001
 43
0.0000001
 44
0.0000000001
 12
0.0012298291
 22
0.3661500354
 32
0.0
 13
0.3661509389
 23
0.0009224053
 33
0.0
 40
0.0
 40
0.0
 40
0.0
 40
0.0
 40
0.0926637669
 40
0.1861959939
 40
0.2811621264
 40
0.3780472439
 40
0.4771141944
 40
0.5784104998
 40
0.6817687109
 40
0.7868361684
 40
0.8931123906
 40
1.0
 40
1.0
 40
1.0
 40
1.0
 10
-10.4941772799
 20
-23.5642415515
 30
0.0
 10
-10.494139293
 20
-23.5529319376
 30
0.0
 10
-10.4919912251
 20
-23.5301611742
 30
0.0
 10
-10.4826566472
 20
-23.4969595012
 30
0.0
 10
-10.4674468992
 20
-23.4654298438
 30
0.0
 10
-10.4467610132
 20
-23.4363721029
 30
0.0
 10
-10.4211259088
 20
-23.4104865235
 30
0.0
 10
-10.3911826448
 20
-23.3883945724
 30
0.0
 10
-10.3576697457
 20
-23.3706209347
 30
0.0
 10
-10.321403444
 20
-23.3575866678
 30
0.0
 10
-10.2832742608
 20
-23.3496000125
 30
0.0
 10
-10.2572271768
 20
-23.3477680651
 30
0.0
 10
-10.2441815106
 20
-23.3477352005
 30
0.0
 11
-10.4941772799
 21
-23.5642415515
 31
0.0
 11
-10.4910022201
 21
-23.5304614053
 31
0.0
 11
-10.4817715975
 21
-23.4974818044
 31
0.0
 11
-10.4667119735
 21
-23.4661400892
 31
0.0
 11
-10.4461910981
 21
-23.4372031361
 31
0.0
 11
-10.4207134087
 21
-23.4113833883
 31
0.0
 11
-10.3909038351
 21
-23.3893142546
 31
0.0
 11
-10.3574940076
 21
-23.3715374637
 31
0.0
 11
-10.3213037349
 21
-23.3584892213
 31
0.0
 11
-10.2832215758
 21
-23.350489776
 31
0.0
 11
-10.2441815106
 21
-23.3477352005
 31
0.0
  0
SPLINE
  5
5DF
100
AcDbEntity
  8
RACCORDO
100
AcDbSpline
 62
253
  6
CONTINUOUS
 70
0
 71
3
 72
17
 73
13
 74
11
 42
0.0000001
 43
0.0000001
 44
0.0000000001
 12
-0.001229829
 22
0.3661500127
 32
0.0
 13
-0.3661509162
 23
0.0009224053
 33
0.0
 40
0.0
 40
0.0
 40
0.0
 40
0.0
 40
0.092740981
 40
0.1862742706
 40
0.2812426722
 40
0.3781228716
 40
0.4771847111
 40
0.5784746944
 40
0.6818263867
 40
0.7868857196
 40
0.8931548188
 40
1.0
 40
1.0
 40
1.0
 40
1.0
 10
-8.1029209479
 20
-23.5642415515
 30
0.0
 10
-8.1029589664
 20
-23.5529225143
 30
0.0
 10
-8.1051097005
 20
-23.5301420766
 30
0.0
 10
-8.1144518794
 20
-23.49693233
 30
0.0
 10
-8.1296660984
 20
-23.465405043
 30
0.0
 10
-8.1503552916
 20
-23.4363508754
 30
0.0
 10
-8.1759919843
 20
-23.4104697347
 30
0.0
 10
-8.2059356727
 20
-23.3883821197
 30
0.0
 10
-8.2394478006
 20
-23.3706125656
 30
0.0
 10
-8.2757124982
 20
-23.3575818079
 30
0.0
 10
-8.313835236
 20
-23.3495988688
 30
0.0
 10
-8.3398762301
 20
-23.347768052
 30
0.0
 10
-8.3529167171
 20
-23.3477352005
 30
0.0
 11
-8.1029209479
 21
-23.5642415515
 31
0.0
 11
-8.1061011934
 21
-23.5304334983
 31
0.0
 11
-8.1153367965
 21
-23.4974548898
 31
0.0
 11
-8.1304013014
 21
-23.4661146009
 31
0.0
 11
-8.1509250028
 21
-23.4371818626
 31
0.0
 11
-8.1764043983
 21
-23.411366431
 31
0.0
 11
-8.2062143372
 21
-23.3893016852
 31
0.0
 11
-8.2396235835
 21
-23.3715288888
 31
0.0
 11
-8.2758119949
 21
-23.3584842621
 31
0.0
 11
-8.3138920764
 21
-23.3504876256
 31
0.0
 11
-8.3529167171
 21
-23.3477352005
 31
0.0
  0
ELLIPSE
  5
5E0
100
AcDbEntity
  8
GUSCI_ESTERNI
100
AcDbEllipse
 62
7
  6
CONTINUOUS
 10
-8.4942465246
 20
-13.6199039842
 30
0.0
 11
0.9860557856
 21
-0.0
 31
0.0
 40
0.9999904802
 41
1.5751597745
 42
3.1415926536
  0
ELLIPSE
  5
5E1
100
AcDbEntity
  8
GUSCI_ESTERNI
100
AcDbEllipse
 62
7
  6
CONTINUOUS
 10
-8.4942465246
 20
14.1800960158
 30
0.0
 11
0.9860557856
 21
0.0000000002
 31
0.0
 40
0.9999904802
 41
3.1415926534
 42
4.7080255325
  0
ELLIPSE
  5
5E2
100
AcDbEntity
  8
GUSCI_ESTERNI
100
AcDbEllipse
 62
7
  6
CONTINUOUS
 10
-8.4942465246
 20
16.6800960158
 30
0.0
 11
0.9860557856
 21
-0.0
 31
0.0
 40
0.9999904802
 41
1.5751597745
 42
3.1415926536
  0
ELLIPSE
  5
5E3
100
AcDbEntity
  8
GUSCI_ESTERNI
100
AcDbEllipse
 62
7
  6
CONTINUOUS
 10
-8.4942465246
 20
-16.1199039842
 30
0.0
 11
0.9860557856
 21
-0.0
 31
0.0
 40
0.9999904802
 41
3.1415926536
 42
4.7080255326
  0
ELLIPSE
  5
5E4
100
AcDbEntity
  8
ASSI
100
AcDbEllipse
 62
7
  6
CONTINUOUS
 10
0.1601777539
 20
21.0387848052
 30
0.0
 11
-0.0
 21
1.0
 31
0.0
 40
0.0087268678
 41
0.0087266463
 42
1.5707963268
  0
ELLIPSE
  5
5E5
100
AcDbEntity
  8
ASSI
100
AcDbEllipse
 62
7
  6
CONTINUOUS
 10
-1.0572759817
 20
21.0387848052
 30
0.0
 11
0.0
 21
1.0
 31
0.0
 40
0.0087268678
 41
-1.5707963268
 42
-0.0087266463
  0
ELLIPSE
  5
5E6
100
AcDbEntity
  8
ASSI
100
AcDbEllipse
 62
7
  6
CONTINUOUS
 10
-2.0811524959
 20
-15.8873006022
 30
0.0
 11
-1.0607409467
 21
1.0607409467
 31
0.0
 40
0.9999238505
 41
-3.9269527408
 42
-2.3562325664
  0
ELLIPSE
  5
5E7
100
AcDbEntity
  8
ASSI
100
AcDbEllipse
 62
7
  6
CONTINUOUS
 10
-2.0811524959
 20
-13.8525073662
 30
0.0
 11
1.0607409467
 21
1.0607409467
 31
0.0
 40
0.9999238505
 41
-0.7853600872
 42
0.7853600872
  0
ELLIPSE
  5
5E8
100
AcDbEntity
  8
ASSI
100
AcDbEllipse
 62
7
  6
CONTINUOUS
 10
2.3840542681
 20
-13.8525073662
 30
0.0
 11
-1.0607409467
 21
1.0607409467
 31
0.0
 40
0.9999238505
 41
-0.7853600872
 42
0.7853600872
  0
ELLIPSE
  5
5E9
100
AcDbEntity
  8
ASSI
100
AcDbEllipse
 62
7
  6
CONTINUOUS
 10
2.3840542681
 20
-15.8873006022
 30
0.0
 11
1.0607409467
 21
1.0607409467
 31
0.0
 40
0.9999238505
 41
-3.9269527408
 42
-2.3562325664
  0
ELLIPSE
  5
5EA
100
AcDbEntity
  8
ASSI
100
AcDbEllipse
 62
7
  6
CONTINUOUS
 10
2.4015080037
 20
-15.8698468666
 30
0.0
 11
-1.0607409467
 21
-1.0607409467
 31
0.0
 40
0.9999238505
 41
-0.7853600872
 42
0.7853600872
  0
ELLIPSE
  5
5EB
100
AcDbEntity
  8
ASSI
100
AcDbEllipse
 62
7
  6
CONTINUOUS
 10
2.4015080037
 20
-13.8699611017
 30
0.0
 11
-1.0607409467
 21
1.0607409467
 31
0.0
 40
0.9999238505
 41
-0.7853600872
 42
0.7853600872
  0
ELLIPSE
  5
5EC
100
AcDbEntity
  8
ASSI
100
AcDbEllipse
 62
7
  6
CONTINUOUS
 10
-1.0529125478
 20
20.034383293
 30
0.0
 11
-0.0
 21
2.0
 31
0.0
 40
0.0087268678
 41
-1.5707963268
 42
-0.0087266463
  0
ELLIPSE
  5
5ED
100
AcDbEntity
  8
ASSI
100
AcDbEllipse
 62
7
  6
CONTINUOUS
 10
-1.04418568
 20
-9.7243054964
 30
0.0
 11
-0.0
 21
1.0
 31
0.0
 40
0.0087268678
 41
-1.5707963268
 42
-0.0087266463
  0
ELLIPSE
  5
5EE
100
AcDbEntity
  8
ASSI
100
AcDbEllipse
 62
7
  6
CONTINUOUS
 10
0.15581432
 20
20.034383293
 30
0.0
 11
-0.0
 21
2.0
 31
0.0
 40
0.0087268678
 41
0.0087266463
 42
1.5707963268
  0
ELLIPSE
  5
5EF
100
AcDbEntity
  8
ASSI
100
AcDbEllipse
 62
7
  6
CONTINUOUS
 10
0.1470874522
 20
-9.7243054964
 30
0.0
 11
-0.0
 21
1.0
 31
0.0
 40
0.0087268678
 41
0.0087266463
 42
1.5707963268
  0
ELLIPSE
  5
5F0
100
AcDbEntity
  8
ASSI
100
AcDbEllipse
 62
7
  6
CONTINUOUS
 10
-2.0986062314
 20
-13.8699611017
 30
0.0
 11
1.0607409467
 21
1.0607409467
 31
-0.0
 40
0.9999238505
 41
-0.7853600872
 42
0.7853600872
  0
ELLIPSE
  5
5F1
100
AcDbEntity
  8
ASSI
100
AcDbEllipse
 62
7
  6
CONTINUOUS
 10
-2.0986062314
 20
-15.8698468666
 30
0.0
 11
1.0607409467
 21
-1.0607409467
 31
-0.0
 40
0.9999238505
 41
-0.7853600872
 42
0.7853600872
  0
ELLIPSE
  5
5F2
100
AcDbEntity
  8
ASSI
100
AcDbEllipse
 62
7
  6
CONTINUOUS
 10
2.4014508861
 20
-15.8391275778
 30
0.0
 11
0.0
 21
1.0307764064
 31
0.0
 40
0.9701425001
 41
-4.7123889804
 42
-3.1415926536
  0
ELLIPSE
  5
5F3
100
AcDbEntity
  8
ASSI
100
AcDbEllipse
 62
7
  6
CONTINUOUS
 10
2.4014508861
 20
-13.9006803906
 30
0.0
 11
0.0
 21
1.0307764064
 31
0.0
 40
0.9701425001
 41
0.0
 42
1.5707963268
  0
ELLIPSE
  5
5F4
100
AcDbEntity
  8
ASSI
100
AcDbEllipse
 62
7
  6
CONTINUOUS
 10
2.4014508861
 20
16.3993196094
 30
0.0
 11
0.0
 21
1.0307764064
 31
0.0
 40
0.9701425001
 41
0.0
 42
1.5707963268
  0
ELLIPSE
  5
5F5
100
AcDbEntity
  8
ASSI
100
AcDbEllipse
 62
7
  6
CONTINUOUS
 10
2.4014508861
 20
14.4608724222
 30
0.0
 11
0.0
 21
1.0307764064
 31
0.0
 40
0.9701425001
 41
1.5707963268
 42
3.1415926536
  0
ELLIPSE
  5
5F6
100
AcDbEntity
  8
GUSCI_ESTERNI
100
AcDbEllipse
 62
7
  6
CONTINUOUS
 10
8.7492841525
 20
16.4300960158
 30
0.0
 11
0.9931323188
 21
-0.0
 31
0.0
 40
0.9999976201
 41
6.2831853072
 42
7.8517999153
  0
ELLIPSE
  5
5F7
100
AcDbEntity
  8
GUSCI_ESTERNI
100
AcDbEllipse
 62
7
  6
CONTINUOUS
 10
8.7492841525
 20
14.4300960158
 30
0.0
 11
0.9931323188
 21
0.0000000004
 31
0.0
 40
0.9999976201
 41
-1.5686146085
 42
-0.0000000004
  0
ELLIPSE
  5
5F8
100
AcDbEntity
  8
GUSCI_ESTERNI
100
AcDbEllipse
 62
7
  6
CONTINUOUS
 10
8.7492841525
 20
-13.8699039842
 30
0.0
 11
0.9931323188
 21
-0.0
 31
0.0
 40
0.9999976201
 41
0.0
 42
1.5686146081
  0
ELLIPSE
  5
5F9
100
AcDbEntity
  8
GUSCI_ESTERNI
100
AcDbEllipse
 62
7
  6
CONTINUOUS
 10
8.7492841525
 20
-15.8699039842
 30
0.0
 11
0.9931323188
 21
-0.0000000002
 31
0.0
 40
0.9999976201
 41
-1.5686146079
 42
-0.0
  0
ELLIPSE
  5
5FA
100
AcDbEntity
  8
ASSI
100
AcDbEllipse
 62
7
  6
CONTINUOUS
 10
8.7492841525
 20
14.4300960158
 30
0.0
 11
0.9931323188
 21
-0.0
 31
0.0
 40
0.9999976201
 41
4.714570699
 42
6.2831853072
  0
ELLIPSE
  5
5FB
100
AcDbEntity
  8
ASSI
100
AcDbEllipse
 62
7
  6
CONTINUOUS
 10
8.7492841525
 20
16.4300960158
 30
0.0
 11
0.9931323188
 21
0.0
 31
0.0
 40
0.9999976201
 41
6.2831853072
 42
7.8517999153
  0
ELLIPSE
  5
5FC
100
AcDbEntity
  8
ASSI
100
AcDbEllipse
 62
7
  6
CONTINUOUS
 10
8.7492841525
 20
-15.8699039842
 30
0.0
 11
0.9931323188
 21
0.0
 31
0.0
 40
0.9999976201
 41
-1.5686146081
 42
-0.0000000002
  0
ELLIPSE
  5
5FD
100
AcDbEntity
  8
ASSI
100
AcDbEllipse
 62
7
  6
CONTINUOUS
 10
8.7492841525
 20
-13.8699039842
 30
0.0
 11
0.9931323188
 21
0.0
 31
0.0
 40
0.9999976201
 41
-0.0
 42
1.568614608
  0
ELLIPSE
  5
5FE
100
AcDbEntity
  8
0
100
AcDbEllipse
 62
7
  6
CONTINUOUS
 10
8.2196759758
 20
22.7161659808
 30
0.0
 11
0.20090327
 21
0.0027587982
 31
0.0
 40
0.1416374191
 41
-1.6674458463
 42
-1.3711529984
  0
ELLIPSE
  5
5FF
100
AcDbEntity
  8
0
100
AcDbEllipse
 62
7
  6
CONTINUOUS
 10
8.2014475015
 20
22.880370485
 30
0.0
 11
-0.0220972656
 21
0.1990550872
 31
0.0
 40
0.9986126811
 41
-2.9557058086
 42
-1.6815068062
  0
ELLIPSE
  5
600
100
AcDbEntity
  8
0
100
AcDbEllipse
 62
7
  6
CONTINUOUS
 10
-7.9167742035
 20
-22.1559739491
 30
0.0
 11
0.20090327
 21
0.0027587982
 31
0.0
 40
0.1416374191
 41
1.4741468073
 42
1.7704396552
  0
ELLIPSE
  5
601
100
AcDbEntity
  8
0
100
AcDbEllipse
 62
7
  6
CONTINUOUS
 10
-7.8985457292
 20
-22.3201784534
 30
0.0
 11
-0.0220972656
 21
0.1990550872
 31
0.0
 40
0.9986126811
 41
0.185886845
 42
1.4600858474
  0
ELLIPSE
  5
602
100
AcDbEntity
  8
0
100
AcDbEllipse
 62
7
  6
CONTINUOUS
 10
8.2014475015
 20
-22.3201784534
 30
0.0
 11
0.0220972656
 21
0.1990550872
 31
0.0
 40
0.9986126811
 41
-1.4600858474
 42
-0.185886845
  0
ELLIPSE
  5
603
100
AcDbEntity
  8
0
100
AcDbEllipse
 62
7
  6
CONTINUOUS
 10
8.2196759758
 20
-22.1559739491
 30
0.0
 11
0.20090327
 21
-0.0027587982
 31
0.0
 40
0.1416374191
 41
1.3711529984
 42
1.6674458463
  0
ELLIPSE
  5
604
100
AcDbEntity
  8
0
100
AcDbEllipse
 62
7
  6
CONTINUOUS
 10
-7.8985457292
 20
22.880370485
 30
0.0
 11
0.0220972656
 21
0.1990550872
 31
0.0
 40
0.9986126811
 41
-4.601678501
 42
-3.3274794986
  0
ELLIPSE
  5
605
100
AcDbEntity
  8
0
100
AcDbEllipse
 62
7
  6
CONTINUOUS
 10
-7.9167742035
 20
22.7161659808
 30
0.0
 11
0.20090327
 21
-0.0027587982
 31
0.0
 40
0.1416374191
 41
-1.7704396552
 42
-1.4741468073
  0
ELLIPSE
  5
606
100
AcDbEntity
  8
0
100
AcDbEllipse
 62
7
  6
CONTINUOUS
 10
4.0794208738
 20
-22.0625507471
 30
0.0
 11
0.4279699877
 21
0.0
 31
0.0
 40
0.0087268678
 41
0.0058177642
 42
3.1415926536
  0
ELLIPSE
  5
607
100
AcDbEntity
  8
0
100
AcDbEllipse
 62
7
  6
CONTINUOUS
 10
-3.7765191015
 20
-22.0625507471
 30
0.0
 11
0.4279699877
 21
-0.0
 31
0.0
 40
0.0087268678
 41
-0.0
 42
3.1357748894
  0
ELLIPSE
  5
608
100
AcDbEntity
  8
0
100
AcDbEllipse
 62
7
  6
CONTINUOUS
 10
4.0794208738
 20
22.6227427788
 30
0.0
 11
0.4279699877
 21
0.0
 31
0.0
 40
0.0087268678
 41
-3.1415926536
 42
-0.0058177642
  0
ELLIPSE
  5
609
100
AcDbEntity
  8
0
100
AcDbEllipse
 62
7
  6
CONTINUOUS
 10
-3.7765191015
 20
22.6227427788
 30
0.0
 11
0.4279699877
 21
0.0
 31
0.0
 40
0.0087268678
 41
-3.1357748894
 42
-0.0
  0
ELLIPSE
  5
60A
100
AcDbEntity
  8
0
100
AcDbEllipse
 62
7
  6
CONTINUOUS
 10
-10.4810178849
 20
22.1888038444
 30
0.0
 11
0.4473055582
 21
0.2236357461
 31
0.0
 40
0.9998096356
 41
1.1071030277
 42
1.3309505
  0
ELLIPSE
  5
60B
100
AcDbEntity
  8
0
100
AcDbEllipse
 62
7
  6
CONTINUOUS
 10
-10.4984729498
 20
22.1800769766
 30
0.0
 11
0.4473055582
 21
0.2236357461
 31
0.0
 40
0.9998096356
 41
7.3902883349
 42
8.9612369607
  0
ELLIPSE
  5
60C
100
AcDbEntity
  8
0
100
AcDbEllipse
 62
7
  6
CONTINUOUS
 10
-10.4810178849
 20
-21.6286118128
 30
0.0
 11
0.4473055582
 21
-0.2236357461
 31
0.0
 40
0.9998096356
 41
-1.3309505
 42
-1.1071030277
  0
ELLIPSE
  5
60D
100
AcDbEntity
  8
0
100
AcDbEllipse
 62
7
  6
CONTINUOUS
 10
10.7839196572
 20
22.1888038444
 30
0.0
 11
0.4473055582
 21
-0.2236357461
 31
0.0
 40
0.9998096356
 41
1.8106421536
 42
2.0344896259
  0
ELLIPSE
  5
60E
100
AcDbEntity
  8
0
100
AcDbEllipse
 62
7
  6
CONTINUOUS
 10
10.7839196572
 20
-21.6286118128
 30
0.0
 11
0.4473055582
 21
0.2236357461
 31
0.0
 40
0.9998096356
 41
-2.0344896259
 42
-1.8106421536
  0
ELLIPSE
  5
60F
100
AcDbEntity
  8
0
100
AcDbEllipse
 62
7
  6
CONTINUOUS
 10
10.8013747221
 20
-21.619884945
 30
0.0
 11
-0.4473055582
 21
-0.2236357461
 31
-0.0
 40
0.9998096356
 41
7.3902883349
 42
8.9612369607
  0
ELLIPSE
  5
610
100
AcDbEntity
  8
0
100
AcDbEllipse
 62
7
  6
CONTINUOUS
 10
10.8013747221
 20
22.1800769766
 30
0.0
 11
0.4473055582
 21
-0.2236357461
 31
0.0
 40
0.9998096356
 41
6.7467263073
 42
8.3176749331
  0
ELLIPSE
  5
611
100
AcDbEntity
  8
0
100
AcDbEllipse
 62
7
  6
CONTINUOUS
 10
10.5514466553
 20
23.6914208812
 30
0.0
 11
-0.0029088041
 21
0.2886641433
 31
0.0
 40
0.8660144118
 41
-3.150319066
 42
-1.582431609
  0
ELLIPSE
  5
612
100
AcDbEntity
  8
0
100
AcDbEllipse
 62
7
  6
CONTINUOUS
 10
8.651455117
 20
23.6914208812
 30
0.0
 11
0.0029088041
 21
0.2886641433
 31
0.0
 40
0.8660144118
 41
-4.7007536982
 42
-3.1328662411
  0
ELLIPSE
  5
613
100
AcDbEntity
  8
0
100
AcDbEllipse
 62
7
  6
CONTINUOUS
 10
-10.4984729498
 20
-21.619884945
 30
0.0
 11
-0.4473055582
 21
0.2236357461
 31
-0.0
 40
0.9998096356
 41
6.7467263073
 42
8.3176749331
  0
ELLIPSE
  5
614
100
AcDbEntity
  8
0
100
AcDbEllipse
 62
7
  6
CONTINUOUS
 10
-8.3485533447
 20
23.6914208812
 30
0.0
 11
-0.0029088041
 21
0.2886641433
 31
0.0
 40
0.8660144118
 41
-3.150319066
 42
-1.582431609
  0
ELLIPSE
  5
615
100
AcDbEntity
  8
0
100
AcDbEllipse
 62
7
  6
CONTINUOUS
 10
-10.248544883
 20
23.6914208812
 30
0.0
 11
0.0029088041
 21
0.2886641433
 31
0.0
 40
0.8660144118
 41
-4.7007536982
 42
-3.1328662412
  0
ELLIPSE
  5
616
100
AcDbEntity
  8
0
100
AcDbEllipse
 62
7
  6
CONTINUOUS
 10
-10.7985491139
 20
-3.1427675366
 30
0.0
 11
-0.0
 21
0.7248712197
 31
0.0
 40
0.9656887748
 41
-3.1415926536
 42
-2.9982072934
  0
ELLIPSE
  5
617
100
AcDbEntity
  8
0
100
AcDbEllipse
 62
7
  6
CONTINUOUS
 10
-10.7985491139
 20
3.7029595683
 30
0.0
 11
-0.0
 21
0.7248712197
 31
0.0
 40
0.9656887748
 41
-0.1433853602
 42
-0.0
  0
ELLIPSE
  5
618
100
AcDbEntity
  8
0
100
AcDbEllipse
 62
7
  6
CONTINUOUS
 10
11.1014508861
 20
3.7029595683
 30
0.0
 11
-0.0
 21
0.7248712197
 31
0.0
 40
0.9656887748
 41
-0.0
 42
0.1433853602
  0
ELLIPSE
  5
619
100
AcDbEntity
  8
0
100
AcDbEllipse
 62
7
  6
CONTINUOUS
 10
11.1014508861
 20
-3.1427675366
 30
0.0
 11
-0.0
 21
0.7248712197
 31
0.0
 40
0.9656887748
 41
-3.2849780138
 42
-3.1415926536
  0
ELLIPSE
  5
61A
100
AcDbEntity
  8
0
100
AcDbEllipse
 62
7
  6
CONTINUOUS
 10
-9.3554175814
 20
-20.0483246291
 30
0.0
 11
0.0
 21
0.5
 31
0.0
 40
0.0174550649
 41
-3.1328660073
 42
-1.61767183
  0
ELLIPSE
  5
61B
100
AcDbEntity
  8
0
100
AcDbEllipse
 62
7
  6
CONTINUOUS
 10
8.651455117
 20
-23.1312288496
 30
0.0
 11
-0.0029088041
 21
0.2886641433
 31
0.0
 40
0.8660144118
 41
-0.0087264124
 42
1.5591610446
  0
ELLIPSE
  5
61C
100
AcDbEntity
  8
0
100
AcDbEllipse
 62
7
  6
CONTINUOUS
 10
9.6583193537
 20
-20.0483246291
 30
0.0
 11
0.0
 21
0.5
 31
0.0
 40
0.0174550649
 41
-4.4634352855
 42
-3.1503192998
  0
ELLIPSE
  5
61D
100
AcDbEntity
  8
0
100
AcDbEllipse
 62
7
  6
CONTINUOUS
 10
-9.3554175814
 20
20.6085166608
 30
0.0
 11
0.0
 21
0.5
 31
0.0
 40
0.0174550649
 41
-1.5239208236
 42
-0.0087266463
  0
ELLIPSE
  5
61E
100
AcDbEntity
  8
0
100
AcDbEllipse
 62
7
  6
CONTINUOUS
 10
9.6583193537
 20
20.6085166608
 30
0.0
 11
-0.0
 21
0.5
 31
0.0
 40
0.0174550649
 41
0.0087266463
 42
1.3218426319
  0
ELLIPSE
  5
61F
100
AcDbEntity
  8
0
100
AcDbEllipse
 62
7
  6
CONTINUOUS
 10
10.5514466553
 20
-23.1312288496
 30
0.0
 11
0.0029088041
 21
0.2886641433
 31
0.0
 40
0.8660144118
 41
-1.5591610446
 42
0.0087264124
  0
ELLIPSE
  5
620
100
AcDbEntity
  8
0
100
AcDbEllipse
 62
7
  6
CONTINUOUS
 10
-8.3485533447
 20
-23.1312288496
 30
0.0
 11
0.0029088041
 21
0.2886641433
 31
0.0
 40
0.8660144118
 41
-1.5591610446
 42
0.0087264124
  0
ELLIPSE
  5
621
100
AcDbEntity
  8
0
100
AcDbEllipse
 62
7
  6
CONTINUOUS
 10
-10.248544883
 20
-23.1312288496
 30
0.0
 11
-0.0029088041
 21
0.2886641433
 31
0.0
 40
0.8660144118
 41
-0.0087264124
 42
1.5591610446
  0
ELLIPSE
  5
622
100
AcDbEntity
  8
0
100
AcDbEllipse
 62
7
  6
CONTINUOUS
 10
-4.2049153903
 20
23.5364538305
 30
0.0
 11
-0.0
 21
0.5
 31
0.0
 40
0.0058178298
 41
-0.149597008
 42
-0.0058177642
  0
ELLIPSE
  5
623
100
AcDbEntity
  8
0
100
AcDbEllipse
 62
7
  6
CONTINUOUS
 10
4.5078171626
 20
23.5364538305
 30
0.0
 11
0.0
 21
0.5
 31
0.0
 40
0.0058178298
 41
0.0058177642
 42
0.149597008
  0
ELLIPSE
  5
624
100
AcDbEntity
  8
0
100
AcDbEllipse
 62
7
  6
CONTINUOUS
 10
4.5078171626
 20
-22.9762617989
 30
0.0
 11
-0.0
 21
0.5
 31
0.0
 40
0.0058178298
 41
-3.2911896616
 42
-3.1474104178
  0
ELLIPSE
  5
625
100
AcDbEntity
  8
0
100
AcDbEllipse
 62
7
  6
CONTINUOUS
 10
-4.2049153903
 20
-22.9762617989
 30
0.0
 11
0.0
 21
0.5
 31
0.0
 40
0.0058178298
 41
-3.1357748894
 42
-2.9919956456
  0
ELLIPSE
  5
626
100
AcDbEntity
  8
RACCORDO
100
AcDbEllipse
 62
7
  6
CONTINUOUS
 10
-7.9167742035
 20
-22.1559739491
 30
0.0
 11
0.20090327
 21
0.0027587982
 31
0.0
 40
0.1416374191
 41
1.4741468073
 42
1.7704396552
  0
ELLIPSE
  5
627
100
AcDbEntity
  8
RACCORDO
100
AcDbEllipse
 62
7
  6
CONTINUOUS
 10
-7.8985457292
 20
-22.3201784534
 30
0.0
 11
-0.0220972656
 21
0.1990550872
 31
0.0
 40
0.9986126811
 41
0.185886845
 42
1.4600858474
  0
ELLIPSE
  5
628
100
AcDbEntity
  8
RACCORDO
100
AcDbEllipse
 62
7
  6
CONTINUOUS
 10
8.2196759758
 20
22.7161659808
 30
0.0
 11
0.20090327
 21
0.0027587982
 31
0.0
 40
0.1416374191
 41
-1.6674458463
 42
-1.3711529984
  0
ELLIPSE
  5
629
100
AcDbEntity
  8
RACCORDO
100
AcDbEllipse
 62
7
  6
CONTINUOUS
 10
8.2014475015
 20
22.880370485
 30
0.0
 11
-0.0220972656
 21
0.1990550872
 31
0.0
 40
0.9986126811
 41
-2.9557058086
 42
-1.6815068062
  0
ELLIPSE
  5
62A
100
AcDbEntity
  8
RACCORDO
100
AcDbEllipse
 62
7
  6
CONTINUOUS
 10
-7.8985457292
 20
22.880370485
 30
0.0
 11
0.0220972656
 21
0.1990550872
 31
0.0
 40
0.9986126811
 41
-4.601678501
 42
-3.3274794986
  0
ELLIPSE
  5
62B
100
AcDbEntity
  8
RACCORDO
100
AcDbEllipse
 62
7
  6
CONTINUOUS
 10
-7.9167742035
 20
22.7161659808
 30
0.0
 11
0.20090327
 21
-0.0027587982
 31
0.0
 40
0.1416374191
 41
-1.7704396552
 42
-1.4741468073
  0
ELLIPSE
  5
62C
100
AcDbEntity
  8
RACCORDO
100
AcDbEllipse
 62
7
  6
CONTINUOUS
 10
8.2014475015
 20
-22.3201784534
 30
0.0
 11
0.0220972656
 21
0.1990550872
 31
0.0
 40
0.9986126811
 41
-1.4600858474
 42
-0.185886845
  0
ELLIPSE
  5
62D
100
AcDbEntity
  8
RACCORDO
100
AcDbEllipse
 62
7
  6
CONTINUOUS
 10
8.2196759758
 20
-22.1559739491
 30
0.0
 11
0.20090327
 21
-0.0027587982
 31
0.0
 40
0.1416374191
 41
1.3711529984
 42
1.6674458463
  0
ELLIPSE
  5
62E
100
AcDbEntity
  8
RACCORDO
100
AcDbEllipse
 62
7
  6
CONTINUOUS
 10
11.1014508861
 20
3.7029595683
 30
0.0
 11
0.0
 21
0.7248712197
 31
0.0
 40
0.9656887748
 41
0.0
 42
0.1433853602
  0
ELLIPSE
  5
62F
100
AcDbEntity
  8
RACCORDO
100
AcDbEllipse
 62
7
  6
CONTINUOUS
 10
11.1014508861
 20
-3.1427675366
 30
0.0
 11
0.0
 21
0.7248712197
 31
0.0
 40
0.9656887748
 41
-3.2849780138
 42
-3.1415926536
  0
ELLIPSE
  5
630
100
AcDbEntity
  8
RACCORDO
100
AcDbEllipse
 62
7
  6
CONTINUOUS
 10
-10.7985491139
 20
-3.1427675366
 30
0.0
 11
-0.0
 21
0.7248712197
 31
0.0
 40
0.9656887748
 41
-3.1415926536
 42
-2.9982072934
  0
ELLIPSE
  5
631
100
AcDbEntity
  8
RACCORDO
100
AcDbEllipse
 62
7
  6
CONTINUOUS
 10
-10.7985491139
 20
3.7029595683
 30
0.0
 11
-0.0
 21
0.7248712197
 31
0.0
 40
0.9656887748
 41
-0.1433853602
 42
-0.0
  0
ELLIPSE
  5
632
100
AcDbEntity
  8
RACCORDO
100
AcDbEllipse
 62
7
  6
CONTINUOUS
 10
9.6583193537
 20
20.6085166608
 30
0.0
 11
-0.0
 21
0.5
 31
0.0
 40
0.0174550649
 41
0.0087266463
 42
1.3218426319
  0
ELLIPSE
  5
633
100
AcDbEntity
  8
ASSI
100
AcDbEllipse
 62
7
  6
CONTINUOUS
 10
4.5078171626
 20
-22.9762617989
 30
0.0
 11
-0.0
 21
0.5
 31
0.0
 40
0.0058178298
 41
-3.2911896616
 42
-3.1474104178
  0
ELLIPSE
  5
634
100
AcDbEntity
  8
ASSI
100
AcDbEllipse
 62
7
  6
CONTINUOUS
 10
-4.2049153903
 20
-22.9762617989
 30
0.0
 11
-0.0
 21
0.5
 31
0.0
 40
0.0058178298
 41
-3.1357748894
 42
-2.9919956456
  0
ELLIPSE
  5
635
100
AcDbEntity
  8
ASSI
100
AcDbEllipse
 62
7
  6
CONTINUOUS
 10
-4.2049153903
 20
23.5364538305
 30
0.0
 11
0.0
 21
0.5
 31
0.0
 40
0.0058178298
 41
-0.149597008
 42
-0.0058177642
  0
ELLIPSE
  5
636
100
AcDbEntity
  8
ASSI
100
AcDbEllipse
 62
7
  6
CONTINUOUS
 10
4.5078171626
 20
23.5364538305
 30
0.0
 11
0.0
 21
0.5
 31
0.0
 40
0.0058178298
 41
0.0058177642
 42
0.149597008
  0
ELLIPSE
  5
637
100
AcDbEntity
  8
RACCORDO
100
AcDbEllipse
 62
7
  6
CONTINUOUS
 10
-9.3554175814
 20
20.6085166608
 30
0.0
 11
-0.0
 21
0.5
 31
0.0
 40
0.0174550649
 41
-1.5239208236
 42
-0.0087266463
  0
ELLIPSE
  5
638
100
AcDbEntity
  8
RACCORDO
100
AcDbEllipse
 62
7
  6
CONTINUOUS
 10
9.6583193537
 20
-20.0483246291
 30
0.0
 11
-0.0
 21
0.5
 31
0.0
 40
0.0174550649
 41
-4.4634352855
 42
-3.1503192998
  0
ELLIPSE
  5
639
100
AcDbEntity
  8
RACCORDO
100
AcDbEllipse
 62
7
  6
CONTINUOUS
 10
-9.3554175814
 20
-20.0483246291
 30
0.0
 11
0.0
 21
0.5
 31
0.0
 40
0.0174550649
 41
-3.1328660073
 42
-1.61767183
  0
ELLIPSE
  5
63A
100
AcDbEntity
  8
RACCORDO
100
AcDbEllipse
 62
7
  6
CONTINUOUS
 10
8.651455117
 20
23.6914208812
 30
0.0
 11
0.0029088041
 21
0.2886641433
 31
0.0
 40
0.8660144118
 41
-4.7007536982
 42
-3.1328662411
  0
ELLIPSE
  5
63B
100
AcDbEntity
  8
DRAFT
100
AcDbEllipse
 62
7
  6
CONTINUOUS
 10
-3.7765191015
 20
22.6227427788
 30
0.0
 11
0.4279699877
 21
0.0
 31
0.0
 40
0.0087268678
 41
-3.1357748894
 42
-0.0
  0
ELLIPSE
  5
63C
100
AcDbEntity
  8
DRAFT
100
AcDbEllipse
 62
7
  6
CONTINUOUS
 10
4.0794208738
 20
22.6227427788
 30
0.0
 11
0.4279699877
 21
0.0
 31
0.0
 40
0.0087268678
 41
-3.1415926536
 42
-0.0058177642
  0
ELLIPSE
  5
63D
100
AcDbEntity
  8
DRAFT
100
AcDbEllipse
 62
7
  6
CONTINUOUS
 10
-3.7765191015
 20
-22.0625507471
 30
0.0
 11
0.4279699877
 21
-0.0
 31
0.0
 40
0.0087268678
 41
-0.0
 42
3.1357748894
  0
ELLIPSE
  5
63E
100
AcDbEntity
  8
DRAFT
100
AcDbEllipse
 62
7
  6
CONTINUOUS
 10
4.0794208738
 20
-22.0625507471
 30
0.0
 11
0.4279699877
 21
0.0
 31
0.0
 40
0.0087268678
 41
0.0058177642
 42
3.1415926536
  0
ELLIPSE
  5
63F
100
AcDbEntity
  8
RACCORDO
100
AcDbEllipse
 62
7
  6
CONTINUOUS
 10
10.5514466553
 20
23.6914208812
 30
0.0
 11
-0.0029088041
 21
0.2886641433
 31
0.0
 40
0.8660144118
 41
-3.150319066
 42
-1.582431609
  0
ELLIPSE
  5
640
100
AcDbEntity
  8
RACCORDO
100
AcDbEllipse
 62
7
  6
CONTINUOUS
 10
10.7839196572
 20
-21.6286118128
 30
0.0
 11
0.4473055582
 21
0.2236357461
 31
0.0
 40
0.9998096356
 41
-2.0344896259
 42
-1.8106421536
  0
ELLIPSE
  5
641
100
AcDbEntity
  8
RACCORDO
100
AcDbEllipse
 62
7
  6
CONTINUOUS
 10
10.8013747221
 20
-21.619884945
 30
0.0
 11
-0.4473055582
 21
-0.2236357461
 31
-0.0
 40
0.9998096356
 41
7.3902883349
 42
8.9612369607
  0
ELLIPSE
  5
642
100
AcDbEntity
  8
RACCORDO
100
AcDbEllipse
 62
7
  6
CONTINUOUS
 10
10.7839196572
 20
22.1888038444
 30
0.0
 11
0.4473055582
 21
-0.2236357461
 31
0.0
 40
0.9998096356
 41
1.8106421536
 42
2.0344896259
  0
ELLIPSE
  5
643
100
AcDbEntity
  8
RACCORDO
100
AcDbEllipse
 62
7
  6
CONTINUOUS
 10
-10.248544883
 20
23.6914208812
 30
0.0
 11
0.0029088041
 21
0.2886641433
 31
0.0
 40
0.8660144118
 41
-4.7007536982
 42
-3.1328662412
  0
ELLIPSE
  5
644
100
AcDbEntity
  8
RACCORDO
100
AcDbEllipse
 62
7
  6
CONTINUOUS
 10
-10.4810178849
 20
-21.6286118128
 30
0.0
 11
0.4473055582
 21
-0.2236357461
 31
0.0
 40
0.9998096356
 41
-1.3309505
 42
-1.1071030277
  0
ELLIPSE
  5
645
100
AcDbEntity
  8
RACCORDO
100
AcDbEllipse
 62
7
  6
CONTINUOUS
 10
-10.4810178849
 20
22.1888038444
 30
0.0
 11
0.4473055582
 21
0.2236357461
 31
0.0
 40
0.9998096356
 41
1.1071030277
 42
1.3309505
  0
ELLIPSE
  5
646
100
AcDbEntity
  8
RACCORDO
100
AcDbEllipse
 62
7
  6
CONTINUOUS
 10
-10.4984729498
 20
22.1800769766
 30
0.0
 11
0.4473055582
 21
0.2236357461
 31
0.0
 40
0.9998096356
 41
7.3902883349
 42
8.9612369607
  0
ELLIPSE
  5
647
100
AcDbEntity
  8
RACCORDO
100
AcDbEllipse
 62
7
  6
CONTINUOUS
 10
-8.3485533447
 20
23.6914208812
 30
0.0
 11
-0.0029088041
 21
0.2886641433
 31
0.0
 40
0.8660144118
 41
-3.150319066
 42
-1.582431609
  0
ELLIPSE
  5
648
100
AcDbEntity
  8
RACCORDO
100
AcDbEllipse
 62
7
  6
CONTINUOUS
 10
-10.4984729498
 20
-21.619884945
 30
0.0
 11
-0.4473055582
 21
0.2236357461
 31
-0.0
 40
0.9998096356
 41
6.7467263073
 42
8.3176749331
  0
ELLIPSE
  5
649
100
AcDbEntity
  8
RACCORDO
100
AcDbEllipse
 62
7
  6
CONTINUOUS
 10
10.8013747221
 20
22.1800769766
 30
0.0
 11
0.4473055582
 21
-0.2236357461
 31
0.0
 40
0.9998096356
 41
6.7467263073
 42
8.3176749331
  0
ELLIPSE
  5
64A
100
AcDbEntity
  8
RACCORDO
100
AcDbEllipse
 62
7
  6
CONTINUOUS
 10
10.5514466553
 20
-23.1312288496
 30
0.0
 11
0.0029088041
 21
0.2886641433
 31
0.0
 40
0.8660144118
 41
-1.5591610446
 42
0.0087264124
  0
ELLIPSE
  5
64B
100
AcDbEntity
  8
RACCORDO
100
AcDbEllipse
 62
7
  6
CONTINUOUS
 10
8.651455117
 20
-23.1312288496
 30
0.0
 11
-0.0029088041
 21
0.2886641433
 31
0.0
 40
0.8660144118
 41
-0.0087264124
 42
1.5591610446
  0
ELLIPSE
  5
64C
100
AcDbEntity
  8
RACCORDO
100
AcDbEllipse
 62
7
  6
CONTINUOUS
 10
-10.248544883
 20
-23.1312288496
 30
0.0
 11
-0.0029088041
 21
0.2886641433
 31
0.0
 40
0.8660144118
 41
-0.0087264124
 42
1.5591610446
  0
ELLIPSE
  5
64D
100
AcDbEntity
  8
RACCORDO
100
AcDbEllipse
 62
7
  6
CONTINUOUS
 10
-8.3485533447
 20
-23.1312288496
 30
0.0
 11
0.0029088041
 21
0.2886641433
 31
0.0
 40
0.8660144118
 41
-1.5591610446
 42
0.0087264124
  0
ENDSEC
  0
SECTION
  2
OBJECTS
  0
DICTIONARY
  5
C
100
AcDbDictionary
280
0
281
1
  3
ACAD_GROUP
350
D
  3
ACAD_MLINESTYLE
350
17
  3
ACAD_LAYOUT
350
1A
  3
ACAD_PLOTSETTINGS
350
19
  3
ACAD_PLOTSTYLENAME
350
E
  0
DICTIONARY
  5
D
102
{ACAD_REACTORS
330
C
102
}
100
AcDbDictionary
280
0
281
1
  0
ACDBDICTIONARYWDFLT
  5
E
102
{ACAD_REACTORS
330
C
102
}
100
AcDbDictionary
281
1
  3
Normal
350
F
100
AcDbDictionaryWithDefault
340
F
  0
DICTIONARY
  5
17
102
{ACAD_REACTORS
330
C
102
}
100
AcDbDictionary
280
0
281
1
  3
Standard
350
18
  0
DICTIONARY
  5
19
102
{ACAD_REACTORS
330
C
102
}
100
AcDbDictionary
281
1
  0
DICTIONARY
  5
1A
102
{ACAD_REACTORS
330
C
102
}
100
AcDbDictionary
281
1
  3
Model
350
64E
  3
Layout1
350
64F
  0
ACDBPLACEHOLDER
  5
F
102
{ACAD_REACTORS
330
E
102
}
  0
MLINESTYLE
  5
18
102
{ACAD_REACTORS
330
17
102
}
100
AcDbMlineStyle
  2
STANDARD
 70
0
  3

 62
256
 51
90.0
 52
90.0
 71
2
 49
0.5
 62
256
  6
BYLAYER
 49
-0.5
 62
256
  6
BYLAYER
  0
LAYOUT
  5
64E
102
{ACAD_REACTORS
330
1A
102
}
100
AcDbPlotSettings
  1

  2
none_device
  4
ISO_A4_(297.00_x_210.00_MM)
  6

 40
0.0
 41
0.0
 42
0.0
 43
0.0
 44
297.0
 45
210.0
 46
0.0
 47
0.0
 48
0.0
 49
0.0
140
0.0
141
0.0
142
1.0
143
1.0
 70
1024
 72
1
 73
0
 74
0
  7

 75
0
147
1.0
148
0.0
149
0.0
100
AcDbLayout
  1
Model
 70
0
 71
0
 10
0.0
 20
0.0
 11
297.0
 21
210.0
 12
0.0
 22
0.0
 32
0.0
 14
0.0
 24
0.0
 34
0.0
 15
0.0
 25
0.0
 35
0.0
146
0.0
 13
0.0
 23
0.0
 33
0.0
 16
1.0
 26
0.0
 36
0.0
 17
0.0
 27
1.0
 37
0.0
 76
0
330
220
345
0
346
0
  0
LAYOUT
  5
64F
102
{ACAD_REACTORS
330
1A
102
}
100
AcDbPlotSettings
  1

  2
none_device
  4
ISO_A4_(297.00_x_210.00_MM)
  6

 40
0.0
 41
0.0
 42
0.0
 43
0.0
 44
297.0
 45
210.0
 46
0.0
 47
0.0
 48
0.0
 49
0.0
140
0.0
141
0.0
142
1.0
143
1.0
 70
0
 72
1
 73
0
 74
0
  7

 75
0
147
1.0
148
0.0
149
0.0
100
AcDbLayout
  1
Layout1
 70
0
 71
1
 10
0.0
 20
0.0
 11
297.0
 21
210.0
 12
0.0
 22
0.0
 32
0.0
 14
0.0
 24
0.0
 34
0.0
 15
0.0
 25
0.0
 35
0.0
146
0.0
 13
0.0
 23
0.0
 33
0.0
 16
1.0
 26
0.0
 36
0.0
 17
0.0
 27
1.0
 37
0.0
 76
0
330
221
345
0
346
0
  0
ENDSEC
  0
EOF
