0
SECTION
2
HEADER
9
$ACADVER
1
AC1014
9
$HANDSEED
5
       3EA
9
$EXTMAX
10
297.0000000000
20
210.0000000000
9
$EXTMIN
10
0.0000000000
20
0.0000000000
9
$LIMMIN
10
0.0000000000
20
0.0000000000
9
$LIMMAX
10
297.0000000000
20
210.0000000000
9
$VIEWCTR
10
148.5000000000
20
105.0000000000
9
$VIEWSIZE
40
210.0000000000
9
$CLAYER
8
0
9
$LTSCALE
40
16.3350000000
9
$CELTYPE
6
BYLAYER
9
$DIMSCALE
40
1
9
$DIMASZ
40
3.0000000000
9
$DIMEXO
40
1.8562500000
9
$DIMDLI
40
11.2860000000
9
$DIMEXE
40
5.3460000000
9
$DIMCEN
40
2.6730000000
9
$DIMLFAC
40
1.0000000000
9
$DIMTXT
40
3.0000000000
9
$DIMTOL
70
1
9
$DIMLIM
70
0
9
$DIMTFAC
40
1.0000000000
9
$DIMTP
40
0.0100000000
9
$DIMTM
40
0.0100000000
9
$MEASUREMENT
70
1
0
ENDSEC
0
SECTION
2
CLASSES
0
ENDSEC
0
SECTION
2
TABLES
0
TABLE
2
VPORT
5
8
100
AcDbSymbolTable
70
2
0
VPORT
5
1F4
100
AcDbSymbolTableRecord
100
AcDbViewportTableRecord
2
*ACTIVE
70
0
10
0.0
20
0.0
11
1.0
21
1.0
12
148.5000000000
22
105.0000000000
13
0.0
23
0.0
14
1.0
24
1.0
15
0.0
25
0.0
16
0.0
26
0.0
36
1.0
17
0.0
27
0.0
37
0.0
40
210.0000000000
41
1.4142857143
42
50.0
43
0.0
44
0.0
50
0.0
51
0.0
71
0
72
100
73
1
74
1
75
0
76
0
77
0
78
0
0
ENDTAB
0
TABLE
2
LTYPE
5
5
100
AcDbSymbolTable
70
6
0
LTYPE
5
14
100
AcDbSymbolTableRecord
100
AcDbLinetypeTableRecord
2
BYBLOCK
70
0
3

72
65
73
0
40
0.0
0
LTYPE
5
15
100
AcDbSymbolTableRecord
100
AcDbLinetypeTableRecord
2
BYLAYER
70
0
3

72
65
73
0
40
0.0
0
LTYPE
5
16
100
AcDbSymbolTableRecord
100
AcDbLinetypeTableRecord
2
CONTINUOUS
70
64
3
Solid line
72
65
73
0
40
0
0
LTYPE
5
1F5
100
AcDbSymbolTableRecord
100
AcDbLinetypeTableRecord
2
CENTER
70
64
3
____ _ ____ _ ____ _ ____ _ ____ _ ____ _ ____
72
65
73
4
40
0.6
49
0.375
74
0
49
-0.075
74
0
49
0.075
74
0
49
-0.075
74
0
0
LTYPE
5
1F6
100
AcDbSymbolTableRecord
100
AcDbLinetypeTableRecord
2
HIDDEN
70
64
3
- - - - - - - - - - - - - - - - - - - -
72
65
73
2
40
0.2
49
0.1
74
0
49
-0.1
74
0
0
LTYPE
5
1F7
100
AcDbSymbolTableRecord
100
AcDbLinetypeTableRecord
2
PHANTOM
70
64
3
_____ _ _ _____ _ _ _____ _ _ _____
72
65
73
6
40
0.8
49
0.45
74
0
49
-0.05
74
0
49
0.1
74
0
49
-0.05
74
0
49
0.1
74
0
49
-0.05
74
0
0
LTYPE
5
1F8
100
AcDbSymbolTableRecord
100
AcDbLinetypeTableRecord
2
DOT
70
64
3
. . . . . . . . . . . . . . . . . . . .
72
65
73
2
40
0.2
49
0.1
74
0
49
-0.1
74
0
0
LTYPE
5
1F9
100
AcDbSymbolTableRecord
100
AcDbLinetypeTableRecord
2
DASHED
70
64
3
- - - - - - - - - - - - - - - - - - - -
72
65
73
2
40
0.2
49
0.1
74
0
49
-0.1
74
0
0
ENDTAB
0
TABLE
2
LAYER
5
2
100
AcDbSymbolTable
70
36
0
LAYER
5
10
100
AcDbSymbolTableRecord
100
AcDbLayerTableRecord
2
0
70
0
62
7
6
CONTINUOUS
0
LAYER
5
1FA
100
AcDbSymbolTableRecord
100
AcDbLayerTableRecord
2
DEFAULT_1
70
0
62
7
6
CENTER
0
LAYER
5
1FB
100
AcDbSymbolTableRecord
100
AcDbLayerTableRecord
2
DEFAULT_2
70
0
62
8
6
HIDDEN
0
LAYER
5
1FC
100
AcDbSymbolTableRecord
100
AcDbLayerTableRecord
2
DEFAULT_3
70
0
62
7
6
PHANTOM
0
LAYER
5
1FD
100
AcDbSymbolTableRecord
100
AcDbLayerTableRecord
2
ASSI
70
0
62
7
6
CONTINUOUS
0
LAYER
5
1FE
100
AcDbSymbolTableRecord
100
AcDbLayerTableRecord
2
COLOR9
70
0
62
7
6
CONTINUOUS
0
LAYER
5
1FF
100
AcDbSymbolTableRecord
100
AcDbLayerTableRecord
2
COORDINATE
70
0
62
7
6
CONTINUOUS
0
LAYER
5
200
100
AcDbSymbolTableRecord
100
AcDbLayerTableRecord
2
COORD_ORIGINE
70
0
62
7
6
CONTINUOUS
0
LAYER
5
201
100
AcDbSymbolTableRecord
100
AcDbLayerTableRecord
2
CURVE
70
0
62
7
6
CONTINUOUS
0
LAYER
5
202
100
AcDbSymbolTableRecord
100
AcDbLayerTableRecord
2
DRAFT
70
0
62
7
6
CONTINUOUS
0
LAYER
5
203
100
AcDbSymbolTableRecord
100
AcDbLayerTableRecord
2
INTF_YELLOW
70
0
62
7
6
CONTINUOUS
0
LAYER
5
204
100
AcDbSymbolTableRecord
100
AcDbLayerTableRecord
2
NOTE
70
0
62
7
6
CONTINUOUS
0
LAYER
5
205
100
AcDbSymbolTableRecord
100
AcDbLayerTableRecord
2
PIANI
70
0
62
7
6
CONTINUOUS
0
LAYER
5
206
100
AcDbSymbolTableRecord
100
AcDbLayerTableRecord
2
PIANI_ORIGINE
70
0
62
7
6
CONTINUOUS
0
LAYER
5
207
100
AcDbSymbolTableRecord
100
AcDbLayerTableRecord
2
PIANI_RIFERIMENTO
70
0
62
7
6
CONTINUOUS
0
LAYER
5
208
100
AcDbSymbolTableRecord
100
AcDbLayerTableRecord
2
PUNTI
70
0
62
7
6
CONTINUOUS
0
LAYER
5
209
100
AcDbSymbolTableRecord
100
AcDbLayerTableRecord
2
RACCORDO
70
0
62
7
6
CONTINUOUS
0
LAYER
5
20A
100
AcDbSymbolTableRecord
100
AcDbLayerTableRecord
2
SUPERFICI
70
0
62
7
6
CONTINUOUS
0
LAYER
5
20B
100
AcDbSymbolTableRecord
100
AcDbLayerTableRecord
2
TRASH
70
0
62
7
6
CONTINUOUS
0
LAYER
5
20C
100
AcDbSymbolTableRecord
100
AcDbLayerTableRecord
2
XSEC_DATUMS
70
0
62
7
6
CONTINUOUS
0
ENDTAB
0
TABLE
2
STYLE
5
3
100
AcDbSymbolTable
70
1
0
STYLE
5
11
100
AcDbSymbolTableRecord
100
AcDbTextStyleTableRecord
2
STANDARD
70
0
40
0.0
41
0.8000000000
50
0.0
71
0
42
0.2
3
txt
4

0
ENDTAB
0
TABLE
2
VIEW
5
6
100
AcDbSymbolTable
70
0
0
ENDTAB
0
TABLE
2
UCS
5
7
100
AcDbSymbolTable
70
0
0
ENDTAB
0
TABLE
2
APPID
5
9
100
AcDbSymbolTable
70
1
0
APPID
5
20D
100
AcDbSymbolTableRecord
100
AcDbRegAppTableRecord
2
ACAD
70
0
0
ENDTAB
0
TABLE
2
DIMSTYLE
5
A
100
AcDbSymbolTable
70
1
0
DIMSTYLE
105
20E
100
AcDbSymbolTableRecord
100
AcDbDimStyleTableRecord
2
STANDARD
70
0
3

4

5

6

7

40
1.0
41
3.0000000000
42
0.0625
43
0.38
44
0.18
45
0.0
46
0.0
47
0.0100000000
48
0.0100000000
140
3.0000000000
141
0.09
142
0.0
143
25.4
144
1.0000000000
145
0.0
146
1.0000000000
147
0.09
71
1
72
0
73
0
74
0
75
0
76
0
77
1
78
8
170
0
171
2
172
0
173
0
174
0
175
0
176
0
177
0
178
0
270
2
271
2
272
2
273
2
274
2
340
11
275
0
280
0
281
0
282
0
283
1
284
8
285
0
286
0
287
3
288
0
0
ENDTAB
0
TABLE
2
BLOCK_RECORD
5
1
100
AcDbSymbolTable
70
0
0
BLOCK_RECORD
5
1B
100
AcDbSymbolTableRecord
100
AcDbBlockTableRecord
2
*MODEL_SPACE
0
BLOCK_RECORD
5
1C
100
AcDbSymbolTableRecord
100
AcDbBlockTableRecord
2
*PAPER_SPACE
0
ENDTAB
0
ENDSEC
0
SECTION
2
BLOCKS
0
BLOCK
5
1E
100
AcDbEntity
8
0
100
AcDbBlockBegin
2
*MODEL_SPACE
70
0
10
0.0
20
0.0
30
0.0
3
*MODEL_SPACE
1

0
ENDBLK
5
1F
100
AcDbEntity
8
0
100
AcDbBlockEnd
0
BLOCK
5
20
100
AcDbEntity
8
0
100
AcDbBlockBegin
2
*PAPER_SPACE
70
0
10
0.0
20
0.0
30
0.0
3
*PAPER_SPACE
1

0
ENDBLK
5
21
100
AcDbEntity
8
0
100
AcDbBlockEnd
0
ENDSEC
0
SECTION
2
ENTITIES
0
LINE
5
20F
100
AcDbEntity
8
0
100
AcDbLine
62
7
6
CONTINUOUS
10
-10.4011091841
20
-21.8489494871
11
10.5992334910
21
-21.8489494871
0
LINE
5
210
100
AcDbEntity
8
0
100
AcDbLine
62
7
6
CONTINUOUS
10
9.5991649560
20
-20.3489494871
11
-9.4010406490
21
-20.3489494871
0
LINE
5
211
100
AcDbEntity
8
0
100
AcDbLine
62
7
6
CONTINUOUS
10
4.0623608187
20
-20.3018148283
11
3.9357634882
21
-20.3018148283
0
LINE
5
212
100
AcDbEntity
8
0
100
AcDbLine
62
7
6
CONTINUOUS
10
-3.7376391813
20
-20.3018148283
11
-3.8642365118
21
-20.3018148283
0
LINE
5
213
100
AcDbEntity
8
0
100
AcDbLine
62
9
6
CONTINUOUS
10
-9.3105142980
20
-20.2584231361
11
-7.3104114955
21
-20.2584231361
0
LINE
5
214
100
AcDbEntity
8
0
100
AcDbLine
62
9
6
CONTINUOUS
10
-5.9009378465
20
-20.2584231361
11
-4.1879698133
21
-20.2584231361
0
LINE
5
215
100
AcDbEntity
8
0
100
AcDbLine
62
9
6
CONTINUOUS
10
-3.4139058798
20
-20.2584231361
11
3.6120301867
21
-20.2584231361
0
LINE
5
216
100
AcDbEntity
8
0
100
AcDbLine
62
9
6
CONTINUOUS
10
4.3860941202
20
-20.2584231361
11
6.0990621535
21
-20.2584231361
0
LINE
5
217
100
AcDbEntity
8
0
100
AcDbLine
62
9
6
CONTINUOUS
10
7.5085358025
20
-20.2584231361
11
9.5086386050
21
-20.2584231361
0
LINE
5
218
100
AcDbEntity
8
0
100
AcDbLine
62
9
6
CONTINUOUS
10
-9.3105142980
20
-20.0006738225
11
-7.0526621819
21
-20.0006738225
0
LINE
5
219
100
AcDbEntity
8
0
100
AcDbLine
62
9
6
CONTINUOUS
10
-5.9009378465
20
-20.0006738225
11
-4.1930173192
21
-20.0006738225
0
LINE
5
21A
100
AcDbEntity
8
0
100
AcDbLine
62
9
6
CONTINUOUS
10
-3.4088583739
20
-20.0006738225
11
3.6069826808
21
-20.0006738225
0
LINE
5
21B
100
AcDbEntity
8
0
100
AcDbLine
62
9
6
CONTINUOUS
10
4.3911416261
20
-20.0006738225
11
6.0990621535
21
-20.0006738225
0
LINE
5
21C
100
AcDbEntity
8
0
100
AcDbLine
62
9
6
CONTINUOUS
10
7.2507864889
20
-20.0006738225
11
9.5086386050
21
-20.0006738225
0
LINE
5
21D
100
AcDbEntity
8
0
100
AcDbLine
62
7
6
CONTINUOUS
10
6.0990621535
20
-19.7489494871
11
6.9990621535
21
-19.7489494871
0
LINE
5
21E
100
AcDbEntity
8
0
100
AcDbLine
62
7
6
CONTINUOUS
10
-5.9009378465
20
-19.7489494871
11
-6.8009378465
21
-19.7489494871
0
LINE
5
21F
100
AcDbEntity
8
0
100
AcDbLine
62
9
6
CONTINUOUS
10
3.6358091797
20
-19.6783845101
11
4.3623151272
21
-19.6783845101
0
LINE
5
220
100
AcDbEntity
8
0
100
AcDbLine
62
9
6
CONTINUOUS
10
-3.4376848728
20
-19.6783845101
11
-4.1641908203
21
-19.6783845101
0
LINE
5
221
100
AcDbEntity
8
0
100
AcDbLine
62
9
6
CONTINUOUS
10
4.0623608187
20
-19.3813040895
11
3.9357634882
21
-19.3813040895
0
LINE
5
222
100
AcDbEntity
8
0
100
AcDbLine
62
9
6
CONTINUOUS
10
-3.7376391813
20
-19.3813040895
11
-3.8642365118
21
-19.3813040895
0
LINE
5
223
100
AcDbEntity
8
0
100
AcDbLine
62
7
6
CONTINUOUS
10
4.0833068966
20
-19.2489494871
11
3.9148174103
21
-19.2489494871
0
LINE
5
224
100
AcDbEntity
8
0
100
AcDbLine
62
7
6
CONTINUOUS
10
-3.7166931034
20
-19.2489494871
11
-3.8851825897
21
-19.2489494871
0
LINE
5
225
100
AcDbEntity
8
0
100
AcDbLine
62
9
6
CONTINUOUS
10
3.6148631018
20
-18.5965281923
11
4.3832612052
21
-18.5965281923
0
LINE
5
226
100
AcDbEntity
8
0
100
AcDbLine
62
9
6
CONTINUOUS
10
-3.4167387948
20
-18.5965281923
11
-4.1851368982
21
-18.5965281923
0
LINE
5
227
100
AcDbEntity
8
0
100
AcDbLine
62
9
6
CONTINUOUS
10
-3.8851825897
20
-18.2969393318
11
-3.7166931034
21
-18.2969393318
0
LINE
5
228
100
AcDbEntity
8
0
100
AcDbLine
62
9
6
CONTINUOUS
10
3.9148174103
20
-18.2969393318
11
4.0833068966
21
-18.2969393318
0
LINE
5
229
100
AcDbEntity
8
0
100
AcDbLine
62
7
6
CONTINUOUS
10
-3.8972492638
20
-18.2607098710
11
-3.7046264293
21
-18.2607098710
0
LINE
5
22A
100
AcDbEntity
8
0
100
AcDbLine
62
7
6
CONTINUOUS
10
3.9027507362
20
-18.2607098710
11
4.0953735707
21
-18.2607098710
0
LINE
5
22B
100
AcDbEntity
8
0
100
AcDbLine
62
7
6
CONTINUOUS
10
-9.2987099147
20
-16.2216254509
11
9.4968342216
21
-16.2216254509
0
LINE
5
22C
100
AcDbEntity
8
0
100
AcDbLine
62
7
6
CONTINUOUS
10
4.7593695327
20
-16.1489494871
11
-4.5612452258
21
-16.1489494871
0
LINE
5
22D
100
AcDbEntity
8
0
100
AcDbLine
62
7
6
CONTINUOUS
10
-4.1879698133
20
-20.2584231361
11
-4.1641908203
21
-20.2940961540
0
LINE
5
22E
100
AcDbEntity
8
0
100
AcDbLine
62
7
6
CONTINUOUS
10
-7.5392357322
20
-10.5251994871
11
-7.4434910628
21
-10.5876996063
0
LINE
5
22F
100
AcDbEntity
8
0
100
AcDbLine
62
7
6
CONTINUOUS
10
-7.3796612831
20
-10.8689496063
11
-7.1562569650
21
-11.0564496063
0
LINE
5
230
100
AcDbEntity
8
0
100
AcDbLine
62
7
6
CONTINUOUS
10
-7.4434910628
20
-10.5876996063
11
-7.3158315035
21
-10.6189494871
0
LINE
5
231
100
AcDbEntity
8
0
100
AcDbLine
62
7
6
CONTINUOUS
10
-7.3158315035
20
-10.4314494871
11
-7.4434910628
21
-10.3689493679
0
LINE
5
232
100
AcDbEntity
8
0
100
AcDbLine
62
7
6
CONTINUOUS
10
-8.1775335955
20
-9.1189494871
11
-8.0498740139
21
-9.1814496063
0
LINE
5
233
100
AcDbEntity
8
0
100
AcDbLine
62
7
6
CONTINUOUS
10
-7.2520016345
20
-9.6814494871
11
-7.1562569650
21
-9.7439496063
0
LINE
5
234
100
AcDbEntity
8
0
100
AcDbLine
62
7
6
CONTINUOUS
10
-7.9541293445
20
-9.0564493679
11
-8.1456187057
21
-8.9314494871
0
LINE
5
235
100
AcDbEntity
8
0
100
AcDbLine
62
7
6
CONTINUOUS
10
-6.9009378465
20
-11.0564496063
11
-7.1243420752
21
-10.8689496063
0
LINE
5
236
100
AcDbEntity
8
0
100
AcDbLine
62
7
6
CONTINUOUS
10
-8.2732782761
20
-9.0251994871
11
-8.1775335955
21
-9.1189494871
0
LINE
5
237
100
AcDbEntity
8
0
100
AcDbLine
62
7
6
CONTINUOUS
10
-6.9966825160
20
-9.6814494871
11
-7.1243420752
21
-9.5564496063
0
LINE
5
238
100
AcDbEntity
8
0
100
AcDbLine
62
7
6
CONTINUOUS
10
-7.4434910628
20
-10.3689493679
11
-8.2413633751
21
-9.4939494871
0
LINE
5
239
100
AcDbEntity
8
0
100
AcDbLine
62
7
6
CONTINUOUS
10
-8.2413633751
20
-9.7439496063
11
-7.5392357322
21
-10.5251994871
0
LINE
5
23A
100
AcDbEntity
8
0
100
AcDbLine
62
7
6
CONTINUOUS
10
-8.1456187057
20
-8.9314494871
11
-8.2094484853
21
-8.8376994871
0
LINE
5
23B
100
AcDbEntity
8
0
100
AcDbLine
62
7
6
CONTINUOUS
10
-7.1562569650
20
-9.7439496063
11
-7.0924271854
21
-9.8376996063
0
LINE
5
23C
100
AcDbEntity
8
0
100
AcDbLine
62
7
6
CONTINUOUS
10
-8.3690229539
20
-8.8689493679
11
-8.2732782761
21
-9.0251994871
0
LINE
5
23D
100
AcDbEntity
8
0
100
AcDbLine
62
7
6
CONTINUOUS
10
-10.9009378465
20
21.8512218504
11
-10.9009378465
21
-21.3491208246
0
LINE
5
23E
100
AcDbEntity
8
0
100
AcDbLine
62
7
6
CONTINUOUS
10
-10.4009378465
20
6.2510505129
11
-10.4009378465
21
-5.7489494871
0
LINE
5
23F
100
AcDbEntity
8
0
100
AcDbLine
62
7
6
CONTINUOUS
10
6.5433981535
20
-11.2500634871
11
8.5427351535
21
-11.2500634871
0
LINE
5
240
100
AcDbEntity
8
0
100
AcDbLine
62
7
6
CONTINUOUS
10
-8.4009378465
20
-11.2439496063
11
-6.9009378465
21
-11.2439496063
0
LINE
5
241
100
AcDbEntity
8
0
100
AcDbLine
62
7
6
CONTINUOUS
10
-7.1562569650
20
-11.0564496063
11
-8.4009378465
21
-11.0564496063
0
LINE
5
242
100
AcDbEntity
8
0
100
AcDbLine
62
7
6
CONTINUOUS
10
8.5427351535
20
-10.9063264871
11
7.1306421535
21
-10.9063184871
0
LINE
5
243
100
AcDbEntity
8
0
100
AcDbLine
62
7
6
CONTINUOUS
10
-7.1243420752
20
-10.8689496063
11
-7.3796612831
21
-10.8689496063
0
LINE
5
244
100
AcDbEntity
8
0
100
AcDbLine
62
7
6
CONTINUOUS
10
-8.4009378465
20
-10.6189494871
11
-8.2413633751
21
-10.6189494871
0
LINE
5
245
100
AcDbEntity
8
0
100
AcDbLine
62
7
6
CONTINUOUS
10
-7.3158315035
20
-10.6189494871
11
-7.2520016345
21
-10.6189494871
0
LINE
5
246
100
AcDbEntity
8
0
100
AcDbLine
62
7
6
CONTINUOUS
10
-7.2520016345
20
-10.4314494871
11
-7.3158315035
21
-10.4314494871
0
LINE
5
247
100
AcDbEntity
8
0
100
AcDbLine
62
7
6
CONTINUOUS
10
8.5427351535
20
-9.6354544871
11
6.5433981535
21
-9.6354544871
0
LINE
5
248
100
AcDbEntity
8
0
100
AcDbLine
62
7
6
CONTINUOUS
10
6.5433981535
20
-9.9791874871
11
7.9400791535
21
-9.9840314871
0
LINE
5
249
100
AcDbEntity
8
0
100
AcDbLine
62
7
6
CONTINUOUS
10
-7.7626399609
20
-9.0876996063
11
-7.9541293445
21
-9.0564493679
0
LINE
5
24A
100
AcDbEntity
8
0
100
AcDbLine
62
7
6
CONTINUOUS
10
-7.9541293445
20
-9.2126994871
11
-7.7945548507
21
-9.2439493679
0
LINE
5
24B
100
AcDbEntity
8
0
100
AcDbLine
62
7
6
CONTINUOUS
10
-7.1243420752
20
-9.5564496063
11
-7.2520016345
21
-9.5251993679
0
LINE
5
24C
100
AcDbEntity
8
0
100
AcDbLine
62
7
6
CONTINUOUS
10
-8.0498740139
20
-9.1814496063
11
-7.9541293445
21
-9.2126994871
0
LINE
5
24D
100
AcDbEntity
8
0
100
AcDbLine
62
7
6
CONTINUOUS
10
-7.2520016345
20
-8.1814494871
11
-7.3477463933
21
-8.1501994275
0
LINE
5
24E
100
AcDbEntity
8
0
100
AcDbLine
62
7
6
CONTINUOUS
10
-8.0498740139
20
-7.8064494871
11
-7.9541293445
21
-7.8376995467
0
LINE
5
24F
100
AcDbEntity
8
0
100
AcDbLine
62
7
6
CONTINUOUS
10
-8.1775335955
20
-7.7439495467
11
-8.0498740139
21
-7.8064494871
0
LINE
5
250
100
AcDbEntity
8
0
100
AcDbLine
62
7
6
CONTINUOUS
10
-7.1243420752
20
-8.2439494275
11
-7.2520016345
21
-8.1814494871
0
LINE
5
251
100
AcDbEntity
8
0
100
AcDbLine
62
7
6
CONTINUOUS
10
-7.3477463933
20
-8.3064495467
11
-7.1562569650
21
-8.4314496063
0
LINE
5
252
100
AcDbEntity
8
0
100
AcDbLine
62
7
6
CONTINUOUS
10
-7.9541293445
20
-7.6814494275
11
-8.1456187057
21
-7.5564495467
0
LINE
5
253
100
AcDbEntity
8
0
100
AcDbLine
62
7
6
CONTINUOUS
10
-7.3477463933
20
-6.9314494275
11
-7.1562569650
21
-7.0564494871
0
LINE
5
254
100
AcDbEntity
8
0
100
AcDbLine
62
7
6
CONTINUOUS
10
-8.2732782761
20
-7.6501995467
11
-8.1775335955
21
-7.7439495467
0
LINE
5
255
100
AcDbEntity
8
0
100
AcDbLine
62
7
6
CONTINUOUS
10
-7.0285974058
20
-8.3376994275
11
-7.1243420752
21
-8.2439494275
0
LINE
5
256
100
AcDbEntity
8
0
100
AcDbLine
62
7
6
CONTINUOUS
10
-7.0285974058
20
-6.9626994871
11
-7.1243420752
21
-6.8689494871
0
LINE
5
257
100
AcDbEntity
8
0
100
AcDbLine
62
7
6
CONTINUOUS
10
-7.4434910628
20
-6.2439494573
11
-8.2413633751
21
-5.3689494871
0
LINE
5
258
100
AcDbEntity
8
0
100
AcDbLine
62
7
6
CONTINUOUS
10
-8.2413633751
20
-5.6189494946
11
-7.5392357322
21
-6.4001994871
0
LINE
5
259
100
AcDbEntity
8
0
100
AcDbLine
62
7
6
CONTINUOUS
10
-8.1456187057
20
-7.5564495467
11
-8.2094484853
21
-7.4626995467
0
LINE
5
25A
100
AcDbEntity
8
0
100
AcDbLine
62
7
6
CONTINUOUS
10
-7.1562569650
20
-8.4314496063
11
-7.0924271854
21
-8.5251996063
0
LINE
5
25B
100
AcDbEntity
8
0
100
AcDbLine
62
7
6
CONTINUOUS
10
-7.1562569650
20
-7.0564494871
11
-7.0924271854
21
-7.1501994871
0
LINE
5
25C
100
AcDbEntity
8
0
100
AcDbLine
62
7
6
CONTINUOUS
10
-8.3690229539
20
-7.4939494275
11
-8.2732782761
21
-7.6501995467
0
LINE
5
25D
100
AcDbEntity
8
0
100
AcDbLine
62
7
6
CONTINUOUS
10
-6.9328527364
20
-8.4939493679
11
-7.0285974058
21
-8.3376994275
0
LINE
5
25E
100
AcDbEntity
8
0
100
AcDbLine
62
7
6
CONTINUOUS
10
-6.9328527364
20
-7.1189494275
11
-7.0285974058
21
-6.9626994871
0
LINE
5
25F
100
AcDbEntity
8
0
100
AcDbLine
62
7
6
CONTINUOUS
10
-6.9328527364
20
-9.8064493679
11
-6.9966825160
21
-9.6814494871
0
LINE
5
260
100
AcDbEntity
8
0
100
AcDbLine
62
9
6
CONTINUOUS
10
-4.1963696235
20
-18.5628026124
11
-4.1851368982
21
-18.5965281923
0
LINE
5
261
100
AcDbEntity
8
0
100
AcDbLine
62
7
6
CONTINUOUS
10
-8.2094484853
20
-8.8376994871
11
-8.2413633751
21
-8.6814493679
0
LINE
5
262
100
AcDbEntity
8
0
100
AcDbLine
62
7
6
CONTINUOUS
10
-8.4009378465
20
-8.6814493679
11
-8.3690229539
21
-8.8689493679
0
LINE
5
263
100
AcDbEntity
8
0
100
AcDbLine
62
7
6
CONTINUOUS
10
-9.7009378465
20
-20.0490522896
11
-9.7009378465
21
-5.7489494871
0
LINE
5
264
100
AcDbEntity
8
0
100
AcDbLine
62
7
6
CONTINUOUS
10
-9.7009378465
20
6.2510505129
11
-9.7009378465
21
20.5511533154
0
LINE
5
265
100
AcDbEntity
8
0
100
AcDbLine
62
7
6
CONTINUOUS
10
-9.6821148027
20
6.2510505129
11
-9.6821148027
21
-5.7489494871
0
LINE
5
266
100
AcDbEntity
8
0
100
AcDbLine
62
9
6
CONTINUOUS
10
-9.5986071122
20
-16.2068943935
11
-9.5986071122
21
-2.1833116900
0
LINE
5
267
100
AcDbEntity
8
0
100
AcDbLine
62
9
6
CONTINUOUS
10
-9.5986071122
20
2.6854127158
11
-9.5986071122
21
16.7089954192
0
LINE
5
268
100
AcDbEntity
8
0
100
AcDbLine
62
9
6
CONTINUOUS
10
-9.3105142980
20
20.7605241619
11
-9.3105142980
21
20.5027748483
0
LINE
5
269
100
AcDbEntity
8
0
100
AcDbLine
62
9
6
CONTINUOUS
10
-9.3105142980
20
-20.2584231361
11
-9.3105142980
21
-20.0006738225
0
LINE
5
26A
100
AcDbEntity
8
0
100
AcDbLine
62
9
6
CONTINUOUS
10
-9.2987099147
20
-16.2216254509
11
-9.2987099147
21
-1.5067890702
0
LINE
5
26B
100
AcDbEntity
8
0
100
AcDbLine
62
9
6
CONTINUOUS
10
-9.2987099147
20
2.0088900960
11
-9.2987099147
21
16.7237264766
0
LINE
5
26C
100
AcDbEntity
8
0
100
AcDbLine
62
7
6
CONTINUOUS
10
-8.4009378465
20
-5.3689494871
11
-8.4009378465
21
-6.4939494871
0
LINE
5
26D
100
AcDbEntity
8
0
100
AcDbLine
62
7
6
CONTINUOUS
10
-8.4009378465
20
-9.4939494871
11
-8.4009378465
21
-10.6189494871
0
LINE
5
26E
100
AcDbEntity
8
0
100
AcDbLine
62
7
6
CONTINUOUS
10
-8.4009378465
20
-11.0564496063
11
-8.4009378465
21
-11.2439496063
0
LINE
5
26F
100
AcDbEntity
8
0
100
AcDbLine
62
7
6
CONTINUOUS
10
-8.2413633751
20
-10.6189494871
11
-8.2413633751
21
-9.7439496063
0
LINE
5
270
100
AcDbEntity
8
0
100
AcDbLine
62
7
6
CONTINUOUS
10
-8.2413633751
20
-6.4939494871
11
-8.2413633751
21
-5.6189494946
0
LINE
5
271
100
AcDbEntity
8
0
100
AcDbLine
62
7
6
CONTINUOUS
10
6.9990621535
20
20.2510505129
11
7.5990621535
21
20.8510505129
0
LINE
5
272
100
AcDbEntity
8
0
100
AcDbLine
62
7
6
CONTINUOUS
10
8.5491591535
20
11.7510505129
11
6.4990621535
21
11.0928365129
0
LINE
5
273
100
AcDbEntity
8
0
100
AcDbLine
62
7
6
CONTINUOUS
10
-7.2520016345
20
-10.6189494871
11
-7.1243420752
21
-10.5876996063
0
LINE
5
274
100
AcDbEntity
8
0
100
AcDbLine
62
7
6
CONTINUOUS
10
-8.2413633751
20
-9.4939494871
11
-8.4009378465
21
-9.4939494871
0
LINE
5
275
100
AcDbEntity
8
0
100
AcDbLine
62
7
6
CONTINUOUS
10
-7.7945548507
20
-9.2439493679
11
-7.5073208424
21
-9.2439493679
0
LINE
5
276
100
AcDbEntity
8
0
100
AcDbLine
62
7
6
CONTINUOUS
10
-7.5392357322
20
-9.0876996063
11
-7.7626399609
21
-9.0876996063
0
LINE
5
277
100
AcDbEntity
8
0
100
AcDbLine
62
7
6
CONTINUOUS
10
-7.7626399609
20
-8.2751994871
11
-7.5392357322
21
-8.2751994871
0
LINE
5
278
100
AcDbEntity
8
0
100
AcDbLine
62
7
6
CONTINUOUS
10
-7.5073208424
20
-8.1189495467
11
-7.7945548507
21
-8.1189495467
0
LINE
5
279
100
AcDbEntity
8
0
100
AcDbLine
62
7
6
CONTINUOUS
10
-7.5392357322
20
-8.2751994871
11
-7.3477463933
21
-8.3064495467
0
LINE
5
27A
100
AcDbEntity
8
0
100
AcDbLine
62
7
6
CONTINUOUS
10
-7.7626399609
20
-7.7126994871
11
-7.9541293445
21
-7.6814494275
0
LINE
5
27B
100
AcDbEntity
8
0
100
AcDbLine
62
7
6
CONTINUOUS
10
-7.5392357322
20
-6.9001995467
11
-7.3477463933
21
-6.9314494275
0
LINE
5
27C
100
AcDbEntity
8
0
100
AcDbLine
62
7
6
CONTINUOUS
10
-7.3477463933
20
-8.1501994275
11
-7.5073208424
21
-8.1189495467
0
LINE
5
27D
100
AcDbEntity
8
0
100
AcDbLine
62
7
6
CONTINUOUS
10
-7.9541293445
20
-7.8376995467
11
-7.7945548507
21
-7.8689494275
0
LINE
5
27E
100
AcDbEntity
8
0
100
AcDbLine
62
7
6
CONTINUOUS
10
-7.3477463933
20
-6.7751994871
11
-7.5073208424
21
-6.7439495169
0
LINE
5
27F
100
AcDbEntity
8
0
100
AcDbLine
62
7
6
CONTINUOUS
10
-7.4434910628
20
-6.4626995169
11
-7.3158315035
21
-6.4939494871
0
LINE
5
280
100
AcDbEntity
8
0
100
AcDbLine
62
7
6
CONTINUOUS
10
-7.2520016345
20
-6.8064494573
11
-7.3477463933
21
-6.7751994871
0
LINE
5
281
100
AcDbEntity
8
0
100
AcDbLine
62
7
6
CONTINUOUS
10
-7.1243420752
20
-6.8689494871
11
-7.2520016345
21
-6.8064494573
0
LINE
5
282
100
AcDbEntity
8
0
100
AcDbLine
62
7
6
CONTINUOUS
10
-7.3158315035
20
-6.3064494871
11
-7.4434910628
21
-6.2439494573
0
LINE
5
283
100
AcDbEntity
8
0
100
AcDbLine
62
7
6
CONTINUOUS
10
-7.5392357322
20
-6.4001994871
11
-7.4434910628
21
-6.4626995169
0
LINE
5
284
100
AcDbEntity
8
0
100
AcDbLine
62
7
6
CONTINUOUS
10
-7.2520016345
20
-5.5564494871
11
-7.1562569650
21
-5.6189494946
0
LINE
5
285
100
AcDbEntity
8
0
100
AcDbLine
62
7
6
CONTINUOUS
10
-6.9966825160
20
-5.5564494871
11
-7.1243420752
21
-5.4314494890
0
LINE
5
286
100
AcDbEntity
8
0
100
AcDbLine
62
7
6
CONTINUOUS
10
7.5990621535
20
-20.3489494871
11
6.9990621535
21
-19.7489494871
0
LINE
5
287
100
AcDbEntity
8
0
100
AcDbLine
62
7
6
CONTINUOUS
10
-7.1562569650
20
-5.6189494946
11
-7.0924271854
21
-5.7126994946
0
LINE
5
288
100
AcDbEntity
8
0
100
AcDbLine
62
7
6
CONTINUOUS
10
3.6120301867
20
-20.2584231361
11
3.6358091797
21
-20.2940961540
0
LINE
5
289
100
AcDbEntity
8
0
100
AcDbLine
62
7
6
CONTINUOUS
10
-6.9328527364
20
-5.6814494797
11
-6.9966825160
21
-5.5564494871
0
LINE
5
28A
100
AcDbEntity
8
0
100
AcDbLine
62
9
6
CONTINUOUS
10
-3.8972492638
20
-18.2607098710
11
-3.8851825897
21
-18.2969393318
0
LINE
5
28B
100
AcDbEntity
8
0
100
AcDbLine
62
7
6
CONTINUOUS
10
-8.2094484853
20
-7.4626995467
11
-8.2413633751
21
-7.3064494275
0
LINE
5
28C
100
AcDbEntity
8
0
100
AcDbLine
62
7
6
CONTINUOUS
10
-7.0924271854
20
-9.8376996063
11
-7.0605122956
21
-9.9939493679
0
LINE
5
28D
100
AcDbEntity
8
0
100
AcDbLine
62
7
6
CONTINUOUS
10
-7.0924271854
20
-8.5251996063
11
-7.0605122956
21
-8.6814493679
0
LINE
5
28E
100
AcDbEntity
8
0
100
AcDbLine
62
7
6
CONTINUOUS
10
-7.0924271854
20
-7.1501994871
11
-7.0605122956
21
-7.3064494275
0
LINE
5
28F
100
AcDbEntity
8
0
100
AcDbLine
62
7
6
CONTINUOUS
10
-7.0924271854
20
-5.7126994946
11
-7.0605122956
21
-5.8689495020
0
LINE
5
290
100
AcDbEntity
8
0
100
AcDbLine
62
7
6
CONTINUOUS
10
-8.4009378465
20
-7.3064494275
11
-8.3690229539
21
-7.4939494275
0
LINE
5
291
100
AcDbEntity
8
0
100
AcDbLine
62
7
6
CONTINUOUS
10
-6.9009378465
20
-8.6814493679
11
-6.9328527364
21
-8.4939493679
0
LINE
5
292
100
AcDbEntity
8
0
100
AcDbLine
62
7
6
CONTINUOUS
10
-6.9009378465
20
-7.3064494275
11
-6.9328527364
21
-7.1189494275
0
LINE
5
293
100
AcDbEntity
8
0
100
AcDbLine
62
7
6
CONTINUOUS
10
-6.9009378465
20
-10.0251996063
11
-6.9328527364
21
-9.8064493679
0
LINE
5
294
100
AcDbEntity
8
0
100
AcDbLine
62
7
6
CONTINUOUS
10
-7.2520016345
20
-5.4001994880
11
-7.2520016345
21
-5.5564494871
0
LINE
5
295
100
AcDbEntity
8
0
100
AcDbLine
62
7
6
CONTINUOUS
10
-7.2520016345
20
-9.5251993679
11
-7.2520016345
21
-9.6814494871
0
LINE
5
296
100
AcDbEntity
8
0
100
AcDbLine
62
7
6
CONTINUOUS
10
-7.0605122956
20
-5.8689495020
11
-7.0605122956
21
-5.9939494722
0
LINE
5
297
100
AcDbEntity
8
0
100
AcDbLine
62
7
6
CONTINUOUS
10
-7.0605122956
20
-9.9939493679
11
-7.0605122956
21
-10.1189496063
0
LINE
5
298
100
AcDbEntity
8
0
100
AcDbLine
62
7
6
CONTINUOUS
10
-6.9009378465
20
-11.2439496063
11
-6.9009378465
21
-11.0564496063
0
LINE
5
299
100
AcDbEntity
8
0
100
AcDbLine
62
7
6
CONTINUOUS
10
-6.9009378465
20
-10.1501994871
11
-6.9009378465
21
-10.0251996063
0
LINE
5
29A
100
AcDbEntity
8
0
100
AcDbLine
62
7
6
CONTINUOUS
10
-6.9009378465
20
-6.0251994871
11
-6.9009378465
21
-5.9001994722
0
LINE
5
29B
100
AcDbEntity
8
0
100
AcDbLine
62
7
6
CONTINUOUS
10
-8.3690229539
20
-7.1189494275
11
-8.4009378465
21
-7.3064494275
0
LINE
5
29C
100
AcDbEntity
8
0
100
AcDbLine
62
7
6
CONTINUOUS
10
-8.3690229539
20
-8.4939493679
11
-8.4009378465
21
-8.6814493679
0
LINE
5
29D
100
AcDbEntity
8
0
100
AcDbLine
62
7
6
CONTINUOUS
10
-8.2413633751
20
-7.3064494275
11
-8.2094484853
21
-7.1501994871
0
LINE
5
29E
100
AcDbEntity
8
0
100
AcDbLine
62
9
6
CONTINUOUS
10
9.5086386050
20
20.7605241619
11
9.5991649560
21
20.8510505129
0
LINE
5
29F
100
AcDbEntity
8
0
100
AcDbLine
62
9
6
CONTINUOUS
10
9.8085358025
20
20.4606269644
11
9.8990621535
21
20.5511533154
0
LINE
5
2A0
100
AcDbEntity
8
0
100
AcDbLine
62
7
6
CONTINUOUS
10
7.1375601535
20
10.8878155129
11
8.5491591535
21
11.3410295129
0
LINE
5
2A1
100
AcDbEntity
8
0
100
AcDbLine
62
7
6
CONTINUOUS
10
-7.5073208424
20
-9.2439493679
11
-7.3477463933
21
-9.2126994871
0
LINE
5
2A2
100
AcDbEntity
8
0
100
AcDbLine
62
7
6
CONTINUOUS
10
-7.7945548507
20
-8.1189495467
11
-7.9541293445
21
-8.1501994275
0
LINE
5
2A3
100
AcDbEntity
8
0
100
AcDbLine
62
7
6
CONTINUOUS
10
-7.5073208424
20
-7.8689494275
11
-7.3477463933
21
-7.8376995467
0
LINE
5
2A4
100
AcDbEntity
8
0
100
AcDbLine
62
7
6
CONTINUOUS
10
-7.3477463933
20
-9.0564493679
11
-7.5392357322
21
-9.0876996063
0
LINE
5
2A5
100
AcDbEntity
8
0
100
AcDbLine
62
7
6
CONTINUOUS
10
-7.9541293445
20
-8.3064495467
11
-7.7626399609
21
-8.2751994871
0
LINE
5
2A6
100
AcDbEntity
8
0
100
AcDbLine
62
7
6
CONTINUOUS
10
-7.3477463933
20
-7.6814494275
11
-7.5392357322
21
-7.7126994871
0
LINE
5
2A7
100
AcDbEntity
8
0
100
AcDbLine
62
7
6
CONTINUOUS
10
-7.7945548507
20
-7.8689494275
11
-7.5073208424
21
-7.8689494275
0
LINE
5
2A8
100
AcDbEntity
8
0
100
AcDbLine
62
7
6
CONTINUOUS
10
-7.5392357322
20
-7.7126994871
11
-7.7626399609
21
-7.7126994871
0
LINE
5
2A9
100
AcDbEntity
8
0
100
AcDbLine
62
7
6
CONTINUOUS
10
-7.7626399609
20
-6.9001995467
11
-7.5392357322
21
-6.9001995467
0
LINE
5
2AA
100
AcDbEntity
8
0
100
AcDbLine
62
7
6
CONTINUOUS
10
-7.5073208424
20
-6.7439495169
11
-7.7945548507
21
-6.7439495169
0
LINE
5
2AB
100
AcDbEntity
8
0
100
AcDbLine
62
7
6
CONTINUOUS
10
-8.4009378465
20
-6.4939494871
11
-8.2413633751
21
-6.4939494871
0
LINE
5
2AC
100
AcDbEntity
8
0
100
AcDbLine
62
7
6
CONTINUOUS
10
-7.3158315035
20
-6.4939494871
11
-7.2520016345
21
-6.4939494871
0
LINE
5
2AD
100
AcDbEntity
8
0
100
AcDbLine
62
7
6
CONTINUOUS
10
-7.2520016345
20
-6.3064494871
11
-7.3158315035
21
-6.3064494871
0
LINE
5
2AE
100
AcDbEntity
8
0
100
AcDbLine
62
7
6
CONTINUOUS
10
-7.1243420752
20
-5.4314494890
11
-7.2520016345
21
-5.4001994880
0
LINE
5
2AF
100
AcDbEntity
8
0
100
AcDbLine
62
9
6
CONTINUOUS
10
9.5086386050
20
-20.2584231361
11
9.5991649560
21
-20.3489494871
0
LINE
5
2B0
100
AcDbEntity
8
0
100
AcDbLine
62
9
6
CONTINUOUS
10
9.8085358025
20
-19.9585259386
11
9.8990621535
21
-20.0490522896
0
LINE
5
2B1
100
AcDbEntity
8
0
100
AcDbLine
62
7
6
CONTINUOUS
10
-6.9009378465
20
-5.9001994722
11
-6.9328527364
21
-5.6814494797
0
LINE
5
2B2
100
AcDbEntity
8
0
100
AcDbLine
62
9
6
CONTINUOUS
10
-4.1851368982
20
-19.5097355084
11
-4.1641908203
21
-19.6783845101
0
LINE
5
2B3
100
AcDbEntity
8
0
100
AcDbLine
62
7
6
CONTINUOUS
10
-5.9009378465
20
-20.3489494871
11
-5.9009378465
21
-19.7489494871
0
LINE
5
2B4
100
AcDbEntity
8
0
100
AcDbLine
62
7
6
CONTINUOUS
10
-5.9009378465
20
20.2510505129
11
-5.9009378465
21
20.8510505129
0
LINE
5
2B5
100
AcDbEntity
8
0
100
AcDbLine
62
7
6
CONTINUOUS
10
-5.5009378465
20
-15.2092568663
11
-5.5009378465
21
-5.6886421079
0
LINE
5
2B6
100
AcDbEntity
8
0
100
AcDbLine
62
7
6
CONTINUOUS
10
-5.5009378465
20
6.1907431337
11
-5.5009378465
21
15.7113578921
0
LINE
5
2B7
100
AcDbEntity
8
0
100
AcDbLine
62
7
6
CONTINUOUS
10
-6.9328527364
20
-6.2126994871
11
-6.9009378465
21
-6.0251994871
0
LINE
5
2B8
100
AcDbEntity
8
0
100
AcDbLine
62
7
6
CONTINUOUS
10
-6.9328527364
20
-7.4939494275
11
-6.9009378465
21
-7.3064494275
0
LINE
5
2B9
100
AcDbEntity
8
0
100
AcDbLine
62
7
6
CONTINUOUS
10
-6.9328527364
20
-8.8689493679
11
-6.9009378465
21
-8.6814493679
0
LINE
5
2BA
100
AcDbEntity
8
0
100
AcDbLine
62
7
6
CONTINUOUS
10
-6.9328527364
20
-10.3376994871
11
-6.9009378465
21
-10.1501994871
0
LINE
5
2BB
100
AcDbEntity
8
0
100
AcDbLine
62
7
6
CONTINUOUS
10
-8.2413633751
20
-8.6814493679
11
-8.2094484853
21
-8.5251996063
0
LINE
5
2BC
100
AcDbEntity
8
0
100
AcDbLine
62
7
6
CONTINUOUS
10
-7.0605122956
20
-5.9939494722
11
-7.0924271854
21
-6.1501994573
0
LINE
5
2BD
100
AcDbEntity
8
0
100
AcDbLine
62
7
6
CONTINUOUS
10
-7.0605122956
20
-7.3064494275
11
-7.0924271854
21
-7.4626995467
0
LINE
5
2BE
100
AcDbEntity
8
0
100
AcDbLine
62
7
6
CONTINUOUS
10
-7.0605122956
20
-8.6814493679
11
-7.0924271854
21
-8.8376994871
0
LINE
5
2BF
100
AcDbEntity
8
0
100
AcDbLine
62
7
6
CONTINUOUS
10
-7.0605122956
20
-10.1189496063
11
-7.0924271854
21
-10.2751993679
0
LINE
5
2C0
100
AcDbEntity
8
0
100
AcDbLine
62
7
6
CONTINUOUS
10
7.8509651535
20
8.5212135129
11
6.4990671535
21
8.1335695129
0
LINE
5
2C1
100
AcDbEntity
8
0
100
AcDbLine
62
7
6
CONTINUOUS
10
7.2140661535
20
7.9285645129
11
8.5491591535
21
8.3113965129
0
LINE
5
2C2
100
AcDbEntity
8
0
100
AcDbLine
62
7
6
CONTINUOUS
10
-7.7945548507
20
-6.7439495169
11
-7.9541293445
21
-6.7751994871
0
LINE
5
2C3
100
AcDbEntity
8
0
100
AcDbLine
62
7
6
CONTINUOUS
10
-7.9541293445
20
-6.9314494275
11
-7.7626399609
21
-6.9001995467
0
LINE
5
2C4
100
AcDbEntity
8
0
100
AcDbLine
62
7
6
CONTINUOUS
10
6.5433981535
20
-5.9881974871
11
7.2363041535
21
-5.9881904871
0
LINE
5
2C5
100
AcDbEntity
8
0
100
AcDbLine
62
7
6
CONTINUOUS
10
7.6710201535
20
-5.9881904871
11
8.5427351535
21
-5.9881974871
0
LINE
5
2C6
100
AcDbEntity
8
0
100
AcDbLine
62
7
6
CONTINUOUS
10
10.5990621535
20
-5.7489494871
11
9.8802391096
21
-5.7489494871
0
LINE
5
2C7
100
AcDbEntity
8
0
100
AcDbLine
62
7
6
CONTINUOUS
10
-9.6821148027
20
-5.7489494871
11
-10.4009378465
21
-5.7489494871
0
LINE
5
2C8
100
AcDbEntity
8
0
100
AcDbLine
62
7
6
CONTINUOUS
10
8.5427351535
20
-5.6311364871
11
6.5433981535
21
-5.6311364871
0
LINE
5
2C9
100
AcDbEntity
8
0
100
AcDbLine
62
7
6
CONTINUOUS
10
-8.2413633751
20
-5.3689494871
11
-8.4009378465
21
-5.3689494871
0
LINE
5
2CA
100
AcDbEntity
8
0
100
AcDbLine
62
7
6
CONTINUOUS
10
6.5433981535
20
-5.2065024871
11
8.5427351535
21
-5.2065024871
0
LINE
5
2CB
100
AcDbEntity
8
0
100
AcDbLine
62
7
6
CONTINUOUS
10
8.5427351535
20
-4.8494274871
11
6.5433981535
21
-4.8494274871
0
LINE
5
2CC
100
AcDbEntity
8
0
100
AcDbLine
62
7
6
CONTINUOUS
10
-4.5612452258
20
-4.7489494871
11
-2.6509378465
21
-4.7489494871
0
LINE
5
2CD
100
AcDbEntity
8
0
100
AcDbLine
62
7
6
CONTINUOUS
10
2.8490621535
20
-4.7489494871
11
4.7593695327
21
-4.7489494871
0
LINE
5
2CE
100
AcDbEntity
8
0
100
AcDbLine
62
9
6
CONTINUOUS
10
-3.8806748529
20
-19.2489494871
11
-3.8642365118
21
-19.3813040895
0
LINE
5
2CF
100
AcDbEntity
8
0
100
AcDbLine
62
7
6
CONTINUOUS
10
-4.7009378465
20
2.0088900960
11
-4.7009378465
21
-1.5067890702
0
LINE
5
2D0
100
AcDbEntity
8
0
100
AcDbLine
62
9
6
CONTINUOUS
10
-4.1851368982
20
-18.5965281923
11
-4.1851368982
21
-19.5097355084
0
LINE
5
2D1
100
AcDbEntity
8
0
100
AcDbLine
62
9
6
CONTINUOUS
10
-4.1641908203
20
-19.6783845101
11
-4.1641908203
21
-20.2940961540
0
LINE
5
2D2
100
AcDbEntity
8
0
100
AcDbLine
62
9
6
CONTINUOUS
10
-3.8851825897
20
-18.2969393318
11
-3.8851825897
21
-19.2489494871
0
LINE
5
2D3
100
AcDbEntity
8
0
100
AcDbLine
62
9
6
CONTINUOUS
10
-3.8642365118
20
-19.3813040895
11
-3.8642365118
21
-20.3018148283
0
LINE
5
2D4
100
AcDbEntity
8
0
100
AcDbLine
62
9
6
CONTINUOUS
10
-3.7376391813
20
-20.3018148283
11
-3.7376391813
21
-19.3813040895
0
LINE
5
2D5
100
AcDbEntity
8
0
100
AcDbLine
62
9
6
CONTINUOUS
10
-3.7166931034
20
-19.2489494871
11
-3.7166931034
21
-18.2969393318
0
LINE
5
2D6
100
AcDbEntity
8
0
100
AcDbLine
62
9
6
CONTINUOUS
10
-3.4376848728
20
-20.2940961540
11
-3.4376848728
21
-19.6783845101
0
LINE
5
2D7
100
AcDbEntity
8
0
100
AcDbLine
62
9
6
CONTINUOUS
10
-3.4167387948
20
-18.5965281923
11
-3.4167387948
21
-19.5097355084
0
LINE
5
2D8
100
AcDbEntity
8
0
100
AcDbLine
62
7
6
CONTINUOUS
10
-6.9966825160
20
-6.3376994573
11
-6.9328527364
21
-6.2126994871
0
LINE
5
2D9
100
AcDbEntity
8
0
100
AcDbLine
62
7
6
CONTINUOUS
10
-8.2732782761
20
-6.9626994871
11
-8.3690229539
21
-7.1189494275
0
LINE
5
2DA
100
AcDbEntity
8
0
100
AcDbLine
62
7
6
CONTINUOUS
10
-7.2520016345
20
-6.4939494871
11
-7.1243420752
21
-6.4626995169
0
LINE
5
2DB
100
AcDbEntity
8
0
100
AcDbLine
62
7
6
CONTINUOUS
10
6.5433981535
20
-4.4200064871
11
6.8607151535
21
-4.4200064871
0
LINE
5
2DC
100
AcDbEntity
8
0
100
AcDbLine
62
7
6
CONTINUOUS
10
8.2254181535
20
-4.4119694871
11
8.5427351535
21
-4.4119694871
0
LINE
5
2DD
100
AcDbEntity
8
0
100
AcDbLine
62
7
6
CONTINUOUS
10
7.4109471535
20
-4.3403264871
11
7.7282711535
21
-4.3403264871
0
LINE
5
2DE
100
AcDbEntity
8
0
100
AcDbLine
62
7
6
CONTINUOUS
10
6.8607051535
20
-3.3560034871
11
7.4109391535
21
-3.3560034871
0
LINE
5
2DF
100
AcDbEntity
8
0
100
AcDbLine
62
7
6
CONTINUOUS
10
7.7282781535
20
-3.3560034871
11
8.2254211535
21
-3.3560034871
0
LINE
5
2E0
100
AcDbEntity
8
0
100
AcDbLine
62
7
6
CONTINUOUS
10
8.5427351535
20
-2.9989494871
11
6.5433981535
21
-2.9989494871
0
LINE
5
2E1
100
AcDbEntity
8
0
100
AcDbLine
62
7
6
CONTINUOUS
10
-2.6509378465
20
5.2510505129
11
-2.6509378465
21
-4.7489494871
0
LINE
5
2E2
100
AcDbEntity
8
0
100
AcDbLine
62
7
6
CONTINUOUS
10
-8.2732782761
20
-8.3376994275
11
-8.3690229539
21
-8.4939493679
0
LINE
5
2E3
100
AcDbEntity
8
0
100
AcDbLine
62
7
6
CONTINUOUS
10
-7.0285974058
20
-7.6501995467
11
-6.9328527364
21
-7.4939494275
0
LINE
5
2E4
100
AcDbEntity
8
0
100
AcDbLine
62
7
6
CONTINUOUS
10
-8.2094484853
20
-7.1501994871
11
-8.1456187057
21
-7.0564494871
0
LINE
5
2E5
100
AcDbEntity
8
0
100
AcDbLine
62
7
6
CONTINUOUS
10
-7.0924271854
20
-6.1501994573
11
-7.1562569650
21
-6.2439494573
0
LINE
5
2E6
100
AcDbEntity
8
0
100
AcDbLine
62
7
6
CONTINUOUS
10
-8.2094484853
20
-8.5251996063
11
-8.1456187057
21
-8.4314496063
0
LINE
5
2E7
100
AcDbEntity
8
0
100
AcDbLine
62
7
6
CONTINUOUS
10
-7.0924271854
20
-7.4626995467
11
-7.1562569650
21
-7.5564495467
0
LINE
5
2E8
100
AcDbEntity
8
0
100
AcDbLine
62
7
6
CONTINUOUS
10
6.9022361535
20
5.4655505129
11
6.4990721535
21
5.3361135129
0
LINE
5
2E9
100
AcDbEntity
8
0
100
AcDbLine
62
7
6
CONTINUOUS
10
7.9106661535
20
5.7893325129
11
7.2917511535
21
5.5906215129
0
LINE
5
2EA
100
AcDbEntity
8
0
100
AcDbLine
62
7
6
CONTINUOUS
10
6.4990671535
20
4.9260935129
11
8.5491651535
21
5.5843125129
0
LINE
5
2EB
100
AcDbEntity
8
0
100
AcDbLine
62
7
6
CONTINUOUS
10
4.8990621535
20
-1.5067890702
11
9.4968342216
21
-1.5067890702
0
LINE
5
2EC
100
AcDbEntity
8
0
100
AcDbLine
62
7
6
CONTINUOUS
10
-4.7009378465
20
-1.5067890702
11
-9.2987099147
21
-1.5067890702
0
LINE
5
2ED
100
AcDbEntity
8
0
100
AcDbLine
62
9
6
CONTINUOUS
10
3.6148631018
20
-18.5965281923
11
3.6036303765
21
-18.5628026124
0
LINE
5
2EE
100
AcDbEntity
8
0
100
AcDbLine
62
9
6
CONTINUOUS
10
3.9148174103
20
-18.2969393318
11
3.9027507362
21
-18.2607098710
0
LINE
5
2EF
100
AcDbEntity
8
0
100
AcDbLine
62
9
6
CONTINUOUS
10
-3.7376391813
20
-19.3813040895
11
-3.7212008402
21
-19.2489494871
0
LINE
5
2F0
100
AcDbEntity
8
0
100
AcDbLine
62
9
6
CONTINUOUS
10
-3.4376848728
20
-19.6783845101
11
-3.4167387948
21
-19.5097355084
0
LINE
5
2F1
100
AcDbEntity
8
0
100
AcDbLine
62
7
6
CONTINUOUS
10
-6.9966825160
20
-10.4626993679
11
-6.9328527364
21
-10.3376994871
0
LINE
5
2F2
100
AcDbEntity
8
0
100
AcDbLine
62
7
6
CONTINUOUS
10
-7.0285974058
20
-9.0251994871
11
-6.9328527364
21
-8.8689493679
0
LINE
5
2F3
100
AcDbEntity
8
0
100
AcDbLine
62
7
6
CONTINUOUS
10
-7.0924271854
20
-8.8376994871
11
-7.1562569650
21
-8.9314494871
0
LINE
5
2F4
100
AcDbEntity
8
0
100
AcDbLine
62
7
6
CONTINUOUS
10
-7.0924271854
20
-10.2751993679
11
-7.1562569650
21
-10.3689493679
0
LINE
5
2F5
100
AcDbEntity
8
0
100
AcDbLine
62
7
6
CONTINUOUS
10
-8.1775335955
20
-6.8689494871
11
-8.2732782761
21
-6.9626994871
0
LINE
5
2F6
100
AcDbEntity
8
0
100
AcDbLine
62
7
6
CONTINUOUS
10
-7.1243420752
20
-6.4626995169
11
-6.9966825160
21
-6.3376994573
0
LINE
5
2F7
100
AcDbEntity
8
0
100
AcDbLine
62
7
6
CONTINUOUS
10
7.2917511535
20
3.8848315129
11
6.4990721535
21
3.4739445129
0
LINE
5
2F8
100
AcDbEntity
8
0
100
AcDbLine
62
7
6
CONTINUOUS
10
-8.1775335955
20
-8.2439494275
11
-8.2732782761
21
-8.3376994275
0
LINE
5
2F9
100
AcDbEntity
8
0
100
AcDbLine
62
7
6
CONTINUOUS
10
-7.1243420752
20
-7.7439495467
11
-7.0285974058
21
-7.6501995467
0
LINE
5
2FA
100
AcDbEntity
8
0
100
AcDbLine
62
7
6
CONTINUOUS
10
-7.1243420752
20
-9.1189494871
11
-7.0285974058
21
-9.0251994871
0
LINE
5
2FB
100
AcDbEntity
8
0
100
AcDbLine
62
7
6
CONTINUOUS
10
-7.1562569650
20
-6.2439494573
11
-7.2520016345
21
-6.3064494871
0
LINE
5
2FC
100
AcDbEntity
8
0
100
AcDbLine
62
7
6
CONTINUOUS
10
-8.1456187057
20
-7.0564494871
11
-7.9541293445
21
-6.9314494275
0
LINE
5
2FD
100
AcDbEntity
8
0
100
AcDbLine
62
7
6
CONTINUOUS
10
6.4990771535
20
3.0121255129
11
7.3410608664
21
3.4485664008
0
LINE
5
2FE
100
AcDbEntity
8
0
100
AcDbLine
62
7
6
CONTINUOUS
10
4.8990621535
20
2.0088900960
11
9.4968342216
21
2.0088900960
0
LINE
5
2FF
100
AcDbEntity
8
0
100
AcDbLine
62
7
6
CONTINUOUS
10
-4.7009378465
20
2.0088900960
11
-9.2987099147
21
2.0088900960
0
LINE
5
300
100
AcDbEntity
8
0
100
AcDbLine
62
7
6
CONTINUOUS
10
8.5427351535
20
-6.8745584871
11
7.6710201535
21
-5.9881904871
0
LINE
5
301
100
AcDbEntity
8
0
100
AcDbLine
62
7
6
CONTINUOUS
10
7.7200271535
20
-6.4934534871
11
8.5427351535
21
-7.3533184871
0
LINE
5
302
100
AcDbEntity
8
0
100
AcDbLine
62
7
6
CONTINUOUS
10
7.2363041535
20
-5.9881904871
11
7.4744361535
21
-6.2435264871
0
LINE
5
303
100
AcDbEntity
8
0
100
AcDbLine
62
9
6
CONTINUOUS
10
3.6148631018
20
-19.5097355084
11
3.6358091797
21
-19.6783845101
0
LINE
5
304
100
AcDbEntity
8
0
100
AcDbLine
62
9
6
CONTINUOUS
10
3.9193251471
20
-19.2489494871
11
3.9357634882
21
-19.3813040895
0
LINE
5
305
100
AcDbEntity
8
0
100
AcDbLine
62
7
6
CONTINUOUS
10
2.8490621535
20
5.2510505129
11
2.8490621535
21
-4.7489494871
0
LINE
5
306
100
AcDbEntity
8
0
100
AcDbLine
62
9
6
CONTINUOUS
10
3.6148631018
20
-19.5097355084
11
3.6148631018
21
-18.5965281923
0
LINE
5
307
100
AcDbEntity
8
0
100
AcDbLine
62
9
6
CONTINUOUS
10
3.6358091797
20
-19.6783845101
11
3.6358091797
21
-20.2940961540
0
LINE
5
308
100
AcDbEntity
8
0
100
AcDbLine
62
9
6
CONTINUOUS
10
-3.7046264293
20
-18.2607098710
11
-3.7166931034
21
-18.2969393318
0
LINE
5
309
100
AcDbEntity
8
0
100
AcDbLine
62
9
6
CONTINUOUS
10
-3.4055060696
20
-18.5628026124
11
-3.4167387948
21
-18.5965281923
0
LINE
5
30A
100
AcDbEntity
8
0
100
AcDbLine
62
7
6
CONTINUOUS
10
-7.1243420752
20
-10.5876996063
11
-6.9966825160
21
-10.4626993679
0
LINE
5
30B
100
AcDbEntity
8
0
100
AcDbLine
62
7
6
CONTINUOUS
10
-7.1562569650
20
-7.5564495467
11
-7.3477463933
21
-7.6814494275
0
LINE
5
30C
100
AcDbEntity
8
0
100
AcDbLine
62
7
6
CONTINUOUS
10
-8.1456187057
20
-8.4314496063
11
-7.9541293445
21
-8.3064495467
0
LINE
5
30D
100
AcDbEntity
8
0
100
AcDbLine
62
7
6
CONTINUOUS
10
-8.0498740139
20
-6.8064494573
11
-8.1775335955
21
-6.8689494871
0
LINE
5
30E
100
AcDbEntity
8
0
100
AcDbLine
62
9
6
CONTINUOUS
10
3.9148174103
20
-19.2489494871
11
3.9148174103
21
-18.2969393318
0
LINE
5
30F
100
AcDbEntity
8
0
100
AcDbLine
62
9
6
CONTINUOUS
10
3.9357634882
20
-19.3813040895
11
3.9357634882
21
-20.3018148283
0
LINE
5
310
100
AcDbEntity
8
0
100
AcDbLine
62
9
6
CONTINUOUS
10
4.0623608187
20
-20.3018148283
11
4.0623608187
21
-19.3813040895
0
LINE
5
311
100
AcDbEntity
8
0
100
AcDbLine
62
9
6
CONTINUOUS
10
4.0833068966
20
-19.2489494871
11
4.0833068966
21
-18.2969393318
0
LINE
5
312
100
AcDbEntity
8
0
100
AcDbLine
62
9
6
CONTINUOUS
10
4.3623151272
20
-20.2940961540
11
4.3623151272
21
-19.6783845101
0
LINE
5
313
100
AcDbEntity
8
0
100
AcDbLine
62
9
6
CONTINUOUS
10
4.3832612052
20
-18.5965281923
11
4.3832612052
21
-19.5097355084
0
LINE
5
314
100
AcDbEntity
8
0
100
AcDbLine
62
7
6
CONTINUOUS
10
4.8990621535
20
2.0088900960
11
4.8990621535
21
-1.5067890702
0
LINE
5
315
100
AcDbEntity
8
0
100
AcDbLine
62
7
6
CONTINUOUS
10
-7.1562569650
20
-8.9314494871
11
-7.3477463933
21
-9.0564493679
0
LINE
5
316
100
AcDbEntity
8
0
100
AcDbLine
62
7
6
CONTINUOUS
10
-7.1562569650
20
-10.3689493679
11
-7.2520016345
21
-10.4314494871
0
LINE
5
317
100
AcDbEntity
8
0
100
AcDbLine
62
7
6
CONTINUOUS
10
-8.0498740139
20
-8.1814494871
11
-8.1775335955
21
-8.2439494275
0
LINE
5
318
100
AcDbEntity
8
0
100
AcDbLine
62
7
6
CONTINUOUS
10
-7.2520016345
20
-7.8064494871
11
-7.1243420752
21
-7.7439495467
0
LINE
5
319
100
AcDbEntity
8
0
100
AcDbLine
62
7
6
CONTINUOUS
10
-7.2520016345
20
-9.1814496063
11
-7.1243420752
21
-9.1189494871
0
LINE
5
31A
100
AcDbEntity
8
0
100
AcDbLine
62
7
6
CONTINUOUS
10
-7.9541293445
20
-6.7751994871
11
-8.0498740139
21
-6.8064494573
0
LINE
5
31B
100
AcDbEntity
8
0
100
AcDbLine
62
7
6
CONTINUOUS
10
7.6710211535
20
4.2483835129
11
8.1698991535
21
4.2483885129
0
LINE
5
31C
100
AcDbEntity
8
0
100
AcDbLine
62
7
6
CONTINUOUS
10
8.5491651535
20
4.6527515129
11
6.4990721535
21
4.6527515129
0
LINE
5
31D
100
AcDbEntity
8
0
100
AcDbLine
62
7
6
CONTINUOUS
10
4.7593695327
20
5.2510505129
11
2.8490621535
21
5.2510505129
0
LINE
5
31E
100
AcDbEntity
8
0
100
AcDbLine
62
7
6
CONTINUOUS
10
-2.6509378465
20
5.2510505129
11
-4.5612452258
21
5.2510505129
0
LINE
5
31F
100
AcDbEntity
8
0
100
AcDbLine
62
7
6
CONTINUOUS
10
6.4990721535
20
4.2427305129
11
7.2917561535
21
4.2426845129
0
LINE
5
320
100
AcDbEntity
8
0
100
AcDbLine
62
7
6
CONTINUOUS
10
5.6990621535
20
15.7113578921
11
5.6990621535
21
6.1907431337
0
LINE
5
321
100
AcDbEntity
8
0
100
AcDbLine
62
7
6
CONTINUOUS
10
5.6990621535
20
-5.6886421079
11
5.6990621535
21
-15.2092568663
0
LINE
5
322
100
AcDbEntity
8
0
100
AcDbLine
62
7
6
CONTINUOUS
10
6.0990621535
20
20.8510505129
11
6.0990621535
21
20.2510505129
0
LINE
5
323
100
AcDbEntity
8
0
100
AcDbLine
62
7
6
CONTINUOUS
10
6.0990621535
20
-19.7489494871
11
6.0990621535
21
-20.3489494871
0
LINE
5
324
100
AcDbEntity
8
0
100
AcDbLine
62
7
6
CONTINUOUS
10
6.4990721535
20
5.3361135129
11
6.4990671535
21
4.9260935129
0
LINE
5
325
100
AcDbEntity
8
0
100
AcDbLine
62
7
6
CONTINUOUS
10
6.4990671535
20
8.9312295129
11
6.4990671535
21
8.5212135129
0
LINE
5
326
100
AcDbEntity
8
0
100
AcDbLine
62
7
6
CONTINUOUS
10
6.4990671535
20
7.3359145129
11
6.4990671535
21
6.9258985129
0
LINE
5
327
100
AcDbEntity
8
0
100
AcDbLine
62
7
6
CONTINUOUS
10
6.4990721535
20
4.6527515129
11
6.4990721535
21
4.2427305129
0
LINE
5
328
100
AcDbEntity
8
0
100
AcDbLine
62
7
6
CONTINUOUS
10
6.4990721535
20
3.4739445129
11
6.4990771535
21
3.0121255129
0
LINE
5
329
100
AcDbEntity
8
0
100
AcDbLine
62
7
6
CONTINUOUS
10
6.4990671535
20
6.6525565129
11
6.4990721535
21
6.2425415129
0
LINE
5
32A
100
AcDbEntity
8
0
100
AcDbLine
62
7
6
CONTINUOUS
10
6.4990671535
20
8.1335695129
11
6.4990721535
21
7.7235645129
0
LINE
5
32B
100
AcDbEntity
8
0
100
AcDbLine
62
7
6
CONTINUOUS
10
6.4990621535
20
9.7512495129
11
6.4990671535
21
9.3412345129
0
LINE
5
32C
100
AcDbEntity
8
0
100
AcDbLine
62
7
6
CONTINUOUS
10
6.4990621535
20
11.0928365129
11
6.4990671535
21
10.6828055129
0
LINE
5
32D
100
AcDbEntity
8
0
100
AcDbLine
62
7
6
CONTINUOUS
10
6.5433981535
20
-2.9989494871
11
6.5433981535
21
-4.4200064871
0
LINE
5
32E
100
AcDbEntity
8
0
100
AcDbLine
62
7
6
CONTINUOUS
10
6.5433981535
20
-4.8494274871
11
6.5433981535
21
-5.2065024871
0
LINE
5
32F
100
AcDbEntity
8
0
100
AcDbLine
62
7
6
CONTINUOUS
10
6.5433981535
20
-5.6311364871
11
6.5433981535
21
-5.9881974871
0
LINE
5
330
100
AcDbEntity
8
0
100
AcDbLine
62
7
6
CONTINUOUS
10
6.5433981535
20
-6.9088654871
11
6.5433981535
21
-7.3580314871
0
LINE
5
331
100
AcDbEntity
8
0
100
AcDbLine
62
7
6
CONTINUOUS
10
6.5433981535
20
-9.6354544871
11
6.5433981535
21
-9.9791874871
0
LINE
5
332
100
AcDbEntity
8
0
100
AcDbLine
62
7
6
CONTINUOUS
10
6.5433981535
20
-10.8932694871
11
6.5433981535
21
-11.2500634871
0
LINE
5
333
100
AcDbEntity
8
0
100
AcDbLine
62
7
6
CONTINUOUS
10
6.8607151535
20
-4.4200064871
11
6.8607051535
21
-3.3560034871
0
LINE
5
334
100
AcDbEntity
8
0
100
AcDbLine
62
7
6
CONTINUOUS
10
6.9022361535
20
6.1130995129
11
6.9022361535
21
5.4655505129
0
LINE
5
335
100
AcDbEntity
8
0
100
AcDbLine
62
9
6
CONTINUOUS
10
4.0623608187
20
-19.3813040895
11
4.0787991598
21
-19.2489494871
0
LINE
5
336
100
AcDbEntity
8
0
100
AcDbLine
62
9
6
CONTINUOUS
10
4.3623151272
20
-19.6783845101
11
4.3832612052
21
-19.5097355084
0
LINE
5
337
100
AcDbEntity
8
0
100
AcDbLine
62
7
6
CONTINUOUS
10
-7.3477463933
20
-7.8376995467
11
-7.2520016345
21
-7.8064494871
0
LINE
5
338
100
AcDbEntity
8
0
100
AcDbLine
62
7
6
CONTINUOUS
10
-7.9541293445
20
-8.1501994275
11
-8.0498740139
21
-8.1814494871
0
LINE
5
339
100
AcDbEntity
8
0
100
AcDbLine
62
7
6
CONTINUOUS
10
-7.3477463933
20
-9.2126994871
11
-7.2520016345
21
-9.1814496063
0
LINE
5
33A
100
AcDbEntity
8
0
100
AcDbLine
62
7
6
CONTINUOUS
10
10.5990621535
20
6.2510505129
11
9.8802391096
21
6.2510505129
0
LINE
5
33B
100
AcDbEntity
8
0
100
AcDbLine
62
7
6
CONTINUOUS
10
-9.6821148027
20
6.2510505129
11
-10.4009378465
21
6.2510505129
0
LINE
5
33C
100
AcDbEntity
8
0
100
AcDbLine
62
7
6
CONTINUOUS
10
6.4990671535
20
6.9258985129
11
8.5491591535
21
6.9258985129
0
LINE
5
33D
100
AcDbEntity
8
0
100
AcDbLine
62
7
6
CONTINUOUS
10
7.2917561535
20
4.2426845129
11
7.2917511535
21
3.8848315129
0
LINE
5
33E
100
AcDbEntity
8
0
100
AcDbLine
62
7
6
CONTINUOUS
10
7.2917511535
20
5.5906215129
11
7.2917511535
21
5.9880345129
0
LINE
5
33F
100
AcDbEntity
8
0
100
AcDbLine
62
7
6
CONTINUOUS
10
7.4109391535
20
-3.3560034871
11
7.4109471535
21
-4.3403264871
0
LINE
5
340
100
AcDbEntity
8
0
100
AcDbLine
62
7
6
CONTINUOUS
10
7.6710211535
20
3.7495391316
11
7.6710211535
21
4.2483835129
0
LINE
5
341
100
AcDbEntity
8
0
100
AcDbLine
62
7
6
CONTINUOUS
10
7.7282711535
20
-4.3403264871
11
7.7282781535
21
-3.3560034871
0
LINE
5
342
100
AcDbEntity
8
0
100
AcDbLine
62
7
6
CONTINUOUS
10
8.1698991535
20
4.2483885129
11
8.1698991535
21
3.7495478942
0
LINE
5
343
100
AcDbEntity
8
0
100
AcDbLine
62
7
6
CONTINUOUS
10
8.2254211535
20
-3.3560034871
11
8.2254181535
21
-4.4119694871
0
LINE
5
344
100
AcDbEntity
8
0
100
AcDbLine
62
7
6
CONTINUOUS
10
8.5427351535
20
-11.2500634871
11
8.5427351535
21
-10.9063264871
0
LINE
5
345
100
AcDbEntity
8
0
100
AcDbLine
62
7
6
CONTINUOUS
10
8.5427351535
20
-9.9843374871
11
8.5427351535
21
-9.6354544871
0
LINE
5
346
100
AcDbEntity
8
0
100
AcDbLine
62
7
6
CONTINUOUS
10
8.5427351535
20
-7.3533184871
11
8.5427351535
21
-6.8745584871
0
LINE
5
347
100
AcDbEntity
8
0
100
AcDbLine
62
7
6
CONTINUOUS
10
8.5427351535
20
-5.9881974871
11
8.5427351535
21
-5.6311364871
0
LINE
5
348
100
AcDbEntity
8
0
100
AcDbLine
62
7
6
CONTINUOUS
10
8.5427351535
20
-5.2065024871
11
8.5427351535
21
-4.8494274871
0
LINE
5
349
100
AcDbEntity
8
0
100
AcDbLine
62
7
6
CONTINUOUS
10
8.5427351535
20
-4.4119694871
11
8.5427351535
21
-2.9989494871
0
LINE
5
34A
100
AcDbEntity
8
0
100
AcDbLine
62
7
6
CONTINUOUS
10
8.5491591535
20
6.9258985129
11
8.5491591535
21
7.5457315129
0
LINE
5
34B
100
AcDbEntity
8
0
100
AcDbLine
62
7
6
CONTINUOUS
10
8.5491591535
20
8.3113965129
11
8.5491591535
21
8.9312295129
0
LINE
5
34C
100
AcDbEntity
8
0
100
AcDbLine
62
7
6
CONTINUOUS
10
8.5491591535
20
9.3412295129
11
8.5491591535
21
9.7512445129
0
LINE
5
34D
100
AcDbEntity
8
0
100
AcDbLine
62
7
6
CONTINUOUS
10
8.5491591535
20
10.0245865129
11
8.5491591535
21
10.4346075129
0
LINE
5
34E
100
AcDbEntity
8
0
100
AcDbLine
62
7
6
CONTINUOUS
10
8.5491591535
20
11.3410295129
11
8.5491591535
21
11.7510505129
0
LINE
5
34F
100
AcDbEntity
8
0
100
AcDbLine
62
7
6
CONTINUOUS
10
8.5491651535
20
3.6926336901
11
8.5491651535
21
4.6527515129
0
LINE
5
350
100
AcDbEntity
8
0
100
AcDbLine
62
7
6
CONTINUOUS
10
8.5491651535
20
5.5843125129
11
8.5491651535
21
5.9943485129
0
LINE
5
351
100
AcDbEntity
8
0
100
AcDbLine
62
7
6
CONTINUOUS
10
-3.4139058798
20
-20.2584231361
11
-3.4376848728
21
-20.2940961540
0
LINE
5
352
100
AcDbEntity
8
0
100
AcDbLine
62
9
6
CONTINUOUS
10
-9.6104114955
20
-19.9585259386
11
-9.7009378465
21
-20.0490522896
0
LINE
5
353
100
AcDbEntity
8
0
100
AcDbLine
62
9
6
CONTINUOUS
10
-9.3105142980
20
-20.2584231361
11
-9.4010406490
21
-20.3489494871
0
LINE
5
354
100
AcDbEntity
8
0
100
AcDbLine
62
7
6
CONTINUOUS
10
7.8509651535
20
7.3359195129
11
6.4990671535
21
7.3359145129
0
LINE
5
355
100
AcDbEntity
8
0
100
AcDbLine
62
7
6
CONTINUOUS
10
6.4990671535
20
8.5212135129
11
7.8509651535
21
8.5212135129
0
LINE
5
356
100
AcDbEntity
8
0
100
AcDbLine
62
7
6
CONTINUOUS
10
7.2917511535
20
5.9880345129
11
7.9106661535
21
5.7893325129
0
LINE
5
357
100
AcDbEntity
8
0
100
AcDbLine
62
7
6
CONTINUOUS
10
6.4990721535
20
6.2425415129
11
6.9022361535
21
6.1130995129
0
LINE
5
358
100
AcDbEntity
8
0
100
AcDbLine
62
7
6
CONTINUOUS
10
8.5491651535
20
5.9943485129
11
6.4990671535
21
6.6525565129
0
LINE
5
359
100
AcDbEntity
8
0
100
AcDbLine
62
9
6
CONTINUOUS
10
-9.6104114955
20
20.4606269644
11
-9.7009378465
21
20.5511533154
0
LINE
5
35A
100
AcDbEntity
8
0
100
AcDbLine
62
9
6
CONTINUOUS
10
-9.3105142980
20
20.7605241619
11
-9.4010406490
21
20.8510505129
0
LINE
5
35B
100
AcDbEntity
8
0
100
AcDbLine
62
9
6
CONTINUOUS
10
9.4968342216
20
16.7237264766
11
9.4968342216
21
2.0088900960
0
LINE
5
35C
100
AcDbEntity
8
0
100
AcDbLine
62
9
6
CONTINUOUS
10
9.4968342216
20
-1.5067890702
11
9.4968342216
21
-16.2216254509
0
LINE
5
35D
100
AcDbEntity
8
0
100
AcDbLine
62
9
6
CONTINUOUS
10
9.5086386050
20
20.7605241619
11
9.5086386050
21
20.5027748483
0
LINE
5
35E
100
AcDbEntity
8
0
100
AcDbLine
62
9
6
CONTINUOUS
10
9.5086386050
20
-20.2584231361
11
9.5086386050
21
-20.0006738225
0
LINE
5
35F
100
AcDbEntity
8
0
100
AcDbLine
62
9
6
CONTINUOUS
10
9.7967314191
20
16.7089954192
11
9.7967314191
21
2.6854127158
0
LINE
5
360
100
AcDbEntity
8
0
100
AcDbLine
62
9
6
CONTINUOUS
10
9.7967314191
20
-2.1833116900
11
9.7967314191
21
-16.2068943935
0
LINE
5
361
100
AcDbEntity
8
0
100
AcDbLine
62
7
6
CONTINUOUS
10
9.8802391096
20
6.2510505129
11
9.8802391096
21
-5.7489494871
0
LINE
5
362
100
AcDbEntity
8
0
100
AcDbLine
62
7
6
CONTINUOUS
10
9.8990621535
20
20.5511533154
11
9.8990621535
21
6.2510505129
0
LINE
5
363
100
AcDbEntity
8
0
100
AcDbLine
62
7
6
CONTINUOUS
10
9.8990621535
20
-5.7489494871
11
9.8990621535
21
-20.0490522896
0
LINE
5
364
100
AcDbEntity
8
0
100
AcDbLine
62
9
6
CONTINUOUS
10
4.0953735707
20
-18.2607098710
11
4.0833068966
21
-18.2969393318
0
LINE
5
365
100
AcDbEntity
8
0
100
AcDbLine
62
9
6
CONTINUOUS
10
4.3944939304
20
-18.5628026124
11
4.3832612052
21
-18.5965281923
0
LINE
5
366
100
AcDbEntity
8
0
100
AcDbLine
62
7
6
CONTINUOUS
10
-6.8009378465
20
-19.7489494871
11
-7.4009378465
21
-20.3489494871
0
LINE
5
367
100
AcDbEntity
8
0
100
AcDbLine
62
7
6
CONTINUOUS
10
6.5433981535
20
-7.3580314871
11
7.7200271535
21
-6.4934534871
0
LINE
5
368
100
AcDbEntity
8
0
100
AcDbLine
62
7
6
CONTINUOUS
10
7.4744361535
20
-6.2435264871
11
6.5433981535
21
-6.9088654871
0
LINE
5
369
100
AcDbEntity
8
0
100
AcDbLine
62
7
6
CONTINUOUS
10
8.5491591535
20
8.9312295129
11
6.4990671535
21
8.9312295129
0
LINE
5
36A
100
AcDbEntity
8
0
100
AcDbLine
62
7
6
CONTINUOUS
10
6.4990671535
20
9.3412345129
11
8.5491591535
21
9.3412295129
0
LINE
5
36B
100
AcDbEntity
8
0
100
AcDbLine
62
7
6
CONTINUOUS
10
8.5491591535
20
9.7512445129
11
6.4990621535
21
9.7512495129
0
LINE
5
36C
100
AcDbEntity
8
0
100
AcDbLine
62
7
6
CONTINUOUS
10
6.4990721535
20
7.7235645129
11
7.8509651535
21
7.3359195129
0
LINE
5
36D
100
AcDbEntity
8
0
100
AcDbLine
62
7
6
CONTINUOUS
10
8.5491591535
20
7.5457315129
11
7.2140661535
21
7.9285645129
0
LINE
5
36E
100
AcDbEntity
8
0
100
AcDbLine
62
7
6
CONTINUOUS
10
-7.4009378465
20
20.8510505129
11
-6.8009378465
21
20.2510505129
0
LINE
5
36F
100
AcDbEntity
8
0
100
AcDbLine
62
7
6
CONTINUOUS
10
10.5990621535
20
6.2510505129
11
10.5990621535
21
-5.7489494871
0
LINE
5
370
100
AcDbEntity
8
0
100
AcDbLine
62
7
6
CONTINUOUS
10
11.0990621535
20
21.8512218504
11
11.0990621535
21
-21.3491208246
0
LINE
5
371
100
AcDbEntity
8
0
100
AcDbLine
62
7
6
CONTINUOUS
10
6.4990671535
20
10.6828055129
11
8.5491591535
21
10.0245865129
0
LINE
5
372
100
AcDbEntity
8
0
100
AcDbLine
62
7
6
CONTINUOUS
10
7.1306421535
20
-10.9063184871
11
8.5427351535
21
-9.9843374871
0
LINE
5
373
100
AcDbEntity
8
0
100
AcDbLine
62
7
6
CONTINUOUS
10
7.9400791535
20
-9.9840314871
11
6.5433981535
21
-10.8932694871
0
LINE
5
374
100
AcDbEntity
8
0
100
AcDbLine
62
7
6
CONTINUOUS
10
8.5491591535
20
10.4346075129
11
7.1375601535
21
10.8878155129
0
LINE
5
375
100
AcDbEntity
8
0
100
AcDbLine
62
7
6
CONTINUOUS
10
4.3860941202
20
-20.2584231361
11
4.3623151272
21
-20.2940961540
0
LINE
5
376
100
AcDbEntity
8
0
100
AcDbLine
62
7
6
CONTINUOUS
10
-4.5612452258
20
16.6510505129
11
4.7593695327
21
16.6510505129
0
LINE
5
377
100
AcDbEntity
8
0
100
AcDbLine
62
7
6
CONTINUOUS
10
-9.2987099147
20
16.7237264766
11
9.4968342216
21
16.7237264766
0
LINE
5
378
100
AcDbEntity
8
0
100
AcDbLine
62
7
6
CONTINUOUS
10
6.0990621535
20
20.2510505129
11
6.9990621535
21
20.2510505129
0
LINE
5
379
100
AcDbEntity
8
0
100
AcDbLine
62
7
6
CONTINUOUS
10
-5.9009378465
20
20.2510505129
11
-6.8009378465
21
20.2510505129
0
LINE
5
37A
100
AcDbEntity
8
0
100
AcDbLine
62
9
6
CONTINUOUS
10
9.5086386050
20
20.5027748483
11
7.2507864889
21
20.5027748483
0
LINE
5
37B
100
AcDbEntity
8
0
100
AcDbLine
62
9
6
CONTINUOUS
10
6.0990621535
20
20.5027748483
11
-5.9009378465
21
20.5027748483
0
LINE
5
37C
100
AcDbEntity
8
0
100
AcDbLine
62
9
6
CONTINUOUS
10
-7.0526621819
20
20.5027748483
11
-9.3105142980
21
20.5027748483
0
LINE
5
37D
100
AcDbEntity
8
0
100
AcDbLine
62
9
6
CONTINUOUS
10
9.5086386050
20
20.7605241619
11
7.5085358025
21
20.7605241619
0
LINE
5
37E
100
AcDbEntity
8
0
100
AcDbLine
62
9
6
CONTINUOUS
10
6.0990621535
20
20.7605241619
11
-5.9009378465
21
20.7605241619
0
LINE
5
37F
100
AcDbEntity
8
0
100
AcDbLine
62
9
6
CONTINUOUS
10
-7.3104114955
20
20.7605241619
11
-9.3105142980
21
20.7605241619
0
LINE
5
380
100
AcDbEntity
8
0
100
AcDbLine
62
7
6
CONTINUOUS
10
-9.4010406490
20
20.8510505129
11
9.5991649560
21
20.8510505129
0
LINE
5
381
100
AcDbEntity
8
0
100
AcDbLine
62
7
6
CONTINUOUS
10
-10.4011091841
20
22.3510505129
11
10.5992334910
21
22.3510505129
0
CIRCLE
5
382
100
AcDbEntity
8
0
100
AcDbCircle
62
7
6
CONTINUOUS
10
0.0990621535
20
-2.2489494871
40
0.6000000000
0
CIRCLE
5
383
100
AcDbEntity
8
0
100
AcDbCircle
62
7
6
CONTINUOUS
10
0.0990621535
20
2.7510505129
40
0.6000000000
0
CIRCLE
5
384
100
AcDbEntity
8
0
100
AcDbCircle
62
7
6
CONTINUOUS
10
4.0990621535
20
-14.8489494871
40
0.6000000000
0
CIRCLE
5
385
100
AcDbEntity
8
0
100
AcDbCircle
62
7
6
CONTINUOUS
10
4.0990621535
20
-6.4489494871
40
0.6000000000
0
CIRCLE
5
386
100
AcDbEntity
8
0
100
AcDbCircle
62
7
6
CONTINUOUS
10
-3.9009378465
20
-14.8489494871
40
0.6000000000
0
CIRCLE
5
387
100
AcDbEntity
8
0
100
AcDbCircle
62
7
6
CONTINUOUS
10
-3.9009378465
20
-6.4489494871
40
0.6000000000
0
CIRCLE
5
388
100
AcDbEntity
8
0
100
AcDbCircle
62
7
6
CONTINUOUS
10
4.0990621535
20
15.3510505129
40
0.6000000000
0
CIRCLE
5
389
100
AcDbEntity
8
0
100
AcDbCircle
62
7
6
CONTINUOUS
10
4.0990621535
20
6.9510505129
40
0.6000000000
0
CIRCLE
5
38A
100
AcDbEntity
8
0
100
AcDbCircle
62
7
6
CONTINUOUS
10
-3.9009378465
20
15.3510505129
40
0.6000000000
0
CIRCLE
5
38B
100
AcDbEntity
8
0
100
AcDbCircle
62
7
6
CONTINUOUS
10
-3.9009378465
20
6.9510505129
40
0.6000000000
0
CIRCLE
5
38C
100
AcDbEntity
8
0
100
AcDbCircle
62
7
6
CONTINUOUS
10
0.0990621535
20
-13.7489494871
40
0.6874886635
0
CIRCLE
5
38D
100
AcDbEntity
8
0
100
AcDbCircle
62
7
6
CONTINUOUS
10
0.0990621535
20
-13.7489494871
40
0.6000000000
0
ARC
5
38E
100
AcDbEntity
8
0
100
AcDbCircle
62
7
6
CONTINUOUS
10
7.9204591535
20
3.7495435129
40
0.2494390000
100
AcDbArc
50
180.0010063792
51
0.0010063711
0
ARC
5
38F
100
AcDbEntity
8
0
100
AcDbCircle
62
7
6
CONTINUOUS
10
7.9204591535
20
3.6926335129
40
0.6287061425
100
AcDbArc
50
202.8428880619
51
0.0000161486
0
SPLINE
5
390
100
AcDbEntity
8
0
100
AcDbSpline
62
7
6
CONTINUOUS
70
0
71
3
72
13
73
9
74
7
42
0.0000001000
43
0.0000001000
44
0.0000000001
12
-1.4792824842
22
0.0000000000
32
0.0000000000
13
0.0000000000
23
1.4792824842
33
0.0000000000
40
0.0000000000
40
0.0000000000
40
0.0000000000
40
0.0000000000
40
0.1744148959
40
0.3397148793
40
0.5000398798
40
0.6603424777
40
0.8256047915
40
1.0000000000
40
1.0000000000
40
1.0000000000
40
1.0000000000
10
-4.5612452258
20
5.2510505129
30
0.0000000000
10
-4.6472481926
20
5.2510505129
30
0.0000000000
10
-4.8156735296
20
5.2718625565
30
0.0000000000
10
-5.0467683810
20
5.3654379184
30
0.0000000000
10
-5.2396560443
20
5.5124019201
30
0.0000000000
10
-5.3865858489
20
5.7052908070
30
0.0000000000
10
-5.4801316831
20
5.9363531389
30
0.0000000000
10
-5.5009378465
20
6.1047498746
30
0.0000000000
10
-5.5009378465
20
6.1907431337
30
0.0000000000
11
-4.5612452258
21
5.2510505129
31
0.0000000000
11
-4.8171809453
21
5.2836925131
31
0.0000000000
11
-5.0435960116
21
5.3760444183
31
0.0000000000
11
-5.2320847106
21
5.5199878284
31
0.0000000000
11
-5.3759864628
21
5.7084666402
31
0.0000000000
11
-5.4683033213
21
5.9348358200
31
0.0000000000
11
-5.5009378465
21
6.1907431337
31
0.0000000000
0
SPLINE
5
391
100
AcDbEntity
8
0
100
AcDbSpline
62
7
6
CONTINUOUS
70
0
71
3
72
13
73
9
74
7
42
0.0000001000
43
0.0000001000
44
0.0000000001
12
0.0000000000
22
1.4792824842
32
0.0000000000
13
1.4792824842
23
0.0000000000
33
0.0000000000
40
0.0000000000
40
0.0000000000
40
0.0000000000
40
0.0000000000
40
0.1744148959
40
0.3397148793
40
0.5000398798
40
0.6603424777
40
0.8256047915
40
1.0000000000
40
1.0000000000
40
1.0000000000
40
1.0000000000
10
-5.5009378465
20
-5.6886421079
30
0.0000000000
10
-5.5009378465
20
-5.6026391411
30
0.0000000000
10
-5.4801258030
20
-5.4342138041
30
0.0000000000
10
-5.3865504410
20
-5.2031189527
30
0.0000000000
10
-5.2395864393
20
-5.0102312893
30
0.0000000000
10
-5.0466975525
20
-4.8633014848
30
0.0000000000
10
-4.8156352205
20
-4.7697556505
30
0.0000000000
10
-4.6472384848
20
-4.7489494871
30
0.0000000000
10
-4.5612452258
20
-4.7489494871
30
0.0000000000
11
-5.5009378465
21
-5.6886421079
31
0.0000000000
11
-5.4682958463
21
-5.4327063883
31
0.0000000000
11
-5.3759439411
21
-5.2062913221
31
0.0000000000
11
-5.2320005311
21
-5.0178026231
31
0.0000000000
11
-5.0435217193
21
-4.8739008709
31
0.0000000000
11
-4.8171525395
21
-4.7815840124
31
0.0000000000
11
-4.5612452258
21
-4.7489494871
31
0.0000000000
0
SPLINE
5
392
100
AcDbEntity
8
0
100
AcDbSpline
62
7
6
CONTINUOUS
70
0
71
3
72
13
73
9
74
7
42
0.0000001000
43
0.0000001000
44
0.0000000001
12
-1.4792824842
22
0.0000000000
32
0.0000000000
13
-0.0000000000
23
1.4792824842
33
0.0000000000
40
0.0000000000
40
0.0000000000
40
0.0000000000
40
0.0000000000
40
0.1744148959
40
0.3397148793
40
0.5000398798
40
0.6603424777
40
0.8256047915
40
1.0000000000
40
1.0000000000
40
1.0000000000
40
1.0000000000
10
-4.5612452258
20
-16.1489494871
30
0.0000000000
10
-4.6472481926
20
-16.1489494871
30
0.0000000000
10
-4.8156735296
20
-16.1281374435
30
0.0000000000
10
-5.0467683810
20
-16.0345620816
30
0.0000000000
10
-5.2396560443
20
-15.8875980799
30
0.0000000000
10
-5.3865858489
20
-15.6947091930
30
0.0000000000
10
-5.4801316831
20
-15.4636468611
30
0.0000000000
10
-5.5009378465
20
-15.2952501254
30
0.0000000000
10
-5.5009378465
20
-15.2092568663
30
0.0000000000
11
-4.5612452258
21
-16.1489494871
31
0.0000000000
11
-4.8171809453
21
-16.1163074869
31
0.0000000000
11
-5.0435960116
21
-16.0239555817
31
0.0000000000
11
-5.2320847106
21
-15.8800121716
31
0.0000000000
11
-5.3759864628
21
-15.6915333598
31
0.0000000000
11
-5.4683033213
21
-15.4651641800
31
0.0000000000
11
-5.5009378465
21
-15.2092568663
31
0.0000000000
0
SPLINE
5
393
100
AcDbEntity
8
0
100
AcDbSpline
62
7
6
CONTINUOUS
70
0
71
3
72
13
73
9
74
7
42
0.0000001000
43
0.0000001000
44
0.0000000001
12
0.0000000000
22
-1.4792824842
32
0.0000000000
13
-1.4792824842
23
-0.0000000000
33
0.0000000000
40
0.0000000000
40
0.0000000000
40
0.0000000000
40
0.0000000000
40
0.1744148959
40
0.3397148793
40
0.5000398798
40
0.6603424777
40
0.8256047915
40
1.0000000000
40
1.0000000000
40
1.0000000000
40
1.0000000000
10
5.6990621535
20
-15.2092568663
30
0.0000000000
10
5.6990621535
20
-15.2952598332
30
0.0000000000
10
5.6782501099
20
-15.4636851701
30
0.0000000000
10
5.5846747480
20
-15.6947800215
30
0.0000000000
10
5.4377107463
20
-15.8876676849
30
0.0000000000
10
5.2448218594
20
-16.0345974894
30
0.0000000000
10
5.0137595274
20
-16.1281433237
30
0.0000000000
10
4.8453627917
20
-16.1489494871
30
0.0000000000
10
4.7593695327
20
-16.1489494871
30
0.0000000000
11
5.6990621535
21
-15.2092568663
31
0.0000000000
11
5.6664201532
21
-15.4651925859
31
0.0000000000
11
5.5740682480
21
-15.6916076521
31
0.0000000000
11
5.4301248380
21
-15.8800963512
31
0.0000000000
11
5.2416460262
21
-16.0239981033
31
0.0000000000
11
5.0152768464
21
-16.1163149619
31
0.0000000000
11
4.7593695327
21
-16.1489494871
31
0.0000000000
0
SPLINE
5
394
100
AcDbEntity
8
0
100
AcDbSpline
62
7
6
CONTINUOUS
70
0
71
3
72
13
73
9
74
7
42
0.0000001000
43
0.0000001000
44
0.0000000001
12
1.4792824842
22
0.0000000000
32
0.0000000000
13
0.0000000000
23
-1.4792824842
33
0.0000000000
40
0.0000000000
40
0.0000000000
40
0.0000000000
40
0.0000000000
40
0.1744148959
40
0.3397148793
40
0.5000398798
40
0.6603424777
40
0.8256047915
40
1.0000000000
40
1.0000000000
40
1.0000000000
40
1.0000000000
10
4.7593695327
20
-4.7489494871
30
0.0000000000
10
4.8453724995
20
-4.7489494871
30
0.0000000000
10
5.0137978365
20
-4.7697615307
30
0.0000000000
10
5.2448926879
20
-4.8633368926
30
0.0000000000
10
5.4377803513
20
-5.0103008943
30
0.0000000000
10
5.5847101558
20
-5.2031897812
30
0.0000000000
10
5.6782559901
20
-5.4342521131
30
0.0000000000
10
5.6990621535
20
-5.6026488488
30
0.0000000000
10
5.6990621535
20
-5.6886421079
30
0.0000000000
11
4.7593695327
21
-4.7489494871
31
0.0000000000
11
5.0153052523
21
-4.7815914874
31
0.0000000000
11
5.2417203185
21
-4.8739433925
31
0.0000000000
11
5.4302090175
21
-5.0178868026
31
0.0000000000
11
5.5741107697
21
-5.2063656144
31
0.0000000000
11
5.6664276282
21
-5.4327347942
31
0.0000000000
11
5.6990621535
21
-5.6886421079
31
0.0000000000
0
SPLINE
5
395
100
AcDbEntity
8
0
100
AcDbSpline
62
7
6
CONTINUOUS
70
0
71
3
72
13
73
9
74
7
42
0.0000001000
43
0.0000001000
44
0.0000000001
12
0.0000000000
22
-1.4792824842
32
0.0000000000
13
-1.4792824842
23
0.0000000000
33
0.0000000000
40
0.0000000000
40
0.0000000000
40
0.0000000000
40
0.0000000000
40
0.1744148959
40
0.3397148793
40
0.5000398798
40
0.6603424777
40
0.8256047915
40
1.0000000000
40
1.0000000000
40
1.0000000000
40
1.0000000000
10
5.6990621535
20
6.1907431337
30
0.0000000000
10
5.6990621535
20
6.1047401668
30
0.0000000000
10
5.6782501099
20
5.9363148299
30
0.0000000000
10
5.5846747480
20
5.7052199785
30
0.0000000000
10
5.4377107463
20
5.5123323151
30
0.0000000000
10
5.2448218594
20
5.3654025106
30
0.0000000000
10
5.0137595274
20
5.2718566763
30
0.0000000000
10
4.8453627917
20
5.2510505129
30
0.0000000000
10
4.7593695327
20
5.2510505129
30
0.0000000000
11
5.6990621535
21
6.1907431337
31
0.0000000000
11
5.6664201532
21
5.9348074141
31
0.0000000000
11
5.5740682480
21
5.7083923479
31
0.0000000000
11
5.4301248380
21
5.5199036488
31
0.0000000000
11
5.2416460262
21
5.3760018967
31
0.0000000000
11
5.0152768464
21
5.2836850381
31
0.0000000000
11
4.7593695327
21
5.2510505129
31
0.0000000000
0
SPLINE
5
396
100
AcDbEntity
8
0
100
AcDbSpline
62
7
6
CONTINUOUS
70
0
71
3
72
13
73
9
74
7
42
0.0000001000
43
0.0000001000
44
0.0000000001
12
1.4792824842
22
0.0000000000
32
0.0000000000
13
0.0000000000
23
-1.4792824842
33
0.0000000000
40
0.0000000000
40
0.0000000000
40
0.0000000000
40
0.0000000000
40
0.1744148959
40
0.3397148793
40
0.5000398798
40
0.6603424777
40
0.8256047915
40
1.0000000000
40
1.0000000000
40
1.0000000000
40
1.0000000000
10
4.7593695327
20
16.6510505129
30
0.0000000000
10
4.8453724995
20
16.6510505129
30
0.0000000000
10
5.0137978365
20
16.6302384693
30
0.0000000000
10
5.2448926879
20
16.5366631074
30
0.0000000000
10
5.4377803513
20
16.3896991057
30
0.0000000000
10
5.5847101558
20
16.1968102188
30
0.0000000000
10
5.6782559901
20
15.9657478869
30
0.0000000000
10
5.6990621535
20
15.7973511512
30
0.0000000000
10
5.6990621535
20
15.7113578921
30
0.0000000000
11
4.7593695327
21
16.6510505129
31
0.0000000000
11
5.0153052523
21
16.6184085126
31
0.0000000000
11
5.2417203185
21
16.5260566075
31
0.0000000000
11
5.4302090175
21
16.3821131974
31
0.0000000000
11
5.5741107697
21
16.1936343856
31
0.0000000000
11
5.6664276282
21
15.9672652058
31
0.0000000000
11
5.6990621535
21
15.7113578921
31
0.0000000000
0
SPLINE
5
397
100
AcDbEntity
8
0
100
AcDbSpline
62
7
6
CONTINUOUS
70
0
71
3
72
13
73
9
74
7
42
0.0000001000
43
0.0000001000
44
0.0000000001
12
0.0000000000
22
1.4792824842
32
0.0000000000
13
1.4792824842
23
-0.0000000000
33
0.0000000000
40
0.0000000000
40
0.0000000000
40
0.0000000000
40
0.0000000000
40
0.1744148959
40
0.3397148793
40
0.5000398798
40
0.6603424777
40
0.8256047915
40
1.0000000000
40
1.0000000000
40
1.0000000000
40
1.0000000000
10
-5.5009378465
20
15.7113578921
30
0.0000000000
10
-5.5009378465
20
15.7973608589
30
0.0000000000
10
-5.4801258030
20
15.9657861959
30
0.0000000000
10
-5.3865504410
20
16.1968810473
30
0.0000000000
10
-5.2395864393
20
16.3897687107
30
0.0000000000
10
-5.0466975525
20
16.5366985152
30
0.0000000000
10
-4.8156352205
20
16.6302443495
30
0.0000000000
10
-4.6472384848
20
16.6510505129
30
0.0000000000
10
-4.5612452258
20
16.6510505129
30
0.0000000000
11
-5.5009378465
21
15.7113578921
31
0.0000000000
11
-5.4682958463
21
15.9672936117
31
0.0000000000
11
-5.3759439411
21
16.1937086779
31
0.0000000000
11
-5.2320005311
21
16.3821973769
31
0.0000000000
11
-5.0435217193
21
16.5260991291
31
0.0000000000
11
-4.8171525395
21
16.6184159876
31
0.0000000000
11
-4.5612452258
21
16.6510505129
31
0.0000000000
0
SPLINE
5
398
100
AcDbEntity
8
0
100
AcDbSpline
62
7
6
CONTINUOUS
70
0
71
3
72
8
73
4
74
2
42
0.0000001000
43
0.0000001000
44
0.0000000001
12
-0.3912651943
22
-0.3584440984
32
0.0000000000
13
-0.6565033235
23
0.0000000000
33
0.0000000000
40
0.0000000000
40
0.0000000000
40
0.0000000000
40
0.0000000000
40
1.0000000000
40
1.0000000000
40
1.0000000000
40
1.0000000000
10
8.0997041719
20
-8.7373452686
30
0.0000000000
10
7.9692824405
20
-8.8568266347
30
0.0000000000
10
7.7619082904
20
-8.9247866175
30
0.0000000000
10
7.5430738493
20
-8.9247866175
30
0.0000000000
11
8.0997041719
21
-8.7373452686
31
0.0000000000
11
7.5430738493
21
-8.9247866175
31
0.0000000000
0
SPLINE
5
399
100
AcDbEntity
8
0
100
AcDbSpline
62
7
6
CONTINUOUS
70
0
71
3
72
8
73
4
74
2
42
0.0000001000
43
0.0000001000
44
0.0000000001
12
-0.6564715741
22
0.0000000000
32
0.0000000000
13
-0.3912477450
23
0.3584400410
33
0.0000000000
40
0.0000000000
40
0.0000000000
40
0.0000000000
40
0.0000000000
40
1.0000000000
40
1.0000000000
40
1.0000000000
40
1.0000000000
10
7.5430738493
20
-8.9247866175
30
0.0000000000
10
7.3242499912
20
-8.9247866175
30
0.0000000000
10
7.1168700248
20
-8.8568252823
30
0.0000000000
10
6.9864541098
20
-8.7373452686
30
0.0000000000
11
7.5430738493
21
-8.9247866175
31
0.0000000000
11
6.9864541098
21
-8.7373452686
31
0.0000000000
0
SPLINE
5
39A
100
AcDbEntity
8
0
100
AcDbSpline
62
7
6
CONTINUOUS
70
0
71
3
72
8
73
4
74
2
42
0.0000001000
43
0.0000001000
44
0.0000000001
12
-0.3424071529
22
0.3136949299
32
0.0000000000
13
0.0000000000
23
0.4750555541
33
0.0000000000
40
0.0000000000
40
0.0000000000
40
0.0000000000
40
0.0000000000
40
1.0000000000
40
1.0000000000
40
1.0000000000
40
1.0000000000
10
6.9864541098
20
-8.7373452686
30
0.0000000000
10
6.8723183921
20
-8.6327802920
30
0.0000000000
10
6.8156071092
20
-8.4819284736
30
0.0000000000
10
6.8156071092
20
-8.3235766222
30
0.0000000000
11
6.9864541098
21
-8.7373452686
31
0.0000000000
11
6.8156071092
21
-8.3235766222
31
0.0000000000
0
SPLINE
5
39B
100
AcDbEntity
8
0
100
AcDbSpline
62
7
6
CONTINUOUS
70
0
71
3
72
8
73
4
74
2
42
0.0000001000
43
0.0000001000
44
0.0000000001
12
0.0000000000
22
0.4755847106
32
0.0000000000
13
0.3420785215
23
0.3133559058
33
0.0000000000
40
0.0000000000
40
0.0000000000
40
0.0000000000
40
0.0000000000
40
1.0000000000
40
1.0000000000
40
1.0000000000
40
1.0000000000
10
6.8156071092
20
-8.3235766222
30
0.0000000000
10
6.8156071092
20
-8.1650483854
30
0.0000000000
10
6.8724279359
20
-8.0122844268
30
0.0000000000
10
6.9864541098
20
-7.9078324582
30
0.0000000000
11
6.8156071092
21
-8.3235766222
31
0.0000000000
11
6.9864541098
21
-7.9078324582
31
0.0000000000
0
SPLINE
5
39C
100
AcDbEntity
8
0
100
AcDbSpline
62
7
6
CONTINUOUS
70
0
71
3
72
8
73
4
74
2
42
0.0000001000
43
0.0000001000
44
0.0000000001
12
0.3912746365
22
0.3584212700
32
0.0000000000
13
0.6564715741
23
0.0000000000
33
0.0000000000
40
0.0000000000
40
0.0000000000
40
0.0000000000
40
0.0000000000
40
1.0000000000
40
1.0000000000
40
1.0000000000
40
1.0000000000
10
6.9864541098
20
-7.9078324582
30
0.0000000000
10
7.1168789886
20
-7.7883587015
30
0.0000000000
10
7.3242499912
20
-7.7203875816
30
0.0000000000
10
7.5430738493
20
-7.7203875816
30
0.0000000000
11
6.9864541098
21
-7.9078324582
31
0.0000000000
11
7.5430738493
21
-7.7203875816
31
0.0000000000
0
SPLINE
5
39D
100
AcDbEntity
8
0
100
AcDbSpline
62
7
6
CONTINUOUS
70
0
71
3
72
8
73
4
74
2
42
0.0000001000
43
0.0000001000
44
0.0000000001
12
0.6565033235
22
0.0000000000
32
0.0000000000
13
0.3912689113
23
-0.3584506241
33
0.0000000000
40
0.0000000000
40
0.0000000000
40
0.0000000000
40
0.0000000000
40
1.0000000000
40
1.0000000000
40
1.0000000000
40
1.0000000000
10
7.5430738493
20
-7.7203875816
30
0.0000000000
10
7.7619082904
20
-7.7203875816
30
0.0000000000
10
7.9692812015
20
-7.7883489168
30
0.0000000000
10
8.0997041719
20
-7.9078324582
30
0.0000000000
11
7.5430738493
21
-7.7203875816
31
0.0000000000
11
8.0997041719
21
-7.9078324582
31
0.0000000000
0
SPLINE
5
39E
100
AcDbEntity
8
0
100
AcDbSpline
62
7
6
CONTINUOUS
70
0
71
3
72
8
73
4
74
2
42
0.0000001000
43
0.0000001000
44
0.0000000001
12
0.3420679384
22
-0.3133559058
32
0.0000000000
13
0.0000000000
23
-0.4755847106
33
0.0000000000
40
0.0000000000
40
0.0000000000
40
0.0000000000
40
0.0000000000
40
1.0000000000
40
1.0000000000
40
1.0000000000
40
1.0000000000
10
8.0997041719
20
-7.9078324582
30
0.0000000000
10
8.2137268180
20
-8.0122844268
30
0.0000000000
10
8.2705511725
20
-8.1650483854
30
0.0000000000
10
8.2705511725
20
-8.3235766222
30
0.0000000000
11
8.0997041719
21
-7.9078324582
31
0.0000000000
11
8.2705511725
21
-8.3235766222
31
0.0000000000
0
SPLINE
5
39F
100
AcDbEntity
8
0
100
AcDbSpline
62
7
6
CONTINUOUS
70
0
71
3
72
8
73
4
74
2
42
0.0000001000
43
0.0000001000
44
0.0000000001
12
0.0000000000
22
-0.4750555541
32
0.0000000000
13
-0.3424065986
23
-0.3136839829
33
0.0000000000
40
0.0000000000
40
0.0000000000
40
0.0000000000
40
0.0000000000
40
1.0000000000
40
1.0000000000
40
1.0000000000
40
1.0000000000
10
8.2705511725
20
-8.3235766222
30
0.0000000000
10
8.2705511725
20
-8.4819284736
30
0.0000000000
10
8.2138397048
20
-8.6327839410
30
0.0000000000
10
8.0997041719
20
-8.7373452686
30
0.0000000000
11
8.2705511725
21
-8.3235766222
31
0.0000000000
11
8.0997041719
21
-8.7373452686
31
0.0000000000
0
SPLINE
5
3A0
100
AcDbEntity
8
0
100
AcDbSpline
62
7
6
CONTINUOUS
70
0
71
3
72
8
73
4
74
2
42
0.0000001000
43
0.0000001000
44
0.0000000001
12
-0.6260631764
22
-0.5330390845
32
0.0000000000
13
0.0000000000
23
-0.8270610518
33
0.0000000000
40
0.0000000000
40
0.0000000000
40
0.0000000000
40
0.0000000000
40
1.0000000000
40
1.0000000000
40
1.0000000000
40
1.0000000000
10
6.8068407496
20
-7.6109474309
30
0.0000000000
10
6.5981530241
20
-7.7886271257
30
0.0000000000
10
6.4990621535
20
-8.0469582895
30
0.0000000000
10
6.4990621535
20
-8.3226453068
30
0.0000000000
11
6.8068407496
21
-7.6109474309
31
0.0000000000
11
6.4990621535
21
-8.3226453068
31
0.0000000000
0
SPLINE
5
3A1
100
AcDbEntity
8
0
100
AcDbSpline
62
7
6
CONTINUOUS
70
0
71
3
72
8
73
4
74
2
42
0.0000001000
43
0.0000001000
44
0.0000000001
12
0.0000000000
22
-0.8270822181
32
0.0000000000
13
0.6260768238
23
-0.5329770263
33
0.0000000000
40
0.0000000000
40
0.0000000000
40
0.0000000000
40
0.0000000000
40
1.0000000000
40
1.0000000000
40
1.0000000000
40
1.0000000000
10
6.4990621535
20
-8.3226453068
30
0.0000000000
10
6.4990621535
20
-8.5983393795
30
0.0000000000
10
6.5981484750
20
-8.8565783425
30
0.0000000000
10
6.8068407496
20
-9.0342373513
30
0.0000000000
11
6.4990621535
21
-8.3226453068
31
0.0000000000
11
6.8068407496
21
-9.0342373513
31
0.0000000000
0
SPLINE
5
3A2
100
AcDbEntity
8
0
100
AcDbSpline
62
7
6
CONTINUOUS
70
0
71
3
72
8
73
4
74
2
42
0.0000001000
43
0.0000001000
44
0.0000000001
12
0.5643065848
22
-0.4803922363
32
0.0000000000
13
0.8123928332
23
0.0000000000
33
0.0000000000
40
0.0000000000
40
0.0000000000
40
0.0000000000
40
0.0000000000
40
1.0000000000
40
1.0000000000
40
1.0000000000
40
1.0000000000
10
6.8068407496
20
-9.0342373513
30
0.0000000000
10
6.9949429445
20
-9.1943680968
30
0.0000000000
10
7.2724702623
20
-9.2840803644
30
0.0000000000
10
7.5432678733
20
-9.2840803644
30
0.0000000000
11
6.8068407496
21
-9.0342373513
31
0.0000000000
11
7.5432678733
21
-9.2840803644
31
0.0000000000
0
SPLINE
5
3A3
100
AcDbEntity
8
0
100
AcDbSpline
62
7
6
CONTINUOUS
70
0
71
3
72
8
73
4
74
2
42
0.0000001000
43
0.0000001000
44
0.0000000001
12
0.8124245826
22
0.0000000000
32
0.0000000000
13
0.5642925090
23
0.4804212011
33
0.0000000000
40
0.0000000000
40
0.0000000000
40
0.0000000000
40
0.0000000000
40
1.0000000000
40
1.0000000000
40
1.0000000000
40
1.0000000000
10
7.5432678733
20
-9.2840803644
30
0.0000000000
10
7.8140760675
20
-9.2840803644
30
0.0000000000
10
8.0916010218
20
-9.1943777517
30
0.0000000000
10
8.2796985248
20
-9.0342373513
30
0.0000000000
11
7.5432678733
21
-9.2840803644
31
0.0000000000
11
8.2796985248
21
-9.0342373513
31
0.0000000000
0
SPLINE
5
3A4
100
AcDbEntity
8
0
100
AcDbSpline
62
7
6
CONTINUOUS
70
0
71
3
72
8
73
4
74
2
42
0.0000001000
43
0.0000001000
44
0.0000000001
12
0.6260648471
22
0.5330122606
32
0.0000000000
13
0.0000000000
23
0.8271033844
33
0.0000000000
40
0.0000000000
40
0.0000000000
40
0.0000000000
40
0.0000000000
40
1.0000000000
40
1.0000000000
40
1.0000000000
40
1.0000000000
10
8.2796985248
20
-9.0342373513
30
0.0000000000
10
8.4883868071
20
-8.8565665978
30
0.0000000000
10
8.5874735932
20
-8.5983464349
30
0.0000000000
10
8.5874735932
20
-8.3226453068
30
0.0000000000
11
8.2796985248
21
-9.0342373513
31
0.0000000000
11
8.5874735932
21
-8.3226453068
31
0.0000000000
0
SPLINE
5
3A5
100
AcDbEntity
8
0
100
AcDbSpline
62
7
6
CONTINUOUS
70
0
71
3
72
8
73
4
74
2
42
0.0000001000
43
0.0000001000
44
0.0000000001
12
0.0000000000
22
0.8270822181
32
0.0000000000
13
-0.6260979901
23
0.5330193589
33
0.0000000000
40
0.0000000000
40
0.0000000000
40
0.0000000000
40
0.0000000000
40
1.0000000000
40
1.0000000000
40
1.0000000000
40
1.0000000000
10
8.5874735932
20
-8.3226453068
30
0.0000000000
10
8.5874735932
20
-8.0469512341
30
0.0000000000
10
8.4883978548
20
-7.7886205505
30
0.0000000000
10
8.2796985248
20
-7.6109474309
30
0.0000000000
11
8.5874735932
21
-8.3226453068
31
0.0000000000
11
8.2796985248
21
-7.6109474309
31
0.0000000000
0
SPLINE
5
3A6
100
AcDbEntity
8
0
100
AcDbSpline
62
7
6
CONTINUOUS
70
0
71
3
72
8
73
4
74
2
42
0.0000001000
43
0.0000001000
44
0.0000000001
12
-0.5642713427
22
0.4804106180
32
0.0000000000
13
-0.8123928332
23
0.0000000000
33
0.0000000000
40
0.0000000000
40
0.0000000000
40
0.0000000000
40
0.0000000000
40
1.0000000000
40
1.0000000000
40
1.0000000000
40
1.0000000000
10
8.2796985248
20
-7.6109474309
30
0.0000000000
10
8.0916080772
20
-7.4508105582
30
0.0000000000
10
7.8140654844
20
-7.3610938347
30
0.0000000000
10
7.5432678733
20
-7.3610938347
30
0.0000000000
11
8.2796985248
21
-7.6109474309
31
0.0000000000
11
7.5432678733
21
-7.3610938347
31
0.0000000000
0
SPLINE
5
3A7
100
AcDbEntity
8
0
100
AcDbSpline
62
7
6
CONTINUOUS
70
0
71
3
72
8
73
4
74
2
42
0.0000001000
43
0.0000001000
44
0.0000000001
12
-0.8123716670
22
0.0000000000
32
0.0000000000
13
-0.5642501765
23
-0.4804106180
33
0.0000000000
40
0.0000000000
40
0.0000000000
40
0.0000000000
40
0.0000000000
40
1.0000000000
40
1.0000000000
40
1.0000000000
40
1.0000000000
10
7.5432678733
20
-7.3610938347
30
0.0000000000
10
7.2724773177
20
-7.3610938347
30
0.0000000000
10
6.9949241418
20
-7.4508105582
30
0.0000000000
10
6.8068407496
20
-7.6109474309
30
0.0000000000
11
7.5432678733
21
-7.3610938347
31
0.0000000000
11
6.8068407496
21
-7.6109474309
31
0.0000000000
0
SPLINE
5
3A8
100
AcDbEntity
8
0
100
AcDbSpline
62
7
6
CONTINUOUS
70
0
71
3
72
15
73
11
74
9
42
0.0000001000
43
0.0000001000
44
0.0000000001
12
0.7838926164
22
0.0000000000
32
0.0000000000
13
0.0000000000
23
0.7838926164
33
0.0000000000
40
0.0000000000
40
0.0000000000
40
0.0000000000
40
0.0000000000
40
0.1249999603
40
0.2499995854
40
0.3750001243
40
0.5000004202
40
0.6250005916
40
0.7500008347
40
0.8750001723
40
1.0000000000
40
1.0000000000
40
1.0000000000
40
1.0000000000
10
10.5992334910
20
-21.8489494871
30
0.0000000000
10
10.6318956729
20
-21.8489494871
30
0.0000000000
10
10.6974009042
20
-21.8425095736
30
0.0000000000
10
10.7917451811
20
-21.8138930702
30
0.0000000000
10
10.8787318687
20
-21.7674133397
30
0.0000000000
10
10.9549655081
20
-21.7048524167
30
0.0000000000
10
11.0175262874
20
-21.6286187616
30
0.0000000000
10
11.0640058508
20
-21.5416321992
30
0.0000000000
10
11.0926222577
20
-21.4472880929
30
0.0000000000
10
11.0990621535
20
-21.3817829719
30
0.0000000000
10
11.0990621535
20
-21.3491208246
30
0.0000000000
11
10.5992334910
21
-21.8489494871
31
0.0000000000
11
10.6967486973
21
-21.8393501271
31
0.0000000000
11
10.7905186819
21
-21.8109159631
31
0.0000000000
11
10.8769397246
21
-21.7647331152
31
0.0000000000
11
10.9526867312
21
-21.7025735968
31
0.0000000000
11
11.0148460948
21
-21.6268265893
31
0.0000000000
11
11.0610287561
21
-21.5404057098
31
0.0000000000
11
11.0894628139
21
-21.4466359285
31
0.0000000000
11
11.0990621535
21
-21.3491208246
31
0.0000000000
0
SPLINE
5
3A9
100
AcDbEntity
8
0
100
AcDbSpline
62
7
6
CONTINUOUS
70
0
71
3
72
15
73
11
74
9
42
0.0000001000
43
0.0000001000
44
0.0000000001
12
0.0000000000
22
0.7838926164
32
0.0000000000
13
-0.7838926164
23
0.0000000000
33
0.0000000000
40
0.0000000000
40
0.0000000000
40
0.0000000000
40
0.0000000000
40
0.1249999603
40
0.2499995854
40
0.3750001243
40
0.5000004202
40
0.6250005916
40
0.7500008347
40
0.8750001723
40
1.0000000000
40
1.0000000000
40
1.0000000000
40
1.0000000000
10
11.0990621535
20
21.8512218504
30
0.0000000000
10
11.0990621535
20
21.8838840324
30
0.0000000000
10
11.0926222400
20
21.9493892636
30
0.0000000000
10
11.0640057366
20
22.0437335405
30
0.0000000000
10
11.0175260061
20
22.1307202281
30
0.0000000000
10
10.9549650830
20
22.2069538676
30
0.0000000000
10
10.8787314279
20
22.2695146468
30
0.0000000000
10
10.7917448656
20
22.3159942102
30
0.0000000000
10
10.6974007592
20
22.3446106171
30
0.0000000000
10
10.6318956383
20
22.3510505129
30
0.0000000000
10
10.5992334910
20
22.3510505129
30
0.0000000000
11
11.0990621535
21
21.8512218504
31
0.0000000000
11
11.0894627935
21
21.9487370567
31
0.0000000000
11
11.0610286295
21
22.0425070414
31
0.0000000000
11
11.0148457815
21
22.1289280840
31
0.0000000000
11
10.9526862632
21
22.2046750906
31
0.0000000000
11
10.8769392557
21
22.2668344542
31
0.0000000000
11
10.7905183762
21
22.3130171156
31
0.0000000000
11
10.6967485949
21
22.3414511733
31
0.0000000000
11
10.5992334910
21
22.3510505129
31
0.0000000000
0
SPLINE
5
3AA
100
AcDbEntity
8
0
100
AcDbSpline
62
7
6
CONTINUOUS
70
0
71
3
72
15
73
11
74
9
42
0.0000001000
43
0.0000001000
44
0.0000000001
12
0.0000000000
22
-0.7838926164
32
0.0000000000
13
0.7838926164
23
0.0000000000
33
0.0000000000
40
0.0000000000
40
0.0000000000
40
0.0000000000
40
0.0000000000
40
0.1249999603
40
0.2499995854
40
0.3750001243
40
0.5000004202
40
0.6250005916
40
0.7500008347
40
0.8750001723
40
1.0000000000
40
1.0000000000
40
1.0000000000
40
1.0000000000
10
-10.9009378465
20
-21.3491208246
30
0.0000000000
10
-10.9009378465
20
-21.3817830066
30
0.0000000000
10
-10.8944979330
20
-21.4472882378
30
0.0000000000
10
-10.8658814296
20
-21.5416325147
30
0.0000000000
10
-10.8194016992
20
-21.6286192023
30
0.0000000000
10
-10.7568407761
20
-21.7048528418
30
0.0000000000
10
-10.6806071210
20
-21.7674136211
30
0.0000000000
10
-10.5936205587
20
-21.8138931845
30
0.0000000000
10
-10.4992764523
20
-21.8425095913
30
0.0000000000
10
-10.4337713314
20
-21.8489494871
30
0.0000000000
10
-10.4011091841
20
-21.8489494871
30
0.0000000000
11
-10.9009378465
21
-21.3491208246
31
0.0000000000
11
-10.8913384866
21
-21.4466360309
31
0.0000000000
11
-10.8629043226
21
-21.5404060156
31
0.0000000000
11
-10.8167214746
21
-21.6268270582
31
0.0000000000
11
-10.7545619562
21
-21.7025740649
31
0.0000000000
11
-10.6788149488
21
-21.7647334284
31
0.0000000000
11
-10.5923940692
21
-21.8109160898
31
0.0000000000
11
-10.4986242879
21
-21.8393501475
31
0.0000000000
11
-10.4011091841
21
-21.8489494871
31
0.0000000000
0
SPLINE
5
3AB
100
AcDbEntity
8
0
100
AcDbSpline
62
7
6
CONTINUOUS
70
0
71
3
72
15
73
11
74
9
42
0.0000001000
43
0.0000001000
44
0.0000000001
12
-0.7838926164
22
0.0000000000
32
0.0000000000
13
0.0000000000
23
-0.7838926164
33
0.0000000000
40
0.0000000000
40
0.0000000000
40
0.0000000000
40
0.0000000000
40
0.1249999603
40
0.2499995854
40
0.3750001243
40
0.5000004202
40
0.6250005916
40
0.7500008347
40
0.8750001723
40
1.0000000000
40
1.0000000000
40
1.0000000000
40
1.0000000000
10
-10.4011091841
20
22.3510505129
30
0.0000000000
10
-10.4337713660
20
22.3510505129
30
0.0000000000
10
-10.4992765973
20
22.3446105994
30
0.0000000000
10
-10.5936208742
20
22.3159940960
30
0.0000000000
10
-10.6806075618
20
22.2695143655
30
0.0000000000
10
-10.7568412012
20
22.2069534425
30
0.0000000000
10
-10.8194019805
20
22.1307197874
30
0.0000000000
10
-10.8658815439
20
22.0437332250
30
0.0000000000
10
-10.8944979507
20
21.9493891186
30
0.0000000000
10
-10.9009378465
20
21.8838839977
30
0.0000000000
10
-10.9009378465
20
21.8512218504
30
0.0000000000
11
-10.4011091841
21
22.3510505129
31
0.0000000000
11
-10.4986243904
21
22.3414511529
31
0.0000000000
11
-10.5923943750
21
22.3130169889
31
0.0000000000
11
-10.6788154177
21
22.2668341410
31
0.0000000000
11
-10.7545624243
21
22.2046746226
31
0.0000000000
11
-10.8167217879
21
22.1289276151
31
0.0000000000
11
-10.8629044492
21
22.0425067356
31
0.0000000000
11
-10.8913385069
21
21.9487369543
31
0.0000000000
11
-10.9009378465
21
21.8512218504
31
0.0000000000
0
SPLINE
5
3AC
100
AcDbEntity
8
0
100
AcDbSpline
62
7
6
CONTINUOUS
70
0
71
3
72
12
73
8
74
6
42
0.0000001000
43
0.0000001000
44
0.0000000001
12
-0.0659199772
22
-4.8684071397
32
0.0000000000
13
0.0659199772
23
-4.8684071397
33
0.0000000000
40
0.0000000000
40
0.0000000000
40
0.0000000000
40
0.0000000000
40
0.1925679805
40
0.3963120393
40
0.6038291866
40
0.8075778401
40
1.0000000000
40
1.0000000000
40
1.0000000000
40
1.0000000000
10
9.7967314191
20
2.6854127158
30
0.0000000000
10
9.7925000601
20
2.3729129387
30
0.0000000000
10
9.7858800119
20
1.7297476090
30
0.0000000000
10
9.7810121337
20
0.7497705827
30
0.0000000000
10
9.7810138115
20
-0.2483646251
30
0.0000000000
10
9.7858840478
20
-1.2281124355
30
0.0000000000
10
9.7925032643
20
-1.8710485510
30
0.0000000000
10
9.7967314191
20
-2.1833116900
30
0.0000000000
11
9.7967314191
21
2.6854127158
31
0.0000000000
11
9.7868753619
21
1.7478792530
31
0.0000000000
11
9.7818565517
21
0.7558919935
31
0.0000000000
11
9.7818582758
21
-0.2544785762
31
0.0000000000
11
9.7868808366
21
-1.2464881882
31
0.0000000000
11
9.7967314191
21
-2.1833116900
31
0.0000000000
0
SPLINE
5
3AD
100
AcDbEntity
8
0
100
AcDbSpline
62
7
6
CONTINUOUS
70
0
71
3
72
12
73
8
74
6
42
0.0000001000
43
0.0000001000
44
0.0000000001
12
0.0659199772
22
4.8684071397
32
0.0000000000
13
-0.0659199772
23
4.8684071397
33
0.0000000000
40
0.0000000000
40
0.0000000000
40
0.0000000000
40
0.0000000000
40
0.1925679805
40
0.3963120393
40
0.6038291866
40
0.8075778401
40
1.0000000000
40
1.0000000000
40
1.0000000000
40
1.0000000000
10
-9.5986071122
20
-2.1833116900
30
0.0000000000
10
-9.5943757532
20
-1.8708119129
30
0.0000000000
10
-9.5877557049
20
-1.2276465832
30
0.0000000000
10
-9.5828878268
20
-0.2476695569
30
0.0000000000
10
-9.5828895046
20
0.7504656509
30
0.0000000000
10
-9.5877597409
20
1.7302134613
30
0.0000000000
10
-9.5943789574
20
2.3731495768
30
0.0000000000
10
-9.5986071122
20
2.6854127158
30
0.0000000000
11
-9.5986071122
21
-2.1833116900
31
0.0000000000
11
-9.5887510550
21
-1.2457782272
31
0.0000000000
11
-9.5837322448
21
-0.2537909677
31
0.0000000000
11
-9.5837339689
21
0.7565796020
31
0.0000000000
11
-9.5887565297
21
1.7485892140
31
0.0000000000
11
-9.5986071122
21
2.6854127158
31
0.0000000000
0
SPLINE
5
3AE
100
AcDbEntity
8
0
100
AcDbSpline
62
7
6
CONTINUOUS
70
0
71
3
72
10
73
6
74
4
42
0.0000001000
43
0.0000001000
44
0.0000000001
12
-0.0035614332
22
1.4378707119
32
0.0000000000
13
-0.0031436317
23
1.4378716860
33
0.0000000000
40
0.0000000000
40
0.0000000000
40
0.0000000000
40
0.0000000000
40
0.3330887480
40
0.6664256964
40
1.0000000000
40
1.0000000000
40
1.0000000000
40
1.0000000000
10
-4.1930173192
20
-20.0006738225
30
0.0000000000
10
-4.1934127436
20
-19.8410276374
30
0.0000000000
10
-4.1941883783
20
-19.5216162686
30
0.0000000000
10
-4.1953057962
20
-19.0423258630
30
0.0000000000
10
-4.1960200786
20
-18.7226816278
30
0.0000000000
10
-4.1963696235
20
-18.5628026124
30
0.0000000000
11
-4.1930173192
21
-20.0006738225
31
0.0000000000
11
-4.1941803555
21
-19.5217352103
31
0.0000000000
11
-4.1952978024
21
-19.0424396075
31
0.0000000000
11
-4.1963696235
21
-18.5628026124
31
0.0000000000
0
SPLINE
5
3AF
100
AcDbEntity
8
0
100
AcDbSpline
62
7
6
CONTINUOUS
70
0
71
3
72
10
73
6
74
4
42
0.0000001000
43
0.0000001000
44
0.0000000001
12
0.0035614332
22
1.4378707119
32
0.0000000000
13
0.0031436317
23
1.4378716860
33
0.0000000000
40
0.0000000000
40
0.0000000000
40
0.0000000000
40
0.0000000000
40
0.3330887480
40
0.6664256964
40
1.0000000000
40
1.0000000000
40
1.0000000000
40
1.0000000000
10
-3.4088583739
20
-20.0006738225
30
0.0000000000
10
-3.4084629495
20
-19.8410276374
30
0.0000000000
10
-3.4076873148
20
-19.5216162686
30
0.0000000000
10
-3.4065698969
20
-19.0423258630
30
0.0000000000
10
-3.4058556145
20
-18.7226816278
30
0.0000000000
10
-3.4055060696
20
-18.5628026124
30
0.0000000000
11
-3.4088583739
21
-20.0006738225
31
0.0000000000
11
-3.4076953376
21
-19.5217352103
31
0.0000000000
11
-3.4065778906
21
-19.0424396075
31
0.0000000000
11
-3.4055060696
21
-18.5628026124
31
0.0000000000
0
SPLINE
5
3B0
100
AcDbEntity
8
0
100
AcDbSpline
62
7
6
CONTINUOUS
70
0
71
3
72
10
73
6
74
4
42
0.0000001000
43
0.0000001000
44
0.0000000001
12
0.0035614332
22
1.4378707119
32
0.0000000000
13
0.0031436317
23
1.4378716860
33
0.0000000000
40
0.0000000000
40
0.0000000000
40
0.0000000000
40
0.0000000000
40
0.3330887480
40
0.6664256964
40
1.0000000000
40
1.0000000000
40
1.0000000000
40
1.0000000000
10
4.3911416261
20
-20.0006738225
30
0.0000000000
10
4.3915370505
20
-19.8410276374
30
0.0000000000
10
4.3923126852
20
-19.5216162686
30
0.0000000000
10
4.3934301031
20
-19.0423258630
30
0.0000000000
10
4.3941443855
20
-18.7226816278
30
0.0000000000
10
4.3944939304
20
-18.5628026124
30
0.0000000000
11
4.3911416261
21
-20.0006738225
31
0.0000000000
11
4.3923046624
21
-19.5217352103
31
0.0000000000
11
4.3934221094
21
-19.0424396075
31
0.0000000000
11
4.3944939304
21
-18.5628026124
31
0.0000000000
0
SPLINE
5
3B1
100
AcDbEntity
8
0
100
AcDbSpline
62
7
6
CONTINUOUS
70
0
71
3
72
10
73
6
74
4
42
0.0000001000
43
0.0000001000
44
0.0000000001
12
-0.0035614332
22
1.4378707119
32
0.0000000000
13
-0.0031436317
23
1.4378716860
33
0.0000000000
40
0.0000000000
40
0.0000000000
40
0.0000000000
40
0.0000000000
40
0.3330887480
40
0.6664256964
40
1.0000000000
40
1.0000000000
40
1.0000000000
40
1.0000000000
10
3.6069826808
20
-20.0006738225
30
0.0000000000
10
3.6065872564
20
-19.8410276374
30
0.0000000000
10
3.6058116217
20
-19.5216162686
30
0.0000000000
10
3.6046942038
20
-19.0423258630
30
0.0000000000
10
3.6039799214
20
-18.7226816278
30
0.0000000000
10
3.6036303765
20
-18.5628026124
30
0.0000000000
11
3.6069826808
21
-20.0006738225
31
0.0000000000
11
3.6058196445
21
-19.5217352103
31
0.0000000000
11
3.6047021976
21
-19.0424396075
31
0.0000000000
11
3.6036303765
21
-18.5628026124
31
0.0000000000
0
SPLINE
5
3B2
100
AcDbEntity
8
0
100
AcDbSpline
62
7
6
CONTINUOUS
70
0
71
3
72
15
73
11
74
9
42
0.0000001000
43
0.0000001000
44
0.0000000001
12
0.0000000000
22
-0.4703355698
32
0.0000000000
13
-0.4703355698
23
0.0000000000
33
0.0000000000
40
0.0000000000
40
0.0000000000
40
0.0000000000
40
0.0000000000
40
0.1249999577
40
0.2499995774
40
0.3750001106
40
0.5000004041
40
0.6250005780
40
0.7500008267
40
0.8750001698
40
1.0000000000
40
1.0000000000
40
1.0000000000
40
1.0000000000
10
9.8990621535
20
-20.0490522896
30
0.0000000000
10
9.8990621535
20
-20.0686495984
30
0.0000000000
10
9.8951982056
20
-20.1079527359
30
0.0000000000
10
9.8780283046
20
-20.1645593001
30
0.0000000000
10
9.8501404683
20
-20.2167513112
30
0.0000000000
10
9.8126039161
20
-20.2624914950
30
0.0000000000
10
9.7668637232
20
-20.3000279643
30
0.0000000000
10
9.7146717844
20
-20.3279157042
30
0.0000000000
10
9.6580653186
20
-20.3450855494
30
0.0000000000
10
9.6187622448
20
-20.3489494871
30
0.0000000000
10
9.5991649560
20
-20.3489494871
30
0.0000000000
11
9.8990621535
21
-20.0490522896
31
0.0000000000
11
9.8933025377
21
-20.1075614122
31
0.0000000000
11
9.8762420405
21
-20.1638234007
31
0.0000000000
11
9.8485323339
21
-20.2156760244
31
0.0000000000
11
9.8112366246
21
-20.2611242284
31
0.0000000000
11
9.7657884202
21
-20.2984198483
31
0.0000000000
11
9.7139358906
21
-20.3261294472
31
0.0000000000
11
9.6576740195
21
-20.3431898831
31
0.0000000000
11
9.5991649560
21
-20.3489494871
31
0.0000000000
0
SPLINE
5
3B3
100
AcDbEntity
8
0
100
AcDbSpline
62
7
6
CONTINUOUS
70
0
71
3
72
15
73
11
74
9
42
0.0000001000
43
0.0000001000
44
0.0000000001
12
-0.4703355698
22
0.0000000000
32
0.0000000000
13
0.0000000000
23
0.4703355698
33
0.0000000000
40
0.0000000000
40
0.0000000000
40
0.0000000000
40
0.0000000000
40
0.1249999577
40
0.2499995774
40
0.3750001106
40
0.5000004041
40
0.6250005780
40
0.7500008267
40
0.8750001698
40
1.0000000000
40
1.0000000000
40
1.0000000000
40
1.0000000000
10
-9.4010406490
20
-20.3489494871
30
0.0000000000
10
-9.4206379578
20
-20.3489494871
30
0.0000000000
10
-9.4599410953
20
-20.3450855392
30
0.0000000000
10
-9.5165476595
20
-20.3279156383
30
0.0000000000
10
-9.5687396706
20
-20.3000278019
30
0.0000000000
10
-9.6144798545
20
-20.2624912497
30
0.0000000000
10
-9.6520163237
20
-20.2167510568
30
0.0000000000
10
-9.6799040636
20
-20.1645591180
30
0.0000000000
10
-9.6970739089
20
-20.1079526522
30
0.0000000000
10
-9.7009378465
20
-20.0686495784
30
0.0000000000
10
-9.7009378465
20
-20.0490522896
30
0.0000000000
11
-9.4010406490
21
-20.3489494871
31
0.0000000000
11
-9.4595497717
21
-20.3431898714
31
0.0000000000
11
-9.5158117601
21
-20.3261293742
31
0.0000000000
11
-9.5676643838
21
-20.2984196675
31
0.0000000000
11
-9.6131125878
21
-20.2611239583
31
0.0000000000
11
-9.6504082077
21
-20.2156757538
31
0.0000000000
11
-9.6781178067
21
-20.1638232242
31
0.0000000000
11
-9.6951782425
21
-20.1075613531
31
0.0000000000
11
-9.7009378465
21
-20.0490522896
31
0.0000000000
0
SPLINE
5
3B4
100
AcDbEntity
8
0
100
AcDbSpline
62
7
6
CONTINUOUS
70
0
71
3
72
15
73
11
74
9
42
0.0000001000
43
0.0000001000
44
0.0000000001
12
0.4703355698
22
0.0000000000
32
0.0000000000
13
0.0000000000
23
-0.4703355698
33
0.0000000000
40
0.0000000000
40
0.0000000000
40
0.0000000000
40
0.0000000000
40
0.1249999577
40
0.2499995774
40
0.3750001106
40
0.5000004041
40
0.6250005780
40
0.7500008267
40
0.8750001698
40
1.0000000000
40
1.0000000000
40
1.0000000000
40
1.0000000000
10
9.5991649560
20
20.8510505129
30
0.0000000000
10
9.6187622647
20
20.8510505129
30
0.0000000000
10
9.6580654022
20
20.8471865650
30
0.0000000000
10
9.7146719664
20
20.8300166641
30
0.0000000000
10
9.7668639776
20
20.8021288277
30
0.0000000000
10
9.8126041614
20
20.7645922755
30
0.0000000000
10
9.8501406306
20
20.7188520826
30
0.0000000000
10
9.8780283706
20
20.6666601438
30
0.0000000000
10
9.8951982158
20
20.6100536780
30
0.0000000000
10
9.8990621535
20
20.5707506042
30
0.0000000000
10
9.8990621535
20
20.5511533154
30
0.0000000000
11
9.5991649560
21
20.8510505129
31
0.0000000000
11
9.6576740786
21
20.8452908971
31
0.0000000000
11
9.7139360670
21
20.8282304000
31
0.0000000000
11
9.7657886908
21
20.8005206933
31
0.0000000000
11
9.8112368947
21
20.7632249841
31
0.0000000000
11
9.8485325147
21
20.7177767796
31
0.0000000000
11
9.8762421136
21
20.6659242500
31
0.0000000000
11
9.8933025495
21
20.6096623789
31
0.0000000000
11
9.8990621535
21
20.5511533154
31
0.0000000000
0
SPLINE
5
3B5
100
AcDbEntity
8
0
100
AcDbSpline
62
7
6
CONTINUOUS
70
0
71
3
72
15
73
11
74
9
42
0.0000001000
43
0.0000001000
44
0.0000000001
12
0.0000000000
22
0.4703355698
32
0.0000000000
13
0.4703355698
23
0.0000000000
33
0.0000000000
40
0.0000000000
40
0.0000000000
40
0.0000000000
40
0.0000000000
40
0.1249999577
40
0.2499995774
40
0.3750001106
40
0.5000004041
40
0.6250005780
40
0.7500008267
40
0.8750001698
40
1.0000000000
40
1.0000000000
40
1.0000000000
40
1.0000000000
10
-9.7009378465
20
20.5511533154
30
0.0000000000
10
-9.7009378465
20
20.5707506242
30
0.0000000000
10
-9.6970738986
20
20.6100537617
30
0.0000000000
10
-9.6799039977
20
20.6666603259
30
0.0000000000
10
-9.6520161613
20
20.7188523370
30
0.0000000000
10
-9.6144796091
20
20.7645925208
30
0.0000000000
10
-9.5687394163
20
20.8021289900
30
0.0000000000
10
-9.5165474774
20
20.8300167300
30
0.0000000000
10
-9.4599410116
20
20.8471865752
30
0.0000000000
10
-9.4206379378
20
20.8510505129
30
0.0000000000
10
-9.4010406490
20
20.8510505129
30
0.0000000000
11
-9.7009378465
21
20.5511533154
31
0.0000000000
11
-9.6951782308
21
20.6096624380
31
0.0000000000
11
-9.6781177336
21
20.6659244265
31
0.0000000000
11
-9.6504080270
21
20.7177770502
31
0.0000000000
11
-9.6131123177
21
20.7632252542
31
0.0000000000
11
-9.5676641132
21
20.8005208741
31
0.0000000000
11
-9.5158115837
21
20.8282304730
31
0.0000000000
11
-9.4595497126
21
20.8452909089
31
0.0000000000
11
-9.4010406490
21
20.8510505129
31
0.0000000000
0
SPLINE
5
3B6
100
AcDbEntity
8
0
100
AcDbSpline
62
7
6
CONTINUOUS
70
0
71
3
72
11
73
7
74
5
42
0.0000001000
43
0.0000001000
44
0.0000000001
12
-0.3007366911
22
-0.0000000007
32
0.0000000000
13
-0.1413431960
23
0.2654518003
33
0.0000000000
40
0.0000000000
40
0.0000000000
40
0.0000000000
40
0.0000000000
40
0.3759187716
40
0.6964908572
40
0.9147964332
40
1.0000000000
40
1.0000000000
40
1.0000000000
40
1.0000000000
10
-9.2987099147
20
-16.2216254509
30
0.0000000000
10
-9.3363941038
20
-16.2216254509
30
0.0000000000
10
-9.4051661948
20
-16.2198080741
30
0.0000000000
10
-9.5005645153
20
-16.2207189820
30
0.0000000000
10
-9.5554377322
20
-16.2094147105
30
0.0000000000
10
-9.5945927974
20
-16.2144334905
30
0.0000000000
10
-9.5986071122
20
-16.2068943438
30
0.0000000000
11
-9.2987099147
21
-16.2216254509
31
0.0000000000
11
-9.4117557871
21
-16.2203951115
31
0.0000000000
11
-9.5081098364
21
-16.2171765989
31
0.0000000000
11
-9.5735915668
21
-16.2124444428
31
0.0000000000
11
-9.5986071122
21
-16.2068943438
31
0.0000000000
0
SPLINE
5
3B7
100
AcDbEntity
8
0
100
AcDbSpline
62
7
6
CONTINUOUS
70
0
71
3
72
17
73
13
74
11
42
0.0000001000
43
0.0000001000
44
0.0000000001
12
0.0106306067
22
0.7851052708
32
0.0000000000
13
0.7851772386
23
0.0000000000
33
0.0000000000
40
0.0000000000
40
0.0000000000
40
0.0000000000
40
0.0000000000
40
0.1396530460
40
0.2681508204
40
0.3864968185
40
0.4956712556
40
0.5963372024
40
0.6893616147
40
0.7748156699
40
0.8575779323
40
0.9339084012
40
1.0000000000
40
1.0000000000
40
1.0000000000
40
1.0000000000
10
-9.5986071122
20
-2.1833116900
30
0.0000000000
10
-9.5981122466
20
-2.1467642425
30
0.0000000000
10
-9.5937778908
20
-2.0766001929
30
0.0000000000
10
-9.5793114445
20
-1.9763953363
30
0.0000000000
10
-9.5593704595
20
-1.8852958184
30
0.0000000000
10
-9.5352337001
20
-1.8027905966
30
0.0000000000
10
-9.5075419012
20
-1.7284367517
30
0.0000000000
10
-9.4765043689
20
-1.6621935086
30
0.0000000000
10
-9.4413004245
20
-1.6033954863
30
0.0000000000
10
-9.4007405904
20
-1.5535072493
30
0.0000000000
10
-9.3535096654
20
-1.5167580390
30
0.0000000000
10
-9.3160077877
20
-1.5067890702
30
0.0000000000
10
-9.2987099147
20
-1.5067890702
30
0.0000000000
11
-9.5986071122
21
-2.1833116900
31
0.0000000000
11
-9.5920508885
21
-2.0738554740
31
0.0000000000
11
-9.5776885297
21
-1.9739894308
31
0.0000000000
11
-9.5577773401
21
-1.8832251694
31
0.0000000000
11
-9.5335919443
21
-1.8009864620
31
0.0000000000
11
-9.5058096464
21
-1.7269894217
31
0.0000000000
11
-9.4745199082
21
-1.6609902625
31
0.0000000000
11
-9.4395875944
21
-1.6037042749
31
0.0000000000
11
-9.3977843497
21
-1.5539520406
31
0.0000000000
11
-9.3491705674
21
-1.5188998183
31
0.0000000000
11
-9.2987099147
21
-1.5067890702
31
0.0000000000
0
SPLINE
5
3B8
100
AcDbEntity
8
0
100
AcDbSpline
62
9
6
CONTINUOUS
70
0
71
3
72
10
73
6
74
4
42
0.0000001000
43
0.0000001000
44
0.0000000001
12
-0.0096794516
22
-3.7516378086
32
0.0000000000
13
-0.0139402475
23
-3.7516243959
33
0.0000000000
40
0.0000000000
40
0.0000000000
40
0.0000000000
40
0.0000000000
40
0.3339059496
40
0.6672458612
40
1.0000000000
40
1.0000000000
40
1.0000000000
40
1.0000000000
10
-9.5986071122
20
-16.2068943935
30
0.0000000000
10
-9.5996844543
20
-16.6244591218
30
0.0000000000
10
-9.6019943771
20
-17.4588803257
30
0.0000000000
10
-9.6059287743
20
-18.7094242620
30
0.0000000000
10
-9.6088652705
20
-19.5424030903
30
0.0000000000
10
-9.6104114955
20
-19.9585259386
30
0.0000000000
11
-9.5986071122
21
-16.2068943935
31
0.0000000000
11
-9.6020752923
21
-17.4595879471
31
0.0000000000
11
-9.6060101723
21
-18.7101565342
31
0.0000000000
11
-9.6104114955
21
-19.9585259386
31
0.0000000000
0
SPLINE
5
3B9
100
AcDbEntity
8
0
100
AcDbSpline
62
9
6
CONTINUOUS
70
0
71
3
72
10
73
6
74
4
42
0.0000001000
43
0.0000001000
44
0.0000000001
12
-0.0097006456
22
-3.7790546560
32
0.0000000000
13
-0.0139946295
23
-3.7790411939
33
0.0000000000
40
0.0000000000
40
0.0000000000
40
0.0000000000
40
0.0000000000
40
0.3339077350
40
0.6672441283
40
1.0000000000
40
1.0000000000
40
1.0000000000
40
1.0000000000
10
-9.2986721867
20
-16.2216254509
30
0.0000000000
10
-9.2997518936
20
-16.6422439777
30
0.0000000000
10
-9.3020677395
20
-17.4827609237
30
0.0000000000
10
-9.3060147314
20
-18.7424438027
30
0.0000000000
10
-9.3089619902
20
-19.5815077736
30
0.0000000000
10
-9.3105142552
20
-20.0006738225
30
0.0000000000
11
-9.2986721867
21
-16.2216254509
31
0.0000000000
11
-9.3021492989
21
-17.4834803981
31
0.0000000000
11
-9.3060967109
21
-18.7431748125
31
0.0000000000
11
-9.3105142552
21
-20.0006738225
31
0.0000000000
0
SPLINE
5
3BA
100
AcDbEntity
8
0
100
AcDbSpline
62
9
6
CONTINUOUS
70
0
71
3
72
11
73
7
74
5
42
0.0000001000
43
0.0000001000
44
0.0000000001
12
0.0755689481
22
-0.2969186481
32
0.0000000000
13
0.3063297349
23
0.0057829959
33
0.0000000000
40
0.0000000000
40
0.0000000000
40
0.0000000000
40
0.0000000000
40
0.0973962395
40
0.3172291905
40
0.6349839365
40
1.0000000000
40
1.0000000000
40
1.0000000000
40
1.0000000000
10
-9.6104114955
20
-19.9585259386
30
0.0000000000
10
-9.6079581184
20
-19.9681655252
30
0.0000000000
10
-9.5693937646
20
-19.9792666971
30
0.0000000000
10
-9.5115533788
20
-19.9906740125
30
0.0000000000
10
-9.4167268389
20
-19.9981427913
30
0.0000000000
10
-9.3477860560
20
-20.0013774513
30
0.0000000000
10
-9.3105142980
20
-20.0006738225
30
0.0000000000
11
-9.6104114955
21
-19.9585259386
31
0.0000000000
11
-9.5851892701
21
-19.9744728990
31
0.0000000000
11
-9.5192172516
21
-19.9880437874
31
0.0000000000
11
-9.4222964168
21
-19.9972286437
31
0.0000000000
11
-9.3105142980
21
-20.0006738225
31
0.0000000000
0
SPLINE
5
3BB
100
AcDbEntity
8
0
100
AcDbSpline
62
9
6
CONTINUOUS
70
0
71
3
72
11
73
7
74
5
42
0.0000001000
43
0.0000001000
44
0.0000000001
12
-0.4679595213
22
0.0003206611
32
0.0000000000
13
-0.0003206611
23
0.4679595213
33
0.0000000000
40
0.0000000000
40
0.0000000000
40
0.0000000000
40
0.0000000000
40
0.2499768501
40
0.5000000000
40
0.7500231499
40
1.0000000000
40
1.0000000000
40
1.0000000000
40
1.0000000000
10
-9.3105142980
20
-20.2584231361
30
0.0000000000
10
-9.3495073137
20
-20.2583964168
30
0.0000000000
10
-9.4283412276
20
-20.2427447794
30
0.0000000000
10
-9.5279834496
20
-20.1759950902
30
0.0000000000
10
-9.5947331388
20
-20.0763528682
30
0.0000000000
10
-9.6103847763
20
-19.9975189543
30
0.0000000000
10
-9.6104114955
20
-19.9585259386
30
0.0000000000
11
-9.3105142980
21
-20.2584231361
31
0.0000000000
11
-9.4252325480
21
-20.2355358688
31
0.0000000000
11
-9.5225010224
21
-20.1705126629
31
0.0000000000
11
-9.5875242282
21
-20.0732441886
31
0.0000000000
11
-9.6104114955
21
-19.9585259386
31
0.0000000000
0
SPLINE
5
3BC
100
AcDbEntity
8
0
100
AcDbSpline
62
7
6
CONTINUOUS
70
0
71
3
72
15
73
11
74
9
42
0.0000001000
43
0.0000001000
44
0.0000000001
12
0.0006387282
22
-0.2578761265
32
0.0000000000
13
0.1430318045
23
-0.2145749461
33
0.0000000000
40
0.0000000000
40
0.0000000000
40
0.0000000000
40
0.0000000000
40
0.1985646411
40
0.3860129703
40
0.5565897760
40
0.7050609880
40
0.8268741783
40
0.9183018745
40
0.9765638766
40
1.0000000000
40
1.0000000000
40
1.0000000000
40
1.0000000000
10
-4.1930173192
20
-20.0006738225
30
0.0000000000
10
-4.1929750429
20
-20.0177421827
30
0.0000000000
10
-4.1928403332
20
-20.0509222245
30
0.0000000000
10
-4.1924979988
20
-20.0987692411
30
0.0000000000
10
-4.1919840758
20
-20.1422908641
30
0.0000000000
10
-4.1914601370
20
-20.1802234721
30
0.0000000000
10
-4.1905355212
20
-20.2111941902
30
0.0000000000
10
-4.1903221763
20
-20.2347971366
30
0.0000000000
10
-4.1885265847
20
-20.2491334417
30
0.0000000000
10
-4.1890871836
20
-20.2567468678
30
0.0000000000
10
-4.1879698133
20
-20.2584231361
30
0.0000000000
11
-4.1930173192
21
-20.0006738225
31
0.0000000000
11
-4.1928092761
21
-20.0518786374
31
0.0000000000
11
-4.1924484042
21
-20.1002158877
31
0.0000000000
11
-4.1919457976
21
-20.1442008371
31
0.0000000000
11
-4.1913169031
21
-20.1824829702
31
0.0000000000
11
-4.1905810451
21
-20.2138871601
31
0.0000000000
11
-4.1897608210
21
-20.2374499809
31
0.0000000000
11
-4.1888814134
21
-20.2524486477
31
0.0000000000
11
-4.1879698133
21
-20.2584231361
31
0.0000000000
0
SPLINE
5
3BD
100
AcDbEntity
8
0
100
AcDbSpline
62
7
6
CONTINUOUS
70
0
71
3
72
11
73
7
74
5
42
0.0000001000
43
0.0000001000
44
0.0000000001
12
0.3007366907
22
0.0000000003
32
0.0000000000
13
0.1413431924
23
-0.2654518019
33
0.0000000000
40
0.0000000000
40
0.0000000000
40
0.0000000000
40
0.0000000000
40
0.3759187716
40
0.6964908573
40
0.9147964334
40
1.0000000000
40
1.0000000000
40
1.0000000000
40
1.0000000000
10
9.4968342216
20
16.7237264766
30
0.0000000000
10
9.5345184107
20
16.7237264767
30
0.0000000000
10
9.6032905018
20
16.7219091244
30
0.0000000000
10
9.6986888224
20
16.7228200247
30
0.0000000000
10
9.7535620388
20
16.7115157542
30
0.0000000000
10
9.7927171044
20
16.7165345352
30
0.0000000000
10
9.7967314191
20
16.7089953884
30
0.0000000000
11
9.4968342216
21
16.7237264766
31
0.0000000000
11
9.6098800941
21
16.7224961549
31
0.0000000000
11
9.7062341434
21
16.7192776426
31
0.0000000000
11
9.7717158737
21
16.7145454870
31
0.0000000000
11
9.7967314191
21
16.7089953884
31
0.0000000000
0
SPLINE
5
3BE
100
AcDbEntity
8
0
100
AcDbSpline
62
7
6
CONTINUOUS
70
0
71
3
72
17
73
13
74
11
42
0.0000001000
43
0.0000001000
44
0.0000000001
12
-0.0106306067
22
-0.7851052708
32
0.0000000000
13
-0.7851772386
23
0.0000000000
33
0.0000000000
40
0.0000000000
40
0.0000000000
40
0.0000000000
40
0.0000000000
40
0.1396530460
40
0.2681508204
40
0.3864968185
40
0.4956712556
40
0.5963372024
40
0.6893616147
40
0.7748156699
40
0.8575779323
40
0.9339084012
40
1.0000000000
40
1.0000000000
40
1.0000000000
40
1.0000000000
10
9.7967314191
20
2.6854127158
30
0.0000000000
10
9.7962365536
20
2.6488652683
30
0.0000000000
10
9.7919021978
20
2.5787012187
30
0.0000000000
10
9.7774357514
20
2.4784963621
30
0.0000000000
10
9.7574947664
20
2.3873968441
30
0.0000000000
10
9.7333580070
20
2.3048916224
30
0.0000000000
10
9.7056662081
20
2.2305377775
30
0.0000000000
10
9.6746286758
20
2.1642945344
30
0.0000000000
10
9.6394247314
20
2.1054965121
30
0.0000000000
10
9.5988648974
20
2.0556082751
30
0.0000000000
10
9.5516339723
20
2.0188590648
30
0.0000000000
10
9.5141320946
20
2.0088900960
30
0.0000000000
10
9.4968342216
20
2.0088900960
30
0.0000000000
11
9.7967314191
21
2.6854127158
31
0.0000000000
11
9.7901751955
21
2.5759564998
31
0.0000000000
11
9.7758128367
21
2.4760904566
31
0.0000000000
11
9.7559016470
21
2.3853261952
31
0.0000000000
11
9.7317162512
21
2.3030874878
31
0.0000000000
11
9.7039339533
21
2.2290904475
31
0.0000000000
11
9.6726442152
21
2.1630912883
31
0.0000000000
11
9.6377119013
21
2.1058053007
31
0.0000000000
11
9.5959086566
21
2.0560530664
31
0.0000000000
11
9.5472948744
21
2.0210008441
31
0.0000000000
11
9.4968342216
21
2.0088900960
31
0.0000000000
0
SPLINE
5
3BF
100
AcDbEntity
8
0
100
AcDbSpline
62
9
6
CONTINUOUS
70
0
71
3
72
10
73
6
74
4
42
0.0000001000
43
0.0000001000
44
0.0000000001
12
0.0096794508
22
3.7516378086
32
0.0000000000
13
0.0139402477
23
3.7516243959
33
0.0000000000
40
0.0000000000
40
0.0000000000
40
0.0000000000
40
0.0000000000
40
0.3339076553
40
0.6672474598
40
1.0000000000
40
1.0000000000
40
1.0000000000
40
1.0000000000
10
9.7967314191
20
16.7089954192
30
0.0000000000
10
9.7978087667
20
17.1265622806
30
0.0000000000
10
9.8001186960
20
17.9609854836
30
0.0000000000
10
9.8040530953
20
19.2115294198
30
0.0000000000
10
9.8069895848
20
20.0445061152
30
0.0000000000
10
9.8085358025
20
20.4606269644
30
0.0000000000
11
9.7967314191
21
16.7089954192
31
0.0000000000
11
9.8001996182
21
17.9616953717
31
0.0000000000
11
9.8041344992
21
19.2122635573
31
0.0000000000
11
9.8085358025
21
20.4606269644
31
0.0000000000
0
SPLINE
5
3C0
100
AcDbEntity
8
0
100
AcDbSpline
62
9
6
CONTINUOUS
70
0
71
3
72
10
73
6
74
4
42
0.0000001000
43
0.0000001000
44
0.0000000001
12
0.0097006447
22
3.7790546560
32
0.0000000000
13
0.0139946297
23
3.7790411939
33
0.0000000000
40
0.0000000000
40
0.0000000000
40
0.0000000000
40
0.0000000000
40
0.3339085567
40
0.6672449487
40
1.0000000000
40
1.0000000000
40
1.0000000000
40
1.0000000000
10
9.4967964936
20
16.7237264766
30
0.0000000000
10
9.4978762031
20
17.1443460386
30
0.0000000000
10
9.5001920524
20
17.9848640180
30
0.0000000000
10
9.5041390454
20
19.2445468970
30
0.0000000000
10
9.5070863007
20
20.0836098328
30
0.0000000000
10
9.5086385619
20
20.5027748483
30
0.0000000000
11
9.4967964936
21
16.7237264766
31
0.0000000000
11
9.5002736150
21
17.9855845291
31
0.0000000000
11
9.5042210281
21
19.2452789387
31
0.0000000000
11
9.5086385619
21
20.5027748483
31
0.0000000000
0
SPLINE
5
3C1
100
AcDbEntity
8
0
100
AcDbSpline
62
9
6
CONTINUOUS
70
0
71
3
72
11
73
7
74
5
42
0.0000001000
43
0.0000001000
44
0.0000000001
12
-0.0755688563
22
0.2969186779
32
0.0000000000
13
-0.3063297403
23
-0.0057830356
33
0.0000000000
40
0.0000000000
40
0.0000000000
40
0.0000000000
40
0.0000000000
40
0.0973962564
40
0.3172292042
40
0.6349839421
40
1.0000000000
40
1.0000000000
40
1.0000000000
40
1.0000000000
10
9.8085358025
20
20.4606269644
30
0.0000000000
10
9.8060824279
20
20.4702665536
30
0.0000000000
10
9.7675180759
20
20.4813677412
30
0.0000000000
10
9.7096776860
20
20.4927750523
30
0.0000000000
10
9.6148511467
20
20.5002438298
30
0.0000000000
10
9.5459103630
20
20.5034784819
30
0.0000000000
10
9.5086386050
20
20.5027748483
30
0.0000000000
11
9.8085358025
21
20.4606269644
31
0.0000000000
11
9.7833135774
21
20.4765739361
31
0.0000000000
11
9.7173415592
21
20.4901448285
31
0.0000000000
11
9.6204207246
21
20.4993296808
31
0.0000000000
11
9.5086386050
21
20.5027748483
31
0.0000000000
0
SPLINE
5
3C2
100
AcDbEntity
8
0
100
AcDbSpline
62
9
6
CONTINUOUS
70
0
71
3
72
11
73
7
74
5
42
0.0000001000
43
0.0000001000
44
0.0000000001
12
0.4679595213
22
-0.0003206611
32
0.0000000000
13
0.0003206611
23
-0.4679595213
33
0.0000000000
40
0.0000000000
40
0.0000000000
40
0.0000000000
40
0.0000000000
40
0.2499768501
40
0.5000000000
40
0.7500231499
40
1.0000000000
40
1.0000000000
40
1.0000000000
40
1.0000000000
10
9.5086386050
20
20.7605241619
30
0.0000000000
10
9.5476316207
20
20.7604974426
30
0.0000000000
10
9.6264655346
20
20.7448458052
30
0.0000000000
10
9.7261077565
20
20.6780961159
30
0.0000000000
10
9.7928574457
20
20.5784538940
30
0.0000000000
10
9.8085090832
20
20.4996199801
30
0.0000000000
10
9.8085358025
20
20.4606269644
30
0.0000000000
11
9.5086386050
21
20.7605241619
31
0.0000000000
11
9.6233568549
21
20.7376368946
31
0.0000000000
11
9.7206253293
21
20.6726136887
31
0.0000000000
11
9.7856485351
21
20.5753452144
31
0.0000000000
11
9.8085358025
21
20.4606269644
31
0.0000000000
0
SPLINE
5
3C3
100
AcDbEntity
8
0
100
AcDbSpline
62
9
6
CONTINUOUS
70
0
71
3
72
11
73
7
74
5
42
0.0000001000
43
0.0000001000
44
0.0000000001
12
0.0003206611
22
0.4679595213
32
0.0000000000
13
0.4679595213
23
0.0003206611
33
0.0000000000
40
0.0000000000
40
0.0000000000
40
0.0000000000
40
0.0000000000
40
0.2499768501
40
0.5000000000
40
0.7500231499
40
1.0000000000
40
1.0000000000
40
1.0000000000
40
1.0000000000
10
-9.6104114955
20
20.4606269644
30
0.0000000000
10
-9.6103847763
20
20.4996199801
30
0.0000000000
10
-9.5947331388
20
20.5784538940
30
0.0000000000
10
-9.5279834496
20
20.6780961159
30
0.0000000000
10
-9.4283412276
20
20.7448458052
30
0.0000000000
10
-9.3495073137
20
20.7604974426
30
0.0000000000
10
-9.3105142980
20
20.7605241619
30
0.0000000000
11
-9.6104114955
21
20.4606269644
31
0.0000000000
11
-9.5875242282
21
20.5753452144
31
0.0000000000
11
-9.5225010224
21
20.6726136887
31
0.0000000000
11
-9.4252325480
21
20.7376368946
31
0.0000000000
11
-9.3105142980
21
20.7605241619
31
0.0000000000
0
SPLINE
5
3C4
100
AcDbEntity
8
0
100
AcDbSpline
62
9
6
CONTINUOUS
70
0
71
3
72
10
73
6
74
4
42
0.0000001000
43
0.0000001000
44
0.0000000001
12
0.0139402477
22
-3.7516243959
32
0.0000000000
13
0.0096794508
23
-3.7516378086
33
0.0000000000
40
0.0000000000
40
0.0000000000
40
0.0000000000
40
0.0000000000
40
0.3327525402
40
0.6660923447
40
1.0000000000
40
1.0000000000
40
1.0000000000
40
1.0000000000
10
-9.6104114955
20
20.4606269644
30
0.0000000000
10
-9.6088652779
20
20.0445061152
30
0.0000000000
10
-9.6059287884
20
19.2115294198
30
0.0000000000
10
-9.6019943891
20
17.9609854836
30
0.0000000000
10
-9.5996844597
20
17.1265622806
30
0.0000000000
10
-9.5986071122
20
16.7089954192
30
0.0000000000
11
-9.6104114955
21
20.4606269644
31
0.0000000000
11
-9.6060101923
21
19.2122635573
31
0.0000000000
11
-9.6020753113
21
17.9616953717
31
0.0000000000
11
-9.5986071122
21
16.7089954192
31
0.0000000000
0
SPLINE
5
3C5
100
AcDbEntity
8
0
100
AcDbSpline
62
9
6
CONTINUOUS
70
0
71
3
72
11
73
7
74
5
42
0.0000001000
43
0.0000001000
44
0.0000000001
12
0.0555655408
22
0.3013102086
32
0.0000000000
13
0.3063888453
23
0.0011164941
33
0.0000000000
40
0.0000000000
40
0.0000000000
40
0.0000000000
40
0.0000000000
40
0.0967207223
40
0.3150669630
40
0.6309925199
40
1.0000000000
40
1.0000000000
40
1.0000000000
40
1.0000000000
10
-9.6104114955
20
20.4606269644
30
0.0000000000
10
-9.6086200491
20
20.4703412781
30
0.0000000000
10
-9.5690391061
20
20.4811648927
30
0.0000000000
10
-9.5125864300
20
20.4926857685
30
0.0000000000
10
-9.4172109688
20
20.5005414583
30
0.0000000000
10
-9.3482008900
20
20.5026375167
30
0.0000000000
10
-9.3105142980
20
20.5027748483
30
0.0000000000
11
-9.6104114955
21
20.4606269644
31
0.0000000000
11
-9.5853922377
21
20.4765087549
31
0.0000000000
11
-9.5198779222
21
20.4900509250
31
0.0000000000
11
-9.4235201276
21
20.4992584403
31
0.0000000000
11
-9.3105142980
21
20.5027748483
31
0.0000000000
0
SPLINE
5
3C6
100
AcDbEntity
8
0
100
AcDbSpline
62
9
6
CONTINUOUS
70
0
71
3
72
10
73
6
74
4
42
0.0000001000
43
0.0000001000
44
0.0000000001
12
0.0139946297
22
-3.7790411939
32
0.0000000000
13
0.0097006447
23
-3.7790546560
33
0.0000000000
40
0.0000000000
40
0.0000000000
40
0.0000000000
40
0.0000000000
40
0.3327550513
40
0.6660914433
40
1.0000000000
40
1.0000000000
40
1.0000000000
40
1.0000000000
10
-9.3105142550
20
20.5027748483
30
0.0000000000
10
-9.3089619937
20
20.0836098328
30
0.0000000000
10
-9.3060147385
20
19.2445468970
30
0.0000000000
10
-9.3020677455
20
17.9848640180
30
0.0000000000
10
-9.2997518961
20
17.1443460386
30
0.0000000000
10
-9.2986721867
20
16.7237264766
30
0.0000000000
11
-9.3105142550
21
20.5027748483
31
0.0000000000
11
-9.3060967212
21
19.2452789387
31
0.0000000000
11
-9.3021493081
21
17.9855845290
31
0.0000000000
11
-9.2986721867
21
16.7237264766
31
0.0000000000
0
SPLINE
5
3C7
100
AcDbEntity
8
0
100
AcDbSpline
62
7
6
CONTINUOUS
70
0
71
3
72
11
73
7
74
5
42
0.0000001000
43
0.0000001000
44
0.0000000001
12
0.1413431992
22
0.2654518147
32
0.0000000000
13
0.3007367053
23
-0.0000000003
33
0.0000000000
40
0.0000000000
40
0.0000000000
40
0.0000000000
40
0.0000000000
40
0.0851932011
40
0.3035091766
40
0.6241052107
40
1.0000000000
40
1.0000000000
40
1.0000000000
40
1.0000000000
10
-9.5986071122
20
16.7089953884
30
0.0000000000
10
-9.5945932856
20
16.7165336184
30
0.0000000000
10
-9.5554385954
20
16.7115157212
30
0.0000000000
10
-9.5005634440
20
16.7228202997
30
0.0000000000
10
-9.4051638245
20
16.7219092350
30
0.0000000000
10
-9.3363917015
20
16.7237264767
30
0.0000000000
10
-9.2987099147
20
16.7237264766
30
0.0000000000
11
-9.5986071122
21
16.7089953884
31
0.0000000000
11
-9.5735946801
21
16.7145451332
31
0.0000000000
11
-9.5081098365
21
16.7192776426
31
0.0000000000
11
-9.4117485816
21
16.7224963080
31
0.0000000000
11
-9.2987099147
21
16.7237264766
31
0.0000000000
0
SPLINE
5
3C8
100
AcDbEntity
8
0
100
AcDbSpline
62
7
6
CONTINUOUS
70
0
71
3
72
17
73
13
74
11
42
0.0000001000
43
0.0000001000
44
0.0000000001
12
-0.7851771748
22
0.0000000000
32
0.0000000000
13
-0.0106306058
23
0.7851052070
33
0.0000000000
40
0.0000000000
40
0.0000000000
40
0.0000000000
40
0.0000000000
40
0.0660954758
40
0.1424293819
40
0.2251941114
40
0.3106520890
40
0.4036820065
40
0.5043552772
40
0.6135352030
40
0.7318803839
40
0.8603682085
40
1.0000000000
40
1.0000000000
40
1.0000000000
40
1.0000000000
10
-9.2987099147
20
2.0088900960
30
0.0000000000
10
-9.3160088010
20
2.0088900960
30
0.0000000000
10
-9.3535125817
20
2.0188602226
30
0.0000000000
10
-9.4007446186
20
2.0556121897
30
0.0000000000
10
-9.4413051275
20
2.1055031696
30
0.0000000000
10
-9.4765096993
20
2.1643044476
30
0.0000000000
10
-9.5075480203
20
2.2305521624
30
0.0000000000
10
-9.5352402005
20
2.3049109839
30
0.0000000000
10
-9.5593762961
20
2.3874196687
30
0.0000000000
10
-9.5793152898
20
2.4785181961
30
0.0000000000
10
-9.5937789797
20
2.5787149577
30
0.0000000000
10
-9.5981123220
20
2.6488708336
30
0.0000000000
10
-9.5986071122
20
2.6854127158
30
0.0000000000
11
-9.2987099147
21
2.0088900960
31
0.0000000000
11
-9.3491733697
21
2.0210021938
31
0.0000000000
11
-9.3977885328
21
2.0560571071
31
0.0000000000
11
-9.4395920461
21
2.1058116391
31
0.0000000000
11
-9.4745250114
21
2.1631008302
31
0.0000000000
11
-9.5058155277
21
2.2291043976
31
0.0000000000
11
-9.5335985546
21
2.3031072998
31
0.0000000000
11
-9.5577836074
21
2.3853505930
31
0.0000000000
11
-9.5776929450
21
2.4761145959
31
0.0000000000
11
-9.5920526272
21
2.5759731230
31
0.0000000000
11
-9.5986071122
21
2.6854127158
31
0.0000000000
0
SPLINE
5
3C9
100
AcDbEntity
8
0
100
AcDbSpline
62
7
6
CONTINUOUS
70
0
71
3
72
17
73
13
74
11
42
0.0000001000
43
0.0000001000
44
0.0000000001
12
0.7851771748
22
0.0000000000
32
0.0000000000
13
0.0106306058
23
-0.7851052070
33
0.0000000000
40
0.0000000000
40
0.0000000000
40
0.0000000000
40
0.0000000000
40
0.0660954758
40
0.1424293819
40
0.2251941114
40
0.3106520890
40
0.4036820065
40
0.5043552772
40
0.6135352030
40
0.7318803839
40
0.8603682085
40
1.0000000000
40
1.0000000000
40
1.0000000000
40
1.0000000000
10
9.4968342216
20
-1.5067890702
30
0.0000000000
10
9.5141331079
20
-1.5067890702
30
0.0000000000
10
9.5516368886
20
-1.5167591968
30
0.0000000000
10
9.5988689255
20
-1.5535111639
30
0.0000000000
10
9.6394294344
20
-1.6034021438
30
0.0000000000
10
9.6746340062
20
-1.6622034219
30
0.0000000000
10
9.7056723272
20
-1.7284511366
30
0.0000000000
10
9.7333645074
20
-1.8028099581
30
0.0000000000
10
9.7575006030
20
-1.8853186429
30
0.0000000000
10
9.7774395968
20
-1.9764171703
30
0.0000000000
10
9.7919032867
20
-2.0766139319
30
0.0000000000
10
9.7962366289
20
-2.1467698078
30
0.0000000000
10
9.7967314191
20
-2.1833116900
30
0.0000000000
11
9.4968342216
21
-1.5067890702
31
0.0000000000
11
9.5472976766
21
-1.5189011680
31
0.0000000000
11
9.5959128397
21
-1.5539560813
31
0.0000000000
11
9.6377163530
21
-1.6037106133
31
0.0000000000
11
9.6726493183
21
-1.6609998044
31
0.0000000000
11
9.7039398346
21
-1.7270033718
31
0.0000000000
11
9.7317228615
21
-1.8010062740
31
0.0000000000
11
9.7559079143
21
-1.8832495672
31
0.0000000000
11
9.7758172519
21
-1.9740135702
31
0.0000000000
11
9.7901769341
21
-2.0738720972
31
0.0000000000
11
9.7967314191
21
-2.1833116900
31
0.0000000000
0
SPLINE
5
3CA
100
AcDbEntity
8
0
100
AcDbSpline
62
7
6
CONTINUOUS
70
0
71
3
72
11
73
7
74
5
42
0.0000001000
43
0.0000001000
44
0.0000000001
12
0.3007366911
22
-0.0000000007
32
0.0000000000
13
0.1413431960
23
0.2654518003
33
0.0000000000
40
0.0000000000
40
0.0000000000
40
0.0000000000
40
0.0000000000
40
0.3759187716
40
0.6964908572
40
0.9147964332
40
1.0000000000
40
1.0000000000
40
1.0000000000
40
1.0000000000
10
9.4968342216
20
-16.2216254509
30
0.0000000000
10
9.5345184108
20
-16.2216254509
30
0.0000000000
10
9.6032905017
20
-16.2198080741
30
0.0000000000
10
9.6986888222
20
-16.2207189821
30
0.0000000000
10
9.7535620391
20
-16.2094147105
30
0.0000000000
10
9.7927171043
20
-16.2144334905
30
0.0000000000
10
9.7967314191
20
-16.2068943438
30
0.0000000000
11
9.4968342216
21
-16.2216254509
31
0.0000000000
11
9.6098800941
21
-16.2203951115
31
0.0000000000
11
9.7062341434
21
-16.2171765989
31
0.0000000000
11
9.7717158737
21
-16.2124444428
31
0.0000000000
11
9.7967314191
21
-16.2068943438
31
0.0000000000
0
SPLINE
5
3CB
100
AcDbEntity
8
0
100
AcDbSpline
62
9
6
CONTINUOUS
70
0
71
3
72
10
73
6
74
4
42
0.0000001000
43
0.0000001000
44
0.0000000001
12
-0.0139402475
22
3.7516243959
32
0.0000000000
13
-0.0096794516
23
3.7516378086
33
0.0000000000
40
0.0000000000
40
0.0000000000
40
0.0000000000
40
0.0000000000
40
0.3327541388
40
0.6660940504
40
1.0000000000
40
1.0000000000
40
1.0000000000
40
1.0000000000
10
9.8085358025
20
-19.9585259386
30
0.0000000000
10
9.8069895774
20
-19.5424030903
30
0.0000000000
10
9.8040530812
20
-18.7094242620
30
0.0000000000
10
9.8001186840
20
-17.4588803257
30
0.0000000000
10
9.7978087613
20
-16.6244591218
30
0.0000000000
10
9.7967314191
20
-16.2068943935
30
0.0000000000
11
9.8085358025
21
-19.9585259386
31
0.0000000000
11
9.8041344792
21
-18.7101565342
31
0.0000000000
11
9.8001995992
21
-17.4595879471
31
0.0000000000
11
9.7967314191
21
-16.2068943935
31
0.0000000000
0
SPLINE
5
3CC
100
AcDbEntity
8
0
100
AcDbSpline
62
9
6
CONTINUOUS
70
0
71
3
72
11
73
7
74
5
42
0.0000001000
43
0.0000001000
44
0.0000000001
12
-0.0555655805
22
-0.3013101949
32
0.0000000000
13
-0.3063888390
23
-0.0011165262
33
0.0000000000
40
0.0000000000
40
0.0000000000
40
0.0000000000
40
0.0000000000
40
0.0967207045
40
0.3150669470
40
0.6309925115
40
1.0000000000
40
1.0000000000
40
1.0000000000
40
1.0000000000
10
9.8085358025
20
-19.9585259386
30
0.0000000000
10
9.8067443551
20
-19.9682402501
30
0.0000000000
10
9.7671634072
20
-19.9790638480
30
0.0000000000
10
9.7107107383
20
-19.9905847289
30
0.0000000000
10
9.6153352750
20
-19.9984404193
30
0.0000000000
10
9.5463251970
20
-20.0005364870
30
0.0000000000
10
9.5086386050
20
-20.0006738225
30
0.0000000000
11
9.8085358025
21
-19.9585259386
31
0.0000000000
11
9.7835165446
21
-19.9744077177
31
0.0000000000
11
9.7180022291
21
-19.9879498838
31
0.0000000000
11
9.6216444344
21
-19.9971574031
31
0.0000000000
11
9.5086386050
21
-20.0006738225
31
0.0000000000
0
SPLINE
5
3CD
100
AcDbEntity
8
0
100
AcDbSpline
62
9
6
CONTINUOUS
70
0
71
3
72
10
73
6
74
4
42
0.0000001000
43
0.0000001000
44
0.0000000001
12
-0.0139946295
22
3.7790411939
32
0.0000000000
13
-0.0097006456
23
3.7790546560
33
0.0000000000
40
0.0000000000
40
0.0000000000
40
0.0000000000
40
0.0000000000
40
0.3327558717
40
0.6660922650
40
1.0000000000
40
1.0000000000
40
1.0000000000
40
1.0000000000
10
9.5086385621
20
-20.0006738225
30
0.0000000000
10
9.5070862971
20
-19.5815077736
30
0.0000000000
10
9.5041390383
20
-18.7424438027
30
0.0000000000
10
9.5001920464
20
-17.4827609237
30
0.0000000000
10
9.4978762005
20
-16.6422439777
30
0.0000000000
10
9.4967964936
20
-16.2216254509
30
0.0000000000
11
9.5086385621
21
-20.0006738225
31
0.0000000000
11
9.5042210178
21
-18.7431748125
31
0.0000000000
11
9.5002736058
21
-17.4834803981
31
0.0000000000
11
9.4967964936
21
-16.2216254509
31
0.0000000000
0
SPLINE
5
3CE
100
AcDbEntity
8
0
100
AcDbSpline
62
9
6
CONTINUOUS
70
0
71
3
72
11
73
7
74
5
42
0.0000001000
43
0.0000001000
44
0.0000000001
12
-0.0003206611
22
-0.4679595213
32
0.0000000000
13
-0.4679595213
23
-0.0003206611
33
0.0000000000
40
0.0000000000
40
0.0000000000
40
0.0000000000
40
0.0000000000
40
0.2499768501
40
0.5000000000
40
0.7500231499
40
1.0000000000
40
1.0000000000
40
1.0000000000
40
1.0000000000
10
9.8085358025
20
-19.9585259386
30
0.0000000000
10
9.8085090832
20
-19.9975189543
30
0.0000000000
10
9.7928574457
20
-20.0763528682
30
0.0000000000
10
9.7261077565
20
-20.1759950902
30
0.0000000000
10
9.6264655346
20
-20.2427447794
30
0.0000000000
10
9.5476316207
20
-20.2583964168
30
0.0000000000
10
9.5086386050
20
-20.2584231361
30
0.0000000000
11
9.8085358025
21
-19.9585259386
31
0.0000000000
11
9.7856485351
21
-20.0732441886
31
0.0000000000
11
9.7206253293
21
-20.1705126629
31
0.0000000000
11
9.6233568549
21
-20.2355358688
31
0.0000000000
11
9.5086386050
21
-20.2584231361
31
0.0000000000
0
SPLINE
5
3CF
100
AcDbEntity
8
0
100
AcDbSpline
62
7
6
CONTINUOUS
70
0
71
3
72
15
73
11
74
9
42
0.0000001000
43
0.0000001000
44
0.0000000001
12
0.1430318045
22
0.2145749460
32
0.0000000000
13
0.0006387282
23
0.2578761265
33
0.0000000000
40
0.0000000000
40
0.0000000000
40
0.0000000000
40
0.0000000000
40
0.0234361608
40
0.0816983435
40
0.1731263502
40
0.2949397999
40
0.4434110148
40
0.6139875516
40
0.8014355360
40
1.0000000000
40
1.0000000000
40
1.0000000000
40
1.0000000000
10
4.3860941202
20
-20.2584231361
30
0.0000000000
10
4.3872114923
20
-20.2567468651
30
0.0000000000
10
4.3866508909
20
-20.2491334186
30
0.0000000000
10
4.3884464878
20
-20.2347970700
30
0.0000000000
10
4.3886598312
20
-20.2111940581
30
0.0000000000
10
4.3895844474
20
-20.1802232910
30
0.0000000000
10
4.3901083851
20
-20.1422906836
30
0.0000000000
10
4.3906223067
20
-20.0987691130
30
0.0000000000
10
4.3909646404
20
-20.0509221644
30
0.0000000000
10
4.3910993498
20
-20.0177421674
30
0.0000000000
10
4.3911416261
20
-20.0006738225
30
0.0000000000
11
4.3860941202
21
-20.2584231361
31
0.0000000000
11
4.3870057212
21
-20.2524486380
31
0.0000000000
11
4.3878851304
21
-20.2374499247
31
0.0000000000
11
4.3887053559
21
-20.2138870239
31
0.0000000000
11
4.3894412140
21
-20.1824827670
31
0.0000000000
11
4.3900701074
21
-20.1442006331
31
0.0000000000
11
4.3905727124
21
-20.1002157531
31
0.0000000000
11
4.3909335832
21
-20.0518785918
31
0.0000000000
11
4.3911416261
21
-20.0006738225
31
0.0000000000
0
SPLINE
5
3D0
100
AcDbEntity
8
0
100
AcDbSpline
62
7
6
CONTINUOUS
70
0
71
3
72
15
73
11
74
9
42
0.0000001000
43
0.0000001000
44
0.0000000001
12
0.1430318045
22
0.2145749460
32
0.0000000000
13
0.0006387282
23
0.2578761265
33
0.0000000000
40
0.0000000000
40
0.0000000000
40
0.0000000000
40
0.0000000000
40
0.0234361608
40
0.0816983435
40
0.1731263502
40
0.2949397999
40
0.4434110148
40
0.6139875516
40
0.8014355360
40
1.0000000000
40
1.0000000000
40
1.0000000000
40
1.0000000000
10
-3.4139058798
20
-20.2584231361
30
0.0000000000
10
-3.4127885077
20
-20.2567468651
30
0.0000000000
10
-3.4133491091
20
-20.2491334186
30
0.0000000000
10
-3.4115535122
20
-20.2347970700
30
0.0000000000
10
-3.4113401688
20
-20.2111940581
30
0.0000000000
10
-3.4104155526
20
-20.1802232910
30
0.0000000000
10
-3.4098916149
20
-20.1422906836
30
0.0000000000
10
-3.4093776933
20
-20.0987691130
30
0.0000000000
10
-3.4090353596
20
-20.0509221644
30
0.0000000000
10
-3.4089006502
20
-20.0177421674
30
0.0000000000
10
-3.4088583739
20
-20.0006738225
30
0.0000000000
11
-3.4139058798
21
-20.2584231361
31
0.0000000000
11
-3.4129942788
21
-20.2524486380
31
0.0000000000
11
-3.4121148696
21
-20.2374499247
31
0.0000000000
11
-3.4112946441
21
-20.2138870239
31
0.0000000000
11
-3.4105587860
21
-20.1824827670
31
0.0000000000
11
-3.4099298926
21
-20.1442006331
31
0.0000000000
11
-3.4094272876
21
-20.1002157531
31
0.0000000000
11
-3.4090664168
21
-20.0518785918
31
0.0000000000
11
-3.4088583739
21
-20.0006738225
31
0.0000000000
0
SPLINE
5
3D1
100
AcDbEntity
8
0
100
AcDbSpline
62
7
6
CONTINUOUS
70
0
71
3
72
15
73
11
74
9
42
0.0000001000
43
0.0000001000
44
0.0000000001
12
0.0006387282
22
-0.2578761265
32
0.0000000000
13
0.1430318045
23
-0.2145749461
33
0.0000000000
40
0.0000000000
40
0.0000000000
40
0.0000000000
40
0.0000000000
40
0.1985646411
40
0.3860129703
40
0.5565897760
40
0.7050609880
40
0.8268741783
40
0.9183018745
40
0.9765638766
40
1.0000000000
40
1.0000000000
40
1.0000000000
40
1.0000000000
10
3.6069826808
20
-20.0006738225
30
0.0000000000
10
3.6070249571
20
-20.0177421827
30
0.0000000000
10
3.6071596668
20
-20.0509222245
30
0.0000000000
10
3.6075020012
20
-20.0987692411
30
0.0000000000
10
3.6080159242
20
-20.1422908641
30
0.0000000000
10
3.6085398630
20
-20.1802234721
30
0.0000000000
10
3.6094644788
20
-20.2111941902
30
0.0000000000
10
3.6096778237
20
-20.2347971366
30
0.0000000000
10
3.6114734153
20
-20.2491334417
30
0.0000000000
10
3.6109128164
20
-20.2567468678
30
0.0000000000
10
3.6120301867
20
-20.2584231361
30
0.0000000000
11
3.6069826808
21
-20.0006738225
31
0.0000000000
11
3.6071907239
21
-20.0518786374
31
0.0000000000
11
3.6075515958
21
-20.1002158877
31
0.0000000000
11
3.6080542024
21
-20.1442008371
31
0.0000000000
11
3.6086830969
21
-20.1824829702
31
0.0000000000
11
3.6094189549
21
-20.2138871601
31
0.0000000000
11
3.6102391790
21
-20.2374499809
31
0.0000000000
11
3.6111185866
21
-20.2524486477
31
0.0000000000
11
3.6120301867
21
-20.2584231361
31
0.0000000000
0
SPLINE
5
3D2
100
AcDbEntity
8
0
100
AcDbSpline
62
7
6
CONTINUOUS
70
0
71
3
72
13
73
9
74
7
42
0.0000001000
43
0.0000001000
44
0.0000000001
12
0.0087785027
22
0.4372576228
32
0.0000000000
13
0.4373457337
23
0.0000000000
33
0.0000000000
40
0.0000000000
40
0.0000000000
40
0.0000000000
40
0.0000000000
40
0.1350293014
40
0.2783687957
40
0.4328900676
40
0.6026300576
40
0.7921310257
40
1.0000000000
40
1.0000000000
40
1.0000000000
40
1.0000000000
10
3.6148631018
20
-19.5097355084
30
0.0000000000
10
3.6152582201
20
-19.4900546447
30
0.0000000000
10
3.6214358498
20
-19.4494096500
30
0.0000000000
10
3.6469093541
20
-19.3909328430
30
0.0000000000
10
3.6895021722
20
-19.3367871043
30
0.0000000000
10
3.7495947935
20
-19.2907247802
30
0.0000000000
10
3.8264141614
20
-19.2582064814
30
0.0000000000
10
3.8845138740
20
-19.2489494871
30
0.0000000000
10
3.9148174103
20
-19.2489494871
30
0.0000000000
11
3.6148631018
21
-19.5097355084
31
0.0000000000
11
3.6236521644
21
-19.4513387188
31
0.0000000000
11
3.6484754439
21
-19.3937739291
31
0.0000000000
11
3.6900214306
21
-19.3404740057
31
0.0000000000
11
3.7487665053
21
-19.2950883208
31
0.0000000000
11
3.8248978320
21
-19.2623363566
31
0.0000000000
11
3.9148174103
21
-19.2489494871
31
0.0000000000
0
SPLINE
5
3D3
100
AcDbEntity
8
0
100
AcDbSpline
62
7
6
CONTINUOUS
70
0
71
3
72
15
73
11
74
9
42
0.0000001000
43
0.0000001000
44
0.0000000001
12
-0.0010311582
22
0.4716434091
32
0.0000000000
13
0.4716445363
23
0.0000000000
33
0.0000000000
40
0.0000000000
40
0.0000000000
40
0.0000000000
40
0.0000000000
40
0.1245707348
40
0.2491430324
40
0.3738407244
40
0.4986992322
40
0.6238017819
40
0.7490840078
40
0.8745154959
40
1.0000000000
40
1.0000000000
40
1.0000000000
40
1.0000000000
10
3.6036303765
20
-18.5628026124
30
0.0000000000
10
3.6035875591
20
-18.5432182903
30
0.0000000000
10
3.6073004314
20
-18.5039355332
30
0.0000000000
10
3.6240958644
20
-18.4472453443
30
0.0000000000
10
3.6515573425
20
-18.3948035902
30
0.0000000000
10
3.6887451604
20
-18.3486382214
30
0.0000000000
10
3.7343201458
20
-18.3105768206
30
0.0000000000
10
3.7865832730
20
-18.2821836207
30
0.0000000000
10
3.8434622298
20
-18.2646568116
30
0.0000000000
10
3.8830227093
20
-18.2607098710
30
0.0000000000
10
3.9027507362
20
-18.2607098710
30
0.0000000000
11
3.6036303765
21
-18.5628026124
31
0.0000000000
11
3.6091704606
21
-18.5043112883
31
0.0000000000
11
3.6258629047
21
-18.4479785586
31
0.0000000000
11
3.6531566316
21
-18.3958823045
31
0.0000000000
11
3.6901053054
21
-18.3500272049
31
0.0000000000
11
3.7353991317
21
-18.3122127430
31
0.0000000000
11
3.7873218050
21
-18.2840079952
31
0.0000000000
11
3.8438599071
21
-18.2665942282
31
0.0000000000
11
3.9027507362
21
-18.2607098710
31
0.0000000000
0
SPLINE
5
3D4
100
AcDbEntity
8
0
100
AcDbSpline
62
9
6
CONTINUOUS
70
0
71
3
72
11
73
7
74
5
42
0.0000001000
43
0.0000001000
44
0.0000000001
12
0.0004277415
22
0.4677313312
32
0.0000000000
13
0.4677313322
23
0.0004266999
33
0.0000000000
40
0.0000000000
40
0.0000000000
40
0.0000000000
40
0.0000000000
40
0.2498284583
40
0.4998010788
40
0.7498901823
40
1.0000000000
40
1.0000000000
40
1.0000000000
40
1.0000000000
10
3.6148631018
20
-18.5965281923
30
0.0000000000
10
3.6148987224
20
-18.5575773265
30
0.0000000000
10
3.6305750827
20
-18.4788161805
30
0.0000000000
10
3.6973540798
20
-18.3792887373
30
0.0000000000
10
3.7970015444
20
-18.3126188995
30
0.0000000000
10
3.8758226776
20
-18.2969749058
30
0.0000000000
10
3.9148174103
20
-18.2969393318
30
0.0000000000
11
3.6148631018
21
-18.5965281923
31
0.0000000000
11
3.6377743476
21
-18.4819436569
31
0.0000000000
11
3.7028144831
21
-18.3847835580
31
0.0000000000
11
3.8000931010
21
-18.3198226639
31
0.0000000000
11
3.9148174103
21
-18.2969393318
31
0.0000000000
0
SPLINE
5
3D5
100
AcDbEntity
8
0
100
AcDbSpline
62
9
6
CONTINUOUS
70
0
71
3
72
11
73
7
74
5
42
0.0000001000
43
0.0000001000
44
0.0000000001
12
-0.4655638550
22
-0.0011199762
32
0.0000000000
13
-0.0011417497
23
-0.4655638021
33
0.0000000000
40
0.0000000000
40
0.0000000000
40
0.0000000000
40
0.0000000000
40
0.2516952974
40
0.5027318086
40
0.7530024040
40
1.0000000000
40
1.0000000000
40
1.0000000000
40
1.0000000000
10
3.9357634882
20
-19.3813040895
30
0.0000000000
10
3.8967034106
20
-19.3813980537
30
0.0000000000
10
3.8178831300
20
-19.3970451865
30
0.0000000000
10
3.7181742129
20
-19.4633869700
30
0.0000000000
10
3.6515658810
20
-19.5620900867
30
0.0000000000
10
3.6359031828
20
-19.6400534635
30
0.0000000000
10
3.6358091797
20
-19.6783845101
30
0.0000000000
11
3.9357634882
21
-19.3813040895
31
0.0000000000
11
3.8208506198
21
-19.4042457355
31
0.0000000000
11
3.7235289644
21
-19.4689604595
31
0.0000000000
11
3.6585190499
21
-19.5656557935
31
0.0000000000
11
3.6358091797
21
-19.6783845101
31
0.0000000000
0
SPLINE
5
3D6
100
AcDbEntity
8
0
100
AcDbSpline
62
7
6
CONTINUOUS
70
0
71
3
72
15
73
11
74
9
42
0.0000001000
43
0.0000001000
44
0.0000000001
12
-0.3002507471
22
0.0000000000
32
0.0000000000
13
-0.1665345103
23
0.2498334806
33
0.0000000000
40
0.0000000000
40
0.0000000000
40
0.0000000000
40
0.0000000000
40
0.1928223493
40
0.3783972448
40
0.5497493047
40
0.7004450481
40
0.8248343169
40
0.9182711291
40
0.9773029149
40
1.0000000000
40
1.0000000000
40
1.0000000000
40
1.0000000000
10
3.9357634882
20
-20.3018148283
30
0.0000000000
10
3.9164651367
20
-20.3018148283
30
0.0000000000
10
3.8785969164
20
-20.3017165716
30
0.0000000000
10
3.8235637838
20
-20.3013078730
30
0.0000000000
10
3.7728074539
20
-20.3005748564
30
0.0000000000
10
3.7280005249
20
-20.2998025239
30
0.0000000000
10
3.6915092154
20
-20.2982930410
30
0.0000000000
10
3.6629146931
20
-20.2980464537
30
0.0000000000
10
3.6471407032
20
-20.2949653834
30
0.0000000000
10
3.6370691290
20
-20.2959863179
30
0.0000000000
10
3.6358091797
20
-20.2940961540
30
0.0000000000
11
3.9357634882
21
-20.3018148283
31
0.0000000000
11
3.8778686221
21
-20.3016671564
31
0.0000000000
11
3.8221513384
21
-20.3012297029
31
0.0000000000
11
3.7707076640
21
-20.3005189557
31
0.0000000000
11
3.7254712819
21
-20.2995616879
31
0.0000000000
11
3.6881415711
21
-20.2983939441
31
0.0000000000
11
3.6601188476
21
-20.2970596277
31
0.0000000000
11
3.6424539822
21
-20.2956088758
31
0.0000000000
11
3.6358091797
21
-20.2940961540
31
0.0000000000
0
SPLINE
5
3D7
100
AcDbEntity
8
0
100
AcDbSpline
62
9
6
CONTINUOUS
70
0
71
3
72
11
73
7
74
5
42
0.0000001000
43
0.0000001000
44
0.0000000001
12
-0.0004277413
22
0.4677311382
32
0.0000000000
13
-0.4677311392
23
0.0004266997
33
0.0000000000
40
0.0000000000
40
0.0000000000
40
0.0000000000
40
0.0000000000
40
0.2476762115
40
0.4984299497
40
0.7491094307
40
1.0000000000
40
1.0000000000
40
1.0000000000
40
1.0000000000
10
4.3832612052
20
-18.5965281923
30
0.0000000000
10
4.3832258914
20
-18.5579129002
30
0.0000000000
10
4.3677380619
20
-18.4793868254
30
0.0000000000
10
4.3012959422
20
-18.3797512660
30
0.0000000000
10
4.2014660922
20
-18.3127141181
30
0.0000000000
10
4.1224233405
20
-18.2969750168
30
0.0000000000
10
4.0833068966
20
-18.2969393318
30
0.0000000000
11
4.3832612052
21
-18.5965281923
31
0.0000000000
11
4.3607420026
21
-18.4828920897
31
0.0000000000
11
4.2957718923
21
-18.3852460697
31
0.0000000000
11
4.1983750420
21
-18.3199653833
31
0.0000000000
11
4.0833068966
21
-18.2969393318
31
0.0000000000
0
SPLINE
5
3D8
100
AcDbEntity
8
0
100
AcDbSpline
62
7
6
CONTINUOUS
70
0
71
3
72
15
73
11
74
9
42
0.0000001000
43
0.0000001000
44
0.0000000001
12
0.4716445287
22
0.0000000000
32
0.0000000000
13
-0.0010311582
23
-0.4716434014
33
0.0000000000
40
0.0000000000
40
0.0000000000
40
0.0000000000
40
0.0000000000
40
0.1255011482
40
0.2509686262
40
0.3762877845
40
0.5014057018
40
0.6262485383
40
0.7509093203
40
0.8754457921
40
1.0000000000
40
1.0000000000
40
1.0000000000
40
1.0000000000
10
4.0953735707
20
-18.2607098710
30
0.0000000000
10
4.1151042140
20
-18.2607098710
30
0.0000000000
10
4.1546730119
20
-18.2646581665
30
0.0000000000
10
4.2115647619
20
-18.2821923543
30
0.0000000000
10
4.2638371618
20
-18.3105982510
30
0.0000000000
10
4.3094107966
20
-18.3486704570
30
0.0000000000
10
4.3465877828
20
-18.3948368571
30
0.0000000000
10
4.3740368402
20
-18.4472690619
30
0.0000000000
10
4.3908251569
20
-18.5039464072
30
0.0000000000
10
4.3945367421
20
-18.5432208889
30
0.0000000000
10
4.3944939304
20
-18.5628026124
30
0.0000000000
11
4.0953735707
21
-18.2607098710
31
0.0000000000
11
4.1542721320
21
-18.2665957893
31
0.0000000000
11
4.2108254948
21
-18.2840176721
31
0.0000000000
11
4.2627602852
21
-18.3122366029
31
0.0000000000
11
4.3080538485
21
-18.3500626867
31
0.0000000000
11
4.3449908631
21
-18.3959176867
31
0.0000000000
11
4.3722707222
21
-18.4480015519
31
0.0000000000
11
4.3889553342
21
-18.5043189781
31
0.0000000000
11
4.3944939304
21
-18.5628026124
31
0.0000000000
0
SPLINE
5
3D9
100
AcDbEntity
8
0
100
AcDbSpline
62
7
6
CONTINUOUS
70
0
71
3
72
13
73
9
74
7
42
0.0000001000
43
0.0000001000
44
0.0000000001
12
-0.0087785027
22
0.4372576228
32
0.0000000000
13
-0.4373457337
23
0.0000000000
33
0.0000000000
40
0.0000000000
40
0.0000000000
40
0.0000000000
40
0.0000000000
40
0.1350293014
40
0.2783687957
40
0.4328900676
40
0.6026300576
40
0.7921310257
40
1.0000000000
40
1.0000000000
40
1.0000000000
40
1.0000000000
10
4.3832612052
20
-19.5097355084
30
0.0000000000
10
4.3828660868
20
-19.4900546447
30
0.0000000000
10
4.3766884571
20
-19.4494096500
30
0.0000000000
10
4.3512149528
20
-19.3909328430
30
0.0000000000
10
4.3086221347
20
-19.3367871043
30
0.0000000000
10
4.2485295134
20
-19.2907247802
30
0.0000000000
10
4.1717101455
20
-19.2582064814
30
0.0000000000
10
4.1136104330
20
-19.2489494871
30
0.0000000000
10
4.0833068966
20
-19.2489494871
30
0.0000000000
11
4.3832612052
21
-19.5097355084
31
0.0000000000
11
4.3744721426
21
-19.4513387188
31
0.0000000000
11
4.3496488630
21
-19.3937739291
31
0.0000000000
11
4.3081028763
21
-19.3404740057
31
0.0000000000
11
4.2493578016
21
-19.2950883208
31
0.0000000000
11
4.1732264749
21
-19.2623363566
31
0.0000000000
11
4.0833068966
21
-19.2489494871
31
0.0000000000
0
SPLINE
5
3DA
100
AcDbEntity
8
0
100
AcDbSpline
62
9
6
CONTINUOUS
70
0
71
3
72
11
73
7
74
5
42
0.0000001000
43
0.0000001000
44
0.0000000001
12
0.4655638067
22
-0.0011199761
32
0.0000000000
13
0.0011417496
23
-0.4655637538
33
0.0000000000
40
0.0000000000
40
0.0000000000
40
0.0000000000
40
0.0000000000
40
0.2510267170
40
0.5015685034
40
0.7511923738
40
1.0000000000
40
1.0000000000
40
1.0000000000
40
1.0000000000
10
4.0623608187
20
-19.3813040895
30
0.0000000000
10
4.1013171367
20
-19.3813978041
30
0.0000000000
10
4.1799503827
20
-19.3969649175
30
0.0000000000
10
4.2795057351
20
-19.4629994348
30
0.0000000000
10
4.3463974735
20
-19.5616112257
30
0.0000000000
10
4.3622204352
20
-19.6397725726
30
0.0000000000
10
4.3623151272
20
-19.6783845101
30
0.0000000000
11
4.0623608187
21
-19.3813040895
31
0.0000000000
11
4.1769804043
21
-19.4041247391
31
0.0000000000
11
4.2742034275
21
-19.4685715835
31
0.0000000000
11
4.3392737159
21
-19.5648631046
31
0.0000000000
11
4.3623151272
21
-19.6783845101
31
0.0000000000
0
SPLINE
5
3DB
100
AcDbEntity
8
0
100
AcDbSpline
62
7
6
CONTINUOUS
70
0
71
3
72
15
73
11
74
9
42
0.0000001000
43
0.0000001000
44
0.0000000001
12
-0.1665345102
22
-0.2498334804
32
0.0000000000
13
-0.3002507469
23
-0.0000000000
33
0.0000000000
40
0.0000000000
40
0.0000000000
40
0.0000000000
40
0.0000000000
40
0.0226971993
40
0.0817295500
40
0.1751673368
40
0.2995574041
40
0.4502531408
40
0.6216043462
40
0.8071781828
40
1.0000000000
40
1.0000000000
40
1.0000000000
40
1.0000000000
10
4.3623151272
20
-20.2940961540
30
0.0000000000
10
4.3610551716
20
-20.2959863274
30
0.0000000000
10
4.3509835134
20
-20.2949653786
30
0.0000000000
10
4.3352093770
20
-20.2980464775
30
0.0000000000
10
4.3066146104
20
-20.2982930561
30
0.0000000000
10
4.2701231263
20
-20.2998025403
30
0.0000000000
10
4.2253162039
20
-20.3005748670
30
0.0000000000
10
4.1745600657
20
-20.3013078771
30
0.0000000000
10
4.1195271780
20
-20.3017165723
30
0.0000000000
10
4.0816591169
20
-20.3018148283
30
0.0000000000
10
4.0623608187
20
-20.3018148283
30
0.0000000000
11
4.3623151272
21
-20.2940961540
31
0.0000000000
11
4.3556702905
21
-20.2956088799
31
0.0000000000
11
4.3380052557
21
-20.2970596401
31
0.0000000000
11
4.3099822395
21
-20.2983939631
31
0.0000000000
11
4.2726522889
21
-20.2995617069
31
0.0000000000
11
4.2274159087
21
-20.3005189684
31
0.0000000000
11
4.1759724908
21
-20.3012297081
31
0.0000000000
11
4.1202555250
21
-20.3016671572
31
0.0000000000
11
4.0623608187
21
-20.3018148283
31
0.0000000000
0
SPLINE
5
3DC
100
AcDbEntity
8
0
100
AcDbSpline
62
9
6
CONTINUOUS
70
0
71
3
72
11
73
7
74
5
42
0.0000001000
43
0.0000001000
44
0.0000000001
12
-0.4677311392
22
-0.0004266997
32
0.0000000000
13
-0.0004277413
23
-0.4677311382
33
0.0000000000
40
0.0000000000
40
0.0000000000
40
0.0000000000
40
0.0000000000
40
0.2508905693
40
0.5015700503
40
0.7523237885
40
1.0000000000
40
1.0000000000
40
1.0000000000
40
1.0000000000
10
-3.8851825897
20
-18.2969393318
30
0.0000000000
10
-3.9242990336
20
-18.2969750168
30
0.0000000000
10
-4.0033417853
20
-18.3127141181
30
0.0000000000
10
-4.1031716352
20
-18.3797512660
30
0.0000000000
10
-4.1696137549
20
-18.4793868254
30
0.0000000000
10
-4.1851015845
20
-18.5579129002
30
0.0000000000
10
-4.1851368982
20
-18.5965281923
30
0.0000000000
11
-3.8851825897
21
-18.2969393318
31
0.0000000000
11
-4.0002507351
21
-18.3199653833
31
0.0000000000
11
-4.0976475854
21
-18.3852460697
31
0.0000000000
11
-4.1626176957
21
-18.4828920897
31
0.0000000000
11
-4.1851368982
21
-18.5965281923
31
0.0000000000
0
SPLINE
5
3DD
100
AcDbEntity
8
0
100
AcDbSpline
62
7
6
CONTINUOUS
70
0
71
3
72
15
73
11
74
9
42
0.0000001000
43
0.0000001000
44
0.0000000001
12
-0.0010311582
22
0.4716434091
32
0.0000000000
13
0.4716445363
23
0.0000000000
33
0.0000000000
40
0.0000000000
40
0.0000000000
40
0.0000000000
40
0.0000000000
40
0.1245707348
40
0.2491430324
40
0.3738407244
40
0.4986992322
40
0.6238017819
40
0.7490840078
40
0.8745154959
40
1.0000000000
40
1.0000000000
40
1.0000000000
40
1.0000000000
10
-4.1963696235
20
-18.5628026124
30
0.0000000000
10
-4.1964124409
20
-18.5432182903
30
0.0000000000
10
-4.1926995686
20
-18.5039355332
30
0.0000000000
10
-4.1759041356
20
-18.4472453443
30
0.0000000000
10
-4.1484426575
20
-18.3948035902
30
0.0000000000
10
-4.1112548396
20
-18.3486382214
30
0.0000000000
10
-4.0656798542
20
-18.3105768206
30
0.0000000000
10
-4.0134167270
20
-18.2821836207
30
0.0000000000
10
-3.9565377702
20
-18.2646568116
30
0.0000000000
10
-3.9169772907
20
-18.2607098710
30
0.0000000000
10
-3.8972492638
20
-18.2607098710
30
0.0000000000
11
-4.1963696235
21
-18.5628026124
31
0.0000000000
11
-4.1908295394
21
-18.5043112883
31
0.0000000000
11
-4.1741370953
21
-18.4479785586
31
0.0000000000
11
-4.1468433684
21
-18.3958823045
31
0.0000000000
11
-4.1098946946
21
-18.3500272049
31
0.0000000000
11
-4.0646008683
21
-18.3122127430
31
0.0000000000
11
-4.0126781950
21
-18.2840079952
31
0.0000000000
11
-3.9561400929
21
-18.2665942282
31
0.0000000000
11
-3.8972492638
21
-18.2607098710
31
0.0000000000
0
SPLINE
5
3DE
100
AcDbEntity
8
0
100
AcDbSpline
62
7
6
CONTINUOUS
70
0
71
3
72
13
73
9
74
7
42
0.0000001000
43
0.0000001000
44
0.0000000001
12
-0.4373457337
22
-0.0000000000
32
0.0000000000
13
-0.0087785027
23
-0.4372576228
33
0.0000000000
40
0.0000000000
40
0.0000000000
40
0.0000000000
40
0.0000000000
40
0.2078689743
40
0.3973699424
40
0.5671099324
40
0.7216312043
40
0.8649706986
40
1.0000000000
40
1.0000000000
40
1.0000000000
40
1.0000000000
10
-3.8851825897
20
-19.2489494871
30
0.0000000000
10
-3.9154861260
20
-19.2489494871
30
0.0000000000
10
-3.9735858386
20
-19.2582064814
30
0.0000000000
10
-4.0504052065
20
-19.2907247802
30
0.0000000000
10
-4.1104978278
20
-19.3367871043
30
0.0000000000
10
-4.1530906459
20
-19.3909328430
30
0.0000000000
10
-4.1785641502
20
-19.4494096500
30
0.0000000000
10
-4.1847417799
20
-19.4900546447
30
0.0000000000
10
-4.1851368982
20
-19.5097355084
30
0.0000000000
11
-3.8851825897
21
-19.2489494871
31
0.0000000000
11
-3.9751021680
21
-19.2623363566
31
0.0000000000
11
-4.0512334947
21
-19.2950883208
31
0.0000000000
11
-4.1099785694
21
-19.3404740057
31
0.0000000000
11
-4.1515245561
21
-19.3937739291
31
0.0000000000
11
-4.1763478356
21
-19.4513387188
31
0.0000000000
11
-4.1851368982
21
-19.5097355084
31
0.0000000000
0
SPLINE
5
3DF
100
AcDbEntity
8
0
100
AcDbSpline
62
9
6
CONTINUOUS
70
0
71
3
72
11
73
7
74
5
42
0.0000001000
43
0.0000001000
44
0.0000000001
12
-0.4655638550
22
-0.0011199762
32
0.0000000000
13
-0.0011417497
23
-0.4655638021
33
0.0000000000
40
0.0000000000
40
0.0000000000
40
0.0000000000
40
0.0000000000
40
0.2516952974
40
0.5027318086
40
0.7530024040
40
1.0000000000
40
1.0000000000
40
1.0000000000
40
1.0000000000
10
-3.8642365118
20
-19.3813040895
30
0.0000000000
10
-3.9032965894
20
-19.3813980537
30
0.0000000000
10
-3.9821168700
20
-19.3970451865
30
0.0000000000
10
-4.0818257871
20
-19.4633869700
30
0.0000000000
10
-4.1484341190
20
-19.5620900867
30
0.0000000000
10
-4.1640968172
20
-19.6400534635
30
0.0000000000
10
-4.1641908203
20
-19.6783845101
30
0.0000000000
11
-3.8642365118
21
-19.3813040895
31
0.0000000000
11
-3.9791493802
21
-19.4042457355
31
0.0000000000
11
-4.0764710356
21
-19.4689604595
31
0.0000000000
11
-4.1414809501
21
-19.5656557935
31
0.0000000000
11
-4.1641908203
21
-19.6783845101
31
0.0000000000
0
SPLINE
5
3E0
100
AcDbEntity
8
0
100
AcDbSpline
62
7
6
CONTINUOUS
70
0
71
3
72
15
73
11
74
9
42
0.0000001000
43
0.0000001000
44
0.0000000001
12
-0.3002507471
22
0.0000000000
32
0.0000000000
13
-0.1665345103
23
0.2498334806
33
0.0000000000
40
0.0000000000
40
0.0000000000
40
0.0000000000
40
0.0000000000
40
0.1928223493
40
0.3783972448
40
0.5497493047
40
0.7004450481
40
0.8248343169
40
0.9182711291
40
0.9773029149
40
1.0000000000
40
1.0000000000
40
1.0000000000
40
1.0000000000
10
-3.8642365118
20
-20.3018148283
30
0.0000000000
10
-3.8835348633
20
-20.3018148283
30
0.0000000000
10
-3.9214030836
20
-20.3017165716
30
0.0000000000
10
-3.9764362162
20
-20.3013078730
30
0.0000000000
10
-4.0271925461
20
-20.3005748564
30
0.0000000000
10
-4.0719994751
20
-20.2998025239
30
0.0000000000
10
-4.1084907846
20
-20.2982930410
30
0.0000000000
10
-4.1370853069
20
-20.2980464537
30
0.0000000000
10
-4.1528592968
20
-20.2949653834
30
0.0000000000
10
-4.1629308710
20
-20.2959863179
30
0.0000000000
10
-4.1641908203
20
-20.2940961540
30
0.0000000000
11
-3.8642365118
21
-20.3018148283
31
0.0000000000
11
-3.9221313779
21
-20.3016671564
31
0.0000000000
11
-3.9778486616
21
-20.3012297029
31
0.0000000000
11
-4.0292923360
21
-20.3005189557
31
0.0000000000
11
-4.0745287181
21
-20.2995616879
31
0.0000000000
11
-4.1118584289
21
-20.2983939441
31
0.0000000000
11
-4.1398811524
21
-20.2970596277
31
0.0000000000
11
-4.1575460178
21
-20.2956088758
31
0.0000000000
11
-4.1641908203
21
-20.2940961540
31
0.0000000000
0
SPLINE
5
3E1
100
AcDbEntity
8
0
100
AcDbSpline
62
7
6
CONTINUOUS
70
0
71
3
72
15
73
11
74
9
42
0.0000001000
43
0.0000001000
44
0.0000000001
12
-0.1665345102
22
-0.2498334804
32
0.0000000000
13
-0.3002507469
23
0.0000000000
33
0.0000000000
40
0.0000000000
40
0.0000000000
40
0.0000000000
40
0.0000000000
40
0.0226971993
40
0.0817295500
40
0.1751673368
40
0.2995574041
40
0.4502531408
40
0.6216043462
40
0.8071781828
40
1.0000000000
40
1.0000000000
40
1.0000000000
40
1.0000000000
10
-3.4376848728
20
-20.2940961540
30
0.0000000000
10
-3.4389448284
20
-20.2959863274
30
0.0000000000
10
-3.4490164866
20
-20.2949653786
30
0.0000000000
10
-3.4647906230
20
-20.2980464775
30
0.0000000000
10
-3.4933853896
20
-20.2982930561
30
0.0000000000
10
-3.5298768737
20
-20.2998025403
30
0.0000000000
10
-3.5746837961
20
-20.3005748670
30
0.0000000000
10
-3.6254399343
20
-20.3013078771
30
0.0000000000
10
-3.6804728220
20
-20.3017165723
30
0.0000000000
10
-3.7183408831
20
-20.3018148283
30
0.0000000000
10
-3.7376391813
20
-20.3018148283
30
0.0000000000
11
-3.4376848728
21
-20.2940961540
31
0.0000000000
11
-3.4443297095
21
-20.2956088799
31
0.0000000000
11
-3.4619947443
21
-20.2970596401
31
0.0000000000
11
-3.4900177605
21
-20.2983939631
31
0.0000000000
11
-3.5273477111
21
-20.2995617069
31
0.0000000000
11
-3.5725840913
21
-20.3005189684
31
0.0000000000
11
-3.6240275092
21
-20.3012297081
31
0.0000000000
11
-3.6797444750
21
-20.3016671572
31
0.0000000000
11
-3.7376391813
21
-20.3018148283
31
0.0000000000
0
SPLINE
5
3E2
100
AcDbEntity
8
0
100
AcDbSpline
62
7
6
CONTINUOUS
70
0
71
3
72
12
73
8
74
6
42
0.0000001000
43
0.0000001000
44
0.0000000001
12
0.4412651886
22
0.0000000000
32
0.0000000000
13
0.0088571749
23
-0.4411762881
33
0.0000000000
40
0.0000000000
40
0.0000000000
40
0.0000000000
40
0.0000000000
40
0.2533359053
40
0.4720132478
40
0.6656483723
40
0.8401187174
40
1.0000000000
40
1.0000000000
40
1.0000000000
40
1.0000000000
10
-3.7212008402
20
-19.2489494871
30
0.0000000000
10
-3.6839380682
20
-19.2489494871
30
0.0000000000
10
-3.6139582627
20
-19.2605600977
30
0.0000000000
10
-3.5256190704
20
-19.3058953033
30
0.0000000000
10
-3.4630253670
20
-19.3672781239
30
0.0000000000
10
-3.4260122239
20
-19.4369094627
30
0.0000000000
10
-3.4172108270
20
-19.4862235649
30
0.0000000000
10
-3.4167387948
20
-19.5097355084
30
0.0000000000
11
-3.7212008402
21
-19.2489494871
31
0.0000000000
11
-3.6109337070
21
-19.2673284678
31
0.0000000000
11
-3.5253156467
21
-19.3118343623
31
0.0000000000
11
-3.4647059919
21
-19.3720607853
31
0.0000000000
11
-3.4289751716
21
-19.4402547209
31
0.0000000000
11
-3.4167387948
21
-19.5097355084
31
0.0000000000
0
SPLINE
5
3E3
100
AcDbEntity
8
0
100
AcDbSpline
62
9
6
CONTINUOUS
70
0
71
3
72
11
73
7
74
5
42
0.0000001000
43
0.0000001000
44
0.0000000001
12
0.4655638067
22
-0.0011199761
32
0.0000000000
13
0.0011417496
23
-0.4655637538
33
0.0000000000
40
0.0000000000
40
0.0000000000
40
0.0000000000
40
0.0000000000
40
0.2510267170
40
0.5015685034
40
0.7511923738
40
1.0000000000
40
1.0000000000
40
1.0000000000
40
1.0000000000
10
-3.7376391813
20
-19.3813040895
30
0.0000000000
10
-3.6986828633
20
-19.3813978041
30
0.0000000000
10
-3.6200496173
20
-19.3969649175
30
0.0000000000
10
-3.5204942649
20
-19.4629994348
30
0.0000000000
10
-3.4536025265
20
-19.5616112257
30
0.0000000000
10
-3.4377795648
20
-19.6397725726
30
0.0000000000
10
-3.4376848728
20
-19.6783845101
30
0.0000000000
11
-3.7376391813
21
-19.3813040895
31
0.0000000000
11
-3.6230195957
21
-19.4041247391
31
0.0000000000
11
-3.5257965725
21
-19.4685715835
31
0.0000000000
11
-3.4607262841
21
-19.5648631046
31
0.0000000000
11
-3.4376848728
21
-19.6783845101
31
0.0000000000
0
SPLINE
5
3E4
100
AcDbEntity
8
0
100
AcDbSpline
62
9
6
CONTINUOUS
70
0
71
3
72
11
73
7
74
5
42
0.0000001000
43
0.0000001000
44
0.0000000001
12
-0.0004277413
22
0.4677311382
32
0.0000000000
13
-0.4677311392
23
0.0004266997
33
0.0000000000
40
0.0000000000
40
0.0000000000
40
0.0000000000
40
0.0000000000
40
0.2476762115
40
0.4984299497
40
0.7491094307
40
1.0000000000
40
1.0000000000
40
1.0000000000
40
1.0000000000
10
-3.4167387948
20
-18.5965281923
30
0.0000000000
10
-3.4167741086
20
-18.5579129002
30
0.0000000000
10
-3.4322619381
20
-18.4793868254
30
0.0000000000
10
-3.4987040578
20
-18.3797512660
30
0.0000000000
10
-3.5985339078
20
-18.3127141181
30
0.0000000000
10
-3.6775766595
20
-18.2969750168
30
0.0000000000
10
-3.7166931034
20
-18.2969393318
30
0.0000000000
11
-3.4167387948
21
-18.5965281923
31
0.0000000000
11
-3.4392579974
21
-18.4828920897
31
0.0000000000
11
-3.5042281077
21
-18.3852460697
31
0.0000000000
11
-3.6016249580
21
-18.3199653833
31
0.0000000000
11
-3.7166931034
21
-18.2969393318
31
0.0000000000
0
SPLINE
5
3E5
100
AcDbEntity
8
0
100
AcDbSpline
62
7
6
CONTINUOUS
70
0
71
3
72
15
73
11
74
9
42
0.0000001000
43
0.0000001000
44
0.0000000001
12
0.4716445287
22
0.0000000000
32
0.0000000000
13
-0.0010311582
23
-0.4716434014
33
0.0000000000
40
0.0000000000
40
0.0000000000
40
0.0000000000
40
0.0000000000
40
0.1255011482
40
0.2509686262
40
0.3762877845
40
0.5014057018
40
0.6262485383
40
0.7509093203
40
0.8754457921
40
1.0000000000
40
1.0000000000
40
1.0000000000
40
1.0000000000
10
-3.7046264293
20
-18.2607098710
30
0.0000000000
10
-3.6848957860
20
-18.2607098710
30
0.0000000000
10
-3.6453269881
20
-18.2646581665
30
0.0000000000
10
-3.5884352381
20
-18.2821923543
30
0.0000000000
10
-3.5361628382
20
-18.3105982510
30
0.0000000000
10
-3.4905892034
20
-18.3486704570
30
0.0000000000
10
-3.4534122172
20
-18.3948368571
30
0.0000000000
10
-3.4259631598
20
-18.4472690619
30
0.0000000000
10
-3.4091748431
20
-18.5039464072
30
0.0000000000
10
-3.4054632579
20
-18.5432208889
30
0.0000000000
10
-3.4055060696
20
-18.5628026124
30
0.0000000000
11
-3.7046264293
21
-18.2607098710
31
0.0000000000
11
-3.6457278680
21
-18.2665957893
31
0.0000000000
11
-3.5891745052
21
-18.2840176721
31
0.0000000000
11
-3.5372397148
21
-18.3122366029
31
0.0000000000
11
-3.4919461515
21
-18.3500626867
31
0.0000000000
11
-3.4550091369
21
-18.3959176867
31
0.0000000000
11
-3.4277292778
21
-18.4480015519
31
0.0000000000
11
-3.4110446658
21
-18.5043189781
31
0.0000000000
11
-3.4055060696
21
-18.5628026124
31
0.0000000000
0
ENDSEC
0
SECTION
2
OBJECTS
0
DICTIONARY
5
3E6
100
AcDbDictionary
3
ACAD_GROUP
350
3E7
3
ACAD_MLINESTYLE
350
3E8
0
DICTIONARY
5
3E7
102
{ACAD_REACTORS
330
3E6
102
}
100
AcDbDictionary
0
DICTIONARY
5
3E8
102
{ACAD_REACTORS
330
3E6
102
}
100
AcDbDictionary
3
STANDARD
350
3E9
0
MLINESTYLE
5
3E9
102
{ACAD_REACTORS
330
3E8
102
}
100
AcDbMlineStyle
2
STANDARD
70
0
3

62
256
51
90.0
52
90.0
71
2
49
0.5
62
256
6
BYLAYER
49
-0.5
62
256
6
BYLAYER
0
ENDSEC
0
EOF
