  0
SECTION
  2
HEADER
  9
$ACADVER
  1
AC1015
  9
$DWGCODEPAGE
  3
ANSI_1252
  9
$EXTMAX
 10
297.0
 20
210.0
 30
0.0
  9
$EXTMIN
 10
0.0
 20
0.0
 30
0.0
  9
$LIMMIN
 10
0.0
 20
0.0
  9
$LIMMAX
 10
297.0
 20
210.0
  9
$VIEWCTR
 10
148.5
 20
105.0
  9
$VIEWSIZE
 40
210.0
  9
$CLAYER
  8
0
  9
$LTSCALE
 40
16.335
  9
$CELTYPE
  6
BYLAYER
  9
$DIMSCALE
 40
1.0
  9
$DIMASZ
 40
3.0
  9
$DIMEXO
 40
1.85625
  9
$DIMDLI
 40
11.286
  9
$DIMEXE
 40
5.346
  9
$DIMCEN
 40
2.673
  9
$DIMLFAC
 40
1.0
  9
$DIMBLK
  1
_FILLED
  9
$DIMTXT
 40
3.0
  9
$DIMTOL
 70
1
  9
$DIMLIM
 70
0
  9
$DIMTFAC
 40
1.0
  9
$DIMTP
 40
0.01
  9
$DIMTM
 40
0.01
  9
$PDMODE
 70
3
  9
$PDSIZE
 40
3.0
  9
$HANDSEED
  5
60D
  9
$TILEMODE
 70
1
  9
$MEASUREMENT
 70
1
  9
$INSUNITS
 70
4
  0
ENDSEC
  0
SECTION
  2
CLASSES
  0
CLASS
  1
ACDBDICTIONARYWDFLT
  2
AcDbDictionaryWithDefault
  3
AutoCAD 2000
 90
0
280
0
281
0
  0
CLASS
  1
ACDBPLACEHOLDER
  2
AcDbPlaceHolder
  3
AutoCAD 2000
 90
0
280
0
281
0
  0
CLASS
  1
LAYOUT
  2
AcDbLayout
  3
AutoCAD 2000
 90
0
280
0
281
0
  0
ENDSEC
  0
SECTION
  2
TABLES
  0
TABLE
  2
VPORT
  5
8
100
AcDbSymbolTable
 70
2
  0
VPORT
  5
1F4
100
AcDbSymbolTableRecord
100
AcDbViewportTableRecord
  2
*ACTIVE
 70
0
 10
0.0
 20
0.0
 11
1.0
 21
1.0
 12
148.5
 22
105.0
 13
0.0
 23
0.0
 14
1.0
 24
1.0
 15
0.0
 25
0.0
 16
0.0
 26
0.0
 36
1.0
 17
0.0
 27
0.0
 37
0.0
 40
210.0
 41
1.4142857143
 42
50.0
 43
0.0
 44
0.0
 50
0.0
 51
0.0
 71
0
 72
100
 73
1
 74
1
 75
0
 76
0
 77
0
 78
0
  0
ENDTAB
  0
TABLE
  2
LTYPE
  5
5
100
AcDbSymbolTable
 70
6
  0
LTYPE
  5
14
100
AcDbSymbolTableRecord
100
AcDbLinetypeTableRecord
  2
BYBLOCK
 70
0
  3

 72
65
 73
0
 40
0.0
  0
LTYPE
  5
15
100
AcDbSymbolTableRecord
100
AcDbLinetypeTableRecord
  2
BYLAYER
 70
0
  3

 72
65
 73
0
 40
0.0
  0
LTYPE
  5
16
100
AcDbSymbolTableRecord
100
AcDbLinetypeTableRecord
  2
CONTINUOUS
 70
64
  3
Solid line
 72
65
 73
0
 40
0.0
  0
LTYPE
  5
1F5
100
AcDbSymbolTableRecord
100
AcDbLinetypeTableRecord
  2
CENTER
 70
64
  3
____ _ ____ _ ____ _ ____ _ ____ _ ____ _ ____
 72
65
 73
4
 40
0.6
 49
0.375
 74
0
 49
-0.075
 74
0
 49
0.075
 74
0
 49
-0.075
 74
0
  0
LTYPE
  5
1F6
100
AcDbSymbolTableRecord
100
AcDbLinetypeTableRecord
  2
HIDDEN
 70
64
  3
- - - - - - - - - - - - - - - - - - - -
 72
65
 73
2
 40
0.2
 49
0.1
 74
0
 49
-0.1
 74
0
  0
LTYPE
  5
1F7
100
AcDbSymbolTableRecord
100
AcDbLinetypeTableRecord
  2
PHANTOM
 70
64
  3
_____ _ _ _____ _ _ _____ _ _ _____
 72
65
 73
6
 40
0.8
 49
0.45
 74
0
 49
-0.05
 74
0
 49
0.1
 74
0
 49
-0.05
 74
0
 49
0.1
 74
0
 49
-0.05
 74
0
  0
LTYPE
  5
1F8
100
AcDbSymbolTableRecord
100
AcDbLinetypeTableRecord
  2
DOT
 70
64
  3
. . . . . . . . . . . . . . . . . . . .
 72
65
 73
2
 40
0.2
 49
0.1
 74
0
 49
-0.1
 74
0
  0
LTYPE
  5
1F9
100
AcDbSymbolTableRecord
100
AcDbLinetypeTableRecord
  2
DASHED
 70
64
  3
- - - - - - - - - - - - - - - - - - - -
 72
65
 73
2
 40
0.2
 49
0.1
 74
0
 49
-0.1
 74
0
  0
ENDTAB
  0
TABLE
  2
LAYER
  5
2
100
AcDbSymbolTable
 70
36
  0
LAYER
  5
10
100
AcDbSymbolTableRecord
100
AcDbLayerTableRecord
  2
0
 70
0
 62
7
  6
CONTINUOUS
370
-3
390
F
  0
LAYER
  5
1FA
100
AcDbSymbolTableRecord
100
AcDbLayerTableRecord
  2
DEFAULT_1
 70
0
 62
7
  6
CENTER
370
-3
390
F
  0
LAYER
  5
1FB
100
AcDbSymbolTableRecord
100
AcDbLayerTableRecord
  2
DEFAULT_2
 70
0
 62
7
  6
HIDDEN
370
-3
390
F
  0
LAYER
  5
1FC
100
AcDbSymbolTableRecord
100
AcDbLayerTableRecord
  2
DEFAULT_3
 70
0
 62
7
  6
PHANTOM
370
-3
390
F
  0
LAYER
  5
1FD
100
AcDbSymbolTableRecord
100
AcDbLayerTableRecord
  2
320200000
 70
0
 62
7
  6
CONTINUOUS
370
-3
390
F
  0
LAYER
  5
1FE
100
AcDbSymbolTableRecord
100
AcDbLayerTableRecord
  2
361200000
 70
0
 62
7
  6
CONTINUOUS
370
-3
390
F
  0
LAYER
  5
1FF
100
AcDbSymbolTableRecord
100
AcDbLayerTableRecord
  2
ASSI
 70
0
 62
7
  6
CONTINUOUS
370
-3
390
F
  0
LAYER
  5
200
100
AcDbSymbolTableRecord
100
AcDbLayerTableRecord
  2
COLOR5
 70
0
 62
7
  6
CONTINUOUS
370
-3
390
F
  0
LAYER
  5
201
100
AcDbSymbolTableRecord
100
AcDbLayerTableRecord
  2
COLOR7
 70
0
 62
7
  6
CONTINUOUS
370
-3
390
F
  0
LAYER
  5
202
100
AcDbSymbolTableRecord
100
AcDbLayerTableRecord
  2
COORDINATE
 70
0
 62
7
  6
CONTINUOUS
370
-3
390
F
  0
LAYER
  5
203
100
AcDbSymbolTableRecord
100
AcDbLayerTableRecord
  2
COORD_ORIGINE
 70
0
 62
7
  6
CONTINUOUS
370
-3
390
F
  0
LAYER
  5
204
100
AcDbSymbolTableRecord
100
AcDbLayerTableRecord
  2
COPY_PUBLISH
 70
0
 62
7
  6
CONTINUOUS
370
-3
390
F
  0
LAYER
  5
205
100
AcDbSymbolTableRecord
100
AcDbLayerTableRecord
  2
COSMETIC
 70
0
 62
7
  6
CONTINUOUS
370
-3
390
F
  0
LAYER
  5
206
100
AcDbSymbolTableRecord
100
AcDbLayerTableRecord
  2
COSMETICI
 70
0
 62
7
  6
CONTINUOUS
370
-3
390
F
  0
LAYER
  5
207
100
AcDbSymbolTableRecord
100
AcDbLayerTableRecord
  2
CURVE
 70
0
 62
7
  6
CONTINUOUS
370
-3
390
F
  0
LAYER
  5
208
100
AcDbSymbolTableRecord
100
AcDbLayerTableRecord
  2
DRAFT
 70
0
 62
7
  6
CONTINUOUS
370
-3
390
F
  0
LAYER
  5
209
100
AcDbSymbolTableRecord
100
AcDbLayerTableRecord
  2
GUSCI_ESTERNI
 70
0
 62
7
  6
CONTINUOUS
370
-3
390
F
  0
LAYER
  5
20A
100
AcDbSymbolTableRecord
100
AcDbLayerTableRecord
  2
IMPORT_FEATURES
 70
0
 62
7
  6
CONTINUOUS
370
-3
390
F
  0
LAYER
  5
20B
100
AcDbSymbolTableRecord
100
AcDbLayerTableRecord
  2
IMPORT_IGES
 70
0
 62
7
  6
CONTINUOUS
370
-3
390
F
  0
LAYER
  5
20C
100
AcDbSymbolTableRecord
100
AcDbLayerTableRecord
  2
INTF_1
 70
0
 62
7
  6
CONTINUOUS
370
-3
390
F
  0
LAYER
  5
20D
100
AcDbSymbolTableRecord
100
AcDbLayerTableRecord
  2
INTF_YELLOW
 70
0
 62
7
  6
CONTINUOUS
370
-3
390
F
  0
LAYER
  5
20E
100
AcDbSymbolTableRecord
100
AcDbLayerTableRecord
  2
NOTE
 70
0
 62
7
  6
CONTINUOUS
370
-3
390
F
  0
LAYER
  5
20F
100
AcDbSymbolTableRecord
100
AcDbLayerTableRecord
  2
PIANI
 70
0
 62
7
  6
CONTINUOUS
370
-3
390
F
  0
LAYER
  5
210
100
AcDbSymbolTableRecord
100
AcDbLayerTableRecord
  2
PIANI_ORIGINE
 70
0
 62
7
  6
CONTINUOUS
370
-3
390
F
  0
LAYER
  5
211
100
AcDbSymbolTableRecord
100
AcDbLayerTableRecord
  2
PIANI_SFORMI
 70
0
 62
7
  6
CONTINUOUS
370
-3
390
F
  0
LAYER
  5
212
100
AcDbSymbolTableRecord
100
AcDbLayerTableRecord
  2
PRECARICO_MOLLA
 70
0
 62
7
  6
CONTINUOUS
370
-3
390
F
  0
LAYER
  5
213
100
AcDbSymbolTableRecord
100
AcDbLayerTableRecord
  2
PUNTI
 70
0
 62
7
  6
CONTINUOUS
370
-3
390
F
  0
LAYER
  5
214
100
AcDbSymbolTableRecord
100
AcDbLayerTableRecord
  2
RACCORDO
 70
0
 62
7
  6
CONTINUOUS
370
-3
390
F
  0
LAYER
  5
215
100
AcDbSymbolTableRecord
100
AcDbLayerTableRecord
  2
RGB____0____0____0__
 70
0
 62
7
  6
CONTINUOUS
370
-3
390
F
  0
LAYER
  5
216
100
AcDbSymbolTableRecord
100
AcDbLayerTableRecord
  2
SMUSSO
 70
0
 62
7
  6
CONTINUOUS
370
-3
390
F
  0
LAYER
  5
217
100
AcDbSymbolTableRecord
100
AcDbLayerTableRecord
  2
SUPERFICI
 70
0
 62
7
  6
CONTINUOUS
370
-3
390
F
  0
LAYER
  5
218
100
AcDbSymbolTableRecord
100
AcDbLayerTableRecord
  2
TRASH
 70
0
 62
7
  6
CONTINUOUS
370
-3
390
F
  0
LAYER
  5
219
100
AcDbSymbolTableRecord
100
AcDbLayerTableRecord
  2
TRECCIE
 70
0
 62
7
  6
CONTINUOUS
370
-3
390
F
  0
LAYER
  5
21A
100
AcDbSymbolTableRecord
100
AcDbLayerTableRecord
  2
VARIE
 70
0
 62
7
  6
CONTINUOUS
370
-3
390
F
  0
LAYER
  5
21B
100
AcDbSymbolTableRecord
100
AcDbLayerTableRecord
  2
XSEC_DATUMS
 70
0
 62
7
  6
CONTINUOUS
370
-3
390
F
  0
LAYER
  5
21C
100
AcDbSymbolTableRecord
100
AcDbLayerTableRecord
  2
___SHELL
 70
0
 62
7
  6
CONTINUOUS
370
-3
390
F
  0
ENDTAB
  0
TABLE
  2
STYLE
  5
3
100
AcDbSymbolTable
 70
1
  0
STYLE
  5
11
100
AcDbSymbolTableRecord
100
AcDbTextStyleTableRecord
  2
STANDARD
 70
0
 40
0.0
 41
0.8
 50
0.0
 71
0
 42
0.2
  3
txt
  4

  0
STYLE
  5
21D
100
AcDbSymbolTableRecord
100
AcDbTextStyleTableRecord
  2
TEXTSTYLE_1
 70
0
 40
0.0
 41
0.8
 50
0.0
 71
0
 42
0.2
  3
gdt
  4

  0
ENDTAB
  0
TABLE
  2
VIEW
  5
6
100
AcDbSymbolTable
 70
0
  0
ENDTAB
  0
TABLE
  2
UCS
  5
7
100
AcDbSymbolTable
 70
0
  0
ENDTAB
  0
TABLE
  2
APPID
  5
9
100
AcDbSymbolTable
 70
1
  0
APPID
  5
21E
100
AcDbSymbolTableRecord
100
AcDbRegAppTableRecord
  2
ACAD
 70
0
  0
ENDTAB
  0
TABLE
  2
BLOCK_RECORD
  5
1
100
AcDbSymbolTable
 70
0
  0
BLOCK_RECORD
  5
21F
100
AcDbSymbolTableRecord
100
AcDbBlockTableRecord
  2
*Model_Space
  0
BLOCK_RECORD
  5
220
100
AcDbSymbolTableRecord
100
AcDbBlockTableRecord
  2
*Paper_Space
  0
ENDTAB
  0
TABLE
  2
DIMSTYLE
  5
A
100
AcDbSymbolTable
 70
1
100
AcDbDimStyleTable
 71
0
  0
DIMSTYLE
105
221
100
AcDbSymbolTableRecord
100
AcDbDimStyleTableRecord
  2
STANDARD
 70
0
  3

  4

 40
1.0
 41
3.0
 42
0.0625
 43
0.38
 44
0.18
 45
0.0
 46
0.0
 47
0.01
 48
0.01
140
3.0
141
0.09
142
0.0
143
25.4
144
1.0
145
0.0
146
1.0
147
0.09
 71
1.0
 72
0.0
 73
0
 74
0
 75
0
 76
0
 77
1
 78
8
170
0
171
2
172
0
173
0
174
0
175
0
176
0
177
0
178
0
270
2
271
2
272
2
273
2
274
2
275
0
280
0
281
0
282
0
283
1
284
8
285
0
286
0
287
3
288
0
340
11
  0
ENDTAB
  0
ENDSEC
  0
SECTION
  2
BLOCKS
  0
BLOCK
  5
20
100
AcDbEntity
  8
0
100
AcDbBlockBegin
  2
*Model_Space
 70
0
 10
0.0
 20
0.0
 30
0.0
  3
*Model_Space
  1

  0
ENDBLK
  5
21
100
AcDbEntity
  8
0
100
AcDbBlockEnd
  0
BLOCK
  5
1C
100
AcDbEntity
  8
0
100
AcDbBlockBegin
  2
*Paper_Space
 70
0
 10
0.0
 20
0.0
 30
0.0
  3
*Paper_Space
  1

  0
ENDBLK
  5
1D
100
AcDbEntity
  8
0
100
AcDbBlockEnd
  0
ENDSEC
  0
SECTION
  2
ENTITIES
  0
LINE
  5
222
100
AcDbEntity
  8
0
100
AcDbLine
 62
7
  6
CONTINUOUS
 10
-5.9270304435
 20
-24.8099167025
 11
6.0729695565
 21
-24.8099167025
  0
LINE
  5
223
100
AcDbEntity
  8
0
100
AcDbLine
 62
253
  6
CONTINUOUS
 10
6.0729695565
 20
-24.798064706
 11
-5.9270304435
 21
-24.798064706
  0
LINE
  5
224
100
AcDbEntity
  8
RACCORDO
100
AcDbLine
 62
7
  6
CONTINUOUS
 10
4.3729695565
 20
-24.7472365476
 11
1.4729695565
 21
-24.7472365476
  0
LINE
  5
225
100
AcDbEntity
  8
RACCORDO
100
AcDbLine
 62
7
  6
CONTINUOUS
 10
-1.3270304435
 20
-24.7472365476
 11
-4.2270304435
 21
-24.7472365476
  0
LINE
  5
226
100
AcDbEntity
  8
RACCORDO
100
AcDbLine
 62
7
  6
CONTINUOUS
 10
4.3729695565
 20
-24.3567181447
 11
1.4729695565
 21
-24.3567181447
  0
LINE
  5
227
100
AcDbEntity
  8
RACCORDO
100
AcDbLine
 62
7
  6
CONTINUOUS
 10
-1.3270304435
 20
-24.3567181447
 11
-4.2270304435
 21
-24.3567181447
  0
LINE
  5
228
100
AcDbEntity
  8
0
100
AcDbLine
 62
253
  6
CONTINUOUS
 10
4.5729695565
 20
-24.3064267528
 11
1.2729695565
 21
-24.3064267528
  0
LINE
  5
229
100
AcDbEntity
  8
0
100
AcDbLine
 62
253
  6
CONTINUOUS
 10
-1.1270304435
 20
-24.3064267528
 11
-4.4270304435
 21
-24.3064267528
  0
LINE
  5
22A
100
AcDbEntity
  8
RACCORDO
100
AcDbLine
 62
7
  6
CONTINUOUS
 10
-12.251619169
 20
-24.0682439214
 11
-10.4024417181
 21
-24.0682439214
  0
LINE
  5
22B
100
AcDbEntity
  8
ASSI
100
AcDbLine
 62
7
  6
CONTINUOUS
 10
-12.251619169
 20
-24.0682439214
 11
-10.4024417181
 21
-24.0682439214
  0
LINE
  5
22C
100
AcDbEntity
  8
RACCORDO
100
AcDbLine
 62
7
  6
CONTINUOUS
 10
10.548380831
 20
-24.0682439214
 11
12.3975582819
 21
-24.0682439214
  0
LINE
  5
22D
100
AcDbEntity
  8
ASSI
100
AcDbLine
 62
7
  6
CONTINUOUS
 10
10.548380831
 20
-24.0682439214
 11
12.3975582819
 21
-24.0682439214
  0
LINE
  5
22E
100
AcDbEntity
  8
RACCORDO
100
AcDbLine
 62
7
  6
CONTINUOUS
 10
-4.2270304435
 20
-24.0329858216
 11
-1.3270304435
 21
-24.0329858216
  0
LINE
  5
22F
100
AcDbEntity
  8
RACCORDO
100
AcDbLine
 62
7
  6
CONTINUOUS
 10
1.4729695565
 20
-24.0329858216
 11
4.3729695565
 21
-24.0329858216
  0
LINE
  5
230
100
AcDbEntity
  8
DRAFT
100
AcDbLine
 62
7
  6
CONTINUOUS
 10
-11.9493316898
 20
20.3808573771
 11
-11.1493316898
 21
21.1808573771
  0
LINE
  5
231
100
AcDbEntity
  8
ASSI
100
AcDbLine
 62
7
  6
CONTINUOUS
 10
-11.9493316898
 20
20.3808573771
 11
-11.1493316898
 21
21.1808573771
  0
LINE
  5
232
100
AcDbEntity
  8
DRAFT
100
AcDbLine
 62
7
  6
CONTINUOUS
 10
-11.8770304435
 20
20.2063067279
 11
-11.0770304435
 21
21.0063067279
  0
LINE
  5
233
100
AcDbEntity
  8
ASSI
100
AcDbLine
 62
7
  6
CONTINUOUS
 10
-11.8770304435
 20
20.2063067279
 11
-11.0770304435
 21
21.0063067279
  0
LINE
  5
234
100
AcDbEntity
  8
RACCORDO
100
AcDbLine
 62
7
  6
CONTINUOUS
 10
-5.9270304435
 20
-23.3505601729
 11
-3.8770304435
 21
-23.3505601729
  0
LINE
  5
235
100
AcDbEntity
  8
RACCORDO
100
AcDbLine
 62
7
  6
CONTINUOUS
 10
6.0729695565
 20
-23.3505601729
 11
4.0229695565
 21
-23.3505601729
  0
LINE
  5
236
100
AcDbEntity
  8
DRAFT
100
AcDbLine
 62
7
  6
CONTINUOUS
 10
4.0410023433
 20
-23.1436932721
 11
8.0729695565
 21
-23.1436932721
  0
LINE
  5
237
100
AcDbEntity
  8
ASSI
100
AcDbLine
 62
7
  6
CONTINUOUS
 10
4.0410023433
 20
-23.1436932721
 11
8.0729695565
 21
-23.1436932721
  0
LINE
  5
238
100
AcDbEntity
  8
DRAFT
100
AcDbLine
 62
7
  6
CONTINUOUS
 10
-3.8950632304
 20
-23.1436932721
 11
-7.9270304435
 21
-23.1436932721
  0
LINE
  5
239
100
AcDbEntity
  8
ASSI
100
AcDbLine
 62
7
  6
CONTINUOUS
 10
-3.8950632304
 20
-23.1436932721
 11
-7.9270304435
 21
-23.1436932721
  0
LINE
  5
23A
100
AcDbEntity
  8
RACCORDO
100
AcDbLine
 62
253
  6
CONTINUOUS
 10
8.0134700193
 20
-23.0841937349
 11
6.3324690937
 21
-23.0841937349
  0
LINE
  5
23B
100
AcDbEntity
  8
ASSI
100
AcDbLine
 62
253
  6
CONTINUOUS
 10
8.0134700193
 20
-23.0841937349
 11
6.3324690937
 21
-23.0841937349
  0
LINE
  5
23C
100
AcDbEntity
  8
RACCORDO
100
AcDbLine
 62
253
  6
CONTINUOUS
 10
-6.1865299807
 20
-23.0841937349
 11
-7.8675309063
 21
-23.0841937349
  0
LINE
  5
23D
100
AcDbEntity
  8
ASSI
100
AcDbLine
 62
253
  6
CONTINUOUS
 10
-6.1865299807
 20
-23.0841937349
 11
-7.8675309063
 21
-23.0841937349
  0
LINE
  5
23E
100
AcDbEntity
  8
RACCORDO
100
AcDbLine
 62
7
  6
CONTINUOUS
 10
4.0410023433
 20
-22.9600417701
 11
4.0229695565
 21
-22.9600417701
  0
LINE
  5
23F
100
AcDbEntity
  8
RACCORDO
100
AcDbLine
 62
7
  6
CONTINUOUS
 10
-3.8950632304
 20
-22.9600417701
 11
-3.8770304435
 21
-22.9600417701
  0
LINE
  5
240
100
AcDbEntity
  8
0
100
AcDbLine
 62
253
  6
CONTINUOUS
 10
3.8229695565
 20
-22.8909535082
 11
-3.6770304435
 21
-22.8909535082
  0
LINE
  5
241
100
AcDbEntity
  8
RACCORDO
100
AcDbLine
 62
253
  6
CONTINUOUS
 10
8.0048948032
 20
-22.5842698874
 11
6.3410443097
 21
-22.5842698874
  0
LINE
  5
242
100
AcDbEntity
  8
ASSI
100
AcDbLine
 62
253
  6
CONTINUOUS
 10
8.0048948032
 20
-22.5842698874
 11
6.3410443097
 21
-22.5842698874
  0
LINE
  5
243
100
AcDbEntity
  8
RACCORDO
100
AcDbLine
 62
253
  6
CONTINUOUS
 10
-6.1951051968
 20
-22.5842698874
 11
-7.8589556903
 21
-22.5842698874
  0
LINE
  5
244
100
AcDbEntity
  8
ASSI
100
AcDbLine
 62
253
  6
CONTINUOUS
 10
-6.1951051968
 20
-22.5842698874
 11
-7.8589556903
 21
-22.5842698874
  0
LINE
  5
245
100
AcDbEntity
  8
DRAFT
100
AcDbLine
 62
7
  6
CONTINUOUS
 10
-10.1524797943
 20
-22.3936932721
 11
-7.8589556903
 21
-22.3936932721
  0
LINE
  5
246
100
AcDbEntity
  8
ASSI
100
AcDbLine
 62
7
  6
CONTINUOUS
 10
-10.1524797943
 20
-22.3936932721
 11
-7.8589556903
 21
-22.3936932721
  0
LINE
  5
247
100
AcDbEntity
  8
RACCORDO
100
AcDbLine
 62
7
  6
CONTINUOUS
 10
4.0393629991
 20
-22.3936932721
 11
3.9729695565
 21
-22.3936932721
  0
LINE
  5
248
100
AcDbEntity
  8
0
100
AcDbLine
 62
7
  6
CONTINUOUS
 10
3.9729695565
 20
-22.3936932721
 11
3.8229695565
 21
-22.3936932721
  0
LINE
  5
249
100
AcDbEntity
  8
ASSI
100
AcDbLine
 62
7
  6
CONTINUOUS
 10
4.0393629991
 20
-22.3936932721
 11
3.8229695565
 21
-22.3936932721
  0
LINE
  5
24A
100
AcDbEntity
  8
0
100
AcDbLine
 62
7
  6
CONTINUOUS
 10
-3.6770304435
 20
-22.3936932721
 11
-3.8270304435
 21
-22.3936932721
  0
LINE
  5
24B
100
AcDbEntity
  8
RACCORDO
100
AcDbLine
 62
7
  6
CONTINUOUS
 10
-3.8270304435
 20
-22.3936932721
 11
-3.8934238862
 21
-22.3936932721
  0
LINE
  5
24C
100
AcDbEntity
  8
ASSI
100
AcDbLine
 62
7
  6
CONTINUOUS
 10
-3.6770304435
 20
-22.3936932721
 11
-3.8934238862
 21
-22.3936932721
  0
LINE
  5
24D
100
AcDbEntity
  8
DRAFT
100
AcDbLine
 62
7
  6
CONTINUOUS
 10
8.0048948032
 20
-22.3936932721
 11
10.2984189072
 21
-22.3936932721
  0
LINE
  5
24E
100
AcDbEntity
  8
ASSI
100
AcDbLine
 62
7
  6
CONTINUOUS
 10
8.0048948032
 20
-22.3936932721
 11
10.2984189072
 21
-22.3936932721
  0
LINE
  5
24F
100
AcDbEntity
  8
DRAFT
100
AcDbLine
 62
7
  6
CONTINUOUS
 10
-6.1951051968
 20
-22.3147226816
 11
-3.9270304435
 21
-22.3147226816
  0
LINE
  5
250
100
AcDbEntity
  8
ASSI
100
AcDbLine
 62
7
  6
CONTINUOUS
 10
-6.1951051968
 20
-22.3147226816
 11
-3.9270304435
 21
-22.3147226816
  0
LINE
  5
251
100
AcDbEntity
  8
DRAFT
100
AcDbLine
 62
7
  6
CONTINUOUS
 10
4.0729695565
 20
-22.3147226816
 11
6.3410443097
 21
-22.3147226816
  0
LINE
  5
252
100
AcDbEntity
  8
ASSI
100
AcDbLine
 62
7
  6
CONTINUOUS
 10
4.0729695565
 20
-22.3147226816
 11
6.3410443097
 21
-22.3147226816
  0
LINE
  5
253
100
AcDbEntity
  8
DRAFT
100
AcDbLine
 62
7
  6
CONTINUOUS
 10
-11.1493316898
 20
-20.9682439214
 11
-11.9493316898
 21
-20.1682439214
  0
LINE
  5
254
100
AcDbEntity
  8
ASSI
100
AcDbLine
 62
7
  6
CONTINUOUS
 10
-11.1493316898
 20
-20.9682439214
 11
-11.9493316898
 21
-20.1682439214
  0
LINE
  5
255
100
AcDbEntity
  8
DRAFT
100
AcDbLine
 62
7
  6
CONTINUOUS
 10
-11.0770304435
 20
-20.7936932721
 11
-11.8770304435
 21
-19.9936932721
  0
LINE
  5
256
100
AcDbEntity
  8
ASSI
100
AcDbLine
 62
7
  6
CONTINUOUS
 10
-11.0770304435
 20
-20.7936932721
 11
-11.8770304435
 21
-19.9936932721
  0
LINE
  5
257
100
AcDbEntity
  8
GUSCI_ESTERNI
100
AcDbLine
 62
7
  6
CONTINUOUS
 10
-10.7770304435
 20
19.1063067279
 11
-8.3025611634
 21
21.580776008
  0
LINE
  5
258
100
AcDbEntity
  8
RACCORDO
100
AcDbLine
 62
7
  6
CONTINUOUS
 10
-6.1865299807
 20
23.2968071907
 11
-6.1270304435
 21
23.3563067279
  0
LINE
  5
259
100
AcDbEntity
  8
ASSI
100
AcDbLine
 62
7
  6
CONTINUOUS
 10
-6.1865299807
 20
23.2968071907
 11
-6.1270304435
 21
23.3563067279
  0
LINE
  5
25A
100
AcDbEntity
  8
GUSCI_ESTERNI
100
AcDbLine
 62
7
  6
CONTINUOUS
 10
5.5229695565
 20
-21.4936932721
 11
8.4485002763
 21
-21.4681625523
  0
LINE
  5
25B
100
AcDbEntity
  8
ASSI
100
AcDbLine
 62
7
  6
CONTINUOUS
 10
5.5229695565
 20
-21.4936932721
 11
8.4485002763
 21
-21.4681625523
  0
LINE
  5
25C
100
AcDbEntity
  8
GUSCI_ESTERNI
100
AcDbLine
 62
253
  6
CONTINUOUS
 10
5.5229695565
 20
-20.4937313491
 11
9.4572655606
 21
-20.459397268
  0
LINE
  5
25D
100
AcDbEntity
  8
ASSI
100
AcDbLine
 62
253
  6
CONTINUOUS
 10
5.5229695565
 20
-20.4937313491
 11
9.4572655606
 21
-20.459397268
  0
LINE
  5
25E
100
AcDbEntity
  8
DRAFT
100
AcDbLine
 62
7
  6
CONTINUOUS
 10
-5.3770304435
 20
-21.6524201399
 11
5.5229695565
 21
-21.6524201399
  0
LINE
  5
25F
100
AcDbEntity
  8
RACCORDO
100
AcDbLine
 62
253
  6
CONTINUOUS
 10
5.5229695565
 20
-21.6523439846
 11
-5.3770304435
 21
-21.6523439846
  0
LINE
  5
260
100
AcDbEntity
  8
DRAFT
100
AcDbLine
 62
7
  6
CONTINUOUS
 10
11.2952708027
 20
-20.9682439214
 11
8.9484189072
 21
-20.9682439214
  0
LINE
  5
261
100
AcDbEntity
  8
ASSI
100
AcDbLine
 62
7
  6
CONTINUOUS
 10
11.2952708027
 20
-20.9682439214
 11
8.9484189072
 21
-20.9682439214
  0
LINE
  5
262
100
AcDbEntity
  8
DRAFT
100
AcDbLine
 62
7
  6
CONTINUOUS
 10
-8.7024797943
 20
-20.9682439214
 11
-11.1493316898
 21
-20.9682439214
  0
LINE
  5
263
100
AcDbEntity
  8
ASSI
100
AcDbLine
 62
7
  6
CONTINUOUS
 10
-8.7024797943
 20
-20.9682439214
 11
-11.1493316898
 21
-20.9682439214
  0
LINE
  5
264
100
AcDbEntity
  8
DRAFT
100
AcDbLine
 62
7
  6
CONTINUOUS
 10
-11.0770304435
 20
-20.7936932721
 11
-10.9270304435
 21
-20.7936932721
  0
LINE
  5
265
100
AcDbEntity
  8
DRAFT
100
AcDbLine
 62
7
  6
CONTINUOUS
 10
11.2229695565
 20
-20.7936932721
 11
11.0729695565
 21
-20.7936932721
  0
LINE
  5
266
100
AcDbEntity
  8
ASSI
100
AcDbLine
 62
7
  6
CONTINUOUS
 10
-11.0770304435
 20
-20.7936932721
 11
-10.9270304435
 21
-20.7936932721
  0
LINE
  5
267
100
AcDbEntity
  8
ASSI
100
AcDbLine
 62
7
  6
CONTINUOUS
 10
11.2229695565
 20
-20.7936932721
 11
11.0729695565
 21
-20.7936932721
  0
LINE
  5
268
100
AcDbEntity
  8
DRAFT
100
AcDbLine
 62
7
  6
CONTINUOUS
 10
10.9682391669
 20
-20.6889628826
 11
9.227699946
 21
-20.6889628826
  0
LINE
  5
269
100
AcDbEntity
  8
ASSI
100
AcDbLine
 62
7
  6
CONTINUOUS
 10
10.9682391669
 20
-20.6889628826
 11
9.227699946
 21
-20.6889628826
  0
LINE
  5
26A
100
AcDbEntity
  8
DRAFT
100
AcDbLine
 62
7
  6
CONTINUOUS
 10
-8.9817608331
 20
-20.6889628826
 11
-10.822300054
 21
-20.6889628826
  0
LINE
  5
26B
100
AcDbEntity
  8
ASSI
100
AcDbLine
 62
7
  6
CONTINUOUS
 10
-8.9817608331
 20
-20.6889628826
 11
-10.822300054
 21
-20.6889628826
  0
LINE
  5
26C
100
AcDbEntity
  8
RACCORDO
100
AcDbLine
 62
253
  6
CONTINUOUS
 10
5.5229695565
 20
-20.6523820616
 11
-5.3770304435
 21
-20.6523820616
  0
LINE
  5
26D
100
AcDbEntity
  8
DRAFT
100
AcDbLine
 62
7
  6
CONTINUOUS
 10
12.6475202057
 20
-20.1682439214
 11
12.0952708027
 21
-20.1682439214
  0
LINE
  5
26E
100
AcDbEntity
  8
ASSI
100
AcDbLine
 62
7
  6
CONTINUOUS
 10
12.6475202057
 20
-20.1682439214
 11
12.0952708027
 21
-20.1682439214
  0
LINE
  5
26F
100
AcDbEntity
  8
DRAFT
100
AcDbLine
 62
7
  6
CONTINUOUS
 10
-11.9493316898
 20
-20.1682439214
 11
-12.5015810928
 21
-20.1682439214
  0
LINE
  5
270
100
AcDbEntity
  8
ASSI
100
AcDbLine
 62
7
  6
CONTINUOUS
 10
-11.9493316898
 20
-20.1682439214
 11
-12.5015810928
 21
-20.1682439214
  0
LINE
  5
271
100
AcDbEntity
  8
GUSCI_ESTERNI
100
AcDbLine
 62
7
  6
CONTINUOUS
 10
-5.3770304435
 20
-21.3936932721
 11
-8.3025611634
 21
-21.3681625523
  0
LINE
  5
272
100
AcDbEntity
  8
GUSCI_ESTERNI
100
AcDbLine
 62
253
  6
CONTINUOUS
 10
-5.3770304435
 20
-20.3937313491
 11
-9.3113264477
 21
-20.359397268
  0
LINE
  5
273
100
AcDbEntity
  8
GUSCI_ESTERNI
100
AcDbLine
 62
7
  6
CONTINUOUS
 10
-8.3025611634
 20
-21.3681625523
 11
-10.7770304435
 21
-18.8936932721
  0
LINE
  5
274
100
AcDbEntity
  8
RACCORDO
100
AcDbLine
 62
7
  6
CONTINUOUS
 10
-6.1865299807
 20
-23.0841937349
 11
-6.1270304435
 21
-23.1436932721
  0
LINE
  5
275
100
AcDbEntity
  8
ASSI
100
AcDbLine
 62
7
  6
CONTINUOUS
 10
-6.1865299807
 20
-23.0841937349
 11
-6.1270304435
 21
-23.1436932721
  0
LINE
  5
276
100
AcDbEntity
  8
GUSCI_ESTERNI
100
AcDbLine
 62
7
  6
CONTINUOUS
 10
10.9229695565
 20
-19.3748436397
 11
10.5404840573
 21
-19.3761787714
  0
LINE
  5
277
100
AcDbEntity
  8
ASSI
100
AcDbLine
 62
7
  6
CONTINUOUS
 10
10.9229695565
 20
-19.3748436397
 11
10.5404840573
 21
-19.3761787714
  0
LINE
  5
278
100
AcDbEntity
  8
DRAFT
100
AcDbLine
 62
7
  6
CONTINUOUS
 10
-12.3270304435
 20
-19.9936932721
 11
-11.8770304435
 21
-19.9936932721
  0
LINE
  5
279
100
AcDbEntity
  8
ASSI
100
AcDbLine
 62
7
  6
CONTINUOUS
 10
-12.3270304435
 20
-19.9936932721
 11
-11.8770304435
 21
-19.9936932721
  0
LINE
  5
27A
100
AcDbEntity
  8
DRAFT
100
AcDbLine
 62
7
  6
CONTINUOUS
 10
12.4729695565
 20
-19.9936932721
 11
12.0229695565
 21
-19.9936932721
  0
LINE
  5
27B
100
AcDbEntity
  8
ASSI
100
AcDbLine
 62
7
  6
CONTINUOUS
 10
12.4729695565
 20
-19.9936932721
 11
12.0229695565
 21
-19.9936932721
  0
LINE
  5
27C
100
AcDbEntity
  8
GUSCI_ESTERNI
100
AcDbLine
 62
7
  6
CONTINUOUS
 10
8.4229695565
 20
-18.5636932721
 11
5.5229695565
 21
-18.5636932721
  0
LINE
  5
27D
100
AcDbEntity
  8
ASSI
100
AcDbLine
 62
7
  6
CONTINUOUS
 10
8.4229695565
 20
-18.5636932721
 11
5.5229695565
 21
-18.5636932721
  0
LINE
  5
27E
100
AcDbEntity
  8
DRAFT
100
AcDbLine
 62
7
  6
CONTINUOUS
 10
-10.9270304435
 20
-18.5436932721
 11
-10.7770304435
 21
-18.5436932721
  0
LINE
  5
27F
100
AcDbEntity
  8
ASSI
100
AcDbLine
 62
7
  6
CONTINUOUS
 10
-10.9270304435
 20
-18.5436932721
 11
-10.7770304435
 21
-18.5436932721
  0
LINE
  5
280
100
AcDbEntity
  8
DRAFT
100
AcDbLine
 62
7
  6
CONTINUOUS
 10
-5.3770304435
 20
-18.5436932721
 11
5.5229695565
 21
-18.5436932721
  0
LINE
  5
281
100
AcDbEntity
  8
GUSCI_ESTERNI
100
AcDbLine
 62
7
  6
CONTINUOUS
 10
-5.3770304435
 20
-18.5436932721
 11
-8.2770304435
 21
-18.5436932721
  0
LINE
  5
282
100
AcDbEntity
  8
DRAFT
100
AcDbLine
 62
7
  6
CONTINUOUS
 10
10.9229695565
 20
-18.5436932721
 11
11.0729695565
 21
-18.5436932721
  0
LINE
  5
283
100
AcDbEntity
  8
ASSI
100
AcDbLine
 62
7
  6
CONTINUOUS
 10
10.9229695565
 20
-18.5436932721
 11
11.0729695565
 21
-18.5436932721
  0
LINE
  5
284
100
AcDbEntity
  8
DRAFT
100
AcDbLine
 62
7
  6
CONTINUOUS
 10
5.5229695565
 20
-18.5262395366
 11
-5.3770304435
 21
-18.5262395366
  0
LINE
  5
285
100
AcDbEntity
  8
GUSCI_ESTERNI
100
AcDbLine
 62
7
  6
CONTINUOUS
 10
5.5229695565
 20
-17.0436932721
 11
8.6729695565
 21
-17.0368208638
  0
LINE
  5
286
100
AcDbEntity
  8
ASSI
100
AcDbLine
 62
7
  6
CONTINUOUS
 10
5.5229695565
 20
-17.0436932721
 11
8.6729695565
 21
-17.0368208638
  0
LINE
  5
287
100
AcDbEntity
  8
GUSCI_ESTERNI
100
AcDbLine
 62
7
  6
CONTINUOUS
 10
5.5229695565
 20
-17.5686932721
 11
8.7229695565
 21
-17.5686932721
  0
LINE
  5
288
100
AcDbEntity
  8
ASSI
100
AcDbLine
 62
7
  6
CONTINUOUS
 10
5.5229695565
 20
-17.5686932721
 11
8.7229695565
 21
-17.5686932721
  0
LINE
  5
289
100
AcDbEntity
  8
RACCORDO
100
AcDbLine
 62
7
  6
CONTINUOUS
 10
-5.3770304435
 20
-17.5611470077
 11
-2.1595195926
 21
-17.5611470077
  0
LINE
  5
28A
100
AcDbEntity
  8
RACCORDO
100
AcDbLine
 62
7
  6
CONTINUOUS
 10
5.5229695565
 20
-17.5611470077
 11
2.3054587055
 21
-17.5611470077
  0
LINE
  5
28B
100
AcDbEntity
  8
GUSCI_ESTERNI
100
AcDbLine
 62
7
  6
CONTINUOUS
 10
-8.5770304435
 20
-17.5436932721
 11
-5.3770304435
 21
-17.5436932721
  0
LINE
  5
28C
100
AcDbEntity
  8
RACCORDO
100
AcDbLine
 62
7
  6
CONTINUOUS
 10
-5.3770304435
 20
-17.5436932721
 11
-2.1769733281
 21
-17.5436932721
  0
LINE
  5
28D
100
AcDbEntity
  8
RACCORDO
100
AcDbLine
 62
7
  6
CONTINUOUS
 10
5.5229695565
 20
-17.5436932721
 11
2.3229124411
 21
-17.5436932721
  0
LINE
  5
28E
100
AcDbEntity
  8
RACCORDO
100
AcDbLine
 62
7
  6
CONTINUOUS
 10
5.5229695565
 20
-17.0436932721
 11
2.3229695565
 21
-17.0436932721
  0
LINE
  5
28F
100
AcDbEntity
  8
RACCORDO
100
AcDbLine
 62
7
  6
CONTINUOUS
 10
-2.1770304435
 20
-17.0436932721
 11
-5.3770304435
 21
-17.0436932721
  0
LINE
  5
290
100
AcDbEntity
  8
GUSCI_ESTERNI
100
AcDbLine
 62
7
  6
CONTINUOUS
 10
-8.5770304435
 20
-16.7936932721
 11
-5.3770304435
 21
-16.7936932721
  0
LINE
  5
291
100
AcDbEntity
  8
RACCORDO
100
AcDbLine
 62
7
  6
CONTINUOUS
 10
5.5229695565
 20
-16.7936932721
 11
2.3229695565
 21
-16.7936932721
  0
LINE
  5
292
100
AcDbEntity
  8
RACCORDO
100
AcDbLine
 62
7
  6
CONTINUOUS
 10
-2.1770304435
 20
-16.7936932721
 11
-5.3770304435
 21
-16.7936932721
  0
LINE
  5
293
100
AcDbEntity
  8
GUSCI_ESTERNI
100
AcDbLine
 62
7
  6
CONTINUOUS
 10
5.5229695565
 20
-16.7936932721
 11
8.6729695565
 21
-16.7936932721
  0
LINE
  5
294
100
AcDbEntity
  8
ASSI
100
AcDbLine
 62
7
  6
CONTINUOUS
 10
5.5229695565
 20
-16.7936932721
 11
8.6729695565
 21
-16.7936932721
  0
LINE
  5
295
100
AcDbEntity
  8
GUSCI_ESTERNI
100
AcDbLine
 62
7
  6
CONTINUOUS
 10
-5.3770304435
 20
-17.2936932721
 11
-8.5770304435
 21
-17.2797302837
  0
LINE
  5
296
100
AcDbEntity
  8
RACCORDO
100
AcDbLine
 62
7
  6
CONTINUOUS
 10
0.0771806797
 20
21.8605178511
 11
0.0816202689
 21
21.8649574403
  0
LINE
  5
297
100
AcDbEntity
  8
GUSCI_ESTERNI
100
AcDbLine
 62
253
  6
CONTINUOUS
 10
-9.5587836399
 20
-16.2936932721
 11
-9.4430558473
 21
-16.2936932721
  0
LINE
  5
298
100
AcDbEntity
  8
GUSCI_ESTERNI
100
AcDbLine
 62
253
  6
CONTINUOUS
 10
9.6639351417
 20
-16.0436932721
 11
9.641215393
 21
-16.0436932721
  0
LINE
  5
299
100
AcDbEntity
  8
ASSI
100
AcDbLine
 62
253
  6
CONTINUOUS
 10
9.6639351417
 20
-16.0436932721
 11
9.641215393
 21
-16.0436932721
  0
LINE
  5
29A
100
AcDbEntity
  8
0
100
AcDbLine
 62
7
  6
CONTINUOUS
 10
-5.3399426677
 20
13.7063067279
 11
-5.5399350523
 21
13.5063067279
  0
LINE
  5
29B
100
AcDbEntity
  8
GUSCI_ESTERNI
100
AcDbLine
 62
7
  6
CONTINUOUS
 10
-5.3770304435
 20
-12.7936932721
 11
-8.5770304435
 21
-12.8076562606
  0
LINE
  5
29C
100
AcDbEntity
  8
DRAFT
100
AcDbLine
 62
7
  6
CONTINUOUS
 10
11.0729695565
 20
-14.4436932721
 11
10.9229695565
 21
-14.4436932721
  0
LINE
  5
29D
100
AcDbEntity
  8
ASSI
100
AcDbLine
 62
7
  6
CONTINUOUS
 10
11.0729695565
 20
-14.4436932721
 11
10.9229695565
 21
-14.4436932721
  0
LINE
  5
29E
100
AcDbEntity
  8
DRAFT
100
AcDbLine
 62
7
  6
CONTINUOUS
 10
-10.7770304435
 20
-14.4436932721
 11
-10.9270304435
 21
-14.4436932721
  0
LINE
  5
29F
100
AcDbEntity
  8
ASSI
100
AcDbLine
 62
7
  6
CONTINUOUS
 10
-10.7770304435
 20
-14.4436932721
 11
-10.9270304435
 21
-14.4436932721
  0
LINE
  5
2A0
100
AcDbEntity
  8
GUSCI_ESTERNI
100
AcDbLine
 62
253
  6
CONTINUOUS
 10
9.6639351417
 20
-14.0436932721
 11
9.641215393
 21
-14.0436932721
  0
LINE
  5
2A1
100
AcDbEntity
  8
ASSI
100
AcDbLine
 62
253
  6
CONTINUOUS
 10
9.6639351417
 20
-14.0436932721
 11
9.641215393
 21
-14.0436932721
  0
LINE
  5
2A2
100
AcDbEntity
  8
GUSCI_ESTERNI
100
AcDbLine
 62
253
  6
CONTINUOUS
 10
-9.5587836399
 20
-13.7936932721
 11
-9.4430558473
 21
-13.7936932721
  0
LINE
  5
2A3
100
AcDbEntity
  8
0
100
AcDbLine
 62
7
  6
CONTINUOUS
 10
-9.2903625813
 20
-13.5936932721
 11
-8.1270304435
 21
-13.5936932721
  0
LINE
  5
2A4
100
AcDbEntity
  8
0
100
AcDbLine
 62
7
  6
CONTINUOUS
 10
-2.6270304435
 20
-13.5936932721
 11
-1.4630240118
 21
-13.5936932721
  0
LINE
  5
2A5
100
AcDbEntity
  8
0
100
AcDbLine
 62
7
  6
CONTINUOUS
 10
1.6089631247
 20
-13.5936932721
 11
2.7729695565
 21
-13.5936932721
  0
LINE
  5
2A6
100
AcDbEntity
  8
0
100
AcDbLine
 62
7
  6
CONTINUOUS
 10
8.2729695565
 20
-13.5936932721
 11
9.3868613548
 21
-13.5936932721
  0
LINE
  5
2A7
100
AcDbEntity
  8
RACCORDO
100
AcDbLine
 62
7
  6
CONTINUOUS
 10
-5.3770304435
 20
-13.2936932721
 11
-2.1770304435
 21
-13.2936932721
  0
LINE
  5
2A8
100
AcDbEntity
  8
GUSCI_ESTERNI
100
AcDbLine
 62
7
  6
CONTINUOUS
 10
8.6729695565
 20
-13.2936932721
 11
5.5229695565
 21
-13.2936932721
  0
LINE
  5
2A9
100
AcDbEntity
  8
ASSI
100
AcDbLine
 62
7
  6
CONTINUOUS
 10
8.6729695565
 20
-13.2936932721
 11
5.5229695565
 21
-13.2936932721
  0
LINE
  5
2AA
100
AcDbEntity
  8
RACCORDO
100
AcDbLine
 62
7
  6
CONTINUOUS
 10
2.3229695565
 20
-13.2936932721
 11
5.5229695565
 21
-13.2936932721
  0
LINE
  5
2AB
100
AcDbEntity
  8
GUSCI_ESTERNI
100
AcDbLine
 62
7
  6
CONTINUOUS
 10
-5.3770304435
 20
-13.2936932721
 11
-8.5770304435
 21
-13.2936932721
  0
LINE
  5
2AC
100
AcDbEntity
  8
RACCORDO
100
AcDbLine
 62
7
  6
CONTINUOUS
 10
-5.3770304435
 20
-13.0436932721
 11
-2.1770304435
 21
-13.0436932721
  0
LINE
  5
2AD
100
AcDbEntity
  8
RACCORDO
100
AcDbLine
 62
7
  6
CONTINUOUS
 10
2.3229695565
 20
-13.0436932721
 11
5.5229695565
 21
-13.0436932721
  0
LINE
  5
2AE
100
AcDbEntity
  8
GUSCI_ESTERNI
100
AcDbLine
 62
7
  6
CONTINUOUS
 10
5.5229695565
 20
-13.0436932721
 11
8.6729695565
 21
-13.0505656805
  0
LINE
  5
2AF
100
AcDbEntity
  8
ASSI
100
AcDbLine
 62
7
  6
CONTINUOUS
 10
5.5229695565
 20
-13.0436932721
 11
8.6729695565
 21
-13.0505656805
  0
LINE
  5
2B0
100
AcDbEntity
  8
RACCORDO
100
AcDbLine
 62
253
  6
CONTINUOUS
 10
-2.1769733281
 20
-17.5436932721
 11
-2.1595195926
 21
-17.5611470077
  0
LINE
  5
2B1
100
AcDbEntity
  8
0
100
AcDbLine
 62
7
  6
CONTINUOUS
 10
-5.6770304435
 20
-13.2936932721
 11
-5.3770304435
 21
-13.5936932721
  0
LINE
  5
2B2
100
AcDbEntity
  8
RACCORDO
100
AcDbLine
 62
7
  6
CONTINUOUS
 10
-12.5015810928
 20
24.0308954533
 11
-12.5015810928
 21
20.3808573771
  0
LINE
  5
2B3
100
AcDbEntity
  8
ASSI
100
AcDbLine
 62
7
  6
CONTINUOUS
 10
-12.5015810928
 20
24.0308954533
 11
-12.5015810928
 21
20.3808573771
  0
LINE
  5
2B4
100
AcDbEntity
  8
RACCORDO
100
AcDbLine
 62
7
  6
CONTINUOUS
 10
-12.5015810928
 20
-20.1682439214
 11
-12.5015810928
 21
-23.8182819976
  0
LINE
  5
2B5
100
AcDbEntity
  8
ASSI
100
AcDbLine
 62
7
  6
CONTINUOUS
 10
-12.5015810928
 20
-20.1682439214
 11
-12.5015810928
 21
-23.8182819976
  0
LINE
  5
2B6
100
AcDbEntity
  8
DRAFT
100
AcDbLine
 62
7
  6
CONTINUOUS
 10
-12.3270304435
 20
20.2063067279
 11
-12.3270304435
 21
-19.9936932721
  0
LINE
  5
2B7
100
AcDbEntity
  8
ASSI
100
AcDbLine
 62
7
  6
CONTINUOUS
 10
-12.3270304435
 20
20.2063067279
 11
-12.3270304435
 21
-19.9936932721
  0
LINE
  5
2B8
100
AcDbEntity
  8
DRAFT
100
AcDbLine
 62
7
  6
CONTINUOUS
 10
-10.9270304435
 20
21.0063067279
 11
-10.9270304435
 21
18.7563067279
  0
LINE
  5
2B9
100
AcDbEntity
  8
ASSI
100
AcDbLine
 62
7
  6
CONTINUOUS
 10
-10.9270304435
 20
21.0063067279
 11
-10.9270304435
 21
18.7563067279
  0
LINE
  5
2BA
100
AcDbEntity
  8
DRAFT
100
AcDbLine
 62
7
  6
CONTINUOUS
 10
-10.9270304435
 20
14.6563067279
 11
-10.9270304435
 21
-14.4436932721
  0
LINE
  5
2BB
100
AcDbEntity
  8
ASSI
100
AcDbLine
 62
7
  6
CONTINUOUS
 10
-10.9270304435
 20
14.6563067279
 11
-10.9270304435
 21
-14.4436932721
  0
LINE
  5
2BC
100
AcDbEntity
  8
DRAFT
100
AcDbLine
 62
7
  6
CONTINUOUS
 10
-10.9270304435
 20
-18.5436932721
 11
-10.9270304435
 21
-20.7936932721
  0
LINE
  5
2BD
100
AcDbEntity
  8
ASSI
100
AcDbLine
 62
7
  6
CONTINUOUS
 10
-10.9270304435
 20
-18.5436932721
 11
-10.9270304435
 21
-20.7936932721
  0
LINE
  5
2BE
100
AcDbEntity
  8
0
100
AcDbLine
 62
7
  6
CONTINUOUS
 10
-2.6271351551
 20
13.7063067279
 11
-2.6503222258
 21
13.6830421003
  0
LINE
  5
2BF
100
AcDbEntity
  8
RACCORDO
100
AcDbLine
 62
7
  6
CONTINUOUS
 10
-5.3770304435
 20
-12.5436932721
 11
-2.1769733281
 21
-12.5436932721
  0
LINE
  5
2C0
100
AcDbEntity
  8
RACCORDO
100
AcDbLine
 62
7
  6
CONTINUOUS
 10
5.5229695565
 20
-12.5436932721
 11
2.3229124411
 21
-12.5436932721
  0
LINE
  5
2C1
100
AcDbEntity
  8
GUSCI_ESTERNI
100
AcDbLine
 62
7
  6
CONTINUOUS
 10
-5.3770304435
 20
-12.5436932721
 11
-8.5770304435
 21
-12.5436932721
  0
LINE
  5
2C2
100
AcDbEntity
  8
RACCORDO
100
AcDbLine
 62
7
  6
CONTINUOUS
 10
-5.3770304435
 20
-12.5262395366
 11
-2.1595195926
 21
-12.5262395366
  0
LINE
  5
2C3
100
AcDbEntity
  8
RACCORDO
100
AcDbLine
 62
7
  6
CONTINUOUS
 10
5.5229695565
 20
-12.5262395366
 11
2.3054587055
 21
-12.5262395366
  0
LINE
  5
2C4
100
AcDbEntity
  8
GUSCI_ESTERNI
100
AcDbLine
 62
7
  6
CONTINUOUS
 10
8.7229695565
 20
-12.5186932721
 11
5.5229695565
 21
-12.5186932721
  0
LINE
  5
2C5
100
AcDbEntity
  8
ASSI
100
AcDbLine
 62
7
  6
CONTINUOUS
 10
8.7229695565
 20
-12.5186932721
 11
5.5229695565
 21
-12.5186932721
  0
LINE
  5
2C6
100
AcDbEntity
  8
DRAFT
100
AcDbLine
 62
7
  6
CONTINUOUS
 10
5.5229695565
 20
-11.5611470077
 11
-5.3770304435
 21
-11.5611470077
  0
LINE
  5
2C7
100
AcDbEntity
  8
DRAFT
100
AcDbLine
 62
7
  6
CONTINUOUS
 10
-1.1139401419
 20
-11.5567835738
 11
0.0598792548
 21
-11.5567835738
  0
LINE
  5
2C8
100
AcDbEntity
  8
GUSCI_ESTERNI
100
AcDbLine
 62
7
  6
CONTINUOUS
 10
-8.2770304435
 20
-11.5436932721
 11
-5.3770304435
 21
-11.5436932721
  0
LINE
  5
2C9
100
AcDbEntity
  8
DRAFT
100
AcDbLine
 62
7
  6
CONTINUOUS
 10
-5.3770304435
 20
-11.5436932721
 11
-1.1270304435
 21
-11.5436932721
  0
LINE
  5
2CA
100
AcDbEntity
  8
DRAFT
100
AcDbLine
 62
7
  6
CONTINUOUS
 10
0.0729695565
 20
-11.5436932721
 11
5.5229695565
 21
-11.5436932721
  0
LINE
  5
2CB
100
AcDbEntity
  8
GUSCI_ESTERNI
100
AcDbLine
 62
7
  6
CONTINUOUS
 10
5.5229695565
 20
-11.5236932721
 11
8.4229695565
 21
-11.5236932721
  0
LINE
  5
2CC
100
AcDbEntity
  8
ASSI
100
AcDbLine
 62
7
  6
CONTINUOUS
 10
5.5229695565
 20
-11.5236932721
 11
8.4229695565
 21
-11.5236932721
  0
LINE
  5
2CD
100
AcDbEntity
  8
DRAFT
100
AcDbLine
 62
7
  6
CONTINUOUS
 10
-5.3770304435
 20
-11.3936932721
 11
-1.3770304435
 21
-11.3936932721
  0
LINE
  5
2CE
100
AcDbEntity
  8
DRAFT
100
AcDbLine
 62
7
  6
CONTINUOUS
 10
-5.3770304435
 20
-11.3884567527
 11
-1.382266963
 21
-11.3884567527
  0
LINE
  5
2CF
100
AcDbEntity
  8
RACCORDO
100
AcDbLine
 62
253
  6
CONTINUOUS
 10
-0.6770304435
 20
-16.0437503876
 11
-0.659576708
 21
-16.0612041231
  0
LINE
  5
2D0
100
AcDbEntity
  8
DRAFT
100
AcDbLine
 62
7
  6
CONTINUOUS
 10
-10.822300054
 20
-20.6889628826
 11
-10.822300054
 21
-18.5436932721
  0
LINE
  5
2D1
100
AcDbEntity
  8
ASSI
100
AcDbLine
 62
7
  6
CONTINUOUS
 10
-10.822300054
 20
-20.6889628826
 11
-10.822300054
 21
-18.5436932721
  0
LINE
  5
2D2
100
AcDbEntity
  8
DRAFT
100
AcDbLine
 62
7
  6
CONTINUOUS
 10
-10.822300054
 20
18.7563067279
 11
-10.822300054
 21
20.9015763383
  0
LINE
  5
2D3
100
AcDbEntity
  8
ASSI
100
AcDbLine
 62
7
  6
CONTINUOUS
 10
-10.822300054
 20
18.7563067279
 11
-10.822300054
 21
20.9015763383
  0
LINE
  5
2D4
100
AcDbEntity
  8
GUSCI_ESTERNI
100
AcDbLine
 62
7
  6
CONTINUOUS
 10
-10.7770304435
 20
-18.8936932721
 11
-10.7770304435
 21
19.1063067279
  0
LINE
  5
2D5
100
AcDbEntity
  8
RACCORDO
100
AcDbLine
 62
7
  6
CONTINUOUS
 10
-10.1524797943
 20
-23.8182819976
 11
-10.1524797943
 21
-22.3936932721
  0
LINE
  5
2D6
100
AcDbEntity
  8
ASSI
100
AcDbLine
 62
7
  6
CONTINUOUS
 10
-10.1524797943
 20
-23.8182819976
 11
-10.1524797943
 21
-22.3936932721
  0
LINE
  5
2D7
100
AcDbEntity
  8
RACCORDO
100
AcDbLine
 62
7
  6
CONTINUOUS
 10
-10.1524797943
 20
22.7808573771
 11
-10.1524797943
 21
24.0308954533
  0
LINE
  5
2D8
100
AcDbEntity
  8
ASSI
100
AcDbLine
 62
7
  6
CONTINUOUS
 10
-10.1524797943
 20
22.7808573771
 11
-10.1524797943
 21
24.0308954533
  0
LINE
  5
2D9
100
AcDbEntity
  8
GUSCI_ESTERNI
100
AcDbLine
 62
7
  6
CONTINUOUS
 10
-10.0770304435
 20
-14.0436932721
 11
-10.0770304435
 21
-16.0436932721
  0
LINE
  5
2DA
100
AcDbEntity
  8
GUSCI_ESTERNI
100
AcDbLine
 62
7
  6
CONTINUOUS
 10
-9.5770304435
 20
16.0063067279
 11
-9.5770304435
 21
14.5063067279
  0
LINE
  5
2DB
100
AcDbEntity
  8
GUSCI_ESTERNI
100
AcDbLine
 62
7
  6
CONTINUOUS
 10
-9.5770304435
 20
-14.2936932721
 11
-9.5770304435
 21
-15.7936932721
  0
LINE
  5
2DC
100
AcDbEntity
  8
GUSCI_ESTERNI
100
AcDbLine
 62
7
  6
CONTINUOUS
 10
-9.5587836399
 20
-13.7936932721
 11
-9.5587836399
 21
-14.1035337038
  0
LINE
  5
2DD
100
AcDbEntity
  8
GUSCI_ESTERNI
100
AcDbLine
 62
7
  6
CONTINUOUS
 10
-9.5587836399
 20
-15.9838528405
 11
-9.5587836399
 21
-16.2936932721
  0
LINE
  5
2DE
100
AcDbEntity
  8
GUSCI_ESTERNI
100
AcDbLine
 62
7
  6
CONTINUOUS
 10
-9.5587836399
 20
14.0063067279
 11
-9.5587836399
 21
14.3161471595
  0
LINE
  5
2DF
100
AcDbEntity
  8
GUSCI_ESTERNI
100
AcDbLine
 62
7
  6
CONTINUOUS
 10
-9.5587836399
 20
16.1964662962
 11
-9.5587836399
 21
16.5063067279
  0
LINE
  5
2E0
100
AcDbEntity
  8
RACCORDO
100
AcDbLine
 62
7
  6
CONTINUOUS
 10
8.0729695565
 20
23.3563067279
 11
8.0134700193
 21
23.2968071907
  0
LINE
  5
2E1
100
AcDbEntity
  8
ASSI
100
AcDbLine
 62
7
  6
CONTINUOUS
 10
8.0729695565
 20
23.3563067279
 11
8.0134700193
 21
23.2968071907
  0
LINE
  5
2E2
100
AcDbEntity
  8
DRAFT
100
AcDbLine
 62
7
  6
CONTINUOUS
 10
-1.3770304435
 20
11.6063067279
 11
-1.382266963
 21
11.6010702084
  0
LINE
  5
2E3
100
AcDbEntity
  8
RACCORDO
100
AcDbLine
 62
253
  6
CONTINUOUS
 10
0.0598792548
 20
-9.8980947844
 11
-1.1139401419
 21
-9.8980947844
  0
LINE
  5
2E4
100
AcDbEntity
  8
0
100
AcDbLine
 62
7
  6
CONTINUOUS
 10
-5.0770304435
 20
-9.6436932721
 11
-4.5770304435
 21
-9.6436932721
  0
LINE
  5
2E5
100
AcDbEntity
  8
0
100
AcDbLine
 62
7
  6
CONTINUOUS
 10
-2.4936971897
 20
-9.6436932721
 11
-1.7436971897
 21
-9.6436932721
  0
LINE
  5
2E6
100
AcDbEntity
  8
RACCORDO
100
AcDbLine
 62
7
  6
CONTINUOUS
 10
8.0729695565
 20
-23.1436932721
 11
8.0134700193
 21
-23.0841937349
  0
LINE
  5
2E7
100
AcDbEntity
  8
ASSI
100
AcDbLine
 62
7
  6
CONTINUOUS
 10
8.0729695565
 20
-23.1436932721
 11
8.0134700193
 21
-23.0841937349
  0
LINE
  5
2E8
100
AcDbEntity
  8
RACCORDO
100
AcDbLine
 62
253
  6
CONTINUOUS
 10
0.8229695565
 20
-14.0436361567
 11
0.8055158209
 21
-14.0261824212
  0
LINE
  5
2E9
100
AcDbEntity
  8
DRAFT
100
AcDbLine
 62
7
  6
CONTINUOUS
 10
-1.3770304435
 20
-11.3936932721
 11
-1.382266963
 21
-11.3884567527
  0
LINE
  5
2EA
100
AcDbEntity
  8
DRAFT
100
AcDbLine
 62
7
  6
CONTINUOUS
 10
-1.1270304435
 20
-11.5436932721
 11
-1.1139401419
 21
-11.5567835738
  0
LINE
  5
2EB
100
AcDbEntity
  8
DRAFT
100
AcDbLine
 62
7
  6
CONTINUOUS
 10
-6.1270304435
 20
-23.1436932721
 11
-6.1951051968
 21
-22.3147226816
  0
LINE
  5
2EC
100
AcDbEntity
  8
ASSI
100
AcDbLine
 62
7
  6
CONTINUOUS
 10
-6.1270304435
 20
-23.1436932721
 11
-6.1951051968
 21
-22.3147226816
  0
LINE
  5
2ED
100
AcDbEntity
  8
GUSCI_ESTERNI
100
AcDbLine
 62
253
  6
CONTINUOUS
 10
-8.5770304435
 20
17.4923437394
 11
-8.5770304435
 21
17.0063067279
  0
LINE
  5
2EE
100
AcDbEntity
  8
GUSCI_ESTERNI
100
AcDbLine
 62
253
  6
CONTINUOUS
 10
-8.5770304435
 20
-12.8076562606
 11
-8.5770304435
 21
-13.2936932721
  0
LINE
  5
2EF
100
AcDbEntity
  8
GUSCI_ESTERNI
100
AcDbLine
 62
253
  6
CONTINUOUS
 10
-8.5770304435
 20
-17.2797302837
 11
-8.5770304435
 21
-16.7936932721
  0
LINE
  5
2F0
100
AcDbEntity
  8
GUSCI_ESTERNI
100
AcDbLine
 62
253
  6
CONTINUOUS
 10
-8.5770304435
 20
13.0202697163
 11
-8.5770304435
 21
13.5063067279
  0
LINE
  5
2F1
100
AcDbEntity
  8
DRAFT
100
AcDbLine
 62
7
  6
CONTINUOUS
 10
-7.9270304435
 20
-23.1436932721
 11
-7.9270304435
 21
-22.3936932721
  0
LINE
  5
2F2
100
AcDbEntity
  8
ASSI
100
AcDbLine
 62
7
  6
CONTINUOUS
 10
-7.9270304435
 20
-23.1436932721
 11
-7.9270304435
 21
-22.3936932721
  0
LINE
  5
2F3
100
AcDbEntity
  8
DRAFT
100
AcDbLine
 62
7
  6
CONTINUOUS
 10
-7.9270304435
 20
22.7808573771
 11
-7.9270304435
 21
23.3563067279
  0
LINE
  5
2F4
100
AcDbEntity
  8
ASSI
100
AcDbLine
 62
7
  6
CONTINUOUS
 10
-7.9270304435
 20
22.7808573771
 11
-7.9270304435
 21
23.3563067279
  0
LINE
  5
2F5
100
AcDbEntity
  8
RACCORDO
100
AcDbLine
 62
7
  6
CONTINUOUS
 10
-7.8589556903
 20
-22.5842698874
 11
-7.8589556903
 21
-22.3936932721
  0
LINE
  5
2F6
100
AcDbEntity
  8
ASSI
100
AcDbLine
 62
7
  6
CONTINUOUS
 10
-7.8589556903
 20
-22.5842698874
 11
-7.8589556903
 21
-22.3936932721
  0
LINE
  5
2F7
100
AcDbEntity
  8
RACCORDO
100
AcDbLine
 62
7
  6
CONTINUOUS
 10
-7.8589556903
 20
22.7808573771
 11
-7.8589556903
 21
22.7968833431
  0
LINE
  5
2F8
100
AcDbEntity
  8
ASSI
100
AcDbLine
 62
7
  6
CONTINUOUS
 10
-7.8589556903
 20
22.7808573771
 11
-7.8589556903
 21
22.7968833431
  0
LINE
  5
2F9
100
AcDbEntity
  8
DRAFT
100
AcDbLine
 62
7
  6
CONTINUOUS
 10
-6.1951051968
 20
22.5273361373
 11
-6.1270304435
 21
23.3563067279
  0
LINE
  5
2FA
100
AcDbEntity
  8
ASSI
100
AcDbLine
 62
7
  6
CONTINUOUS
 10
-6.1951051968
 20
22.5273361373
 11
-6.1270304435
 21
23.3563067279
  0
LINE
  5
2FB
100
AcDbEntity
  8
RACCORDO
100
AcDbLine
 62
253
  6
CONTINUOUS
 10
0.0685299672
 20
-8.8981328614
 11
-1.1225908543
 21
-8.8981328614
  0
LINE
  5
2FC
100
AcDbEntity
  8
DRAFT
100
AcDbLine
 62
7
  6
CONTINUOUS
 10
0.0729695565
 20
-8.8936932721
 11
-1.1270304435
 21
-8.8936932721
  0
LINE
  5
2FD
100
AcDbEntity
  8
RACCORDO
100
AcDbLine
 62
253
  6
CONTINUOUS
 10
2.3229124411
 20
-12.5436932721
 11
2.3054587055
 21
-12.5262395366
  0
LINE
  5
2FE
100
AcDbEntity
  8
RACCORDO
100
AcDbLine
 62
7
  6
CONTINUOUS
 10
-1.1270304435
 20
-8.8936932721
 11
-1.1225908543
 21
-8.8981328614
  0
LINE
  5
2FF
100
AcDbEntity
  8
0
100
AcDbLine
 62
7
  6
CONTINUOUS
 10
-4.5770304435
 20
-6.1543315091
 11
-2.4936971897
 21
-9.6436932721
  0
LINE
  5
300
100
AcDbEntity
  8
0
100
AcDbLine
 62
7
  6
CONTINUOUS
 10
-6.8770304435
 20
17.0063067279
 11
-6.8770304435
 21
13.5063067279
  0
LINE
  5
301
100
AcDbEntity
  8
0
100
AcDbLine
 62
7
  6
CONTINUOUS
 10
-6.8770304435
 20
-16.7936932721
 11
-6.8770304435
 21
-13.2936932721
  0
LINE
  5
302
100
AcDbEntity
  8
0
100
AcDbLine
 62
7
  6
CONTINUOUS
 10
-6.5705304435
 20
-13.2936932721
 11
-6.5705304435
 21
-16.7936932721
  0
LINE
  5
303
100
AcDbEntity
  8
0
100
AcDbLine
 62
7
  6
CONTINUOUS
 10
-6.5705304435
 20
13.5063067279
 11
-6.5705304435
 21
17.0063067279
  0
LINE
  5
304
100
AcDbEntity
  8
RACCORDO
100
AcDbLine
 62
7
  6
CONTINUOUS
 10
-6.1951051968
 20
-22.5842698874
 11
-6.1951051968
 21
-22.3147226816
  0
LINE
  5
305
100
AcDbEntity
  8
ASSI
100
AcDbLine
 62
7
  6
CONTINUOUS
 10
-6.1951051968
 20
-22.5842698874
 11
-6.1951051968
 21
-22.3147226816
  0
LINE
  5
306
100
AcDbEntity
  8
RACCORDO
100
AcDbLine
 62
7
  6
CONTINUOUS
 10
-6.1951051968
 20
22.5273361373
 11
-6.1951051968
 21
22.7968833431
  0
LINE
  5
307
100
AcDbEntity
  8
ASSI
100
AcDbLine
 62
7
  6
CONTINUOUS
 10
-6.1951051968
 20
22.5273361373
 11
-6.1951051968
 21
22.7968833431
  0
LINE
  5
308
100
AcDbEntity
  8
0
100
AcDbLine
 62
7
  6
CONTINUOUS
 10
-5.9270304435
 20
25.0225301582
 11
-5.9270304435
 21
23.3563067279
  0
LINE
  5
309
100
AcDbEntity
  8
0
100
AcDbLine
 62
7
  6
CONTINUOUS
 10
-5.9270304435
 20
-24.8099167025
 11
-5.9270304435
 21
-23.1436932721
  0
LINE
  5
30A
100
AcDbEntity
  8
GUSCI_ESTERNI
100
AcDbLine
 62
7
  6
CONTINUOUS
 10
-5.3770304435
 20
20.811878548
 11
-5.3770304435
 21
17.5063067279
  0
LINE
  5
30B
100
AcDbEntity
  8
GUSCI_ESTERNI
100
AcDbLine
 62
7
  6
CONTINUOUS
 10
-5.3770304435
 20
13.0063067279
 11
-5.3770304435
 21
2.0063067279
  0
LINE
  5
30C
100
AcDbEntity
  8
DRAFT
100
AcDbLine
 62
7
  6
CONTINUOUS
 10
-5.3770304435
 20
-11.5611470077
 11
-5.3770304435
 21
-12.5262395366
  0
LINE
  5
30D
100
AcDbEntity
  8
GUSCI_ESTERNI
100
AcDbLine
 62
7
  6
CONTINUOUS
 10
-5.3770304435
 20
1.2063067279
 11
-5.3770304435
 21
-12.7936932721
  0
LINE
  5
30E
100
AcDbEntity
  8
DRAFT
100
AcDbLine
 62
7
  6
CONTINUOUS
 10
-5.3770304435
 20
-17.5611470077
 11
-5.3770304435
 21
-18.5262395366
  0
LINE
  5
30F
100
AcDbEntity
  8
GUSCI_ESTERNI
100
AcDbLine
 62
7
  6
CONTINUOUS
 10
-5.3770304435
 20
-17.2936932721
 11
-5.3770304435
 21
-20.5991715599
  0
LINE
  5
310
100
AcDbEntity
  8
RACCORDO
100
AcDbLine
 62
7
  6
CONTINUOUS
 10
-5.3770304435
 20
-21.6524201399
 11
-5.3770304435
 21
-18.5436932721
  0
LINE
  5
311
100
AcDbEntity
  8
SMUSSO
100
AcDbLine
 62
7
  6
CONTINUOUS
 10
-5.3770304435
 20
-17.5436932721
 11
-5.3770304435
 21
-16.7936932721
  0
LINE
  5
312
100
AcDbEntity
  8
SMUSSO
100
AcDbLine
 62
7
  6
CONTINUOUS
 10
-5.3770304435
 20
-13.2936932721
 11
-5.3770304435
 21
-12.5436932721
  0
LINE
  5
313
100
AcDbEntity
  8
DRAFT
100
AcDbLine
 62
7
  6
CONTINUOUS
 10
-5.3770304435
 20
-11.5436932721
 11
-5.3770304435
 21
-11.3936932721
  0
LINE
  5
314
100
AcDbEntity
  8
DRAFT
100
AcDbLine
 62
7
  6
CONTINUOUS
 10
-5.3770304435
 20
-3.8936932721
 11
-5.3770304435
 21
0.2063067279
  0
LINE
  5
315
100
AcDbEntity
  8
DRAFT
100
AcDbLine
 62
7
  6
CONTINUOUS
 10
-5.3770304435
 20
1.0063067279
 11
-5.3770304435
 21
4.1063067279
  0
LINE
  5
316
100
AcDbEntity
  8
SMUSSO
100
AcDbLine
 62
7
  6
CONTINUOUS
 10
-5.3770304435
 20
11.6063067279
 11
-5.3770304435
 21
13.5063067279
  0
LINE
  5
317
100
AcDbEntity
  8
SMUSSO
100
AcDbLine
 62
7
  6
CONTINUOUS
 10
-5.3770304435
 20
17.0063067279
 11
-5.3770304435
 21
17.2563067279
  0
LINE
  5
318
100
AcDbEntity
  8
RACCORDO
100
AcDbLine
 62
7
  6
CONTINUOUS
 10
-5.3770304435
 20
17.2563067279
 11
-5.3770304435
 21
21.8649574403
  0
LINE
  5
319
100
AcDbEntity
  8
DRAFT
100
AcDbLine
 62
7
  6
CONTINUOUS
 10
4.0410023433
 20
22.7127826239
 11
3.9729695565
 21
22.567905585
  0
LINE
  5
31A
100
AcDbEntity
  8
ASSI
100
AcDbLine
 62
7
  6
CONTINUOUS
 10
4.0410023433
 20
22.7127826239
 11
3.9729695565
 21
22.567905585
  0
LINE
  5
31B
100
AcDbEntity
  8
DRAFT
100
AcDbLine
 62
7
  6
CONTINUOUS
 10
10.9682391669
 20
20.9015763383
 11
11.0729695565
 21
21.0063067279
  0
LINE
  5
31C
100
AcDbEntity
  8
ASSI
100
AcDbLine
 62
7
  6
CONTINUOUS
 10
10.9682391669
 20
20.9015763383
 11
11.0729695565
 21
21.0063067279
  0
LINE
  5
31D
100
AcDbEntity
  8
0
100
AcDbLine
 62
7
  6
CONTINUOUS
 10
5.5229695565
 20
13.7063067279
 11
5.3229695565
 21
13.5063067279
  0
LINE
  5
31E
100
AcDbEntity
  8
DRAFT
100
AcDbLine
 62
7
  6
CONTINUOUS
 10
12.6475202057
 20
20.3808573771
 11
12.4729695565
 21
20.2063067279
  0
LINE
  5
31F
100
AcDbEntity
  8
ASSI
100
AcDbLine
 62
7
  6
CONTINUOUS
 10
12.6475202057
 20
20.3808573771
 11
12.4729695565
 21
20.2063067279
  0
LINE
  5
320
100
AcDbEntity
  8
0
100
AcDbLine
 62
7
  6
CONTINUOUS
 10
-1.7436971897
 20
-5.6436932721
 11
-2.2436971897
 21
-5.6436932721
  0
LINE
  5
321
100
AcDbEntity
  8
0
100
AcDbLine
 62
7
  6
CONTINUOUS
 10
-4.3270304435
 20
-5.6436932721
 11
-5.0770304435
 21
-5.6436932721
  0
LINE
  5
322
100
AcDbEntity
  8
DRAFT
100
AcDbLine
 62
7
  6
CONTINUOUS
 10
11.0729695565
 20
-20.7936932721
 11
10.9682391669
 21
-20.6889628826
  0
LINE
  5
323
100
AcDbEntity
  8
ASSI
100
AcDbLine
 62
7
  6
CONTINUOUS
 10
11.0729695565
 20
-20.7936932721
 11
10.9682391669
 21
-20.6889628826
  0
LINE
  5
324
100
AcDbEntity
  8
0
100
AcDbLine
 62
7
  6
CONTINUOUS
 10
5.2229695565
 20
-13.2936932721
 11
5.5229695565
 21
-13.5936932721
  0
LINE
  5
325
100
AcDbEntity
  8
DRAFT
100
AcDbLine
 62
7
  6
CONTINUOUS
 10
12.6475202057
 20
-20.1682439214
 11
12.4729695565
 21
-19.9936932721
  0
LINE
  5
326
100
AcDbEntity
  8
ASSI
100
AcDbLine
 62
7
  6
CONTINUOUS
 10
12.6475202057
 20
-20.1682439214
 11
12.4729695565
 21
-19.9936932721
  0
LINE
  5
327
100
AcDbEntity
  8
0
100
AcDbLine
 62
7
  6
CONTINUOUS
 10
-2.2436971897
 20
-9.0479486027
 11
-4.3270304435
 21
-5.6436932721
  0
LINE
  5
328
100
AcDbEntity
  8
0
100
AcDbLine
 62
7
  6
CONTINUOUS
 10
-3.8950632304
 20
-23.1436932721
 11
-3.9270304435
 21
-22.3147226816
  0
LINE
  5
329
100
AcDbEntity
  8
ASSI
100
AcDbLine
 62
7
  6
CONTINUOUS
 10
-3.8950632304
 20
-23.1436932721
 11
-3.9270304435
 21
-22.3147226816
  0
LINE
  5
32A
100
AcDbEntity
  8
0
100
AcDbLine
 62
7
  6
CONTINUOUS
 10
-5.0770304435
 20
9.8563067279
 11
-5.0770304435
 21
5.8563067279
  0
LINE
  5
32B
100
AcDbEntity
  8
0
100
AcDbLine
 62
7
  6
CONTINUOUS
 10
-5.0770304435
 20
-5.6436932721
 11
-5.0770304435
 21
-9.6436932721
  0
LINE
  5
32C
100
AcDbEntity
  8
RACCORDO
100
AcDbLine
 62
253
  6
CONTINUOUS
 10
-4.9188673148
 20
21.8650335956
 11
-4.9188673148
 21
22.5273361373
  0
LINE
  5
32D
100
AcDbEntity
  8
ASSI
100
AcDbLine
 62
253
  6
CONTINUOUS
 10
-4.9188673148
 20
21.8650335956
 11
-4.9188673148
 21
22.5273361373
  0
LINE
  5
32E
100
AcDbEntity
  8
0
100
AcDbLine
 62
7
  6
CONTINUOUS
 10
-4.5770304435
 20
-9.6436932721
 11
-4.5770304435
 21
-6.1543315091
  0
LINE
  5
32F
100
AcDbEntity
  8
0
100
AcDbLine
 62
7
  6
CONTINUOUS
 10
-4.5770304435
 20
5.8563067279
 11
-4.5770304435
 21
9.3456684909
  0
LINE
  5
330
100
AcDbEntity
  8
RACCORDO
100
AcDbLine
 62
7
  6
CONTINUOUS
 10
-4.4270304435
 20
-24.7039486248
 11
-4.4270304435
 21
-24.0762737444
  0
LINE
  5
331
100
AcDbEntity
  8
RACCORDO
100
AcDbLine
 62
7
  6
CONTINUOUS
 10
-4.4270304435
 20
24.2888872001
 11
-4.4270304435
 21
24.9165620805
  0
LINE
  5
332
100
AcDbEntity
  8
RACCORDO
100
AcDbLine
 62
253
  6
CONTINUOUS
 10
-4.2270304435
 20
24.9598500033
 11
-4.2270304435
 21
24.5693316004
  0
LINE
  5
333
100
AcDbEntity
  8
RACCORDO
100
AcDbLine
 62
253
  6
CONTINUOUS
 10
-4.2270304435
 20
-24.7472365476
 11
-4.2270304435
 21
-24.3567181447
  0
LINE
  5
334
100
AcDbEntity
  8
0
100
AcDbLine
 62
7
  6
CONTINUOUS
 10
-4.1835304435
 20
-13.2936932721
 11
-4.1835304435
 21
-16.7936932721
  0
LINE
  5
335
100
AcDbEntity
  8
0
100
AcDbLine
 62
7
  6
CONTINUOUS
 10
-4.1835304435
 20
13.5063067279
 11
-4.1835304435
 21
17.0063067279
  0
LINE
  5
336
100
AcDbEntity
  8
DRAFT
100
AcDbLine
 62
7
  6
CONTINUOUS
 10
-3.9270304435
 20
-21.6524201399
 11
-3.9270304435
 21
-22.3147226816
  0
LINE
  5
337
100
AcDbEntity
  8
ASSI
100
AcDbLine
 62
7
  6
CONTINUOUS
 10
-3.9270304435
 20
-21.6524201399
 11
-3.9270304435
 21
-22.3147226816
  0
LINE
  5
338
100
AcDbEntity
  8
RACCORDO
100
AcDbLine
 62
253
  6
CONTINUOUS
 10
-3.9189009062
 20
21.8650335956
 11
-3.9189009062
 21
22.7381504906
  0
LINE
  5
339
100
AcDbEntity
  8
ASSI
100
AcDbLine
 62
253
  6
CONTINUOUS
 10
-3.9189009062
 20
21.8650335956
 11
-3.9189009062
 21
22.7381504906
  0
LINE
  5
33A
100
AcDbEntity
  8
DRAFT
100
AcDbLine
 62
7
  6
CONTINUOUS
 10
-3.8950632304
 20
23.3563067279
 11
-3.8950632304
 21
22.7127826239
  0
LINE
  5
33B
100
AcDbEntity
  8
ASSI
100
AcDbLine
 62
7
  6
CONTINUOUS
 10
-3.8950632304
 20
23.3563067279
 11
-3.8950632304
 21
22.7127826239
  0
LINE
  5
33C
100
AcDbEntity
  8
RACCORDO
100
AcDbLine
 62
7
  6
CONTINUOUS
 10
-3.8950632304
 20
-22.5936932721
 11
-3.8950632304
 21
-23.1436932721
  0
LINE
  5
33D
100
AcDbEntity
  8
ASSI
100
AcDbLine
 62
7
  6
CONTINUOUS
 10
-3.8950632304
 20
-22.5936932721
 11
-3.8950632304
 21
-23.1436932721
  0
LINE
  5
33E
100
AcDbEntity
  8
RACCORDO
100
AcDbLine
 62
253
  6
CONTINUOUS
 10
-3.8770304435
 20
23.5631736286
 11
-3.8770304435
 21
23.1726552258
  0
LINE
  5
33F
100
AcDbEntity
  8
0
100
AcDbLine
 62
7
  6
CONTINUOUS
 10
-3.8770304435
 20
17.0063067279
 11
-3.8770304435
 21
13.5063067279
  0
LINE
  5
340
100
AcDbEntity
  8
RACCORDO
100
AcDbLine
 62
253
  6
CONTINUOUS
 10
-3.8770304435
 20
-23.3505601729
 11
-3.8770304435
 21
-22.9600417701
  0
LINE
  5
341
100
AcDbEntity
  8
0
100
AcDbLine
 62
7
  6
CONTINUOUS
 10
-3.8770304435
 20
-16.7936932721
 11
-3.8770304435
 21
-13.2936932721
  0
LINE
  5
342
100
AcDbEntity
  8
DRAFT
100
AcDbLine
 62
7
  6
CONTINUOUS
 10
-3.8270304435
 20
-22.3936932721
 11
-3.8270304435
 21
-21.6524201399
  0
LINE
  5
343
100
AcDbEntity
  8
ASSI
100
AcDbLine
 62
7
  6
CONTINUOUS
 10
-3.8270304435
 20
-22.3936932721
 11
-3.8270304435
 21
-21.6524201399
  0
LINE
  5
344
100
AcDbEntity
  8
DRAFT
100
AcDbLine
 62
7
  6
CONTINUOUS
 10
-3.8270304435
 20
21.8650335956
 11
-3.8270304435
 21
22.567905585
  0
LINE
  5
345
100
AcDbEntity
  8
ASSI
100
AcDbLine
 62
7
  6
CONTINUOUS
 10
-3.8270304435
 20
21.8650335956
 11
-3.8270304435
 21
22.567905585
  0
LINE
  5
346
100
AcDbEntity
  8
ASSI
100
AcDbLine
 62
7
  6
CONTINUOUS
 10
-3.7770304435
 20
-21.6524201399
 11
-3.7770304435
 21
-21.7099167025
  0
LINE
  5
347
100
AcDbEntity
  8
ASSI
100
AcDbLine
 62
7
  6
CONTINUOUS
 10
-3.7770304435
 20
21.8650335956
 11
-3.7770304435
 21
21.9225301582
  0
LINE
  5
348
100
AcDbEntity
  8
ASSI
100
AcDbLine
 62
7
  6
CONTINUOUS
 10
-3.6770304435
 20
-21.6524201399
 11
-3.6770304435
 21
-22.1099166816
  0
LINE
  5
349
100
AcDbEntity
  8
RACCORDO
100
AcDbLine
 62
7
  6
CONTINUOUS
 10
-3.6770304435
 20
-22.8909535082
 11
-3.6770304435
 21
-23.3072722501
  0
LINE
  5
34A
100
AcDbEntity
  8
0
100
AcDbLine
 62
7
  6
CONTINUOUS
 10
-3.6770304435
 20
-22.1099166993
 11
-3.6770304435
 21
-22.8909535082
  0
LINE
  5
34B
100
AcDbEntity
  8
ASSI
100
AcDbLine
 62
7
  6
CONTINUOUS
 10
-3.6770304435
 20
21.8650335956
 11
-3.6770304435
 21
22.3225301371
  0
LINE
  5
34C
100
AcDbEntity
  8
0
100
AcDbLine
 62
7
  6
CONTINUOUS
 10
-3.6770304435
 20
22.322530155
 11
-3.6770304435
 21
23.1035669639
  0
LINE
  5
34D
100
AcDbEntity
  8
RACCORDO
100
AcDbLine
 62
7
  6
CONTINUOUS
 10
-3.6770304435
 20
23.1035669639
 11
-3.6770304435
 21
23.5198857058
  0
LINE
  5
34E
100
AcDbEntity
  8
RACCORDO
100
AcDbLine
 62
7
  6
CONTINUOUS
 10
-3.9189009062
 20
22.7381504906
 11
-3.8950632304
 21
23.3563067279
  0
LINE
  5
34F
100
AcDbEntity
  8
ASSI
100
AcDbLine
 62
7
  6
CONTINUOUS
 10
-3.9189009062
 20
22.7381504906
 11
-3.8950632304
 21
23.3563067279
  0
LINE
  5
350
100
AcDbEntity
  8
GUSCI_ESTERNI
100
AcDbLine
 62
7
  6
CONTINUOUS
 10
6.4563028759
 20
6.3626896462
 11
6.2813028759
 21
6.3031151852
  0
LINE
  5
351
100
AcDbEntity
  8
ASSI
100
AcDbLine
 62
7
  6
CONTINUOUS
 10
6.4563028759
 20
6.3626896462
 11
6.2813028759
 21
6.3031151852
  0
LINE
  5
352
100
AcDbEntity
  8
GUSCI_ESTERNI
100
AcDbLine
 62
7
  6
CONTINUOUS
 10
6.2813028759
 20
6.0648173413
 11
6.4563028759
 21
6.1243918023
  0
LINE
  5
353
100
AcDbEntity
  8
ASSI
100
AcDbLine
 62
7
  6
CONTINUOUS
 10
6.2813028759
 20
6.0648173413
 11
6.4563028759
 21
6.1243918023
  0
LINE
  5
354
100
AcDbEntity
  8
GUSCI_ESTERNI
100
AcDbLine
 62
7
  6
CONTINUOUS
 10
7.3896362788
 20
6.3626896462
 11
7.2146361953
 21
6.3031151852
  0
LINE
  5
355
100
AcDbEntity
  8
ASSI
100
AcDbLine
 62
7
  6
CONTINUOUS
 10
7.3896362788
 20
6.3626896462
 11
7.2146361953
 21
6.3031151852
  0
LINE
  5
356
100
AcDbEntity
  8
DRAFT
100
AcDbLine
 62
7
  6
CONTINUOUS
 10
-1.382266963
 20
-3.8989297916
 11
-5.3770304435
 21
-3.8989297916
  0
LINE
  5
357
100
AcDbEntity
  8
DRAFT
100
AcDbLine
 62
7
  6
CONTINUOUS
 10
-5.3770304435
 20
-3.8936932721
 11
-1.3770304435
 21
-3.8936932721
  0
LINE
  5
358
100
AcDbEntity
  8
0
100
AcDbLine
 62
7
  6
CONTINUOUS
 10
-2.2436971897
 20
9.8563067279
 11
-2.2436971897
 21
6.4520513973
  0
LINE
  5
359
100
AcDbEntity
  8
0
100
AcDbLine
 62
7
  6
CONTINUOUS
 10
-2.2436971897
 20
-5.6436932721
 11
-2.2436971897
 21
-9.0479486027
  0
LINE
  5
35A
100
AcDbEntity
  8
RACCORDO
100
AcDbLine
 62
253
  6
CONTINUOUS
 10
-2.1770304435
 20
17.2563067279
 11
-2.1770304435
 21
17.0063067279
  0
LINE
  5
35B
100
AcDbEntity
  8
RACCORDO
100
AcDbLine
 62
253
  6
CONTINUOUS
 10
-2.1770304435
 20
13.5063067279
 11
-2.1770304435
 21
13.2563067279
  0
LINE
  5
35C
100
AcDbEntity
  8
RACCORDO
100
AcDbLine
 62
253
  6
CONTINUOUS
 10
-2.1770304435
 20
-13.0436932721
 11
-2.1770304435
 21
-13.2936932721
  0
LINE
  5
35D
100
AcDbEntity
  8
RACCORDO
100
AcDbLine
 62
253
  6
CONTINUOUS
 10
-2.1770304435
 20
-16.7936932721
 11
-2.1770304435
 21
-17.0436932721
  0
LINE
  5
35E
100
AcDbEntity
  8
0
100
AcDbLine
 62
7
  6
CONTINUOUS
 10
-1.7436971897
 20
-9.6436932721
 11
-1.7436971897
 21
-5.6436932721
  0
LINE
  5
35F
100
AcDbEntity
  8
0
100
AcDbLine
 62
7
  6
CONTINUOUS
 10
-1.7436971897
 20
5.8563067279
 11
-1.7436971897
 21
9.8563067279
  0
LINE
  5
360
100
AcDbEntity
  8
DRAFT
100
AcDbLine
 62
7
  6
CONTINUOUS
 10
-11.9493316898
 20
-20.1682439214
 11
-11.8770304435
 21
-19.9936932721
  0
LINE
  5
361
100
AcDbEntity
  8
ASSI
100
AcDbLine
 62
7
  6
CONTINUOUS
 10
-11.9493316898
 20
-20.1682439214
 11
-11.8770304435
 21
-19.9936932721
  0
LINE
  5
362
100
AcDbEntity
  8
DRAFT
100
AcDbLine
 62
7
  6
CONTINUOUS
 10
-11.1493316898
 20
-20.9682439214
 11
-11.0770304435
 21
-20.7936932721
  0
LINE
  5
363
100
AcDbEntity
  8
ASSI
100
AcDbLine
 62
7
  6
CONTINUOUS
 10
-11.1493316898
 20
-20.9682439214
 11
-11.0770304435
 21
-20.7936932721
  0
LINE
  5
364
100
AcDbEntity
  8
DRAFT
100
AcDbLine
 62
7
  6
CONTINUOUS
 10
0.0729695565
 20
4.1063067279
 11
0.0782060759
 21
4.1115432473
  0
LINE
  5
365
100
AcDbEntity
  8
0
100
AcDbLine
 62
7
  6
CONTINUOUS
 10
3.7929695565
 20
6.2563067279
 11
3.5229695565
 21
5.9882216534
  0
LINE
  5
366
100
AcDbEntity
  8
GUSCI_ESTERNI
100
AcDbLine
 62
7
  6
CONTINUOUS
 10
7.2146361953
 20
6.0648173413
 11
7.3313028342
 21
6.1243918023
  0
LINE
  5
367
100
AcDbEntity
  8
ASSI
100
AcDbLine
 62
7
  6
CONTINUOUS
 10
7.2146361953
 20
6.0648173413
 11
7.3313028342
 21
6.1243918023
  0
LINE
  5
368
100
AcDbEntity
  8
GUSCI_ESTERNI
100
AcDbLine
 62
7
  6
CONTINUOUS
 10
9.081303001
 20
6.3626896462
 11
8.906303001
 21
6.3031151852
  0
LINE
  5
369
100
AcDbEntity
  8
ASSI
100
AcDbLine
 62
7
  6
CONTINUOUS
 10
9.081303001
 20
6.3626896462
 11
8.906303001
 21
6.3031151852
  0
LINE
  5
36A
100
AcDbEntity
  8
GUSCI_ESTERNI
100
AcDbLine
 62
7
  6
CONTINUOUS
 10
8.906303001
 20
6.0648173413
 11
9.081303001
 21
6.1243918023
  0
LINE
  5
36B
100
AcDbEntity
  8
ASSI
100
AcDbLine
 62
7
  6
CONTINUOUS
 10
8.906303001
 20
6.0648173413
 11
9.081303001
 21
6.1243918023
  0
LINE
  5
36C
100
AcDbEntity
  8
GUSCI_ESTERNI
100
AcDbLine
 62
7
  6
CONTINUOUS
 10
10.0146361119
 20
6.3626896462
 11
9.8396361119
 21
6.3031151852
  0
LINE
  5
36D
100
AcDbEntity
  8
ASSI
100
AcDbLine
 62
7
  6
CONTINUOUS
 10
10.0146361119
 20
6.3626896462
 11
9.8396361119
 21
6.3031151852
  0
LINE
  5
36E
100
AcDbEntity
  8
DRAFT
100
AcDbLine
 62
7
  6
CONTINUOUS
 10
-11.9493316898
 20
20.3808573771
 11
-11.8770304435
 21
20.2063067279
  0
LINE
  5
36F
100
AcDbEntity
  8
ASSI
100
AcDbLine
 62
7
  6
CONTINUOUS
 10
-11.9493316898
 20
20.3808573771
 11
-11.8770304435
 21
20.2063067279
  0
LINE
  5
370
100
AcDbEntity
  8
DRAFT
100
AcDbLine
 62
7
  6
CONTINUOUS
 10
-11.0770304435
 20
21.0063067279
 11
-11.1493316898
 21
21.1808573771
  0
LINE
  5
371
100
AcDbEntity
  8
ASSI
100
AcDbLine
 62
7
  6
CONTINUOUS
 10
-11.0770304435
 20
21.0063067279
 11
-11.1493316898
 21
21.1808573771
  0
LINE
  5
372
100
AcDbEntity
  8
DRAFT
100
AcDbLine
 62
7
  6
CONTINUOUS
 10
0.0598792548
 20
14.3043829392
 11
0.0729695565
 21
11.7063067279
  0
LINE
  5
373
100
AcDbEntity
  8
DRAFT
100
AcDbLine
 62
7
  6
CONTINUOUS
 10
-1.382266963
 20
-11.3884567527
 11
-1.382266963
 21
-3.8989297916
  0
LINE
  5
374
100
AcDbEntity
  8
DRAFT
100
AcDbLine
 62
7
  6
CONTINUOUS
 10
-1.382266963
 20
4.1115432473
 11
-1.382266963
 21
11.6010702084
  0
LINE
  5
375
100
AcDbEntity
  8
DRAFT
100
AcDbLine
 62
7
  6
CONTINUOUS
 10
-1.3770304435
 20
-11.3936932721
 11
-1.3770304435
 21
-3.8936932721
  0
LINE
  5
376
100
AcDbEntity
  8
DRAFT
100
AcDbLine
 62
7
  6
CONTINUOUS
 10
-1.3770304435
 20
4.1063067279
 11
-1.3770304435
 21
11.6063067279
  0
LINE
  5
377
100
AcDbEntity
  8
RACCORDO
100
AcDbLine
 62
253
  6
CONTINUOUS
 10
-1.3270304435
 20
24.9598500033
 11
-1.3270304435
 21
24.5693316004
  0
LINE
  5
378
100
AcDbEntity
  8
RACCORDO
100
AcDbLine
 62
253
  6
CONTINUOUS
 10
-1.3270304435
 20
-24.7472365476
 11
-1.3270304435
 21
-24.3567181447
  0
LINE
  5
379
100
AcDbEntity
  8
RACCORDO
100
AcDbLine
 62
7
  6
CONTINUOUS
 10
-1.1770304435
 20
16.2255303214
 11
-1.1770304435
 21
14.2870831343
  0
LINE
  5
37A
100
AcDbEntity
  8
RACCORDO
100
AcDbLine
 62
7
  6
CONTINUOUS
 10
-1.1770304435
 20
-14.0744696786
 11
-1.1770304435
 21
-16.0129168657
  0
LINE
  5
37B
100
AcDbEntity
  8
RACCORDO
100
AcDbLine
 62
7
  6
CONTINUOUS
 10
-1.1270304435
 20
24.9165620805
 11
-1.1270304435
 21
24.2888872001
  0
LINE
  5
37C
100
AcDbEntity
  8
RACCORDO
100
AcDbLine
 62
7
  6
CONTINUOUS
 10
-1.1270304435
 20
20.8649955173
 11
-1.1270304435
 21
11.7063067279
  0
LINE
  5
37D
100
AcDbEntity
  8
DRAFT
100
AcDbLine
 62
7
  6
CONTINUOUS
 10
-1.1270304435
 20
-8.8936932721
 11
-1.1270304435
 21
-11.5436932721
  0
LINE
  5
37E
100
AcDbEntity
  8
RACCORDO
100
AcDbLine
 62
7
  6
CONTINUOUS
 10
-1.1270304435
 20
-24.0762737444
 11
-1.1270304435
 21
-24.7039486248
  0
LINE
  5
37F
100
AcDbEntity
  8
RACCORDO
100
AcDbLine
 62
7
  6
CONTINUOUS
 10
-1.1139401419
 20
19.860594005
 11
-1.1139401419
 21
14.3043829392
  0
LINE
  5
380
100
AcDbEntity
  8
RACCORDO
100
AcDbLine
 62
7
  6
CONTINUOUS
 10
-1.1139401419
 20
-11.5567835738
 11
-1.1139401419
 21
-9.8980947844
  0
LINE
  5
381
100
AcDbEntity
  8
RACCORDO
100
AcDbLine
 62
7
  6
CONTINUOUS
 10
-0.6770304435
 20
-14.0436361567
 11
-0.6770304435
 21
-16.0437503876
  0
LINE
  5
382
100
AcDbEntity
  8
RACCORDO
100
AcDbLine
 62
7
  6
CONTINUOUS
 10
-0.659576708
 20
-14.0261824212
 11
-0.659576708
 21
-16.0612041231
  0
LINE
  5
383
100
AcDbEntity
  8
RACCORDO
100
AcDbLine
 62
7
  6
CONTINUOUS
 10
0.0598792548
 20
19.860594005
 11
0.0598792548
 21
14.3043829392
  0
LINE
  5
384
100
AcDbEntity
  8
RACCORDO
100
AcDbLine
 62
7
  6
CONTINUOUS
 10
0.0598792548
 20
-9.8980947844
 11
0.0598792548
 21
-11.5567835738
  0
LINE
  5
385
100
AcDbEntity
  8
RACCORDO
100
AcDbLine
 62
7
  6
CONTINUOUS
 10
0.0729695565
 20
20.8649955173
 11
0.0729695565
 21
11.7063067279
  0
LINE
  5
386
100
AcDbEntity
  8
DRAFT
100
AcDbLine
 62
7
  6
CONTINUOUS
 10
0.0729695565
 20
6.6063067279
 11
0.0729695565
 21
4.1063067279
  0
LINE
  5
387
100
AcDbEntity
  8
DRAFT
100
AcDbLine
 62
7
  6
CONTINUOUS
 10
0.0729695565
 20
-8.8936932721
 11
0.0729695565
 21
-11.5436932721
  0
LINE
  5
388
100
AcDbEntity
  8
DRAFT
100
AcDbLine
 62
7
  6
CONTINUOUS
 10
0.0782060759
 20
6.6010702084
 11
0.0782060759
 21
4.1115432473
  0
LINE
  5
389
100
AcDbEntity
  8
DRAFT
100
AcDbLine
 62
7
  6
CONTINUOUS
 10
-1.1139401419
 20
14.3043829392
 11
-1.1270304435
 21
11.7063067279
  0
LINE
  5
38A
100
AcDbEntity
  8
GUSCI_ESTERNI
100
AcDbLine
 62
7
  6
CONTINUOUS
 10
6.2813028759
 20
6.3031151852
 11
6.1646362162
 21
6.1839662633
  0
LINE
  5
38B
100
AcDbEntity
  8
ASSI
100
AcDbLine
 62
7
  6
CONTINUOUS
 10
6.2813028759
 20
6.3031151852
 11
6.1646362162
 21
6.1839662633
  0
LINE
  5
38C
100
AcDbEntity
  8
0
100
AcDbLine
 62
7
  6
CONTINUOUS
 10
3.5229695565
 20
5.6818386039
 11
3.7929695565
 21
5.9499237857
  0
LINE
  5
38D
100
AcDbEntity
  8
0
100
AcDbLine
 62
7
  6
CONTINUOUS
 10
4.6929695994
 20
6.2563067279
 11
4.422969535
 21
5.9882216534
  0
LINE
  5
38E
100
AcDbEntity
  8
0
100
AcDbLine
 62
7
  6
CONTINUOUS
 10
4.422969535
 20
5.6818386039
 11
4.6929695994
 21
5.9499237857
  0
LINE
  5
38F
100
AcDbEntity
  8
GUSCI_ESTERNI
100
AcDbLine
 62
7
  6
CONTINUOUS
 10
9.8396361119
 20
6.0648173413
 11
9.956303001
 21
6.1243918023
  0
LINE
  5
390
100
AcDbEntity
  8
ASSI
100
AcDbLine
 62
7
  6
CONTINUOUS
 10
9.8396361119
 20
6.0648173413
 11
9.956303001
 21
6.1243918023
  0
LINE
  5
391
100
AcDbEntity
  8
RACCORDO
100
AcDbLine
 62
7
  6
CONTINUOUS
 10
0.8055158209
 20
-16.0612041231
 11
0.8055158209
 21
-14.0261824212
  0
LINE
  5
392
100
AcDbEntity
  8
RACCORDO
100
AcDbLine
 62
7
  6
CONTINUOUS
 10
0.8229695565
 20
-16.0437503876
 11
0.8229695565
 21
-14.0436361567
  0
LINE
  5
393
100
AcDbEntity
  8
RACCORDO
100
AcDbLine
 62
7
  6
CONTINUOUS
 10
1.2729695565
 20
-24.7039486248
 11
1.2729695565
 21
-24.0762737444
  0
LINE
  5
394
100
AcDbEntity
  8
RACCORDO
100
AcDbLine
 62
7
  6
CONTINUOUS
 10
1.2729695565
 20
24.2888872001
 11
1.2729695565
 21
24.9165620805
  0
LINE
  5
395
100
AcDbEntity
  8
RACCORDO
100
AcDbLine
 62
7
  6
CONTINUOUS
 10
1.3229695565
 20
-16.0129168657
 11
1.3229695565
 21
-14.0744696786
  0
LINE
  5
396
100
AcDbEntity
  8
RACCORDO
100
AcDbLine
 62
7
  6
CONTINUOUS
 10
1.3229695565
 20
14.2870831343
 11
1.3229695565
 21
16.2255303214
  0
LINE
  5
397
100
AcDbEntity
  8
RACCORDO
100
AcDbLine
 62
253
  6
CONTINUOUS
 10
1.4729695565
 20
24.9598500033
 11
1.4729695565
 21
24.5693316004
  0
LINE
  5
398
100
AcDbEntity
  8
RACCORDO
100
AcDbLine
 62
253
  6
CONTINUOUS
 10
1.4729695565
 20
-24.7472365476
 11
1.4729695565
 21
-24.3567181447
  0
LINE
  5
399
100
AcDbEntity
  8
GUSCI_ESTERNI
100
AcDbLine
 62
7
  6
CONTINUOUS
 10
6.1646362162
 20
5.9456684193
 11
6.2813028759
 21
6.0648173413
  0
LINE
  5
39A
100
AcDbEntity
  8
ASSI
100
AcDbLine
 62
7
  6
CONTINUOUS
 10
6.1646362162
 20
5.9456684193
 11
6.2813028759
 21
6.0648173413
  0
LINE
  5
39B
100
AcDbEntity
  8
GUSCI_ESTERNI
100
AcDbLine
 62
7
  6
CONTINUOUS
 10
7.2146361953
 20
6.3031151852
 11
7.0396361953
 21
6.1243918023
  0
LINE
  5
39C
100
AcDbEntity
  8
ASSI
100
AcDbLine
 62
7
  6
CONTINUOUS
 10
7.2146361953
 20
6.3031151852
 11
7.0396361953
 21
6.1243918023
  0
LINE
  5
39D
100
AcDbEntity
  8
GUSCI_ESTERNI
100
AcDbLine
 62
7
  6
CONTINUOUS
 10
7.1563029176
 20
6.0052428803
 11
7.2146361953
 21
6.0648173413
  0
LINE
  5
39E
100
AcDbEntity
  8
ASSI
100
AcDbLine
 62
7
  6
CONTINUOUS
 10
7.1563029176
 20
6.0052428803
 11
7.2146361953
 21
6.0648173413
  0
LINE
  5
39F
100
AcDbEntity
  8
GUSCI_ESTERNI
100
AcDbLine
 62
7
  6
CONTINUOUS
 10
8.906303001
 20
6.3031151852
 11
8.7896361119
 21
6.1839662633
  0
LINE
  5
3A0
100
AcDbEntity
  8
ASSI
100
AcDbLine
 62
7
  6
CONTINUOUS
 10
8.906303001
 20
6.3031151852
 11
8.7896361119
 21
6.1839662633
  0
LINE
  5
3A1
100
AcDbEntity
  8
DRAFT
100
AcDbLine
 62
7
  6
CONTINUOUS
 10
-1.3770304435
 20
-3.8936932721
 11
-1.382266963
 21
-3.8989297916
  0
LINE
  5
3A2
100
AcDbEntity
  8
GUSCI_ESTERNI
100
AcDbLine
 62
7
  6
CONTINUOUS
 10
5.5229695565
 20
1.2063067279
 11
6.1229695565
 21
1.2063067279
  0
LINE
  5
3A3
100
AcDbEntity
  8
ASSI
100
AcDbLine
 62
7
  6
CONTINUOUS
 10
5.5229695565
 20
1.2063067279
 11
6.1229695565
 21
1.2063067279
  0
LINE
  5
3A4
100
AcDbEntity
  8
GUSCI_ESTERNI
100
AcDbLine
 62
7
  6
CONTINUOUS
 10
-5.3770304435
 20
1.2063067279
 11
-5.9770304435
 21
1.2063067279
  0
LINE
  5
3A5
100
AcDbEntity
  8
GUSCI_ESTERNI
100
AcDbLine
 62
7
  6
CONTINUOUS
 10
5.5229695565
 20
2.0063067279
 11
6.1229695565
 21
2.0063067279
  0
LINE
  5
3A6
100
AcDbEntity
  8
ASSI
100
AcDbLine
 62
7
  6
CONTINUOUS
 10
5.5229695565
 20
2.0063067279
 11
6.1229695565
 21
2.0063067279
  0
LINE
  5
3A7
100
AcDbEntity
  8
GUSCI_ESTERNI
100
AcDbLine
 62
7
  6
CONTINUOUS
 10
-5.3770304435
 20
2.0063067279
 11
-5.9770304435
 21
2.0063067279
  0
LINE
  5
3A8
100
AcDbEntity
  8
DRAFT
100
AcDbLine
 62
7
  6
CONTINUOUS
 10
-1.3770304435
 20
4.1063067279
 11
-1.382266963
 21
4.1115432473
  0
LINE
  5
3A9
100
AcDbEntity
  8
0
100
AcDbLine
 62
7
  6
CONTINUOUS
 10
-2.2436971897
 20
6.4520513973
 11
-4.3270304435
 21
9.8563067279
  0
LINE
  5
3AA
100
AcDbEntity
  8
0
100
AcDbLine
 62
7
  6
CONTINUOUS
 10
-4.5770304435
 20
9.3456684909
 11
-2.4936971897
 21
5.8563067279
  0
LINE
  5
3AB
100
AcDbEntity
  8
RACCORDO
100
AcDbLine
 62
253
  6
CONTINUOUS
 10
2.3229695565
 20
-17.0436932721
 11
2.3229695565
 21
-16.7936932721
  0
LINE
  5
3AC
100
AcDbEntity
  8
RACCORDO
100
AcDbLine
 62
253
  6
CONTINUOUS
 10
2.3229695565
 20
-13.2936932721
 11
2.3229695565
 21
-13.0436932721
  0
LINE
  5
3AD
100
AcDbEntity
  8
RACCORDO
100
AcDbLine
 62
253
  6
CONTINUOUS
 10
2.3229695565
 20
13.2563067279
 11
2.3229695565
 21
13.5063067279
  0
LINE
  5
3AE
100
AcDbEntity
  8
RACCORDO
100
AcDbLine
 62
253
  6
CONTINUOUS
 10
2.3229695565
 20
17.0063067279
 11
2.3229695565
 21
17.2563067279
  0
LINE
  5
3AF
100
AcDbEntity
  8
0
100
AcDbLine
 62
7
  6
CONTINUOUS
 10
3.5229695565
 20
5.9882216534
 11
3.5229695565
 21
5.6818386039
  0
LINE
  5
3B0
100
AcDbEntity
  8
0
100
AcDbLine
 62
7
  6
CONTINUOUS
 10
3.7929695565
 20
5.9499237857
 11
3.7929695565
 21
4.4563067279
  0
LINE
  5
3B1
100
AcDbEntity
  8
ASSI
100
AcDbLine
 62
7
  6
CONTINUOUS
 10
3.8229695565
 20
-21.6524201399
 11
3.8229695565
 21
-22.1099166814
  0
LINE
  5
3B2
100
AcDbEntity
  8
0
100
AcDbLine
 62
7
  6
CONTINUOUS
 10
3.8229695565
 20
-22.1099166993
 11
3.8229695565
 21
-22.8909535082
  0
LINE
  5
3B3
100
AcDbEntity
  8
RACCORDO
100
AcDbLine
 62
7
  6
CONTINUOUS
 10
3.8229695565
 20
-22.8909535082
 11
3.8229695565
 21
-23.3072722501
  0
LINE
  5
3B4
100
AcDbEntity
  8
ASSI
100
AcDbLine
 62
7
  6
CONTINUOUS
 10
3.8229695565
 20
21.8650335956
 11
3.8229695565
 21
22.3225301373
  0
LINE
  5
3B5
100
AcDbEntity
  8
0
100
AcDbLine
 62
7
  6
CONTINUOUS
 10
3.8229695565
 20
22.322530155
 11
3.8229695565
 21
23.1035669639
  0
LINE
  5
3B6
100
AcDbEntity
  8
RACCORDO
100
AcDbLine
 62
7
  6
CONTINUOUS
 10
3.8229695565
 20
23.1035669639
 11
3.8229695565
 21
23.5198857058
  0
LINE
  5
3B7
100
AcDbEntity
  8
ASSI
100
AcDbLine
 62
7
  6
CONTINUOUS
 10
3.9229695565
 20
-21.6524201399
 11
3.9229695565
 21
-21.7099167025
  0
LINE
  5
3B8
100
AcDbEntity
  8
ASSI
100
AcDbLine
 62
7
  6
CONTINUOUS
 10
3.9229695565
 20
21.8650335956
 11
3.9229695565
 21
21.9225301582
  0
LINE
  5
3B9
100
AcDbEntity
  8
DRAFT
100
AcDbLine
 62
7
  6
CONTINUOUS
 10
3.9729695565
 20
-22.3936932721
 11
3.9729695565
 21
-21.6524201399
  0
LINE
  5
3BA
100
AcDbEntity
  8
ASSI
100
AcDbLine
 62
7
  6
CONTINUOUS
 10
3.9729695565
 20
-22.3936932721
 11
3.9729695565
 21
-21.6524201399
  0
LINE
  5
3BB
100
AcDbEntity
  8
DRAFT
100
AcDbLine
 62
7
  6
CONTINUOUS
 10
3.9729695565
 20
21.8650335956
 11
3.9729695565
 21
22.567905585
  0
LINE
  5
3BC
100
AcDbEntity
  8
ASSI
100
AcDbLine
 62
7
  6
CONTINUOUS
 10
3.9729695565
 20
21.8650335956
 11
3.9729695565
 21
22.567905585
  0
LINE
  5
3BD
100
AcDbEntity
  8
RACCORDO
100
AcDbLine
 62
253
  6
CONTINUOUS
 10
4.0229695565
 20
23.5631736286
 11
4.0229695565
 21
23.1726552258
  0
LINE
  5
3BE
100
AcDbEntity
  8
0
100
AcDbLine
 62
7
  6
CONTINUOUS
 10
4.0229695565
 20
17.0063067279
 11
4.0229695565
 21
13.5063067279
  0
LINE
  5
3BF
100
AcDbEntity
  8
RACCORDO
100
AcDbLine
 62
253
  6
CONTINUOUS
 10
4.0229695565
 20
-23.3505601729
 11
4.0229695565
 21
-22.9600417701
  0
LINE
  5
3C0
100
AcDbEntity
  8
0
100
AcDbLine
 62
7
  6
CONTINUOUS
 10
4.0229695565
 20
-16.7936932721
 11
4.0229695565
 21
-13.2936932721
  0
LINE
  5
3C1
100
AcDbEntity
  8
DRAFT
100
AcDbLine
 62
7
  6
CONTINUOUS
 10
4.0410023433
 20
23.3563067279
 11
4.0410023433
 21
22.7127826239
  0
LINE
  5
3C2
100
AcDbEntity
  8
ASSI
100
AcDbLine
 62
7
  6
CONTINUOUS
 10
4.0410023433
 20
23.3563067279
 11
4.0410023433
 21
22.7127826239
  0
LINE
  5
3C3
100
AcDbEntity
  8
RACCORDO
100
AcDbLine
 62
7
  6
CONTINUOUS
 10
4.0410023433
 20
-22.5936932721
 11
4.0410023433
 21
-23.1436932721
  0
LINE
  5
3C4
100
AcDbEntity
  8
ASSI
100
AcDbLine
 62
7
  6
CONTINUOUS
 10
4.0410023433
 20
-22.5936932721
 11
4.0410023433
 21
-23.1436932721
  0
LINE
  5
3C5
100
AcDbEntity
  8
DRAFT
100
AcDbLine
 62
7
  6
CONTINUOUS
 10
11.2229695565
 20
21.0063067279
 11
11.2952708027
 21
21.1808573771
  0
LINE
  5
3C6
100
AcDbEntity
  8
ASSI
100
AcDbLine
 62
7
  6
CONTINUOUS
 10
11.2229695565
 20
21.0063067279
 11
11.2952708027
 21
21.1808573771
  0
LINE
  5
3C7
100
AcDbEntity
  8
DRAFT
100
AcDbLine
 62
7
  6
CONTINUOUS
 10
12.0952708027
 20
20.3808573771
 11
12.0229695565
 21
20.2063067279
  0
LINE
  5
3C8
100
AcDbEntity
  8
ASSI
100
AcDbLine
 62
7
  6
CONTINUOUS
 10
12.0952708027
 20
20.3808573771
 11
12.0229695565
 21
20.2063067279
  0
LINE
  5
3C9
100
AcDbEntity
  8
GUSCI_ESTERNI
100
AcDbLine
 62
7
  6
CONTINUOUS
 10
7.0979695565
 20
5.8860939583
 11
7.1563029176
 21
6.0052428803
  0
LINE
  5
3CA
100
AcDbEntity
  8
ASSI
100
AcDbLine
 62
7
  6
CONTINUOUS
 10
7.0979695565
 20
5.8860939583
 11
7.1563029176
 21
6.0052428803
  0
LINE
  5
3CB
100
AcDbEntity
  8
GUSCI_ESTERNI
100
AcDbLine
 62
7
  6
CONTINUOUS
 10
8.7896361119
 20
5.9456684193
 11
8.906303001
 21
6.0648173413
  0
LINE
  5
3CC
100
AcDbEntity
  8
ASSI
100
AcDbLine
 62
7
  6
CONTINUOUS
 10
8.7896361119
 20
5.9456684193
 11
8.906303001
 21
6.0648173413
  0
LINE
  5
3CD
100
AcDbEntity
  8
GUSCI_ESTERNI
100
AcDbLine
 62
7
  6
CONTINUOUS
 10
9.8396361119
 20
6.3031151852
 11
9.6646361119
 21
6.1243918023
  0
LINE
  5
3CE
100
AcDbEntity
  8
ASSI
100
AcDbLine
 62
7
  6
CONTINUOUS
 10
9.8396361119
 20
6.3031151852
 11
9.6646361119
 21
6.1243918023
  0
LINE
  5
3CF
100
AcDbEntity
  8
GUSCI_ESTERNI
100
AcDbLine
 62
7
  6
CONTINUOUS
 10
9.781303001
 20
6.0052428803
 11
9.8396361119
 21
6.0648173413
  0
LINE
  5
3D0
100
AcDbEntity
  8
ASSI
100
AcDbLine
 62
7
  6
CONTINUOUS
 10
9.781303001
 20
6.0052428803
 11
9.8396361119
 21
6.0648173413
  0
LINE
  5
3D1
100
AcDbEntity
  8
DRAFT
100
AcDbLine
 62
7
  6
CONTINUOUS
 10
11.2952708027
 20
-20.9682439214
 11
11.2229695565
 21
-20.7936932721
  0
LINE
  5
3D2
100
AcDbEntity
  8
ASSI
100
AcDbLine
 62
7
  6
CONTINUOUS
 10
11.2952708027
 20
-20.9682439214
 11
11.2229695565
 21
-20.7936932721
  0
LINE
  5
3D3
100
AcDbEntity
  8
DRAFT
100
AcDbLine
 62
7
  6
CONTINUOUS
 10
12.0952708027
 20
-20.1682439214
 11
12.0229695565
 21
-19.9936932721
  0
LINE
  5
3D4
100
AcDbEntity
  8
ASSI
100
AcDbLine
 62
7
  6
CONTINUOUS
 10
12.0952708027
 20
-20.1682439214
 11
12.0229695565
 21
-19.9936932721
  0
LINE
  5
3D5
100
AcDbEntity
  8
RACCORDO
100
AcDbLine
 62
7
  6
CONTINUOUS
 10
4.0648400191
 20
22.7381504906
 11
4.0410023433
 21
23.3563067279
  0
LINE
  5
3D6
100
AcDbEntity
  8
ASSI
100
AcDbLine
 62
7
  6
CONTINUOUS
 10
4.0648400191
 20
22.7381504906
 11
4.0410023433
 21
23.3563067279
  0
LINE
  5
3D7
100
AcDbEntity
  8
0
100
AcDbLine
 62
7
  6
CONTINUOUS
 10
4.0629695565
 20
4.4563067279
 11
4.0629695565
 21
6.2563067279
  0
LINE
  5
3D8
100
AcDbEntity
  8
RACCORDO
100
AcDbLine
 62
253
  6
CONTINUOUS
 10
4.0648400191
 20
22.7381504906
 11
4.0648400191
 21
21.8650335956
  0
LINE
  5
3D9
100
AcDbEntity
  8
ASSI
100
AcDbLine
 62
253
  6
CONTINUOUS
 10
4.0648400191
 20
22.7381504906
 11
4.0648400191
 21
21.8650335956
  0
LINE
  5
3DA
100
AcDbEntity
  8
DRAFT
100
AcDbLine
 62
7
  6
CONTINUOUS
 10
4.0729695565
 20
-21.6524201399
 11
4.0729695565
 21
-22.3147226816
  0
LINE
  5
3DB
100
AcDbEntity
  8
ASSI
100
AcDbLine
 62
7
  6
CONTINUOUS
 10
4.0729695565
 20
-21.6524201399
 11
4.0729695565
 21
-22.3147226816
  0
LINE
  5
3DC
100
AcDbEntity
  8
0
100
AcDbLine
 62
7
  6
CONTINUOUS
 10
4.3294695565
 20
-13.2936932721
 11
4.3294695565
 21
-16.7936932721
  0
LINE
  5
3DD
100
AcDbEntity
  8
0
100
AcDbLine
 62
7
  6
CONTINUOUS
 10
4.3294695565
 20
13.5063067279
 11
4.3294695565
 21
17.0063067279
  0
LINE
  5
3DE
100
AcDbEntity
  8
RACCORDO
100
AcDbLine
 62
253
  6
CONTINUOUS
 10
4.3729695565
 20
24.9598500033
 11
4.3729695565
 21
24.5693316004
  0
LINE
  5
3DF
100
AcDbEntity
  8
RACCORDO
100
AcDbLine
 62
253
  6
CONTINUOUS
 10
4.3729695565
 20
-24.7472365476
 11
4.3729695565
 21
-24.3567181447
  0
LINE
  5
3E0
100
AcDbEntity
  8
0
100
AcDbLine
 62
7
  6
CONTINUOUS
 10
4.422969535
 20
5.9882216534
 11
4.422969535
 21
5.6818386039
  0
LINE
  5
3E1
100
AcDbEntity
  8
RACCORDO
100
AcDbLine
 62
7
  6
CONTINUOUS
 10
4.5729695565
 20
24.9165620805
 11
4.5729695565
 21
24.2888872001
  0
LINE
  5
3E2
100
AcDbEntity
  8
RACCORDO
100
AcDbLine
 62
7
  6
CONTINUOUS
 10
4.5729695565
 20
-24.0762737444
 11
4.5729695565
 21
-24.7039486248
  0
LINE
  5
3E3
100
AcDbEntity
  8
0
100
AcDbLine
 62
7
  6
CONTINUOUS
 10
4.6929695994
 20
5.9499237857
 11
4.6929695994
 21
4.4563067279
  0
LINE
  5
3E4
100
AcDbEntity
  8
0
100
AcDbLine
 62
7
  6
CONTINUOUS
 10
4.9629695994
 20
4.4563067279
 11
4.9629695994
 21
6.2563067279
  0
LINE
  5
3E5
100
AcDbEntity
  8
RACCORDO
100
AcDbLine
 62
253
  6
CONTINUOUS
 10
5.0648064277
 20
22.5273361373
 11
5.0648064277
 21
21.8650335956
  0
LINE
  5
3E6
100
AcDbEntity
  8
ASSI
100
AcDbLine
 62
253
  6
CONTINUOUS
 10
5.0648064277
 20
22.5273361373
 11
5.0648064277
 21
21.8650335956
  0
LINE
  5
3E7
100
AcDbEntity
  8
RACCORDO
100
AcDbLine
 62
7
  6
CONTINUOUS
 10
5.5229695565
 20
21.8650335956
 11
5.5229695565
 21
17.2563067279
  0
LINE
  5
3E8
100
AcDbEntity
  8
SMUSSO
100
AcDbLine
 62
7
  6
CONTINUOUS
 10
5.5229695565
 20
17.2563067279
 11
5.5229695565
 21
17.0063067279
  0
LINE
  5
3E9
100
AcDbEntity
  8
SMUSSO
100
AcDbLine
 62
7
  6
CONTINUOUS
 10
5.5229695565
 20
13.5063067279
 11
5.5229695565
 21
6.6063067279
  0
LINE
  5
3EA
100
AcDbEntity
  8
DRAFT
100
AcDbLine
 62
7
  6
CONTINUOUS
 10
5.5229695565
 20
6.6010702084
 11
5.5229695565
 21
4.1115432473
  0
LINE
  5
3EB
100
AcDbEntity
  8
GUSCI_ESTERNI
100
AcDbLine
 62
7
  6
CONTINUOUS
 10
5.5229695565
 20
6.6010702084
 11
5.5229695565
 21
4.1115432473
  0
LINE
  5
3EC
100
AcDbEntity
  8
DRAFT
100
AcDbLine
 62
7
  6
CONTINUOUS
 10
5.5229695565
 20
4.1063067279
 11
5.5229695565
 21
2.0063067279
  0
LINE
  5
3ED
100
AcDbEntity
  8
DRAFT
100
AcDbLine
 62
7
  6
CONTINUOUS
 10
5.5229695565
 20
1.2063067279
 11
5.5229695565
 21
-11.5236932721
  0
LINE
  5
3EE
100
AcDbEntity
  8
SMUSSO
100
AcDbLine
 62
7
  6
CONTINUOUS
 10
5.5229695565
 20
-12.5436932721
 11
5.5229695565
 21
-13.2936932721
  0
LINE
  5
3EF
100
AcDbEntity
  8
SMUSSO
100
AcDbLine
 62
7
  6
CONTINUOUS
 10
5.5229695565
 20
-16.7936932721
 11
5.5229695565
 21
-17.5436932721
  0
LINE
  5
3F0
100
AcDbEntity
  8
RACCORDO
100
AcDbLine
 62
7
  6
CONTINUOUS
 10
5.5229695565
 20
-18.5636932721
 11
5.5229695565
 21
-21.6523439846
  0
LINE
  5
3F1
100
AcDbEntity
  8
DRAFT
100
AcDbLine
 62
7
  6
CONTINUOUS
 10
5.5229695565
 20
-18.5262395366
 11
5.5229695565
 21
-17.5436932721
  0
LINE
  5
3F2
100
AcDbEntity
  8
GUSCI_ESTERNI
100
AcDbLine
 62
7
  6
CONTINUOUS
 10
5.5229695565
 20
-20.4937313491
 11
5.5229695565
 21
-17.5686932721
  0
LINE
  5
3F3
100
AcDbEntity
  8
ASSI
100
AcDbLine
 62
7
  6
CONTINUOUS
 10
5.5229695565
 20
-20.7162054605
 11
5.5229695565
 21
-17.5686932721
  0
LINE
  5
3F4
100
AcDbEntity
  8
GUSCI_ESTERNI
100
AcDbLine
 62
7
  6
CONTINUOUS
 10
5.5229695565
 20
-17.5436932721
 11
5.5229695565
 21
-16.7936932721
  0
LINE
  5
3F5
100
AcDbEntity
  8
ASSI
100
AcDbLine
 62
7
  6
CONTINUOUS
 10
5.5229695565
 20
-17.5436932721
 11
5.5229695565
 21
-16.7936932721
  0
LINE
  5
3F6
100
AcDbEntity
  8
GUSCI_ESTERNI
100
AcDbLine
 62
7
  6
CONTINUOUS
 10
5.5229695565
 20
-13.2936932721
 11
5.5229695565
 21
-12.5436932721
  0
LINE
  5
3F7
100
AcDbEntity
  8
ASSI
100
AcDbLine
 62
7
  6
CONTINUOUS
 10
5.5229695565
 20
-13.2936932721
 11
5.5229695565
 21
-12.5436932721
  0
LINE
  5
3F8
100
AcDbEntity
  8
DRAFT
100
AcDbLine
 62
7
  6
CONTINUOUS
 10
5.5229695565
 20
-12.5436932721
 11
5.5229695565
 21
-11.5611470077
  0
LINE
  5
3F9
100
AcDbEntity
  8
GUSCI_ESTERNI
100
AcDbLine
 62
7
  6
CONTINUOUS
 10
5.5229695565
 20
-12.5186932721
 11
5.5229695565
 21
1.2063067279
  0
LINE
  5
3FA
100
AcDbEntity
  8
ASSI
100
AcDbLine
 62
7
  6
CONTINUOUS
 10
5.5229695565
 20
-12.5186932721
 11
5.5229695565
 21
1.2063067279
  0
LINE
  5
3FB
100
AcDbEntity
  8
GUSCI_ESTERNI
100
AcDbLine
 62
7
  6
CONTINUOUS
 10
5.5229695565
 20
2.0063067279
 11
5.5229695565
 21
4.1063067279
  0
LINE
  5
3FC
100
AcDbEntity
  8
GUSCI_ESTERNI
100
AcDbLine
 62
7
  6
CONTINUOUS
 10
5.5229695565
 20
6.6063067279
 11
5.5229695565
 21
13.5063067279
  0
LINE
  5
3FD
100
AcDbEntity
  8
ASSI
100
AcDbLine
 62
7
  6
CONTINUOUS
 10
5.5229695565
 20
2.0063067279
 11
5.5229695565
 21
13.5063067279
  0
LINE
  5
3FE
100
AcDbEntity
  8
GUSCI_ESTERNI
100
AcDbLine
 62
7
  6
CONTINUOUS
 10
5.5229695565
 20
17.0063067279
 11
5.5229695565
 21
20.7063448048
  0
LINE
  5
3FF
100
AcDbEntity
  8
ASSI
100
AcDbLine
 62
7
  6
CONTINUOUS
 10
5.5229695565
 20
17.0063067279
 11
5.5229695565
 21
20.9288333486
  0
LINE
  5
400
100
AcDbEntity
  8
GUSCI_ESTERNI
100
AcDbLine
 62
7
  6
CONTINUOUS
 10
5.8729695565
 20
6.3626896462
 11
5.8729695565
 21
4.4563067279
  0
LINE
  5
401
100
AcDbEntity
  8
ASSI
100
AcDbLine
 62
7
  6
CONTINUOUS
 10
5.8729695565
 20
6.3626896462
 11
5.8729695565
 21
4.4563067279
  0
LINE
  5
402
100
AcDbEntity
  8
0
100
AcDbLine
 62
7
  6
CONTINUOUS
 10
4.0410023433
 20
-23.1436932721
 11
4.0729695565
 21
-22.3147226816
  0
LINE
  5
403
100
AcDbEntity
  8
ASSI
100
AcDbLine
 62
7
  6
CONTINUOUS
 10
4.0410023433
 20
-23.1436932721
 11
4.0729695565
 21
-22.3147226816
  0
LINE
  5
404
100
AcDbEntity
  8
DRAFT
100
AcDbLine
 62
7
  6
CONTINUOUS
 10
-12.5015810928
 20
-20.1682439214
 11
-12.3270304435
 21
-19.9936932721
  0
LINE
  5
405
100
AcDbEntity
  8
ASSI
100
AcDbLine
 62
7
  6
CONTINUOUS
 10
-12.5015810928
 20
-20.1682439214
 11
-12.3270304435
 21
-19.9936932721
  0
LINE
  5
406
100
AcDbEntity
  8
DRAFT
100
AcDbLine
 62
7
  6
CONTINUOUS
 10
-5.3770304435
 20
4.1063067279
 11
-1.3770304435
 21
4.1063067279
  0
LINE
  5
407
100
AcDbEntity
  8
DRAFT
100
AcDbLine
 62
7
  6
CONTINUOUS
 10
5.5229695565
 20
4.1063067279
 11
0.0729695565
 21
4.1063067279
  0
LINE
  5
408
100
AcDbEntity
  8
DRAFT
100
AcDbLine
 62
7
  6
CONTINUOUS
 10
-5.3770304435
 20
4.1115432473
 11
-1.382266963
 21
4.1115432473
  0
LINE
  5
409
100
AcDbEntity
  8
DRAFT
100
AcDbLine
 62
7
  6
CONTINUOUS
 10
0.0782060759
 20
4.1115432473
 11
5.5229695565
 21
4.1115432473
  0
LINE
  5
40A
100
AcDbEntity
  8
0
100
AcDbLine
 62
7
  6
CONTINUOUS
 10
3.7929695565
 20
4.4563067279
 11
4.0629695565
 21
4.4563067279
  0
LINE
  5
40B
100
AcDbEntity
  8
0
100
AcDbLine
 62
7
  6
CONTINUOUS
 10
4.6929695994
 20
4.4563067279
 11
4.9629695994
 21
4.4563067279
  0
LINE
  5
40C
100
AcDbEntity
  8
GUSCI_ESTERNI
100
AcDbLine
 62
7
  6
CONTINUOUS
 10
5.8729695565
 20
4.4563067279
 11
6.1646362162
 21
4.4563067279
  0
LINE
  5
40D
100
AcDbEntity
  8
ASSI
100
AcDbLine
 62
7
  6
CONTINUOUS
 10
5.8729695565
 20
4.4563067279
 11
6.1646362162
 21
4.4563067279
  0
LINE
  5
40E
100
AcDbEntity
  8
GUSCI_ESTERNI
100
AcDbLine
 62
7
  6
CONTINUOUS
 10
6.8063029176
 20
4.4563067279
 11
7.0979695565
 21
4.4563067279
  0
LINE
  5
40F
100
AcDbEntity
  8
ASSI
100
AcDbLine
 62
7
  6
CONTINUOUS
 10
6.8063029176
 20
4.4563067279
 11
7.0979695565
 21
4.4563067279
  0
LINE
  5
410
100
AcDbEntity
  8
GUSCI_ESTERNI
100
AcDbLine
 62
7
  6
CONTINUOUS
 10
7.7396362788
 20
4.4563067279
 11
8.0313028342
 21
4.4563067279
  0
LINE
  5
411
100
AcDbEntity
  8
ASSI
100
AcDbLine
 62
7
  6
CONTINUOUS
 10
7.7396362788
 20
4.4563067279
 11
8.0313028342
 21
4.4563067279
  0
LINE
  5
412
100
AcDbEntity
  8
GUSCI_ESTERNI
100
AcDbLine
 62
7
  6
CONTINUOUS
 10
8.4979695565
 20
4.4563067279
 11
8.7896361119
 21
4.4563067279
  0
LINE
  5
413
100
AcDbEntity
  8
ASSI
100
AcDbLine
 62
7
  6
CONTINUOUS
 10
8.4979695565
 20
4.4563067279
 11
8.7896361119
 21
4.4563067279
  0
LINE
  5
414
100
AcDbEntity
  8
GUSCI_ESTERNI
100
AcDbLine
 62
7
  6
CONTINUOUS
 10
9.431303001
 20
4.4563067279
 11
9.7229695565
 21
4.4563067279
  0
LINE
  5
415
100
AcDbEntity
  8
ASSI
100
AcDbLine
 62
7
  6
CONTINUOUS
 10
9.431303001
 20
4.4563067279
 11
9.7229695565
 21
4.4563067279
  0
LINE
  5
416
100
AcDbEntity
  8
GUSCI_ESTERNI
100
AcDbLine
 62
7
  6
CONTINUOUS
 10
10.3646361119
 20
4.4563067279
 11
10.656303001
 21
4.4563067279
  0
LINE
  5
417
100
AcDbEntity
  8
ASSI
100
AcDbLine
 62
7
  6
CONTINUOUS
 10
10.3646361119
 20
4.4563067279
 11
10.656303001
 21
4.4563067279
  0
LINE
  5
418
100
AcDbEntity
  8
0
100
AcDbLine
 62
7
  6
CONTINUOUS
 10
-5.0770304435
 20
5.8563067279
 11
-4.5770304435
 21
5.8563067279
  0
LINE
  5
419
100
AcDbEntity
  8
0
100
AcDbLine
 62
7
  6
CONTINUOUS
 10
-2.4936971897
 20
5.8563067279
 11
-1.7436971897
 21
5.8563067279
  0
LINE
  5
41A
100
AcDbEntity
  8
GUSCI_ESTERNI
100
AcDbLine
 62
7
  6
CONTINUOUS
 10
10.9229695565
 20
4.0591816418
 11
5.5229695565
 21
4.1063067279
  0
LINE
  5
41B
100
AcDbEntity
  8
ASSI
100
AcDbLine
 62
7
  6
CONTINUOUS
 10
10.9229695565
 20
4.0591816418
 11
5.5229695565
 21
4.1063067279
  0
LINE
  5
41C
100
AcDbEntity
  8
DRAFT
100
AcDbLine
 62
7
  6
CONTINUOUS
 10
0.0729695565
 20
6.6063067279
 11
0.0782060759
 21
6.6010702084
  0
LINE
  5
41D
100
AcDbEntity
  8
DRAFT
100
AcDbLine
 62
7
  6
CONTINUOUS
 10
-12.5015810928
 20
20.3808573771
 11
-12.3270304435
 21
20.2063067279
  0
LINE
  5
41E
100
AcDbEntity
  8
ASSI
100
AcDbLine
 62
7
  6
CONTINUOUS
 10
-12.5015810928
 20
20.3808573771
 11
-12.3270304435
 21
20.2063067279
  0
LINE
  5
41F
100
AcDbEntity
  8
0
100
AcDbLine
 62
7
  6
CONTINUOUS
 10
-5.1399502831
 20
13.5063067279
 11
-5.3399426677
 21
13.7063067279
  0
LINE
  5
420
100
AcDbEntity
  8
0
100
AcDbLine
 62
7
  6
CONTINUOUS
 10
6.0729695565
 20
25.0225301582
 11
6.0729695565
 21
23.3563067279
  0
LINE
  5
421
100
AcDbEntity
  8
0
100
AcDbLine
 62
7
  6
CONTINUOUS
 10
6.0729695565
 20
-24.8099167025
 11
6.0729695565
 21
-23.1436932721
  0
LINE
  5
422
100
AcDbEntity
  8
GUSCI_ESTERNI
100
AcDbLine
 62
7
  6
CONTINUOUS
 10
6.1646362162
 20
4.4563067279
 11
6.1646362162
 21
5.9456684193
  0
LINE
  5
423
100
AcDbEntity
  8
ASSI
100
AcDbLine
 62
7
  6
CONTINUOUS
 10
6.1646362162
 20
4.4563067279
 11
6.1646362162
 21
5.9456684193
  0
LINE
  5
424
100
AcDbEntity
  8
GUSCI_ESTERNI
100
AcDbLine
 62
7
  6
CONTINUOUS
 10
6.1646362162
 20
6.1839662633
 11
6.1646362162
 21
6.3626896462
  0
LINE
  5
425
100
AcDbEntity
  8
ASSI
100
AcDbLine
 62
7
  6
CONTINUOUS
 10
6.1646362162
 20
6.1839662633
 11
6.1646362162
 21
6.3626896462
  0
LINE
  5
426
100
AcDbEntity
  8
RACCORDO
100
AcDbLine
 62
7
  6
CONTINUOUS
 10
6.3410443097
 20
-22.5842698874
 11
6.3410443097
 21
-22.3147226816
  0
LINE
  5
427
100
AcDbEntity
  8
ASSI
100
AcDbLine
 62
7
  6
CONTINUOUS
 10
6.3410443097
 20
-22.5842698874
 11
6.3410443097
 21
-22.3147226816
  0
LINE
  5
428
100
AcDbEntity
  8
RACCORDO
100
AcDbLine
 62
7
  6
CONTINUOUS
 10
6.3410443097
 20
22.5273361373
 11
6.3410443097
 21
22.7968833431
  0
LINE
  5
429
100
AcDbEntity
  8
ASSI
100
AcDbLine
 62
7
  6
CONTINUOUS
 10
6.3410443097
 20
22.5273361373
 11
6.3410443097
 21
22.7968833431
  0
LINE
  5
42A
100
AcDbEntity
  8
0
100
AcDbLine
 62
7
  6
CONTINUOUS
 10
6.7164695565
 20
-13.2936932721
 11
6.7164695565
 21
-16.7936932721
  0
LINE
  5
42B
100
AcDbEntity
  8
0
100
AcDbLine
 62
7
  6
CONTINUOUS
 10
6.7164695565
 20
13.5063067279
 11
6.7164695565
 21
17.0063067279
  0
LINE
  5
42C
100
AcDbEntity
  8
GUSCI_ESTERNI
100
AcDbLine
 62
7
  6
CONTINUOUS
 10
6.8063029176
 20
5.8860939583
 11
6.8063029176
 21
4.4563067279
  0
LINE
  5
42D
100
AcDbEntity
  8
ASSI
100
AcDbLine
 62
7
  6
CONTINUOUS
 10
6.8063029176
 20
5.8860939583
 11
6.8063029176
 21
4.4563067279
  0
LINE
  5
42E
100
AcDbEntity
  8
0
100
AcDbLine
 62
7
  6
CONTINUOUS
 10
7.0229695565
 20
17.0063067279
 11
7.0229695565
 21
13.5063067279
  0
LINE
  5
42F
100
AcDbEntity
  8
0
100
AcDbLine
 62
7
  6
CONTINUOUS
 10
7.0229695565
 20
-16.7936932721
 11
7.0229695565
 21
-13.2936932721
  0
LINE
  5
430
100
AcDbEntity
  8
GUSCI_ESTERNI
100
AcDbLine
 62
7
  6
CONTINUOUS
 10
7.0979695565
 20
4.4563067279
 11
7.0979695565
 21
5.8860939583
  0
LINE
  5
431
100
AcDbEntity
  8
ASSI
100
AcDbLine
 62
7
  6
CONTINUOUS
 10
7.0979695565
 20
4.4563067279
 11
7.0979695565
 21
5.8860939583
  0
LINE
  5
432
100
AcDbEntity
  8
GUSCI_ESTERNI
100
AcDbLine
 62
7
  6
CONTINUOUS
 10
7.7396362788
 20
5.8860939583
 11
7.7396362788
 21
4.4563067279
  0
LINE
  5
433
100
AcDbEntity
  8
ASSI
100
AcDbLine
 62
7
  6
CONTINUOUS
 10
7.7396362788
 20
5.8860939583
 11
7.7396362788
 21
4.4563067279
  0
LINE
  5
434
100
AcDbEntity
  8
GUSCI_ESTERNI
100
AcDbLine
 62
7
  6
CONTINUOUS
 10
9.7229695565
 20
5.8860939583
 11
9.781303001
 21
6.0052428803
  0
LINE
  5
435
100
AcDbEntity
  8
ASSI
100
AcDbLine
 62
7
  6
CONTINUOUS
 10
9.7229695565
 20
5.8860939583
 11
9.781303001
 21
6.0052428803
  0
LINE
  5
436
100
AcDbEntity
  8
0
100
AcDbLine
 62
7
  6
CONTINUOUS
 10
-5.3770304435
 20
-13.5936932721
 11
-5.0770304435
 21
-13.2936932721
  0
LINE
  5
437
100
AcDbEntity
  8
RACCORDO
100
AcDbLine
 62
7
  6
CONTINUOUS
 10
0.0729695565
 20
-8.8936932721
 11
0.0685299672
 21
-8.8981328614
  0
LINE
  5
438
100
AcDbEntity
  8
DRAFT
100
AcDbLine
 62
7
  6
CONTINUOUS
 10
-10.9270304435
 20
-20.7936932721
 11
-10.822300054
 21
-20.6889628826
  0
LINE
  5
439
100
AcDbEntity
  8
ASSI
100
AcDbLine
 62
7
  6
CONTINUOUS
 10
-10.9270304435
 20
-20.7936932721
 11
-10.822300054
 21
-20.6889628826
  0
LINE
  5
43A
100
AcDbEntity
  8
RACCORDO
100
AcDbLine
 62
253
  6
CONTINUOUS
 10
-2.1769733281
 20
-12.5436932721
 11
-2.1595195926
 21
-12.5262395366
  0
LINE
  5
43B
100
AcDbEntity
  8
GUSCI_ESTERNI
100
AcDbLine
 62
7
  6
CONTINUOUS
 10
10.9229695565
 20
6.6534318139
 11
5.5229695565
 21
6.6063067279
  0
LINE
  5
43C
100
AcDbEntity
  8
ASSI
100
AcDbLine
 62
7
  6
CONTINUOUS
 10
10.9229695565
 20
6.6534318139
 11
5.5229695565
 21
6.6063067279
  0
LINE
  5
43D
100
AcDbEntity
  8
GUSCI_ESTERNI
100
AcDbLine
 62
7
  6
CONTINUOUS
 10
6.4563028759
 20
6.1243918023
 11
6.5729695565
 21
6.1243918023
  0
LINE
  5
43E
100
AcDbEntity
  8
ASSI
100
AcDbLine
 62
7
  6
CONTINUOUS
 10
6.4563028759
 20
6.1243918023
 11
6.5729695565
 21
6.1243918023
  0
LINE
  5
43F
100
AcDbEntity
  8
GUSCI_ESTERNI
100
AcDbLine
 62
7
  6
CONTINUOUS
 10
7.3313028342
 20
6.1243918023
 11
7.5063028342
 21
6.1243918023
  0
LINE
  5
440
100
AcDbEntity
  8
ASSI
100
AcDbLine
 62
7
  6
CONTINUOUS
 10
7.3313028342
 20
6.1243918023
 11
7.5063028342
 21
6.1243918023
  0
LINE
  5
441
100
AcDbEntity
  8
GUSCI_ESTERNI
100
AcDbLine
 62
7
  6
CONTINUOUS
 10
9.081303001
 20
6.1243918023
 11
9.1979695565
 21
6.1243918023
  0
LINE
  5
442
100
AcDbEntity
  8
ASSI
100
AcDbLine
 62
7
  6
CONTINUOUS
 10
9.081303001
 20
6.1243918023
 11
9.1979695565
 21
6.1243918023
  0
LINE
  5
443
100
AcDbEntity
  8
GUSCI_ESTERNI
100
AcDbLine
 62
7
  6
CONTINUOUS
 10
9.956303001
 20
6.1243918023
 11
10.131303001
 21
6.1243918023
  0
LINE
  5
444
100
AcDbEntity
  8
ASSI
100
AcDbLine
 62
7
  6
CONTINUOUS
 10
9.956303001
 20
6.1243918023
 11
10.131303001
 21
6.1243918023
  0
LINE
  5
445
100
AcDbEntity
  8
0
100
AcDbLine
 62
7
  6
CONTINUOUS
 10
4.9629695994
 20
6.2563067279
 11
4.6929695994
 21
6.2563067279
  0
LINE
  5
446
100
AcDbEntity
  8
0
100
AcDbLine
 62
7
  6
CONTINUOUS
 10
4.0629695565
 20
6.2563067279
 11
3.7929695565
 21
6.2563067279
  0
LINE
  5
447
100
AcDbEntity
  8
GUSCI_ESTERNI
100
AcDbLine
 62
7
  6
CONTINUOUS
 10
10.2479695565
 20
6.3626896462
 11
10.0146361119
 21
6.3626896462
  0
LINE
  5
448
100
AcDbEntity
  8
ASSI
100
AcDbLine
 62
7
  6
CONTINUOUS
 10
10.2479695565
 20
6.3626896462
 11
10.0146361119
 21
6.3626896462
  0
LINE
  5
449
100
AcDbEntity
  8
GUSCI_ESTERNI
100
AcDbLine
 62
7
  6
CONTINUOUS
 10
9.3146361119
 20
6.3626896462
 11
9.081303001
 21
6.3626896462
  0
LINE
  5
44A
100
AcDbEntity
  8
ASSI
100
AcDbLine
 62
7
  6
CONTINUOUS
 10
9.3146361119
 20
6.3626896462
 11
9.081303001
 21
6.3626896462
  0
LINE
  5
44B
100
AcDbEntity
  8
GUSCI_ESTERNI
100
AcDbLine
 62
7
  6
CONTINUOUS
 10
8.7896361119
 20
6.3626896462
 11
8.4979695565
 21
6.3626896462
  0
LINE
  5
44C
100
AcDbEntity
  8
ASSI
100
AcDbLine
 62
7
  6
CONTINUOUS
 10
8.7896361119
 20
6.3626896462
 11
8.4979695565
 21
6.3626896462
  0
LINE
  5
44D
100
AcDbEntity
  8
GUSCI_ESTERNI
100
AcDbLine
 62
7
  6
CONTINUOUS
 10
7.6229695565
 20
6.3626896462
 11
7.3896362788
 21
6.3626896462
  0
LINE
  5
44E
100
AcDbEntity
  8
ASSI
100
AcDbLine
 62
7
  6
CONTINUOUS
 10
7.6229695565
 20
6.3626896462
 11
7.3896362788
 21
6.3626896462
  0
LINE
  5
44F
100
AcDbEntity
  8
GUSCI_ESTERNI
100
AcDbLine
 62
7
  6
CONTINUOUS
 10
6.6896361953
 20
6.3626896462
 11
6.4563028759
 21
6.3626896462
  0
LINE
  5
450
100
AcDbEntity
  8
ASSI
100
AcDbLine
 62
7
  6
CONTINUOUS
 10
6.6896361953
 20
6.3626896462
 11
6.4563028759
 21
6.3626896462
  0
LINE
  5
451
100
AcDbEntity
  8
GUSCI_ESTERNI
100
AcDbLine
 62
7
  6
CONTINUOUS
 10
6.1646362162
 20
6.3626896462
 11
5.8729695565
 21
6.3626896462
  0
LINE
  5
452
100
AcDbEntity
  8
ASSI
100
AcDbLine
 62
7
  6
CONTINUOUS
 10
6.1646362162
 20
6.3626896462
 11
5.8729695565
 21
6.3626896462
  0
LINE
  5
453
100
AcDbEntity
  8
DRAFT
100
AcDbLine
 62
7
  6
CONTINUOUS
 10
5.5229695565
 20
6.6010702084
 11
0.0782060759
 21
6.6010702084
  0
LINE
  5
454
100
AcDbEntity
  8
DRAFT
100
AcDbLine
 62
7
  6
CONTINUOUS
 10
5.5229695565
 20
6.6063067279
 11
0.0729695565
 21
6.6063067279
  0
LINE
  5
455
100
AcDbEntity
  8
DRAFT
100
AcDbLine
 62
7
  6
CONTINUOUS
 10
-10.822300054
 20
20.9015763383
 11
-10.9270304435
 21
21.0063067279
  0
LINE
  5
456
100
AcDbEntity
  8
ASSI
100
AcDbLine
 62
7
  6
CONTINUOUS
 10
-10.822300054
 20
20.9015763383
 11
-10.9270304435
 21
21.0063067279
  0
LINE
  5
457
100
AcDbEntity
  8
DRAFT
100
AcDbLine
 62
7
  6
CONTINUOUS
 10
-3.8270304435
 20
22.567905585
 11
-3.8950632304
 21
22.7127826239
  0
LINE
  5
458
100
AcDbEntity
  8
ASSI
100
AcDbLine
 62
7
  6
CONTINUOUS
 10
-3.8270304435
 20
22.567905585
 11
-3.8950632304
 21
22.7127826239
  0
LINE
  5
459
100
AcDbEntity
  8
DRAFT
100
AcDbLine
 62
7
  6
CONTINUOUS
 10
6.3410443097
 20
22.5273361373
 11
6.2729695565
 21
23.3563067279
  0
LINE
  5
45A
100
AcDbEntity
  8
ASSI
100
AcDbLine
 62
7
  6
CONTINUOUS
 10
6.3410443097
 20
22.5273361373
 11
6.2729695565
 21
23.3563067279
  0
LINE
  5
45B
100
AcDbEntity
  8
RACCORDO
100
AcDbLine
 62
7
  6
CONTINUOUS
 10
8.0048948032
 20
22.7968833431
 11
8.0048948032
 21
22.7808573771
  0
LINE
  5
45C
100
AcDbEntity
  8
ASSI
100
AcDbLine
 62
7
  6
CONTINUOUS
 10
8.0048948032
 20
22.7968833431
 11
8.0048948032
 21
22.7808573771
  0
LINE
  5
45D
100
AcDbEntity
  8
RACCORDO
100
AcDbLine
 62
7
  6
CONTINUOUS
 10
8.0048948032
 20
-22.3936932721
 11
8.0048948032
 21
-22.5842698874
  0
LINE
  5
45E
100
AcDbEntity
  8
ASSI
100
AcDbLine
 62
7
  6
CONTINUOUS
 10
8.0048948032
 20
-22.3936932721
 11
8.0048948032
 21
-22.5842698874
  0
LINE
  5
45F
100
AcDbEntity
  8
GUSCI_ESTERNI
100
AcDbLine
 62
7
  6
CONTINUOUS
 10
8.0313028342
 20
4.4563067279
 11
8.0313028342
 21
5.8860939583
  0
LINE
  5
460
100
AcDbEntity
  8
ASSI
100
AcDbLine
 62
7
  6
CONTINUOUS
 10
8.0313028342
 20
4.4563067279
 11
8.0313028342
 21
5.8860939583
  0
LINE
  5
461
100
AcDbEntity
  8
DRAFT
100
AcDbLine
 62
7
  6
CONTINUOUS
 10
8.0729695565
 20
23.3563067279
 11
8.0729695565
 21
22.7808573771
  0
LINE
  5
462
100
AcDbEntity
  8
ASSI
100
AcDbLine
 62
7
  6
CONTINUOUS
 10
8.0729695565
 20
23.3563067279
 11
8.0729695565
 21
22.7808573771
  0
LINE
  5
463
100
AcDbEntity
  8
DRAFT
100
AcDbLine
 62
7
  6
CONTINUOUS
 10
8.0729695565
 20
-22.3936932721
 11
8.0729695565
 21
-23.1436932721
  0
LINE
  5
464
100
AcDbEntity
  8
ASSI
100
AcDbLine
 62
7
  6
CONTINUOUS
 10
8.0729695565
 20
-22.3936932721
 11
8.0729695565
 21
-23.1436932721
  0
LINE
  5
465
100
AcDbEntity
  8
GUSCI_ESTERNI
100
AcDbLine
 62
7
  6
CONTINUOUS
 10
8.4979695565
 20
6.3626896462
 11
8.4979695565
 21
4.4563067279
  0
LINE
  5
466
100
AcDbEntity
  8
ASSI
100
AcDbLine
 62
7
  6
CONTINUOUS
 10
8.4979695565
 20
6.3626896462
 11
8.4979695565
 21
4.4563067279
  0
LINE
  5
467
100
AcDbEntity
  8
GUSCI_ESTERNI
100
AcDbLine
 62
253
  6
CONTINUOUS
 10
8.6729695565
 20
17.2494343195
 11
8.6729695565
 21
17.0063067279
  0
LINE
  5
468
100
AcDbEntity
  8
ASSI
100
AcDbLine
 62
253
  6
CONTINUOUS
 10
8.6729695565
 20
17.2494343195
 11
8.6729695565
 21
17.0063067279
  0
LINE
  5
469
100
AcDbEntity
  8
GUSCI_ESTERNI
100
AcDbLine
 62
253
  6
CONTINUOUS
 10
8.6729695565
 20
-13.0505656805
 11
8.6729695565
 21
-13.2936932721
  0
LINE
  5
46A
100
AcDbEntity
  8
ASSI
100
AcDbLine
 62
253
  6
CONTINUOUS
 10
8.6729695565
 20
-13.0505656805
 11
8.6729695565
 21
-13.2936932721
  0
LINE
  5
46B
100
AcDbEntity
  8
GUSCI_ESTERNI
100
AcDbLine
 62
253
  6
CONTINUOUS
 10
8.6729695565
 20
-17.0368208638
 11
8.6729695565
 21
-16.7936932721
  0
LINE
  5
46C
100
AcDbEntity
  8
ASSI
100
AcDbLine
 62
253
  6
CONTINUOUS
 10
8.6729695565
 20
-17.0368208638
 11
8.6729695565
 21
-16.7936932721
  0
LINE
  5
46D
100
AcDbEntity
  8
GUSCI_ESTERNI
100
AcDbLine
 62
253
  6
CONTINUOUS
 10
8.6729695565
 20
13.2631791362
 11
8.6729695565
 21
13.5063067279
  0
LINE
  5
46E
100
AcDbEntity
  8
ASSI
100
AcDbLine
 62
253
  6
CONTINUOUS
 10
8.6729695565
 20
13.2631791362
 11
8.6729695565
 21
13.5063067279
  0
LINE
  5
46F
100
AcDbEntity
  8
GUSCI_ESTERNI
100
AcDbLine
 62
7
  6
CONTINUOUS
 10
8.7896361119
 20
4.4563067279
 11
8.7896361119
 21
5.9456684193
  0
LINE
  5
470
100
AcDbEntity
  8
ASSI
100
AcDbLine
 62
7
  6
CONTINUOUS
 10
8.7896361119
 20
4.4563067279
 11
8.7896361119
 21
5.9456684193
  0
LINE
  5
471
100
AcDbEntity
  8
GUSCI_ESTERNI
100
AcDbLine
 62
7
  6
CONTINUOUS
 10
8.7896361119
 20
6.1839662633
 11
8.7896361119
 21
6.3626896462
  0
LINE
  5
472
100
AcDbEntity
  8
ASSI
100
AcDbLine
 62
7
  6
CONTINUOUS
 10
8.7896361119
 20
6.1839662633
 11
8.7896361119
 21
6.3626896462
  0
LINE
  5
473
100
AcDbEntity
  8
GUSCI_ESTERNI
100
AcDbLine
 62
7
  6
CONTINUOUS
 10
9.431303001
 20
5.8860939583
 11
9.431303001
 21
4.4563067279
  0
LINE
  5
474
100
AcDbEntity
  8
ASSI
100
AcDbLine
 62
7
  6
CONTINUOUS
 10
9.431303001
 20
5.8860939583
 11
9.431303001
 21
4.4563067279
  0
LINE
  5
475
100
AcDbEntity
  8
DRAFT
100
AcDbLine
 62
7
  6
CONTINUOUS
 10
6.2729695565
 20
-23.1436932721
 11
6.3410443097
 21
-22.3147226816
  0
LINE
  5
476
100
AcDbEntity
  8
ASSI
100
AcDbLine
 62
7
  6
CONTINUOUS
 10
6.2729695565
 20
-23.1436932721
 11
6.3410443097
 21
-22.3147226816
  0
LINE
  5
477
100
AcDbEntity
  8
DRAFT
100
AcDbLine
 62
7
  6
CONTINUOUS
 10
0.0729695565
 20
-11.5436932721
 11
0.0598792548
 21
-11.5567835738
  0
LINE
  5
478
100
AcDbEntity
  8
RACCORDO
100
AcDbLine
 62
253
  6
CONTINUOUS
 10
-0.6770304435
 20
-14.0436361567
 11
-0.659576708
 21
-14.0261824212
  0
LINE
  5
479
100
AcDbEntity
  8
GUSCI_ESTERNI
100
AcDbLine
 62
7
  6
CONTINUOUS
 10
10.9229695565
 20
9.0246836845
 11
9.7229695565
 21
9.0428221386
  0
LINE
  5
47A
100
AcDbEntity
  8
ASSI
100
AcDbLine
 62
7
  6
CONTINUOUS
 10
10.9229695565
 20
9.0246836845
 11
9.7229695565
 21
9.0428221386
  0
LINE
  5
47B
100
AcDbEntity
  8
GUSCI_ESTERNI
100
AcDbLine
 62
7
  6
CONTINUOUS
 10
6.8646361953
 20
6.3031151852
 11
6.6896361953
 21
6.3626896462
  0
LINE
  5
47C
100
AcDbEntity
  8
ASSI
100
AcDbLine
 62
7
  6
CONTINUOUS
 10
6.8646361953
 20
6.3031151852
 11
6.6896361953
 21
6.3626896462
  0
LINE
  5
47D
100
AcDbEntity
  8
GUSCI_ESTERNI
100
AcDbLine
 62
7
  6
CONTINUOUS
 10
7.7979695565
 20
6.3031151852
 11
7.6229695565
 21
6.3626896462
  0
LINE
  5
47E
100
AcDbEntity
  8
ASSI
100
AcDbLine
 62
7
  6
CONTINUOUS
 10
7.7979695565
 20
6.3031151852
 11
7.6229695565
 21
6.3626896462
  0
LINE
  5
47F
100
AcDbEntity
  8
GUSCI_ESTERNI
100
AcDbLine
 62
7
  6
CONTINUOUS
 10
9.4896361119
 20
6.3031151852
 11
9.3146361119
 21
6.3626896462
  0
LINE
  5
480
100
AcDbEntity
  8
ASSI
100
AcDbLine
 62
7
  6
CONTINUOUS
 10
9.4896361119
 20
6.3031151852
 11
9.3146361119
 21
6.3626896462
  0
LINE
  5
481
100
AcDbEntity
  8
GUSCI_ESTERNI
100
AcDbLine
 62
7
  6
CONTINUOUS
 10
10.4229695565
 20
6.3031151852
 11
10.2479695565
 21
6.3626896462
  0
LINE
  5
482
100
AcDbEntity
  8
ASSI
100
AcDbLine
 62
7
  6
CONTINUOUS
 10
10.4229695565
 20
6.3031151852
 11
10.2479695565
 21
6.3626896462
  0
LINE
  5
483
100
AcDbEntity
  8
GUSCI_ESTERNI
100
AcDbLine
 62
7
  6
CONTINUOUS
 10
6.5729695565
 20
6.1243918023
 11
6.6896361953
 21
6.0648173413
  0
LINE
  5
484
100
AcDbEntity
  8
ASSI
100
AcDbLine
 62
7
  6
CONTINUOUS
 10
6.5729695565
 20
6.1243918023
 11
6.6896361953
 21
6.0648173413
  0
LINE
  5
485
100
AcDbEntity
  8
GUSCI_ESTERNI
100
AcDbLine
 62
7
  6
CONTINUOUS
 10
7.5063028342
 20
6.1243918023
 11
7.6229695565
 21
6.0648173413
  0
LINE
  5
486
100
AcDbEntity
  8
ASSI
100
AcDbLine
 62
7
  6
CONTINUOUS
 10
7.5063028342
 20
6.1243918023
 11
7.6229695565
 21
6.0648173413
  0
LINE
  5
487
100
AcDbEntity
  8
GUSCI_ESTERNI
100
AcDbLine
 62
7
  6
CONTINUOUS
 10
9.1979695565
 20
6.1243918023
 11
9.3146361119
 21
6.0648173413
  0
LINE
  5
488
100
AcDbEntity
  8
ASSI
100
AcDbLine
 62
7
  6
CONTINUOUS
 10
9.1979695565
 20
6.1243918023
 11
9.3146361119
 21
6.0648173413
  0
LINE
  5
489
100
AcDbEntity
  8
GUSCI_ESTERNI
100
AcDbLine
 62
7
  6
CONTINUOUS
 10
6.6896361953
 20
6.0648173413
 11
6.7479695565
 21
6.0052428803
  0
LINE
  5
48A
100
AcDbEntity
  8
ASSI
100
AcDbLine
 62
7
  6
CONTINUOUS
 10
6.6896361953
 20
6.0648173413
 11
6.7479695565
 21
6.0052428803
  0
LINE
  5
48B
100
AcDbEntity
  8
GUSCI_ESTERNI
100
AcDbLine
 62
7
  6
CONTINUOUS
 10
7.0396361953
 20
6.1243918023
 11
6.8646361953
 21
6.3031151852
  0
LINE
  5
48C
100
AcDbEntity
  8
ASSI
100
AcDbLine
 62
7
  6
CONTINUOUS
 10
7.0396361953
 20
6.1243918023
 11
6.8646361953
 21
6.3031151852
  0
LINE
  5
48D
100
AcDbEntity
  8
GUSCI_ESTERNI
100
AcDbLine
 62
7
  6
CONTINUOUS
 10
6.7479695565
 20
6.0052428803
 11
6.8063029176
 21
5.8860939583
  0
LINE
  5
48E
100
AcDbEntity
  8
ASSI
100
AcDbLine
 62
7
  6
CONTINUOUS
 10
6.7479695565
 20
6.0052428803
 11
6.8063029176
 21
5.8860939583
  0
LINE
  5
48F
100
AcDbEntity
  8
GUSCI_ESTERNI
100
AcDbLine
 62
7
  6
CONTINUOUS
 10
7.6813028342
 20
6.0052428803
 11
7.7396362788
 21
5.8860939583
  0
LINE
  5
490
100
AcDbEntity
  8
ASSI
100
AcDbLine
 62
7
  6
CONTINUOUS
 10
7.6813028342
 20
6.0052428803
 11
7.7396362788
 21
5.8860939583
  0
LINE
  5
491
100
AcDbEntity
  8
GUSCI_ESTERNI
100
AcDbLine
 62
7
  6
CONTINUOUS
 10
8.0313028342
 20
5.8860939583
 11
7.9146362788
 21
6.1839662633
  0
LINE
  5
492
100
AcDbEntity
  8
ASSI
100
AcDbLine
 62
7
  6
CONTINUOUS
 10
8.0313028342
 20
5.8860939583
 11
7.9146362788
 21
6.1839662633
  0
LINE
  5
493
100
AcDbEntity
  8
GUSCI_ESTERNI
100
AcDbLine
 62
7
  6
CONTINUOUS
 10
9.6639351417
 20
-14.0436932721
 11
9.6639351417
 21
-14.1595768714
  0
LINE
  5
494
100
AcDbEntity
  8
ASSI
100
AcDbLine
 62
7
  6
CONTINUOUS
 10
9.6639351417
 20
-14.0436932721
 11
9.6639351417
 21
-14.1595768714
  0
LINE
  5
495
100
AcDbEntity
  8
GUSCI_ESTERNI
100
AcDbLine
 62
7
  6
CONTINUOUS
 10
9.6639351417
 20
-15.9278096729
 11
9.6639351417
 21
-16.0436932721
  0
LINE
  5
496
100
AcDbEntity
  8
ASSI
100
AcDbLine
 62
7
  6
CONTINUOUS
 10
9.6639351417
 20
-15.9278096729
 11
9.6639351417
 21
-16.0436932721
  0
LINE
  5
497
100
AcDbEntity
  8
GUSCI_ESTERNI
100
AcDbLine
 62
7
  6
CONTINUOUS
 10
9.6639351417
 20
14.2563067279
 11
9.6639351417
 21
14.3721903271
  0
LINE
  5
498
100
AcDbEntity
  8
ASSI
100
AcDbLine
 62
7
  6
CONTINUOUS
 10
9.6639351417
 20
14.2563067279
 11
9.6639351417
 21
14.3721903271
  0
LINE
  5
499
100
AcDbEntity
  8
GUSCI_ESTERNI
100
AcDbLine
 62
7
  6
CONTINUOUS
 10
9.6639351417
 20
16.1404231286
 11
9.6639351417
 21
16.2563067279
  0
LINE
  5
49A
100
AcDbEntity
  8
ASSI
100
AcDbLine
 62
7
  6
CONTINUOUS
 10
9.6639351417
 20
16.1404231286
 11
9.6639351417
 21
16.2563067279
  0
LINE
  5
49B
100
AcDbEntity
  8
GUSCI_ESTERNI
100
AcDbLine
 62
7
  6
CONTINUOUS
 10
9.6729695565
 20
-15.7936932721
 11
9.6729695565
 21
-14.2936932721
  0
LINE
  5
49C
100
AcDbEntity
  8
ASSI
100
AcDbLine
 62
7
  6
CONTINUOUS
 10
9.6729695565
 20
-15.7936932721
 11
9.6729695565
 21
-14.2936932721
  0
LINE
  5
49D
100
AcDbEntity
  8
GUSCI_ESTERNI
100
AcDbLine
 62
7
  6
CONTINUOUS
 10
9.6729695565
 20
14.5063067279
 11
9.6729695565
 21
16.0063067279
  0
LINE
  5
49E
100
AcDbEntity
  8
ASSI
100
AcDbLine
 62
7
  6
CONTINUOUS
 10
9.6729695565
 20
14.5063067279
 11
9.6729695565
 21
16.0063067279
  0
LINE
  5
49F
100
AcDbEntity
  8
GUSCI_ESTERNI
100
AcDbLine
 62
7
  6
CONTINUOUS
 10
9.7229695565
 20
4.4563067279
 11
9.7229695565
 21
5.8860939583
  0
LINE
  5
4A0
100
AcDbEntity
  8
ASSI
100
AcDbLine
 62
7
  6
CONTINUOUS
 10
9.7229695565
 20
4.4563067279
 11
9.7229695565
 21
5.8860939583
  0
LINE
  5
4A1
100
AcDbEntity
  8
GUSCI_ESTERNI
100
AcDbLine
 62
7
  6
CONTINUOUS
 10
9.7229695565
 20
9.0428221386
 11
9.7229695565
 21
20.4063067279
  0
LINE
  5
4A2
100
AcDbEntity
  8
ASSI
100
AcDbLine
 62
7
  6
CONTINUOUS
 10
9.7229695565
 20
9.0428221386
 11
9.7229695565
 21
20.4063067279
  0
LINE
  5
4A3
100
AcDbEntity
  8
GUSCI_ESTERNI
100
AcDbLine
 62
7
  6
CONTINUOUS
 10
10.2229695565
 20
-16.0686932721
 11
10.2229695565
 21
-14.0186932721
  0
LINE
  5
4A4
100
AcDbEntity
  8
ASSI
100
AcDbLine
 62
7
  6
CONTINUOUS
 10
10.2229695565
 20
-16.0686932721
 11
10.2229695565
 21
-14.0186932721
  0
LINE
  5
4A5
100
AcDbEntity
  8
RACCORDO
100
AcDbLine
 62
7
  6
CONTINUOUS
 10
10.2984189072
 20
24.0308954533
 11
10.2984189072
 21
22.7808573771
  0
LINE
  5
4A6
100
AcDbEntity
  8
ASSI
100
AcDbLine
 62
7
  6
CONTINUOUS
 10
10.2984189072
 20
24.0308954533
 11
10.2984189072
 21
22.7808573771
  0
LINE
  5
4A7
100
AcDbEntity
  8
RACCORDO
100
AcDbLine
 62
7
  6
CONTINUOUS
 10
10.2984189072
 20
-22.3936932721
 11
10.2984189072
 21
-23.8182819976
  0
LINE
  5
4A8
100
AcDbEntity
  8
ASSI
100
AcDbLine
 62
7
  6
CONTINUOUS
 10
10.2984189072
 20
-22.3936932721
 11
10.2984189072
 21
-23.8182819976
  0
LINE
  5
4A9
100
AcDbEntity
  8
GUSCI_ESTERNI
100
AcDbLine
 62
7
  6
CONTINUOUS
 10
10.3646361119
 20
5.8860939583
 11
10.3646361119
 21
4.4563067279
  0
LINE
  5
4AA
100
AcDbEntity
  8
ASSI
100
AcDbLine
 62
7
  6
CONTINUOUS
 10
10.3646361119
 20
5.8860939583
 11
10.3646361119
 21
4.4563067279
  0
LINE
  5
4AB
100
AcDbEntity
  8
GUSCI_ESTERNI
100
AcDbLine
 62
7
  6
CONTINUOUS
 10
10.656303001
 20
4.4563067279
 11
10.656303001
 21
5.8860939583
  0
LINE
  5
4AC
100
AcDbEntity
  8
ASSI
100
AcDbLine
 62
7
  6
CONTINUOUS
 10
10.656303001
 20
4.4563067279
 11
10.656303001
 21
5.8860939583
  0
LINE
  5
4AD
100
AcDbEntity
  8
GUSCI_ESTERNI
100
AcDbLine
 62
7
  6
CONTINUOUS
 10
10.9229695565
 20
-19.3748436397
 11
10.9229695565
 21
19.5874570954
  0
LINE
  5
4AE
100
AcDbEntity
  8
ASSI
100
AcDbLine
 62
7
  6
CONTINUOUS
 10
10.9229695565
 20
-19.3748436397
 11
10.9229695565
 21
19.5874570954
  0
LINE
  5
4AF
100
AcDbEntity
  8
DRAFT
100
AcDbLine
 62
7
  6
CONTINUOUS
 10
10.9682391669
 20
-20.6889628826
 11
10.9682391669
 21
-18.5436932721
  0
LINE
  5
4B0
100
AcDbEntity
  8
ASSI
100
AcDbLine
 62
7
  6
CONTINUOUS
 10
10.9682391669
 20
-20.6889628826
 11
10.9682391669
 21
-18.5436932721
  0
LINE
  5
4B1
100
AcDbEntity
  8
DRAFT
100
AcDbLine
 62
7
  6
CONTINUOUS
 10
10.9682391669
 20
18.7563067279
 11
10.9682391669
 21
20.9015763383
  0
LINE
  5
4B2
100
AcDbEntity
  8
ASSI
100
AcDbLine
 62
7
  6
CONTINUOUS
 10
10.9682391669
 20
18.7563067279
 11
10.9682391669
 21
20.9015763383
  0
LINE
  5
4B3
100
AcDbEntity
  8
DRAFT
100
AcDbLine
 62
7
  6
CONTINUOUS
 10
11.0729695565
 20
21.0063067279
 11
11.0729695565
 21
18.7563067279
  0
LINE
  5
4B4
100
AcDbEntity
  8
ASSI
100
AcDbLine
 62
7
  6
CONTINUOUS
 10
11.0729695565
 20
21.0063067279
 11
11.0729695565
 21
18.7563067279
  0
LINE
  5
4B5
100
AcDbEntity
  8
DRAFT
100
AcDbLine
 62
7
  6
CONTINUOUS
 10
11.0729695565
 20
14.6563067279
 11
11.0729695565
 21
-14.4436932721
  0
LINE
  5
4B6
100
AcDbEntity
  8
ASSI
100
AcDbLine
 62
7
  6
CONTINUOUS
 10
11.0729695565
 20
14.6563067279
 11
11.0729695565
 21
-14.4436932721
  0
LINE
  5
4B7
100
AcDbEntity
  8
DRAFT
100
AcDbLine
 62
7
  6
CONTINUOUS
 10
11.0729695565
 20
-18.5436932721
 11
11.0729695565
 21
-20.7936932721
  0
LINE
  5
4B8
100
AcDbEntity
  8
ASSI
100
AcDbLine
 62
7
  6
CONTINUOUS
 10
11.0729695565
 20
-18.5436932721
 11
11.0729695565
 21
-20.7936932721
  0
LINE
  5
4B9
100
AcDbEntity
  8
RACCORDO
100
AcDbLine
 62
7
  6
CONTINUOUS
 10
-7.9270304435
 20
-23.1436932721
 11
-7.8675309063
 21
-23.0841937349
  0
LINE
  5
4BA
100
AcDbEntity
  8
ASSI
100
AcDbLine
 62
7
  6
CONTINUOUS
 10
-7.9270304435
 20
-23.1436932721
 11
-7.8675309063
 21
-23.0841937349
  0
LINE
  5
4BB
100
AcDbEntity
  8
0
100
AcDbLine
 62
7
  6
CONTINUOUS
 10
-1.7436971897
 20
9.8563067279
 11
-2.2436971897
 21
9.8563067279
  0
LINE
  5
4BC
100
AcDbEntity
  8
0
100
AcDbLine
 62
7
  6
CONTINUOUS
 10
-4.3270304435
 20
9.8563067279
 11
-5.0770304435
 21
9.8563067279
  0
LINE
  5
4BD
100
AcDbEntity
  8
GUSCI_ESTERNI
100
AcDbLine
 62
7
  6
CONTINUOUS
 10
10.131303001
 20
6.1243918023
 11
10.2479695565
 21
6.0648173413
  0
LINE
  5
4BE
100
AcDbEntity
  8
ASSI
100
AcDbLine
 62
7
  6
CONTINUOUS
 10
10.131303001
 20
6.1243918023
 11
10.2479695565
 21
6.0648173413
  0
LINE
  5
4BF
100
AcDbEntity
  8
RACCORDO
100
AcDbLine
 62
7
  6
CONTINUOUS
 10
-7.9270304435
 20
23.3563067279
 11
-7.8675309063
 21
23.2968071907
  0
LINE
  5
4C0
100
AcDbEntity
  8
ASSI
100
AcDbLine
 62
7
  6
CONTINUOUS
 10
-7.9270304435
 20
23.3563067279
 11
-7.8675309063
 21
23.2968071907
  0
LINE
  5
4C1
100
AcDbEntity
  8
GUSCI_ESTERNI
100
AcDbLine
 62
7
  6
CONTINUOUS
 10
7.6229695565
 20
6.0648173413
 11
7.6813028342
 21
6.0052428803
  0
LINE
  5
4C2
100
AcDbEntity
  8
ASSI
100
AcDbLine
 62
7
  6
CONTINUOUS
 10
7.6229695565
 20
6.0648173413
 11
7.6813028342
 21
6.0052428803
  0
LINE
  5
4C3
100
AcDbEntity
  8
GUSCI_ESTERNI
100
AcDbLine
 62
7
  6
CONTINUOUS
 10
7.9146362788
 20
6.1839662633
 11
7.7979695565
 21
6.3031151852
  0
LINE
  5
4C4
100
AcDbEntity
  8
ASSI
100
AcDbLine
 62
7
  6
CONTINUOUS
 10
7.9146362788
 20
6.1839662633
 11
7.7979695565
 21
6.3031151852
  0
LINE
  5
4C5
100
AcDbEntity
  8
GUSCI_ESTERNI
100
AcDbLine
 62
7
  6
CONTINUOUS
 10
9.3146361119
 20
6.0648173413
 11
9.3729695565
 21
6.0052428803
  0
LINE
  5
4C6
100
AcDbEntity
  8
ASSI
100
AcDbLine
 62
7
  6
CONTINUOUS
 10
9.3146361119
 20
6.0648173413
 11
9.3729695565
 21
6.0052428803
  0
LINE
  5
4C7
100
AcDbEntity
  8
GUSCI_ESTERNI
100
AcDbLine
 62
7
  6
CONTINUOUS
 10
9.6646361119
 20
6.1243918023
 11
9.4896361119
 21
6.3031151852
  0
LINE
  5
4C8
100
AcDbEntity
  8
ASSI
100
AcDbLine
 62
7
  6
CONTINUOUS
 10
9.6646361119
 20
6.1243918023
 11
9.4896361119
 21
6.3031151852
  0
LINE
  5
4C9
100
AcDbEntity
  8
GUSCI_ESTERNI
100
AcDbLine
 62
7
  6
CONTINUOUS
 10
9.3729695565
 20
6.0052428803
 11
9.431303001
 21
5.8860939583
  0
LINE
  5
4CA
100
AcDbEntity
  8
ASSI
100
AcDbLine
 62
7
  6
CONTINUOUS
 10
9.3729695565
 20
6.0052428803
 11
9.431303001
 21
5.8860939583
  0
LINE
  5
4CB
100
AcDbEntity
  8
DRAFT
100
AcDbLine
 62
7
  6
CONTINUOUS
 10
12.4729695565
 20
20.2063067279
 11
12.4729695565
 21
-19.9936932721
  0
LINE
  5
4CC
100
AcDbEntity
  8
ASSI
100
AcDbLine
 62
7
  6
CONTINUOUS
 10
12.4729695565
 20
20.2063067279
 11
12.4729695565
 21
-19.9936932721
  0
LINE
  5
4CD
100
AcDbEntity
  8
RACCORDO
100
AcDbLine
 62
7
  6
CONTINUOUS
 10
12.6475202057
 20
-23.8182819976
 11
12.6475202057
 21
-20.1682439214
  0
LINE
  5
4CE
100
AcDbEntity
  8
ASSI
100
AcDbLine
 62
7
  6
CONTINUOUS
 10
12.6475202057
 20
-23.8182819976
 11
12.6475202057
 21
-20.1682439214
  0
LINE
  5
4CF
100
AcDbEntity
  8
RACCORDO
100
AcDbLine
 62
7
  6
CONTINUOUS
 10
12.6475202057
 20
20.3808573771
 11
12.6475202057
 21
24.0308954533
  0
LINE
  5
4D0
100
AcDbEntity
  8
ASSI
100
AcDbLine
 62
7
  6
CONTINUOUS
 10
12.6475202057
 20
20.3808573771
 11
12.6475202057
 21
24.0308954533
  0
LINE
  5
4D1
100
AcDbEntity
  8
RACCORDO
100
AcDbLine
 62
253
  6
CONTINUOUS
 10
0.8229695565
 20
-16.0437503876
 11
0.8055158209
 21
-16.0612041231
  0
LINE
  5
4D2
100
AcDbEntity
  8
GUSCI_ESTERNI
100
AcDbLine
 62
7
  6
CONTINUOUS
 10
5.5229695565
 20
13.2563067279
 11
8.6729695565
 21
13.2631791362
  0
LINE
  5
4D3
100
AcDbEntity
  8
ASSI
100
AcDbLine
 62
7
  6
CONTINUOUS
 10
5.5229695565
 20
13.2563067279
 11
8.6729695565
 21
13.2631791362
  0
LINE
  5
4D4
100
AcDbEntity
  8
DRAFT
100
AcDbLine
 62
7
  6
CONTINUOUS
 10
-1.382266963
 20
11.6010702084
 11
-5.3770304435
 21
11.6010702084
  0
LINE
  5
4D5
100
AcDbEntity
  8
DRAFT
100
AcDbLine
 62
7
  6
CONTINUOUS
 10
-5.3770304435
 20
11.6063067279
 11
-1.3770304435
 21
11.6063067279
  0
LINE
  5
4D6
100
AcDbEntity
  8
GUSCI_ESTERNI
100
AcDbLine
 62
7
  6
CONTINUOUS
 10
10.9229695565
 20
11.7043829392
 11
9.7229695565
 21
11.7043829392
  0
LINE
  5
4D7
100
AcDbEntity
  8
ASSI
100
AcDbLine
 62
7
  6
CONTINUOUS
 10
10.9229695565
 20
11.7043829392
 11
9.7229695565
 21
11.7043829392
  0
LINE
  5
4D8
100
AcDbEntity
  8
DRAFT
100
AcDbLine
 62
7
  6
CONTINUOUS
 10
-1.1270304435
 20
11.7063067279
 11
0.0729695565
 21
11.7063067279
  0
LINE
  5
4D9
100
AcDbEntity
  8
RACCORDO
100
AcDbLine
 62
7
  6
CONTINUOUS
 10
5.5229695565
 20
13.2563067279
 11
2.3229695565
 21
13.2563067279
  0
LINE
  5
4DA
100
AcDbEntity
  8
RACCORDO
100
AcDbLine
 62
7
  6
CONTINUOUS
 10
-2.1770304435
 20
13.2563067279
 11
-5.3770304435
 21
13.2563067279
  0
LINE
  5
4DB
100
AcDbEntity
  8
GUSCI_ESTERNI
100
AcDbLine
 62
7
  6
CONTINUOUS
 10
-5.3770304435
 20
13.0063067279
 11
-8.5770304435
 21
13.0202697163
  0
LINE
  5
4DC
100
AcDbEntity
  8
GUSCI_ESTERNI
100
AcDbLine
 62
7
  6
CONTINUOUS
 10
10.2479695565
 20
6.0648173413
 11
10.306303001
 21
6.0052428803
  0
LINE
  5
4DD
100
AcDbEntity
  8
ASSI
100
AcDbLine
 62
7
  6
CONTINUOUS
 10
10.2479695565
 20
6.0648173413
 11
10.306303001
 21
6.0052428803
  0
LINE
  5
4DE
100
AcDbEntity
  8
GUSCI_ESTERNI
100
AcDbLine
 62
7
  6
CONTINUOUS
 10
10.5396361119
 20
6.1839662633
 11
10.4229695565
 21
6.3031151852
  0
LINE
  5
4DF
100
AcDbEntity
  8
ASSI
100
AcDbLine
 62
7
  6
CONTINUOUS
 10
10.5396361119
 20
6.1839662633
 11
10.4229695565
 21
6.3031151852
  0
LINE
  5
4E0
100
AcDbEntity
  8
GUSCI_ESTERNI
100
AcDbLine
 62
7
  6
CONTINUOUS
 10
10.306303001
 20
6.0052428803
 11
10.3646361119
 21
5.8860939583
  0
LINE
  5
4E1
100
AcDbEntity
  8
ASSI
100
AcDbLine
 62
7
  6
CONTINUOUS
 10
10.306303001
 20
6.0052428803
 11
10.3646361119
 21
5.8860939583
  0
LINE
  5
4E2
100
AcDbEntity
  8
GUSCI_ESTERNI
100
AcDbLine
 62
7
  6
CONTINUOUS
 10
10.656303001
 20
5.8860939583
 11
10.5396361119
 21
6.1839662633
  0
LINE
  5
4E3
100
AcDbEntity
  8
ASSI
100
AcDbLine
 62
7
  6
CONTINUOUS
 10
10.656303001
 20
5.8860939583
 11
10.5396361119
 21
6.1839662633
  0
LINE
  5
4E4
100
AcDbEntity
  8
0
100
AcDbLine
 62
7
  6
CONTINUOUS
 10
5.5229695565
 20
-13.5936932721
 11
5.8229695565
 21
-13.2936932721
  0
LINE
  5
4E5
100
AcDbEntity
  8
RACCORDO
100
AcDbLine
 62
253
  6
CONTINUOUS
 10
2.3229124411
 20
-17.5436932721
 11
2.3054587055
 21
-17.5611470077
  0
LINE
  5
4E6
100
AcDbEntity
  8
GUSCI_ESTERNI
100
AcDbLine
 62
7
  6
CONTINUOUS
 10
-8.5770304435
 20
13.5063067279
 11
-5.3770304435
 21
13.5063067279
  0
LINE
  5
4E7
100
AcDbEntity
  8
RACCORDO
100
AcDbLine
 62
7
  6
CONTINUOUS
 10
5.5229695565
 20
13.5063067279
 11
2.3229695565
 21
13.5063067279
  0
LINE
  5
4E8
100
AcDbEntity
  8
RACCORDO
100
AcDbLine
 62
7
  6
CONTINUOUS
 10
-2.1770304435
 20
13.5063067279
 11
-5.3770304435
 21
13.5063067279
  0
LINE
  5
4E9
100
AcDbEntity
  8
GUSCI_ESTERNI
100
AcDbLine
 62
7
  6
CONTINUOUS
 10
5.5229695565
 20
13.5063067279
 11
8.6729695565
 21
13.5063067279
  0
LINE
  5
4EA
100
AcDbEntity
  8
ASSI
100
AcDbLine
 62
7
  6
CONTINUOUS
 10
5.5229695565
 20
13.5063067279
 11
8.6729695565
 21
13.5063067279
  0
LINE
  5
4EB
100
AcDbEntity
  8
0
100
AcDbLine
 62
7
  6
CONTINUOUS
 10
-9.1760266507
 20
13.7063067279
 11
-8.126925732
 21
13.7063067279
  0
LINE
  5
4EC
100
AcDbEntity
  8
0
100
AcDbLine
 62
7
  6
CONTINUOUS
 10
-5.3530324709
 20
13.7063067279
 11
-5.3399426677
 21
13.7063067279
  0
LINE
  5
4ED
100
AcDbEntity
  8
0
100
AcDbLine
 62
7
  6
CONTINUOUS
 10
-2.6271351551
 20
13.7063067279
 11
-1.5772456366
 21
13.7063067279
  0
LINE
  5
4EE
100
AcDbEntity
  8
0
100
AcDbLine
 62
7
  6
CONTINUOUS
 10
1.7231847495
 20
13.7063067279
 11
2.7729695565
 21
13.7063067279
  0
LINE
  5
4EF
100
AcDbEntity
  8
0
100
AcDbLine
 62
7
  6
CONTINUOUS
 10
8.2729695565
 20
13.7063067279
 11
9.2726571814
 21
13.7063067279
  0
LINE
  5
4F0
100
AcDbEntity
  8
GUSCI_ESTERNI
100
AcDbLine
 62
253
  6
CONTINUOUS
 10
-9.5587836399
 20
14.0063067279
 11
-9.4430558473
 21
14.0063067279
  0
LINE
  5
4F1
100
AcDbEntity
  8
GUSCI_ESTERNI
100
AcDbLine
 62
253
  6
CONTINUOUS
 10
9.6639351417
 20
14.2563067279
 11
9.641215393
 21
14.2563067279
  0
LINE
  5
4F2
100
AcDbEntity
  8
ASSI
100
AcDbLine
 62
253
  6
CONTINUOUS
 10
9.6639351417
 20
14.2563067279
 11
9.641215393
 21
14.2563067279
  0
LINE
  5
4F3
100
AcDbEntity
  8
DRAFT
100
AcDbLine
 62
7
  6
CONTINUOUS
 10
0.0598792548
 20
14.3043829392
 11
-1.1139401419
 21
14.3043829392
  0
LINE
  5
4F4
100
AcDbEntity
  8
DRAFT
100
AcDbLine
 62
7
  6
CONTINUOUS
 10
-10.9270304435
 20
14.6563067279
 11
-10.7770304435
 21
14.6563067279
  0
LINE
  5
4F5
100
AcDbEntity
  8
ASSI
100
AcDbLine
 62
7
  6
CONTINUOUS
 10
-10.9270304435
 20
14.6563067279
 11
-10.7770304435
 21
14.6563067279
  0
LINE
  5
4F6
100
AcDbEntity
  8
DRAFT
100
AcDbLine
 62
7
  6
CONTINUOUS
 10
10.9229695565
 20
14.6563067279
 11
11.0729695565
 21
14.6563067279
  0
LINE
  5
4F7
100
AcDbEntity
  8
ASSI
100
AcDbLine
 62
7
  6
CONTINUOUS
 10
10.9229695565
 20
14.6563067279
 11
11.0729695565
 21
14.6563067279
  0
LINE
  5
4F8
100
AcDbEntity
  8
0
100
AcDbLine
 62
7
  6
CONTINUOUS
 10
5.7229695565
 20
13.5063067279
 11
5.5229695565
 21
13.7063067279
  0
LINE
  5
4F9
100
AcDbEntity
  8
RACCORDO
100
AcDbLine
 62
7
  6
CONTINUOUS
 10
-1.135681156
 20
21.8649574403
 11
-1.1312415668
 21
21.8605178511
  0
LINE
  5
4FA
100
AcDbEntity
  8
GUSCI_ESTERNI
100
AcDbLine
 62
253
  6
CONTINUOUS
 10
9.6639351417
 20
16.2563067279
 11
9.641215393
 21
16.2563067279
  0
LINE
  5
4FB
100
AcDbEntity
  8
ASSI
100
AcDbLine
 62
253
  6
CONTINUOUS
 10
9.6639351417
 20
16.2563067279
 11
9.641215393
 21
16.2563067279
  0
LINE
  5
4FC
100
AcDbEntity
  8
GUSCI_ESTERNI
100
AcDbLine
 62
253
  6
CONTINUOUS
 10
-9.5587836399
 20
16.5063067279
 11
-9.4430558473
 21
16.5063067279
  0
LINE
  5
4FD
100
AcDbEntity
  8
RACCORDO
100
AcDbLine
 62
7
  6
CONTINUOUS
 10
-5.3770304435
 20
17.0063067279
 11
-2.1770304435
 21
17.0063067279
  0
LINE
  5
4FE
100
AcDbEntity
  8
GUSCI_ESTERNI
100
AcDbLine
 62
7
  6
CONTINUOUS
 10
8.6729695565
 20
17.0063067279
 11
5.5229695565
 21
17.0063067279
  0
LINE
  5
4FF
100
AcDbEntity
  8
ASSI
100
AcDbLine
 62
7
  6
CONTINUOUS
 10
8.6729695565
 20
17.0063067279
 11
5.5229695565
 21
17.0063067279
  0
LINE
  5
500
100
AcDbEntity
  8
RACCORDO
100
AcDbLine
 62
7
  6
CONTINUOUS
 10
2.3229695565
 20
17.0063067279
 11
5.5229695565
 21
17.0063067279
  0
LINE
  5
501
100
AcDbEntity
  8
GUSCI_ESTERNI
100
AcDbLine
 62
7
  6
CONTINUOUS
 10
-5.3770304435
 20
17.0063067279
 11
-8.5770304435
 21
17.0063067279
  0
LINE
  5
502
100
AcDbEntity
  8
GUSCI_ESTERNI
100
AcDbLine
 62
7
  6
CONTINUOUS
 10
-5.3770304435
 20
17.5063067279
 11
-8.5770304435
 21
17.4923437394
  0
LINE
  5
503
100
AcDbEntity
  8
RACCORDO
100
AcDbLine
 62
7
  6
CONTINUOUS
 10
-5.3770304435
 20
17.2563067279
 11
-2.1770304435
 21
17.2563067279
  0
LINE
  5
504
100
AcDbEntity
  8
RACCORDO
100
AcDbLine
 62
7
  6
CONTINUOUS
 10
2.3229695565
 20
17.2563067279
 11
5.5229695565
 21
17.2563067279
  0
LINE
  5
505
100
AcDbEntity
  8
DRAFT
100
AcDbLine
 62
7
  6
CONTINUOUS
 10
11.0729695565
 20
18.7563067279
 11
10.9229695565
 21
18.7563067279
  0
LINE
  5
506
100
AcDbEntity
  8
ASSI
100
AcDbLine
 62
7
  6
CONTINUOUS
 10
11.0729695565
 20
18.7563067279
 11
10.9229695565
 21
18.7563067279
  0
LINE
  5
507
100
AcDbEntity
  8
DRAFT
100
AcDbLine
 62
7
  6
CONTINUOUS
 10
-10.7770304435
 20
18.7563067279
 11
-10.9270304435
 21
18.7563067279
  0
LINE
  5
508
100
AcDbEntity
  8
ASSI
100
AcDbLine
 62
7
  6
CONTINUOUS
 10
-10.7770304435
 20
18.7563067279
 11
-10.9270304435
 21
18.7563067279
  0
LINE
  5
509
100
AcDbEntity
  8
GUSCI_ESTERNI
100
AcDbLine
 62
7
  6
CONTINUOUS
 10
5.5229695565
 20
17.2563067279
 11
8.6729695565
 21
17.2494343195
  0
LINE
  5
50A
100
AcDbEntity
  8
ASSI
100
AcDbLine
 62
7
  6
CONTINUOUS
 10
5.5229695565
 20
17.2563067279
 11
8.6729695565
 21
17.2494343195
  0
LINE
  5
50B
100
AcDbEntity
  8
GUSCI_ESTERNI
100
AcDbLine
 62
253
  6
CONTINUOUS
 10
-5.3770304435
 20
20.6063448048
 11
-9.3113264477
 21
20.5720107237
  0
LINE
  5
50C
100
AcDbEntity
  8
RACCORDO
100
AcDbLine
 62
253
  6
CONTINUOUS
 10
0.0598792548
 20
19.860594005
 11
-1.1139401419
 21
19.860594005
  0
LINE
  5
50D
100
AcDbEntity
  8
DRAFT
100
AcDbLine
 62
7
  6
CONTINUOUS
 10
-12.3270304435
 20
20.2063067279
 11
-11.8770304435
 21
20.2063067279
  0
LINE
  5
50E
100
AcDbEntity
  8
ASSI
100
AcDbLine
 62
7
  6
CONTINUOUS
 10
-12.3270304435
 20
20.2063067279
 11
-11.8770304435
 21
20.2063067279
  0
LINE
  5
50F
100
AcDbEntity
  8
DRAFT
100
AcDbLine
 62
7
  6
CONTINUOUS
 10
12.4729695565
 20
20.2063067279
 11
12.0229695565
 21
20.2063067279
  0
LINE
  5
510
100
AcDbEntity
  8
ASSI
100
AcDbLine
 62
7
  6
CONTINUOUS
 10
12.4729695565
 20
20.2063067279
 11
12.0229695565
 21
20.2063067279
  0
LINE
  5
511
100
AcDbEntity
  8
DRAFT
100
AcDbLine
 62
7
  6
CONTINUOUS
 10
-12.5015810928
 20
20.3808573771
 11
-11.9493316898
 21
20.3808573771
  0
LINE
  5
512
100
AcDbEntity
  8
ASSI
100
AcDbLine
 62
7
  6
CONTINUOUS
 10
-12.5015810928
 20
20.3808573771
 11
-11.9493316898
 21
20.3808573771
  0
LINE
  5
513
100
AcDbEntity
  8
DRAFT
100
AcDbLine
 62
7
  6
CONTINUOUS
 10
12.0952708027
 20
20.3808573771
 11
12.6475202057
 21
20.3808573771
  0
LINE
  5
514
100
AcDbEntity
  8
ASSI
100
AcDbLine
 62
7
  6
CONTINUOUS
 10
12.0952708027
 20
20.3808573771
 11
12.6475202057
 21
20.3808573771
  0
LINE
  5
515
100
AcDbEntity
  8
GUSCI_ESTERNI
100
AcDbLine
 62
7
  6
CONTINUOUS
 10
10.9229695565
 20
19.5874570954
 11
10.5404840573
 21
19.5887922271
  0
LINE
  5
516
100
AcDbEntity
  8
ASSI
100
AcDbLine
 62
7
  6
CONTINUOUS
 10
10.9229695565
 20
19.5874570954
 11
10.5404840573
 21
19.5887922271
  0
LINE
  5
517
100
AcDbEntity
  8
GUSCI_ESTERNI
100
AcDbLine
 62
253
  6
CONTINUOUS
 10
5.5229695565
 20
20.7063448048
 11
9.4572655606
 21
20.6720107237
  0
LINE
  5
518
100
AcDbEntity
  8
ASSI
100
AcDbLine
 62
253
  6
CONTINUOUS
 10
5.5229695565
 20
20.7063448048
 11
9.4572655606
 21
20.6720107237
  0
LINE
  5
519
100
AcDbEntity
  8
RACCORDO
100
AcDbLine
 62
7
  6
CONTINUOUS
 10
6.3324690937
 20
-23.0841937349
 11
6.2729695565
 21
-23.1436932721
  0
LINE
  5
51A
100
AcDbEntity
  8
ASSI
100
AcDbLine
 62
7
  6
CONTINUOUS
 10
6.3324690937
 20
-23.0841937349
 11
6.2729695565
 21
-23.1436932721
  0
LINE
  5
51B
100
AcDbEntity
  8
GUSCI_ESTERNI
100
AcDbLine
 62
7
  6
CONTINUOUS
 10
10.9229695565
 20
-18.9936932721
 11
8.4485002763
 21
-21.4681625523
  0
LINE
  5
51C
100
AcDbEntity
  8
ASSI
100
AcDbLine
 62
7
  6
CONTINUOUS
 10
10.9229695565
 20
-18.9936932721
 11
8.4485002763
 21
-21.4681625523
  0
LINE
  5
51D
100
AcDbEntity
  8
GUSCI_ESTERNI
100
AcDbLine
 62
7
  6
CONTINUOUS
 10
-5.3770304435
 20
21.6063067279
 11
-8.3025611634
 21
21.580776008
  0
LINE
  5
51E
100
AcDbEntity
  8
RACCORDO
100
AcDbLine
 62
253
  6
CONTINUOUS
 10
5.5229695565
 20
20.8649955173
 11
0.0729695565
 21
20.8649955173
  0
LINE
  5
51F
100
AcDbEntity
  8
RACCORDO
100
AcDbLine
 62
253
  6
CONTINUOUS
 10
-1.1270304435
 20
20.8649955173
 11
-5.3770304435
 21
20.8649955173
  0
LINE
  5
520
100
AcDbEntity
  8
DRAFT
100
AcDbLine
 62
7
  6
CONTINUOUS
 10
10.9682391669
 20
20.9015763383
 11
9.227699946
 21
20.9015763383
  0
LINE
  5
521
100
AcDbEntity
  8
ASSI
100
AcDbLine
 62
7
  6
CONTINUOUS
 10
10.9682391669
 20
20.9015763383
 11
9.227699946
 21
20.9015763383
  0
LINE
  5
522
100
AcDbEntity
  8
DRAFT
100
AcDbLine
 62
7
  6
CONTINUOUS
 10
-8.9817608331
 20
20.9015763383
 11
-10.822300054
 21
20.9015763383
  0
LINE
  5
523
100
AcDbEntity
  8
ASSI
100
AcDbLine
 62
7
  6
CONTINUOUS
 10
-8.9817608331
 20
20.9015763383
 11
-10.822300054
 21
20.9015763383
  0
LINE
  5
524
100
AcDbEntity
  8
DRAFT
100
AcDbLine
 62
7
  6
CONTINUOUS
 10
-11.0770304435
 20
21.0063067279
 11
-10.9270304435
 21
21.0063067279
  0
LINE
  5
525
100
AcDbEntity
  8
DRAFT
100
AcDbLine
 62
7
  6
CONTINUOUS
 10
11.2229695565
 20
21.0063067279
 11
11.0729695565
 21
21.0063067279
  0
LINE
  5
526
100
AcDbEntity
  8
ASSI
100
AcDbLine
 62
7
  6
CONTINUOUS
 10
-11.0770304435
 20
21.0063067279
 11
-10.9270304435
 21
21.0063067279
  0
LINE
  5
527
100
AcDbEntity
  8
ASSI
100
AcDbLine
 62
7
  6
CONTINUOUS
 10
11.2229695565
 20
21.0063067279
 11
11.0729695565
 21
21.0063067279
  0
LINE
  5
528
100
AcDbEntity
  8
DRAFT
100
AcDbLine
 62
7
  6
CONTINUOUS
 10
-11.1493316898
 20
21.1808573771
 11
-8.7024797943
 21
21.1808573771
  0
LINE
  5
529
100
AcDbEntity
  8
ASSI
100
AcDbLine
 62
7
  6
CONTINUOUS
 10
-11.1493316898
 20
21.1808573771
 11
-8.7024797943
 21
21.1808573771
  0
LINE
  5
52A
100
AcDbEntity
  8
DRAFT
100
AcDbLine
 62
7
  6
CONTINUOUS
 10
8.9484189072
 20
21.1808573771
 11
11.2952708027
 21
21.1808573771
  0
LINE
  5
52B
100
AcDbEntity
  8
ASSI
100
AcDbLine
 62
7
  6
CONTINUOUS
 10
8.9484189072
 20
21.1808573771
 11
11.2952708027
 21
21.1808573771
  0
LINE
  5
52C
100
AcDbEntity
  8
RACCORDO
100
AcDbLine
 62
253
  6
CONTINUOUS
 10
0.0771806797
 20
21.8605178511
 11
-1.1312415668
 21
21.8605178511
  0
LINE
  5
52D
100
AcDbEntity
  8
RACCORDO
100
AcDbLine
 62
253
  6
CONTINUOUS
 10
5.5229695565
 20
21.8649574403
 11
0.0816202689
 21
21.8649574403
  0
LINE
  5
52E
100
AcDbEntity
  8
RACCORDO
100
AcDbLine
 62
253
  6
CONTINUOUS
 10
-1.135681156
 20
21.8649574403
 11
-5.3770304435
 21
21.8649574403
  0
LINE
  5
52F
100
AcDbEntity
  8
DRAFT
100
AcDbLine
 62
7
  6
CONTINUOUS
 10
5.5229695565
 20
21.8650335956
 11
-5.3770304435
 21
21.8650335956
  0
LINE
  5
530
100
AcDbEntity
  8
RACCORDO
100
AcDbLine
 62
7
  6
CONTINUOUS
 10
-6.1951051968
 20
22.5273361373
 11
-4.9188673148
 21
22.5273361373
  0
LINE
  5
531
100
AcDbEntity
  8
ASSI
100
AcDbLine
 62
7
  6
CONTINUOUS
 10
-6.1951051968
 20
22.5273361373
 11
-4.9188673148
 21
22.5273361373
  0
LINE
  5
532
100
AcDbEntity
  8
RACCORDO
100
AcDbLine
 62
7
  6
CONTINUOUS
 10
5.0648064277
 20
22.5273361373
 11
6.3410443097
 21
22.5273361373
  0
LINE
  5
533
100
AcDbEntity
  8
ASSI
100
AcDbLine
 62
7
  6
CONTINUOUS
 10
5.0648064277
 20
22.5273361373
 11
6.3410443097
 21
22.5273361373
  0
LINE
  5
534
100
AcDbEntity
  8
DRAFT
100
AcDbLine
 62
7
  6
CONTINUOUS
 10
3.9729695565
 20
22.567905585
 11
3.8229695565
 21
22.567905585
  0
LINE
  5
535
100
AcDbEntity
  8
ASSI
100
AcDbLine
 62
7
  6
CONTINUOUS
 10
3.9729695565
 20
22.567905585
 11
3.8229695565
 21
22.567905585
  0
LINE
  5
536
100
AcDbEntity
  8
DRAFT
100
AcDbLine
 62
7
  6
CONTINUOUS
 10
-3.6770304435
 20
22.567905585
 11
-3.8270304435
 21
22.567905585
  0
LINE
  5
537
100
AcDbEntity
  8
ASSI
100
AcDbLine
 62
7
  6
CONTINUOUS
 10
-3.6770304435
 20
22.567905585
 11
-3.8270304435
 21
22.567905585
  0
LINE
  5
538
100
AcDbEntity
  8
GUSCI_ESTERNI
100
AcDbLine
 62
7
  6
CONTINUOUS
 10
5.5229695565
 20
21.7063067279
 11
8.4485002763
 21
21.680776008
  0
LINE
  5
539
100
AcDbEntity
  8
ASSI
100
AcDbLine
 62
7
  6
CONTINUOUS
 10
5.5229695565
 20
21.7063067279
 11
8.4485002763
 21
21.680776008
  0
LINE
  5
53A
100
AcDbEntity
  8
RACCORDO
100
AcDbLine
 62
7
  6
CONTINUOUS
 10
6.3324690937
 20
23.2968071907
 11
6.2729695565
 21
23.3563067279
  0
LINE
  5
53B
100
AcDbEntity
  8
ASSI
100
AcDbLine
 62
7
  6
CONTINUOUS
 10
6.3324690937
 20
23.2968071907
 11
6.2729695565
 21
23.3563067279
  0
LINE
  5
53C
100
AcDbEntity
  8
GUSCI_ESTERNI
100
AcDbLine
 62
7
  6
CONTINUOUS
 10
8.4485002763
 20
21.680776008
 11
10.9229695565
 21
19.2063067279
  0
LINE
  5
53D
100
AcDbEntity
  8
ASSI
100
AcDbLine
 62
7
  6
CONTINUOUS
 10
8.4485002763
 20
21.680776008
 11
10.9229695565
 21
19.2063067279
  0
LINE
  5
53E
100
AcDbEntity
  8
DRAFT
100
AcDbLine
 62
7
  6
CONTINUOUS
 10
12.0229695565
 20
-19.9936932721
 11
11.2229695565
 21
-20.7936932721
  0
LINE
  5
53F
100
AcDbEntity
  8
ASSI
100
AcDbLine
 62
7
  6
CONTINUOUS
 10
12.0229695565
 20
-19.9936932721
 11
11.2229695565
 21
-20.7936932721
  0
LINE
  5
540
100
AcDbEntity
  8
DRAFT
100
AcDbLine
 62
7
  6
CONTINUOUS
 10
12.0952708027
 20
-20.1682439214
 11
11.2952708027
 21
-20.9682439214
  0
LINE
  5
541
100
AcDbEntity
  8
ASSI
100
AcDbLine
 62
7
  6
CONTINUOUS
 10
12.0952708027
 20
-20.1682439214
 11
11.2952708027
 21
-20.9682439214
  0
LINE
  5
542
100
AcDbEntity
  8
DRAFT
100
AcDbLine
 62
7
  6
CONTINUOUS
 10
10.2984189072
 20
22.7808573771
 11
8.0048948032
 21
22.7808573771
  0
LINE
  5
543
100
AcDbEntity
  8
ASSI
100
AcDbLine
 62
7
  6
CONTINUOUS
 10
10.2984189072
 20
22.7808573771
 11
8.0048948032
 21
22.7808573771
  0
LINE
  5
544
100
AcDbEntity
  8
DRAFT
100
AcDbLine
 62
7
  6
CONTINUOUS
 10
-7.8589556903
 20
22.7808573771
 11
-10.1524797943
 21
22.7808573771
  0
LINE
  5
545
100
AcDbEntity
  8
ASSI
100
AcDbLine
 62
7
  6
CONTINUOUS
 10
-7.8589556903
 20
22.7808573771
 11
-10.1524797943
 21
22.7808573771
  0
LINE
  5
546
100
AcDbEntity
  8
RACCORDO
100
AcDbLine
 62
253
  6
CONTINUOUS
 10
-7.8589556903
 20
22.7968833431
 11
-6.1951051968
 21
22.7968833431
  0
LINE
  5
547
100
AcDbEntity
  8
ASSI
100
AcDbLine
 62
253
  6
CONTINUOUS
 10
-7.8589556903
 20
22.7968833431
 11
-6.1951051968
 21
22.7968833431
  0
LINE
  5
548
100
AcDbEntity
  8
RACCORDO
100
AcDbLine
 62
253
  6
CONTINUOUS
 10
6.3410443097
 20
22.7968833431
 11
8.0048948032
 21
22.7968833431
  0
LINE
  5
549
100
AcDbEntity
  8
ASSI
100
AcDbLine
 62
253
  6
CONTINUOUS
 10
6.3410443097
 20
22.7968833431
 11
8.0048948032
 21
22.7968833431
  0
LINE
  5
54A
100
AcDbEntity
  8
0
100
AcDbLine
 62
253
  6
CONTINUOUS
 10
-3.6770304435
 20
23.1035669639
 11
3.8229695565
 21
23.1035669639
  0
LINE
  5
54B
100
AcDbEntity
  8
RACCORDO
100
AcDbLine
 62
7
  6
CONTINUOUS
 10
-3.8950632304
 20
23.1726552258
 11
-3.8770304435
 21
23.1726552258
  0
LINE
  5
54C
100
AcDbEntity
  8
RACCORDO
100
AcDbLine
 62
7
  6
CONTINUOUS
 10
4.0410023433
 20
23.1726552258
 11
4.0229695565
 21
23.1726552258
  0
LINE
  5
54D
100
AcDbEntity
  8
RACCORDO
100
AcDbLine
 62
253
  6
CONTINUOUS
 10
-7.8675309063
 20
23.2968071907
 11
-6.1865299807
 21
23.2968071907
  0
LINE
  5
54E
100
AcDbEntity
  8
ASSI
100
AcDbLine
 62
253
  6
CONTINUOUS
 10
-7.8675309063
 20
23.2968071907
 11
-6.1865299807
 21
23.2968071907
  0
LINE
  5
54F
100
AcDbEntity
  8
RACCORDO
100
AcDbLine
 62
253
  6
CONTINUOUS
 10
6.3324690937
 20
23.2968071907
 11
8.0134700193
 21
23.2968071907
  0
LINE
  5
550
100
AcDbEntity
  8
ASSI
100
AcDbLine
 62
253
  6
CONTINUOUS
 10
6.3324690937
 20
23.2968071907
 11
8.0134700193
 21
23.2968071907
  0
LINE
  5
551
100
AcDbEntity
  8
DRAFT
100
AcDbLine
 62
7
  6
CONTINUOUS
 10
-7.9270304435
 20
23.3563067279
 11
-3.8950632304
 21
23.3563067279
  0
LINE
  5
552
100
AcDbEntity
  8
ASSI
100
AcDbLine
 62
7
  6
CONTINUOUS
 10
-7.9270304435
 20
23.3563067279
 11
-3.8950632304
 21
23.3563067279
  0
LINE
  5
553
100
AcDbEntity
  8
DRAFT
100
AcDbLine
 62
7
  6
CONTINUOUS
 10
4.0410023433
 20
23.3563067279
 11
8.0729695565
 21
23.3563067279
  0
LINE
  5
554
100
AcDbEntity
  8
ASSI
100
AcDbLine
 62
7
  6
CONTINUOUS
 10
4.0410023433
 20
23.3563067279
 11
8.0729695565
 21
23.3563067279
  0
LINE
  5
555
100
AcDbEntity
  8
RACCORDO
100
AcDbLine
 62
7
  6
CONTINUOUS
 10
-5.9270304435
 20
23.5631736286
 11
-3.8770304435
 21
23.5631736286
  0
LINE
  5
556
100
AcDbEntity
  8
RACCORDO
100
AcDbLine
 62
7
  6
CONTINUOUS
 10
6.0729695565
 20
23.5631736286
 11
4.0229695565
 21
23.5631736286
  0
LINE
  5
557
100
AcDbEntity
  8
RACCORDO
100
AcDbLine
 62
7
  6
CONTINUOUS
 10
4.3729695565
 20
24.2455992773
 11
1.4729695565
 21
24.2455992773
  0
LINE
  5
558
100
AcDbEntity
  8
RACCORDO
100
AcDbLine
 62
7
  6
CONTINUOUS
 10
-1.3270304435
 20
24.2455992773
 11
-4.2270304435
 21
24.2455992773
  0
LINE
  5
559
100
AcDbEntity
  8
RACCORDO
100
AcDbLine
 62
7
  6
CONTINUOUS
 10
12.3975582819
 20
24.2808573771
 11
10.548380831
 21
24.2808573771
  0
LINE
  5
55A
100
AcDbEntity
  8
ASSI
100
AcDbLine
 62
7
  6
CONTINUOUS
 10
12.3975582819
 20
24.2808573771
 11
10.548380831
 21
24.2808573771
  0
LINE
  5
55B
100
AcDbEntity
  8
RACCORDO
100
AcDbLine
 62
7
  6
CONTINUOUS
 10
-10.4024417181
 20
24.2808573771
 11
-12.251619169
 21
24.2808573771
  0
LINE
  5
55C
100
AcDbEntity
  8
ASSI
100
AcDbLine
 62
7
  6
CONTINUOUS
 10
-10.4024417181
 20
24.2808573771
 11
-12.251619169
 21
24.2808573771
  0
LINE
  5
55D
100
AcDbEntity
  8
0
100
AcDbLine
 62
253
  6
CONTINUOUS
 10
-4.4270304435
 20
24.5190402085
 11
-1.1270304435
 21
24.5190402085
  0
LINE
  5
55E
100
AcDbEntity
  8
0
100
AcDbLine
 62
253
  6
CONTINUOUS
 10
1.2729695565
 20
24.5190402085
 11
4.5729695565
 21
24.5190402085
  0
LINE
  5
55F
100
AcDbEntity
  8
DRAFT
100
AcDbLine
 62
7
  6
CONTINUOUS
 10
11.2229695565
 20
21.0063067279
 11
12.0229695565
 21
20.2063067279
  0
LINE
  5
560
100
AcDbEntity
  8
ASSI
100
AcDbLine
 62
7
  6
CONTINUOUS
 10
11.2229695565
 20
21.0063067279
 11
12.0229695565
 21
20.2063067279
  0
LINE
  5
561
100
AcDbEntity
  8
DRAFT
100
AcDbLine
 62
7
  6
CONTINUOUS
 10
11.2952708027
 20
21.1808573771
 11
12.0952708027
 21
20.3808573771
  0
LINE
  5
562
100
AcDbEntity
  8
ASSI
100
AcDbLine
 62
7
  6
CONTINUOUS
 10
11.2952708027
 20
21.1808573771
 11
12.0952708027
 21
20.3808573771
  0
LINE
  5
563
100
AcDbEntity
  8
RACCORDO
100
AcDbLine
 62
7
  6
CONTINUOUS
 10
-4.2270304435
 20
24.5693316004
 11
-1.3270304435
 21
24.5693316004
  0
LINE
  5
564
100
AcDbEntity
  8
RACCORDO
100
AcDbLine
 62
7
  6
CONTINUOUS
 10
1.4729695565
 20
24.5693316004
 11
4.3729695565
 21
24.5693316004
  0
LINE
  5
565
100
AcDbEntity
  8
RACCORDO
100
AcDbLine
 62
7
  6
CONTINUOUS
 10
-4.2270304435
 20
24.9598500033
 11
-1.3270304435
 21
24.9598500033
  0
LINE
  5
566
100
AcDbEntity
  8
RACCORDO
100
AcDbLine
 62
7
  6
CONTINUOUS
 10
1.4729695565
 20
24.9598500033
 11
4.3729695565
 21
24.9598500033
  0
LINE
  5
567
100
AcDbEntity
  8
0
100
AcDbLine
 62
253
  6
CONTINUOUS
 10
-5.9270304435
 20
25.0106781617
 11
6.0729695565
 21
25.0106781617
  0
LINE
  5
568
100
AcDbEntity
  8
0
100
AcDbLine
 62
7
  6
CONTINUOUS
 10
-5.9270304435
 20
25.0225301582
 11
6.0729695565
 21
25.0225301582
  0
ARC
  5
569
100
AcDbEntity
  8
0
100
AcDbCircle
 62
7
  6
CONTINUOUS
 10
-3.1061947687
 20
-18.6040794833
 40
7.0931488677
100
AcDbArc
 50
131.5247848031
 51
135.059684648
  0
ARC
  5
56A
100
AcDbEntity
  8
0
100
AcDbCircle
 62
7
  6
CONTINUOUS
 10
-7.6477112558
 20
-18.6039150633
 40
7.0929231079
100
AcDbArc
 50
44.9402588609
 51
48.4752605848
  0
ARC
  5
56B
100
AcDbEntity
  8
GUSCI_ESTERNI
100
AcDbCircle
 62
7
  6
CONTINUOUS
 10
-8.2770304435
 20
-14.0436932721
 40
2.5
100
AcDbArc
 50
90.0
 51
180.0
  0
ARC
  5
56C
100
AcDbEntity
  8
GUSCI_ESTERNI
100
AcDbCircle
 62
7
  6
CONTINUOUS
 10
-8.2770304435
 20
-16.0436932721
 40
2.5
100
AcDbArc
 50
180.0
 51
270.0
  0
ARC
  5
56D
100
AcDbEntity
  8
GUSCI_ESTERNI
100
AcDbCircle
 62
7
  6
CONTINUOUS
 10
-8.5770304435
 20
-16.0436932721
 40
1.5
100
AcDbArc
 50
180.0
 51
270.0
  0
ARC
  5
56E
100
AcDbEntity
  8
GUSCI_ESTERNI
100
AcDbCircle
 62
7
  6
CONTINUOUS
 10
-8.5770304435
 20
-14.0436932721
 40
1.5
100
AcDbArc
 50
90.0
 51
180.0
  0
ARC
  5
56F
100
AcDbEntity
  8
RACCORDO
100
AcDbCircle
 62
7
  6
CONTINUOUS
 10
-2.1770304435
 20
-14.2936932721
 40
1.0
100
AcDbArc
 50
0.0
 51
90.0
  0
ARC
  5
570
100
AcDbEntity
  8
RACCORDO
100
AcDbCircle
 62
7
  6
CONTINUOUS
 10
-2.1770304435
 20
-15.7936932721
 40
1.0
100
AcDbArc
 50
270.0
 51
360.0
  0
ARC
  5
571
100
AcDbEntity
  8
GUSCI_ESTERNI
100
AcDbCircle
 62
7
  6
CONTINUOUS
 10
-8.5770304435
 20
-15.7936932721
 40
1.0
100
AcDbArc
 50
180.0
 51
270.0
  0
ARC
  5
572
100
AcDbEntity
  8
GUSCI_ESTERNI
100
AcDbCircle
 62
7
  6
CONTINUOUS
 10
-8.5770304435
 20
-14.2936932721
 40
1.0
100
AcDbArc
 50
90.0
 51
180.0
  0
ARC
  5
573
100
AcDbEntity
  8
0
100
AcDbCircle
 62
7
  6
CONTINUOUS
 10
-2.61012203
 20
19.2709913258
 40
7.8358686666
100
AcDbArc
 50
225.24756207
 51
225.4877166905
  0
ARC
  5
574
100
AcDbEntity
  8
0
100
AcDbCircle
 62
7
  6
CONTINUOUS
 10
-2.9821531944
 20
18.8872135228
 40
7.301380646
100
AcDbArc
 50
225.4582376332
 51
227.4749401693
  0
ARC
  5
575
100
AcDbEntity
  8
0
100
AcDbCircle
 62
7
  6
CONTINUOUS
 10
-7.7719076927
 20
18.8872135228
 40
7.301380646
100
AcDbArc
 50
312.5250598307
 51
314.5417623668
  0
ARC
  5
576
100
AcDbEntity
  8
0
100
AcDbCircle
 62
7
  6
CONTINUOUS
 10
-7.6830684137
 20
18.7095074075
 40
7.1129572661
100
AcDbArc
 50
312.9859270321
 51
315.0357748804
  0
ARC
  5
577
100
AcDbEntity
  8
RACCORDO
100
AcDbCircle
 62
7
  6
CONTINUOUS
 10
-2.1770304435
 20
14.5063067279
 40
1.0
100
AcDbArc
 50
270.0
 51
360.0
  0
ARC
  5
578
100
AcDbEntity
  8
RACCORDO
100
AcDbCircle
 62
7
  6
CONTINUOUS
 10
-2.1770304435
 20
16.0063067279
 40
1.0
100
AcDbArc
 50
0.0
 51
90.0
  0
ARC
  5
579
100
AcDbEntity
  8
GUSCI_ESTERNI
100
AcDbCircle
 62
7
  6
CONTINUOUS
 10
-8.5770304435
 20
14.5063067279
 40
1.0
100
AcDbArc
 50
180.0
 51
270.0
  0
ARC
  5
57A
100
AcDbEntity
  8
GUSCI_ESTERNI
100
AcDbCircle
 62
7
  6
CONTINUOUS
 10
-8.5770304435
 20
16.0063067279
 40
1.0
100
AcDbArc
 50
90.0
 51
180.0
  0
ARC
  5
57B
100
AcDbEntity
  8
ASSI
100
AcDbCircle
 62
7
  6
CONTINUOUS
 10
-5.3770304435
 20
0.6063067279
 40
0.4
100
AcDbArc
 50
270.0
 51
90.0
  0
ARC
  5
57C
100
AcDbEntity
  8
GUSCI_ESTERNI
100
AcDbCircle
 62
7
  6
CONTINUOUS
 10
-5.9770304435
 20
1.6063067279
 40
0.4
100
AcDbArc
 50
90.0
 51
270.0
  0
ARC
  5
57D
100
AcDbEntity
  8
0
100
AcDbCircle
 62
7
  6
CONTINUOUS
 10
7.7938052313
 20
-18.6040794833
 40
7.0931488677
100
AcDbArc
 50
131.5247848031
 51
135.059684648
  0
ARC
  5
57E
100
AcDbEntity
  8
0
100
AcDbCircle
 62
7
  6
CONTINUOUS
 10
3.2522887442
 20
-18.6039150633
 40
7.0929231079
100
AcDbArc
 50
44.9402588609
 51
48.4752605848
  0
ARC
  5
57F
100
AcDbEntity
  8
GUSCI_ESTERNI
100
AcDbCircle
 62
7
  6
CONTINUOUS
 10
8.4229695565
 20
-16.0636932721
 40
2.5
100
AcDbArc
 50
270.0
 51
360.0
  0
ARC
  5
580
100
AcDbEntity
  8
GUSCI_ESTERNI
100
AcDbCircle
 62
7
  6
CONTINUOUS
 10
8.4229695565
 20
-14.0236932721
 40
2.5
100
AcDbArc
 50
0.0
 51
90.0
  0
ARC
  5
581
100
AcDbEntity
  8
ASSI
100
AcDbCircle
 62
7
  6
CONTINUOUS
 10
8.4229695565
 20
-16.0636932721
 40
2.5
100
AcDbArc
 50
270.0
 51
360.0
  0
ARC
  5
582
100
AcDbEntity
  8
ASSI
100
AcDbCircle
 62
7
  6
CONTINUOUS
 10
8.4229695565
 20
-14.0236932721
 40
2.5
100
AcDbArc
 50
0.0
 51
90.0
  0
ARC
  5
583
100
AcDbEntity
  8
GUSCI_ESTERNI
100
AcDbCircle
 62
7
  6
CONTINUOUS
 10
8.7229695565
 20
-14.0186932721
 40
1.5
100
AcDbArc
 50
0.0
 51
90.0
  0
ARC
  5
584
100
AcDbEntity
  8
GUSCI_ESTERNI
100
AcDbCircle
 62
7
  6
CONTINUOUS
 10
8.7229695565
 20
-16.0686932721
 40
1.5
100
AcDbArc
 50
270.0
 51
360.0
  0
ARC
  5
585
100
AcDbEntity
  8
ASSI
100
AcDbCircle
 62
7
  6
CONTINUOUS
 10
8.7229695565
 20
-14.0186932721
 40
1.5
100
AcDbArc
 50
0.0
 51
90.0
  0
ARC
  5
586
100
AcDbEntity
  8
ASSI
100
AcDbCircle
 62
7
  6
CONTINUOUS
 10
8.7229695565
 20
-16.0686932721
 40
1.5
100
AcDbArc
 50
270.0
 51
360.0
  0
ARC
  5
587
100
AcDbEntity
  8
RACCORDO
100
AcDbCircle
 62
7
  6
CONTINUOUS
 10
2.3229695565
 20
-15.7936932721
 40
1.0
100
AcDbArc
 50
180.0
 51
270.0
  0
ARC
  5
588
100
AcDbEntity
  8
RACCORDO
100
AcDbCircle
 62
7
  6
CONTINUOUS
 10
2.3229695565
 20
-14.2936932721
 40
1.0
100
AcDbArc
 50
90.0
 51
180.0
  0
ARC
  5
589
100
AcDbEntity
  8
GUSCI_ESTERNI
100
AcDbCircle
 62
7
  6
CONTINUOUS
 10
8.6729695565
 20
-14.2936932721
 40
1.0
100
AcDbArc
 50
0.0
 51
90.0
  0
ARC
  5
58A
100
AcDbEntity
  8
GUSCI_ESTERNI
100
AcDbCircle
 62
7
  6
CONTINUOUS
 10
8.6729695565
 20
-15.7936932721
 40
1.0
100
AcDbArc
 50
270.0
 51
360.0
  0
ARC
  5
58B
100
AcDbEntity
  8
ASSI
100
AcDbCircle
 62
7
  6
CONTINUOUS
 10
8.6729695565
 20
-14.2936932721
 40
1.0
100
AcDbArc
 50
0.0
 51
90.0
  0
ARC
  5
58C
100
AcDbEntity
  8
ASSI
100
AcDbCircle
 62
7
  6
CONTINUOUS
 10
8.6729695565
 20
-15.7936932721
 40
1.0
100
AcDbArc
 50
270.0
 51
360.0
  0
ARC
  5
58D
100
AcDbEntity
  8
0
100
AcDbCircle
 62
7
  6
CONTINUOUS
 10
3.1520538764
 20
18.8203412631
 40
7.237204338
100
AcDbArc
 50
312.7538400515
 51
315.0385209982
  0
ARC
  5
58E
100
AcDbEntity
  8
0
100
AcDbCircle
 62
7
  6
CONTINUOUS
 10
7.8937196049
 20
18.8201691558
 40
7.2369655237
100
AcDbArc
 50
224.9614414785
 51
227.2461920541
  0
ARC
  5
58F
100
AcDbEntity
  8
RACCORDO
100
AcDbCircle
 62
7
  6
CONTINUOUS
 10
2.3229695565
 20
16.0063067279
 40
1.0
100
AcDbArc
 50
90.0
 51
180.0
  0
ARC
  5
590
100
AcDbEntity
  8
RACCORDO
100
AcDbCircle
 62
7
  6
CONTINUOUS
 10
2.3229695565
 20
14.5063067279
 40
1.0
100
AcDbArc
 50
180.0
 51
270.0
  0
ARC
  5
591
100
AcDbEntity
  8
GUSCI_ESTERNI
100
AcDbCircle
 62
7
  6
CONTINUOUS
 10
8.6729695565
 20
16.0063067279
 40
1.0
100
AcDbArc
 50
0.0
 51
90.0
  0
ARC
  5
592
100
AcDbEntity
  8
GUSCI_ESTERNI
100
AcDbCircle
 62
7
  6
CONTINUOUS
 10
8.6729695565
 20
14.5063067279
 40
1.0
100
AcDbArc
 50
270.0
 51
360.0
  0
ARC
  5
593
100
AcDbEntity
  8
ASSI
100
AcDbCircle
 62
7
  6
CONTINUOUS
 10
8.6729695565
 20
16.0063067279
 40
1.0
100
AcDbArc
 50
0.0
 51
90.0
  0
ARC
  5
594
100
AcDbEntity
  8
ASSI
100
AcDbCircle
 62
7
  6
CONTINUOUS
 10
8.6729695565
 20
14.5063067279
 40
1.0
100
AcDbArc
 50
270.0
 51
360.0
  0
ARC
  5
595
100
AcDbEntity
  8
SMUSSO
100
AcDbCircle
 62
7
  6
CONTINUOUS
 10
5.3229695565
 20
1.6063067279
 40
0.85
100
AcDbArc
 50
331.9249350285
 51
28.0750649715
  0
ARC
  5
596
100
AcDbEntity
  8
ASSI
100
AcDbCircle
 62
7
  6
CONTINUOUS
 10
5.5229695565
 20
1.6063067279
 40
0.4
100
AcDbArc
 50
90.0
 51
270.0
  0
ARC
  5
597
100
AcDbEntity
  8
GUSCI_ESTERNI
100
AcDbCircle
 62
7
  6
CONTINUOUS
 10
6.1229695565
 20
1.6063067279
 40
0.4
100
AcDbArc
 50
270.0
 51
90.0
  0
ARC
  5
598
100
AcDbEntity
  8
ASSI
100
AcDbCircle
 62
7
  6
CONTINUOUS
 10
6.1229695565
 20
1.6063067279
 40
0.4
100
AcDbArc
 50
270.0
 51
90.0
  0
ARC
  5
599
100
AcDbEntity
  8
0
100
AcDbCircle
 62
7
  6
CONTINUOUS
 10
5.3229695565
 20
1.6063067279
 40
0.2
100
AcDbArc
 50
180.8103840232
 51
179.1896159768
  0
LINE
  5
59A
100
AcDbEntity
  8
0
100
AcDbLine
 62
7
  6
CONTINUOUS
 10
-5.3530324709
 20
13.7063067279
 11
-5.4651279233
 21
13.5951970497
  0
LINE
  5
59B
100
AcDbEntity
  8
0
100
AcDbLine
 62
7
  6
CONTINUOUS
 10
-5.4651279233
 20
13.5951970497
 11
-5.4778418652
 21
13.5825975993
  0
LINE
  5
59C
100
AcDbEntity
  8
0
100
AcDbLine
 62
7
  6
CONTINUOUS
 10
-5.4778418652
 20
13.5825975993
 11
-5.5548394005
 21
13.506306041
  0
SPLINE
  5
59D
100
AcDbEntity
  8
RACCORDO
100
AcDbSpline
 62
7
  6
CONTINUOUS
 70
0
 71
3
 72
15
 73
11
 74
9
 42
0.0000001
 43
0.0000001
 44
0.0000000001
 12
0.0
 22
-0.2111382813
 32
0.0
 13
-0.2111382813
 23
0.0
 33
0.0
 40
0.0
 40
0.0
 40
0.0
 40
0.0
 40
0.0439442675
 40
0.1101623793
 40
0.2046015558
 40
0.3264318053
 40
0.4722211756
 40
0.637079879
 40
0.8151593889
 40
1.0
 40
1.0
 40
1.0
 40
1.0
 10
-1.1270304435
 20
24.2888872001
 30
0.0
 10
-1.1270304435
 20
24.2857944277
 30
0.0
 10
-1.1313753195
 20
24.2784058269
 30
0.0
 10
-1.1438401039
 20
24.2710140776
 30
0.0
 10
-1.1624339333
 20
24.2637892792
 30
0.0
 10
-1.1871916671
 20
24.2575837434
 30
0.0
 10
-1.2171994842
 20
24.2523828866
 30
0.0
 10
-1.25139629
 20
24.2485227828
 30
0.0
 10
-1.2884756695
 20
24.2461334694
 30
0.0
 10
-1.3140214672
 20
24.2455992773
 30
0.0
 10
-1.3270304435
 20
24.2455992773
 30
0.0
 11
-1.1270304435
 21
24.2888872001
 31
0.0
 11
-1.1308733875
 21
24.2804421453
 31
0.0
 11
-1.142254537
 21
24.2723216292
 31
0.0
 11
-1.1607365211
 21
24.2648377187
 31
0.0
 11
-1.1856090873
 21
24.2582780163
 31
0.0
 11
-1.2159163969
 21
24.2528946077
 31
0.0
 11
-1.2504937571
 21
24.2488943742
 31
0.0
 11
-1.2880123791
 21
24.2464310426
 31
0.0
 11
-1.3270304435
 21
24.2455992773
 31
0.0
  0
SPLINE
  5
59E
100
AcDbEntity
  8
RACCORDO
100
AcDbSpline
 62
7
  6
CONTINUOUS
 70
0
 71
3
 72
15
 73
11
 74
9
 42
0.0000001
 43
0.0000001
 44
0.0000000001
 12
-0.2111382813
 22
0.0
 32
0.0
 13
0.0
 23
0.2111382813
 33
0.0
 40
0.0
 40
0.0
 40
0.0
 40
0.0
 40
0.1848406111
 40
0.362920121
 40
0.5277788244
 40
0.6735681947
 40
0.7953984442
 40
0.8898376207
 40
0.9560557325
 40
1.0
 40
1.0
 40
1.0
 40
1.0
 10
-4.2270304435
 20
24.2455992773
 30
0.0
 10
-4.2400394199
 20
24.2455992773
 30
0.0
 10
-4.2655852176
 20
24.2461334694
 30
0.0
 10
-4.3026645971
 20
24.2485227828
 30
0.0
 10
-4.3368614029
 20
24.2523828866
 30
0.0
 10
-4.3668692199
 20
24.2575837434
 30
0.0
 10
-4.3916269538
 20
24.2637892792
 30
0.0
 10
-4.4102207832
 20
24.2710140776
 30
0.0
 10
-4.4226855676
 20
24.2784058269
 30
0.0
 10
-4.4270304435
 20
24.2857944277
 30
0.0
 10
-4.4270304435
 20
24.2888872001
 30
0.0
 11
-4.2270304435
 21
24.2455992773
 31
0.0
 11
-4.2660485079
 21
24.2464310426
 31
0.0
 11
-4.30356713
 21
24.2488943742
 31
0.0
 11
-4.3381444901
 21
24.2528946077
 31
0.0
 11
-4.3684517998
 21
24.2582780163
 31
0.0
 11
-4.393324366
 21
24.2648377187
 31
0.0
 11
-4.41180635
 21
24.2723216292
 31
0.0
 11
-4.4231874996
 21
24.2804421453
 31
0.0
 11
-4.4270304435
 21
24.2888872001
 31
0.0
  0
SPLINE
  5
59F
100
AcDbEntity
  8
RACCORDO
100
AcDbSpline
 62
7
  6
CONTINUOUS
 70
0
 71
3
 72
15
 73
11
 74
9
 42
0.0000001
 43
0.0000001
 44
0.0000000001
 12
-0.2111382813
 22
0.0
 32
0.0
 13
0.0
 23
0.2111382813
 33
0.0
 40
0.0
 40
0.0
 40
0.0
 40
0.0
 40
0.1848406111
 40
0.362920121
 40
0.5277788244
 40
0.6735681947
 40
0.7953984442
 40
0.8898376207
 40
0.9560557325
 40
1.0
 40
1.0
 40
1.0
 40
1.0
 10
1.4729695565
 20
24.2455992773
 30
0.0
 10
1.4599605801
 20
24.2455992773
 30
0.0
 10
1.4344147824
 20
24.2461334694
 30
0.0
 10
1.3973354029
 20
24.2485227828
 30
0.0
 10
1.3631385971
 20
24.2523828866
 30
0.0
 10
1.3331307801
 20
24.2575837434
 30
0.0
 10
1.3083730462
 20
24.2637892792
 30
0.0
 10
1.2897792168
 20
24.2710140776
 30
0.0
 10
1.2773144324
 20
24.2784058269
 30
0.0
 10
1.2729695565
 20
24.2857944277
 30
0.0
 10
1.2729695565
 20
24.2888872001
 30
0.0
 11
1.4729695565
 21
24.2455992773
 31
0.0
 11
1.4339514921
 21
24.2464310426
 31
0.0
 11
1.39643287
 21
24.2488943742
 31
0.0
 11
1.3618555099
 21
24.2528946077
 31
0.0
 11
1.3315482002
 21
24.2582780163
 31
0.0
 11
1.306675634
 21
24.2648377187
 31
0.0
 11
1.28819365
 21
24.2723216292
 31
0.0
 11
1.2768125004
 21
24.2804421453
 31
0.0
 11
1.2729695565
 21
24.2888872001
 31
0.0
  0
SPLINE
  5
5A0
100
AcDbEntity
  8
RACCORDO
100
AcDbSpline
 62
7
  6
CONTINUOUS
 70
0
 71
3
 72
15
 73
11
 74
9
 42
0.0000001
 43
0.0000001
 44
0.0000000001
 12
0.0
 22
-0.2111382813
 32
0.0
 13
-0.2111382813
 23
0.0
 33
0.0
 40
0.0
 40
0.0
 40
0.0
 40
0.0
 40
0.0439442675
 40
0.1101623793
 40
0.2046015558
 40
0.3264318053
 40
0.4722211756
 40
0.637079879
 40
0.8151593889
 40
1.0
 40
1.0
 40
1.0
 40
1.0
 10
4.5729695565
 20
24.2888872001
 30
0.0
 10
4.5729695565
 20
24.2857944277
 30
0.0
 10
4.5686246805
 20
24.2784058269
 30
0.0
 10
4.5561598961
 20
24.2710140776
 30
0.0
 10
4.5375660667
 20
24.2637892792
 30
0.0
 10
4.5128083329
 20
24.2575837434
 30
0.0
 10
4.4828005158
 20
24.2523828866
 30
0.0
 10
4.44860371
 20
24.2485227828
 30
0.0
 10
4.4115243305
 20
24.2461334694
 30
0.0
 10
4.3859785328
 20
24.2455992773
 30
0.0
 10
4.3729695565
 20
24.2455992773
 30
0.0
 11
4.5729695565
 21
24.2888872001
 31
0.0
 11
4.5691266125
 21
24.2804421453
 31
0.0
 11
4.557745463
 21
24.2723216292
 31
0.0
 11
4.5392634789
 21
24.2648377187
 31
0.0
 11
4.5143909127
 21
24.2582780163
 31
0.0
 11
4.4840836031
 21
24.2528946077
 31
0.0
 11
4.4495062429
 21
24.2488943742
 31
0.0
 11
4.4119876209
 21
24.2464310426
 31
0.0
 11
4.3729695565
 21
24.2455992773
 31
0.0
  0
SPLINE
  5
5A1
100
AcDbEntity
  8
RACCORDO
100
AcDbSpline
 62
7
  6
CONTINUOUS
 70
0
 71
3
 72
15
 73
11
 74
9
 42
0.0000001
 43
0.0000001
 44
0.0000000001
 12
0.0
 22
0.2111382813
 32
0.0
 13
0.2111382813
 23
0.0
 33
0.0
 40
0.0
 40
0.0
 40
0.0
 40
0.0
 40
0.0439442675
 40
0.1101623793
 40
0.2046015558
 40
0.3264318053
 40
0.4722211756
 40
0.637079879
 40
0.8151593889
 40
1.0
 40
1.0
 40
1.0
 40
1.0
 10
3.8229695565
 20
23.5198857058
 30
0.0
 10
3.8229695565
 20
23.5229784782
 30
0.0
 10
3.8273144324
 20
23.530367079
 30
0.0
 10
3.8397792168
 20
23.5377588283
 30
0.0
 10
3.8583730462
 20
23.5449836267
 30
0.0
 10
3.8831307801
 20
23.5511891625
 30
0.0
 10
3.9131385971
 20
23.5563900193
 30
0.0
 10
3.9473354029
 20
23.5602501231
 30
0.0
 10
3.9844147824
 20
23.5626394365
 30
0.0
 10
4.0099605801
 20
23.5631736286
 30
0.0
 10
4.0229695565
 20
23.5631736286
 30
0.0
 11
3.8229695565
 21
23.5198857058
 31
0.0
 11
3.8268125004
 21
23.5283307606
 31
0.0
 11
3.83819365
 21
23.5364512767
 31
0.0
 11
3.856675634
 21
23.5439351872
 31
0.0
 11
3.8815482002
 21
23.5504948896
 31
0.0
 11
3.9118555099
 21
23.5558782982
 31
0.0
 11
3.94643287
 21
23.5598785317
 31
0.0
 11
3.9839514921
 21
23.5623418633
 31
0.0
 11
4.0229695565
 21
23.5631736286
 31
0.0
  0
SPLINE
  5
5A2
100
AcDbEntity
  8
RACCORDO
100
AcDbSpline
 62
7
  6
CONTINUOUS
 70
0
 71
3
 72
15
 73
11
 74
9
 42
0.0000001
 43
0.0000001
 44
0.0000000001
 12
0.2111382813
 22
0.0
 32
0.0
 13
0.0
 23
-0.2111382813
 33
0.0
 40
0.0
 40
0.0
 40
0.0
 40
0.0
 40
0.1848406111
 40
0.362920121
 40
0.5277788244
 40
0.6735681947
 40
0.7953984442
 40
0.8898376207
 40
0.9560557325
 40
1.0
 40
1.0
 40
1.0
 40
1.0
 10
4.3729695565
 20
24.9598500033
 30
0.0
 10
4.3859785328
 20
24.9598500033
 30
0.0
 10
4.4115243305
 20
24.9593158111
 30
0.0
 10
4.44860371
 20
24.9569264978
 30
0.0
 10
4.4828005158
 20
24.953066394
 30
0.0
 10
4.5128083329
 20
24.9478655372
 30
0.0
 10
4.5375660667
 20
24.9416600014
 30
0.0
 10
4.5561598961
 20
24.9344352029
 30
0.0
 10
4.5686246805
 20
24.9270434537
 30
0.0
 10
4.5729695565
 20
24.9196548529
 30
0.0
 10
4.5729695565
 20
24.9165620805
 30
0.0
 11
4.3729695565
 21
24.9598500033
 31
0.0
 11
4.4119876209
 21
24.959018238
 31
0.0
 11
4.4495062429
 21
24.9565549064
 31
0.0
 11
4.4840836031
 21
24.9525546729
 31
0.0
 11
4.5143909127
 21
24.9471712642
 31
0.0
 11
4.5392634789
 21
24.9406115618
 31
0.0
 11
4.557745463
 21
24.9331276514
 31
0.0
 11
4.5691266125
 21
24.9250071353
 31
0.0
 11
4.5729695565
 21
24.9165620805
 31
0.0
  0
SPLINE
  5
5A3
100
AcDbEntity
  8
RACCORDO
100
AcDbSpline
 62
7
  6
CONTINUOUS
 70
0
 71
3
 72
15
 73
11
 74
9
 42
0.0000001
 43
0.0000001
 44
0.0000000001
 12
0.0
 22
0.2111382813
 32
0.0
 13
0.2111382813
 23
0.0
 33
0.0
 40
0.0
 40
0.0
 40
0.0
 40
0.0
 40
0.0439442675
 40
0.1101623793
 40
0.2046015558
 40
0.3264318053
 40
0.4722211756
 40
0.637079879
 40
0.8151593889
 40
1.0
 40
1.0
 40
1.0
 40
1.0
 10
1.2729695565
 20
24.9165620805
 30
0.0
 10
1.2729695565
 20
24.9196548529
 30
0.0
 10
1.2773144324
 20
24.9270434537
 30
0.0
 10
1.2897792168
 20
24.9344352029
 30
0.0
 10
1.3083730462
 20
24.9416600014
 30
0.0
 10
1.3331307801
 20
24.9478655372
 30
0.0
 10
1.3631385971
 20
24.953066394
 30
0.0
 10
1.3973354029
 20
24.9569264978
 30
0.0
 10
1.4344147824
 20
24.9593158111
 30
0.0
 10
1.4599605801
 20
24.9598500033
 30
0.0
 10
1.4729695565
 20
24.9598500033
 30
0.0
 11
1.2729695565
 21
24.9165620805
 31
0.0
 11
1.2768125004
 21
24.9250071353
 31
0.0
 11
1.28819365
 21
24.9331276514
 31
0.0
 11
1.306675634
 21
24.9406115618
 31
0.0
 11
1.3315482002
 21
24.9471712642
 31
0.0
 11
1.3618555099
 21
24.9525546729
 31
0.0
 11
1.39643287
 21
24.9565549064
 31
0.0
 11
1.4339514921
 21
24.959018238
 31
0.0
 11
1.4729695565
 21
24.9598500033
 31
0.0
  0
SPLINE
  5
5A4
100
AcDbEntity
  8
RACCORDO
100
AcDbSpline
 62
7
  6
CONTINUOUS
 70
0
 71
3
 72
15
 73
11
 74
9
 42
0.0000001
 43
0.0000001
 44
0.0000000001
 12
0.2111382813
 22
0.0
 32
0.0
 13
0.0
 23
-0.2111382813
 33
0.0
 40
0.0
 40
0.0
 40
0.0
 40
0.0
 40
0.1848406111
 40
0.362920121
 40
0.5277788244
 40
0.6735681947
 40
0.7953984442
 40
0.8898376207
 40
0.9560557325
 40
1.0
 40
1.0
 40
1.0
 40
1.0
 10
-3.8770304435
 20
23.5631736286
 30
0.0
 10
-3.8640214672
 20
23.5631736286
 30
0.0
 10
-3.8384756695
 20
23.5626394365
 30
0.0
 10
-3.80139629
 20
23.5602501231
 30
0.0
 10
-3.7671994842
 20
23.5563900193
 30
0.0
 10
-3.7371916671
 20
23.5511891625
 30
0.0
 10
-3.7124339333
 20
23.5449836267
 30
0.0
 10
-3.6938401039
 20
23.5377588283
 30
0.0
 10
-3.6813753195
 20
23.530367079
 30
0.0
 10
-3.6770304435
 20
23.5229784782
 30
0.0
 10
-3.6770304435
 20
23.5198857058
 30
0.0
 11
-3.8770304435
 21
23.5631736286
 31
0.0
 11
-3.8380123791
 21
23.5623418633
 31
0.0
 11
-3.8004937571
 21
23.5598785317
 31
0.0
 11
-3.7659163969
 21
23.5558782982
 31
0.0
 11
-3.7356090873
 21
23.5504948896
 31
0.0
 11
-3.7107365211
 21
23.5439351872
 31
0.0
 11
-3.692254537
 21
23.5364512767
 31
0.0
 11
-3.6808733875
 21
23.5283307606
 31
0.0
 11
-3.6770304435
 21
23.5198857058
 31
0.0
  0
SPLINE
  5
5A5
100
AcDbEntity
  8
RACCORDO
100
AcDbSpline
 62
7
  6
CONTINUOUS
 70
0
 71
3
 72
15
 73
11
 74
9
 42
0.0000001
 43
0.0000001
 44
0.0000000001
 12
0.2111382813
 22
0.0
 32
0.0
 13
0.0
 23
-0.2111382813
 33
0.0
 40
0.0
 40
0.0
 40
0.0
 40
0.0
 40
0.1848406111
 40
0.362920121
 40
0.5277788244
 40
0.6735681947
 40
0.7953984442
 40
0.8898376207
 40
0.9560557325
 40
1.0
 40
1.0
 40
1.0
 40
1.0
 10
-1.3270304435
 20
24.9598500033
 30
0.0
 10
-1.3140214672
 20
24.9598500033
 30
0.0
 10
-1.2884756695
 20
24.9593158111
 30
0.0
 10
-1.25139629
 20
24.9569264978
 30
0.0
 10
-1.2171994842
 20
24.953066394
 30
0.0
 10
-1.1871916671
 20
24.9478655372
 30
0.0
 10
-1.1624339333
 20
24.9416600014
 30
0.0
 10
-1.1438401039
 20
24.9344352029
 30
0.0
 10
-1.1313753195
 20
24.9270434537
 30
0.0
 10
-1.1270304435
 20
24.9196548529
 30
0.0
 10
-1.1270304435
 20
24.9165620805
 30
0.0
 11
-1.3270304435
 21
24.9598500033
 31
0.0
 11
-1.2880123791
 21
24.959018238
 31
0.0
 11
-1.2504937571
 21
24.9565549064
 31
0.0
 11
-1.2159163969
 21
24.9525546729
 31
0.0
 11
-1.1856090873
 21
24.9471712642
 31
0.0
 11
-1.1607365211
 21
24.9406115618
 31
0.0
 11
-1.142254537
 21
24.9331276514
 31
0.0
 11
-1.1308733875
 21
24.9250071353
 31
0.0
 11
-1.1270304435
 21
24.9165620805
 31
0.0
  0
SPLINE
  5
5A6
100
AcDbEntity
  8
RACCORDO
100
AcDbSpline
 62
7
  6
CONTINUOUS
 70
0
 71
3
 72
15
 73
11
 74
9
 42
0.0000001
 43
0.0000001
 44
0.0000000001
 12
0.0
 22
0.2111382813
 32
0.0
 13
0.2111382813
 23
0.0
 33
0.0
 40
0.0
 40
0.0
 40
0.0
 40
0.0
 40
0.0439442675
 40
0.1101623793
 40
0.2046015558
 40
0.3264318053
 40
0.4722211756
 40
0.637079879
 40
0.8151593889
 40
1.0
 40
1.0
 40
1.0
 40
1.0
 10
-4.4270304435
 20
24.9165620805
 30
0.0
 10
-4.4270304435
 20
24.9196548529
 30
0.0
 10
-4.4226855676
 20
24.9270434537
 30
0.0
 10
-4.4102207832
 20
24.9344352029
 30
0.0
 10
-4.3916269538
 20
24.9416600014
 30
0.0
 10
-4.3668692199
 20
24.9478655372
 30
0.0
 10
-4.3368614029
 20
24.953066394
 30
0.0
 10
-4.3026645971
 20
24.9569264978
 30
0.0
 10
-4.2655852176
 20
24.9593158111
 30
0.0
 10
-4.2400394199
 20
24.9598500033
 30
0.0
 10
-4.2270304435
 20
24.9598500033
 30
0.0
 11
-4.4270304435
 21
24.9165620805
 31
0.0
 11
-4.4231874996
 21
24.9250071353
 31
0.0
 11
-4.41180635
 21
24.9331276514
 31
0.0
 11
-4.393324366
 21
24.9406115618
 31
0.0
 11
-4.3684517998
 21
24.9471712642
 31
0.0
 11
-4.3381444901
 21
24.9525546729
 31
0.0
 11
-4.30356713
 21
24.9565549064
 31
0.0
 11
-4.2660485079
 21
24.959018238
 31
0.0
 11
-4.2270304435
 21
24.9598500033
 31
0.0
  0
SPLINE
  5
5A7
100
AcDbEntity
  8
RACCORDO
100
AcDbSpline
 62
7
  6
CONTINUOUS
 70
0
 71
3
 72
15
 73
11
 74
9
 42
0.0000001
 43
0.0000001
 44
0.0000000001
 12
0.0
 22
0.2111382813
 32
0.0
 13
0.2111382813
 23
-0.0
 33
0.0
 40
0.0
 40
0.0
 40
0.0
 40
0.0
 40
0.0439442675
 40
0.1101623793
 40
0.2046015558
 40
0.3264318053
 40
0.4722211756
 40
0.637079879
 40
0.8151593889
 40
1.0
 40
1.0
 40
1.0
 40
1.0
 10
1.2729695565
 20
-24.0762737444
 30
0.0
 10
1.2729695565
 20
-24.073180972
 30
0.0
 10
1.2773144324
 20
-24.0657923712
 30
0.0
 10
1.2897792168
 20
-24.0584006219
 30
0.0
 10
1.3083730462
 20
-24.0511758235
 30
0.0
 10
1.3331307801
 20
-24.0449702877
 30
0.0
 10
1.3631385971
 20
-24.0397694309
 30
0.0
 10
1.3973354029
 20
-24.0359093271
 30
0.0
 10
1.4344147824
 20
-24.0335200137
 30
0.0
 10
1.4599605801
 20
-24.0329858216
 30
0.0
 10
1.4729695565
 20
-24.0329858216
 30
0.0
 11
1.2729695565
 21
-24.0762737444
 31
0.0
 11
1.2768125004
 21
-24.0678286896
 31
0.0
 11
1.28819365
 21
-24.0597081735
 31
0.0
 11
1.306675634
 21
-24.052224263
 31
0.0
 11
1.3315482002
 21
-24.0456645606
 31
0.0
 11
1.3618555098
 21
-24.040281152
 31
0.0
 11
1.39643287
 21
-24.0362809185
 31
0.0
 11
1.4339514921
 21
-24.0338175869
 31
0.0
 11
1.4729695565
 21
-24.0329858216
 31
0.0
  0
SPLINE
  5
5A8
100
AcDbEntity
  8
RACCORDO
100
AcDbSpline
 62
7
  6
CONTINUOUS
 70
0
 71
3
 72
15
 73
11
 74
9
 42
0.0000001
 43
0.0000001
 44
0.0000000001
 12
0.2111382813
 22
0.0
 32
0.0
 13
0.0
 23
-0.2111382813
 33
0.0
 40
0.0
 40
0.0
 40
0.0
 40
0.0
 40
0.1848406111
 40
0.362920121
 40
0.5277788244
 40
0.6735681947
 40
0.7953984442
 40
0.8898376207
 40
0.9560557325
 40
1.0
 40
1.0
 40
1.0
 40
1.0
 10
4.3729695565
 20
-24.0329858216
 30
0.0
 10
4.3859785328
 20
-24.0329858216
 30
0.0
 10
4.4115243305
 20
-24.0335200137
 30
0.0
 10
4.44860371
 20
-24.0359093271
 30
0.0
 10
4.4828005158
 20
-24.0397694309
 30
0.0
 10
4.5128083329
 20
-24.0449702877
 30
0.0
 10
4.5375660667
 20
-24.0511758235
 30
0.0
 10
4.5561598961
 20
-24.0584006219
 30
0.0
 10
4.5686246805
 20
-24.0657923712
 30
0.0
 10
4.5729695565
 20
-24.073180972
 30
0.0
 10
4.5729695565
 20
-24.0762737444
 30
0.0
 11
4.3729695565
 21
-24.0329858216
 31
0.0
 11
4.4119876209
 21
-24.0338175869
 31
0.0
 11
4.4495062429
 21
-24.0362809185
 31
0.0
 11
4.4840836031
 21
-24.040281152
 31
0.0
 11
4.5143909127
 21
-24.0456645606
 31
0.0
 11
4.5392634789
 21
-24.052224263
 31
0.0
 11
4.557745463
 21
-24.0597081735
 31
0.0
 11
4.5691266125
 21
-24.0678286896
 31
0.0
 11
4.5729695565
 21
-24.0762737444
 31
0.0
  0
SPLINE
  5
5A9
100
AcDbEntity
  8
RACCORDO
100
AcDbSpline
 62
7
  6
CONTINUOUS
 70
0
 71
3
 72
15
 73
11
 74
9
 42
0.0000001
 43
0.0000001
 44
0.0000000001
 12
0.2111382813
 22
0.0
 32
0.0
 13
0.0
 23
-0.2111382813
 33
0.0
 40
0.0
 40
0.0
 40
0.0
 40
0.0
 40
0.1848406111
 40
0.362920121
 40
0.5277788244
 40
0.6735681947
 40
0.7953984442
 40
0.8898376207
 40
0.9560557325
 40
1.0
 40
1.0
 40
1.0
 40
1.0
 10
-1.3270304435
 20
-24.0329858216
 30
0.0
 10
-1.3140214672
 20
-24.0329858216
 30
0.0
 10
-1.2884756695
 20
-24.0335200137
 30
0.0
 10
-1.25139629
 20
-24.0359093271
 30
0.0
 10
-1.2171994842
 20
-24.0397694309
 30
0.0
 10
-1.1871916671
 20
-24.0449702877
 30
0.0
 10
-1.1624339333
 20
-24.0511758235
 30
0.0
 10
-1.1438401039
 20
-24.0584006219
 30
0.0
 10
-1.1313753195
 20
-24.0657923712
 30
0.0
 10
-1.1270304435
 20
-24.073180972
 30
0.0
 10
-1.1270304435
 20
-24.0762737444
 30
0.0
 11
-1.3270304435
 21
-24.0329858216
 31
0.0
 11
-1.2880123791
 21
-24.0338175869
 31
0.0
 11
-1.2504937571
 21
-24.0362809185
 31
0.0
 11
-1.2159163969
 21
-24.040281152
 31
0.0
 11
-1.1856090873
 21
-24.0456645606
 31
0.0
 11
-1.1607365211
 21
-24.052224263
 31
0.0
 11
-1.142254537
 21
-24.0597081735
 31
0.0
 11
-1.1308733875
 21
-24.0678286896
 31
0.0
 11
-1.1270304435
 21
-24.0762737444
 31
0.0
  0
SPLINE
  5
5AA
100
AcDbEntity
  8
RACCORDO
100
AcDbSpline
 62
7
  6
CONTINUOUS
 70
0
 71
3
 72
15
 73
11
 74
9
 42
0.0000001
 43
0.0000001
 44
0.0000000001
 12
0.0
 22
0.2111382813
 32
0.0
 13
0.2111382813
 23
0.0
 33
0.0
 40
0.0
 40
0.0
 40
0.0
 40
0.0
 40
0.0439442675
 40
0.1101623793
 40
0.2046015558
 40
0.3264318053
 40
0.4722211756
 40
0.637079879
 40
0.8151593889
 40
1.0
 40
1.0
 40
1.0
 40
1.0
 10
-4.4270304435
 20
-24.0762737444
 30
0.0
 10
-4.4270304435
 20
-24.073180972
 30
0.0
 10
-4.4226855676
 20
-24.0657923712
 30
0.0
 10
-4.4102207832
 20
-24.0584006219
 30
0.0
 10
-4.3916269538
 20
-24.0511758235
 30
0.0
 10
-4.3668692199
 20
-24.0449702877
 30
0.0
 10
-4.3368614029
 20
-24.0397694309
 30
0.0
 10
-4.3026645971
 20
-24.0359093271
 30
0.0
 10
-4.2655852176
 20
-24.0335200137
 30
0.0
 10
-4.2400394199
 20
-24.0329858216
 30
0.0
 10
-4.2270304435
 20
-24.0329858216
 30
0.0
 11
-4.4270304435
 21
-24.0762737444
 31
0.0
 11
-4.4231874996
 21
-24.0678286896
 31
0.0
 11
-4.41180635
 21
-24.0597081735
 31
0.0
 11
-4.393324366
 21
-24.052224263
 31
0.0
 11
-4.3684517998
 21
-24.0456645606
 31
0.0
 11
-4.3381444902
 21
-24.040281152
 31
0.0
 11
-4.30356713
 21
-24.0362809185
 31
0.0
 11
-4.2660485079
 21
-24.0338175869
 31
0.0
 11
-4.2270304435
 21
-24.0329858216
 31
0.0
  0
SPLINE
  5
5AB
100
AcDbEntity
  8
RACCORDO
100
AcDbSpline
 62
7
  6
CONTINUOUS
 70
0
 71
3
 72
15
 73
11
 74
9
 42
0.0000001
 43
0.0000001
 44
0.0000000001
 12
0.0
 22
-0.2111382813
 32
0.0
 13
-0.2111382813
 23
0.0
 33
0.0
 40
0.0
 40
0.0
 40
0.0
 40
0.0
 40
0.0439442675
 40
0.1101623793
 40
0.2046015558
 40
0.3264318053
 40
0.4722211756
 40
0.637079879
 40
0.8151593889
 40
1.0
 40
1.0
 40
1.0
 40
1.0
 10
-3.6770304435
 20
-23.3072722501
 30
0.0
 10
-3.6770304435
 20
-23.3103650225
 30
0.0
 10
-3.6813753195
 20
-23.3177536233
 30
0.0
 10
-3.6938401039
 20
-23.3251453726
 30
0.0
 10
-3.7124339333
 20
-23.332370171
 30
0.0
 10
-3.7371916671
 20
-23.3385757068
 30
0.0
 10
-3.7671994842
 20
-23.3437765636
 30
0.0
 10
-3.80139629
 20
-23.3476366674
 30
0.0
 10
-3.8384756695
 20
-23.3500259808
 30
0.0
 10
-3.8640214672
 20
-23.3505601729
 30
0.0
 10
-3.8770304435
 20
-23.3505601729
 30
0.0
 11
-3.6770304435
 21
-23.3072722501
 31
0.0
 11
-3.6808733875
 21
-23.3157173049
 31
0.0
 11
-3.692254537
 21
-23.323837821
 31
0.0
 11
-3.7107365211
 21
-23.3313217315
 31
0.0
 11
-3.7356090873
 21
-23.3378814339
 31
0.0
 11
-3.7659163969
 21
-23.3432648425
 31
0.0
 11
-3.8004937571
 21
-23.347265076
 31
0.0
 11
-3.8380123791
 21
-23.3497284076
 31
0.0
 11
-3.8770304435
 21
-23.3505601729
 31
0.0
  0
SPLINE
  5
5AC
100
AcDbEntity
  8
RACCORDO
100
AcDbSpline
 62
7
  6
CONTINUOUS
 70
0
 71
3
 72
15
 73
11
 74
9
 42
0.0000001
 43
0.0000001
 44
0.0000000001
 12
-0.2111382813
 22
0.0
 32
0.0
 13
0.0
 23
0.2111382813
 33
0.0
 40
0.0
 40
0.0
 40
0.0
 40
0.0
 40
0.1848406111
 40
0.362920121
 40
0.5277788244
 40
0.6735681947
 40
0.7953984442
 40
0.8898376207
 40
0.9560557325
 40
1.0
 40
1.0
 40
1.0
 40
1.0
 10
-4.2270304435
 20
-24.7472365476
 30
0.0
 10
-4.2400394199
 20
-24.7472365476
 30
0.0
 10
-4.2655852176
 20
-24.7467023554
 30
0.0
 10
-4.3026645971
 20
-24.7443130421
 30
0.0
 10
-4.3368614029
 20
-24.7404529383
 30
0.0
 10
-4.3668692199
 20
-24.7352520815
 30
0.0
 10
-4.3916269538
 20
-24.7290465457
 30
0.0
 10
-4.4102207832
 20
-24.7218217472
 30
0.0
 10
-4.4226855676
 20
-24.714429998
 30
0.0
 10
-4.4270304435
 20
-24.7070413972
 30
0.0
 10
-4.4270304435
 20
-24.7039486248
 30
0.0
 11
-4.2270304435
 21
-24.7472365476
 31
0.0
 11
-4.2660485079
 21
-24.7464047823
 31
0.0
 11
-4.30356713
 21
-24.7439414507
 31
0.0
 11
-4.3381444902
 21
-24.7399412172
 31
0.0
 11
-4.3684517998
 21
-24.7345578085
 31
0.0
 11
-4.393324366
 21
-24.7279981061
 31
0.0
 11
-4.41180635
 21
-24.7205141957
 31
0.0
 11
-4.4231874996
 21
-24.7123936796
 31
0.0
 11
-4.4270304435
 21
-24.7039486248
 31
0.0
  0
SPLINE
  5
5AD
100
AcDbEntity
  8
RACCORDO
100
AcDbSpline
 62
7
  6
CONTINUOUS
 70
0
 71
3
 72
15
 73
11
 74
9
 42
0.0000001
 43
0.0000001
 44
0.0000000001
 12
0.0
 22
-0.2111382813
 32
0.0
 13
-0.2111382813
 23
0.0
 33
0.0
 40
0.0
 40
0.0
 40
0.0
 40
0.0
 40
0.0439442675
 40
0.1101623793
 40
0.2046015558
 40
0.3264318053
 40
0.4722211756
 40
0.637079879
 40
0.8151593889
 40
1.0
 40
1.0
 40
1.0
 40
1.0
 10
-1.1270304435
 20
-24.7039486248
 30
0.0
 10
-1.1270304435
 20
-24.7070413972
 30
0.0
 10
-1.1313753195
 20
-24.714429998
 30
0.0
 10
-1.1438401039
 20
-24.7218217472
 30
0.0
 10
-1.1624339333
 20
-24.7290465457
 30
0.0
 10
-1.1871916671
 20
-24.7352520815
 30
0.0
 10
-1.2171994842
 20
-24.7404529383
 30
0.0
 10
-1.25139629
 20
-24.7443130421
 30
0.0
 10
-1.2884756695
 20
-24.7467023554
 30
0.0
 10
-1.3140214672
 20
-24.7472365476
 30
0.0
 10
-1.3270304435
 20
-24.7472365476
 30
0.0
 11
-1.1270304435
 21
-24.7039486248
 31
0.0
 11
-1.1308733875
 21
-24.7123936796
 31
0.0
 11
-1.142254537
 21
-24.7205141957
 31
0.0
 11
-1.1607365211
 21
-24.7279981061
 31
0.0
 11
-1.1856090873
 21
-24.7345578085
 31
0.0
 11
-1.2159163969
 21
-24.7399412172
 31
0.0
 11
-1.2504937571
 21
-24.7439414507
 31
0.0
 11
-1.2880123791
 21
-24.7464047823
 31
0.0
 11
-1.3270304435
 21
-24.7472365476
 31
0.0
  0
SPLINE
  5
5AE
100
AcDbEntity
  8
RACCORDO
100
AcDbSpline
 62
7
  6
CONTINUOUS
 70
0
 71
3
 72
15
 73
11
 74
9
 42
0.0000001
 43
0.0000001
 44
0.0000000001
 12
-0.2111382813
 22
0.0
 32
0.0
 13
0.0
 23
0.2111382813
 33
0.0
 40
0.0
 40
0.0
 40
0.0
 40
0.0
 40
0.1848406111
 40
0.362920121
 40
0.5277788244
 40
0.6735681947
 40
0.7953984442
 40
0.8898376207
 40
0.9560557325
 40
1.0
 40
1.0
 40
1.0
 40
1.0
 10
4.0229695565
 20
-23.3505601729
 30
0.0
 10
4.0099605801
 20
-23.3505601729
 30
0.0
 10
3.9844147824
 20
-23.3500259808
 30
0.0
 10
3.9473354029
 20
-23.3476366674
 30
0.0
 10
3.9131385971
 20
-23.3437765636
 30
0.0
 10
3.8831307801
 20
-23.3385757068
 30
0.0
 10
3.8583730462
 20
-23.332370171
 30
0.0
 10
3.8397792168
 20
-23.3251453726
 30
0.0
 10
3.8273144324
 20
-23.3177536233
 30
0.0
 10
3.8229695565
 20
-23.3103650225
 30
0.0
 10
3.8229695565
 20
-23.3072722501
 30
0.0
 11
4.0229695565
 21
-23.3505601729
 31
0.0
 11
3.9839514921
 21
-23.3497284076
 31
0.0
 11
3.94643287
 21
-23.347265076
 31
0.0
 11
3.9118555098
 21
-23.3432648425
 31
0.0
 11
3.8815482002
 21
-23.3378814339
 31
0.0
 11
3.856675634
 21
-23.3313217315
 31
0.0
 11
3.83819365
 21
-23.323837821
 31
0.0
 11
3.8268125004
 21
-23.3157173049
 31
0.0
 11
3.8229695565
 21
-23.3072722501
 31
0.0
  0
SPLINE
  5
5AF
100
AcDbEntity
  8
RACCORDO
100
AcDbSpline
 62
7
  6
CONTINUOUS
 70
0
 71
3
 72
15
 73
11
 74
9
 42
0.0000001
 43
0.0000001
 44
0.0000000001
 12
-0.2111382813
 22
0.0
 32
0.0
 13
0.0
 23
0.2111382813
 33
0.0
 40
0.0
 40
0.0
 40
0.0
 40
0.0
 40
0.1848406111
 40
0.362920121
 40
0.5277788244
 40
0.6735681947
 40
0.7953984442
 40
0.8898376207
 40
0.9560557325
 40
1.0
 40
1.0
 40
1.0
 40
1.0
 10
1.4729695565
 20
-24.7472365476
 30
0.0
 10
1.4599605801
 20
-24.7472365476
 30
0.0
 10
1.4344147824
 20
-24.7467023554
 30
0.0
 10
1.3973354029
 20
-24.7443130421
 30
0.0
 10
1.3631385971
 20
-24.7404529383
 30
0.0
 10
1.3331307801
 20
-24.7352520815
 30
0.0
 10
1.3083730462
 20
-24.7290465457
 30
0.0
 10
1.2897792168
 20
-24.7218217472
 30
0.0
 10
1.2773144324
 20
-24.714429998
 30
0.0
 10
1.2729695565
 20
-24.7070413972
 30
0.0
 10
1.2729695565
 20
-24.7039486248
 30
0.0
 11
1.4729695565
 21
-24.7472365476
 31
0.0
 11
1.4339514921
 21
-24.7464047823
 31
0.0
 11
1.39643287
 21
-24.7439414507
 31
0.0
 11
1.3618555098
 21
-24.7399412172
 31
0.0
 11
1.3315482002
 21
-24.7345578085
 31
0.0
 11
1.306675634
 21
-24.7279981061
 31
0.0
 11
1.28819365
 21
-24.7205141957
 31
0.0
 11
1.2768125004
 21
-24.7123936796
 31
0.0
 11
1.2729695565
 21
-24.7039486248
 31
0.0
  0
SPLINE
  5
5B0
100
AcDbEntity
  8
RACCORDO
100
AcDbSpline
 62
7
  6
CONTINUOUS
 70
0
 71
3
 72
15
 73
11
 74
9
 42
0.0000001
 43
0.0000001
 44
0.0000000001
 12
0.0
 22
-0.2111382813
 32
0.0
 13
-0.2111382813
 23
-0.0
 33
0.0
 40
0.0
 40
0.0
 40
0.0
 40
0.0
 40
0.0439442675
 40
0.1101623793
 40
0.2046015558
 40
0.3264318053
 40
0.4722211756
 40
0.637079879
 40
0.8151593889
 40
1.0
 40
1.0
 40
1.0
 40
1.0
 10
4.5729695565
 20
-24.7039486248
 30
0.0
 10
4.5729695565
 20
-24.7070413972
 30
0.0
 10
4.5686246805
 20
-24.714429998
 30
0.0
 10
4.5561598961
 20
-24.7218217472
 30
0.0
 10
4.5375660667
 20
-24.7290465457
 30
0.0
 10
4.5128083329
 20
-24.7352520815
 30
0.0
 10
4.4828005158
 20
-24.7404529383
 30
0.0
 10
4.44860371
 20
-24.7443130421
 30
0.0
 10
4.4115243305
 20
-24.7467023554
 30
0.0
 10
4.3859785328
 20
-24.7472365476
 30
0.0
 10
4.3729695565
 20
-24.7472365476
 30
0.0
 11
4.5729695565
 21
-24.7039486248
 31
0.0
 11
4.5691266125
 21
-24.7123936796
 31
0.0
 11
4.557745463
 21
-24.7205141957
 31
0.0
 11
4.5392634789
 21
-24.7279981061
 31
0.0
 11
4.5143909127
 21
-24.7345578085
 31
0.0
 11
4.4840836031
 21
-24.7399412172
 31
0.0
 11
4.4495062429
 21
-24.7439414507
 31
0.0
 11
4.4119876209
 21
-24.7464047823
 31
0.0
 11
4.3729695565
 21
-24.7472365476
 31
0.0
  0
SPLINE
  5
5B1
100
AcDbEntity
  8
ASSI
100
AcDbSpline
 62
7
  6
CONTINUOUS
 70
0
 71
3
 72
15
 73
11
 74
9
 42
0.0000001
 43
0.0000001
 44
0.0000000001
 12
-0.1117776028
 22
0.0
 32
0.0
 13
0.0019914227
 23
0.1117598619
 33
0.0
 40
0.0
 40
0.0
 40
0.0
 40
0.0
 40
0.206712386
 40
0.3879035077
 40
0.544343593
 40
0.6752197961
 40
0.7806433223
 40
0.8643406018
 40
0.933591157
 40
1.0
 40
1.0
 40
1.0
 40
1.0
 10
3.9229695565
 20
21.9225301582
 30
0.0
 10
3.9152676181
 20
21.9225301582
 30
0.0
 10
3.9008130275
 20
21.9227066417
 30
0.0
 10
3.8805505491
 20
21.9237534437
 30
0.0
 10
3.8631864863
 20
21.92566694
 30
0.0
 10
3.848803147
 20
21.9285082924
 30
0.0
 10
3.837483057
 20
21.9324210767
 30
0.0
 10
3.8291669084
 20
21.9374956994
 30
0.0
 10
3.8239075278
 20
21.9440665759
 30
0.0
 10
3.8229254738
 20
21.9492462861
 30
0.0
 10
3.8229695565
 20
21.9517202338
 30
0.0
 11
3.9229695565
 21
21.9225301582
 31
0.0
 11
3.8998663896
 21
21.922879972
 31
0.0
 11
3.8796448965
 21
21.9240111883
 31
0.0
 11
3.862276456
 21
21.9260397036
 31
0.0
 11
3.8479614161
 21
21.9290543514
 31
0.0
 11
3.8369018753
 21
21.9331223922
 31
0.0
 11
3.8290779637
 21
21.9382518596
 31
0.0
 11
3.8244310662
 21
21.944442512
 31
0.0
 11
3.8229695565
 21
21.9517202338
 31
0.0
  0
SPLINE
  5
5B2
100
AcDbEntity
  8
ASSI
100
AcDbSpline
 62
7
  6
CONTINUOUS
 70
0
 71
3
 72
15
 73
11
 74
9
 42
0.0000001
 43
0.0000001
 44
0.0000000001
 12
0.0019915253
 22
-0.1117598621
 32
0.0
 13
-0.1117776048
 23
0.0
 33
0.0
 40
0.0
 40
0.0
 40
0.0
 40
0.0
 40
0.0664085465
 40
0.1356587898
 40
0.2193556425
 40
0.3247785369
 40
0.4556539642
 40
0.6120937728
 40
0.7932857365
 40
1.0
 40
1.0
 40
1.0
 40
1.0
 10
-3.6770304435
 20
21.9517202338
 30
0.0
 10
-3.6769863588
 20
21.9492462971
 30
0.0
 10
-3.6779684013
 20
21.9440666098
 30
0.0
 10
-3.6832277402
 20
21.9374957516
 30
0.0
 10
-3.6915438315
 20
21.9324211336
 30
0.0
 10
-3.7028638469
 20
21.9285083428
 30
0.0
 10
-3.7172471198
 20
21.925666974
 30
0.0
 10
-3.7346111736
 20
21.9237534632
 30
0.0
 10
-3.7548737429
 20
21.9227066464
 30
0.0
 10
-3.7693284351
 20
21.9225301582
 30
0.0
 10
-3.7770304435
 20
21.9225301582
 30
0.0
 11
-3.6770304435
 21
21.9517202338
 31
0.0
 11
-3.6784919367
 21
21.9444425424
 31
0.0
 11
-3.6831387991
 21
21.938251907
 31
0.0
 11
-3.6909626578
 21
21.9331224455
 31
0.0
 11
-3.7020221224
 21
21.9290544017
 31
0.0
 11
-3.7163370718
 21
21.9260397439
 31
0.0
 11
-3.7337054798
 21
21.9240112134
 31
0.0
 11
-3.7539270666
 21
21.9228799802
 31
0.0
 11
-3.7770304435
 21
21.9225301582
 31
0.0
  0
SPLINE
  5
5B3
100
AcDbEntity
  8
RACCORDO
100
AcDbSpline
 62
7
  6
CONTINUOUS
 70
0
 71
3
 72
15
 73
11
 74
9
 42
0.0000001
 43
0.0000001
 44
0.0000000001
 12
-0.2111382813
 22
0.0
 32
0.0
 13
0.0
 23
-0.2111382813
 33
0.0
 40
0.0
 40
0.0
 40
0.0
 40
0.0
 40
0.1848406111
 40
0.362920121
 40
0.5277788244
 40
0.6735681947
 40
0.7953984442
 40
0.8898376207
 40
0.9560557325
 40
1.0
 40
1.0
 40
1.0
 40
1.0
 10
4.0229695565
 20
23.1726552258
 30
0.0
 10
4.0099605801
 20
23.1726552258
 30
0.0
 10
3.9844147824
 20
23.1721210336
 30
0.0
 10
3.9473354029
 20
23.1697317203
 30
0.0
 10
3.9131385971
 20
23.1658716165
 30
0.0
 10
3.8831307801
 20
23.1606707597
 30
0.0
 10
3.8583730462
 20
23.1544652239
 30
0.0
 10
3.8397792168
 20
23.1472404254
 30
0.0
 10
3.8273144324
 20
23.1398486762
 30
0.0
 10
3.8229695565
 20
23.1324600754
 30
0.0
 10
3.8229695565
 20
23.129367303
 30
0.0
 11
4.0229695565
 21
23.1726552258
 31
0.0
 11
3.9839514921
 21
23.1718234605
 31
0.0
 11
3.94643287
 21
23.1693601289
 31
0.0
 11
3.9118555099
 21
23.1653598954
 31
0.0
 11
3.8815482002
 21
23.1599764867
 31
0.0
 11
3.856675634
 21
23.1534167843
 31
0.0
 11
3.83819365
 21
23.1459328739
 31
0.0
 11
3.8268125004
 21
23.1378123578
 31
0.0
 11
3.8229695565
 21
23.129367303
 31
0.0
  0
SPLINE
  5
5B4
100
AcDbEntity
  8
RACCORDO
100
AcDbSpline
 62
7
  6
CONTINUOUS
 70
0
 71
3
 72
15
 73
11
 74
9
 42
0.0000001
 43
0.0000001
 44
0.0000000001
 12
0.0
 22
0.2111382813
 32
0.0
 13
-0.2111382813
 23
-0.0
 33
0.0
 40
0.0
 40
0.0
 40
0.0
 40
0.0
 40
0.0439442675
 40
0.1101623793
 40
0.2046015558
 40
0.3264318053
 40
0.4722211756
 40
0.637079879
 40
0.8151593889
 40
1.0
 40
1.0
 40
1.0
 40
1.0
 10
-3.6770304435
 20
23.129367303
 30
0.0
 10
-3.6770304435
 20
23.1324600754
 30
0.0
 10
-3.6813753195
 20
23.1398486762
 30
0.0
 10
-3.6938401039
 20
23.1472404254
 30
0.0
 10
-3.7124339333
 20
23.1544652239
 30
0.0
 10
-3.7371916671
 20
23.1606707597
 30
0.0
 10
-3.7671994842
 20
23.1658716165
 30
0.0
 10
-3.80139629
 20
23.1697317203
 30
0.0
 10
-3.8384756695
 20
23.1721210336
 30
0.0
 10
-3.8640214672
 20
23.1726552258
 30
0.0
 10
-3.8770304435
 20
23.1726552258
 30
0.0
 11
-3.6770304435
 21
23.129367303
 31
0.0
 11
-3.6808733875
 21
23.1378123578
 31
0.0
 11
-3.692254537
 21
23.1459328739
 31
0.0
 11
-3.7107365211
 21
23.1534167843
 31
0.0
 11
-3.7356090873
 21
23.1599764867
 31
0.0
 11
-3.7659163969
 21
23.1653598954
 31
0.0
 11
-3.8004937571
 21
23.1693601289
 31
0.0
 11
-3.8380123791
 21
23.1718234605
 31
0.0
 11
-3.8770304435
 21
23.1726552258
 31
0.0
  0
SPLINE
  5
5B5
100
AcDbEntity
  8
RACCORDO
100
AcDbSpline
 62
7
  6
CONTINUOUS
 70
0
 71
3
 72
15
 73
11
 74
9
 42
0.0000001
 43
0.0000001
 44
0.0000000001
 12
0.0
 22
0.2111382813
 32
0.0
 13
-0.2111382813
 23
0.0
 33
0.0
 40
0.0
 40
0.0
 40
0.0
 40
0.0
 40
0.0439442675
 40
0.1101623793
 40
0.2046015558
 40
0.3264318053
 40
0.4722211756
 40
0.637079879
 40
0.8151593889
 40
1.0
 40
1.0
 40
1.0
 40
1.0
 10
-1.1270304435
 20
24.5260436776
 30
0.0
 10
-1.1270304435
 20
24.52913645
 30
0.0
 10
-1.1313753195
 20
24.5365250508
 30
0.0
 10
-1.1438401039
 20
24.5439168001
 30
0.0
 10
-1.1624339333
 20
24.5511415985
 30
0.0
 10
-1.1871916671
 20
24.5573471343
 30
0.0
 10
-1.2171994842
 20
24.5625479911
 30
0.0
 10
-1.25139629
 20
24.5664080949
 30
0.0
 10
-1.2884756695
 20
24.5687974083
 30
0.0
 10
-1.3140214672
 20
24.5693316004
 30
0.0
 10
-1.3270304435
 20
24.5693316004
 30
0.0
 11
-1.1270304435
 21
24.5260436776
 31
0.0
 11
-1.1308733875
 21
24.5344887324
 31
0.0
 11
-1.142254537
 21
24.5426092485
 31
0.0
 11
-1.1607365211
 21
24.550093159
 31
0.0
 11
-1.1856090873
 21
24.5566528614
 31
0.0
 11
-1.2159163969
 21
24.56203627
 31
0.0
 11
-1.2504937571
 21
24.5660365035
 31
0.0
 11
-1.2880123791
 21
24.5684998351
 31
0.0
 11
-1.3270304435
 21
24.5693316004
 31
0.0
  0
SPLINE
  5
5B6
100
AcDbEntity
  8
RACCORDO
100
AcDbSpline
 62
7
  6
CONTINUOUS
 70
0
 71
3
 72
15
 73
11
 74
9
 42
0.0000001
 43
0.0000001
 44
0.0000000001
 12
-0.2111382813
 22
0.0
 32
0.0
 13
0.0
 23
-0.2111382813
 33
0.0
 40
0.0
 40
0.0
 40
0.0
 40
0.0
 40
0.1848406111
 40
0.362920121
 40
0.5277788244
 40
0.6735681947
 40
0.7953984442
 40
0.8898376207
 40
0.9560557325
 40
1.0
 40
1.0
 40
1.0
 40
1.0
 10
-4.2270304435
 20
24.5693316004
 30
0.0
 10
-4.2400394199
 20
24.5693316004
 30
0.0
 10
-4.2655852176
 20
24.5687974083
 30
0.0
 10
-4.3026645971
 20
24.5664080949
 30
0.0
 10
-4.3368614029
 20
24.5625479911
 30
0.0
 10
-4.3668692199
 20
24.5573471343
 30
0.0
 10
-4.3916269538
 20
24.5511415985
 30
0.0
 10
-4.4102207832
 20
24.5439168001
 30
0.0
 10
-4.4226855676
 20
24.5365250508
 30
0.0
 10
-4.4270304435
 20
24.52913645
 30
0.0
 10
-4.4270304435
 20
24.5260436776
 30
0.0
 11
-4.2270304435
 21
24.5693316004
 31
0.0
 11
-4.2660485079
 21
24.5684998351
 31
0.0
 11
-4.30356713
 21
24.5660365035
 31
0.0
 11
-4.3381444901
 21
24.56203627
 31
0.0
 11
-4.3684517998
 21
24.5566528614
 31
0.0
 11
-4.393324366
 21
24.550093159
 31
0.0
 11
-4.41180635
 21
24.5426092485
 31
0.0
 11
-4.4231874996
 21
24.5344887324
 31
0.0
 11
-4.4270304435
 21
24.5260436776
 31
0.0
  0
SPLINE
  5
5B7
100
AcDbEntity
  8
RACCORDO
100
AcDbSpline
 62
7
  6
CONTINUOUS
 70
0
 71
3
 72
15
 73
11
 74
9
 42
0.0000001
 43
0.0000001
 44
0.0000000001
 12
0.0
 22
0.2111382813
 32
0.0
 13
-0.2111382813
 23
-0.0
 33
0.0
 40
0.0
 40
0.0
 40
0.0
 40
0.0
 40
0.0439442675
 40
0.1101623793
 40
0.2046015558
 40
0.3264318053
 40
0.4722211756
 40
0.637079879
 40
0.8151593889
 40
1.0
 40
1.0
 40
1.0
 40
1.0
 10
4.5729695565
 20
24.5260436776
 30
0.0
 10
4.5729695565
 20
24.52913645
 30
0.0
 10
4.5686246805
 20
24.5365250508
 30
0.0
 10
4.5561598961
 20
24.5439168001
 30
0.0
 10
4.5375660667
 20
24.5511415985
 30
0.0
 10
4.5128083329
 20
24.5573471343
 30
0.0
 10
4.4828005158
 20
24.5625479911
 30
0.0
 10
4.44860371
 20
24.5664080949
 30
0.0
 10
4.4115243305
 20
24.5687974083
 30
0.0
 10
4.3859785328
 20
24.5693316004
 30
0.0
 10
4.3729695565
 20
24.5693316004
 30
0.0
 11
4.5729695565
 21
24.5260436776
 31
0.0
 11
4.5691266125
 21
24.5344887324
 31
0.0
 11
4.557745463
 21
24.5426092485
 31
0.0
 11
4.5392634789
 21
24.550093159
 31
0.0
 11
4.5143909127
 21
24.5566528614
 31
0.0
 11
4.4840836031
 21
24.56203627
 31
0.0
 11
4.4495062429
 21
24.5660365035
 31
0.0
 11
4.4119876209
 21
24.5684998351
 31
0.0
 11
4.3729695565
 21
24.5693316004
 31
0.0
  0
SPLINE
  5
5B8
100
AcDbEntity
  8
RACCORDO
100
AcDbSpline
 62
7
  6
CONTINUOUS
 70
0
 71
3
 72
15
 73
11
 74
9
 42
0.0000001
 43
0.0000001
 44
0.0000000001
 12
-0.2111382813
 22
0.0
 32
0.0
 13
0.0
 23
-0.2111382813
 33
0.0
 40
0.0
 40
0.0
 40
0.0
 40
0.0
 40
0.1848406111
 40
0.362920121
 40
0.5277788244
 40
0.6735681947
 40
0.7953984442
 40
0.8898376207
 40
0.9560557325
 40
1.0
 40
1.0
 40
1.0
 40
1.0
 10
1.4729695565
 20
24.5693316004
 30
0.0
 10
1.4599605801
 20
24.5693316004
 30
0.0
 10
1.4344147824
 20
24.5687974083
 30
0.0
 10
1.3973354029
 20
24.5664080949
 30
0.0
 10
1.3631385971
 20
24.5625479911
 30
0.0
 10
1.3331307801
 20
24.5573471343
 30
0.0
 10
1.3083730462
 20
24.5511415985
 30
0.0
 10
1.2897792168
 20
24.5439168001
 30
0.0
 10
1.2773144324
 20
24.5365250508
 30
0.0
 10
1.2729695565
 20
24.52913645
 30
0.0
 10
1.2729695565
 20
24.5260436776
 30
0.0
 11
1.4729695565
 21
24.5693316004
 31
0.0
 11
1.4339514921
 21
24.5684998351
 31
0.0
 11
1.39643287
 21
24.5660365035
 31
0.0
 11
1.3618555099
 21
24.56203627
 31
0.0
 11
1.3315482002
 21
24.5566528614
 31
0.0
 11
1.306675634
 21
24.550093159
 31
0.0
 11
1.28819365
 21
24.5426092485
 31
0.0
 11
1.2768125004
 21
24.5344887324
 31
0.0
 11
1.2729695565
 21
24.5260436776
 31
0.0
  0
SPLINE
  5
5B9
100
AcDbEntity
  8
ASSI
100
AcDbSpline
 62
7
  6
CONTINUOUS
 70
0
 71
3
 72
15
 73
11
 74
9
 42
0.0000001
 43
0.0000001
 44
0.0000000001
 12
0.1117776028
 22
0.0
 32
0.0
 13
-0.0019914227
 23
-0.1117598619
 33
0.0
 40
0.0
 40
0.0
 40
0.0
 40
0.0
 40
0.206712386
 40
0.3879035077
 40
0.544343593
 40
0.6752197961
 40
0.7806433223
 40
0.8643406018
 40
0.933591157
 40
1.0
 40
1.0
 40
1.0
 40
1.0
 10
-3.7770304435
 20
-21.7099167025
 30
0.0
 10
-3.7693285052
 20
-21.7099167025
 30
0.0
 10
-3.7548739146
 20
-21.710093186
 30
0.0
 10
-3.7346114362
 20
-21.711139988
 30
0.0
 10
-3.7172473734
 20
-21.7130534843
 30
0.0
 10
-3.7028640341
 20
-21.7158948367
 30
0.0
 10
-3.6915439441
 20
-21.719807621
 30
0.0
 10
-3.6832277955
 20
-21.7248822437
 30
0.0
 10
-3.6779684149
 20
-21.7314531202
 30
0.0
 10
-3.6769863609
 20
-21.7366328304
 30
0.0
 10
-3.6770304435
 20
-21.7391067781
 30
0.0
 11
-3.7770304435
 21
-21.7099167025
 31
0.0
 11
-3.7539272767
 21
-21.7102665163
 31
0.0
 11
-3.7337057836
 21
-21.7113977326
 31
0.0
 11
-3.7163373431
 21
-21.7134262479
 31
0.0
 11
-3.7020223032
 21
-21.7164408957
 31
0.0
 11
-3.6909627624
 21
-21.7205089365
 31
0.0
 11
-3.6831388508
 21
-21.7256384039
 31
0.0
 11
-3.6784919533
 21
-21.7318290563
 31
0.0
 11
-3.6770304435
 21
-21.7391067781
 31
0.0
  0
SPLINE
  5
5BA
100
AcDbEntity
  8
ASSI
100
AcDbSpline
 62
7
  6
CONTINUOUS
 70
0
 71
3
 72
15
 73
11
 74
9
 42
0.0000001
 43
0.0000001
 44
0.0000000001
 12
-0.0019915253
 22
0.1117598621
 32
0.0
 13
0.1117776048
 23
0.0
 33
0.0
 40
0.0
 40
0.0
 40
0.0
 40
0.0
 40
0.0664085465
 40
0.1356587898
 40
0.2193556425
 40
0.3247785369
 40
0.4556539642
 40
0.6120937728
 40
0.7932857365
 40
1.0
 40
1.0
 40
1.0
 40
1.0
 10
3.8229695565
 20
-21.7391067781
 30
0.0
 10
3.8229254717
 20
-21.7366328414
 30
0.0
 10
3.8239075142
 20
-21.7314531541
 30
0.0
 10
3.8291668531
 20
-21.7248822959
 30
0.0
 10
3.8374829444
 20
-21.7198076779
 30
0.0
 10
3.8488029598
 20
-21.7158948871
 30
0.0
 10
3.8631862327
 20
-21.7130535183
 30
0.0
 10
3.8805502865
 20
-21.7111400075
 30
0.0
 10
3.9008128558
 20
-21.7100931907
 30
0.0
 10
3.915267548
 20
-21.7099167025
 30
0.0
 10
3.9229695565
 20
-21.7099167025
 30
0.0
 11
3.8229695565
 21
-21.7391067781
 31
0.0
 11
3.8244310496
 21
-21.7318290867
 31
0.0
 11
3.829077912
 21
-21.7256384513
 31
0.0
 11
3.8369017707
 21
-21.7205089898
 31
0.0
 11
3.8479612353
 21
-21.716440946
 31
0.0
 11
3.8622761847
 21
-21.7134262882
 31
0.0
 11
3.8796445927
 21
-21.7113977577
 31
0.0
 11
3.8998661795
 21
-21.7102665245
 31
0.0
 11
3.9229695565
 21
-21.7099167025
 31
0.0
  0
SPLINE
  5
5BB
100
AcDbEntity
  8
RACCORDO
100
AcDbSpline
 62
7
  6
CONTINUOUS
 70
0
 71
3
 72
15
 73
11
 74
9
 42
0.0000001
 43
0.0000001
 44
0.0000000001
 12
0.2111382813
 22
0.0
 32
0.0
 13
0.0
 23
0.2111382813
 33
0.0
 40
0.0
 40
0.0
 40
0.0
 40
0.0
 40
0.1848406111
 40
0.362920121
 40
0.5277788244
 40
0.6735681947
 40
0.7953984442
 40
0.8898376207
 40
0.9560557325
 40
1.0
 40
1.0
 40
1.0
 40
1.0
 10
-3.8770304435
 20
-22.9600417701
 30
0.0
 10
-3.8640214672
 20
-22.9600417701
 30
0.0
 10
-3.8384756695
 20
-22.9595075779
 30
0.0
 10
-3.80139629
 20
-22.9571182646
 30
0.0
 10
-3.7671994842
 20
-22.9532581608
 30
0.0
 10
-3.7371916671
 20
-22.948057304
 30
0.0
 10
-3.7124339333
 20
-22.9418517682
 30
0.0
 10
-3.6938401039
 20
-22.9346269697
 30
0.0
 10
-3.6813753195
 20
-22.9272352205
 30
0.0
 10
-3.6770304435
 20
-22.9198466197
 30
0.0
 10
-3.6770304435
 20
-22.9167538473
 30
0.0
 11
-3.8770304435
 21
-22.9600417701
 31
0.0
 11
-3.8380123791
 21
-22.9592100048
 31
0.0
 11
-3.8004937571
 21
-22.9567466732
 31
0.0
 11
-3.7659163969
 21
-22.9527464397
 31
0.0
 11
-3.7356090873
 21
-22.947363031
 31
0.0
 11
-3.7107365211
 21
-22.9408033286
 31
0.0
 11
-3.692254537
 21
-22.9333194182
 31
0.0
 11
-3.6808733875
 21
-22.9251989021
 31
0.0
 11
-3.6770304435
 21
-22.9167538473
 31
0.0
  0
SPLINE
  5
5BC
100
AcDbEntity
  8
RACCORDO
100
AcDbSpline
 62
7
  6
CONTINUOUS
 70
0
 71
3
 72
15
 73
11
 74
9
 42
0.0000001
 43
0.0000001
 44
0.0000000001
 12
0.0
 22
-0.2111382813
 32
0.0
 13
0.2111382813
 23
0.0
 33
0.0
 40
0.0
 40
0.0
 40
0.0
 40
0.0
 40
0.0439442675
 40
0.1101623793
 40
0.2046015558
 40
0.3264318053
 40
0.4722211756
 40
0.637079879
 40
0.8151593889
 40
1.0
 40
1.0
 40
1.0
 40
1.0
 10
3.8229695565
 20
-22.9167538473
 30
0.0
 10
3.8229695565
 20
-22.9198466197
 30
0.0
 10
3.8273144324
 20
-22.9272352205
 30
0.0
 10
3.8397792168
 20
-22.9346269697
 30
0.0
 10
3.8583730462
 20
-22.9418517682
 30
0.0
 10
3.8831307801
 20
-22.948057304
 30
0.0
 10
3.9131385971
 20
-22.9532581608
 30
0.0
 10
3.9473354029
 20
-22.9571182646
 30
0.0
 10
3.9844147824
 20
-22.9595075779
 30
0.0
 10
4.0099605801
 20
-22.9600417701
 30
0.0
 10
4.0229695565
 20
-22.9600417701
 30
0.0
 11
3.8229695565
 21
-22.9167538473
 31
0.0
 11
3.8268125004
 21
-22.9251989021
 31
0.0
 11
3.83819365
 21
-22.9333194182
 31
0.0
 11
3.856675634
 21
-22.9408033286
 31
0.0
 11
3.8815482002
 21
-22.947363031
 31
0.0
 11
3.9118555098
 21
-22.9527464397
 31
0.0
 11
3.94643287
 21
-22.9567466732
 31
0.0
 11
3.9839514921
 21
-22.9592100048
 31
0.0
 11
4.0229695565
 21
-22.9600417701
 31
0.0
  0
SPLINE
  5
5BD
100
AcDbEntity
  8
RACCORDO
100
AcDbSpline
 62
7
  6
CONTINUOUS
 70
0
 71
3
 72
15
 73
11
 74
9
 42
0.0000001
 43
0.0000001
 44
0.0000000001
 12
0.0
 22
-0.2111382813
 32
0.0
 13
0.2111382813
 23
0.0
 33
0.0
 40
0.0
 40
0.0
 40
0.0
 40
0.0
 40
0.0439442675
 40
0.1101623793
 40
0.2046015558
 40
0.3264318053
 40
0.4722211756
 40
0.637079879
 40
0.8151593889
 40
1.0
 40
1.0
 40
1.0
 40
1.0
 10
1.2729695565
 20
-24.3134302219
 30
0.0
 10
1.2729695565
 20
-24.3165229943
 30
0.0
 10
1.2773144324
 20
-24.3239115951
 30
0.0
 10
1.2897792168
 20
-24.3313033444
 30
0.0
 10
1.3083730462
 20
-24.3385281428
 30
0.0
 10
1.3331307801
 20
-24.3447336786
 30
0.0
 10
1.3631385971
 20
-24.3499345354
 30
0.0
 10
1.3973354029
 20
-24.3537946392
 30
0.0
 10
1.4344147824
 20
-24.3561839526
 30
0.0
 10
1.4599605801
 20
-24.3567181447
 30
0.0
 10
1.4729695565
 20
-24.3567181447
 30
0.0
 11
1.2729695565
 21
-24.3134302219
 31
0.0
 11
1.2768125004
 21
-24.3218752767
 31
0.0
 11
1.28819365
 21
-24.3299957928
 31
0.0
 11
1.306675634
 21
-24.3374797033
 31
0.0
 11
1.3315482002
 21
-24.3440394057
 31
0.0
 11
1.3618555098
 21
-24.3494228143
 31
0.0
 11
1.39643287
 21
-24.3534230478
 31
0.0
 11
1.4339514921
 21
-24.3558863794
 31
0.0
 11
1.4729695565
 21
-24.3567181447
 31
0.0
  0
SPLINE
  5
5BE
100
AcDbEntity
  8
RACCORDO
100
AcDbSpline
 62
7
  6
CONTINUOUS
 70
0
 71
3
 72
15
 73
11
 74
9
 42
0.0000001
 43
0.0000001
 44
0.0000000001
 12
0.2111382813
 22
0.0
 32
0.0
 13
0.0
 23
0.2111382813
 33
0.0
 40
0.0
 40
0.0
 40
0.0
 40
0.0
 40
0.1848406111
 40
0.362920121
 40
0.5277788244
 40
0.6735681947
 40
0.7953984442
 40
0.8898376207
 40
0.9560557325
 40
1.0
 40
1.0
 40
1.0
 40
1.0
 10
4.3729695565
 20
-24.3567181447
 30
0.0
 10
4.3859785328
 20
-24.3567181447
 30
0.0
 10
4.4115243305
 20
-24.3561839526
 30
0.0
 10
4.44860371
 20
-24.3537946392
 30
0.0
 10
4.4828005158
 20
-24.3499345354
 30
0.0
 10
4.5128083329
 20
-24.3447336786
 30
0.0
 10
4.5375660667
 20
-24.3385281428
 30
0.0
 10
4.5561598961
 20
-24.3313033444
 30
0.0
 10
4.5686246805
 20
-24.3239115951
 30
0.0
 10
4.5729695565
 20
-24.3165229943
 30
0.0
 10
4.5729695565
 20
-24.3134302219
 30
0.0
 11
4.3729695565
 21
-24.3567181447
 31
0.0
 11
4.4119876209
 21
-24.3558863794
 31
0.0
 11
4.4495062429
 21
-24.3534230478
 31
0.0
 11
4.4840836031
 21
-24.3494228143
 31
0.0
 11
4.5143909127
 21
-24.3440394057
 31
0.0
 11
4.5392634789
 21
-24.3374797033
 31
0.0
 11
4.557745463
 21
-24.3299957928
 31
0.0
 11
4.5691266125
 21
-24.3218752767
 31
0.0
 11
4.5729695565
 21
-24.3134302219
 31
0.0
  0
SPLINE
  5
5BF
100
AcDbEntity
  8
RACCORDO
100
AcDbSpline
 62
7
  6
CONTINUOUS
 70
0
 71
3
 72
15
 73
11
 74
9
 42
0.0000001
 43
0.0000001
 44
0.0000000001
 12
0.0
 22
-0.2111382813
 32
0.0
 13
0.2111382813
 23
-0.0
 33
0.0
 40
0.0
 40
0.0
 40
0.0
 40
0.0
 40
0.0439442675
 40
0.1101623793
 40
0.2046015558
 40
0.3264318053
 40
0.4722211756
 40
0.637079879
 40
0.8151593889
 40
1.0
 40
1.0
 40
1.0
 40
1.0
 10
-4.4270304435
 20
-24.3134302219
 30
0.0
 10
-4.4270304435
 20
-24.3165229943
 30
0.0
 10
-4.4226855676
 20
-24.3239115951
 30
0.0
 10
-4.4102207832
 20
-24.3313033444
 30
0.0
 10
-4.3916269538
 20
-24.3385281428
 30
0.0
 10
-4.3668692199
 20
-24.3447336786
 30
0.0
 10
-4.3368614029
 20
-24.3499345354
 30
0.0
 10
-4.3026645971
 20
-24.3537946392
 30
0.0
 10
-4.2655852176
 20
-24.3561839526
 30
0.0
 10
-4.2400394199
 20
-24.3567181447
 30
0.0
 10
-4.2270304435
 20
-24.3567181447
 30
0.0
 11
-4.4270304435
 21
-24.3134302219
 31
0.0
 11
-4.4231874996
 21
-24.3218752767
 31
0.0
 11
-4.41180635
 21
-24.3299957928
 31
0.0
 11
-4.393324366
 21
-24.3374797033
 31
0.0
 11
-4.3684517998
 21
-24.3440394057
 31
0.0
 11
-4.3381444902
 21
-24.3494228143
 31
0.0
 11
-4.30356713
 21
-24.3534230478
 31
0.0
 11
-4.2660485079
 21
-24.3558863794
 31
0.0
 11
-4.2270304435
 21
-24.3567181447
 31
0.0
  0
SPLINE
  5
5C0
100
AcDbEntity
  8
RACCORDO
100
AcDbSpline
 62
7
  6
CONTINUOUS
 70
0
 71
3
 72
15
 73
11
 74
9
 42
0.0000001
 43
0.0000001
 44
0.0000000001
 12
0.2111382813
 22
0.0
 32
0.0
 13
0.0
 23
0.2111382813
 33
0.0
 40
0.0
 40
0.0
 40
0.0
 40
0.0
 40
0.1848406111
 40
0.362920121
 40
0.5277788244
 40
0.6735681947
 40
0.7953984442
 40
0.8898376207
 40
0.9560557325
 40
1.0
 40
1.0
 40
1.0
 40
1.0
 10
-1.3270304435
 20
-24.3567181447
 30
0.0
 10
-1.3140214672
 20
-24.3567181447
 30
0.0
 10
-1.2884756695
 20
-24.3561839526
 30
0.0
 10
-1.25139629
 20
-24.3537946392
 30
0.0
 10
-1.2171994842
 20
-24.3499345354
 30
0.0
 10
-1.1871916671
 20
-24.3447336786
 30
0.0
 10
-1.1624339333
 20
-24.3385281428
 30
0.0
 10
-1.1438401039
 20
-24.3313033444
 30
0.0
 10
-1.1313753195
 20
-24.3239115951
 30
0.0
 10
-1.1270304435
 20
-24.3165229943
 30
0.0
 10
-1.1270304435
 20
-24.3134302219
 30
0.0
 11
-1.3270304435
 21
-24.3567181447
 31
0.0
 11
-1.2880123791
 21
-24.3558863794
 31
0.0
 11
-1.2504937571
 21
-24.3534230478
 31
0.0
 11
-1.2159163969
 21
-24.3494228143
 31
0.0
 11
-1.1856090873
 21
-24.3440394057
 31
0.0
 11
-1.1607365211
 21
-24.3374797033
 31
0.0
 11
-1.142254537
 21
-24.3299957928
 31
0.0
 11
-1.1308733875
 21
-24.3218752767
 31
0.0
 11
-1.1270304435
 21
-24.3134302219
 31
0.0
  0
ELLIPSE
  5
5C1
100
AcDbEntity
  8
RACCORDO
100
AcDbEllipse
 62
7
  6
CONTINUOUS
 10
0.0816964242
 20
20.8649955173
 30
0.0
 11
0.0
 21
1.0
 31
0.0
 40
0.0087268678
 41
0.0087266463
 42
1.5707963268
  0
ELLIPSE
  5
5C2
100
AcDbEntity
  8
RACCORDO
100
AcDbEllipse
 62
7
  6
CONTINUOUS
 10
-1.1357573113
 20
20.8649955173
 30
0.0
 11
0.0
 21
1.0
 31
0.0
 40
0.0087268678
 41
-1.5707963268
 42
-0.0087266463
  0
ELLIPSE
  5
5C3
100
AcDbEntity
  8
RACCORDO
100
AcDbEllipse
 62
7
  6
CONTINUOUS
 10
-2.1596338255
 20
-16.0610898902
 30
0.0
 11
-1.0607409467
 21
1.0607409467
 31
0.0
 40
0.9999238505
 41
-3.9269527408
 42
-2.3562325664
  0
ELLIPSE
  5
5C4
100
AcDbEntity
  8
RACCORDO
100
AcDbEllipse
 62
7
  6
CONTINUOUS
 10
-2.1596338255
 20
-14.0262966541
 30
0.0
 11
1.0607409467
 21
1.0607409467
 31
0.0
 40
0.9999238505
 41
-0.7853600872
 42
0.7853600872
  0
ELLIPSE
  5
5C5
100
AcDbEntity
  8
RACCORDO
100
AcDbEllipse
 62
7
  6
CONTINUOUS
 10
2.3055729385
 20
-14.0262966541
 30
0.0
 11
-1.0607409467
 21
1.0607409467
 31
0.0
 40
0.9999238505
 41
-0.7853600872
 42
0.7853600872
  0
ELLIPSE
  5
5C6
100
AcDbEntity
  8
RACCORDO
100
AcDbEllipse
 62
7
  6
CONTINUOUS
 10
2.3055729385
 20
-16.0610898902
 30
0.0
 11
1.0607409467
 21
1.0607409467
 31
0.0
 40
0.9999238505
 41
-3.9269527408
 42
-2.3562325664
  0
ELLIPSE
  5
5C7
100
AcDbEntity
  8
RACCORDO
100
AcDbEllipse
 62
7
  6
CONTINUOUS
 10
2.3229695565
 20
-16.0129168657
 30
0.0
 11
-0.0
 21
1.0307764064
 31
0.0
 40
0.9701425001
 41
1.5707963268
 42
3.1415926536
  0
ELLIPSE
  5
5C8
100
AcDbEntity
  8
RACCORDO
100
AcDbEllipse
 62
7
  6
CONTINUOUS
 10
2.3229695565
 20
-14.0744696786
 30
0.0
 11
0.0
 21
1.0307764064
 31
0.0
 40
0.9701425001
 41
0.0
 42
1.5707963268
  0
ELLIPSE
  5
5C9
100
AcDbEntity
  8
RACCORDO
100
AcDbEllipse
 62
7
  6
CONTINUOUS
 10
-2.1770304435
 20
-14.0744696786
 30
0.0
 11
0.0
 21
1.0307764064
 31
0.0
 40
0.9701425001
 41
-1.5707963268
 42
0.0
  0
ELLIPSE
  5
5CA
100
AcDbEntity
  8
RACCORDO
100
AcDbEllipse
 62
7
  6
CONTINUOUS
 10
2.323026674
 20
-16.0436361546
 30
0.0
 11
-1.0607409467
 21
-1.0607409467
 31
0.0
 40
0.9999238505
 41
-0.7853600872
 42
0.7853600872
  0
ELLIPSE
  5
5CB
100
AcDbEntity
  8
RACCORDO
100
AcDbEllipse
 62
7
  6
CONTINUOUS
 10
2.323026674
 20
-14.0437503897
 30
0.0
 11
-1.0607409467
 21
1.0607409467
 31
0.0
 40
0.9999238505
 41
-0.7853600872
 42
0.7853600872
  0
ELLIPSE
  5
5CC
100
AcDbEntity
  8
RACCORDO
100
AcDbEllipse
 62
7
  6
CONTINUOUS
 10
-2.1770875611
 20
-14.0437503897
 30
0.0
 11
1.0607409467
 21
1.0607409467
 31
0.0
 40
0.9999238505
 41
-0.7853600872
 42
0.7853600872
  0
ELLIPSE
  5
5CD
100
AcDbEntity
  8
RACCORDO
100
AcDbEllipse
 62
7
  6
CONTINUOUS
 10
-2.1770875611
 20
-16.0436361546
 30
0.0
 11
1.0607409467
 21
-1.0607409467
 31
0.0
 40
0.9999238505
 41
-0.7853600872
 42
0.7853600872
  0
ELLIPSE
  5
5CE
100
AcDbEntity
  8
RACCORDO
100
AcDbEllipse
 62
7
  6
CONTINUOUS
 10
-1.1313938774
 20
19.860594005
 30
0.0
 11
0.0
 21
2.0
 31
0.0
 40
0.0087268678
 41
-1.5707963268
 42
-0.0087266463
  0
ELLIPSE
  5
5CF
100
AcDbEntity
  8
RACCORDO
100
AcDbEllipse
 62
7
  6
CONTINUOUS
 10
-1.1226670097
 20
-9.8980947844
 30
0.0
 11
0.0
 21
1.0
 31
0.0
 40
0.0087268678
 41
-1.5707963268
 42
-0.0087266463
  0
ELLIPSE
  5
5D0
100
AcDbEntity
  8
RACCORDO
100
AcDbEllipse
 62
7
  6
CONTINUOUS
 10
0.0773329903
 20
19.860594005
 30
0.0
 11
0.0
 21
2.0
 31
0.0
 40
0.0087268678
 41
0.0087266463
 42
1.5707963268
  0
ELLIPSE
  5
5D1
100
AcDbEntity
  8
RACCORDO
100
AcDbEllipse
 62
7
  6
CONTINUOUS
 10
0.0686061226
 20
-9.8980947844
 30
0.0
 11
0.0
 21
1.0
 31
0.0
 40
0.0087268678
 41
0.0087266463
 42
1.5707963268
  0
ELLIPSE
  5
5D2
100
AcDbEntity
  8
RACCORDO
100
AcDbEllipse
 62
7
  6
CONTINUOUS
 10
-2.1770304435
 20
-16.0129168657
 30
0.0
 11
0.0
 21
1.0307764064
 31
0.0
 40
0.9701425001
 41
-3.1415926536
 42
-1.5707963268
  0
ELLIPSE
  5
5D3
100
AcDbEntity
  8
RACCORDO
100
AcDbEllipse
 62
7
  6
CONTINUOUS
 10
-2.1770304435
 20
14.2870831343
 30
0.0
 11
-0.0
 21
1.0307764064
 31
0.0
 40
0.9701425001
 41
-3.1415926536
 42
-1.5707963268
  0
ELLIPSE
  5
5D4
100
AcDbEntity
  8
RACCORDO
100
AcDbEllipse
 62
7
  6
CONTINUOUS
 10
-2.1770304435
 20
16.2255303214
 30
0.0
 11
-0.0
 21
1.0307764064
 31
0.0
 40
0.9701425001
 41
-1.5707963268
 42
-0.0
  0
ELLIPSE
  5
5D5
100
AcDbEntity
  8
RACCORDO
100
AcDbEllipse
 62
7
  6
CONTINUOUS
 10
2.3229695565
 20
16.2255303214
 30
0.0
 11
-0.0
 21
1.0307764064
 31
0.0
 40
0.9701425001
 41
-0.0
 42
1.5707963268
  0
ELLIPSE
  5
5D6
100
AcDbEntity
  8
RACCORDO
100
AcDbEllipse
 62
7
  6
CONTINUOUS
 10
2.3229695565
 20
14.2870831343
 30
0.0
 11
-0.0
 21
1.0307764064
 31
0.0
 40
0.9701425001
 41
1.5707963268
 42
3.1415926536
  0
ELLIPSE
  5
5D7
100
AcDbEntity
  8
GUSCI_ESTERNI
100
AcDbEllipse
 62
7
  6
CONTINUOUS
 10
-8.5727278543
 20
-13.7936932721
 30
0.0
 11
0.9860557856
 21
-0.0
 31
0.0
 40
0.9999904802
 41
1.5751597745
 42
3.1415926536
  0
ELLIPSE
  5
5D8
100
AcDbEntity
  8
GUSCI_ESTERNI
100
AcDbEllipse
 62
7
  6
CONTINUOUS
 10
-8.5727278543
 20
14.0063067279
 30
0.0
 11
0.9860557856
 21
0.0
 31
0.0
 40
0.9999904802
 41
3.1415926536
 42
4.7080255326
  0
ELLIPSE
  5
5D9
100
AcDbEntity
  8
GUSCI_ESTERNI
100
AcDbEllipse
 62
7
  6
CONTINUOUS
 10
-8.5727278543
 20
16.5063067279
 30
0.0
 11
0.9860557856
 21
-0.0000000002
 31
0.0
 40
0.9999904802
 41
1.5751597748
 42
3.1415926536
  0
ELLIPSE
  5
5DA
100
AcDbEntity
  8
GUSCI_ESTERNI
100
AcDbEllipse
 62
7
  6
CONTINUOUS
 10
-8.5727278543
 20
-16.2936932721
 30
0.0
 11
0.9860557856
 21
-0.0000000001
 31
0.0
 40
0.9999904802
 41
3.1415926536
 42
4.7080255327
  0
ELLIPSE
  5
5DB
100
AcDbEntity
  8
GUSCI_ESTERNI
100
AcDbEllipse
 62
7
  6
CONTINUOUS
 10
8.6708028228
 20
16.2563067279
 30
0.0
 11
0.9931323188
 21
0.0000000006
 31
0.0
 40
0.9999976201
 41
6.2831853076
 42
7.8517999147
  0
ELLIPSE
  5
5DC
100
AcDbEntity
  8
GUSCI_ESTERNI
100
AcDbEllipse
 62
7
  6
CONTINUOUS
 10
8.6708028228
 20
14.2563067279
 30
0.0
 11
0.9931323188
 21
0.0000000004
 31
0.0
 40
0.9999976201
 41
-1.5686146085
 42
-0.0000000004
  0
ELLIPSE
  5
5DD
100
AcDbEntity
  8
GUSCI_ESTERNI
100
AcDbEllipse
 62
7
  6
CONTINUOUS
 10
8.6708028228
 20
-14.0436932721
 30
0.0
 11
0.9931323188
 21
0.0
 31
0.0
 40
0.9999976201
 41
-0.0
 42
1.5686146081
  0
ELLIPSE
  5
5DE
100
AcDbEntity
  8
GUSCI_ESTERNI
100
AcDbEllipse
 62
7
  6
CONTINUOUS
 10
8.6708028228
 20
-16.0436932721
 30
0.0
 11
0.9931323188
 21
0.0000000004
 31
0.0
 40
0.9999976201
 41
-1.5686146085
 42
-0.0000000001
  0
ELLIPSE
  5
5DF
100
AcDbEntity
  8
ASSI
100
AcDbEllipse
 62
7
  6
CONTINUOUS
 10
8.6708028228
 20
-16.0436932721
 30
0.0
 11
0.9931323188
 21
0.0000000001
 31
0.0
 40
0.9999976201
 41
-1.5686146082
 42
-0.0000000001
  0
ELLIPSE
  5
5E0
100
AcDbEntity
  8
ASSI
100
AcDbEllipse
 62
7
  6
CONTINUOUS
 10
8.6708028228
 20
-14.0436932721
 30
0.0
 11
0.9931323188
 21
0.0000000003
 31
0.0
 40
0.9999976201
 41
-0.0000000003
 42
1.5686146082
  0
ELLIPSE
  5
5E1
100
AcDbEntity
  8
ASSI
100
AcDbEllipse
 62
7
  6
CONTINUOUS
 10
8.6708028228
 20
14.2563067279
 30
0.0
 11
0.9931323188
 21
0.0
 31
0.0
 40
0.9999976201
 41
4.7145706991
 42
6.2831853072
  0
ELLIPSE
  5
5E2
100
AcDbEntity
  8
ASSI
100
AcDbEllipse
 62
7
  6
CONTINUOUS
 10
8.6708028228
 20
16.2563067279
 30
0.0
 11
0.9931323188
 21
-0.0000000009
 31
0.0
 40
0.9999976201
 41
6.2831853069
 42
7.8517999162
  0
ELLIPSE
  5
5E3
100
AcDbEntity
  8
RACCORDO
100
AcDbEllipse
 62
7
  6
CONTINUOUS
 10
4.0393629991
 20
-22.5936932721
 30
0.0
 11
-0.0
 21
0.2
 31
0.0
 40
0.0081967213
 41
-1.5707963268
 42
0.0
  0
ELLIPSE
  5
5E4
100
AcDbEntity
  8
RACCORDO
100
AcDbEllipse
 62
7
  6
CONTINUOUS
 10
-3.8934238862
 20
-22.5936932721
 30
0.0
 11
0.0
 21
0.2
 31
0.0
 40
0.0081967213
 41
0.0
 42
1.5707963268
  0
ELLIPSE
  5
5E5
100
AcDbEntity
  8
RACCORDO
100
AcDbEllipse
 62
7
  6
CONTINUOUS
 10
10.5484569892
 20
24.0308192951
 30
0.0
 11
-0.1768305473
 21
0.1768305473
 31
0.0
 40
0.9996954599
 41
-0.7852458701
 42
0.7852458701
  0
ELLIPSE
  5
5E6
100
AcDbEntity
  8
RACCORDO
100
AcDbEllipse
 62
7
  6
CONTINUOUS
 10
12.3974821237
 20
24.0308192951
 30
0.0
 11
-0.1768305473
 21
-0.1768305473
 31
0.0
 40
0.9996954599
 41
2.3563467834
 42
3.9268385237
  0
ELLIPSE
  5
5E7
100
AcDbEntity
  8
RACCORDO
100
AcDbEllipse
 62
7
  6
CONTINUOUS
 10
-12.2515430108
 20
24.0308192951
 30
0.0
 11
-0.1768305473
 21
0.1768305473
 31
0.0
 40
0.9996954599
 41
-0.7852458701
 42
0.7852458701
  0
ELLIPSE
  5
5E8
100
AcDbEntity
  8
RACCORDO
100
AcDbEllipse
 62
7
  6
CONTINUOUS
 10
-10.4025178763
 20
24.0308192951
 30
0.0
 11
-0.1768305473
 21
-0.1768305473
 31
0.0
 40
0.9996954599
 41
2.3563467834
 42
3.9268385237
  0
ELLIPSE
  5
5E9
100
AcDbEntity
  8
RACCORDO
100
AcDbEllipse
 62
7
  6
CONTINUOUS
 10
-10.4025178763
 20
-23.8182058394
 30
0.0
 11
0.1768305473
 21
-0.1768305473
 31
0.0
 40
0.9996954599
 41
-0.7852458701
 42
0.7852458701
  0
ELLIPSE
  5
5EA
100
AcDbEntity
  8
RACCORDO
100
AcDbEllipse
 62
7
  6
CONTINUOUS
 10
-12.2515430108
 20
-23.8182058394
 30
0.0
 11
0.1768305473
 21
0.1768305473
 31
0.0
 40
0.9996954599
 41
2.3563467834
 42
3.9268385237
  0
ELLIPSE
  5
5EB
100
AcDbEntity
  8
RACCORDO
100
AcDbEllipse
 62
7
  6
CONTINUOUS
 10
10.5484569892
 20
-23.8182058394
 30
0.0
 11
0.1768305473
 21
0.1768305473
 31
0.0
 40
0.9996954599
 41
2.3563467834
 42
3.9268385237
  0
ELLIPSE
  5
5EC
100
AcDbEntity
  8
RACCORDO
100
AcDbEllipse
 62
7
  6
CONTINUOUS
 10
12.3974821237
 20
-23.8182058394
 30
0.0
 11
0.1768305473
 21
-0.1768305473
 31
0.0
 40
0.9996954599
 41
-0.7852458701
 42
0.7852458701
  0
ELLIPSE
  5
5ED
100
AcDbEntity
  8
RACCORDO
100
AcDbEllipse
 62
7
  6
CONTINUOUS
 10
6.3323167772
 20
-22.5842698874
 30
0.0
 11
-0.0
 21
0.5
 31
0.0
 40
0.0174550649
 41
-3.1241393611
 42
-1.5707963268
  0
ELLIPSE
  5
5EE
100
AcDbEntity
  8
RACCORDO
100
AcDbEllipse
 62
7
  6
CONTINUOUS
 10
8.0136223357
 20
-22.5842698874
 30
0.0
 11
-0.0
 21
0.5
 31
0.0
 40
0.0174550649
 41
-4.7123889804
 42
-3.1590459461
  0
ELLIPSE
  5
5EF
100
AcDbEntity
  8
RACCORDO
100
AcDbEllipse
 62
7
  6
CONTINUOUS
 10
-7.8676832228
 20
-22.5842698874
 30
0.0
 11
0.0
 21
0.5
 31
0.0
 40
0.0174550649
 41
-3.1241393611
 42
-1.5707963268
  0
ELLIPSE
  5
5F0
100
AcDbEntity
  8
RACCORDO
100
AcDbEllipse
 62
7
  6
CONTINUOUS
 10
-6.1863776643
 20
-22.5842698874
 30
0.0
 11
0.0
 21
0.5
 31
0.0
 40
0.0174550649
 41
1.5707963268
 42
3.1241393611
  0
ELLIPSE
  5
5F1
100
AcDbEntity
  8
RACCORDO
100
AcDbEllipse
 62
7
  6
CONTINUOUS
 10
8.0136223357
 20
22.7968833431
 30
0.0
 11
-0.0
 21
0.5
 31
0.0
 40
0.0174550649
 41
0.0174532925
 42
1.5707963268
  0
ELLIPSE
  5
5F2
100
AcDbEntity
  8
RACCORDO
100
AcDbEllipse
 62
7
  6
CONTINUOUS
 10
6.3323167772
 20
22.7968833431
 30
0.0
 11
-0.0
 21
0.5
 31
0.0
 40
0.0174550649
 41
-1.5707963268
 42
-0.0174532925
  0
ELLIPSE
  5
5F3
100
AcDbEntity
  8
RACCORDO
100
AcDbEllipse
 62
7
  6
CONTINUOUS
 10
-6.1863776643
 20
22.7968833431
 30
0.0
 11
0.0
 21
0.5
 31
0.0
 40
0.0174550649
 41
0.0174532925
 42
1.5707963268
  0
ELLIPSE
  5
5F4
100
AcDbEntity
  8
RACCORDO
100
AcDbEllipse
 62
7
  6
CONTINUOUS
 10
-7.8676832228
 20
22.7968833431
 30
0.0
 11
-0.0
 21
0.5
 31
0.0
 40
0.0174550649
 41
-1.5707963268
 42
-0.0174532925
  0
ELLIPSE
  5
5F5
100
AcDbEntity
  8
RACCORDO
100
AcDbEllipse
 62
7
  6
CONTINUOUS
 10
-4.9188673148
 20
22.739892699
 30
0.0
 11
1.0
 21
-0.0
 31
0.0
 40
0.2125565617
 41
-1.5707963268
 42
-0.0081965377
  0
ELLIPSE
  5
5F6
100
AcDbEntity
  8
RACCORDO
100
AcDbEllipse
 62
7
  6
CONTINUOUS
 10
5.0648064277
 20
22.739892699
 30
0.0
 11
1.0
 21
0.0
 31
0.0
 40
0.2125565617
 41
-3.1333961158
 42
-1.5707963268
  0
ELLIPSE
  5
5F7
100
AcDbEntity
  8
ASSI
100
AcDbEllipse
 62
7
  6
CONTINUOUS
 10
4.0393629991
 20
-22.5936932721
 30
0.0
 11
-0.0
 21
0.2
 31
0.0
 40
0.0081967213
 41
-1.5707963268
 42
0.0
  0
ELLIPSE
  5
5F8
100
AcDbEntity
  8
ASSI
100
AcDbEllipse
 62
7
  6
CONTINUOUS
 10
10.5484569892
 20
24.0308192951
 30
0.0
 11
-0.1768305473
 21
0.1768305473
 31
0.0
 40
0.9996954599
 41
-0.7852458701
 42
0.7852458701
  0
ELLIPSE
  5
5F9
100
AcDbEntity
  8
ASSI
100
AcDbEllipse
 62
7
  6
CONTINUOUS
 10
12.3974821237
 20
24.0308192951
 30
0.0
 11
-0.1768305473
 21
-0.1768305473
 31
0.0
 40
0.9996954599
 41
2.3563467834
 42
3.9268385237
  0
ELLIPSE
  5
5FA
100
AcDbEntity
  8
ASSI
100
AcDbEllipse
 62
7
  6
CONTINUOUS
 10
-12.2515430108
 20
24.0308192951
 30
0.0
 11
-0.1768305473
 21
0.1768305473
 31
0.0
 40
0.9996954599
 41
-0.7852458701
 42
0.7852458701
  0
ELLIPSE
  5
5FB
100
AcDbEntity
  8
ASSI
100
AcDbEllipse
 62
7
  6
CONTINUOUS
 10
-10.4025178763
 20
24.0308192951
 30
0.0
 11
-0.1768305473
 21
-0.1768305473
 31
0.0
 40
0.9996954599
 41
2.3563467834
 42
3.9268385237
  0
ELLIPSE
  5
5FC
100
AcDbEntity
  8
ASSI
100
AcDbEllipse
 62
7
  6
CONTINUOUS
 10
-10.4025178763
 20
-23.8182058394
 30
0.0
 11
0.1768305473
 21
-0.1768305473
 31
0.0
 40
0.9996954599
 41
-0.7852458701
 42
0.7852458701
  0
ELLIPSE
  5
5FD
100
AcDbEntity
  8
ASSI
100
AcDbEllipse
 62
7
  6
CONTINUOUS
 10
-12.2515430108
 20
-23.8182058394
 30
0.0
 11
0.1768305473
 21
0.1768305473
 31
0.0
 40
0.9996954599
 41
2.3563467834
 42
3.9268385237
  0
ELLIPSE
  5
5FE
100
AcDbEntity
  8
ASSI
100
AcDbEllipse
 62
7
  6
CONTINUOUS
 10
12.3974821237
 20
-23.8182058394
 30
0.0
 11
0.1768305473
 21
-0.1768305473
 31
0.0
 40
0.9996954599
 41
-0.7852458701
 42
0.7852458701
  0
ELLIPSE
  5
5FF
100
AcDbEntity
  8
ASSI
100
AcDbEllipse
 62
7
  6
CONTINUOUS
 10
10.5484569892
 20
-23.8182058394
 30
0.0
 11
0.1768305473
 21
0.1768305473
 31
0.0
 40
0.9996954599
 41
2.3563467834
 42
3.9268385237
  0
ELLIPSE
  5
600
100
AcDbEntity
  8
ASSI
100
AcDbEllipse
 62
7
  6
CONTINUOUS
 10
-3.8934238862
 20
-22.5936932721
 30
0.0
 11
0.0
 21
0.2
 31
0.0
 40
0.0081967213
 41
0.0
 42
1.5707963268
  0
ELLIPSE
  5
601
100
AcDbEntity
  8
ASSI
100
AcDbEllipse
 62
7
  6
CONTINUOUS
 10
6.3323167772
 20
-22.5842698874
 30
0.0
 11
-0.0
 21
0.5
 31
0.0
 40
0.0174550649
 41
-3.1241393611
 42
-1.5707963268
  0
ELLIPSE
  5
602
100
AcDbEntity
  8
ASSI
100
AcDbEllipse
 62
7
  6
CONTINUOUS
 10
8.0136223357
 20
-22.5842698874
 30
0.0
 11
-0.0
 21
0.5
 31
0.0
 40
0.0174550649
 41
-4.7123889804
 42
-3.1590459461
  0
ELLIPSE
  5
603
100
AcDbEntity
  8
ASSI
100
AcDbEllipse
 62
7
  6
CONTINUOUS
 10
-7.8676832228
 20
-22.5842698874
 30
0.0
 11
0.0
 21
0.5
 31
0.0
 40
0.0174550649
 41
-3.1241393611
 42
-1.5707963268
  0
ELLIPSE
  5
604
100
AcDbEntity
  8
ASSI
100
AcDbEllipse
 62
7
  6
CONTINUOUS
 10
-6.1863776643
 20
-22.5842698874
 30
0.0
 11
0.0
 21
0.5
 31
0.0
 40
0.0174550649
 41
1.5707963268
 42
3.1241393611
  0
ELLIPSE
  5
605
100
AcDbEntity
  8
ASSI
100
AcDbEllipse
 62
7
  6
CONTINUOUS
 10
8.0136223357
 20
22.7968833431
 30
0.0
 11
-0.0
 21
0.5
 31
0.0
 40
0.0174550649
 41
0.0174532925
 42
1.5707963268
  0
ELLIPSE
  5
606
100
AcDbEntity
  8
ASSI
100
AcDbEllipse
 62
7
  6
CONTINUOUS
 10
6.3323167772
 20
22.7968833431
 30
0.0
 11
-0.0
 21
0.5
 31
0.0
 40
0.0174550649
 41
-1.5707963268
 42
-0.0174532925
  0
ELLIPSE
  5
607
100
AcDbEntity
  8
ASSI
100
AcDbEllipse
 62
7
  6
CONTINUOUS
 10
-6.1863776643
 20
22.7968833431
 30
0.0
 11
0.0
 21
0.5
 31
0.0
 40
0.0174550649
 41
0.0174532925
 42
1.5707963268
  0
ELLIPSE
  5
608
100
AcDbEntity
  8
ASSI
100
AcDbEllipse
 62
7
  6
CONTINUOUS
 10
-7.8676832228
 20
22.7968833431
 30
0.0
 11
-0.0
 21
0.5
 31
0.0
 40
0.0174550649
 41
-1.5707963268
 42
-0.0174532925
  0
ELLIPSE
  5
609
100
AcDbEntity
  8
ASSI
100
AcDbEllipse
 62
7
  6
CONTINUOUS
 10
-4.9188673148
 20
22.739892699
 30
0.0
 11
1.0
 21
-0.0
 31
0.0
 40
0.2125565617
 41
-1.5707963268
 42
-0.0081965377
  0
ELLIPSE
  5
60A
100
AcDbEntity
  8
ASSI
100
AcDbEllipse
 62
7
  6
CONTINUOUS
 10
5.0648064277
 20
22.739892699
 30
0.0
 11
1.0
 21
0.0
 31
0.0
 40
0.2125565617
 41
-3.1333961158
 42
-1.5707963268
  0
ENDSEC
  0
SECTION
  2
OBJECTS
  0
DICTIONARY
  5
C
100
AcDbDictionary
280
0
281
1
  3
ACAD_GROUP
350
D
  3
ACAD_MLINESTYLE
350
17
  3
ACAD_LAYOUT
350
1A
  3
ACAD_PLOTSETTINGS
350
19
  3
ACAD_PLOTSTYLENAME
350
E
  0
DICTIONARY
  5
D
102
{ACAD_REACTORS
330
C
102
}
100
AcDbDictionary
280
0
281
1
  0
ACDBDICTIONARYWDFLT
  5
E
102
{ACAD_REACTORS
330
C
102
}
100
AcDbDictionary
281
1
  3
Normal
350
F
100
AcDbDictionaryWithDefault
340
F
  0
DICTIONARY
  5
17
102
{ACAD_REACTORS
330
C
102
}
100
AcDbDictionary
280
0
281
1
  3
Standard
350
18
  0
DICTIONARY
  5
19
102
{ACAD_REACTORS
330
C
102
}
100
AcDbDictionary
281
1
  0
DICTIONARY
  5
1A
102
{ACAD_REACTORS
330
C
102
}
100
AcDbDictionary
281
1
  3
Model
350
60B
  3
Layout1
350
60C
  0
ACDBPLACEHOLDER
  5
F
102
{ACAD_REACTORS
330
E
102
}
  0
MLINESTYLE
  5
18
102
{ACAD_REACTORS
330
17
102
}
100
AcDbMlineStyle
  2
STANDARD
 70
0
  3

 62
256
 51
90.0
 52
90.0
 71
2
 49
0.5
 62
256
  6
BYLAYER
 49
-0.5
 62
256
  6
BYLAYER
  0
LAYOUT
  5
60B
102
{ACAD_REACTORS
330
1A
102
}
100
AcDbPlotSettings
  1

  2
none_device
  4
ISO_A4_(297.00_x_210.00_MM)
  6

 40
0.0
 41
0.0
 42
0.0
 43
0.0
 44
297.0
 45
210.0
 46
0.0
 47
0.0
 48
0.0
 49
0.0
140
0.0
141
0.0
142
1.0
143
1.0
 70
1024
 72
1
 73
0
 74
0
  7

 75
0
147
1.0
148
0.0
149
0.0
100
AcDbLayout
  1
Model
 70
0
 71
0
 10
0.0
 20
0.0
 11
297.0
 21
210.0
 12
0.0
 22
0.0
 32
0.0
 14
0.0
 24
0.0
 34
0.0
 15
0.0
 25
0.0
 35
0.0
146
0.0
 13
0.0
 23
0.0
 33
0.0
 16
1.0
 26
0.0
 36
0.0
 17
0.0
 27
1.0
 37
0.0
 76
0
330
21F
345
0
346
0
  0
LAYOUT
  5
60C
102
{ACAD_REACTORS
330
1A
102
}
100
AcDbPlotSettings
  1

  2
none_device
  4
ISO_A4_(297.00_x_210.00_MM)
  6

 40
0.0
 41
0.0
 42
0.0
 43
0.0
 44
297.0
 45
210.0
 46
0.0
 47
0.0
 48
0.0
 49
0.0
140
0.0
141
0.0
142
1.0
143
1.0
 70
0
 72
1
 73
0
 74
0
  7

 75
0
147
1.0
148
0.0
149
0.0
100
AcDbLayout
  1
Layout1
 70
0
 71
1
 10
0.0
 20
0.0
 11
297.0
 21
210.0
 12
0.0
 22
0.0
 32
0.0
 14
0.0
 24
0.0
 34
0.0
 15
0.0
 25
0.0
 35
0.0
146
0.0
 13
0.0
 23
0.0
 33
0.0
 16
1.0
 26
0.0
 36
0.0
 17
0.0
 27
1.0
 37
0.0
 76
0
330
220
345
0
346
0
  0
ENDSEC
  0
EOF
