999
DXF file: C:\Documenti\Lighting Idea, Plana\DXF_Sap\zdi_vp14531.dxf
999
Pro/ENGINEER 2004090 by Parametric Technology Corporation
0
SECTION
2
HEADER
9
$ACADVER
1
AC1014
9
$HANDSEED
5
       2E5
9
$EXTMAX
10
297.0000000000
20
210.0000000000
9
$EXTMIN
10
0.0000000000
20
0.0000000000
9
$LIMMIN
10
0.0000000000
20
0.0000000000
9
$LIMMAX
10
297.0000000000
20
210.0000000000
9
$VIEWCTR
10
148.5000000000
20
105.0000000000
9
$VIEWSIZE
40
210.0000000000
9
$CLAYER
8
0
9
$LTSCALE
40
16.3350000000
9
$CELTYPE
6
BYLAYER
9
$DIMSCALE
40
1
9
$DIMASZ
40
3.0000000000
9
$DIMEXO
40
1.8562500000
9
$DIMDLI
40
11.2860000000
9
$DIMEXE
40
5.3460000000
9
$DIMCEN
40
2.6730000000
9
$DIMLFAC
40
1.0000000000
9
$DIMTXT
40
3.0000000000
9
$DIMTOL
70
1
9
$DIMLIM
70
0
9
$DIMTFAC
40
1.0000000000
9
$DIMTP
40
0.0100000000
9
$DIMTM
40
0.0100000000
9
$MEASUREMENT
70
1
0
ENDSEC
0
SECTION
2
CLASSES
0
ENDSEC
0
SECTION
2
TABLES
0
TABLE
2
VPORT
5
8
100
AcDbSymbolTable
70
2
0
VPORT
5
1F4
100
AcDbSymbolTableRecord
100
AcDbViewportTableRecord
2
*ACTIVE
70
0
10
0.0
20
0.0
11
1.0
21
1.0
12
148.5000000000
22
105.0000000000
13
0.0
23
0.0
14
1.0
24
1.0
15
0.0
25
0.0
16
0.0
26
0.0
36
1.0
17
0.0
27
0.0
37
0.0
40
210.0000000000
41
1.4142857143
42
50.0
43
0.0
44
0.0
50
0.0
51
0.0
71
0
72
100
73
1
74
1
75
0
76
0
77
0
78
0
0
ENDTAB
0
TABLE
2
LTYPE
5
5
100
AcDbSymbolTable
70
6
0
LTYPE
5
14
100
AcDbSymbolTableRecord
100
AcDbLinetypeTableRecord
2
BYBLOCK
70
0
3

72
65
73
0
40
0.0
0
LTYPE
5
15
100
AcDbSymbolTableRecord
100
AcDbLinetypeTableRecord
2
BYLAYER
70
0
3

72
65
73
0
40
0.0
0
LTYPE
5
16
100
AcDbSymbolTableRecord
100
AcDbLinetypeTableRecord
2
CONTINUOUS
70
64
3
Solid line
72
65
73
0
40
0
0
LTYPE
5
1F5
100
AcDbSymbolTableRecord
100
AcDbLinetypeTableRecord
2
CENTER
70
64
3
____ _ ____ _ ____ _ ____ _ ____ _ ____ _ ____
72
65
73
4
40
0.6
49
0.375
74
0
49
-0.075
74
0
49
0.075
74
0
49
-0.075
74
0
0
LTYPE
5
1F6
100
AcDbSymbolTableRecord
100
AcDbLinetypeTableRecord
2
HIDDEN
70
64
3
- - - - - - - - - - - - - - - - - - - -
72
65
73
2
40
0.2
49
0.1
74
0
49
-0.1
74
0
0
LTYPE
5
1F7
100
AcDbSymbolTableRecord
100
AcDbLinetypeTableRecord
2
PHANTOM
70
64
3
_____ _ _ _____ _ _ _____ _ _ _____
72
65
73
6
40
0.8
49
0.45
74
0
49
-0.05
74
0
49
0.1
74
0
49
-0.05
74
0
49
0.1
74
0
49
-0.05
74
0
0
LTYPE
5
1F8
100
AcDbSymbolTableRecord
100
AcDbLinetypeTableRecord
2
DOT
70
64
3
. . . . . . . . . . . . . . . . . . . .
72
65
73
2
40
0.2
49
0.1
74
0
49
-0.1
74
0
0
LTYPE
5
1F9
100
AcDbSymbolTableRecord
100
AcDbLinetypeTableRecord
2
DASHED
70
64
3
- - - - - - - - - - - - - - - - - - - -
72
65
73
2
40
0.2
49
0.1
74
0
49
-0.1
74
0
0
ENDTAB
0
TABLE
2
LAYER
5
2
100
AcDbSymbolTable
70
36
0
LAYER
5
10
100
AcDbSymbolTableRecord
100
AcDbLayerTableRecord
2
0
70
0
62
7
6
CONTINUOUS
0
LAYER
5
1FA
100
AcDbSymbolTableRecord
100
AcDbLayerTableRecord
2
DEFAULT_1
70
0
62
7
6
CENTER
0
LAYER
5
1FB
100
AcDbSymbolTableRecord
100
AcDbLayerTableRecord
2
DEFAULT_2
70
0
62
8
6
HIDDEN
0
LAYER
5
1FC
100
AcDbSymbolTableRecord
100
AcDbLayerTableRecord
2
DEFAULT_3
70
0
62
7
6
PHANTOM
0
LAYER
5
1FD
100
AcDbSymbolTableRecord
100
AcDbLayerTableRecord
2
ASSI
70
0
62
7
6
CONTINUOUS
0
LAYER
5
1FE
100
AcDbSymbolTableRecord
100
AcDbLayerTableRecord
2
COORDINATE
70
0
62
7
6
CONTINUOUS
0
LAYER
5
1FF
100
AcDbSymbolTableRecord
100
AcDbLayerTableRecord
2
COORD_ORIGINE
70
0
62
7
6
CONTINUOUS
0
LAYER
5
200
100
AcDbSymbolTableRecord
100
AcDbLayerTableRecord
2
CURVE
70
0
62
7
6
CONTINUOUS
0
LAYER
5
201
100
AcDbSymbolTableRecord
100
AcDbLayerTableRecord
2
CURVE_LED_TASTO
70
0
62
7
6
CONTINUOUS
0
LAYER
5
202
100
AcDbSymbolTableRecord
100
AcDbLayerTableRecord
2
DRAFT
70
0
62
7
6
CONTINUOUS
0
LAYER
5
203
100
AcDbSymbolTableRecord
100
AcDbLayerTableRecord
2
IGES_SCRITTE
70
0
62
7
6
CONTINUOUS
0
LAYER
5
204
100
AcDbSymbolTableRecord
100
AcDbLayerTableRecord
2
PIANI
70
0
62
7
6
CONTINUOUS
0
LAYER
5
205
100
AcDbSymbolTableRecord
100
AcDbLayerTableRecord
2
PIANI_ORIGINE
70
0
62
7
6
CONTINUOUS
0
LAYER
5
206
100
AcDbSymbolTableRecord
100
AcDbLayerTableRecord
2
PIANI_RIFERIMENTO
70
0
62
7
6
CONTINUOUS
0
LAYER
5
207
100
AcDbSymbolTableRecord
100
AcDbLayerTableRecord
2
PUNTI
70
0
62
7
6
CONTINUOUS
0
LAYER
5
208
100
AcDbSymbolTableRecord
100
AcDbLayerTableRecord
2
RACCORDO
70
0
62
7
6
CONTINUOUS
0
LAYER
5
209
100
AcDbSymbolTableRecord
100
AcDbLayerTableRecord
2
SMUSSO
70
0
62
7
6
CONTINUOUS
0
LAYER
5
20A
100
AcDbSymbolTableRecord
100
AcDbLayerTableRecord
2
SUPERFICI
70
0
62
7
6
CONTINUOUS
0
LAYER
5
20B
100
AcDbSymbolTableRecord
100
AcDbLayerTableRecord
2
TRASH
70
0
62
7
6
CONTINUOUS
0
ENDTAB
0
TABLE
2
STYLE
5
3
100
AcDbSymbolTable
70
1
0
STYLE
5
11
100
AcDbSymbolTableRecord
100
AcDbTextStyleTableRecord
2
STANDARD
70
0
40
0.0
41
0.8000000000
50
0.0
71
0
42
0.2
3
txt
4

0
ENDTAB
0
TABLE
2
VIEW
5
6
100
AcDbSymbolTable
70
0
0
ENDTAB
0
TABLE
2
UCS
5
7
100
AcDbSymbolTable
70
0
0
ENDTAB
0
TABLE
2
APPID
5
9
100
AcDbSymbolTable
70
1
0
APPID
5
20C
100
AcDbSymbolTableRecord
100
AcDbRegAppTableRecord
2
ACAD
70
0
0
ENDTAB
0
TABLE
2
DIMSTYLE
5
A
100
AcDbSymbolTable
70
1
0
DIMSTYLE
105
20D
100
AcDbSymbolTableRecord
100
AcDbDimStyleTableRecord
2
STANDARD
70
0
3

4

5

6

7

40
1.0
41
3.0000000000
42
0.0625
43
0.38
44
0.18
45
0.0
46
0.0
47
0.0100000000
48
0.0100000000
140
3.0000000000
141
0.09
142
0.0
143
25.4
144
1.0000000000
145
0.0
146
1.0000000000
147
0.09
71
1
72
0
73
0
74
0
75
0
76
0
77
1
78
8
170
0
171
2
172
0
173
0
174
0
175
0
176
0
177
0
178
0
270
2
271
2
272
2
273
2
274
2
340
11
275
0
280
0
281
0
282
0
283
1
284
8
285
0
286
0
287
3
288
0
0
ENDTAB
0
TABLE
2
BLOCK_RECORD
5
1
100
AcDbSymbolTable
70
0
0
BLOCK_RECORD
5
1B
100
AcDbSymbolTableRecord
100
AcDbBlockTableRecord
2
*MODEL_SPACE
0
BLOCK_RECORD
5
1C
100
AcDbSymbolTableRecord
100
AcDbBlockTableRecord
2
*PAPER_SPACE
0
ENDTAB
0
ENDSEC
0
SECTION
2
BLOCKS
0
BLOCK
5
1E
100
AcDbEntity
8
0
100
AcDbBlockBegin
2
*MODEL_SPACE
70
0
10
0.0
20
0.0
30
0.0
3
*MODEL_SPACE
1

0
ENDBLK
5
1F
100
AcDbEntity
8
0
100
AcDbBlockEnd
0
BLOCK
5
20
100
AcDbEntity
8
0
100
AcDbBlockBegin
2
*PAPER_SPACE
70
0
10
0.0
20
0.0
30
0.0
3
*PAPER_SPACE
1

0
ENDBLK
5
21
100
AcDbEntity
8
0
100
AcDbBlockEnd
0
ENDSEC
0
SECTION
2
ENTITIES
0
LINE
5
20E
100
AcDbEntity
8
0
100
AcDbLine
62
7
6
CONTINUOUS
10
-10.3001218439
20
-21.8500000000
11
10.3001218439
21
-21.8500000000
0
LINE
5
20F
100
AcDbEntity
8
0
100
AcDbLine
62
7
6
CONTINUOUS
10
9.9000000000
20
-20.3500000000
11
-9.9000000000
21
-20.3500000000
0
LINE
5
210
100
AcDbEntity
8
0
100
AcDbLine
62
7
6
CONTINUOUS
10
-9.8659652156
20
-20.3159652156
11
-8.5569791461
21
-20.3159652156
0
LINE
5
211
100
AcDbEntity
8
0
100
AcDbLine
62
7
6
CONTINUOUS
10
-6.2500000000
20
-20.3159652156
11
6.2500000000
21
-20.3159652156
0
LINE
5
212
100
AcDbEntity
8
0
100
AcDbLine
62
7
6
CONTINUOUS
10
8.5569791461
20
-20.3159652156
11
9.8659652156
21
-20.3159652156
0
LINE
5
213
100
AcDbEntity
8
0
100
AcDbLine
62
9
6
CONTINUOUS
10
6.7475536304
20
-20.0585786438
11
6.2500000000
21
-20.0585786438
0
LINE
5
214
100
AcDbEntity
8
0
100
AcDbLine
62
9
6
CONTINUOUS
10
-6.2500000000
20
-20.0585786438
11
-6.7475536304
21
-20.0585786438
0
LINE
5
215
100
AcDbEntity
8
0
100
AcDbLine
62
7
6
CONTINUOUS
10
6.7649204226
20
-20.0000000000
11
6.2500000000
21
-20.0000000000
0
LINE
5
216
100
AcDbEntity
8
0
100
AcDbLine
62
7
6
CONTINUOUS
10
-6.2500000000
20
-20.0000000000
11
-6.7649204226
21
-20.0000000000
0
LINE
5
217
100
AcDbEntity
8
0
100
AcDbLine
62
9
6
CONTINUOUS
10
-6.7475536304
20
-20.0585786438
11
-8.4002862699
21
-20.3500000000
0
LINE
5
218
100
AcDbEntity
8
0
100
AcDbLine
62
7
6
CONTINUOUS
10
-6.7650513631
20
-20.0000000000
11
-8.7457121044
21
-20.3492439283
0
LINE
5
219
100
AcDbEntity
8
0
100
AcDbLine
62
9
6
CONTINUOUS
10
8.4002862699
20
-20.3500000000
11
6.7475536304
21
-20.0585786438
0
LINE
5
21A
100
AcDbEntity
8
0
100
AcDbLine
62
7
6
CONTINUOUS
10
8.7457121044
20
-20.3492439283
11
6.7650513631
21
-20.0000000000
0
LINE
5
21B
100
AcDbEntity
8
0
100
AcDbLine
62
7
6
CONTINUOUS
10
4.1000000000
20
-14.9500000000
11
4.9000000000
21
-14.9500000000
0
LINE
5
21C
100
AcDbEntity
8
0
100
AcDbLine
62
7
6
CONTINUOUS
10
-4.6000000000
20
-14.6500000000
11
-4.4000000000
21
-14.6500000000
0
LINE
5
21D
100
AcDbEntity
8
0
100
AcDbLine
62
9
6
CONTINUOUS
10
3.8000000000
20
-14.6500000000
11
5.2000000000
21
-14.6500000000
0
LINE
5
21E
100
AcDbEntity
8
0
100
AcDbLine
62
9
6
CONTINUOUS
10
-4.1000000000
20
-14.3500000000
11
-4.9000000000
21
-14.3500000000
0
LINE
5
21F
100
AcDbEntity
8
0
100
AcDbLine
62
7
6
CONTINUOUS
10
-9.8653806263
20
6.1839745962
11
-9.8613136842
21
5.3767949192
0
LINE
5
220
100
AcDbEntity
8
0
100
AcDbLine
62
7
6
CONTINUOUS
10
-11.1000000000
20
21.0501218439
11
-11.1000000000
21
-21.0501218439
0
LINE
5
221
100
AcDbEntity
8
0
100
AcDbLine
62
7
6
CONTINUOUS
10
-9.9000000000
20
20.3500000000
11
-9.9000000000
21
-20.3500000000
0
LINE
5
222
100
AcDbEntity
8
0
100
AcDbLine
62
7
6
CONTINUOUS
10
-9.8659652156
20
20.3159652156
11
-9.8659652156
21
6.4339745962
0
LINE
5
223
100
AcDbEntity
8
0
100
AcDbLine
62
7
6
CONTINUOUS
10
-9.8659652156
20
-6.4339745962
11
-9.8659652156
21
-20.3159652156
0
LINE
5
224
100
AcDbEntity
8
0
100
AcDbLine
62
7
6
CONTINUOUS
10
-9.8607290949
20
-5.1267949192
11
-9.8607290949
21
5.1267949192
0
LINE
5
225
100
AcDbEntity
8
0
100
AcDbLine
62
7
6
CONTINUOUS
10
-9.8613136842
20
-5.3767949192
11
-9.8653806263
21
-6.1839745962
0
LINE
5
226
100
AcDbEntity
8
0
100
AcDbLine
62
9
6
CONTINUOUS
10
-4.1000000000
20
-8.6500000000
11
-4.9000000000
21
-8.6500000000
0
LINE
5
227
100
AcDbEntity
8
0
100
AcDbLine
62
7
6
CONTINUOUS
10
-4.4000000000
20
-8.3500000000
11
-4.6000000000
21
-8.3500000000
0
LINE
5
228
100
AcDbEntity
8
0
100
AcDbLine
62
9
6
CONTINUOUS
10
3.8000000000
20
-8.3500000000
11
5.2000000000
21
-8.3500000000
0
LINE
5
229
100
AcDbEntity
8
0
100
AcDbLine
62
7
6
CONTINUOUS
10
4.9000000000
20
-8.0500000000
11
4.1000000000
21
-8.0500000000
0
LINE
5
22A
100
AcDbEntity
8
0
100
AcDbLine
62
7
6
CONTINUOUS
10
9.8659652156
20
20.3159652156
11
9.9000000000
21
20.3500000000
0
LINE
5
22B
100
AcDbEntity
8
0
100
AcDbLine
62
9
6
CONTINUOUS
10
9.8659652156
20
-6.4339745962
11
-9.8659652156
21
-6.4339745962
0
LINE
5
22C
100
AcDbEntity
8
0
100
AcDbLine
62
7
6
CONTINUOUS
10
9.9000000000
20
-20.3500000000
11
9.8659652156
21
-20.3159652156
0
LINE
5
22D
100
AcDbEntity
8
0
100
AcDbLine
62
7
6
CONTINUOUS
10
-6.2500000000
20
20.3500000000
11
-6.2500000000
21
20.0001372215
0
LINE
5
22E
100
AcDbEntity
8
0
100
AcDbLine
62
7
6
CONTINUOUS
10
-6.2500000000
20
-20.0000000000
11
-6.2500000000
21
-20.3500000000
0
LINE
5
22F
100
AcDbEntity
8
0
100
AcDbLine
62
7
6
CONTINUOUS
10
-4.9000000000
20
-8.6500000000
11
-4.9000000000
21
-14.3500000000
0
LINE
5
230
100
AcDbEntity
8
0
100
AcDbLine
62
9
6
CONTINUOUS
10
9.8653806263
20
-6.1839745962
11
-9.8653806263
21
-6.1839745962
0
LINE
5
231
100
AcDbEntity
8
0
100
AcDbLine
62
9
6
CONTINUOUS
10
9.8613136842
20
-5.3767949192
11
-9.8613136842
21
-5.3767949192
0
LINE
5
232
100
AcDbEntity
8
0
100
AcDbLine
62
9
6
CONTINUOUS
10
9.8607290949
20
-5.1267949192
11
-9.8607290949
21
-5.1267949192
0
LINE
5
233
100
AcDbEntity
8
0
100
AcDbLine
62
7
6
CONTINUOUS
10
-4.6500830000
20
2.9860823896
11
-4.6500830000
21
2.2132650000
0
LINE
5
234
100
AcDbEntity
8
0
100
AcDbLine
62
7
6
CONTINUOUS
10
-4.6500830000
20
1.4634720000
11
-4.6500830000
21
1.1334430000
0
LINE
5
235
100
AcDbEntity
8
0
100
AcDbLine
62
7
6
CONTINUOUS
10
-4.6500780000
20
0.3836590000
11
-4.6500780000
21
-0.1152310000
0
LINE
5
236
100
AcDbEntity
8
0
100
AcDbLine
62
7
6
CONTINUOUS
10
-4.6500780000
20
-0.7314980000
11
-4.6500780000
21
-1.2303880000
0
LINE
5
237
100
AcDbEntity
8
0
100
AcDbLine
62
7
6
CONTINUOUS
10
-4.6500780000
20
-1.5603880000
11
-4.6500780000
21
-1.8904000000
0
LINE
5
238
100
AcDbEntity
8
0
100
AcDbLine
62
7
6
CONTINUOUS
10
-4.6500780000
20
-2.1104070000
11
-4.6500780000
21
-2.4404240000
0
LINE
5
239
100
AcDbEntity
8
0
100
AcDbLine
62
7
6
CONTINUOUS
10
-4.6500780000
20
-3.1699830000
11
-4.6500780000
21
-3.5000000000
0
LINE
5
23A
100
AcDbEntity
8
0
100
AcDbLine
62
9
6
CONTINUOUS
10
-4.6000000000
20
-14.6500000000
11
-4.6000000000
21
-8.3500000000
0
LINE
5
23B
100
AcDbEntity
8
0
100
AcDbLine
62
9
6
CONTINUOUS
10
-4.4000000000
20
-14.6500000000
11
-4.4000000000
21
-8.3500000000
0
LINE
5
23C
100
AcDbEntity
8
0
100
AcDbLine
62
7
6
CONTINUOUS
10
-4.3448200000
20
2.5387280000
11
-4.3448200000
21
2.9402538945
0
LINE
5
23D
100
AcDbEntity
8
0
100
AcDbLine
62
7
6
CONTINUOUS
10
-4.1000000000
20
-14.3500000000
11
-4.1000000000
21
-8.6500000000
0
LINE
5
23E
100
AcDbEntity
8
0
100
AcDbLine
62
7
6
CONTINUOUS
10
-3.9432840000
20
2.9402538945
11
-3.9432840000
21
2.5387320000
0
LINE
5
23F
100
AcDbEntity
8
0
100
AcDbLine
62
7
6
CONTINUOUS
10
-3.6380220000
20
2.5433190000
11
-3.6380180000
21
2.8313470000
0
LINE
5
240
100
AcDbEntity
8
0
100
AcDbLine
62
7
6
CONTINUOUS
10
-3.6380180000
20
1.4583940000
11
-3.6380180000
21
1.1385250000
0
LINE
5
241
100
AcDbEntity
8
0
100
AcDbLine
62
7
6
CONTINUOUS
10
-3.3245060000
20
1.0378630000
11
-3.3245060000
21
1.5590610000
0
LINE
5
242
100
AcDbEntity
8
0
100
AcDbLine
62
7
6
CONTINUOUS
10
-3.0000120000
20
3.5337690000
11
-3.6777057690
21
3.1824876014
0
LINE
5
243
100
AcDbEntity
8
0
100
AcDbLine
62
7
6
CONTINUOUS
10
-3.6380180000
20
2.8313470000
11
-3.0000080000
21
3.1620610000
0
LINE
5
244
100
AcDbEntity
8
0
100
AcDbLine
62
7
6
CONTINUOUS
10
-4.6500780000
20
-2.4404240000
11
-3.5139130000
21
-2.8052010000
0
LINE
5
245
100
AcDbEntity
8
0
100
AcDbLine
62
7
6
CONTINUOUS
10
-3.0000040000
20
-2.6401930000
11
-4.6500780000
21
-2.1104070000
0
LINE
5
246
100
AcDbEntity
8
0
100
AcDbLine
62
7
6
CONTINUOUS
10
-3.0000000000
20
-2.9702180000
11
-3.0000040000
21
-2.6401930000
0
LINE
5
247
100
AcDbEntity
8
0
100
AcDbLine
62
7
6
CONTINUOUS
10
-3.0000080000
20
1.6632420000
11
-3.0000040000
21
1.9932580000
0
LINE
5
248
100
AcDbEntity
8
0
100
AcDbLine
62
7
6
CONTINUOUS
10
-3.0000000000
20
-1.8904040000
11
-3.0000040000
21
-1.5603920000
0
LINE
5
249
100
AcDbEntity
8
0
100
AcDbLine
62
7
6
CONTINUOUS
10
-3.0000040000
20
-0.5883690000
11
-3.0000080000
21
-0.2583650000
0
LINE
5
24A
100
AcDbEntity
8
0
100
AcDbLine
62
7
6
CONTINUOUS
10
-3.0000080000
20
2.2132650000
11
-3.0000080000
21
2.5432820000
0
LINE
5
24B
100
AcDbEntity
8
0
100
AcDbLine
62
7
6
CONTINUOUS
10
-3.0000040000
20
-1.2303880000
11
-3.0000040000
21
-0.9003750000
0
LINE
5
24C
100
AcDbEntity
8
0
100
AcDbLine
62
7
6
CONTINUOUS
10
-3.0000040000
20
0.0536460000
11
-3.0000040000
21
0.3836590000
0
LINE
5
24D
100
AcDbEntity
8
0
100
AcDbLine
62
7
6
CONTINUOUS
10
-3.0000040000
20
0.6036660000
11
-3.0000080000
21
0.9336780000
0
LINE
5
24E
100
AcDbEntity
8
0
100
AcDbLine
62
7
6
CONTINUOUS
10
-3.0000080000
20
3.1620610000
11
-3.0000120000
21
3.5337690000
0
LINE
5
24F
100
AcDbEntity
8
0
100
AcDbLine
62
7
6
CONTINUOUS
10
-3.0000040000
20
1.9932580000
11
-4.6500830000
21
1.4634720000
0
LINE
5
250
100
AcDbEntity
8
0
100
AcDbLine
62
7
6
CONTINUOUS
10
-4.1361690000
20
1.2984560000
11
-3.6380180000
21
1.4583940000
0
LINE
5
251
100
AcDbEntity
8
0
100
AcDbLine
62
7
6
CONTINUOUS
10
-3.3245060000
20
1.5590610000
11
-3.0000080000
21
1.6632420000
0
LINE
5
252
100
AcDbEntity
8
0
100
AcDbLine
62
7
6
CONTINUOUS
10
3.3499410936
20
-2.6000000000
11
3.5272590433
21
-2.6000000000
0
LINE
5
253
100
AcDbEntity
8
0
100
AcDbLine
62
7
6
CONTINUOUS
10
3.3061250447
20
-2.2327800000
11
4.4750740000
21
-2.2327800000
0
LINE
5
254
100
AcDbEntity
8
0
100
AcDbLine
62
7
6
CONTINUOUS
10
4.4750740000
20
-2.0491700000
11
2.9748970000
21
-2.0491700000
0
LINE
5
255
100
AcDbEntity
8
0
100
AcDbLine
62
7
6
CONTINUOUS
10
-4.6500780000
20
-1.8904000000
11
-3.0000000000
21
-1.8904040000
0
LINE
5
256
100
AcDbEntity
8
0
100
AcDbLine
62
7
6
CONTINUOUS
10
3.9492820000
20
-1.6402210000
11
4.1182860000
21
-1.6402210000
0
LINE
5
257
100
AcDbEntity
8
0
100
AcDbLine
62
7
6
CONTINUOUS
10
-3.0000040000
20
-1.5603920000
11
-4.6500780000
21
-1.5603880000
0
LINE
5
258
100
AcDbEntity
8
0
100
AcDbLine
62
7
6
CONTINUOUS
10
-3.5754910000
20
-0.4233650000
11
-4.6500780000
21
-0.7314980000
0
LINE
5
259
100
AcDbEntity
8
0
100
AcDbLine
62
7
6
CONTINUOUS
10
-4.0881170000
20
-0.9003750000
11
-3.0000040000
21
-0.5883690000
0
LINE
5
25A
100
AcDbEntity
8
0
100
AcDbLine
62
7
6
CONTINUOUS
10
-4.6500780000
20
-1.2303880000
11
-3.0000040000
21
-1.2303880000
0
LINE
5
25B
100
AcDbEntity
8
0
100
AcDbLine
62
7
6
CONTINUOUS
10
3.2772080000
20
-0.9913260000
11
3.9492820000
21
-0.9913260000
0
LINE
5
25C
100
AcDbEntity
8
0
100
AcDbLine
62
7
6
CONTINUOUS
10
4.1182860000
20
-0.9913260000
11
4.4750740000
21
-0.9913260000
0
LINE
5
25D
100
AcDbEntity
8
0
100
AcDbLine
62
7
6
CONTINUOUS
10
-3.0000040000
20
-0.9003750000
11
-4.0881170000
21
-0.9003750000
0
LINE
5
25E
100
AcDbEntity
8
0
100
AcDbLine
62
7
6
CONTINUOUS
10
4.4750740000
20
-0.8077160000
11
4.1182860000
21
-0.8077160000
0
LINE
5
25F
100
AcDbEntity
8
0
100
AcDbLine
62
7
6
CONTINUOUS
10
3.9492820000
20
-0.8077160000
11
2.9811560000
21
-0.8077160000
0
LINE
5
260
100
AcDbEntity
8
0
100
AcDbLine
62
7
6
CONTINUOUS
10
4.1182860000
20
-0.6053280000
11
3.9492820000
21
-0.6053280000
0
LINE
5
261
100
AcDbEntity
8
0
100
AcDbLine
62
7
6
CONTINUOUS
10
-4.0881170000
20
0.0536420000
11
-3.0000040000
21
0.0536460000
0
LINE
5
262
100
AcDbEntity
8
0
100
AcDbLine
62
7
6
CONTINUOUS
10
-4.6500780000
20
-0.1152310000
11
-3.5754910000
21
-0.4233650000
0
LINE
5
263
100
AcDbEntity
8
0
100
AcDbLine
62
7
6
CONTINUOUS
10
-3.0000080000
20
-0.2583650000
11
-4.0881170000
21
0.0536420000
0
LINE
5
264
100
AcDbEntity
8
0
100
AcDbLine
62
7
6
CONTINUOUS
10
-4.6500830000
20
1.1334430000
11
-3.0000040000
21
0.6036660000
0
LINE
5
265
100
AcDbEntity
8
0
100
AcDbLine
62
7
6
CONTINUOUS
10
-3.0000080000
20
0.9336780000
11
-3.3245060000
21
1.0378630000
0
LINE
5
266
100
AcDbEntity
8
0
100
AcDbLine
62
7
6
CONTINUOUS
10
-3.6380180000
20
1.1385250000
11
-4.1361690000
21
1.2984560000
0
LINE
5
267
100
AcDbEntity
8
0
100
AcDbLine
62
7
6
CONTINUOUS
10
-3.5139130000
20
-2.8052010000
11
-4.6500780000
21
-3.1699830000
0
LINE
5
268
100
AcDbEntity
8
0
100
AcDbLine
62
7
6
CONTINUOUS
10
-3.0000040000
20
0.3836590000
11
-4.6500780000
21
0.3836590000
0
LINE
5
269
100
AcDbEntity
8
0
100
AcDbLine
62
7
6
CONTINUOUS
10
3.1751990000
20
0.5005050000
11
2.9999350000
21
0.5005050000
0
LINE
5
26A
100
AcDbEntity
8
0
100
AcDbLine
62
7
6
CONTINUOUS
10
3.6050129379
20
1.1250790079
11
3.7656717616
21
1.1046700303
0
LINE
5
26B
100
AcDbEntity
8
0
100
AcDbLine
62
7
6
CONTINUOUS
10
2.9999350000
20
-0.2401940000
11
3.7677580000
21
-0.3841610000
0
LINE
5
26C
100
AcDbEntity
8
0
100
AcDbLine
62
7
6
CONTINUOUS
10
3.5781499134
20
-0.1735581806
11
3.1751990000
21
-0.0938800000
0
LINE
5
26D
100
AcDbEntity
8
0
100
AcDbLine
62
7
6
CONTINUOUS
10
3.9492820000
20
-1.4598380000
11
3.2772080000
21
-0.9913260000
0
LINE
5
26E
100
AcDbEntity
8
0
100
AcDbLine
62
7
6
CONTINUOUS
10
2.9811560000
20
-0.9579430000
11
3.9492820000
21
-1.6402210000
0
LINE
5
26F
100
AcDbEntity
8
0
100
AcDbLine
62
7
6
CONTINUOUS
10
2.9748970000
20
2.5911550000
11
2.9748970000
21
2.4728125150
0
LINE
5
270
100
AcDbEntity
8
0
100
AcDbLine
62
7
6
CONTINUOUS
10
2.9748970000
20
-2.0491700000
11
2.9748970000
21
-2.1675124995
0
LINE
5
271
100
AcDbEntity
8
0
100
AcDbLine
62
7
6
CONTINUOUS
10
2.9811560000
20
-0.8077160000
11
2.9811560000
21
-0.9579430000
0
LINE
5
272
100
AcDbEntity
8
0
100
AcDbLine
62
7
6
CONTINUOUS
10
2.9999350000
20
0.5005050000
11
2.9999350000
21
-0.2401940000
0
LINE
5
273
100
AcDbEntity
8
0
100
AcDbLine
62
7
6
CONTINUOUS
10
3.1751990000
20
-0.0938800000
11
3.1751990000
21
0.5005050000
0
LINE
5
274
100
AcDbEntity
8
0
100
AcDbLine
62
7
6
CONTINUOUS
10
3.3629819080
20
0.7613144939
11
3.3963649284
21
0.9449246062
0
LINE
5
275
100
AcDbEntity
8
0
100
AcDbLine
62
7
6
CONTINUOUS
10
-4.6500780000
20
-3.5000000000
11
-3.0000000000
21
-2.9702180000
0
LINE
5
276
100
AcDbEntity
8
0
100
AcDbLine
62
7
6
CONTINUOUS
10
3.3499411010
20
2.0403250000
11
3.5272590493
21
2.0403250000
0
LINE
5
277
100
AcDbEntity
8
0
100
AcDbLine
62
7
6
CONTINUOUS
10
-4.6500830000
20
2.2132650000
11
-3.0000080000
21
2.2132650000
0
LINE
5
278
100
AcDbEntity
8
0
100
AcDbLine
62
7
6
CONTINUOUS
10
3.3061250573
20
2.4075450000
11
4.4750740000
21
2.4075450000
0
LINE
5
279
100
AcDbEntity
8
0
100
AcDbLine
62
7
6
CONTINUOUS
10
-3.9432840000
20
2.5387320000
11
-4.3448200000
21
2.5387280000
0
LINE
5
27A
100
AcDbEntity
8
0
100
AcDbLine
62
7
6
CONTINUOUS
10
4.4750740000
20
2.5911550000
11
2.9748970000
21
2.5911550000
0
LINE
5
27B
100
AcDbEntity
8
0
100
AcDbLine
62
7
6
CONTINUOUS
10
-3.0000080000
20
2.5432820000
11
-3.6380220000
21
2.5433190000
0
LINE
5
27C
100
AcDbEntity
8
0
100
AcDbLine
62
7
6
CONTINUOUS
10
4.0682110042
20
-0.2255890552
11
4.0828160003
21
-0.4175450046
0
LINE
5
27D
100
AcDbEntity
8
0
100
AcDbLine
62
7
6
CONTINUOUS
10
3.8000000000
20
-8.3500000000
11
3.8000000000
21
-14.6500000000
0
LINE
5
27E
100
AcDbEntity
8
0
100
AcDbLine
62
7
6
CONTINUOUS
10
3.9492820000
20
-0.6053280000
11
3.9492820000
21
-0.8077160000
0
LINE
5
27F
100
AcDbEntity
8
0
100
AcDbLine
62
7
6
CONTINUOUS
10
3.9492820000
20
-0.9913260000
11
3.9492820000
21
-1.4598380000
0
LINE
5
280
100
AcDbEntity
8
0
100
AcDbLine
62
9
6
CONTINUOUS
10
4.1000000000
20
-14.9500000000
11
4.1000000000
21
-8.0500000000
0
LINE
5
281
100
AcDbEntity
8
0
100
AcDbLine
62
7
6
CONTINUOUS
10
4.1182860000
20
-1.6402210000
11
4.1182860000
21
-0.9913260000
0
LINE
5
282
100
AcDbEntity
8
0
100
AcDbLine
62
7
6
CONTINUOUS
10
4.1182860000
20
-0.8077160000
11
4.1182860000
21
-0.6053280000
0
LINE
5
283
100
AcDbEntity
8
0
100
AcDbLine
62
7
6
CONTINUOUS
10
4.4750740000
20
-2.2327800000
11
4.4750740000
21
-2.0491700000
0
LINE
5
284
100
AcDbEntity
8
0
100
AcDbLine
62
7
6
CONTINUOUS
10
4.4750740000
20
-0.9913260000
11
4.4750740000
21
-0.8077160000
0
LINE
5
285
100
AcDbEntity
8
0
100
AcDbLine
62
7
6
CONTINUOUS
10
4.4750740000
20
2.4075450000
11
4.4750740000
21
2.5911550000
0
LINE
5
286
100
AcDbEntity
8
0
100
AcDbLine
62
9
6
CONTINUOUS
10
4.9000000000
20
-14.9500000000
11
4.9000000000
21
-8.0500000000
0
LINE
5
287
100
AcDbEntity
8
0
100
AcDbLine
62
7
6
CONTINUOUS
10
3.7677580000
20
-0.3841610000
11
3.7927960200
21
-0.2109838616
0
LINE
5
288
100
AcDbEntity
8
0
100
AcDbLine
62
7
6
CONTINUOUS
10
4.0536049818
20
0.9261461334
11
4.0786429676
21
0.7425362376
0
LINE
5
289
100
AcDbEntity
8
0
100
AcDbLine
62
7
6
CONTINUOUS
10
5.2000000000
20
-14.6500000000
11
5.2000000000
21
-8.3500000000
0
LINE
5
28A
100
AcDbEntity
8
0
100
AcDbLine
62
7
6
CONTINUOUS
10
6.2500000000
20
-20.3500000000
11
6.2500000000
21
-20.0000000000
0
LINE
5
28B
100
AcDbEntity
8
0
100
AcDbLine
62
7
6
CONTINUOUS
10
6.2500000000
20
20.0000000000
11
6.2500000000
21
20.3500000000
0
LINE
5
28C
100
AcDbEntity
8
0
100
AcDbLine
62
9
6
CONTINUOUS
10
-9.8607290949
20
5.1267949192
11
9.8607290949
21
5.1267949192
0
LINE
5
28D
100
AcDbEntity
8
0
100
AcDbLine
62
9
6
CONTINUOUS
10
-9.8613136842
20
5.3767949192
11
9.8613136842
21
5.3767949192
0
LINE
5
28E
100
AcDbEntity
8
0
100
AcDbLine
62
9
6
CONTINUOUS
10
9.8653806263
20
6.1839745962
11
-9.8653806263
21
6.1839745962
0
LINE
5
28F
100
AcDbEntity
8
0
100
AcDbLine
62
9
6
CONTINUOUS
10
9.8659652156
20
6.4339745962
11
-9.8659652156
21
6.4339745962
0
LINE
5
290
100
AcDbEntity
8
0
100
AcDbLine
62
7
6
CONTINUOUS
10
-9.9000000000
20
-20.3500000000
11
-9.8659652156
21
-20.3159652156
0
LINE
5
291
100
AcDbEntity
8
0
100
AcDbLine
62
7
6
CONTINUOUS
10
-9.8659652156
20
20.3159652156
11
-9.9000000000
21
20.3500000000
0
LINE
5
292
100
AcDbEntity
8
0
100
AcDbLine
62
7
6
CONTINUOUS
10
9.8613136842
20
-5.3767949192
11
9.8653806263
21
-6.1839745962
0
LINE
5
293
100
AcDbEntity
8
0
100
AcDbLine
62
7
6
CONTINUOUS
10
9.8607290949
20
-5.1267949192
11
9.8607290949
21
5.1267949192
0
LINE
5
294
100
AcDbEntity
8
0
100
AcDbLine
62
7
6
CONTINUOUS
10
9.8659652156
20
20.3159652156
11
9.8659652156
21
6.4339745962
0
LINE
5
295
100
AcDbEntity
8
0
100
AcDbLine
62
7
6
CONTINUOUS
10
9.8659652156
20
-6.4339745962
11
9.8659652156
21
-20.3159652156
0
LINE
5
296
100
AcDbEntity
8
0
100
AcDbLine
62
7
6
CONTINUOUS
10
9.9000000000
20
20.3500000000
11
9.9000000000
21
-20.3500000000
0
LINE
5
297
100
AcDbEntity
8
0
100
AcDbLine
62
7
6
CONTINUOUS
10
9.8653806263
20
6.1839745962
11
9.8613136842
21
5.3767949192
0
LINE
5
298
100
AcDbEntity
8
0
100
AcDbLine
62
7
6
CONTINUOUS
10
11.1000000000
20
21.0501218439
11
11.1000000000
21
-21.0501218439
0
LINE
5
299
100
AcDbEntity
8
0
100
AcDbLine
62
7
6
CONTINUOUS
10
6.7650513631
20
20.0000000000
11
8.7457121044
21
20.3492439283
0
LINE
5
29A
100
AcDbEntity
8
0
100
AcDbLine
62
9
6
CONTINUOUS
10
6.7475536304
20
20.0585786438
11
8.4002862699
21
20.3500000000
0
LINE
5
29B
100
AcDbEntity
8
0
100
AcDbLine
62
7
6
CONTINUOUS
10
-8.7457121044
20
20.3492439283
11
-6.7650513631
21
20.0000000000
0
LINE
5
29C
100
AcDbEntity
8
0
100
AcDbLine
62
9
6
CONTINUOUS
10
-8.4002862699
20
20.3500000000
11
-6.7475536304
21
20.0585786438
0
LINE
5
29D
100
AcDbEntity
8
0
100
AcDbLine
62
7
6
CONTINUOUS
10
6.7649204226
20
20.0000000000
11
6.2500000000
21
20.0000000000
0
LINE
5
29E
100
AcDbEntity
8
0
100
AcDbLine
62
7
6
CONTINUOUS
10
-6.2500000000
20
20.0000000000
11
-6.7649204226
21
20.0000000000
0
LINE
5
29F
100
AcDbEntity
8
0
100
AcDbLine
62
9
6
CONTINUOUS
10
6.7475536304
20
20.0585786438
11
6.2500000000
21
20.0585786438
0
LINE
5
2A0
100
AcDbEntity
8
0
100
AcDbLine
62
9
6
CONTINUOUS
10
-6.2500000000
20
20.0585786438
11
-6.7475536304
21
20.0585786438
0
LINE
5
2A1
100
AcDbEntity
8
0
100
AcDbLine
62
7
6
CONTINUOUS
10
-9.8659652156
20
20.3159652156
11
-8.5569791461
21
20.3159652156
0
LINE
5
2A2
100
AcDbEntity
8
0
100
AcDbLine
62
7
6
CONTINUOUS
10
-6.2500000000
20
20.3159652156
11
6.2500000000
21
20.3159652156
0
LINE
5
2A3
100
AcDbEntity
8
0
100
AcDbLine
62
7
6
CONTINUOUS
10
8.5569791461
20
20.3159652156
11
9.8659652156
21
20.3159652156
0
LINE
5
2A4
100
AcDbEntity
8
0
100
AcDbLine
62
7
6
CONTINUOUS
10
-9.9000000000
20
20.3500000000
11
9.9000000000
21
20.3500000000
0
LINE
5
2A5
100
AcDbEntity
8
0
100
AcDbLine
62
7
6
CONTINUOUS
10
-10.3001218439
20
21.8500000000
11
10.3001218439
21
21.8500000000
0
CIRCLE
5
2A6
100
AcDbEntity
8
0
100
AcDbCircle
62
7
6
CONTINUOUS
10
0.0000000000
20
0.0000000000
40
1.2500000000
0
CIRCLE
5
2A7
100
AcDbEntity
8
0
100
AcDbCircle
62
7
6
CONTINUOUS
10
0.0000000000
20
0.0000000000
40
1.7000000000
0
CIRCLE
5
2A8
100
AcDbEntity
8
0
100
AcDbCircle
62
9
6
CONTINUOUS
10
0.0000000000
20
0.0000000000
40
2.2451811830
0
CIRCLE
5
2A9
100
AcDbEntity
8
0
100
AcDbCircle
62
7
6
CONTINUOUS
10
0.0000000000
20
0.0000000000
40
1.7750000000
0
CIRCLE
5
2AA
100
AcDbEntity
8
0
100
AcDbCircle
62
7
6
CONTINUOUS
10
0.0000000000
20
0.0000000000
40
2.7500000000
0
ARC
5
2AB
100
AcDbEntity
8
0
100
AcDbCircle
62
7
6
CONTINUOUS
10
-4.4000000000
20
-14.3500000000
40
0.3000000000
100
AcDbArc
50
270.0000000000
51
360.0000000000
0
ARC
5
2AC
100
AcDbEntity
8
0
100
AcDbCircle
62
7
6
CONTINUOUS
10
-4.4000000000
20
-8.6500000000
40
0.3000000000
100
AcDbArc
50
0.0000000000
51
90.0000000000
0
ARC
5
2AD
100
AcDbEntity
8
0
100
AcDbCircle
62
7
6
CONTINUOUS
10
-4.1440520000
20
2.9402380000
40
0.2007690000
100
AcDbArc
50
0.0045360333
51
179.9954639667
0
ARC
5
2AE
100
AcDbEntity
8
0
100
AcDbCircle
62
7
6
CONTINUOUS
10
-4.1440520000
20
2.9860430000
40
0.5060329798
100
AcDbArc
50
22.8428678398
51
179.9955400795
0
CIRCLE
5
2AF
100
AcDbEntity
8
0
100
AcDbCircle
62
7
6
CONTINUOUS
10
0.0000000000
20
0.0000000000
40
2.7451621451
0
ARC
5
2B0
100
AcDbEntity
8
0
100
AcDbCircle
62
7
6
CONTINUOUS
10
-4.6000000000
20
-8.6500000000
40
0.3000000000
100
AcDbArc
50
90.0000000000
51
180.0000000000
0
ARC
5
2B1
100
AcDbEntity
8
0
100
AcDbCircle
62
7
6
CONTINUOUS
10
-4.6000000000
20
-14.3500000000
40
0.3000000000
100
AcDbArc
50
180.0000000000
51
270.0000000000
0
ARC
5
2B2
100
AcDbEntity
8
0
100
AcDbCircle
62
7
6
CONTINUOUS
10
4.9000000000
20
-14.6500000000
40
0.3000000000
100
AcDbArc
50
270.0000000000
51
360.0000000000
0
ARC
5
2B3
100
AcDbEntity
8
0
100
AcDbCircle
62
7
6
CONTINUOUS
10
4.1000000000
20
-14.6500000000
40
0.3000000000
100
AcDbArc
50
180.0000000000
51
270.0000000000
0
ARC
5
2B4
100
AcDbEntity
8
0
100
AcDbCircle
62
7
6
CONTINUOUS
10
4.9000000000
20
-8.3500000000
40
0.3000000000
100
AcDbArc
50
0.0000000000
51
90.0000000000
0
ARC
5
2B5
100
AcDbEntity
8
0
100
AcDbCircle
62
7
6
CONTINUOUS
10
4.1000000000
20
-8.3500000000
40
0.3000000000
100
AcDbArc
50
90.0000000000
51
180.0000000000
0
SPLINE
5
2B6
100
AcDbEntity
8
0
100
AcDbSpline
62
7
6
CONTINUOUS
70
0
71
3
72
21
73
17
74
15
42
0.0000001000
43
0.0000001000
44
0.0000000001
12
0.5213750946
22
-0.2582302136
32
0.0000000000
13
0.2474581910
23
-0.5265731418
33
0.0000000000
40
0.0000000000
40
0.0000000000
40
0.0000000000
40
0.0000000000
40
0.0718611177
40
0.1486220458
40
0.2308036682
40
0.3188309380
40
0.3651520490
40
0.4130585295
40
0.4376173448
40
0.4625080741
40
0.5125365403
40
0.5628805168
40
0.6135818847
40
0.7162099656
40
0.8560570353
40
1.0000000000
40
1.0000000000
40
1.0000000000
40
1.0000000000
10
2.9748970036
20
2.4728125223
30
0.0000000000
10
2.9873858693
20
2.4666269517
30
0.0000000000
10
3.0125673428
20
2.4524977165
30
0.0000000000
10
3.0495714141
20
2.4272292058
30
0.0000000000
10
3.0869755458
20
2.3972453149
30
0.0000000000
10
3.1179378253
20
2.3688336488
30
0.0000000000
10
3.1429338375
20
2.3438375239
30
0.0000000000
10
3.1587750983
20
2.3271066287
30
0.0000000000
10
3.1714948000
20
2.3131523045
30
0.0000000000
10
3.1843134756
20
2.2987330913
30
0.0000000000
10
3.2000451158
20
2.2802161274
30
0.0000000000
10
3.2183646106
20
2.2573451681
30
0.0000000000
10
3.2421673380
20
2.2258160698
30
0.0000000000
10
3.2744837698
20
2.1789964667
30
0.0000000000
10
3.3130606750
20
2.1146730901
30
0.0000000000
10
3.3380678120
20
2.0655904995
30
0.0000000000
10
3.3499411005
20
2.0403249998
30
0.0000000000
11
2.9748970036
21
2.4728125223
31
0.0000000000
11
3.0114207595
21
2.4524627628
31
0.0000000000
11
3.0483733274
21
2.4273805306
31
0.0000000000
11
3.0857545512
21
2.3975659031
31
0.0000000000
11
3.1235644309
21
2.3630188802
31
0.0000000000
11
3.1426301166
21
2.3439707204
31
0.0000000000
11
3.1618029664
21
2.3237394619
31
0.0000000000
11
3.1714295777
21
2.3131801705
31
0.0000000000
11
3.1810471951
21
2.3023529938
31
0.0000000000
11
3.1998975992
21
2.2801738766
31
0.0000000000
11
3.2182110391
21
2.2573136674
31
0.0000000000
11
3.2359875146
21
2.2337723663
31
0.0000000000
11
3.2699295729
21
2.1846464881
31
0.0000000000
11
3.3118445396
21
2.1149074117
31
0.0000000000
11
3.3499411005
21
2.0403249998
31
0.0000000000
0
SPLINE
5
2B7
100
AcDbEntity
8
0
100
AcDbSpline
62
7
6
CONTINUOUS
70
0
71
3
72
21
73
17
74
15
42
0.0000001000
43
0.0000001000
44
0.0000000001
12
0.5213750800
22
-0.2582302064
32
0.0000000000
13
0.2474581906
23
-0.5265731241
33
0.0000000000
40
0.0000000000
40
0.0000000000
40
0.0000000000
40
0.0000000000
40
0.0718611198
40
0.1486220500
40
0.2308036746
40
0.3188309469
40
0.3651520592
40
0.4130585411
40
0.4376173571
40
0.4625080870
40
0.5125365547
40
0.5628805325
40
0.6135819019
40
0.7162099856
40
0.8560570592
40
1.0000000000
40
1.0000000000
40
1.0000000000
40
1.0000000000
10
2.9748970036
20
-2.1675124923
30
0.0000000000
10
2.9873858693
20
-2.1736980628
30
0.0000000000
10
3.0125673428
20
-2.1878272980
30
0.0000000000
10
3.0495714141
20
-2.2130958088
30
0.0000000000
10
3.0869755458
20
-2.2430796996
30
0.0000000000
10
3.1179378253
20
-2.2714913657
30
0.0000000000
10
3.1429338375
20
-2.2964874906
30
0.0000000000
10
3.1587750983
20
-2.3132183858
30
0.0000000000
10
3.1714948000
20
-2.3271727101
30
0.0000000000
10
3.1843134756
20
-2.3415919232
30
0.0000000000
10
3.2000451158
20
-2.3601088872
30
0.0000000000
10
3.2183646106
20
-2.3829798464
30
0.0000000000
10
3.2421673380
20
-2.4145089447
30
0.0000000000
10
3.2744837698
20
-2.4613285478
30
0.0000000000
10
3.3130606723
20
-2.5256519197
30
0.0000000000
10
3.3380678070
20
-2.5747345053
30
0.0000000000
10
3.3499410936
20
-2.6000000000
30
0.0000000000
11
2.9748970036
21
-2.1675124923
31
0.0000000000
11
3.0114207595
21
-2.1878622517
31
0.0000000000
11
3.0483733274
21
-2.2129444839
31
0.0000000000
11
3.0857545512
21
-2.2427591114
31
0.0000000000
11
3.1235644309
21
-2.2773061343
31
0.0000000000
11
3.1426301166
21
-2.2963542941
31
0.0000000000
11
3.1618029664
21
-2.3165855526
31
0.0000000000
11
3.1714295777
21
-2.3271448440
31
0.0000000000
11
3.1810471951
21
-2.3379720208
31
0.0000000000
11
3.1998975992
21
-2.3601511379
31
0.0000000000
11
3.2182110391
21
-2.3830113471
31
0.0000000000
11
3.2359875146
21
-2.4065526482
31
0.0000000000
11
3.2699295729
21
-2.4556785264
31
0.0000000000
11
3.3118445396
21
-2.5254176029
31
0.0000000000
11
3.3499410936
21
-2.6000000000
31
0.0000000000
0
SPLINE
5
2B8
100
AcDbEntity
8
0
100
AcDbSpline
62
7
6
CONTINUOUS
70
0
71
3
72
23
73
19
74
17
42
0.0000001000
43
0.0000001000
44
0.0000000001
12
-0.4433993837
22
-0.0489347274
32
0.0000000000
13
-0.1003441398
23
-0.4346460649
33
0.0000000000
40
0.0000000000
40
0.0000000000
40
0.0000000000
40
0.0000000000
40
0.0092829898
40
0.0374939239
40
0.0653381726
40
0.1200107547
40
0.1734946493
40
0.2259911051
40
0.2777128982
40
0.3288824697
40
0.3797295085
40
0.4304880820
40
0.4558992465
40
0.4812058118
40
0.5814153843
40
0.6815695246
40
0.7835958406
40
1.0000000000
40
1.0000000000
40
1.0000000000
40
1.0000000000
10
3.9751772347
20
1.7180641683
30
0.0000000000
10
3.9738052107
20
1.7179127481
30
0.0000000000
10
3.9682662954
20
1.7172768609
30
0.0000000000
10
3.9586345155
20
1.7159955322
30
0.0000000000
10
3.9423791858
20
1.7133691055
30
0.0000000000
10
3.9225594860
20
1.7092910297
30
0.0000000000
10
3.8994790652
20
1.7030755811
30
0.0000000000
10
3.8772475092
20
1.6955674849
30
0.0000000000
10
3.8558664590
20
1.6867662842
30
0.0000000000
10
3.8353370086
20
1.6766716005
30
0.0000000000
10
3.8156610317
20
1.6652839298
30
0.0000000000
10
3.7999847496
20
1.6547222291
30
0.0000000000
10
3.7879152491
20
1.6456622767
30
0.0000000000
10
3.7704299365
20
1.6315915389
30
0.0000000000
10
3.7460893053
20
1.6083173365
30
0.0000000000
10
3.7181889243
20
1.5728684120
30
0.0000000000
10
3.6867000782
20
1.5189975377
30
0.0000000000
10
3.6712267756
20
1.4736090053
30
0.0000000000
10
3.6639884792
20
1.4422559332
30
0.0000000000
11
3.9751772347
21
1.7180641683
31
0.0000000000
11
3.9710632111
21
1.7175917810
31
0.0000000000
11
3.9585891189
21
1.7159300034
31
0.0000000000
11
3.9463277784
21
1.7139465914
31
0.0000000000
11
3.9224433521
21
1.7090148642
31
0.0000000000
11
3.8994099323
21
1.7027965995
31
0.0000000000
11
3.8772275189
21
1.6952917973
31
0.0000000000
11
3.8558961119
21
1.6865004575
31
0.0000000000
11
3.8354157114
21
1.6764225803
31
0.0000000000
11
3.8157863173
21
1.6650581655
31
0.0000000000
11
3.7970079296
21
1.6524072132
31
0.0000000000
11
3.7879421055
21
1.6456026840
31
0.0000000000
11
3.7791484249
21
1.6385241010
31
0.0000000000
11
3.7468648296
21
1.6076051731
31
0.0000000000
11
3.7192070374
21
1.5725188924
31
0.0000000000
11
3.6961750482
21
1.5332652588
31
0.0000000000
11
3.6639884792
21
1.4422559332
31
0.0000000000
0
SPLINE
5
2B9
100
AcDbEntity
8
0
100
AcDbSpline
62
7
6
CONTINUOUS
70
0
71
3
72
15
73
11
74
9
42
0.0000001000
43
0.0000001000
44
0.0000000001
12
0.0620404848
22
0.0000000000
32
0.0000000000
13
0.0106155459
23
0.0611255425
33
0.0000000000
40
0.0000000000
40
0.0000000000
40
0.0000000000
40
0.0000000000
40
0.0327908524
40
0.0888707075
40
0.1728081791
40
0.2851375869
40
0.4252898123
40
0.5921678423
40
0.7843176358
40
1.0000000000
40
1.0000000000
40
1.0000000000
40
1.0000000000
10
-6.7649204226
20
20.0000000000
30
0.0000000000
10
-6.7642423025
20
20.0000000000
30
0.0000000000
10
-6.7625955914
20
20.0012500412
30
0.0000000000
10
-6.7608720980
20
20.0043183401
30
0.0000000000
10
-6.7588255820
20
20.0091618781
30
0.0000000000
10
-6.7567243040
20
20.0157872524
30
0.0000000000
10
-6.7544861173
20
20.0241721392
30
0.0000000000
10
-6.7521827825
20
20.0342353191
30
0.0000000000
10
-6.7498240431
20
20.0458853672
30
0.0000000000
10
-6.7483168258
20
20.0541840766
30
0.0000000000
10
-6.7475536304
20
20.0585786438
30
0.0000000000
11
-6.7649204226
21
20.0000000000
31
0.0000000000
11
-6.7631306366
21
20.0009671029
31
0.0000000000
11
-6.7611917911
21
20.0038560231
31
0.0000000000
11
-6.7591227491
21
20.0086348666
31
0.0000000000
11
-6.7569435064
21
20.0152543421
31
0.0000000000
11
-6.7546750065
21
20.0236483210
31
0.0000000000
11
-6.7523389519
21
20.0337345231
31
0.0000000000
11
-6.7499576120
21
20.0454153211
31
0.0000000000
11
-6.7475536304
21
20.0585786438
31
0.0000000000
0
SPLINE
5
2BA
100
AcDbEntity
8
0
100
AcDbSpline
62
7
6
CONTINUOUS
70
0
71
3
72
15
73
11
74
9
42
0.0000001000
43
0.0000001000
44
0.0000000001
12
-0.0620404848
22
0.0000000000
32
0.0000000000
13
-0.0106155459
23
-0.0611255425
33
0.0000000000
40
0.0000000000
40
0.0000000000
40
0.0000000000
40
0.0000000000
40
0.0327908524
40
0.0888707075
40
0.1728081791
40
0.2851375869
40
0.4252898123
40
0.5921678423
40
0.7843176358
40
1.0000000000
40
1.0000000000
40
1.0000000000
40
1.0000000000
10
6.7649204226
20
-20.0000000000
30
0.0000000000
10
6.7642423025
20
-20.0000000000
30
0.0000000000
10
6.7625955914
20
-20.0012500412
30
0.0000000000
10
6.7608720980
20
-20.0043183401
30
0.0000000000
10
6.7588255820
20
-20.0091618781
30
0.0000000000
10
6.7567243040
20
-20.0157872524
30
0.0000000000
10
6.7544861173
20
-20.0241721392
30
0.0000000000
10
6.7521827825
20
-20.0342353191
30
0.0000000000
10
6.7498240431
20
-20.0458853672
30
0.0000000000
10
6.7483168258
20
-20.0541840766
30
0.0000000000
10
6.7475536304
20
-20.0585786438
30
0.0000000000
11
6.7649204226
21
-20.0000000000
31
0.0000000000
11
6.7631306366
21
-20.0009671029
31
0.0000000000
11
6.7611917911
21
-20.0038560231
31
0.0000000000
11
6.7591227491
21
-20.0086348666
31
0.0000000000
11
6.7569435064
21
-20.0152543421
31
0.0000000000
11
6.7546750065
21
-20.0236483210
31
0.0000000000
11
6.7523389519
21
-20.0337345231
31
0.0000000000
11
6.7499576120
21
-20.0454153211
31
0.0000000000
11
6.7475536304
21
-20.0585786438
31
0.0000000000
0
SPLINE
5
2BB
100
AcDbEntity
8
0
100
AcDbSpline
62
7
6
CONTINUOUS
70
0
71
3
72
15
73
11
74
9
42
0.0000001000
43
0.0000001000
44
0.0000000001
12
-0.0620404848
22
0.0000000000
32
0.0000000000
13
-0.0106155459
23
0.0611255425
33
0.0000000000
40
0.0000000000
40
0.0000000000
40
0.0000000000
40
0.0000000000
40
0.0327908524
40
0.0888707075
40
0.1728081791
40
0.2851375869
40
0.4252898123
40
0.5921678423
40
0.7843176358
40
1.0000000000
40
1.0000000000
40
1.0000000000
40
1.0000000000
10
6.7649204226
20
20.0000000000
30
0.0000000000
10
6.7642423025
20
20.0000000000
30
0.0000000000
10
6.7625955914
20
20.0012500412
30
0.0000000000
10
6.7608720980
20
20.0043183401
30
0.0000000000
10
6.7588255820
20
20.0091618781
30
0.0000000000
10
6.7567243040
20
20.0157872524
30
0.0000000000
10
6.7544861173
20
20.0241721392
30
0.0000000000
10
6.7521827825
20
20.0342353191
30
0.0000000000
10
6.7498240431
20
20.0458853672
30
0.0000000000
10
6.7483168258
20
20.0541840766
30
0.0000000000
10
6.7475536304
20
20.0585786438
30
0.0000000000
11
6.7649204226
21
20.0000000000
31
0.0000000000
11
6.7631306366
21
20.0009671029
31
0.0000000000
11
6.7611917911
21
20.0038560231
31
0.0000000000
11
6.7591227491
21
20.0086348666
31
0.0000000000
11
6.7569435064
21
20.0152543421
31
0.0000000000
11
6.7546750065
21
20.0236483210
31
0.0000000000
11
6.7523389519
21
20.0337345231
31
0.0000000000
11
6.7499576120
21
20.0454153211
31
0.0000000000
11
6.7475536304
21
20.0585786438
31
0.0000000000
0
SPLINE
5
2BC
100
AcDbEntity
8
0
100
AcDbSpline
62
7
6
CONTINUOUS
70
0
71
3
72
15
73
11
74
9
42
0.0000001000
43
0.0000001000
44
0.0000000001
12
0.0620404848
22
0.0000000000
32
0.0000000000
13
0.0106155459
23
-0.0611255425
33
0.0000000000
40
0.0000000000
40
0.0000000000
40
0.0000000000
40
0.0000000000
40
0.0327908524
40
0.0888707075
40
0.1728081791
40
0.2851375869
40
0.4252898123
40
0.5921678423
40
0.7843176358
40
1.0000000000
40
1.0000000000
40
1.0000000000
40
1.0000000000
10
-6.7649204226
20
-20.0000000000
30
0.0000000000
10
-6.7642423025
20
-20.0000000000
30
0.0000000000
10
-6.7625955914
20
-20.0012500412
30
0.0000000000
10
-6.7608720980
20
-20.0043183401
30
0.0000000000
10
-6.7588255820
20
-20.0091618781
30
0.0000000000
10
-6.7567243040
20
-20.0157872524
30
0.0000000000
10
-6.7544861173
20
-20.0241721392
30
0.0000000000
10
-6.7521827825
20
-20.0342353191
30
0.0000000000
10
-6.7498240431
20
-20.0458853672
30
0.0000000000
10
-6.7483168258
20
-20.0541840766
30
0.0000000000
10
-6.7475536304
20
-20.0585786438
30
0.0000000000
11
-6.7649204226
21
-20.0000000000
31
0.0000000000
11
-6.7631306366
21
-20.0009671029
31
0.0000000000
11
-6.7611917911
21
-20.0038560231
31
0.0000000000
11
-6.7591227491
21
-20.0086348666
31
0.0000000000
11
-6.7569435064
21
-20.0152543421
31
0.0000000000
11
-6.7546750065
21
-20.0236483210
31
0.0000000000
11
-6.7523389519
21
-20.0337345231
31
0.0000000000
11
-6.7499576120
21
-20.0454153211
31
0.0000000000
11
-6.7475536304
21
-20.0585786438
31
0.0000000000
0
SPLINE
5
2BD
100
AcDbEntity
8
0
100
AcDbSpline
62
7
6
CONTINUOUS
70
0
71
3
72
21
73
17
74
15
42
0.0000001000
43
0.0000001000
44
0.0000000001
12
0.5213750946
22
-0.2582302136
32
0.0000000000
13
0.2474581910
23
-0.5265731418
33
0.0000000000
40
0.0000000000
40
0.0000000000
40
0.0000000000
40
0.0000000000
40
0.0718611177
40
0.1486220458
40
0.2308036682
40
0.3188309380
40
0.3651520490
40
0.4130585295
40
0.4376173448
40
0.4625080741
40
0.5125365403
40
0.5628805168
40
0.6135818847
40
0.7162099656
40
0.8560570353
40
1.0000000000
40
1.0000000000
40
1.0000000000
40
1.0000000000
10
2.9748970036
20
2.4728125223
30
0.0000000000
10
2.9873858693
20
2.4666269517
30
0.0000000000
10
3.0125673428
20
2.4524977165
30
0.0000000000
10
3.0495714141
20
2.4272292058
30
0.0000000000
10
3.0869755458
20
2.3972453149
30
0.0000000000
10
3.1179378253
20
2.3688336488
30
0.0000000000
10
3.1429338375
20
2.3438375239
30
0.0000000000
10
3.1587750983
20
2.3271066287
30
0.0000000000
10
3.1714948000
20
2.3131523045
30
0.0000000000
10
3.1843134756
20
2.2987330913
30
0.0000000000
10
3.2000451158
20
2.2802161274
30
0.0000000000
10
3.2183646106
20
2.2573451681
30
0.0000000000
10
3.2421673380
20
2.2258160698
30
0.0000000000
10
3.2744837698
20
2.1789964667
30
0.0000000000
10
3.3130606750
20
2.1146730901
30
0.0000000000
10
3.3380678120
20
2.0655904995
30
0.0000000000
10
3.3499411005
20
2.0403249998
30
0.0000000000
11
2.9748970036
21
2.4728125223
31
0.0000000000
11
3.0114207595
21
2.4524627628
31
0.0000000000
11
3.0483733274
21
2.4273805306
31
0.0000000000
11
3.0857545512
21
2.3975659031
31
0.0000000000
11
3.1235644309
21
2.3630188802
31
0.0000000000
11
3.1426301166
21
2.3439707204
31
0.0000000000
11
3.1618029664
21
2.3237394619
31
0.0000000000
11
3.1714295777
21
2.3131801705
31
0.0000000000
11
3.1810471951
21
2.3023529938
31
0.0000000000
11
3.1998975992
21
2.2801738766
31
0.0000000000
11
3.2182110391
21
2.2573136674
31
0.0000000000
11
3.2359875146
21
2.2337723663
31
0.0000000000
11
3.2699295729
21
2.1846464881
31
0.0000000000
11
3.3118445396
21
2.1149074117
31
0.0000000000
11
3.3499411005
21
2.0403249998
31
0.0000000000
0
SPLINE
5
2BE
100
AcDbEntity
8
0
100
AcDbSpline
62
7
6
CONTINUOUS
70
0
71
3
72
23
73
19
74
17
42
0.0000001000
43
0.0000001000
44
0.0000000001
12
-0.1490952568
22
0.4043573925
32
0.0000000000
13
-0.2972889286
23
0.3120153671
33
0.0000000000
40
0.0000000000
40
0.0000000000
40
0.0000000000
40
0.0000000000
40
0.0820462325
40
0.1693811827
40
0.2621279520
40
0.3603892740
40
0.4116166182
40
0.4377585545
40
0.4642540724
40
0.4911042443
40
0.5181502833
40
0.5712373272
40
0.6228904166
40
0.6731251243
40
0.7219583803
40
0.7694086142
40
0.8893237831
40
1.0000000000
40
1.0000000000
40
1.0000000000
40
1.0000000000
10
3.5272590487
20
2.0403249998
30
0.0000000000
10
3.5231814807
20
2.0513836667
30
0.0000000000
10
3.5142313181
20
2.0740199337
30
0.0000000000
10
3.4990031806
20
2.1084686177
30
0.0000000000
10
3.4815588909
20
2.1444567522
30
0.0000000000
10
3.4654077094
20
2.1752862117
30
0.0000000000
10
3.4532400613
20
2.1973894855
30
0.0000000000
10
3.4459158172
20
2.2103890991
30
0.0000000000
10
3.4402465324
20
2.2203013282
30
0.0000000000
10
3.4344501100
20
2.2302901980
30
0.0000000000
10
3.4266547576
20
2.2435354362
30
0.0000000000
10
3.4168538867
20
2.2597340833
30
0.0000000000
10
3.4050105497
20
2.2785869452
30
0.0000000000
10
3.3931666584
20
2.2967138272
30
0.0000000000
10
3.3813227990
20
2.3141154037
30
0.0000000000
10
3.3633369757
20
2.3394375299
30
0.0000000000
10
3.3389822855
20
2.3711262640
30
0.0000000000
10
3.3170926611
20
2.3960341057
30
0.0000000000
10
3.3061250565
20
2.4075449992
30
0.0000000000
11
3.5272590487
21
2.0403249998
31
0.0000000000
11
3.5143019730
21
2.0732248517
31
0.0000000000
11
3.4991236906
21
2.1076673881
31
0.0000000000
11
3.4817241962
21
2.1436526237
31
0.0000000000
11
3.4621034897
21
2.1811805585
31
0.0000000000
11
3.4514601819
21
2.2005230381
31
0.0000000000
11
3.4459302894
21
2.2103389060
31
0.0000000000
11
3.4402615711
21
2.2202511925
31
0.0000000000
11
3.4344540271
21
2.2302598978
31
0.0000000000
11
3.4285385076
21
2.2403032577
31
0.0000000000
11
3.4166920437
21
2.2598763016
31
0.0000000000
11
3.4048455805
21
2.2787232681
31
0.0000000000
11
3.3929991178
21
2.2968441572
31
0.0000000000
11
3.3811526556
21
2.3142389689
31
0.0000000000
11
3.3693061940
21
2.3309077033
31
0.0000000000
11
3.3377156325
21
2.3718079499
31
0.0000000000
11
3.3061250565
21
2.4075449992
31
0.0000000000
0
SPLINE
5
2BF
100
AcDbEntity
8
0
100
AcDbSpline
62
7
6
CONTINUOUS
70
0
71
3
72
68
73
64
74
62
42
0.0000001000
43
0.0000001000
44
0.0000000001
12
-0.8408448196
22
0.1265315249
32
0.0000000000
13
0.8389436660
23
-0.1390530588
33
0.0000000000
40
0.0000000000
40
0.0000000000
40
0.0000000000
40
0.0000000000
40
0.1284692370
40
0.1849337447
40
0.2117350898
40
0.2378131886
40
0.2633714646
40
0.2760062063
40
0.2885134240
40
0.3376265015
40
0.3864912167
40
0.4113266184
40
0.4366576993
40
0.4626544855
40
0.4759545301
40
0.4894788268
40
0.4963308288
40
0.5032522874
40
0.5169131351
40
0.5303172775
40
0.5434820856
40
0.5691630505
40
0.5941184852
40
0.6185204782
40
0.6425530100
40
0.6664086108
40
0.6902840915
40
0.7143757756
40
0.7265625876
40
0.7386852252
40
0.7624914816
40
0.7858741005
40
0.8090269536
40
0.8321496929
40
0.8554427447
40
0.8672176909
40
0.8791080659
40
0.8911369415
40
0.9033266029
40
0.9094887807
40
0.9156991071
40
0.9219601131
40
0.9282742688
40
0.9314520696
40
0.9346440556
40
0.9378505180
40
0.9394592722
40
0.9410717530
40
0.9418794024
40
0.9422835812
40
0.9426879968
40
0.9428902935
40
0.9431380778
40
0.9436484736
40
0.9446679075
40
0.9467013666
40
0.9487276603
40
0.9527589534
40
0.9567622356
40
0.9646864412
40
0.9725040578
40
0.9878339553
40
1.0000000000
40
1.0000000000
40
1.0000000000
40
1.0000000000
10
3.3963649265
20
0.9449245938
30
0.0000000000
10
3.3603573624
20
0.9503430633
30
0.0000000000
10
3.3087290389
20
0.9626532078
30
0.0000000000
10
3.2544794837
20
0.9888505309
30
0.0000000000
10
3.2284253753
20
1.0056997186
30
0.0000000000
10
3.2108428672
20
1.0193524486
30
0.0000000000
10
3.1975071993
20
1.0318038912
30
0.0000000000
10
3.1877096339
20
1.0423223681
30
0.0000000000
10
3.1739974251
20
1.0582920578
30
0.0000000000
10
3.1561201899
20
1.0842199635
30
0.0000000000
10
3.1417069543
20
1.1161165868
30
0.0000000000
10
3.1335573432
20
1.1430059275
30
0.0000000000
10
3.1290415551
20
1.1641414666
30
0.0000000000
10
3.1266589218
20
1.1823236756
30
0.0000000000
10
3.1255510975
20
1.1972567424
30
0.0000000000
10
3.1251930504
20
1.2067975214
30
0.0000000000
10
3.1251075054
20
1.2145345588
30
0.0000000000
10
3.1251543964
20
1.2223106447
30
0.0000000000
10
3.1254551625
20
1.2319409967
30
0.0000000000
10
3.1262143340
20
1.2433209185
30
0.0000000000
10
3.1277410997
20
1.2580542429
30
0.0000000000
10
3.1306213205
20
1.2759272874
30
0.0000000000
10
3.1356986328
20
1.2966058758
30
0.0000000000
10
3.1423705615
20
1.3163362106
30
0.0000000000
10
3.1506381991
20
1.3351139253
30
0.0000000000
10
3.1605015088
20
1.3529354360
30
0.0000000000
10
3.1719585883
20
1.3697958796
30
0.0000000000
10
3.1827906244
20
1.3829945297
30
0.0000000000
10
3.1921761864
20
1.3930051060
30
0.0000000000
10
3.2019147415
20
1.4025571191
30
0.0000000000
10
3.2146629156
20
1.4135518382
30
0.0000000000
10
3.2308922477
20
1.4251793264
30
0.0000000000
10
3.2479608870
20
1.4351602731
30
0.0000000000
10
3.2658640742
20
1.4434908777
30
0.0000000000
10
3.2814236277
20
1.4490377081
30
0.0000000000
10
3.2942381557
20
1.4526477618
30
0.0000000000
10
3.3040920050
20
1.4549558024
30
0.0000000000
10
3.3141521802
20
1.4568538377
30
0.0000000000
10
3.3226768579
20
1.4580895588
30
0.0000000000
10
3.3295946187
20
1.4588751035
30
0.0000000000
10
3.3348537426
20
1.4593641448
30
0.0000000000
10
3.3401645236
20
1.4597508879
30
0.0000000000
10
3.3446235411
20
1.4599874176
30
0.0000000000
10
3.3482160231
20
1.4601258186
30
0.0000000000
10
3.3509291973
20
1.4602042808
30
0.0000000000
10
3.3531983463
20
1.4602483108
30
0.0000000000
10
3.3550200618
20
1.4602707957
30
0.0000000000
10
3.3561619691
20
1.4602795339
30
0.0000000000
10
3.3569624773
20
1.4602828587
30
0.0000000000
10
3.3574205798
20
1.4602839611
30
0.0000000000
10
3.3577071038
20
1.4602843182
30
0.0000000000
10
3.3579493000
20
1.4602844072
30
0.0000000000
10
3.3582215350
20
1.4602843401
30
0.0000000000
10
3.3587253768
20
1.4602837504
30
0.0000000000
10
3.3597353418
20
1.4602806432
30
0.0000000000
10
3.3611749456
20
1.4602707277
30
0.0000000000
10
3.3634680915
20
1.4602431790
30
0.0000000000
10
3.3663192210
20
1.4601868892
30
0.0000000000
10
3.3708405315
20
1.4600502695
30
0.0000000000
10
3.3764315896
20
1.4597924915
30
0.0000000000
10
3.3852187283
20
1.4591950300
30
0.0000000000
10
3.3951804084
20
1.4581826718
30
0.0000000000
10
3.4028952154
20
1.4570629433
30
0.0000000000
10
3.4062974241
20
1.4564990347
30
0.0000000000
11
3.3963649265
21
0.9449245938
31
0.0000000000
11
3.2906761873
21
0.9725475915
31
0.0000000000
11
3.2475661886
21
0.9936833945
31
0.0000000000
11
3.2284448182
21
1.0060823666
31
0.0000000000
11
3.2109458671
21
1.0197020524
31
0.0000000000
11
3.1950693353
21
1.0345424519
31
0.0000000000
11
3.1877394766
21
1.0423970888
31
0.0000000000
11
3.1808152228
21
1.0504691812
31
0.0000000000
11
3.1571742557
21
1.0848947776
31
0.0000000000
11
3.1400229659
21
1.1227399365
31
0.0000000000
11
3.1338809500
21
1.1429448519
31
0.0000000000
11
3.1293613533
21
1.1640046580
31
0.0000000000
11
3.1264641760
21
1.1859193547
31
0.0000000000
11
3.1256239945
21
1.1971972871
31
0.0000000000
11
3.1251894179
21
1.2086889421
31
0.0000000000
11
3.1251242315
21
1.2145149156
31
0.0000000000
11
3.1251594970
21
1.2204002079
31
0.0000000000
11
3.1255265331
21
1.2320103878
31
0.0000000000
11
3.1262888389
21
1.2433825674
31
0.0000000000
11
3.1274464142
21
1.2545167466
31
0.0000000000
11
3.1309473739
21
1.2760711041
31
0.0000000000
11
3.1360294122
21
1.2966734601
31
0.0000000000
11
3.1426925290
21
1.3163238148
31
0.0000000000
11
3.1509367244
21
1.3350221681
31
0.0000000000
11
3.1607619983
21
1.3527685200
31
0.0000000000
11
3.1721683508
21
1.3695628705
31
0.0000000000
11
3.1851557819
21
1.3854052197
31
0.0000000000
11
3.1922404797
21
1.3929676487
31
0.0000000000
11
3.1996012730
21
1.4001838829
31
0.0000000000
11
3.2149435524
21
1.4133892994
31
0.0000000000
11
3.2311134220
21
1.4249586465
31
0.0000000000
11
3.2481108819
21
1.4348919244
31
0.0000000000
11
3.2659359321
21
1.4431891330
31
0.0000000000
11
3.2845885726
21
1.4498502723
31
0.0000000000
11
3.2942252392
21
1.4525673159
31
0.0000000000
11
3.3040688034
21
1.4548753423
31
0.0000000000
11
3.3141192651
21
1.4567743513
31
0.0000000000
11
3.3243766245
21
1.4582643430
31
0.0000000000
11
3.3295828907
21
1.4588559573
31
0.0000000000
11
3.3348408814
21
1.4593453173
31
0.0000000000
11
3.3401505964
21
1.4597324230
31
0.0000000000
11
3.3455120358
21
1.4600172743
31
0.0000000000
11
3.3482121522
21
1.4601213546
31
0.0000000000
11
3.3509251996
21
1.4601998714
31
0.0000000000
11
3.3536511782
21
1.4602528245
31
0.0000000000
11
3.3550190166
21
1.4602697147
31
0.0000000000
11
3.3563900879
21
1.4602802140
31
0.0000000000
11
3.3570768358
21
1.4602830671
31
0.0000000000
11
3.3574205128
21
1.4602838945
31
0.0000000000
11
3.3577643919
21
1.4602843225
31
0.0000000000
11
3.3579364072
21
1.4602843867
31
0.0000000000
11
3.3581471010
21
1.4602843373
31
0.0000000000
11
3.3585810963
21
1.4602838273
31
0.0000000000
11
3.3594479289
21
1.4602811597
31
0.0000000000
11
3.3611769620
21
1.4602692341
31
0.0000000000
11
3.3628998190
21
1.4602485212
31
0.0000000000
11
3.3663270047
21
1.4601807335
31
0.0000000000
11
3.3697294861
21
1.4600777967
31
0.0000000000
11
3.3764603358
21
1.4597664755
31
0.0000000000
11
3.3830923681
21
1.4593145577
31
0.0000000000
11
3.3960599805
21
1.4579889321
31
0.0000000000
11
3.4062974241
21
1.4564990347
31
0.0000000000
0
SPLINE
5
2C0
100
AcDbEntity
8
0
100
AcDbSpline
62
7
6
CONTINUOUS
70
0
71
3
72
98
73
94
74
92
42
0.0000001000
43
0.0000001000
44
0.0000000001
12
-0.2540525906
22
0.9670228733
32
0.0000000000
13
0.2490843654
23
-0.9686613215
33
0.0000000000
40
0.0000000000
40
0.0000000000
40
0.0000000000
40
0.0000000000
40
0.0171882680
40
0.0336675013
40
0.0494450468
40
0.0645287632
40
0.0789276451
40
0.0858736251
40
0.0926524065
40
0.0992655357
40
0.1057146779
40
0.1120016289
40
0.1150849146
40
0.1181283924
40
0.1211323293
40
0.1240970028
40
0.1255647102
40
0.1270227110
40
0.1277480838
40
0.1284710443
40
0.1291915972
40
0.1299097476
40
0.1302679234
40
0.1306255005
40
0.1309824794
40
0.1311607447
40
0.1313388608
40
0.1315168276
40
0.1319158438
40
0.1323514727
40
0.1327868401
40
0.1336567929
40
0.1345257065
40
0.1362604322
40
0.1379910525
40
0.1414401069
40
0.1448731572
40
0.1482904866
40
0.1516923820
40
0.1550791343
40
0.1618083174
40
0.1684805144
40
0.1816632408
40
0.1946483944
40
0.2074573942
40
0.2201125534
40
0.2326370079
40
0.2573836982
40
0.2819010726
40
0.3063924131
40
0.3310616457
40
0.3561083514
40
0.3688068681
40
0.3814035692
40
0.3938697511
40
0.4062295292
40
0.4307229786
40
0.4550931874
40
0.4795463841
40
0.5042867224
40
0.5295113848
40
0.5423667722
40
0.5554118755
40
0.5686677445
40
0.5821544423
40
0.5889906312
40
0.5924329067
40
0.5941720341
40
0.5959816137
40
0.5995889287
40
0.6031807211
40
0.6103189113
40
0.6173988063
40
0.6244230141
40
0.6383144202
40
0.6655445545
40
0.6922029212
40
0.7184893059
40
0.7446120304
40
0.7707833249
40
0.7972142497
40
0.8105945739
40
0.8241158421
40
0.8378020080
40
0.8446892367
40
0.8515311874
40
0.8650779119
40
0.8784625023
40
0.9048377465
40
0.9308678148
40
0.9567657677
40
0.9827479160
40
1.0000000000
40
1.0000000000
40
1.0000000000
40
1.0000000000
10
3.7656717732
20
1.1046700333
30
0.0000000000
10
3.7642161986
20
1.1102105161
30
0.0000000000
10
3.7614606769
20
1.1210883887
30
0.0000000000
10
3.7577269298
20
1.1371399600
30
0.0000000000
10
3.7544800787
20
1.1525812279
30
0.0000000000
10
3.7517201034
20
1.1674123003
30
0.0000000000
10
3.7498034504
20
1.1794025823
30
0.0000000000
10
3.7485211000
20
1.1886877617
30
0.0000000000
10
3.7476927450
20
1.1954154195
30
0.0000000000
10
3.7469862118
20
1.2019904576
30
0.0000000000
10
3.7464015120
20
1.2084128822
30
0.0000000000
10
3.7460133167
20
1.2136711427
30
0.0000000000
10
3.7457648007
20
1.2178009552
30
0.0000000000
10
3.7456100868
20
1.2208401399
30
0.0000000000
10
3.7454858389
20
1.2238411561
30
0.0000000000
10
3.7454074304
20
1.2263183308
30
0.0000000000
10
3.7453600856
20
1.2282809089
30
0.0000000000
10
3.7453369024
20
1.2294975238
30
0.0000000000
10
3.7453221833
20
1.2304660339
30
0.0000000000
10
3.7453130666
20
1.2311888222
30
0.0000000000
10
3.7453058542
20
1.2319092247
30
0.0000000000
10
3.7453014271
20
1.2325080718
30
0.0000000000
10
3.7452988400
20
1.2329859552
30
0.0000000000
10
3.7452973774
20
1.2333434716
30
0.0000000000
10
3.7452965547
20
1.2336410295
30
0.0000000000
10
3.7452961355
20
1.2338787773
30
0.0000000000
10
3.7452959387
20
1.2340568645
30
0.0000000000
10
3.7452958368
20
1.2343085234
30
0.0000000000
10
3.7452960004
20
1.2346460060
30
0.0000000000
10
3.7452966269
20
1.2350692745
30
0.0000000000
10
3.7452981346
20
1.2356494950
30
0.0000000000
10
3.7453012131
20
1.2363741163
30
0.0000000000
10
3.7453086940
20
1.2375317692
30
0.0000000000
10
3.7453228292
20
1.2389762247
30
0.0000000000
10
3.7453556463
20
1.2412804237
30
0.0000000000
10
3.7454157744
20
1.2441502792
30
0.0000000000
10
3.7455186915
20
1.2475813707
30
0.0000000000
10
3.7456522867
20
1.2509956767
30
0.0000000000
10
3.7458165608
20
1.2543932003
30
0.0000000000
10
3.7460759284
20
1.2588909915
30
0.0000000000
10
3.7464763825
20
1.2644721639
30
0.0000000000
10
3.7472788910
20
1.2732961011
30
0.0000000000
10
3.7485859055
20
1.2841657948
30
0.0000000000
10
3.7506523163
20
1.2969941320
30
0.0000000000
10
3.7532104118
20
1.3095543255
30
0.0000000000
10
3.7562604545
20
1.3218464714
30
0.0000000000
10
3.7609631421
20
1.3378118931
30
0.0000000000
10
3.7680811255
20
1.3571672926
30
0.0000000000
10
3.7786369380
20
1.3794036934
30
0.0000000000
10
3.7911732604
20
1.4005581508
30
0.0000000000
10
3.8056855692
20
1.4206251585
30
0.0000000000
10
3.8193472784
20
1.4363493240
30
0.0000000000
10
3.8311374666
20
1.4482917774
30
0.0000000000
10
3.8403521869
20
1.4568693266
30
0.0000000000
10
3.8498468485
20
1.4649632916
30
0.0000000000
10
3.8628198995
20
1.4750640121
30
0.0000000000
10
3.8797548353
20
1.4865012534
30
0.0000000000
10
3.9012068069
20
1.4982717406
30
0.0000000000
10
3.9237283991
20
1.5080482873
30
0.0000000000
10
3.9473125925
20
1.5158291189
30
0.0000000000
10
3.9677222247
20
1.5206212135
30
0.0000000000
10
3.9845249300
20
1.5234715181
30
0.0000000000
10
3.9974731366
20
1.5251281465
30
0.0000000000
10
4.0106858077
20
1.5262896916
30
0.0000000000
10
4.0218660968
20
1.5268427550
30
0.0000000000
10
4.0297850117
20
1.5270159316
30
0.0000000000
10
4.0337901445
20
1.5270492432
30
0.0000000000
10
4.0361200985
20
1.5270528875
30
0.0000000000
10
4.0385050491
20
1.5270458597
30
0.0000000000
10
4.0415073618
20
1.5270163364
30
0.0000000000
10
4.0462848679
20
1.5269249938
30
0.0000000000
10
4.0522176578
20
1.5267283749
30
0.0000000000
10
4.0592880719
20
1.5263591933
30
0.0000000000
10
4.0685951185
20
1.5256924456
30
0.0000000000
10
4.0845630722
20
1.5240762290
30
0.0000000000
10
4.1068873699
20
1.5204456663
30
0.0000000000
10
4.1328329901
20
1.5139201001
30
0.0000000000
10
4.1577556397
20
1.5052528092
30
0.0000000000
10
4.1816495571
20
1.4944435940
30
0.0000000000
10
4.2045092543
20
1.4814950273
30
0.0000000000
10
4.2226237208
20
1.4689724172
30
0.0000000000
10
4.2365615329
20
1.4579347374
30
0.0000000000
10
4.2468023049
20
1.4490905076
30
0.0000000000
10
4.2550878088
20
1.4413093617
30
0.0000000000
10
4.2615566229
20
1.4348557968
30
0.0000000000
10
4.2678610601
20
1.4283059583
30
0.0000000000
10
4.2754153922
20
1.4199565514
30
0.0000000000
10
4.2867695550
20
1.4062868248
30
0.0000000000
10
4.2996774931
20
1.3885242207
30
0.0000000000
10
4.3130807093
20
1.3660912636
30
0.0000000000
10
4.3243216889
20
1.3426441118
30
0.0000000000
10
4.3323488121
20
1.3210131322
30
0.0000000000
10
4.3363422060
20
1.3071575045
30
0.0000000000
10
4.3377746142
20
1.3015870291
30
0.0000000000
11
3.7656717732
21
1.1046700333
31
0.0000000000
11
3.7614582107
21
1.1213309671
31
0.0000000000
11
3.7577322690
21
1.1373807176
31
0.0000000000
11
3.7544938338
21
1.1528197207
31
0.0000000000
11
3.7517429049
21
1.1676479763
31
0.0000000000
11
3.7494794824
21
1.1818654844
31
0.0000000000
11
3.7485305860
21
1.1887452082
31
0.0000000000
11
3.7477035663
21
1.1954722451
31
0.0000000000
11
3.7469984231
21
1.2020465952
31
0.0000000000
11
3.7464151565
21
1.2084682584
31
0.0000000000
11
3.7459537666
21
1.2147372347
31
0.0000000000
11
3.7457687753
21
1.2178144653
31
0.0000000000
11
3.7456142532
21
1.2208535242
31
0.0000000000
11
3.7454902002
21
1.2238544114
31
0.0000000000
11
3.7453966164
21
1.2268171268
31
0.0000000000
11
3.7453612504
21
1.2282841702
31
0.0000000000
11
3.7453335017
21
1.2297416706
31
0.0000000000
11
3.7453224839
21
1.2304668422
31
0.0000000000
11
3.7453133703
21
1.2311896280
31
0.0000000000
11
3.7453061611
21
1.2319100282
31
0.0000000000
11
3.7453008562
21
1.2326280426
31
0.0000000000
11
3.7452989179
21
1.2329861551
31
0.0000000000
11
3.7452974557
21
1.2333436713
31
0.0000000000
11
3.7452964695
21
1.2337005910
31
0.0000000000
11
3.7452961549
21
1.2338788271
31
0.0000000000
11
3.7452959594
21
1.2340569142
31
0.0000000000
11
3.7452958829
21
1.2342348522
31
0.0000000000
11
3.7452960578
21
1.2346338037
31
0.0000000000
11
3.7452967083
21
1.2350693615
31
0.0000000000
11
3.7452978381
21
1.2355046569
31
0.0000000000
11
3.7453015357
21
1.2363744609
31
0.0000000000
11
3.7453071505
21
1.2372432155
31
0.0000000000
11
3.7453241321
21
1.2389775770
31
0.0000000000
11
3.7453487827
21
1.2407077413
31
0.0000000000
11
3.7454210911
21
1.2441554786
31
0.0000000000
11
3.7455240758
21
1.2475864275
31
0.0000000000
11
3.7456577369
21
1.2510005878
31
0.0000000000
11
3.7458220742
21
1.2543979597
31
0.0000000000
11
3.7460170879
21
1.2577785430
31
0.0000000000
11
3.7464991441
21
1.2644893443
31
0.0000000000
11
3.7471039056
21
1.2711329916
31
0.0000000000
11
3.7486815442
21
1.2842188245
31
0.0000000000
11
3.7507500038
21
1.2970360415
31
0.0000000000
11
3.7533092842
21
1.3095846427
31
0.0000000000
11
3.7563593855
21
1.3218646281
31
0.0000000000
11
3.7599003077
21
1.3338759977
31
0.0000000000
11
3.7684546149
21
1.3570928896
31
0.0000000000
11
3.7789722057
21
1.3792353182
31
0.0000000000
11
3.7914530801
21
1.4003032837
31
0.0000000000
11
3.8058972381
21
1.4202967860
31
0.0000000000
11
3.8223046798
21
1.4392158251
31
0.0000000000
11
3.8312239298
21
1.4482517010
31
0.0000000000
11
3.8404453816
21
1.4568301791
31
0.0000000000
11
3.8499322315
21
1.4649144239
31
0.0000000000
11
3.8596844793
21
1.4725044354
31
0.0000000000
11
3.8799851691
21
1.4862017584
31
0.0000000000
11
3.9013474510
21
1.4979221482
31
0.0000000000
11
3.9237713249
21
1.5076656048
31
0.0000000000
11
3.9472567909
21
1.5154321282
31
0.0000000000
11
3.9718038490
21
1.5212217184
31
0.0000000000
11
3.9844754750
21
1.5233751635
31
0.0000000000
11
3.9974124991
21
1.5250343753
31
0.0000000000
11
4.0106149212
21
1.5261993538
31
0.0000000000
11
4.0240827413
21
1.5268700990
31
0.0000000000
11
4.0309161757
21
1.5270201341
31
0.0000000000
11
4.0343577739
21
1.5270488173
31
0.0000000000
11
4.0360966173
21
1.5270515695
31
0.0000000000
11
4.0379058958
21
1.5270462378
31
0.0000000000
11
4.0415124511
21
1.5270106934
31
0.0000000000
11
4.0451030040
21
1.5269419743
31
0.0000000000
11
4.0522361027
21
1.5267050117
31
0.0000000000
11
4.0593051919
21
1.5263353500
31
0.0000000000
11
4.0663102715
21
1.5258329893
31
0.0000000000
11
4.0801284021
21
1.5244301707
31
0.0000000000
11
4.1069965489
21
1.5200321448
31
0.0000000000
11
4.1328405431
21
1.5135109340
31
0.0000000000
11
4.1576603848
21
1.5048665383
31
0.0000000000
11
4.1814560738
21
1.4940989577
31
0.0000000000
11
4.2042276103
21
1.4812081922
31
0.0000000000
11
4.2259749942
21
1.4661942417
31
0.0000000000
11
4.2364646290
21
1.4578910722
31
0.0000000000
11
4.2466982255
21
1.4490571064
31
0.0000000000
11
4.2566757840
21
1.4396923444
31
0.0000000000
11
4.2615506530
21
1.4348287858
31
0.0000000000
11
4.2662942237
21
1.4298997234
31
0.0000000000
11
4.2753788804
21
1.4198536648
31
0.0000000000
11
4.2839268907
21
1.4095570281
31
0.0000000000
11
4.2994129721
21
1.3882120200
31
0.0000000000
11
4.3127524680
21
1.3658646992
31
0.0000000000
11
4.3239453784
21
1.3425150657
31
0.0000000000
11
4.3329917032
21
1.3181631194
31
0.0000000000
11
4.3377746142
21
1.3015870291
31
0.0000000000
0
SPLINE
5
2C1
100
AcDbEntity
8
0
100
AcDbSpline
62
7
6
CONTINUOUS
70
0
71
3
72
99
73
95
74
93
42
0.0000001000
43
0.0000001000
44
0.0000000001
12
1.5190932420
22
0.1493098807
32
0.0000000000
13
-1.5172453773
23
-0.1674472081
33
0.0000000000
40
0.0000000000
40
0.0000000000
40
0.0000000000
40
0.0000000000
40
0.0448418197
40
0.0877045051
40
0.1293810516
40
0.1707325693
40
0.1915760568
40
0.2020855500
40
0.2126700563
40
0.2233424685
40
0.2340735081
40
0.2553423112
40
0.2764226980
40
0.2974283801
40
0.3184742802
40
0.3396746670
40
0.3611413421
40
0.3829820182
40
0.3940763413
40
0.4053019923
40
0.4166707511
40
0.4281939590
40
0.4398825075
40
0.4457922213
40
0.4487639734
40
0.4517471831
40
0.4547420037
40
0.4577485867
40
0.4585020893
40
0.4592563388
40
0.4596337443
40
0.4600386553
40
0.4608752932
40
0.4625460376
40
0.4642134267
40
0.4675382241
40
0.4708498742
40
0.4774344284
40
0.4839686445
40
0.4904540663
40
0.5032844709
40
0.5284280410
40
0.5529796708
40
0.5770584925
40
0.6007907597
40
0.6243083081
40
0.6477465968
40
0.6712424560
40
0.6830566158
40
0.6949358654
40
0.7068966453
40
0.7129129043
40
0.7189555536
40
0.7249899991
40
0.7309814852
40
0.7428422514
40
0.7545529156
40
0.7661286719
40
0.7889347643
40
0.8113959286
40
0.8336498149
40
0.8558379309
40
0.8781030387
40
0.9005864338
40
0.9119551771
40
0.9234294574
40
0.9292114869
40
0.9350259150
40
0.9408746816
40
0.9467596925
40
0.9526828187
40
0.9556592782
40
0.9571513275
40
0.9586459584
40
0.9601431987
40
0.9608928064
40
0.9616430769
40
0.9620184618
40
0.9623940137
40
0.9625818524
40
0.9627370951
40
0.9630148657
40
0.9635699994
40
0.9641245907
40
0.9652321506
40
0.9663375556
40
0.9685419382
40
0.9707378208
40
0.9729252846
40
0.9772752629
40
0.9815925599
40
0.9858778573
40
0.9943550774
40
1.0000000000
40
1.0000000000
40
1.0000000000
40
1.0000000000
10
4.0786429665
20
0.7425362490
30
0.0000000000
10
4.1013492682
20
0.7447680246
30
0.0000000000
10
4.1455700149
20
0.7516885594
30
0.0000000000
10
4.2089064794
20
0.7703527934
30
0.0000000000
10
4.2673768601
20
0.7970489115
30
0.0000000000
10
4.3118803066
20
0.8259347132
30
0.0000000000
10
4.3405503849
20
0.8493554748
30
0.0000000000
10
4.3563363885
20
0.8637183329
30
0.0000000000
10
4.3679038059
20
0.8750117345
30
0.0000000000
10
4.3791507678
20
0.8867807121
30
0.0000000000
10
4.3936132106
20
0.9029792601
30
0.0000000000
10
4.4105137028
20
0.9240781220
30
0.0000000000
10
4.4287924871
20
0.9506644427
30
0.0000000000
10
4.4449982361
20
0.9784329822
30
0.0000000000
10
4.4591290795
20
1.0073801392
30
0.0000000000
10
4.4711843901
20
1.0375036817
30
0.0000000000
10
4.4811640916
20
1.0687998825
30
0.0000000000
10
4.4877175752
20
1.0957168220
30
0.0000000000
10
4.4919339209
20
1.1177901144
30
0.0000000000
10
4.4945967875
20
1.1347262036
30
0.0000000000
10
4.4967432835
20
1.1519550539
30
0.0000000000
10
4.4983735594
20
1.1694768255
30
0.0000000000
10
4.4992985276
20
1.1842674399
30
0.0000000000
10
4.4997218322
20
1.1947253113
30
0.0000000000
10
4.4999004977
20
1.2007595170
30
0.0000000000
10
4.5000025150
20
1.2053121030
30
0.0000000000
10
4.5000722960
20
1.2098830187
30
0.0000000000
10
4.5001004130
20
1.2133198625
30
0.0000000000
10
4.5001091283
20
1.2156167603
30
0.0000000000
10
4.5001110860
20
1.2165759355
30
0.0000000000
10
4.5001116548
20
1.2173577470
30
0.0000000000
10
4.5001115117
20
1.2181814784
30
0.0000000000
10
4.5001092571
20
1.2196632651
30
0.0000000000
10
4.5001001801
20
1.2217873935
30
0.0000000000
10
4.5000732176
20
1.2251774210
30
0.0000000000
10
4.5000162142
20
1.2294021101
30
0.0000000000
10
4.4998753412
20
1.2361275886
30
0.0000000000
10
4.4996063028
20
1.2444834768
30
0.0000000000
10
4.4991332452
20
1.2544473409
30
0.0000000000
10
4.4983060503
20
1.2675744404
30
0.0000000000
10
4.4963532523
20
1.2901143459
30
0.0000000000
10
4.4920796007
20
1.3216646821
30
0.0000000000
10
4.4845118872
20
1.3584610004
30
0.0000000000
10
4.4745375228
20
1.3939363997
30
0.0000000000
10
4.4621552956
20
1.4280869530
30
0.0000000000
10
4.4473645236
20
1.4609096909
30
0.0000000000
10
4.4301666880
20
1.4924000252
30
0.0000000000
10
4.4138570718
20
1.5174873486
30
0.0000000000
10
4.3996485148
20
1.5368477111
30
0.0000000000
10
4.3883727751
20
1.5510642768
30
0.0000000000
10
4.3784966564
20
1.5626115717
30
0.0000000000
10
4.3703028528
20
1.5716799767
30
0.0000000000
10
4.3640073773
20
1.5783975939
30
0.0000000000
10
4.3576053583
20
1.5849961317
30
0.0000000000
10
4.3489953890
20
1.5935746832
30
0.0000000000
10
4.3380657078
20
1.6039137139
30
0.0000000000
10
4.3246423723
20
1.6157357683
30
0.0000000000
10
4.3064861978
20
1.6305867339
30
0.0000000000
10
4.2830906009
20
1.6476417358
30
0.0000000000
10
4.2538170029
20
1.6656890645
30
0.0000000000
10
4.2234827119
20
1.6812157508
30
0.0000000000
10
4.1920913948
20
1.6942183687
30
0.0000000000
10
4.1596479924
20
1.7046954184
30
0.0000000000
10
4.1318365097
20
1.7112976180
30
0.0000000000
10
4.1091237964
20
1.7153228707
30
0.0000000000
10
4.0946928462
20
1.7173199226
30
0.0000000000
10
4.0830244300
20
1.7186053192
30
0.0000000000
10
4.0741847074
20
1.7194150687
30
0.0000000000
10
4.0652795255
20
1.7200679706
30
0.0000000000
10
4.0563088515
20
1.7205640392
30
0.0000000000
10
4.0487912589
20
1.7208462632
30
0.0000000000
10
4.0435054682
20
1.7209754307
30
0.0000000000
10
4.0404718745
20
1.7210298137
30
0.0000000000
10
4.0381906397
20
1.7210608363
30
0.0000000000
10
4.0362870342
20
1.7210785146
30
0.0000000000
10
4.0347621141
20
1.7210877640
30
0.0000000000
10
4.0338079783
20
1.7210915050
30
0.0000000000
10
4.0330441593
20
1.7210932737
30
0.0000000000
10
4.0325665064
20
1.7210938690
30
0.0000000000
10
4.0322008627
20
1.7210940317
30
0.0000000000
10
4.0318849704
20
1.7210940182
30
0.0000000000
10
4.0313821969
20
1.7210937084
30
0.0000000000
10
4.0306762336
20
1.7210924874
30
0.0000000000
10
4.0295480747
20
1.7210888606
30
0.0000000000
10
4.0281399483
20
1.7210811904
30
0.0000000000
10
4.0258924595
20
1.7210622299
30
0.0000000000
10
4.0230913660
20
1.7210260017
30
0.0000000000
10
4.0197400828
20
1.7209623829
30
0.0000000000
10
4.0152979025
20
1.7208509667
30
0.0000000000
10
4.0097780552
20
1.7206617201
30
0.0000000000
10
4.0031947474
20
1.7203537721
30
0.0000000000
10
3.9945196024
20
1.7198378370
30
0.0000000000
10
3.9851815818
20
1.7191023071
30
0.0000000000
10
3.9780321457
20
1.7183792438
30
0.0000000000
10
3.9751772347
20
1.7180641683
30
0.0000000000
11
4.0786429665
21
0.7425362490
31
0.0000000000
11
4.1462316241
21
0.7533430085
31
0.0000000000
11
4.2089420747
21
0.7719973346
31
0.0000000000
11
4.2667745717
21
0.7984992522
31
0.0000000000
11
4.3197291153
21
0.8328487614
31
0.0000000000
11
4.3443771545
21
0.8529663628
31
0.0000000000
11
4.3562438660
21
0.8637608752
31
0.0000000000
11
4.3678057053
21
0.8750458621
31
0.0000000000
11
4.3790626726
21
0.8868213234
31
0.0000000000
11
4.3899679035
21
0.8990434514
31
0.0000000000
11
4.4102545137
21
0.9243896292
31
0.0000000000
11
4.4284780787
21
0.9509091640
31
0.0000000000
11
4.4446385986
21
0.9786020559
31
0.0000000000
11
4.4587360735
21
1.0074683050
31
0.0000000000
11
4.4707705032
21
1.0375079111
31
0.0000000000
11
4.4807418879
21
1.0687208743
31
0.0000000000
11
4.4886502274
21
1.1011071947
31
0.0000000000
11
4.4918307553
21
1.1177403637
31
0.0000000000
11
4.4944955219
21
1.1346668721
31
0.0000000000
11
4.4966445272
21
1.1518867197
31
0.0000000000
11
4.4982777712
21
1.1693999066
31
0.0000000000
11
4.4993952540
21
1.1872064327
31
0.0000000000
11
4.4997605849
21
1.1962196981
31
0.0000000000
11
4.4998948977
21
1.2007538313
31
0.0000000000
11
4.4999969755
21
1.2053062982
31
0.0000000000
11
4.5000668181
21
1.2098770988
31
0.0000000000
11
4.5001044257
21
1.2144662331
31
0.0000000000
11
4.5001087909
21
1.2156163814
31
0.0000000000
11
4.5001111414
21
1.2167676754
31
0.0000000000
11
4.5001115611
21
1.2173437522
31
0.0000000000
11
4.5001114593
21
1.2179618137
31
0.0000000000
11
4.5001095120
21
1.2192388675
31
0.0000000000
11
4.5000986071
21
1.2217890908
31
0.0000000000
11
4.5000783551
21
1.2243341352
31
0.0000000000
11
4.5000098101
21
1.2294086875
31
0.0000000000
11
4.4999038768
21
1.2344625243
31
0.0000000000
11
4.4995798456
21
1.2445080512
31
0.0000000000
11
4.4991062615
21
1.2544707162
31
0.0000000000
11
4.4984831246
21
1.2643505191
31
0.0000000000
11
4.4967881922
21
1.2838615387
31
0.0000000000
11
4.4916036931
21
1.3218892335
31
0.0000000000
11
4.4840263482
21
1.3585911355
31
0.0000000000
11
4.4740561575
21
1.3939672448
31
0.0000000000
11
4.4616931211
21
1.4280175614
31
0.0000000000
11
4.4469372390
21
1.4607420853
31
0.0000000000
11
4.4297885111
21
1.4921408164
31
0.0000000000
11
4.4102469374
21
1.5222137548
31
0.0000000000
11
4.3995788334
21
1.5367530518
31
0.0000000000
11
4.3883125180
21
1.5509609005
31
0.0000000000
11
4.3764479912
21
1.5648373011
31
0.0000000000
11
4.3702913984
21
1.5716512083
31
0.0000000000
11
4.3639852528
21
1.5783822535
31
0.0000000000
11
4.3575715675
21
1.5849934737
31
0.0000000000
11
4.3510923554
21
1.5914479061
31
0.0000000000
11
4.3379373509
21
1.6038864074
31
0.0000000000
11
4.3245202396
21
1.6156977574
31
0.0000000000
11
4.3108410212
21
1.6268819561
31
0.0000000000
11
4.2826962638
21
1.6473688994
31
0.0000000000
11
4.2535030786
21
1.6653472375
31
0.0000000000
11
4.2232614657
21
1.6808169702
31
0.0000000000
11
4.1919714250
21
1.6937780976
31
0.0000000000
11
4.1596329565
21
1.7042306197
31
0.0000000000
11
4.1262460603
21
1.7121745365
31
0.0000000000
11
4.1091594518
21
1.7152057679
31
0.0000000000
11
4.0918107363
21
1.7176098480
31
0.0000000000
11
4.0830380885
21
1.7185767063
31
0.0000000000
11
4.0741999140
21
1.7193867768
31
0.0000000000
11
4.0652962127
21
1.7200400594
31
0.0000000000
11
4.0563269846
21
1.7205365542
31
0.0000000000
11
4.0472922299
21
1.7208762612
31
0.0000000000
11
4.0427502800
21
1.7209873192
31
0.0000000000
11
4.0404731619
21
1.7210281494
31
0.0000000000
11
4.0381919484
21
1.7210591803
31
0.0000000000
11
4.0359066394
21
1.7210804120
31
0.0000000000
11
4.0347624492
21
1.7210873531
31
0.0000000000
11
4.0336172351
21
1.7210918444
31
0.0000000000
11
4.0330442441
21
1.7210931714
31
0.0000000000
11
4.0324709971
21
1.7210938860
31
0.0000000000
11
4.0321842777
21
1.7210940135
31
0.0000000000
11
4.0319473132
21
1.7210940046
31
0.0000000000
11
4.0315233204
21
1.7210937429
31
0.0000000000
11
4.0306759582
21
1.7210922771
31
0.0000000000
11
4.0298294270
21
1.7210895549
31
0.0000000000
11
4.0281388579
21
1.7210803414
31
0.0000000000
11
4.0264516130
21
1.7210661024
31
0.0000000000
11
4.0230870959
21
1.7210225477
31
0.0000000000
11
4.0197358758
21
1.7209588909
31
0.0000000000
11
4.0163979526
21
1.7208751320
31
0.0000000000
11
4.0097619973
21
1.7206473076
31
0.0000000000
11
4.0031792298
21
1.7203390747
31
0.0000000000
11
3.9966496503
21
1.7199504331
31
0.0000000000
11
3.9837500549
21
1.7189319243
31
0.0000000000
11
3.9751772347
21
1.7180641683
31
0.0000000000
0
SPLINE
5
2C2
100
AcDbEntity
8
0
100
AcDbSpline
62
7
6
CONTINUOUS
70
0
71
3
72
95
73
91
74
89
42
0.0000001000
43
0.0000001000
44
0.0000000001
12
-0.5233176774
22
1.1404242088
32
0.0000000000
13
0.5487658753
23
-1.1287711077
33
0.0000000000
40
0.0000000000
40
0.0000000000
40
0.0000000000
40
0.0000000000
40
0.0737177976
40
0.1081062336
40
0.1249094739
40
0.1415441701
40
0.1580867801
40
0.1663321366
40
0.1745188927
40
0.2067928601
40
0.2227826528
40
0.2387591203
40
0.2547904272
40
0.2709440440
40
0.2790884159
40
0.2872879186
40
0.2955504377
40
0.2997078623
40
0.3038839148
40
0.3059792328
40
0.3080795565
40
0.3086054341
40
0.3091551876
40
0.3102620025
40
0.3124732051
40
0.3168863063
40
0.3212878463
40
0.3300598917
40
0.3387974400
40
0.3561989043
40
0.3735585809
40
0.4083955768
40
0.4260171334
40
0.4438519056
40
0.4619596953
40
0.4803162225
40
0.4986154331
40
0.5168866772
40
0.5536280647
40
0.5911517618
40
0.6103910392
40
0.6300302121
40
0.6400198312
40
0.6500751707
40
0.6701193759
40
0.6901199539
40
0.7101334502
40
0.7302163009
40
0.7504243614
40
0.7708124577
40
0.7810915842
40
0.7914355934
40
0.7966340294
40
0.8018510715
40
0.8070874981
40
0.8123440790
40
0.8176215750
40
0.8202684132
40
0.8229207613
40
0.8242490321
40
0.8255787149
40
0.8262440897
40
0.8269098218
40
0.8272428223
40
0.8274093563
40
0.8274979883
40
0.8276187530
40
0.8278602318
40
0.8281016430
40
0.8285842631
40
0.8295486955
40
0.8305120541
40
0.8324355638
40
0.8343548232
40
0.8362698626
40
0.8400873957
40
0.8438884167
40
0.8476731749
40
0.8514419229
40
0.8589323494
40
0.8663618447
40
0.8737325456
40
0.8810466403
40
0.8955134407
40
0.9097813195
40
0.9238695811
40
0.9377982771
40
0.9515881547
40
0.9788319816
40
1.0000000000
40
1.0000000000
40
1.0000000000
40
1.0000000000
10
3.6639884792
20
1.4422559332
30
0.0000000000
10
3.6511292036
20
1.4702791202
30
0.0000000000
10
3.6283052349
20
1.5098850616
30
0.0000000000
10
3.5941209079
20
1.5495653106
30
0.0000000000
10
3.5735491076
20
1.5691290140
30
0.0000000000
10
3.5574543057
20
1.5824940504
30
0.0000000000
10
3.5433863812
20
1.5926313659
30
0.0000000000
10
3.5317971855
20
1.6001126161
30
0.0000000000
10
3.5143566285
20
1.6106411172
30
0.0000000000
10
3.4931793745
20
1.6212633980
30
0.0000000000
10
3.4680842391
20
1.6309032936
30
0.0000000000
10
3.4488989239
20
1.6368660405
30
0.0000000000
10
3.4293003362
20
1.6415791555
30
0.0000000000
10
3.4126672613
20
1.6444584815
30
0.0000000000
10
3.3991777147
20
1.6461405277
30
0.0000000000
10
3.3889285917
20
1.6470945713
30
0.0000000000
10
3.3803195669
20
1.6476291851
30
0.0000000000
10
3.3733833865
20
1.6479022364
30
0.0000000000
10
3.3690226047
20
1.6480083644
30
0.0000000000
10
3.3655213896
20
1.6480545335
30
0.0000000000
10
3.3635466060
20
1.6480659594
30
0.0000000000
10
3.3622182503
20
1.6480675229
30
0.0000000000
10
3.3613054329
20
1.6480669075
30
0.0000000000
10
3.3596877272
20
1.6480614052
30
0.0000000000
10
3.3564542592
20
1.6480325704
30
0.0000000000
10
3.3518433797
20
1.6479405064
30
0.0000000000
10
3.3444919240
20
1.6476846732
30
0.0000000000
10
3.3353408594
20
1.6471614625
30
0.0000000000
10
3.3207929618
20
1.6458901299
30
0.0000000000
10
3.3027461881
20
1.6434835834
30
0.0000000000
10
3.2741672862
20
1.6378790835
30
0.0000000000
10
3.2460676653
20
1.6296207943
30
0.0000000000
10
3.2187071107
20
1.6188263275
30
0.0000000000
10
3.1983720126
20
1.6093916193
30
0.0000000000
10
3.1783429111
20
1.5986625499
30
0.0000000000
10
3.1587586022
20
1.5867581644
30
0.0000000000
10
3.1399260626
20
1.5735709581
30
0.0000000000
10
3.1159734005
20
1.5543988698
30
0.0000000000
10
3.0881591525
20
1.5273223523
30
0.0000000000
10
3.0637201012
20
1.4966589817
30
0.0000000000
10
3.0460718246
20
1.4700023362
30
0.0000000000
10
3.0357691872
20
1.4523355953
30
0.0000000000
10
3.0279965305
20
1.4376681968
30
0.0000000000
10
3.0205376905
20
1.4226492032
30
0.0000000000
10
3.0119605412
20
1.4035188159
30
0.0000000000
10
3.0029130349
20
1.3800726498
30
0.0000000000
10
2.9951211159
20
1.3561625695
30
0.0000000000
10
2.9885852906
20
1.3317893221
30
0.0000000000
10
2.9833054753
20
1.3069538430
30
0.0000000000
10
2.9799612916
20
1.2859292237
30
0.0000000000
10
2.9779103647
20
1.2688977348
30
0.0000000000
10
2.9768876897
20
1.2581450025
30
0.0000000000
10
2.9762255373
20
1.2494873770
30
0.0000000000
10
2.9758063513
20
1.2429541643
30
0.0000000000
10
2.9754654475
20
1.2363920608
30
0.0000000000
10
2.9752028230
20
1.2298010564
30
0.0000000000
10
2.9750493587
20
1.2242900777
30
0.0000000000
10
2.9749656103
20
1.2198671088
30
0.0000000000
10
2.9749295395
20
1.2170953636
30
0.0000000000
10
2.9749104516
20
1.2148743875
30
0.0000000000
10
2.9749025940
20
1.2134844115
30
0.0000000000
10
2.9748987519
20
1.2123715315
30
0.0000000000
10
2.9748973692
20
1.2116755128
30
0.0000000000
10
2.9748969363
20
1.2111881354
30
0.0000000000
10
2.9748968526
20
1.2109421323
30
0.0000000000
10
2.9748968436
20
1.2107848977
30
0.0000000000
10
2.9748968734
20
1.2105963172
30
0.0000000000
10
2.9748970058
20
1.2103438361
30
0.0000000000
10
2.9748974156
20
1.2099400077
30
0.0000000000
10
2.9748986515
20
1.2092338017
30
0.0000000000
10
2.9749019000
20
1.2082256418
30
0.0000000000
10
2.9749102602
20
1.2066148402
30
0.0000000000
10
2.9749266365
20
1.2046047184
30
0.0000000000
10
2.9749557962
20
1.2021966612
30
0.0000000000
10
2.9750072826
20
1.1989966580
30
0.0000000000
10
2.9750953077
20
1.1950101179
30
0.0000000000
10
2.9752390442
20
1.1902427515
30
0.0000000000
10
2.9754207718
20
1.1854970957
30
0.0000000000
10
2.9757131184
20
1.1792116466
30
0.0000000000
10
2.9761729751
20
1.1714081747
30
0.0000000000
10
2.9768779474
20
1.1621112900
30
0.0000000000
10
2.9777349211
20
1.1529011935
30
0.0000000000
10
2.9790752356
20
1.1407818122
30
0.0000000000
10
2.9811273581
20
1.1258410487
30
0.0000000000
10
2.9842076572
20
1.1081930041
30
0.0000000000
10
2.9878966656
20
1.0908919633
30
0.0000000000
10
2.9921946474
20
1.0739377947
30
0.0000000000
10
2.9987096481
20
1.0518871195
30
0.0000000000
10
3.0075609843
20
1.0273904105
30
0.0000000000
10
3.0158232451
20
1.0088863925
30
0.0000000000
10
3.0196953405
20
1.0009217767
30
0.0000000000
11
3.6639884792
21
1.4422559332
31
0.0000000000
11
3.6168576570
21
1.5218462932
31
0.0000000000
11
3.5886238876
21
1.5544763082
31
0.0000000000
11
3.5733399134
21
1.5690000246
31
0.0000000000
11
3.5572778795
21
1.5823295467
31
0.0000000000
11
3.5404377859
21
1.5944648747
31
0.0000000000
11
3.5317491978
21
1.6000815820
31
0.0000000000
11
3.5229534440
21
1.6053879569
31
0.0000000000
11
3.4867359408
21
1.6235051201
31
0.0000000000
11
3.4680064966
21
1.6306986996
31
0.0000000000
11
3.4488632571
21
1.6366489443
31
0.0000000000
11
3.4293062225
21
1.6413558543
31
0.0000000000
11
3.4093353928
21
1.6448194296
31
0.0000000000
11
3.3991948048
21
1.6460849668
31
0.0000000000
11
3.3889507680
21
1.6470396702
31
0.0000000000
11
3.3786032823
21
1.6476835400
31
0.0000000000
11
3.3733907462
21
1.6478889122
31
0.0000000000
11
3.3681523479
21
1.6480165761
31
0.0000000000
11
3.3655234505
21
1.6480512673
31
0.0000000000
11
3.3628880875
21
1.6480665315
31
0.0000000000
11
3.3622282365
21
1.6480673120
31
0.0000000000
11
3.3615384265
21
1.6480668564
31
0.0000000000
11
3.3601496448
21
1.6480621245
31
0.0000000000
11
3.3573752212
21
1.6480373727
31
0.0000000000
11
3.3518389334
21
1.6479267176
31
0.0000000000
11
3.3463193914
21
1.6477345272
31
0.0000000000
11
3.3353305448
21
1.6471055404
31
0.0000000000
11
3.3244086813
21
1.6461504122
31
0.0000000000
11
3.3027659039
21
1.6432617321
31
0.0000000000
11
3.2813910593
21
1.6390684866
31
0.0000000000
11
3.2394451680
21
1.6267683000
31
0.0000000000
11
3.2188741215
21
1.6186613589
31
0.0000000000
11
3.1985710076
21
1.6092498524
31
0.0000000000
11
3.1785358265
21
1.5985337808
31
0.0000000000
11
3.1588737044
21
1.5865369579
31
0.0000000000
11
3.1400642801
21
1.5733680353
31
0.0000000000
11
3.1221666873
21
1.5590404084
31
0.0000000000
11
3.0891069960
21
1.5269090415
31
0.0000000000
11
3.0596946305
21
1.4901428574
31
0.0000000000
11
3.0463561948
21
1.4700217088
31
0.0000000000
11
3.0339295907
21
1.4487418559
31
0.0000000000
11
3.0280582253
21
1.4376674153
31
0.0000000000
11
3.0224460858
21
1.4263672317
31
0.0000000000
11
3.0121592982
21
1.4034164038
31
0.0000000000
11
3.0031248151
21
1.3800030310
31
0.0000000000
11
2.9953426365
21
1.3561271132
31
0.0000000000
11
2.9888127626
21
1.3317886506
31
0.0000000000
11
2.9835351933
21
1.3069876429
31
0.0000000000
11
2.9795099285
21
1.2817240903
31
0.0000000000
11
2.9779669104
21
1.2689188597
31
0.0000000000
11
2.9767369684
21
1.2559979928
31
0.0000000000
11
2.9762394009
21
1.2494941958
31
0.0000000000
11
2.9758201025
21
1.2429614897
31
0.0000000000
11
2.9754790732
21
1.2363998745
31
0.0000000000
11
2.9752163128
21
1.2298093503
31
0.0000000000
11
2.9750318215
21
1.2231899171
31
0.0000000000
11
2.9749689268
21
1.2198693595
31
0.0000000000
11
2.9749255993
21
1.2165415747
31
0.0000000000
11
2.9749112732
21
1.2148749721
31
0.0000000000
11
2.9749018390
21
1.2132065627
31
0.0000000000
11
2.9748989563
21
1.2123716804
31
0.0000000000
11
2.9748972966
21
1.2115363464
31
0.0000000000
11
2.9748969254
21
1.2111185101
31
0.0000000000
11
2.9748968544
21
1.2109095495
31
0.0000000000
11
2.9748968477
21
1.2107983373
31
0.0000000000
11
2.9748968716
21
1.2106468063
31
0.0000000000
11
2.9748970306
21
1.2103438079
31
0.0000000000
11
2.9748973380
21
1.2100408943
31
0.0000000000
11
2.9748983979
21
1.2094353216
31
0.0000000000
11
2.9749022986
21
1.2082251944
31
0.0000000000
11
2.9749085735
21
1.2070164245
31
0.0000000000
11
2.9749282463
21
1.2046029569
31
0.0000000000
11
2.9749574164
21
1.2021949190
31
0.0000000000
11
2.9749960836
21
1.1997923106
31
0.0000000000
11
2.9751019098
21
1.1950033827
31
0.0000000000
11
2.9752457249
21
1.1902361731
31
0.0000000000
11
2.9754275288
21
1.1854906820
31
0.0000000000
11
2.9756473217
21
1.1807669092
31
0.0000000000
11
2.9762008740
21
1.1713845188
31
0.0000000000
11
2.9769063819
21
1.1620890019
31
0.0000000000
11
2.9777638453
21
1.1528803585
31
0.0000000000
11
2.9787732643
21
1.1437585886
31
0.0000000000
11
2.9812479689
21
1.1257756695
31
0.0000000000
11
2.9843304956
21
1.1081402445
31
0.0000000000
11
2.9880208446
21
1.0908523136
31
0.0000000000
11
2.9923190157
21
1.0739118768
31
0.0000000000
11
2.9972250090
21
1.0573189340
31
0.0000000000
11
3.0088604621
21
1.0251755310
31
0.0000000000
11
3.0196953405
21
1.0009217767
31
0.0000000000
0
SPLINE
5
2C3
100
AcDbEntity
8
0
100
AcDbSpline
62
7
6
CONTINUOUS
70
0
71
3
72
104
73
100
74
98
42
0.0000001000
43
0.0000001000
44
0.0000000001
12
-0.9114851933
22
0.5708238541
32
0.0000000000
13
0.9098868412
23
-0.5735330057
33
0.0000000000
40
0.0000000000
40
0.0000000000
40
0.0000000000
40
0.0000000000
40
0.0353530881
40
0.0707294314
40
0.0886106381
40
0.1067058463
40
0.1250806345
40
0.1343935138
40
0.1437994956
40
0.1532416942
40
0.1626660852
40
0.1815034664
40
0.2004041261
40
0.2194568635
40
0.2290687876
40
0.2387509899
40
0.2485138014
40
0.2583672994
40
0.2633312800
40
0.2683215832
40
0.2733393880
40
0.2783858544
40
0.2834621226
40
0.2860118005
40
0.2885693473
40
0.2911348998
40
0.2924207227
40
0.2937085978
40
0.2949985418
40
0.2962905714
40
0.2969373737
40
0.2975847036
40
0.2979085671
40
0.2982325633
40
0.2985566924
40
0.2987188069
40
0.2988809547
40
0.2990113427
40
0.2991417056
40
0.2994023562
40
0.2999233567
40
0.3004439569
40
0.3009641576
40
0.3020033638
40
0.3030409818
40
0.3051114775
40
0.3071756984
40
0.3092336969
40
0.3112855260
40
0.3153708761
40
0.3194321953
40
0.3234699241
40
0.3314762977
40
0.3393937898
40
0.3472262075
40
0.3549774834
40
0.3626516747
40
0.3777845569
40
0.3926607713
40
0.4073170382
40
0.4217917520
40
0.4503467383
40
0.4786670361
40
0.5070923713
40
0.5214550063
40
0.5359688155
40
0.5505335376
40
0.5650513747
40
0.5941090581
40
0.6234980361
40
0.6535522533
40
0.6845841852
40
0.7168779388
40
0.7335816773
40
0.7506926974
40
0.7594096900
40
0.7682382783
40
0.7726954134
40
0.7771815682
40
0.7816971020
40
0.7839660016
40
0.7851032530
40
0.7862423788
40
0.7874404887
40
0.7886367545
40
0.7910237746
40
0.7957759210
40
0.8004991957
40
0.8051939702
40
0.8144994432
40
0.8236955451
40
0.8417717964
40
0.8594506847
40
0.8767612502
40
0.8937344233
40
0.9267927749
40
0.9589176314
40
0.9904181672
40
1.0000000000
40
1.0000000000
40
1.0000000000
40
1.0000000000
10
3.7927960256
20
-0.2109838526
30
0.0000000000
10
3.7820547535
20
-0.2042570572
30
0.0000000000
10
3.7613807771
20
-0.1894420421
30
0.0000000000
10
3.7380605127
20
-0.1677431407
30
0.0000000000
10
3.7210310869
20
-0.1486381492
30
0.0000000000
10
3.7089703119
20
-0.1333198108
30
0.0000000000
10
3.6995943651
20
-0.1198364465
30
0.0000000000
10
3.6924792678
20
-0.1086006927
30
0.0000000000
10
3.6873119913
20
-0.0999262358
30
0.0000000000
10
3.6823948650
20
-0.0910611108
30
0.0000000000
10
3.6762590060
20
-0.0790149358
30
0.0000000000
10
3.6693663548
20
-0.0635603198
30
0.0000000000
10
3.6623725226
20
-0.0444239486
30
0.0000000000
10
3.6576206647
20
-0.0280329278
30
0.0000000000
10
3.6544566100
20
-0.0146529220
30
0.0000000000
10
3.6523939743
20
-0.0044405067
30
0.0000000000
10
3.6506491136
20
0.0059185775
30
0.0000000000
10
3.6494627513
20
0.0146517845
30
0.0000000000
10
3.6486715569
20
0.0217087194
30
0.0000000000
10
3.6481560178
20
0.0270514927
30
0.0000000000
10
3.6477198374
20
0.0324309809
30
0.0000000000
10
3.6473630115
20
0.0378471943
30
0.0000000000
10
3.6471321344
20
0.0423844574
30
0.0000000000
10
3.6469869384
20
0.0460322910
30
0.0000000000
10
3.6468977118
20
0.0487814938
30
0.0000000000
10
3.6468399316
20
0.0510783328
30
0.0000000000
10
3.6468036021
20
0.0529203553
30
0.0000000000
10
3.6467812921
20
0.0543052614
30
0.0000000000
10
3.6467639408
20
0.0556924635
30
0.0000000000
10
3.6467536179
20
0.0568499088
30
0.0000000000
10
3.6467478358
20
0.0577770081
30
0.0000000000
10
3.6467452541
20
0.0583570404
30
0.0000000000
10
3.6467438083
20
0.0588213526
30
0.0000000000
10
3.6467430335
20
0.0591698014
30
0.0000000000
10
3.6467426463
20
0.0594602653
30
0.0000000000
10
3.6467424911
20
0.0596927080
30
0.0000000000
10
3.6467424558
20
0.0598556963
30
0.0000000000
10
3.6467424800
20
0.0600073019
30
0.0000000000
10
3.6467425663
20
0.0601942198
30
0.0000000000
10
3.6467428690
20
0.0605211689
30
0.0000000000
10
3.6467437335
20
0.0609880142
30
0.0000000000
10
3.6467454632
20
0.0615479041
30
0.0000000000
10
3.6467486907
20
0.0622935621
30
0.0000000000
10
3.6467544531
20
0.0632245566
30
0.0000000000
10
3.6467673570
20
0.0647112806
30
0.0000000000
10
3.6467903909
20
0.0665653839
30
0.0000000000
10
3.6468291242
20
0.0687850905
30
0.0000000000
10
3.6468789291
20
0.0709978837
30
0.0000000000
10
3.6469599768
20
0.0739346773
30
0.0000000000
10
3.6470888452
20
0.0775885493
30
0.0000000000
10
3.6472880074
20
0.0819520908
30
0.0000000000
10
3.6476116812
20
0.0877167535
30
0.0000000000
10
3.6481261162
20
0.0948548960
30
0.0000000000
10
3.6489224234
20
0.1033346844
30
0.0000000000
10
3.6498959490
20
0.1117039251
30
0.0000000000
10
3.6510467172
20
0.1199626599
30
0.0000000000
10
3.6528090201
20
0.1307756808
30
0.0000000000
10
3.6554510009
20
0.1440297146
30
0.0000000000
10
3.6593466349
20
0.1595672993
30
0.0000000000
10
3.6639533056
20
0.1746636206
30
0.0000000000
10
3.6710091945
20
0.1941105691
30
0.0000000000
10
3.6816361502
20
0.2174366329
30
0.0000000000
10
3.6973141089
20
0.2437604625
30
0.0000000000
10
3.7127203307
20
0.2641393554
30
0.0000000000
10
3.7263941695
20
0.2794796937
30
0.0000000000
10
3.7373572296
20
0.2905507256
30
0.0000000000
10
3.7489289745
20
0.3010675233
30
0.0000000000
10
3.7651058544
20
0.3142240193
30
0.0000000000
10
3.7867339666
20
0.3290363239
30
0.0000000000
10
3.8147554374
20
0.3440414690
30
0.0000000000
10
3.8448491684
20
0.3562923125
30
0.0000000000
10
3.8770016577
20
0.3657911175
30
0.0000000000
10
3.9051873229
20
0.3713571027
30
0.0000000000
10
3.9286845110
20
0.3744832331
30
0.0000000000
10
3.9438719323
20
0.3758836247
30
0.0000000000
10
3.9562716379
20
0.3766700029
30
0.0000000000
10
3.9641520985
20
0.3770218487
30
0.0000000000
10
3.9705201729
20
0.3772191939
30
0.0000000000
10
3.9753439490
20
0.3773252141
30
0.0000000000
10
3.9793840683
20
0.3773780925
30
0.0000000000
10
3.9822238723
20
0.3773966010
30
0.0000000000
10
3.9838533079
20
0.3774019066
30
0.0000000000
10
3.9850988821
20
0.3774032375
30
0.0000000000
10
3.9863656125
20
0.3774018599
30
0.0000000000
10
3.9880796944
20
0.3773963248
30
0.0000000000
10
3.9910678214
20
0.3773769691
30
0.0000000000
10
3.9953201037
20
0.3773216917
30
0.0000000000
10
4.0003988587
20
0.3772108712
30
0.0000000000
10
4.0071079784
20
0.3770045528
30
0.0000000000
10
4.0154160646
20
0.3766366633
30
0.0000000000
10
4.0285036697
20
0.3758142729
30
0.0000000000
10
4.0445560022
20
0.3743494240
30
0.0000000000
10
4.0634224250
20
0.3718703960
30
0.0000000000
10
4.0817813803
20
0.3686798933
30
0.0000000000
10
4.1053718965
20
0.3635236304
30
0.0000000000
10
4.1337060828
20
0.3553188087
30
0.0000000000
10
4.1659726011
20
0.3425155171
30
0.0000000000
10
4.1893135147
20
0.3304073362
30
0.0000000000
10
4.2018990912
20
0.3227516326
30
0.0000000000
10
4.2048052190
20
0.3209198001
30
0.0000000000
11
3.7927960256
21
-0.2109838526
31
0.0000000000
11
3.7619021437
21
-0.1888210372
31
0.0000000000
11
3.7340321887
21
-0.1629214148
31
0.0000000000
11
3.7212311220
21
-0.1485702622
31
0.0000000000
11
3.7091859958
21
-0.1332848820
31
0.0000000000
11
3.6978968102
21
-0.1170652742
31
0.0000000000
11
3.6925356950
21
-0.1086051349
31
0.0000000000
11
3.6873635650
21
-0.0999114388
31
0.0000000000
11
3.6824446038
21
-0.0910274840
31
0.0000000000
11
3.6778429948
21
-0.0819965689
31
0.0000000000
11
3.6695918340
21
-0.0634938575
31
0.0000000000
11
3.6626100825
21
-0.0444033046
31
0.0000000000
11
3.6568977404
21
-0.0247249103
31
0.0000000000
11
3.6545175978
21
-0.0146652725
31
0.0000000000
11
3.6524548076
21
-0.0044586744
31
0.0000000000
11
3.6507093697
21
0.0058948840
31
0.0000000000
11
3.6492812842
21
0.0163954029
31
0.0000000000
11
3.6486862486
21
0.0217007724
31
0.0000000000
11
3.6481705510
21
0.0270428821
31
0.0000000000
11
3.6477341915
21
0.0324217318
31
0.0000000000
11
3.6473771702
21
0.0378373216
31
0.0000000000
11
3.6470994869
21
0.0432896516
31
0.0000000000
11
3.6469903970
21
0.0460295940
31
0.0000000000
11
3.6469011416
21
0.0487787216
31
0.0000000000
11
3.6468317208
21
0.0515370341
31
0.0000000000
11
3.6468044483
21
0.0529196348
31
0.0000000000
11
3.6467821345
21
0.0543045317
31
0.0000000000
11
3.6467647793
21
0.0556917248
31
0.0000000000
11
3.6467523827
21
0.0570812143
31
0.0000000000
11
3.6467480439
21
0.0577768201
31
0.0000000000
11
3.6467449448
21
0.0584729999
31
0.0000000000
11
3.6467438601
21
0.0588213052
31
0.0000000000
11
3.6467430853
21
0.0591697539
31
0.0000000000
11
3.6467426204
21
0.0595183461
31
0.0000000000
11
3.6467425042
21
0.0596926961
31
0.0000000000
11
3.6467424655
21
0.0598670819
31
0.0000000000
11
3.6467424871
21
0.0600073108
31
0.0000000000
11
3.6467425520
21
0.0601475128
31
0.0000000000
11
3.6467428114
21
0.0604278357
31
0.0000000000
11
3.6467438494
21
0.0609881574
31
0.0000000000
11
3.6467455793
21
0.0615480469
31
0.0000000000
11
3.6467480011
21
0.0621075042
31
0.0000000000
11
3.6467549207
21
0.0632251224
31
0.0000000000
11
3.6467646082
21
0.0643410120
31
0.0000000000
11
3.6467922866
21
0.0665676051
31
0.0000000000
11
3.6468310363
21
0.0687872836
31
0.0000000000
11
3.6468808574
21
0.0710000475
31
0.0000000000
11
3.6469417499
21
0.0732058967
31
0.0000000000
11
3.6470967489
21
0.0775968513
31
0.0000000000
11
3.6472960333
21
0.0819601475
31
0.0000000000
11
3.6475396031
21
0.0862957851
31
0.0000000000
11
3.6481595991
21
0.0948840849
31
0.0000000000
11
3.6489567367
21
0.1033617507
31
0.0000000000
11
3.6499310160
21
0.1117287825
31
0.0000000000
11
3.6510824371
21
0.1199851804
31
0.0000000000
11
3.6524109998
21
0.1281309443
31
0.0000000000
11
3.6555995504
21
0.1440905701
31
0.0000000000
11
3.6594966677
21
0.1596076600
31
0.0000000000
11
3.6641023519
21
0.1746822140
31
0.0000000000
11
3.6694166028
21
0.1893142320
31
0.0000000000
11
3.6821708051
21
0.2172506604
31
0.0000000000
11
3.6977592745
21
0.2434169451
31
0.0000000000
11
3.7161820111
21
0.2678130862
31
0.0000000000
11
3.7264562295
21
0.2793473528
31
0.0000000000
11
3.7374390148
21
0.2904390836
31
0.0000000000
11
3.7490348555
21
0.3009698444
31
0.0000000000
11
3.7611482400
21
0.3108212013
31
0.0000000000
11
3.7869276410
21
0.3284857033
31
0.0000000000
11
3.8147772176
21
0.3434325896
31
0.0000000000
11
3.8446969700
21
0.3556618603
31
0.0000000000
11
3.8766868981
21
0.3651735152
31
0.0000000000
11
3.9107470019
21
0.3719675544
31
0.0000000000
11
3.9285533697
21
0.3743454682
31
0.0000000000
11
3.9468772815
21
0.3760439780
31
0.0000000000
11
3.9562333163
21
0.3766384564
31
0.0000000000
11
3.9657187372
21
0.3770630839
31
0.0000000000
11
3.9705099673
21
0.3772117035
31
0.0000000000
11
3.9753335440
21
0.3773178603
31
0.0000000000
11
3.9801894671
21
0.3773815545
31
0.0000000000
11
3.9826295586
21
0.3773974780
31
0.0000000000
11
3.9838526369
21
0.3774014589
31
0.0000000000
11
3.9850777368
21
0.3774027858
31
0.0000000000
11
3.9863662726
21
0.3774013989
31
0.0000000000
11
3.9876528191
21
0.3773972382
31
0.0000000000
11
3.9902199441
21
0.3773805954
31
0.0000000000
11
3.9953303223
21
0.3773140240
31
0.0000000000
11
4.0004088713
21
0.3772030717
31
0.0000000000
11
4.0054555912
21
0.3770477384
31
0.0000000000
11
4.0154535435
21
0.3766039291
31
0.0000000000
11
4.0253241792
21
0.3759825961
31
0.0000000000
11
4.0446835008
21
0.3742073589
31
0.0000000000
11
4.0635335560
21
0.3717220269
31
0.0000000000
11
4.0818743447
21
0.3685265999
31
0.0000000000
11
4.0997058671
21
0.3646210781
31
0.0000000000
11
4.1338411127
21
0.3546797499
31
0.0000000000
11
4.1659392926
21
0.3418980422
31
0.0000000000
11
4.1960004069
21
0.3262759550
31
0.0000000000
11
4.2048052190
21
0.3209198001
31
0.0000000000
0
SPLINE
5
2C4
100
AcDbEntity
8
0
100
AcDbSpline
62
7
6
CONTINUOUS
70
0
71
3
72
115
73
111
74
109
42
0.0000001000
43
0.0000001000
44
0.0000000001
12
1.6019339148
22
0.1554897210
32
0.0000000000
13
-1.5958610911
23
-0.2095063654
33
0.0000000000
40
0.0000000000
40
0.0000000000
40
0.0000000000
40
0.0000000000
40
0.0497865672
40
0.0968494436
40
0.1424186339
40
0.1650851375
40
0.1878884285
40
0.1993971076
40
0.2110030048
40
0.2226760053
40
0.2342984591
40
0.2458842892
40
0.2574556620
40
0.2806384532
40
0.3040292184
40
0.3278001446
40
0.3398822919
40
0.3521201416
40
0.3645325076
40
0.3771374225
40
0.3899521059
40
0.4029929466
40
0.4096033018
40
0.4162759563
40
0.4196362425
40
0.4230127793
40
0.4264057855
40
0.4298154767
40
0.4315266489
40
0.4332420718
40
0.4349617713
40
0.4358232333
40
0.4366857742
40
0.4371174503
40
0.4375493972
40
0.4376574264
40
0.4377858272
40
0.4380493483
40
0.4385761058
40
0.4396284849
40
0.4406793551
40
0.4427765938
40
0.4448678772
40
0.4490327808
40
0.4531745166
40
0.4613901564
40
0.4695185532
40
0.4775634716
40
0.4855287947
40
0.4934185231
40
0.5089867048
40
0.5243033166
40
0.5543178156
40
0.5837764827
40
0.6130024346
40
0.6276366845
40
0.6423367429
40
0.6571433186
40
0.6720962503
40
0.6796403290
40
0.6872353870
40
0.6948860386
40
0.7025967983
40
0.7064761687
40
0.7084220806
40
0.7103722273
40
0.7123266755
40
0.7142854913
40
0.7152665586
40
0.7157575105
40
0.7159966918
40
0.7161974904
40
0.7165990046
40
0.7170004085
40
0.7178028869
40
0.7186049301
40
0.7194065423
40
0.7210084894
40
0.7242073897
40
0.7273998696
40
0.7305862033
40
0.7369414677
40
0.7432754757
40
0.7495904740
40
0.7558887298
40
0.7684435931
40
0.7809590936
40
0.7934538649
40
0.8059466331
40
0.8309963768
40
0.8562615837
40
0.8818870786
40
0.8948806884
40
0.9080157937
40
0.9213085163
40
0.9280191045
40
0.9347748799
40
0.9415776945
40
0.9449973376
40
0.9484294173
40
0.9492894085
40
0.9501501942
40
0.9519453974
40
0.9537485552
40
0.9555472795
40
0.9626984421
40
0.9697814435
40
0.9767985734
40
0.9906440903
40
1.0000000000
40
1.0000000000
40
1.0000000000
40
1.0000000000
10
4.0828159996
20
-0.4175449966
30
0.0000000000
10
4.1094009297
20
-0.4149645635
30
0.0000000000
10
4.1608907178
20
-0.4065547544
30
0.0000000000
10
4.2338009393
20
-0.3826617843
30
0.0000000000
10
4.2887662527
20
-0.3535455505
30
0.0000000000
10
4.3285727514
20
-0.3251574177
30
0.0000000000
10
4.3518555451
20
-0.3052837567
30
0.0000000000
10
4.3695363812
20
-0.2881221272
30
0.0000000000
10
4.3823747372
20
-0.2745686176
30
0.0000000000
10
4.3946841653
20
-0.2604520150
30
0.0000000000
10
4.4063611644
20
-0.2458212112
30
0.0000000000
10
4.4173572285
20
-0.2307390717
30
0.0000000000
10
4.4311121959
20
-0.2100222214
30
0.0000000000
10
4.4466381739
20
-0.1829160557
30
0.0000000000
10
4.4624946241
20
-0.1486207716
30
0.0000000000
10
4.4733531534
20
-0.1187070323
30
0.0000000000
10
4.4806677837
20
-0.0939597897
30
0.0000000000
10
4.4854997866
20
-0.0748493845
30
0.0000000000
10
4.4896469573
20
-0.0552926067
30
0.0000000000
10
4.4931096641
20
-0.0352890548
30
0.0000000000
10
4.4958879561
20
-0.0148390746
30
0.0000000000
10
4.4976250319
20
0.0024954021
30
0.0000000000
10
4.4986770366
20
0.0165790925
30
0.0000000000
10
4.4991938908
20
0.0254935069
30
0.0000000000
10
4.4995225132
20
0.0326800742
30
0.0000000000
10
4.4997268488
20
0.0381108209
30
0.0000000000
10
4.4998884646
20
0.0435695161
30
0.0000000000
10
4.4999874225
20
0.0481360803
30
0.0000000000
10
4.5000453077
20
0.0518032131
30
0.0000000000
10
4.5000780957
20
0.0545639482
30
0.0000000000
10
4.5000965079
20
0.0568689447
30
0.0000000000
10
4.5001059079
20
0.0587164249
30
0.0000000000
10
4.5001095605
20
0.0598729148
30
0.0000000000
10
4.5001111490
20
0.0607989788
30
0.0000000000
10
4.5001115418
20
0.0613202580
30
0.0000000000
10
4.5001115975
20
0.0616788339
30
0.0000000000
10
4.5001115671
20
0.0619470513
30
0.0000000000
10
4.5001112809
20
0.0624399113
30
0.0000000000
10
4.5001097811
20
0.0634284732
30
0.0000000000
10
4.5001049911
20
0.0648394324
30
0.0000000000
10
4.5000916820
20
0.0670929041
30
0.0000000000
10
4.5000644706
20
0.0699036547
30
0.0000000000
10
4.4999983859
20
0.0743846902
30
0.0000000000
10
4.4998735642
20
0.0799617611
30
0.0000000000
10
4.4995839231
20
0.0888211473
30
0.0000000000
10
4.4990536148
20
0.0997995905
30
0.0000000000
10
4.4981440963
20
0.1128533055
30
0.0000000000
10
4.4969631733
20
0.1257504571
30
0.0000000000
10
4.4955108028
20
0.1384911266
30
0.0000000000
10
4.4932228034
20
0.1551944114
30
0.0000000000
10
4.4896901390
20
0.1757032377
30
0.0000000000
10
4.4826120352
20
0.2076089095
30
0.0000000000
10
4.4710488054
20
0.2461082392
30
0.0000000000
10
4.4526879089
20
0.2901005653
30
0.0000000000
10
4.4337245104
20
0.3246557797
30
0.0000000000
10
4.4164484204
20
0.3509105375
30
0.0000000000
10
4.4023958923
20
0.3699857987
30
0.0000000000
10
4.3872565212
20
0.3884306096
30
0.0000000000
10
4.3737741401
20
0.4032332775
30
0.0000000000
10
4.3624611094
20
0.4147522985
30
0.0000000000
10
4.3536792621
20
0.4232609433
30
0.0000000000
10
4.3446261614
20
0.4316126196
30
0.0000000000
10
4.3368717591
20
0.4384276066
30
0.0000000000
10
4.3313326786
20
0.4431240045
30
0.0000000000
10
4.3281272971
20
0.4457935489
30
0.0000000000
10
4.3257037420
20
0.4477880619
30
0.0000000000
10
4.3232632062
20
0.4497727490
30
0.0000000000
10
4.3212165298
20
0.4514176658
30
0.0000000000
10
4.3197767191
20
0.4525642967
30
0.0000000000
10
4.3190575623
20
0.4531349157
30
0.0000000000
10
4.3186656701
20
0.4534445214
30
0.0000000000
10
4.3183131392
20
0.4537265340
30
0.0000000000
10
4.3178917968
20
0.4540618441
30
0.0000000000
10
4.3172175805
20
0.4545977801
30
0.0000000000
10
4.3163738974
20
0.4552658432
30
0.0000000000
10
4.3153600996
20
0.4560649290
30
0.0000000000
10
4.3140069984
20
0.4571263978
30
0.0000000000
10
4.3116357948
20
0.4589733896
30
0.0000000000
10
4.3082345124
20
0.4615851945
30
0.0000000000
10
4.3041302814
20
0.4646768665
30
0.0000000000
10
4.2986355714
20
0.4687365490
30
0.0000000000
10
4.2917149116
20
0.4737018386
30
0.0000000000
10
4.2833202976
20
0.4794890310
30
0.0000000000
10
4.2748432864
20
0.4850997317
30
0.0000000000
10
4.2634436582
20
0.4923371721
30
0.0000000000
10
4.2489800839
20
0.5009492488
30
0.0000000000
10
4.2312756795
20
0.5105877722
30
0.0000000000
10
4.2132410518
20
0.5195195426
30
0.0000000000
10
4.1887367219
20
0.5304946926
30
0.0000000000
10
4.1572014102
20
0.5424693814
30
0.0000000000
10
4.1180815245
20
0.5539810155
30
0.0000000000
10
4.0845370731
20
0.5611739665
30
0.0000000000
10
4.0571092112
20
0.5655208191
30
0.0000000000
10
4.0361121792
20
0.5680898096
30
0.0000000000
10
4.0183975396
20
0.5696366372
30
0.0000000000
10
4.0040685183
20
0.5705238979
30
0.0000000000
10
3.9932049401
20
0.5710149686
30
0.0000000000
10
3.9840996540
20
0.5712766262
30
0.0000000000
10
3.9767751115
20
0.5713981586
30
0.0000000000
10
3.9726379716
20
0.5714335055
30
0.0000000000
10
3.9698735453
20
0.5714433346
30
0.0000000000
10
3.9679872671
20
0.5714462912
30
0.0000000000
10
3.9655949861
20
0.5714426207
30
0.0000000000
10
3.9626995568
20
0.5714256481
30
0.0000000000
10
3.9569309751
20
0.5713667913
30
0.0000000000
10
3.9483309454
20
0.5711854656
30
0.0000000000
10
3.9369378862
20
0.5707421573
30
0.0000000000
10
3.9219690994
20
0.5698873991
30
0.0000000000
10
3.9058112160
20
0.5685163915
30
0.0000000000
10
3.8934470294
20
0.5670627865
30
0.0000000000
10
3.8884701186
20
0.5664094123
30
0.0000000000
11
4.0828159996
21
-0.4175449966
31
0.0000000000
11
4.1618344511
21
-0.4042469265
31
0.0000000000
11
4.2337234457
21
-0.3803844309
31
0.0000000000
11
4.2984831579
21
-0.3459574930
31
0.0000000000
11
4.3281895331
21
-0.3247823581
31
0.0000000000
11
4.3561135877
21
-0.3009661126
31
0.0000000000
11
4.3694072448
21
-0.2880675734
31
0.0000000000
11
4.3822553217
21
-0.2745087566
31
0.0000000000
11
4.3945971289
21
-0.2603439840
31
0.0000000000
11
4.4062651633
21
-0.2457231845
31
0.0000000000
11
4.4172497145
21
-0.2306550495
31
0.0000000000
11
4.4275507825
21
-0.2151395790
31
0.0000000000
11
4.4461024689
21
-0.1827666315
31
0.0000000000
11
4.4619202226
21
-0.1486043422
31
0.0000000000
11
4.4750040435
21
-0.1126527108
31
0.0000000000
11
4.4805207292
21
-0.0940058919
31
0.0000000000
11
4.4853539318
21
-0.0749117376
31
0.0000000000
11
4.4895036511
21
-0.0553702477
31
0.0000000000
11
4.4929698872
21
-0.0353814224
31
0.0000000000
11
4.4957526402
21
-0.0149452616
31
0.0000000000
11
4.4978519100
21
0.0059382348
31
0.0000000000
11
4.4986452387
21
0.0165477337
31
0.0000000000
11
4.4992676966
21
0.0272690665
31
0.0000000000
11
4.4995148490
21
0.0326716707
31
0.0000000000
11
4.4997192837
21
0.0381022332
31
0.0000000000
11
4.4998810007
21
0.0435607543
31
0.0000000000
11
4.5000000000
21
0.0490472338
31
0.0000000000
11
4.5000434805
21
0.0518009580
31
0.0000000000
11
4.5000762816
21
0.0545616718
31
0.0000000000
11
4.5000984033
21
0.0573293752
31
0.0000000000
11
4.5001054593
21
0.0587158480
31
0.0000000000
11
4.5001098455
21
0.0601040683
31
0.0000000000
11
4.5001110374
21
0.0607988336
31
0.0000000000
11
4.5001115618
21
0.0614940359
31
0.0000000000
11
4.5001115887
21
0.0616679047
31
0.0000000000
11
4.5001115648
21
0.0618745610
31
0.0000000000
11
4.5001113187
21
0.0622986882
31
0.0000000000
11
4.5001100319
21
0.0631464837
31
0.0000000000
11
4.5001042790
21
0.0648402385
31
0.0000000000
11
4.5000942870
21
0.0665315451
31
0.0000000000
11
4.5000615860
21
0.0699068137
31
0.0000000000
11
4.5000119290
21
0.0732722895
31
0.0000000000
11
4.4998617467
21
0.0799738629
31
0.0000000000
11
4.4996437401
21
0.0866362651
31
0.0000000000
11
4.4990042543
21
0.0998435564
31
0.0000000000
11
4.4980934714
21
0.1128941632
31
0.0000000000
11
4.4969113915
21
0.1257880857
31
0.0000000000
11
4.4954580146
21
0.1385253238
31
0.0000000000
11
4.4937333407
21
0.1511058775
31
0.0000000000
11
4.4894701017
21
0.1757969319
31
0.0000000000
11
4.4841216747
21
0.1998612487
31
0.0000000000
11
4.4701692563
21
0.2461096699
31
0.0000000000
11
4.4518760856
21
0.2898511410
31
0.0000000000
11
4.4292421624
21
0.3310856622
31
0.0000000000
11
4.4162974187
21
0.3507628165
31
0.0000000000
11
4.4022674869
21
0.3698132333
31
0.0000000000
11
4.3871523670
21
0.3882369127
31
0.0000000000
11
4.3709520590
21
0.4060338545
31
0.0000000000
11
4.3624449595
21
0.4146972988
31
0.0000000000
11
4.3536665629
21
0.4232040588
31
0.0000000000
11
4.3446168693
21
0.4315541344
31
0.0000000000
11
4.3352958787
21
0.4397475256
31
0.0000000000
11
4.3305336470
21
0.4437854646
31
0.0000000000
11
4.3281270971
21
0.4457897449
31
0.0000000000
11
4.3257035911
21
0.4477842325
31
0.0000000000
11
4.3232631290
21
0.4497689273
31
0.0000000000
11
4.3208057109
21
0.4517438293
31
0.0000000000
11
4.3195706433
21
0.4527276080
31
0.0000000000
11
4.3189515199
21
0.4532185793
31
0.0000000000
11
4.3186497766
21
0.4534576190
31
0.0000000000
11
4.3183971691
21
0.4536591963
31
0.0000000000
11
4.3178917130
21
0.4540618339
31
0.0000000000
11
4.3173859354
21
0.4544637821
31
0.0000000000
11
4.3163734159
21
0.4552656104
31
0.0000000000
11
4.3153596107
21
0.4560646813
31
0.0000000000
11
4.3143445196
21
0.4568609947
31
0.0000000000
11
4.3123104801
21
0.4584453492
31
0.0000000000
11
4.3082269714
21
0.4615809688
31
0.0000000000
11
4.3041228900
21
0.4646724690
31
0.0000000000
11
4.2999982359
21
0.4677198500
31
0.0000000000
11
4.2916872094
21
0.4736822542
31
0.0000000000
11
4.2832938919
21
0.4794681813
31
0.0000000000
11
4.2748182834
21
0.4850776313
31
0.0000000000
11
4.2662603839
21
0.4905106043
31
0.0000000000
11
4.2488977119
21
0.5008471189
31
0.0000000000
11
4.2312058759
21
0.5104777253
31
0.0000000000
11
4.2131848759
21
0.5194024233
31
0.0000000000
11
4.1948347119
21
0.5276212130
31
0.0000000000
11
4.1571468921
21
0.5419410674
31
0.0000000000
11
4.1181424162
21
0.5534372886
31
0.0000000000
11
4.0778212844
21
0.5621098765
31
0.0000000000
11
4.0571669725
21
0.5653873079
31
0.0000000000
11
4.0361834966
21
0.5679588311
31
0.0000000000
11
4.0148708568
21
0.5698244459
31
0.0000000000
11
4.0040911003
21
0.5704925377
31
0.0000000000
11
3.9932290529
21
0.5709841525
31
0.0000000000
11
3.9822847145
21
0.5712992901
31
0.0000000000
11
3.9767816862
21
0.5713906800
31
0.0000000000
11
3.9712580851
21
0.5714379507
31
0.0000000000
11
3.9698739703
21
0.5714428747
31
0.0000000000
11
3.9684885698
21
0.5714450413
31
0.0000000000
11
3.9655992611
21
0.5714405480
31
0.0000000000
11
3.9626971963
21
0.5714235321
31
0.0000000000
11
3.9598023679
21
0.5713939781
31
0.0000000000
11
3.9482954183
21
0.5711503819
31
0.0000000000
11
3.9369042513
21
0.5707061771
31
0.0000000000
11
3.9256288669
21
0.5700613637
31
0.0000000000
11
3.9034254458
21
0.5681699109
31
0.0000000000
11
3.8884701186
21
0.5664094123
31
0.0000000000
0
SPLINE
5
2C5
100
AcDbEntity
8
0
100
AcDbSpline
62
7
6
CONTINUOUS
70
0
71
3
72
21
73
17
74
15
42
0.0000001000
43
0.0000001000
44
0.0000000001
12
0.5213750800
22
-0.2582302064
32
0.0000000000
13
0.2474581906
23
-0.5265731241
33
0.0000000000
40
0.0000000000
40
0.0000000000
40
0.0000000000
40
0.0000000000
40
0.0718611198
40
0.1486220500
40
0.2308036746
40
0.3188309469
40
0.3651520592
40
0.4130585411
40
0.4376173571
40
0.4625080870
40
0.5125365547
40
0.5628805325
40
0.6135819019
40
0.7162099856
40
0.8560570592
40
1.0000000000
40
1.0000000000
40
1.0000000000
40
1.0000000000
10
2.9748970036
20
-2.1675124923
30
0.0000000000
10
2.9873858693
20
-2.1736980628
30
0.0000000000
10
3.0125673428
20
-2.1878272980
30
0.0000000000
10
3.0495714141
20
-2.2130958088
30
0.0000000000
10
3.0869755458
20
-2.2430796996
30
0.0000000000
10
3.1179378253
20
-2.2714913657
30
0.0000000000
10
3.1429338375
20
-2.2964874906
30
0.0000000000
10
3.1587750983
20
-2.3132183858
30
0.0000000000
10
3.1714948000
20
-2.3271727101
30
0.0000000000
10
3.1843134756
20
-2.3415919232
30
0.0000000000
10
3.2000451158
20
-2.3601088872
30
0.0000000000
10
3.2183646106
20
-2.3829798464
30
0.0000000000
10
3.2421673380
20
-2.4145089447
30
0.0000000000
10
3.2744837698
20
-2.4613285478
30
0.0000000000
10
3.3130606723
20
-2.5256519197
30
0.0000000000
10
3.3380678070
20
-2.5747345053
30
0.0000000000
10
3.3499410936
20
-2.6000000000
30
0.0000000000
11
2.9748970036
21
-2.1675124923
31
0.0000000000
11
3.0114207595
21
-2.1878622517
31
0.0000000000
11
3.0483733274
21
-2.2129444839
31
0.0000000000
11
3.0857545512
21
-2.2427591114
31
0.0000000000
11
3.1235644309
21
-2.2773061343
31
0.0000000000
11
3.1426301166
21
-2.2963542941
31
0.0000000000
11
3.1618029664
21
-2.3165855526
31
0.0000000000
11
3.1714295777
21
-2.3271448440
31
0.0000000000
11
3.1810471951
21
-2.3379720208
31
0.0000000000
11
3.1998975992
21
-2.3601511379
31
0.0000000000
11
3.2182110391
21
-2.3830113471
31
0.0000000000
11
3.2359875146
21
-2.4065526482
31
0.0000000000
11
3.2699295729
21
-2.4556785264
31
0.0000000000
11
3.3118445396
21
-2.5254176029
31
0.0000000000
11
3.3499410936
21
-2.6000000000
31
0.0000000000
0
SPLINE
5
2C6
100
AcDbEntity
8
0
100
AcDbSpline
62
7
6
CONTINUOUS
70
0
71
3
72
23
73
19
74
17
42
0.0000001000
43
0.0000001000
44
0.0000000001
12
-0.1490952664
22
0.4043573927
32
0.0000000000
13
-0.2972889412
23
0.3120153599
33
0.0000000000
40
0.0000000000
40
0.0000000000
40
0.0000000000
40
0.0000000000
40
0.0820461954
40
0.1693811448
40
0.2621279134
40
0.3603892347
40
0.4116165784
40
0.4377585145
40
0.4642540322
40
0.4911042039
40
0.5181502427
40
0.5712372861
40
0.6228903751
40
0.6731250824
40
0.7219583379
40
0.7694085715
40
0.8893237394
40
1.0000000000
40
1.0000000000
40
1.0000000000
40
1.0000000000
10
3.5272590433
20
-2.6000000000
30
0.0000000000
10
3.5231814768
20
-2.5889413381
30
0.0000000000
10
3.5142313160
20
-2.5663050760
30
0.0000000000
10
3.4990031806
20
-2.5318563968
30
0.0000000000
10
3.4815588909
20
-2.4958682623
30
0.0000000000
10
3.4654077094
20
-2.4650388028
30
0.0000000000
10
3.4532400613
20
-2.4429355290
30
0.0000000000
10
3.4459158172
20
-2.4299359154
30
0.0000000000
10
3.4402465324
20
-2.4200236863
30
0.0000000000
10
3.4344501100
20
-2.4100348165
30
0.0000000000
10
3.4266547576
20
-2.3967895783
30
0.0000000000
10
3.4168538867
20
-2.3805909312
30
0.0000000000
10
3.4050105497
20
-2.3617380693
30
0.0000000000
10
3.3931666584
20
-2.3436111873
30
0.0000000000
10
3.3813227990
20
-2.3262096108
30
0.0000000000
10
3.3633369757
20
-2.3008874847
30
0.0000000000
10
3.3389822816
20
-2.2691987454
30
0.0000000000
10
3.3170926526
20
-2.2442908992
30
0.0000000000
10
3.3061250432
20
-2.2327800014
30
0.0000000000
11
3.5272590433
21
-2.6000000000
31
0.0000000000
11
3.5143019730
21
-2.5671001628
31
0.0000000000
11
3.4991236906
21
-2.5326576264
31
0.0000000000
11
3.4817241962
21
-2.4966723908
31
0.0000000000
11
3.4621034897
21
-2.4591444560
31
0.0000000000
11
3.4514601819
21
-2.4398019764
31
0.0000000000
11
3.4459302894
21
-2.4299861085
31
0.0000000000
11
3.4402615711
21
-2.4200738220
31
0.0000000000
11
3.4344540271
21
-2.4100651167
31
0.0000000000
11
3.4285385076
21
-2.4000217568
31
0.0000000000
11
3.4166920437
21
-2.3804487129
31
0.0000000000
11
3.4048455805
21
-2.3616017464
31
0.0000000000
11
3.3929991178
21
-2.3434808573
31
0.0000000000
11
3.3811526556
21
-2.3260860456
31
0.0000000000
11
3.3693061940
21
-2.3094173112
31
0.0000000000
11
3.3377156325
21
-2.2685170646
31
0.0000000000
11
3.3061250432
21
-2.2327800014
31
0.0000000000
0
SPLINE
5
2C7
100
AcDbEntity
8
0
100
AcDbSpline
62
7
6
CONTINUOUS
70
0
71
3
72
26
73
22
74
20
42
0.0000001000
43
0.0000001000
44
0.0000000001
12
0.0000000000
22
-1.2561051181
32
0.0000000000
13
1.2561051181
23
0.0000000000
33
0.0000000000
40
0.0000000000
40
0.0000000000
40
0.0000000000
40
0.0000000000
40
0.0525433977
40
0.1052619171
40
0.1579537660
40
0.2104691993
40
0.2630825541
40
0.3158194650
40
0.3684931638
40
0.4209854985
40
0.4736299366
40
0.5263657599
40
0.5790092527
40
0.6315016187
40
0.6841764472
40
0.7369131777
40
0.7895255701
40
0.8420413369
40
0.8947352403
40
0.9474549596
40
1.0000000000
40
1.0000000000
40
1.0000000000
40
1.0000000000
10
-11.1000000000
20
-21.0501218439
30
0.0000000000
10
-11.1000000000
20
-21.0721218541
30
0.0000000000
10
-11.0981801928
20
-21.1162167994
30
0.0000000000
10
-11.0899969462
20
-21.1819166309
30
0.0000000000
10
-11.0764115657
20
-21.2467079906
30
0.0000000000
10
-11.0575381577
20
-21.3101130715
30
0.0000000000
10
-11.0334928187
20
-21.3717638585
30
0.0000000000
10
-11.0044049284
20
-21.4312761839
30
0.0000000000
10
-10.9705209095
20
-21.4881352924
30
0.0000000000
10
-10.9320836666
20
-21.5419725514
30
0.0000000000
10
-10.8893190712
20
-21.5924758039
30
0.0000000000
10
-10.8424800691
20
-21.6393151229
30
0.0000000000
10
-10.7919774323
20
-21.6820798478
30
0.0000000000
10
-10.7381404160
20
-21.7205175862
30
0.0000000000
10
-10.6812811991
20
-21.7544022333
30
0.0000000000
10
-10.6217690701
20
-21.7834905116
30
0.0000000000
10
-10.5601187815
20
-21.8075361865
30
0.0000000000
10
-10.4967132773
20
-21.8264102699
30
0.0000000000
10
-10.4319205218
20
-21.8399963544
30
0.0000000000
10
-10.3662186795
20
-21.8481800866
30
0.0000000000
10
-10.3221225419
20
-21.8500000000
30
0.0000000000
10
-10.3001218439
20
-21.8500000000
30
0.0000000000
11
-11.1000000000
21
-21.0501218439
31
0.0000000000
11
-11.0972778435
21
-21.1160657134
31
0.0000000000
11
-11.0890934289
21
-21.1817779956
31
0.0000000000
11
-11.0755106353
21
-21.2465557745
31
0.0000000000
11
-11.0566913202
21
-21.3097792038
31
0.0000000000
11
-11.0326771838
21
-21.3713497514
31
0.0000000000
11
-11.0035881774
21
-21.4308642748
31
0.0000000000
11
-10.9697174797
21
-21.4877009828
31
0.0000000000
11
-10.9314048483
21
-21.5413636692
31
0.0000000000
11
-10.8886725496
21
-21.5918287454
31
0.0000000000
11
-10.8418327262
21
-21.6386688856
31
0.0000000000
11
-10.7913688770
21
-21.6814007960
31
0.0000000000
11
-10.7377064738
21
-21.7197138916
31
0.0000000000
11
-10.6808687944
21
-21.7535857314
31
0.0000000000
11
-10.6213546658
21
-21.7826750291
31
0.0000000000
11
-10.5597854235
21
-21.8066891858
31
0.0000000000
11
-10.4965617425
21
-21.8255091237
31
0.0000000000
11
-10.4317815205
21
-21.8390928409
31
0.0000000000
11
-10.3660677715
21
-21.8472776733
31
0.0000000000
11
-10.3001218439
21
-21.8500000000
31
0.0000000000
0
SPLINE
5
2C8
100
AcDbEntity
8
0
100
AcDbSpline
62
7
6
CONTINUOUS
70
0
71
3
72
26
73
22
74
20
42
0.0000001000
43
0.0000001000
44
0.0000000001
12
-1.2561051181
22
0.0000000000
32
0.0000000000
13
0.0000000000
23
-1.2561051181
33
0.0000000000
40
0.0000000000
40
0.0000000000
40
0.0000000000
40
0.0000000000
40
0.0525450404
40
0.1052647597
40
0.1579586631
40
0.2104744299
40
0.2630868223
40
0.3158235528
40
0.3684983813
40
0.4209907473
40
0.4736342401
40
0.5263700634
40
0.5790145015
40
0.6315068362
40
0.6841805350
40
0.7369174459
40
0.7895308007
40
0.8420462340
40
0.8947380829
40
0.9474566023
40
1.0000000000
40
1.0000000000
40
1.0000000000
40
1.0000000000
10
-10.3001218439
20
21.8500000000
30
0.0000000000
10
-10.3221225419
20
21.8500000000
30
0.0000000000
10
-10.3662186795
20
21.8481800866
30
0.0000000000
10
-10.4319205218
20
21.8399963544
30
0.0000000000
10
-10.4967132773
20
21.8264102699
30
0.0000000000
10
-10.5601187815
20
21.8075361865
30
0.0000000000
10
-10.6217690701
20
21.7834905116
30
0.0000000000
10
-10.6812811991
20
21.7544022333
30
0.0000000000
10
-10.7381404160
20
21.7205175862
30
0.0000000000
10
-10.7919774323
20
21.6820798478
30
0.0000000000
10
-10.8424800691
20
21.6393151229
30
0.0000000000
10
-10.8893190712
20
21.5924758039
30
0.0000000000
10
-10.9320836666
20
21.5419725514
30
0.0000000000
10
-10.9705209095
20
21.4881352924
30
0.0000000000
10
-11.0044049284
20
21.4312761839
30
0.0000000000
10
-11.0334928187
20
21.3717638585
30
0.0000000000
10
-11.0575381577
20
21.3101130715
30
0.0000000000
10
-11.0764115657
20
21.2467079906
30
0.0000000000
10
-11.0899969462
20
21.1819166309
30
0.0000000000
10
-11.0981801928
20
21.1162167994
30
0.0000000000
10
-11.1000000000
20
21.0721218541
30
0.0000000000
10
-11.1000000000
20
21.0501218439
30
0.0000000000
11
-10.3001218439
21
21.8500000000
31
0.0000000000
11
-10.3660677715
21
21.8472776733
31
0.0000000000
11
-10.4317815205
21
21.8390928409
31
0.0000000000
11
-10.4965617425
21
21.8255091237
31
0.0000000000
11
-10.5597854235
21
21.8066891858
31
0.0000000000
11
-10.6213546658
21
21.7826750291
31
0.0000000000
11
-10.6808687944
21
21.7535857314
31
0.0000000000
11
-10.7377064738
21
21.7197138916
31
0.0000000000
11
-10.7913688770
21
21.6814007960
31
0.0000000000
11
-10.8418327262
21
21.6386688856
31
0.0000000000
11
-10.8886725496
21
21.5918287454
31
0.0000000000
11
-10.9314048483
21
21.5413636692
31
0.0000000000
11
-10.9697174797
21
21.4877009828
31
0.0000000000
11
-11.0035881774
21
21.4308642748
31
0.0000000000
11
-11.0326771838
21
21.3713497514
31
0.0000000000
11
-11.0566913202
21
21.3097792038
31
0.0000000000
11
-11.0755106353
21
21.2465557745
31
0.0000000000
11
-11.0890934289
21
21.1817779956
31
0.0000000000
11
-11.0972778435
21
21.1160657134
31
0.0000000000
11
-11.1000000000
21
21.0501218439
31
0.0000000000
0
SPLINE
5
2C9
100
AcDbEntity
8
0
100
AcDbSpline
62
7
6
CONTINUOUS
70
0
71
3
72
26
73
22
74
20
42
0.0000001000
43
0.0000001000
44
0.0000000001
12
1.2561051181
22
0.0000000000
32
0.0000000000
13
-0.0000000000
23
1.2561051181
33
0.0000000000
40
0.0000000000
40
0.0000000000
40
0.0000000000
40
0.0000000000
40
0.0525450404
40
0.1052647597
40
0.1579586631
40
0.2104744299
40
0.2630868223
40
0.3158235528
40
0.3684983813
40
0.4209907473
40
0.4736342401
40
0.5263700634
40
0.5790145015
40
0.6315068362
40
0.6841805350
40
0.7369174459
40
0.7895308007
40
0.8420462340
40
0.8947380829
40
0.9474566023
40
1.0000000000
40
1.0000000000
40
1.0000000000
40
1.0000000000
10
10.3001218439
20
-21.8500000000
30
0.0000000000
10
10.3221225419
20
-21.8500000000
30
0.0000000000
10
10.3662186795
20
-21.8481800866
30
0.0000000000
10
10.4319205218
20
-21.8399963544
30
0.0000000000
10
10.4967132773
20
-21.8264102699
30
0.0000000000
10
10.5601187815
20
-21.8075361865
30
0.0000000000
10
10.6217690701
20
-21.7834905116
30
0.0000000000
10
10.6812811991
20
-21.7544022333
30
0.0000000000
10
10.7381404160
20
-21.7205175862
30
0.0000000000
10
10.7919774323
20
-21.6820798478
30
0.0000000000
10
10.8424800691
20
-21.6393151229
30
0.0000000000
10
10.8893190712
20
-21.5924758039
30
0.0000000000
10
10.9320836666
20
-21.5419725514
30
0.0000000000
10
10.9705209095
20
-21.4881352924
30
0.0000000000
10
11.0044049284
20
-21.4312761839
30
0.0000000000
10
11.0334928187
20
-21.3717638585
30
0.0000000000
10
11.0575381577
20
-21.3101130715
30
0.0000000000
10
11.0764115657
20
-21.2467079906
30
0.0000000000
10
11.0899969462
20
-21.1819166309
30
0.0000000000
10
11.0981801928
20
-21.1162167994
30
0.0000000000
10
11.1000000000
20
-21.0721218541
30
0.0000000000
10
11.1000000000
20
-21.0501218439
30
0.0000000000
11
10.3001218439
21
-21.8500000000
31
0.0000000000
11
10.3660677715
21
-21.8472776733
31
0.0000000000
11
10.4317815205
21
-21.8390928409
31
0.0000000000
11
10.4965617425
21
-21.8255091237
31
0.0000000000
11
10.5597854235
21
-21.8066891858
31
0.0000000000
11
10.6213546658
21
-21.7826750291
31
0.0000000000
11
10.6808687944
21
-21.7535857314
31
0.0000000000
11
10.7377064738
21
-21.7197138916
31
0.0000000000
11
10.7913688770
21
-21.6814007960
31
0.0000000000
11
10.8418327262
21
-21.6386688856
31
0.0000000000
11
10.8886725496
21
-21.5918287454
31
0.0000000000
11
10.9314048483
21
-21.5413636692
31
0.0000000000
11
10.9697174797
21
-21.4877009828
31
0.0000000000
11
11.0035881774
21
-21.4308642748
31
0.0000000000
11
11.0326771838
21
-21.3713497514
31
0.0000000000
11
11.0566913202
21
-21.3097792038
31
0.0000000000
11
11.0755106353
21
-21.2465557745
31
0.0000000000
11
11.0890934289
21
-21.1817779956
31
0.0000000000
11
11.0972778435
21
-21.1160657134
31
0.0000000000
11
11.1000000000
21
-21.0501218439
31
0.0000000000
0
SPLINE
5
2CA
100
AcDbEntity
8
0
100
AcDbSpline
62
7
6
CONTINUOUS
70
0
71
3
72
26
73
22
74
20
42
0.0000001000
43
0.0000001000
44
0.0000000001
12
0.0000000000
22
1.2561051181
32
0.0000000000
13
-1.2561051181
23
0.0000000000
33
0.0000000000
40
0.0000000000
40
0.0000000000
40
0.0000000000
40
0.0000000000
40
0.0525433977
40
0.1052619171
40
0.1579537660
40
0.2104691993
40
0.2630825541
40
0.3158194650
40
0.3684931638
40
0.4209854985
40
0.4736299366
40
0.5263657599
40
0.5790092527
40
0.6315016187
40
0.6841764472
40
0.7369131777
40
0.7895255701
40
0.8420413369
40
0.8947352403
40
0.9474549596
40
1.0000000000
40
1.0000000000
40
1.0000000000
40
1.0000000000
10
11.1000000000
20
21.0501218439
30
0.0000000000
10
11.1000000000
20
21.0721218541
30
0.0000000000
10
11.0981801928
20
21.1162167994
30
0.0000000000
10
11.0899969462
20
21.1819166309
30
0.0000000000
10
11.0764115657
20
21.2467079906
30
0.0000000000
10
11.0575381577
20
21.3101130715
30
0.0000000000
10
11.0334928187
20
21.3717638585
30
0.0000000000
10
11.0044049284
20
21.4312761839
30
0.0000000000
10
10.9705209095
20
21.4881352924
30
0.0000000000
10
10.9320836666
20
21.5419725514
30
0.0000000000
10
10.8893190712
20
21.5924758039
30
0.0000000000
10
10.8424800691
20
21.6393151229
30
0.0000000000
10
10.7919774323
20
21.6820798478
30
0.0000000000
10
10.7381404160
20
21.7205175862
30
0.0000000000
10
10.6812811991
20
21.7544022333
30
0.0000000000
10
10.6217690701
20
21.7834905116
30
0.0000000000
10
10.5601187815
20
21.8075361865
30
0.0000000000
10
10.4967132773
20
21.8264102699
30
0.0000000000
10
10.4319205218
20
21.8399963544
30
0.0000000000
10
10.3662186795
20
21.8481800866
30
0.0000000000
10
10.3221225419
20
21.8500000000
30
0.0000000000
10
10.3001218439
20
21.8500000000
30
0.0000000000
11
11.1000000000
21
21.0501218439
31
0.0000000000
11
11.0972778435
21
21.1160657134
31
0.0000000000
11
11.0890934289
21
21.1817779956
31
0.0000000000
11
11.0755106353
21
21.2465557745
31
0.0000000000
11
11.0566913202
21
21.3097792038
31
0.0000000000
11
11.0326771838
21
21.3713497514
31
0.0000000000
11
11.0035881774
21
21.4308642748
31
0.0000000000
11
10.9697174797
21
21.4877009828
31
0.0000000000
11
10.9314048483
21
21.5413636692
31
0.0000000000
11
10.8886725496
21
21.5918287454
31
0.0000000000
11
10.8418327262
21
21.6386688856
31
0.0000000000
11
10.7913688770
21
21.6814007960
31
0.0000000000
11
10.7377064738
21
21.7197138916
31
0.0000000000
11
10.6808687944
21
21.7535857314
31
0.0000000000
11
10.6213546658
21
21.7826750291
31
0.0000000000
11
10.5597854235
21
21.8066891858
31
0.0000000000
11
10.4965617425
21
21.8255091237
31
0.0000000000
11
10.4317815205
21
21.8390928409
31
0.0000000000
11
10.3660677715
21
21.8472776733
31
0.0000000000
11
10.3001218439
21
21.8500000000
31
0.0000000000
0
SPLINE
5
2CB
100
AcDbEntity
8
0
100
AcDbSpline
62
7
6
CONTINUOUS
70
0
71
3
72
69
73
65
74
63
42
0.0000001000
43
0.0000001000
44
0.0000000001
12
0.4188816548
22
-0.0694287087
32
0.0000000000
13
-0.0463916200
23
-0.4220154997
33
0.0000000000
40
0.0000000000
40
0.0000000000
40
0.0000000000
40
0.0000000000
40
0.0055784736
40
0.0348352111
40
0.0634789283
40
0.0915896256
40
0.1465319574
40
0.2004066289
40
0.2539807594
40
0.3080342655
40
0.3354911762
40
0.3633490293
40
0.3916947686
40
0.4204810330
40
0.4776999413
40
0.5344553476
40
0.5909840159
40
0.6475255587
40
0.7043194258
40
0.7328886527
40
0.7616091058
40
0.7905093561
40
0.8196174452
40
0.8489608189
40
0.8637295474
40
0.8785670842
40
0.8860127195
40
0.8934767672
40
0.9009596249
40
0.9084616869
40
0.9159833448
40
0.9197516498
40
0.9235249991
40
0.9254135811
40
0.9273034423
40
0.9282488545
40
0.9291945887
40
0.9296675768
40
0.9299041011
40
0.9301997344
40
0.9304724556
40
0.9308374598
40
0.9312040370
40
0.9315721875
40
0.9319419120
40
0.9323132111
40
0.9330605344
40
0.9338141617
40
0.9345740968
40
0.9353403434
40
0.9368917854
40
0.9384685170
40
0.9400705654
40
0.9416979564
40
0.9433507147
40
0.9467324212
40
0.9502158670
40
0.9538012134
40
0.9574886081
40
0.9651700456
40
0.9732611791
40
0.9817628332
40
0.9906757188
40
1.0000000000
40
1.0000000000
40
1.0000000000
40
1.0000000000
10
3.4062974241
20
1.4564990347
30
0.0000000000
10
3.4070763309
20
1.4563699327
30
0.0000000000
10
3.4119365635
20
1.4555413356
30
0.0000000000
10
3.4207482324
20
1.4537733707
30
0.0000000000
10
3.4325484213
20
1.4507624345
30
0.0000000000
10
3.4476380246
20
1.4460330266
30
0.0000000000
10
3.4656254662
20
1.4387018315
30
0.0000000000
10
3.4857828664
20
1.4275509646
30
0.0000000000
10
3.5043412272
20
1.4141155566
30
0.0000000000
10
3.5183955857
20
1.4010845560
30
0.0000000000
10
3.5287906229
20
1.3896078771
30
0.0000000000
10
3.5362320619
20
1.3803910017
30
0.0000000000
10
3.5432659484
20
1.3706265300
30
0.0000000000
10
3.5520168651
20
1.3570091522
30
0.0000000000
10
3.5621872430
20
1.3395371410
30
0.0000000000
10
3.5729463076
20
1.3179197864
30
0.0000000000
10
3.5822462360
20
1.2957400923
30
0.0000000000
10
3.5900788855
20
1.2729951931
30
0.0000000000
10
3.5953747447
20
1.2536080995
30
0.0000000000
10
3.5988774765
20
1.2378453617
30
0.0000000000
10
3.6011448370
20
1.2258582523
30
0.0000000000
10
3.6030469088
20
1.2137307430
30
0.0000000000
10
3.6045837788
20
1.2014627787
30
0.0000000000
10
3.6055580439
20
1.1911448912
30
0.0000000000
10
3.6061558994
20
1.1828235901
30
0.0000000000
10
3.6064540030
20
1.1775882948
30
0.0000000000
10
3.6066470203
20
1.1733828888
30
0.0000000000
10
3.6067691543
20
1.1702162380
30
0.0000000000
10
3.6068684839
20
1.1670408027
30
0.0000000000
10
3.6069450094
20
1.1638565811
30
0.0000000000
10
3.6069897476
20
1.1611974994
30
0.0000000000
10
3.6070141583
20
1.1590658870
30
0.0000000000
10
3.6070246710
20
1.1577313653
30
0.0000000000
10
3.6070302335
20
1.1566626554
30
0.0000000000
10
3.6070325232
20
1.1559941424
30
0.0000000000
10
3.6070336427
20
1.1554590582
30
0.0000000000
10
3.6070340457
20
1.1551244879
30
0.0000000000
10
3.6070341715
20
1.1548902387
30
0.0000000000
10
3.6070342014
20
1.1547479912
30
0.0000000000
10
3.6070341941
20
1.1546340854
30
0.0000000000
10
3.6070340437
20
1.1545019972
30
0.0000000000
10
3.6070337350
20
1.1543598694
30
0.0000000000
10
3.6070332080
20
1.1542042370
30
0.0000000000
10
3.6070324925
20
1.1540479374
30
0.0000000000
10
3.6070315881
20
1.1538909705
30
0.0000000000
10
3.6070301272
20
1.1536803458
30
0.0000000000
10
3.6070278259
20
1.1534153961
30
0.0000000000
10
3.6070243145
20
1.1530954563
30
0.0000000000
10
3.6070200476
20
1.1527728474
30
0.0000000000
10
3.6070133233
20
1.1523373560
30
0.0000000000
10
3.6070030071
20
1.1517863153
30
0.0000000000
10
3.6069876561
20
1.1511170721
30
0.0000000000
10
3.6069692833
20
1.1504371528
30
0.0000000000
10
3.6069478886
20
1.1497465574
30
0.0000000000
10
3.6069150825
20
1.1488043456
30
0.0000000000
10
3.6068663715
20
1.1475998703
30
0.0000000000
10
3.6067962731
20
1.1461225750
30
0.0000000000
10
3.6067140933
20
1.1446025766
30
0.0000000000
10
3.6065866627
20
1.1424901012
30
0.0000000000
10
3.6063962280
20
1.1397426695
30
0.0000000000
10
3.6061224526
20
1.1363182710
30
0.0000000000
10
3.6058003950
20
1.1327230726
30
0.0000000000
10
3.6054300556
20
1.1289571392
30
0.0000000000
10
3.6051571345
20
1.1263906708
30
0.0000000000
10
3.6050129450
20
1.1250790071
30
0.0000000000
11
3.4062974241
21
1.4564990347
31
0.0000000000
11
3.4086323232
21
1.4561009200
31
0.0000000000
11
3.4208093963
21
1.4536505212
31
0.0000000000
11
3.4325911997
21
1.4506377358
31
0.0000000000
11
3.4439777335
21
1.4470625637
31
0.0000000000
11
3.4655649921
21
1.4382250599
31
0.0000000000
11
3.4855711722
21
1.4271380096
31
0.0000000000
11
3.5039962737
21
1.4138014128
31
0.0000000000
11
3.5208402967
21
1.3982152697
31
0.0000000000
11
3.5286694037
21
1.3895786182
31
0.0000000000
11
3.5361032411
21
1.3803795801
31
0.0000000000
11
3.5431418088
21
1.3706181553
31
0.0000000000
11
3.5497900735
21
1.3603632077
31
0.0000000000
11
3.5619864673
21
1.3393540502
31
0.0000000000
11
3.5727234635
21
1.3177825055
31
0.0000000000
11
3.5820010622
21
1.2956485735
31
0.0000000000
11
3.5898192633
21
1.2729522543
31
0.0000000000
11
3.5961780669
21
1.2496935477
31
0.0000000000
11
3.5988101946
21
1.2378532993
31
0.0000000000
11
3.6010774730
21
1.2258724539
31
0.0000000000
11
3.6029799019
21
1.2137510118
31
0.0000000000
11
3.6045174815
21
1.2014889729
31
0.0000000000
11
3.6056902116
21
1.1890863371
31
0.0000000000
11
3.6061397582
21
1.1828322954
31
0.0000000000
11
3.6064980924
21
1.1765431045
31
0.0000000000
11
3.6066430549
21
1.1733853281
31
0.0000000000
11
3.6067652143
21
1.1702187644
31
0.0000000000
11
3.6068645706
21
1.1670434134
31
0.0000000000
11
3.6069411238
21
1.1638592751
31
0.0000000000
11
3.6069948740
21
1.1606663495
31
0.0000000000
11
3.6070131979
21
1.1590665914
31
0.0000000000
11
3.6070258210
21
1.1574646366
31
0.0000000000
11
3.6070299948
21
1.1566628353
31
0.0000000000
11
3.6070327434
21
1.1558604849
31
0.0000000000
11
3.6070335832
21
1.1554591037
31
0.0000000000
11
3.6070340668
21
1.1550575852
31
0.0000000000
11
3.6070341749
21
1.1548567745
31
0.0000000000
11
3.6070341956
21
1.1547563563
31
0.0000000000
11
3.6070341705
21
1.1546308429
31
0.0000000000
11
3.6070340415
21
1.1545150570
31
0.0000000000
11
3.6070337042
21
1.1543600921
31
0.0000000000
11
3.6070331779
21
1.1542044598
31
0.0000000000
11
3.6070324628
21
1.1540481603
31
0.0000000000
11
3.6070315587
21
1.1538911935
31
0.0000000000
11
3.6070304657
21
1.1537335594
31
0.0000000000
11
3.6070277131
21
1.1534162894
31
0.0000000000
11
3.6070242048
21
1.1530963504
31
0.0000000000
11
3.6070199408
21
1.1527737422
31
0.0000000000
11
3.6070149213
21
1.1524484650
31
0.0000000000
11
3.6070026152
21
1.1517899033
31
0.0000000000
11
3.6069872867
21
1.1511206653
31
0.0000000000
11
3.6069689356
21
1.1504407508
31
0.0000000000
11
3.6069475619
21
1.1497501601
31
0.0000000000
11
3.6069231658
21
1.1490488930
31
0.0000000000
11
3.6068653058
21
1.1476143297
31
0.0000000000
11
3.6067953557
21
1.1461370611
31
0.0000000000
11
3.6067133155
21
1.1446170870
31
0.0000000000
11
3.6066191852
21
1.1430544075
31
0.0000000000
11
3.6063946540
21
1.1398009324
31
0.0000000000
11
3.6061217623
21
1.1363766357
31
0.0000000000
11
3.6058005101
21
1.1327815174
31
0.0000000000
11
3.6054308973
21
1.1290155776
31
0.0000000000
11
3.6050129450
21
1.1250790071
31
0.0000000000
0
SPLINE
5
2CC
100
AcDbEntity
8
0
100
AcDbSpline
62
7
6
CONTINUOUS
70
0
71
3
72
45
73
41
74
39
42
0.0000001000
43
0.0000001000
44
0.0000000001
12
0.1344078913
22
-0.5226973015
32
0.0000000000
13
-0.5288044546
23
-0.1069960058
33
0.0000000000
40
0.0000000000
40
0.0000000000
40
0.0000000000
40
0.0000000000
40
0.0167315780
40
0.0663714657
40
0.0916623749
40
0.1044438449
40
0.1173225058
40
0.1303034331
40
0.1368338763
40
0.1433917344
40
0.1499776081
40
0.1516285294
40
0.1532812479
40
0.1548987397
40
0.1555965332
40
0.1562939520
40
0.1590798943
40
0.1618599056
40
0.1674023296
40
0.1729216551
40
0.1784183054
40
0.1893451916
40
0.2001865873
40
0.2109460681
40
0.2322330532
40
0.2532372780
40
0.2739902049
40
0.2945244518
40
0.3350637539
40
0.3751431824
40
0.4150521146
40
0.4550836255
40
0.4955281252
40
0.5159980095
40
0.5366781309
40
0.5789721219
40
0.6228948241
40
0.6687990339
40
0.7676854420
40
1.0000000000
40
1.0000000000
40
1.0000000000
40
1.0000000000
10
4.3377746142
20
1.3015870291
30
0.0000000000
10
4.3385242329
20
1.2986718455
30
0.0000000000
10
4.3413228226
20
1.2870626334
30
0.0000000000
10
4.3442363270
20
1.2708155680
30
0.0000000000
10
4.3460489605
20
1.2551421035
30
0.0000000000
10
4.3468250911
20
1.2460113858
30
0.0000000000
10
4.3472750439
20
1.2390763023
30
0.0000000000
10
4.3475376288
20
1.2332567934
30
0.0000000000
10
4.3476809914
20
1.2285706323
30
0.0000000000
10
4.3477551921
20
1.2250331488
30
0.0000000000
10
4.3477856337
20
1.2223726056
30
0.0000000000
10
4.3477955001
20
1.2205941005
30
0.0000000000
10
4.3477983178
20
1.2197090870
30
0.0000000000
10
4.3477989490
20
1.2189954802
30
0.0000000000
10
4.3477984975
20
1.2184536751
30
0.0000000000
10
4.3477970593
20
1.2177017369
30
0.0000000000
10
4.3477918911
20
1.2165753388
30
0.0000000000
10
4.3477741202
20
1.2145776806
30
0.0000000000
10
4.3477358465
20
1.2120886367
30
0.0000000000
10
4.3476640906
20
1.2091115971
30
0.0000000000
10
4.3475343076
20
1.2051674819
30
0.0000000000
10
4.3473079980
20
1.2002690979
30
0.0000000000
10
4.3469327371
20
1.1944310151
30
0.0000000000
10
4.3462971838
20
1.1867439352
30
0.0000000000
10
4.3452471067
20
1.1772587790
30
0.0000000000
10
4.3435694597
20
1.1660429605
30
0.0000000000
10
4.3414786077
20
1.1550341365
30
0.0000000000
10
4.3381548258
20
1.1406954574
30
0.0000000000
10
4.3329649534
20
1.1232363440
30
0.0000000000
10
4.3250481733
20
1.1030305190
30
0.0000000000
10
4.3154687424
20
1.0836582329
30
0.0000000000
10
4.3042278975
20
1.0651250456
30
0.0000000000
10
4.2935216225
20
1.0504351979
30
0.0000000000
10
4.2841582101
20
1.0391329630
30
0.0000000000
10
4.2741441913
20
1.0279506876
30
0.0000000000
10
4.2602627102
20
1.0146027233
30
0.0000000000
10
4.2416438691
20
0.9997912953
30
0.0000000000
10
4.2133400733
20
0.9809958743
30
0.0000000000
10
4.1525372213
20
0.9504315477
30
0.0000000000
10
4.0945546358
20
0.9344317285
30
0.0000000000
10
4.0536049781
20
0.9261461519
30
0.0000000000
11
4.3377746142
21
1.3015870291
31
0.0000000000
11
4.3398914424
21
1.2928088603
31
0.0000000000
11
4.3446445961
21
1.2664522885
31
0.0000000000
11
4.3462162034
21
1.2528981354
31
0.0000000000
11
4.3468007646
21
1.2460270920
31
0.0000000000
11
4.3472511643
21
1.2390934040
31
0.0000000000
11
4.3475674023
21
1.2320970715
31
0.0000000000
11
4.3476752107
21
1.2285754135
31
0.0000000000
11
4.3477494788
21
1.2250380945
31
0.0000000000
11
4.3477902064
21
1.2214851142
31
0.0000000000
11
4.3477951476
21
1.2205944221
31
0.0000000000
11
4.3477979926
21
1.2197027512
31
0.0000000000
11
4.3477987462
21
1.2188300816
31
0.0000000000
11
4.3477984297
21
1.2184536078
31
0.0000000000
11
4.3477977105
21
1.2180773368
31
0.0000000000
11
4.3477908060
21
1.2165742798
31
0.0000000000
11
4.3477774573
21
1.2150744662
31
0.0000000000
11
4.3477314271
21
1.2120845693
31
0.0000000000
11
4.3476596201
21
1.2091076462
31
0.0000000000
11
4.3475620363
21
1.2061436968
31
0.0000000000
11
4.3472895379
21
1.2002547193
31
0.0000000000
11
4.3469139321
21
1.1944176367
31
0.0000000000
11
4.3464352188
21
1.1886324492
31
0.0000000000
11
4.3451684698
21
1.1772177589
31
0.0000000000
11
4.3434892908
21
1.1660106486
31
0.0000000000
11
4.3413976820
21
1.1550111182
31
0.0000000000
11
4.3388936432
21
1.1442191677
31
0.0000000000
11
4.3326482759
21
1.1232580063
31
0.0000000000
11
4.3247531889
21
1.1031271646
31
0.0000000000
11
4.3152083822
21
1.0838266424
31
0.0000000000
11
4.3040138559
21
1.0653564399
31
0.0000000000
11
4.2911696099
21
1.0477165570
31
0.0000000000
11
4.2841288421
21
1.0392079854
31
0.0000000000
11
4.2766711553
21
1.0309092302
31
0.0000000000
11
4.2602446609
21
1.0150708898
31
0.0000000000
11
4.2417285219
21
1.0002820518
31
0.0000000000
11
4.2211227380
21
0.9865427164
31
0.0000000000
11
4.1736422361
21
0.9622125531
31
0.0000000000
11
4.0536049781
21
0.9261461519
31
0.0000000000
0
SPLINE
5
2CD
100
AcDbEntity
8
0
100
AcDbSpline
62
7
6
CONTINUOUS
70
0
71
3
72
23
73
19
74
17
42
0.0000001000
43
0.0000001000
44
0.0000000001
12
-0.4433993837
22
-0.0489347274
32
0.0000000000
13
-0.1003441398
23
-0.4346460649
33
0.0000000000
40
0.0000000000
40
0.0000000000
40
0.0000000000
40
0.0000000000
40
0.0092829898
40
0.0374939239
40
0.0653381726
40
0.1200107547
40
0.1734946493
40
0.2259911051
40
0.2777128982
40
0.3288824697
40
0.3797295085
40
0.4304880820
40
0.4558992465
40
0.4812058118
40
0.5814153843
40
0.6815695246
40
0.7835958406
40
1.0000000000
40
1.0000000000
40
1.0000000000
40
1.0000000000
10
3.9751772347
20
1.7180641683
30
0.0000000000
10
3.9738052107
20
1.7179127481
30
0.0000000000
10
3.9682662954
20
1.7172768609
30
0.0000000000
10
3.9586345155
20
1.7159955322
30
0.0000000000
10
3.9423791858
20
1.7133691055
30
0.0000000000
10
3.9225594860
20
1.7092910297
30
0.0000000000
10
3.8994790652
20
1.7030755811
30
0.0000000000
10
3.8772475092
20
1.6955674849
30
0.0000000000
10
3.8558664590
20
1.6867662842
30
0.0000000000
10
3.8353370086
20
1.6766716005
30
0.0000000000
10
3.8156610317
20
1.6652839298
30
0.0000000000
10
3.7999847496
20
1.6547222291
30
0.0000000000
10
3.7879152491
20
1.6456622767
30
0.0000000000
10
3.7704299365
20
1.6315915389
30
0.0000000000
10
3.7460893053
20
1.6083173365
30
0.0000000000
10
3.7181889243
20
1.5728684120
30
0.0000000000
10
3.6867000782
20
1.5189975377
30
0.0000000000
10
3.6712267756
20
1.4736090053
30
0.0000000000
10
3.6639884792
20
1.4422559332
30
0.0000000000
11
3.9751772347
21
1.7180641683
31
0.0000000000
11
3.9710632111
21
1.7175917810
31
0.0000000000
11
3.9585891189
21
1.7159300034
31
0.0000000000
11
3.9463277784
21
1.7139465914
31
0.0000000000
11
3.9224433521
21
1.7090148642
31
0.0000000000
11
3.8994099323
21
1.7027965995
31
0.0000000000
11
3.8772275189
21
1.6952917973
31
0.0000000000
11
3.8558961119
21
1.6865004575
31
0.0000000000
11
3.8354157114
21
1.6764225803
31
0.0000000000
11
3.8157863173
21
1.6650581655
31
0.0000000000
11
3.7970079296
21
1.6524072132
31
0.0000000000
11
3.7879421055
21
1.6456026840
31
0.0000000000
11
3.7791484249
21
1.6385241010
31
0.0000000000
11
3.7468648296
21
1.6076051731
31
0.0000000000
11
3.7192070374
21
1.5725188924
31
0.0000000000
11
3.6961750482
21
1.5332652588
31
0.0000000000
11
3.6639884792
21
1.4422559332
31
0.0000000000
0
SPLINE
5
2CE
100
AcDbEntity
8
0
100
AcDbSpline
62
7
6
CONTINUOUS
70
0
71
3
72
19
73
15
74
13
42
0.0000001000
43
0.0000001000
44
0.0000000001
12
0.1902903385
22
-0.3914132526
32
0.0000000000
13
0.4280693626
23
-0.0779129487
33
0.0000000000
40
0.0000000000
40
0.0000000000
40
0.0000000000
40
0.0000000000
40
0.0166788641
40
0.0940878588
40
0.1717161717
40
0.2107867271
40
0.2500912203
40
0.2893768258
40
0.3285964586
40
0.4070952335
40
0.4861518610
40
0.6479350149
40
0.8180706981
40
1.0000000000
40
1.0000000000
40
1.0000000000
40
1.0000000000
10
3.0196953405
20
1.0009217767
30
0.0000000000
10
3.0207532827
20
0.9987456672
30
0.0000000000
10
3.0268305366
20
0.9865230847
30
0.0000000000
10
3.0390429965
20
0.9647857404
30
0.0000000000
10
3.0548459767
20
0.9414450603
30
0.0000000000
10
3.0686629001
20
0.9235217167
30
0.0000000000
10
3.0796201178
20
0.9104330543
30
0.0000000000
10
3.0911233965
20
0.8977919716
30
0.0000000000
10
3.1071441894
20
0.8816026945
30
0.0000000000
10
3.1284828218
20
0.8625951607
30
0.0000000000
10
3.1655447119
20
0.8347454564
30
0.0000000000
10
3.2174927118
20
0.8049584144
30
0.0000000000
10
3.2872192516
20
0.7779855761
30
0.0000000000
10
3.3370224571
20
0.7660393908
30
0.0000000000
10
3.3629819106
20
0.7613145080
30
0.0000000000
11
3.0196953405
21
1.0009217767
31
0.0000000000
11
3.0229272039
21
0.9944221043
31
0.0000000000
11
3.0394252344
21
0.9650586540
31
0.0000000000
11
3.0583545536
21
0.9370851802
31
0.0000000000
11
3.0687309465
21
0.9236196845
31
0.0000000000
11
3.0797106725
21
0.9105084005
31
0.0000000000
11
3.0912162960
21
0.8978672073
31
0.0000000000
11
3.1032197606
21
0.8857380903
31
0.0000000000
11
3.1287202132
21
0.8630160846
31
0.0000000000
11
3.1562120300
21
0.8423423832
31
0.0000000000
11
3.2171697570
21
0.8071398938
31
0.0000000000
11
3.2860929414
21
0.7801306219
31
0.0000000000
11
3.3629819106
21
0.7613145080
31
0.0000000000
0
SPLINE
5
2CF
100
AcDbEntity
8
0
100
AcDbSpline
62
7
6
CONTINUOUS
70
0
71
3
72
65
73
61
74
59
42
0.0000001000
43
0.0000001000
44
0.0000000001
12
0.6381307158
22
-0.4022357626
32
0.0000000000
13
-0.7456508647
23
-0.1136496632
33
0.0000000000
40
0.0000000000
40
0.0000000000
40
0.0000000000
40
0.0000000000
40
0.0086143650
40
0.0308452335
40
0.0530905498
40
0.0642383932
40
0.0754123834
40
0.0865448699
40
0.0975671273
40
0.1193041428
40
0.1406762837
40
0.1617375563
40
0.2031404342
40
0.2440010040
40
0.2643895943
40
0.2848281066
40
0.3053782692
40
0.3261008129
40
0.3470549693
40
0.3576377622
40
0.3682997523
40
0.3790477380
40
0.3844561615
40
0.3898885583
40
0.3953457315
40
0.4008284736
40
0.4035796896
40
0.4063375898
40
0.4091022701
40
0.4104871840
40
0.4111802895
40
0.4118738290
40
0.4124488915
40
0.4130236141
40
0.4141720435
40
0.4164648627
40
0.4187523461
40
0.4210345517
40
0.4255833479
40
0.4301117370
40
0.4391090879
40
0.4480306186
40
0.4568803247
40
0.4656623000
40
0.4830388252
40
0.5001958304
40
0.5171692586
40
0.5507052101
40
0.5839633132
40
0.6172587590
40
0.6509056891
40
0.6679612811
40
0.6852175870
40
0.7026227185
40
0.7201346424
40
0.7556578045
40
0.7921660506
40
0.8299976024
40
0.9107489535
40
1.0000000000
40
1.0000000000
40
1.0000000000
40
1.0000000000
10
4.2048052190
20
0.3209198001
30
0.0000000000
10
4.2066375827
20
0.3197647982
30
0.0000000000
10
4.2131570209
20
0.3155632660
30
0.0000000000
10
4.2241139199
20
0.3079289710
30
0.0000000000
10
4.2351607636
20
0.2993418801
30
0.0000000000
10
4.2437346733
20
0.2921261859
30
0.0000000000
10
4.2500266092
20
0.2865427979
30
0.0000000000
10
4.2561581164
20
0.2808301482
30
0.0000000000
10
4.2640573318
20
0.2731231376
30
0.0000000000
10
4.2734569335
20
0.2632727997
30
0.0000000000
10
4.2840088300
20
0.2510587400
30
0.0000000000
10
4.2969609699
20
0.2344198251
30
0.0000000000
10
4.3112928328
20
0.2126897826
30
0.0000000000
10
4.3230878954
20
0.1896707252
30
0.0000000000
10
4.3309055784
20
0.1706693266
30
0.0000000000
10
4.3359836155
20
0.1560886619
30
0.0000000000
10
4.3402785394
20
0.1411715507
30
0.0000000000
10
4.3437907612
20
0.1259182290
30
0.0000000000
10
4.3460579184
20
0.1129695876
30
0.0000000000
10
4.3474830647
20
0.1024551087
30
0.0000000000
10
4.3483603703
20
0.0944585605
30
0.0000000000
10
4.3489275851
20
0.0877390133
30
0.0000000000
10
4.3492843255
20
0.0823227647
30
0.0000000000
10
4.3495036799
20
0.0782308799
30
0.0000000000
10
4.3496742606
20
0.0741179811
30
0.0000000000
10
4.3497756462
20
0.0706771509
30
0.0000000000
10
4.3498324537
20
0.0679141407
30
0.0000000000
10
4.3498629184
20
0.0658341474
30
0.0000000000
10
4.3498781359
20
0.0640975161
30
0.0000000000
10
4.3498834630
20
0.0628799712
30
0.0000000000
10
4.3498849855
20
0.0621831452
30
0.0000000000
10
4.3498853465
20
0.0616899312
30
0.0000000000
10
4.3498850605
20
0.0612264812
30
0.0000000000
10
4.3498839820
20
0.0606486633
30
0.0000000000
10
4.3498802124
20
0.0596389710
30
0.0000000000
10
4.3498694420
20
0.0581986829
30
0.0000000000
10
4.3498478822
20
0.0564734332
30
0.0000000000
10
4.3498076777
20
0.0541812020
30
0.0000000000
10
4.3497359230
20
0.0513260606
30
0.0000000000
10
4.3495753187
20
0.0467845242
30
0.0000000000
10
4.3492887980
20
0.0411476466
30
0.0000000000
10
4.3488061196
20
0.0344343149
30
0.0000000000
10
4.3481853288
20
0.0277866651
30
0.0000000000
10
4.3471771023
20
0.0190422436
30
0.0000000000
10
4.3455739909
20
0.0082665608
30
0.0000000000
10
4.3430898715
20
-0.0044476434
30
0.0000000000
10
4.3390570097
20
-0.0209805996
30
0.0000000000
10
4.3326226948
20
-0.0410713278
30
0.0000000000
10
4.3226403218
20
-0.0642144154
30
0.0000000000
10
4.3104284694
20
-0.0862941227
30
0.0000000000
10
4.2984502777
20
-0.1037297825
30
0.0000000000
10
4.2878065508
20
-0.1171018143
30
0.0000000000
10
4.2792592685
20
-0.1269068020
30
0.0000000000
10
4.2701625862
20
-0.1363661697
30
0.0000000000
10
4.2572125228
20
-0.1484574232
30
0.0000000000
10
4.2395751288
20
-0.1625170794
30
0.0000000000
10
4.2163342426
20
-0.1775227622
30
0.0000000000
10
4.1817046136
20
-0.1955539178
30
0.0000000000
10
4.1323600570
20
-0.2134573431
30
0.0000000000
10
4.0903943787
20
-0.2222079456
30
0.0000000000
10
4.0682110054
20
-0.2255890628
30
0.0000000000
11
4.2048052190
21
0.3209198001
31
0.0000000000
11
4.2102670644
21
0.3173997691
31
0.0000000000
11
4.2240244556
21
0.3078134884
31
0.0000000000
11
4.2372725803
21
0.2975171127
31
0.0000000000
11
4.2437056678
21
0.2921026393
31
0.0000000000
11
4.2500114387
21
0.2865106422
31
0.0000000000
11
4.2561560182
21
0.2807878264
31
0.0000000000
11
4.2621055317
21
0.2749808969
31
0.0000000000
11
4.2734193608
21
0.2631146967
31
0.0000000000
11
4.2839529257
21
0.2509120418
31
0.0000000000
11
4.2937062266
21
0.2383729322
31
0.0000000000
11
4.3108720362
21
0.2122853485
31
0.0000000000
11
4.3249167894
21
0.1848519457
31
0.0000000000
11
4.3307687700
21
0.1706305622
31
0.0000000000
11
4.3358404864
21
0.1560727239
31
0.0000000000
11
4.3401319388
21
0.1411784308
31
0.0000000000
11
4.3436431271
21
0.1259476829
31
0.0000000000
11
4.3463740514
21
0.1103804802
31
0.0000000000
11
4.3474469145
21
0.1024707084
31
0.0000000000
11
4.3483247116
21
0.0944768228
31
0.0000000000
11
4.3490074426
21
0.0863988236
31
0.0000000000
11
4.3492756584
21
0.0823282813
31
0.0000000000
11
4.3494951077
21
0.0782367106
31
0.0000000000
11
4.3496657904
21
0.0741241115
31
0.0000000000
11
4.3497877067
21
0.0699904840
31
0.0000000000
11
4.3498303774
21
0.0679157845
31
0.0000000000
11
4.3498608564
21
0.0658358280
31
0.0000000000
11
4.3498791439
21
0.0637506144
31
0.0000000000
11
4.3498837157
21
0.0627060361
31
0.0000000000
11
4.3498848587
21
0.0621832542
31
0.0000000000
11
4.3498852397
21
0.0616601436
31
0.0000000000
11
4.3498849701
21
0.0612263959
31
0.0000000000
11
4.3498841612
21
0.0607929051
31
0.0000000000
11
4.3498809258
21
0.0599266943
31
0.0000000000
11
4.3498679840
21
0.0581973559
31
0.0000000000
11
4.3498464143
21
0.0564721284
31
0.0000000000
11
4.3498162168
21
0.0547510120
31
0.0000000000
11
4.3497299382
21
0.0513211119
31
0.0000000000
11
4.3496091482
21
0.0479076558
31
0.0000000000
11
4.3492640338
21
0.0411300751
31
0.0000000000
11
4.3487808737
21
0.0344182699
31
0.0000000000
11
4.3481596679
21
0.0277722402
31
0.0000000000
11
4.3474004162
21
0.0211919859
31
0.0000000000
11
4.3454677758
21
0.0082288039
31
0.0000000000
11
4.3429829523
21
-0.0044712762
31
0.0000000000
11
4.3399459459
21
-0.0169082543
31
0.0000000000
11
4.3322153840
21
-0.0409929047
31
0.0000000000
11
4.3222760901
21
-0.0640251474
31
0.0000000000
11
4.3101280643
21
-0.0860049823
31
0.0000000000
11
4.2957713066
21
-0.1069324095
31
0.0000000000
11
4.2877646532
21
-0.1170014701
31
0.0000000000
11
4.2792058169
21
-0.1268074288
31
0.0000000000
11
4.2700988728
21
-0.1362630520
31
0.0000000000
11
4.2604478965
21
-0.1452811058
31
0.0000000000
11
4.2395138469
21
-0.1620045058
31
0.0000000000
11
4.2164036680
21
-0.1769776288
31
0.0000000000
11
4.1911173599
21
-0.1902004748
31
0.0000000000
11
4.1340163558
21
-0.2113953358
31
0.0000000000
11
4.0682110054
21
-0.2255890628
31
0.0000000000
0
SPLINE
5
2D0
100
AcDbEntity
8
0
100
AcDbSpline
62
7
6
CONTINUOUS
70
0
71
3
72
65
73
61
74
59
42
0.0000001000
43
0.0000001000
44
0.0000000001
12
-0.9633322031
22
-0.1264672907
32
0.0000000000
13
0.5581163118
23
-0.7952365068
33
0.0000000000
40
0.0000000000
40
0.0000000000
40
0.0000000000
40
0.0000000000
40
0.0070491736
40
0.0292432699
40
0.0727045911
40
0.1151990978
40
0.1570533804
40
0.1986091273
40
0.2402153821
40
0.2611517642
40
0.2822305123
40
0.3034934842
40
0.3248881747
40
0.3460260348
40
0.3668901789
40
0.4079369001
40
0.4483480614
40
0.4884490796
40
0.5285729183
40
0.5690519779
40
0.5895313354
40
0.6102196960
40
0.6311550133
40
0.6417273381
40
0.6523750155
40
0.6631023966
40
0.6684973749
40
0.6739138663
40
0.6793523874
40
0.6820800766
40
0.6848134641
40
0.6861823152
40
0.6875526145
40
0.6882383097
40
0.6889243698
40
0.6895867876
40
0.6898460373
40
0.6901052672
40
0.6911419904
40
0.6921784030
40
0.6932145100
40
0.6942503163
40
0.6963210458
40
0.6983906323
40
0.7025265257
40
0.7066583259
40
0.7107863530
40
0.7190322925
40
0.7272670024
40
0.7354930709
40
0.7437130948
40
0.7601447697
40
0.7765835227
40
0.7930501726
40
0.8095654326
40
0.8261498340
40
0.8596018971
40
0.8935694715
40
0.9282035076
40
1.0000000000
40
1.0000000000
40
1.0000000000
40
1.0000000000
10
3.8884701186
20
0.5664094123
30
0.0000000000
10
3.8862065533
20
0.5661122490
30
0.0000000000
10
3.8768238736
20
0.5648217998
30
0.0000000000
10
3.8535841716
20
0.5610105116
30
0.0000000000
10
3.8193871366
20
0.5532412426
30
0.0000000000
10
3.7799136392
20
0.5406162752
30
0.0000000000
10
3.7422916079
20
0.5247510947
30
0.0000000000
10
3.7065324825
20
0.5056475534
30
0.0000000000
10
3.6783431433
20
0.4870645168
30
0.0000000000
10
3.6567947121
20
0.4706502962
30
0.0000000000
10
3.6410613296
20
0.4575089984
30
0.0000000000
10
3.6258159283
20
0.4435842975
30
0.0000000000
10
3.6111723708
20
0.4290020462
30
0.0000000000
10
3.5972081619
20
0.4139435249
30
0.0000000000
10
3.5797556631
20
0.3934715844
30
0.0000000000
10
3.5598780389
20
0.3669022266
30
0.0000000000
10
3.5391597263
20
0.3333673443
30
0.0000000000
10
3.5217065465
20
0.2983533780
30
0.0000000000
10
3.5075244987
20
0.2618699708
30
0.0000000000
10
3.4984669641
20
0.2303632390
30
0.0000000000
10
3.4928526877
20
0.2045181379
30
0.0000000000
10
3.4894370671
20
0.1846919120
30
0.0000000000
10
3.4872749669
20
0.1679219011
30
0.0000000000
10
3.4859480281
20
0.1543338628
30
0.0000000000
10
3.4851522786
20
0.1440177004
30
0.0000000000
10
3.4846591003
20
0.1353617143
30
0.0000000000
10
3.4843653876
20
0.1283925045
30
0.0000000000
10
3.4841953551
20
0.1231326469
30
0.0000000000
10
3.4840959978
20
0.1187349707
30
0.0000000000
10
3.4840417749
20
0.1152055685
30
0.0000000000
10
3.4840184207
20
0.1129938269
30
0.0000000000
10
3.4840060617
20
0.1112216008
30
0.0000000000
10
3.4840009749
20
0.1101124835
30
0.0000000000
10
3.4839984858
20
0.1092244792
30
0.0000000000
10
3.4839974286
20
0.1085657180
30
0.0000000000
10
3.4839971834
20
0.1080450593
30
0.0000000000
10
3.4839973439
20
0.1076626286
30
0.0000000000
10
3.4839978359
20
0.1071589803
30
0.0000000000
10
3.4839996024
20
0.1064036508
30
0.0000000000
10
3.4840041592
20
0.1053967398
30
0.0000000000
10
3.4840109156
20
0.1043901379
30
0.0000000000
10
3.4840228557
20
0.1030486056
30
0.0000000000
10
3.4840432783
20
0.1013724495
30
0.0000000000
10
3.4840876801
20
0.0986925805
30
0.0000000000
10
3.4841651668
20
0.0953457283
30
0.0000000000
10
3.4842933761
20
0.0913333994
30
0.0000000000
10
3.4845111652
20
0.0859924295
30
0.0000000000
10
3.4848713471
20
0.0793277056
30
0.0000000000
10
3.4854445734
20
0.0713466515
30
0.0000000000
10
3.4861586422
20
0.0633853499
30
0.0000000000
10
3.4872982867
20
0.0527986720
30
0.0000000000
10
3.4890757741
20
0.0396077800
30
0.0000000000
10
3.4917729340
20
0.0238560330
30
0.0000000000
10
3.4950339366
20
0.0081835953
30
0.0000000000
10
3.4988588461
20
-0.0074095287
30
0.0000000000
10
3.5047265338
20
-0.0281518867
30
0.0000000000
10
3.5134999394
20
-0.0539273926
30
0.0000000000
10
3.5262582578
20
-0.0844428149
30
0.0000000000
10
3.5465161200
20
-0.1251749459
30
0.0000000000
10
3.5647930105
20
-0.1545264302
30
0.0000000000
10
3.5781499416
20
-0.1735581608
30
0.0000000000
11
3.8884701186
21
0.5664094123
31
0.0000000000
11
3.8816851551
21
0.5654760236
31
0.0000000000
11
3.8604079947
21
0.5619797018
31
0.0000000000
11
3.8192430650
21
0.5525797547
31
0.0000000000
11
3.7799306566
21
0.5399700695
31
0.0000000000
11
3.7424707696
21
0.5241506463
31
0.0000000000
11
3.7068634040
21
0.5051214851
31
0.0000000000
11
3.6731085597
21
0.4828825858
31
0.0000000000
11
3.6569258331
21
0.4705594844
31
0.0000000000
11
3.6412062368
21
0.4574339484
31
0.0000000000
11
3.6259497709
21
0.4435059780
31
0.0000000000
11
3.6112132009
21
0.4288470155
31
0.0000000000
11
3.5972555199
21
0.4137830174
31
0.0000000000
11
3.5841086585
21
0.3983541699
31
0.0000000000
11
3.5602473948
21
0.3664019272
31
0.0000000000
11
3.5396294096
21
0.3329902873
31
0.0000000000
11
3.5222547029
21
0.2981192502
31
0.0000000000
11
3.5081232748
21
0.2617888159
31
0.0000000000
11
3.4972351254
21
0.2239989845
31
0.0000000000
11
3.4930072801
21
0.2045567949
31
0.0000000000
11
3.4895902544
21
0.1847497559
31
0.0000000000
11
3.4869840484
21
0.1645778677
31
0.0000000000
11
3.4859850028
21
0.1543551051
31
0.0000000000
11
3.4851886621
21
0.1440411302
31
0.0000000000
11
3.4845950263
21
0.1336359430
31
0.0000000000
11
3.4843742227
21
0.1283991447
31
0.0000000000
11
3.4842040954
21
0.1231395434
31
0.0000000000
11
3.4840846443
21
0.1178571390
31
0.0000000000
11
3.4840439223
21
0.1152073856
31
0.0000000000
11
3.4840158694
21
0.1125519315
31
0.0000000000
11
3.4840065938
21
0.1112220666
31
0.0000000000
11
3.4840004855
21
0.1098907766
31
0.0000000000
11
3.4839986191
21
0.1092245971
31
0.0000000000
11
3.4839975445
21
0.1085580614
31
0.0000000000
11
3.4839972592
21
0.1079144944
31
0.0000000000
11
3.4839973673
21
0.1076626223
31
0.0000000000
11
3.4839976128
21
0.1074107695
31
0.0000000000
11
3.4839999698
21
0.1064035515
31
0.0000000000
11
3.4840045267
21
0.1053966429
31
0.0000000000
11
3.4840112834
21
0.1043900435
31
0.0000000000
11
3.4840202400
21
0.1033837533
31
0.0000000000
11
3.4840447528
21
0.1013721009
31
0.0000000000
11
3.4840780652
21
0.0993616854
31
0.0000000000
11
3.4841710882
21
0.0953445657
31
0.0000000000
11
3.4842993092
21
0.0913323942
31
0.0000000000
11
3.4844627280
21
0.0873251709
31
0.0000000000
11
3.4848951595
21
0.0793255689
31
0.0000000000
11
3.4854683825
21
0.0713457597
31
0.0000000000
11
3.4861823973
21
0.0633857433
31
0.0000000000
11
3.4870372036
21
0.0554455197
31
0.0000000000
11
3.4891691912
21
0.0396244509
31
0.0000000000
11
3.4918643453
21
0.0238825532
31
0.0000000000
11
3.4951226660
21
0.0082198268
31
0.0000000000
11
3.4989441532
21
-0.0073637284
31
0.0000000000
11
3.5033288069
21
-0.0228681125
31
0.0000000000
11
3.5137876140
21
-0.0536393669
31
0.0000000000
11
3.5264990873
21
-0.0840939366
31
0.0000000000
11
3.5414632266
21
-0.1142318215
31
0.0000000000
11
3.5781499416
21
-0.1735581608
31
0.0000000000
0
SPLINE
5
2D1
100
AcDbEntity
8
0
100
AcDbSpline
62
7
6
CONTINUOUS
70
0
71
3
72
15
73
11
74
9
42
0.0000001000
43
0.0000001000
44
0.0000000001
12
0.0655364633
22
-0.0162977311
32
0.0000000000
13
0.0106155459
23
-0.0611255425
33
0.0000000000
40
0.0000000000
40
0.0000000000
40
0.0000000000
40
0.0000000000
40
0.0327908524
40
0.0888707075
40
0.1728081791
40
0.2851375869
40
0.4252898123
40
0.5921678423
40
0.7843176358
40
1.0000000000
40
1.0000000000
40
1.0000000000
40
1.0000000000
10
-6.7649204226
20
-20.0000000000
30
0.0000000000
10
-6.7642040904
20
-20.0001781388
30
0.0000000000
10
-6.7626262219
20
-20.0011072462
30
0.0000000000
10
-6.7608567700
20
-20.0043897970
30
0.0000000000
10
-6.7588321132
20
-20.0091314306
30
0.0000000000
10
-6.7567218177
20
-20.0157988428
30
0.0000000000
10
-6.7544869953
20
-20.0241680461
30
0.0000000000
10
-6.7521824873
20
-20.0342366952
30
0.0000000000
10
-6.7498241442
20
-20.0458848959
30
0.0000000000
10
-6.7483168258
20
-20.0541840766
30
0.0000000000
10
-6.7475536304
20
-20.0585786438
30
0.0000000000
11
-6.7649204226
21
-20.0000000000
31
0.0000000000
11
-6.7631306366
21
-20.0009671029
31
0.0000000000
11
-6.7611917911
21
-20.0038560231
31
0.0000000000
11
-6.7591227491
21
-20.0086348666
31
0.0000000000
11
-6.7569435064
21
-20.0152543421
31
0.0000000000
11
-6.7546750065
21
-20.0236483210
31
0.0000000000
11
-6.7523389519
21
-20.0337345231
31
0.0000000000
11
-6.7499576120
21
-20.0454153211
31
0.0000000000
11
-6.7475536304
21
-20.0585786438
31
0.0000000000
0
SPLINE
5
2D2
100
AcDbEntity
8
0
100
AcDbSpline
62
7
6
CONTINUOUS
70
0
71
3
72
28
73
24
74
22
42
0.0000001000
43
0.0000001000
44
0.0000000001
12
-0.3454312139
22
0.0000000000
32
0.0000000000
13
0.3401833376
23
0.0599835008
33
0.0000000000
40
0.0000000000
40
0.0000000000
40
0.0000000000
40
0.0000000000
40
0.1112545379
40
0.2107048087
40
0.2999722692
40
0.3806638774
40
0.4541627993
40
0.5212709366
40
0.5825100595
40
0.6384753332
40
0.6897884178
40
0.7370870353
40
0.7808247311
40
0.8209029822
40
0.8569070726
40
0.8887012752
40
0.9162963141
40
0.9397279102
40
0.9592246826
40
0.9749596766
40
0.9867603430
40
0.9947670225
40
1.0000000000
40
1.0000000000
40
1.0000000000
40
1.0000000000
10
-8.4002862699
20
-20.3500000000
30
0.0000000000
10
-8.4130965333
20
-20.3500000000
30
0.0000000000
10
-8.4373578726
20
-20.3499983072
30
0.0000000000
10
-8.4718978002
20
-20.3499906049
30
0.0000000000
10
-8.5029185965
20
-20.3499787290
30
0.0000000000
10
-8.5309512554
20
-20.3499632736
30
0.0000000000
10
-8.5564324046
20
-20.3499446382
30
0.0000000000
10
-8.5796737184
20
-20.3499231138
30
0.0000000000
10
-8.6008961399
20
-20.3498989413
30
0.0000000000
10
-8.6202998515
20
-20.3498722784
30
0.0000000000
10
-8.6380984085
20
-20.3498431347
30
0.0000000000
10
-8.6544889871
20
-20.3498113692
30
0.0000000000
10
-8.6695860773
20
-20.3497768122
30
0.0000000000
10
-8.6833822005
20
-20.3497394339
30
0.0000000000
10
-8.6958045703
20
-20.3496994836
30
0.0000000000
10
-8.7067849470
20
-20.3496571618
30
0.0000000000
10
-8.7163316780
20
-20.3496131446
30
0.0000000000
10
-8.7244210188
20
-20.3495664602
30
0.0000000000
10
-8.7312631170
20
-20.3495205730
30
0.0000000000
10
-8.7364425714
20
-20.3494664618
30
0.0000000000
10
-8.7411113813
20
-20.3494285543
30
0.0000000000
10
-8.7427373317
20
-20.3493511331
30
0.0000000000
10
-8.7463054950
20
-20.3493485591
30
0.0000000000
10
-8.7457121044
20
-20.3492439283
30
0.0000000000
11
-8.4002862699
21
-20.3500000000
31
0.0000000000
11
-8.4387170599
21
-20.3499971760
31
0.0000000000
11
-8.4730702868
21
-20.3499893789
31
0.0000000000
11
-8.5039060517
21
-20.3499774413
31
0.0000000000
11
-8.5317794476
21
-20.3499619418
31
0.0000000000
11
-8.5571682625
21
-20.3499432384
31
0.0000000000
11
-8.5803494978
21
-20.3499216279
31
0.0000000000
11
-8.6015033884
21
-20.3498973834
31
0.0000000000
11
-8.6208355224
21
-20.3498706571
31
0.0000000000
11
-8.6385606394
21
-20.3498414536
31
0.0000000000
11
-8.6548990272
21
-20.3498095815
31
0.0000000000
11
-8.6700073524
21
-20.3497747433
31
0.0000000000
11
-8.6838515797
21
-20.3497369304
31
0.0000000000
11
-8.6962884507
21
-20.3496965227
31
0.0000000000
11
-8.7072710776
21
-20.3496538040
31
0.0000000000
11
-8.7168031600
21
-20.3496089844
31
0.0000000000
11
-8.7248970302
21
-20.3495623176
31
0.0000000000
11
-8.7316316481
21
-20.3495136569
31
0.0000000000
11
-8.7370667673
21
-20.3494626903
31
0.0000000000
11
-8.7411427487
21
-20.3494102689
31
0.0000000000
11
-8.7439079847
21
-20.3493565867
31
0.0000000000
11
-8.7457121044
21
-20.3492439283
31
0.0000000000
0
SPLINE
5
2D3
100
AcDbEntity
8
0
100
AcDbSpline
62
7
6
CONTINUOUS
70
0
71
3
72
28
73
24
74
22
42
0.0000001000
43
0.0000001000
44
0.0000000001
12
-0.3401832054
22
0.0599834775
32
0.0000000000
13
0.3454310797
23
0.0000000000
33
0.0000000000
40
0.0000000000
40
0.0000000000
40
0.0000000000
40
0.0000000000
40
0.0058515845
40
0.0146288346
40
0.0271383053
40
0.0435048266
40
0.0638710467
40
0.0881158063
40
0.1160256268
40
0.1478671725
40
0.1836940368
40
0.2233396419
40
0.2665399586
40
0.3134390328
40
0.3645437747
40
0.4204030025
40
0.4815494167
40
0.5484871154
40
0.6216460665
40
0.7017987557
40
0.7904137593
40
0.8892292812
40
1.0000000000
40
1.0000000000
40
1.0000000000
40
1.0000000000
10
-8.7457121044
20
20.3492439283
30
0.0000000000
10
-8.7463756413
20
20.3493609278
30
0.0000000000
10
-8.7424237570
20
20.3493506859
30
0.0000000000
10
-8.7406592244
20
20.3494377184
30
0.0000000000
10
-8.7357235751
20
20.3494729797
30
0.0000000000
10
-8.7302938296
20
20.3495285153
30
0.0000000000
10
-8.7231840192
20
20.3495740475
30
0.0000000000
10
-8.7148647160
20
20.3496205461
30
0.0000000000
10
-8.7051829190
20
20.3496637746
30
0.0000000000
10
-8.6941811080
20
20.3497050797
30
0.0000000000
10
-8.6818235692
20
20.3497439416
30
0.0000000000
10
-8.6681595272
20
20.3497802944
30
0.0000000000
10
-8.6532201451
20
20.3498139941
30
0.0000000000
10
-8.6369614401
20
20.3498451310
30
0.0000000000
10
-8.6192450947
20
20.3498738426
30
0.0000000000
10
-8.5998882648
20
20.3499001898
30
0.0000000000
10
-8.5787083617
20
20.3499240951
30
0.0000000000
10
-8.5555365019
20
20.3499453653
30
0.0000000000
10
-8.5301761860
20
20.3499637546
30
0.0000000000
10
-8.5023198628
20
20.3499789926
30
0.0000000000
10
-8.4715093453
20
20.3499907083
30
0.0000000000
10
-8.4371733534
20
20.3499983235
30
0.0000000000
10
-8.4130408196
20
20.3500000000
30
0.0000000000
10
-8.4002862699
20
20.3500000000
30
0.0000000000
11
-8.7457121044
21
20.3492439283
31
0.0000000000
11
-8.7436942296
21
20.3493618794
31
0.0000000000
11
-8.7406628055
21
20.3494175318
31
0.0000000000
11
-8.7363419690
21
20.3494704045
31
0.0000000000
11
-8.7306886923
21
20.3495212253
31
0.0000000000
11
-8.7236537371
21
20.3495701702
31
0.0000000000
11
-8.7152789733
21
20.3496167701
31
0.0000000000
11
-8.7056381538
21
20.3496606757
31
0.0000000000
11
-8.6946391731
21
20.3497023081
31
0.0000000000
11
-8.6822635231
21
20.3497416096
31
0.0000000000
11
-8.6685687481
21
20.3497783216
31
0.0000000000
11
-8.6536460546
21
20.3498122209
31
0.0000000000
11
-8.6374456869
21
20.3498434427
31
0.0000000000
11
-8.6197925441
21
20.3498722259
31
0.0000000000
11
-8.6004970489
21
20.3498986474
31
0.0000000000
11
-8.5793751906
21
20.3499226341
31
0.0000000000
11
-8.5562528389
21
20.3499439977
31
0.0000000000
11
-8.5309814702
21
20.3499624547
31
0.0000000000
11
-8.5032942445
21
20.3499777286
31
0.0000000000
11
-8.4726838704
21
20.3499894973
31
0.0000000000
11
-8.4385499188
21
20.3499972011
31
0.0000000000
11
-8.4002862699
21
20.3500000000
31
0.0000000000
0
SPLINE
5
2D4
100
AcDbEntity
8
0
100
AcDbSpline
62
7
6
CONTINUOUS
70
0
71
3
72
15
73
11
74
9
42
0.0000001000
43
0.0000001000
44
0.0000000001
12
0.0655364633
22
0.0162977311
32
0.0000000000
13
0.0106155459
23
0.0611255425
33
0.0000000000
40
0.0000000000
40
0.0000000000
40
0.0000000000
40
0.0000000000
40
0.0327908524
40
0.0888707075
40
0.1728081791
40
0.2851375869
40
0.4252898123
40
0.5921678423
40
0.7843176358
40
1.0000000000
40
1.0000000000
40
1.0000000000
40
1.0000000000
10
-6.7649204226
20
20.0000000000
30
0.0000000000
10
-6.7642040904
20
20.0001781388
30
0.0000000000
10
-6.7626262219
20
20.0011072462
30
0.0000000000
10
-6.7608567700
20
20.0043897970
30
0.0000000000
10
-6.7588321132
20
20.0091314306
30
0.0000000000
10
-6.7567218177
20
20.0157988428
30
0.0000000000
10
-6.7544869953
20
20.0241680461
30
0.0000000000
10
-6.7521824873
20
20.0342366952
30
0.0000000000
10
-6.7498241442
20
20.0458848959
30
0.0000000000
10
-6.7483168258
20
20.0541840766
30
0.0000000000
10
-6.7475536304
20
20.0585786438
30
0.0000000000
11
-6.7649204226
21
20.0000000000
31
0.0000000000
11
-6.7631306366
21
20.0009671029
31
0.0000000000
11
-6.7611917911
21
20.0038560231
31
0.0000000000
11
-6.7591227491
21
20.0086348666
31
0.0000000000
11
-6.7569435064
21
20.0152543421
31
0.0000000000
11
-6.7546750065
21
20.0236483210
31
0.0000000000
11
-6.7523389519
21
20.0337345231
31
0.0000000000
11
-6.7499576120
21
20.0454153211
31
0.0000000000
11
-6.7475536304
21
20.0585786438
31
0.0000000000
0
SPLINE
5
2D5
100
AcDbEntity
8
0
100
AcDbSpline
62
7
6
CONTINUOUS
70
0
71
3
72
15
73
11
74
9
42
0.0000001000
43
0.0000001000
44
0.0000000001
12
-0.0655364633
22
0.0162977311
32
0.0000000000
13
-0.0106155459
23
0.0611255425
33
0.0000000000
40
0.0000000000
40
0.0000000000
40
0.0000000000
40
0.0000000000
40
0.0327908524
40
0.0888707075
40
0.1728081791
40
0.2851375869
40
0.4252898123
40
0.5921678423
40
0.7843176358
40
1.0000000000
40
1.0000000000
40
1.0000000000
40
1.0000000000
10
6.7649204226
20
20.0000000000
30
0.0000000000
10
6.7642040904
20
20.0001781388
30
0.0000000000
10
6.7626262219
20
20.0011072462
30
0.0000000000
10
6.7608567700
20
20.0043897970
30
0.0000000000
10
6.7588321132
20
20.0091314306
30
0.0000000000
10
6.7567218177
20
20.0157988428
30
0.0000000000
10
6.7544869953
20
20.0241680461
30
0.0000000000
10
6.7521824873
20
20.0342366952
30
0.0000000000
10
6.7498241442
20
20.0458848959
30
0.0000000000
10
6.7483168258
20
20.0541840766
30
0.0000000000
10
6.7475536304
20
20.0585786438
30
0.0000000000
11
6.7649204226
21
20.0000000000
31
0.0000000000
11
6.7631306366
21
20.0009671029
31
0.0000000000
11
6.7611917911
21
20.0038560231
31
0.0000000000
11
6.7591227491
21
20.0086348666
31
0.0000000000
11
6.7569435064
21
20.0152543421
31
0.0000000000
11
6.7546750065
21
20.0236483210
31
0.0000000000
11
6.7523389519
21
20.0337345231
31
0.0000000000
11
6.7499576120
21
20.0454153211
31
0.0000000000
11
6.7475536304
21
20.0585786438
31
0.0000000000
0
SPLINE
5
2D6
100
AcDbEntity
8
0
100
AcDbSpline
62
7
6
CONTINUOUS
70
0
71
3
72
28
73
24
74
22
42
0.0000001000
43
0.0000001000
44
0.0000000001
12
0.3454312139
22
0.0000000000
32
0.0000000000
13
-0.3401833376
23
-0.0599835008
33
0.0000000000
40
0.0000000000
40
0.0000000000
40
0.0000000000
40
0.0000000000
40
0.1112545379
40
0.2107048087
40
0.2999722692
40
0.3806638774
40
0.4541627993
40
0.5212709366
40
0.5825100595
40
0.6384753332
40
0.6897884178
40
0.7370870353
40
0.7808247311
40
0.8209029822
40
0.8569070726
40
0.8887012752
40
0.9162963141
40
0.9397279102
40
0.9592246826
40
0.9749596766
40
0.9867603430
40
0.9947670225
40
1.0000000000
40
1.0000000000
40
1.0000000000
40
1.0000000000
10
8.4002862699
20
20.3500000000
30
0.0000000000
10
8.4130965333
20
20.3500000000
30
0.0000000000
10
8.4373578726
20
20.3499983072
30
0.0000000000
10
8.4718978002
20
20.3499906049
30
0.0000000000
10
8.5029185965
20
20.3499787290
30
0.0000000000
10
8.5309512554
20
20.3499632736
30
0.0000000000
10
8.5564324046
20
20.3499446382
30
0.0000000000
10
8.5796737184
20
20.3499231138
30
0.0000000000
10
8.6008961399
20
20.3498989413
30
0.0000000000
10
8.6202998515
20
20.3498722784
30
0.0000000000
10
8.6380984085
20
20.3498431347
30
0.0000000000
10
8.6544889871
20
20.3498113692
30
0.0000000000
10
8.6695860773
20
20.3497768122
30
0.0000000000
10
8.6833822005
20
20.3497394339
30
0.0000000000
10
8.6958045703
20
20.3496994836
30
0.0000000000
10
8.7067849470
20
20.3496571618
30
0.0000000000
10
8.7163316780
20
20.3496131446
30
0.0000000000
10
8.7244210188
20
20.3495664602
30
0.0000000000
10
8.7312631170
20
20.3495205730
30
0.0000000000
10
8.7364425714
20
20.3494664618
30
0.0000000000
10
8.7411113813
20
20.3494285543
30
0.0000000000
10
8.7427373317
20
20.3493511331
30
0.0000000000
10
8.7463054950
20
20.3493485591
30
0.0000000000
10
8.7457121044
20
20.3492439283
30
0.0000000000
11
8.4002862699
21
20.3500000000
31
0.0000000000
11
8.4387170599
21
20.3499971760
31
0.0000000000
11
8.4730702868
21
20.3499893789
31
0.0000000000
11
8.5039060517
21
20.3499774413
31
0.0000000000
11
8.5317794476
21
20.3499619418
31
0.0000000000
11
8.5571682625
21
20.3499432384
31
0.0000000000
11
8.5803494978
21
20.3499216279
31
0.0000000000
11
8.6015033884
21
20.3498973834
31
0.0000000000
11
8.6208355224
21
20.3498706571
31
0.0000000000
11
8.6385606394
21
20.3498414536
31
0.0000000000
11
8.6548990272
21
20.3498095815
31
0.0000000000
11
8.6700073524
21
20.3497747433
31
0.0000000000
11
8.6838515797
21
20.3497369304
31
0.0000000000
11
8.6962884507
21
20.3496965227
31
0.0000000000
11
8.7072710776
21
20.3496538040
31
0.0000000000
11
8.7168031600
21
20.3496089844
31
0.0000000000
11
8.7248970302
21
20.3495623176
31
0.0000000000
11
8.7316316481
21
20.3495136569
31
0.0000000000
11
8.7370667673
21
20.3494626903
31
0.0000000000
11
8.7411427487
21
20.3494102689
31
0.0000000000
11
8.7439079847
21
20.3493565867
31
0.0000000000
11
8.7457121044
21
20.3492439283
31
0.0000000000
0
SPLINE
5
2D7
100
AcDbEntity
8
0
100
AcDbSpline
62
7
6
CONTINUOUS
70
0
71
3
72
13
73
9
74
7
42
0.0000001000
43
0.0000001000
44
0.0000000001
12
0.0000000000
22
0.2500009314
32
0.0000000000
13
-0.0012596036
23
0.2499977582
33
0.0000000000
40
0.0000000000
40
0.0000000000
40
0.0000000000
40
0.0000000000
40
0.1741183497
40
0.3473540926
40
0.5176249891
40
0.6839644404
40
0.8454013723
40
1.0000000000
40
1.0000000000
40
1.0000000000
40
1.0000000000
10
-9.8607290949
20
5.1267949192
30
0.0000000000
10
-9.8607290949
20
5.1413048358
30
0.0000000000
10
-9.8607400702
20
5.1702511192
30
0.0000000000
10
-9.8607894250
20
5.2133866716
30
0.0000000000
10
-9.8608713035
20
5.2558739297
30
0.0000000000
10
-9.8609850205
20
5.2973778734
30
0.0000000000
10
-9.8611296929
20
5.3375756854
30
0.0000000000
10
-9.8612487732
20
5.3639118158
30
0.0000000000
10
-9.8613136842
20
5.3767949192
30
0.0000000000
11
-9.8607290949
21
5.1267949192
31
0.0000000000
11
-9.8607456624
21
5.1703246657
31
0.0000000000
11
-9.8607954080
21
5.2136337342
31
0.0000000000
11
-9.8608777686
21
5.2562015372
31
0.0000000000
11
-9.8609921831
21
5.2977863976
31
0.0000000000
11
-9.8611380835
21
5.3381455172
31
0.0000000000
11
-9.8613136842
21
5.3767949192
31
0.0000000000
0
SPLINE
5
2D8
100
AcDbEntity
8
0
100
AcDbSpline
62
7
6
CONTINUOUS
70
0
71
3
72
13
73
9
74
7
42
0.0000001000
43
0.0000001000
44
0.0000000001
12
-0.0012596036
22
-0.2499977582
32
0.0000000000
13
-0.0000000000
23
-0.2500009314
33
0.0000000000
40
0.0000000000
40
0.0000000000
40
0.0000000000
40
0.0000000000
40
0.1545986277
40
0.3160355596
40
0.4823750109
40
0.6526459074
40
0.8258816503
40
1.0000000000
40
1.0000000000
40
1.0000000000
40
1.0000000000
10
9.8613136842
20
5.3767949192
30
0.0000000000
10
9.8612487732
20
5.3639118158
30
0.0000000000
10
9.8611296929
20
5.3375756854
30
0.0000000000
10
9.8609850205
20
5.2973778734
30
0.0000000000
10
9.8608713035
20
5.2558739297
30
0.0000000000
10
9.8607894250
20
5.2133866716
30
0.0000000000
10
9.8607400702
20
5.1702511192
30
0.0000000000
10
9.8607290949
20
5.1413048358
30
0.0000000000
10
9.8607290949
20
5.1267949192
30
0.0000000000
11
9.8613136842
21
5.3767949192
31
0.0000000000
11
9.8611380835
21
5.3381455172
31
0.0000000000
11
9.8609921831
21
5.2977863976
31
0.0000000000
11
9.8608777686
21
5.2562015372
31
0.0000000000
11
9.8607954080
21
5.2136337342
31
0.0000000000
11
9.8607456624
21
5.1703246657
31
0.0000000000
11
9.8607290949
21
5.1267949192
31
0.0000000000
0
SPLINE
5
2D9
100
AcDbEntity
8
0
100
AcDbSpline
62
7
6
CONTINUOUS
70
0
71
3
72
13
73
9
74
7
42
0.0000001000
43
0.0000001000
44
0.0000000001
12
0.0000000000
22
-0.2500009314
32
0.0000000000
13
-0.0012596036
23
-0.2499977582
33
0.0000000000
40
0.0000000000
40
0.0000000000
40
0.0000000000
40
0.0000000000
40
0.1741268238
40
0.3473704640
40
0.5176453093
40
0.6839800629
40
0.8454090823
40
1.0000000000
40
1.0000000000
40
1.0000000000
40
1.0000000000
10
9.8659652156
20
6.4339745962
30
0.0000000000
10
9.8659652156
20
6.4194639735
30
0.0000000000
10
9.8659542393
20
6.3905163258
30
0.0000000000
10
9.8659048802
20
6.3473790801
30
0.0000000000
10
9.8658229969
20
6.3048912262
30
0.0000000000
10
9.8657092781
20
6.2633880043
30
0.0000000000
10
9.8655646093
20
6.2231918857
30
0.0000000000
10
9.8654455341
20
6.1968570572
30
0.0000000000
10
9.8653806263
20
6.1839745962
30
0.0000000000
11
9.8659652156
21
6.4339745962
31
0.0000000000
11
9.8659486465
21
6.3904427312
31
0.0000000000
11
9.8658988963
21
6.3471316884
31
0.0000000000
11
9.8658165301
21
6.3045628982
31
0.0000000000
11
9.8657021150
21
6.2629792122
31
0.0000000000
11
9.8655562192
21
6.2226220707
31
0.0000000000
11
9.8653806263
21
6.1839745962
31
0.0000000000
0
SPLINE
5
2DA
100
AcDbEntity
8
0
100
AcDbSpline
62
7
6
CONTINUOUS
70
0
71
3
72
13
73
9
74
7
42
0.0000001000
43
0.0000001000
44
0.0000000001
12
-0.0012596036
22
0.2499977582
32
0.0000000000
13
0.0000000000
23
0.2500009314
33
0.0000000000
40
0.0000000000
40
0.0000000000
40
0.0000000000
40
0.0000000000
40
0.1545909177
40
0.3160199371
40
0.4823546907
40
0.6526295360
40
0.8258731762
40
1.0000000000
40
1.0000000000
40
1.0000000000
40
1.0000000000
10
-9.8653806263
20
6.1839745962
30
0.0000000000
10
-9.8654455341
20
6.1968570572
30
0.0000000000
10
-9.8655646093
20
6.2231918857
30
0.0000000000
10
-9.8657092781
20
6.2633880043
30
0.0000000000
10
-9.8658229969
20
6.3048912262
30
0.0000000000
10
-9.8659048802
20
6.3473790801
30
0.0000000000
10
-9.8659542393
20
6.3905163258
30
0.0000000000
10
-9.8659652156
20
6.4194639735
30
0.0000000000
10
-9.8659652156
20
6.4339745962
30
0.0000000000
11
-9.8653806263
21
6.1839745962
31
0.0000000000
11
-9.8655562192
21
6.2226220707
31
0.0000000000
11
-9.8657021150
21
6.2629792122
31
0.0000000000
11
-9.8658165301
21
6.3045628982
31
0.0000000000
11
-9.8658988963
21
6.3471316884
31
0.0000000000
11
-9.8659486465
21
6.3904427312
31
0.0000000000
11
-9.8659652156
21
6.4339745962
31
0.0000000000
0
SPLINE
5
2DB
100
AcDbEntity
8
0
100
AcDbSpline
62
7
6
CONTINUOUS
70
0
71
3
72
13
73
9
74
7
42
0.0000001000
43
0.0000001000
44
0.0000000001
12
0.0000000000
22
-0.2500009314
32
0.0000000000
13
0.0012596036
23
-0.2499977582
33
0.0000000000
40
0.0000000000
40
0.0000000000
40
0.0000000000
40
0.0000000000
40
0.1741183497
40
0.3473540926
40
0.5176249891
40
0.6839644404
40
0.8454013723
40
1.0000000000
40
1.0000000000
40
1.0000000000
40
1.0000000000
10
9.8607290949
20
-5.1267949192
30
0.0000000000
10
9.8607290949
20
-5.1413048358
30
0.0000000000
10
9.8607400702
20
-5.1702511192
30
0.0000000000
10
9.8607894250
20
-5.2133866716
30
0.0000000000
10
9.8608713035
20
-5.2558739297
30
0.0000000000
10
9.8609850205
20
-5.2973778734
30
0.0000000000
10
9.8611296929
20
-5.3375756854
30
0.0000000000
10
9.8612487732
20
-5.3639118158
30
0.0000000000
10
9.8613136842
20
-5.3767949192
30
0.0000000000
11
9.8607290949
21
-5.1267949192
31
0.0000000000
11
9.8607456624
21
-5.1703246657
31
0.0000000000
11
9.8607954080
21
-5.2136337342
31
0.0000000000
11
9.8608777686
21
-5.2562015372
31
0.0000000000
11
9.8609921831
21
-5.2977863976
31
0.0000000000
11
9.8611380835
21
-5.3381455172
31
0.0000000000
11
9.8613136842
21
-5.3767949192
31
0.0000000000
0
SPLINE
5
2DC
100
AcDbEntity
8
0
100
AcDbSpline
62
7
6
CONTINUOUS
70
0
71
3
72
13
73
9
74
7
42
0.0000001000
43
0.0000001000
44
0.0000000001
12
0.0012596036
22
0.2499977582
32
0.0000000000
13
0.0000000000
23
0.2500009314
33
0.0000000000
40
0.0000000000
40
0.0000000000
40
0.0000000000
40
0.0000000000
40
0.1545986277
40
0.3160355596
40
0.4823750109
40
0.6526459074
40
0.8258816503
40
1.0000000000
40
1.0000000000
40
1.0000000000
40
1.0000000000
10
-9.8613136842
20
-5.3767949192
30
0.0000000000
10
-9.8612487732
20
-5.3639118158
30
0.0000000000
10
-9.8611296929
20
-5.3375756854
30
0.0000000000
10
-9.8609850205
20
-5.2973778734
30
0.0000000000
10
-9.8608713035
20
-5.2558739297
30
0.0000000000
10
-9.8607894250
20
-5.2133866716
30
0.0000000000
10
-9.8607400702
20
-5.1702511192
30
0.0000000000
10
-9.8607290949
20
-5.1413048358
30
0.0000000000
10
-9.8607290949
20
-5.1267949192
30
0.0000000000
11
-9.8613136842
21
-5.3767949192
31
0.0000000000
11
-9.8611380835
21
-5.3381455172
31
0.0000000000
11
-9.8609921831
21
-5.2977863976
31
0.0000000000
11
-9.8608777686
21
-5.2562015372
31
0.0000000000
11
-9.8607954080
21
-5.2136337342
31
0.0000000000
11
-9.8607456624
21
-5.1703246657
31
0.0000000000
11
-9.8607290949
21
-5.1267949192
31
0.0000000000
0
SPLINE
5
2DD
100
AcDbEntity
8
0
100
AcDbSpline
62
7
6
CONTINUOUS
70
0
71
3
72
13
73
9
74
7
42
0.0000001000
43
0.0000001000
44
0.0000000001
12
0.0012596036
22
-0.2499977582
32
0.0000000000
13
0.0000000000
23
-0.2500009314
33
0.0000000000
40
0.0000000000
40
0.0000000000
40
0.0000000000
40
0.0000000000
40
0.1545986277
40
0.3160355596
40
0.4823750109
40
0.6526459074
40
0.8258816503
40
1.0000000000
40
1.0000000000
40
1.0000000000
40
1.0000000000
10
9.8653806263
20
-6.1839745962
30
0.0000000000
10
9.8654455373
20
-6.1968576997
30
0.0000000000
10
9.8655646177
20
-6.2231938301
30
0.0000000000
10
9.8657092900
20
-6.2633916421
30
0.0000000000
10
9.8658230070
20
-6.3048955858
30
0.0000000000
10
9.8659048855
20
-6.3473828439
30
0.0000000000
10
9.8659542403
20
-6.3905183962
30
0.0000000000
10
9.8659652156
20
-6.4194646797
30
0.0000000000
10
9.8659652156
20
-6.4339745962
30
0.0000000000
11
9.8653806263
21
-6.1839745962
31
0.0000000000
11
9.8655562271
21
-6.2226239982
31
0.0000000000
11
9.8657021274
21
-6.2629831179
31
0.0000000000
11
9.8658165420
21
-6.3045679782
31
0.0000000000
11
9.8658989026
21
-6.3471357813
31
0.0000000000
11
9.8659486482
21
-6.3904448498
31
0.0000000000
11
9.8659652156
21
-6.4339745962
31
0.0000000000
0
SPLINE
5
2DE
100
AcDbEntity
8
0
100
AcDbSpline
62
7
6
CONTINUOUS
70
0
71
3
72
13
73
9
74
7
42
0.0000001000
43
0.0000001000
44
0.0000000001
12
0.0000000000
22
0.2500009314
32
0.0000000000
13
0.0012596036
23
0.2499977582
33
0.0000000000
40
0.0000000000
40
0.0000000000
40
0.0000000000
40
0.0000000000
40
0.1741183497
40
0.3473540926
40
0.5176249891
40
0.6839644404
40
0.8454013723
40
1.0000000000
40
1.0000000000
40
1.0000000000
40
1.0000000000
10
-9.8659652156
20
-6.4339745962
30
0.0000000000
10
-9.8659652156
20
-6.4194646797
30
0.0000000000
10
-9.8659542403
20
-6.3905183962
30
0.0000000000
10
-9.8659048855
20
-6.3473828439
30
0.0000000000
10
-9.8658230070
20
-6.3048955858
30
0.0000000000
10
-9.8657092900
20
-6.2633916421
30
0.0000000000
10
-9.8655646177
20
-6.2231938301
30
0.0000000000
10
-9.8654455373
20
-6.1968576997
30
0.0000000000
10
-9.8653806263
20
-6.1839745962
30
0.0000000000
11
-9.8659652156
21
-6.4339745962
31
0.0000000000
11
-9.8659486482
21
-6.3904448498
31
0.0000000000
11
-9.8658989026
21
-6.3471357813
31
0.0000000000
11
-9.8658165420
21
-6.3045679782
31
0.0000000000
11
-9.8657021274
21
-6.2629831179
31
0.0000000000
11
-9.8655562271
21
-6.2226239982
31
0.0000000000
11
-9.8653806263
21
-6.1839745962
31
0.0000000000
0
SPLINE
5
2DF
100
AcDbEntity
8
0
100
AcDbSpline
62
7
6
CONTINUOUS
70
0
71
3
72
15
73
11
74
9
42
0.0000001000
43
0.0000001000
44
0.0000000001
12
-0.0692428207
22
-0.0098540107
32
0.0000000000
13
-0.0106516044
23
-0.0613331714
33
0.0000000000
40
0.0000000000
40
0.0000000000
40
0.0000000000
40
0.0000000000
40
0.0360651104
40
0.0919551204
40
0.1756084415
40
0.2875575847
40
0.4272353578
40
0.5935484617
40
0.7850477775
40
1.0000000000
40
1.0000000000
40
1.0000000000
40
1.0000000000
10
6.7651663097
20
-20.0000202682
30
0.0000000000
10
6.7643338931
20
-20.0001387302
30
0.0000000000
10
6.7626550659
20
-20.0010206648
30
0.0000000000
10
6.7608596558
20
-20.0044005193
30
0.0000000000
10
6.7588308836
20
-20.0091268619
30
0.0000000000
10
6.7567222858
20
-20.0158005820
30
0.0000000000
10
6.7544868300
20
-20.0241674319
30
0.0000000000
10
6.7521825429
20
-20.0342369016
30
0.0000000000
10
6.7498241252
20
-20.0458848252
30
0.0000000000
10
6.7483168258
20
-20.0541840766
30
0.0000000000
10
6.7475536304
20
-20.0585786438
30
0.0000000000
11
6.7651663097
21
-20.0000202682
31
0.0000000000
11
6.7631306366
21
-20.0009671029
31
0.0000000000
11
6.7611917911
21
-20.0038560231
31
0.0000000000
11
6.7591227491
21
-20.0086348666
31
0.0000000000
11
6.7569435064
21
-20.0152543421
31
0.0000000000
11
6.7546750065
21
-20.0236483210
31
0.0000000000
11
6.7523389519
21
-20.0337345231
31
0.0000000000
11
6.7499576120
21
-20.0454153211
31
0.0000000000
11
6.7475536304
21
-20.0585786438
31
0.0000000000
0
SPLINE
5
2E0
100
AcDbEntity
8
0
100
AcDbSpline
62
7
6
CONTINUOUS
70
0
71
3
72
28
73
24
74
22
42
0.0000001000
43
0.0000001000
44
0.0000000001
12
0.3401832054
22
-0.0599834775
32
0.0000000000
13
-0.3454310797
23
0.0000000000
33
0.0000000000
40
0.0000000000
40
0.0000000000
40
0.0000000000
40
0.0000000000
40
0.0058515845
40
0.0146288346
40
0.0271383053
40
0.0435048266
40
0.0638710467
40
0.0881158063
40
0.1160256268
40
0.1478671725
40
0.1836940368
40
0.2233396419
40
0.2665399586
40
0.3134390328
40
0.3645437747
40
0.4204030025
40
0.4815494167
40
0.5484871154
40
0.6216460665
40
0.7017987557
40
0.7904137593
40
0.8892292812
40
1.0000000000
40
1.0000000000
40
1.0000000000
40
1.0000000000
10
8.7457121044
20
-20.3492439283
30
0.0000000000
10
8.7463756413
20
-20.3493609278
30
0.0000000000
10
8.7424237570
20
-20.3493506859
30
0.0000000000
10
8.7406592244
20
-20.3494377184
30
0.0000000000
10
8.7357235751
20
-20.3494729797
30
0.0000000000
10
8.7302938296
20
-20.3495285153
30
0.0000000000
10
8.7231840192
20
-20.3495740475
30
0.0000000000
10
8.7148647160
20
-20.3496205461
30
0.0000000000
10
8.7051829190
20
-20.3496637746
30
0.0000000000
10
8.6941811080
20
-20.3497050797
30
0.0000000000
10
8.6818235692
20
-20.3497439416
30
0.0000000000
10
8.6681595272
20
-20.3497802944
30
0.0000000000
10
8.6532201451
20
-20.3498139941
30
0.0000000000
10
8.6369614401
20
-20.3498451310
30
0.0000000000
10
8.6192450947
20
-20.3498738426
30
0.0000000000
10
8.5998882648
20
-20.3499001898
30
0.0000000000
10
8.5787083617
20
-20.3499240951
30
0.0000000000
10
8.5555365019
20
-20.3499453653
30
0.0000000000
10
8.5301761860
20
-20.3499637546
30
0.0000000000
10
8.5023198628
20
-20.3499789926
30
0.0000000000
10
8.4715093453
20
-20.3499907083
30
0.0000000000
10
8.4371733534
20
-20.3499983235
30
0.0000000000
10
8.4130408196
20
-20.3500000000
30
0.0000000000
10
8.4002862699
20
-20.3500000000
30
0.0000000000
11
8.7457121044
21
-20.3492439283
31
0.0000000000
11
8.7436942296
21
-20.3493618794
31
0.0000000000
11
8.7406628055
21
-20.3494175318
31
0.0000000000
11
8.7363419690
21
-20.3494704045
31
0.0000000000
11
8.7306886923
21
-20.3495212253
31
0.0000000000
11
8.7236537371
21
-20.3495701702
31
0.0000000000
11
8.7152789733
21
-20.3496167701
31
0.0000000000
11
8.7056381538
21
-20.3496606757
31
0.0000000000
11
8.6946391731
21
-20.3497023081
31
0.0000000000
11
8.6822635231
21
-20.3497416096
31
0.0000000000
11
8.6685687481
21
-20.3497783216
31
0.0000000000
11
8.6536460546
21
-20.3498122209
31
0.0000000000
11
8.6374456869
21
-20.3498434427
31
0.0000000000
11
8.6197925441
21
-20.3498722259
31
0.0000000000
11
8.6004970489
21
-20.3498986474
31
0.0000000000
11
8.5793751906
21
-20.3499226341
31
0.0000000000
11
8.5562528389
21
-20.3499439977
31
0.0000000000
11
8.5309814702
21
-20.3499624547
31
0.0000000000
11
8.5032942445
21
-20.3499777286
31
0.0000000000
11
8.4726838704
21
-20.3499894973
31
0.0000000000
11
8.4385499188
21
-20.3499972011
31
0.0000000000
11
8.4002862699
21
-20.3500000000
31
0.0000000000
0
ENDSEC
0
SECTION
2
OBJECTS
0
DICTIONARY
5
2E1
100
AcDbDictionary
3
ACAD_GROUP
350
2E2
3
ACAD_MLINESTYLE
350
2E3
0
DICTIONARY
5
2E2
102
{ACAD_REACTORS
330
2E1
102
}
100
AcDbDictionary
0
DICTIONARY
5
2E3
102
{ACAD_REACTORS
330
2E1
102
}
100
AcDbDictionary
3
STANDARD
350
2E4
0
MLINESTYLE
5
2E4
102
{ACAD_REACTORS
330
2E3
102
}
100
AcDbMlineStyle
2
STANDARD
70
0
3

62
256
51
90.0
52
90.0
71
2
49
0.5
62
256
6
BYLAYER
49
-0.5
62
256
6
BYLAYER
0
ENDSEC
0
EOF
