999
DXF file: zdi_vp14532010.dxf
999
Pro/ENGINEER 2004090 by Parametric Technology Corporation
0
SECTION
2
HEADER
9
$ACADVER
1
AC1014
9
$HANDSEED
5
       2FC
9
$EXTMAX
10
297.0000000000
20
210.0000000000
9
$EXTMIN
10
0.0000000000
20
0.0000000000
9
$LIMMIN
10
0.0000000000
20
0.0000000000
9
$LIMMAX
10
297.0000000000
20
210.0000000000
9
$VIEWCTR
10
148.5000000000
20
105.0000000000
9
$VIEWSIZE
40
210.0000000000
9
$CLAYER
8
0
9
$LTSCALE
40
16.3350000000
9
$CELTYPE
6
BYLAYER
9
$DIMSCALE
40
1
9
$DIMASZ
40
3.0000000000
9
$DIMEXO
40
1.8562500000
9
$DIMDLI
40
11.2860000000
9
$DIMEXE
40
5.3460000000
9
$DIMCEN
40
2.6730000000
9
$DIMLFAC
40
1.0000000000
9
$DIMTXT
40
3.0000000000
9
$DIMTOL
70
1
9
$DIMLIM
70
0
9
$DIMTFAC
40
1.0000000000
9
$DIMTP
40
0.0100000000
9
$DIMTM
40
0.0100000000
9
$MEASUREMENT
70
1
0
ENDSEC
0
SECTION
2
CLASSES
0
ENDSEC
0
SECTION
2
TABLES
0
TABLE
2
VPORT
5
8
100
AcDbSymbolTable
70
2
0
VPORT
5
1F4
100
AcDbSymbolTableRecord
100
AcDbViewportTableRecord
2
*ACTIVE
70
0
10
0.0
20
0.0
11
1.0
21
1.0
12
148.5000000000
22
105.0000000000
13
0.0
23
0.0
14
1.0
24
1.0
15
0.0
25
0.0
16
0.0
26
0.0
36
1.0
17
0.0
27
0.0
37
0.0
40
210.0000000000
41
1.4142857143
42
50.0
43
0.0
44
0.0
50
0.0
51
0.0
71
0
72
100
73
1
74
1
75
0
76
0
77
0
78
0
0
ENDTAB
0
TABLE
2
LTYPE
5
5
100
AcDbSymbolTable
70
6
0
LTYPE
5
14
100
AcDbSymbolTableRecord
100
AcDbLinetypeTableRecord
2
BYBLOCK
70
0
3

72
65
73
0
40
0.0
0
LTYPE
5
15
100
AcDbSymbolTableRecord
100
AcDbLinetypeTableRecord
2
BYLAYER
70
0
3

72
65
73
0
40
0.0
0
LTYPE
5
16
100
AcDbSymbolTableRecord
100
AcDbLinetypeTableRecord
2
CONTINUOUS
70
64
3
Solid line
72
65
73
0
40
0
0
LTYPE
5
1F5
100
AcDbSymbolTableRecord
100
AcDbLinetypeTableRecord
2
CENTER
70
64
3
____ _ ____ _ ____ _ ____ _ ____ _ ____ _ ____
72
65
73
4
40
0.6
49
0.375
74
0
49
-0.075
74
0
49
0.075
74
0
49
-0.075
74
0
0
LTYPE
5
1F6
100
AcDbSymbolTableRecord
100
AcDbLinetypeTableRecord
2
HIDDEN
70
64
3
- - - - - - - - - - - - - - - - - - - -
72
65
73
2
40
0.2
49
0.1
74
0
49
-0.1
74
0
0
LTYPE
5
1F7
100
AcDbSymbolTableRecord
100
AcDbLinetypeTableRecord
2
PHANTOM
70
64
3
_____ _ _ _____ _ _ _____ _ _ _____
72
65
73
6
40
0.8
49
0.45
74
0
49
-0.05
74
0
49
0.1
74
0
49
-0.05
74
0
49
0.1
74
0
49
-0.05
74
0
0
LTYPE
5
1F8
100
AcDbSymbolTableRecord
100
AcDbLinetypeTableRecord
2
DOT
70
64
3
. . . . . . . . . . . . . . . . . . . .
72
65
73
2
40
0.2
49
0.1
74
0
49
-0.1
74
0
0
LTYPE
5
1F9
100
AcDbSymbolTableRecord
100
AcDbLinetypeTableRecord
2
DASHED
70
64
3
- - - - - - - - - - - - - - - - - - - -
72
65
73
2
40
0.2
49
0.1
74
0
49
-0.1
74
0
0
ENDTAB
0
TABLE
2
LAYER
5
2
100
AcDbSymbolTable
70
36
0
LAYER
5
10
100
AcDbSymbolTableRecord
100
AcDbLayerTableRecord
2
0
70
0
62
7
6
CONTINUOUS
0
LAYER
5
1FA
100
AcDbSymbolTableRecord
100
AcDbLayerTableRecord
2
DEFAULT_1
70
0
62
7
6
CENTER
0
LAYER
5
1FB
100
AcDbSymbolTableRecord
100
AcDbLayerTableRecord
2
DEFAULT_2
70
0
62
8
6
HIDDEN
0
LAYER
5
1FC
100
AcDbSymbolTableRecord
100
AcDbLayerTableRecord
2
DEFAULT_3
70
0
62
7
6
PHANTOM
0
LAYER
5
1FD
100
AcDbSymbolTableRecord
100
AcDbLayerTableRecord
2
ASSI
70
0
62
7
6
CONTINUOUS
0
LAYER
5
1FE
100
AcDbSymbolTableRecord
100
AcDbLayerTableRecord
2
COORDINATE
70
0
62
7
6
CONTINUOUS
0
LAYER
5
1FF
100
AcDbSymbolTableRecord
100
AcDbLayerTableRecord
2
COORD_ORIGINE
70
0
62
7
6
CONTINUOUS
0
LAYER
5
200
100
AcDbSymbolTableRecord
100
AcDbLayerTableRecord
2
CURVE
70
0
62
7
6
CONTINUOUS
0
LAYER
5
201
100
AcDbSymbolTableRecord
100
AcDbLayerTableRecord
2
CURVE_LED_TASTO
70
0
62
7
6
CONTINUOUS
0
LAYER
5
202
100
AcDbSymbolTableRecord
100
AcDbLayerTableRecord
2
DRAFT
70
0
62
7
6
CONTINUOUS
0
LAYER
5
203
100
AcDbSymbolTableRecord
100
AcDbLayerTableRecord
2
IGES_SCRITTE
70
0
62
7
6
CONTINUOUS
0
LAYER
5
204
100
AcDbSymbolTableRecord
100
AcDbLayerTableRecord
2
PIANI
70
0
62
7
6
CONTINUOUS
0
LAYER
5
205
100
AcDbSymbolTableRecord
100
AcDbLayerTableRecord
2
PIANI_ORIGINE
70
0
62
7
6
CONTINUOUS
0
LAYER
5
206
100
AcDbSymbolTableRecord
100
AcDbLayerTableRecord
2
PIANI_RIFERIMENTO
70
0
62
7
6
CONTINUOUS
0
LAYER
5
207
100
AcDbSymbolTableRecord
100
AcDbLayerTableRecord
2
PUNTI
70
0
62
7
6
CONTINUOUS
0
LAYER
5
208
100
AcDbSymbolTableRecord
100
AcDbLayerTableRecord
2
RACCORDO
70
0
62
7
6
CONTINUOUS
0
LAYER
5
209
100
AcDbSymbolTableRecord
100
AcDbLayerTableRecord
2
SMUSSO
70
0
62
7
6
CONTINUOUS
0
LAYER
5
20A
100
AcDbSymbolTableRecord
100
AcDbLayerTableRecord
2
SUPERFICI
70
0
62
7
6
CONTINUOUS
0
LAYER
5
20B
100
AcDbSymbolTableRecord
100
AcDbLayerTableRecord
2
TRASH
70
0
62
7
6
CONTINUOUS
0
ENDTAB
0
TABLE
2
STYLE
5
3
100
AcDbSymbolTable
70
1
0
STYLE
5
11
100
AcDbSymbolTableRecord
100
AcDbTextStyleTableRecord
2
STANDARD
70
0
40
0.0
41
0.8000000000
50
0.0
71
0
42
0.2
3
txt
4

0
ENDTAB
0
TABLE
2
VIEW
5
6
100
AcDbSymbolTable
70
0
0
ENDTAB
0
TABLE
2
UCS
5
7
100
AcDbSymbolTable
70
0
0
ENDTAB
0
TABLE
2
APPID
5
9
100
AcDbSymbolTable
70
1
0
APPID
5
20C
100
AcDbSymbolTableRecord
100
AcDbRegAppTableRecord
2
ACAD
70
0
0
ENDTAB
0
TABLE
2
DIMSTYLE
5
A
100
AcDbSymbolTable
70
1
0
DIMSTYLE
105
20D
100
AcDbSymbolTableRecord
100
AcDbDimStyleTableRecord
2
STANDARD
70
0
3

4

5

6

7

40
1.0
41
3.0000000000
42
0.0625
43
0.38
44
0.18
45
0.0
46
0.0
47
0.0100000000
48
0.0100000000
140
3.0000000000
141
0.09
142
0.0
143
25.4
144
1.0000000000
145
0.0
146
1.0000000000
147
0.09
71
1
72
0
73
0
74
0
75
0
76
0
77
1
78
8
170
0
171
2
172
0
173
0
174
0
175
0
176
0
177
0
178
0
270
2
271
2
272
2
273
2
274
2
340
11
275
0
280
0
281
0
282
0
283
1
284
8
285
0
286
0
287
3
288
0
0
ENDTAB
0
TABLE
2
BLOCK_RECORD
5
1
100
AcDbSymbolTable
70
0
0
BLOCK_RECORD
5
1B
100
AcDbSymbolTableRecord
100
AcDbBlockTableRecord
2
*MODEL_SPACE
0
BLOCK_RECORD
5
1C
100
AcDbSymbolTableRecord
100
AcDbBlockTableRecord
2
*PAPER_SPACE
0
ENDTAB
0
ENDSEC
0
SECTION
2
BLOCKS
0
BLOCK
5
1E
100
AcDbEntity
8
0
100
AcDbBlockBegin
2
*MODEL_SPACE
70
0
10
0.0
20
0.0
30
0.0
3
*MODEL_SPACE
1

0
ENDBLK
5
1F
100
AcDbEntity
8
0
100
AcDbBlockEnd
0
BLOCK
5
20
100
AcDbEntity
8
0
100
AcDbBlockBegin
2
*PAPER_SPACE
70
0
10
0.0
20
0.0
30
0.0
3
*PAPER_SPACE
1

0
ENDBLK
5
21
100
AcDbEntity
8
0
100
AcDbBlockEnd
0
ENDSEC
0
SECTION
2
ENTITIES
0
LINE
5
20E
100
AcDbEntity
8
0
100
AcDbLine
62
7
6
CONTINUOUS
10
-21.1153806263
20
6.1839745962
11
-21.1113136842
21
5.3767949192
0
LINE
5
20F
100
AcDbEntity
8
0
100
AcDbLine
62
7
6
CONTINUOUS
10
-22.4000000000
20
21.0501218439
11
-22.4000000000
21
-21.0501218439
0
LINE
5
210
100
AcDbEntity
8
0
100
AcDbLine
62
7
6
CONTINUOUS
10
-21.1500000000
20
20.3500000000
11
-21.1500000000
21
-20.3500000000
0
LINE
5
211
100
AcDbEntity
8
0
100
AcDbLine
62
7
6
CONTINUOUS
10
-21.1159652156
20
20.3159652156
11
-21.1159652156
21
6.4339745962
0
LINE
5
212
100
AcDbEntity
8
0
100
AcDbLine
62
7
6
CONTINUOUS
10
-21.1159652156
20
-6.4339745962
11
-21.1159652156
21
-20.3159652156
0
LINE
5
213
100
AcDbEntity
8
0
100
AcDbLine
62
7
6
CONTINUOUS
10
-21.1107290949
20
-5.1267949192
11
-21.1107290949
21
5.1267949192
0
LINE
5
214
100
AcDbEntity
8
0
100
AcDbLine
62
7
6
CONTINUOUS
10
-21.1113136842
20
-5.3767949192
11
-21.1153806263
21
-6.1839745962
0
LINE
5
215
100
AcDbEntity
8
0
100
AcDbLine
62
7
6
CONTINUOUS
10
-21.6001218439
20
-21.8500000000
11
21.6001218439
21
-21.8500000000
0
LINE
5
216
100
AcDbEntity
8
0
100
AcDbLine
62
7
6
CONTINUOUS
10
21.1500000000
20
-20.3500000000
11
-21.1500000000
21
-20.3500000000
0
LINE
5
217
100
AcDbEntity
8
0
100
AcDbLine
62
7
6
CONTINUOUS
10
-21.1159652156
20
-20.3159652156
11
-19.0569791461
21
-20.3159652156
0
LINE
5
218
100
AcDbEntity
8
0
100
AcDbLine
62
7
6
CONTINUOUS
10
-16.7500000000
20
-20.3159652156
11
16.7500000000
21
-20.3159652156
0
LINE
5
219
100
AcDbEntity
8
0
100
AcDbLine
62
7
6
CONTINUOUS
10
19.0569791461
20
-20.3159652156
11
21.1159652156
21
-20.3159652156
0
LINE
5
21A
100
AcDbEntity
8
0
100
AcDbLine
62
9
6
CONTINUOUS
10
17.2475536304
20
-20.0585786438
11
16.7500000000
21
-20.0585786438
0
LINE
5
21B
100
AcDbEntity
8
0
100
AcDbLine
62
9
6
CONTINUOUS
10
-16.7500000000
20
-20.0585786438
11
-17.2475536304
21
-20.0585786438
0
LINE
5
21C
100
AcDbEntity
8
0
100
AcDbLine
62
7
6
CONTINUOUS
10
17.2650513631
20
-20.0000000000
11
16.7500000000
21
-20.0000000000
0
LINE
5
21D
100
AcDbEntity
8
0
100
AcDbLine
62
7
6
CONTINUOUS
10
-16.7500000000
20
-20.0000000000
11
-17.2649204226
21
-20.0000000000
0
LINE
5
21E
100
AcDbEntity
8
0
100
AcDbLine
62
7
6
CONTINUOUS
10
-16.7500000000
20
20.3500000000
11
-16.7500000000
21
20.0001372390
0
LINE
5
21F
100
AcDbEntity
8
0
100
AcDbLine
62
7
6
CONTINUOUS
10
-16.7500000000
20
-20.0000000000
11
-16.7500000000
21
-20.3500000000
0
LINE
5
220
100
AcDbEntity
8
0
100
AcDbLine
62
9
6
CONTINUOUS
10
-17.2475536304
20
-20.0585786438
11
-18.9002862699
21
-20.3500000000
0
LINE
5
221
100
AcDbEntity
8
0
100
AcDbLine
62
7
6
CONTINUOUS
10
-17.2651646552
20
-20.0000199765
11
-19.2457121044
21
-20.3492439283
0
LINE
5
222
100
AcDbEntity
8
0
100
AcDbLine
62
9
6
CONTINUOUS
10
18.9002862699
20
-20.3500000000
11
17.2475536304
21
-20.0585786438
0
LINE
5
223
100
AcDbEntity
8
0
100
AcDbLine
62
7
6
CONTINUOUS
10
19.2457121044
20
-20.3492439283
11
17.2650513631
21
-20.0000000000
0
LINE
5
224
100
AcDbEntity
8
0
100
AcDbLine
62
7
6
CONTINUOUS
10
-16.1500000000
20
-8.6500000000
11
-16.1500000000
21
-14.3500000000
0
LINE
5
225
100
AcDbEntity
8
0
100
AcDbLine
62
9
6
CONTINUOUS
10
-15.8500000000
20
-14.6500000000
11
-15.8500000000
21
-8.3500000000
0
LINE
5
226
100
AcDbEntity
8
0
100
AcDbLine
62
9
6
CONTINUOUS
10
-15.6500000000
20
-14.6500000000
11
-15.6500000000
21
-8.3500000000
0
LINE
5
227
100
AcDbEntity
8
0
100
AcDbLine
62
7
6
CONTINUOUS
10
-15.3500000000
20
-14.3500000000
11
-15.3500000000
21
-8.6500000000
0
LINE
5
228
100
AcDbEntity
8
0
100
AcDbLine
62
7
6
CONTINUOUS
10
-7.1500000000
20
-14.9500000000
11
-6.3500000000
21
-14.9500000000
0
LINE
5
229
100
AcDbEntity
8
0
100
AcDbLine
62
7
6
CONTINUOUS
10
15.3500000000
20
-14.9500000000
11
16.1500000000
21
-14.9500000000
0
LINE
5
22A
100
AcDbEntity
8
0
100
AcDbLine
62
7
6
CONTINUOUS
10
-15.8500000000
20
-14.6500000000
11
-15.6500000000
21
-14.6500000000
0
LINE
5
22B
100
AcDbEntity
8
0
100
AcDbLine
62
7
6
CONTINUOUS
10
6.6500000000
20
-14.6500000000
11
6.8500000000
21
-14.6500000000
0
LINE
5
22C
100
AcDbEntity
8
0
100
AcDbLine
62
9
6
CONTINUOUS
10
-6.0500000000
20
-14.6500000000
11
-7.4500000000
21
-14.6500000000
0
LINE
5
22D
100
AcDbEntity
8
0
100
AcDbLine
62
9
6
CONTINUOUS
10
15.0500000000
20
-14.6500000000
11
16.4500000000
21
-14.6500000000
0
LINE
5
22E
100
AcDbEntity
8
0
100
AcDbLine
62
9
6
CONTINUOUS
10
6.3500000000
20
-14.3500000000
11
7.1500000000
21
-14.3500000000
0
LINE
5
22F
100
AcDbEntity
8
0
100
AcDbLine
62
9
6
CONTINUOUS
10
-15.3500000000
20
-14.3500000000
11
-16.1500000000
21
-14.3500000000
0
LINE
5
230
100
AcDbEntity
8
0
100
AcDbLine
62
9
6
CONTINUOUS
10
6.3500000000
20
-8.6500000000
11
7.1500000000
21
-8.6500000000
0
LINE
5
231
100
AcDbEntity
8
0
100
AcDbLine
62
9
6
CONTINUOUS
10
-15.3500000000
20
-8.6500000000
11
-16.1500000000
21
-8.6500000000
0
LINE
5
232
100
AcDbEntity
8
0
100
AcDbLine
62
7
6
CONTINUOUS
10
6.8500000000
20
-8.3500000000
11
6.6500000000
21
-8.3500000000
0
LINE
5
233
100
AcDbEntity
8
0
100
AcDbLine
62
9
6
CONTINUOUS
10
-6.0500000000
20
-8.3500000000
11
-7.4500000000
21
-8.3500000000
0
LINE
5
234
100
AcDbEntity
8
0
100
AcDbLine
62
7
6
CONTINUOUS
10
-15.6500000000
20
-8.3500000000
11
-15.8500000000
21
-8.3500000000
0
LINE
5
235
100
AcDbEntity
8
0
100
AcDbLine
62
9
6
CONTINUOUS
10
15.0500000000
20
-8.3500000000
11
16.4500000000
21
-8.3500000000
0
LINE
5
236
100
AcDbEntity
8
0
100
AcDbLine
62
7
6
CONTINUOUS
10
-7.4500000000
20
-8.3500000000
11
-7.4500000000
21
-14.6500000000
0
LINE
5
237
100
AcDbEntity
8
0
100
AcDbLine
62
9
6
CONTINUOUS
10
-7.1500000000
20
-14.9500000000
11
-7.1500000000
21
-8.0500000000
0
LINE
5
238
100
AcDbEntity
8
0
100
AcDbLine
62
9
6
CONTINUOUS
10
-6.3500000000
20
-14.9500000000
11
-6.3500000000
21
-8.0500000000
0
LINE
5
239
100
AcDbEntity
8
0
100
AcDbLine
62
7
6
CONTINUOUS
10
-6.0500000000
20
-14.6500000000
11
-6.0500000000
21
-8.3500000000
0
LINE
5
23A
100
AcDbEntity
8
0
100
AcDbLine
62
7
6
CONTINUOUS
10
16.1500000000
20
-8.0500000000
11
15.3500000000
21
-8.0500000000
0
LINE
5
23B
100
AcDbEntity
8
0
100
AcDbLine
62
7
6
CONTINUOUS
10
-6.3500000000
20
-8.0500000000
11
-7.1500000000
21
-8.0500000000
0
LINE
5
23C
100
AcDbEntity
8
0
100
AcDbLine
62
9
6
CONTINUOUS
10
21.1159652156
20
-6.4339745962
11
-21.1159652156
21
-6.4339745962
0
LINE
5
23D
100
AcDbEntity
8
0
100
AcDbLine
62
9
6
CONTINUOUS
10
21.1153806263
20
-6.1839745962
11
-21.1153806263
21
-6.1839745962
0
LINE
5
23E
100
AcDbEntity
8
0
100
AcDbLine
62
7
6
CONTINUOUS
10
12.7257301358
20
-3.0536579815
11
12.5421418752
21
-3.0786930170
0
LINE
5
23F
100
AcDbEntity
8
0
100
AcDbLine
62
7
6
CONTINUOUS
10
11.5741307836
20
-3.0682620165
11
11.3821974442
21
-3.0828650423
0
LINE
5
240
100
AcDbEntity
8
0
100
AcDbLine
62
9
6
CONTINUOUS
10
21.1113136842
20
-5.3767949192
11
-21.1113136842
21
-5.3767949192
0
LINE
5
241
100
AcDbEntity
8
0
100
AcDbLine
62
9
6
CONTINUOUS
10
21.1107290949
20
-5.1267949192
11
-21.1107290949
21
-5.1267949192
0
LINE
5
242
100
AcDbEntity
8
0
100
AcDbLine
62
7
6
CONTINUOUS
10
9.5671770000
20
-3.4750770000
11
9.7507650000
21
-3.4750770000
0
LINE
5
243
100
AcDbEntity
8
0
100
AcDbLine
62
7
6
CONTINUOUS
10
10.8084840000
20
-3.4750770000
11
10.9920720000
21
-3.4750770000
0
LINE
5
244
100
AcDbEntity
8
0
100
AcDbLine
62
7
6
CONTINUOUS
10
13.6749652247
20
-3.4750770000
11
14.6638390000
21
-3.4750770000
0
LINE
5
245
100
AcDbEntity
8
0
100
AcDbLine
62
7
6
CONTINUOUS
10
14.6638390000
20
-3.2998330000
11
13.9304310175
21
-3.2998330000
0
LINE
5
246
100
AcDbEntity
8
0
100
AcDbLine
62
7
6
CONTINUOUS
10
10.1596660000
20
-3.1183310000
11
10.8084840000
21
-3.1183310000
0
LINE
5
247
100
AcDbEntity
8
0
100
AcDbLine
62
7
6
CONTINUOUS
10
10.9920720000
20
-3.1183310000
11
11.1944370000
21
-3.1183310000
0
LINE
5
248
100
AcDbEntity
8
0
100
AcDbLine
62
7
6
CONTINUOUS
10
11.1944370000
20
-2.9493470000
11
10.9920720000
21
-2.9493470000
0
LINE
5
249
100
AcDbEntity
8
0
100
AcDbLine
62
7
6
CONTINUOUS
10
10.8084840000
20
-2.9493470000
11
10.3400270000
21
-2.9493470000
0
LINE
5
24A
100
AcDbEntity
8
0
100
AcDbLine
62
7
6
CONTINUOUS
10
11.7058240000
20
-2.1753550000
11
12.3001390000
21
-2.1753550000
0
LINE
5
24B
100
AcDbEntity
8
0
100
AcDbLine
62
7
6
CONTINUOUS
10
12.3001390000
20
-2.0001120000
11
11.5595270000
21
-2.0001120000
0
LINE
5
24C
100
AcDbEntity
8
0
100
AcDbLine
62
7
6
CONTINUOUS
10
10.9920720000
20
-1.9813350000
11
10.8418640000
21
-1.9813350000
0
LINE
5
24D
100
AcDbEntity
8
0
100
AcDbLine
62
7
6
CONTINUOUS
10
9.7507650000
20
-1.9750770000
11
9.6324364433
21
-1.9750770000
0
LINE
5
24E
100
AcDbEntity
8
0
100
AcDbLine
62
7
6
CONTINUOUS
10
-21.1500000000
20
-20.3500000000
11
-21.1159652156
21
-20.3159652156
0
LINE
5
24F
100
AcDbEntity
8
0
100
AcDbLine
62
7
6
CONTINUOUS
10
13.7104310976
20
-2.4069270098
11
13.8981919152
21
-2.4257029915
0
LINE
5
250
100
AcDbEntity
8
0
100
AcDbLine
62
7
6
CONTINUOUS
10
11.4155770000
20
-2.7678450000
11
11.5887345192
21
-2.7928790751
0
LINE
5
251
100
AcDbEntity
8
0
100
AcDbLine
62
7
6
CONTINUOUS
10
12.5609178883
20
-2.3631159797
11
12.7445063340
21
-2.3964950607
0
LINE
5
252
100
AcDbEntity
8
0
100
AcDbLine
62
7
6
CONTINUOUS
10
-21.1159652156
20
20.3159652156
11
-21.1500000000
21
20.3500000000
0
LINE
5
253
100
AcDbEntity
8
0
100
AcDbLine
62
7
6
CONTINUOUS
10
21.1159652156
20
20.3159652156
11
21.1500000000
21
20.3500000000
0
LINE
5
254
100
AcDbEntity
8
0
100
AcDbLine
62
7
6
CONTINUOUS
10
15.0620610000
20
2.0000080000
11
15.4337690000
21
2.0000120000
0
LINE
5
255
100
AcDbEntity
8
0
100
AcDbLine
62
7
6
CONTINUOUS
10
12.5036660000
20
2.0000040000
11
12.8336780000
21
2.0000080000
0
LINE
5
256
100
AcDbEntity
8
0
100
AcDbLine
62
7
6
CONTINUOUS
10
11.3116310000
20
2.0000040000
11
11.6416350000
21
2.0000080000
0
LINE
5
257
100
AcDbEntity
8
0
100
AcDbLine
62
7
6
CONTINUOUS
10
10.0095960000
20
2.0000000000
11
10.3396080000
21
2.0000040000
0
LINE
5
258
100
AcDbEntity
8
0
100
AcDbLine
62
7
6
CONTINUOUS
10
8.9297820000
20
2.0000000000
11
9.2598070000
21
2.0000040000
0
LINE
5
259
100
AcDbEntity
8
0
100
AcDbLine
62
7
6
CONTINUOUS
10
10.6696120000
20
2.0000040000
11
10.9996250000
21
2.0000040000
0
LINE
5
25A
100
AcDbEntity
8
0
100
AcDbLine
62
7
6
CONTINUOUS
10
11.9536460000
20
2.0000040000
11
12.2836590000
21
2.0000040000
0
LINE
5
25B
100
AcDbEntity
8
0
100
AcDbLine
62
7
6
CONTINUOUS
10
14.1132650000
20
2.0000080000
11
14.4432820000
21
2.0000080000
0
LINE
5
25C
100
AcDbEntity
8
0
100
AcDbLine
62
7
6
CONTINUOUS
10
13.5632420000
20
2.0000080000
11
13.8932580000
21
2.0000040000
0
LINE
5
25D
100
AcDbEntity
8
0
100
AcDbLine
62
7
6
CONTINUOUS
10
12.9378630000
20
2.3245060000
11
13.4590610000
21
2.3245060000
0
LINE
5
25E
100
AcDbEntity
8
0
100
AcDbLine
62
7
6
CONTINUOUS
10
21.1500000000
20
-20.3500000000
11
21.1159652156
21
-20.3159652156
0
LINE
5
25F
100
AcDbEntity
8
0
100
AcDbLine
62
7
6
CONTINUOUS
10
13.3583940000
20
2.6380180000
11
13.0385250000
21
2.6380180000
0
LINE
5
260
100
AcDbEntity
8
0
100
AcDbLine
62
7
6
CONTINUOUS
10
14.4433190000
20
2.6380220000
11
14.7313470000
21
2.6380180000
0
LINE
5
261
100
AcDbEntity
8
0
100
AcDbLine
62
7
6
CONTINUOUS
10
14.8402532571
20
2.9432840000
11
14.4387320000
21
2.9432840000
0
LINE
5
262
100
AcDbEntity
8
0
100
AcDbLine
62
7
6
CONTINUOUS
10
14.4387280000
20
3.3448200000
11
14.8402532571
21
3.3448200000
0
LINE
5
263
100
AcDbEntity
8
0
100
AcDbLine
62
7
6
CONTINUOUS
10
12.2836590000
20
3.6500780000
11
11.7847690000
21
3.6500780000
0
LINE
5
264
100
AcDbEntity
8
0
100
AcDbLine
62
7
6
CONTINUOUS
10
11.1685020000
20
3.6500780000
11
10.6696120000
21
3.6500780000
0
LINE
5
265
100
AcDbEntity
8
0
100
AcDbLine
62
7
6
CONTINUOUS
10
10.3396120000
20
3.6500780000
11
10.0096000000
21
3.6500780000
0
LINE
5
266
100
AcDbEntity
8
0
100
AcDbLine
62
7
6
CONTINUOUS
10
9.7895930000
20
3.6500780000
11
9.4595760000
21
3.6500780000
0
LINE
5
267
100
AcDbEntity
8
0
100
AcDbLine
62
7
6
CONTINUOUS
10
8.7300170000
20
3.6500780000
11
8.4000000000
21
3.6500780000
0
LINE
5
268
100
AcDbEntity
8
0
100
AcDbLine
62
7
6
CONTINUOUS
10
14.8860794997
20
3.6500830000
11
14.1132650000
21
3.6500830000
0
LINE
5
269
100
AcDbEntity
8
0
100
AcDbLine
62
7
6
CONTINUOUS
10
13.3634720000
20
3.6500830000
11
13.0334430000
21
3.6500830000
0
LINE
5
26A
100
AcDbEntity
8
0
100
AcDbLine
62
7
6
CONTINUOUS
10
6.3500000000
20
-8.6500000000
11
6.3500000000
21
-14.3500000000
0
LINE
5
26B
100
AcDbEntity
8
0
100
AcDbLine
62
9
6
CONTINUOUS
10
-21.1107290949
20
5.1267949192
11
21.1107290949
21
5.1267949192
0
LINE
5
26C
100
AcDbEntity
8
0
100
AcDbLine
62
9
6
CONTINUOUS
10
-21.1113136842
20
5.3767949192
11
21.1113136842
21
5.3767949192
0
LINE
5
26D
100
AcDbEntity
8
0
100
AcDbLine
62
9
6
CONTINUOUS
10
21.1153806263
20
6.1839745962
11
-21.1153806263
21
6.1839745962
0
LINE
5
26E
100
AcDbEntity
8
0
100
AcDbLine
62
9
6
CONTINUOUS
10
21.1159652156
20
6.4339745962
11
-21.1159652156
21
6.4339745962
0
LINE
5
26F
100
AcDbEntity
8
0
100
AcDbLine
62
9
6
CONTINUOUS
10
6.6500000000
20
-14.6500000000
11
6.6500000000
21
-8.3500000000
0
LINE
5
270
100
AcDbEntity
8
0
100
AcDbLine
62
9
6
CONTINUOUS
10
6.8500000000
20
-14.6500000000
11
6.8500000000
21
-8.3500000000
0
LINE
5
271
100
AcDbEntity
8
0
100
AcDbLine
62
7
6
CONTINUOUS
10
7.1500000000
20
-14.3500000000
11
7.1500000000
21
-8.6500000000
0
LINE
5
272
100
AcDbEntity
8
0
100
AcDbLine
62
7
6
CONTINUOUS
10
9.4595760000
20
3.6500780000
11
9.0947990000
21
2.5139130000
0
LINE
5
273
100
AcDbEntity
8
0
100
AcDbLine
62
7
6
CONTINUOUS
10
9.2598070000
20
2.0000040000
11
9.7895930000
21
3.6500780000
0
LINE
5
274
100
AcDbEntity
8
0
100
AcDbLine
62
7
6
CONTINUOUS
10
9.2000000000
20
-2.3500767975
11
9.2000000000
21
-2.5273738241
0
LINE
5
275
100
AcDbEntity
8
0
100
AcDbLine
62
7
6
CONTINUOUS
10
9.5671770000
20
-2.3062656304
11
9.5671770000
21
-3.4750770000
0
LINE
5
276
100
AcDbEntity
8
0
100
AcDbLine
62
7
6
CONTINUOUS
10
9.7507650000
20
-3.4750770000
11
9.7507650000
21
-1.9750770000
0
LINE
5
277
100
AcDbEntity
8
0
100
AcDbLine
62
7
6
CONTINUOUS
10
10.0096000000
20
3.6500780000
11
10.0095960000
21
2.0000000000
0
LINE
5
278
100
AcDbEntity
8
0
100
AcDbLine
62
7
6
CONTINUOUS
10
10.1596660000
20
-2.9493470000
11
10.1596660000
21
-3.1183310000
0
LINE
5
279
100
AcDbEntity
8
0
100
AcDbLine
62
7
6
CONTINUOUS
10
10.3396080000
20
2.0000040000
11
10.3396120000
21
3.6500780000
0
LINE
5
27A
100
AcDbEntity
8
0
100
AcDbLine
62
7
6
CONTINUOUS
10
10.6696120000
20
3.6500780000
11
10.6696120000
21
2.0000040000
0
LINE
5
27B
100
AcDbEntity
8
0
100
AcDbLine
62
7
6
CONTINUOUS
10
11.7847690000
20
3.6500780000
11
11.4766350000
21
2.5754910000
0
LINE
5
27C
100
AcDbEntity
8
0
100
AcDbLine
62
7
6
CONTINUOUS
10
11.6416350000
20
2.0000080000
11
11.9536420000
21
3.0881170000
0
LINE
5
27D
100
AcDbEntity
8
0
100
AcDbLine
62
7
6
CONTINUOUS
10
10.3400270000
20
-2.9493470000
11
10.8084840000
21
-2.2773520000
0
LINE
5
27E
100
AcDbEntity
8
0
100
AcDbLine
62
7
6
CONTINUOUS
10
10.8418640000
20
-1.9813350000
11
10.1596660000
21
-2.9493470000
0
LINE
5
27F
100
AcDbEntity
8
0
100
AcDbLine
62
7
6
CONTINUOUS
10
8.4000000000
20
3.6500780000
11
8.9297820000
21
2.0000000000
0
LINE
5
280
100
AcDbEntity
8
0
100
AcDbLine
62
7
6
CONTINUOUS
10
9.0947990000
20
2.5139130000
11
8.7300170000
21
3.6500780000
0
LINE
5
281
100
AcDbEntity
8
0
100
AcDbLine
62
7
6
CONTINUOUS
10
10.8084840000
20
-2.2773520000
11
10.8084840000
21
-2.9493470000
0
LINE
5
282
100
AcDbEntity
8
0
100
AcDbLine
62
7
6
CONTINUOUS
10
10.8084840000
20
-3.1183310000
11
10.8084840000
21
-3.4750770000
0
LINE
5
283
100
AcDbEntity
8
0
100
AcDbLine
62
7
6
CONTINUOUS
10
10.9920720000
20
-3.4750770000
11
10.9920720000
21
-3.1183310000
0
LINE
5
284
100
AcDbEntity
8
0
100
AcDbLine
62
7
6
CONTINUOUS
10
10.9920720000
20
-2.9493470000
11
10.9920720000
21
-1.9813350000
0
LINE
5
285
100
AcDbEntity
8
0
100
AcDbLine
62
7
6
CONTINUOUS
10
10.9996250000
20
2.0000040000
11
10.9996250000
21
3.0881170000
0
LINE
5
286
100
AcDbEntity
8
0
100
AcDbLine
62
7
6
CONTINUOUS
10
11.1944370000
20
-3.1183310000
11
11.1944370000
21
-2.9493470000
0
LINE
5
287
100
AcDbEntity
8
0
100
AcDbLine
62
7
6
CONTINUOUS
10
11.9536420000
20
3.0881170000
11
11.9536460000
21
2.0000040000
0
LINE
5
288
100
AcDbEntity
8
0
100
AcDbLine
62
7
6
CONTINUOUS
10
12.2836590000
20
2.0000040000
11
12.2836590000
21
3.6500780000
0
LINE
5
289
100
AcDbEntity
8
0
100
AcDbLine
62
7
6
CONTINUOUS
10
12.3001390000
20
-2.1753550000
11
12.3001390000
21
-2.0001120000
0
LINE
5
28A
100
AcDbEntity
8
0
100
AcDbLine
62
7
6
CONTINUOUS
10
11.5595270000
20
-2.0001120000
11
11.4155770000
21
-2.7678450000
0
LINE
5
28B
100
AcDbEntity
8
0
100
AcDbLine
62
7
6
CONTINUOUS
10
11.6261559154
20
-2.5782584277
11
11.7058240000
21
-2.1753550000
0
LINE
5
28C
100
AcDbEntity
8
0
100
AcDbLine
62
7
6
CONTINUOUS
10
13.0334430000
20
3.6500830000
11
12.5036660000
21
2.0000040000
0
LINE
5
28D
100
AcDbEntity
8
0
100
AcDbLine
62
7
6
CONTINUOUS
10
12.8336780000
20
2.0000080000
11
12.9378630000
21
2.3245060000
0
LINE
5
28E
100
AcDbEntity
8
0
100
AcDbLine
62
7
6
CONTINUOUS
10
13.0385250000
20
2.6380180000
11
13.1984560000
21
3.1361690000
0
LINE
5
28F
100
AcDbEntity
8
0
100
AcDbLine
62
7
6
CONTINUOUS
10
10.9996250000
20
3.0881170000
11
11.3116310000
21
2.0000040000
0
LINE
5
290
100
AcDbEntity
8
0
100
AcDbLine
62
7
6
CONTINUOUS
10
11.4766350000
20
2.5754910000
11
11.1685020000
21
3.6500780000
0
LINE
5
291
100
AcDbEntity
8
0
100
AcDbLine
62
7
6
CONTINUOUS
10
14.1132650000
20
3.6500830000
11
14.1132650000
21
2.0000080000
0
LINE
5
292
100
AcDbEntity
8
0
100
AcDbLine
62
7
6
CONTINUOUS
10
14.4387320000
20
2.9432840000
11
14.4387280000
21
3.3448200000
0
LINE
5
293
100
AcDbEntity
8
0
100
AcDbLine
62
7
6
CONTINUOUS
10
14.6638390000
20
-3.4750770000
11
14.6638390000
21
-3.2998330000
0
LINE
5
294
100
AcDbEntity
8
0
100
AcDbLine
62
7
6
CONTINUOUS
10
14.4432820000
20
2.0000080000
11
14.4433190000
21
2.6380220000
0
LINE
5
295
100
AcDbEntity
8
0
100
AcDbLine
62
7
6
CONTINUOUS
10
12.9246390615
20
-2.6051185160
11
12.9042329497
21
-2.7657583958
0
LINE
5
296
100
AcDbEntity
8
0
100
AcDbLine
62
7
6
CONTINUOUS
10
14.7313470000
20
2.6380180000
11
15.0620610000
21
2.0000080000
0
LINE
5
297
100
AcDbEntity
8
0
100
AcDbLine
62
7
6
CONTINUOUS
10
15.4337690000
20
2.0000120000
11
15.0824875983
21
2.6777057749
0
LINE
5
298
100
AcDbEntity
8
0
100
AcDbLine
62
7
6
CONTINUOUS
10
13.1984560000
20
3.1361690000
11
13.3583940000
21
2.6380180000
0
LINE
5
299
100
AcDbEntity
8
0
100
AcDbLine
62
7
6
CONTINUOUS
10
13.4590610000
20
2.3245060000
11
13.5632420000
21
2.0000080000
0
LINE
5
29A
100
AcDbEntity
8
0
100
AcDbLine
62
7
6
CONTINUOUS
10
13.8932580000
20
2.0000040000
11
13.3634720000
21
3.6500830000
0
LINE
5
29B
100
AcDbEntity
8
0
100
AcDbLine
62
7
6
CONTINUOUS
10
15.0500000000
20
-8.3500000000
11
15.0500000000
21
-14.6500000000
0
LINE
5
29C
100
AcDbEntity
8
0
100
AcDbLine
62
9
6
CONTINUOUS
10
15.3500000000
20
-14.9500000000
11
15.3500000000
21
-8.0500000000
0
LINE
5
29D
100
AcDbEntity
8
0
100
AcDbLine
62
9
6
CONTINUOUS
10
16.1500000000
20
-14.9500000000
11
16.1500000000
21
-8.0500000000
0
LINE
5
29E
100
AcDbEntity
8
0
100
AcDbLine
62
7
6
CONTINUOUS
10
16.4500000000
20
-14.6500000000
11
16.4500000000
21
-8.3500000000
0
LINE
5
29F
100
AcDbEntity
8
0
100
AcDbLine
62
7
6
CONTINUOUS
10
16.7500000000
20
-20.3500000000
11
16.7500000000
21
-20.0000000000
0
LINE
5
2A0
100
AcDbEntity
8
0
100
AcDbLine
62
7
6
CONTINUOUS
10
16.7500000000
20
20.0000000000
11
16.7500000000
21
20.3500000000
0
LINE
5
2A1
100
AcDbEntity
8
0
100
AcDbLine
62
7
6
CONTINUOUS
10
17.2650513631
20
20.0000000000
11
19.2457121044
21
20.3492439283
0
LINE
5
2A2
100
AcDbEntity
8
0
100
AcDbLine
62
9
6
CONTINUOUS
10
17.2475536304
20
20.0585786438
11
18.9002862699
21
20.3500000000
0
LINE
5
2A3
100
AcDbEntity
8
0
100
AcDbLine
62
7
6
CONTINUOUS
10
-19.2457121044
20
20.3492439283
11
-17.2650513631
21
20.0000000000
0
LINE
5
2A4
100
AcDbEntity
8
0
100
AcDbLine
62
9
6
CONTINUOUS
10
-18.9002862699
20
20.3500000000
11
-17.2475536304
21
20.0585786438
0
LINE
5
2A5
100
AcDbEntity
8
0
100
AcDbLine
62
7
6
CONTINUOUS
10
21.1113136842
20
-5.3767949192
11
21.1153806263
21
-6.1839745962
0
LINE
5
2A6
100
AcDbEntity
8
0
100
AcDbLine
62
7
6
CONTINUOUS
10
21.1107290949
20
-5.1267949192
11
21.1107290949
21
5.1267949192
0
LINE
5
2A7
100
AcDbEntity
8
0
100
AcDbLine
62
7
6
CONTINUOUS
10
21.1159652156
20
20.3159652156
11
21.1159652156
21
6.4339745962
0
LINE
5
2A8
100
AcDbEntity
8
0
100
AcDbLine
62
7
6
CONTINUOUS
10
21.1159652156
20
-6.4339745962
11
21.1159652156
21
-20.3159652156
0
LINE
5
2A9
100
AcDbEntity
8
0
100
AcDbLine
62
7
6
CONTINUOUS
10
21.1153806263
20
6.1839745962
11
21.1113136842
21
5.3767949192
0
LINE
5
2AA
100
AcDbEntity
8
0
100
AcDbLine
62
7
6
CONTINUOUS
10
17.2649204226
20
20.0000000000
11
16.7500000000
21
20.0000000000
0
LINE
5
2AB
100
AcDbEntity
8
0
100
AcDbLine
62
7
6
CONTINUOUS
10
-16.7500000000
20
20.0000000000
11
-17.2649204226
21
20.0000000000
0
LINE
5
2AC
100
AcDbEntity
8
0
100
AcDbLine
62
9
6
CONTINUOUS
10
17.2475536304
20
20.0585786438
11
16.7500000000
21
20.0585786438
0
LINE
5
2AD
100
AcDbEntity
8
0
100
AcDbLine
62
9
6
CONTINUOUS
10
-16.7500000000
20
20.0585786438
11
-17.2475536304
21
20.0585786438
0
LINE
5
2AE
100
AcDbEntity
8
0
100
AcDbLine
62
7
6
CONTINUOUS
10
-21.1159652156
20
20.3159652156
11
-19.0569791461
21
20.3159652156
0
LINE
5
2AF
100
AcDbEntity
8
0
100
AcDbLine
62
7
6
CONTINUOUS
10
-16.7500000000
20
20.3159652156
11
16.7500000000
21
20.3159652156
0
LINE
5
2B0
100
AcDbEntity
8
0
100
AcDbLine
62
7
6
CONTINUOUS
10
19.0569791461
20
20.3159652156
11
21.1159652156
21
20.3159652156
0
LINE
5
2B1
100
AcDbEntity
8
0
100
AcDbLine
62
7
6
CONTINUOUS
10
-21.1500000000
20
20.3500000000
11
21.1500000000
21
20.3500000000
0
LINE
5
2B2
100
AcDbEntity
8
0
100
AcDbLine
62
7
6
CONTINUOUS
10
21.1500000000
20
20.3500000000
11
21.1500000000
21
-20.3500000000
0
LINE
5
2B3
100
AcDbEntity
8
0
100
AcDbLine
62
7
6
CONTINUOUS
10
22.4000000000
20
21.0501218439
11
22.4000000000
21
-21.0501218439
0
LINE
5
2B4
100
AcDbEntity
8
0
100
AcDbLine
62
7
6
CONTINUOUS
10
-21.6001218439
20
21.8500000000
11
21.6001218439
21
21.8500000000
0
CIRCLE
5
2B5
100
AcDbEntity
8
0
100
AcDbCircle
62
7
6
CONTINUOUS
10
-0.0000000000
20
0.0000000000
40
1.2500000000
0
CIRCLE
5
2B6
100
AcDbEntity
8
0
100
AcDbCircle
62
7
6
CONTINUOUS
10
-0.0000000000
20
0.0000000000
40
1.7000000000
0
CIRCLE
5
2B7
100
AcDbEntity
8
0
100
AcDbCircle
62
7
6
CONTINUOUS
10
-0.0000000000
20
0.0000000000
40
2.7500000000
0
CIRCLE
5
2B8
100
AcDbEntity
8
0
100
AcDbCircle
62
9
6
CONTINUOUS
10
-0.0000000000
20
0.0000000000
40
2.2451811825
0
CIRCLE
5
2B9
100
AcDbEntity
8
0
100
AcDbCircle
62
7
6
CONTINUOUS
10
-0.0000000000
20
0.0000000000
40
1.7750000000
0
ARC
5
2BA
100
AcDbEntity
8
0
100
AcDbCircle
62
7
6
CONTINUOUS
10
14.8402380000
20
3.1440520000
40
0.2007690000
100
AcDbArc
50
270.0043541036
51
89.9956458964
0
ARC
5
2BB
100
AcDbEntity
8
0
100
AcDbCircle
62
7
6
CONTINUOUS
10
14.8860430000
20
3.1440520000
40
0.5060329798
100
AcDbArc
50
292.8428677796
51
89.9958672882
0
CIRCLE
5
2BC
100
AcDbEntity
8
0
100
AcDbCircle
62
7
6
CONTINUOUS
10
-0.0000000000
20
0.0000000000
40
2.7451621451
0
ARC
5
2BD
100
AcDbEntity
8
0
100
AcDbCircle
62
7
6
CONTINUOUS
10
16.1500000000
20
-14.6500000000
40
0.3000000000
100
AcDbArc
50
270.0000000000
51
360.0000000000
0
ARC
5
2BE
100
AcDbEntity
8
0
100
AcDbCircle
62
7
6
CONTINUOUS
10
15.3500000000
20
-14.6500000000
40
0.3000000000
100
AcDbArc
50
180.0000000000
51
270.0000000000
0
ARC
5
2BF
100
AcDbEntity
8
0
100
AcDbCircle
62
7
6
CONTINUOUS
10
15.3500000000
20
-8.3500000000
40
0.3000000000
100
AcDbArc
50
90.0000000000
51
180.0000000000
0
ARC
5
2C0
100
AcDbEntity
8
0
100
AcDbCircle
62
7
6
CONTINUOUS
10
6.8500000000
20
-14.3500000000
40
0.3000000000
100
AcDbArc
50
270.0000000000
51
360.0000000000
0
ARC
5
2C1
100
AcDbEntity
8
0
100
AcDbCircle
62
7
6
CONTINUOUS
10
6.8500000000
20
-8.6500000000
40
0.3000000000
100
AcDbArc
50
0.0000000000
51
90.0000000000
0
ARC
5
2C2
100
AcDbEntity
8
0
100
AcDbCircle
62
7
6
CONTINUOUS
10
16.1500000000
20
-8.3500000000
40
0.3000000000
100
AcDbArc
50
0.0000000000
51
90.0000000000
0
ARC
5
2C3
100
AcDbEntity
8
0
100
AcDbCircle
62
7
6
CONTINUOUS
10
6.6500000000
20
-14.3500000000
40
0.3000000000
100
AcDbArc
50
180.0000000000
51
270.0000000000
0
ARC
5
2C4
100
AcDbEntity
8
0
100
AcDbCircle
62
7
6
CONTINUOUS
10
6.6500000000
20
-8.6500000000
40
0.3000000000
100
AcDbArc
50
90.0000000000
51
180.0000000000
0
ARC
5
2C5
100
AcDbEntity
8
0
100
AcDbCircle
62
7
6
CONTINUOUS
10
-6.3500000000
20
-14.6500000000
40
0.3000000000
100
AcDbArc
50
270.0000000000
51
360.0000000000
0
ARC
5
2C6
100
AcDbEntity
8
0
100
AcDbCircle
62
7
6
CONTINUOUS
10
-7.1500000000
20
-14.6500000000
40
0.3000000000
100
AcDbArc
50
180.0000000000
51
270.0000000000
0
ARC
5
2C7
100
AcDbEntity
8
0
100
AcDbCircle
62
7
6
CONTINUOUS
10
-7.1500000000
20
-8.3500000000
40
0.3000000000
100
AcDbArc
50
90.0000000000
51
180.0000000000
0
ARC
5
2C8
100
AcDbEntity
8
0
100
AcDbCircle
62
7
6
CONTINUOUS
10
-6.3500000000
20
-8.3500000000
40
0.3000000000
100
AcDbArc
50
0.0000000000
51
90.0000000000
0
ARC
5
2C9
100
AcDbEntity
8
0
100
AcDbCircle
62
7
6
CONTINUOUS
10
-15.6500000000
20
-14.3500000000
40
0.3000000000
100
AcDbArc
50
270.0000000000
51
360.0000000000
0
ARC
5
2CA
100
AcDbEntity
8
0
100
AcDbCircle
62
7
6
CONTINUOUS
10
-15.6500000000
20
-8.6500000000
40
0.3000000000
100
AcDbArc
50
0.0000000000
51
90.0000000000
0
ARC
5
2CB
100
AcDbEntity
8
0
100
AcDbCircle
62
7
6
CONTINUOUS
10
-15.8500000000
20
-14.3500000000
40
0.3000000000
100
AcDbArc
50
180.0000000000
51
270.0000000000
0
ARC
5
2CC
100
AcDbEntity
8
0
100
AcDbCircle
62
7
6
CONTINUOUS
10
-15.8500000000
20
-8.6500000000
40
0.3000000000
100
AcDbArc
50
90.0000000000
51
180.0000000000
0
SPLINE
5
2CD
100
AcDbEntity
8
0
100
AcDbSpline
62
7
6
CONTINUOUS
70
0
71
3
72
14
73
10
74
8
42
0.0000001000
43
0.0000001000
44
0.0000000001
12
-0.2724014291
22
-0.2379875545
32
0.0000000000
13
-0.0330744178
23
-0.3601456004
33
0.0000000000
40
0.0000000000
40
0.0000000000
40
0.0000000000
40
0.0000000000
40
0.0149786277
40
0.0800496540
40
0.1450222579
40
0.2755994165
40
0.4087181033
40
0.6893716294
40
1.0000000000
40
1.0000000000
40
1.0000000000
40
1.0000000000
10
13.8563692028
20
-2.0854666551
30
0.0000000000
10
13.8550091363
20
-2.0866548975
30
0.0000000000
10
13.8477845325
20
-2.0930555216
30
0.0000000000
10
13.8351322758
20
-2.1051375959
30
0.0000000000
10
13.8137837532
20
-2.1282119399
30
0.0000000000
10
13.7896268946
20
-2.1597572761
30
0.0000000000
10
13.7562374564
20
-2.2164135998
30
0.0000000000
10
13.7254858252
20
-2.2989204549
30
0.0000000000
10
13.7138557338
20
-2.3696365311
30
0.0000000000
10
13.7104311163
20
-2.4069270115
30
0.0000000000
11
13.8563692028
21
-2.0854666551
31
0.0000000000
11
13.8523138788
21
-2.0890596244
31
0.0000000000
11
13.8352972161
21
-2.1053158970
31
0.0000000000
11
13.8193393506
21
-2.1225642483
31
0.0000000000
11
13.7906000117
21
-2.1600371866
31
0.0000000000
11
13.7660958619
21
-2.2014784396
31
0.0000000000
11
13.7297931298
21
-2.2962658891
31
0.0000000000
11
13.7104311163
21
-2.4069270115
31
0.0000000000
0
SPLINE
5
2CE
100
AcDbEntity
8
0
100
AcDbSpline
62
7
6
CONTINUOUS
70
0
71
3
72
14
73
10
74
8
42
0.0000001000
43
0.0000001000
44
0.0000000001
12
0.0620200008
22
0.0000000000
32
0.0000000000
13
0.0106120410
23
0.0611053606
33
0.0000000000
40
0.0000000000
40
0.0000000000
40
0.0000000000
40
0.0000000000
40
0.0389317246
40
0.1096836358
40
0.2172426316
40
0.3616733369
40
0.5416916402
40
0.7553038063
40
1.0000000000
40
1.0000000000
40
1.0000000000
40
1.0000000000
10
-17.2649204226
20
20.0000000000
30
0.0000000000
10
-17.2641155741
20
20.0000000000
30
0.0000000000
10
-17.2621803581
20
20.0017359805
30
0.0000000000
10
-17.2602430004
20
20.0056512701
30
0.0000000000
10
-17.2578456163
20
20.0119563240
30
0.0000000000
10
-17.2554041808
20
20.0205265744
30
0.0000000000
10
-17.2527941723
20
20.0313509433
30
0.0000000000
10
-17.2501232455
20
20.0442727550
30
0.0000000000
10
-17.2484192058
20
20.0535945607
30
0.0000000000
10
-17.2475536304
20
20.0585786438
30
0.0000000000
11
-17.2649204226
21
20.0000000000
31
0.0000000000
11
-17.2628623582
21
20.0012626961
31
0.0000000000
11
-17.2606130669
21
20.0050303913
31
0.0000000000
11
-17.2582010805
21
20.0112498780
31
0.0000000000
11
-17.2556567734
21
20.0198385312
31
0.0000000000
11
-17.2530119996
21
20.0306854887
31
0.0000000000
11
-17.2502997207
21
20.0436531043
31
0.0000000000
11
-17.2475536304
21
20.0585786438
31
0.0000000000
0
SPLINE
5
2CF
100
AcDbEntity
8
0
100
AcDbSpline
62
7
6
CONTINUOUS
70
0
71
3
72
14
73
10
74
8
42
0.0000001000
43
0.0000001000
44
0.0000000001
12
-0.0620200008
22
0.0000000000
32
0.0000000000
13
-0.0106120410
23
0.0611053606
33
0.0000000000
40
0.0000000000
40
0.0000000000
40
0.0000000000
40
0.0000000000
40
0.0389317246
40
0.1096836358
40
0.2172426316
40
0.3616733369
40
0.5416916402
40
0.7553038063
40
1.0000000000
40
1.0000000000
40
1.0000000000
40
1.0000000000
10
17.2649204226
20
20.0000000000
30
0.0000000000
10
17.2641155741
20
20.0000000000
30
0.0000000000
10
17.2621803581
20
20.0017359805
30
0.0000000000
10
17.2602430004
20
20.0056512701
30
0.0000000000
10
17.2578456163
20
20.0119563240
30
0.0000000000
10
17.2554041808
20
20.0205265744
30
0.0000000000
10
17.2527941723
20
20.0313509433
30
0.0000000000
10
17.2501232455
20
20.0442727550
30
0.0000000000
10
17.2484192058
20
20.0535945607
30
0.0000000000
10
17.2475536304
20
20.0585786438
30
0.0000000000
11
17.2649204226
21
20.0000000000
31
0.0000000000
11
17.2628623582
21
20.0012626961
31
0.0000000000
11
17.2606130669
21
20.0050303913
31
0.0000000000
11
17.2582010804
21
20.0112498780
31
0.0000000000
11
17.2556567734
21
20.0198385312
31
0.0000000000
11
17.2530119996
21
20.0306854887
31
0.0000000000
11
17.2502997207
21
20.0436531043
31
0.0000000000
11
17.2475536304
21
20.0585786438
31
0.0000000000
0
SPLINE
5
2D0
100
AcDbEntity
8
0
100
AcDbSpline
62
7
6
CONTINUOUS
70
0
71
3
72
14
73
10
74
8
42
0.0000001000
43
0.0000001000
44
0.0000000001
12
-0.0620200008
22
0.0000000000
32
0.0000000000
13
-0.0106120410
23
-0.0611053606
33
0.0000000000
40
0.0000000000
40
0.0000000000
40
0.0000000000
40
0.0000000000
40
0.0389317246
40
0.1096836358
40
0.2172426316
40
0.3616733369
40
0.5416916402
40
0.7553038063
40
1.0000000000
40
1.0000000000
40
1.0000000000
40
1.0000000000
10
17.2649204226
20
-20.0000000000
30
0.0000000000
10
17.2641155741
20
-20.0000000000
30
0.0000000000
10
17.2621803581
20
-20.0017359805
30
0.0000000000
10
17.2602430004
20
-20.0056512701
30
0.0000000000
10
17.2578456163
20
-20.0119563240
30
0.0000000000
10
17.2554041808
20
-20.0205265744
30
0.0000000000
10
17.2527941723
20
-20.0313509433
30
0.0000000000
10
17.2501232455
20
-20.0442727550
30
0.0000000000
10
17.2484192058
20
-20.0535945607
30
0.0000000000
10
17.2475536304
20
-20.0585786438
30
0.0000000000
11
17.2649204226
21
-20.0000000000
31
0.0000000000
11
17.2628623582
21
-20.0012626961
31
0.0000000000
11
17.2606130669
21
-20.0050303913
31
0.0000000000
11
17.2582010804
21
-20.0112498780
31
0.0000000000
11
17.2556567734
21
-20.0198385312
31
0.0000000000
11
17.2530119996
21
-20.0306854887
31
0.0000000000
11
17.2502997207
21
-20.0436531043
31
0.0000000000
11
17.2475536304
21
-20.0585786438
31
0.0000000000
0
SPLINE
5
2D1
100
AcDbEntity
8
0
100
AcDbSpline
62
7
6
CONTINUOUS
70
0
71
3
72
14
73
10
74
8
42
0.0000001000
43
0.0000001000
44
0.0000000001
12
0.0620200008
22
0.0000000000
32
0.0000000000
13
0.0106120410
23
-0.0611053606
33
0.0000000000
40
0.0000000000
40
0.0000000000
40
0.0000000000
40
0.0000000000
40
0.0389317246
40
0.1096836358
40
0.2172426316
40
0.3616733369
40
0.5416916402
40
0.7553038063
40
1.0000000000
40
1.0000000000
40
1.0000000000
40
1.0000000000
10
-17.2649204226
20
-20.0000000000
30
0.0000000000
10
-17.2641155741
20
-20.0000000000
30
0.0000000000
10
-17.2621803581
20
-20.0017359805
30
0.0000000000
10
-17.2602430004
20
-20.0056512701
30
0.0000000000
10
-17.2578456163
20
-20.0119563240
30
0.0000000000
10
-17.2554041808
20
-20.0205265744
30
0.0000000000
10
-17.2527941723
20
-20.0313509433
30
0.0000000000
10
-17.2501232455
20
-20.0442727550
30
0.0000000000
10
-17.2484192058
20
-20.0535945607
30
0.0000000000
10
-17.2475536304
20
-20.0585786438
30
0.0000000000
11
-17.2649204226
21
-20.0000000000
31
0.0000000000
11
-17.2628623582
21
-20.0012626961
31
0.0000000000
11
-17.2606130669
21
-20.0050303913
31
0.0000000000
11
-17.2582010805
21
-20.0112498780
31
0.0000000000
11
-17.2556567734
21
-20.0198385312
31
0.0000000000
11
-17.2530119996
21
-20.0306854887
31
0.0000000000
11
-17.2502997207
21
-20.0436531043
31
0.0000000000
11
-17.2475536304
21
-20.0585786438
31
0.0000000000
0
SPLINE
5
2D2
100
AcDbEntity
8
0
100
AcDbSpline
62
7
6
CONTINUOUS
70
0
71
3
72
61
73
57
74
55
42
0.0000001000
43
0.0000001000
44
0.0000000001
12
0.0065344597
22
0.9056153022
32
0.0000000000
13
-0.0152642776
23
-0.9055197222
33
0.0000000000
40
0.0000000000
40
0.0000000000
40
0.0000000000
40
0.0000000000
40
0.0820052001
40
0.1561446882
40
0.1914029732
40
0.2260882005
40
0.2433929512
40
0.2607576816
40
0.2694716428
40
0.2781490636
40
0.2953977901
40
0.3125593560
40
0.3296966778
40
0.3641353119
40
0.3992264996
40
0.4171721191
40
0.4354537982
40
0.4541236134
40
0.4732304679
40
0.4829628474
40
0.4928213152
40
0.5028110621
40
0.5129370771
40
0.5180527623
40
0.5231407327
40
0.5255747004
40
0.5280006520
40
0.5328287630
40
0.5423916918
40
0.5518342288
40
0.5703759843
40
0.5884951902
40
0.6062347048
40
0.6236401912
40
0.6576318967
40
0.6908966016
40
0.7238762683
40
0.7404080029
40
0.7570382603
40
0.7654085483
40
0.7737935541
40
0.7903244655
40
0.8065568475
40
0.8225395170
40
0.8539487223
40
0.8849947123
40
0.9161226692
40
0.9318627698
40
0.9477874899
40
0.9639485220
40
0.9803953306
40
0.9887413757
40
0.9929474451
40
0.9950590318
40
0.9970967776
40
1.0000000000
40
1.0000000000
40
1.0000000000
40
1.0000000000
10
13.8981919310
20
-2.4257029916
30
0.0000000000
10
13.8983705508
20
-2.4009479369
30
0.0000000000
10
13.9022075784
20
-2.3536927646
30
0.0000000000
10
13.9184234509
20
-2.2977025379
30
0.0000000000
10
13.9378999502
20
-2.2587015635
30
0.0000000000
10
13.9525360948
20
-2.2367118952
30
0.0000000000
10
13.9657411416
20
-2.2204503968
30
0.0000000000
10
13.9746240859
20
-2.2108136038
30
0.0000000000
10
13.9820867774
20
-2.2034365720
30
0.0000000000
10
13.9897360536
20
-2.1963044161
30
0.0000000000
10
13.9996423407
20
-2.1878620471
30
0.0000000000
10
14.0120815704
20
-2.1784962293
30
0.0000000000
10
14.0293950356
20
-2.1670386256
30
0.0000000000
10
14.0525012720
20
-2.1546214020
30
0.0000000000
10
14.0771426023
20
-2.1449548010
30
0.0000000000
10
14.0977828658
20
-2.1388001726
30
0.0000000000
10
14.1139064211
20
-2.1349335625
30
0.0000000000
10
14.1305536470
20
-2.1318522261
30
0.0000000000
10
14.1447751991
20
-2.1299499554
30
0.0000000000
10
14.1564026835
20
-2.1288135624
30
0.0000000000
10
14.1653087404
20
-2.1281516946
30
0.0000000000
10
14.1743460593
20
-2.1276855821
30
0.0000000000
10
14.1819602643
20
-2.1274609414
30
0.0000000000
10
14.1880969115
20
-2.1273785101
30
0.0000000000
10
14.1919120163
20
-2.1273669613
30
0.0000000000
10
14.1949150561
20
-2.1273817631
30
0.0000000000
10
14.1978395363
20
-2.1274116936
30
0.0000000000
10
14.2029154817
20
-2.1275040336
30
0.0000000000
10
14.2101067773
20
-2.1277507871
30
0.0000000000
10
14.2214242080
20
-2.1283898110
30
0.0000000000
10
14.2352907623
20
-2.1296439342
30
0.0000000000
10
14.2515637430
20
-2.1318999381
30
0.0000000000
10
14.2673685942
20
-2.1348984772
30
0.0000000000
10
14.2876523157
20
-2.1398458782
30
0.0000000000
10
14.3119726485
20
-2.1478846153
30
0.0000000000
10
14.3394970584
20
-2.1606114439
30
0.0000000000
10
14.3608458697
20
-2.1737196052
30
0.0000000000
10
14.3768820042
20
-2.1856308274
30
0.0000000000
10
14.3865017125
20
-2.1936841135
30
0.0000000000
10
14.3939453689
20
-2.2004803770
30
0.0000000000
10
14.4011740515
20
-2.2074616240
30
0.0000000000
10
14.4097776453
20
-2.2164298802
30
0.0000000000
10
14.4193803795
20
-2.2275905168
30
0.0000000000
10
14.4310822583
20
-2.2428312052
30
0.0000000000
10
14.4438720863
20
-2.2628291455
30
0.0000000000
10
14.4561711068
20
-2.2883354142
30
0.0000000000
10
14.4637783128
20
-2.3106566733
30
0.0000000000
10
14.4682888364
20
-2.3290768989
30
0.0000000000
10
14.4709094557
20
-2.3432831699
30
0.0000000000
10
14.4727536249
20
-2.3578249215
30
0.0000000000
10
14.4736395636
20
-2.3701626652
30
0.0000000000
10
14.4739246777
20
-2.3789130322
30
0.0000000000
10
14.4739837108
20
-2.3833394348
30
0.0000000000
10
14.4739936308
20
-2.3858617562
30
0.0000000000
10
14.4739879720
20
-2.3879907858
30
0.0000000000
10
14.4739705573
20
-2.3894822987
30
0.0000000000
10
14.4739557855
20
-2.3903586070
30
0.0000000000
11
13.8981919310
21
-2.4257029916
31
0.0000000000
11
13.9049913076
21
-2.3517478002
31
0.0000000000
11
13.9242525804
21
-2.2874262098
31
0.0000000000
11
13.9385564288
21
-2.2588778962
31
0.0000000000
11
13.9559757518
21
-2.2327379035
31
0.0000000000
11
13.9658537162
21
-2.2205710276
31
0.0000000000
11
13.9765105494
21
-2.2090062319
31
0.0000000000
11
13.9821212803
21
-2.2034565777
31
0.0000000000
11
13.9878697217
21
-2.1980981106
31
0.0000000000
11
13.9997609945
21
-2.1879681080
31
0.0000000000
11
14.0121781203
21
-2.1786206807
31
0.0000000000
11
14.0251210992
21
-2.1700558287
31
0.0000000000
11
14.0525846162
21
-2.1552738506
31
0.0000000000
11
14.0821515455
21
-2.1436221738
31
0.0000000000
11
14.0977237898
21
-2.1389701984
31
0.0000000000
11
14.1138218871
21
-2.1351007982
31
0.0000000000
11
14.1304458375
21
-2.1320139734
31
0.0000000000
11
14.1475956410
21
-2.1297097239
31
0.0000000000
11
14.1563677377
21
-2.1288510649
31
0.0000000000
11
14.1652712976
21
-2.1281880497
31
0.0000000000
11
14.1743063208
21
-2.1277206783
31
0.0000000000
11
14.1834728072
21
-2.1274489508
31
0.0000000000
11
14.1881053491
21
-2.1273864534
31
0.0000000000
11
14.1927131929
21
-2.1273728019
31
0.0000000000
11
14.1949174616
21
-2.1273837272
31
0.0000000000
11
14.1971143826
21
-2.1274062206
31
0.0000000000
11
14.2014861815
21
-2.1274859113
31
0.0000000000
11
14.2101416066
21
-2.1277841087
31
0.0000000000
11
14.2186794681
21
-2.1282673943
31
0.0000000000
11
14.2354025007
21
-2.1297892296
31
0.0000000000
11
14.2516552792
21
-2.1320514173
31
0.0000000000
11
14.2674378037
21
-2.1350539573
31
0.0000000000
11
14.2827500741
21
-2.1387968496
31
0.0000000000
11
14.3119638527
21
-2.1485036912
31
0.0000000000
11
14.3392966150
21
-2.1611719421
31
0.0000000000
11
14.3647483611
21
-2.1768016023
31
0.0000000000
11
14.3767688530
21
-2.1857269609
31
0.0000000000
11
14.3883190909
21
-2.1953926718
31
0.0000000000
11
14.3939178646
21
-2.2005031594
31
0.0000000000
11
14.3993822249
21
-2.2057763343
31
0.0000000000
11
14.4097392076
21
-2.2165867387
31
0.0000000000
11
14.4193226396
21
-2.2277342820
31
0.0000000000
11
14.4281325212
21
-2.2392189642
31
0.0000000000
11
14.4434316325
21
-2.2631997455
31
0.0000000000
11
14.4556365415
21
-2.2885290823
31
0.0000000000
11
14.4647472482
21
-2.3152069749
31
0.0000000000
11
14.4681422758
21
-2.3290516296
31
0.0000000000
11
14.4707637527
21
-2.3432334231
31
0.0000000000
11
14.4726116791
21
-2.3577523556
31
0.0000000000
11
14.4736860549
21
-2.3726084270
31
0.0000000000
11
14.4739331613
21
-2.3801628898
31
0.0000000000
11
14.4739841941
21
-2.3839717280
31
0.0000000000
11
14.4739915805
21
-2.3858840488
31
0.0000000000
11
14.4739863787
21
-2.3877295034
31
0.0000000000
11
14.4739557855
21
-2.3903586070
31
0.0000000000
0
SPLINE
5
2D3
100
AcDbEntity
8
0
100
AcDbSpline
62
7
6
CONTINUOUS
70
0
71
3
72
154
73
150
74
148
42
0.0000001000
43
0.0000001000
44
0.0000000001
12
1.1849853990
22
1.9292190051
32
0.0000000000
13
-1.7052971772
23
-1.4898582072
33
0.0000000000
40
0.0000000000
40
0.0000000000
40
0.0000000000
40
0.0000000000
40
0.0148528026
40
0.0225132831
40
0.0303388742
40
0.0383363559
40
0.0424016514
40
0.0465122664
40
0.0506689317
40
0.0527647658
40
0.0548723755
40
0.0570146422
40
0.0593020992
40
0.0617496018
40
0.0643573663
40
0.0700543327
40
0.0763941548
40
0.0910052398
40
0.0992776899
40
0.1081952141
40
0.1177580989
40
0.1279665765
40
0.1388208378
40
0.1444901901
40
0.1503210455
40
0.1563134199
40
0.1624673281
40
0.1687827837
40
0.1720010958
40
0.1752597994
40
0.1769042985
40
0.1785588960
40
0.1793899816
40
0.1802235920
40
0.1806413439
40
0.1808504566
40
0.1810597270
40
0.1815431934
40
0.1820446465
40
0.1830458671
40
0.1840448405
40
0.1860360458
40
0.1880182632
40
0.1899914935
40
0.1939109959
40
0.1977945597
40
0.2016421916
40
0.2054538986
40
0.2129695646
40
0.2203416191
40
0.2275701251
40
0.2346551496
40
0.2483950232
40
0.2615618818
40
0.2861792771
40
0.3085144991
40
0.3285769332
40
0.3377599826
40
0.3463801334
40
0.3504799394
40
0.3544615609
40
0.3622868675
40
0.3699446377
40
0.3774373177
40
0.3919373096
40
0.4190763960
40
0.4317789769
40
0.4439455977
40
0.4556580621
40
0.4671604144
40
0.4785136530
40
0.4841458000
40
0.4897538832
40
0.4953424394
40
0.5009160526
40
0.5064793441
40
0.5092586435
40
0.5120371065
40
0.5148153161
40
0.5175938553
40
0.5203733071
40
0.5217635663
40
0.5231542720
40
0.5245454967
40
0.5259373131
40
0.5266334670
40
0.5273297959
40
0.5280263089
40
0.5283746374
40
0.5287230154
40
0.5290714439
40
0.5291585591
40
0.5292456775
40
0.5293327991
40
0.5294090691
40
0.5294946707
40
0.5296658283
40
0.5298369252
40
0.5301789373
40
0.5305207080
40
0.5308622379
40
0.5315445789
40
0.5322259673
40
0.5335859119
40
0.5362946567
40
0.5389889302
40
0.5416691823
40
0.5443358699
40
0.5496302953
40
0.5548761150
40
0.5600772287
40
0.5652376377
40
0.5703614383
40
0.5805149591
40
0.5905732253
40
0.6005716190
40
0.6105461593
40
0.6205331236
40
0.6406795623
40
0.6509182141
40
0.6613093486
40
0.6718850654
40
0.6772480067
40
0.6826104337
40
0.6933020816
40
0.7039841772
40
0.7254686169
40
0.7473856369
40
0.7700293046
40
0.7817120816
40
0.7936739277
40
0.8059431812
40
0.8185461065
40
0.8249807029
40
0.8315076364
40
0.8348066271
40
0.8381297144
40
0.8414378562
40
0.8447166670
40
0.8512050515
40
0.8576031693
40
0.8701377968
40
0.8942319980
40
0.9171916308
40
0.9392323537
40
0.9605976697
40
0.9815546380
40
0.9919725375
40
1.0000000000
40
1.0000000000
40
1.0000000000
40
1.0000000000
10
13.9304309954
20
-3.2998329864
30
0.0000000000
10
13.9362977802
20
-3.2902815501
30
0.0000000000
10
13.9456955077
20
-3.2761074488
30
0.0000000000
10
13.9592235342
20
-3.2576320426
30
0.0000000000
10
13.9701206327
20
-3.2436515107
30
0.0000000000
10
13.9796863080
20
-3.2320821852
30
0.0000000000
10
13.9876560454
20
-3.2228368298
30
0.0000000000
10
13.9938276660
20
-3.2158695648
30
0.0000000000
10
13.9990904500
20
-3.2100838394
30
0.0000000000
10
14.0033807136
20
-3.2054576342
30
0.0000000000
10
14.0066596124
20
-3.2019670392
30
0.0000000000
10
14.0100599939
20
-3.1983921976
30
0.0000000000
10
14.0136839139
20
-3.1946764559
30
0.0000000000
10
14.0175913444
20
-3.1907469332
30
0.0000000000
10
14.0233638109
20
-3.1850436279
30
0.0000000000
10
14.0313175195
20
-3.1773691399
30
0.0000000000
10
14.0459604879
20
-3.1635832640
30
0.0000000000
10
14.0622510835
20
-3.1487143607
30
0.0000000000
10
14.0801366390
20
-3.1327108560
30
0.0000000000
10
14.0952648766
20
-3.1193396952
30
0.0000000000
10
14.1115624655
20
-3.1050858263
30
0.0000000000
10
14.1290297902
20
-3.0899495630
30
0.0000000000
10
14.1443295893
20
-3.0767992272
30
0.0000000000
10
14.1571529982
20
-3.0658363702
30
0.0000000000
10
14.1672019995
20
-3.0572748933
30
0.0000000000
10
14.1775434849
20
-3.0484928604
30
0.0000000000
10
14.1881774592
20
-3.0394902758
30
0.0000000000
10
14.1972246128
20
-3.0318534814
30
0.0000000000
10
14.2046084550
20
-3.0256336332
30
0.0000000000
10
14.2092988538
20
-3.0216879975
30
0.0000000000
10
14.2130877226
20
-3.0185039076
30
0.0000000000
10
14.2154746389
20
-3.0164992917
30
0.0000000000
10
14.2173933253
20
-3.0148887225
30
0.0000000000
10
14.2185971912
20
-3.0138784393
30
0.0000000000
10
14.2194416450
20
-3.0131700815
30
0.0000000000
10
14.2199250201
20
-3.0127644426
30
0.0000000000
10
14.2204468325
20
-3.0123274548
30
0.0000000000
10
14.2211342277
20
-3.0117445781
30
0.0000000000
10
14.2222780927
20
-3.0107758901
30
0.0000000000
10
14.2237183018
20
-3.0095551245
30
0.0000000000
10
14.2260157112
20
-3.0076068469
30
0.0000000000
10
14.2288765879
20
-3.0051783286
30
0.0000000000
10
14.2322961983
20
-3.0022718567
30
0.0000000000
10
14.2368222194
20
-2.9984200313
30
0.0000000000
10
14.2424364294
20
-2.9936328281
30
0.0000000000
10
14.2491195944
20
-2.9879190494
30
0.0000000000
10
14.2557333930
20
-2.9822493376
30
0.0000000000
10
14.2644181902
20
-2.9747838163
30
0.0000000000
10
14.2751010837
20
-2.9655623733
30
0.0000000000
10
14.2877046516
20
-2.9546197848
30
0.0000000000
10
14.3000307724
20
-2.9438534735
30
0.0000000000
10
14.3159330606
20
-2.9298763000
30
0.0000000000
10
14.3351204066
20
-2.9128482492
30
0.0000000000
10
14.3640222073
20
-2.8868339404
30
0.0000000000
10
14.3974063484
20
-2.8561042987
30
0.0000000000
10
14.4339885657
20
-2.8211762033
30
0.0000000000
10
14.4615410970
20
-2.7936700032
30
0.0000000000
10
14.4813235851
20
-2.7730459272
30
0.0000000000
10
14.4925745927
20
-2.7609344319
30
0.0000000000
10
14.5010243352
20
-2.7515812353
30
0.0000000000
10
14.5089843959
20
-2.7425949066
30
0.0000000000
10
14.5185899525
20
-2.7314796513
30
0.0000000000
10
14.5296959373
20
-2.7181622992
30
0.0000000000
10
14.5437129156
20
-2.7007174331
30
0.0000000000
10
14.5661135326
20
-2.6711626439
30
0.0000000000
10
14.5888941212
20
-2.6369777088
30
0.0000000000
10
14.6081267947
20
-2.6027450221
30
0.0000000000
10
14.6203379383
20
-2.5779663995
30
0.0000000000
10
14.6306887456
20
-2.5533365785
30
0.0000000000
10
14.6395203306
20
-2.5287761505
30
0.0000000000
10
14.6456734602
20
-2.5081630388
30
0.0000000000
10
14.6498576768
20
-2.4916313153
30
0.0000000000
10
14.6526241986
20
-2.4792338552
30
0.0000000000
10
14.6550271939
20
-2.4668058964
30
0.0000000000
10
14.6570666591
20
-2.4543473992
30
0.0000000000
10
14.6584636886
20
-2.4439366342
30
0.0000000000
10
14.6593990824
20
-2.4355956796
30
0.0000000000
10
14.6600096131
20
-2.4293340298
30
0.0000000000
10
14.6605293106
20
-2.4230647749
30
0.0000000000
10
14.6609581779
20
-2.4167879076
30
0.0000000000
10
14.6612398404
20
-2.4115514702
30
0.0000000000
10
14.6614197583
20
-2.4073588823
30
0.0000000000
10
14.6615320106
20
-2.4042121256
30
0.0000000000
10
14.6616215587
20
-2.4010634680
30
0.0000000000
10
14.6616772556
20
-2.3984383039
30
0.0000000000
10
14.6617104644
20
-2.3963372669
30
0.0000000000
10
14.6617296982
20
-2.3947608268
30
0.0000000000
10
14.6617409957
20
-2.3934468202
30
0.0000000000
10
14.6617471964
20
-2.3923953827
30
0.0000000000
10
14.6617504283
20
-2.3916066311
30
0.0000000000
10
14.6617517880
20
-2.3910150108
30
0.0000000000
10
14.6617522511
20
-2.3906205608
30
0.0000000000
10
14.6617523941
20
-2.3904233175
30
0.0000000000
10
14.6617524455
20
-2.3902342589
30
0.0000000000
10
14.6617524199
20
-2.3900463450
30
0.0000000000
10
14.6617522949
20
-2.3897950098
30
0.0000000000
10
14.6617519443
20
-2.3894721092
30
0.0000000000
10
14.6617509803
20
-2.3889556976
30
0.0000000000
10
14.6617490187
20
-2.3883105272
30
0.0000000000
10
14.6617454533
20
-2.3875367371
30
0.0000000000
10
14.6617390869
20
-2.3865061140
30
0.0000000000
10
14.6617281046
20
-2.3852192084
30
0.0000000000
10
14.6617040844
20
-2.3831638033
30
0.0000000000
10
14.6616452095
20
-2.3795794075
30
0.0000000000
10
14.6615127919
20
-2.3744770024
30
0.0000000000
10
14.6612761565
20
-2.3683810290
30
0.0000000000
10
14.6609620019
20
-2.3623203222
30
0.0000000000
10
14.6604410509
20
-2.3543060678
30
0.0000000000
10
14.6595972521
20
-2.3443733502
30
0.0000000000
10
14.6582719757
20
-2.3325661284
30
0.0000000000
10
14.6566364431
20
-2.3208999420
30
0.0000000000
10
14.6546905939
20
-2.3093747301
30
0.0000000000
10
14.6516918370
20
-2.2942430829
30
0.0000000000
10
14.6471682485
20
-2.2756531766
30
0.0000000000
10
14.6404787387
20
-2.2538433838
30
0.0000000000
10
14.6325444368
20
-2.2325987431
30
0.0000000000
10
14.6233645377
20
-2.2119196540
30
0.0000000000
10
14.6094304209
20
-2.1850322218
30
0.0000000000
10
14.5929763646
20
-2.1592873497
30
0.0000000000
10
14.5742090841
20
-2.1348836015
30
0.0000000000
10
14.5588145065
20
-2.1170439085
30
0.0000000000
10
14.5450183262
20
-2.1027292790
30
0.0000000000
10
14.5334237350
20
-2.0915912853
30
0.0000000000
10
14.5214373467
20
-2.0807447890
30
0.0000000000
10
14.5058629720
20
-2.0678937892
30
0.0000000000
10
14.4796920474
20
-2.0488589218
30
0.0000000000
10
14.4445241441
20
-2.0279258381
30
0.0000000000
10
14.3988622898
20
-2.0076728512
30
0.0000000000
10
14.3582811746
20
-1.9949216784
30
0.0000000000
10
14.3242319472
20
-1.9870608773
30
0.0000000000
10
14.2975402297
20
-1.9822853486
30
0.0000000000
10
14.2699653292
20
-1.9786927878
30
0.0000000000
10
14.2464143856
20
-1.9766978597
30
0.0000000000
10
14.2271467999
20
-1.9756805679
30
0.0000000000
10
14.2148803761
20
-1.9752876828
30
0.0000000000
10
14.2049581928
20
-1.9751192310
30
0.0000000000
10
14.1974639649
20
-1.9750666352
30
0.0000000000
10
14.1899848247
20
-1.9750859762
30
0.0000000000
10
14.1801175026
20
-1.9752014288
30
0.0000000000
10
14.1679208597
20
-1.9755149936
30
0.0000000000
10
14.1487538490
20
-1.9763766612
30
0.0000000000
10
14.1163644475
20
-1.9787902566
30
0.0000000000
10
14.0717484381
20
-1.9849031124
30
0.0000000000
10
14.0208829753
20
-1.9967447741
30
0.0000000000
10
13.9734132347
20
-2.0130118923
30
0.0000000000
10
13.9293617815
20
-2.0337149455
30
0.0000000000
10
13.8954369490
20
-2.0547213730
30
0.0000000000
10
13.8716298829
20
-2.0725634156
30
0.0000000000
10
13.8609322725
20
-2.0814800615
30
0.0000000000
10
13.8563692028
20
-2.0854666551
30
0.0000000000
11
13.9304309954
21
-3.2998329864
31
0.0000000000
11
13.9489767479
21
-3.2717813029
31
0.0000000000
11
13.9592186275
21
-3.2577842589
31
0.0000000000
11
13.9701064222
21
-3.2438065552
31
0.0000000000
11
13.9816401320
21
-3.2298481919
31
0.0000000000
11
13.9876492052
21
-3.2228762628
31
0.0000000000
11
13.9938197570
21
-3.2159091689
31
0.0000000000
11
14.0001517877
21
-3.2089469100
31
0.0000000000
11
14.0033783576
21
-3.2054675937
31
0.0000000000
11
14.0066452972
21
-3.2019894861
31
0.0000000000
11
14.0099915153
21
-3.1984783665
31
0.0000000000
11
14.0136053305
21
-3.1947686057
31
0.0000000000
11
14.0175116447
21
-3.1908383023
31
0.0000000000
11
14.0217104576
21
-3.1866874564
31
0.0000000000
11
14.0309855799
21
-3.1777241369
31
0.0000000000
11
14.0414306976
21
-3.1678786472
31
0.0000000000
11
14.0658309188
21
-3.1455411571
31
0.0000000000
11
14.0797860224
21
-3.1330491568
31
0.0000000000
11
14.0949111213
21
-3.1196749863
31
0.0000000000
11
14.1112062155
21
-3.1054186455
31
0.0000000000
11
14.1286713050
21
-3.0902801346
31
0.0000000000
11
14.1473063898
21
-3.0742594534
31
0.0000000000
11
14.1570626805
21
-3.0659182990
31
0.0000000000
11
14.1671114699
21
-3.0573566021
31
0.0000000000
11
14.1774527582
21
-3.0485743626
31
0.0000000000
11
14.1880865454
21
-3.0395715805
31
0.0000000000
11
14.1990128313
21
-3.0303482559
31
0.0000000000
11
14.2045856614
21
-3.0256538901
31
0.0000000000
11
14.2102316161
21
-3.0209043887
31
0.0000000000
11
14.2130820152
21
-3.0185089622
31
0.0000000000
11
14.2159506956
21
-3.0160997517
31
0.0000000000
11
14.2173918912
21
-3.0148899775
31
0.0000000000
11
14.2188376571
21
-3.0136767573
31
0.0000000000
11
14.2195622539
21
-3.0130688550
31
0.0000000000
11
14.2199249807
21
-3.0127645808
31
0.0000000000
11
14.2202879932
21
-3.0124600912
31
0.0000000000
11
14.2211239472
21
-3.0117534451
31
0.0000000000
11
14.2219902281
21
-3.0110195950
31
0.0000000000
11
14.2237195383
21
-3.0095539606
31
0.0000000000
11
14.2254445130
21
-3.0080910803
31
0.0000000000
11
14.2288814559
21
-3.0051735821
31
0.0000000000
11
14.2323010569
21
-3.0022671005
31
0.0000000000
11
14.2357033160
21
-2.9993716354
31
0.0000000000
11
14.2424558083
21
-2.9936137549
31
0.0000000000
11
14.2491389330
21
-2.9878999406
31
0.0000000000
11
14.2557526899
21
-2.9822301924
31
0.0000000000
11
14.2622970790
21
-2.9766045105
31
0.0000000000
11
14.2751777541
21
-2.9654853453
31
0.0000000000
11
14.2877809583
21
-2.9545424448
31
0.0000000000
11
14.3001066916
21
-2.9437758091
31
0.0000000000
11
14.3121549540
21
-2.9331854382
31
0.0000000000
11
14.3354190659
21
-2.9125334909
31
0.0000000000
11
14.3575732942
21
-2.8925866027
31
0.0000000000
11
14.3985520995
21
-2.8548080038
31
0.0000000000
11
14.4350913702
21
-2.8198496416
31
0.0000000000
11
14.4671911060
21
-2.7877115160
31
0.0000000000
11
14.4815761484
21
-2.7727000420
31
0.0000000000
11
14.4948513070
21
-2.7583936272
31
0.0000000000
11
14.5010726800
21
-2.7515048170
31
0.0000000000
11
14.5070516246
21
-2.7447581512
31
0.0000000000
11
14.5186326538
21
-2.7313500488
31
0.0000000000
11
14.5297345650
21
-2.7180328387
31
0.0000000000
11
14.5403573580
21
-2.7048065207
31
0.0000000000
11
14.5601655898
21
-2.6786265611
31
0.0000000000
11
14.5940326359
21
-2.6273573481
31
0.0000000000
11
14.6080914502
21
-2.6022680945
31
0.0000000000
11
14.6202337921
21
-2.5775424096
31
0.0000000000
11
14.6305311874
21
-2.5531053857
31
0.0000000000
11
14.6393298208
21
-2.5285944697
31
0.0000000000
11
14.6466754688
21
-2.5039617208
31
0.0000000000
11
14.6498034234
21
-2.4915996591
31
0.0000000000
11
14.6525681316
21
-2.4792071391
31
0.0000000000
11
14.6549695935
21
-2.4667841608
31
0.0000000000
11
14.6570078090
21
-2.4543307243
31
0.0000000000
11
14.6586827782
21
-2.4418468296
31
0.0000000000
11
14.6593840454
21
-2.4355934604
31
0.0000000000
11
14.6599945011
21
-2.4293324767
31
0.0000000000
11
14.6605141451
21
-2.4230638784
31
0.0000000000
11
14.6609429776
21
-2.4167876655
31
0.0000000000
11
14.6612809985
21
-2.4105038381
31
0.0000000000
11
14.6614159546
21
-2.4073590689
31
0.0000000000
11
14.6615282078
21
-2.4042123961
31
0.0000000000
11
14.6616177581
21
-2.4010638196
31
0.0000000000
11
14.6616846055
21
-2.3979133396
31
0.0000000000
11
14.6617095157
21
-2.3963373857
31
0.0000000000
11
14.6617287501
21
-2.3947609558
31
0.0000000000
11
14.6617423087
21
-2.3931840501
31
0.0000000000
11
14.6617469597
21
-2.3923954188
31
0.0000000000
11
14.6617501917
21
-2.3916066685
31
0.0000000000
11
14.6617520048
21
-2.3908177992
31
0.0000000000
11
14.6617522363
21
-2.3906205633
31
0.0000000000
11
14.6617523792
21
-2.3904233199
31
0.0000000000
11
14.6617524334
21
-2.3902260691
31
0.0000000000
11
14.6617524110
21
-2.3900533876
31
0.0000000000
11
14.6617523143
21
-2.3898595784
31
0.0000000000
11
14.6617518938
21
-2.3894720635
31
0.0000000000
11
14.6617511706
21
-2.3890846863
31
0.0000000000
11
14.6617488158
21
-2.3883103457
31
0.0000000000
11
14.6617452500
21
-2.3875365566
31
0.0000000000
11
14.6617404731
21
-2.3867633188
31
0.0000000000
11
14.6617272863
21
-2.3852184978
31
0.0000000000
11
14.6617092554
21
-2.3836758826
31
0.0000000000
11
14.6616586611
21
-2.3805972696
31
0.0000000000
11
14.6614993429
21
-2.3744665136
31
0.0000000000
11
14.6612625186
21
-2.3683710509
31
0.0000000000
11
14.6609481882
21
-2.3623108815
31
0.0000000000
11
14.6605563516
21
-2.3562860053
31
0.0000000000
11
14.6595401601
21
-2.3443421327
31
0.0000000000
11
14.6582139440
21
-2.3325394331
31
0.0000000000
11
14.6565777034
21
-2.3208779067
31
0.0000000000
11
14.6546314383
21
-2.3093575532
31
0.0000000000
11
14.6523751486
21
-2.2979783728
31
0.0000000000
11
14.6469324957
21
-2.2756435312
31
0.0000000000
11
14.6402497446
21
-2.2538733817
31
0.0000000000
11
14.6323268953
21
-2.2326679245
31
0.0000000000
11
14.6231639480
21
-2.2120271594
31
0.0000000000
11
14.6127609025
21
-2.1919510865
31
0.0000000000
11
14.5882345170
21
-2.1534930173
31
0.0000000000
11
14.5741111771
21
-2.1351110210
31
0.0000000000
11
14.5587477390
21
-2.1172937169
31
0.0000000000
11
14.5421442028
21
-2.1000411050
31
0.0000000000
11
14.5333822997
21
-2.0916351044
31
0.0000000000
11
14.5243789978
21
-2.0834899175
31
0.0000000000
11
14.5057070195
21
-2.0680845337
31
0.0000000000
11
14.4861478753
21
-2.0538591368
31
0.0000000000
11
14.4443680888
21
-2.0289483034
31
0.0000000000
11
14.3990396385
21
-2.0087574175
31
0.0000000000
11
14.3501625242
21
-1.9932864789
31
0.0000000000
11
14.3243932181
21
-1.9873209899
31
0.0000000000
11
14.2977367461
21
-1.9825354877
31
0.0000000000
11
14.2701931081
21
-1.9789299723
31
0.0000000000
11
14.2417623041
21
-1.9765044438
31
0.0000000000
11
14.2272142149
21
-1.9757341746
31
0.0000000000
11
14.2124443341
21
-1.9752589021
31
0.0000000000
11
14.2049762220
21
-1.9751318897
31
0.0000000000
11
14.1974526619
21
-1.9750786264
31
0.0000000000
11
14.1899627747
21
-1.9750974610
31
0.0000000000
11
14.1825397846
21
-1.9751847205
31
0.0000000000
11
14.1678544371
21
-1.9755641094
31
0.0000000000
11
14.1533832663
21
-1.9762166584
31
0.0000000000
11
14.1250834552
21
-1.9783412365
31
0.0000000000
11
14.0710539548
21
-1.9858683133
31
0.0000000000
11
14.0204512834
21
-1.9977659507
31
0.0000000000
11
13.9732754412
21
-2.0140341489
31
0.0000000000
11
13.9295264280
21
-2.0346729077
31
0.0000000000
11
13.8892042439
21
-2.0596822272
31
0.0000000000
11
13.8703282128
21
-2.0738258472
31
0.0000000000
11
13.8563692028
21
-2.0854666551
31
0.0000000000
0
SPLINE
5
2D4
100
AcDbEntity
8
0
100
AcDbSpline
62
7
6
CONTINUOUS
70
0
71
3
72
98
73
94
74
92
42
0.0000001000
43
0.0000001000
44
0.0000000001
12
0.9674777405
22
0.2541720257
32
0.0000000000
13
-0.9696080489
23
-0.2472898445
33
0.0000000000
40
0.0000000000
40
0.0000000000
40
0.0000000000
40
0.0000000000
40
0.0171780977
40
0.0336476399
40
0.0494159069
40
0.0644907528
40
0.0788811670
40
0.0858230621
40
0.0925978571
40
0.0992070972
40
0.1056524468
40
0.1119357005
40
0.1150171730
40
0.1180588610
40
0.1210610314
40
0.1240239614
40
0.1254908056
40
0.1269479490
40
0.1276728952
40
0.1283954305
40
0.1291155597
40
0.1298332878
40
0.1301912530
40
0.1305486197
40
0.1309053887
40
0.1310835492
40
0.1312615605
40
0.1314394227
40
0.1318382042
40
0.1322735769
40
0.1327086883
40
0.1335781295
40
0.1344465321
40
0.1361802376
40
0.1379098402
40
0.1413568662
40
0.1447878977
40
0.1482032174
40
0.1516031122
40
0.1549878728
40
0.1617130986
40
0.1683813717
40
0.1815563457
40
0.1945338629
40
0.2073353299
40
0.2199830469
40
0.2325001360
40
0.2572322732
40
0.2817352293
40
0.3062121669
40
0.3308668920
40
0.3558988681
40
0.3685899170
40
0.3811792102
40
0.3936380610
40
0.4059905705
40
0.4304696157
40
0.4548254928
40
0.4792643090
40
0.5039900979
40
0.5291999262
40
0.5420477535
40
0.5550851852
40
0.5683332587
40
0.5818120252
40
0.5886441939
40
0.5920844451
40
0.5938225497
40
0.5956310651
40
0.5992362587
40
0.6028259388
40
0.6099599312
40
0.6170356627
40
0.6240557396
40
0.6379389764
40
0.6651530972
40
0.6917957865
40
0.7180667126
40
0.7441740748
40
0.7703299784
40
0.7967453597
40
0.8101178151
40
0.8236311317
40
0.8373092490
40
0.8441924275
40
0.8510303545
40
0.8645691124
40
0.8779458316
40
0.9043055649
40
0.9303203254
40
0.9562030482
40
0.9821699168
40
1.0000000000
40
1.0000000000
40
1.0000000000
40
1.0000000000
10
12.9042329524
20
-2.7657584062
30
0.0000000000
10
12.9097727615
20
-2.7643030089
30
0.0000000000
10
12.9206493306
20
-2.7615478179
30
0.0000000000
10
12.9366989876
20
-2.7578145161
30
0.0000000000
10
12.9521384334
20
-2.7545680480
30
0.0000000000
10
12.9669677558
20
-2.7518083984
30
0.0000000000
10
12.9789566230
20
-2.7498919716
30
0.0000000000
10
12.9882407067
20
-2.7486097724
30
0.0000000000
10
12.9949675707
20
-2.7477815152
30
0.0000000000
10
13.0015418330
20
-2.7470750654
30
0.0000000000
10
13.0079634997
20
-2.7464904346
30
0.0000000000
10
13.0132211398
20
-2.7461022851
30
0.0000000000
10
13.0173504650
20
-2.7458537984
30
0.0000000000
10
13.0203892911
20
-2.7456991027
30
0.0000000000
10
13.0233899532
20
-2.7455748696
30
0.0000000000
10
13.0258668356
20
-2.7454964703
30
0.0000000000
10
13.0278291821
20
-2.7454491311
30
0.0000000000
10
13.0290456535
20
-2.7454259507
30
0.0000000000
10
13.0300140493
20
-2.7454112332
30
0.0000000000
10
13.0307367523
20
-2.7454021176
30
0.0000000000
10
13.0314570698
20
-2.7453949061
30
0.0000000000
10
13.0320558462
20
-2.7453904795
30
0.0000000000
10
13.0325336732
20
-2.7453878927
30
0.0000000000
10
13.0328911475
20
-2.7453864303
30
0.0000000000
10
13.0331886702
20
-2.7453856077
30
0.0000000000
10
13.0334263900
20
-2.7453851885
30
0.0000000000
10
13.0336044561
20
-2.7453849917
30
0.0000000000
10
13.0338560853
20
-2.7453848898
30
0.0000000000
10
13.0341935282
20
-2.7453850534
30
0.0000000000
10
13.0346167467
20
-2.7453856799
30
0.0000000000
10
13.0351968987
20
-2.7453871873
30
0.0000000000
10
13.0359214345
20
-2.7453902655
30
0.0000000000
10
13.0370789509
20
-2.7453977455
30
0.0000000000
10
13.0385232358
20
-2.7454118790
30
0.0000000000
10
13.0408271630
20
-2.7454446923
30
0.0000000000
10
13.0436966799
20
-2.7455048133
30
0.0000000000
10
13.0471273666
20
-2.7456077182
30
0.0000000000
10
13.0505412696
20
-2.7457412977
30
0.0000000000
10
13.0539383923
20
-2.7459055524
30
0.0000000000
10
13.0584356528
20
-2.7461648894
30
0.0000000000
10
13.0640161666
20
-2.7465652962
30
0.0000000000
10
13.0728390626
20
-2.7473677101
30
0.0000000000
10
13.0837074737
20
-2.7486745703
30
0.0000000000
10
13.0965342973
20
-2.7507407373
30
0.0000000000
10
13.1090930087
20
-2.7532985310
30
0.0000000000
10
13.1213837041
20
-2.7563482138
30
0.0000000000
10
13.1373472419
20
-2.7610503465
30
0.0000000000
10
13.1567003576
20
-2.7681674899
30
0.0000000000
10
13.1789341345
20
-2.7787220569
30
0.0000000000
10
13.2000860958
20
-2.7912569001
30
0.0000000000
10
13.2201507356
20
-2.8057674964
30
0.0000000000
10
13.2358730457
20
-2.8194275935
30
0.0000000000
10
13.2478140899
20
-2.8312163906
30
0.0000000000
10
13.2563906270
20
-2.8404300235
30
0.0000000000
10
13.2644836369
20
-2.8499235648
30
0.0000000000
10
13.2745831656
20
-2.8628950850
30
0.0000000000
10
13.2860190573
20
-2.8798280225
30
0.0000000000
10
13.2977881556
20
-2.9012774629
30
0.0000000000
10
13.3075635487
20
-2.9237963976
30
0.0000000000
10
13.3153434622
20
-2.9473778081
30
0.0000000000
10
13.3201349913
20
-2.9677850320
30
0.0000000000
10
13.3229849596
20
-2.9845857547
30
0.0000000000
10
13.3246413925
20
-2.9975324334
30
0.0000000000
10
13.3258028006
20
-3.0107435455
30
0.0000000000
10
13.3263557987
20
-3.0219225153
30
0.0000000000
10
13.3265289549
20
-3.0298404958
30
0.0000000000
10
13.3265622626
20
-3.0338451560
30
0.0000000000
10
13.3265659064
20
-3.0361748351
30
0.0000000000
10
13.3265588795
20
-3.0385595043
30
0.0000000000
10
13.3265293597
20
-3.0415614627
30
0.0000000000
10
13.3264380278
20
-3.0463384051
30
0.0000000000
10
13.3262414321
20
-3.0522704949
30
0.0000000000
10
13.3258722941
20
-3.0593400747
30
0.0000000000
10
13.3252056251
20
-3.0686460231
30
0.0000000000
10
13.3235895992
20
-3.0846120927
30
0.0000000000
10
13.3199594648
20
-3.1069337562
30
0.0000000000
10
13.3134346686
20
-3.1328763148
30
0.0000000000
10
13.3047684005
20
-3.1577960236
30
0.0000000000
10
13.2939604607
20
-3.1816871216
30
0.0000000000
10
13.2810134220
20
-3.2045441214
30
0.0000000000
10
13.2684922895
20
-3.2226564505
30
0.0000000000
10
13.2574559121
20
-3.2365926179
30
0.0000000000
10
13.2486127259
20
-3.2468321815
30
0.0000000000
10
13.2408324981
20
-3.2551167078
30
0.0000000000
10
13.2343796947
20
-3.2615847586
30
0.0000000000
10
13.2278306291
20
-3.2678884519
30
0.0000000000
10
13.2194822074
20
-3.2754418926
30
0.0000000000
10
13.2058140938
20
-3.2867947156
30
0.0000000000
10
13.1880535857
20
-3.2997011306
30
0.0000000000
10
13.1656232756
20
-3.3131027653
30
0.0000000000
10
13.1421788905
20
-3.3243424184
30
0.0000000000
10
13.1203663503
20
-3.3324369177
30
0.0000000000
10
13.1063192573
20
-3.3364700279
30
0.0000000000
10
13.1005565266
20
-3.3379397607
30
0.0000000000
11
12.9042329524
21
-2.7657584062
31
0.0000000000
11
12.9208918601
21
-2.7615453566
31
0.0000000000
11
12.9369397168
21
-2.7578198546
31
0.0000000000
11
12.9523768981
21
-2.7545818015
31
0.0000000000
11
12.9672034040
21
-2.7518311972
31
0.0000000000
11
12.9814192345
21
-2.7495680418
31
0.0000000000
11
12.9882981465
21
-2.7486192574
31
0.0000000000
11
12.9950243897
21
-2.7477923352
31
0.0000000000
11
13.0015979640
21
-2.7470872753
31
0.0000000000
11
13.0080188694
21
-2.7465040775
31
0.0000000000
11
13.0142871061
21
-2.7460427420
31
0.0000000000
11
13.0173639736
21
-2.7458577726
31
0.0000000000
11
13.0204026738
21
-2.7457032687
31
0.0000000000
11
13.0234032069
21
-2.7455792303
31
0.0000000000
11
13.0263655728
21
-2.7454856576
31
0.0000000000
11
13.0278324430
21
-2.7454502958
31
0.0000000000
11
13.0292897714
21
-2.7454225504
31
0.0000000000
11
13.0300148574
21
-2.7454115338
31
0.0000000000
11
13.0307375580
21
-2.7454024213
31
0.0000000000
11
13.0314578732
21
-2.7453952130
31
0.0000000000
11
13.0321758028
21
-2.7453899087
31
0.0000000000
11
13.0325338731
21
-2.7453879706
31
0.0000000000
11
13.0328913471
21
-2.7453865085
31
0.0000000000
11
13.0332482247
21
-2.7453855225
31
0.0000000000
11
13.0334264398
21
-2.7453852080
31
0.0000000000
11
13.0336045059
21
-2.7453850124
31
0.0000000000
11
13.0337824228
21
-2.7453849359
31
0.0000000000
11
13.0341813273
21
-2.7453851108
31
0.0000000000
11
13.0346168337
21
-2.7453857612
31
0.0000000000
11
13.0350520778
21
-2.7453868909
31
0.0000000000
11
13.0359217791
21
-2.7453905880
31
0.0000000000
11
13.0367904312
21
-2.7453962022
31
0.0000000000
11
13.0385245880
21
-2.7454131818
31
0.0000000000
11
13.0402545482
21
-2.7454378295
31
0.0000000000
11
13.0437018787
21
-2.7455101294
31
0.0000000000
11
13.0471324227
21
-2.7456131020
31
0.0000000000
11
13.0505461802
21
-2.7457467472
31
0.0000000000
11
13.0539431511
21
-2.7459110652
31
0.0000000000
11
13.0573233356
21
-2.7461060558
31
0.0000000000
11
13.0640333450
21
-2.7465880552
31
0.0000000000
11
13.0706762084
21
-2.7471927453
31
0.0000000000
11
13.0837604971
21
-2.7487701978
31
0.0000000000
11
13.0965762017
21
-2.7508384132
31
0.0000000000
11
13.1091233223
21
-2.7533973917
31
0.0000000000
11
13.1214018587
21
-2.7564471331
31
0.0000000000
11
13.1334118110
21
-2.7599876375
31
0.0000000000
11
13.1566259633
21
-2.7685409353
31
0.0000000000
11
13.1787657792
21
-2.7790572850
31
0.0000000000
11
13.1998312587
21
-2.7915366867
31
0.0000000000
11
13.2198224019
21
-2.8059791404
31
0.0000000000
11
13.2387392086
21
-2.8223846460
31
0.0000000000
11
13.2477740183
21
-2.8313028436
31
0.0000000000
11
13.2563514841
21
-2.8405232073
31
0.0000000000
11
13.2644347750
21
-2.8500089377
31
0.0000000000
11
13.2720238909
21
-2.8597600348
31
0.0000000000
11
13.2857195977
21
-2.8800583292
31
0.0000000000
11
13.2974386045
21
-2.9014180904
31
0.0000000000
11
13.3071809114
21
-2.9238393183
31
0.0000000000
11
13.3149465183
21
-2.9473220131
31
0.0000000000
11
13.3207354253
21
-2.9718661747
31
0.0000000000
11
13.3228886164
21
-2.9845363055
31
0.0000000000
11
13.3245476324
21
-2.9974718031
31
0.0000000000
11
13.3257124734
21
-3.0106726673
31
0.0000000000
11
13.3263831395
21
-3.0241388983
31
0.0000000000
11
13.3265331569
21
-3.0309715263
31
0.0000000000
11
13.3265618367
21
-3.0344127184
31
0.0000000000
11
13.3265645885
21
-3.0361513566
31
0.0000000000
11
13.3265592575
21
-3.0379604217
31
0.0000000000
11
13.3265237173
21
-3.0415665514
31
0.0000000000
11
13.3264550063
21
-3.0451566806
31
0.0000000000
11
13.3262180716
21
-3.0522889376
31
0.0000000000
11
13.3258484536
21
-3.0593571927
31
0.0000000000
11
13.3253461521
21
-3.0663614457
31
0.0000000000
11
13.3239434991
21
-3.0801779458
31
0.0000000000
11
13.3195459921
21
-3.1070429222
31
0.0000000000
11
13.3130255508
21
-3.1328838670
31
0.0000000000
11
13.3043821751
21
-3.1577007799
31
0.0000000000
11
13.2936158651
21
-3.1814936612
31
0.0000000000
11
13.2807266206
21
-3.2042625107
31
0.0000000000
11
13.2657144418
21
-3.2260073284
31
0.0000000000
11
13.2574122520
21
-3.2364957254
31
0.0000000000
11
13.2485793286
21
-3.2467281145
31
0.0000000000
11
13.2392156716
21
-3.2567044956
31
0.0000000000
11
13.2343526869
21
-3.2615787893
31
0.0000000000
11
13.2294242061
21
-3.2663218004
31
0.0000000000
11
13.2193793330
21
-3.2754053851
31
0.0000000000
11
13.2090839112
21
-3.2839523867
31
0.0000000000
11
13.1877414218
21
-3.2994366408
31
0.0000000000
11
13.1653967379
21
-3.3127745627
31
0.0000000000
11
13.1420498596
21
-3.3239661523
31
0.0000000000
11
13.1177007867
21
-3.3330114097
31
0.0000000000
11
13.1005565266
21
-3.3379397607
31
0.0000000000
0
SPLINE
5
2D5
100
AcDbEntity
8
0
100
AcDbSpline
62
7
6
CONTINUOUS
70
0
71
3
72
100
73
96
74
94
42
0.0000001000
43
0.0000001000
44
0.0000000001
12
0.1502315578
22
-1.5284616897
32
0.0000000000
13
-0.1999550799
23
1.5228086205
33
0.0000000000
40
0.0000000000
40
0.0000000000
40
0.0000000000
40
0.0000000000
40
0.0445614915
40
0.0871564289
40
0.1285726367
40
0.1696658461
40
0.1903791317
40
0.2008229758
40
0.2113413644
40
0.2219471099
40
0.2326111164
40
0.2537470609
40
0.2746957659
40
0.2955702330
40
0.3164846668
40
0.3375526223
40
0.3588852026
40
0.3805894478
40
0.3916144685
40
0.4027699968
40
0.4140677391
40
0.4255189655
40
0.4371344998
40
0.4430072977
40
0.4459604863
40
0.4489250610
40
0.4519011740
40
0.4548889759
40
0.4556377717
40
0.4563873096
40
0.4567623577
40
0.4571647393
40
0.4579961510
40
0.4596564589
40
0.4613134324
40
0.4646174610
40
0.4679084243
40
0.4744518472
40
0.4809452463
40
0.4873901560
40
0.5001404136
40
0.5251269207
40
0.5495251851
40
0.5734535949
40
0.5970376150
40
0.6204082576
40
0.6437001356
40
0.6670492245
40
0.6787895854
40
0.6905946296
40
0.7024806947
40
0.7084593722
40
0.7144642753
40
0.7204610257
40
0.7264150851
40
0.7382017613
40
0.7498392731
40
0.7613427198
40
0.7840063505
40
0.8063272079
40
0.8284420820
40
0.8504915967
40
0.8726176223
40
0.8949605715
40
0.9062582983
40
0.9176609029
40
0.9234068141
40
0.9291849215
40
0.9349971529
40
0.9408454022
40
0.9467315288
40
0.9496893953
40
0.9511721244
40
0.9526574188
40
0.9541453064
40
0.9548902316
40
0.9556358154
40
0.9560088554
40
0.9563820613
40
0.9565687267
40
0.9567229996
40
0.9569990351
40
0.9575507011
40
0.9581018280
40
0.9592024694
40
0.9603009694
40
0.9624915819
40
0.9646737477
40
0.9668475471
40
0.9711703526
40
0.9754606810
40
0.9797192097
40
0.9881434755
40
0.9964490485
40
1.0000000000
40
1.0000000000
40
1.0000000000
40
1.0000000000
10
12.5421418714
20
-3.0786930174
30
0.0000000000
10
12.5443733855
20
-3.1013965283
30
0.0000000000
10
12.5512931007
20
-3.1456119437
30
0.0000000000
10
12.5699551009
20
-3.2089408276
30
0.0000000000
10
12.5966480689
20
-3.2674043090
30
0.0000000000
10
12.6255304621
20
-3.3119025042
30
0.0000000000
10
12.6489484602
20
-3.3405691995
30
0.0000000000
10
12.6633096235
20
-3.3563533404
30
0.0000000000
10
12.6746016926
20
-3.3679193928
30
0.0000000000
10
12.6863692814
20
-3.3791650276
30
0.0000000000
10
12.7025659180
20
-3.3936257640
30
0.0000000000
10
12.7236622903
20
-3.4105242620
30
0.0000000000
10
12.7502454739
20
-3.4288008894
30
0.0000000000
10
12.7780107368
20
-3.4450047262
30
0.0000000000
10
12.8069544781
20
-3.4591339021
30
0.0000000000
10
12.8370744661
20
-3.4711877902
30
0.0000000000
10
12.8683669740
20
-3.4811663142
30
0.0000000000
10
12.8952807374
20
-3.4877190245
30
0.0000000000
10
12.9173514252
20
-3.4919348727
30
0.0000000000
10
12.9342855160
20
-3.4945974251
30
0.0000000000
10
12.9515123333
20
-3.4967436678
30
0.0000000000
10
12.9690320375
20
-3.4983737514
30
0.0000000000
10
12.9838209066
20
-3.4992986104
30
0.0000000000
10
12.9942775440
20
-3.4997218650
30
0.0000000000
10
13.0003110376
20
-3.4999005095
30
0.0000000000
10
13.0048630865
20
-3.5000025147
30
0.0000000000
10
13.0094334628
20
-3.5000722874
30
0.0000000000
10
13.0128699011
20
-3.5001004012
30
0.0000000000
10
13.0151665278
20
-3.5001091154
30
0.0000000000
10
13.0161255899
20
-3.5001110729
30
0.0000000000
10
13.0169073091
20
-3.5001116416
30
0.0000000000
10
13.0177309433
20
-3.5001114985
30
0.0000000000
10
13.0192125552
20
-3.5001092442
30
0.0000000000
10
13.0213364330
20
-3.5001001683
30
0.0000000000
10
13.0247260604
20
-3.5000732089
30
0.0000000000
10
13.0289502510
20
-3.5000162123
30
0.0000000000
10
13.0356749359
20
-3.4998753559
30
0.0000000000
10
13.0440298381
20
-3.4996063493
30
0.0000000000
10
13.0539925266
20
-3.4991333475
30
0.0000000000
10
13.0671180771
20
-3.4983062502
30
0.0000000000
10
13.0896553229
20
-3.4963536826
30
0.0000000000
10
13.1212019363
20
-3.4920805353
30
0.0000000000
10
13.1579939127
20
-3.4845137148
30
0.0000000000
10
13.1934651260
20
-3.4745405273
30
0.0000000000
10
13.2276116496
20
-3.4621597612
30
0.0000000000
10
13.2604305146
20
-3.4473707344
30
0.0000000000
10
13.2919171330
20
-3.4301749282
30
0.0000000000
10
13.3170014962
20
-3.4138672364
30
0.0000000000
10
13.3363595742
20
-3.3996603561
30
0.0000000000
10
13.3505744624
20
-3.3883859468
30
0.0000000000
10
13.3621203948
20
-3.3785109935
30
0.0000000000
10
13.3711877298
20
-3.3703181567
30
0.0000000000
10
13.3779045543
20
-3.3640234241
30
0.0000000000
10
13.3845023134
20
-3.3576221605
30
0.0000000000
10
13.3930798527
20
-3.3490132072
30
0.0000000000
10
13.4034176635
20
-3.3380848156
30
0.0000000000
10
13.4152383229
20
-3.3246630640
30
0.0000000000
10
13.4300875361
20
-3.3065090319
30
0.0000000000
10
13.4471405256
20
-3.2831161956
30
0.0000000000
10
13.4651857248
20
-3.2538460518
30
0.0000000000
10
13.4807105789
20
-3.2235153402
30
0.0000000000
10
13.4937116625
20
-3.1921277271
30
0.0000000000
10
13.5041874760
20
-3.1596881530
30
0.0000000000
10
13.5107888965
20
-3.1318799520
30
0.0000000000
10
13.5148136743
20
-3.1091699188
30
0.0000000000
10
13.5168104905
20
-3.0947406714
30
0.0000000000
10
13.5180957354
20
-3.0830736319
30
0.0000000000
10
13.5189053894
20
-3.0742349524
30
0.0000000000
10
13.5195582142
20
-3.0653308214
30
0.0000000000
10
13.5200542243
20
-3.0563612059
30
0.0000000000
10
13.5203364151
20
-3.0488445003
30
0.0000000000
10
13.5204655673
20
-3.0435593334
30
0.0000000000
10
13.5205199438
20
-3.0405260976
30
0.0000000000
10
13.5205509628
20
-3.0382451319
30
0.0000000000
10
13.5205686390
20
-3.0363417511
30
0.0000000000
10
13.5205778873
20
-3.0348170109
30
0.0000000000
10
13.5205816279
20
-3.0338629877
30
0.0000000000
10
13.5205833964
20
-3.0330992588
30
0.0000000000
10
13.5205839916
20
-3.0326216623
30
0.0000000000
10
13.5205841543
20
-3.0322560617
30
0.0000000000
10
13.5205841408
20
-3.0319402067
30
0.0000000000
10
13.5205838310
20
-3.0314374925
30
0.0000000000
10
13.5205826102
20
-3.0307316126
30
0.0000000000
10
13.5205789838
20
-3.0296035868
30
0.0000000000
10
13.5205713145
20
-3.0281956265
30
0.0000000000
10
13.5205523563
20
-3.0259484029
30
0.0000000000
10
13.5205161323
20
-3.0231476399
30
0.0000000000
10
13.5204525210
20
-3.0197967522
30
0.0000000000
10
13.5203411180
20
-3.0153550960
30
0.0000000000
10
13.5201518937
20
-3.0098359001
30
0.0000000000
10
13.5198439820
20
-3.0032533691
30
0.0000000000
10
13.5193281078
20
-2.9945792478
30
0.0000000000
10
13.5184842763
20
-2.9838662692
30
0.0000000000
10
13.5173954124
20
-2.9735397253
30
0.0000000000
10
13.5166410077
20
-2.9675165971
30
0.0000000000
10
13.5164043307
20
-2.9657141239
30
0.0000000000
11
12.5421418714
21
-3.0786930174
31
0.0000000000
11
12.5529473231
21
-3.1462733678
31
0.0000000000
11
12.5715994480
21
-3.2089764187
31
0.0000000000
11
12.5980982385
21
-3.2668020917
31
0.0000000000
11
12.6324436945
21
-3.3197503868
31
0.0000000000
11
12.6525589221
21
-3.3443955176
31
0.0000000000
11
12.6633521608
21
-3.3562608288
31
0.0000000000
11
12.6746358161
21
-3.3678213039
31
0.0000000000
11
12.6864098879
21
-3.3790769429
31
0.0000000000
11
12.6986305738
21
-3.3899808870
31
0.0000000000
11
12.7239737607
21
-3.4102651034
31
0.0000000000
11
12.7504901663
21
-3.4284865181
31
0.0000000000
11
12.7781797906
21
-3.4446451311
31
0.0000000000
11
12.8070426335
21
-3.4587409425
31
0.0000000000
11
12.8370786950
21
-3.4707739522
31
0.0000000000
11
12.8682879752
21
-3.4807441603
31
0.0000000000
11
12.9006704740
21
-3.4886515667
31
0.0000000000
11
12.9173016804
21
-3.4918317192
31
0.0000000000
11
12.9342261915
21
-3.4944961714
31
0.0000000000
11
12.9514440072
21
-3.4966449231
31
0.0000000000
11
12.9689551276
21
-3.4982779744
31
0.0000000000
11
12.9867595526
21
-3.4993953253
31
0.0000000000
11
12.9957717544
21
-3.4997606131
31
0.0000000000
11
13.0003053526
21
-3.4998949101
31
0.0000000000
11
13.0048572823
21
-3.4999969758
31
0.0000000000
11
13.0094275436
21
-3.5000668103
31
0.0000000000
11
13.0140161364
21
-3.5001044134
31
0.0000000000
11
13.0151661489
21
-3.5001087781
31
0.0000000000
11
13.0163173072
21
-3.5001111283
31
0.0000000000
11
13.0168933159
21
-3.5001115479
31
0.0000000000
11
13.0175113045
21
-3.5001114461
31
0.0000000000
11
13.0187882076
21
-3.5001094990
31
0.0000000000
11
13.0213381300
21
-3.5000985954
31
0.0000000000
11
13.0238828741
21
-3.5000783459
31
0.0000000000
11
13.0289568276
21
-3.5000098089
31
0.0000000000
11
13.0340100681
21
-3.4999038881
31
0.0000000000
11
13.0440544097
21
-3.4995798952
31
0.0000000000
11
13.0540158991
21
-3.4991063670
31
0.0000000000
11
13.0638945362
21
-3.4984833036
31
0.0000000000
11
13.0834032536
21
-3.4967885712
31
0.0000000000
11
13.1214264612
21
-3.4916046838
31
0.0000000000
11
13.1581240325
21
-3.4840282330
31
0.0000000000
11
13.1934959675
21
-3.4740592188
31
0.0000000000
11
13.2275422662
21
-3.4616976413
31
0.0000000000
11
13.2602629287
21
-3.4469435003
31
0.0000000000
11
13.2916579549
21
-3.4297967959
31
0.0000000000
11
13.3217273448
21
-3.4102575280
31
0.0000000000
11
13.3362649261
21
-3.3995906829
31
0.0000000000
11
13.3504710984
21
-3.3883256968
31
0.0000000000
11
13.3643458616
21
-3.3764625700
31
0.0000000000
11
13.3711589648
21
-3.3703067037
31
0.0000000000
11
13.3778892157
21
-3.3640013022
31
0.0000000000
11
13.3844996558
21
-3.3575883736
31
0.0000000000
11
13.3909533266
21
-3.3511099261
31
0.0000000000
11
13.4033903602
21
-3.3379564739
31
0.0000000000
11
13.4152003165
21
-3.3245409457
31
0.0000000000
11
13.4263831954
21
-3.3108633415
31
0.0000000000
11
13.4468677214
21
-3.2827219051
31
0.0000000000
11
13.4648439380
21
-3.2535321646
31
0.0000000000
11
13.4803118454
21
-3.2232941201
31
0.0000000000
11
13.4932714434
21
-3.1920077715
31
0.0000000000
11
13.5037227321
21
-3.1596731189
31
0.0000000000
11
13.5116657116
21
-3.1262901623
31
0.0000000000
11
13.5146965853
21
-3.1092055699
31
0.0000000000
11
13.5171003817
21
-3.0918589016
31
0.0000000000
11
13.5180671259
21
-3.0830872889
31
0.0000000000
11
13.5188771008
21
-3.0742501572
31
0.0000000000
11
13.5195303064
21
-3.0653475065
31
0.0000000000
11
13.5200267426
21
-3.0563793368
31
0.0000000000
11
13.5203664095
21
-3.0473456482
31
0.0000000000
11
13.5204774544
21
-3.0428042342
31
0.0000000000
11
13.5205182798
21
-3.0405273848
31
0.0000000000
11
13.5205493070
21
-3.0382464405
31
0.0000000000
11
13.5205705362
21
-3.0359614012
31
0.0000000000
11
13.5205774765
21
-3.0348173460
31
0.0000000000
11
13.5205819673
21
-3.0336722670
31
0.0000000000
11
13.5205832941
21
-3.0330993436
31
0.0000000000
11
13.5205840086
21
-3.0325261643
31
0.0000000000
11
13.5205841361
21
-3.0322394787
31
0.0000000000
11
13.5205841272
21
-3.0320025421
31
0.0000000000
11
13.5205838655
21
-3.0315785994
31
0.0000000000
11
13.5205823999
21
-3.0307313372
31
0.0000000000
11
13.5205796780
21
-3.0298849059
31
0.0000000000
11
13.5205704656
21
-3.0281945362
31
0.0000000000
11
13.5205562283
21
-3.0265074904
31
0.0000000000
11
13.5205126788
21
-3.0231433703
31
0.0000000000
11
13.5204490295
21
-3.0197925456
31
0.0000000000
11
13.5203652804
21
-3.0164550164
31
0.0000000000
11
13.5201374829
21
-3.0098198440
31
0.0000000000
11
13.5198292864
21
-3.0032378533
31
0.0000000000
11
13.5194406907
21
-2.9967090443
31
0.0000000000
11
13.5184223020
21
-2.9838109710
31
0.0000000000
11
13.5170823169
21
-2.9711256242
31
0.0000000000
11
13.5164043307
21
-2.9657141239
31
0.0000000000
0
SPLINE
5
2D6
100
AcDbEntity
8
0
100
AcDbSpline
62
7
6
CONTINUOUS
70
0
71
3
72
95
73
91
74
89
42
0.0000001000
43
0.0000001000
44
0.0000000001
12
1.1386367619
22
0.5224974541
32
0.0000000000
13
-1.1294359188
23
-0.5428761128
33
0.0000000000
40
0.0000000000
40
0.0000000000
40
0.0000000000
40
0.0000000000
40
0.0738248087
40
0.1082631639
40
0.1250907963
40
0.1417496400
40
0.1583162637
40
0.1665735894
40
0.1747722296
40
0.2070930469
40
0.2231060510
40
0.2391057104
40
0.2551602888
40
0.2713373547
40
0.2794935492
40
0.2877049545
40
0.2959794677
40
0.3001429275
40
0.3043250420
40
0.3064234016
40
0.3085267742
40
0.3090534152
40
0.3096039668
40
0.3107123884
40
0.3129268008
40
0.3173463082
40
0.3217542376
40
0.3305390168
40
0.3392892488
40
0.3567159735
40
0.3741008500
40
0.4089884163
40
0.4266355529
40
0.4444962146
40
0.4626302902
40
0.4810134642
40
0.4993392385
40
0.5176370057
40
0.5544317281
40
0.5920098958
40
0.6112771015
40
0.6309447833
40
0.6409489036
40
0.6510188397
40
0.6710921417
40
0.6911217532
40
0.7111643016
40
0.7312763053
40
0.7515137004
40
0.7719313927
40
0.7822254406
40
0.7925844655
40
0.7977904478
40
0.8030150631
40
0.8082590911
40
0.8135233025
40
0.8188084595
40
0.8214591399
40
0.8241153383
40
0.8254455372
40
0.8267771503
40
0.8274434909
40
0.8281101894
40
0.8284436733
40
0.8286104490
40
0.8286992097
40
0.8288201498
40
0.8290619791
40
0.8293037407
40
0.8297870614
40
0.8307528938
40
0.8317176509
40
0.8336439528
40
0.8355659983
40
0.8374838176
40
0.8413068923
40
0.8451134309
40
0.8489036832
40
0.8526779020
40
0.8601792019
40
0.8676194821
40
0.8750008825
40
0.8823255946
40
0.8968133955
40
0.9111019859
40
0.9252106985
40
0.9391596138
40
0.9529695092
40
0.9802528841
40
1.0000000000
40
1.0000000000
40
1.0000000000
40
1.0000000000
10
13.2417789579
20
-2.6640871263
30
0.0000000000
10
13.2697988383
20
-2.6512293681
30
0.0000000000
10
13.3094001063
20
-2.6284080925
30
0.0000000000
10
13.3490756731
20
-2.5942277992
30
0.0000000000
10
13.3686370681
20
-2.5736584263
30
0.0000000000
10
13.3820005274
20
-2.5575655236
30
0.0000000000
10
13.3921366467
20
-2.5434992590
30
0.0000000000
10
13.3996170142
20
-2.5319114308
30
0.0000000000
10
13.4101442729
20
-2.5144729317
30
0.0000000000
10
13.4207653003
20
-2.4932981766
30
0.0000000000
10
13.4304040584
20
-2.4682060023
30
0.0000000000
10
13.4363661018
20
-2.4490229510
30
0.0000000000
10
13.4410786606
20
-2.4294266759
30
0.0000000000
10
13.4439576468
20
-2.4127955636
30
0.0000000000
10
13.4456394946
20
-2.3993076088
30
0.0000000000
10
13.4465934256
20
-2.3890596951
30
0.0000000000
10
13.4471279764
20
-2.3804516862
30
0.0000000000
10
13.4474009954
20
-2.3735163242
30
0.0000000000
10
13.4475071109
20
-2.3691560570
30
0.0000000000
10
13.4475532746
20
-2.3656552550
30
0.0000000000
10
13.4475646991
20
-2.3636807044
30
0.0000000000
10
13.4475662624
20
-2.3623525055
30
0.0000000000
10
13.4475656470
20
-2.3614397958
30
0.0000000000
10
13.4475601454
20
-2.3598222809
30
0.0000000000
10
13.4475313140
20
-2.3565891945
30
0.0000000000
10
13.4474392609
20
-2.3519788591
30
0.0000000000
10
13.4471834579
20
-2.3446282708
30
0.0000000000
10
13.4466603090
20
-2.3354782860
30
0.0000000000
10
13.4453891263
20
-2.3209321050
30
0.0000000000
10
13.4429828638
20
-2.3028874608
30
0.0000000000
10
13.4373790253
20
-2.2743119311
30
0.0000000000
10
13.4291217105
20
-2.2462156259
30
0.0000000000
10
13.4183285174
20
-2.2188582998
30
0.0000000000
10
13.4088949225
20
-2.1985256012
30
0.0000000000
10
13.3981671191
20
-2.1784988631
30
0.0000000000
10
13.3862641383
20
-2.1589168650
30
0.0000000000
10
13.3730784880
20
-2.1400865477
30
0.0000000000
10
13.3539086620
20
-2.1161367119
30
0.0000000000
10
13.3268353394
20
-2.0883257459
30
0.0000000000
10
13.2961755870
20
-2.0638895783
30
0.0000000000
10
13.2695220869
20
-2.0462433842
30
0.0000000000
10
13.2518574306
20
-2.0359419625
30
0.0000000000
10
13.2371917628
20
-2.0281702229
30
0.0000000000
10
13.2221745415
20
-2.0207122630
30
0.0000000000
10
13.2030464116
20
-2.0121361258
30
0.0000000000
10
13.1796030120
20
-2.0030896871
30
0.0000000000
10
13.1556957530
20
-1.9952986875
30
0.0000000000
10
13.1313253816
20
-1.9887636334
30
0.0000000000
10
13.1064928330
20
-1.9834844412
30
0.0000000000
10
13.0854706945
20
-1.9801406521
30
0.0000000000
10
13.0684412153
20
-1.9780899671
30
0.0000000000
10
13.0576897518
20
-1.9770674129
30
0.0000000000
10
13.0490331479
20
-1.9764053386
30
0.0000000000
10
13.0425007061
20
-1.9759862020
30
0.0000000000
10
13.0359393769
20
-1.9756453385
30
0.0000000000
10
13.0293491503
20
-1.9753827449
30
0.0000000000
10
13.0238388218
20
-1.9752292987
30
0.0000000000
10
13.0194163748
20
-1.9751455602
30
0.0000000000
10
13.0166449567
20
-1.9751094937
30
0.0000000000
10
13.0144242426
20
-1.9750904081
30
0.0000000000
10
13.0130344307
20
-1.9750825514
30
0.0000000000
10
13.0119216820
20
-1.9750787097
30
0.0000000000
10
13.0112257454
20
-1.9750773272
30
0.0000000000
10
13.0107384255
20
-1.9750768944
30
0.0000000000
10
13.0104924514
20
-1.9750768107
30
0.0000000000
10
13.0103352354
20
-1.9750768016
30
0.0000000000
10
13.0101466771
20
-1.9750768314
30
0.0000000000
10
13.0098942258
20
-1.9750769638
30
0.0000000000
10
13.0094904451
20
-1.9750773736
30
0.0000000000
10
13.0087843224
20
-1.9750786093
30
0.0000000000
10
13.0077762815
20
-1.9750818575
30
0.0000000000
10
13.0061656699
20
-1.9750902167
30
0.0000000000
10
13.0041557853
20
-1.9751065910
30
0.0000000000
10
13.0017480122
20
-1.9751357473
30
0.0000000000
10
12.9985483867
20
-1.9751872276
30
0.0000000000
10
12.9945623170
20
-1.9752752424
30
0.0000000000
10
12.9897955131
20
-1.9754189619
30
0.0000000000
10
12.9850504173
20
-1.9756006680
30
0.0000000000
10
12.9787657098
20
-1.9758929801
30
0.0000000000
10
12.9709631588
20
-1.9763527826
30
0.0000000000
10
12.9616673710
20
-1.9770576717
30
0.0000000000
10
12.9524583613
20
-1.9779145442
30
0.0000000000
10
12.9403404101
20
-1.9792547006
30
0.0000000000
10
12.9254014095
20
-1.9813065810
30
0.0000000000
10
12.9077554473
20
-1.9843865166
30
0.0000000000
10
12.8904564480
20
-1.9880750897
30
0.0000000000
10
12.8735042800
20
-1.9923725644
30
0.0000000000
10
12.8514562067
20
-1.9988867963
30
0.0000000000
10
12.8275331833
20
-2.0075308441
30
0.0000000000
10
12.8095690051
20
-2.0155048932
30
0.0000000000
10
12.8021346378
20
-2.0190783057
30
0.0000000000
11
13.2417789579
21
-2.6640871263
31
0.0000000000
11
13.3213599264
21
-2.6169618654
31
0.0000000000
11
13.3539860913
21
-2.5887314276
31
0.0000000000
11
13.3685080938
21
-2.5734492568
31
0.0000000000
11
13.3818360431
21
-2.5573891181
31
0.0000000000
11
13.3939699392
21
-2.5405510116
31
0.0000000000
11
13.3995859837
21
-2.5318634488
31
0.0000000000
11
13.4048917325
21
-2.5230687328
31
0.0000000000
11
13.4230067579
21
-2.4868555033
31
0.0000000000
11
13.4301994885
21
-2.4681282690
31
0.0000000000
11
13.4361490312
21
-2.4489872884
31
0.0000000000
11
13.4408553858
21
-2.4294325615
31
0.0000000000
11
13.4443185524
21
-2.4094640883
31
0.0000000000
11
13.4455839402
21
-2.3993246968
31
0.0000000000
11
13.4465385310
21
-2.3890818688
31
0.0000000000
11
13.4471823248
21
-2.3787356041
31
0.0000000000
11
13.4473876728
21
-2.3735236831
31
0.0000000000
11
13.4475153216
21
-2.3682859029
31
0.0000000000
11
13.4475500088
21
-2.3656573156
31
0.0000000000
11
13.4475652711
21
-2.3630222636
31
0.0000000000
11
13.4475660516
21
-2.3623624904
31
0.0000000000
11
13.4475655960
21
-2.3616727619
31
0.0000000000
11
13.4475608646
21
-2.3602841440
31
0.0000000000
11
13.4475361158
21
-2.3575100478
31
0.0000000000
11
13.4474254737
21
-2.3519744133
31
0.0000000000
11
13.4472333060
21
-2.3464555226
31
0.0000000000
11
13.4466043934
21
-2.3354679726
31
0.0000000000
11
13.4456493780
21
-2.3245473979
31
0.0000000000
11
13.4427610386
21
-2.3029071743
31
0.0000000000
11
13.4385682880
21
-2.2815348518
31
0.0000000000
11
13.4262695528
21
-2.2395939101
31
0.0000000000
11
13.4181635682
21
-2.2190252909
31
0.0000000000
11
13.4087531723
21
-2.1987245727
31
0.0000000000
11
13.3980383652
21
-2.1786917557
31
0.0000000000
11
13.3860429579
21
-2.1590319536
31
0.0000000000
11
13.3728755892
21
-2.1402247489
31
0.0000000000
11
13.3585496529
21
-2.1223292679
31
0.0000000000
11
13.3264220774
21
-2.0892734776
31
0.0000000000
11
13.2896602316
21
-2.0598645826
31
0.0000000000
11
13.2695414572
21
-2.0465277209
31
0.0000000000
11
13.2482641153
21
-2.0341025830
31
0.0000000000
11
13.2371909815
21
-2.0282319105
31
0.0000000000
11
13.2258921312
21
-2.0226204332
31
0.0000000000
11
13.2029440115
21
-2.0123348593
31
0.0000000000
11
13.1795334014
21
-2.0033014423
31
0.0000000000
11
13.1556603009
21
-1.9955201820
31
0.0000000000
11
13.1313247101
21
-1.9889910786
31
0.0000000000
11
13.1065266289
21
-1.9837141320
31
0.0000000000
11
13.0812660574
21
-1.9796893423
31
0.0000000000
11
13.0684623377
21
-1.9781465062
31
0.0000000000
11
13.0555429955
21
-1.9769167093
31
0.0000000000
11
13.0490399659
21
-1.9764192006
31
0.0000000000
11
13.0425080306
21
-1.9759999516
31
0.0000000000
11
13.0359471897
21
-1.9756589625
31
0.0000000000
11
13.0293574432
21
-1.9753962332
31
0.0000000000
11
13.0227387910
21
-1.9752117636
31
0.0000000000
11
13.0194186253
21
-1.9751488763
31
0.0000000000
11
13.0160912332
21
-1.9751055539
31
0.0000000000
11
13.0144248272
21
-1.9750912296
31
0.0000000000
11
13.0127566146
21
-1.9750817965
31
0.0000000000
11
13.0119218309
21
-1.9750789141
31
0.0000000000
11
13.0110865955
21
-1.9750772546
31
0.0000000000
11
13.0106688084
21
-1.9750768834
31
0.0000000000
11
13.0104598725
21
-1.9750768124
31
0.0000000000
11
13.0103486734
21
-1.9750768058
31
0.0000000000
11
13.0101971603
21
-1.9750768296
31
0.0000000000
11
13.0098941976
21
-1.9750769886
31
0.0000000000
11
13.0095913198
21
-1.9750772960
31
0.0000000000
11
13.0089858186
21
-1.9750783558
31
0.0000000000
11
13.0077758341
21
-1.9750822560
31
0.0000000000
11
13.0065672069
21
-1.9750885302
31
0.0000000000
11
13.0041540241
21
-1.9751082007
31
0.0000000000
11
13.0017462703
21
-1.9751373673
31
0.0000000000
11
12.9993439454
21
-1.9751760300
31
0.0000000000
11
12.9945555826
21
-1.9752818437
31
0.0000000000
11
12.9897889355
21
-1.9754256418
31
0.0000000000
11
12.9850440043
21
-1.9756074243
31
0.0000000000
11
12.9803207889
21
-1.9758271912
31
0.0000000000
11
12.9709395056
21
-1.9763806782
31
0.0000000000
11
12.9616450855
21
-1.9770861028
31
0.0000000000
11
12.9524375287
21
-1.9779434651
31
0.0000000000
11
12.9433168352
21
-1.9789527649
31
0.0000000000
11
12.9253360380
21
-1.9814271775
31
0.0000000000
11
12.9077026940
21
-1.9845093405
31
0.0000000000
11
12.8904168030
21
-1.9881992540
31
0.0000000000
11
12.8734783651
21
-1.9924969180
31
0.0000000000
11
12.8568873803
21
-1.9974023323
31
0.0000000000
11
12.8247477701
21
-2.0090364125
31
0.0000000000
11
12.8021346378
21
-2.0190783057
31
0.0000000000
0
SPLINE
5
2D7
100
AcDbEntity
8
0
100
AcDbSpline
62
7
6
CONTINUOUS
70
0
71
3
72
68
73
64
74
62
42
0.0000001000
43
0.0000001000
44
0.0000000001
12
0.1265565560
22
0.8410103041
32
0.0000000000
13
-0.1399553317
23
-0.8389634643
33
0.0000000000
40
0.0000000000
40
0.0000000000
40
0.0000000000
40
0.0000000000
40
0.1284286891
40
0.1848754246
40
0.2116683340
40
0.2377382248
40
0.2632884563
40
0.2759192212
40
0.2884225022
40
0.3375201214
40
0.3863694564
40
0.4111970412
40
0.4365201492
40
0.4625087529
40
0.4758046113
40
0.4893246513
40
0.4961744966
40
0.5030937766
40
0.5167503246
40
0.5301502481
40
0.5433109125
40
0.5689837944
40
0.5939313744
40
0.6183256868
40
0.6423506544
40
0.6661987467
40
0.6900667125
40
0.7141508138
40
0.7263337901
40
0.7384526120
40
0.7622513755
40
0.7856266347
40
0.8087722004
40
0.8318876618
40
0.8551733821
40
0.8669446222
40
0.8788312547
40
0.8908563442
40
0.9030421690
40
0.9092024072
40
0.9154107789
40
0.9216698142
40
0.9279819825
40
0.9311587832
40
0.9343497645
40
0.9375552177
40
0.9391634655
40
0.9407754387
40
0.9415828339
40
0.9419868855
40
0.9423911738
40
0.9425934069
40
0.9428411132
40
0.9433513484
40
0.9443704614
40
0.9464032804
40
0.9484289364
40
0.9524589606
40
0.9564609827
40
0.9643826942
40
0.9721978502
40
0.9875229227
40
1.0000000000
40
1.0000000000
40
1.0000000000
40
1.0000000000
10
12.7445063165
20
-2.3964950581
30
0.0000000000
10
12.7499241474
20
-2.3604917745
30
0.0000000000
10
12.7622328382
20
-2.3088695769
30
0.0000000000
10
12.7884270562
20
-2.2546264517
30
0.0000000000
10
12.8052742557
20
-2.2285754177
30
0.0000000000
10
12.8189253748
20
-2.2109949843
30
0.0000000000
10
12.8313753481
20
-2.1976608899
30
0.0000000000
10
12.8418925839
20
-2.1878644806
30
0.0000000000
10
12.8578603893
20
-2.1741538898
30
0.0000000000
10
12.8837852355
20
-2.1562787641
30
0.0000000000
10
12.9156780951
20
-2.1418672292
30
0.0000000000
10
12.9425642629
20
-2.1337185798
30
0.0000000000
10
12.9636973081
20
-2.1292033245
30
0.0000000000
10
12.9818773716
20
-2.1268209723
30
0.0000000000
10
12.9968086764
20
-2.1257132787
30
0.0000000000
10
13.0063483296
20
-2.1253552739
30
0.0000000000
10
13.0140844541
20
-2.1252697390
30
0.0000000000
10
13.0218596224
20
-2.1253166244
30
0.0000000000
10
13.0314888380
20
-2.1256173551
30
0.0000000000
10
13.0428674171
20
-2.1263764370
30
0.0000000000
10
13.0575990029
20
-2.1279030225
30
0.0000000000
10
13.0754699385
20
-2.1307829034
30
0.0000000000
10
13.0961460868
20
-2.1358596166
30
0.0000000000
10
13.1158740935
20
-2.1425307581
30
0.0000000000
10
13.1346495925
20
-2.1507974201
30
0.0000000000
10
13.1524690003
20
-2.1606595660
30
0.0000000000
10
13.1693274544
20
-2.1721152936
30
0.0000000000
10
13.1825245471
20
-2.1829460515
30
0.0000000000
10
13.1925339422
20
-2.1923305061
30
0.0000000000
10
13.2020848281
20
-2.2020679120
30
0.0000000000
10
13.2130782499
20
-2.2148145819
30
0.0000000000
10
13.2247043662
20
-2.2310419990
30
0.0000000000
10
13.2346841351
20
-2.2481086242
30
0.0000000000
10
13.2430137567
20
-2.2660096989
30
0.0000000000
10
13.2485599326
20
-2.2815674164
30
0.0000000000
10
13.2521695603
20
-2.2943804323
30
0.0000000000
10
13.2544773285
20
-2.3042331189
30
0.0000000000
10
13.2563751399
20
-2.3142921071
30
0.0000000000
10
13.2576107152
20
-2.3228157788
30
0.0000000000
10
13.2583961672
20
-2.3297327234
30
0.0000000000
10
13.2588851508
20
-2.3349912267
30
0.0000000000
10
13.2592718483
20
-2.3403013811
30
0.0000000000
10
13.2595083500
20
-2.3447598724
30
0.0000000000
10
13.2596467347
20
-2.3483519305
30
0.0000000000
10
13.2597251877
20
-2.3510647845
30
0.0000000000
10
13.2597692125
20
-2.3533336657
30
0.0000000000
10
13.2597916948
20
-2.3551551664
30
0.0000000000
10
13.2598004319
20
-2.3562969389
30
0.0000000000
10
13.2598037563
20
-2.3570973526
30
0.0000000000
10
13.2598048586
20
-2.3575554010
30
0.0000000000
10
13.2598052157
20
-2.3578418913
30
0.0000000000
10
13.2598053047
20
-2.3580840589
30
0.0000000000
10
13.2598052375
20
-2.3583562617
30
0.0000000000
10
13.2598046479
20
-2.3588600441
30
0.0000000000
10
13.2598015410
20
-2.3598698899
30
0.0000000000
10
13.2597916267
20
-2.3613093239
30
0.0000000000
10
13.2597640812
20
-2.3636021992
30
0.0000000000
10
13.2597077982
20
-2.3664529922
30
0.0000000000
10
13.2595711945
20
-2.3709737692
30
0.0000000000
10
13.2593134469
20
-2.3765641676
30
0.0000000000
10
13.2587160559
20
-2.3853502695
30
0.0000000000
10
13.2576947891
20
-2.3953996117
30
0.0000000000
10
13.2565585278
20
-2.4032013879
30
0.0000000000
10
13.2559764500
20
-2.4066906586
30
0.0000000000
11
12.7445063165
21
-2.3964950581
31
0.0000000000
11
12.7721260405
21
-2.2908188843
31
0.0000000000
11
12.7932593495
21
-2.2477139724
31
0.0000000000
11
12.8056568586
21
-2.2285948582
31
0.0000000000
11
12.8192749373
21
-2.2110979720
31
0.0000000000
11
12.8341135858
21
-2.1952233136
31
0.0000000000
11
12.8419672958
21
-2.1878943198
31
0.0000000000
11
12.8500384357
21
-2.1809708830
31
0.0000000000
11
12.8844599699
21
-2.1573327055
31
0.0000000000
11
12.9223006632
21
-2.1401834395
31
0.0000000000
11
12.9425031945
21
-2.1340421483
31
0.0000000000
11
12.9635605156
21
-2.1295230850
31
0.0000000000
11
12.9854726265
21
-2.1266262495
31
0.0000000000
11
12.9967492281
21
-2.1257861672
31
0.0000000000
11
13.0082395271
21
-2.1253516419
31
0.0000000000
11
13.0140648132
21
-2.1252864631
31
0.0000000000
11
13.0199494110
21
-2.1253217245
31
0.0000000000
11
13.0315582209
21
-2.1256887173
31
0.0000000000
11
13.0429290586
21
-2.1264509331
31
0.0000000000
11
13.0540619241
21
-2.1276083718
31
0.0000000000
11
13.0756137382
21
-2.1311089184
31
0.0000000000
11
13.0962136632
21
-2.1361903570
31
0.0000000000
11
13.1158616992
21
-2.1428526876
31
0.0000000000
11
13.1345578461
21
-2.1510959102
31
0.0000000000
11
13.1523021040
21
-2.1609200248
31
0.0000000000
11
13.1690944729
21
-2.1723250313
31
0.0000000000
11
13.1849349527
21
-2.1853109299
31
0.0000000000
11
13.1924964893
21
-2.1923947918
31
0.0000000000
11
13.1997118720
21
-2.1997547166
31
0.0000000000
11
13.2129157303
21
-2.2150951855
31
0.0000000000
11
13.2244837123
21
-2.2312631472
31
0.0000000000
11
13.2344158181
21
-2.2482586014
31
0.0000000000
11
13.2427120476
21
-2.2660815483
31
0.0000000000
11
13.2493724009
21
-2.2847319879
31
0.0000000000
11
13.2520891239
21
-2.2943675174
31
0.0000000000
11
13.2543968779
21
-2.3042099200
31
0.0000000000
11
13.2562956629
21
-2.3142591959
31
0.0000000000
11
13.2577854787
21
-2.3245153448
31
0.0000000000
11
13.2583770233
21
-2.3297209968
31
0.0000000000
11
13.2588663255
21
-2.3349783670
31
0.0000000000
11
13.2592533855
21
-2.3402874555
31
0.0000000000
11
13.2595382033
21
-2.3456482623
31
0.0000000000
11
13.2596422713
21
-2.3483480600
31
0.0000000000
11
13.2597207788
21
-2.3510607874
31
0.0000000000
11
13.2597737256
21
-2.3537864443
31
0.0000000000
11
13.2597906139
21
-2.3551541213
31
0.0000000000
11
13.2598011120
21
-2.3565250307
31
0.0000000000
11
13.2598039647
21
-2.3572116976
31
0.0000000000
11
13.2598047920
21
-2.3575553341
31
0.0000000000
11
13.2598052199
21
-2.3578991726
31
0.0000000000
11
13.2598052841
21
-2.3580711676
31
0.0000000000
11
13.2598052347
21
-2.3582818366
31
0.0000000000
11
13.2598047248
21
-2.3587157807
31
0.0000000000
11
13.2598020575
21
-2.3595825110
31
0.0000000000
11
13.2597901333
21
-2.3613113400
31
0.0000000000
11
13.2597694229
21
-2.3630339937
31
0.0000000000
11
13.2597016432
21
-2.3664607751
31
0.0000000000
11
13.2595987185
21
-2.3698628550
31
0.0000000000
11
13.2592874341
21
-2.3765929105
31
0.0000000000
11
13.2588355696
21
-2.3832241602
31
0.0000000000
11
13.2575101004
21
-2.3961902424
31
0.0000000000
11
13.2559764500
21
-2.4066906586
31
0.0000000000
0
SPLINE
5
2D8
100
AcDbEntity
8
0
100
AcDbSpline
62
7
6
CONTINUOUS
70
0
71
3
72
104
73
100
74
98
42
0.0000001000
43
0.0000001000
44
0.0000000001
12
0.5718098226
22
0.9130563712
32
0.0000000000
13
-0.5800976047
23
-0.9079087328
33
0.0000000000
40
0.0000000000
40
0.0000000000
40
0.0000000000
40
0.0000000000
40
0.0352876083
40
0.0705988753
40
0.0884471887
40
0.1065091101
40
0.1248500970
40
0.1341458449
40
0.1435345240
40
0.1529593533
40
0.1623664077
40
0.1811691367
40
0.2000350279
40
0.2190527170
40
0.2286469596
40
0.2383113511
40
0.2480562034
40
0.2578915755
40
0.2628464247
40
0.2678275479
40
0.2728361223
40
0.2778733055
40
0.2829402357
40
0.2854852234
40
0.2880380655
40
0.2905988985
40
0.2918823561
40
0.2931678621
40
0.2944554332
40
0.2957450860
40
0.2963906985
40
0.2970368377
40
0.2973601054
40
0.2976835056
40
0.2980070384
40
0.2981688547
40
0.2983307042
40
0.2984608524
40
0.2985909755
40
0.2988511466
40
0.2993711887
40
0.2998908312
40
0.3004100750
40
0.3014473695
40
0.3024830788
40
0.3045497658
40
0.3066101894
40
0.3086644022
40
0.3107124568
40
0.3147902918
40
0.3188441399
40
0.3228744412
40
0.3308660867
40
0.3387690142
40
0.3465870239
40
0.3543240410
40
0.3619841153
40
0.3770891599
40
0.3919380089
40
0.4065673149
40
0.4210154019
40
0.4495178601
40
0.4777860615
40
0.5061591072
40
0.5204953214
40
0.5349824319
40
0.5495203615
40
0.5640114925
40
0.5930157231
40
0.6223506388
40
0.6523495699
40
0.6833244174
40
0.7155587652
40
0.7322317764
40
0.7493113201
40
0.7580122775
40
0.7668246252
40
0.7712735612
40
0.7757514636
40
0.7802586908
40
0.7825234167
40
0.7836585761
40
0.7847956064
40
0.7859915124
40
0.7871855776
40
0.7895682066
40
0.7943116113
40
0.7990261972
40
0.8037123356
40
0.8130006907
40
0.8221798760
40
0.8402228753
40
0.8578692426
40
0.8751479645
40
0.8920899147
40
0.9250874541
40
0.9571532155
40
0.9885958048
40
1.0000000000
40
1.0000000000
40
1.0000000000
40
1.0000000000
10
11.5887345052
20
-2.7928790663
30
0.0000000000
10
11.5954604389
20
-2.7821392077
30
0.0000000000
10
11.6102736280
20
-2.7614678145
30
0.0000000000
10
11.6319698596
20
-2.7381504195
30
0.0000000000
10
11.6510725968
20
-2.7211230032
30
0.0000000000
10
11.6663891276
20
-2.7090636513
30
0.0000000000
10
11.6798709009
20
-2.6996888108
30
0.0000000000
10
11.6911053289
20
-2.6925745531
30
0.0000000000
10
11.6997787623
20
-2.6874078863
30
0.0000000000
10
11.7086428412
20
-2.6824913402
30
0.0000000000
10
11.7206875947
20
-2.6763562052
30
0.0000000000
10
11.7361403872
20
-2.6694643674
30
0.0000000000
10
11.7552745003
20
-2.6624713604
30
0.0000000000
10
11.7716635871
20
-2.6577200632
30
0.0000000000
10
11.7850420140
20
-2.6545563819
30
0.0000000000
10
11.7952532243
20
-2.6524939895
30
0.0000000000
10
11.8056110862
20
-2.6507493347
30
0.0000000000
10
11.8143432626
20
-2.6495631124
30
0.0000000000
10
11.8213993648
20
-2.6487720113
30
0.0000000000
10
11.8267415078
20
-2.6482565331
30
0.0000000000
10
11.8321203612
20
-2.6478204041
30
0.0000000000
10
11.8375359355
20
-2.6474636204
30
0.0000000000
10
11.8420726632
20
-2.6472327705
30
0.0000000000
10
11.8457200664
20
-2.6470875917
30
0.0000000000
10
11.8484689448
20
-2.6469983756
30
0.0000000000
10
11.8507655127
20
-2.6469406022
30
0.0000000000
10
11.8526073179
20
-2.6469042770
30
0.0000000000
10
11.8539920606
20
-2.6468819697
30
0.0000000000
10
11.8553790990
20
-2.6468646204
30
0.0000000000
10
11.8565364077
20
-2.6468542986
30
0.0000000000
10
11.8574633976
20
-2.6468485173
30
0.0000000000
10
11.8580433614
20
-2.6468459359
30
0.0000000000
10
11.8585076188
20
-2.6468444902
30
0.0000000000
10
11.8588560266
20
-2.6468437155
30
0.0000000000
10
11.8591464561
20
-2.6468433284
30
0.0000000000
10
11.8593788715
20
-2.6468431732
30
0.0000000000
10
11.8595418405
20
-2.6468431379
30
0.0000000000
10
11.8596934282
20
-2.6468431621
30
0.0000000000
10
11.8598803241
20
-2.6468432483
30
0.0000000000
10
11.8602072346
20
-2.6468435511
30
0.0000000000
10
11.8606740248
20
-2.6468444154
30
0.0000000000
10
11.8612338487
20
-2.6468461449
30
0.0000000000
10
11.8619794187
20
-2.6468493721
30
0.0000000000
10
11.8629103033
20
-2.6468551338
30
0.0000000000
10
11.8643968519
20
-2.6468680362
30
0.0000000000
10
11.8662507364
20
-2.6468910674
30
0.0000000000
10
11.8684701811
20
-2.6469297961
30
0.0000000000
10
11.8706827132
20
-2.6469795951
30
0.0000000000
10
11.8736191602
20
-2.6470606332
30
0.0000000000
10
11.8772726011
20
-2.6471894864
30
0.0000000000
10
11.8816356277
20
-2.6473886251
30
0.0000000000
10
11.8873996101
20
-2.6477122607
30
0.0000000000
10
11.8945369104
20
-2.6482266350
30
0.0000000000
10
11.9030156983
20
-2.6490228482
30
0.0000000000
10
11.9113839514
20
-2.6499962590
30
0.0000000000
10
11.9196417117
20
-2.6511468914
30
0.0000000000
10
11.9304534567
20
-2.6529089863
30
0.0000000000
10
11.9437059266
20
-2.6555506554
30
0.0000000000
10
11.9592416779
20
-2.6594458297
30
0.0000000000
10
11.9743362178
20
-2.6640519569
30
0.0000000000
10
11.9937808716
20
-2.6711070132
30
0.0000000000
10
12.0171041830
20
-2.6817327149
30
0.0000000000
10
12.0434249065
20
-2.6974088236
30
0.0000000000
10
12.0638013947
20
-2.7128132276
30
0.0000000000
10
12.0791399228
20
-2.7264854529
30
0.0000000000
10
12.0902096485
20
-2.7374472193
30
0.0000000000
10
12.1007252052
20
-2.7490175989
30
0.0000000000
10
12.1138801487
20
-2.7651925699
30
0.0000000000
10
12.1286907055
20
-2.7868181301
30
0.0000000000
10
12.1436940801
20
-2.8148362944
30
0.0000000000
10
12.1559434780
20
-2.8449264744
30
0.0000000000
10
12.1654411621
20
-2.8770751698
30
0.0000000000
10
12.1710064906
20
-2.9052575092
30
0.0000000000
10
12.1741322521
20
-2.9287519247
30
0.0000000000
10
12.1755324785
20
-2.9439375540
30
0.0000000000
10
12.1763187639
20
-2.9563357964
30
0.0000000000
10
12.1766705682
20
-2.9642153271
30
0.0000000000
10
12.1768678901
20
-2.9705826501
30
0.0000000000
10
12.1769738978
20
-2.9754058570
30
0.0000000000
10
12.1770267700
20
-2.9794454996
30
0.0000000000
10
12.1770452762
20
-2.9822849685
30
0.0000000000
10
12.1770505813
20
-2.9839142118
30
0.0000000000
10
12.1770519120
20
-2.9851596390
30
0.0000000000
10
12.1770505346
20
-2.9864262200
30
0.0000000000
10
12.1770450001
20
-2.9881400996
30
0.0000000000
10
12.1770256467
20
-2.9911278740
30
0.0000000000
10
12.1769703758
20
-2.9953796546
30
0.0000000000
10
12.1768595683
20
-3.0004578103
30
0.0000000000
10
12.1766532744
20
-3.0071661383
30
0.0000000000
10
12.1762854282
20
-3.0154732442
30
0.0000000000
10
12.1754631349
20
-3.0285593049
30
0.0000000000
10
12.1739984588
20
-3.0446097434
30
0.0000000000
10
12.1715197234
20
-3.0634739400
30
0.0000000000
10
12.1683295971
20
-3.0818307290
30
0.0000000000
10
12.1631739426
20
-3.1054184616
30
0.0000000000
10
12.1549700891
20
-3.1337493045
30
0.0000000000
10
12.1421683082
20
-3.1660120154
30
0.0000000000
10
12.1297567045
20
-3.1899378366
30
0.0000000000
10
12.1217180759
20
-3.2030625386
30
0.0000000000
10
12.1195128938
20
-3.2065138614
30
0.0000000000
11
11.5887345052
21
-2.7928790663
31
0.0000000000
11
11.6108944502
21
-2.7619892372
31
0.0000000000
11
11.6367910166
21
-2.7341225709
31
0.0000000000
11
11.6511404758
21
-2.7213230146
31
0.0000000000
11
11.6664240523
21
-2.7092793098
31
0.0000000000
11
11.6826417463
21
-2.6979914562
31
0.0000000000
11
11.6911008872
21
-2.6926309736
31
0.0000000000
11
11.6997935575
21
-2.6874594539
31
0.0000000000
11
11.7086764640
21
-2.6825410731
31
0.0000000000
11
11.7177063135
21
-2.6779400071
31
0.0000000000
11
11.7362068417
21
-2.6696898199
31
0.0000000000
11
11.7552951419
21
-2.6627088922
31
0.0000000000
11
11.7749712142
21
-2.6569972241
31
0.0000000000
11
11.7850296650
21
-2.6546173624
31
0.0000000000
11
11.7952350587
21
-2.6525548156
31
0.0000000000
11
11.8055873955
21
-2.6508095837
31
0.0000000000
11
11.8160866753
21
-2.6493816667
31
0.0000000000
11
11.8213914188
21
-2.6487867013
31
0.0000000000
11
11.8267328981
21
-2.6482710646
31
0.0000000000
11
11.8321111132
21
-2.6478347566
31
0.0000000000
11
11.8375260640
21
-2.6474777773
31
0.0000000000
11
11.8429777505
21
-2.6472001268
31
0.0000000000
11
11.8457173697
21
-2.6470910498
31
0.0000000000
11
11.8484661728
21
-2.6470018050
31
0.0000000000
11
11.8512241599
21
-2.6469323924
31
0.0000000000
11
11.8526065974
21
-2.6469051231
31
0.0000000000
11
11.8539913309
21
-2.6468828119
31
0.0000000000
11
11.8553783604
21
-2.6468654588
31
0.0000000000
11
11.8567676859
21
-2.6468530636
31
0.0000000000
11
11.8574632096
21
-2.6468487254
31
0.0000000000
11
11.8581593073
21
-2.6468456266
31
0.0000000000
11
11.8585075714
21
-2.6468445420
31
0.0000000000
11
11.8588559790
21
-2.6468437673
31
0.0000000000
11
11.8592045301
21
-2.6468433025
31
0.0000000000
11
11.8593788595
21
-2.6468431863
31
0.0000000000
11
11.8595532248
21
-2.6468431476
31
0.0000000000
11
11.8596934372
21
-2.6468431692
31
0.0000000000
11
11.8598336226
21
-2.6468432340
31
0.0000000000
11
11.8601139124
21
-2.6468434935
31
0.0000000000
11
11.8606741680
21
-2.6468445313
31
0.0000000000
11
11.8612339914
21
-2.6468462610
31
0.0000000000
11
11.8617933828
21
-2.6468486826
31
0.0000000000
11
11.8629108691
21
-2.6468556014
31
0.0000000000
11
11.8640266270
21
-2.6468652877
31
0.0000000000
11
11.8662529573
21
-2.6468929628
31
0.0000000000
11
11.8684723739
21
-2.6469317079
31
0.0000000000
11
11.8706848767
21
-2.6469815232
31
0.0000000000
11
11.8728904657
21
-2.6470424084
31
0.0000000000
11
11.8772809022
21
-2.6471973891
31
0.0000000000
11
11.8816436834
21
-2.6473966500
31
0.0000000000
11
11.8859788095
21
-2.6476401911
31
0.0000000000
11
11.8945660959
21
-2.6482601139
31
0.0000000000
11
11.9030427613
21
-2.6490571575
31
0.0000000000
11
11.9114088059
21
-2.6500313219
31
0.0000000000
11
11.9196642295
21
-2.6511826070
31
0.0000000000
11
11.9278090322
21
-2.6525110130
31
0.0000000000
11
11.9437667748
21
-2.6556991873
31
0.0000000000
11
11.9592820337
21
-2.6595958448
31
0.0000000000
11
11.9743548090
21
-2.6642009855
31
0.0000000000
11
11.9889851005
21
-2.6695146094
31
0.0000000000
11
12.0169182324
21
-2.6822673067
31
0.0000000000
11
12.0430814296
21
-2.6978539367
31
0.0000000000
11
12.0674746920
21
-2.7162744995
31
0.0000000000
11
12.0790075976
21
-2.7265475056
31
0.0000000000
11
12.0900980196
21
-2.7375289950
31
0.0000000000
11
12.1006275378
21
-2.7491234673
31
0.0000000000
11
12.1104777323
21
-2.7612354225
31
0.0000000000
11
12.1281401499
21
-2.7870117816
31
0.0000000000
11
12.1430852726
21
-2.8148580720
31
0.0000000000
11
12.1553131002
21
-2.8447742940
31
0.0000000000
11
12.1648236328
21
-2.8767604474
31
0.0000000000
11
12.1716168703
21
-2.9108165322
31
0.0000000000
11
12.1739945035
21
-2.9286207989
31
0.0000000000
11
12.1756928128
21
-2.9469425485
31
0.0000000000
11
12.1762872211
21
-2.9562974793
31
0.0000000000
11
12.1767117985
21
-2.9657817809
31
0.0000000000
11
12.1768604006
21
-2.9705724457
31
0.0000000000
11
12.1769665449
21
-2.9753954532
31
0.0000000000
11
12.1770302315
21
-2.9802508034
31
0.0000000000
11
12.1770461531
21
-2.9826906070
31
0.0000000000
11
12.1770501336
21
-2.9839135409
31
0.0000000000
11
12.1770514604
21
-2.9851384962
31
0.0000000000
11
12.1770500736
21
-2.9864268800
31
0.0000000000
11
12.1770459134
21
-2.9877132747
31
0.0000000000
11
12.1770292725
21
-2.9902800968
31
0.0000000000
11
12.1769627090
21
-2.9953898719
31
0.0000000000
11
12.1768517697
21
-3.0004678217
31
0.0000000000
11
12.1766964548
21
-3.0055139461
31
0.0000000000
11
12.1762526979
21
-3.0155107187
31
0.0000000000
11
12.1756314382
21
-3.0253801896
31
0.0000000000
11
12.1738564105
21
-3.0447372269
31
0.0000000000
11
12.1713713717
21
-3.0635850578
31
0.0000000000
11
12.1681763218
21
-3.0819236824
31
0.0000000000
11
12.1642712609
21
-3.0997531007
31
0.0000000000
11
12.1543311057
21
-3.1338843184
31
0.0000000000
11
12.1415509062
21
-3.1659787108
31
0.0000000000
11
12.1259306624
21
-3.1960362780
31
0.0000000000
11
12.1195128938
21
-3.2065138614
31
0.0000000000
0
SPLINE
5
2D9
100
AcDbEntity
8
0
100
AcDbSpline
62
7
6
CONTINUOUS
70
0
71
3
72
115
73
111
74
109
42
0.0000001000
43
0.0000001000
44
0.0000000001
12
0.1545784826
22
-1.5925509132
32
0.0000000000
13
-0.1822303566
23
1.5897426970
33
0.0000000000
40
0.0000000000
40
0.0000000000
40
0.0000000000
40
0.0000000000
40
0.0500741082
40
0.0974086849
40
0.1432409523
40
0.1660383127
40
0.1889732501
40
0.2005483704
40
0.2122212700
40
0.2239616603
40
0.2356512121
40
0.2473039287
40
0.2589421046
40
0.2822587332
40
0.3057845364
40
0.3296926954
40
0.3418445946
40
0.3541530950
40
0.3666371193
40
0.3793148040
40
0.3922034683
40
0.4053195956
40
0.4119681132
40
0.4186792898
40
0.4220589754
40
0.4254550054
40
0.4288675999
40
0.4322969757
40
0.4340180267
40
0.4357433530
40
0.4374729805
40
0.4383394159
40
0.4392069363
40
0.4396411045
40
0.4400755452
40
0.4401841980
40
0.4403133401
40
0.4405783825
40
0.4411081811
40
0.4421666357
40
0.4432235727
40
0.4453329191
40
0.4474362758
40
0.4516252239
40
0.4557908704
40
0.4640539403
40
0.4722292634
40
0.4803206262
40
0.4883319342
40
0.4962672110
40
0.5119252699
40
0.5273303066
40
0.5575180833
40
0.5871468193
40
0.6165414965
40
0.6312602319
40
0.6460451557
40
0.6609372118
40
0.6759764688
40
0.6835641004
40
0.6912030057
40
0.6988978255
40
0.7066531005
40
0.7105548671
40
0.7125120129
40
0.7144734181
40
0.7164391496
40
0.7184092739
40
0.7193960050
40
0.7198897913
40
0.7201303533
40
0.7203323113
40
0.7207361434
40
0.7211398646
40
0.7219469759
40
0.7227536494
40
0.7235598894
40
0.7251710848
40
0.7283884527
40
0.7315993632
40
0.7348040921
40
0.7411960463
40
0.7475666213
40
0.7539180770
40
0.7602526935
40
0.7728800377
40
0.7854677919
40
0.7980346971
40
0.8105995877
40
0.8357939470
40
0.8612050134
40
0.8869784476
40
0.9000470713
40
0.9132580073
40
0.9266274706
40
0.9333767999
40
0.9401715774
40
0.9470136655
40
0.9504530507
40
0.9539049442
40
0.9547699002
40
0.9556356554
40
0.9574412225
40
0.9592547902
40
0.9610638988
40
0.9682563460
40
0.9753802385
40
0.9824378793
40
0.9963633282
40
1.0000000000
40
1.0000000000
40
1.0000000000
40
1.0000000000
10
11.3821974616
20
-3.0828650406
30
0.0000000000
10
11.3847775881
20
-3.1094468962
30
0.0000000000
10
11.3931864056
20
-3.1609306725
30
0.0000000000
10
11.4170765757
20
-3.2338323501
30
0.0000000000
10
11.4461893739
20
-3.2887911777
30
0.0000000000
10
11.4745741570
20
-3.3285929794
30
0.0000000000
10
11.4944454729
20
-3.3518730257
30
0.0000000000
10
11.5116050774
20
-3.3695517755
30
0.0000000000
10
11.5251569878
20
-3.3823886167
30
0.0000000000
10
11.5392719246
20
-3.3946965923
30
0.0000000000
10
11.5539010021
20
-3.4063722135
30
0.0000000000
10
11.5689813619
20
-3.4173669801
30
0.0000000000
10
11.5896957677
20
-3.4311203245
30
0.0000000000
10
11.6167987350
20
-3.4466444704
30
0.0000000000
10
11.6510899723
20
-3.4624990496
30
0.0000000000
10
11.6810001819
20
-3.4733562977
30
0.0000000000
10
11.7057445043
20
-3.4806700649
30
0.0000000000
10
11.7248526546
20
-3.4855014976
30
0.0000000000
10
11.7444071247
20
-3.4896481789
30
0.0000000000
10
11.7644083162
20
-3.4931104772
30
0.0000000000
10
11.7848558834
20
-3.4958884413
30
0.0000000000
10
11.8021883147
20
-3.4976253121
30
0.0000000000
10
11.8162703433
20
-3.4986771927
30
0.0000000000
10
11.8251837057
20
-3.4991939859
30
0.0000000000
10
11.8323694251
20
-3.4995225695
30
0.0000000000
10
11.8377995309
20
-3.4997268811
30
0.0000000000
10
11.8432575820
20
-3.4998884777
30
0.0000000000
10
11.8478236074
20
-3.4999874240
30
0.0000000000
10
11.8514903075
20
-3.5000453024
30
0.0000000000
10
11.8542507169
20
-3.5000780865
30
0.0000000000
10
11.8565554413
20
-3.5000964965
30
0.0000000000
10
11.8584027036
20
-3.5001058954
30
0.0000000000
10
11.8595590570
20
-3.5001095475
30
0.0000000000
10
11.8604850118
20
-3.5001111359
30
0.0000000000
10
11.8610062294
20
-3.5001115286
30
0.0000000000
10
11.8613647630
20
-3.5001115843
30
0.0000000000
10
11.8616329488
20
-3.5001115539
30
0.0000000000
10
11.8621257506
20
-3.5001112677
30
0.0000000000
10
11.8631141958
20
-3.5001097681
30
0.0000000000
10
11.8645249886
20
-3.5001049787
30
0.0000000000
10
11.8667781944
20
-3.5000916712
30
0.0000000000
10
11.8695886133
20
-3.5000644629
30
0.0000000000
10
11.8740691200
20
-3.4999983861
30
0.0000000000
10
11.8796455329
20
-3.4998735791
30
0.0000000000
10
11.8885038737
20
-3.4995839722
30
0.0000000000
10
11.8994810214
20
-3.4990537265
30
0.0000000000
10
11.9125331961
20
-3.4981443153
30
0.0000000000
10
11.9254288260
20
-3.4969635316
30
0.0000000000
10
11.9381679921
20
-3.4955113326
30
0.0000000000
10
11.9548693059
20
-3.4932236031
30
0.0000000000
10
11.9753757122
20
-3.4896913556
30
0.0000000000
10
12.0072776192
20
-3.4826140869
30
0.0000000000
10
12.0457724062
20
-3.4710522215
30
0.0000000000
10
12.0897595413
20
-3.4526934916
30
0.0000000000
10
12.1243106782
20
-3.4337323307
30
0.0000000000
10
12.1505623381
20
-3.4164582793
30
0.0000000000
10
12.1696353484
20
-3.4024074093
30
0.0000000000
10
12.1880779828
20
-3.3872698246
30
0.0000000000
10
12.2028789041
20
-3.3737890345
30
0.0000000000
10
12.2143965659
20
-3.3624773386
30
0.0000000000
10
12.2229042067
20
-3.3536965275
30
0.0000000000
10
12.2312548975
20
-3.3446444951
30
0.0000000000
10
12.2380690804
20
-3.3368910078
30
0.0000000000
10
12.2427649241
20
-3.3313525809
30
0.0000000000
10
12.2454341535
20
-3.3281475776
30
0.0000000000
10
12.2474284311
20
-3.3257243085
30
0.0000000000
10
12.2494128841
20
-3.3232840606
30
0.0000000000
10
12.2510576068
20
-3.3212376257
30
0.0000000000
10
12.2522041023
20
-3.3197979849
30
0.0000000000
10
12.2527746540
20
-3.3190789130
30
0.0000000000
10
12.2530842232
20
-3.3186870670
30
0.0000000000
10
12.2533662026
20
-3.3183345778
30
0.0000000000
10
12.2537014730
20
-3.3179132850
30
0.0000000000
10
12.2542373458
20
-3.3172391484
30
0.0000000000
10
12.2549053301
20
-3.3163955647
30
0.0000000000
10
12.2557043216
20
-3.3153818866
30
0.0000000000
10
12.2567656652
20
-3.3140289451
30
0.0000000000
10
12.2586124390
20
-3.3116580212
30
0.0000000000
10
12.2612239358
20
-3.3082571402
30
0.0000000000
10
12.2643152429
20
-3.3041533935
30
0.0000000000
10
12.2683744464
20
-3.2986593319
30
0.0000000000
10
12.2733391501
20
-3.2917394887
30
0.0000000000
10
12.2791256597
20
-3.2833458652
30
0.0000000000
10
12.2847356982
20
-3.2748698543
30
0.0000000000
10
12.2919722847
20
-3.2634715712
30
0.0000000000
10
12.3005833452
20
-3.2490097035
30
0.0000000000
10
12.3102207313
20
-3.2313073883
30
0.0000000000
10
12.3191514477
20
-3.2132748886
30
0.0000000000
10
12.3301253027
20
-3.1887734501
30
0.0000000000
10
12.3420985785
20
-3.1572418596
30
0.0000000000
10
12.3536088542
20
-3.1181265899
30
0.0000000000
10
12.3608009565
20
-3.0845860966
30
0.0000000000
10
12.3651472962
20
-3.0571614711
30
0.0000000000
10
12.3677159835
20
-3.0361669167
30
0.0000000000
10
12.3692626287
20
-3.0184543674
30
0.0000000000
10
12.3701497847
20
-3.0041270369
30
0.0000000000
10
12.3706407974
20
-2.9932647405
30
0.0000000000
10
12.3709024242
20
-2.9841605288
30
0.0000000000
10
12.3710239421
20
-2.9768368506
30
0.0000000000
10
12.3710592849
20
-2.9727001989
30
0.0000000000
10
12.3710691129
20
-2.9699360988
30
0.0000000000
10
12.3710720692
20
-2.9680500432
30
0.0000000000
10
12.3710683991
20
-2.9656580445
30
0.0000000000
10
12.3710514285
20
-2.9627629568
30
0.0000000000
10
12.3709925786
20
-2.9569950558
30
0.0000000000
10
12.3708112743
20
-2.9483960408
30
0.0000000000
10
12.3703680183
20
-2.9370043260
30
0.0000000000
10
12.3695133609
20
-2.9220373055
30
0.0000000000
10
12.3684029117
20
-2.9089502086
30
0.0000000000
10
12.3673837111
20
-2.8996383113
30
0.0000000000
10
12.3671628071
20
-2.8977111871
30
0.0000000000
11
11.3821974616
21
-3.0828650406
31
0.0000000000
11
11.3954939806
21
-3.1618743538
31
0.0000000000
11
11.4193536604
21
-3.2337548657
31
0.0000000000
11
11.4537765361
21
-3.2985069364
31
0.0000000000
11
11.4749491724
21
-3.3282098063
31
0.0000000000
11
11.4987626076
21
-3.3561305659
31
0.0000000000
11
11.5116596248
21
-3.3694226544
31
0.0000000000
11
11.5252168418
21
-3.3822692153
31
0.0000000000
11
11.5393799429
21
-3.3946095662
31
0.0000000000
11
11.5539990172
21
-3.4062762237
31
0.0000000000
11
11.5690653742
21
-3.4172594788
31
0.0000000000
11
11.5845790139
21
-3.4275593313
31
0.0000000000
11
11.6169481415
21
-3.4461088287
31
0.0000000000
11
11.6511063998
21
-3.4619247159
31
0.0000000000
11
11.6870537889
21
-3.4750069930
31
0.0000000000
11
11.7056984075
21
-3.4805230277
31
0.0000000000
11
11.7247903088
21
-3.4853556600
31
0.0000000000
11
11.7443294929
21
-3.4895048896
31
0.0000000000
11
11.7643159596
21
-3.4929707168
31
0.0000000000
11
11.7847497090
21
-3.4957531414
31
0.0000000000
11
11.8056307411
21
-3.4978521635
31
0.0000000000
11
11.8162389882
21
-3.4986453985
31
0.0000000000
11
11.8269590559
21
-3.4992677830
31
0.0000000000
11
11.8323610225
21
-3.4995149062
31
0.0000000000
11
11.8377909443
21
-3.4997193168
31
0.0000000000
11
11.8432488213
21
-3.4998810147
31
0.0000000000
11
11.8487346534
21
-3.5000000000
31
0.0000000000
11
11.8514880527
21
-3.5000434754
31
0.0000000000
11
11.8542484407
21
-3.5000762726
31
0.0000000000
11
11.8570158175
21
-3.5000983917
31
0.0000000000
11
11.8584021268
21
-3.5001054469
31
0.0000000000
11
11.8597901832
21
-3.5001098326
31
0.0000000000
11
11.8604848666
21
-3.5001110243
31
0.0000000000
11
11.8611799868
21
-3.5001115487
31
0.0000000000
11
11.8613538351
21
-3.5001115755
31
0.0000000000
11
11.8615604670
21
-3.5001115516
31
0.0000000000
11
11.8619845442
21
-3.5001113056
31
0.0000000000
11
11.8628322396
21
-3.5001100189
31
0.0000000000
11
11.8645257946
21
-3.5001042666
31
0.0000000000
11
11.8662169016
21
-3.5000942759
31
0.0000000000
11
11.8695917719
21
-3.5000615787
31
0.0000000000
11
11.8729568506
21
-3.5000119276
31
0.0000000000
11
11.8796576332
21
-3.4998617630
31
0.0000000000
11
11.8863192493
21
-3.4996437822
31
0.0000000000
11
11.8995249821
21
-3.4990043718
31
0.0000000000
11
11.9125740490
21
-3.4980936964
31
0.0000000000
11
11.9254664501
21
-3.4969117560
31
0.0000000000
11
11.9382021852
21
-3.4954585506
31
0.0000000000
11
11.9507812545
21
-3.4937340801
31
0.0000000000
11
11.9754693953
21
-3.4894713442
31
0.0000000000
11
11.9995308726
21
-3.4841235483
31
0.0000000000
11
12.0457738366
21
-3.4701727763
31
0.0000000000
11
12.0895101464
21
-3.4518817641
31
0.0000000000
11
12.1307398020
21
-3.4292505117
31
0.0000000000
11
12.1504146345
21
-3.4163072954
31
0.0000000000
11
12.1694628034
21
-3.4022790191
31
0.0000000000
11
12.1878843088
21
-3.3871656827
31
0.0000000000
11
12.2056791506
21
-3.3709672863
31
0.0000000000
11
12.2143415727
21
-3.3624611906
31
0.0000000000
11
12.2228473289
21
-3.3536838299
31
0.0000000000
11
12.2311964192
21
-3.3446352041
31
0.0000000000
11
12.2393888437
21
-3.3353153134
31
0.0000000000
11
12.2434263062
21
-3.3305536436
31
0.0000000000
11
12.2454303500
21
-3.3281473776
31
0.0000000000
11
12.2474246022
21
-3.3257241576
31
0.0000000000
11
12.2494090628
21
-3.3232839835
31
0.0000000000
11
12.2513837318
21
-3.3208268553
31
0.0000000000
11
12.2523673944
21
-3.3195919335
31
0.0000000000
11
12.2528583077
21
-3.3189728831
31
0.0000000000
11
12.2530973193
21
-3.3186711755
31
0.0000000000
11
12.2532988728
21
-3.3184185977
31
0.0000000000
11
12.2537014628
21
-3.3179132013
31
0.0000000000
11
12.2541033636
21
-3.3174074834
31
0.0000000000
11
12.2549050974
21
-3.3163950834
31
0.0000000000
11
12.2557040740
21
-3.3153813977
31
0.0000000000
11
12.2565002934
21
-3.3143664264
31
0.0000000000
11
12.2580844610
21
-3.3123326269
31
0.0000000000
11
12.2612197105
21
-3.3082496001
31
0.0000000000
11
12.2643108460
21
-3.3041460030
31
0.0000000000
11
12.2673578674
21
-3.3000218356
31
0.0000000000
11
12.2733195680
21
-3.2917117897
31
0.0000000000
11
12.2791048124
21
-3.2833194626
31
0.0000000000
11
12.2847136005
21
-3.2748448542
31
0.0000000000
11
12.2901459324
21
-3.2662879645
31
0.0000000000
11
12.3004812274
21
-3.2489273413
31
0.0000000000
11
12.3101106973
21
-3.2312375929
31
0.0000000000
11
12.3190343422
21
-3.2132187193
31
0.0000000000
11
12.3272521621
21
-3.1948707206
31
0.0000000000
11
12.3415703268
21
-3.1571873478
31
0.0000000000
11
12.3530651915
21
-3.1181874744
31
0.0000000000
11
12.3617367560
21
-3.0778711003
31
0.0000000000
11
12.3650138008
21
-3.0572192256
31
0.0000000000
11
12.3675850205
21
-3.0362382257
31
0.0000000000
11
12.3694504152
21
-3.0149281007
31
0.0000000000
11
12.3701184282
21
-3.0041496163
31
0.0000000000
11
12.3706099849
21
-2.9932888505
31
0.0000000000
11
12.3709250854
21
-2.9823458035
31
0.0000000000
11
12.3710164645
21
-2.9768434245
31
0.0000000000
11
12.3710637296
21
-2.9713204752
31
0.0000000000
11
12.3710686530
21
-2.9699365238
31
0.0000000000
11
12.3710708193
21
-2.9685512867
31
0.0000000000
11
12.3710663266
21
-2.9656623190
31
0.0000000000
11
12.3710493127
21
-2.9627605966
31
0.0000000000
11
12.3710197622
21
-2.9598661097
31
0.0000000000
11
12.3707761948
21
-2.9483605179
31
0.0000000000
11
12.3703320424
21
-2.9369706951
31
0.0000000000
11
12.3696873050
21
-2.9256966411
31
0.0000000000
11
12.3677960754
21
-2.9034958400
31
0.0000000000
11
12.3671628071
21
-2.8977111871
31
0.0000000000
0
SPLINE
5
2DA
100
AcDbEntity
8
0
100
AcDbSpline
62
7
6
CONTINUOUS
70
0
71
3
72
21
73
17
74
15
42
0.0000001000
43
0.0000001000
44
0.0000000001
12
-0.2581997771
22
-0.5213134852
32
0.0000000000
13
-0.5265109458
23
-0.2474289706
33
0.0000000000
40
0.0000000000
40
0.0000000000
40
0.0000000000
40
0.0000000000
40
0.0718610422
40
0.1486219788
40
0.2308036103
40
0.3188308899
40
0.3651520061
40
0.4130584920
40
0.4376173100
40
0.4625080421
40
0.5125365139
40
0.5628804960
40
0.6135818696
40
0.7162099619
40
0.8560570472
40
1.0000000000
40
1.0000000000
40
1.0000000000
40
1.0000000000
10
9.6324364538
20
-1.9750770052
30
0.0000000000
10
9.6262516188
20
-1.9875643820
30
0.0000000000
10
9.6121240576
20
-2.0127428693
30
0.0000000000
10
9.5868585376
20
-2.0497425607
30
0.0000000000
10
9.5568781847
20
-2.0871422789
30
0.0000000000
10
9.5284698712
20
-2.1181009049
30
0.0000000000
10
9.5034766958
20
-2.1430939676
30
0.0000000000
10
9.4867477748
20
-2.1589333592
30
0.0000000000
10
9.4727950971
20
-2.1716515600
30
0.0000000000
10
9.4583775853
20
-2.1844687231
30
0.0000000000
10
9.4398628063
20
-2.2001985070
30
0.0000000000
10
9.4169945458
20
-2.2185158401
30
0.0000000000
10
9.3854691678
20
-2.2423157588
30
0.0000000000
10
9.3386550894
20
-2.2746283774
30
0.0000000000
10
9.2743393074
20
-2.3132007279
30
0.0000000000
10
9.2252625134
20
-2.3382049119
30
0.0000000000
10
9.2000000000
20
-2.3500767975
30
0.0000000000
11
9.6324364538
21
-1.9750770052
31
0.0000000000
11
9.6120891172
21
-2.0115964078
31
0.0000000000
11
9.5870098446
21
-2.0485446155
31
0.0000000000
11
9.5571987351
21
-2.0859214284
31
0.0000000000
11
9.5226557887
21
-2.1237268465
31
0.0000000000
11
9.5036098766
21
-2.1427902826
31
0.0000000000
11
9.4833810052
21
-2.1619608700
31
0.0000000000
11
9.4728229599
21
-2.1715863454
31
0.0000000000
11
9.4619970606
21
-2.1812028280
31
0.0000000000
11
9.4398205605
21
-2.2000510078
31
0.0000000000
11
9.4169630488
21
-2.2183622867
31
0.0000000000
11
9.3934245255
21
-2.2361366647
31
0.0000000000
11
9.3443044441
21
-2.2700747179
31
0.0000000000
11
9.2745735966
21
-2.3119847387
31
0.0000000000
11
9.2000000000
21
-2.3500767975
31
0.0000000000
0
SPLINE
5
2DB
100
AcDbEntity
8
0
100
AcDbSpline
62
7
6
CONTINUOUS
70
0
71
3
72
23
73
19
74
17
42
0.0000001000
43
0.0000001000
44
0.0000000001
12
0.4043100911
22
0.1490778252
32
0.0000000000
13
0.3119786391
23
0.2972543943
33
0.0000000000
40
0.0000000000
40
0.0000000000
40
0.0000000000
40
0.0000000000
40
0.0820461119
40
0.1693809725
40
0.2621276467
40
0.3603888679
40
0.4116161596
40
0.4377580691
40
0.4642535597
40
0.4911037042
40
0.5181497154
40
0.5712367048
40
0.6228897412
40
0.6731243975
40
0.7219576033
40
0.7694077886
40
0.8893228344
40
1.0000000000
40
1.0000000000
40
1.0000000000
40
1.0000000000
10
9.2000000000
20
-2.5273738241
30
0.0000000000
10
9.2110573570
20
-2.5232967388
30
0.0000000000
10
9.2336909481
20
-2.5143476340
30
0.0000000000
10
9.2681355625
20
-2.4991212955
30
0.0000000000
10
9.3041194504
20
-2.4816790642
30
0.0000000000
10
9.3349452721
20
-2.4655297885
30
0.0000000000
10
9.3570459378
20
-2.4533635762
30
0.0000000000
10
9.3700440175
20
-2.4460401963
30
0.0000000000
10
9.3799550769
20
-2.4403715804
30
0.0000000000
10
9.3899427681
20
-2.4345758420
30
0.0000000000
10
9.4031864434
20
-2.4267814095
30
0.0000000000
10
9.4193831792
20
-2.4169816950
30
0.0000000000
10
9.4382338164
20
-2.4051397555
30
0.0000000000
10
9.4563585595
20
-2.3932972618
30
0.0000000000
10
9.4737580827
20
-2.3814547999
30
0.0000000000
10
9.4990772209
20
-2.3634710988
30
0.0000000000
10
9.5307623369
20
-2.3391191894
30
0.0000000000
10
9.5556673479
20
-2.3172320393
30
0.0000000000
10
9.5671769851
20
-2.3062656147
30
0.0000000000
11
9.2000000000
21
-2.5273738241
31
0.0000000000
11
9.2328959551
21
-2.5144182827
31
0.0000000000
11
9.2673344274
21
-2.4992417913
31
0.0000000000
11
9.3033154168
21
-2.4818443500
31
0.0000000000
11
9.3408389234
21
-2.4622259587
31
0.0000000000
11
9.3601791207
21
-2.4515839068
31
0.0000000000
11
9.3699938303
21
-2.4460546668
31
0.0000000000
11
9.3799049472
21
-2.4403866174
31
0.0000000000
11
9.3899124715
21
-2.4345797587
31
0.0000000000
11
9.3999546463
21
-2.4286649371
31
0.0000000000
11
9.4195253806
21
-2.4168198711
31
0.0000000000
11
9.4383701232
21
-2.4049748057
31
0.0000000000
11
9.4564888741
21
-2.3931297409
31
0.0000000000
11
9.4738816333
21
-2.3812846766
31
0.0000000000
11
9.4905484008
21
-2.3694396128
31
0.0000000000
11
9.5314438213
21
-2.3378527790
31
0.0000000000
11
9.5671769851
21
-2.3062656147
31
0.0000000000
0
SPLINE
5
2DC
100
AcDbEntity
8
0
100
AcDbSpline
62
7
6
CONTINUOUS
70
0
71
3
72
25
73
21
74
19
42
0.0000001000
43
0.0000001000
44
0.0000000001
12
0.0000000000
22
-1.2560642624
32
0.0000000000
13
1.2560642624
23
0.0000000000
33
0.0000000000
40
0.0000000000
40
0.0000000000
40
0.0000000000
40
0.0000000000
40
0.0554623356
40
0.1111115227
40
0.1667089144
40
0.2221286562
40
0.2777194583
40
0.3333872180
40
0.3889185007
40
0.4443563565
40
0.4999973536
40
0.5556374419
40
0.6110746952
40
0.6666071806
40
0.7222754168
40
0.7778650205
40
0.8332845289
40
0.8888846137
40
0.9445355566
40
1.0000000000
40
1.0000000000
40
1.0000000000
40
1.0000000000
10
-22.4000000000
20
-21.0501218439
30
0.0000000000
10
-22.4000000000
20
-21.0733432631
30
0.0000000000
10
-22.3979722193
20
-21.1198897347
30
0.0000000000
10
-22.3888572244
20
-21.1891764620
30
0.0000000000
10
-22.3737352157
20
-21.2573915394
30
0.0000000000
10
-22.3527383718
20
-21.3240052872
30
0.0000000000
10
-22.3260091818
20
-21.3885659330
30
0.0000000000
10
-22.2937256477
20
-21.4505889909
30
0.0000000000
10
-22.2561893682
20
-21.5095049493
30
0.0000000000
10
-22.2136736367
20
-21.5649202530
30
0.0000000000
10
-22.1664591867
20
-21.6164539373
30
0.0000000000
10
-22.1149261177
20
-21.6636686799
30
0.0000000000
10
-22.0595113530
20
-21.7061848979
30
0.0000000000
10
-22.0005953763
20
-21.7437219969
30
0.0000000000
10
-21.9385724102
20
-21.7760061475
30
0.0000000000
10
-21.8740123789
20
-21.8027357635
30
0.0000000000
10
-21.8073983406
20
-21.8237334405
30
0.0000000000
10
-21.7391816522
20
-21.8388563924
30
0.0000000000
10
-21.6698922379
20
-21.8479720715
30
0.0000000000
10
-21.6233441456
20
-21.8500000000
30
0.0000000000
10
-21.6001218439
20
-21.8500000000
30
0.0000000000
11
-22.4000000000
21
-21.0501218439
31
0.0000000000
11
-22.3969671883
21
-21.1197200539
31
0.0000000000
11
-22.3878506781
21
-21.1890219528
31
0.0000000000
11
-22.3727364213
21
-21.2572006325
31
0.0000000000
11
-22.3518098814
21
-21.3235914258
31
0.0000000000
11
-22.3250995149
21
-21.3881063350
31
0.0000000000
11
-22.2928158213
21
-21.4501296280
31
0.0000000000
11
-22.2553367914
21
-21.5089556828
31
0.0000000000
11
-22.2129502954
21
-21.5642024981
31
0.0000000000
11
-22.1657382416
21
-21.6157335362
31
0.0000000000
11
-22.1142084717
21
-21.6629452844
31
0.0000000000
11
-22.0589626901
21
-21.7053318845
31
0.0000000000
11
-22.0001357267
21
-21.7428122998
31
0.0000000000
11
-21.9381121750
21
-21.7750967926
31
0.0000000000
11
-21.8735988970
21
-21.8018071637
31
0.0000000000
11
-21.8072085951
21
-21.8227342875
31
0.0000000000
11
-21.7390267365
21
-21.8378498348
31
0.0000000000
11
-21.6697226940
21
-21.8469669578
31
0.0000000000
11
-21.6001218439
21
-21.8500000000
31
0.0000000000
0
SPLINE
5
2DD
100
AcDbEntity
8
0
100
AcDbSpline
62
7
6
CONTINUOUS
70
0
71
3
72
25
73
21
74
19
42
0.0000001000
43
0.0000001000
44
0.0000000001
12
-1.2560642624
22
0.0000000000
32
0.0000000000
13
-0.0000000000
23
-1.2560642624
33
0.0000000000
40
0.0000000000
40
0.0000000000
40
0.0000000000
40
0.0000000000
40
0.0554644434
40
0.1111153863
40
0.1667154711
40
0.2221349795
40
0.2777245832
40
0.3333928194
40
0.3889253048
40
0.4443625581
40
0.5000026464
40
0.5556436435
40
0.6110814993
40
0.6666127820
40
0.7222805417
40
0.7778713438
40
0.8332910856
40
0.8888884773
40
0.9445376644
40
1.0000000000
40
1.0000000000
40
1.0000000000
40
1.0000000000
10
-21.6001218439
20
21.8500000000
30
0.0000000000
10
-21.6233441456
20
21.8500000000
30
0.0000000000
10
-21.6698922379
20
21.8479720715
30
0.0000000000
10
-21.7391816522
20
21.8388563924
30
0.0000000000
10
-21.8073983406
20
21.8237334405
30
0.0000000000
10
-21.8740123789
20
21.8027357635
30
0.0000000000
10
-21.9385724102
20
21.7760061475
30
0.0000000000
10
-22.0005953763
20
21.7437219969
30
0.0000000000
10
-22.0595113530
20
21.7061848979
30
0.0000000000
10
-22.1149261177
20
21.6636686799
30
0.0000000000
10
-22.1664591867
20
21.6164539373
30
0.0000000000
10
-22.2136736367
20
21.5649202530
30
0.0000000000
10
-22.2561893682
20
21.5095049493
30
0.0000000000
10
-22.2937256477
20
21.4505889909
30
0.0000000000
10
-22.3260091818
20
21.3885659330
30
0.0000000000
10
-22.3527383718
20
21.3240052872
30
0.0000000000
10
-22.3737352157
20
21.2573915394
30
0.0000000000
10
-22.3888572244
20
21.1891764620
30
0.0000000000
10
-22.3979722193
20
21.1198897347
30
0.0000000000
10
-22.4000000000
20
21.0733432631
30
0.0000000000
10
-22.4000000000
20
21.0501218439
30
0.0000000000
11
-21.6001218439
21
21.8500000000
31
0.0000000000
11
-21.6697226940
21
21.8469669578
31
0.0000000000
11
-21.7390267365
21
21.8378498348
31
0.0000000000
11
-21.8072085951
21
21.8227342875
31
0.0000000000
11
-21.8735988970
21
21.8018071637
31
0.0000000000
11
-21.9381121750
21
21.7750967926
31
0.0000000000
11
-22.0001357267
21
21.7428122998
31
0.0000000000
11
-22.0589626901
21
21.7053318845
31
0.0000000000
11
-22.1142084717
21
21.6629452844
31
0.0000000000
11
-22.1657382416
21
21.6157335362
31
0.0000000000
11
-22.2129502954
21
21.5642024981
31
0.0000000000
11
-22.2553367914
21
21.5089556828
31
0.0000000000
11
-22.2928158213
21
21.4501296280
31
0.0000000000
11
-22.3250995149
21
21.3881063350
31
0.0000000000
11
-22.3518098814
21
21.3235914258
31
0.0000000000
11
-22.3727364213
21
21.2572006325
31
0.0000000000
11
-22.3878506781
21
21.1890219528
31
0.0000000000
11
-22.3969671883
21
21.1197200539
31
0.0000000000
11
-22.4000000000
21
21.0501218439
31
0.0000000000
0
SPLINE
5
2DE
100
AcDbEntity
8
0
100
AcDbSpline
62
7
6
CONTINUOUS
70
0
71
3
72
25
73
21
74
19
42
0.0000001000
43
0.0000001000
44
0.0000000001
12
0.0000000000
22
1.2560642624
32
0.0000000000
13
-1.2560642624
23
0.0000000000
33
0.0000000000
40
0.0000000000
40
0.0000000000
40
0.0000000000
40
0.0000000000
40
0.0554623356
40
0.1111115227
40
0.1667089144
40
0.2221286562
40
0.2777194583
40
0.3333872180
40
0.3889185007
40
0.4443563565
40
0.4999973536
40
0.5556374419
40
0.6110746952
40
0.6666071806
40
0.7222754168
40
0.7778650205
40
0.8332845289
40
0.8888846137
40
0.9445355566
40
1.0000000000
40
1.0000000000
40
1.0000000000
40
1.0000000000
10
22.4000000000
20
21.0501218439
30
0.0000000000
10
22.4000000000
20
21.0733432631
30
0.0000000000
10
22.3979722193
20
21.1198897347
30
0.0000000000
10
22.3888572244
20
21.1891764620
30
0.0000000000
10
22.3737352157
20
21.2573915394
30
0.0000000000
10
22.3527383718
20
21.3240052872
30
0.0000000000
10
22.3260091818
20
21.3885659330
30
0.0000000000
10
22.2937256477
20
21.4505889909
30
0.0000000000
10
22.2561893682
20
21.5095049493
30
0.0000000000
10
22.2136736367
20
21.5649202530
30
0.0000000000
10
22.1664591867
20
21.6164539373
30
0.0000000000
10
22.1149261177
20
21.6636686799
30
0.0000000000
10
22.0595113530
20
21.7061848979
30
0.0000000000
10
22.0005953763
20
21.7437219969
30
0.0000000000
10
21.9385724102
20
21.7760061475
30
0.0000000000
10
21.8740123789
20
21.8027357635
30
0.0000000000
10
21.8073983406
20
21.8237334405
30
0.0000000000
10
21.7391816522
20
21.8388563924
30
0.0000000000
10
21.6698922379
20
21.8479720715
30
0.0000000000
10
21.6233441456
20
21.8500000000
30
0.0000000000
10
21.6001218439
20
21.8500000000
30
0.0000000000
11
22.4000000000
21
21.0501218439
31
0.0000000000
11
22.3969671883
21
21.1197200539
31
0.0000000000
11
22.3878506781
21
21.1890219528
31
0.0000000000
11
22.3727364213
21
21.2572006325
31
0.0000000000
11
22.3518098814
21
21.3235914258
31
0.0000000000
11
22.3250995149
21
21.3881063350
31
0.0000000000
11
22.2928158213
21
21.4501296280
31
0.0000000000
11
22.2553367914
21
21.5089556828
31
0.0000000000
11
22.2129502954
21
21.5642024981
31
0.0000000000
11
22.1657382416
21
21.6157335362
31
0.0000000000
11
22.1142084717
21
21.6629452844
31
0.0000000000
11
22.0589626901
21
21.7053318845
31
0.0000000000
11
22.0001357267
21
21.7428122998
31
0.0000000000
11
21.9381121750
21
21.7750967926
31
0.0000000000
11
21.8735988970
21
21.8018071637
31
0.0000000000
11
21.8072085951
21
21.8227342875
31
0.0000000000
11
21.7390267365
21
21.8378498348
31
0.0000000000
11
21.6697226940
21
21.8469669578
31
0.0000000000
11
21.6001218439
21
21.8500000000
31
0.0000000000
0
SPLINE
5
2DF
100
AcDbEntity
8
0
100
AcDbSpline
62
7
6
CONTINUOUS
70
0
71
3
72
25
73
21
74
19
42
0.0000001000
43
0.0000001000
44
0.0000000001
12
1.2560642624
22
0.0000000000
32
0.0000000000
13
-0.0000000000
23
1.2560642624
33
0.0000000000
40
0.0000000000
40
0.0000000000
40
0.0000000000
40
0.0000000000
40
0.0554644434
40
0.1111153863
40
0.1667154711
40
0.2221349795
40
0.2777245832
40
0.3333928194
40
0.3889253048
40
0.4443625581
40
0.5000026464
40
0.5556436435
40
0.6110814993
40
0.6666127820
40
0.7222805417
40
0.7778713438
40
0.8332910856
40
0.8888884773
40
0.9445376644
40
1.0000000000
40
1.0000000000
40
1.0000000000
40
1.0000000000
10
21.6001218439
20
-21.8500000000
30
0.0000000000
10
21.6233441456
20
-21.8500000000
30
0.0000000000
10
21.6698922379
20
-21.8479720715
30
0.0000000000
10
21.7391816522
20
-21.8388563924
30
0.0000000000
10
21.8073983406
20
-21.8237334405
30
0.0000000000
10
21.8740123789
20
-21.8027357635
30
0.0000000000
10
21.9385724102
20
-21.7760061475
30
0.0000000000
10
22.0005953763
20
-21.7437219969
30
0.0000000000
10
22.0595113530
20
-21.7061848979
30
0.0000000000
10
22.1149261177
20
-21.6636686799
30
0.0000000000
10
22.1664591867
20
-21.6164539373
30
0.0000000000
10
22.2136736367
20
-21.5649202530
30
0.0000000000
10
22.2561893682
20
-21.5095049493
30
0.0000000000
10
22.2937256477
20
-21.4505889909
30
0.0000000000
10
22.3260091818
20
-21.3885659330
30
0.0000000000
10
22.3527383718
20
-21.3240052872
30
0.0000000000
10
22.3737352157
20
-21.2573915394
30
0.0000000000
10
22.3888572244
20
-21.1891764620
30
0.0000000000
10
22.3979722193
20
-21.1198897347
30
0.0000000000
10
22.4000000000
20
-21.0733432631
30
0.0000000000
10
22.4000000000
20
-21.0501218439
30
0.0000000000
11
21.6001218439
21
-21.8500000000
31
0.0000000000
11
21.6697226940
21
-21.8469669578
31
0.0000000000
11
21.7390267365
21
-21.8378498348
31
0.0000000000
11
21.8072085951
21
-21.8227342875
31
0.0000000000
11
21.8735988970
21
-21.8018071637
31
0.0000000000
11
21.9381121750
21
-21.7750967926
31
0.0000000000
11
22.0001357267
21
-21.7428122998
31
0.0000000000
11
22.0589626901
21
-21.7053318845
31
0.0000000000
11
22.1142084717
21
-21.6629452844
31
0.0000000000
11
22.1657382416
21
-21.6157335362
31
0.0000000000
11
22.2129502954
21
-21.5642024981
31
0.0000000000
11
22.2553367914
21
-21.5089556828
31
0.0000000000
11
22.2928158213
21
-21.4501296280
31
0.0000000000
11
22.3250995149
21
-21.3881063350
31
0.0000000000
11
22.3518098814
21
-21.3235914258
31
0.0000000000
11
22.3727364213
21
-21.2572006325
31
0.0000000000
11
22.3878506781
21
-21.1890219528
31
0.0000000000
11
22.3969671883
21
-21.1197200539
31
0.0000000000
11
22.4000000000
21
-21.0501218439
31
0.0000000000
0
SPLINE
5
2E0
100
AcDbEntity
8
0
100
AcDbSpline
62
7
6
CONTINUOUS
70
0
71
3
72
127
73
123
74
121
42
0.0000001000
43
0.0000001000
44
0.0000000001
12
-0.0234045522
22
-1.3884236191
32
0.0000000000
13
0.0429900723
23
-1.3879407192
33
0.0000000000
40
0.0000000000
40
0.0000000000
40
0.0000000000
40
0.0000000000
40
0.0007561374
40
0.0034119654
40
0.0087443812
40
0.0141082932
40
0.0195079924
40
0.0304304695
40
0.0415453903
40
0.0528836144
40
0.0763378522
40
0.1010109529
40
0.1270837167
40
0.1406959800
40
0.1547134982
40
0.1618793174
40
0.1691521108
40
0.1765866872
40
0.1843032334
40
0.2006031332
40
0.2180713175
40
0.2565556588
40
0.2998312797
40
0.3232827558
40
0.3479496307
40
0.3738361086
40
0.3872379057
40
0.4009459253
40
0.4149605495
40
0.4292821357
40
0.4439110189
40
0.4588475136
40
0.4664312126
40
0.4740919236
40
0.4779511698
40
0.4818296819
40
0.4857274637
40
0.4896445195
40
0.4935808532
40
0.4955562506
40
0.4965457571
40
0.4975364689
40
0.4985283861
40
0.4995215087
40
0.4997699777
40
0.5000185220
40
0.5001428225
40
0.5002374730
40
0.5003970904
40
0.5007162274
40
0.5010352340
40
0.5016728555
40
0.5023099550
40
0.5035825883
40
0.5048531342
40
0.5061215929
40
0.5086522502
40
0.5111745628
40
0.5136885332
40
0.5186914575
40
0.5236610446
40
0.5285973162
40
0.5335002940
40
0.5432064529
40
0.5527797112
40
0.5622202613
40
0.5715283038
40
0.5897476564
40
0.6074396069
40
0.6246061069
40
0.6412492928
40
0.6573715090
40
0.6880628681
40
0.7026387502
40
0.7167057249
40
0.7302676760
40
0.7433589285
40
0.7562112861
40
0.7688771274
40
0.7936710403
40
0.8177912797
40
0.8296161867
40
0.8412930846
40
0.8528293308
40
0.8642325548
40
0.8755106565
40
0.8811054585
40
0.8866720643
40
0.8922115351
40
0.8977249474
40
0.9004722397
40
0.9018435904
40
0.9032134325
40
0.9038977935
40
0.9045817839
40
0.9052654058
40
0.9056070793
40
0.9059486616
40
0.9061194185
40
0.9062752810
40
0.9063790818
40
0.9064828748
40
0.9066904373
40
0.9068979689
40
0.9077277879
40
0.9085571235
40
0.9093859855
40
0.9110423266
40
0.9126968940
40
0.9143497681
40
0.9176507395
40
0.9209459099
40
0.9242359313
40
0.9275214591
40
0.9340815025
40
0.9406314938
40
0.9471767468
40
0.9537225868
40
0.9602743376
40
0.9734154668
40
0.9866435522
40
1.0000000000
40
1.0000000000
40
1.0000000000
40
1.0000000000
10
14.4739557855
20
-2.3903586070
30
0.0000000000
10
14.4739498864
20
-2.3907085534
30
0.0000000000
10
14.4739200014
20
-2.3922875822
30
0.0000000000
10
14.4738059811
20
-2.3963335889
30
0.0000000000
10
14.4734982440
20
-2.4025071373
30
0.0000000000
10
14.4729156323
20
-2.4099356815
30
0.0000000000
10
14.4718497232
20
-2.4199178562
30
0.0000000000
10
14.4699743869
20
-2.4324853613
30
0.0000000000
10
14.4668758514
20
-2.4476272897
30
0.0000000000
10
14.4615435047
20
-2.4682047456
30
0.0000000000
10
14.4526407387
20
-2.4942984685
30
0.0000000000
10
14.4386522648
20
-2.5257088656
30
0.0000000000
10
14.4243580097
20
-2.5518804620
30
0.0000000000
10
14.4112936213
20
-2.5730318132
30
0.0000000000
10
14.4023659190
20
-2.5864409259
30
0.0000000000
10
14.3948052849
20
-2.5972267568
30
0.0000000000
10
14.3888663180
20
-2.6054268177
30
0.0000000000
10
14.3826449908
20
-2.6137356261
30
0.0000000000
10
14.3737117262
20
-2.6252309430
30
0.0000000000
10
14.3615634026
20
-2.6401055813
30
0.0000000000
10
14.3396948982
20
-2.6654128097
30
0.0000000000
10
14.3083834856
20
-2.6990370397
30
0.0000000000
10
14.2738843347
20
-2.7334207884
30
0.0000000000
10
14.2432713607
20
-2.7626186350
30
0.0000000000
10
14.2181614661
20
-2.7859196426
30
0.0000000000
10
14.1962140629
20
-2.8057862462
30
0.0000000000
10
14.1778907357
20
-2.8220956761
30
0.0000000000
10
14.1636039692
20
-2.8346746859
30
0.0000000000
10
14.1489315339
20
-2.8474595134
30
0.0000000000
10
14.1338734114
20
-2.8604501566
30
0.0000000000
10
14.1184296041
20
-2.8736466131
30
0.0000000000
10
14.1053063229
20
-2.8847576309
30
0.0000000000
10
14.0946153823
20
-2.8937498106
30
0.0000000000
10
14.0878361893
20
-2.8994271548
30
0.0000000000
10
14.0823646841
20
-2.9039948111
30
0.0000000000
10
14.0782266812
20
-2.9074419857
30
0.0000000000
10
14.0740645705
20
-2.9109020226
30
0.0000000000
10
14.0698783519
20
-2.9143749218
30
0.0000000000
10
14.0663740433
20
-2.9172761664
30
0.0000000000
10
14.0639119908
20
-2.9193114260
30
0.0000000000
10
14.0625003724
20
-2.9204774629
30
0.0000000000
10
14.0614395040
20
-2.9213533241
30
0.0000000000
10
14.0603771393
20
-2.9222300019
30
0.0000000000
10
14.0595795695
20
-2.9228877778
30
0.0000000000
10
14.0590474314
20
-2.9233266021
30
0.0000000000
10
14.0588254763
20
-2.9235094738
30
0.0000000000
10
14.0586586141
20
-2.9236472464
30
0.0000000000
10
14.0585230986
20
-2.9237583333
30
0.0000000000
10
14.0583174614
20
-2.9239261323
30
0.0000000000
10
14.0580315701
20
-2.9241598376
30
0.0000000000
10
14.0575743212
20
-2.9245335054
30
0.0000000000
10
14.0570032322
20
-2.9250004520
30
0.0000000000
10
14.0560905897
20
-2.9257470033
30
0.0000000000
10
14.0549515413
20
-2.9266794759
30
0.0000000000
10
14.0535869171
20
-2.9277977397
30
0.0000000000
10
14.0517726427
20
-2.9292859888
30
0.0000000000
10
14.0495117891
20
-2.9311433990
30
0.0000000000
10
14.0468077161
20
-2.9333694950
30
0.0000000000
10
14.0432231610
20
-2.9363265293
30
0.0000000000
10
14.0387704065
20
-2.9400112051
30
0.0000000000
10
14.0334629414
20
-2.9444216543
30
0.0000000000
10
14.0282002363
20
-2.9488135605
30
0.0000000000
10
14.0212665809
20
-2.9546249283
30
0.0000000000
10
14.0127111023
20
-2.9618425507
30
0.0000000000
10
14.0025882612
20
-2.9704593016
30
0.0000000000
10
13.9926444471
20
-2.9790018789
30
0.0000000000
10
13.9797172519
20
-2.9902128637
30
0.0000000000
10
13.9640029676
20
-3.0040392013
30
0.0000000000
10
13.9457239416
20
-3.0204553113
30
0.0000000000
10
13.9281608560
20
-3.0365747009
30
0.0000000000
10
13.9113135428
20
-3.0523973765
30
0.0000000000
10
13.8901508331
20
-3.0727662170
30
0.0000000000
10
13.8700564371
20
-3.0928633625
30
0.0000000000
10
13.8510829217
20
-3.1127209991
30
0.0000000000
10
13.8378146137
20
-3.1270603047
30
0.0000000000
10
13.8252527010
20
-3.1411132856
30
0.0000000000
10
13.8133201279
20
-3.1549707651
30
0.0000000000
10
13.8019394573
20
-3.1687514116
30
0.0000000000
10
13.7874896344
20
-3.1870159748
30
0.0000000000
10
13.7705285267
20
-3.2099360333
30
0.0000000000
10
13.7548506488
20
-3.2332865383
30
0.0000000000
10
13.7432381056
20
-3.2520246280
30
0.0000000000
10
13.7350383389
20
-3.2660190916
30
0.0000000000
10
13.7272911854
20
-3.2800465449
30
0.0000000000
10
13.7199966540
20
-3.2941069978
30
0.0000000000
10
13.7142800243
20
-3.3058825997
30
0.0000000000
10
13.7099359074
20
-3.3153173556
30
0.0000000000
10
13.7067994897
20
-3.3223830932
30
0.0000000000
10
13.7037762236
20
-3.3294570110
30
0.0000000000
10
13.7013483436
20
-3.3353655360
30
0.0000000000
10
13.6996976896
20
-3.3395071263
30
0.0000000000
10
13.6987697176
20
-3.3418720304
30
0.0000000000
10
13.6981957933
20
-3.3433501010
30
0.0000000000
10
13.6977401957
20
-3.3445328083
30
0.0000000000
10
13.6974003545
20
-3.3454197233
30
0.0000000000
10
13.6971186011
20
-3.3461590297
30
0.0000000000
10
13.6968940551
20
-3.3467505272
30
0.0000000000
10
13.6967541548
20
-3.3471202394
30
0.0000000000
10
13.6966447458
20
-3.3474095302
30
0.0000000000
10
13.6965746690
20
-3.3475960299
30
0.0000000000
10
13.6965137158
20
-3.3477528335
30
0.0000000000
10
13.6964446157
20
-3.3479321424
30
0.0000000000
10
13.6963582434
20
-3.3481562511
30
0.0000000000
10
13.6961516101
20
-3.3486941594
30
0.0000000000
10
13.6958434670
20
-3.3495013770
30
0.0000000000
10
13.6954365221
20
-3.3505787080
30
0.0000000000
10
13.6948993662
20
-3.3520157989
30
0.0000000000
10
13.6942378376
20
-3.3538141741
30
0.0000000000
10
13.6934596765
20
-3.3559759851
30
0.0000000000
10
13.6924438139
20
-3.3588612194
30
0.0000000000
10
13.6912135670
20
-3.3624759504
30
0.0000000000
10
13.6898001567
20
-3.3668283456
30
0.0000000000
10
13.6884503304
20
-3.3711934119
30
0.0000000000
10
13.6867363206
20
-3.3770270434
30
0.0000000000
10
13.6847518660
20
-3.3843531371
30
0.0000000000
10
13.6826237658
20
-3.3931998002
30
0.0000000000
10
13.6807501613
20
-3.4020971383
30
0.0000000000
10
13.6791310744
20
-3.4110451880
30
0.0000000000
10
13.6773099227
20
-3.4230543101
30
0.0000000000
10
13.6756697606
20
-3.4382129421
30
0.0000000000
10
13.6747242699
20
-3.4565853024
30
0.0000000000
10
13.6747738373
20
-3.4688976804
30
0.0000000000
10
13.6749652355
20
-3.4750769997
30
0.0000000000
11
14.4739557855
21
-2.3903586070
31
0.0000000000
11
14.4739359233
21
-2.3914084057
31
0.0000000000
11
14.4738320446
21
-2.3950948420
31
0.0000000000
11
14.4734640172
21
-2.4024903170
31
0.0000000000
11
14.4728822964
21
-2.4099159282
31
0.0000000000
11
14.4720868823
21
-2.4173716756
31
0.0000000000
11
14.4698549741
21
-2.4323735793
31
0.0000000000
11
14.4667682925
21
-2.4474960281
31
0.0000000000
11
14.4628268376
21
-2.4627390220
31
0.0000000000
11
14.4523796076
21
-2.4935866449
31
0.0000000000
11
14.4385132842
21
-2.5249164482
31
0.0000000000
11
14.4212278673
21
-2.5567284317
31
0.0000000000
11
14.4113029988
21
-2.5728152411
31
0.0000000000
11
14.4005233569
21
-2.5890225955
31
0.0000000000
11
14.3948129960
21
-2.5971714771
31
0.0000000000
11
14.3888889417
21
-2.6053504950
31
0.0000000000
11
14.3826991590
21
-2.6136127810
31
0.0000000000
11
14.3761278964
21
-2.6220765264
31
0.0000000000
11
14.3618281879
21
-2.6396214070
31
0.0000000000
11
14.3459855686
21
-2.6579894741
31
0.0000000000
11
14.3096715974
21
-2.6971951680
31
0.0000000000
11
14.2671859828
21
-2.7396936081
31
0.0000000000
11
14.2436288092
21
-2.7621776080
31
0.0000000000
11
14.2185287247
21
-2.7854847945
31
0.0000000000
11
14.1918857294
21
-2.8096151674
31
0.0000000000
11
14.1779856402
21
-2.8219890489
31
0.0000000000
11
14.1636998232
21
-2.8345687269
31
0.0000000000
11
14.1490282786
21
-2.8473542017
31
0.0000000000
11
14.1339710062
21
-2.8603454730
31
0.0000000000
11
14.1185280061
21
-2.8735425410
31
0.0000000000
11
14.1026992783
21
-2.8869454056
31
0.0000000000
11
14.0946402665
21
-2.8937240117
31
0.0000000000
11
14.0864848228
21
-2.9005540669
31
0.0000000000
11
14.0823709389
21
-2.9039883879
31
0.0000000000
11
14.0782329471
21
-2.9074355713
31
0.0000000000
11
14.0740708473
21
-2.9108956169
31
0.0000000000
11
14.0698846396
21
-2.9143685248
31
0.0000000000
11
14.0656743238
21
-2.9178542950
31
0.0000000000
11
14.0635601254
21
-2.9196020034
31
0.0000000000
11
14.0625007661
21
-2.9204770635
31
0.0000000000
11
14.0614399000
21
-2.9213529275
31
0.0000000000
11
14.0603775272
21
-2.9222295953
31
0.0000000000
11
14.0593136477
21
-2.9231070671
31
0.0000000000
11
14.0590474424
21
-2.9233265606
31
0.0000000000
11
14.0587811429
21
-2.9235461044
31
0.0000000000
11
14.0586479578
21
-2.9236558951
31
0.0000000000
11
14.0585463316
21
-2.9237392411
31
0.0000000000
11
14.0583746827
21
-2.9238794679
31
0.0000000000
11
14.0580315162
21
-2.9241598671
31
0.0000000000
11
14.0576885246
21
-2.9244401939
31
0.0000000000
11
14.0570030658
21
-2.9250006302
31
0.0000000000
11
14.0563183064
21
-2.9255607767
31
0.0000000000
11
14.0549508858
21
-2.9266802005
31
0.0000000000
11
14.0535862628
21
-2.9277984654
31
0.0000000000
11
14.0522244374
21
-2.9289155714
31
0.0000000000
11
14.0495091793
21
-2.9311463065
31
0.0000000000
11
14.0468051114
21
-2.9333724058
31
0.0000000000
11
14.0441122339
21
-2.9355938694
31
0.0000000000
11
14.0387600496
21
-2.9400228892
31
0.0000000000
11
14.0334526266
21
-2.9444333660
31
0.0000000000
11
14.0281899647
21
-2.9488252997
31
0.0000000000
11
14.0229720640
21
-2.9531986903
31
0.0000000000
11
14.0126705461
21
-2.9618898424
31
0.0000000000
11
14.0025480729
21
-2.9705068223
31
0.0000000000
11
13.9926046444
21
-2.9790496299
31
0.0000000000
11
13.9828402607
21
-2.9875182652
31
0.0000000000
11
13.9638486272
21
-3.0042330192
31
0.0000000000
11
13.9455731726
21
-3.0206510842
31
0.0000000000
11
13.9280138968
21
-3.0367724601
31
0.0000000000
11
13.9111707998
21
-3.0525971471
31
0.0000000000
11
13.8950438817
21
-3.0681251451
31
0.0000000000
11
13.8649385818
21
-3.0982910741
31
0.0000000000
11
13.8509602001
21
-3.1129290051
31
0.0000000000
11
13.8376979972
21
-3.1272702471
31
0.0000000000
11
13.8251519731
21
-3.1413148001
31
0.0000000000
11
13.8132960881
21
-3.1550951978
31
0.0000000000
11
13.8019334172
21
-3.1688574765
31
0.0000000000
11
13.7910232734
21
-3.1826524701
31
0.0000000000
11
13.7705605670
21
-3.2103406022
31
0.0000000000
11
13.7519079688
21
-3.2381595940
31
0.0000000000
11
13.7432604603
21
-3.2521181622
31
0.0000000000
11
13.7350654788
21
-3.2661094454
31
0.0000000000
11
13.7273230245
21
-3.2801334436
31
0.0000000000
11
13.7200330972
21
-3.2941901566
31
0.0000000000
11
13.7131956969
21
-3.3082795846
31
0.0000000000
11
13.7099466945
21
-3.3153365667
31
0.0000000000
11
13.7068108238
21
-3.3224017275
31
0.0000000000
11
13.7037880848
21
-3.3294750671
31
0.0000000000
11
13.7008784777
21
-3.3365565854
31
0.0000000000
11
13.6994660985
21
-3.3401004115
31
0.0000000000
11
13.6987705150
21
-3.3418730914
31
0.0000000000
11
13.6980820023
21
-3.3436462824
31
0.0000000000
11
13.6977403974
21
-3.3445330696
31
0.0000000000
11
13.6974005602
21
-3.3454199846
31
0.0000000000
11
13.6970624908
21
-3.3463070274
31
0.0000000000
11
13.6968941189
21
-3.3467505967
31
0.0000000000
11
13.6967261890
21
-3.3471941979
31
0.0000000000
11
13.6966423897
21
-3.3474160105
31
0.0000000000
11
13.6965657349
21
-3.3476184129
31
0.0000000000
11
13.6965137800
21
-3.3477528620
31
0.0000000000
11
13.6964618871
21
-3.3478873234
31
0.0000000000
11
13.6963582876
21
-3.3481562834
31
0.0000000000
11
13.6962549364
21
-3.3484252928
31
0.0000000000
11
13.6958440152
21
-3.3495018245
31
0.0000000000
11
13.6954370674
21
-3.3505791469
31
0.0000000000
11
13.6950340932
21
-3.3516572600
31
0.0000000000
11
13.6942400654
21
-3.3538158583
31
0.0000000000
11
13.6934619315
21
-3.3559776192
31
0.0000000000
11
13.6926996918
21
-3.3581425429
31
0.0000000000
11
13.6912228944
21
-3.3624818784
31
0.0000000000
11
13.6898096732
21
-3.3668338648
31
0.0000000000
11
13.6884600283
21
-3.3711985021
31
0.0000000000
11
13.6871739596
21
-3.3755757903
31
0.0000000000
11
13.6847925507
21
-3.3843683193
31
0.0000000000
11
13.6826654468
21
-3.3932114519
31
0.0000000000
11
13.6807926477
21
-3.4021051881
31
0.0000000000
11
13.6791741534
21
-3.4110495278
31
0.0000000000
11
13.6778099640
21
-3.4200444711
31
0.0000000000
11
13.6758444997
21
-3.4381861683
31
0.0000000000
11
13.6748962549
21
-3.4565302797
31
0.0000000000
11
13.6749652355
21
-3.4750769997
31
0.0000000000
0
SPLINE
5
2E1
100
AcDbEntity
8
0
100
AcDbSpline
62
7
6
CONTINUOUS
70
0
71
3
72
14
73
10
74
8
42
0.0000001000
43
0.0000001000
44
0.0000000001
12
-0.2724014291
22
-0.2379875545
32
0.0000000000
13
-0.0330744178
23
-0.3601456004
33
0.0000000000
40
0.0000000000
40
0.0000000000
40
0.0000000000
40
0.0000000000
40
0.0149786277
40
0.0800496540
40
0.1450222579
40
0.2755994165
40
0.4087181033
40
0.6893716294
40
1.0000000000
40
1.0000000000
40
1.0000000000
40
1.0000000000
10
13.8563692028
20
-2.0854666551
30
0.0000000000
10
13.8550091363
20
-2.0866548975
30
0.0000000000
10
13.8477845325
20
-2.0930555216
30
0.0000000000
10
13.8351322758
20
-2.1051375959
30
0.0000000000
10
13.8137837532
20
-2.1282119399
30
0.0000000000
10
13.7896268946
20
-2.1597572761
30
0.0000000000
10
13.7562374564
20
-2.2164135998
30
0.0000000000
10
13.7254858252
20
-2.2989204549
30
0.0000000000
10
13.7138557338
20
-2.3696365311
30
0.0000000000
10
13.7104311163
20
-2.4069270115
30
0.0000000000
11
13.8563692028
21
-2.0854666551
31
0.0000000000
11
13.8523138788
21
-2.0890596244
31
0.0000000000
11
13.8352972161
21
-2.1053158970
31
0.0000000000
11
13.8193393506
21
-2.1225642483
31
0.0000000000
11
13.7906000117
21
-2.1600371866
31
0.0000000000
11
13.7660958619
21
-2.2014784396
31
0.0000000000
11
13.7297931298
21
-2.2962658891
31
0.0000000000
11
13.7104311163
21
-2.4069270115
31
0.0000000000
0
SPLINE
5
2E2
100
AcDbEntity
8
0
100
AcDbSpline
62
7
6
CONTINUOUS
70
0
71
3
72
45
73
41
74
39
42
0.0000001000
43
0.0000001000
44
0.0000000001
12
-0.5223298785
22
-0.1332155551
32
0.0000000000
13
-0.1068668417
23
0.5281650685
33
0.0000000000
40
0.0000000000
40
0.0000000000
40
0.0000000000
40
0.0000000000
40
0.0156580745
40
0.0653521889
40
0.0906707260
40
0.1034661585
40
0.1163588881
40
0.1293539958
40
0.1358915729
40
0.1424565948
40
0.1490496629
40
0.1507023877
40
0.1523569116
40
0.1539761704
40
0.1546747262
40
0.1553729069
40
0.1581618925
40
0.1609449407
40
0.1664934193
40
0.1720187740
40
0.1775214289
40
0.1884602518
40
0.1993134906
40
0.2100847251
40
0.2313949641
40
0.2524221340
40
0.2731977316
40
0.2937544101
40
0.3343379974
40
0.3744612089
40
0.4144137377
40
0.4544889791
40
0.4949776606
40
0.5154699063
40
0.5361726187
40
0.5785128118
40
0.6224834953
40
0.6684378510
40
0.7674322830
40
1.0000000000
40
1.0000000000
40
1.0000000000
40
1.0000000000
10
13.1005565266
20
-3.3379397607
30
0.0000000000
10
13.0978302999
20
-3.3386350604
30
0.0000000000
10
13.0864106873
20
-3.3413762065
30
0.0000000000
10
13.0703588223
20
-3.3442547067
30
0.0000000000
10
13.0546872071
20
-3.3460671264
30
0.0000000000
10
13.0455575669
20
-3.3468431653
30
0.0000000000
10
13.0386233017
20
-3.3472930650
30
0.0000000000
10
13.0328044794
20
-3.3475556190
30
0.0000000000
10
13.0281188713
20
-3.3476989647
30
0.0000000000
10
13.0245818052
20
-3.3477731566
30
0.0000000000
10
13.0219215759
20
-3.3478035946
30
0.0000000000
10
13.0201432807
20
-3.3478134599
30
0.0000000000
10
13.0192583717
20
-3.3478162772
30
0.0000000000
10
13.0185448491
20
-3.3478169083
30
0.0000000000
10
13.0180031079
20
-3.3478164569
30
0.0000000000
10
13.0172512584
20
-3.3478150188
30
0.0000000000
10
13.0161249932
20
-3.3478098512
30
0.0000000000
10
13.0141275708
20
-3.3477920824
30
0.0000000000
10
13.0116388206
20
-3.3477538132
30
0.0000000000
10
13.0086621323
20
-3.3476820659
30
0.0000000000
10
13.0047184824
20
-3.3475522982
30
0.0000000000
10
12.9998206764
20
-3.3473260152
30
0.0000000000
10
12.9939832825
20
-3.3469507986
30
0.0000000000
10
12.9862971096
20
-3.3463153203
30
0.0000000000
10
12.9768130727
20
-3.3452653671
30
0.0000000000
10
12.9655985776
20
-3.3435879180
30
0.0000000000
10
12.9545910526
20
-3.3414973128
30
0.0000000000
10
12.9402540655
20
-3.3381739231
30
0.0000000000
10
12.9227970121
20
-3.3329846631
30
0.0000000000
10
12.9025935714
20
-3.3250688171
30
0.0000000000
10
12.8832235712
20
-3.3154905166
30
0.0000000000
10
12.8646925708
20
-3.3042509981
30
0.0000000000
10
12.8500044565
20
-3.2935459864
30
0.0000000000
10
12.8387035551
20
-3.2841836788
30
0.0000000000
10
12.8275225992
20
-3.2741708416
30
0.0000000000
10
12.8141762099
20
-3.2602909985
30
0.0000000000
10
12.7993665297
20
-3.2416743545
30
0.0000000000
10
12.7805733264
20
-3.2133738984
30
0.0000000000
10
12.7500126568
20
-3.1525783212
30
0.0000000000
10
12.7340147352
20
-3.0946026948
30
0.0000000000
10
12.7257301427
20
-3.0536579801
30
0.0000000000
11
13.1005565266
21
-3.3379397607
31
0.0000000000
11
13.0923495194
21
-3.3399103348
31
0.0000000000
11
13.0659960576
21
-3.3446629276
31
0.0000000000
11
13.0524435038
21
-3.3462343495
31
0.0000000000
11
13.0455732712
21
-3.3468188417
31
0.0000000000
11
13.0386404014
21
-3.3472691882
31
0.0000000000
11
13.0316448944
21
-3.3475853890
31
0.0000000000
11
13.0281236520
21
-3.3476931847
31
0.0000000000
11
13.0245867503
21
-3.3477674439
31
0.0000000000
11
13.0210341893
21
-3.3478081667
31
0.0000000000
11
13.0201436023
21
-3.3478131074
31
0.0000000000
11
13.0192520366
21
-3.3478159520
31
0.0000000000
11
13.0183794700
21
-3.3478167055
31
0.0000000000
11
13.0180030406
21
-3.3478163891
31
0.0000000000
11
13.0176268140
21
-3.3478156700
31
0.0000000000
11
13.0161239343
21
-3.3478087663
31
0.0000000000
11
13.0146242977
21
-3.3477954191
31
0.0000000000
11
13.0116347536
21
-3.3477493944
31
0.0000000000
11
13.0086581818
21
-3.3476775959
31
0.0000000000
11
13.0056945821
21
-3.3475800235
31
0.0000000000
11
12.9998062995
21
-3.3473075574
31
0.0000000000
11
12.9939699057
21
-3.3469319959
31
0.0000000000
11
12.9881854008
21
-3.3464533390
31
0.0000000000
11
12.9767720575
21
-3.3451867395
31
0.0000000000
11
12.9655662695
21
-3.3435077587
31
0.0000000000
11
12.9545680370
21
-3.3414163966
31
0.0000000000
11
12.9437773599
21
-3.3389126533
31
0.0000000000
11
12.9228186720
21
-3.3326680229
31
0.0000000000
11
12.9026902056
21
-3.3247738675
31
0.0000000000
11
12.8833919609
21
-3.3152301872
31
0.0000000000
11
12.8649239378
21
-3.3040369818
31
0.0000000000
11
12.8472861363
21
-3.2911942514
31
0.0000000000
11
12.8387785687
21
-3.2841543143
31
0.0000000000
11
12.8304807927
21
-3.2766975075
31
0.0000000000
11
12.8146443212
21
-3.2602729514
31
0.0000000000
11
12.7998572283
21
-3.2417589972
31
0.0000000000
11
12.7861195141
21
-3.2211556448
31
0.0000000000
11
12.7617922216
21
-3.1736807454
31
0.0000000000
11
12.7257301427
21
-3.0536579801
31
0.0000000000
0
SPLINE
5
2E3
100
AcDbEntity
8
0
100
AcDbSpline
62
7
6
CONTINUOUS
70
0
71
3
72
22
73
18
74
16
42
0.0000001000
43
0.0000001000
44
0.0000000001
12
-0.0568207054
22
0.4327324916
32
0.0000000000
13
-0.4252465635
23
0.0981741331
33
0.0000000000
40
0.0000000000
40
0.0000000000
40
0.0000000000
40
0.0000000000
40
0.0163351095
40
0.0447914596
40
0.1006659115
40
0.1553255450
40
0.2089760327
40
0.2618348283
40
0.3141292628
40
0.3660940743
40
0.4179684759
40
0.4439382551
40
0.4698011358
40
0.5722136199
40
0.6745694532
40
0.7788386182
40
1.0000000000
40
1.0000000000
40
1.0000000000
40
1.0000000000
10
13.5164043307
20
-2.9657141239
30
0.0000000000
10
13.5160949399
20
-2.9633578797
30
0.0000000000
10
13.5151962655
20
-2.9569036001
30
0.0000000000
10
13.5128601396
20
-2.9424449836
30
0.0000000000
10
13.5087825451
20
-2.9226276224
30
0.0000000000
10
13.5025678298
20
-2.8995499251
30
0.0000000000
10
13.4950606195
20
-2.8773209924
30
0.0000000000
10
13.4862604573
20
-2.8559424650
30
0.0000000000
10
13.4761669648
20
-2.8354154371
30
0.0000000000
10
13.4647806378
20
-2.8157417818
30
0.0000000000
10
13.4542201834
20
-2.8000673496
30
0.0000000000
10
13.4451613000
20
-2.7879992731
30
0.0000000000
10
13.4310922226
20
-2.7705160238
30
0.0000000000
10
13.4078207665
20
-2.7461782648
30
0.0000000000
10
13.3723760248
20
-2.7182811759
30
0.0000000000
10
13.3185115072
20
-2.6867960454
30
0.0000000000
10
13.2731283304
20
-2.6713245686
30
0.0000000000
10
13.2417789579
20
-2.6640871263
30
0.0000000000
11
13.5164043307
21
-2.9657141239
31
0.0000000000
11
13.5154207353
21
-2.9586530040
31
0.0000000000
11
13.5134375573
21
-2.9463931102
31
0.0000000000
11
13.5085064121
21
-2.9225115022
31
0.0000000000
11
13.5022888811
21
-2.8994808003
31
0.0000000000
11
13.4947849645
21
-2.8773010043
31
0.0000000000
11
13.4859946621
21
-2.8559721144
31
0.0000000000
11
13.4759179740
21
-2.8354941305
31
0.0000000000
11
13.4645549002
21
-2.8158670526
31
0.0000000000
11
13.4519054406
21
-2.7970908808
31
0.0000000000
11
13.4451017144
21
-2.7880261264
31
0.0000000000
11
13.4380239666
21
-2.7792334835
31
0.0000000000
11
13.4071086871
21
-2.7469536975
31
0.0000000000
11
13.3720265464
21
-2.7192991688
31
0.0000000000
11
13.3327775447
21
-2.6962698974
31
0.0000000000
11
13.2417789579
21
-2.6640871263
31
0.0000000000
0
SPLINE
5
2E4
100
AcDbEntity
8
0
100
AcDbSpline
62
7
6
CONTINUOUS
70
0
71
3
72
19
73
15
74
13
42
0.0000001000
43
0.0000001000
44
0.0000000001
12
-0.3938517426
22
-0.1893092822
32
0.0000000000
13
-0.0782294488
23
-0.4298079508
33
0.0000000000
40
0.0000000000
40
0.0000000000
40
0.0000000000
40
0.0000000000
40
0.0207722314
40
0.0978590053
40
0.1751641844
40
0.2140721057
40
0.2532129910
40
0.2923350671
40
0.3313914452
40
0.4095634631
40
0.4882910114
40
0.6494007306
40
0.8188282112
40
1.0000000000
40
1.0000000000
40
1.0000000000
40
1.0000000000
10
12.8021346378
20
-2.0190783057
30
0.0000000000
10
12.7994075780
20
-2.0203890978
30
0.0000000000
10
12.7866289881
20
-2.0267071061
30
0.0000000000
10
12.7643651053
20
-2.0392153854
30
0.0000000000
10
12.7410271794
20
-2.0550165010
30
0.0000000000
10
12.7231059507
20
-2.0688317940
30
0.0000000000
10
12.7100188327
20
-2.0797877187
30
0.0000000000
10
12.6973792416
20
-2.0912896401
30
0.0000000000
10
12.6811918748
20
-2.1073085427
30
0.0000000000
10
12.6621865839
20
-2.1286446572
30
0.0000000000
10
12.6343401658
20
-2.1657021740
30
0.0000000000
10
12.6045566385
20
-2.2176440442
30
0.0000000000
10
12.5775869945
20
-2.2873623267
30
0.0000000000
10
12.5656422222
20
-2.3371596232
30
0.0000000000
10
12.5609178991
20
-2.3631159817
30
0.0000000000
11
12.8021346378
21
-2.0190783057
31
0.0000000000
11
12.7939979722
21
-2.0231014945
31
0.0000000000
11
12.7646379868
21
-2.0395975782
31
0.0000000000
11
12.7366678137
21
-2.0585246639
31
0.0000000000
11
12.7232039069
21
-2.0688998324
31
0.0000000000
11
12.7100941700
21
-2.0798782628
31
0.0000000000
11
12.6974544685
21
-2.0913825287
31
0.0000000000
11
12.6853267827
21
-2.1033845769
31
0.0000000000
11
12.6626074581
21
-2.1288820205
31
0.0000000000
11
12.6419361962
21
-2.1563705934
31
0.0000000000
11
12.6067378605
21
-2.2173211275
31
0.0000000000
11
12.5797317756
21
-2.2862361791
31
0.0000000000
11
12.5609178991
21
-2.3631159817
31
0.0000000000
0
SPLINE
5
2E5
100
AcDbEntity
8
0
100
AcDbSpline
62
7
6
CONTINUOUS
70
0
71
3
72
69
73
65
74
63
42
0.0000001000
43
0.0000001000
44
0.0000000001
12
-0.0698132148
22
-0.4184959289
32
0.0000000000
13
-0.4216998850
23
0.0463572291
33
0.0000000000
40
0.0000000000
40
0.0000000000
40
0.0000000000
40
0.0000000000
40
0.0049507824
40
0.0342259595
40
0.0628877299
40
0.0910161446
40
0.1459931048
40
0.1999017319
40
0.2535096286
40
0.3075972029
40
0.3350714188
40
0.3629468299
40
0.3913104347
40
0.4201148422
40
0.4773698138
40
0.5341609913
40
0.5907252879
40
0.6473024671
40
0.7041321296
40
0.7327193629
40
0.7614579176
40
0.7903763828
40
0.8195028178
40
0.8488646858
40
0.8636427226
40
0.8784896110
40
0.8859399390
40
0.8934086911
40
0.9008962650
40
0.9084030554
40
0.9159294540
40
0.9197001339
40
0.9234758615
40
0.9253656338
40
0.9272566861
40
0.9282026942
40
0.9291490244
40
0.9296223107
40
0.9298589841
40
0.9301548037
40
0.9304276968
40
0.9307929311
40
0.9311597392
40
0.9315281218
40
0.9318980794
40
0.9322696124
40
0.9330174067
40
0.9337715090
40
0.9345319231
40
0.9352986527
40
0.9368510725
40
0.9384287978
40
0.9400318559
40
0.9416602726
40
0.9433140727
40
0.9466979105
40
0.9501835518
40
0.9537711579
40
0.9574608767
40
0.9651471556
40
0.9732433887
40
0.9817504011
40
0.9906689043
40
1.0000000000
40
1.0000000000
40
1.0000000000
40
1.0000000000
10
13.2559764500
20
-2.4066906586
30
0.0000000000
10
13.2558612400
20
-2.4073812860
30
0.0000000000
10
13.2550452260
20
-2.4121525059
30
0.0000000000
10
13.2532950364
20
-2.4208755812
30
0.0000000000
10
13.2502844555
20
-2.4326743777
30
0.0000000000
10
13.2455556056
20
-2.4477622004
30
0.0000000000
10
13.2382252756
20
-2.4657475196
30
0.0000000000
10
13.2270757245
20
-2.4859025413
30
0.0000000000
10
13.2136419018
20
-2.5044587123
30
0.0000000000
10
13.2006124388
20
-2.5185114123
30
0.0000000000
10
13.1891371142
20
-2.5289052230
30
0.0000000000
10
13.1799213264
20
-2.5363457839
30
0.0000000000
10
13.1701580068
20
-2.5433788405
30
0.0000000000
10
13.1565422358
20
-2.5521287246
30
0.0000000000
10
13.1390722863
20
-2.5622979024
30
0.0000000000
10
13.1174574825
20
-2.5730556974
30
0.0000000000
10
13.0952804055
20
-2.5823545284
30
0.0000000000
10
13.0725381901
20
-2.5901862537
30
0.0000000000
10
13.0531533842
20
-2.5954814880
30
0.0000000000
10
13.0373925064
20
-2.5989838065
30
0.0000000000
10
13.0254068113
20
-2.6012508995
30
0.0000000000
10
13.0132807331
20
-2.6031527469
30
0.0000000000
10
13.0010142163
20
-2.6046894355
30
0.0000000000
10
12.9906975463
20
-2.6056635856
30
0.0000000000
10
12.9823772272
20
-2.6062613706
30
0.0000000000
10
12.9771425496
20
-2.6065594390
30
0.0000000000
10
12.9729376399
20
-2.6067524336
30
0.0000000000
10
12.9697713627
20
-2.6068745532
30
0.0000000000
10
12.9665963021
20
-2.6069738710
30
0.0000000000
10
12.9634124562
20
-2.6070503875
30
0.0000000000
10
12.9607536882
20
-2.6070951204
30
0.0000000000
10
12.9586223274
20
-2.6071195283
30
0.0000000000
10
12.9572879631
20
-2.6071300396
30
0.0000000000
10
12.9562193793
20
-2.6071356015
30
0.0000000000
10
12.9555509453
20
-2.6071378910
30
0.0000000000
10
12.9550159242
20
-2.6071390103
30
0.0000000000
10
12.9546813934
20
-2.6071394133
30
0.0000000000
10
12.9544471718
20
-2.6071395391
30
0.0000000000
10
12.9543049411
20
-2.6071395690
30
0.0000000000
10
12.9541910487
20
-2.6071395617
30
0.0000000000
10
12.9540589761
20
-2.6071394112
30
0.0000000000
10
12.9539168651
20
-2.6071391026
30
0.0000000000
10
12.9537612511
20
-2.6071385757
30
0.0000000000
10
12.9536049699
20
-2.6071378603
30
0.0000000000
10
12.9534480215
20
-2.6071369559
30
0.0000000000
10
12.9532374216
20
-2.6071354952
30
0.0000000000
10
12.9529725033
20
-2.6071331942
30
0.0000000000
10
12.9526526012
20
-2.6071296832
30
0.0000000000
10
12.9523300304
20
-2.6071254168
30
0.0000000000
10
12.9518945904
20
-2.6071186933
30
0.0000000000
10
12.9513436147
20
-2.6071083783
30
0.0000000000
10
12.9506744504
20
-2.6070930292
30
0.0000000000
10
12.9499946113
20
-2.6070746585
30
0.0000000000
10
12.9493040974
20
-2.6070532663
30
0.0000000000
10
12.9483619968
20
-2.6070204641
30
0.0000000000
10
12.9471576637
20
-2.6069717588
30
0.0000000000
10
12.9456805426
20
-2.6069016687
30
0.0000000000
10
12.9441607237
20
-2.6068194987
30
0.0000000000
10
12.9420484975
20
-2.6066920830
30
0.0000000000
10
12.9393013900
20
-2.6065016708
30
0.0000000000
10
12.9358773955
20
-2.6062279278
30
0.0000000000
10
12.9322826214
20
-2.6059059081
30
0.0000000000
10
12.9285170004
20
-2.6055355994
30
0.0000000000
10
12.9259507031
20
-2.6052626955
30
0.0000000000
10
12.9246390624
20
-2.6051185076
30
0.0000000000
11
13.2559764500
21
-2.4066906586
31
0.0000000000
11
13.2556223110
21
-2.4087611016
31
0.0000000000
11
13.2531722014
21
-2.4209367378
31
0.0000000000
11
13.2501597715
21
-2.4327171510
31
0.0000000000
11
13.2465850213
21
-2.4441023412
31
0.0000000000
11
13.2377485602
21
-2.4656870527
31
0.0000000000
11
13.2266628182
21
-2.4856908721
31
0.0000000000
11
13.2133277951
21
-2.5041137995
31
0.0000000000
11
13.1977434911
21
-2.5209558349
31
0.0000000000
11
13.1891078587
21
-2.5287840181
31
0.0000000000
11
13.1799099060
21
-2.5362169783
31
0.0000000000
11
13.1701496331
21
-2.5432547155
31
0.0000000000
11
13.1598958955
21
-2.5499021957
31
0.0000000000
11
13.1388892171
21
-2.5620971503
31
0.0000000000
11
13.1173202178
21
-2.5728328796
31
0.0000000000
11
13.0951888975
21
-2.5821093836
31
0.0000000000
11
13.0724952564
21
-2.5899266622
31
0.0000000000
11
13.0492392943
21
-2.5962847155
31
0.0000000000
11
13.0374004429
21
-2.5989165326
31
0.0000000000
11
13.0254210113
21
-2.6011835434
31
0.0000000000
11
13.0133009995
21
-2.6030857479
31
0.0000000000
11
13.0010404074
21
-2.6046231460
31
0.0000000000
11
12.9886392351
21
-2.6057957378
31
0.0000000000
11
12.9823859314
21
-2.6062452313
31
0.0000000000
11
12.9760974826
21
-2.6066035232
31
0.0000000000
11
12.9729400788
21
-2.6067484686
31
0.0000000000
11
12.9697738888
21
-2.6068706136
31
0.0000000000
11
12.9665989125
21
-2.6069699582
31
0.0000000000
11
12.9634151499
21
-2.6070465024
31
0.0000000000
11
12.9602226010
21
-2.6071002461
31
0.0000000000
11
12.9586230317
21
-2.6071185679
31
0.0000000000
11
12.9570212659
21
-2.6071311895
31
0.0000000000
11
12.9562195593
21
-2.6071353628
31
0.0000000000
11
12.9554173035
21
-2.6071381111
31
0.0000000000
11
12.9550159697
21
-2.6071389508
31
0.0000000000
11
12.9546144986
21
-2.6071394343
31
0.0000000000
11
12.9544137116
21
-2.6071395425
31
0.0000000000
11
12.9543133052
21
-2.6071395631
31
0.0000000000
11
12.9541878066
21
-2.6071395381
31
0.0000000000
11
12.9540720344
21
-2.6071394091
31
0.0000000000
11
12.9539170877
21
-2.6071390718
31
0.0000000000
11
12.9537614738
21
-2.6071385456
31
0.0000000000
11
12.9536051927
21
-2.6071378305
31
0.0000000000
11
12.9534482445
21
-2.6071369266
31
0.0000000000
11
12.9532906290
21
-2.6071358337
31
0.0000000000
11
12.9529733965
21
-2.6071330814
31
0.0000000000
11
12.9526534952
21
-2.6071295735
31
0.0000000000
11
12.9523309251
21
-2.6071253101
31
0.0000000000
11
12.9520056863
21
-2.6071202911
31
0.0000000000
11
12.9513472023
21
-2.6071079865
31
0.0000000000
11
12.9506780432
21
-2.6070926598
31
0.0000000000
11
12.9499982090
21
-2.6070743108
31
0.0000000000
11
12.9493076997
21
-2.6070529397
31
0.0000000000
11
12.9486065154
21
-2.6070285464
31
0.0000000000
11
12.9471721214
21
-2.6069706933
31
0.0000000000
11
12.9456950270
21
-2.6069007515
31
0.0000000000
11
12.9441752323
21
-2.6068187209
31
0.0000000000
11
12.9426127372
21
-2.6067246017
31
0.0000000000
11
12.9393596460
21
-2.6065000970
31
0.0000000000
11
12.9359357534
21
-2.6062272376
31
0.0000000000
11
12.9323410593
21
-2.6059060232
31
0.0000000000
11
12.9285755638
21
-2.6055364540
31
0.0000000000
11
12.9246390624
21
-2.6051185076
31
0.0000000000
0
SPLINE
5
2E6
100
AcDbEntity
8
0
100
AcDbSpline
62
7
6
CONTINUOUS
70
0
71
3
72
65
73
61
74
59
42
0.0000001000
43
0.0000001000
44
0.0000000001
12
-0.4050239052
22
-0.6339014978
32
0.0000000000
13
-0.1133376378
23
0.7436031653
33
0.0000000000
40
0.0000000000
40
0.0000000000
40
0.0000000000
40
0.0000000000
40
0.0060017342
40
0.0282911904
40
0.0505951323
40
0.0617723550
40
0.0729757933
40
0.0841376185
40
0.0951889242
40
0.1169832258
40
0.1384116912
40
0.1595284691
40
0.2010404609
40
0.2420087153
40
0.2624510381
40
0.2829434144
40
0.3035477353
40
0.3243248915
40
0.3453342709
40
0.3559449539
40
0.3666350428
40
0.3774113539
40
0.3828340308
40
0.3882807442
40
0.3937522994
40
0.3992494908
40
0.4020079574
40
0.4047731258
40
0.4075450922
40
0.4089336560
40
0.4096285881
40
0.4103239554
40
0.4109005333
40
0.4114767706
40
0.4126282266
40
0.4149270883
40
0.4172206002
40
0.4195088204
40
0.4240696046
40
0.4286099278
40
0.4376309906
40
0.4465760332
40
0.4554490620
40
0.4642541815
40
0.4816765011
40
0.4988787221
40
0.5158968824
40
0.5495212151
40
0.5828669672
40
0.6162501605
40
0.6499857643
40
0.6670863048
40
0.6843880884
40
0.7018390896
40
0.7193971647
40
0.7550139452
40
0.7916184058
40
0.8295496595
40
0.9105138242
40
1.0000000000
40
1.0000000000
40
1.0000000000
40
1.0000000000
10
12.1195128938
20
-3.2065138614
30
0.0000000000
10
12.1187026119
20
-3.2077820308
30
0.0000000000
10
12.1148413234
20
-3.2137332576
30
0.0000000000
10
12.1075858433
20
-3.2241464737
30
0.0000000000
10
12.0989997656
20
-3.2351920139
30
0.0000000000
10
12.0917849229
20
-3.2437649119
30
0.0000000000
10
12.0862021937
20
-3.2500561054
30
0.0000000000
10
12.0804902181
20
-3.2561868891
30
0.0000000000
10
12.0727841169
20
-3.2640851724
30
0.0000000000
10
12.0629349413
20
-3.2734836650
30
0.0000000000
10
12.0507223228
20
-3.2840343164
30
0.0000000000
10
12.0340853712
20
-3.2969849279
30
0.0000000000
10
12.0123578929
20
-3.3113150998
30
0.0000000000
10
11.9893415516
20
-3.3231087705
30
0.0000000000
10
11.9703423951
20
-3.3309255311
30
0.0000000000
10
11.9557634509
20
-3.3360029690
30
0.0000000000
10
11.9408480998
20
-3.3402973861
30
0.0000000000
10
11.9255965780
20
-3.3438091935
30
0.0000000000
10
11.9126494645
20
-3.3460760831
30
0.0000000000
10
11.9021362263
20
-3.3475010613
30
0.0000000000
10
11.8941406217
20
-3.3483782634
30
0.0000000000
10
11.8874218674
20
-3.3489454112
30
0.0000000000
10
11.8820062578
20
-3.3493021096
30
0.0000000000
10
11.8779148559
20
-3.3495214381
30
0.0000000000
10
11.8738024425
20
-3.3496919986
30
0.0000000000
10
11.8703620183
20
-3.3497933723
30
0.0000000000
10
11.8675993341
20
-3.3498501731
30
0.0000000000
10
11.8655195862
20
-3.3498806342
30
0.0000000000
10
11.8637831598
20
-3.3498958499
30
0.0000000000
10
11.8625657585
20
-3.3499011764
30
0.0000000000
10
11.8618690148
20
-3.3499026987
30
0.0000000000
10
11.8613758590
20
-3.3499030596
30
0.0000000000
10
11.8609124637
20
-3.3499027736
30
0.0000000000
10
11.8603347140
20
-3.3499016952
30
0.0000000000
10
11.8593251408
20
-3.3498979261
30
0.0000000000
10
11.8578850226
20
-3.3498871570
30
0.0000000000
10
11.8561599765
20
-3.3498655998
30
0.0000000000
10
11.8538680158
20
-3.3498254000
30
0.0000000000
10
11.8510132113
20
-3.3497536537
30
0.0000000000
10
11.8464722108
20
-3.3495930684
30
0.0000000000
10
11.8408359984
20
-3.3493065815
30
0.0000000000
10
11.8341234588
20
-3.3488239601
30
0.0000000000
10
11.8274765933
20
-3.3482032425
30
0.0000000000
10
11.8187332037
20
-3.3471951350
30
0.0000000000
10
11.8079587924
20
-3.3455922128
30
0.0000000000
10
11.7952460884
20
-3.3431083864
30
0.0000000000
10
11.7787150831
20
-3.3390760005
30
0.0000000000
10
11.7586267255
20
-3.3326424449
30
0.0000000000
10
11.7354863687
20
-3.3226612498
30
0.0000000000
10
11.7134092668
20
-3.3104508384
30
0.0000000000
10
11.6959756644
20
-3.2984740600
30
0.0000000000
10
11.6826052105
20
-3.2878315891
30
0.0000000000
10
11.6728013797
20
-3.2792853153
30
0.0000000000
10
11.6633431281
20
-3.2701897064
30
0.0000000000
10
11.6512533015
20
-3.2572411711
30
0.0000000000
10
11.6371953042
20
-3.2396058583
30
0.0000000000
10
11.6221913921
20
-3.2163677144
30
0.0000000000
10
11.6041623640
20
-3.1817421716
30
0.0000000000
10
11.5862610586
20
-3.1324034575
30
0.0000000000
10
11.5775114900
20
-3.0904427527
30
0.0000000000
10
11.5741307727
20
-3.0682620181
30
0.0000000000
11
12.1195128938
21
-3.2065138614
31
0.0000000000
11
12.1170555239
21
-3.2103012521
31
0.0000000000
11
12.1074703742
21
-3.2240570200
31
0.0000000000
11
12.0971752135
21
-3.2373035814
31
0.0000000000
11
12.0917613790
21
-3.2437359098
31
0.0000000000
11
12.0861700417
21
-3.2500409366
31
0.0000000000
11
12.0804479012
21
-3.2561847911
31
0.0000000000
11
12.0746416569
21
-3.2621336027
31
0.0000000000
11
12.0627768569
21
-3.2734460967
31
0.0000000000
11
12.0505756419
21
-3.2839784187
31
0.0000000000
11
12.0380380118
21
-3.2937305687
31
0.0000000000
11
12.0119535064
21
-3.3108943528
31
0.0000000000
11
11.9845233407
21
-3.3249374488
31
0.0000000000
11
11.9703036353
21
-3.3307887388
31
0.0000000000
11
11.9557475147
21
-3.3358598568
31
0.0000000000
11
11.9408549791
21
-3.3401508028
31
0.0000000000
11
11.9256260284
21
-3.3436615768
31
0.0000000000
11
11.9100606627
21
-3.3463921788
31
0.0000000000
11
11.9021518241
21
-3.3474649153
31
0.0000000000
11
11.8941588818
21
-3.3483426088
31
0.0000000000
11
11.8860818358
21
-3.3490252593
31
0.0000000000
11
11.8820117738
21
-3.3492934435
31
0.0000000000
11
11.8779206859
21
-3.3495128668
31
0.0000000000
11
11.8738085721
21
-3.3496835295
31
0.0000000000
11
11.8696754323
21
-3.3498054313
31
0.0000000000
11
11.8676009777
21
-3.3498480970
31
0.0000000000
11
11.8655212666
21
-3.3498785725
31
0.0000000000
11
11.8634362990
21
-3.3498968577
31
0.0000000000
11
11.8623918440
21
-3.3499014291
31
0.0000000000
11
11.8618691237
21
-3.3499025719
31
0.0000000000
11
11.8613460749
21
-3.3499029528
31
0.0000000000
11
11.8609123784
21
-3.3499026832
31
0.0000000000
11
11.8604789387
21
-3.3499018745
31
0.0000000000
11
11.8596128301
21
-3.3498986394
31
0.0000000000
11
11.8578836958
21
-3.3498856992
31
0.0000000000
11
11.8561586719
21
-3.3498641321
31
0.0000000000
11
11.8544377585
21
-3.3498339381
31
0.0000000000
11
11.8510082632
21
-3.3497476697
31
0.0000000000
11
11.8475952099
21
-3.3496268939
31
0.0000000000
11
11.8408184289
21
-3.3492818203
31
0.0000000000
11
11.8341074157
21
-3.3487987172
31
0.0000000000
11
11.8274621702
21
-3.3481775846
31
0.0000000000
11
11.8208826924
21
-3.3474184226
31
0.0000000000
11
11.8079210400
21
-3.3454860102
31
0.0000000000
11
11.7952224585
21
-3.3430014799
31
0.0000000000
11
11.7827869479
21
-3.3399648318
31
0.0000000000
11
11.7587051394
21
-3.3322351821
31
0.0000000000
11
11.7356756144
21
-3.3222970611
31
0.0000000000
11
11.7136983731
21
-3.3101504687
31
0.0000000000
11
11.6927734153
21
-3.2957954050
31
0.0000000000
11
11.6827055428
21
-3.2877896964
31
0.0000000000
11
11.6729007411
21
-3.2792318700
31
0.0000000000
11
11.6634462337
21
-3.2701260005
31
0.0000000000
11
11.6544292440
21
-3.2604761630
31
0.0000000000
11
11.6377078173
21
-3.2395445836
31
0.0000000000
11
11.6227364611
21
-3.2164371316
31
0.0000000000
11
11.6095151754
21
-3.1911538072
31
0.0000000000
11
11.5883228153
21
-3.1340595408
31
0.0000000000
11
11.5741307727
21
-3.0682620181
31
0.0000000000
0
SPLINE
5
2E7
100
AcDbEntity
8
0
100
AcDbSpline
62
7
6
CONTINUOUS
70
0
71
3
72
65
73
61
74
59
42
0.0000001000
43
0.0000001000
44
0.0000000001
12
-0.1116893520
22
0.9743564953
32
0.0000000000
13
-0.8027038157
23
-0.5633561307
33
0.0000000000
40
0.0000000000
40
0.0000000000
40
0.0000000000
40
0.0000000000
40
0.0164023103
40
0.0383873596
40
0.0814393170
40
0.1235335662
40
0.1649936218
40
0.2061579535
40
0.2473723174
40
0.2681114990
40
0.2889917056
40
0.3100544007
40
0.3312475737
40
0.3521863355
40
0.3728539595
40
0.4135140601
40
0.4535445871
40
0.4932678923
40
0.5330138030
40
0.5731115888
40
0.5933980505
40
0.6138915466
40
0.6346296734
40
0.6451024171
40
0.6556498035
40
0.6662761430
40
0.6716203058
40
0.6769857791
40
0.6823730745
40
0.6850750716
40
0.6877827131
40
0.6891386710
40
0.6904960634
40
0.6911753000
40
0.6918548981
40
0.6925110765
40
0.6927678843
40
0.6930246726
40
0.6940516308
40
0.6950782814
40
0.6961046293
40
0.6971306793
40
0.6991819045
40
0.7012319974
40
0.7053289348
40
0.7094218174
40
0.7135109624
40
0.7216792332
40
0.7298363799
40
0.7379849668
40
0.7461275660
40
0.7624044703
40
0.7786883861
40
0.7949999359
40
0.8113596381
40
0.8277878304
40
0.8609248073
40
0.8945724398
40
0.9288802566
40
1.0000000000
40
1.0000000000
40
1.0000000000
40
1.0000000000
10
12.3671628071
20
-2.8977111871
30
0.0000000000
10
12.3665521527
20
-2.8923839546
30
0.0000000000
10
12.3649467824
20
-2.8799365898
30
0.0000000000
10
12.3606375209
20
-2.8536604469
30
0.0000000000
10
12.3528691687
20
-2.8194674471
30
0.0000000000
10
12.3402456910
20
-2.7799986074
30
0.0000000000
10
12.3243823825
20
-2.7423810154
30
0.0000000000
10
12.3052810954
20
-2.7066261096
30
0.0000000000
10
12.2867002515
20
-2.6784400966
30
0.0000000000
10
12.2702879678
20
-2.6568942080
30
0.0000000000
10
12.2571482206
20
-2.6411626821
30
0.0000000000
10
12.2432251628
20
-2.6259190796
30
0.0000000000
10
12.2286446322
20
-2.6112772501
30
0.0000000000
10
12.2135878877
20
-2.5973146889
30
0.0000000000
10
12.1931183629
20
-2.5798642495
30
0.0000000000
10
12.1665521401
20
-2.5599889708
30
0.0000000000
10
12.1330212149
20
-2.5392731029
30
0.0000000000
10
12.0980113802
20
-2.5218219825
30
0.0000000000
10
12.0615322779
20
-2.5076416081
30
0.0000000000
10
12.0300292638
20
-2.4985851423
30
0.0000000000
10
12.0041872123
20
-2.4929715284
30
0.0000000000
10
11.9843633259
20
-2.4895563107
30
0.0000000000
10
11.9675952938
20
-2.4873944657
30
0.0000000000
10
11.9540088588
20
-2.4860676835
30
0.0000000000
10
11.9436939138
20
-2.4852720278
30
0.0000000000
10
11.9350389490
20
-2.4847789078
30
0.0000000000
10
11.9280705616
20
-2.4844852297
30
0.0000000000
10
11.9228113246
20
-2.4843152173
30
0.0000000000
10
11.9184141673
20
-2.4842158718
30
0.0000000000
10
11.9148851816
20
-2.4841616552
30
0.0000000000
10
11.9126737009
20
-2.4841383038
30
0.0000000000
10
11.9109016840
20
-2.4841259462
30
0.0000000000
10
11.9097926976
20
-2.4841208601
30
0.0000000000
10
11.9089047981
20
-2.4841183712
30
0.0000000000
10
11.9082461146
20
-2.4841173142
30
0.0000000000
10
11.9077255173
20
-2.4841170690
30
0.0000000000
10
11.9073431318
20
-2.4841172294
30
0.0000000000
10
11.9068395429
20
-2.4841177214
30
0.0000000000
10
11.9060843025
20
-2.4841194877
30
0.0000000000
10
11.9050775103
20
-2.4841240440
30
0.0000000000
10
11.9040710272
20
-2.4841307996
30
0.0000000000
10
11.9027296532
20
-2.4841427382
30
0.0000000000
10
11.9010536948
20
-2.4841631584
30
0.0000000000
10
11.8983741420
20
-2.4842075550
30
0.0000000000
10
11.8950276848
20
-2.4842850325
30
0.0000000000
10
11.8910158294
20
-2.4844132268
30
0.0000000000
10
11.8856754897
20
-2.4846309901
30
0.0000000000
10
11.8790115522
20
-2.4849911295
30
0.0000000000
10
11.8710314398
20
-2.4855642882
30
0.0000000000
10
11.8630710776
20
-2.4862782728
30
0.0000000000
10
11.8524856490
20
-2.4874177828
30
0.0000000000
10
11.8392963135
20
-2.4891950604
30
0.0000000000
10
11.8235464251
20
-2.4918919020
30
0.0000000000
10
11.8078758367
20
-2.4951525198
30
0.0000000000
10
11.7922845526
20
-2.4989769781
30
0.0000000000
10
11.7715446422
20
-2.5048439734
30
0.0000000000
10
11.7457721777
20
-2.5136163438
30
0.0000000000
10
11.7152603562
20
-2.5263731567
30
0.0000000000
10
11.6745331765
20
-2.5466285564
30
0.0000000000
10
11.6451852862
20
-2.5649031907
30
0.0000000000
10
11.6261559231
20
-2.5782584385
30
0.0000000000
11
12.3671628071
21
-2.8977111871
31
0.0000000000
11
12.3651025060
21
-2.8817581146
31
0.0000000000
11
12.3616065968
21
-2.8604834648
31
0.0000000000
11
12.3522077588
21
-2.8193233925
31
0.0000000000
11
12.3395995616
21
-2.7800156229
31
0.0000000000
11
12.3237820050
21
-2.7425601560
31
0.0000000000
11
12.3047550891
21
-2.7069569920
31
0.0000000000
11
12.2825188140
21
-2.6732061307
31
0.0000000000
11
12.2701971666
21
-2.6570253136
31
0.0000000000
11
12.2570731795
21
-2.6413075722
31
0.0000000000
11
12.2431468525
21
-2.6260529065
31
0.0000000000
11
12.2284896198
21
-2.6113180753
31
0.0000000000
11
12.2134273991
21
-2.5973620413
31
0.0000000000
11
12.1980003723
21
-2.5842167313
31
0.0000000000
11
12.1660518998
21
-2.5603582830
31
0.0000000000
11
12.1326442024
21
-2.5397427307
31
0.0000000000
11
12.0977772800
21
-2.5223700742
31
0.0000000000
11
12.0614511326
21
-2.5082403136
31
0.0000000000
11
12.0236657603
21
-2.4973534489
31
0.0000000000
11
12.0042258648
21
-2.4931261025
31
0.0000000000
11
11.9844211630
21
-2.4897094801
31
0.0000000000
11
11.9642516550
21
-2.4871035816
31
0.0000000000
11
11.9540300987
21
-2.4861046538
31
0.0000000000
11
11.9437173408
21
-2.4853084071
31
0.0000000000
11
11.9333133813
21
-2.4847148413
31
0.0000000000
11
11.9280772010
21
-2.4844940638
31
0.0000000000
11
11.9228182203
21
-2.4843239565
31
0.0000000000
11
11.9175364392
21
-2.4842045195
31
0.0000000000
11
11.9148869985
21
-2.4841638024
31
0.0000000000
11
11.9122318577
21
-2.4841357528
31
0.0000000000
11
11.9109021498
21
-2.4841264783
31
0.0000000000
11
11.9095710168
21
-2.4841203707
31
0.0000000000
11
11.9089049160
21
-2.4841185045
31
0.0000000000
11
11.9082384588
21
-2.4841174300
31
0.0000000000
11
11.9075949678
21
-2.4841171448
31
0.0000000000
11
11.9073431254
21
-2.4841172528
31
0.0000000000
11
11.9070913023
21
-2.4841174983
31
0.0000000000
11
11.9060842032
21
-2.4841198551
31
0.0000000000
11
11.9050774134
21
-2.4841244114
31
0.0000000000
11
11.9040709328
21
-2.4841311673
31
0.0000000000
11
11.9030647614
21
-2.4841401229
31
0.0000000000
11
11.9010533463
21
-2.4841646328
31
0.0000000000
11
11.8990431681
21
-2.4841979412
31
0.0000000000
11
11.8950265224
21
-2.4842909533
31
0.0000000000
11
11.8910148243
21
-2.4844191591
31
0.0000000000
11
11.8870080738
21
-2.4845825587
31
0.0000000000
11
11.8790094157
21
-2.4850149391
31
0.0000000000
11
11.8710305481
21
-2.4855880945
31
0.0000000000
11
11.8630714710
21
-2.4863020250
31
0.0000000000
11
11.8551321843
21
-2.4871567305
31
0.0000000000
11
11.8393129823
21
-2.4892884665
31
0.0000000000
11
11.8235729422
21
-2.4919833026
31
0.0000000000
11
11.8079120639
21
-2.4952412388
31
0.0000000000
11
11.7923303475
21
-2.4990622751
31
0.0000000000
11
11.7768277929
21
-2.5034464114
31
0.0000000000
11
11.7460601694
21
-2.5139039844
31
0.0000000000
11
11.7156091933
21
-2.5266139577
31
0.0000000000
11
11.6854748646
21
-2.5415763314
31
0.0000000000
11
11.6261559231
21
-2.5782584385
31
0.0000000000
0
SPLINE
5
2E8
100
AcDbEntity
8
0
100
AcDbSpline
62
7
6
CONTINUOUS
70
0
71
3
72
28
73
24
74
22
42
0.0000001000
43
0.0000001000
44
0.0000000001
12
-0.3401832734
22
0.0599834895
32
0.0000000000
13
0.3454311488
23
0.0000000000
33
0.0000000000
40
0.0000000000
40
0.0000000000
40
0.0000000000
40
0.0000000000
40
0.0062446498
40
0.0155145714
40
0.0286929178
40
0.0458955894
40
0.0671846726
40
0.0923004601
40
0.1210434097
40
0.1536612948
40
0.1901351798
40
0.2302646852
40
0.2738001058
40
0.3209401099
40
0.3721859970
40
0.4280457127
40
0.4890170073
40
0.5555649765
40
0.6281136611
40
0.7073845090
40
0.7947636072
40
0.8917951501
40
1.0000000000
40
1.0000000000
40
1.0000000000
40
1.0000000000
10
-19.2457121044
20
20.3492439283
30
0.0000000000
10
-19.2464202129
20
20.3493687869
30
0.0000000000
10
-19.2422242816
20
20.3493502802
30
0.0000000000
10
-19.2403540585
20
20.3494439381
30
0.0000000000
10
-19.2351591809
20
20.3494779191
30
0.0000000000
10
-19.2294605330
20
20.3495351352
30
0.0000000000
10
-19.2220446672
20
20.3495808420
30
0.0000000000
10
-19.2134236381
20
20.3496276219
30
0.0000000000
10
-19.2034560655
20
20.3496707524
30
0.0000000000
10
-19.1921944527
20
20.3497118011
30
0.0000000000
10
-19.1796173018
20
20.3497502273
30
0.0000000000
10
-19.1657844481
20
20.3497860238
30
0.0000000000
10
-19.1507230183
20
20.3498191062
30
0.0000000000
10
-19.1343817295
20
20.3498496078
30
0.0000000000
10
-19.1166213299
20
20.3498776806
30
0.0000000000
10
-19.0972683510
20
20.3499033860
30
0.0000000000
10
-19.0761534256
20
20.3499266517
30
0.0000000000
10
-19.0531168679
20
20.3499473022
30
0.0000000000
10
-19.0279732283
20
20.3499651108
30
0.0000000000
10
-19.0004310129
20
20.3499798271
30
0.0000000000
10
-18.9700697483
20
20.3499911014
30
0.0000000000
10
-18.9363769139
20
20.3499983961
30
0.0000000000
10
-18.9127452329
20
20.3500000000
30
0.0000000000
10
-18.9002861243
20
20.3500000000
30
0.0000000000
11
-19.2457121044
21
20.3492439283
31
0.0000000000
11
-19.2435584134
21
20.3493650916
31
0.0000000000
11
-19.2403567989
21
20.3494219659
31
0.0000000000
11
-19.2358049070
21
20.3494759012
31
0.0000000000
11
-19.2298627935
21
20.3495276213
31
0.0000000000
11
-19.2225090479
21
20.3495771539
31
0.0000000000
11
-19.2138333985
21
20.3496239146
31
0.0000000000
11
-19.2039047852
21
20.3496677537
31
0.0000000000
11
-19.1926376277
21
20.3497091399
31
0.0000000000
11
-19.1800384717
21
20.3497480058
31
0.0000000000
11
-19.1661765376
21
20.3497841419
31
0.0000000000
11
-19.1511380840
21
20.3498174004
31
0.0000000000
11
-19.1348544870
21
20.3498479818
31
0.0000000000
11
-19.1171525837
21
20.3498761283
31
0.0000000000
11
-19.0978569152
21
20.3499019081
31
0.0000000000
11
-19.0767955438
21
20.3499252546
31
0.0000000000
11
-19.0538078117
21
20.3499459931
31
0.0000000000
11
-19.0287472426
21
20.3499638682
31
0.0000000000
11
-19.0013646265
21
20.3499786207
31
0.0000000000
11
-18.9711811664
21
20.3499899506
31
0.0000000000
11
-18.9376634499
21
20.3499973324
31
0.0000000000
11
-18.9002861243
21
20.3500000000
31
0.0000000000
0
SPLINE
5
2E9
100
AcDbEntity
8
0
100
AcDbSpline
62
7
6
CONTINUOUS
70
0
71
3
72
29
73
25
74
23
42
0.0000001000
43
0.0000001000
44
0.0000000001
12
0.3454310002
22
0.0000000000
32
0.0000000000
13
-0.3401831271
23
-0.0599834637
33
0.0000000000
40
0.0000000000
40
0.0000000000
40
0.0000000000
40
0.0000000000
40
0.1006411083
40
0.1924132453
40
0.2758594321
40
0.3515958016
40
0.4203071100
40
0.4827154945
40
0.5395591484
40
0.5915780324
40
0.6395047735
40
0.6840578622
40
0.7259346344
40
0.7659208863
40
0.8043280806
40
0.8405318722
40
0.8738602642
40
0.9038620198
40
0.9301900231
40
0.9525258370
40
0.9706433416
40
0.9843531494
40
0.9937417640
40
1.0000000000
40
1.0000000000
40
1.0000000000
40
1.0000000000
10
18.9002862699
20
20.3500000000
30
0.0000000000
10
18.9118744561
20
20.3500000000
30
0.0000000000
10
18.9340296228
20
20.3499986007
30
0.0000000000
10
18.9657930887
20
20.3499922135
30
0.0000000000
10
18.9946889307
20
20.3499822375
30
0.0000000000
10
19.0209294628
20
20.3499692155
30
0.0000000000
10
19.0447476233
20
20.3499536160
30
0.0000000000
10
19.0663904051
20
20.3499358156
30
0.0000000000
10
19.0861111571
20
20.3499160859
30
0.0000000000
10
19.1041644376
20
20.3498945798
30
0.0000000000
10
19.1208025310
20
20.3498713149
30
0.0000000000
10
19.1362728299
20
20.3498461517
30
0.0000000000
10
19.1508287936
20
20.3498187319
30
0.0000000000
10
19.1646772032
20
20.3497885193
30
0.0000000000
10
19.1778719988
20
20.3497550007
30
0.0000000000
10
19.1903015302
20
20.3497179943
30
0.0000000000
10
19.2017587026
20
20.3496774289
30
0.0000000000
10
19.2120931948
20
20.3496340093
30
0.0000000000
10
19.2211171728
20
20.3495862849
30
0.0000000000
10
19.2289048310
20
20.3495395250
30
0.0000000000
10
19.2348730914
20
20.3494803526
30
0.0000000000
10
19.2402813744
20
20.3494459466
30
0.0000000000
10
19.2421951631
20
20.3493502848
30
0.0000000000
10
19.2464217532
20
20.3493690585
30
0.0000000000
10
19.2457121044
20
20.3492439283
30
0.0000000000
11
18.9002862699
21
20.3500000000
31
0.0000000000
11
18.9350508285
21
20.3499977002
31
0.0000000000
11
18.9667517690
21
20.3499912229
31
0.0000000000
11
18.9955766670
21
20.3499811704
31
0.0000000000
11
19.0217383536
21
20.3499680886
31
0.0000000000
11
19.0454733644
21
20.3499524462
31
0.0000000000
11
19.0670311477
21
20.3499346193
31
0.0000000000
11
19.0866666980
21
20.3499148780
31
0.0000000000
11
19.1046356203
21
20.3498933731
31
0.0000000000
11
19.1211909861
21
20.3498701189
31
0.0000000000
11
19.1365809835
21
20.3498449703
31
0.0000000000
11
19.1510464929
21
20.3498175870
31
0.0000000000
11
19.1648589506
21
20.3497872806
31
0.0000000000
11
19.1781259428
21
20.3497533607
31
0.0000000000
11
19.1906317983
21
20.3497157887
31
0.0000000000
11
19.2021443849
21
20.3496747274
31
0.0000000000
11
19.2125078260
21
20.3496302744
31
0.0000000000
11
19.2216022092
21
20.3495825308
31
0.0000000000
11
19.2293175245
21
20.3495317334
31
0.0000000000
11
19.2355756432
21
20.3494781951
31
0.0000000000
11
19.2403111097
21
20.3494226159
31
0.0000000000
11
19.2435537200
21
20.3493652007
31
0.0000000000
11
19.2457121044
21
20.3492439283
31
0.0000000000
0
SPLINE
5
2EA
100
AcDbEntity
8
0
100
AcDbSpline
62
7
6
CONTINUOUS
70
0
71
3
72
13
73
9
74
7
42
0.0000001000
43
0.0000001000
44
0.0000000001
12
0.0000000000
22
0.2500009314
32
0.0000000000
13
-0.0012596036
23
0.2499977582
33
0.0000000000
40
0.0000000000
40
0.0000000000
40
0.0000000000
40
0.0000000000
40
0.1741037835
40
0.3473431916
40
0.5176227793
40
0.6839717876
40
0.8454142170
40
1.0000000000
40
1.0000000000
40
1.0000000000
40
1.0000000000
10
-21.1107290949
20
5.1267949192
30
0.0000000000
10
-21.1107290949
20
5.1413036219
30
0.0000000000
10
-21.1107400690
20
5.1702489969
30
0.0000000000
10
-21.1107894211
20
5.2133843651
30
0.0000000000
10
-21.1108713018
20
5.2558734494
30
0.0000000000
10
-21.1109850247
20
5.2973793719
30
0.0000000000
10
-21.1111296999
20
5.3375773680
30
0.0000000000
10
-21.1112487786
20
5.3639128862
30
0.0000000000
10
-21.1113136842
20
5.3767949192
30
0.0000000000
11
-21.1107290949
21
5.1267949192
31
0.0000000000
11
-21.1107456596
21
5.1703210241
31
0.0000000000
11
-21.1107954038
21
5.2136310089
31
0.0000000000
11
-21.1108777673
21
5.2562009848
31
0.0000000000
11
-21.1109921890
21
5.2977882344
31
0.0000000000
11
-21.1111380966
21
5.3381487284
31
0.0000000000
11
-21.1113136842
21
5.3767949192
31
0.0000000000
0
SPLINE
5
2EB
100
AcDbEntity
8
0
100
AcDbSpline
62
7
6
CONTINUOUS
70
0
71
3
72
13
73
9
74
7
42
0.0000001000
43
0.0000001000
44
0.0000000001
12
-0.0012596036
22
-0.2499977582
32
0.0000000000
13
-0.0000000000
23
-0.2500009314
33
0.0000000000
40
0.0000000000
40
0.0000000000
40
0.0000000000
40
0.0000000000
40
0.1545857830
40
0.3160282124
40
0.4823772207
40
0.6526568084
40
0.8258962165
40
1.0000000000
40
1.0000000000
40
1.0000000000
40
1.0000000000
10
21.1113136842
20
5.3767949192
30
0.0000000000
10
21.1112487786
20
5.3639128862
30
0.0000000000
10
21.1111296999
20
5.3375773680
30
0.0000000000
10
21.1109850247
20
5.2973793719
30
0.0000000000
10
21.1108713018
20
5.2558734494
30
0.0000000000
10
21.1107894211
20
5.2133843651
30
0.0000000000
10
21.1107400690
20
5.1702489969
30
0.0000000000
10
21.1107290949
20
5.1413036219
30
0.0000000000
10
21.1107290949
20
5.1267949192
30
0.0000000000
11
21.1113136842
21
5.3767949192
31
0.0000000000
11
21.1111380966
21
5.3381487284
31
0.0000000000
11
21.1109921890
21
5.2977882344
31
0.0000000000
11
21.1108777673
21
5.2562009848
31
0.0000000000
11
21.1107954038
21
5.2136310089
31
0.0000000000
11
21.1107456596
21
5.1703210241
31
0.0000000000
11
21.1107290949
21
5.1267949192
31
0.0000000000
0
SPLINE
5
2EC
100
AcDbEntity
8
0
100
AcDbSpline
62
7
6
CONTINUOUS
70
0
71
3
72
13
73
9
74
7
42
0.0000001000
43
0.0000001000
44
0.0000000001
12
0.0000000000
22
-0.2500009314
32
0.0000000000
13
0.0012596036
23
-0.2499977582
33
0.0000000000
40
0.0000000000
40
0.0000000000
40
0.0000000000
40
0.0000000000
40
0.1741037835
40
0.3473431916
40
0.5176227793
40
0.6839717876
40
0.8454142170
40
1.0000000000
40
1.0000000000
40
1.0000000000
40
1.0000000000
10
21.1107290949
20
-5.1267949192
30
0.0000000000
10
21.1107290949
20
-5.1413036219
30
0.0000000000
10
21.1107400690
20
-5.1702489969
30
0.0000000000
10
21.1107894211
20
-5.2133843651
30
0.0000000000
10
21.1108713018
20
-5.2558734494
30
0.0000000000
10
21.1109850247
20
-5.2973793719
30
0.0000000000
10
21.1111296999
20
-5.3375773680
30
0.0000000000
10
21.1112487786
20
-5.3639128862
30
0.0000000000
10
21.1113136842
20
-5.3767949192
30
0.0000000000
11
21.1107290949
21
-5.1267949192
31
0.0000000000
11
21.1107456596
21
-5.1703210241
31
0.0000000000
11
21.1107954038
21
-5.2136310089
31
0.0000000000
11
21.1108777673
21
-5.2562009848
31
0.0000000000
11
21.1109921890
21
-5.2977882344
31
0.0000000000
11
21.1111380966
21
-5.3381487284
31
0.0000000000
11
21.1113136842
21
-5.3767949192
31
0.0000000000
0
SPLINE
5
2ED
100
AcDbEntity
8
0
100
AcDbSpline
62
7
6
CONTINUOUS
70
0
71
3
72
13
73
9
74
7
42
0.0000001000
43
0.0000001000
44
0.0000000001
12
0.0012596036
22
0.2499977582
32
0.0000000000
13
-0.0000000000
23
0.2500009314
33
0.0000000000
40
0.0000000000
40
0.0000000000
40
0.0000000000
40
0.0000000000
40
0.1545857830
40
0.3160282124
40
0.4823772207
40
0.6526568084
40
0.8258962165
40
1.0000000000
40
1.0000000000
40
1.0000000000
40
1.0000000000
10
-21.1113136842
20
-5.3767949192
30
0.0000000000
10
-21.1112487786
20
-5.3639128862
30
0.0000000000
10
-21.1111296999
20
-5.3375773680
30
0.0000000000
10
-21.1109850247
20
-5.2973793719
30
0.0000000000
10
-21.1108713018
20
-5.2558734494
30
0.0000000000
10
-21.1107894211
20
-5.2133843651
30
0.0000000000
10
-21.1107400690
20
-5.1702489969
30
0.0000000000
10
-21.1107290949
20
-5.1413036219
30
0.0000000000
10
-21.1107290949
20
-5.1267949192
30
0.0000000000
11
-21.1113136842
21
-5.3767949192
31
0.0000000000
11
-21.1111380966
21
-5.3381487284
31
0.0000000000
11
-21.1109921890
21
-5.2977882344
31
0.0000000000
11
-21.1108777673
21
-5.2562009848
31
0.0000000000
11
-21.1107954038
21
-5.2136310089
31
0.0000000000
11
-21.1107456596
21
-5.1703210241
31
0.0000000000
11
-21.1107290949
21
-5.1267949192
31
0.0000000000
0
SPLINE
5
2EE
100
AcDbEntity
8
0
100
AcDbSpline
62
7
6
CONTINUOUS
70
0
71
3
72
13
73
9
74
7
42
0.0000001000
43
0.0000001000
44
0.0000000001
12
0.0000000000
22
-0.2500009314
32
0.0000000000
13
-0.0012596036
23
-0.2499977582
33
0.0000000000
40
0.0000000000
40
0.0000000000
40
0.0000000000
40
0.0000000000
40
0.1741127057
40
0.3473627646
40
0.5176475192
40
0.6839904653
40
0.8454223349
40
1.0000000000
40
1.0000000000
40
1.0000000000
40
1.0000000000
10
21.1159652156
20
6.4339745962
30
0.0000000000
10
21.1159652156
20
6.4194651500
30
0.0000000000
10
21.1159542404
20
6.3905181439
30
0.0000000000
10
21.1159048832
20
6.3473807140
30
0.0000000000
10
21.1158229966
20
6.3048908168
30
0.0000000000
10
21.1157092717
20
6.2633858489
30
0.0000000000
10
21.1155646009
20
6.2231899145
30
0.0000000000
10
21.1154455285
20
6.1968559528
30
0.0000000000
10
21.1153806263
20
6.1839745962
30
0.0000000000
11
21.1159652156
21
6.4339745962
31
0.0000000000
11
21.1159486492
21
6.3904462608
31
0.0000000000
11
21.1158988993
21
6.3471336133
31
0.0000000000
11
21.1158165288
21
6.3045623457
31
0.0000000000
11
21.1157021067
21
6.2629766116
31
0.0000000000
11
21.1155562057
21
6.2226187576
31
0.0000000000
11
21.1153806263
21
6.1839745962
31
0.0000000000
0
SPLINE
5
2EF
100
AcDbEntity
8
0
100
AcDbSpline
62
7
6
CONTINUOUS
70
0
71
3
72
13
73
9
74
7
42
0.0000001000
43
0.0000001000
44
0.0000000001
12
-0.0012596036
22
0.2499977582
32
0.0000000000
13
0.0000000000
23
0.2500009314
33
0.0000000000
40
0.0000000000
40
0.0000000000
40
0.0000000000
40
0.0000000000
40
0.1545776651
40
0.3160095347
40
0.4823524808
40
0.6526372354
40
0.8258872943
40
1.0000000000
40
1.0000000000
40
1.0000000000
40
1.0000000000
10
-21.1153806263
20
6.1839745962
30
0.0000000000
10
-21.1154455285
20
6.1968559528
30
0.0000000000
10
-21.1155646009
20
6.2231899145
30
0.0000000000
10
-21.1157092717
20
6.2633858489
30
0.0000000000
10
-21.1158229966
20
6.3048908168
30
0.0000000000
10
-21.1159048832
20
6.3473807140
30
0.0000000000
10
-21.1159542404
20
6.3905181439
30
0.0000000000
10
-21.1159652156
20
6.4194651500
30
0.0000000000
10
-21.1159652156
20
6.4339745962
30
0.0000000000
11
-21.1153806263
21
6.1839745962
31
0.0000000000
11
-21.1155562057
21
6.2226187576
31
0.0000000000
11
-21.1157021067
21
6.2629766116
31
0.0000000000
11
-21.1158165288
21
6.3045623457
31
0.0000000000
11
-21.1158988993
21
6.3471336133
31
0.0000000000
11
-21.1159486492
21
6.3904462608
31
0.0000000000
11
-21.1159652156
21
6.4339745962
31
0.0000000000
0
SPLINE
5
2F0
100
AcDbEntity
8
0
100
AcDbSpline
62
7
6
CONTINUOUS
70
0
71
3
72
13
73
9
74
7
42
0.0000001000
43
0.0000001000
44
0.0000000001
12
0.0012596036
22
-0.2499977582
32
0.0000000000
13
-0.0000000000
23
-0.2500009314
33
0.0000000000
40
0.0000000000
40
0.0000000000
40
0.0000000000
40
0.0000000000
40
0.1545857830
40
0.3160282124
40
0.4823772207
40
0.6526568084
40
0.8258962165
40
1.0000000000
40
1.0000000000
40
1.0000000000
40
1.0000000000
10
21.1153806263
20
-6.1839745962
30
0.0000000000
10
21.1154455319
20
-6.1968566293
30
0.0000000000
10
21.1155646107
20
-6.2231921474
30
0.0000000000
10
21.1157092859
20
-6.2633901435
30
0.0000000000
10
21.1158230088
20
-6.3048960661
30
0.0000000000
10
21.1159048895
20
-6.3473851503
30
0.0000000000
10
21.1159542416
20
-6.3905205185
30
0.0000000000
10
21.1159652156
20
-6.4194658935
30
0.0000000000
10
21.1159652156
20
-6.4339745962
30
0.0000000000
11
21.1153806263
21
-6.1839745962
31
0.0000000000
11
21.1155562140
21
-6.2226207871
31
0.0000000000
11
21.1157021216
21
-6.2629812811
31
0.0000000000
11
21.1158165433
21
-6.3045685306
31
0.0000000000
11
21.1158989068
21
-6.3471385065
31
0.0000000000
11
21.1159486509
21
-6.3904484913
31
0.0000000000
11
21.1159652156
21
-6.4339745962
31
0.0000000000
0
SPLINE
5
2F1
100
AcDbEntity
8
0
100
AcDbSpline
62
7
6
CONTINUOUS
70
0
71
3
72
13
73
9
74
7
42
0.0000001000
43
0.0000001000
44
0.0000000001
12
0.0000000000
22
0.2500009314
32
0.0000000000
13
0.0012596036
23
0.2499977582
33
0.0000000000
40
0.0000000000
40
0.0000000000
40
0.0000000000
40
0.0000000000
40
0.1741037835
40
0.3473431916
40
0.5176227793
40
0.6839717876
40
0.8454142170
40
1.0000000000
40
1.0000000000
40
1.0000000000
40
1.0000000000
10
-21.1159652156
20
-6.4339745962
30
0.0000000000
10
-21.1159652156
20
-6.4194658935
30
0.0000000000
10
-21.1159542416
20
-6.3905205185
30
0.0000000000
10
-21.1159048895
20
-6.3473851503
30
0.0000000000
10
-21.1158230088
20
-6.3048960661
30
0.0000000000
10
-21.1157092859
20
-6.2633901435
30
0.0000000000
10
-21.1155646107
20
-6.2231921474
30
0.0000000000
10
-21.1154455319
20
-6.1968566293
30
0.0000000000
10
-21.1153806263
20
-6.1839745962
30
0.0000000000
11
-21.1159652156
21
-6.4339745962
31
0.0000000000
11
-21.1159486509
21
-6.3904484913
31
0.0000000000
11
-21.1158989068
21
-6.3471385065
31
0.0000000000
11
-21.1158165433
21
-6.3045685306
31
0.0000000000
11
-21.1157021216
21
-6.2629812811
31
0.0000000000
11
-21.1155562140
21
-6.2226207871
31
0.0000000000
11
-21.1153806263
21
-6.1839745962
31
0.0000000000
0
SPLINE
5
2F2
100
AcDbEntity
8
0
100
AcDbSpline
62
7
6
CONTINUOUS
70
0
71
3
72
14
73
10
74
8
42
0.0000001000
43
0.0000001000
44
0.0000000001
12
0.0642068578
22
-0.0203228336
32
0.0000000000
13
0.0106120410
23
-0.0611053606
33
0.0000000000
40
0.0000000000
40
0.0000000000
40
0.0000000000
40
0.0000000000
40
0.0389317246
40
0.1096836358
40
0.2172426316
40
0.3616733369
40
0.5416916402
40
0.7553038063
40
1.0000000000
40
1.0000000000
40
1.0000000000
40
1.0000000000
10
-17.2649204226
20
-20.0000000000
30
0.0000000000
10
-17.2640871947
20
-20.0002637343
30
0.0000000000
10
-17.2622045872
20
-20.0015108156
30
0.0000000000
10
-17.2602304588
20
-20.0057678212
30
0.0000000000
10
-17.2578510068
20
-20.0119062285
30
0.0000000000
10
-17.2554021279
20
-20.0205456525
30
0.0000000000
10
-17.2527948974
20
-20.0313442043
30
0.0000000000
10
-17.2501229887
20
-20.0442751409
30
0.0000000000
10
-17.2484192058
20
-20.0535945607
30
0.0000000000
10
-17.2475536304
20
-20.0585786438
30
0.0000000000
11
-17.2649204226
21
-20.0000000000
31
0.0000000000
11
-17.2628623582
21
-20.0012626961
31
0.0000000000
11
-17.2606130669
21
-20.0050303913
31
0.0000000000
11
-17.2582010805
21
-20.0112498780
31
0.0000000000
11
-17.2556567734
21
-20.0198385312
31
0.0000000000
11
-17.2530119996
21
-20.0306854887
31
0.0000000000
11
-17.2502997207
21
-20.0436531043
31
0.0000000000
11
-17.2475536304
21
-20.0585786438
31
0.0000000000
0
SPLINE
5
2F3
100
AcDbEntity
8
0
100
AcDbSpline
62
7
6
CONTINUOUS
70
0
71
3
72
14
73
10
74
8
42
0.0000001000
43
0.0000001000
44
0.0000000001
12
0.0642068578
22
0.0203228336
32
0.0000000000
13
0.0106120410
23
0.0611053606
33
0.0000000000
40
0.0000000000
40
0.0000000000
40
0.0000000000
40
0.0000000000
40
0.0389317246
40
0.1096836358
40
0.2172426316
40
0.3616733369
40
0.5416916402
40
0.7553038063
40
1.0000000000
40
1.0000000000
40
1.0000000000
40
1.0000000000
10
-17.2649204226
20
20.0000000000
30
0.0000000000
10
-17.2640871947
20
20.0002637343
30
0.0000000000
10
-17.2622045872
20
20.0015108156
30
0.0000000000
10
-17.2602304588
20
20.0057678212
30
0.0000000000
10
-17.2578510068
20
20.0119062285
30
0.0000000000
10
-17.2554021279
20
20.0205456525
30
0.0000000000
10
-17.2527948974
20
20.0313442043
30
0.0000000000
10
-17.2501229887
20
20.0442751409
30
0.0000000000
10
-17.2484192058
20
20.0535945607
30
0.0000000000
10
-17.2475536304
20
20.0585786438
30
0.0000000000
11
-17.2649204226
21
20.0000000000
31
0.0000000000
11
-17.2628623582
21
20.0012626961
31
0.0000000000
11
-17.2606130669
21
20.0050303913
31
0.0000000000
11
-17.2582010805
21
20.0112498780
31
0.0000000000
11
-17.2556567734
21
20.0198385312
31
0.0000000000
11
-17.2530119996
21
20.0306854887
31
0.0000000000
11
-17.2502997207
21
20.0436531043
31
0.0000000000
11
-17.2475536304
21
20.0585786438
31
0.0000000000
0
SPLINE
5
2F4
100
AcDbEntity
8
0
100
AcDbSpline
62
7
6
CONTINUOUS
70
0
71
3
72
14
73
10
74
8
42
0.0000001000
43
0.0000001000
44
0.0000000001
12
-0.0642068578
22
0.0203228336
32
0.0000000000
13
-0.0106120410
23
0.0611053606
33
0.0000000000
40
0.0000000000
40
0.0000000000
40
0.0000000000
40
0.0000000000
40
0.0389317246
40
0.1096836358
40
0.2172426316
40
0.3616733369
40
0.5416916402
40
0.7553038063
40
1.0000000000
40
1.0000000000
40
1.0000000000
40
1.0000000000
10
17.2649204226
20
20.0000000000
30
0.0000000000
10
17.2640871947
20
20.0002637343
30
0.0000000000
10
17.2622045872
20
20.0015108156
30
0.0000000000
10
17.2602304588
20
20.0057678212
30
0.0000000000
10
17.2578510068
20
20.0119062285
30
0.0000000000
10
17.2554021279
20
20.0205456525
30
0.0000000000
10
17.2527948974
20
20.0313442043
30
0.0000000000
10
17.2501229887
20
20.0442751409
30
0.0000000000
10
17.2484192058
20
20.0535945607
30
0.0000000000
10
17.2475536304
20
20.0585786438
30
0.0000000000
11
17.2649204226
21
20.0000000000
31
0.0000000000
11
17.2628623582
21
20.0012626961
31
0.0000000000
11
17.2606130669
21
20.0050303913
31
0.0000000000
11
17.2582010804
21
20.0112498780
31
0.0000000000
11
17.2556567734
21
20.0198385312
31
0.0000000000
11
17.2530119996
21
20.0306854887
31
0.0000000000
11
17.2502997207
21
20.0436531043
31
0.0000000000
11
17.2475536304
21
20.0585786438
31
0.0000000000
0
SPLINE
5
2F5
100
AcDbEntity
8
0
100
AcDbSpline
62
7
6
CONTINUOUS
70
0
71
3
72
28
73
24
74
22
42
0.0000001000
43
0.0000001000
44
0.0000000001
12
0.3401831301
22
-0.0599834642
32
0.0000000000
13
-0.3454310032
23
0.0000000000
33
0.0000000000
40
0.0000000000
40
0.0000000000
40
0.0000000000
40
0.0000000000
40
0.0062446495
40
0.0155145712
40
0.0286929178
40
0.0458955896
40
0.0671846731
40
0.0923004613
40
0.1210434115
40
0.1536612969
40
0.1901351826
40
0.2302646897
40
0.2738001129
40
0.3209401191
40
0.3721860079
40
0.4280457250
40
0.4890170207
40
0.5555649910
40
0.6281136772
40
0.7073845256
40
0.7947636225
40
0.8917951605
40
1.0000000000
40
1.0000000000
40
1.0000000000
40
1.0000000000
10
19.2457121044
20
-20.3492439283
30
0.0000000000
10
19.2464202125
20
-20.3493687869
30
0.0000000000
10
19.2422242831
20
-20.3493502802
30
0.0000000000
10
19.2403540608
20
-20.3494439381
30
0.0000000000
10
19.2351591853
20
-20.3494779191
30
0.0000000000
10
19.2294605397
20
-20.3495351352
30
0.0000000000
10
19.2220446770
20
-20.3495808419
30
0.0000000000
10
19.2134236513
20
-20.3496276218
30
0.0000000000
10
19.2034560827
20
-20.3496707523
30
0.0000000000
10
19.1921944745
20
-20.3497118010
30
0.0000000000
10
19.1796173286
20
-20.3497502272
30
0.0000000000
10
19.1657844801
20
-20.3497860237
30
0.0000000000
10
19.1507230559
20
-20.3498191061
30
0.0000000000
10
19.1343817733
20
-20.3498496077
30
0.0000000000
10
19.1166213806
20
-20.3498776805
30
0.0000000000
10
19.0972684093
20
-20.3499033859
30
0.0000000000
10
19.0761534924
20
-20.3499266516
30
0.0000000000
10
19.0531169440
20
-20.3499473021
30
0.0000000000
10
19.0279733147
20
-20.3499651107
30
0.0000000000
10
19.0004311107
20
-20.3499798271
30
0.0000000000
10
18.9700698596
20
-20.3499911014
30
0.0000000000
10
18.9363770413
20
-20.3499983960
30
0.0000000000
10
18.9127453720
20
-20.3500000000
30
0.0000000000
10
18.9002862699
20
-20.3500000000
30
0.0000000000
11
19.2457121044
21
-20.3492439283
31
0.0000000000
11
19.2435584144
21
-20.3493650916
31
0.0000000000
11
19.2403568012
21
-20.3494219659
31
0.0000000000
11
19.2358049112
21
-20.3494759012
31
0.0000000000
11
19.2298628001
21
-20.3495276213
31
0.0000000000
11
19.2225090575
21
-20.3495771539
31
0.0000000000
11
19.2138334116
21
-20.3496239145
31
0.0000000000
11
19.2039048022
21
-20.3496677536
31
0.0000000000
11
19.1926376494
21
-20.3497091398
31
0.0000000000
11
19.1800384984
21
-20.3497480057
31
0.0000000000
11
19.1661765696
21
-20.3497841419
31
0.0000000000
11
19.1511381215
21
-20.3498174003
31
0.0000000000
11
19.1348545305
21
-20.3498479818
31
0.0000000000
11
19.1171526341
21
-20.3498761282
31
0.0000000000
11
19.0978569733
21
-20.3499019080
31
0.0000000000
11
19.0767956103
21
-20.3499252545
31
0.0000000000
11
19.0538078876
21
-20.3499459930
31
0.0000000000
11
19.0287473285
21
-20.3499638681
31
0.0000000000
11
19.0013647238
21
-20.3499786206
31
0.0000000000
11
18.9711812768
21
-20.3499899505
31
0.0000000000
11
18.9376635761
21
-20.3499973324
31
0.0000000000
11
18.9002862699
21
-20.3500000000
31
0.0000000000
0
SPLINE
5
2F6
100
AcDbEntity
8
0
100
AcDbSpline
62
7
6
CONTINUOUS
70
0
71
3
72
14
73
10
74
8
42
0.0000001000
43
0.0000001000
44
0.0000000001
12
-0.0678366529
22
-0.0147902498
32
0.0000000000
13
-0.0106465592
23
-0.0613041204
33
0.0000000000
40
0.0000000000
40
0.0000000000
40
0.0000000000
40
0.0000000000
40
0.0420476938
40
0.1125702137
40
0.2197804824
40
0.3637429154
40
0.5431775646
40
0.7560971587
40
1.0000000000
40
1.0000000000
40
1.0000000000
40
1.0000000000
10
17.2651646552
20
-20.0000199765
30
0.0000000000
10
17.2642138636
20
-20.0002272751
30
0.0000000000
10
17.2622229735
20
-20.0014182524
30
0.0000000000
10
17.2602361132
20
-20.0057824096
30
0.0000000000
10
17.2578485765
20
-20.0118999582
30
0.0000000000
10
17.2554030534
20
-20.0205480405
30
0.0000000000
10
17.2527945705
20
-20.0313433608
30
0.0000000000
10
17.2501231045
20
-20.0442754395
30
0.0000000000
10
17.2484192058
20
-20.0535945607
30
0.0000000000
10
17.2475536304
20
-20.0585786438
30
0.0000000000
11
17.2651646552
21
-20.0000199765
31
0.0000000000
11
17.2628623582
21
-20.0012626961
31
0.0000000000
11
17.2606130669
21
-20.0050303913
31
0.0000000000
11
17.2582010804
21
-20.0112498780
31
0.0000000000
11
17.2556567734
21
-20.0198385312
31
0.0000000000
11
17.2530119996
21
-20.0306854887
31
0.0000000000
11
17.2502997207
21
-20.0436531043
31
0.0000000000
11
17.2475536304
21
-20.0585786438
31
0.0000000000
0
SPLINE
5
2F7
100
AcDbEntity
8
0
100
AcDbSpline
62
7
6
CONTINUOUS
70
0
71
3
72
29
73
25
74
23
42
0.0000001000
43
0.0000001000
44
0.0000000001
12
-0.3454310002
22
0.0000000000
32
0.0000000000
13
0.3401831271
23
0.0599834637
33
0.0000000000
40
0.0000000000
40
0.0000000000
40
0.0000000000
40
0.0000000000
40
0.1006411083
40
0.1924132453
40
0.2758594321
40
0.3515958016
40
0.4203071100
40
0.4827154945
40
0.5395591484
40
0.5915780324
40
0.6395047735
40
0.6840578622
40
0.7259346344
40
0.7659208863
40
0.8043280806
40
0.8405318722
40
0.8738602642
40
0.9038620198
40
0.9301900231
40
0.9525258370
40
0.9706433416
40
0.9843531494
40
0.9937417640
40
1.0000000000
40
1.0000000000
40
1.0000000000
40
1.0000000000
10
-18.9002862699
20
-20.3500000000
30
0.0000000000
10
-18.9118744561
20
-20.3500000000
30
0.0000000000
10
-18.9340296228
20
-20.3499986007
30
0.0000000000
10
-18.9657930887
20
-20.3499922135
30
0.0000000000
10
-18.9946889307
20
-20.3499822375
30
0.0000000000
10
-19.0209294628
20
-20.3499692155
30
0.0000000000
10
-19.0447476233
20
-20.3499536160
30
0.0000000000
10
-19.0663904051
20
-20.3499358156
30
0.0000000000
10
-19.0861111571
20
-20.3499160859
30
0.0000000000
10
-19.1041644376
20
-20.3498945798
30
0.0000000000
10
-19.1208025310
20
-20.3498713149
30
0.0000000000
10
-19.1362728299
20
-20.3498461517
30
0.0000000000
10
-19.1508287936
20
-20.3498187319
30
0.0000000000
10
-19.1646772032
20
-20.3497885193
30
0.0000000000
10
-19.1778719988
20
-20.3497550007
30
0.0000000000
10
-19.1903015302
20
-20.3497179943
30
0.0000000000
10
-19.2017587026
20
-20.3496774289
30
0.0000000000
10
-19.2120931948
20
-20.3496340093
30
0.0000000000
10
-19.2211171728
20
-20.3495862849
30
0.0000000000
10
-19.2289048310
20
-20.3495395250
30
0.0000000000
10
-19.2348730914
20
-20.3494803526
30
0.0000000000
10
-19.2402813744
20
-20.3494459466
30
0.0000000000
10
-19.2421951631
20
-20.3493502848
30
0.0000000000
10
-19.2464217532
20
-20.3493690585
30
0.0000000000
10
-19.2457121044
20
-20.3492439283
30
0.0000000000
11
-18.9002862699
21
-20.3500000000
31
0.0000000000
11
-18.9350508285
21
-20.3499977002
31
0.0000000000
11
-18.9667517690
21
-20.3499912229
31
0.0000000000
11
-18.9955766670
21
-20.3499811704
31
0.0000000000
11
-19.0217383536
21
-20.3499680886
31
0.0000000000
11
-19.0454733644
21
-20.3499524462
31
0.0000000000
11
-19.0670311477
21
-20.3499346193
31
0.0000000000
11
-19.0866666980
21
-20.3499148780
31
0.0000000000
11
-19.1046356203
21
-20.3498933731
31
0.0000000000
11
-19.1211909861
21
-20.3498701189
31
0.0000000000
11
-19.1365809835
21
-20.3498449703
31
0.0000000000
11
-19.1510464929
21
-20.3498175870
31
0.0000000000
11
-19.1648589506
21
-20.3497872806
31
0.0000000000
11
-19.1781259428
21
-20.3497533607
31
0.0000000000
11
-19.1906317983
21
-20.3497157887
31
0.0000000000
11
-19.2021443849
21
-20.3496747274
31
0.0000000000
11
-19.2125078260
21
-20.3496302744
31
0.0000000000
11
-19.2216022092
21
-20.3495825308
31
0.0000000000
11
-19.2293175245
21
-20.3495317334
31
0.0000000000
11
-19.2355756432
21
-20.3494781951
31
0.0000000000
11
-19.2403111097
21
-20.3494226159
31
0.0000000000
11
-19.2435537200
21
-20.3493652007
31
0.0000000000
11
-19.2457121044
21
-20.3492439283
31
0.0000000000
0
ENDSEC
0
SECTION
2
OBJECTS
0
DICTIONARY
5
2F8
100
AcDbDictionary
3
ACAD_GROUP
350
2F9
3
ACAD_MLINESTYLE
350
2FA
0
DICTIONARY
5
2F9
102
{ACAD_REACTORS
330
2F8
102
}
100
AcDbDictionary
0
DICTIONARY
5
2FA
102
{ACAD_REACTORS
330
2F8
102
}
100
AcDbDictionary
3
STANDARD
350
2FB
0
MLINESTYLE
5
2FB
102
{ACAD_REACTORS
330
2FA
102
}
100
AcDbMlineStyle
2
STANDARD
70
0
3

62
256
51
90.0
52
90.0
71
2
49
0.5
62
256
6
BYLAYER
49
-0.5
62
256
6
BYLAYER
0
ENDSEC
0
EOF
