999
DXF file: zdi_vp1697101T.dxf
999
Pro/ENGINEER 2004090 by Parametric Technology Corporation
0
SECTION
2
HEADER
9
$ACADVER
1
AC1014
9
$HANDSEED
5
       30B
9
$EXTMAX
10
297.0000000000
20
210.0000000000
9
$EXTMIN
10
0.0000000000
20
0.0000000000
9
$LIMMIN
10
0.0000000000
20
0.0000000000
9
$LIMMAX
10
297.0000000000
20
210.0000000000
9
$VIEWCTR
10
148.5000000000
20
105.0000000000
9
$VIEWSIZE
40
210.0000000000
9
$CLAYER
8
0
9
$LTSCALE
40
16.3350000000
9
$CELTYPE
6
BYLAYER
9
$DIMSCALE
40
1
9
$DIMASZ
40
3.0000000000
9
$DIMEXO
40
1.8562500000
9
$DIMDLI
40
11.2860000000
9
$DIMEXE
40
5.3460000000
9
$DIMCEN
40
2.6730000000
9
$DIMLFAC
40
1.0000000000
9
$DIMTXT
40
3.0000000000
9
$DIMTOL
70
1
9
$DIMLIM
70
0
9
$DIMTFAC
40
1.0000000000
9
$DIMTP
40
0.0100000000
9
$DIMTM
40
0.0100000000
9
$MEASUREMENT
70
1
0
ENDSEC
0
SECTION
2
CLASSES
0
ENDSEC
0
SECTION
2
TABLES
0
TABLE
2
VPORT
5
8
100
AcDbSymbolTable
70
2
0
VPORT
5
1F4
100
AcDbSymbolTableRecord
100
AcDbViewportTableRecord
2
*ACTIVE
70
0
10
0.0
20
0.0
11
1.0
21
1.0
12
148.5000000000
22
105.0000000000
13
0.0
23
0.0
14
1.0
24
1.0
15
0.0
25
0.0
16
0.0
26
0.0
36
1.0
17
0.0
27
0.0
37
0.0
40
210.0000000000
41
1.4142857143
42
50.0
43
0.0
44
0.0
50
0.0
51
0.0
71
0
72
100
73
1
74
1
75
0
76
0
77
0
78
0
0
ENDTAB
0
TABLE
2
LTYPE
5
5
100
AcDbSymbolTable
70
6
0
LTYPE
5
14
100
AcDbSymbolTableRecord
100
AcDbLinetypeTableRecord
2
BYBLOCK
70
0
3

72
65
73
0
40
0.0
0
LTYPE
5
15
100
AcDbSymbolTableRecord
100
AcDbLinetypeTableRecord
2
BYLAYER
70
0
3

72
65
73
0
40
0.0
0
LTYPE
5
16
100
AcDbSymbolTableRecord
100
AcDbLinetypeTableRecord
2
CONTINUOUS
70
64
3
Solid line
72
65
73
0
40
0
0
LTYPE
5
1F5
100
AcDbSymbolTableRecord
100
AcDbLinetypeTableRecord
2
CENTER
70
64
3
____ _ ____ _ ____ _ ____ _ ____ _ ____ _ ____
72
65
73
4
40
0.6
49
0.375
74
0
49
-0.075
74
0
49
0.075
74
0
49
-0.075
74
0
0
LTYPE
5
1F6
100
AcDbSymbolTableRecord
100
AcDbLinetypeTableRecord
2
HIDDEN
70
64
3
- - - - - - - - - - - - - - - - - - - -
72
65
73
2
40
0.2
49
0.1
74
0
49
-0.1
74
0
0
LTYPE
5
1F7
100
AcDbSymbolTableRecord
100
AcDbLinetypeTableRecord
2
PHANTOM
70
64
3
_____ _ _ _____ _ _ _____ _ _ _____
72
65
73
6
40
0.8
49
0.45
74
0
49
-0.05
74
0
49
0.1
74
0
49
-0.05
74
0
49
0.1
74
0
49
-0.05
74
0
0
LTYPE
5
1F8
100
AcDbSymbolTableRecord
100
AcDbLinetypeTableRecord
2
DOT
70
64
3
. . . . . . . . . . . . . . . . . . . .
72
65
73
2
40
0.2
49
0.1
74
0
49
-0.1
74
0
0
LTYPE
5
1F9
100
AcDbSymbolTableRecord
100
AcDbLinetypeTableRecord
2
DASHED
70
64
3
- - - - - - - - - - - - - - - - - - - -
72
65
73
2
40
0.2
49
0.1
74
0
49
-0.1
74
0
0
ENDTAB
0
TABLE
2
LAYER
5
2
100
AcDbSymbolTable
70
36
0
LAYER
5
10
100
AcDbSymbolTableRecord
100
AcDbLayerTableRecord
2
0
70
0
62
7
6
CONTINUOUS
0
LAYER
5
1FA
100
AcDbSymbolTableRecord
100
AcDbLayerTableRecord
2
DEFAULT_1
70
0
62
7
6
CENTER
0
LAYER
5
1FB
100
AcDbSymbolTableRecord
100
AcDbLayerTableRecord
2
DEFAULT_2
70
0
62
8
6
HIDDEN
0
LAYER
5
1FC
100
AcDbSymbolTableRecord
100
AcDbLayerTableRecord
2
DEFAULT_3
70
0
62
7
6
PHANTOM
0
LAYER
5
1FD
100
AcDbSymbolTableRecord
100
AcDbLayerTableRecord
2
ASSI
70
0
62
7
6
CONTINUOUS
0
LAYER
5
1FE
100
AcDbSymbolTableRecord
100
AcDbLayerTableRecord
2
COORDINATE
70
0
62
7
6
CONTINUOUS
0
LAYER
5
1FF
100
AcDbSymbolTableRecord
100
AcDbLayerTableRecord
2
COORD_ORIGINE
70
0
62
7
6
CONTINUOUS
0
LAYER
5
200
100
AcDbSymbolTableRecord
100
AcDbLayerTableRecord
2
CURVE
70
0
62
7
6
CONTINUOUS
0
LAYER
5
201
100
AcDbSymbolTableRecord
100
AcDbLayerTableRecord
2
CURVE_LED_TASTO
70
0
62
7
6
CONTINUOUS
0
LAYER
5
202
100
AcDbSymbolTableRecord
100
AcDbLayerTableRecord
2
DRAFT
70
0
62
7
6
CONTINUOUS
0
LAYER
5
203
100
AcDbSymbolTableRecord
100
AcDbLayerTableRecord
2
PIANI
70
0
62
7
6
CONTINUOUS
0
LAYER
5
204
100
AcDbSymbolTableRecord
100
AcDbLayerTableRecord
2
PIANI_ORIGINE
70
0
62
7
6
CONTINUOUS
0
LAYER
5
205
100
AcDbSymbolTableRecord
100
AcDbLayerTableRecord
2
PIANI_RIFERIMENTO
70
0
62
7
6
CONTINUOUS
0
LAYER
5
206
100
AcDbSymbolTableRecord
100
AcDbLayerTableRecord
2
PUNTI
70
0
62
7
6
CONTINUOUS
0
LAYER
5
207
100
AcDbSymbolTableRecord
100
AcDbLayerTableRecord
2
RACCORDO
70
0
62
7
6
CONTINUOUS
0
LAYER
5
208
100
AcDbSymbolTableRecord
100
AcDbLayerTableRecord
2
SCRITTE
70
0
62
7
6
CONTINUOUS
0
LAYER
5
209
100
AcDbSymbolTableRecord
100
AcDbLayerTableRecord
2
SUPERFICI
70
0
62
7
6
CONTINUOUS
0
LAYER
5
20A
100
AcDbSymbolTableRecord
100
AcDbLayerTableRecord
2
TRASH
70
0
62
7
6
CONTINUOUS
0
ENDTAB
0
TABLE
2
STYLE
5
3
100
AcDbSymbolTable
70
1
0
STYLE
5
11
100
AcDbSymbolTableRecord
100
AcDbTextStyleTableRecord
2
STANDARD
70
0
40
0.0
41
0.8000000000
50
0.0
71
0
42
0.2
3
txt
4

0
ENDTAB
0
TABLE
2
VIEW
5
6
100
AcDbSymbolTable
70
0
0
ENDTAB
0
TABLE
2
UCS
5
7
100
AcDbSymbolTable
70
0
0
ENDTAB
0
TABLE
2
APPID
5
9
100
AcDbSymbolTable
70
1
0
APPID
5
20B
100
AcDbSymbolTableRecord
100
AcDbRegAppTableRecord
2
ACAD
70
0
0
ENDTAB
0
TABLE
2
DIMSTYLE
5
A
100
AcDbSymbolTable
70
1
0
DIMSTYLE
105
20C
100
AcDbSymbolTableRecord
100
AcDbDimStyleTableRecord
2
STANDARD
70
0
3

4

5

6

7

40
1.0
41
3.0000000000
42
0.0625
43
0.38
44
0.18
45
0.0
46
0.0
47
0.0100000000
48
0.0100000000
140
3.0000000000
141
0.09
142
0.0
143
25.4
144
1.0000000000
145
0.0
146
1.0000000000
147
0.09
71
1
72
0
73
0
74
0
75
0
76
0
77
1
78
8
170
0
171
2
172
0
173
0
174
0
175
0
176
0
177
0
178
0
270
2
271
2
272
2
273
2
274
2
340
11
275
0
280
0
281
0
282
0
283
1
284
8
285
0
286
0
287
3
288
0
0
ENDTAB
0
TABLE
2
BLOCK_RECORD
5
1
100
AcDbSymbolTable
70
0
0
BLOCK_RECORD
5
1B
100
AcDbSymbolTableRecord
100
AcDbBlockTableRecord
2
*MODEL_SPACE
0
BLOCK_RECORD
5
1C
100
AcDbSymbolTableRecord
100
AcDbBlockTableRecord
2
*PAPER_SPACE
0
ENDTAB
0
ENDSEC
0
SECTION
2
BLOCKS
0
BLOCK
5
1E
100
AcDbEntity
8
0
100
AcDbBlockBegin
2
*MODEL_SPACE
70
0
10
0.0
20
0.0
30
0.0
3
*MODEL_SPACE
1

0
ENDBLK
5
1F
100
AcDbEntity
8
0
100
AcDbBlockEnd
0
BLOCK
5
20
100
AcDbEntity
8
0
100
AcDbBlockBegin
2
*PAPER_SPACE
70
0
10
0.0
20
0.0
30
0.0
3
*PAPER_SPACE
1

0
ENDBLK
5
21
100
AcDbEntity
8
0
100
AcDbBlockEnd
0
ENDSEC
0
SECTION
2
ENTITIES
0
LINE
5
20D
100
AcDbEntity
8
0
100
AcDbLine
62
7
6
CONTINUOUS
10
-12.1008636137
20
-18.4000000000
11
12.1008636137
21
-18.4000000000
0
LINE
5
20E
100
AcDbEntity
8
0
100
AcDbLine
62
7
6
CONTINUOUS
10
11.2000000000
20
-17.1000000000
11
-11.2000000000
21
-17.1000000000
0
LINE
5
20F
100
AcDbEntity
8
0
100
AcDbLine
62
9
6
CONTINUOUS
10
7.4982261214
20
-16.7085786438
11
7.0000000000
21
-16.7085786438
0
LINE
5
210
100
AcDbEntity
8
0
100
AcDbLine
62
9
6
CONTINUOUS
10
-7.0000000000
20
-16.7085786438
11
-7.4982261214
21
-16.7085786438
0
LINE
5
211
100
AcDbEntity
8
0
100
AcDbLine
62
7
6
CONTINUOUS
10
7.0000000000
20
-16.6500000000
11
7.5281163217
21
-16.6500000000
0
LINE
5
212
100
AcDbEntity
8
0
100
AcDbLine
62
7
6
CONTINUOUS
10
-7.0000000000
20
-16.6500000000
11
-7.5280979693
21
-16.6500000000
0
LINE
5
213
100
AcDbEntity
8
0
100
AcDbLine
62
7
6
CONTINUOUS
10
-11.1572383478
20
-16.5849892472
11
11.1572383478
21
-16.5849892472
0
LINE
5
214
100
AcDbEntity
8
0
100
AcDbLine
62
7
6
CONTINUOUS
10
-10.0500000000
20
-11.2000000000
11
-10.0561088075
21
-11.1938911925
0
LINE
5
215
100
AcDbEntity
8
0
100
AcDbLine
62
7
6
CONTINUOUS
10
-10.0561088075
20
-11.1877823851
11
-10.0565451508
21
-11.1873460417
0
LINE
5
216
100
AcDbEntity
8
0
100
AcDbLine
62
7
6
CONTINUOUS
10
-10.0000000000
20
-11.2000000000
11
-10.0061088075
21
-11.1938911925
0
LINE
5
217
100
AcDbEntity
8
0
100
AcDbLine
62
9
6
CONTINUOUS
10
7.4982261214
20
16.7085786438
11
8.7785076894
21
17.1000000000
0
LINE
5
218
100
AcDbEntity
8
0
100
AcDbLine
62
7
6
CONTINUOUS
10
7.5281163217
20
16.6500000000
11
8.9648182263
21
17.0892438523
0
LINE
5
219
100
AcDbEntity
8
0
100
AcDbLine
62
7
6
CONTINUOUS
10
4.1000000000
20
-13.6000000000
11
4.9000000000
21
-13.6000000000
0
LINE
5
21A
100
AcDbEntity
8
0
100
AcDbLine
62
7
6
CONTINUOUS
10
-4.6000000000
20
-13.3000000000
11
3.5803847577
21
-13.3000000000
0
LINE
5
21B
100
AcDbEntity
8
0
100
AcDbLine
62
9
6
CONTINUOUS
10
8.7785076894
20
-17.1000000000
11
7.4982261214
21
-16.7085786438
0
LINE
5
21C
100
AcDbEntity
8
0
100
AcDbLine
62
7
6
CONTINUOUS
10
8.9648182263
20
-17.0892438523
11
7.5281163217
21
-16.6500000000
0
LINE
5
21D
100
AcDbEntity
8
0
100
AcDbLine
62
7
6
CONTINUOUS
10
-12.4000000000
20
18.0962952155
11
-12.4000000000
21
-18.0962952155
0
LINE
5
21E
100
AcDbEntity
8
0
100
AcDbLine
62
9
6
CONTINUOUS
10
-4.1000000000
20
-13.0000000000
11
-4.9000000000
21
-13.0000000000
0
LINE
5
21F
100
AcDbEntity
8
0
100
AcDbLine
62
7
6
CONTINUOUS
10
-11.1572383478
20
-6.7000000000
11
-11.1445843895
21
-6.7126539583
0
LINE
5
220
100
AcDbEntity
8
0
100
AcDbLine
62
7
6
CONTINUOUS
10
-11.1500000000
20
-6.7000000000
11
-11.1373460417
21
-6.7126539583
0
LINE
5
221
100
AcDbEntity
8
0
100
AcDbLine
62
7
6
CONTINUOUS
10
-11.1563030050
20
4.3143593539
11
-11.1529375700
21
3.6464101615
0
LINE
5
222
100
AcDbEntity
8
0
100
AcDbLine
62
7
6
CONTINUOUS
10
-11.2000000000
20
17.1000000000
11
-11.2000000000
21
-17.1000000000
0
LINE
5
223
100
AcDbEntity
8
0
100
AcDbLine
62
7
6
CONTINUOUS
10
-11.1572383478
20
16.5849892472
11
-11.1572383478
21
4.7143593539
0
LINE
5
224
100
AcDbEntity
8
0
100
AcDbLine
62
7
6
CONTINUOUS
10
-11.1572383478
20
-4.7143593539
11
-11.1572383478
21
-16.5849892472
0
LINE
5
225
100
AcDbEntity
8
0
100
AcDbLine
62
7
6
CONTINUOUS
10
-11.1520022272
20
-3.2464101615
11
-11.1520022272
21
3.2464101615
0
LINE
5
226
100
AcDbEntity
8
0
100
AcDbLine
62
7
6
CONTINUOUS
10
-11.1500000000
20
-6.7000000000
11
-11.1500000000
21
-11.2000000000
0
LINE
5
227
100
AcDbEntity
8
0
100
AcDbLine
62
7
6
CONTINUOUS
10
-11.1445843895
20
-6.7126539583
11
-11.1445843895
21
-11.1873460417
0
LINE
5
228
100
AcDbEntity
8
0
100
AcDbLine
62
7
6
CONTINUOUS
10
-11.1373460417
20
-6.7126539583
11
-11.1373460417
21
-11.1873460417
0
LINE
5
229
100
AcDbEntity
8
0
100
AcDbLine
62
7
6
CONTINUOUS
10
-10.2000000000
20
-11.0000000000
11
-10.2000000000
21
-6.9000000000
0
LINE
5
22A
100
AcDbEntity
8
0
100
AcDbLine
62
7
6
CONTINUOUS
10
-11.1529375700
20
-3.6464101615
11
-11.1563030050
21
-4.3143593539
0
LINE
5
22B
100
AcDbEntity
8
0
100
AcDbLine
62
7
6
CONTINUOUS
10
-11.1572383478
20
-11.2000000000
11
-10.0000000000
21
-11.2000000000
0
LINE
5
22C
100
AcDbEntity
8
0
100
AcDbLine
62
7
6
CONTINUOUS
10
-11.1445843895
20
-11.1873460417
11
-10.0561088075
21
-11.1873460417
0
LINE
5
22D
100
AcDbEntity
8
0
100
AcDbLine
62
7
6
CONTINUOUS
10
-10.2000000000
20
-11.0000000000
11
-10.0561088075
21
-11.0000000000
0
LINE
5
22E
100
AcDbEntity
8
0
100
AcDbLine
62
7
6
CONTINUOUS
10
-11.1572383478
20
16.5849892472
11
-11.2000000000
21
17.1000000000
0
LINE
5
22F
100
AcDbEntity
8
0
100
AcDbLine
62
7
6
CONTINUOUS
10
-10.0565451508
20
-6.7126539583
11
-10.0565451508
21
-6.9000000000
0
LINE
5
230
100
AcDbEntity
8
0
100
AcDbLine
62
7
6
CONTINUOUS
10
-10.0565451508
20
-11.0000000000
11
-10.0565451508
21
-11.1873460417
0
LINE
5
231
100
AcDbEntity
8
0
100
AcDbLine
62
7
6
CONTINUOUS
10
-10.0561088075
20
-11.1938911925
11
-10.0561088075
21
-6.7061088075
0
LINE
5
232
100
AcDbEntity
8
0
100
AcDbLine
62
7
6
CONTINUOUS
10
-10.0500000000
20
-11.2000000000
11
-10.0500000000
21
-6.7000000000
0
LINE
5
233
100
AcDbEntity
8
0
100
AcDbLine
62
7
6
CONTINUOUS
10
-10.0000000000
20
-11.2000000000
11
-10.0000000000
21
-6.7000000000
0
LINE
5
234
100
AcDbEntity
8
0
100
AcDbLine
62
7
6
CONTINUOUS
10
-11.2000000000
20
-17.1000000000
11
-11.1572383478
21
-16.5849892472
0
LINE
5
235
100
AcDbEntity
8
0
100
AcDbLine
62
7
6
CONTINUOUS
10
10.0000000000
20
-9.7000000000
11
11.1572383478
21
-9.7000000000
0
LINE
5
236
100
AcDbEntity
8
0
100
AcDbLine
62
7
6
CONTINUOUS
10
10.0561088075
20
-9.6873460417
11
11.1445843895
21
-9.6873460417
0
LINE
5
237
100
AcDbEntity
8
0
100
AcDbLine
62
7
6
CONTINUOUS
10
10.0561088075
20
-9.5000000000
11
10.2000000000
21
-9.5000000000
0
LINE
5
238
100
AcDbEntity
8
0
100
AcDbLine
62
7
6
CONTINUOUS
10
-7.0000000000
20
17.1000000000
11
-7.0000000000
21
16.6501048654
0
LINE
5
239
100
AcDbEntity
8
0
100
AcDbLine
62
7
6
CONTINUOUS
10
-7.0000000000
20
-16.6500000000
11
-7.0000000000
21
-17.1000000000
0
LINE
5
23A
100
AcDbEntity
8
0
100
AcDbLine
62
7
6
CONTINUOUS
10
-10.2000000000
20
-6.9000000000
11
-10.0561088075
21
-6.9000000000
0
LINE
5
23B
100
AcDbEntity
8
0
100
AcDbLine
62
7
6
CONTINUOUS
10
10.0561088075
20
-6.9000000000
11
10.2000000000
21
-6.9000000000
0
LINE
5
23C
100
AcDbEntity
8
0
100
AcDbLine
62
7
6
CONTINUOUS
10
11.1445843895
20
-6.7126539583
11
10.0561088075
21
-6.7126539583
0
LINE
5
23D
100
AcDbEntity
8
0
100
AcDbLine
62
7
6
CONTINUOUS
10
-10.0561088075
20
-6.7126539583
11
-11.1445843895
21
-6.7126539583
0
LINE
5
23E
100
AcDbEntity
8
0
100
AcDbLine
62
7
6
CONTINUOUS
10
11.1572383478
20
-6.7000000000
11
10.0000000000
21
-6.7000000000
0
LINE
5
23F
100
AcDbEntity
8
0
100
AcDbLine
62
7
6
CONTINUOUS
10
-10.0000000000
20
-6.7000000000
11
-11.1572383478
21
-6.7000000000
0
LINE
5
240
100
AcDbEntity
8
0
100
AcDbLine
62
9
6
CONTINUOUS
10
-4.1000000000
20
-6.2000000000
11
-4.9000000000
21
-6.2000000000
0
LINE
5
241
100
AcDbEntity
8
0
100
AcDbLine
62
7
6
CONTINUOUS
10
3.5803847577
20
-5.9000000000
11
-4.6000000000
21
-5.9000000000
0
LINE
5
242
100
AcDbEntity
8
0
100
AcDbLine
62
7
6
CONTINUOUS
10
-4.9000000000
20
-6.2000000000
11
-4.9000000000
21
-13.0000000000
0
LINE
5
243
100
AcDbEntity
8
0
100
AcDbLine
62
9
6
CONTINUOUS
10
-4.6000000000
20
-13.3000000000
11
-4.6000000000
21
-5.9000000000
0
LINE
5
244
100
AcDbEntity
8
0
100
AcDbLine
62
7
6
CONTINUOUS
10
4.9000000000
20
-5.6000000000
11
4.1000000000
21
-5.6000000000
0
LINE
5
245
100
AcDbEntity
8
0
100
AcDbLine
62
9
6
CONTINUOUS
10
11.1572383478
20
-4.7143593539
11
-11.1572383478
21
-4.7143593539
0
LINE
5
246
100
AcDbEntity
8
0
100
AcDbLine
62
9
6
CONTINUOUS
10
11.1563030050
20
-4.3143593539
11
-11.1563030050
21
-4.3143593539
0
LINE
5
247
100
AcDbEntity
8
0
100
AcDbLine
62
7
6
CONTINUOUS
10
-4.1000000000
20
-13.3000000000
11
-4.1000000000
21
-5.9000000000
0
LINE
5
248
100
AcDbEntity
8
0
100
AcDbLine
62
9
6
CONTINUOUS
10
11.1529375700
20
-3.6464101615
11
-11.1529375700
21
-3.6464101615
0
LINE
5
249
100
AcDbEntity
8
0
100
AcDbLine
62
9
6
CONTINUOUS
10
11.1520022272
20
-3.2464101615
11
-11.1520022272
21
-3.2464101615
0
LINE
5
24A
100
AcDbEntity
8
0
100
AcDbLine
62
7
6
CONTINUOUS
10
-10.0500000000
20
-6.7000000000
11
-10.0561088075
21
-6.7061088075
0
LINE
5
24B
100
AcDbEntity
8
0
100
AcDbLine
62
7
6
CONTINUOUS
10
-10.0561088075
20
-6.7122176149
11
-10.0565451508
21
-6.7126539583
0
LINE
5
24C
100
AcDbEntity
8
0
100
AcDbLine
62
7
6
CONTINUOUS
10
-10.0000000000
20
-6.7000000000
11
-10.0061088075
21
-6.7061088075
0
LINE
5
24D
100
AcDbEntity
8
0
100
AcDbLine
62
7
6
CONTINUOUS
10
6.6845622858
20
-1.9141290595
11
6.5093189227
21
-1.9287330064
0
LINE
5
24E
100
AcDbEntity
8
0
100
AcDbLine
62
7
6
CONTINUOUS
10
6.0941589548
20
-1.1610000036
11
6.2756609740
21
-1.1463960021
0
LINE
5
24F
100
AcDbEntity
8
0
100
AcDbLine
62
7
6
CONTINUOUS
10
4.6671760000
20
-2.2750470000
11
4.8507650000
21
-2.2750470000
0
LINE
5
250
100
AcDbEntity
8
0
100
AcDbLine
62
7
6
CONTINUOUS
10
7.8611967336
20
-2.2750470000
11
8.0489575515
21
-2.2750470000
0
LINE
5
251
100
AcDbEntity
8
0
100
AcDbLine
62
7
6
CONTINUOUS
10
9.3069550000
20
-2.2750470000
11
9.4905440000
21
-2.2750470000
0
LINE
5
252
100
AcDbEntity
8
0
100
AcDbLine
62
7
6
CONTINUOUS
10
-11.1572383478
20
-11.2000000000
11
-11.1445843895
21
-11.1873460417
0
LINE
5
253
100
AcDbEntity
8
0
100
AcDbLine
62
7
6
CONTINUOUS
10
-11.1500000000
20
-11.2000000000
11
-11.1373460417
21
-11.1873460417
0
LINE
5
254
100
AcDbEntity
8
0
100
AcDbLine
62
7
6
CONTINUOUS
10
7.6525740000
20
-0.9753250000
11
8.3827546106
21
-0.9753250000
0
LINE
5
255
100
AcDbEntity
8
0
100
AcDbLine
62
7
6
CONTINUOUS
10
8.6184990000
20
-0.8000820000
11
7.6525740000
21
-0.8000820000
0
LINE
5
256
100
AcDbEntity
8
0
100
AcDbLine
62
7
6
CONTINUOUS
10
9.4905440000
20
-0.7750470000
11
9.3722148449
21
-0.7750470000
0
LINE
5
257
100
AcDbEntity
8
0
100
AcDbLine
62
7
6
CONTINUOUS
10
4.8507650000
20
-0.7750470000
11
4.7324365696
21
-0.7750470000
0
LINE
5
258
100
AcDbEntity
8
0
100
AcDbLine
62
7
6
CONTINUOUS
10
9.9620610000
20
0.8000080000
11
10.3337690000
21
0.8000120000
0
LINE
5
259
100
AcDbEntity
8
0
100
AcDbLine
62
7
6
CONTINUOUS
10
7.4036660000
20
0.8000040000
11
7.7336780000
21
0.8000080000
0
LINE
5
25A
100
AcDbEntity
8
0
100
AcDbLine
62
7
6
CONTINUOUS
10
6.2116310000
20
0.8000040000
11
6.5416350000
21
0.8000080000
0
LINE
5
25B
100
AcDbEntity
8
0
100
AcDbLine
62
7
6
CONTINUOUS
10
4.9095960000
20
0.8000000000
11
5.2396080000
21
0.8000040000
0
LINE
5
25C
100
AcDbEntity
8
0
100
AcDbLine
62
7
6
CONTINUOUS
10
3.8297820000
20
0.8000000000
11
4.1598070000
21
0.8000040000
0
LINE
5
25D
100
AcDbEntity
8
0
100
AcDbLine
62
7
6
CONTINUOUS
10
5.5696120000
20
0.8000040000
11
5.8996250000
21
0.8000040000
0
LINE
5
25E
100
AcDbEntity
8
0
100
AcDbLine
62
7
6
CONTINUOUS
10
6.8536460000
20
0.8000040000
11
7.1836590000
21
0.8000040000
0
LINE
5
25F
100
AcDbEntity
8
0
100
AcDbLine
62
7
6
CONTINUOUS
10
9.0132650000
20
0.8000080000
11
9.3432820000
21
0.8000080000
0
LINE
5
260
100
AcDbEntity
8
0
100
AcDbLine
62
7
6
CONTINUOUS
10
8.4632420000
20
0.8000080000
11
8.7932580000
21
0.8000040000
0
LINE
5
261
100
AcDbEntity
8
0
100
AcDbLine
62
7
6
CONTINUOUS
10
7.8378630000
20
1.1245060000
11
8.3590610000
21
1.1245060000
0
LINE
5
262
100
AcDbEntity
8
0
100
AcDbLine
62
7
6
CONTINUOUS
10
8.2583940000
20
1.4380180000
11
7.9385250000
21
1.4380180000
0
LINE
5
263
100
AcDbEntity
8
0
100
AcDbLine
62
7
6
CONTINUOUS
10
9.3433190000
20
1.4380220000
11
9.6313470000
21
1.4380180000
0
LINE
5
264
100
AcDbEntity
8
0
100
AcDbLine
62
7
6
CONTINUOUS
10
11.1500000000
20
-9.7000000000
11
11.1373460417
21
-9.6873460417
0
LINE
5
265
100
AcDbEntity
8
0
100
AcDbLine
62
7
6
CONTINUOUS
10
11.1572383478
20
-9.7000000000
11
11.1445843895
21
-9.6873460417
0
LINE
5
266
100
AcDbEntity
8
0
100
AcDbLine
62
7
6
CONTINUOUS
10
9.7402545320
20
1.7432840000
11
9.3387320000
21
1.7432840000
0
LINE
5
267
100
AcDbEntity
8
0
100
AcDbLine
62
7
6
CONTINUOUS
10
9.3387280000
20
2.1448200000
11
9.7402545320
21
2.1448200000
0
LINE
5
268
100
AcDbEntity
8
0
100
AcDbLine
62
7
6
CONTINUOUS
10
7.1836590000
20
2.4500780000
11
6.6847690000
21
2.4500780000
0
LINE
5
269
100
AcDbEntity
8
0
100
AcDbLine
62
7
6
CONTINUOUS
10
6.0685020000
20
2.4500780000
11
5.5696120000
21
2.4500780000
0
LINE
5
26A
100
AcDbEntity
8
0
100
AcDbLine
62
7
6
CONTINUOUS
10
5.2396120000
20
2.4500780000
11
4.9096000000
21
2.4500780000
0
LINE
5
26B
100
AcDbEntity
8
0
100
AcDbLine
62
7
6
CONTINUOUS
10
4.6895930000
20
2.4500780000
11
4.3595760000
21
2.4500780000
0
LINE
5
26C
100
AcDbEntity
8
0
100
AcDbLine
62
7
6
CONTINUOUS
10
3.6300170000
20
2.4500780000
11
3.3000000000
21
2.4500780000
0
LINE
5
26D
100
AcDbEntity
8
0
100
AcDbLine
62
7
6
CONTINUOUS
10
9.7860838344
20
2.4500830000
11
9.0132650000
21
2.4500830000
0
LINE
5
26E
100
AcDbEntity
8
0
100
AcDbLine
62
7
6
CONTINUOUS
10
8.2634720000
20
2.4500830000
11
7.9334430000
21
2.4500830000
0
LINE
5
26F
100
AcDbEntity
8
0
100
AcDbLine
62
7
6
CONTINUOUS
10
10.0000000000
20
-6.7000000000
11
10.0061088075
21
-6.7061088075
0
LINE
5
270
100
AcDbEntity
8
0
100
AcDbLine
62
7
6
CONTINUOUS
10
10.0561088075
20
-6.7122176149
11
10.0565451508
21
-6.7126539583
0
LINE
5
271
100
AcDbEntity
8
0
100
AcDbLine
62
7
6
CONTINUOUS
10
10.0500000000
20
-6.7000000000
11
10.0561088075
21
-6.7061088075
0
LINE
5
272
100
AcDbEntity
8
0
100
AcDbLine
62
7
6
CONTINUOUS
10
4.3000000000
20
-1.1500469516
11
4.3000000000
21
-1.3273440090
0
LINE
5
273
100
AcDbEntity
8
0
100
AcDbLine
62
7
6
CONTINUOUS
10
4.3595760000
20
2.4500780000
11
3.9947990000
21
1.3139130000
0
LINE
5
274
100
AcDbEntity
8
0
100
AcDbLine
62
7
6
CONTINUOUS
10
4.1598070000
20
0.8000040000
11
4.6895930000
21
2.4500780000
0
LINE
5
275
100
AcDbEntity
8
0
100
AcDbLine
62
9
6
CONTINUOUS
10
-11.1520022272
20
3.2464101615
11
11.1520022272
21
3.2464101615
0
LINE
5
276
100
AcDbEntity
8
0
100
AcDbLine
62
9
6
CONTINUOUS
10
-11.1529375700
20
3.6464101615
11
11.1529375700
21
3.6464101615
0
LINE
5
277
100
AcDbEntity
8
0
100
AcDbLine
62
9
6
CONTINUOUS
10
11.1563030050
20
4.3143593539
11
-11.1563030050
21
4.3143593539
0
LINE
5
278
100
AcDbEntity
8
0
100
AcDbLine
62
7
6
CONTINUOUS
10
3.3000000000
20
2.4500780000
11
3.8297820000
21
0.8000000000
0
LINE
5
279
100
AcDbEntity
8
0
100
AcDbLine
62
7
6
CONTINUOUS
10
3.9947990000
20
1.3139130000
11
3.6300170000
21
2.4500780000
0
LINE
5
27A
100
AcDbEntity
8
0
100
AcDbLine
62
7
6
CONTINUOUS
10
4.6671760000
20
-1.1062367092
11
4.6671760000
21
-2.2750470000
0
LINE
5
27B
100
AcDbEntity
8
0
100
AcDbLine
62
7
6
CONTINUOUS
10
4.8507650000
20
-2.2750470000
11
4.8507650000
21
-0.7750470000
0
LINE
5
27C
100
AcDbEntity
8
0
100
AcDbLine
62
7
6
CONTINUOUS
10
4.9096000000
20
2.4500780000
11
4.9095960000
21
0.8000000000
0
LINE
5
27D
100
AcDbEntity
8
0
100
AcDbLine
62
7
6
CONTINUOUS
10
5.2000000000
20
-13.3000000000
11
5.2000000000
21
-5.9000000000
0
LINE
5
27E
100
AcDbEntity
8
0
100
AcDbLine
62
7
6
CONTINUOUS
10
5.2396080000
20
0.8000040000
11
5.2396120000
21
2.4500780000
0
LINE
5
27F
100
AcDbEntity
8
0
100
AcDbLine
62
7
6
CONTINUOUS
10
5.5696120000
20
2.4500780000
11
5.5696120000
21
0.8000040000
0
LINE
5
280
100
AcDbEntity
8
0
100
AcDbLine
62
7
6
CONTINUOUS
10
5.8996250000
20
0.8000040000
11
5.8996250000
21
1.8881170000
0
LINE
5
281
100
AcDbEntity
8
0
100
AcDbLine
62
7
6
CONTINUOUS
10
6.6847690000
20
2.4500780000
11
6.3766350000
21
1.3754910000
0
LINE
5
282
100
AcDbEntity
8
0
100
AcDbLine
62
7
6
CONTINUOUS
10
6.5416350000
20
0.8000080000
11
6.8536420000
21
1.8881170000
0
LINE
5
283
100
AcDbEntity
8
0
100
AcDbLine
62
9
6
CONTINUOUS
10
11.1572383478
20
4.7143593539
11
-11.1572383478
21
4.7143593539
0
LINE
5
284
100
AcDbEntity
8
0
100
AcDbLine
62
7
6
CONTINUOUS
10
6.8536420000
20
1.8881170000
11
6.8536460000
21
0.8000040000
0
LINE
5
285
100
AcDbEntity
8
0
100
AcDbLine
62
7
6
CONTINUOUS
10
7.0000000000
20
-17.1000000000
11
7.0000000000
21
-16.6500000000
0
LINE
5
286
100
AcDbEntity
8
0
100
AcDbLine
62
7
6
CONTINUOUS
10
7.0000000000
20
16.6500000000
11
7.0000000000
21
17.1000000000
0
LINE
5
287
100
AcDbEntity
8
0
100
AcDbLine
62
7
6
CONTINUOUS
10
7.1836590000
20
0.8000040000
11
7.1836590000
21
2.4500780000
0
LINE
5
288
100
AcDbEntity
8
0
100
AcDbLine
62
7
6
CONTINUOUS
10
7.9334430000
20
2.4500830000
11
7.4036660000
21
0.8000040000
0
LINE
5
289
100
AcDbEntity
8
0
100
AcDbLine
62
7
6
CONTINUOUS
10
7.7336780000
20
0.8000080000
11
7.8378630000
21
1.1245060000
0
LINE
5
28A
100
AcDbEntity
8
0
100
AcDbLine
62
7
6
CONTINUOUS
10
7.9385250000
20
1.4380180000
11
8.0984560000
21
1.9361690000
0
LINE
5
28B
100
AcDbEntity
8
0
100
AcDbLine
62
7
6
CONTINUOUS
10
5.8996250000
20
1.8881170000
11
6.2116310000
21
0.8000040000
0
LINE
5
28C
100
AcDbEntity
8
0
100
AcDbLine
62
7
6
CONTINUOUS
10
6.3766350000
20
1.3754910000
11
6.0685020000
21
2.4500780000
0
LINE
5
28D
100
AcDbEntity
8
0
100
AcDbLine
62
7
6
CONTINUOUS
10
7.6525740000
20
-0.8000820000
11
7.6525740000
21
-0.9753250000
0
LINE
5
28E
100
AcDbEntity
8
0
100
AcDbLine
62
7
6
CONTINUOUS
10
8.6184990000
20
-0.9419124119
11
8.6184990000
21
-0.8000820000
0
LINE
5
28F
100
AcDbEntity
8
0
100
AcDbLine
62
7
6
CONTINUOUS
10
8.9397780000
20
-1.1500470923
11
8.9397780000
21
-1.3273441225
0
LINE
5
290
100
AcDbEntity
8
0
100
AcDbLine
62
7
6
CONTINUOUS
10
9.0132650000
20
2.4500830000
11
9.0132650000
21
0.8000080000
0
LINE
5
291
100
AcDbEntity
8
0
100
AcDbLine
62
7
6
CONTINUOUS
10
8.0984560000
20
1.9361690000
11
8.2583940000
21
1.4380180000
0
LINE
5
292
100
AcDbEntity
8
0
100
AcDbLine
62
7
6
CONTINUOUS
10
8.3590610000
20
1.1245060000
11
8.4632420000
21
0.8000080000
0
LINE
5
293
100
AcDbEntity
8
0
100
AcDbLine
62
7
6
CONTINUOUS
10
8.7932580000
20
0.8000040000
11
8.2634720000
21
2.4500830000
0
LINE
5
294
100
AcDbEntity
8
0
100
AcDbLine
62
7
6
CONTINUOUS
10
11.2000000000
20
-17.1000000000
11
11.1572383478
21
-16.5849892472
0
LINE
5
295
100
AcDbEntity
8
0
100
AcDbLine
62
7
6
CONTINUOUS
10
9.3069550000
20
-1.1062360722
11
9.3069550000
21
-2.2750470000
0
LINE
5
296
100
AcDbEntity
8
0
100
AcDbLine
62
7
6
CONTINUOUS
10
9.3387320000
20
1.7432840000
11
9.3387280000
21
2.1448200000
0
LINE
5
297
100
AcDbEntity
8
0
100
AcDbLine
62
7
6
CONTINUOUS
10
9.4905440000
20
-2.2750470000
11
9.4905440000
21
-0.7750470000
0
LINE
5
298
100
AcDbEntity
8
0
100
AcDbLine
62
7
6
CONTINUOUS
10
10.0000000000
20
-6.7000000000
11
10.0000000000
21
-9.7000000000
0
LINE
5
299
100
AcDbEntity
8
0
100
AcDbLine
62
7
6
CONTINUOUS
10
10.0500000000
20
-6.7000000000
11
10.0500000000
21
-9.7000000000
0
LINE
5
29A
100
AcDbEntity
8
0
100
AcDbLine
62
7
6
CONTINUOUS
10
10.0561088075
20
-6.7061088075
11
10.0561088075
21
-9.6938911925
0
LINE
5
29B
100
AcDbEntity
8
0
100
AcDbLine
62
7
6
CONTINUOUS
10
10.0565451508
20
-6.7126539583
11
10.0565451508
21
-6.9000000000
0
LINE
5
29C
100
AcDbEntity
8
0
100
AcDbLine
62
7
6
CONTINUOUS
10
10.0565451508
20
-9.5000000000
11
10.0565451508
21
-9.6873460417
0
LINE
5
29D
100
AcDbEntity
8
0
100
AcDbLine
62
7
6
CONTINUOUS
10
10.2000000000
20
-9.5000000000
11
10.2000000000
21
-6.9000000000
0
LINE
5
29E
100
AcDbEntity
8
0
100
AcDbLine
62
7
6
CONTINUOUS
10
9.3432820000
20
0.8000080000
11
9.3433190000
21
1.4380220000
0
LINE
5
29F
100
AcDbEntity
8
0
100
AcDbLine
62
7
6
CONTINUOUS
10
11.1572383478
20
16.5849892472
11
11.2000000000
21
17.1000000000
0
LINE
5
2A0
100
AcDbEntity
8
0
100
AcDbLine
62
7
6
CONTINUOUS
10
9.6313470000
20
1.4380180000
11
9.9620610000
21
0.8000080000
0
LINE
5
2A1
100
AcDbEntity
8
0
100
AcDbLine
62
7
6
CONTINUOUS
10
10.3337690000
20
0.8000120000
11
9.9824876028
21
1.4777057663
0
LINE
5
2A2
100
AcDbEntity
8
0
100
AcDbLine
62
7
6
CONTINUOUS
10
11.1529375700
20
-3.6464101615
11
11.1563030050
21
-4.3143593539
0
LINE
5
2A3
100
AcDbEntity
8
0
100
AcDbLine
62
7
6
CONTINUOUS
10
11.1373460417
20
-9.6873460417
11
11.1373460417
21
-6.7126539583
0
LINE
5
2A4
100
AcDbEntity
8
0
100
AcDbLine
62
7
6
CONTINUOUS
10
11.1445843895
20
-9.6873460417
11
11.1445843895
21
-6.7126539583
0
LINE
5
2A5
100
AcDbEntity
8
0
100
AcDbLine
62
7
6
CONTINUOUS
10
11.1500000000
20
-9.7000000000
11
11.1500000000
21
-6.7000000000
0
LINE
5
2A6
100
AcDbEntity
8
0
100
AcDbLine
62
7
6
CONTINUOUS
10
11.1520022272
20
-3.2464101615
11
11.1520022272
21
3.2464101615
0
LINE
5
2A7
100
AcDbEntity
8
0
100
AcDbLine
62
7
6
CONTINUOUS
10
11.1572383478
20
16.5849892472
11
11.1572383478
21
4.7143593539
0
LINE
5
2A8
100
AcDbEntity
8
0
100
AcDbLine
62
7
6
CONTINUOUS
10
11.1572383478
20
-4.7143593539
11
11.1572383478
21
-16.5849892472
0
LINE
5
2A9
100
AcDbEntity
8
0
100
AcDbLine
62
7
6
CONTINUOUS
10
11.2000000000
20
17.1000000000
11
11.2000000000
21
-17.1000000000
0
LINE
5
2AA
100
AcDbEntity
8
0
100
AcDbLine
62
7
6
CONTINUOUS
10
11.1563030050
20
4.3143593539
11
11.1529375700
21
3.6464101615
0
LINE
5
2AB
100
AcDbEntity
8
0
100
AcDbLine
62
7
6
CONTINUOUS
10
12.4000000000
20
18.0962952155
11
12.4000000000
21
-18.0962952155
0
LINE
5
2AC
100
AcDbEntity
8
0
100
AcDbLine
62
7
6
CONTINUOUS
10
11.1500000000
20
-6.7000000000
11
11.1373460417
21
-6.7126539583
0
LINE
5
2AD
100
AcDbEntity
8
0
100
AcDbLine
62
7
6
CONTINUOUS
10
11.1572383478
20
-6.7000000000
11
11.1445843895
21
-6.7126539583
0
LINE
5
2AE
100
AcDbEntity
8
0
100
AcDbLine
62
7
6
CONTINUOUS
10
10.0000000000
20
-9.7000000000
11
10.0061088075
21
-9.6938911925
0
LINE
5
2AF
100
AcDbEntity
8
0
100
AcDbLine
62
7
6
CONTINUOUS
10
10.0561088075
20
-9.6877823851
11
10.0565451508
21
-9.6873460417
0
LINE
5
2B0
100
AcDbEntity
8
0
100
AcDbLine
62
7
6
CONTINUOUS
10
10.0500000000
20
-9.7000000000
11
10.0561088075
21
-9.6938911925
0
LINE
5
2B1
100
AcDbEntity
8
0
100
AcDbLine
62
7
6
CONTINUOUS
10
-7.5281163217
20
-16.6500000000
11
-8.9648182263
21
-17.0892438523
0
LINE
5
2B2
100
AcDbEntity
8
0
100
AcDbLine
62
9
6
CONTINUOUS
10
-7.4982261214
20
-16.7085786438
11
-8.7785076894
21
-17.1000000000
0
LINE
5
2B3
100
AcDbEntity
8
0
100
AcDbLine
62
7
6
CONTINUOUS
10
-8.9648182263
20
17.0892438523
11
-7.5281163217
21
16.6500000000
0
LINE
5
2B4
100
AcDbEntity
8
0
100
AcDbLine
62
9
6
CONTINUOUS
10
-8.7785076894
20
17.1000000000
11
-7.4982261214
21
16.7085786438
0
LINE
5
2B5
100
AcDbEntity
8
0
100
AcDbLine
62
7
6
CONTINUOUS
10
-11.1572383478
20
16.5849892472
11
11.1572383478
21
16.5849892472
0
LINE
5
2B6
100
AcDbEntity
8
0
100
AcDbLine
62
7
6
CONTINUOUS
10
-7.0000000000
20
16.6500000000
11
-7.5280979693
21
16.6500000000
0
LINE
5
2B7
100
AcDbEntity
8
0
100
AcDbLine
62
7
6
CONTINUOUS
10
7.0000000000
20
16.6500000000
11
7.5281163217
21
16.6500000000
0
LINE
5
2B8
100
AcDbEntity
8
0
100
AcDbLine
62
9
6
CONTINUOUS
10
7.4982261214
20
16.7085786438
11
7.0000000000
21
16.7085786438
0
LINE
5
2B9
100
AcDbEntity
8
0
100
AcDbLine
62
9
6
CONTINUOUS
10
-7.0000000000
20
16.7085786438
11
-7.4982261214
21
16.7085786438
0
LINE
5
2BA
100
AcDbEntity
8
0
100
AcDbLine
62
7
6
CONTINUOUS
10
-11.2000000000
20
17.1000000000
11
11.2000000000
21
17.1000000000
0
LINE
5
2BB
100
AcDbEntity
8
0
100
AcDbLine
62
7
6
CONTINUOUS
10
-12.1008636137
20
18.4000000000
11
12.1008636137
21
18.4000000000
0
CIRCLE
5
2BC
100
AcDbEntity
8
0
100
AcDbCircle
62
7
6
CONTINUOUS
10
-0.0000000000
20
0.0000000000
40
1.2500000000
0
CIRCLE
5
2BD
100
AcDbEntity
8
0
100
AcDbCircle
62
7
6
CONTINUOUS
10
-0.0000000000
20
0.0000000000
40
1.7000000000
0
CIRCLE
5
2BE
100
AcDbEntity
8
0
100
AcDbCircle
62
7
6
CONTINUOUS
10
-0.0000000000
20
0.0000000000
40
2.7500000000
0
CIRCLE
5
2BF
100
AcDbEntity
8
0
100
AcDbCircle
62
7
6
CONTINUOUS
10
-0.0000000000
20
0.0000000000
40
1.7750000000
0
CIRCLE
5
2C0
100
AcDbEntity
8
0
100
AcDbCircle
62
9
6
CONTINUOUS
10
-0.0000000000
20
0.0000000000
40
2.2499999996
0
ARC
5
2C1
100
AcDbEntity
8
0
100
AcDbCircle
62
7
6
CONTINUOUS
10
9.7402380000
20
1.9440520000
40
0.2007690000
100
AcDbArc
50
270.0047179438
51
89.9952820562
0
ARC
5
2C2
100
AcDbEntity
8
0
100
AcDbCircle
62
7
6
CONTINUOUS
10
9.7860430000
20
1.9440520000
40
0.5060329798
100
AcDbArc
50
292.8428678668
51
89.9953764890
0
ARC
5
2C3
100
AcDbEntity
8
0
100
AcDbCircle
62
7
6
CONTINUOUS
10
-4.6000000000
20
-6.2000000000
40
0.3000000000
100
AcDbArc
50
90.0000000000
51
180.0000000000
0
ARC
5
2C4
100
AcDbEntity
8
0
100
AcDbCircle
62
7
6
CONTINUOUS
10
-4.6000000000
20
-13.0000000000
40
0.3000000000
100
AcDbArc
50
180.0000000000
51
270.0000000000
0
ARC
5
2C5
100
AcDbEntity
8
0
100
AcDbCircle
62
7
6
CONTINUOUS
10
4.1000000000
20
-5.9000000000
40
0.3000000000
100
AcDbArc
50
90.0000000000
51
150.0000000000
0
ARC
5
2C6
100
AcDbEntity
8
0
100
AcDbCircle
62
7
6
CONTINUOUS
10
4.9000000000
20
-5.9000000000
40
0.3000000000
100
AcDbArc
50
0.0000000000
51
90.0000000000
0
ARC
5
2C7
100
AcDbEntity
8
0
100
AcDbCircle
62
7
6
CONTINUOUS
10
3.5803847577
20
-5.6000000000
40
0.3000000000
100
AcDbArc
50
270.0000000000
51
330.0000000000
0
ARC
5
2C8
100
AcDbEntity
8
0
100
AcDbCircle
62
7
6
CONTINUOUS
10
4.1000000000
20
-13.3000000000
40
0.3000000000
100
AcDbArc
50
210.0000000000
51
270.0000000000
0
ARC
5
2C9
100
AcDbEntity
8
0
100
AcDbCircle
62
7
6
CONTINUOUS
10
3.5803847577
20
-13.6000000000
40
0.3000000000
100
AcDbArc
50
30.0000000000
51
90.0000000000
0
ARC
5
2CA
100
AcDbEntity
8
0
100
AcDbCircle
62
7
6
CONTINUOUS
10
4.9000000000
20
-13.3000000000
40
0.3000000000
100
AcDbArc
50
270.0000000000
51
360.0000000000
0
SPLINE
5
2CB
100
AcDbEntity
8
0
100
AcDbSpline
62
7
6
CONTINUOUS
70
0
71
3
72
72
73
68
74
66
42
0.0000001000
43
0.0000001000
44
0.0000000001
12
0.0917291521
22
1.3405342948
32
0.0000000000
13
0.8558765148
23
0.9104438308
33
0.0000000000
40
0.0000000000
40
0.0000000000
40
0.0000000000
40
0.0000000000
40
0.0624998658
40
0.0937498567
40
0.1249998476
40
0.1562498385
40
0.1874998294
40
0.2187498203
40
0.2343748157
40
0.2499998111
40
0.2656248066
40
0.2812498020
40
0.2890622997
40
0.2968747975
40
0.3046872952
40
0.3124997929
40
0.3164060418
40
0.3203122906
40
0.3242185395
40
0.3261716639
40
0.3281247884
40
0.3300779128
40
0.3310544750
40
0.3320310372
40
0.3325193183
40
0.3330075994
40
0.3332517400
40
0.3333738103
40
0.3334958805
40
0.3337400211
40
0.3339841616
40
0.3344724428
40
0.3349607239
40
0.3359372861
40
0.3369138483
40
0.3378904105
40
0.3398435349
40
0.3437497838
40
0.3476560327
40
0.3515622815
40
0.3554685304
40
0.3593747792
40
0.3671872770
40
0.3749997747
40
0.3906247701
40
0.4062497656
40
0.4218747610
40
0.4374997565
40
0.4531247519
40
0.4687497473
40
0.4999997382
40
0.5312497291
40
0.5624997200
40
0.5937497109
40
0.6249997018
40
0.6406246972
40
0.6562496927
40
0.6640621904
40
0.6718746881
40
0.6874996835
40
0.7031246790
40
0.7187496744
40
0.7499996653
40
0.8124996471
40
0.8749996289
40
0.9374996106
40
1.0000000000
40
1.0000000000
40
1.0000000000
40
1.0000000000
10
8.0489575470
20
-2.2750469997
30
0.0000000000
10
8.0508685669
20
-2.2471192618
30
0.0000000000
10
8.0544335840
20
-2.2058550628
30
0.0000000000
10
8.0605839139
20
-2.1520909824
30
0.0000000000
10
8.0658951533
20
-2.1123953203
30
0.0000000000
10
8.0719048804
20
-2.0733270938
30
0.0000000000
10
8.0786130951
20
-2.0348863030
30
0.0000000000
10
8.0847853471
20
-2.0033751737
30
0.0000000000
10
8.0900723926
20
-1.9784799880
30
0.0000000000
10
8.0942122985
20
-1.9599654577
30
0.0000000000
10
8.0985268264
20
-1.9416077863
30
0.0000000000
10
8.1022677846
20
-1.9264404425
30
0.0000000000
10
8.1053478621
20
-1.9143849970
30
0.0000000000
10
8.1077015758
20
-1.9053826275
30
0.0000000000
10
8.1100989448
20
-1.8964194729
30
0.0000000000
10
8.1121331321
20
-1.8889828558
30
0.0000000000
10
8.1137823092
20
-1.8830531708
30
0.0000000000
10
8.1150301071
20
-1.8786157069
30
0.0000000000
10
8.1160790301
20
-1.8749260025
30
0.0000000000
10
8.1169236330
20
-1.8719791128
30
0.0000000000
10
8.1175597929
20
-1.8697714730
30
0.0000000000
10
8.1180922661
20
-1.8679335721
30
0.0000000000
10
8.1185194602
20
-1.8664650231
30
0.0000000000
10
8.1187873636
20
-1.8655464466
30
0.0000000000
10
8.1190012517
20
-1.8648147408
30
0.0000000000
10
8.1191368438
20
-1.8643510516
30
0.0000000000
10
8.1192282858
20
-1.8640395645
30
0.0000000000
10
8.1192861094
20
-1.8638412069
30
0.0000000000
10
8.1193648675
20
-1.8635660599
30
0.0000000000
10
8.1194561977
20
-1.8632484300
30
0.0000000000
10
8.1196064186
20
-1.8627255480
30
0.0000000000
10
8.1197929953
20
-1.8620770152
30
0.0000000000
10
8.1200926483
20
-1.8610366323
30
0.0000000000
10
8.1204676349
20
-1.8597372714
30
0.0000000000
10
8.1209188244
20
-1.8581778703
30
0.0000000000
10
8.1215218288
20
-1.8560991393
30
0.0000000000
10
8.1225809305
20
-1.8524621497
30
0.0000000000
10
8.1241048547
20
-1.8472689334
30
0.0000000000
10
8.1259510578
20
-1.8410409759
30
0.0000000000
10
8.1278147497
20
-1.8348169395
30
0.0000000000
10
8.1296959318
20
-1.8285968189
30
0.0000000000
10
8.1322274946
20
-1.8203085479
30
0.0000000000
10
8.1354356729
20
-1.8099580015
30
0.0000000000
10
8.1406620378
20
-1.7934180181
30
0.0000000000
10
8.1473698936
20
-1.7727822087
30
0.0000000000
10
8.1556991597
20
-1.7480819096
30
0.0000000000
10
8.1643082650
20
-1.7234442825
30
0.0000000000
10
8.1731972095
20
-1.6988693275
30
0.0000000000
10
8.1823659932
20
-1.6743570446
30
0.0000000000
10
8.1949641572
20
-1.6417575632
30
0.0000000000
10
8.2114114595
20
-1.6011648925
30
0.0000000000
10
8.2322675821
20
-1.5527043719
30
0.0000000000
10
8.2542430508
20
-1.5044945542
30
0.0000000000
10
8.2773379157
20
-1.4565353695
30
0.0000000000
10
8.2975163116
20
-1.4167784610
30
0.0000000000
10
8.3142189803
20
-1.3850978934
30
0.0000000000
10
8.3248907248
20
-1.3653506415
30
0.0000000000
10
8.3335694662
20
-1.3495821695
30
0.0000000000
10
8.3423362810
20
-1.3338419132
30
0.0000000000
10
8.3532831355
20
-1.3144682449
30
0.0000000000
10
8.3664386059
20
-1.2916491532
30
0.0000000000
10
8.3839914361
20
-1.2618150448
30
0.0000000000
10
8.4147495466
20
-1.2111455059
30
0.0000000000
10
8.4588014750
20
-1.1431670648
30
0.0000000000
10
8.5118440010
20
-1.0686415778
30
0.0000000000
10
8.5650664846
20
-1.0011651072
30
0.0000000000
10
8.6006681416
20
-0.9608801225
30
0.0000000000
10
8.6184990134
20
-0.9419124245
30
0.0000000000
11
8.0489575470
21
-2.2750469997
31
0.0000000000
11
8.0560875768
21
-2.1925186527
31
0.0000000000
11
8.0607003285
21
-2.1521955550
31
0.0000000000
11
8.0660115679
21
-2.1124998929
31
0.0000000000
11
8.0720212950
21
-2.0734316664
31
0.0000000000
11
8.0787295097
21
-2.0349908756
31
0.0000000000
11
8.0861362121
21
-1.9971775204
31
0.0000000000
11
8.0901014962
21
-1.9785061312
31
0.0000000000
11
8.0942414022
21
-1.9599916008
31
0.0000000000
11
8.0985559301
21
-1.9416339294
31
0.0000000000
11
8.1030450799
21
-1.9234331169
31
0.0000000000
11
8.1053551380
21
-1.9143915327
31
0.0000000000
11
8.1077088517
21
-1.9053891633
31
0.0000000000
11
8.1101062207
21
-1.8964260086
31
0.0000000000
11
8.1125472453
21
-1.8875020686
31
0.0000000000
11
8.1137841284
21
-1.8830548041
31
0.0000000000
11
8.1150319254
21
-1.8786173433
31
0.0000000000
11
8.1162906362
21
-1.8741896862
31
0.0000000000
11
8.1169240843
21
-1.8719795341
31
0.0000000000
11
8.1175602609
21
-1.8697718328
31
0.0000000000
11
8.1181991659
21
-1.8675665825
31
0.0000000000
11
8.1185196416
21
-1.8664648764
31
0.0000000000
11
8.1188407994
21
-1.8653637831
31
0.0000000000
11
8.1190016341
21
-1.8648134662
31
0.0000000000
11
8.1191626394
21
-1.8642633025
31
0.0000000000
11
8.1192432059
21
-1.8639882781
31
0.0000000000
11
8.1192887262
21
-1.8638316082
31
0.0000000000
11
8.1193447035
21
-1.8636366002
31
0.0000000000
11
8.1194567093
21
-1.8632465957
31
0.0000000000
11
8.1195687834
21
-1.8628566065
31
0.0000000000
11
8.1197931366
21
-1.8620766739
31
0.0000000000
11
8.1200177631
21
-1.8612968025
31
0.0000000000
11
8.1204678358
21
-1.8597372434
31
0.0000000000
11
8.1209190017
21
-1.8581779291
31
0.0000000000
11
8.1213712607
21
-1.8566188596
31
0.0000000000
11
8.1222790581
21
-1.8535014551
31
0.0000000000
11
8.1241077704
21
-1.8472695838
31
0.0000000000
11
8.1259539726
21
-1.8410416294
31
0.0000000000
11
8.1278176647
21
-1.8348175921
31
0.0000000000
11
8.1296988468
21
-1.8285974718
31
0.0000000000
11
8.1315975189
21
-1.8223812685
31
0.0000000000
11
8.1354473328
21
-1.8099606129
31
0.0000000000
11
8.1393671066
21
-1.7975556253
31
0.0000000000
11
8.1474165335
21
-1.7727926541
31
0.0000000000
11
8.1557457996
21
-1.7480923550
31
0.0000000000
11
8.1643549049
21
-1.7234547279
31
0.0000000000
11
8.1732438494
21
-1.6988797729
31
0.0000000000
11
8.1824126331
21
-1.6743674899
31
0.0000000000
11
8.1918612560
21
-1.6499178789
31
0.0000000000
11
8.2115980195
21
-1.6012066732
31
0.0000000000
11
8.2324541398
21
-1.5527461557
31
0.0000000000
11
8.2544296169
21
-1.5045363264
31
0.0000000000
11
8.2775244508
21
-1.4565771853
31
0.0000000000
11
8.3017386415
21
-1.4088687324
31
0.0000000000
11
8.3142654956
21
-1.3851085140
31
0.0000000000
11
8.3270721890
21
-1.3614109676
31
0.0000000000
11
8.3335804754
21
-1.3495856965
31
0.0000000000
11
8.3401437997
21
-1.3377970874
31
0.0000000000
11
8.3532863430
21
-1.3145397966
31
0.0000000000
11
8.3664401313
21
-1.2917230716
31
0.0000000000
11
8.3796051646
21
-1.2693469124
31
0.0000000000
11
8.4059689664
21
-1.2259162913
31
0.0000000000
11
8.4588315103
21
-1.1443418385
31
0.0000000000
11
8.5118739746
21
-1.0698164383
31
0.0000000000
11
8.5650963594
21
-1.0023400907
31
0.0000000000
11
8.6184990134
21
-0.9419124245
31
0.0000000000
0
SPLINE
5
2CC
100
AcDbEntity
8
0
100
AcDbSpline
62
7
6
CONTINUOUS
70
0
71
3
72
22
73
18
74
16
42
0.0000001000
43
0.0000001000
44
0.0000000001
12
0.0000000000
22
-0.4733254049
32
0.0000000000
13
0.4733254049
23
0.0000000000
33
0.0000000000
40
0.0000000000
40
0.0000000000
40
0.0000000000
40
0.0000000000
40
0.0676671853
40
0.1355731550
40
0.2032579586
40
0.2704507235
40
0.3377259741
40
0.4050038467
40
0.4718842725
40
0.5382072209
40
0.6046758662
40
0.6710878153
40
0.7370903167
40
0.8027408720
40
0.8686347097
40
0.9345190029
40
1.0000000000
40
1.0000000000
40
1.0000000000
40
1.0000000000
10
-12.4000000000
20
-18.0962952155
30
0.0000000000
10
-12.4000000000
20
-18.1069714148
30
0.0000000000
10
-12.3988905424
20
-18.1283780465
30
0.0000000000
10
-12.3939076019
20
-18.1601136643
30
0.0000000000
10
-12.3856699991
20
-18.1910899367
30
0.0000000000
10
-12.3742975698
20
-18.2209493025
30
0.0000000000
10
-12.3599135769
20
-18.2494092599
30
0.0000000000
10
-12.3426632963
20
-18.2761708290
30
0.0000000000
10
-12.3228029304
20
-18.3008639511
30
0.0000000000
10
-12.3005646315
20
-18.3232585541
30
0.0000000000
10
-12.2761639596
20
-18.3431597337
30
0.0000000000
10
-12.2498494891
20
-18.3603595750
30
0.0000000000
10
-12.2219881351
20
-18.3746389715
30
0.0000000000
10
-12.1928600946
20
-18.3858886379
30
0.0000000000
10
-12.1627279798
20
-18.3940121733
30
0.0000000000
10
-12.1319374816
20
-18.3989110886
30
0.0000000000
10
-12.1111948868
20
-18.4000000000
30
0.0000000000
10
-12.1008636137
20
-18.4000000000
30
0.0000000000
11
-12.4000000000
21
-18.0962952155
31
0.0000000000
11
-12.3983409031
21
-18.1282808135
31
0.0000000000
11
-12.3933543974
21
-18.1600332706
31
0.0000000000
11
-12.3851189905
21
-18.1909936229
31
0.0000000000
11
-12.3737971976
21
-18.2207142241
31
0.0000000000
11
-12.3594314097
21
-18.2491326374
31
0.0000000000
11
-12.3421762894
21
-18.2758968287
31
0.0000000000
11
-12.3223343101
21
-18.3005628205
31
0.0000000000
11
-12.3002126062
21
-18.3228363249
31
0.0000000000
11
-12.2758305114
21
-18.3427191506
31
0.0000000000
11
-12.2495169715
21
-18.3599157509
31
0.0000000000
11
-12.2217142475
21
-18.3741631161
31
0.0000000000
11
-12.1927264411
21
-18.3853570992
31
0.0000000000
11
-12.1626122270
21
-18.3934751049
31
0.0000000000
11
-12.1318147720
21
-18.3983743790
31
0.0000000000
11
-12.1008636137
21
-18.4000000000
31
0.0000000000
0
SPLINE
5
2CD
100
AcDbEntity
8
0
100
AcDbSpline
62
7
6
CONTINUOUS
70
0
71
3
72
22
73
18
74
16
42
0.0000001000
43
0.0000001000
44
0.0000000001
12
-0.4733254049
22
0.0000000000
32
0.0000000000
13
0.0000000000
23
-0.4733254049
33
0.0000000000
40
0.0000000000
40
0.0000000000
40
0.0000000000
40
0.0000000000
40
0.0654809971
40
0.1313652903
40
0.1972591280
40
0.2629096833
40
0.3289121847
40
0.3953241338
40
0.4617927791
40
0.5281157275
40
0.5949961533
40
0.6622740259
40
0.7295492765
40
0.7967420414
40
0.8644268450
40
0.9323328147
40
1.0000000000
40
1.0000000000
40
1.0000000000
40
1.0000000000
10
-12.1008636137
20
18.4000000000
30
0.0000000000
10
-12.1111948868
20
18.4000000000
30
0.0000000000
10
-12.1319374816
20
18.3989110886
30
0.0000000000
10
-12.1627279798
20
18.3940121733
30
0.0000000000
10
-12.1928600946
20
18.3858886379
30
0.0000000000
10
-12.2219881351
20
18.3746389715
30
0.0000000000
10
-12.2498494891
20
18.3603595750
30
0.0000000000
10
-12.2761639596
20
18.3431597337
30
0.0000000000
10
-12.3005646315
20
18.3232585541
30
0.0000000000
10
-12.3228029304
20
18.3008639511
30
0.0000000000
10
-12.3426632963
20
18.2761708290
30
0.0000000000
10
-12.3599135769
20
18.2494092599
30
0.0000000000
10
-12.3742975698
20
18.2209493025
30
0.0000000000
10
-12.3856699991
20
18.1910899367
30
0.0000000000
10
-12.3939076019
20
18.1601136643
30
0.0000000000
10
-12.3988905424
20
18.1283780465
30
0.0000000000
10
-12.4000000000
20
18.1069714148
30
0.0000000000
10
-12.4000000000
20
18.0962952155
30
0.0000000000
11
-12.1008636137
21
18.4000000000
31
0.0000000000
11
-12.1318147720
21
18.3983743790
31
0.0000000000
11
-12.1626122270
21
18.3934751049
31
0.0000000000
11
-12.1927264411
21
18.3853570992
31
0.0000000000
11
-12.2217142475
21
18.3741631161
31
0.0000000000
11
-12.2495169715
21
18.3599157509
31
0.0000000000
11
-12.2758305114
21
18.3427191506
31
0.0000000000
11
-12.3002126062
21
18.3228363249
31
0.0000000000
11
-12.3223343101
21
18.3005628205
31
0.0000000000
11
-12.3421762894
21
18.2758968287
31
0.0000000000
11
-12.3594314097
21
18.2491326374
31
0.0000000000
11
-12.3737971976
21
18.2207142241
31
0.0000000000
11
-12.3851189905
21
18.1909936229
31
0.0000000000
11
-12.3933543974
21
18.1600332706
31
0.0000000000
11
-12.3983409031
21
18.1282808135
31
0.0000000000
11
-12.4000000000
21
18.0962952155
31
0.0000000000
0
SPLINE
5
2CE
100
AcDbEntity
8
0
100
AcDbSpline
62
7
6
CONTINUOUS
70
0
71
3
72
22
73
18
74
16
42
0.0000001000
43
0.0000001000
44
0.0000000001
12
0.0000000000
22
0.4733254049
32
0.0000000000
13
-0.4733254049
23
-0.0000000000
33
0.0000000000
40
0.0000000000
40
0.0000000000
40
0.0000000000
40
0.0000000000
40
0.0676671853
40
0.1355731550
40
0.2032579586
40
0.2704507235
40
0.3377259741
40
0.4050038467
40
0.4718842725
40
0.5382072209
40
0.6046758662
40
0.6710878153
40
0.7370903167
40
0.8027408720
40
0.8686347097
40
0.9345190029
40
1.0000000000
40
1.0000000000
40
1.0000000000
40
1.0000000000
10
12.4000000000
20
18.0962952155
30
0.0000000000
10
12.4000000000
20
18.1069714148
30
0.0000000000
10
12.3988905424
20
18.1283780465
30
0.0000000000
10
12.3939076019
20
18.1601136643
30
0.0000000000
10
12.3856699991
20
18.1910899367
30
0.0000000000
10
12.3742975698
20
18.2209493025
30
0.0000000000
10
12.3599135769
20
18.2494092599
30
0.0000000000
10
12.3426632963
20
18.2761708290
30
0.0000000000
10
12.3228029304
20
18.3008639511
30
0.0000000000
10
12.3005646315
20
18.3232585541
30
0.0000000000
10
12.2761639596
20
18.3431597337
30
0.0000000000
10
12.2498494891
20
18.3603595750
30
0.0000000000
10
12.2219881351
20
18.3746389715
30
0.0000000000
10
12.1928600946
20
18.3858886379
30
0.0000000000
10
12.1627279798
20
18.3940121733
30
0.0000000000
10
12.1319374816
20
18.3989110886
30
0.0000000000
10
12.1111948868
20
18.4000000000
30
0.0000000000
10
12.1008636137
20
18.4000000000
30
0.0000000000
11
12.4000000000
21
18.0962952155
31
0.0000000000
11
12.3983409031
21
18.1282808135
31
0.0000000000
11
12.3933543974
21
18.1600332706
31
0.0000000000
11
12.3851189905
21
18.1909936229
31
0.0000000000
11
12.3737971976
21
18.2207142241
31
0.0000000000
11
12.3594314097
21
18.2491326374
31
0.0000000000
11
12.3421762894
21
18.2758968287
31
0.0000000000
11
12.3223343101
21
18.3005628205
31
0.0000000000
11
12.3002126062
21
18.3228363249
31
0.0000000000
11
12.2758305114
21
18.3427191506
31
0.0000000000
11
12.2495169715
21
18.3599157509
31
0.0000000000
11
12.2217142475
21
18.3741631161
31
0.0000000000
11
12.1927264411
21
18.3853570992
31
0.0000000000
11
12.1626122270
21
18.3934751049
31
0.0000000000
11
12.1318147720
21
18.3983743790
31
0.0000000000
11
12.1008636137
21
18.4000000000
31
0.0000000000
0
SPLINE
5
2CF
100
AcDbEntity
8
0
100
AcDbSpline
62
7
6
CONTINUOUS
70
0
71
3
72
22
73
18
74
16
42
0.0000001000
43
0.0000001000
44
0.0000000001
12
0.4733254049
22
0.0000000000
32
0.0000000000
13
0.0000000000
23
0.4733254049
33
0.0000000000
40
0.0000000000
40
0.0000000000
40
0.0000000000
40
0.0000000000
40
0.0654809971
40
0.1313652903
40
0.1972591280
40
0.2629096833
40
0.3289121847
40
0.3953241338
40
0.4617927791
40
0.5281157275
40
0.5949961533
40
0.6622740259
40
0.7295492765
40
0.7967420414
40
0.8644268450
40
0.9323328147
40
1.0000000000
40
1.0000000000
40
1.0000000000
40
1.0000000000
10
12.1008636137
20
-18.4000000000
30
0.0000000000
10
12.1111948868
20
-18.4000000000
30
0.0000000000
10
12.1319374816
20
-18.3989110886
30
0.0000000000
10
12.1627279798
20
-18.3940121733
30
0.0000000000
10
12.1928600946
20
-18.3858886379
30
0.0000000000
10
12.2219881351
20
-18.3746389715
30
0.0000000000
10
12.2498494891
20
-18.3603595750
30
0.0000000000
10
12.2761639596
20
-18.3431597337
30
0.0000000000
10
12.3005646315
20
-18.3232585541
30
0.0000000000
10
12.3228029304
20
-18.3008639511
30
0.0000000000
10
12.3426632963
20
-18.2761708290
30
0.0000000000
10
12.3599135769
20
-18.2494092599
30
0.0000000000
10
12.3742975698
20
-18.2209493025
30
0.0000000000
10
12.3856699991
20
-18.1910899367
30
0.0000000000
10
12.3939076019
20
-18.1601136643
30
0.0000000000
10
12.3988905424
20
-18.1283780465
30
0.0000000000
10
12.4000000000
20
-18.1069714148
30
0.0000000000
10
12.4000000000
20
-18.0962952155
30
0.0000000000
11
12.1008636137
21
-18.4000000000
31
0.0000000000
11
12.1318147720
21
-18.3983743790
31
0.0000000000
11
12.1626122270
21
-18.3934751049
31
0.0000000000
11
12.1927264411
21
-18.3853570992
31
0.0000000000
11
12.2217142475
21
-18.3741631161
31
0.0000000000
11
12.2495169715
21
-18.3599157509
31
0.0000000000
11
12.2758305114
21
-18.3427191506
31
0.0000000000
11
12.3002126062
21
-18.3228363249
31
0.0000000000
11
12.3223343101
21
-18.3005628205
31
0.0000000000
11
12.3421762894
21
-18.2758968287
31
0.0000000000
11
12.3594314097
21
-18.2491326374
31
0.0000000000
11
12.3737971976
21
-18.2207142241
31
0.0000000000
11
12.3851189905
21
-18.1909936229
31
0.0000000000
11
12.3933543974
21
-18.1600332706
31
0.0000000000
11
12.3983409031
21
-18.1282808135
31
0.0000000000
11
12.4000000000
21
-18.0962952155
31
0.0000000000
0
SPLINE
5
2D0
100
AcDbEntity
8
0
100
AcDbSpline
62
7
6
CONTINUOUS
70
0
71
3
72
8
73
4
74
2
42
0.0000001000
43
0.0000001000
44
0.0000000001
12
-0.0023550999
22
0.0000000000
32
0.0000000000
13
-0.0021778053
23
0.0010426990
33
0.0000000000
40
0.0000000000
40
0.0000000000
40
0.0000000000
40
0.0000000000
40
1.0000000000
40
1.0000000000
40
1.0000000000
40
1.0000000000
10
7.5274900823
20
16.6500000000
30
0.0000000000
10
7.5267050490
20
16.6500000000
30
0.0000000000
10
7.5259344160
20
16.6502265723
30
0.0000000000
10
7.5252084809
20
16.6505741387
30
0.0000000000
11
7.5274900823
21
16.6500000000
31
0.0000000000
11
7.5252084809
21
16.6505741387
31
0.0000000000
0
SPLINE
5
2D1
100
AcDbEntity
8
0
100
AcDbSpline
62
7
6
CONTINUOUS
70
0
71
3
72
8
73
4
74
2
42
0.0000001000
43
0.0000001000
44
0.0000000001
12
-0.0012494605
22
0.0005982220
32
0.0000000000
13
-0.0011440194
23
0.0007773657
33
0.0000000000
40
0.0000000000
40
0.0000000000
40
0.0000000000
40
0.0000000000
40
1.0000000000
40
1.0000000000
40
1.0000000000
40
1.0000000000
10
7.5252084809
20
16.6505741387
30
0.0000000000
10
7.5247919941
20
16.6507735460
30
0.0000000000
10
7.5243902200
20
16.6510127797
30
0.0000000000
10
7.5240088802
20
16.6512719016
30
0.0000000000
11
7.5252084809
21
16.6505741387
31
0.0000000000
11
7.5240088802
21
16.6512719016
31
0.0000000000
0
SPLINE
5
2D2
100
AcDbEntity
8
0
100
AcDbSpline
62
7
6
CONTINUOUS
70
0
71
3
72
12
73
8
74
6
42
0.0000001000
43
0.0000001000
44
0.0000000001
12
-0.0405302513
22
0.0275404667
32
0.0000000000
13
-0.0149837410
23
0.0454679529
33
0.0000000000
40
0.0000000000
40
0.0000000000
40
0.0000000000
40
0.0000000000
40
0.1120621368
40
0.2676458512
40
0.4683566990
40
0.7132177219
40
1.0000000000
40
1.0000000000
40
1.0000000000
40
1.0000000000
10
7.5240088802
20
16.6512719016
30
0.0000000000
10
7.5224949113
20
16.6523006495
30
0.0000000000
10
7.5196482499
20
16.6555063779
30
0.0000000000
10
7.5156492368
20
16.6618529654
30
0.0000000000
10
7.5114583531
20
16.6704916905
30
0.0000000000
10
7.5070690427
20
16.6813287481
30
0.0000000000
10
7.5042744751
20
16.6893409429
30
0.0000000000
10
7.5028421180
20
16.6936874106
30
0.0000000000
11
7.5240088802
21
16.6512719016
31
0.0000000000
11
7.5202095583
21
16.6550589152
31
0.0000000000
11
7.5161410112
21
16.6612971307
31
0.0000000000
11
7.5118545590
21
16.6698958825
31
0.0000000000
11
7.5074034059
21
16.6807392100
31
0.0000000000
11
7.5028421180
21
16.6936874106
31
0.0000000000
0
SPLINE
5
2D3
100
AcDbEntity
8
0
100
AcDbSpline
62
7
6
CONTINUOUS
70
0
71
3
72
8
73
4
74
2
42
0.0000001000
43
0.0000001000
44
0.0000000001
12
-0.0031914888
22
0.0096845283
32
0.0000000000
13
-0.0029652652
23
0.0097558103
33
0.0000000000
40
0.0000000000
40
0.0000000000
40
0.0000000000
40
0.0000000000
40
1.0000000000
40
1.0000000000
40
1.0000000000
40
1.0000000000
10
7.5028421180
20
16.6936874106
30
0.0000000000
10
7.5017782884
20
16.6969155867
30
0.0000000000
10
7.5007558887
20
16.7001572668
30
0.0000000000
10
7.4997674669
20
16.7034092036
30
0.0000000000
11
7.5028421180
21
16.6936874106
31
0.0000000000
11
7.4997674669
21
16.7034092036
31
0.0000000000
0
SPLINE
5
2D4
100
AcDbEntity
8
0
100
AcDbSpline
62
7
6
CONTINUOUS
70
0
71
3
72
8
73
4
74
2
42
0.0000001000
43
0.0000001000
44
0.0000000001
12
-0.0015687727
22
0.0051613088
32
0.0000000000
13
-0.0015150218
23
0.0051770907
33
0.0000000000
40
0.0000000000
40
0.0000000000
40
0.0000000000
40
0.0000000000
40
1.0000000000
40
1.0000000000
40
1.0000000000
40
1.0000000000
10
7.4997674669
20
16.7034092036
30
0.0000000000
10
7.4992445427
20
16.7051296398
30
0.0000000000
10
7.4987311287
20
16.7068529469
30
0.0000000000
10
7.4982261214
20
16.7085786438
30
0.0000000000
11
7.4997674669
21
16.7034092036
31
0.0000000000
11
7.4982261214
21
16.7085786438
31
0.0000000000
0
SPLINE
5
2D5
100
AcDbEntity
8
0
100
AcDbSpline
62
7
6
CONTINUOUS
70
0
71
3
72
8
73
4
74
2
42
0.0000001000
43
0.0000001000
44
0.0000000001
12
-0.0023550999
22
0.0000000000
32
0.0000000000
13
-0.0021778053
23
-0.0010426990
33
0.0000000000
40
0.0000000000
40
0.0000000000
40
0.0000000000
40
0.0000000000
40
1.0000000000
40
1.0000000000
40
1.0000000000
40
1.0000000000
10
7.5274900823
20
-16.6500000000
30
0.0000000000
10
7.5267050490
20
-16.6500000000
30
0.0000000000
10
7.5259344160
20
-16.6502265723
30
0.0000000000
10
7.5252084809
20
-16.6505741387
30
0.0000000000
11
7.5274900823
21
-16.6500000000
31
0.0000000000
11
7.5252084809
21
-16.6505741387
31
0.0000000000
0
SPLINE
5
2D6
100
AcDbEntity
8
0
100
AcDbSpline
62
7
6
CONTINUOUS
70
0
71
3
72
8
73
4
74
2
42
0.0000001000
43
0.0000001000
44
0.0000000001
12
-0.0031914888
22
-0.0096845283
32
0.0000000000
13
-0.0029652652
23
-0.0097558103
33
0.0000000000
40
0.0000000000
40
0.0000000000
40
0.0000000000
40
0.0000000000
40
1.0000000000
40
1.0000000000
40
1.0000000000
40
1.0000000000
10
7.5028421180
20
-16.6936874106
30
0.0000000000
10
7.5017782884
20
-16.6969155867
30
0.0000000000
10
7.5007558887
20
-16.7001572668
30
0.0000000000
10
7.4997674669
20
-16.7034092036
30
0.0000000000
11
7.5028421180
21
-16.6936874106
31
0.0000000000
11
7.4997674669
21
-16.7034092036
31
0.0000000000
0
SPLINE
5
2D7
100
AcDbEntity
8
0
100
AcDbSpline
62
7
6
CONTINUOUS
70
0
71
3
72
8
73
4
74
2
42
0.0000001000
43
0.0000001000
44
0.0000000001
12
-0.0015687727
22
-0.0051613088
32
0.0000000000
13
-0.0015150218
23
-0.0051770907
33
0.0000000000
40
0.0000000000
40
0.0000000000
40
0.0000000000
40
0.0000000000
40
1.0000000000
40
1.0000000000
40
1.0000000000
40
1.0000000000
10
7.4997674669
20
-16.7034092036
30
0.0000000000
10
7.4992445427
20
-16.7051296398
30
0.0000000000
10
7.4987311287
20
-16.7068529469
30
0.0000000000
10
7.4982261214
20
-16.7085786438
30
0.0000000000
11
7.4997674669
21
-16.7034092036
31
0.0000000000
11
7.4982261214
21
-16.7085786438
31
0.0000000000
0
SPLINE
5
2D8
100
AcDbEntity
8
0
100
AcDbSpline
62
7
6
CONTINUOUS
70
0
71
3
72
8
73
4
74
2
42
0.0000001000
43
0.0000001000
44
0.0000000001
12
0.0023550999
22
0.0000000000
32
0.0000000000
13
0.0021778053
23
-0.0010426990
33
0.0000000000
40
0.0000000000
40
0.0000000000
40
0.0000000000
40
0.0000000000
40
1.0000000000
40
1.0000000000
40
1.0000000000
40
1.0000000000
10
-7.5274900823
20
-16.6500000000
30
0.0000000000
10
-7.5267050490
20
-16.6500000000
30
0.0000000000
10
-7.5259344160
20
-16.6502265723
30
0.0000000000
10
-7.5252084809
20
-16.6505741387
30
0.0000000000
11
-7.5274900823
21
-16.6500000000
31
0.0000000000
11
-7.5252084809
21
-16.6505741387
31
0.0000000000
0
SPLINE
5
2D9
100
AcDbEntity
8
0
100
AcDbSpline
62
7
6
CONTINUOUS
70
0
71
3
72
8
73
4
74
2
42
0.0000001000
43
0.0000001000
44
0.0000000001
12
0.0031914888
22
-0.0096845283
32
0.0000000000
13
0.0029652652
23
-0.0097558103
33
0.0000000000
40
0.0000000000
40
0.0000000000
40
0.0000000000
40
0.0000000000
40
1.0000000000
40
1.0000000000
40
1.0000000000
40
1.0000000000
10
-7.5028421180
20
-16.6936874106
30
0.0000000000
10
-7.5017782884
20
-16.6969155867
30
0.0000000000
10
-7.5007558887
20
-16.7001572668
30
0.0000000000
10
-7.4997674669
20
-16.7034092036
30
0.0000000000
11
-7.5028421180
21
-16.6936874106
31
0.0000000000
11
-7.4997674669
21
-16.7034092036
31
0.0000000000
0
SPLINE
5
2DA
100
AcDbEntity
8
0
100
AcDbSpline
62
7
6
CONTINUOUS
70
0
71
3
72
8
73
4
74
2
42
0.0000001000
43
0.0000001000
44
0.0000000001
12
0.0015687727
22
-0.0051613088
32
0.0000000000
13
0.0015150218
23
-0.0051770907
33
0.0000000000
40
0.0000000000
40
0.0000000000
40
0.0000000000
40
0.0000000000
40
1.0000000000
40
1.0000000000
40
1.0000000000
40
1.0000000000
10
-7.4997674669
20
-16.7034092036
30
0.0000000000
10
-7.4992445427
20
-16.7051296398
30
0.0000000000
10
-7.4987311287
20
-16.7068529469
30
0.0000000000
10
-7.4982261214
20
-16.7085786438
30
0.0000000000
11
-7.4997674669
21
-16.7034092036
31
0.0000000000
11
-7.4982261214
21
-16.7085786438
31
0.0000000000
0
SPLINE
5
2DB
100
AcDbEntity
8
0
100
AcDbSpline
62
7
6
CONTINUOUS
70
0
71
3
72
8
73
4
74
2
42
0.0000001000
43
0.0000001000
44
0.0000000001
12
0.0023550999
22
0.0000000000
32
0.0000000000
13
0.0021778053
23
0.0010426990
33
0.0000000000
40
0.0000000000
40
0.0000000000
40
0.0000000000
40
0.0000000000
40
1.0000000000
40
1.0000000000
40
1.0000000000
40
1.0000000000
10
-7.5274900823
20
16.6500000000
30
0.0000000000
10
-7.5267050490
20
16.6500000000
30
0.0000000000
10
-7.5259344160
20
16.6502265723
30
0.0000000000
10
-7.5252084809
20
16.6505741387
30
0.0000000000
11
-7.5274900823
21
16.6500000000
31
0.0000000000
11
-7.5252084809
21
16.6505741387
31
0.0000000000
0
SPLINE
5
2DC
100
AcDbEntity
8
0
100
AcDbSpline
62
7
6
CONTINUOUS
70
0
71
3
72
8
73
4
74
2
42
0.0000001000
43
0.0000001000
44
0.0000000001
12
0.0012494605
22
0.0005982220
32
0.0000000000
13
0.0011440194
23
0.0007773657
33
0.0000000000
40
0.0000000000
40
0.0000000000
40
0.0000000000
40
0.0000000000
40
1.0000000000
40
1.0000000000
40
1.0000000000
40
1.0000000000
10
-7.5252084809
20
16.6505741387
30
0.0000000000
10
-7.5247919941
20
16.6507735460
30
0.0000000000
10
-7.5243902200
20
16.6510127797
30
0.0000000000
10
-7.5240088802
20
16.6512719016
30
0.0000000000
11
-7.5252084809
21
16.6505741387
31
0.0000000000
11
-7.5240088802
21
16.6512719016
31
0.0000000000
0
SPLINE
5
2DD
100
AcDbEntity
8
0
100
AcDbSpline
62
7
6
CONTINUOUS
70
0
71
3
72
12
73
8
74
6
42
0.0000001000
43
0.0000001000
44
0.0000000001
12
0.0405302513
22
0.0275404667
32
0.0000000000
13
0.0149837410
23
0.0454679529
33
0.0000000000
40
0.0000000000
40
0.0000000000
40
0.0000000000
40
0.0000000000
40
0.1120621368
40
0.2676458512
40
0.4683566990
40
0.7132177219
40
1.0000000000
40
1.0000000000
40
1.0000000000
40
1.0000000000
10
-7.5240088802
20
16.6512719016
30
0.0000000000
10
-7.5224949113
20
16.6523006495
30
0.0000000000
10
-7.5196482499
20
16.6555063779
30
0.0000000000
10
-7.5156492368
20
16.6618529654
30
0.0000000000
10
-7.5114583531
20
16.6704916905
30
0.0000000000
10
-7.5070690427
20
16.6813287481
30
0.0000000000
10
-7.5042744751
20
16.6893409429
30
0.0000000000
10
-7.5028421180
20
16.6936874106
30
0.0000000000
11
-7.5240088802
21
16.6512719016
31
0.0000000000
11
-7.5202095583
21
16.6550589152
31
0.0000000000
11
-7.5161410112
21
16.6612971307
31
0.0000000000
11
-7.5118545590
21
16.6698958825
31
0.0000000000
11
-7.5074034059
21
16.6807392100
31
0.0000000000
11
-7.5028421180
21
16.6936874106
31
0.0000000000
0
SPLINE
5
2DE
100
AcDbEntity
8
0
100
AcDbSpline
62
7
6
CONTINUOUS
70
0
71
3
72
8
73
4
74
2
42
0.0000001000
43
0.0000001000
44
0.0000000001
12
0.0031914888
22
0.0096845283
32
0.0000000000
13
0.0029652652
23
0.0097558103
33
0.0000000000
40
0.0000000000
40
0.0000000000
40
0.0000000000
40
0.0000000000
40
1.0000000000
40
1.0000000000
40
1.0000000000
40
1.0000000000
10
-7.5028421180
20
16.6936874106
30
0.0000000000
10
-7.5017782884
20
16.6969155867
30
0.0000000000
10
-7.5007558887
20
16.7001572668
30
0.0000000000
10
-7.4997674669
20
16.7034092036
30
0.0000000000
11
-7.5028421180
21
16.6936874106
31
0.0000000000
11
-7.4997674669
21
16.7034092036
31
0.0000000000
0
SPLINE
5
2DF
100
AcDbEntity
8
0
100
AcDbSpline
62
7
6
CONTINUOUS
70
0
71
3
72
8
73
4
74
2
42
0.0000001000
43
0.0000001000
44
0.0000000001
12
0.0015687727
22
0.0051613088
32
0.0000000000
13
0.0015150218
23
0.0051770907
33
0.0000000000
40
0.0000000000
40
0.0000000000
40
0.0000000000
40
0.0000000000
40
1.0000000000
40
1.0000000000
40
1.0000000000
40
1.0000000000
10
-7.4997674669
20
16.7034092036
30
0.0000000000
10
-7.4992445427
20
16.7051296398
30
0.0000000000
10
-7.4987311287
20
16.7068529469
30
0.0000000000
10
-7.4982261214
20
16.7085786438
30
0.0000000000
11
-7.4997674669
21
16.7034092036
31
0.0000000000
11
-7.4982261214
21
16.7085786438
31
0.0000000000
0
SPLINE
5
2E0
100
AcDbEntity
8
0
100
AcDbSpline
62
7
6
CONTINUOUS
70
0
71
3
72
23
73
19
74
17
42
0.0000001000
43
0.0000001000
44
0.0000000001
12
0.3426636583
22
0.1263473066
32
0.0000000000
13
0.2652123282
23
0.2526948976
33
0.0000000000
40
0.0000000000
40
0.0000000000
40
0.0000000000
40
0.0000000000
40
0.0937507294
40
0.1875006439
40
0.2812505585
40
0.3750004730
40
0.4218754303
40
0.4453129089
40
0.4687503876
40
0.4921878662
40
0.5156253449
40
0.5625003021
40
0.6093752594
40
0.6562502167
40
0.7031251740
40
0.7500001312
40
0.8750000173
40
1.0000000000
40
1.0000000000
40
1.0000000000
40
1.0000000000
10
8.9397779961
20
-1.3273441120
30
0.0000000000
10
8.9504863188
20
-1.3233957279
30
0.0000000000
10
8.9724170481
20
-1.3147586688
30
0.0000000000
10
9.0068556354
20
-1.2995821261
30
0.0000000000
10
9.0428365970
20
-1.2821846988
30
0.0000000000
10
9.0741062973
20
-1.2658359836
30
0.0000000000
10
9.0966696755
20
-1.2534203487
30
0.0000000000
10
9.1097562603
20
-1.2460478761
30
0.0000000000
10
9.1196664483
20
-1.2403802906
30
0.0000000000
10
9.1296774695
20
-1.2345716850
30
0.0000000000
10
9.1431319802
20
-1.2266528174
30
0.0000000000
10
9.1594191769
20
-1.2167927919
30
0.0000000000
10
9.1782709164
20
-1.2049442312
30
0.0000000000
10
9.1963877976
20
-1.1931000997
30
0.0000000000
10
9.2137810576
20
-1.1812547848
30
0.0000000000
10
9.2397069608
20
-1.1628292188
30
0.0000000000
10
9.2720826314
20
-1.1378229063
30
0.0000000000
10
9.2959044869
20
-1.1167650238
30
0.0000000000
10
9.3069549990
20
-1.1062360711
30
0.0000000000
11
8.9397779961
21
-1.3273441120
31
0.0000000000
11
8.9726742362
21
-1.3143884654
31
0.0000000000
11
9.0071127144
21
-1.2992119713
31
0.0000000000
11
9.0430937101
21
-1.2818145270
31
0.0000000000
11
9.0806172233
21
-1.2621961323
31
0.0000000000
11
9.0999574239
21
-1.2515540786
31
0.0000000000
11
9.1097721352
21
-1.2460248376
31
0.0000000000
11
9.1196832538
21
-1.2403567872
31
0.0000000000
11
9.1296907798
21
-1.2345499275
31
0.0000000000
11
9.1397329564
21
-1.2286351049
31
0.0000000000
11
9.1593036941
21
-1.2167900369
31
0.0000000000
11
9.1781484400
21
-1.2049449694
31
0.0000000000
11
9.1962671941
21
-1.1930999025
31
0.0000000000
11
9.2136599563
21
-1.1812548361
31
0.0000000000
11
9.2303267267
21
-1.1694097703
31
0.0000000000
11
9.2712221543
21
-1.1378229310
31
0.0000000000
11
9.3069549990
21
-1.1062360711
31
0.0000000000
0
SPLINE
5
2E1
100
AcDbEntity
8
0
100
AcDbSpline
62
7
6
CONTINUOUS
70
0
71
3
72
21
73
17
74
15
42
0.0000001000
43
0.0000001000
44
0.0000000001
12
-0.1918030663
22
-0.3872566795
32
0.0000000000
13
-0.6159601253
23
-0.2894646116
33
0.0000000000
40
0.0000000000
40
0.0000000000
40
0.0000000000
40
0.0000000000
40
0.0937497045
40
0.1874996881
40
0.2812496717
40
0.3749996553
40
0.4218746471
40
0.4687496389
40
0.4921871348
40
0.5156246307
40
0.5624996225
40
0.6093746143
40
0.6562496061
40
0.7499995897
40
0.8749995678
40
1.0000000000
40
1.0000000000
40
1.0000000000
40
1.0000000000
10
9.3722148498
20
-0.7750470024
30
0.0000000000
10
9.3662210228
20
-0.7871487355
30
0.0000000000
10
9.3526560754
20
-0.8114951100
30
0.0000000000
10
9.3275768392
20
-0.8484432672
30
0.0000000000
10
9.2977656665
20
-0.8858201610
30
0.0000000000
10
9.2689800528
20
-0.9173244506
30
0.0000000000
10
9.2435851319
20
-0.9427428408
30
0.0000000000
10
9.2267286704
20
-0.9587171343
30
0.0000000000
10
9.2126493564
20
-0.9715535644
30
0.0000000000
10
9.1981854522
20
-0.9844132275
30
0.0000000000
10
9.1797148714
20
-1.0001074220
30
0.0000000000
10
9.1568542114
20
-1.0184227386
30
0.0000000000
10
9.1254705353
20
-1.0421205954
30
0.0000000000
10
9.0790787899
20
-1.0741739117
30
0.0000000000
10
9.0151589814
20
-1.1125911924
30
0.0000000000
10
8.9654430896
20
-1.1379860158
30
0.0000000000
10
8.9397779956
20
-1.1500470830
30
0.0000000000
11
9.3722148498
21
-0.7750470024
31
0.0000000000
11
9.3518674642
21
-0.8115665031
31
0.0000000000
11
9.3267881873
21
-0.8485147172
31
0.0000000000
11
9.2969770726
21
-0.8858915366
31
0.0000000000
11
9.2624341201
21
-0.9236969613
31
0.0000000000
11
9.2433882047
21
-0.9427604007
31
0.0000000000
11
9.2231593298
21
-0.9619309914
31
0.0000000000
11
9.2126012826
21
-0.9715564685
31
0.0000000000
11
9.2017753815
21
-0.9811729528
31
0.0000000000
11
9.1795988776
21
-1.0000211359
31
0.0000000000
11
9.1567413619
21
-1.0183324179
31
0.0000000000
11
9.1332028345
21
-1.0361067990
31
0.0000000000
11
9.0840827445
21
-1.0700448581
31
0.0000000000
11
9.0143518849
21
-1.1119548862
31
0.0000000000
11
8.9397779956
21
-1.1500470830
31
0.0000000000
0
SPLINE
5
2E2
100
AcDbEntity
8
0
100
AcDbSpline
62
7
6
CONTINUOUS
70
0
71
3
72
37
73
33
74
31
42
0.0000001000
43
0.0000001000
44
0.0000000001
12
-0.8357311342
22
-0.9548416490
32
0.0000000000
13
-0.0183851677
23
-1.0588929956
33
0.0000000000
40
0.0000000000
40
0.0000000000
40
0.0000000000
40
0.0000000000
40
0.0625000980
40
0.1250001013
40
0.1875001045
40
0.2500001077
40
0.2812501094
40
0.2968751102
40
0.3125001110
40
0.3281251118
40
0.3437501126
40
0.3750001142
40
0.4062501158
40
0.4375001175
40
0.4687501191
40
0.5000001207
40
0.5312501223
40
0.5625001239
40
0.5937501255
40
0.6250001272
40
0.6406251280
40
0.6562501288
40
0.6640626292
40
0.6718751296
40
0.6875001304
40
0.7031251312
40
0.7187501320
40
0.7500001336
40
0.8125001369
40
0.8750001401
40
0.9375001434
40
1.0000000000
40
1.0000000000
40
1.0000000000
40
1.0000000000
10
8.3827546138
20
-0.9753250028
30
0.0000000000
10
8.3653435212
20
-0.9952175683
30
0.0000000000
10
8.3308907589
20
-1.0367125056
30
0.0000000000
10
8.2803198050
20
-1.1040844160
30
0.0000000000
10
8.2308570885
20
-1.1765857573
30
0.0000000000
10
8.1905615553
20
-1.2412782446
30
0.0000000000
10
8.1628396858
20
-1.2888069138
30
0.0000000000
10
8.1471368694
20
-1.3166076993
30
0.0000000000
10
8.1354297819
20
-1.3377778737
30
0.0000000000
10
8.1237890380
20
-1.3592724975
30
0.0000000000
10
8.1083749389
20
-1.3883402367
30
0.0000000000
10
8.0897894049
20
-1.4248039143
30
0.0000000000
10
8.0684748579
20
-1.4689031623
30
0.0000000000
10
8.0481760706
20
-1.5133086890
30
0.0000000000
10
8.0288856300
20
-1.5580302901
30
0.0000000000
10
8.0106055222
20
-1.6030653395
30
0.0000000000
10
7.9933352150
20
-1.6484145457
30
0.0000000000
10
7.9770748520
20
-1.6940777004
30
0.0000000000
10
7.9618243904
20
-1.7400549285
30
0.0000000000
10
7.9499572798
20
-1.7786307703
30
0.0000000000
10
7.9409685226
20
-1.8096488551
30
0.0000000000
10
7.9355610046
20
-1.8290996449
30
0.0000000000
10
7.9313610996
20
-1.8447016585
30
0.0000000000
10
7.9272458275
20
-1.8603220587
30
0.0000000000
10
7.9222765012
20
-1.8796178220
30
0.0000000000
10
7.9165894845
20
-1.9024618076
30
0.0000000000
10
7.9093762527
20
-1.9324857706
30
0.0000000000
10
7.8977221375
20
-1.9838995490
30
0.0000000000
10
7.8838424878
20
-2.0541179310
30
0.0000000000
10
7.8716173211
20
-2.1332142542
30
0.0000000000
10
7.8638226070
20
-2.2071442312
30
0.0000000000
10
7.8615797510
20
-2.2529867798
30
0.0000000000
10
7.8611967275
20
-2.2750469999
30
0.0000000000
11
8.3827546138
21
-0.9753250028
31
0.0000000000
11
8.3310754292
21
-1.0375674586
31
0.0000000000
11
8.2805045070
21
-1.1049393268
31
0.0000000000
11
8.2310417679
21
-1.1774406979
31
0.0000000000
11
8.1826872120
21
-1.2550715718
31
0.0000000000
11
8.1589255027
21
-1.2958105724
31
0.0000000000
11
8.1471485402
21
-1.3166609635
31
0.0000000000
11
8.1354408392
21
-1.3378319486
31
0.0000000000
11
8.1238023996
21
-1.3593235276
31
0.0000000000
11
8.1122739363
21
-1.3810819021
31
0.0000000000
11
8.0899540872
21
-1.4248610534
31
0.0000000000
11
8.0686441512
21
-1.4689542087
31
0.0000000000
11
8.0483441284
21
-1.5133613681
31
0.0000000000
11
8.0290540188
21
-1.5580825315
31
0.0000000000
11
8.0107738223
21
-1.6031176989
31
0.0000000000
11
7.9935035390
21
-1.6484668704
31
0.0000000000
11
7.9772431689
21
-1.6941300459
31
0.0000000000
11
7.9619927119
21
-1.7401072255
31
0.0000000000
11
7.9477521681
21
-1.7863984091
31
0.0000000000
11
7.9410106136
21
-1.8096617525
31
0.0000000000
11
7.9345215374
21
-1.8330035968
31
0.0000000000
11
7.9313716787
21
-1.8447039568
31
0.0000000000
11
7.9282862965
21
-1.8564016429
31
0.0000000000
11
7.9223225303
21
-1.8795660003
31
0.0000000000
11
7.9166356667
21
-1.9024074721
31
0.0000000000
11
7.9112257055
21
-1.9249260581
31
0.0000000000
11
7.9012364905
21
-1.9689945732
31
0.0000000000
11
7.8845808900
21
-2.0532569751
31
0.0000000000
11
7.8723557289
21
-2.1323532061
31
0.0000000000
11
7.8645610072
21
-2.2062832661
31
0.0000000000
11
7.8611967275
21
-2.2750469999
31
0.0000000000
0
SPLINE
5
2E3
100
AcDbEntity
8
0
100
AcDbSpline
62
7
6
CONTINUOUS
70
0
71
3
72
72
73
68
74
66
42
0.0000001000
43
0.0000001000
44
0.0000000001
12
0.0917291521
22
1.3405342948
32
0.0000000000
13
0.8558765148
23
0.9104438308
33
0.0000000000
40
0.0000000000
40
0.0000000000
40
0.0000000000
40
0.0000000000
40
0.0624998658
40
0.0937498567
40
0.1249998476
40
0.1562498385
40
0.1874998294
40
0.2187498203
40
0.2343748157
40
0.2499998111
40
0.2656248066
40
0.2812498020
40
0.2890622997
40
0.2968747975
40
0.3046872952
40
0.3124997929
40
0.3164060418
40
0.3203122906
40
0.3242185395
40
0.3261716639
40
0.3281247884
40
0.3300779128
40
0.3310544750
40
0.3320310372
40
0.3325193183
40
0.3330075994
40
0.3332517400
40
0.3333738103
40
0.3334958805
40
0.3337400211
40
0.3339841616
40
0.3344724428
40
0.3349607239
40
0.3359372861
40
0.3369138483
40
0.3378904105
40
0.3398435349
40
0.3437497838
40
0.3476560327
40
0.3515622815
40
0.3554685304
40
0.3593747792
40
0.3671872770
40
0.3749997747
40
0.3906247701
40
0.4062497656
40
0.4218747610
40
0.4374997565
40
0.4531247519
40
0.4687497473
40
0.4999997382
40
0.5312497291
40
0.5624997200
40
0.5937497109
40
0.6249997018
40
0.6406246972
40
0.6562496927
40
0.6640621904
40
0.6718746881
40
0.6874996835
40
0.7031246790
40
0.7187496744
40
0.7499996653
40
0.8124996471
40
0.8749996289
40
0.9374996106
40
1.0000000000
40
1.0000000000
40
1.0000000000
40
1.0000000000
10
8.0489575470
20
-2.2750469997
30
0.0000000000
10
8.0508685669
20
-2.2471192618
30
0.0000000000
10
8.0544335840
20
-2.2058550628
30
0.0000000000
10
8.0605839139
20
-2.1520909824
30
0.0000000000
10
8.0658951533
20
-2.1123953203
30
0.0000000000
10
8.0719048804
20
-2.0733270938
30
0.0000000000
10
8.0786130951
20
-2.0348863030
30
0.0000000000
10
8.0847853471
20
-2.0033751737
30
0.0000000000
10
8.0900723926
20
-1.9784799880
30
0.0000000000
10
8.0942122985
20
-1.9599654577
30
0.0000000000
10
8.0985268264
20
-1.9416077863
30
0.0000000000
10
8.1022677846
20
-1.9264404425
30
0.0000000000
10
8.1053478621
20
-1.9143849970
30
0.0000000000
10
8.1077015758
20
-1.9053826275
30
0.0000000000
10
8.1100989448
20
-1.8964194729
30
0.0000000000
10
8.1121331321
20
-1.8889828558
30
0.0000000000
10
8.1137823092
20
-1.8830531708
30
0.0000000000
10
8.1150301071
20
-1.8786157069
30
0.0000000000
10
8.1160790301
20
-1.8749260025
30
0.0000000000
10
8.1169236330
20
-1.8719791128
30
0.0000000000
10
8.1175597929
20
-1.8697714730
30
0.0000000000
10
8.1180922661
20
-1.8679335721
30
0.0000000000
10
8.1185194602
20
-1.8664650231
30
0.0000000000
10
8.1187873636
20
-1.8655464466
30
0.0000000000
10
8.1190012517
20
-1.8648147408
30
0.0000000000
10
8.1191368438
20
-1.8643510516
30
0.0000000000
10
8.1192282858
20
-1.8640395645
30
0.0000000000
10
8.1192861094
20
-1.8638412069
30
0.0000000000
10
8.1193648675
20
-1.8635660599
30
0.0000000000
10
8.1194561977
20
-1.8632484300
30
0.0000000000
10
8.1196064186
20
-1.8627255480
30
0.0000000000
10
8.1197929953
20
-1.8620770152
30
0.0000000000
10
8.1200926483
20
-1.8610366323
30
0.0000000000
10
8.1204676349
20
-1.8597372714
30
0.0000000000
10
8.1209188244
20
-1.8581778703
30
0.0000000000
10
8.1215218288
20
-1.8560991393
30
0.0000000000
10
8.1225809305
20
-1.8524621497
30
0.0000000000
10
8.1241048547
20
-1.8472689334
30
0.0000000000
10
8.1259510578
20
-1.8410409759
30
0.0000000000
10
8.1278147497
20
-1.8348169395
30
0.0000000000
10
8.1296959318
20
-1.8285968189
30
0.0000000000
10
8.1322274946
20
-1.8203085479
30
0.0000000000
10
8.1354356729
20
-1.8099580015
30
0.0000000000
10
8.1406620378
20
-1.7934180181
30
0.0000000000
10
8.1473698936
20
-1.7727822087
30
0.0000000000
10
8.1556991597
20
-1.7480819096
30
0.0000000000
10
8.1643082650
20
-1.7234442825
30
0.0000000000
10
8.1731972095
20
-1.6988693275
30
0.0000000000
10
8.1823659932
20
-1.6743570446
30
0.0000000000
10
8.1949641572
20
-1.6417575632
30
0.0000000000
10
8.2114114595
20
-1.6011648925
30
0.0000000000
10
8.2322675821
20
-1.5527043719
30
0.0000000000
10
8.2542430508
20
-1.5044945542
30
0.0000000000
10
8.2773379157
20
-1.4565353695
30
0.0000000000
10
8.2975163116
20
-1.4167784610
30
0.0000000000
10
8.3142189803
20
-1.3850978934
30
0.0000000000
10
8.3248907248
20
-1.3653506415
30
0.0000000000
10
8.3335694662
20
-1.3495821695
30
0.0000000000
10
8.3423362810
20
-1.3338419132
30
0.0000000000
10
8.3532831355
20
-1.3144682449
30
0.0000000000
10
8.3664386059
20
-1.2916491532
30
0.0000000000
10
8.3839914361
20
-1.2618150448
30
0.0000000000
10
8.4147495466
20
-1.2111455059
30
0.0000000000
10
8.4588014750
20
-1.1431670648
30
0.0000000000
10
8.5118440010
20
-1.0686415778
30
0.0000000000
10
8.5650664846
20
-1.0011651072
30
0.0000000000
10
8.6006681416
20
-0.9608801225
30
0.0000000000
10
8.6184990134
20
-0.9419124245
30
0.0000000000
11
8.0489575470
21
-2.2750469997
31
0.0000000000
11
8.0560875768
21
-2.1925186527
31
0.0000000000
11
8.0607003285
21
-2.1521955550
31
0.0000000000
11
8.0660115679
21
-2.1124998929
31
0.0000000000
11
8.0720212950
21
-2.0734316664
31
0.0000000000
11
8.0787295097
21
-2.0349908756
31
0.0000000000
11
8.0861362121
21
-1.9971775204
31
0.0000000000
11
8.0901014962
21
-1.9785061312
31
0.0000000000
11
8.0942414022
21
-1.9599916008
31
0.0000000000
11
8.0985559301
21
-1.9416339294
31
0.0000000000
11
8.1030450799
21
-1.9234331169
31
0.0000000000
11
8.1053551380
21
-1.9143915327
31
0.0000000000
11
8.1077088517
21
-1.9053891633
31
0.0000000000
11
8.1101062207
21
-1.8964260086
31
0.0000000000
11
8.1125472453
21
-1.8875020686
31
0.0000000000
11
8.1137841284
21
-1.8830548041
31
0.0000000000
11
8.1150319254
21
-1.8786173433
31
0.0000000000
11
8.1162906362
21
-1.8741896862
31
0.0000000000
11
8.1169240843
21
-1.8719795341
31
0.0000000000
11
8.1175602609
21
-1.8697718328
31
0.0000000000
11
8.1181991659
21
-1.8675665825
31
0.0000000000
11
8.1185196416
21
-1.8664648764
31
0.0000000000
11
8.1188407994
21
-1.8653637831
31
0.0000000000
11
8.1190016341
21
-1.8648134662
31
0.0000000000
11
8.1191626394
21
-1.8642633025
31
0.0000000000
11
8.1192432059
21
-1.8639882781
31
0.0000000000
11
8.1192887262
21
-1.8638316082
31
0.0000000000
11
8.1193447035
21
-1.8636366002
31
0.0000000000
11
8.1194567093
21
-1.8632465957
31
0.0000000000
11
8.1195687834
21
-1.8628566065
31
0.0000000000
11
8.1197931366
21
-1.8620766739
31
0.0000000000
11
8.1200177631
21
-1.8612968025
31
0.0000000000
11
8.1204678358
21
-1.8597372434
31
0.0000000000
11
8.1209190017
21
-1.8581779291
31
0.0000000000
11
8.1213712607
21
-1.8566188596
31
0.0000000000
11
8.1222790581
21
-1.8535014551
31
0.0000000000
11
8.1241077704
21
-1.8472695838
31
0.0000000000
11
8.1259539726
21
-1.8410416294
31
0.0000000000
11
8.1278176647
21
-1.8348175921
31
0.0000000000
11
8.1296988468
21
-1.8285974718
31
0.0000000000
11
8.1315975189
21
-1.8223812685
31
0.0000000000
11
8.1354473328
21
-1.8099606129
31
0.0000000000
11
8.1393671066
21
-1.7975556253
31
0.0000000000
11
8.1474165335
21
-1.7727926541
31
0.0000000000
11
8.1557457996
21
-1.7480923550
31
0.0000000000
11
8.1643549049
21
-1.7234547279
31
0.0000000000
11
8.1732438494
21
-1.6988797729
31
0.0000000000
11
8.1824126331
21
-1.6743674899
31
0.0000000000
11
8.1918612560
21
-1.6499178789
31
0.0000000000
11
8.2115980195
21
-1.6012066732
31
0.0000000000
11
8.2324541398
21
-1.5527461557
31
0.0000000000
11
8.2544296169
21
-1.5045363264
31
0.0000000000
11
8.2775244508
21
-1.4565771853
31
0.0000000000
11
8.3017386415
21
-1.4088687324
31
0.0000000000
11
8.3142654956
21
-1.3851085140
31
0.0000000000
11
8.3270721890
21
-1.3614109676
31
0.0000000000
11
8.3335804754
21
-1.3495856965
31
0.0000000000
11
8.3401437997
21
-1.3377970874
31
0.0000000000
11
8.3532863430
21
-1.3145397966
31
0.0000000000
11
8.3664401313
21
-1.2917230716
31
0.0000000000
11
8.3796051646
21
-1.2693469124
31
0.0000000000
11
8.4059689664
21
-1.2259162913
31
0.0000000000
11
8.4588315103
21
-1.1443418385
31
0.0000000000
11
8.5118739746
21
-1.0698164383
31
0.0000000000
11
8.5650963594
21
-1.0023400907
31
0.0000000000
11
8.6184990134
21
-0.9419124245
31
0.0000000000
0
SPLINE
5
2E4
100
AcDbEntity
8
0
100
AcDbSpline
62
7
6
CONTINUOUS
70
0
71
3
72
88
73
84
74
82
42
0.0000001000
43
0.0000001000
44
0.0000000001
12
0.2455708889
22
-1.9352479815
32
0.0000000000
13
-0.2812983423
23
1.9311434453
33
0.0000000000
40
0.0000000000
40
0.0000000000
40
0.0000000000
40
0.0000000000
40
0.0383218098
40
0.0740006462
40
0.1078410058
40
0.1243772890
40
0.1408144897
40
0.1490381044
40
0.1572851505
40
0.1655477185
40
0.1737755087
40
0.1901732368
40
0.2066028636
40
0.2231881801
40
0.2400495489
40
0.2573015555
40
0.2661093958
40
0.2750542952
40
0.2841482607
40
0.2934027190
40
0.3028285135
40
0.3076090449
40
0.3100167416
40
0.3124362471
40
0.3148677097
40
0.3160879729
40
0.3173112799
40
0.3179240807
40
0.3185066331
40
0.3196600704
40
0.3219609542
40
0.3265391870
40
0.3310869405
40
0.3356052626
40
0.3400952222
40
0.3489941500
40
0.3577929451
40
0.3665008680
40
0.3836800927
40
0.4006137465
40
0.4173848949
40
0.4340790291
40
0.4507828232
40
0.4675828015
40
0.4845253695
40
0.5015215043
40
0.5186395000
40
0.5535696941
40
0.5900005487
40
0.6089730608
40
0.6285324886
40
0.6385518609
40
0.6487769227
40
0.6700645468
40
0.6925251135
40
0.7162114286
40
0.7411685186
40
0.7674348757
40
0.7950435162
40
0.8093606319
40
0.8240236359
40
0.8390354882
40
0.8466731429
40
0.8543990280
40
0.8622134596
40
0.8701167431
40
0.8741018015
40
0.8761027001
40
0.8770996163
40
0.8780624782
40
0.8799835374
40
0.8818983813
40
0.8857094411
40
0.8894956974
40
0.8932571895
40
0.9007060321
40
0.9080563097
40
0.9153083666
40
0.9295191721
40
0.9433415873
40
0.9698338611
40
0.9948161906
40
1.0000000000
40
1.0000000000
40
1.0000000000
40
1.0000000000
10
6.5093189122
20
-1.9287330078
30
0.0000000000
10
6.5124558192
20
-1.9534537428
30
0.0000000000
10
6.5212749779
20
-2.0009199963
30
0.0000000000
10
6.5436988927
20
-2.0676243957
30
0.0000000000
10
6.5699234357
20
-2.1173882262
30
0.0000000000
10
6.5950734252
20
-2.1528724993
30
0.0000000000
10
6.6124572773
20
-2.1733065836
30
0.0000000000
10
6.6273800572
20
-2.1886508571
30
0.0000000000
10
6.6390948753
20
-2.1996779519
30
0.0000000000
10
6.6512805745
20
-2.2101861591
30
0.0000000000
10
6.6680644934
20
-2.2234480539
30
0.0000000000
10
6.6900767682
20
-2.2386182350
30
0.0000000000
10
6.7180599397
20
-2.2544891217
30
0.0000000000
10
6.7475837151
20
-2.2680093369
30
0.0000000000
10
6.7786404250
20
-2.2791779200
30
0.0000000000
10
6.8056111849
20
-2.2864770148
30
0.0000000000
10
6.8278907918
20
-2.2911589488
30
0.0000000000
10
6.8451007162
20
-2.2941115634
30
0.0000000000
10
6.8626932340
20
-2.2964805169
30
0.0000000000
10
6.8806685864
20
-2.2982660529
30
0.0000000000
10
6.8958944544
20
-2.2992631213
30
0.0000000000
10
6.9066890285
20
-2.2997083761
30
0.0000000000
10
6.9129338834
20
-2.2998916752
30
0.0000000000
10
6.9176528286
20
-2.2999930561
30
0.0000000000
10
6.9216003529
20
-2.3000471178
30
0.0000000000
10
6.9247702765
20
-2.3000722227
30
0.0000000000
10
6.9267576874
20
-2.3000803368
30
0.0000000000
10
6.9283304341
20
-2.3000822641
30
0.0000000000
10
6.9298577484
20
-2.3000812838
30
0.0000000000
10
6.9324827383
20
-2.3000723133
30
0.0000000000
10
6.9377057826
20
-2.3000255632
30
0.0000000000
10
6.9451349699
20
-2.2998762838
30
0.0000000000
10
6.9540020975
20
-2.2995642833
30
0.0000000000
10
6.9628061339
20
-2.2991197152
30
0.0000000000
10
6.9744254770
20
-2.2983525329
30
0.0000000000
10
6.9887981380
20
-2.2970646550
30
0.0000000000
10
7.0058451465
20
-2.2949837848
30
0.0000000000
10
7.0281352979
20
-2.2915178154
30
0.0000000000
10
7.0554238430
20
-2.2858654467
30
0.0000000000
10
7.0873070224
20
-2.2769202983
30
0.0000000000
10
7.1181801055
20
-2.2658426175
30
0.0000000000
10
7.1480394084
20
-2.2526323953
30
0.0000000000
10
7.1768834637
20
-2.2372912779
30
0.0000000000
10
7.2046858064
20
-2.2198311327
30
0.0000000000
10
7.2313491839
20
-2.2003512859
30
0.0000000000
10
7.2566714875
20
-2.1788323877
30
0.0000000000
10
7.2887134208
20
-2.1473360644
30
0.0000000000
10
7.3252958447
20
-2.1026711924
30
0.0000000000
10
7.3562153765
20
-2.0525352999
30
0.0000000000
10
7.3780210107
20
-2.0089165218
30
0.0000000000
10
7.3905183917
20
-1.9799048020
30
0.0000000000
10
7.3998176172
20
-1.9557479966
30
0.0000000000
10
7.4088351228
20
-1.9302878452
30
0.0000000000
10
7.4190936608
20
-1.8967040390
30
0.0000000000
10
7.4297664709
20
-1.8541565170
30
0.0000000000
10
7.4389505253
20
-1.8088269896
30
0.0000000000
10
7.4466509777
20
-1.7607165334
30
0.0000000000
10
7.4528674044
20
-1.7098232914
30
0.0000000000
10
7.4567633288
20
-1.6656443736
30
0.0000000000
10
7.4591675984
20
-1.6289248379
30
0.0000000000
10
7.4606213546
20
-1.6003547625
30
0.0000000000
10
7.4615183310
20
-1.5761079002
30
0.0000000000
10
7.4620536869
20
-1.5563632788
30
0.0000000000
10
7.4623647172
20
-1.5412947765
30
0.0000000000
10
7.4625829495
20
-1.5260519134
30
0.0000000000
10
7.4626871736
20
-1.5132404144
30
0.0000000000
10
7.4627198406
20
-1.5042089071
30
0.0000000000
10
7.4627260830
20
-1.4996682581
30
0.0000000000
10
7.4627267914
20
-1.4970928062
30
0.0000000000
10
7.4627255404
20
-1.4945692706
30
0.0000000000
10
7.4627203279
20
-1.4914488502
30
0.0000000000
10
7.4627042215
20
-1.4864763951
30
0.0000000000
10
7.4626695415
20
-1.4802911469
30
0.0000000000
10
7.4626044747
20
-1.4729052930
30
0.0000000000
10
7.4624869258
20
-1.4631543718
30
0.0000000000
10
7.4622821219
20
-1.4510868755
30
0.0000000000
10
7.4619420170
20
-1.4367518904
30
0.0000000000
10
7.4613677116
20
-1.4180246892
30
0.0000000000
10
7.4604211587
20
-1.3950987659
30
0.0000000000
10
7.4584253144
20
-1.3596987550
30
0.0000000000
10
7.4550408493
20
-1.3173636703
30
0.0000000000
10
7.4507953970
20
-1.2807633637
30
0.0000000000
10
7.4480536189
20
-1.2613332410
30
0.0000000000
10
7.4475675532
20
-1.2579963478
30
0.0000000000
11
6.5093189122
21
-1.9287330078
31
0.0000000000
11
6.5233513869
21
-2.0021610946
31
0.0000000000
11
6.5458537913
21
-2.0680242231
31
0.0000000000
11
6.5768260951
21
-2.1263221548
31
0.0000000000
11
6.5954884593
21
-2.1526341719
31
0.0000000000
11
6.6162682983
21
-2.1770548898
31
0.0000000000
11
6.6274522709
21
-2.1885560116
31
0.0000000000
11
6.6391656123
21
-2.1995843086
31
0.0000000000
11
6.6513711172
21
-2.2101117276
31
0.0000000000
11
6.6639660995
21
-2.2200608418
31
0.0000000000
11
6.6903066380
21
-2.2382106902
31
0.0000000000
11
6.7181812749
21
-2.2540293655
31
0.0000000000
11
6.7475900102
21
-2.2675168676
31
0.0000000000
11
6.7785328440
21
-2.2786731965
31
0.0000000000
11
6.8110097762
21
-2.2874983522
31
0.0000000000
11
6.8278235292
21
-2.2910367401
31
0.0000000000
11
6.8450208068
21
-2.2939923347
31
0.0000000000
11
6.8626016090
21
-2.2963651360
31
0.0000000000
11
6.8805659358
21
-2.2981551440
31
0.0000000000
11
6.8989137872
21
-2.2993623587
31
0.0000000000
11
6.9082315347
21
-2.2997474185
31
0.0000000000
11
6.9129263638
21
-2.2998853116
31
0.0000000000
11
6.9176451633
21
-2.2999867801
31
0.0000000000
11
6.9223879330
21
-2.3000518240
31
0.0000000000
11
6.9247683067
21
-2.3000706867
31
0.0000000000
11
6.9271546730
21
-2.3000804433
31
0.0000000000
11
6.9283501034
21
-2.3000819068
31
0.0000000000
11
6.9294865268
21
-2.3000811693
31
0.0000000000
11
6.9317366004
21
-2.3000734774
31
0.0000000000
11
6.9362249069
21
-2.3000332428
31
0.0000000000
11
6.9451541584
21
-2.2998533709
31
0.0000000000
11
6.9540202609
21
-2.2995409617
31
0.0000000000
11
6.9628232144
21
-2.2990960153
31
0.0000000000
11
6.9715630191
21
-2.2985185316
31
0.0000000000
11
6.9888531814
21
-2.2969659526
31
0.0000000000
11
7.0058907480
21
-2.2948832247
31
0.0000000000
11
7.0226757189
21
-2.2922703478
31
0.0000000000
11
7.0554878731
21
-2.2854541473
31
0.0000000000
11
7.0872896442
21
-2.2765173510
31
0.0000000000
11
7.1180810322
21
-2.2654599590
31
0.0000000000
11
7.1478620370
21
-2.2522819713
31
0.0000000000
11
7.1766326587
21
-2.2369833879
31
0.0000000000
11
7.2043928972
21
-2.2195642087
31
0.0000000000
11
7.2310711912
21
-2.2000542937
31
0.0000000000
11
7.2563410419
21
-2.1785898783
31
0.0000000000
11
7.2801621960
21
-2.1551877587
31
0.0000000000
11
7.3234584147
21
-2.1025704068
31
0.0000000000
11
7.3609598472
21
-2.0422022381
31
0.0000000000
11
7.3775375186
21
-2.0091115975
31
0.0000000000
11
7.3926664935
21
-1.9740832526
31
0.0000000000
11
7.3996877197
21
-1.9558424411
31
0.0000000000
11
7.4063434413
21
-1.9370389172
31
0.0000000000
11
7.4185413475
21
-1.8973436027
31
0.0000000000
11
7.4292542912
21
-1.8548581335
31
0.0000000000
11
7.4384822725
21
-1.8095825096
31
0.0000000000
11
7.4462252912
21
-1.7615167309
31
0.0000000000
11
7.4524833475
21
-1.7106607975
31
0.0000000000
11
7.4572564412
21
-1.6570147094
31
0.0000000000
11
7.4590861272
21
-1.6291453573
31
0.0000000000
11
7.4605445725
21
-1.6005784665
31
0.0000000000
11
7.4616317772
21
-1.5713140371
31
0.0000000000
11
7.4620361643
21
-1.5564202453
31
0.0000000000
11
7.4623477412
21
-1.5413520689
31
0.0000000000
11
7.4625665080
21
-1.5261095078
31
0.0000000000
11
7.4626924647
21
-1.5106925621
31
0.0000000000
11
7.4627206392
21
-1.5029186950
31
0.0000000000
11
7.4627260255
21
-1.4990154129
31
0.0000000000
11
7.4627265433
21
-1.4970706623
31
0.0000000000
11
7.4627256037
21
-1.4951923438
31
0.0000000000
11
7.4627193398
21
-1.4914448112
31
0.0000000000
11
7.4627072295
21
-1.4877094175
31
0.0000000000
11
7.4626654700
21
-1.4802750472
31
0.0000000000
11
7.4626003251
21
-1.4728892328
31
0.0000000000
11
7.4625117949
21
-1.4655519743
31
0.0000000000
11
7.4622645785
21
-1.4510231253
31
0.0000000000
11
7.4619238208
21
-1.4366885000
31
0.0000000000
11
7.4614895217
21
-1.4225480985
31
0.0000000000
11
7.4603402995
21
-1.3948499668
31
0.0000000000
11
7.4588169120
21
-1.3679287304
31
0.0000000000
11
7.4546476408
21
-1.3164169429
31
0.0000000000
11
7.4489817082
21
-1.2680127360
31
0.0000000000
11
7.4475675532
21
-1.2579963478
31
0.0000000000
0
SPLINE
5
2E5
100
AcDbEntity
8
0
100
AcDbSpline
62
7
6
CONTINUOUS
70
0
71
3
72
116
73
112
74
110
42
0.0000001000
43
0.0000001000
44
0.0000000001
12
0.0483137574
22
-1.1323359890
32
0.0000000000
13
-0.2014780604
23
1.1153141085
33
0.0000000000
40
0.0000000000
40
0.0000000000
40
0.0000000000
40
0.0000000000
40
0.0045936069
40
0.0089284845
40
0.0130046661
40
0.0168221915
40
0.0203811096
40
0.0220636103
40
0.0236814829
40
0.0252347375
40
0.0267233853
40
0.0274434858
40
0.0281474396
40
0.0288352485
40
0.0295069146
40
0.0301624400
40
0.0304841508
40
0.0308018273
40
0.0311154698
40
0.0314250787
40
0.0315783707
40
0.0317306544
40
0.0318819298
40
0.0321069527
40
0.0322557078
40
0.0323712213
40
0.0324947609
40
0.0326667904
40
0.0330108345
40
0.0333548588
40
0.0340428478
40
0.0347307579
40
0.0361063435
40
0.0374816194
40
0.0402312559
40
0.0429796985
40
0.0457269772
40
0.0484731219
40
0.0512181629
40
0.0567050465
40
0.0621878770
40
0.0731422861
40
0.0840833927
40
0.0950131456
40
0.1059334999
40
0.1168464157
40
0.1386572990
40
0.1604620290
40
0.1822763618
40
0.2041160331
40
0.2259967236
40
0.2369363164
40
0.2476981036
40
0.2582457611
40
0.2685808409
40
0.2886195191
40
0.3078290409
40
0.3262258701
40
0.3438287509
40
0.3606590804
40
0.3767413398
40
0.3921035868
40
0.4068551147
40
0.4213831249
40
0.4357675295
40
0.4642472327
40
0.4926132840
40
0.5211791561
40
0.5356192899
40
0.5500619404
40
0.5645327529
40
0.5790905206
40
0.6086824792
40
0.6238403401
40
0.6315316236
40
0.6393055031
40
0.6471679093
40
0.6511341965
40
0.6551247480
40
0.6591402489
40
0.6611575763
40
0.6631813923
40
0.6652117787
40
0.6657204123
40
0.6662294628
40
0.6667512222
40
0.6673464851
40
0.6685348155
40
0.6697202348
40
0.6720824077
40
0.6744331547
40
0.6767726242
40
0.6814182976
40
0.6860206971
40
0.6905810896
40
0.6995807590
40
0.7084284706
40
0.7171356360
40
0.7257142277
40
0.7425329609
40
0.7589939586
40
0.7752104788
40
0.7913009425
40
0.8073865551
40
0.8154673969
40
0.8235932441
40
0.8400984449
40
0.8570951049
40
0.8747291875
40
0.9123903375
40
1.0000000000
40
1.0000000000
40
1.0000000000
40
1.0000000000
10
7.2791382092
20
-1.5714656618
30
0.0000000000
10
7.2792121873
20
-1.5731994973
30
0.0000000000
10
7.2793521750
20
-1.5765696762
30
0.0000000000
10
7.2795433270
20
-1.5814789785
30
0.0000000000
10
7.2797095750
20
-1.5860958155
30
0.0000000000
10
7.2798509258
20
-1.5904201873
30
0.0000000000
10
7.2799497562
20
-1.5938411379
30
0.0000000000
10
7.2800158896
20
-1.5964316590
30
0.0000000000
10
7.2800583188
20
-1.5982648160
30
0.0000000000
10
7.2800945168
20
-1.6000248563
30
0.0000000000
10
7.2801197610
20
-1.6014458767
30
0.0000000000
10
7.2801367560
20
-1.6025461319
30
0.0000000000
10
7.2801478014
20
-1.6033438940
30
0.0000000000
10
7.2801572877
20
-1.6041233768
30
0.0000000000
10
7.2801652148
20
-1.6048845804
30
0.0000000000
10
7.2801705543
20
-1.6055074947
30
0.0000000000
10
7.2801740330
20
-1.6059966858
30
0.0000000000
10
7.2801762358
20
-1.6063567230
30
0.0000000000
10
7.2801780487
20
-1.6067121905
30
0.0000000000
10
7.2801792384
20
-1.6070055575
30
0.0000000000
10
7.2801799934
20
-1.6072379660
30
0.0000000000
10
7.2801804602
20
-1.6074105586
30
0.0000000000
10
7.2801808906
20
-1.6076102505
30
0.0000000000
10
7.2801811791
20
-1.6078086096
30
0.0000000000
10
7.2801813188
20
-1.6079934584
30
0.0000000000
10
7.2801813477
20
-1.6081399680
30
0.0000000000
10
7.2801813311
20
-1.6082952704
30
0.0000000000
10
7.2801812731
20
-1.6085369090
30
0.0000000000
10
7.2801810902
20
-1.6088618443
30
0.0000000000
10
7.2801805859
20
-1.6093817030
30
0.0000000000
10
7.2801795533
20
-1.6100314700
30
0.0000000000
10
7.2801770450
20
-1.6110709470
30
0.0000000000
10
7.2801723036
20
-1.6123700682
30
0.0000000000
10
7.2801612919
20
-1.6144480660
30
0.0000000000
10
7.2801411049
20
-1.6170446689
30
0.0000000000
10
7.2801065986
20
-1.6201594866
30
0.0000000000
10
7.2800618131
20
-1.6232728544
30
0.0000000000
10
7.2800067485
20
-1.6263847724
30
0.0000000000
10
7.2799196404
20
-1.6305312545
30
0.0000000000
10
7.2797850695
20
-1.6357108302
30
0.0000000000
10
7.2795149841
20
-1.6439891607
30
0.0000000000
10
7.2790746522
20
-1.6543233486
30
0.0000000000
10
7.2783815806
20
-1.6667053442
30
0.0000000000
10
7.2775240151
20
-1.6790641454
30
0.0000000000
10
7.2765019508
20
-1.6913997658
30
0.0000000000
10
7.2749202584
20
-1.7078124011
30
0.0000000000
10
7.2725314221
20
-1.7282764163
30
0.0000000000
10
7.2690058472
20
-1.7527453273
30
0.0000000000
10
7.2648220631
20
-1.7771214898
30
0.0000000000
10
7.2599794785
20
-1.8014044672
30
0.0000000000
10
7.2554014842
20
-1.8215433276
30
0.0000000000
10
7.2514285765
20
-1.8375219803
30
0.0000000000
10
7.2483556715
20
-1.8493116843
30
0.0000000000
10
7.2452027630
20
-1.8608437019
30
0.0000000000
10
7.2409414860
20
-1.8757047860
30
0.0000000000
10
7.2354343487
20
-1.8936114838
30
0.0000000000
10
7.2284518644
20
-1.9142425980
30
0.0000000000
10
7.2211651845
20
-1.9337895635
30
0.0000000000
10
7.2135741035
20
-1.9522525176
30
0.0000000000
10
7.2056785300
20
-1.9696318729
30
0.0000000000
10
7.1974774219
20
-1.9859274096
30
0.0000000000
10
7.1889584340
20
-2.0011664543
30
0.0000000000
10
7.1800229684
20
-2.0154779507
30
0.0000000000
10
7.1705951196
20
-2.0290229458
30
0.0000000000
10
7.1573189797
20
-2.0461748261
30
0.0000000000
10
7.1392156707
20
-2.0661569716
30
0.0000000000
10
7.1151101781
20
-2.0876957441
30
0.0000000000
10
7.0931747102
20
-2.1034633419
30
0.0000000000
10
7.0746476719
20
-2.1147860342
30
0.0000000000
10
7.0601431286
20
-2.1224196446
30
0.0000000000
10
7.0451397539
20
-2.1291269222
30
0.0000000000
10
7.0243779566
20
-2.1368682048
30
0.0000000000
10
7.0026746640
20
-2.1426958647
30
0.0000000000
10
6.9831538183
20
-2.1461258902
30
0.0000000000
10
6.9716829847
20
-2.1476422005
30
0.0000000000
10
6.9629161597
20
-2.1485527233
30
0.0000000000
10
6.9555310263
20
-2.1491163530
30
0.0000000000
10
6.9495639930
20
-2.1494521346
30
0.0000000000
10
6.9450450309
20
-2.1496467050
30
0.0000000000
10
6.9412599024
20
-2.1497603206
30
0.0000000000
10
6.9382168076
20
-2.1498223418
30
0.0000000000
10
6.9359232607
20
-2.1498544298
30
0.0000000000
10
6.9341995102
20
-2.1498676022
30
0.0000000000
10
6.9330479911
20
-2.1498718699
30
0.0000000000
10
6.9324664077
20
-2.1498731075
30
0.0000000000
10
6.9318520955
20
-2.1498734479
30
0.0000000000
10
6.9309811595
20
-2.1498723692
30
0.0000000000
10
6.9298595063
20
-2.1498677117
30
0.0000000000
10
6.9280703824
20
-2.1498533122
30
0.0000000000
10
6.9258422473
20
-2.1498223004
30
0.0000000000
10
6.9231785399
20
-2.1497641471
30
0.0000000000
10
6.9196530823
20
-2.1496590005
30
0.0000000000
10
6.9152790721
20
-2.1494756913
30
0.0000000000
10
6.9100710109
20
-2.1491716038
30
0.0000000000
10
6.9032285026
20
-2.1486569979
30
0.0000000000
10
6.8948039979
20
-2.1478072200
30
0.0000000000
10
6.8848623653
20
-2.1464482694
30
0.0000000000
10
6.8751333535
20
-2.1447545050
30
0.0000000000
10
6.8625297829
20
-2.1420679187
30
0.0000000000
10
6.8472624624
20
-2.1378786815
30
0.0000000000
10
6.8296730538
20
-2.1314708621
30
0.0000000000
10
6.8129361869
20
-2.1237143112
30
0.0000000000
10
6.7970567230
20
-2.1146091717
30
0.0000000000
10
6.7845549762
20
-2.1059114657
30
0.0000000000
10
6.7750139859
20
-2.0983039844
30
0.0000000000
10
6.7656756814
20
-2.0902038322
30
0.0000000000
10
6.7545849274
20
-2.0790143736
30
0.0000000000
10
6.7423497819
20
-2.0640291655
30
0.0000000000
10
6.7270186275
20
-2.0413868328
30
0.0000000000
10
6.7025634331
20
-1.9930183907
30
0.0000000000
10
6.6904460978
20
-1.9466998231
30
0.0000000000
10
6.6845622895
20
-1.9141290589
30
0.0000000000
11
7.2791382092
21
-1.5714656618
31
0.0000000000
11
7.2793539153
21
-1.5766674303
31
0.0000000000
11
7.2795446637
21
-1.5815767299
31
0.0000000000
11
7.2797104544
21
-1.5861935605
31
0.0000000000
11
7.2798512874
21
-1.5905179223
31
0.0000000000
11
7.2799671626
21
-1.5945498151
31
0.0000000000
11
7.2800157410
21
-1.5964560857
31
0.0000000000
11
7.2800580800
21
-1.5982892390
31
0.0000000000
11
7.2800941796
21
-1.6000492751
31
0.0000000000
11
7.2801240398
21
-1.6017361940
31
0.0000000000
11
7.2801366301
21
-1.6025522345
31
0.0000000000
11
7.2801476605
21
-1.6033499957
31
0.0000000000
11
7.2801571311
21
-1.6041294776
31
0.0000000000
11
7.2801650418
21
-1.6048906801
31
0.0000000000
11
7.2801713926
21
-1.6056336034
31
0.0000000000
11
7.2801739831
21
-1.6059982103
31
0.0000000000
11
7.2801761836
21
-1.6063582473
31
0.0000000000
11
7.2801779942
21
-1.6067137146
31
0.0000000000
11
7.2801794148
21
-1.6070646120
31
0.0000000000
11
7.2801799788
21
-1.6072383470
31
0.0000000000
11
7.2801804454
21
-1.6074109396
31
0.0000000000
11
7.2801808145
21
-1.6075823897
31
0.0000000000
11
7.2801811853
21
-1.6078374227
31
0.0000000000
11
7.2801813106
21
-1.6080060167
31
0.0000000000
11
7.2801813407
21
-1.6081369358
31
0.0000000000
11
7.2801813305
21
-1.6082769514
31
0.0000000000
11
7.2801812817
21
-1.6084719239
31
0.0000000000
11
7.2801810637
21
-1.6088618518
31
0.0000000000
11
7.2801806852
21
-1.6092517570
31
0.0000000000
11
7.2801794462
21
-1.6100314995
31
0.0000000000
11
7.2801775647
21
-1.6108111514
31
0.0000000000
11
7.2801718745
21
-1.6123701833
31
0.0000000000
11
7.2801636146
21
-1.6139288526
31
0.0000000000
11
7.2801393853
21
-1.6170451036
31
0.0000000000
11
7.2801048770
21
-1.6201599045
31
0.0000000000
11
7.2800600896
21
-1.6232732552
31
0.0000000000
11
7.2800050232
21
-1.6263851558
31
0.0000000000
11
7.2799396777
21
-1.6294956062
31
0.0000000000
11
7.2797781494
21
-1.6357121566
31
0.0000000000
11
7.2795755049
21
-1.6419229064
31
0.0000000000
11
7.2790468671
21
-1.6543270042
31
0.0000000000
11
7.2783537641
21
-1.6667078995
31
0.0000000000
11
7.2774961960
21
-1.6790655925
31
0.0000000000
11
7.2764741628
21
-1.6914000830
31
0.0000000000
11
7.2752876645
21
-1.7037113711
31
0.0000000000
11
7.2724212726
21
-1.7282643400
31
0.0000000000
11
7.2688970202
21
-1.7527244992
31
0.0000000000
11
7.2647149074
21
-1.7770918488
31
0.0000000000
11
7.2598749341
21
-1.8013663887
31
0.0000000000
11
7.2543771004
21
-1.8255481189
31
0.0000000000
11
7.2513896063
21
-1.8375813767
31
0.0000000000
11
7.2483116340
21
-1.8493836655
31
0.0000000000
11
7.2451576198
21
-1.8609144456
31
0.0000000000
11
7.2419275637
21
-1.8721737169
31
0.0000000000
11
7.2352393259
21
-1.8938777331
31
0.0000000000
11
7.2282469207
21
-1.9144957141
31
0.0000000000
11
7.2209503480
21
-1.9340276600
31
0.0000000000
11
7.2133496078
21
-1.9524735708
31
0.0000000000
11
7.2054447002
21
-1.9698334464
31
0.0000000000
11
7.1972356251
21
-1.9861072868
31
0.0000000000
11
7.1887223825
21
-2.0012950922
31
0.0000000000
11
7.1798611060
21
-2.0154724984
31
0.0000000000
11
7.1704516547
21
-2.0289845954
31
0.0000000000
11
7.1604693537
21
-2.0418739283
31
0.0000000000
11
7.1387862027
21
-2.0657843022
31
0.0000000000
11
7.1148116530
21
-2.0872036200
31
0.0000000000
11
7.0885457046
21
-2.1061318818
31
0.0000000000
11
7.0745613706
21
-2.1146338255
31
0.0000000000
11
7.0600762981
21
-2.1222575184
31
0.0000000000
11
7.0451045578
21
-2.1289531097
31
0.0000000000
11
7.0296461496
21
-2.1347205991
31
0.0000000000
11
6.9972693296
21
-2.1434712728
31
0.0000000000
11
6.9803509178
21
-2.1464544570
31
0.0000000000
11
6.9717092115
21
-2.1475980109
31
0.0000000000
11
6.9629458381
21
-2.1485095394
31
0.0000000000
11
6.9540607978
21
-2.1491890425
31
0.0000000000
11
6.9495726526
21
-2.1494417845
31
0.0000000000
11
6.9450540906
21
-2.1496365201
31
0.0000000000
11
6.9405051118
21
-2.1497732494
31
0.0000000000
11
6.9382192162
21
-2.1498198617
31
0.0000000000
11
6.9359257163
21
-2.1498519723
31
0.0000000000
11
6.9336246123
21
-2.1498695814
31
0.0000000000
11
6.9330481482
21
-2.1498717178
31
0.0000000000
11
6.9324712087
21
-2.1498729478
31
0.0000000000
11
6.9318798644
21
-2.1498732675
31
0.0000000000
11
6.9312052141
21
-2.1498724280
31
0.0000000000
11
6.9298584121
21
-2.1498668316
31
0.0000000000
11
6.9285149415
21
-2.1498560119
31
0.0000000000
11
6.9258379944
21
-2.1498187025
31
0.0000000000
11
6.9231743731
21
-2.1497604998
31
0.0000000000
11
6.9205240773
21
-2.1496814039
31
0.0000000000
11
6.9152634627
21
-2.1494605323
31
0.0000000000
11
6.9100561506
21
-2.1491560877
31
0.0000000000
11
6.9049021410
21
-2.1487680700
31
0.0000000000
11
6.8947540293
21
-2.1477413156
31
0.0000000000
11
6.8848191276
21
-2.1463802690
31
0.0000000000
11
6.8750974359
21
-2.1446849303
31
0.0000000000
11
6.8655889543
21
-2.1426552994
31
0.0000000000
11
6.8472116211
21
-2.1375931613
31
0.0000000000
11
6.8296871281
21
-2.1311938546
31
0.0000000000
11
6.8130154751
21
-2.1234573793
31
0.0000000000
11
6.7971966622
21
-2.1143837355
31
0.0000000000
11
6.7822306894
21
-2.1039729231
31
0.0000000000
11
6.7750675181
21
-2.0982660786
31
0.0000000000
11
6.7681187982
21
-2.0922219657
31
0.0000000000
11
6.7549367195
21
-2.0789493023
31
0.0000000000
11
6.7427291467
21
-2.0640477821
31
0.0000000000
11
6.7314960800
21
-2.0475174051
31
0.0000000000
11
6.7119534646
21
-2.0095700808
31
0.0000000000
11
6.6845622895
21
-1.9141290589
31
0.0000000000
0
SPLINE
5
2E6
100
AcDbEntity
8
0
100
AcDbSpline
62
7
6
CONTINUOUS
70
0
71
3
72
121
73
117
74
115
42
0.0000001000
43
0.0000001000
44
0.0000000001
12
0.0205366584
22
2.2410692198
32
0.0000000000
13
0.2461097867
23
-1.0819080003
33
0.0000000000
40
0.0000000000
40
0.0000000000
40
0.0000000000
40
0.0000000000
40
0.0624999808
40
0.0937499711
40
0.1249999615
40
0.1562499519
40
0.1718749471
40
0.1874999423
40
0.1953124399
40
0.2031249374
40
0.2187499326
40
0.2343749278
40
0.2499999230
40
0.2812499134
40
0.3124999038
40
0.3437498941
40
0.3593748893
40
0.3671873869
40
0.3749998845
40
0.3789061333
40
0.3828123821
40
0.3867186309
40
0.3906248797
40
0.3925780041
40
0.3945311285
40
0.3964842529
40
0.3984373773
40
0.3994139395
40
0.3999022206
40
0.4003905017
40
0.4008787828
40
0.4013670639
40
0.4023436261
40
0.4042967505
40
0.4062498749
40
0.4101561237
40
0.4140623725
40
0.4218748701
40
0.4296873677
40
0.4374998653
40
0.4453123629
40
0.4531248605
40
0.4687498556
40
0.4843748508
40
0.4999998460
40
0.5156248412
40
0.5312498364
40
0.5468748316
40
0.5546873292
40
0.5624998268
40
0.5703123244
40
0.5781248220
40
0.5859373196
40
0.5898435684
40
0.5937498172
40
0.5957029416
40
0.5976560659
40
0.5986326281
40
0.5991209092
40
0.5996091903
40
0.6000974714
40
0.6005857525
40
0.6015623147
40
0.6035154391
40
0.6054685635
40
0.6074216879
40
0.6093748123
40
0.6132810611
40
0.6171873099
40
0.6249998075
40
0.6328123051
40
0.6406248027
40
0.6562497979
40
0.6718747931
40
0.6874997883
40
0.7031247835
40
0.7187497787
40
0.7343747738
40
0.7499997690
40
0.7578122666
40
0.7656247642
40
0.7734372618
40
0.7773435106
40
0.7812497594
40
0.7851560082
40
0.7890622570
40
0.7929685058
40
0.7949216302
40
0.7968747546
40
0.7978513168
40
0.7988278790
40
0.7993161601
40
0.7995603006
40
0.7998044412
40
0.8000485817
40
0.8002927223
40
0.8007810034
40
0.8017575656
40
0.8027341278
40
0.8037106900
40
0.8046872522
40
0.8066403766
40
0.8085935010
40
0.8124997498
40
0.8203122474
40
0.8281247450
40
0.8359372426
40
0.8437497402
40
0.8593747354
40
0.8749997305
40
0.8906247257
40
0.9062497209
40
0.9218747161
40
0.9374997113
40
0.9687497017
40
1.0000000000
40
1.0000000000
40
1.0000000000
40
1.0000000000
10
5.4954104999
20
-1.5035979349
30
0.0000000000
10
5.4958383468
20
-1.4569090072
30
0.0000000000
10
5.4988325953
20
-1.3919036755
30
0.0000000000
10
5.5075299139
20
-1.3152861322
30
0.0000000000
10
5.5164053347
20
-1.2628508652
30
0.0000000000
10
5.5257620843
20
-1.2233454708
30
0.0000000000
10
5.5344233604
20
-1.1942538585
30
0.0000000000
10
5.5403275903
20
-1.1771221592
30
0.0000000000
10
5.5453431300
20
-1.1640383428
30
0.0000000000
10
5.5505616631
20
-1.1513989664
30
0.0000000000
10
5.5573576332
20
-1.1360387229
30
0.0000000000
10
5.5659513379
20
-1.1183163091
30
0.0000000000
10
5.5779936020
20
-1.0956302595
30
0.0000000000
10
5.5941417513
20
-1.0690436184
30
0.0000000000
10
5.6152719360
20
-1.0399727362
30
0.0000000000
10
5.6343407844
20
-1.0181079942
30
0.0000000000
10
5.6484556651
20
-1.0040421822
30
0.0000000000
10
5.6567403637
20
-0.9963587226
30
0.0000000000
10
5.6620095751
20
-0.9917041193
30
0.0000000000
10
5.6662797019
20
-0.9880689775
30
0.0000000000
10
5.6695096940
20
-0.9853868777
30
0.0000000000
10
5.6727670096
20
-0.9827490910
30
0.0000000000
10
5.6755044385
20
-0.9805876859
30
0.0000000000
10
5.6777076668
20
-0.9788810089
30
0.0000000000
10
5.6793680416
20
-0.9776112131
30
0.0000000000
10
5.6810310323
20
-0.9763557482
30
0.0000000000
10
5.6824357372
20
-0.9753085834
30
0.0000000000
10
5.6833962087
20
-0.9746003318
30
0.0000000000
10
5.6839862103
20
-0.9741658981
30
0.0000000000
10
5.6843156004
20
-0.9739283781
30
0.0000000000
10
5.6846466450
20
-0.9736903058
30
0.0000000000
10
5.6850878719
20
-0.9733740485
30
0.0000000000
10
5.6858611035
20
-0.9728224526
30
0.0000000000
10
5.6869680448
20
-0.9720403797
30
0.0000000000
10
5.6887444321
20
-0.9708014358
30
0.0000000000
10
5.6909746702
20
-0.9692760743
30
0.0000000000
10
5.6945639214
20
-0.9668851920
30
0.0000000000
10
5.6990895887
20
-0.9639897923
30
0.0000000000
10
5.7045829638
20
-0.9606644304
30
0.0000000000
10
5.7101389106
20
-0.9574881883
30
0.0000000000
10
5.7157574300
20
-0.9544610655
30
0.0000000000
10
5.7233322188
20
-0.9506237275
30
0.0000000000
10
5.7329571358
20
-0.9461998534
30
0.0000000000
10
5.7447573255
20
-0.9414876820
30
0.0000000000
10
5.7568078045
20
-0.9373719879
30
0.0000000000
10
5.7691085729
20
-0.9338527712
30
0.0000000000
10
5.7816596306
20
-0.9309300319
30
0.0000000000
10
5.7923274199
20
-0.9289914804
30
0.0000000000
10
5.8009867960
20
-0.9277388778
30
0.0000000000
10
5.8075439004
20
-0.9269485452
30
0.0000000000
10
5.8141635770
20
-0.9263073320
30
0.0000000000
10
5.8208458266
20
-0.9258152382
30
0.0000000000
10
5.8264665097
20
-0.9255294260
30
0.0000000000
10
5.8309943463
20
-0.9253753362
30
0.0000000000
10
5.8338372712
20
-0.9253100962
30
0.0000000000
10
5.8361194529
20
-0.9252765449
30
0.0000000000
10
5.8375490292
20
-0.9252633401
30
0.0000000000
10
5.8385515363
20
-0.9252581781
30
0.0000000000
10
5.8391247413
20
-0.9252563873
30
0.0000000000
10
5.8395552982
20
-0.9252556437
30
0.0000000000
10
5.8399845372
20
-0.9252554175
30
0.0000000000
10
5.8407329438
20
-0.9252562741
30
0.0000000000
10
5.8419589000
20
-0.9252610946
30
0.0000000000
10
5.8437491464
20
-0.9252773278
30
0.0000000000
10
5.8458723481
20
-0.9253118075
30
0.0000000000
10
5.8479938384
20
-0.9253612749
30
0.0000000000
10
5.8508119065
20
-0.9254472193
30
0.0000000000
10
5.8543184656
20
-0.9255921252
30
0.0000000000
10
5.8598931826
20
-0.9259039231
30
0.0000000000
10
5.8667952273
20
-0.9264435731
30
0.0000000000
10
5.8749712892
20
-0.9273309976
30
0.0000000000
10
5.8857309307
20
-0.9288340229
30
0.0000000000
10
5.8989146183
20
-0.9313124156
30
0.0000000000
10
5.9143096724
20
-0.9352458647
30
0.0000000000
10
5.9292793522
20
-0.9401386916
30
0.0000000000
10
5.9438236586
20
-0.9459908964
30
0.0000000000
10
5.9579425914
20
-0.9528024790
30
0.0000000000
10
5.9716361506
20
-0.9605734395
30
0.0000000000
10
5.9826929719
20
-0.9678487214
30
0.0000000000
10
5.9913257422
20
-0.9741486358
30
0.0000000000
10
5.9976939766
20
-0.9791134161
30
0.0000000000
10
6.0029122190
20
-0.9834506034
30
0.0000000000
10
6.0070336413
20
-0.9870402754
30
0.0000000000
10
6.0100981221
20
-0.9897924906
30
0.0000000000
10
6.0131360172
20
-0.9926046669
30
0.0000000000
10
6.0161473260
20
-0.9954768040
30
0.0000000000
10
6.0186345964
20
-0.9979202204
30
0.0000000000
10
6.0206111170
20
-0.9999049312
30
0.0000000000
10
6.0218409101
20
-1.0011578740
30
0.0000000000
10
6.0228214064
20
-1.0021677082
30
0.0000000000
10
6.0234328662
20
-1.0028020121
30
0.0000000000
10
6.0238600925
20
-1.0032475951
30
0.0000000000
10
6.0241041213
20
-1.0035027910
30
0.0000000000
10
6.0242867369
20
-1.0036941160
30
0.0000000000
10
6.0244704040
20
-1.0038868453
30
0.0000000000
10
6.0245932748
20
-1.0040225427
30
0.0000000000
10
6.0248648981
20
-1.0043172455
30
0.0000000000
10
6.0252226134
20
-1.0047104117
30
0.0000000000
10
6.0256636285
20
-1.0051977252
30
0.0000000000
10
6.0261002592
20
-1.0056844683
30
0.0000000000
10
6.0266823198
20
-1.0063384105
30
0.0000000000
10
6.0274070439
20
-1.0071624929
30
0.0000000000
10
6.0285616154
20
-1.0084963143
30
0.0000000000
10
6.0305683220
20
-1.0108699359
30
0.0000000000
10
6.0333959933
20
-1.0143738505
30
0.0000000000
10
6.0367266027
20
-1.0187592782
30
0.0000000000
10
6.0399946460
20
-1.0233254662
30
0.0000000000
10
6.0442686049
20
-1.0296547200
30
0.0000000000
10
6.0494546233
20
-1.0380181728
30
0.0000000000
10
6.0554275552
20
-1.0487773316
30
0.0000000000
10
6.0611501975
20
-1.0602595063
30
0.0000000000
10
6.0666225500
20
-1.0724646967
30
0.0000000000
10
6.0718446128
20
-1.0853929030
30
0.0000000000
10
6.0784736435
20
-1.1035945323
30
0.0000000000
10
6.0861342377
20
-1.1281542053
30
0.0000000000
10
6.0915952732
20
-1.1497300241
30
0.0000000000
10
6.0941589413
20
-1.1610000067
30
0.0000000000
11
5.4954104999
21
-1.5035979349
31
0.0000000000
11
5.5013990072
21
-1.3735873090
31
0.0000000000
11
5.5079219859
21
-1.3161241140
31
0.0000000000
11
5.5167974478
21
-1.2636889975
31
0.0000000000
11
5.5280253930
21
-1.2162819596
31
0.0000000000
11
5.5345215468
21
-1.1944639702
31
0.0000000000
11
5.5416058215
21
-1.1739030004
31
0.0000000000
11
5.5453685041
21
-1.1640938978
31
0.0000000000
11
5.5492752167
21
-1.1545880757
31
0.0000000000
11
5.5574307233
21
-1.1361570360
31
0.0000000000
11
5.5660243368
21
-1.1184342885
31
0.0000000000
11
5.5750560572
21
-1.1014198333
31
0.0000000000
11
5.5944338189
21
-1.0695157996
31
0.0000000000
11
5.6155640082
21
-1.0404449348
31
0.0000000000
11
5.6384466252
21
-1.0142072391
31
0.0000000000
11
5.6505450941
21
-1.0021508295
31
0.0000000000
11
5.6567586186
21
-0.9963882344
31
0.0000000000
11
5.6630816699
21
-0.9908027122
31
0.0000000000
11
5.6662842681
21
-0.9880763536
31
0.0000000000
11
5.6695142479
21
-0.9853942632
31
0.0000000000
11
5.6727716095
21
-0.9827564411
31
0.0000000000
11
5.6760563527
21
-0.9801628872
31
0.0000000000
11
5.6777089924
21
-0.9788827109
31
0.0000000000
11
5.6793684776
21
-0.9776136016
31
0.0000000000
11
5.6810348081
21
-0.9763555594
31
0.0000000000
11
5.6827079841
21
-0.9751085843
31
0.0000000000
11
5.6835471392
21
-0.9744892468
31
0.0000000000
11
5.6839673584
21
-0.9741806157
31
0.0000000000
11
5.6843158761
21
-0.9739282861
31
0.0000000000
11
5.6846466243
21
-0.9736904524
31
0.0000000000
11
5.6849776168
21
-0.9734532011
31
0.0000000000
11
5.6856403352
21
-0.9729804462
31
0.0000000000
11
5.6869687050
21
-0.9720419263
31
0.0000000000
11
5.6883009855
21
-0.9711127263
31
0.0000000000
11
5.6909772790
21
-0.9692822863
31
0.0000000000
11
5.6936692155
21
-0.9674891261
31
0.0000000000
11
5.6991000178
21
-0.9640146452
31
0.0000000000
11
5.7045933924
21
-0.9606892837
31
0.0000000000
11
5.7101493394
21
-0.9575130415
31
0.0000000000
11
5.7157678587
21
-0.9544859187
31
0.0000000000
11
5.7214489504
21
-0.9516079152
31
0.0000000000
11
5.7329988507
21
-0.9462992663
31
0.0000000000
11
5.7447990404
21
-0.9415870949
31
0.0000000000
11
5.7568495194
21
-0.9374714008
31
0.0000000000
11
5.7691502878
21
-0.9339521841
31
0.0000000000
11
5.7817013455
21
-0.9310294448
31
0.0000000000
11
5.7945026926
21
-0.9287031829
31
0.0000000000
11
5.8009972247
21
-0.9277637310
31
0.0000000000
11
5.8075543291
21
-0.9269733985
31
0.0000000000
11
5.8141740059
21
-0.9263321853
31
0.0000000000
11
5.8208562549
21
-0.9258400914
31
0.0000000000
11
5.8276010764
21
-0.9254971169
31
0.0000000000
11
5.8309969517
21
-0.9253815494
31
0.0000000000
11
5.8344084701
21
-0.9253032617
31
0.0000000000
11
5.8361200955
21
-0.9252780978
31
0.0000000000
11
5.8378356316
21
-0.9252622539
31
0.0000000000
11
5.8386948662
21
-0.9252578269
31
0.0000000000
11
5.8391248502
21
-0.9252564872
31
0.0000000000
11
5.8395550785
21
-0.9252557299
31
0.0000000000
11
5.8400065482
21
-0.9252555623
31
0.0000000000
11
5.8405418538
21
-0.9252562181
31
0.0000000000
11
5.8416112189
21
-0.9252603404
31
0.0000000000
11
5.8437449641
21
-0.9252798278
31
0.0000000000
11
5.8458720629
21
-0.9253143054
31
0.0000000000
11
5.8479925152
21
-0.9253637734
31
0.0000000000
11
5.8501063211
21
-0.9254282316
31
0.0000000000
11
5.8543139934
21
-0.9256021188
31
0.0000000000
11
5.8584950799
21
-0.9258359671
31
0.0000000000
11
5.8667774953
21
-0.9264835472
31
0.0000000000
11
5.8749535674
21
-0.9273709717
31
0.0000000000
11
5.8830232960
21
-0.9284982406
31
0.0000000000
11
5.8988437231
21
-0.9314723119
31
0.0000000000
11
5.9142387766
21
-0.9354057610
31
0.0000000000
11
5.9292084566
21
-0.9402985880
31
0.0000000000
11
5.9437527630
21
-0.9461507927
31
0.0000000000
11
5.9578716958
21
-0.9529623753
31
0.0000000000
11
5.9715652550
21
-0.9607333358
31
0.0000000000
11
5.9848334406
21
-0.9694636741
31
0.0000000000
11
5.9913080183
21
-0.9741886099
31
0.0000000000
11
5.9976762527
21
-0.9791533902
31
0.0000000000
11
6.0039381436
21
-0.9843580149
31
0.0000000000
11
6.0070292103
21
-0.9870502689
31
0.0000000000
11
6.0100936911
21
-0.9898024841
31
0.0000000000
11
6.0131315861
21
-0.9926146604
31
0.0000000000
11
6.0161428953
21
-0.9954867977
31
0.0000000000
11
6.0191276186
21
-0.9984188962
31
0.0000000000
11
6.0206100105
21
-0.9999074309
31
0.0000000000
11
6.0220857560
21
-1.0014109559
31
0.0000000000
11
6.0228211364
21
-1.0021683397
31
0.0000000000
11
6.0235548551
21
-1.0029294711
31
0.0000000000
11
6.0239210913
21
-1.0033114421
31
0.0000000000
11
6.0241040537
21
-1.0035027790
31
0.0000000000
11
6.0242869122
21
-1.0036943501
31
0.0000000000
11
6.0244551516
21
-1.0038716859
31
0.0000000000
11
6.0245652523
21
-1.0039913437
31
0.0000000000
11
6.0247852702
21
-1.0042311889
31
0.0000000000
11
6.0252245728
21
-1.0047129974
31
0.0000000000
11
6.0256628978
21
-1.0051976302
31
0.0000000000
11
6.0261002450
21
-1.0056850872
31
0.0000000000
11
6.0265366145
21
-1.0061753686
31
0.0000000000
11
6.0274064205
21
-1.0071644041
31
0.0000000000
11
6.0282723157
21
-1.0081647367
31
0.0000000000
11
6.0299923738
21
-1.0101992934
31
0.0000000000
11
6.0333855606
21
-1.0144039722
31
0.0000000000
11
6.0367161750
21
-1.0187894049
31
0.0000000000
11
6.0399842170
21
-1.0233555916
31
0.0000000000
11
6.0431896865
21
-1.0281025323
31
0.0000000000
11
6.0494129083
21
-1.0381386754
31
0.0000000000
11
6.0553858403
21
-1.0488978342
31
0.0000000000
11
6.0611084825
21
-1.0603800089
31
0.0000000000
11
6.0665808350
21
-1.0725851994
31
0.0000000000
11
6.0718028978
21
-1.0855134056
31
0.0000000000
11
6.0767746708
21
-1.0991646276
31
0.0000000000
11
6.0859673476
21
-1.1286361190
31
0.0000000000
11
6.0941589413
21
-1.1610000067
31
0.0000000000
0
SPLINE
5
2E7
100
AcDbEntity
8
0
100
AcDbSpline
62
7
6
CONTINUOUS
70
0
71
3
72
132
73
128
74
126
42
0.0000001000
43
0.0000001000
44
0.0000000001
12
-0.2468380525
22
1.9120091585
32
0.0000000000
13
0.2589267857
23
-1.9104623016
33
0.0000000000
40
0.0000000000
40
0.0000000000
40
0.0000000000
40
0.0000000000
40
0.0690521229
40
0.1010773568
40
0.1167710234
40
0.1323758041
40
0.1479929440
40
0.1558393346
40
0.1637220592
40
0.1715858966
40
0.1794205515
40
0.1950494011
40
0.2107127234
40
0.2265108517
40
0.2425415886
40
0.2588985644
40
0.2672284899
40
0.2756725048
40
0.2842406301
40
0.2929424581
40
0.2973465273
40
0.3017874186
40
0.3062662084
40
0.3107839463
40
0.3153416547
40
0.3176358253
40
0.3187867914
40
0.3199403635
40
0.3210965566
40
0.3216756410
40
0.3222553862
40
0.3228357941
40
0.3231262472
40
0.3232715361
40
0.3234168666
40
0.3234895475
40
0.3235813128
40
0.3237762466
40
0.3241659243
40
0.3249445223
40
0.3257221142
40
0.3264987041
40
0.3280488935
40
0.3295951248
40
0.3311374317
40
0.3342104001
40
0.3372680816
40
0.3403107551
40
0.3433387034
40
0.3493515036
40
0.3553088999
40
0.3670665672
40
0.3786323801
40
0.3900274328
40
0.4012737802
40
0.4123943622
40
0.4234129043
40
0.4452356663
40
0.4669486617
40
0.4778308276
40
0.4887617889
40
0.4997665245
40
0.5108695154
40
0.5164656985
40
0.5220953208
40
0.5277612409
40
0.5334662626
40
0.5363343394
40
0.5392132164
40
0.5406568148
40
0.5421032381
40
0.5435525276
40
0.5442782606
40
0.5450047254
40
0.5453682340
40
0.5457319274
40
0.5465426016
40
0.5473789459
40
0.5482161634
40
0.5498932546
40
0.5515739549
40
0.5549464708
40
0.5583343392
40
0.5651583802
40
0.5720509315
40
0.5790165572
40
0.5860596791
40
0.6003943611
40
0.6150885380
40
0.6301723609
40
0.6456737076
40
0.6780239913
40
0.7123272396
40
0.7487354709
40
0.7677712876
40
0.7873791838
40
0.8075718562
40
0.8283609302
40
0.8497570592
40
0.8606859983
40
0.8662086747
40
0.8717703297
40
0.8773710989
40
0.8801861951
40
0.8830111194
40
0.8844272724
40
0.8858458886
40
0.8872669698
40
0.8879784355
40
0.8886905182
40
0.8890467910
40
0.8893741102
40
0.8900109242
40
0.8912828405
40
0.8938198326
40
0.8963477169
40
0.8988665079
40
0.9038768664
40
0.9088510329
40
0.9137891310
40
0.9235575983
40
0.9331833453
40
0.9426674647
40
0.9520110991
40
0.9702814279
40
0.9880048577
40
1.0000000000
40
1.0000000000
40
1.0000000000
40
1.0000000000
10
6.2756609764
20
-1.1463960018
30
0.0000000000
10
6.2699794126
20
-1.1023865713
30
0.0000000000
10
6.2545701470
20
-1.0382396012
30
0.0000000000
10
6.2208625236
20
-0.9708839040
30
0.0000000000
10
6.1984176224
20
-0.9368903014
30
0.0000000000
10
6.1798172530
20
-0.9131214991
30
0.0000000000
10
6.1627770334
20
-0.8946434015
30
0.0000000000
10
6.1482537188
20
-0.8806782623
30
0.0000000000
10
6.1369146837
20
-0.8706075660
30
0.0000000000
10
6.1251937071
20
-0.8609959168
30
0.0000000000
10
6.1091261268
20
-0.8488592865
30
0.0000000000
10
6.0881621520
20
-0.8349230338
30
0.0000000000
10
6.0616656731
20
-0.8202392807
30
0.0000000000
10
6.0338483985
20
-0.8076057146
30
0.0000000000
10
6.0047157741
20
-0.7970233219
30
0.0000000000
10
5.9794957828
20
-0.7899554082
30
0.0000000000
10
5.9587135576
20
-0.7853138742
30
0.0000000000
10
5.9427020189
20
-0.7823207491
30
0.0000000000
10
5.9263622495
20
-0.7798373156
30
0.0000000000
10
5.9125279785
20
-0.7781990047
30
0.0000000000
10
5.9013014059
20
-0.7771402566
30
0.0000000000
10
5.8927651125
20
-0.7764702446
30
0.0000000000
10
5.8841466229
20
-0.7759275061
30
0.0000000000
10
5.8754459158
20
-0.7755120350
30
0.0000000000
10
5.8681431532
20
-0.7752724006
30
0.0000000000
10
5.8630015076
20
-0.7751600922
30
0.0000000000
10
5.8600466512
20
-0.7751116257
30
0.0000000000
10
5.8578228740
20
-0.7750831878
30
0.0000000000
10
5.8559664996
20
-0.7750661267
30
0.0000000000
10
5.8544788377
20
-0.7750564475
30
0.0000000000
10
5.8533611712
20
-0.7750511722
30
0.0000000000
10
5.8524289781
20
-0.7750484338
30
0.0000000000
10
5.8517759751
20
-0.7750473861
30
0.0000000000
10
5.8514025632
20
-0.7750470357
30
0.0000000000
10
5.8511690972
20
-0.7750469202
30
0.0000000000
10
5.8509700267
20
-0.7750468881
30
0.0000000000
10
5.8507390800
20
-0.7750469081
30
0.0000000000
10
5.8503044231
20
-0.7750471283
30
0.0000000000
10
5.8494283905
20
-0.7750483266
30
0.0000000000
10
5.8481779311
20
-0.7750521911
30
0.0000000000
10
5.8466788476
20
-0.7750602779
30
0.0000000000
10
5.8446839573
20
-0.7750756474
30
0.0000000000
10
5.8421952077
20
-0.7751034624
30
0.0000000000
10
5.8392146054
20
-0.7751506532
30
0.0000000000
10
5.8352558851
20
-0.7752318601
30
0.0000000000
10
5.8303268389
20
-0.7753677204
30
0.0000000000
10
5.8244357886
20
-0.7755861265
30
0.0000000000
10
5.8185759933
20
-0.7758597018
30
0.0000000000
10
5.8108231069
20
-0.7762969830
30
0.0000000000
10
5.8012084691
20
-0.7769806155
30
0.0000000000
10
5.7860225345
20
-0.7783651821
30
0.0000000000
10
5.7673382725
20
-0.7806418354
30
0.0000000000
10
5.7453175258
20
-0.7842701020
30
0.0000000000
10
5.7237959671
20
-0.7887828279
30
0.0000000000
10
5.7027741859
20
-0.7941800812
30
0.0000000000
10
5.6822518435
20
-0.8004623933
30
0.0000000000
10
5.6556453213
20
-0.8099858431
30
0.0000000000
10
5.6235075777
20
-0.8241368761
30
0.0000000000
10
5.5929688285
20
-0.8412956435
30
0.0000000000
10
5.5696353115
20
-0.8567367586
30
0.0000000000
10
5.5526207870
20
-0.8692120974
30
0.0000000000
10
5.5361090835
20
-0.8825711354
30
0.0000000000
10
5.5228026054
20
-0.8944092370
30
0.0000000000
10
5.5124149331
20
-0.9043097480
30
0.0000000000
10
5.5047283217
20
-0.9119758663
30
0.0000000000
10
5.4971669904
20
-0.9198626114
30
0.0000000000
10
5.4909813740
20
-0.9266066376
30
0.0000000000
10
5.4860959660
20
-0.9321106555
30
0.0000000000
10
5.4830660034
20
-0.9355995470
30
0.0000000000
10
5.4806577255
20
-0.9384180466
30
0.0000000000
10
5.4788575967
20
-0.9405477498
30
0.0000000000
10
5.4773647464
20
-0.9423330981
30
0.0000000000
10
5.4761743912
20
-0.9437682571
30
0.0000000000
10
5.4754318391
20
-0.9446683056
30
0.0000000000
10
5.4748388314
20
-0.9453901111
30
0.0000000000
10
5.4742122625
20
-0.9461543800
30
0.0000000000
10
5.4733969183
20
-0.9471567960
30
0.0000000000
10
5.4723935904
20
-0.9483985451
30
0.0000000000
10
5.4710461074
20
-0.9500780213
30
0.0000000000
10
5.4693697928
20
-0.9521893104
30
0.0000000000
10
5.4667034141
20
-0.9555947254
30
0.0000000000
10
5.4634026194
20
-0.9598995491
30
0.0000000000
10
5.4581837703
20
-0.9668977536
30
0.0000000000
10
5.4517888250
20
-0.9758394593
30
0.0000000000
10
5.4443400851
20
-0.9868486552
30
0.0000000000
10
5.4370981954
20
-0.9981626185
30
0.0000000000
10
5.4276633846
20
-1.0137446174
30
0.0000000000
10
5.4163892253
20
-1.0340101071
30
0.0000000000
10
5.4037689177
20
-1.0594042427
30
0.0000000000
10
5.3919775744
20
-1.0860158565
30
0.0000000000
10
5.3771508449
20
-1.1236546443
30
0.0000000000
10
5.3607707717
20
-1.1739020901
30
0.0000000000
10
5.3447114015
20
-1.2382026644
30
0.0000000000
10
5.3342498811
20
-1.2949564245
30
0.0000000000
10
5.3274571427
20
-1.3427101496
30
0.0000000000
10
5.3231140760
20
-1.3802741084
30
0.0000000000
10
5.3195975068
20
-1.4190550839
30
0.0000000000
10
5.3169074287
20
-1.4590537230
30
0.0000000000
10
5.3153654754
20
-1.4931541561
30
0.0000000000
10
5.3146423410
20
-1.5174656840
30
0.0000000000
10
5.3143284040
20
-1.5316085471
30
0.0000000000
10
5.3141437845
20
-1.5423292719
30
0.0000000000
10
5.3140331823
20
-1.5513109408
30
0.0000000000
10
5.3139703962
20
-1.5585342917
30
0.0000000000
10
5.3139418749
20
-1.5630686841
30
0.0000000000
10
5.3139254991
20
-1.5667057114
30
0.0000000000
10
5.3139164356
20
-1.5694406152
30
0.0000000000
10
5.3139115758
20
-1.5717226786
30
0.0000000000
10
5.3139093002
20
-1.5735507088
30
0.0000000000
10
5.3139085507
20
-1.5746944672
30
0.0000000000
10
5.3139083573
20
-1.5755913633
30
0.0000000000
10
5.3139084177
20
-1.5764398899
30
0.0000000000
10
5.3139091744
20
-1.5778768322
30
0.0000000000
10
5.3139132207
20
-1.5807337646
30
0.0000000000
10
5.3139262777
20
-1.5848059326
30
0.0000000000
10
5.3139536234
20
-1.5896793189
30
0.0000000000
10
5.3140055438
20
-1.5961420221
30
0.0000000000
10
5.3140994460
20
-1.6041764579
30
0.0000000000
10
5.3142589898
20
-1.6137648302
30
0.0000000000
10
5.3145329265
20
-1.6264092466
30
0.0000000000
10
5.3149906791
20
-1.6420394139
30
0.0000000000
10
5.3157286209
20
-1.6605830271
30
0.0000000000
10
5.3166531752
20
-1.6788449775
30
0.0000000000
10
5.3181237408
20
-1.7026401413
30
0.0000000000
10
5.3204173854
20
-1.7316876416
30
0.0000000000
10
5.3235934738
20
-1.7623656525
30
0.0000000000
10
5.3259786324
20
-1.7813156346
30
0.0000000000
10
5.3270139202
20
-1.7889543903
30
0.0000000000
11
6.2756609764
21
-1.1463960018
31
0.0000000000
11
6.2424996647
21
-1.0174684312
31
0.0000000000
11
6.2147343205
21
-0.9623231739
31
0.0000000000
11
6.1980554772
21
-0.9370801840
31
0.0000000000
11
6.1795125197
21
-0.9133902865
31
0.0000000000
11
6.1591054480
21
-0.8912534814
31
0.0000000000
11
6.1482028694
21
-0.8807674885
31
0.0000000000
11
6.1368407482
21
-0.8706754829
31
0.0000000000
11
6.1251167808
21
-0.8610635327
31
0.0000000000
11
6.1130638027
21
-0.8519605657
31
0.0000000000
11
6.0879708145
21
-0.8352815810
31
0.0000000000
11
6.0615617837
21
-0.8206385287
31
0.0000000000
11
6.0338367102
21
-0.8080314087
31
0.0000000000
11
6.0047955940
21
-0.7974602212
31
0.0000000000
11
5.9744384352
21
-0.7889249661
31
0.0000000000
11
5.9587663398
21
-0.7854208133
31
0.0000000000
11
5.9427652338
21
-0.7824256435
31
0.0000000000
11
5.9264351170
21
-0.7799394568
31
0.0000000000
11
5.9097759897
21
-0.7779622532
31
0.0000000000
11
5.9013230470
21
-0.7771645200
31
0.0000000000
11
5.8927878516
21
-0.7764940327
31
0.0000000000
11
5.8841704036
21
-0.7759507911
31
0.0000000000
11
5.8754707029
21
-0.7755347953
31
0.0000000000
11
5.8666887495
21
-0.7752460453
31
0.0000000000
11
5.8622669281
21
-0.7751493874
31
0.0000000000
11
5.8600483062
21
-0.7751129878
31
0.0000000000
11
5.8578245435
21
-0.7750845410
31
0.0000000000
11
5.8555956400
21
-0.7750640471
31
0.0000000000
11
5.8544792605
21
-0.7750567825
31
0.0000000000
11
5.8533615958
21
-0.7750515061
31
0.0000000000
11
5.8522426458
21
-0.7750482179
31
0.0000000000
11
5.8516826889
21
-0.7750473193
31
0.0000000000
11
5.8514025900
21
-0.7750470565
31
0.0000000000
11
5.8511224107
21
-0.7750469179
31
0.0000000000
11
5.8509822909
21
-0.7750468952
31
0.0000000000
11
5.8508053786
21
-0.7750469103
31
0.0000000000
11
5.8504295705
21
-0.7750471009
31
0.0000000000
11
5.8496783207
21
-0.7750481286
31
0.0000000000
11
5.8481772869
21
-0.7750527698
31
0.0000000000
11
5.8466782076
21
-0.7750608588
31
0.0000000000
11
5.8451810826
21
-0.7750723956
31
0.0000000000
11
5.8421926958
21
-0.7751058125
31
0.0000000000
11
5.8392121265
21
-0.7751530204
31
0.0000000000
11
5.8362393749
21
-0.7752140195
31
0.0000000000
11
5.8303173243
21
-0.7753773908
31
0.0000000000
11
5.8244265440
21
-0.7755959265
31
0.0000000000
11
5.8185670340
21
-0.7758696265
31
0.0000000000
11
5.8127387944
21
-0.7761984909
31
0.0000000000
11
5.8011761259
21
-0.7770217127
31
0.0000000000
11
5.7897385387
21
-0.7780655919
31
0.0000000000
11
5.7672386080
21
-0.7808153224
31
0.0000000000
11
5.7452390021
21
-0.7844476825
31
0.0000000000
11
5.7237397211
21
-0.7889626721
31
0.0000000000
11
5.7027407649
21
-0.7943602913
31
0.0000000000
11
5.6822421337
21
-0.8006405401
31
0.0000000000
11
5.6622438273
21
-0.8078034184
31
0.0000000000
11
5.6237481891
21
-0.8247770636
31
0.0000000000
11
5.5872538505
21
-0.8452812271
31
0.0000000000
11
5.5697571685
21
-0.8568572532
31
0.0000000000
11
5.5527608114
21
-0.8693159088
31
0.0000000000
11
5.5362647791
21
-0.8826571939
31
0.0000000000
11
5.5202690717
21
-0.8968811087
31
0.0000000000
11
5.5124588398
21
-0.9043240521
31
0.0000000000
11
5.5047736892
21
-0.9119876530
31
0.0000000000
11
5.4972136198
21
-0.9198719112
31
0.0000000000
11
5.4897786316
21
-0.9279768268
31
0.0000000000
11
5.4861080429
21
-0.9321120311
31
0.0000000000
11
5.4824687246
21
-0.9363023998
31
0.0000000000
11
5.4806607918
21
-0.9384182708
31
0.0000000000
11
5.4788606765
21
-0.9405479328
31
0.0000000000
11
5.4770683789
21
-0.9426913859
31
0.0000000000
11
5.4761751616
21
-0.9437682842
31
0.0000000000
11
5.4752838988
21
-0.9448486302
31
0.0000000000
11
5.4748390003
21
-0.9453900961
31
0.0000000000
11
5.4743945904
21
-0.9459324239
31
0.0000000000
11
5.4734079749
21
-0.9471445227
31
0.0000000000
11
5.4723946630
21
-0.9483986883
31
0.0000000000
11
5.4713845802
21
-0.9496576151
31
0.0000000000
11
5.4693741018
21
-0.9521897524
31
0.0000000000
11
5.4673765398
21
-0.9547409344
31
0.0000000000
11
5.4634201648
21
-0.9599004331
31
0.0000000000
11
5.4595154552
21
-0.9651361112
31
0.0000000000
11
5.4518610320
21
-0.9758360053
31
0.0000000000
11
5.4444132704
21
-0.9868406168
31
0.0000000000
11
5.4371721701
21
-0.9981499457
31
0.0000000000
11
5.4301377314
21
-1.0097639921
31
0.0000000000
11
5.4166888384
21
-1.0339062371
31
0.0000000000
11
5.4040665913
21
-1.0592673517
31
0.0000000000
11
5.3922709901
21
-1.0858473359
31
0.0000000000
11
5.3813020348
21
-1.1136461898
31
0.0000000000
11
5.3618440619
21
-1.1729005065
31
0.0000000000
11
5.3456926727
21
-1.2370303019
31
0.0000000000
11
5.3328478670
21
-1.3060355758
31
0.0000000000
11
5.3276654331
21
-1.3423665173
31
0.0000000000
11
5.3233096450
21
-1.3799163283
31
0.0000000000
11
5.3197805029
21
-1.4186850091
31
0.0000000000
11
5.3170780067
21
-1.4586725595
31
0.0000000000
11
5.3152021563
21
-1.4998789795
31
0.0000000000
11
5.3145742234
21
-1.5209392657
31
0.0000000000
11
5.3143377550
21
-1.5315836777
31
0.0000000000
11
5.3141529519
21
-1.5423042692
31
0.0000000000
11
5.3140198142
21
-1.5531010400
31
0.0000000000
11
5.3139726199
21
-1.5585279927
31
0.0000000000
11
5.3139383419
21
-1.5639739902
31
0.0000000000
11
5.3139260465
21
-1.5667041307
31
0.0000000000
11
5.3139169803
21
-1.5694390325
31
0.0000000000
11
5.3139111431
21
-1.5721786955
31
0.0000000000
11
5.3139094354
21
-1.5735503124
31
0.0000000000
11
5.3139085350
21
-1.5749231197
31
0.0000000000
11
5.3139083875
21
-1.5756099697
31
0.0000000000
11
5.3139084360
21
-1.5762410006
31
0.0000000000
11
5.3139090810
21
-1.5774686992
31
0.0000000000
11
5.3139125579
21
-1.5799207944
31
0.0000000000
11
5.3139282603
21
-1.5848117768
31
0.0000000000
11
5.3139556273
21
-1.5896851487
31
0.0000000000
11
5.3139946590
21
-1.5945409100
31
0.0000000000
11
5.3141077162
21
-1.6041996010
31
0.0000000000
11
5.3142674320
21
-1.6137878497
31
0.0000000000
11
5.3144738063
21
-1.6233056562
31
0.0000000000
11
5.3150265306
21
-1.6421299424
31
0.0000000000
11
5.3157658891
21
-1.6606724596
31
0.0000000000
11
5.3166918817
21
-1.6789332078
31
0.0000000000
11
5.3178045085
21
-1.6969121870
31
0.0000000000
11
5.3205896645
21
-1.7320248384
31
0.0000000000
11
5.3241213573
21
-1.7660104138
31
0.0000000000
11
5.3270139202
21
-1.7889543903
31
0.0000000000
0
SPLINE
5
2E8
100
AcDbEntity
8
0
100
AcDbSpline
62
7
6
CONTINUOUS
70
0
71
3
72
21
73
17
74
15
42
0.0000001000
43
0.0000001000
44
0.0000000001
12
-0.1918029793
22
-0.3872565037
32
0.0000000000
13
-0.6159597049
23
-0.2894645912
33
0.0000000000
40
0.0000000000
40
0.0000000000
40
0.0000000000
40
0.0000000000
40
0.0937497471
40
0.1874997733
40
0.2812497994
40
0.3749998256
40
0.4218748387
40
0.4687498518
40
0.4921873583
40
0.5156248648
40
0.5624998779
40
0.6093748910
40
0.6562499041
40
0.7499999302
40
0.8749999651
40
1.0000000000
40
1.0000000000
40
1.0000000000
40
1.0000000000
10
4.7324365744
20
-0.7750470024
30
0.0000000000
10
4.7264427475
20
-0.7871487355
30
0.0000000000
10
4.7128778001
20
-0.8114951100
30
0.0000000000
10
4.6877985638
20
-0.8484432672
30
0.0000000000
10
4.6579873912
20
-0.8858201610
30
0.0000000000
10
4.6292017775
20
-0.9173244506
30
0.0000000000
10
4.6038068565
20
-0.9427428408
30
0.0000000000
10
4.5869503951
20
-0.9587171343
30
0.0000000000
10
4.5728710811
20
-0.9715535644
30
0.0000000000
10
4.5584071768
20
-0.9844132275
30
0.0000000000
10
4.5399365961
20
-1.0001074220
30
0.0000000000
10
4.5170759360
20
-1.0184227386
30
0.0000000000
10
4.4856922600
20
-1.0421205954
30
0.0000000000
10
4.4393005145
20
-1.0741739117
30
0.0000000000
10
4.3753807905
20
-1.1125911416
30
0.0000000000
10
4.3256649949
20
-1.1379859236
30
0.0000000000
10
4.3000000000
20
-1.1500469516
30
0.0000000000
11
4.7324365744
21
-0.7750470024
31
0.0000000000
11
4.7120891888
21
-0.8115665031
31
0.0000000000
11
4.6870099119
21
-0.8485147172
31
0.0000000000
11
4.6571987972
21
-0.8858915366
31
0.0000000000
11
4.6226558448
21
-0.9236969613
31
0.0000000000
11
4.6036099294
21
-0.9427604007
31
0.0000000000
11
4.5833810545
21
-0.9619309914
31
0.0000000000
11
4.5728230073
21
-0.9715564685
31
0.0000000000
11
4.5619971062
21
-0.9811729528
31
0.0000000000
11
4.5398206022
21
-1.0000211359
31
0.0000000000
11
4.5169630865
21
-1.0183324179
31
0.0000000000
11
4.4934245591
21
-1.0361067990
31
0.0000000000
11
4.4443044692
21
-1.0700448581
31
0.0000000000
11
4.3745736096
21
-1.1119548862
31
0.0000000000
11
4.3000000000
21
-1.1500469516
31
0.0000000000
0
SPLINE
5
2E9
100
AcDbEntity
8
0
100
AcDbSpline
62
7
6
CONTINUOUS
70
0
71
3
72
23
73
19
74
17
42
0.0000001000
43
0.0000001000
44
0.0000000001
12
0.3426626202
22
0.1263470770
32
0.0000000000
13
0.2652122837
23
0.2526940267
33
0.0000000000
40
0.0000000000
40
0.0000000000
40
0.0000000000
40
0.0000000000
40
0.0937502377
40
0.1875004753
40
0.2812507130
40
0.3750009507
40
0.4218760695
40
0.4453136289
40
0.4687511884
40
0.4921887478
40
0.5156263072
40
0.5625014260
40
0.6093765449
40
0.6562516637
40
0.7031267825
40
0.7500019014
40
0.8750022183
40
1.0000000000
40
1.0000000000
40
1.0000000000
40
1.0000000000
10
4.3000000000
20
-1.3273440090
30
0.0000000000
10
4.3107082340
20
-1.3233956529
30
0.0000000000
10
4.3326388725
20
-1.3147586248
30
0.0000000000
10
4.3670773601
20
-1.2995821261
30
0.0000000000
10
4.4030583216
20
-1.2821846988
30
0.0000000000
10
4.4343280219
20
-1.2658359836
30
0.0000000000
10
4.4568914002
20
-1.2534203487
30
0.0000000000
10
4.4699779849
20
-1.2460478761
30
0.0000000000
10
4.4798881730
20
-1.2403802906
30
0.0000000000
10
4.4898991942
20
-1.2345716850
30
0.0000000000
10
4.5033537049
20
-1.2266528174
30
0.0000000000
10
4.5196409015
20
-1.2167927919
30
0.0000000000
10
4.5384926411
20
-1.2049442312
30
0.0000000000
10
4.5566095223
20
-1.1931000997
30
0.0000000000
10
4.5740027823
20
-1.1812547848
30
0.0000000000
10
4.5999286855
20
-1.1628292188
30
0.0000000000
10
4.6323040690
20
-1.1378231280
30
0.0000000000
10
4.6561257100
20
-1.1167654671
30
0.0000000000
10
4.6671760257
20
-1.1062367362
30
0.0000000000
11
4.3000000000
21
-1.3273440090
31
0.0000000000
11
4.3328959608
21
-1.3143884654
31
0.0000000000
11
4.3673344391
21
-1.2992119713
31
0.0000000000
11
4.4033154348
21
-1.2818145270
31
0.0000000000
11
4.4408389479
21
-1.2621961323
31
0.0000000000
11
4.4601791485
21
-1.2515540786
31
0.0000000000
11
4.4699938598
21
-1.2460248376
31
0.0000000000
11
4.4799049785
21
-1.2403567872
31
0.0000000000
11
4.4899125045
21
-1.2345499275
31
0.0000000000
11
4.4999546811
21
-1.2286351049
31
0.0000000000
11
4.5195254188
21
-1.2167900369
31
0.0000000000
11
4.5383701647
21
-1.2049449694
31
0.0000000000
11
4.5564889187
21
-1.1930999025
31
0.0000000000
11
4.5738816809
21
-1.1812548361
31
0.0000000000
11
4.5905484513
21
-1.1694097703
31
0.0000000000
11
4.6314438790
21
-1.1378229310
31
0.0000000000
11
4.6671760257
21
-1.1062367362
31
0.0000000000
0
SPLINE
5
2EA
100
AcDbEntity
8
0
100
AcDbSpline
62
7
6
CONTINUOUS
70
0
71
3
72
76
73
72
74
70
42
0.0000001000
43
0.0000001000
44
0.0000000001
12
0.0000103311
22
1.2033707653
32
0.0000000000
13
0.0002164110
23
-1.2411819000
33
0.0000000000
40
0.0000000000
40
0.0000000000
40
0.0000000000
40
0.0000000000
40
0.0004882813
40
0.0009765625
40
0.0019531250
40
0.0039062500
40
0.0058593750
40
0.0078125000
40
0.0117187500
40
0.0156250000
40
0.0234375000
40
0.0312500000
40
0.0390625000
40
0.0468750000
40
0.0625000000
40
0.0781250000
40
0.0937500000
40
0.1093750000
40
0.1250000000
40
0.1562500000
40
0.1875000000
40
0.2031250000
40
0.2187500000
40
0.2343750000
40
0.2421875000
40
0.2500000000
40
0.2578125000
40
0.2656250000
40
0.2812500000
40
0.2968750000
40
0.3125000000
40
0.3437500000
40
0.3750000000
40
0.4062500000
40
0.4218750000
40
0.4375000000
40
0.4531250000
40
0.4687500000
40
0.4765625000
40
0.4843750000
40
0.4921875000
40
0.4960937500
40
0.4980468750
40
0.5000000000
40
0.5019531250
40
0.5039062500
40
0.5078125000
40
0.5156250000
40
0.5312500000
40
0.5468750000
40
0.5625000000
40
0.5937500000
40
0.6250000000
40
0.6562500000
40
0.6875000000
40
0.7031250000
40
0.7187500000
40
0.7343750000
40
0.7421875000
40
0.7500000000
40
0.7578125000
40
0.7656250000
40
0.7812500000
40
0.7968750000
40
0.8125000000
40
0.8437500000
40
0.8750000000
40
0.9062500000
40
0.9375000000
40
0.9687500000
40
1.0000000000
40
1.0000000000
40
1.0000000000
40
1.0000000000
10
6.6699586874
20
-1.2851630142
30
0.0000000000
10
6.6699586891
20
-1.2849671531
30
0.0000000000
10
6.6699589153
20
-1.2845388873
30
0.0000000000
10
6.6699602883
20
-1.2837213528
30
0.0000000000
10
6.6699650889
20
-1.2822743522
30
0.0000000000
10
6.6699788075
20
-1.2802210605
30
0.0000000000
10
6.6700062438
20
-1.2777603053
30
0.0000000000
10
6.6700574584
20
-1.2744902945
30
0.0000000000
10
6.6701489130
20
-1.2704202980
30
0.0000000000
10
6.6703537713
20
-1.2639469622
30
0.0000000000
10
6.6707195897
20
-1.2559271839
30
0.0000000000
10
6.6713341646
20
-1.2464186624
30
0.0000000000
10
6.6721243323
20
-1.2370253035
30
0.0000000000
10
6.6734120131
20
-1.2246543928
30
0.0000000000
10
6.6754605962
20
-1.2094786859
30
0.0000000000
10
6.6786212672
20
-1.1917285307
30
0.0000000000
10
6.6824843093
20
-1.1744390680
30
0.0000000000
10
6.6870497237
20
-1.1576102971
30
0.0000000000
10
6.6940734334
20
-1.1357861959
30
0.0000000000
10
6.7046090314
20
-1.1096577773
30
0.0000000000
10
6.7174857423
20
-1.0850650897
30
0.0000000000
10
6.7291921273
20
-1.0663121288
30
0.0000000000
10
6.7386735416
20
-1.0527086342
30
0.0000000000
10
6.7471624016
20
-1.0417546021
30
0.0000000000
10
6.7542993554
20
-1.0332255287
30
0.0000000000
10
6.7598422000
20
-1.0269334969
30
0.0000000000
10
6.7655051518
20
-1.0207963345
30
0.0000000000
10
6.7731225347
20
-1.0128867383
30
0.0000000000
10
6.7828124674
20
-1.0034813993
30
0.0000000000
10
6.7946960272
20
-0.9929752909
30
0.0000000000
10
6.8108864170
20
-0.9800041176
30
0.0000000000
10
6.8317702804
20
-0.9657360500
30
0.0000000000
10
6.8578650097
20
-0.9517273121
30
0.0000000000
10
6.8804722093
20
-0.9426475944
30
0.0000000000
10
6.8990749442
20
-0.9369403391
30
0.0000000000
10
6.9132854963
20
-0.9334381604
30
0.0000000000
10
6.9277544785
20
-0.9307142432
30
0.0000000000
10
6.9400275469
20
-0.9290928646
30
0.0000000000
10
6.9499748473
20
-0.9281848912
30
0.0000000000
10
6.9575010311
20
-0.9276984808
30
0.0000000000
10
6.9638232455
20
-0.9274552636
30
0.0000000000
10
6.9682838516
20
-0.9273701597
30
0.0000000000
10
6.9708302543
20
-0.9273458093
30
0.0000000000
10
6.9727739353
20
-0.9273398204
30
0.0000000000
10
6.9746075911
20
-0.9273455580
30
0.0000000000
10
6.9770835275
20
-0.9273681141
30
0.0000000000
10
6.9813840613
20
-0.9274471827
30
0.0000000000
10
6.9899364360
20
-0.9277633703
30
0.0000000000
10
7.0019738625
20
-0.9286668084
30
0.0000000000
10
7.0161432738
20
-0.9304736677
30
0.0000000000
10
7.0346639060
20
-0.9338464766
30
0.0000000000
10
7.0571194656
20
-0.9398693490
30
0.0000000000
10
7.0829530937
20
-0.9499877698
30
0.0000000000
10
7.1076738979
20
-0.9629971879
30
0.0000000000
10
7.1273470452
20
-0.9762474595
30
0.0000000000
10
7.1425293466
20
-0.9882932980
30
0.0000000000
10
7.1536372230
20
-0.9980500608
30
0.0000000000
10
7.1626639246
20
-1.0067841309
30
0.0000000000
10
7.1697417088
20
-1.0141301863
30
0.0000000000
10
7.1749926923
20
-1.0198274445
30
0.0000000000
10
7.1801275476
20
-1.0256785535
30
0.0000000000
10
7.1867408194
20
-1.0336400109
30
0.0000000000
10
7.1946062399
20
-1.0439125908
30
0.0000000000
10
7.2033915544
20
-1.0567463516
30
0.0000000000
10
7.2142384055
20
-1.0745360189
30
0.0000000000
10
7.2261696872
20
-1.0980424492
30
0.0000000000
10
7.2378841098
20
-1.1282854115
30
0.0000000000
10
7.2469954156
20
-1.1605498851
30
0.0000000000
10
7.2535030743
20
-1.1948865171
30
0.0000000000
10
7.2574092083
20
-1.2311064535
30
0.0000000000
10
7.2582736425
20
-1.2569784602
30
0.0000000000
10
7.2582758968
20
-1.2699074383
30
0.0000000000
11
6.6699586874
21
-1.2851630142
31
0.0000000000
11
6.6699590304
21
-1.2845437619
31
0.0000000000
11
6.6699600592
21
-1.2839249595
31
0.0000000000
11
6.6699641747
21
-1.2826887044
31
0.0000000000
11
6.6699806365
21
-1.2802215930
31
0.0000000000
11
6.6700080729
21
-1.2777616798
31
0.0000000000
11
6.6700464838
21
-1.2753089650
31
0.0000000000
11
6.6701562293
21
-1.2704251303
31
0.0000000000
11
6.6703098731
21
-1.2655700889
31
0.0000000000
11
6.6707488552
21
-1.2559463860
31
0.0000000000
11
6.6713634301
21
-1.2464378562
31
0.0000000000
11
6.6721535978
21
-1.2370444995
31
0.0000000000
11
6.6731193584
21
-1.2277663159
31
0.0000000000
11
6.6755776581
21
-1.2095554681
31
0.0000000000
11
6.6787383291
21
-1.1918053128
31
0.0000000000
11
6.6826013714
21
-1.1745158500
31
0.0000000000
11
6.6871667850
21
-1.1576870796
31
0.0000000000
11
6.6924345700
21
-1.1413190018
31
0.0000000000
11
6.7050772540
21
-1.1099649235
31
0.0000000000
11
6.7205294233
21
-1.0804536152
31
0.0000000000
11
6.7293090649
21
-1.0663889998
31
0.0000000000
11
6.7387910779
21
-1.0527850769
31
0.0000000000
11
6.7489754622
21
-1.0396418464
31
0.0000000000
11
6.7543310436
21
-1.0332429909
31
0.0000000000
11
6.7598622178
21
-1.0269593085
31
0.0000000000
11
6.7655134994
21
-1.0208304954
31
0.0000000000
11
6.7712294026
21
-1.0148962478
31
0.0000000000
11
6.7828550742
21
-1.0036114490
31
0.0000000000
11
6.7947392327
21
-0.9931049123
31
0.0000000000
11
6.8068818780
21
-0.9833766375
31
0.0000000000
11
6.8319426293
21
-0.9662548739
31
0.0000000000
11
6.8580373280
21
-0.9522461582
31
0.0000000000
11
6.8851659743
21
-0.9413504905
31
0.0000000000
11
6.8991180277
21
-0.9370700496
31
0.0000000000
11
6.9133285680
21
-0.9335678706
31
0.0000000000
11
6.9277975951
21
-0.9308439537
31
0.0000000000
11
6.9425251092
21
-0.9288982988
31
0.0000000000
11
6.9499857987
21
-0.9282173195
31
0.0000000000
11
6.9575111100
21
-0.9277309058
31
0.0000000000
11
6.9651010431
21
-0.9274390575
31
0.0000000000
11
6.9689202427
21
-0.9273660955
31
0.0000000000
11
6.9708359008
21
-0.9273478550
31
0.0000000000
11
6.9727555978
21
-0.9273417748
31
0.0000000000
11
6.9746114739
21
-0.9273474212
31
0.0000000000
11
6.9764630027
21
-0.9273643606
31
0.0000000000
11
6.9801530186
21
-0.9274321179
31
0.0000000000
11
6.9874808836
21
-0.9277031471
31
0.0000000000
11
7.0019279457
21
-0.9287872640
31
0.0000000000
11
7.0160967843
21
-0.9305941256
31
0.0000000000
11
7.0299873993
21
-0.9331237318
31
0.0000000000
11
7.0569339584
21
-0.9403511780
31
0.0000000000
11
7.0827676231
21
-0.9504696027
31
0.0000000000
11
7.1074883933
21
-0.9634790059
31
0.0000000000
11
7.1310962692
21
-0.9793793875
31
0.0000000000
11
7.1424828717
21
-0.9884136953
31
0.0000000000
11
7.1535912506
21
-0.9981707477
31
0.0000000000
11
7.1644214059
21
-1.0086505447
31
0.0000000000
11
7.1697321497
21
-1.0141614724
31
0.0000000000
11
7.1749733376
21
-1.0198530863
31
0.0000000000
11
7.1800983974
21
-1.0256985508
31
0.0000000000
11
7.1850607569
21
-1.0316710304
31
0.0000000000
11
7.1944973749
21
-1.0439970350
31
0.0000000000
11
7.2032831917
21
-1.0568310999
31
0.0000000000
11
7.2114182072
21
-1.0701732251
31
0.0000000000
11
7.2257358346
21
-1.0983816568
31
0.0000000000
11
7.2374502570
21
-1.1286223301
31
0.0000000000
11
7.2465614744
21
-1.1608952448
31
0.0000000000
11
7.2530694868
21
-1.1952004011
31
0.0000000000
11
7.2569742945
21
-1.2315377991
31
0.0000000000
11
7.2582758968
21
-1.2699074383
31
0.0000000000
0
SPLINE
5
2EB
100
AcDbEntity
8
0
100
AcDbSpline
62
7
6
CONTINUOUS
70
0
71
3
72
67
73
63
74
61
42
0.0000001000
43
0.0000001000
44
0.0000000001
12
0.0002164110
22
-1.2411819000
32
0.0000000000
13
0.0000103311
23
1.2033707653
33
0.0000000000
40
0.0000000000
40
0.0000000000
40
0.0000000000
40
0.0000000000
40
0.0312500000
40
0.0625000000
40
0.0937500000
40
0.1250000000
40
0.1562500000
40
0.1875000000
40
0.2031250000
40
0.2187500000
40
0.2343750000
40
0.2500000000
40
0.2656250000
40
0.2812500000
40
0.2968750000
40
0.3125000000
40
0.3437500000
40
0.3750000000
40
0.4062500000
40
0.4375000000
40
0.4531250000
40
0.4687500000
40
0.4843750000
40
0.4921875000
40
0.5000000000
40
0.5078125000
40
0.5156250000
40
0.5312500000
40
0.5468750000
40
0.5625000000
40
0.5937500000
40
0.6250000000
40
0.6562500000
40
0.6875000000
40
0.7031250000
40
0.7187500000
40
0.7343750000
40
0.7421875000
40
0.7500000000
40
0.7578125000
40
0.7656250000
40
0.7812500000
40
0.7968750000
40
0.8125000000
40
0.8437500000
40
0.8750000000
40
0.9062500000
40
0.9218750000
40
0.9375000000
40
0.9531250000
40
0.9609375000
40
0.9687500000
40
0.9765625000
40
0.9843750000
40
0.9882812500
40
0.9921875000
40
0.9941406250
40
0.9960937500
40
0.9980468750
40
0.9990234375
40
0.9995117188
40
1.0000000000
40
1.0000000000
40
1.0000000000
40
1.0000000000
10
7.2582758968
20
-1.2699074383
30
0.0000000000
10
7.2582781511
20
-1.2828364164
30
0.0000000000
10
7.2574227340
20
-1.3086803222
30
0.0000000000
10
7.2535895415
20
-1.3447379707
30
0.0000000000
10
7.2471983283
20
-1.3788017750
30
0.0000000000
10
7.2382511827
20
-1.4106803393
30
0.0000000000
10
7.2267477111
20
-1.4404248777
30
0.0000000000
10
7.2150307851
20
-1.4634224209
30
0.0000000000
10
7.2043800483
20
-1.4807480265
30
0.0000000000
10
7.1957502249
20
-1.4932074495
30
0.0000000000
10
7.1864915638
20
-1.5051250041
30
0.0000000000
10
7.1765555051
20
-1.5165276061
30
0.0000000000
10
7.1661233553
20
-1.5273146794
30
0.0000000000
10
7.1553764210
20
-1.5373856401
30
0.0000000000
10
7.1442661418
20
-1.5467674281
30
0.0000000000
10
7.1289852225
20
-1.5583480142
30
0.0000000000
10
7.1090001023
20
-1.5710872819
30
0.0000000000
10
7.0836061177
20
-1.5835946761
30
0.0000000000
10
7.0567995515
20
-1.5933227141
30
0.0000000000
10
7.0332839716
20
-1.5991131990
30
0.0000000000
10
7.0137649094
20
-1.6023558733
30
0.0000000000
10
6.9987736111
20
-1.6040930199
30
0.0000000000
10
6.9859831388
20
-1.6049615932
30
0.0000000000
10
6.9755820115
20
-1.6053090225
30
0.0000000000
10
6.9676715835
20
-1.6053958799
30
0.0000000000
10
6.9597542167
20
-1.6053090225
30
0.0000000000
10
6.9493371689
20
-1.6049615932
30
0.0000000000
10
6.9365088426
20
-1.6040930199
30
0.0000000000
10
6.9214451030
20
-1.6023558732
30
0.0000000000
10
6.9017928255
20
-1.5991131996
30
0.0000000000
10
6.8780423173
20
-1.5933227094
30
0.0000000000
10
6.8508443580
20
-1.5835946933
30
0.0000000000
10
6.8249493064
20
-1.5710872179
30
0.0000000000
10
6.8044559056
20
-1.5583482025
30
0.0000000000
10
6.7887124159
20
-1.5467671020
30
0.0000000000
10
6.7772310900
20
-1.5373868847
30
0.0000000000
10
6.7679329286
20
-1.5289895034
30
0.0000000000
10
6.7606613457
20
-1.5219274989
30
0.0000000000
10
6.7552779212
20
-1.5164481820
30
0.0000000000
10
6.7500185513
20
-1.5108298807
30
0.0000000000
10
6.7432431868
20
-1.5032119384
30
0.0000000000
10
6.7351855715
20
-1.4934247124
30
0.0000000000
10
6.7261853379
20
-1.4812648057
30
0.0000000000
10
6.7150732199
20
-1.4644949518
30
0.0000000000
10
6.7028501296
20
-1.4424903053
30
0.0000000000
10
6.6908491810
20
-1.4144165695
30
0.0000000000
10
6.6830708096
20
-1.3896317537
30
0.0000000000
10
6.6781815432
20
-1.3689698625
30
0.0000000000
10
6.6751813121
20
-1.3530564276
30
0.0000000000
10
6.6732367178
20
-1.3394477179
30
0.0000000000
10
6.6720144014
20
-1.3283522406
30
0.0000000000
10
6.6712643436
20
-1.3199263811
30
0.0000000000
10
6.6706809653
20
-1.3113962569
30
0.0000000000
10
6.6703337163
20
-1.3042009740
30
0.0000000000
10
6.6701392569
20
-1.2983925477
30
0.0000000000
10
6.6700524446
20
-1.2947407276
30
0.0000000000
10
6.6700038298
20
-1.2918058597
30
0.0000000000
10
6.6699777860
20
-1.2895992334
30
0.0000000000
10
6.6699647646
20
-1.2877516380
30
0.0000000000
10
6.6699602062
20
-1.2864619668
30
0.0000000000
10
6.6699589052
20
-1.2857140540
30
0.0000000000
10
6.6699586857
20
-1.2853588753
30
0.0000000000
10
6.6699586874
20
-1.2851630142
30
0.0000000000
11
7.2582758968
21
-1.2699074383
31
0.0000000000
11
7.2569977228
21
-1.3082289539
31
0.0000000000
11
7.2531632047
21
-1.3444056634
31
0.0000000000
11
7.2467723396
21
-1.3784375684
31
0.0000000000
11
7.2378251284
21
-1.4103246683
31
0.0000000000
11
7.2263215712
21
-1.4400669633
31
0.0000000000
11
7.2122616679
21
-1.4676644532
31
0.0000000000
11
7.2042730865
21
-1.4806588963
31
0.0000000000
11
7.1956454186
21
-1.4931171381
31
0.0000000000
11
7.1863786642
21
-1.5050391787
31
0.0000000000
11
7.1764728233
21
-1.5164250180
31
0.0000000000
11
7.1660708912
21
-1.5271953273
31
0.0000000000
11
7.1553158635
21
-1.5372707780
31
0.0000000000
11
7.1442077401
21
-1.5466513700
31
0.0000000000
11
7.1327465209
21
-1.5553371034
31
0.0000000000
11
7.1087647956
21
-1.5706239940
31
0.0000000000
11
7.0833706875
21
-1.5831314501
31
0.0000000000
11
7.0565641965
21
-1.5928594714
31
0.0000000000
11
7.0283453228
21
-1.5998080581
31
0.0000000000
11
7.0137062424
21
-1.6022400634
31
0.0000000000
11
6.9987140663
21
-1.6039772101
31
0.0000000000
11
6.9833687945
21
-1.6050194981
31
0.0000000000
11
6.9755637478
21
-1.6052800701
31
0.0000000000
11
6.9676704271
21
-1.6053669274
31
0.0000000000
11
6.9597716469
21
-1.6052800701
31
0.0000000000
11
6.9519542964
21
-1.6050194981
31
0.0000000000
11
6.9365638846
21
-1.6039772101
31
0.0000000000
11
6.9214991916
21
-1.6022400634
31
0.0000000000
11
6.9067602175
21
-1.5998080581
31
0.0000000000
11
6.8782594257
21
-1.5928594714
31
0.0000000000
11
6.8510615093
21
-1.5831314501
31
0.0000000000
11
6.8251664682
21
-1.5706239940
31
0.0000000000
11
6.8005743024
21
-1.5553371034
31
0.0000000000
11
6.7887667978
21
-1.5466513700
31
0.0000000000
11
6.7772850120
21
-1.5372707780
31
0.0000000000
11
6.7661289451
21
-1.5271953273
31
0.0000000000
11
6.7606730562
21
-1.5218970300
31
0.0000000000
11
6.7552985970
21
-1.5164250180
31
0.0000000000
11
6.7500481924
21
-1.5108140215
31
0.0000000000
11
6.7449644673
21
-1.5050987707
31
0.0000000000
11
6.7352970557
21
-1.4933555065
31
0.0000000000
11
6.7262963621
21
-1.4811952251
31
0.0000000000
11
6.7179623865
21
-1.4686179267
31
0.0000000000
11
6.7032945896
21
-1.4422122786
31
0.0000000000
11
6.6912936648
21
-1.4141385623
31
0.0000000000
11
6.6819596122
21
-1.3843967777
31
0.0000000000
11
6.6782926629
21
-1.3689003598
31
0.0000000000
11
6.6752924318
21
-1.3529869248
31
0.0000000000
11
6.6729589186
21
-1.3366564728
31
0.0000000000
11
6.6720421813
21
-1.3283348653
31
0.0000000000
11
6.6712921235
21
-1.3199090036
31
0.0000000000
11
6.6707087452
21
-1.3113788877
31
0.0000000000
11
6.6702920464
21
-1.3027445175
31
0.0000000000
11
6.6701462019
21
-1.2983882370
31
0.0000000000
11
6.6700420272
21
-1.2940058930
31
0.0000000000
11
6.6700055660
21
-1.2918049471
31
0.0000000000
11
6.6699795223
21
-1.2895974854
31
0.0000000000
11
6.6699638961
21
-1.2873835077
31
0.0000000000
11
6.6699599896
21
-1.2862740755
31
0.0000000000
11
6.6699590130
21
-1.2857187485
31
0.0000000000
11
6.6699586874
21
-1.2851630142
31
0.0000000000
0
SPLINE
5
2EC
100
AcDbEntity
8
0
100
AcDbSpline
62
7
6
CONTINUOUS
70
0
71
3
72
89
73
85
74
83
42
0.0000001000
43
0.0000001000
44
0.0000000001
12
-0.3739075287
22
-1.1472479045
32
0.0000000000
13
0.0005315442
23
1.0777205034
33
0.0000000000
40
0.0000000000
40
0.0000000000
40
0.0000000000
40
0.0000000000
40
0.0312500000
40
0.0625000000
40
0.0781250000
40
0.0937500000
40
0.1015625000
40
0.1093750000
40
0.1171875000
40
0.1250000000
40
0.1406250000
40
0.1562500000
40
0.1875000000
40
0.2187500000
40
0.2343750000
40
0.2500000000
40
0.2656250000
40
0.2812500000
40
0.2890625000
40
0.2968750000
40
0.3046875000
40
0.3125000000
40
0.3164062500
40
0.3203125000
40
0.3242187500
40
0.3261718750
40
0.3281250000
40
0.3300781250
40
0.3310546875
40
0.3320312500
40
0.3325195313
40
0.3330078125
40
0.3332519531
40
0.3334960938
40
0.3337402344
40
0.3339843750
40
0.3349609375
40
0.3359375000
40
0.3369140625
40
0.3378906250
40
0.3398437500
40
0.3437500000
40
0.3476562500
40
0.3515625000
40
0.3554687500
40
0.3593750000
40
0.3671875000
40
0.3750000000
40
0.3906250000
40
0.4062500000
40
0.4218750000
40
0.4375000000
40
0.4531250000
40
0.4687500000
40
0.5000000000
40
0.5156250000
40
0.5312500000
40
0.5468750000
40
0.5625000000
40
0.5937500000
40
0.6250000000
40
0.6562500000
40
0.6875000000
40
0.7187500000
40
0.7343750000
40
0.7500000000
40
0.7656250000
40
0.7734375000
40
0.7812500000
40
0.7968750000
40
0.8125000000
40
0.8437500000
40
0.8750000000
40
0.9062500000
40
0.9218750000
40
0.9375000000
40
0.9531250000
40
0.9687500000
40
0.9765625000
40
0.9843750000
40
0.9921875000
40
0.9960937500
40
0.9980468750
40
1.0000000000
40
1.0000000000
40
1.0000000000
40
1.0000000000
10
6.0921622783
20
-1.9454144500
30
0.0000000000
10
6.0882674083
20
-1.9573649490
30
0.0000000000
10
6.0793822525
20
-1.9803784915
30
0.0000000000
10
6.0655370550
20
-2.0069269339
30
0.0000000000
10
6.0528181239
20
-2.0268343305
30
0.0000000000
10
6.0441832866
20
-2.0387222731
30
0.0000000000
10
6.0368665973
20
-2.0478987725
30
0.0000000000
10
6.0311682973
20
-2.0546176742
30
0.0000000000
10
6.0252851764
20
-2.0611590315
30
0.0000000000
10
6.0173570895
20
-2.0695560389
30
0.0000000000
10
6.0072258112
20
-2.0794778783
30
0.0000000000
10
5.9905704653
20
-2.0941130145
30
0.0000000000
10
5.9689041233
20
-2.1100889204
30
0.0000000000
10
5.9461114521
20
-2.1229723968
30
0.0000000000
10
5.9272009579
20
-2.1314240236
30
0.0000000000
10
5.9126800003
20
-2.1368351169
30
0.0000000000
10
5.8978209314
20
-2.1413185966
30
0.0000000000
10
5.8851566199
20
-2.1442818154
30
0.0000000000
10
5.8748561173
20
-2.1461885824
30
0.0000000000
10
5.8670462139
20
-2.1473867536
30
0.0000000000
10
5.8591517836
20
-2.1483530206
30
0.0000000000
10
5.8525026541
20
-2.1489649898
30
0.0000000000
10
5.8471410844
20
-2.1493386130
30
0.0000000000
10
5.8430987831
20
-2.1495608544
30
0.0000000000
10
5.8397125649
20
-2.1496977423
30
0.0000000000
10
5.8369930786
20
-2.1497782645
30
0.0000000000
10
5.8349480330
20
-2.1498241622
30
0.0000000000
10
5.8332398967
20
-2.1498503320
30
0.0000000000
10
5.8318696902
20
-2.1498640207
30
0.0000000000
10
5.8310146152
20
-2.1498695567
30
0.0000000000
10
5.8303243876
20
-2.1498721734
30
0.0000000000
10
5.8299052860
20
-2.1498730548
30
0.0000000000
10
5.8295410586
20
-2.1498733051
30
0.0000000000
10
5.8293466088
20
-2.1498732715
30
0.0000000000
10
5.8291742780
20
-2.1498731477
30
0.0000000000
10
5.8288182910
20
-2.1498726712
30
0.0000000000
10
5.8282892417
20
-2.1498711392
30
0.0000000000
10
5.8275814489
20
-2.1498673414
30
0.0000000000
10
5.8268747208
20
-2.1498617917
30
0.0000000000
10
5.8259326087
20
-2.1498520551
30
0.0000000000
10
5.8242852033
20
-2.1498288822
30
0.0000000000
10
5.8219350540
20
-2.1497782522
30
0.0000000000
10
5.8191202599
20
-2.1496894550
30
0.0000000000
10
5.8163108171
20
-2.1495726166
30
0.0000000000
10
5.8135067346
20
-2.1494277370
30
0.0000000000
10
5.8097751019
20
-2.1491971759
30
0.0000000000
10
5.8051239574
20
-2.1488388714
30
0.0000000000
10
5.7977107044
20
-2.1481160311
30
0.0000000000
10
5.7884977226
20
-2.1469320686
30
0.0000000000
10
5.7775278797
20
-2.1450626541
30
0.0000000000
10
5.7666437713
20
-2.1427445800
30
0.0000000000
10
5.7558454003
20
-2.1399778468
30
0.0000000000
10
5.7451327555
20
-2.1367624525
30
0.0000000000
10
5.7309635870
20
-2.1318770554
30
0.0000000000
10
5.7169656402
20
-2.1260942952
30
0.0000000000
10
5.7031398757
20
-2.1194143425
30
0.0000000000
10
5.6928543996
20
-2.1139553831
30
0.0000000000
10
5.6826618536
20
-2.1080490426
30
0.0000000000
10
5.6691502495
20
-2.0995693382
30
0.0000000000
10
5.6530619385
20
-2.0879523342
30
0.0000000000
10
5.6349973239
20
-2.0723769238
30
0.0000000000
10
5.6181849360
20
-2.0551684473
30
0.0000000000
10
5.6026218538
20
-2.0363263548
30
0.0000000000
10
5.5906943872
20
-2.0192634814
30
0.0000000000
10
5.5817773021
20
-2.0047962588
30
0.0000000000
10
5.5754021018
20
-1.9935379591
30
0.0000000000
10
5.5703494307
20
-1.9838141854
30
0.0000000000
10
5.5664644435
20
-1.9758344547
30
0.0000000000
10
5.5626803071
20
-1.9677059458
30
0.0000000000
10
5.5582008807
20
-1.9575020527
30
0.0000000000
10
5.5515637167
20
-1.9410644154
30
0.0000000000
10
5.5442631620
20
-1.9203172886
30
0.0000000000
10
5.5370952138
20
-1.8950978297
30
0.0000000000
10
5.5324493494
20
-1.8738131833
30
0.0000000000
10
5.5295290879
20
-1.8566242170
30
0.0000000000
10
5.5277371077
20
-1.8436521083
30
0.0000000000
10
5.5263433474
20
-1.8305986677
30
0.0000000000
10
5.5255137231
20
-1.8196560077
30
0.0000000000
10
5.5250491451
20
-1.8108563181
30
0.0000000000
10
5.5248002318
20
-1.8042508125
30
0.0000000000
10
5.5246758746
20
-1.7986836142
30
0.0000000000
10
5.5246321665
20
-1.7948676881
30
0.0000000000
10
5.5246199675
20
-1.7925442288
30
0.0000000000
10
5.5246173912
20
-1.7916453551
30
0.0000000000
10
5.5246177372
20
-1.7909437141
30
0.0000000000
11
6.0921622783
21
-1.9454144500
31
0.0000000000
11
6.0788345019
21
-1.9799347944
31
0.0000000000
11
6.0622204245
21
-2.0117928366
31
0.0000000000
11
6.0526810228
21
-2.0267234944
31
0.0000000000
11
6.0423200460
21
-2.0409885767
31
0.0000000000
11
6.0368314668
21
-2.0478715270
31
0.0000000000
11
6.0311374938
21
-2.0545880834
31
0.0000000000
11
6.0252746857
21
-2.0611184312
31
0.0000000000
11
6.0193243666
21
-2.0674184924
31
0.0000000000
11
6.0071701486
21
-2.0793229024
31
0.0000000000
11
5.9946778245
21
-2.0902996961
31
0.0000000000
11
5.9686788574
21
-2.1094704345
31
0.0000000000
11
5.9413274654
21
-2.1249307073
31
0.0000000000
11
5.9271446101
21
-2.1312694191
31
0.0000000000
11
5.9126236484
21
-2.1366805146
31
0.0000000000
11
5.8977645806
21
-2.1411639938
31
0.0000000000
11
5.8825674065
21
-2.1447198565
31
0.0000000000
11
5.8748420296
21
-2.1461499317
31
0.0000000000
11
5.8670321261
21
-2.1473481029
31
0.0000000000
11
5.8591376961
21
-2.1483143699
31
0.0000000000
11
5.8511587395
21
-2.1490487329
31
0.0000000000
11
5.8471375638
21
-2.1493289504
31
0.0000000000
11
5.8430952564
21
-2.1495511918
31
0.0000000000
11
5.8390318173
21
-2.1497154572
31
0.0000000000
11
5.8369921735
21
-2.1497758489
31
0.0000000000
11
5.8349472467
21
-2.1498217465
31
0.0000000000
11
5.8328970370
21
-2.1498531502
31
0.0000000000
11
5.8318699510
21
-2.1498634168
31
0.0000000000
11
5.8308415444
21
-2.1498700599
31
0.0000000000
11
5.8303268458
21
-2.1498720226
31
0.0000000000
11
5.8298118170
21
-2.1498730795
31
0.0000000000
11
5.8295541788
21
-2.1498732682
31
0.0000000000
11
5.8293502953
21
-2.1498732564
31
0.0000000000
11
5.8291733342
21
-2.1498731287
31
0.0000000000
11
5.8289963941
21
-2.1498728913
31
0.0000000000
11
5.8282888428
21
-2.1498708467
31
0.0000000000
11
5.8275816263
21
-2.1498670494
31
0.0000000000
11
5.8268747448
21
-2.1498614996
31
0.0000000000
11
5.8261681982
21
-2.1498541972
31
0.0000000000
11
5.8247561097
21
-2.1498343347
31
0.0000000000
11
5.8219359515
21
-2.1497735787
31
0.0000000000
11
5.8191211518
21
-2.1496847815
31
0.0000000000
11
5.8163117105
21
-2.1495679431
31
0.0000000000
11
5.8135076276
21
-2.1494230635
31
0.0000000000
11
5.8107089032
21
-2.1492501426
31
0.0000000000
11
5.8051275297
21
-2.1488201773
31
0.0000000000
11
5.7995675900
21
-2.1482780471
31
0.0000000000
11
5.7885120118
21
-2.1468572920
31
0.0000000000
11
5.7775421688
21
-2.1449878775
31
0.0000000000
11
5.7666580609
21
-2.1426698034
31
0.0000000000
11
5.7558596880
21
-2.1399030699
31
0.0000000000
11
5.7451470503
21
-2.1366876769
31
0.0000000000
11
5.7345201476
21
-2.1330236244
31
0.0000000000
11
5.7135235476
21
-2.1243495410
31
0.0000000000
11
5.7031538502
21
-2.1193395100
31
0.0000000000
11
5.6928698880
21
-2.1138808196
31
0.0000000000
11
5.6826716608
21
-2.1079734697
31
0.0000000000
11
5.6725815635
21
-2.1016214394
31
0.0000000000
11
5.6532688316
21
-2.0876798333
31
0.0000000000
11
5.6352060283
21
-2.0721047461
31
0.0000000000
11
5.6183931536
21
-2.0548961780
31
0.0000000000
11
5.6028302075
21
-2.0360541289
31
0.0000000000
11
5.5885171899
21
-2.0155785988
31
0.0000000000
11
5.5818294044
21
-2.0047282783
31
0.0000000000
11
5.5754541010
21
-1.9934695877
31
0.0000000000
11
5.5693912797
21
-1.9818025267
31
0.0000000000
11
5.5664770498
21
-1.9758158574
31
0.0000000000
11
5.5636430575
21
-1.9697351892
31
0.0000000000
11
5.5582671205
21
-1.9574881266
31
0.0000000000
11
5.5532894011
21
-1.9451604861
31
0.0000000000
11
5.5445286149
21
-1.9202634708
31
0.0000000000
11
5.5373606990
21
-1.8950441436
31
0.0000000000
11
5.5317856532
21
-1.8695025043
31
0.0000000000
11
5.5295954572
21
-1.8566108197
31
0.0000000000
11
5.5278034777
21
-1.8436385529
31
0.0000000000
11
5.5264097159
21
-1.8305857091
31
0.0000000000
11
5.5254141721
21
-1.8174522885
31
0.0000000000
11
5.5250657318
21
-1.8108553617
31
0.0000000000
11
5.5248168459
21
-1.8042382905
31
0.0000000000
11
5.5246675144
21
-1.7976010746
31
0.0000000000
11
5.5246301815
21
-1.7942749125
31
0.0000000000
11
5.5246208483
21
-1.7926099428
31
0.0000000000
11
5.5246177372
21
-1.7909437141
31
0.0000000000
0
SPLINE
5
2ED
100
AcDbEntity
8
0
100
AcDbSpline
62
7
6
CONTINUOUS
70
0
71
3
72
63
73
59
74
57
42
0.0000001000
43
0.0000001000
44
0.0000000001
12
0.0004717838
22
0.9565546535
32
0.0000000000
13
0.0038861353
23
-1.2301835858
33
0.0000000000
40
0.0000000000
40
0.0000000000
40
0.0000000000
40
0.0000000000
40
0.0022005254
40
0.0044010509
40
0.0088021018
40
0.0176042036
40
0.0264063054
40
0.0352084072
40
0.0528126108
40
0.0704168144
40
0.0880210180
40
0.1056252215
40
0.1408336287
40
0.1760420359
40
0.1936462395
40
0.2112504431
40
0.2288546467
40
0.2464588503
40
0.2552609521
40
0.2640630539
40
0.2816672575
40
0.2992714610
40
0.3168756646
40
0.3520840718
40
0.3872924790
40
0.4225008862
40
0.4577092934
40
0.4753134969
40
0.4841155987
40
0.4929177005
40
0.5017198023
40
0.5061208532
40
0.5105219041
40
0.5193240059
40
0.5281261077
40
0.5457303113
40
0.5633345149
40
0.5985429221
40
0.6337513293
40
0.6689597364
40
0.7041681436
40
0.7217723472
40
0.7393765508
40
0.7481786526
40
0.7569807544
40
0.7745849580
40
0.7921891616
40
0.8097933652
40
0.8450017724
40
0.8802101795
40
0.9154185867
40
0.9330227903
40
0.9506269939
40
0.9682311975
40
0.9858354011
40
0.9946375029
40
0.9990385538
40
1.0000000000
40
1.0000000000
40
1.0000000000
40
1.0000000000
10
5.5246177372
20
-1.7909437141
30
0.0000000000
10
5.5246180833
20
-1.7902420732
30
0.0000000000
10
5.5246220439
20
-1.7883343831
30
0.0000000000
10
5.5246490663
20
-1.7850612851
30
0.0000000000
10
5.5247426333
20
-1.7791161123
30
0.0000000000
10
5.5250104905
20
-1.7708382277
30
0.0000000000
10
5.5255460061
20
-1.7609868865
30
0.0000000000
10
5.5265456953
20
-1.7480543868
30
0.0000000000
10
5.5283308338
20
-1.7322257942
30
0.0000000000
10
5.5313298749
20
-1.7137841932
30
0.0000000000
10
5.5351857819
20
-1.6958916978
30
0.0000000000
10
5.5414694854
20
-1.6727684560
30
0.0000000000
10
5.5514662963
20
-1.6452389699
30
0.0000000000
10
5.5643192842
20
-1.6195424387
30
0.0000000000
10
5.5763155273
20
-1.6000848590
30
0.0000000000
10
5.5861692624
20
-1.5860417580
30
0.0000000000
10
5.5968810713
20
-1.5725476946
30
0.0000000000
10
5.6065178817
20
-1.5617634421
30
0.0000000000
10
5.6146641717
20
-1.5534051981
30
0.0000000000
10
5.6229161400
20
-1.5453538422
30
0.0000000000
10
5.6334706829
20
-1.5358366013
30
0.0000000000
10
5.6465064685
20
-1.5252999665
30
0.0000000000
10
5.6643859088
20
-1.5124266887
30
0.0000000000
10
5.6876675865
20
-1.4985407424
30
0.0000000000
10
5.7170979895
20
-1.4854061901
30
0.0000000000
10
5.7480208838
20
-1.4758003441
30
0.0000000000
10
5.7750328781
20
-1.4707360332
30
0.0000000000
10
5.7945954973
20
-1.4687348143
30
0.0000000000
10
5.8059585842
20
-1.4680323455
30
0.0000000000
10
5.8145800603
20
-1.4677260365
30
0.0000000000
10
5.8218235807
20
-1.4676545644
30
0.0000000000
10
5.8277522626
20
-1.4677076579
30
0.0000000000
10
5.8336113837
20
-1.4678342657
30
0.0000000000
10
5.8408779548
20
-1.4681303644
30
0.0000000000
10
5.8523517771
20
-1.4688981791
30
0.0000000000
10
5.8664217454
20
-1.4704093037
30
0.0000000000
10
5.8883469523
20
-1.4740033296
30
0.0000000000
10
5.9146560006
20
-1.4807012891
30
0.0000000000
10
5.9444700615
20
-1.4922675114
30
0.0000000000
10
5.9725276202
20
-1.5073624478
30
0.0000000000
10
5.9944449018
20
-1.5228820228
30
0.0000000000
10
6.0111008063
20
-1.5370622590
30
0.0000000000
10
6.0211439240
20
-1.5466595110
30
0.0000000000
10
6.0289608192
20
-1.5547796281
30
0.0000000000
10
6.0366241148
20
-1.5631893098
30
0.0000000000
10
6.0456701878
20
-1.5740918014
30
0.0000000000
10
6.0557251423
20
-1.5878321223
30
0.0000000000
10
6.0680459780
20
-1.6070173735
30
0.0000000000
10
6.0814197961
20
-1.6326258455
30
0.0000000000
10
6.0942221174
20
-1.6659573112
30
0.0000000000
10
6.1021861073
20
-1.6959018720
30
0.0000000000
10
6.1069344273
20
-1.7211579851
30
0.0000000000
10
6.1096842481
20
-1.7407515195
30
0.0000000000
10
6.1116226470
20
-1.7609915878
30
0.0000000000
10
6.1125617900
20
-1.7784124605
30
0.0000000000
10
6.1128642011
20
-1.7908678717
30
0.0000000000
10
6.1129216228
20
-1.7966898839
30
0.0000000000
10
6.1129308222
20
-1.7988782086
30
0.0000000000
10
6.1129320677
20
-1.7992724604
30
0.0000000000
11
5.5246177372
21
-1.7909437141
31
0.0000000000
11
5.5246244315
21
-1.7884021684
31
0.0000000000
11
5.5246445144
21
-1.7858692143
31
0.0000000000
11
5.5247248459
21
-1.7808290811
31
0.0000000000
11
5.5250461717
21
-1.7708519144
31
0.0000000000
11
5.5255817147
21
-1.7610122142
31
0.0000000000
11
5.5263314748
21
-1.7513099805
31
0.0000000000
11
5.5284736463
21
-1.7323179126
31
0.0000000000
11
5.5314726859
21
-1.7138757108
31
0.0000000000
11
5.5353285936
21
-1.6959833751
31
0.0000000000
11
5.5400413716
21
-1.6786409042
31
0.0000000000
11
5.5520375317
21
-1.6456055609
31
0.0000000000
11
5.5674611661
21
-1.6147696809
31
0.0000000000
11
5.5764582861
21
-1.6001765397
31
0.0000000000
11
5.5863122747
21
-1.5861332642
31
0.0000000000
11
5.5970231319
21
-1.5726398547
31
0.0000000000
11
5.6085908577
21
-1.5596963109
31
0.0000000000
11
5.6146773815
21
-1.5534435591
31
0.0000000000
11
5.6208691201
21
-1.5474031448
31
0.0000000000
11
5.6335324052
21
-1.5359839437
31
0.0000000000
11
5.6465687676
21
-1.5254469126
31
0.0000000000
11
5.6599782072
21
-1.5157920515
31
0.0000000000
11
5.6879163181
21
-1.4991288396
31
0.0000000000
11
5.7173467381
21
-1.4859943078
31
0.0000000000
11
5.7482694670
21
-1.4763884562
31
0.0000000000
11
5.7806845048
21
-1.4703112848
31
0.0000000000
11
5.7974516396
21
-1.4685959542
31
0.0000000000
11
5.8059751110
21
-1.4680691026
31
0.0000000000
11
5.8145918517
21
-1.4677627936
31
0.0000000000
11
5.8233169067
21
-1.4676770270
31
0.0000000000
11
5.8277435675
21
-1.4677168472
31
0.0000000000
11
5.8321427814
21
-1.4678118030
31
0.0000000000
11
5.8408588684
21
-1.4681671215
31
0.0000000000
11
5.8494651676
21
-1.4687429825
31
0.0000000000
11
5.8663484026
21
-1.4705563320
31
0.0000000000
11
5.8827924866
21
-1.4732518516
31
0.0000000000
11
5.9143632011
21
-1.4812894009
31
0.0000000000
11
5.9441773111
21
-1.4928556304
31
0.0000000000
11
5.9722348167
21
-1.5079505400
31
0.0000000000
11
5.9985357179
21
-1.5265741299
31
0.0000000000
11
6.0110274418
21
-1.5372091799
31
0.0000000000
11
6.0230800145
21
-1.5487263999
31
0.0000000000
11
6.0289416193
21
-1.5548158237
31
0.0000000000
11
6.0346727545
21
-1.5611129154
31
0.0000000000
11
6.0455367989
21
-1.5742013566
31
0.0000000000
11
6.0555894210
21
-1.5879402252
31
0.0000000000
11
6.0648306206
21
-1.6023295212
31
0.0000000000
11
6.0808787527
21
-1.6330593954
31
0.0000000000
11
6.0936811952
21
-1.6663909791
31
0.0000000000
11
6.1032379480
21
-1.7023242724
31
0.0000000000
11
6.1067991908
21
-1.7212665601
31
0.0000000000
11
6.1095490111
21
-1.7408592752
31
0.0000000000
11
6.1114874091
21
-1.7611024176
31
0.0000000000
11
6.1126143847
21
-1.7819959875
31
0.0000000000
11
6.1128735891
21
-1.7926866827
31
0.0000000000
11
6.1129271204
21
-1.7980930079
31
0.0000000000
11
6.1129320677
21
-1.7992724604
31
0.0000000000
0
SPLINE
5
2EE
100
AcDbEntity
8
0
100
AcDbSpline
62
7
6
CONTINUOUS
70
0
71
3
72
22
73
18
74
16
42
0.0000001000
43
0.0000001000
44
0.0000000001
12
0.0000000000
22
-0.4733254049
32
0.0000000000
13
0.4733254049
23
0.0000000000
33
0.0000000000
40
0.0000000000
40
0.0000000000
40
0.0000000000
40
0.0000000000
40
0.0676671853
40
0.1355731550
40
0.2032579586
40
0.2704507235
40
0.3377259741
40
0.4050038467
40
0.4718842725
40
0.5382072209
40
0.6046758662
40
0.6710878153
40
0.7370903167
40
0.8027408720
40
0.8686347097
40
0.9345190029
40
1.0000000000
40
1.0000000000
40
1.0000000000
40
1.0000000000
10
-12.4000000000
20
-18.0962952155
30
0.0000000000
10
-12.4000000000
20
-18.1069714148
30
0.0000000000
10
-12.3988905424
20
-18.1283780465
30
0.0000000000
10
-12.3939076019
20
-18.1601136643
30
0.0000000000
10
-12.3856699991
20
-18.1910899367
30
0.0000000000
10
-12.3742975698
20
-18.2209493025
30
0.0000000000
10
-12.3599135769
20
-18.2494092599
30
0.0000000000
10
-12.3426632963
20
-18.2761708290
30
0.0000000000
10
-12.3228029304
20
-18.3008639511
30
0.0000000000
10
-12.3005646315
20
-18.3232585541
30
0.0000000000
10
-12.2761639596
20
-18.3431597337
30
0.0000000000
10
-12.2498494891
20
-18.3603595750
30
0.0000000000
10
-12.2219881351
20
-18.3746389715
30
0.0000000000
10
-12.1928600946
20
-18.3858886379
30
0.0000000000
10
-12.1627279798
20
-18.3940121733
30
0.0000000000
10
-12.1319374816
20
-18.3989110886
30
0.0000000000
10
-12.1111948868
20
-18.4000000000
30
0.0000000000
10
-12.1008636137
20
-18.4000000000
30
0.0000000000
11
-12.4000000000
21
-18.0962952155
31
0.0000000000
11
-12.3983409031
21
-18.1282808135
31
0.0000000000
11
-12.3933543974
21
-18.1600332706
31
0.0000000000
11
-12.3851189905
21
-18.1909936229
31
0.0000000000
11
-12.3737971976
21
-18.2207142241
31
0.0000000000
11
-12.3594314097
21
-18.2491326374
31
0.0000000000
11
-12.3421762894
21
-18.2758968287
31
0.0000000000
11
-12.3223343101
21
-18.3005628205
31
0.0000000000
11
-12.3002126062
21
-18.3228363249
31
0.0000000000
11
-12.2758305114
21
-18.3427191506
31
0.0000000000
11
-12.2495169715
21
-18.3599157509
31
0.0000000000
11
-12.2217142475
21
-18.3741631161
31
0.0000000000
11
-12.1927264411
21
-18.3853570992
31
0.0000000000
11
-12.1626122270
21
-18.3934751049
31
0.0000000000
11
-12.1318147720
21
-18.3983743790
31
0.0000000000
11
-12.1008636137
21
-18.4000000000
31
0.0000000000
0
SPLINE
5
2EF
100
AcDbEntity
8
0
100
AcDbSpline
62
7
6
CONTINUOUS
70
0
71
3
72
22
73
18
74
16
42
0.0000001000
43
0.0000001000
44
0.0000000001
12
-0.4733254049
22
0.0000000000
32
0.0000000000
13
0.0000000000
23
-0.4733254049
33
0.0000000000
40
0.0000000000
40
0.0000000000
40
0.0000000000
40
0.0000000000
40
0.0654809971
40
0.1313652903
40
0.1972591280
40
0.2629096833
40
0.3289121847
40
0.3953241338
40
0.4617927791
40
0.5281157275
40
0.5949961533
40
0.6622740259
40
0.7295492765
40
0.7967420414
40
0.8644268450
40
0.9323328147
40
1.0000000000
40
1.0000000000
40
1.0000000000
40
1.0000000000
10
-12.1008636137
20
18.4000000000
30
0.0000000000
10
-12.1111948868
20
18.4000000000
30
0.0000000000
10
-12.1319374816
20
18.3989110886
30
0.0000000000
10
-12.1627279798
20
18.3940121733
30
0.0000000000
10
-12.1928600946
20
18.3858886379
30
0.0000000000
10
-12.2219881351
20
18.3746389715
30
0.0000000000
10
-12.2498494891
20
18.3603595750
30
0.0000000000
10
-12.2761639596
20
18.3431597337
30
0.0000000000
10
-12.3005646315
20
18.3232585541
30
0.0000000000
10
-12.3228029304
20
18.3008639511
30
0.0000000000
10
-12.3426632963
20
18.2761708290
30
0.0000000000
10
-12.3599135769
20
18.2494092599
30
0.0000000000
10
-12.3742975698
20
18.2209493025
30
0.0000000000
10
-12.3856699991
20
18.1910899367
30
0.0000000000
10
-12.3939076019
20
18.1601136643
30
0.0000000000
10
-12.3988905424
20
18.1283780465
30
0.0000000000
10
-12.4000000000
20
18.1069714148
30
0.0000000000
10
-12.4000000000
20
18.0962952155
30
0.0000000000
11
-12.1008636137
21
18.4000000000
31
0.0000000000
11
-12.1318147720
21
18.3983743790
31
0.0000000000
11
-12.1626122270
21
18.3934751049
31
0.0000000000
11
-12.1927264411
21
18.3853570992
31
0.0000000000
11
-12.2217142475
21
18.3741631161
31
0.0000000000
11
-12.2495169715
21
18.3599157509
31
0.0000000000
11
-12.2758305114
21
18.3427191506
31
0.0000000000
11
-12.3002126062
21
18.3228363249
31
0.0000000000
11
-12.3223343101
21
18.3005628205
31
0.0000000000
11
-12.3421762894
21
18.2758968287
31
0.0000000000
11
-12.3594314097
21
18.2491326374
31
0.0000000000
11
-12.3737971976
21
18.2207142241
31
0.0000000000
11
-12.3851189905
21
18.1909936229
31
0.0000000000
11
-12.3933543974
21
18.1600332706
31
0.0000000000
11
-12.3983409031
21
18.1282808135
31
0.0000000000
11
-12.4000000000
21
18.0962952155
31
0.0000000000
0
SPLINE
5
2F0
100
AcDbEntity
8
0
100
AcDbSpline
62
7
6
CONTINUOUS
70
0
71
3
72
22
73
18
74
16
42
0.0000001000
43
0.0000001000
44
0.0000000001
12
0.4733254049
22
0.0000000000
32
0.0000000000
13
0.0000000000
23
0.4733254049
33
0.0000000000
40
0.0000000000
40
0.0000000000
40
0.0000000000
40
0.0000000000
40
0.0654809971
40
0.1313652903
40
0.1972591280
40
0.2629096833
40
0.3289121847
40
0.3953241338
40
0.4617927791
40
0.5281157275
40
0.5949961533
40
0.6622740259
40
0.7295492765
40
0.7967420414
40
0.8644268450
40
0.9323328147
40
1.0000000000
40
1.0000000000
40
1.0000000000
40
1.0000000000
10
12.1008636137
20
-18.4000000000
30
0.0000000000
10
12.1111948868
20
-18.4000000000
30
0.0000000000
10
12.1319374816
20
-18.3989110886
30
0.0000000000
10
12.1627279798
20
-18.3940121733
30
0.0000000000
10
12.1928600946
20
-18.3858886379
30
0.0000000000
10
12.2219881351
20
-18.3746389715
30
0.0000000000
10
12.2498494891
20
-18.3603595750
30
0.0000000000
10
12.2761639596
20
-18.3431597337
30
0.0000000000
10
12.3005646315
20
-18.3232585541
30
0.0000000000
10
12.3228029304
20
-18.3008639511
30
0.0000000000
10
12.3426632963
20
-18.2761708290
30
0.0000000000
10
12.3599135769
20
-18.2494092599
30
0.0000000000
10
12.3742975698
20
-18.2209493025
30
0.0000000000
10
12.3856699991
20
-18.1910899367
30
0.0000000000
10
12.3939076019
20
-18.1601136643
30
0.0000000000
10
12.3988905424
20
-18.1283780465
30
0.0000000000
10
12.4000000000
20
-18.1069714148
30
0.0000000000
10
12.4000000000
20
-18.0962952155
30
0.0000000000
11
12.1008636137
21
-18.4000000000
31
0.0000000000
11
12.1318147720
21
-18.3983743790
31
0.0000000000
11
12.1626122270
21
-18.3934751049
31
0.0000000000
11
12.1927264411
21
-18.3853570992
31
0.0000000000
11
12.2217142475
21
-18.3741631161
31
0.0000000000
11
12.2495169715
21
-18.3599157509
31
0.0000000000
11
12.2758305114
21
-18.3427191506
31
0.0000000000
11
12.3002126062
21
-18.3228363249
31
0.0000000000
11
12.3223343101
21
-18.3005628205
31
0.0000000000
11
12.3421762894
21
-18.2758968287
31
0.0000000000
11
12.3594314097
21
-18.2491326374
31
0.0000000000
11
12.3737971976
21
-18.2207142241
31
0.0000000000
11
12.3851189905
21
-18.1909936229
31
0.0000000000
11
12.3933543974
21
-18.1600332706
31
0.0000000000
11
12.3983409031
21
-18.1282808135
31
0.0000000000
11
12.4000000000
21
-18.0962952155
31
0.0000000000
0
SPLINE
5
2F1
100
AcDbEntity
8
0
100
AcDbSpline
62
7
6
CONTINUOUS
70
0
71
3
72
22
73
18
74
16
42
0.0000001000
43
0.0000001000
44
0.0000000001
12
0.0000000000
22
0.4733254049
32
0.0000000000
13
-0.4733254049
23
-0.0000000000
33
0.0000000000
40
0.0000000000
40
0.0000000000
40
0.0000000000
40
0.0000000000
40
0.0676671853
40
0.1355731550
40
0.2032579586
40
0.2704507235
40
0.3377259741
40
0.4050038467
40
0.4718842725
40
0.5382072209
40
0.6046758662
40
0.6710878153
40
0.7370903167
40
0.8027408720
40
0.8686347097
40
0.9345190029
40
1.0000000000
40
1.0000000000
40
1.0000000000
40
1.0000000000
10
12.4000000000
20
18.0962952155
30
0.0000000000
10
12.4000000000
20
18.1069714148
30
0.0000000000
10
12.3988905424
20
18.1283780465
30
0.0000000000
10
12.3939076019
20
18.1601136643
30
0.0000000000
10
12.3856699991
20
18.1910899367
30
0.0000000000
10
12.3742975698
20
18.2209493025
30
0.0000000000
10
12.3599135769
20
18.2494092599
30
0.0000000000
10
12.3426632963
20
18.2761708290
30
0.0000000000
10
12.3228029304
20
18.3008639511
30
0.0000000000
10
12.3005646315
20
18.3232585541
30
0.0000000000
10
12.2761639596
20
18.3431597337
30
0.0000000000
10
12.2498494891
20
18.3603595750
30
0.0000000000
10
12.2219881351
20
18.3746389715
30
0.0000000000
10
12.1928600946
20
18.3858886379
30
0.0000000000
10
12.1627279798
20
18.3940121733
30
0.0000000000
10
12.1319374816
20
18.3989110886
30
0.0000000000
10
12.1111948868
20
18.4000000000
30
0.0000000000
10
12.1008636137
20
18.4000000000
30
0.0000000000
11
12.4000000000
21
18.0962952155
31
0.0000000000
11
12.3983409031
21
18.1282808135
31
0.0000000000
11
12.3933543974
21
18.1600332706
31
0.0000000000
11
12.3851189905
21
18.1909936229
31
0.0000000000
11
12.3737971976
21
18.2207142241
31
0.0000000000
11
12.3594314097
21
18.2491326374
31
0.0000000000
11
12.3421762894
21
18.2758968287
31
0.0000000000
11
12.3223343101
21
18.3005628205
31
0.0000000000
11
12.3002126062
21
18.3228363249
31
0.0000000000
11
12.2758305114
21
18.3427191506
31
0.0000000000
11
12.2495169715
21
18.3599157509
31
0.0000000000
11
12.2217142475
21
18.3741631161
31
0.0000000000
11
12.1927264411
21
18.3853570992
31
0.0000000000
11
12.1626122270
21
18.3934751049
31
0.0000000000
11
12.1318147720
21
18.3983743790
31
0.0000000000
11
12.1008636137
21
18.4000000000
31
0.0000000000
0
SPLINE
5
2F2
100
AcDbEntity
8
0
100
AcDbSpline
62
7
6
CONTINUOUS
70
0
71
3
72
102
73
98
74
96
42
0.0000001000
43
0.0000001000
44
0.0000000001
12
-0.2353287823
22
1.6155574606
32
0.0000000000
13
0.2380926035
23
-1.6145676447
33
0.0000000000
40
0.0000000000
40
0.0000000000
40
0.0000000000
40
0.0000000000
40
0.0482804698
40
0.0730232059
40
0.0848011090
40
0.0961968303
40
0.1072224506
40
0.1126008126
40
0.1179001692
40
0.1283865464
40
0.1387430273
40
0.1590987815
40
0.1790420910
40
0.1986500801
40
0.2180038823
40
0.2371878565
40
0.2562886116
40
0.2753938887
40
0.2849770168
40
0.2945940700
40
0.3041930853
40
0.3137207062
40
0.3325959322
40
0.3512966878
40
0.3698997686
40
0.3884831812
40
0.3977932006
40
0.4071276038
40
0.4164960467
40
0.4259080803
40
0.4353731237
40
0.4401285679
40
0.4449007227
40
0.4496907173
40
0.4544996685
40
0.4569116154
40
0.4593287141
40
0.4617511004
40
0.4629643207
40
0.4641789135
40
0.4647867300
40
0.4653948959
40
0.4660034132
40
0.4663078044
40
0.4666122842
40
0.4667645574
40
0.4669168529
40
0.4673218648
40
0.4677433842
40
0.4681646626
40
0.4690064980
40
0.4698473760
40
0.4715262772
40
0.4732014050
40
0.4765404841
40
0.4798649307
40
0.4831750569
40
0.4864711791
40
0.4897536173
40
0.4962786605
40
0.5027529088
40
0.5155592006
40
0.5281955207
40
0.5406851417
40
0.5653151252
40
0.5896559169
40
0.6139155400
40
0.6383040949
40
0.6630283953
40
0.6755819116
40
0.6882928383
40
0.7011564886
40
0.7139733796
40
0.7267209558
40
0.7394260780
40
0.7648107737
40
0.7903515721
40
0.8162618941
40
0.8427462286
40
0.8699961451
40
0.8839663936
40
0.8981925795
40
0.9126940383
40
0.9200540148
40
0.9274895637
40
0.9350028012
40
0.9387892279
40
0.9406813929
40
0.9425212979
40
0.9461865326
40
0.9498325414
40
0.9570677888
40
0.9642290762
40
0.9713184419
40
0.9852893251
40
0.9989985237
40
1.0000000000
40
1.0000000000
40
1.0000000000
40
1.0000000000
10
7.4475675532
20
-1.2579963478
30
0.0000000000
10
7.4437802918
20
-1.2319963901
30
0.0000000000
10
7.4366827812
20
-1.1928572747
30
0.0000000000
10
7.4251592230
20
-1.1481640984
30
0.0000000000
10
7.4175231156
20
-1.1232375612
30
0.0000000000
10
7.4115161275
20
-1.1056265447
30
0.0000000000
10
7.4061543907
20
-1.0914826067
30
0.0000000000
10
7.4016715650
20
-1.0805596376
30
0.0000000000
10
7.3971009013
20
-1.0699922444
30
0.0000000000
10
7.3911926345
20
-1.0570542739
30
0.0000000000
10
7.3813007327
20
-1.0369410146
30
0.0000000000
10
7.3680677046
20
-1.0127500094
30
0.0000000000
10
7.3507007266
20
-0.9851497849
30
0.0000000000
10
7.3319378235
20
-0.9591461141
30
0.0000000000
10
7.3117790319
20
-0.9347414764
30
0.0000000000
10
7.2902244230
20
-0.9119374972
30
0.0000000000
10
7.2672758823
20
-0.8907360851
30
0.0000000000
10
7.2470084188
20
-0.8744206232
30
0.0000000000
10
7.2301343805
20
-0.8621887292
30
0.0000000000
10
7.2171424495
20
-0.8534284437
30
0.0000000000
10
7.2039057689
20
-0.8450999754
30
0.0000000000
10
7.1860812859
20
-0.8346235931
30
0.0000000000
10
7.1633928962
20
-0.8226750401
30
0.0000000000
10
7.1354826261
20
-0.8101750672
30
0.0000000000
10
7.1069717888
20
-0.7995590470
30
0.0000000000
10
7.0827258193
20
-0.7922868516
30
0.0000000000
10
7.0630653152
20
-0.7874176303
30
0.0000000000
10
7.0481602885
20
-0.7842326993
30
0.0000000000
10
7.0331063497
20
-0.7815175672
30
0.0000000000
10
7.0179034466
20
-0.7792721368
30
0.0000000000
10
7.0051304417
20
-0.7777947156
30
0.0000000000
10
6.9948418512
20
-0.7768468092
30
0.0000000000
10
6.9870756215
20
-0.7762520513
30
0.0000000000
10
6.9792721673
20
-0.7757746288
30
0.0000000000
10
6.9727449537
20
-0.7754748607
30
0.0000000000
10
6.9675050639
20
-0.7752935429
30
0.0000000000
10
6.9635617566
20
-0.7751867408
30
0.0000000000
10
6.9602697374
20
-0.7751222149
30
0.0000000000
10
6.9576315258
20
-0.7750852341
30
0.0000000000
10
6.9559802532
20
-0.7750682227
30
0.0000000000
10
6.9546580785
20
-0.7750582763
30
0.0000000000
10
6.9536655820
20
-0.7750526472
30
0.0000000000
10
6.9528381364
20
-0.7750494842
30
0.0000000000
10
6.9521758897
20
-0.7750478698
30
0.0000000000
10
6.9517618344
20
-0.7750472428
30
0.0000000000
10
6.9514305174
20
-0.7750469697
30
0.0000000000
10
6.9510445118
20
-0.7750468314
30
0.0000000000
10
6.9505120386
20
-0.7750470725
30
0.0000000000
10
6.9498332418
20
-0.7750481540
30
0.0000000000
10
6.9489168194
20
-0.7750506966
30
0.0000000000
10
6.9477722769
20
-0.7750558950
30
0.0000000000
10
6.9459436304
20
-0.7750685236
30
0.0000000000
10
6.9436617527
20
-0.7750923871
30
0.0000000000
10
6.9400211713
20
-0.7751477907
30
0.0000000000
10
6.9354860769
20
-0.7752493068
30
0.0000000000
10
6.9300631971
20
-0.7754230512
30
0.0000000000
10
6.9246656109
20
-0.7756485849
30
0.0000000000
10
6.9192933127
20
-0.7759259090
30
0.0000000000
10
6.9121784419
20
-0.7763638354
30
0.0000000000
10
6.9033464876
20
-0.7770400364
30
0.0000000000
10
6.8893732892
20
-0.7783954172
30
0.0000000000
10
6.8721463245
20
-0.7806034647
30
0.0000000000
10
6.8518020729
20
-0.7840931611
30
0.0000000000
10
6.8253420652
20
-0.7898250626
30
0.0000000000
10
6.7931601935
20
-0.7990697455
30
0.0000000000
10
6.7559917281
20
-0.8135589072
30
0.0000000000
10
6.7204515603
20
-0.8313930026
30
0.0000000000
10
6.6865505122
20
-0.8525660678
30
0.0000000000
10
6.6598006791
20
-0.8728897657
30
0.0000000000
10
6.6392694523
20
-0.8907314720
30
0.0000000000
10
6.6242104352
20
-0.9050035598
30
0.0000000000
10
6.6096513162
20
-0.9199856611
30
0.0000000000
10
6.5957662612
20
-0.9356224544
30
0.0000000000
10
6.5826650969
20
-0.9518113559
30
0.0000000000
10
6.5662722644
20
-0.9740942281
30
0.0000000000
10
6.5477197875
20
-1.0033812026
30
0.0000000000
10
6.5286875514
20
-1.0406590530
30
0.0000000000
10
6.5128856615
20
-1.0800615248
30
0.0000000000
10
6.5003140145
20
-1.1215772360
30
0.0000000000
10
6.4925896394
20
-1.1576325042
30
0.0000000000
10
6.4879875466
20
-1.1874474089
30
0.0000000000
10
6.4853078725
20
-1.2105251477
30
0.0000000000
10
6.4837501341
20
-1.2300989767
30
0.0000000000
10
6.4828985032
20
-1.2460141453
30
0.0000000000
10
6.4824566413
20
-1.2581424659
30
0.0000000000
10
6.4822556325
20
-1.2683327687
30
0.0000000000
10
6.4822018971
20
-1.2755088758
30
0.0000000000
10
6.4821959485
20
-1.2795988788
30
0.0000000000
10
6.4822062183
20
-1.2836229429
30
0.0000000000
10
6.4822488174
20
-1.2886009667
30
0.0000000000
10
6.4823805445
20
-1.2965131027
30
0.0000000000
10
6.4826639995
20
-1.3063244733
30
0.0000000000
10
6.4831965887
20
-1.3180010475
30
0.0000000000
10
6.4841573869
20
-1.3333238349
30
0.0000000000
10
6.4858308272
20
-1.3521681546
30
0.0000000000
10
6.4877722469
20
-1.3676531375
30
0.0000000000
10
6.4889287628
20
-1.3755718918
30
0.0000000000
10
6.4890082442
20
-1.3761108755
30
0.0000000000
11
7.4475675532
21
-1.2579963478
31
0.0000000000
11
7.4331598588
21
-1.1805270640
31
0.0000000000
11
7.4230039419
21
-1.1414455990
31
0.0000000000
11
7.4173647354
21
-1.1230702092
31
0.0000000000
11
7.4113513635
21
-1.1054717146
31
0.0000000000
11
7.4049638263
21
-1.0886501151
31
0.0000000000
11
7.4016297457
21
-1.0805306510
31
0.0000000000
11
7.3982032419
21
-1.0725899915
31
0.0000000000
11
7.3910888983
21
-1.0570253611
31
0.0000000000
11
7.3836277840
21
-1.0418598536
31
0.0000000000
11
7.3676652432
21
-1.0127262071
31
0.0000000000
11
7.3503156196
21
-0.9851890518
31
0.0000000000
11
7.3315789130
21
-0.9592483877
31
0.0000000000
11
7.3114551235
21
-0.9349042149
31
0.0000000000
11
7.2899442512
21
-0.9121565333
31
0.0000000000
11
7.2670462959
21
-0.8910053429
31
0.0000000000
11
7.2427612578
21
-0.8714506438
31
0.0000000000
11
7.2300985826
21
-0.8622719785
31
0.0000000000
11
7.2170891367
21
-0.8534924360
31
0.0000000000
11
7.2038317746
21
-0.8451470637
31
0.0000000000
11
7.1904253508
21
-0.8372709092
31
0.0000000000
11
7.1631653181
21
-0.8229262533
31
0.0000000000
11
7.1353090386
21
-0.8104584682
31
0.0000000000
11
7.1068565123
21
-0.7998675540
31
0.0000000000
11
7.0778077392
21
-0.7911535107
31
0.0000000000
11
7.0630597602
21
-0.7875003156
31
0.0000000000
11
7.0481627194
21
-0.7843163382
31
0.0000000000
11
7.0331166169
21
-0.7816015786
31
0.0000000000
11
7.0179214527
21
-0.7793560366
31
0.0000000000
11
7.0025772268
21
-0.7775797124
31
0.0000000000
11
6.9948492157
21
-0.7768675070
31
0.0000000000
11
6.9870839392
21
-0.7762726059
31
0.0000000000
11
6.9792813973
21
-0.7757950093
31
0.0000000000
11
6.9714415900
21
-0.7754347172
31
0.0000000000
11
6.9675077117
21
-0.7752985602
31
0.0000000000
11
6.9635645172
21
-0.7751917294
31
0.0000000000
11
6.9596120063
21
-0.7751142247
31
0.0000000000
11
6.9576322572
21
-0.7750864696
31
0.0000000000
11
6.9556501790
21
-0.7750660461
31
0.0000000000
11
6.9546582665
21
-0.7750585836
31
0.0000000000
11
6.9536657717
21
-0.7750529541
31
0.0000000000
11
6.9526726947
21
-0.7750491574
31
0.0000000000
11
6.9521759378
21
-0.7750479464
31
0.0000000000
11
6.9516790353
21
-0.7750471936
31
0.0000000000
11
6.9514305295
21
-0.7750469890
31
0.0000000000
11
6.9511819873
21
-0.7750468990
31
0.0000000000
11
6.9505210187
21
-0.7750471916
31
0.0000000000
11
6.9498331109
21
-0.7750482897
31
0.0000000000
11
6.9491455984
21
-0.7750501970
31
0.0000000000
11
6.9477717592
21
-0.7750564390
31
0.0000000000
11
6.9463995012
21
-0.7750659175
31
0.0000000000
11
6.9436597287
21
-0.7750945844
31
0.0000000000
11
6.9409262808
21
-0.7751361976
31
0.0000000000
11
6.9354783590
21
-0.7752582629
31
0.0000000000
11
6.9300557358
21
-0.7754321135
31
0.0000000000
11
6.9246584111
21
-0.7756577494
31
0.0000000000
11
6.9192863850
21
-0.7759351707
31
0.0000000000
11
6.9139396575
21
-0.7762643772
31
0.0000000000
11
6.9033220982
21
-0.7770781461
31
0.0000000000
11
6.8928057332
21
-0.7780990562
31
0.0000000000
11
6.8720765861
21
-0.7807622999
31
0.0000000000
11
6.8517522162
21
-0.7842541083
31
0.0000000000
11
6.8318326234
21
-0.7885744814
31
0.0000000000
11
6.7932077696
21
-0.7997009217
31
0.0000000000
11
6.7562020247
21
-0.8141416209
31
0.0000000000
11
6.7208153885
21
-0.8318965789
31
0.0000000000
11
6.6870478611
21
-0.8529657957
31
0.0000000000
11
6.6548994426
21
-0.8773492713
31
0.0000000000
11
6.6394323991
21
-0.8907838562
31
0.0000000000
11
6.6243701328
21
-0.9050470058
31
0.0000000000
11
6.6097489397
21
-0.9201112877
31
0.0000000000
11
6.5958632207
21
-0.9357541947
31
0.0000000000
11
6.5827775020
21
-0.9519269580
31
0.0000000000
11
6.5704917835
21
-0.9686295777
31
0.0000000000
11
6.5483203474
21
-1.0036243861
31
0.0000000000
11
6.5293489124
21
-1.0407386200
31
0.0000000000
11
6.5135774784
21
-1.0799722794
31
0.0000000000
11
6.5010060456
21
-1.1213253642
31
0.0000000000
11
6.4916346138
21
-1.1647978745
31
0.0000000000
11
6.4881488983
21
-1.1873289141
31
0.0000000000
11
6.4854631831
21
-1.2103898102
31
0.0000000000
11
6.4835774682
21
-1.2339805626
31
0.0000000000
11
6.4829346108
21
-1.2459746349
31
0.0000000000
11
6.4824917536
21
-1.2581011713
31
0.0000000000
11
6.4822488963
21
-1.2703601718
31
0.0000000000
11
6.4822024677
21
-1.2765393461
31
0.0000000000
11
6.4821979980
21
-1.2796273063
31
0.0000000000
11
6.4822056930
21
-1.2826299731
31
0.0000000000
11
6.4822569926
21
-1.2886113196
31
0.0000000000
11
6.4823561718
21
-1.2945606834
31
0.0000000000
11
6.4826981691
21
-1.3063634630
31
0.0000000000
11
6.4832316848
21
-1.3180383118
31
0.0000000000
11
6.4839567191
21
-1.3295852298
31
0.0000000000
11
6.4859813430
21
-1.3522952735
31
0.0000000000
11
6.4887720409
21
-1.3744935941
31
0.0000000000
11
6.4890082442
21
-1.3761108755
31
0.0000000000
0
SPLINE
5
2F3
100
AcDbEntity
8
0
100
AcDbSpline
62
7
6
CONTINUOUS
70
0
71
3
72
79
73
75
74
73
42
0.0000001000
43
0.0000001000
44
0.0000000001
12
0.1552548914
22
-1.0528236523
32
0.0000000000
13
0.5649754954
23
0.9018139769
33
0.0000000000
40
0.0000000000
40
0.0000000000
40
0.0000000000
40
0.0000000000
40
0.0191152511
40
0.0594127904
40
0.0985992069
40
0.1369559704
40
0.1747830753
40
0.2123931925
40
0.2312212481
40
0.2501142700
40
0.2691115272
40
0.2786316352
40
0.2880776746
40
0.3067474164
40
0.3251485784
40
0.3612702489
40
0.3967308286
40
0.4318261762
40
0.4668614039
40
0.4844572075
40
0.5021525874
40
0.5199847973
40
0.5379902413
40
0.5470695619
40
0.5562053528
40
0.5654018457
40
0.5746631888
40
0.5793195145
40
0.5839935683
40
0.5886858441
40
0.5933968297
40
0.5957594972
40
0.5969426498
40
0.5981270243
40
0.5993126281
40
0.6004994686
40
0.6010933551
40
0.6013904152
40
0.6016194237
40
0.6017973346
40
0.6019752240
40
0.6023309381
40
0.6026865663
40
0.6030421088
40
0.6037529378
40
0.6051735780
40
0.6065928756
40
0.6080108468
40
0.6108428710
40
0.6136697857
40
0.6164917223
40
0.6193088130
40
0.6249289556
40
0.6305313178
40
0.6361169812
40
0.6416870367
40
0.6527844561
40
0.6638327535
40
0.6748409516
40
0.6858181719
40
0.6967736134
40
0.7186538835
40
0.7405583642
40
0.7625611045
40
0.7847351696
40
0.7959099313
40
0.8071468255
40
0.8183280392
40
0.8294148391
40
0.8513314430
40
0.8729560901
40
0.9155561377
40
0.9577317309
40
1.0000000000
40
1.0000000000
40
1.0000000000
40
1.0000000000
10
6.4890082442
20
-1.3761108755
30
0.0000000000
10
6.4899974896
20
-1.3828192050
30
0.0000000000
10
6.4934322703
20
-1.4036162497
30
0.0000000000
10
6.5010745767
20
-1.4377880795
30
0.0000000000
10
6.5135529569
20
-1.4777347773
30
0.0000000000
10
6.5291244836
20
-1.5156399768
30
0.0000000000
10
6.5477890820
20
-1.5514928401
30
0.0000000000
10
6.5659191761
20
-1.5796508951
30
0.0000000000
10
6.5819076530
20
-1.6010713909
30
0.0000000000
10
6.5946718329
20
-1.6166327205
30
0.0000000000
10
6.6059223995
20
-1.6291412530
30
0.0000000000
10
6.6152558467
20
-1.6388498505
30
0.0000000000
10
6.6246940662
20
-1.6482928702
30
0.0000000000
10
6.6367129957
20
-1.6596064353
30
0.0000000000
10
6.6563497572
20
-1.6766003617
30
0.0000000000
10
6.6818122185
20
-1.6959230390
30
0.0000000000
10
6.7139389653
20
-1.7160175628
30
0.0000000000
10
6.7474478779
20
-1.7328734764
30
0.0000000000
10
6.7764846292
20
-1.7442020247
30
0.0000000000
10
6.8003089824
20
-1.7516243938
30
0.0000000000
10
6.8185466517
20
-1.7563945243
30
0.0000000000
10
6.8371242056
20
-1.7603583647
30
0.0000000000
10
6.8528455219
20
-1.7629826975
30
0.0000000000
10
6.8655818536
20
-1.7646815340
30
0.0000000000
10
6.8752464366
20
-1.7657581699
30
0.0000000000
10
6.8849960537
20
-1.7666336521
30
0.0000000000
10
6.8931766616
20
-1.7671945808
30
0.0000000000
10
6.8997624731
20
-1.7675432674
30
0.0000000000
10
6.9047322381
20
-1.7677549994
30
0.0000000000
10
6.9097232801
20
-1.7679164640
30
0.0000000000
10
6.9138959951
20
-1.7680090353
30
0.0000000000
10
6.9168245843
20
-1.7680518874
30
0.0000000000
10
6.9185024032
20
-1.7680701259
30
0.0000000000
10
6.9197627433
20
-1.7680806703
30
0.0000000000
10
6.9210244139
20
-1.7680880735
30
0.0000000000
10
6.9220766395
20
-1.7680916237
30
0.0000000000
10
6.9228136810
20
-1.7680927360
30
0.0000000000
10
6.9232109566
20
-1.7680929644
30
0.0000000000
10
6.9234606754
20
-1.7680929726
30
0.0000000000
10
6.9236681215
20
-1.7680928790
30
0.0000000000
10
6.9239205131
20
-1.7680926593
30
0.0000000000
10
6.9242359451
20
-1.7680921856
30
0.0000000000
10
6.9246143944
20
-1.7680912987
30
0.0000000000
10
6.9251188101
20
-1.7680896920
30
0.0000000000
10
6.9260010059
20
-1.7680857673
30
0.0000000000
10
6.9272605220
20
-1.7680769784
30
0.0000000000
10
6.9287708290
20
-1.7680613354
30
0.0000000000
10
6.9307816798
20
-1.7680336989
30
0.0000000000
10
6.9332916100
20
-1.7679864352
30
0.0000000000
10
6.9362990188
20
-1.7679093165
30
0.0000000000
10
6.9393005384
20
-1.7678118215
30
0.0000000000
10
6.9432913799
20
-1.7676547910
30
0.0000000000
10
6.9482656079
20
-1.7674076692
30
0.0000000000
10
6.9542160493
20
-1.7670293612
30
0.0000000000
10
6.9601429466
20
-1.7665695338
30
0.0000000000
10
6.9680039096
20
-1.7658486760
30
0.0000000000
10
6.9777745807
20
-1.7647442076
30
0.0000000000
10
6.9894198823
20
-1.7630908915
30
0.0000000000
10
7.0009709600
20
-1.7611112977
30
0.0000000000
10
7.0124278518
20
-1.7588053738
30
0.0000000000
10
7.0275701914
20
-1.7552976519
30
0.0000000000
10
7.0462891445
20
-1.7500905654
30
0.0000000000
10
7.0683810070
20
-1.7425312441
30
0.0000000000
10
7.0900937754
20
-1.7336642941
30
0.0000000000
10
7.1078257029
20
-1.7252060599
30
0.0000000000
10
7.1218040862
20
-1.7178037169
30
0.0000000000
10
7.1321743762
20
-1.7119310576
30
0.0000000000
10
7.1423700901
20
-1.7058212415
30
0.0000000000
10
7.1556113665
20
-1.6974330154
30
0.0000000000
10
7.1715853248
20
-1.6864459394
30
0.0000000000
10
7.1958346891
20
-1.6678361680
30
0.0000000000
10
7.2239093949
20
-1.6424879775
30
0.0000000000
10
7.2538754192
20
-1.6087121430
30
0.0000000000
10
7.2711780304
20
-1.5841717005
30
0.0000000000
10
7.2791382092
20
-1.5714656618
30
0.0000000000
11
6.4890082442
21
-1.3761108755
31
0.0000000000
11
6.4923288126
21
-1.3961801915
31
0.0000000000
11
6.5017405779
21
-1.4380182172
31
0.0000000000
11
6.5142166389
21
-1.4778093505
31
0.0000000000
11
6.5297569956
21
-1.5155535913
31
0.0000000000
11
6.5483616479
21
-1.5512509398
31
0.0000000000
11
6.5700305959
21
-1.5849013958
31
0.0000000000
11
6.5820141808
21
-1.6009590392
31
0.0000000000
11
6.5947638397
21
-1.6165049594
31
0.0000000000
11
6.6082795724
21
-1.6315391566
31
0.0000000000
11
6.6152975835
21
-1.6388457067
31
0.0000000000
11
6.6224050931
21
-1.6459541930
31
0.0000000000
11
6.6368755838
21
-1.6595680213
31
0.0000000000
11
6.6516867033
21
-1.6723776573
31
0.0000000000
11
6.6823308287
21
-1.6955843520
31
0.0000000000
11
6.7143374692
21
-1.7155742772
31
0.0000000000
11
6.7477066249
21
-1.7323474328
31
0.0000000000
11
6.7824382956
21
-1.7459038189
31
0.0000000000
11
6.8003150742
21
-1.7514757233
31
0.0000000000
11
6.8185324815
21
-1.7562434353
31
0.0000000000
11
6.8370905176
21
-1.7602069550
31
0.0000000000
11
6.8559891825
21
-1.7633662823
31
0.0000000000
11
6.8655662508
21
-1.7646443737
31
0.0000000000
11
6.8752284762
21
-1.7657214171
31
0.0000000000
11
6.8849758588
21
-1.7665974124
31
0.0000000000
11
6.8948083987
21
-1.7672723596
31
0.0000000000
11
6.8997566025
21
-1.7675344401
31
0.0000000000
11
6.9047260957
21
-1.7677462587
31
0.0000000000
11
6.9097168782
21
-1.7679078152
31
0.0000000000
11
6.9147289499
21
-1.7680191097
31
0.0000000000
11
6.9172429693
21
-1.7680559086
31
0.0000000000
11
6.9185019748
21
-1.7680695961
31
0.0000000000
11
6.9197623110
21
-1.7680801421
31
0.0000000000
11
6.9210239777
21
-1.7680875468
31
0.0000000000
11
6.9222869750
21
-1.7680918101
31
0.0000000000
11
6.9229189726
21
-1.7680927637
31
0.0000000000
11
6.9232350962
21
-1.7680929460
31
0.0000000000
11
6.9234788010
21
-1.7680929511
31
0.0000000000
11
6.9236681291
21
-1.7680928658
31
0.0000000000
11
6.9238574342
21
-1.7680927009
31
0.0000000000
11
6.9242359755
21
-1.7680921324
31
0.0000000000
11
6.9246144246
21
-1.7680912455
31
0.0000000000
11
6.9249927817
21
-1.7680900403
31
0.0000000000
11
6.9257492197
21
-1.7680866747
31
0.0000000000
11
6.9272609909
21
-1.7680761232
31
0.0000000000
11
6.9287712891
21
-1.7680604779
31
0.0000000000
11
6.9302801142
21
-1.7680397387
31
0.0000000000
11
6.9332933456
21
-1.7679829788
31
0.0000000000
11
6.9363006849
21
-1.7679058436
31
0.0000000000
11
6.9393021322
21
-1.7678083330
31
0.0000000000
11
6.9422976874
21
-1.7676904471
31
0.0000000000
11
6.9482711218
21
-1.7673935492
31
0.0000000000
11
6.9542209881
21
-1.7670151500
31
0.0000000000
11
6.9601472862
21
-1.7665552494
31
0.0000000000
11
6.9660500162
21
-1.7660138474
31
0.0000000000
11
6.9777847718
21
-1.7646865394
31
0.0000000000
11
6.9894252549
21
-1.7630332258
31
0.0000000000
11
7.0009714654
21
-1.7610539068
31
0.0000000000
11
7.0124234035
21
-1.7587485823
31
0.0000000000
11
7.0237810690
21
-1.7561172523
31
0.0000000000
11
7.0462135824
21
-1.7498765758
31
0.0000000000
11
7.0682690058
21
-1.7423318773
31
0.0000000000
11
7.0899473390
21
-1.7334831569
31
0.0000000000
11
7.1112485822
21
-1.7233304146
31
0.0000000000
11
7.1217577950
21
-1.7177650352
31
0.0000000000
11
7.1321667824
21
-1.7118788710
31
0.0000000000
11
7.1423728579
21
-1.7057619785
31
0.0000000000
11
7.1523388162
21
-1.6994469871
31
0.0000000000
11
7.1715503812
21
-1.6862227073
31
0.0000000000
11
7.1898014774
21
-1.6722060316
31
0.0000000000
11
7.2234222632
21
-1.6417954922
31
0.0000000000
11
7.2532011738
21
-1.6082153689
31
0.0000000000
11
7.2791382092
21
-1.5714656618
31
0.0000000000
0
SPLINE
5
2F4
100
AcDbEntity
8
0
100
AcDbSpline
62
7
6
CONTINUOUS
70
0
71
3
72
128
73
124
74
122
42
0.0000001000
43
0.0000001000
44
0.0000000001
12
0.2246855697
22
-1.6578173222
32
0.0000000000
13
-0.2702463177
23
1.6510513325
33
0.0000000000
40
0.0000000000
40
0.0000000000
40
0.0000000000
40
0.0000000000
40
0.0059839322
40
0.0251878614
40
0.0618454659
40
0.0962966853
40
0.1287141174
40
0.1593048042
40
0.1883149259
40
0.2023207148
40
0.2160431383
40
0.2295241479
40
0.2427929004
40
0.2558713875
40
0.2687830227
40
0.2941975026
40
0.3192462350
40
0.3441421319
40
0.3691020166
40
0.3816767072
40
0.3943475800
40
0.4071403771
40
0.4200801130
40
0.4266130397
40
0.4331916876
40
0.4398189317
40
0.4464975841
40
0.4532303927
40
0.4566179874
40
0.4600201213
40
0.4634371190
40
0.4668693013
40
0.4685911906
40
0.4703169943
40
0.4720467512
40
0.4729131248
40
0.4737805012
40
0.4746488852
40
0.4750834566
40
0.4755182816
40
0.4757357895
40
0.4759395215
40
0.4760033388
40
0.4760671508
40
0.4761947586
40
0.4764499099
40
0.4767049756
40
0.4772148508
40
0.4777243852
40
0.4787424364
40
0.4797591390
40
0.4807745024
40
0.4828012478
40
0.4848227515
40
0.4868390910
40
0.4908565699
40
0.4948543345
40
0.4988330247
40
0.5067356221
40
0.5145698255
40
0.5223410769
40
0.5300549516
40
0.5377171501
40
0.5529083978
40
0.5679640018
40
0.5829330020
40
0.5978652914
40
0.6128111307
40
0.6203055918
40
0.6278215215
40
0.6428141682
40
0.6577467225
40
0.6726726411
40
0.7027050306
40
0.7333442656
40
0.7490220997
40
0.7649969922
40
0.7731102424
40
0.7813008967
40
0.7976404007
40
0.8139097082
40
0.8301467164
40
0.8463895486
40
0.8626762874
40
0.8790447087
40
0.8872717813
40
0.8955331657
40
0.9038333866
40
0.9079995264
40
0.9121770425
40
0.9163664817
40
0.9205683862
40
0.9247832932
40
0.9268957976
40
0.9290117518
40
0.9311312216
40
0.9332542725
40
0.9353809695
40
0.9364457065
40
0.9375113794
40
0.9380445694
40
0.9385779963
40
0.9391116612
40
0.9392451147
40
0.9393785832
40
0.9395281271
40
0.9397311751
40
0.9401370929
40
0.9405427735
40
0.9413534243
40
0.9421631306
40
0.9429718954
40
0.9445866121
40
0.9461975993
40
0.9478048814
40
0.9494084830
40
0.9526047377
40
0.9557865697
40
0.9621077284
40
0.9745856501
40
0.9868564860
40
0.9989347239
40
1.0000000000
40
1.0000000000
40
1.0000000000
40
1.0000000000
10
5.3270139202
20
-1.7889543903
30
0.0000000000
10
5.3274620880
20
-1.7922611458
30
0.0000000000
10
5.3294057880
20
-1.8061722783
30
0.0000000000
10
5.3347856457
20
-1.8402411110
30
0.0000000000
10
5.3447893004
20
-1.8896351980
30
0.0000000000
10
5.3599807237
20
-1.9453797162
30
0.0000000000
10
5.3781782963
20
-1.9966519235
30
0.0000000000
10
5.3993920168
20
-2.0434469289
30
0.0000000000
10
5.4198368783
20
-2.0791268484
30
0.0000000000
10
5.4377049843
20
-2.1052536301
30
0.0000000000
10
5.4516960823
20
-2.1235006723
30
0.0000000000
10
5.4664505574
20
-2.1405906635
30
0.0000000000
10
5.4816049879
20
-2.1568340792
30
0.0000000000
10
5.4972076397
20
-2.1722014566
30
0.0000000000
10
5.5184767508
20
-2.1914298039
30
0.0000000000
10
5.5462316471
20
-2.2133901024
30
0.0000000000
10
5.5814801930
20
-2.2363790187
30
0.0000000000
10
5.6184951454
20
-2.2558637777
30
0.0000000000
10
5.6507349639
20
-2.2691457140
30
0.0000000000
10
5.6773027187
20
-2.2780007487
30
0.0000000000
10
5.6977175736
20
-2.2837885149
30
0.0000000000
10
5.7185680051
20
-2.2887044970
30
0.0000000000
10
5.7362503484
20
-2.2920643297
30
0.0000000000
10
5.7506024559
20
-2.2943194205
30
0.0000000000
10
5.7615106551
20
-2.2957987876
30
0.0000000000
10
5.7725278761
20
-2.2970606668
30
0.0000000000
10
5.7836541582
20
-2.2981050813
30
0.0000000000
10
5.7929974342
20
-2.2987927703
30
0.0000000000
10
5.8005253109
20
-2.2992348264
30
0.0000000000
10
5.8062103275
20
-2.2995127145
30
0.0000000000
10
5.8119226136
20
-2.2997362529
30
0.0000000000
10
5.8167002145
20
-2.2998770857
30
0.0000000000
10
5.8205357851
20
-2.2999626672
30
0.0000000000
10
5.8234225196
20
-2.3000133391
30
0.0000000000
10
5.8258324272
20
-2.3000442259
30
0.0000000000
10
5.8277637455
20
-2.3000621537
30
0.0000000000
10
5.8292147736
20
-2.3000722108
30
0.0000000000
10
5.8304250321
20
-2.3000777596
30
0.0000000000
10
5.8313940893
20
-2.3000805018
30
0.0000000000
10
5.8320001931
20
-2.3000815087
30
0.0000000000
10
5.8324775714
20
-2.3000818829
30
0.0000000000
10
5.8327480601
20
-2.3000819440
30
0.0000000000
10
5.8329328414
20
-2.3000819161
30
0.0000000000
10
5.8330751725
20
-2.3000818673
30
0.0000000000
10
5.8333241997
20
-2.3000817113
30
0.0000000000
10
5.8336798780
20
-2.3000812863
30
0.0000000000
10
5.8342487241
20
-2.3000801750
30
0.0000000000
10
5.8349594231
20
-2.3000779774
30
0.0000000000
10
5.8360955869
20
-2.3000727371
30
0.0000000000
10
5.8375143597
20
-2.3000629548
30
0.0000000000
10
5.8392151545
20
-2.3000460358
30
0.0000000000
10
5.8414783332
20
-2.3000165946
30
0.0000000000
10
5.8443016021
20
-2.2999668772
30
0.0000000000
10
5.8476825430
20
-2.2998864714
30
0.0000000000
10
5.8521725415
20
-2.2997518260
30
0.0000000000
10
5.8577624162
20
-2.2995319378
30
0.0000000000
10
5.8644419231
20
-2.2991849067
30
0.0000000000
10
5.8732784761
20
-2.2986130791
30
0.0000000000
10
5.8842354013
20
-2.2976924027
30
0.0000000000
10
5.8972667958
20
-2.2962535476
30
0.0000000000
10
5.9101511356
20
-2.2944831811
30
0.0000000000
10
5.9228884846
20
-2.2923812437
30
0.0000000000
10
5.9396260986
20
-2.2891462244
30
0.0000000000
10
5.9602091264
20
-2.2842742396
30
0.0000000000
10
5.9843897199
20
-2.2770814519
30
0.0000000000
10
6.0079814787
20
-2.2685586749
30
0.0000000000
10
6.0309825751
20
-2.2587062216
30
0.0000000000
10
6.0496421190
20
-2.2493960145
30
0.0000000000
10
6.0642540939
20
-2.2412960939
30
0.0000000000
10
6.0786515933
20
-2.2327694305
30
0.0000000000
10
6.0961431874
20
-2.2213450329
30
0.0000000000
10
6.1162396771
20
-2.2064305279
30
0.0000000000
10
6.1418309394
20
-2.1849448909
30
0.0000000000
10
6.1716197932
20
-2.1549650790
30
0.0000000000
10
6.1979536438
20
-2.1213868411
30
0.0000000000
10
6.2170752669
20
-2.0923709957
30
0.0000000000
10
6.2282788335
20
-2.0732207363
30
0.0000000000
10
6.2367682547
20
-2.0573466593
30
0.0000000000
10
6.2449484995
20
-2.0410830890
30
0.0000000000
10
6.2544485185
20
-2.0203996087
30
0.0000000000
10
6.2646154408
20
-1.9951184151
30
0.0000000000
10
6.2735289189
20
-1.9694253286
30
0.0000000000
10
6.2811881585
20
-1.9433207243
30
0.0000000000
10
6.2875932048
20
-1.9168054116
30
0.0000000000
10
6.2918783512
20
-1.8944044924
30
0.0000000000
10
6.2946803636
20
-1.8762962089
30
0.0000000000
10
6.2964726717
20
-1.8625883553
30
0.0000000000
10
6.2977038715
20
-1.8510943166
30
0.0000000000
10
6.2985328014
20
-1.8418498991
30
0.0000000000
10
6.2990770967
20
-1.8348819744
30
0.0000000000
10
6.2995431839
20
-1.8278884030
30
0.0000000000
10
6.2999310647
20
-1.8208691790
30
0.0000000000
10
6.3001889214
20
-1.8150031109
30
0.0000000000
10
6.3003561902
20
-1.8102976803
30
0.0000000000
10
6.3004621924
20
-1.8067593714
30
0.0000000000
10
6.3005486449
20
-1.8032146491
30
0.0000000000
10
6.3006155475
20
-1.7996635126
30
0.0000000000
10
6.3006549912
20
-1.7967001739
30
0.0000000000
10
6.3006767838
20
-1.7943263262
30
0.0000000000
10
6.3006863352
20
-1.7928410173
30
0.0000000000
10
6.3006915343
20
-1.7916519721
30
0.0000000000
10
6.3006942126
20
-1.7907595901
30
0.0000000000
10
6.3006953049
20
-1.7900901151
30
0.0000000000
10
6.3006956513
20
-1.7896436737
30
0.0000000000
10
6.3006957523
20
-1.7894114344
30
0.0000000000
10
6.3006957706
20
-1.7891403863
30
0.0000000000
10
6.3006956225
20
-1.7887174088
30
0.0000000000
10
6.3006950183
20
-1.7881515987
30
0.0000000000
10
6.3006931849
20
-1.7872469647
30
0.0000000000
10
6.3006892687
20
-1.7861171653
30
0.0000000000
10
6.3006819667
20
-1.7847626015
30
0.0000000000
10
6.3006687699
20
-1.7829596847
30
0.0000000000
10
6.3006457821
20
-1.7807100032
30
0.0000000000
10
6.3006077754
20
-1.7780151844
30
0.0000000000
10
6.3005593636
20
-1.7753267310
30
0.0000000000
10
6.3004810303
20
-1.7717546873
30
0.0000000000
10
6.3003571877
20
-1.7673054276
30
0.0000000000
10
6.3001038826
20
-1.7602282447
30
0.0000000000
10
6.2995184081
20
-1.7479842776
30
0.0000000000
10
6.2982688591
20
-1.7307000336
30
0.0000000000
10
6.2960962449
20
-1.7102749818
30
0.0000000000
10
6.2941056340
20
-1.6962403349
30
0.0000000000
10
6.2929332582
20
-1.6890048976
30
0.0000000000
10
6.2928372959
20
-1.6884186225
30
0.0000000000
11
5.3270139202
21
-1.7889543903
31
0.0000000000
11
5.3283995867
21
-1.7988689132
31
0.0000000000
11
5.3334243528
21
-1.8306003367
31
0.0000000000
11
5.3457134951
21
-1.8906819556
31
0.0000000000
11
5.3609887841
21
-1.9462552705
31
0.0000000000
11
5.3792502198
21
-1.9973202815
31
0.0000000000
11
5.4004978022
21
-2.0438769886
31
0.0000000000
11
5.4247315313
21
-2.0859253917
31
0.0000000000
11
5.4379682009
21
-2.1052589792
31
0.0000000000
11
5.4519514072
21
-2.1234654908
31
0.0000000000
11
5.4666362074
21
-2.1405822649
31
0.0000000000
11
5.4817905501
21
-2.1568020902
31
0.0000000000
11
5.4973814162
21
-2.1721523991
31
0.0000000000
11
5.5134088057
21
-2.1866331915
31
0.0000000000
11
5.5467731547
21
-2.2129862273
31
0.0000000000
11
5.5818835972
21
-2.2358611974
31
0.0000000000
11
5.6187401331
21
-2.2552581019
31
0.0000000000
11
5.6573427626
21
-2.2711769408
31
0.0000000000
11
5.6772988623
21
-2.2778320856
31
0.0000000000
11
5.6976914855
21
-2.2836177140
31
0.0000000000
11
5.7185206320
21
-2.2885338260
31
0.0000000000
11
5.7397863018
21
-2.2925804216
31
0.0000000000
11
5.7505828330
21
-2.2942776507
31
0.0000000000
11
5.7614884951
21
-2.2957575008
31
0.0000000000
11
5.7725032880
21
-2.2970199717
31
0.0000000000
11
5.7836272117
21
-2.2980650635
31
0.0000000000
11
5.7948602662
21
-2.2988927763
31
0.0000000000
11
5.8005177176
21
-2.2992251155
31
0.0000000000
11
5.8062024516
21
-2.2995031099
31
0.0000000000
11
5.8119144684
21
-2.2997267596
31
0.0000000000
11
5.8176537679
21
-2.2998960644
31
0.0000000000
11
5.8205336487
21
-2.2999603376
31
0.0000000000
11
5.8234203501
21
-2.3000110245
31
0.0000000000
11
5.8263138722
21
-2.3000481253
31
0.0000000000
11
5.8277631910
21
-2.3000615808
31
0.0000000000
11
5.8292142150
21
-2.3000716399
31
0.0000000000
11
5.8306669441
21
-2.3000783023
31
0.0000000000
11
5.8313939481
21
-2.3000803598
31
0.0000000000
11
5.8321213785
21
-2.3000815682
31
0.0000000000
11
5.8324852535
21
-2.3000818540
31
0.0000000000
11
5.8328260825
21
-2.3000819290
31
0.0000000000
11
5.8329328444
21
-2.3000819127
31
0.0000000000
11
5.8330395972
21
-2.3000818762
31
0.0000000000
11
5.8332530760
21
-2.3000817424
31
0.0000000000
11
5.8336799256
21
-2.3000812322
31
0.0000000000
11
5.8341066316
21
-2.3000803986
31
0.0000000000
11
5.8349596122
21
-2.3000777607
31
0.0000000000
11
5.8358120179
21
-2.3000738287
31
0.0000000000
11
5.8375151044
21
-2.3000620826
31
0.0000000000
11
5.8392158911
21
-2.3000451602
31
0.0000000000
11
5.8409143780
21
-2.3000230616
31
0.0000000000
11
5.8443044523
21
-2.2999633355
31
0.0000000000
11
5.8476853272
21
-2.2998829045
31
0.0000000000
11
5.8510570029
21
-2.2997817684
31
0.0000000000
11
5.8577727563
21
-2.2995173811
31
0.0000000000
11
5.8644517124
21
-2.2991701738
31
0.0000000000
11
5.8710938714
21
-2.2987401464
31
0.0000000000
11
5.8842677976
21
-2.2976316312
31
0.0000000000
11
5.8972945350
21
-2.2961918356
31
0.0000000000
11
5.9101740835
21
-2.2944207596
31
0.0000000000
11
5.9229064431
21
-2.2923184032
31
0.0000000000
11
5.9354916138
21
-2.2898847665
31
0.0000000000
11
5.9602203886
21
-2.2840236517
31
0.0000000000
11
5.9843604079
21
-2.2768374153
31
0.0000000000
11
6.0079116717
21
-2.2683260574
31
0.0000000000
11
6.0308741800
21
-2.2584895778
31
0.0000000000
11
6.0532479328
21
-2.2473279767
31
0.0000000000
11
6.0642140259
21
-2.2412502555
31
0.0000000000
11
6.0750319025
21
-2.2348417205
31
0.0000000000
11
6.0960277576
21
-2.2211208551
31
0.0000000000
11
6.1160875204
21
-2.2062325651
31
0.0000000000
11
6.1352111908
21
-2.1901768505
31
0.0000000000
11
6.1706502547
21
-2.1545631472
31
0.0000000000
11
6.2023449491
21
-2.1142797453
31
0.0000000000
11
6.2167881578
21
-2.0923869074
31
0.0000000000
11
6.2302952742
21
-2.0693266449
31
0.0000000000
11
6.2366977977
21
-2.0573587293
31
0.0000000000
11
6.2428579091
21
-2.0451191111
31
0.0000000000
11
6.2542626075
21
-2.0202771005
31
0.0000000000
11
6.2644161576
21
-1.9950245406
31
0.0000000000
11
6.2733185593
21
-1.9693614315
31
0.0000000000
11
6.2809698127
21
-1.9432877730
31
0.0000000000
11
6.2873699177
21
-1.9168035654
31
0.0000000000
11
6.2925188744
21
-1.8899088085
31
0.0000000000
11
6.2946241721
21
-1.8763074740
31
0.0000000000
11
6.2964166827
21
-1.8626035023
31
0.0000000000
11
6.2978964062
21
-1.8487968932
31
0.0000000000
11
6.2985189728
21
-1.8418550997
31
0.0000000000
11
6.2990633427
21
-1.8348876468
31
0.0000000000
11
6.2995295157
21
-1.8278945346
31
0.0000000000
11
6.2999174920
21
-1.8208757631
31
0.0000000000
11
6.3002272715
21
-1.8138313323
31
0.0000000000
11
6.3003528375
21
-1.8102994946
31
0.0000000000
11
6.3004588543
21
-1.8067612421
31
0.0000000000
11
6.3005453219
21
-1.8032165748
31
0.0000000000
11
6.3006122403
21
-1.7996654926
31
0.0000000000
11
6.3006596095
21
-1.7961079956
31
0.0000000000
11
6.3006759631
21
-1.7943268415
31
0.0000000000
11
6.3006874295
21
-1.7925440838
31
0.0000000000
11
6.3006913299
21
-1.7916521035
31
0.0000000000
11
6.3006940085
21
-1.7907597223
31
0.0000000000
11
6.3006954653
21
-1.7898669402
31
0.0000000000
11
6.3006956386
21
-1.7896436820
31
0.0000000000
11
6.3006957355
21
-1.7894203988
31
0.0000000000
11
6.3006957538
21
-1.7891702224
31
0.0000000000
11
6.3006956350
21
-1.7888305377
31
0.0000000000
11
6.3006949096
21
-1.7881514666
31
0.0000000000
11
6.3006935340
21
-1.7874727933
31
0.0000000000
11
6.3006888317
21
-1.7861166406
31
0.0000000000
11
6.3006815281
21
-1.7847620793
31
0.0000000000
11
6.3006716233
21
-1.7834091097
31
0.0000000000
11
6.3006440099
21
-1.7807079450
31
0.0000000000
11
6.3006059915
21
-1.7780131465
31
0.0000000000
11
6.3005575680
21
-1.7753247143
31
0.0000000000
11
6.3004987395
21
-1.7726426483
31
0.0000000000
11
6.3003498672
21
-1.7672976151
31
0.0000000000
11
6.3001593748
21
-1.7619780467
31
0.0000000000
11
6.2996535294
21
-1.7514153047
31
0.0000000000
11
6.2981423962
21
-1.7305953998
31
0.0000000000
11
6.2959653400
21
-1.7101829335
31
0.0000000000
11
6.2931223607
21
-1.6901779058
31
0.0000000000
11
6.2928372959
21
-1.6884186225
31
0.0000000000
0
SPLINE
5
2F5
100
AcDbEntity
8
0
100
AcDbSpline
62
7
6
CONTINUOUS
70
0
71
3
72
82
73
78
74
76
42
0.0000001000
43
0.0000001000
44
0.0000000001
12
-0.1718083563
22
1.0496513623
32
0.0000000000
13
-0.5844447651
23
-0.8885852761
33
0.0000000000
40
0.0000000000
40
0.0000000000
40
0.0000000000
40
0.0000000000
40
0.0170438090
40
0.0355091722
40
0.0537464835
40
0.0717827524
40
0.1073573878
40
0.1424725764
40
0.1773701351
40
0.2122964016
40
0.2298510455
40
0.2475046241
40
0.2563782998
40
0.2652865025
40
0.2741623702
40
0.2829689424
40
0.3003855723
40
0.3175621305
40
0.3512933597
40
0.3843889727
40
0.4170817611
40
0.4496131653
40
0.4658987513
40
0.4822358215
40
0.4986546476
40
0.5151850522
40
0.5318562593
40
0.5402540346
40
0.5486976237
40
0.5571904539
40
0.5657358933
40
0.5700294281
40
0.5743373497
40
0.5786600612
40
0.5829979619
40
0.5851727378
40
0.5873514588
40
0.5895341736
40
0.5906270445
40
0.5917209320
40
0.5928158421
40
0.5933636825
40
0.5936376994
40
0.5938396330
40
0.5939964778
40
0.5941533118
40
0.5944669473
40
0.5947805397
40
0.5950940893
40
0.5957210604
40
0.5963478619
40
0.5976009618
40
0.5988534001
40
0.6001051878
40
0.6026068531
40
0.6076028410
40
0.6125896602
40
0.6175680246
40
0.6225386517
40
0.6275022622
40
0.6374111499
40
0.6473006913
40
0.6571767432
40
0.6670451866
40
0.6867813556
40
0.7065578115
40
0.7264214081
40
0.7464183870
40
0.7665940724
40
0.7869925976
40
0.7972700053
40
0.8075433671
40
0.8280971086
40
0.8487173897
40
0.8694689504
40
0.9116030635
40
1.0000000000
40
1.0000000000
40
1.0000000000
40
1.0000000000
10
6.2928372959
20
-1.6884186225
30
0.0000000000
10
6.2918612063
20
-1.6824552700
30
0.0000000000
10
6.2896246154
20
-1.6700643545
30
0.0000000000
10
6.2855777663
20
-1.6514403505
30
0.0000000000
10
6.2807375618
20
-1.6326423729
30
0.0000000000
10
6.2734293037
20
-1.6082362524
30
0.0000000000
10
6.2626194955
20
-1.5786572328
30
0.0000000000
10
6.2469043193
20
-1.5446359772
30
0.0000000000
10
6.2285052922
20
-1.5122513775
30
0.0000000000
10
6.2109631938
20
-1.4866713312
30
0.0000000000
10
6.1956426778
20
-1.4670808840
30
0.0000000000
10
6.1855112832
20
-1.4551753026
30
0.0000000000
10
6.1770815890
20
-1.4458599360
30
0.0000000000
10
6.1705970461
20
-1.4389839910
30
0.0000000000
10
6.1640028369
20
-1.4322465418
30
0.0000000000
10
6.1551379227
20
-1.4235136836
30
0.0000000000
10
6.1438765728
20
-1.4130234997
30
0.0000000000
10
6.1255281130
20
-1.3972031511
30
0.0000000000
10
6.1018399810
20
-1.3790961280
30
0.0000000000
10
6.0721007946
20
-1.3600362309
30
0.0000000000
10
6.0412204001
20
-1.3437781764
30
0.0000000000
10
6.0145423183
20
-1.3325707856
30
0.0000000000
10
5.9927033898
20
-1.3250294523
30
0.0000000000
10
5.9760341710
20
-1.3200683590
30
0.0000000000
10
5.9590837190
20
-1.3158056231
30
0.0000000000
10
5.9418520277
20
-1.3122409812
30
0.0000000000
10
5.9272933840
20
-1.3098580091
30
0.0000000000
10
5.9155145815
20
-1.3082989507
30
0.0000000000
10
5.9065880724
20
-1.3073009853
30
0.0000000000
10
5.8975912982
20
-1.3064772939
30
0.0000000000
10
5.8900475407
20
-1.3059369716
30
0.0000000000
10
5.8839783738
20
-1.3055914615
30
0.0000000000
10
5.8794015171
20
-1.3053754593
30
0.0000000000
10
5.8748070805
20
-1.3052030097
30
0.0000000000
10
5.8709671551
20
-1.3050956907
30
0.0000000000
10
5.8678865395
20
-1.3050315548
30
0.0000000000
10
5.8655696128
20
-1.3049942970
30
0.0000000000
10
5.8636360694
20
-1.3049723318
30
0.0000000000
10
5.8620870504
20
-1.3049601958
30
0.0000000000
10
5.8609236499
20
-1.3049538113
30
0.0000000000
10
5.8599534610
20
-1.3049507599
30
0.0000000000
10
5.8592739292
20
-1.3049498137
30
0.0000000000
10
5.8589109750
20
-1.3049496267
30
0.0000000000
10
5.8586866364
20
-1.3049496238
30
0.0000000000
10
5.8585038416
20
-1.3049496991
30
0.0000000000
10
5.8582814462
20
-1.3049498727
30
0.0000000000
10
5.8580034809
20
-1.3049502437
30
0.0000000000
10
5.8576699572
20
-1.3049509351
30
0.0000000000
10
5.8572253508
20
-1.3049521853
30
0.0000000000
10
5.8566697079
20
-1.3049543636
30
0.0000000000
10
5.8557809843
20
-1.3049591619
30
0.0000000000
10
5.8546705379
20
-1.3049676215
30
0.0000000000
10
5.8533385636
20
-1.3049817147
30
0.0000000000
10
5.8515640356
20
-1.3050057533
30
0.0000000000
10
5.8484626706
20
-1.3050615750
30
0.0000000000
10
5.8440381659
20
-1.3051806948
30
0.0000000000
10
5.8387380124
20
-1.3053867622
30
0.0000000000
10
5.8334496869
20
-1.3056558832
30
0.0000000000
10
5.8281731836
20
-1.3059880596
30
0.0000000000
10
5.8211580015
20
-1.3065147018
30
0.0000000000
10
5.8124164139
20
-1.3073305644
30
0.0000000000
10
5.8019675929
20
-1.3085625143
30
0.0000000000
10
5.7915660065
20
-1.3100468189
30
0.0000000000
10
5.7777610032
20
-1.3123621750
30
0.0000000000
10
5.7606059860
20
-1.3158909652
30
0.0000000000
10
5.7402115408
20
-1.3211363339
30
0.0000000000
10
5.7200072403
20
-1.3273926703
30
0.0000000000
10
5.6999935461
20
-1.3346595265
30
0.0000000000
10
5.6801711553
20
-1.3429374218
30
0.0000000000
10
5.6638681167
20
-1.3506482178
30
0.0000000000
10
5.6509628638
20
-1.3573003393
30
0.0000000000
10
5.6382086541
20
-1.3643527463
30
0.0000000000
10
5.6226241457
20
-1.3738484525
30
0.0000000000
10
5.6045412968
20
-1.3863176925
30
0.0000000000
10
5.5811325630
20
-1.4044655145
30
0.0000000000
10
5.5415417883
20
-1.4407807912
30
0.0000000000
10
5.5126315422
20
-1.4774151962
30
0.0000000000
10
5.4954104999
20
-1.5035979349
30
0.0000000000
11
6.2928372959
21
-1.6884186225
31
0.0000000000
11
6.2896134583
21
-1.6705803169
31
0.0000000000
11
6.2854386328
21
-1.6513901666
31
0.0000000000
11
6.2805978842
21
-1.6326074549
31
0.0000000000
11
6.2750912125
21
-1.6142321820
31
0.0000000000
11
6.2620800999
21
-1.5787039520
31
0.0000000000
11
6.2464052950
21
-1.5448054768
31
0.0000000000
11
6.2280667977
21
-1.5125367561
31
0.0000000000
11
6.2070646081
21
-1.4818977902
31
0.0000000000
11
6.1955646287
21
-1.4671894652
31
0.0000000000
11
6.1833987262
21
-1.4528885789
31
0.0000000000
11
6.1770660538
21
-1.4458909252
31
0.0000000000
11
6.1705680381
21
-1.4389959873
31
0.0000000000
11
6.1639652535
21
-1.4322493480
31
0.0000000000
11
6.1572921108
21
-1.4256769020
31
0.0000000000
11
6.1437347506
21
-1.4130545898
31
0.0000000000
11
6.1298959576
21
-1.4011290506
31
0.0000000000
11
6.1013740731
21
-1.3793682916
31
0.0000000000
11
6.0717264574
21
-1.3603946248
31
0.0000000000
11
6.0409531104
21
-1.3442080504
31
0.0000000000
11
6.0090540322
21
-1.3308085682
31
0.0000000000
11
5.9926823439
21
-1.3251539867
31
0.0000000000
11
5.9760292227
21
-1.3201961783
31
0.0000000000
11
5.9590946688
21
-1.3159351430
31
0.0000000000
11
5.9418786820
21
-1.3123708807
31
0.0000000000
11
5.9243812624
21
-1.3095033915
31
0.0000000000
11
5.9155270153
21
-1.3083309368
31
0.0000000000
11
5.9066024100
21
-1.3073326754
31
0.0000000000
11
5.8976074465
21
-1.3065086072
31
0.0000000000
11
5.8885421248
21
-1.3058587324
31
0.0000000000
11
5.8839830796
21
-1.3055991174
31
0.0000000000
11
5.8794064449
21
-1.3053830507
31
0.0000000000
11
5.8748122206
21
-1.3052105324
31
0.0000000000
11
5.8702004068
21
-1.3050815624
31
0.0000000000
11
5.8678879038
21
-1.3050334080
31
0.0000000000
11
5.8655710034
21
-1.3049961407
31
0.0000000000
11
5.8632497056
21
-1.3049697605
31
0.0000000000
11
5.8620874077
21
-1.3049606530
31
0.0000000000
11
5.8609240105
21
-1.3049542673
31
0.0000000000
11
5.8597595139
21
-1.3049506034
31
0.0000000000
11
5.8591768533
21
-1.3049497921
31
0.0000000000
11
5.8588854200
21
-1.3049496416
31
0.0000000000
11
5.8586706515
21
-1.3049496407
31
0.0000000000
11
5.8585038378
21
-1.3049497094
31
0.0000000000
11
5.8583370355
21
-1.3049498396
31
0.0000000000
11
5.8580034657
21
-1.3049502848
31
0.0000000000
11
5.8576699421
21
-1.3049509762
31
0.0000000000
11
5.8573364647
21
-1.3049519139
31
0.0000000000
11
5.8566696486
21
-1.3049545282
31
0.0000000000
11
5.8560030173
21
-1.3049581275
31
0.0000000000
11
5.8546703094
21
-1.3049682814
31
0.0000000000
11
5.8533383409
21
-1.3049823756
31
0.0000000000
11
5.8520071119
21
-1.3050004101
31
0.0000000000
11
5.8493468723
21
-1.3050483000
31
0.0000000000
11
5.8440352666
21
-1.3051913636
31
0.0000000000
11
5.8387354923
21
-1.3053974722
31
0.0000000000
11
5.8334475495
21
-1.3056666257
31
0.0000000000
11
5.8281714381
21
-1.3059988243
31
0.0000000000
11
5.8229071580
21
-1.3063940678
31
0.0000000000
11
5.8124140923
21
-1.3073736897
31
0.0000000000
11
5.8019683522
21
-1.3086054916
31
0.0000000000
11
5.7915699377
21
-1.3100894734
31
0.0000000000
11
5.7812188490
21
-1.3118256350
31
0.0000000000
11
5.7606586484
21
-1.3160544981
31
0.0000000000
11
5.7402877505
21
-1.3212920808
31
0.0000000000
11
5.7201061553
21
-1.3275383831
31
0.0000000000
11
5.7001138627
21
-1.3347934051
31
0.0000000000
11
5.6803108728
21
-1.3430571467
31
0.0000000000
11
5.6606971856
21
-1.3523296079
31
0.0000000000
11
5.6509865917
21
-1.3573478955
31
0.0000000000
11
5.6414237448
21
-1.3626334181
31
0.0000000000
11
5.6227562615
21
-1.3740084127
31
0.0000000000
11
5.6046997256
21
-1.3864553397
31
0.0000000000
11
5.5872541370
21
-1.3999741990
31
0.0000000000
11
5.5541958019
21
-1.4302277148
31
0.0000000000
11
5.4954104999
21
-1.5035979349
31
0.0000000000
0
SPLINE
5
2F6
100
AcDbEntity
8
0
100
AcDbSpline
62
7
6
CONTINUOUS
70
0
71
3
72
17
73
13
74
11
42
0.0000001000
43
0.0000001000
44
0.0000000001
12
0.0004922530
22
-0.1558261613
32
0.0000000000
13
-0.0420376372
23
-0.1289826694
33
0.0000000000
40
0.0000000000
40
0.0000000000
40
0.0000000000
40
0.0000000000
40
0.0097820219
40
0.0271542671
40
0.0618987576
40
0.0966432480
40
0.1661322290
40
0.2356212099
40
0.3051101908
40
0.4440881526
40
0.7220440763
40
1.0000000000
40
1.0000000000
40
1.0000000000
40
1.0000000000
10
6.1129320677
20
-1.7992724604
30
0.0000000000
10
6.1129336727
20
-1.7997805587
30
0.0000000000
10
6.1129362659
20
-1.8011997920
30
0.0000000000
10
6.1129303603
20
-1.8045812917
30
0.0000000000
10
6.1128899343
20
-1.8092568988
30
0.0000000000
10
6.1127568137
20
-1.8167067631
30
0.0000000000
10
6.1124620331
20
-1.8259067404
30
0.0000000000
10
6.1119029062
20
-1.8367838960
30
0.0000000000
10
6.1108835441
20
-1.8510636639
30
0.0000000000
10
6.1083807823
20
-1.8754714608
30
0.0000000000
10
6.1027514730
20
-1.9086754975
30
0.0000000000
10
6.0960571484
20
-1.9334639510
30
0.0000000000
10
6.0921622783
20
-1.9454144500
30
0.0000000000
11
6.1129320677
21
-1.7992724604
31
0.0000000000
11
6.1129348684
21
-1.8008114149
31
0.0000000000
11
6.1129298752
21
-1.8036276155
31
0.0000000000
11
6.1128813794
21
-1.8092530104
31
0.0000000000
11
6.1127815352
21
-1.8148368068
31
0.0000000000
11
6.1124278014
21
-1.8258796042
31
0.0000000000
11
6.1118686738
21
-1.8367560077
31
0.0000000000
11
6.1111041524
21
-1.8474660173
31
0.0000000000
11
6.1089589281
21
-1.8683868549
31
0.0000000000
11
6.1022037537
21
-1.9082318035
31
0.0000000000
11
6.0921622783
21
-1.9454144500
31
0.0000000000
0
SPLINE
5
2F7
100
AcDbEntity
8
0
100
AcDbSpline
62
7
6
CONTINUOUS
70
0
71
3
72
23
73
19
74
17
42
0.0000001000
43
0.0000001000
44
0.0000000001
12
0.1959919392
22
0.0000000000
32
0.0000000000
13
-0.1874280236
23
-0.0573024974
33
0.0000000000
40
0.0000000000
40
0.0000000000
40
0.0000000000
40
0.0000000000
40
0.1388374458
40
0.2633177771
40
0.3748254266
40
0.4749199833
40
0.5653440626
40
0.6476011677
40
0.7214244879
40
0.7854991150
40
0.8392753136
40
0.8830110719
40
0.9173965134
40
0.9434614661
40
0.9617864733
40
0.9725977188
40
0.9836585660
40
1.0000000000
40
1.0000000000
40
1.0000000000
40
1.0000000000
10
8.7785076894
20
17.1000000000
30
0.0000000000
10
8.7875780295
20
17.1000000000
30
0.0000000000
10
8.8047807737
20
17.0999695797
30
0.0000000000
10
8.8292680160
20
17.0998259153
30
0.0000000000
10
8.8512233874
20
17.0995971095
30
0.0000000000
10
8.8709527033
20
17.0992899039
30
0.0000000000
10
8.8887691934
20
17.0989060775
30
0.0000000000
10
8.9048674044
20
17.0984441935
30
0.0000000000
10
8.9192391842
20
17.0979035866
30
0.0000000000
10
8.9317503259
20
17.0972927703
30
0.0000000000
10
8.9422757806
20
17.0966189555
30
0.0000000000
10
8.9508917898
20
17.0959097053
30
0.0000000000
10
8.9575835358
20
17.0951331206
30
0.0000000000
10
8.9628546301
20
17.0943987566
30
0.0000000000
10
8.9659710390
20
17.0934745259
30
0.0000000000
10
8.9692870623
20
17.0927575280
30
0.0000000000
10
8.9677048243
20
17.0896064463
30
0.0000000000
10
8.9658391738
20
17.0895559873
30
0.0000000000
10
8.9648182263
20
17.0892438523
30
0.0000000000
11
8.7785076894
21
17.1000000000
31
0.0000000000
11
8.8057186606
21
17.0999483203
31
0.0000000000
11
8.8301153598
21
17.0998014075
31
0.0000000000
11
8.8519687306
21
17.0995695754
31
0.0000000000
11
8.8715840071
21
17.0992595603
31
0.0000000000
11
8.8893021704
21
17.0988724910
31
0.0000000000
11
8.9054170672
21
17.0984031676
31
0.0000000000
11
8.9198752934
21
17.0978507513
31
0.0000000000
11
8.9324178389
21
17.0972256985
31
0.0000000000
11
8.9429352949
21
17.0965412826
31
0.0000000000
11
8.9514757789
21
17.0958085816
31
0.0000000000
11
8.9581704511
21
17.0950345563
31
0.0000000000
11
8.9632124822
21
17.0942130303
31
0.0000000000
11
8.9666953366
21
17.0933361133
31
0.0000000000
11
8.9686043621
21
17.0924166402
31
0.0000000000
11
8.9678043567
21
17.0904018180
31
0.0000000000
11
8.9648182263
21
17.0892438523
31
0.0000000000
0
SPLINE
5
2F8
100
AcDbEntity
8
0
100
AcDbSpline
62
7
6
CONTINUOUS
70
0
71
3
72
14
73
10
74
8
42
0.0000001000
43
0.0000001000
44
0.0000000001
12
-0.0671660209
22
0.0000000000
32
0.0000000000
13
-0.0188642794
23
-0.0644624955
33
0.0000000000
40
0.0000000000
40
0.0000000000
40
0.0000000000
40
0.0000000000
40
0.0551808584
40
0.1350479733
40
0.2459330835
40
0.3889804748
40
0.5634938653
40
0.7678846952
40
1.0000000000
40
1.0000000000
40
1.0000000000
40
1.0000000000
10
7.5274900823
20
-16.6500000000
30
0.0000000000
10
7.5262546560
20
-16.6500000000
30
0.0000000000
10
7.5233183944
20
-16.6513732954
30
0.0000000000
10
7.5196482499
20
-16.6555063779
30
0.0000000000
10
7.5156492368
20
-16.6618529654
30
0.0000000000
10
7.5114583531
20
-16.6704916905
30
0.0000000000
10
7.5070690427
20
-16.6813287481
30
0.0000000000
10
7.5025625334
20
-16.6942491833
30
0.0000000000
10
7.4996856841
20
-16.7035910665
30
0.0000000000
10
7.4982261214
20
-16.7085786438
30
0.0000000000
11
7.5274900823
21
-16.6500000000
31
0.0000000000
11
7.5240088802
21
-16.6512719016
31
0.0000000000
11
7.5202095583
21
-16.6550589152
31
0.0000000000
11
7.5161410112
21
-16.6612971307
31
0.0000000000
11
7.5118545590
21
-16.6698958825
31
0.0000000000
11
7.5074034059
21
-16.6807392100
31
0.0000000000
11
7.5028421180
21
-16.6936874106
31
0.0000000000
11
7.4982261214
21
-16.7085786438
31
0.0000000000
0
SPLINE
5
2F9
100
AcDbEntity
8
0
100
AcDbSpline
62
7
6
CONTINUOUS
70
0
71
3
72
23
73
19
74
17
42
0.0000001000
43
0.0000001000
44
0.0000000001
12
0.1876831183
22
-0.0573804877
32
0.0000000000
13
-0.1962586897
23
0.0000000000
33
0.0000000000
40
0.0000000000
40
0.0000000000
40
0.0000000000
40
0.0000000000
40
0.0163484906
40
0.0244103574
40
0.0397860108
40
0.0583158459
40
0.0843511414
40
0.1182034776
40
0.1610829068
40
0.2138995637
40
0.2772726350
40
0.3511984508
40
0.4341499433
40
0.5251453269
40
0.6253798296
40
0.7367886386
40
0.8611307221
40
1.0000000000
40
1.0000000000
40
1.0000000000
40
1.0000000000
10
8.9648182263
20
-17.0892438523
30
0.0000000000
10
8.9658410048
20
-17.0895565471
30
0.0000000000
10
8.9672067599
20
-17.0899320017
30
0.0000000000
10
8.9699380669
20
-17.0917979784
30
0.0000000000
10
8.9661061617
20
-17.0937712257
30
0.0000000000
10
8.9627969257
20
-17.0942654478
30
0.0000000000
10
8.9575093658
20
-17.0952008201
30
0.0000000000
10
8.9509121405
20
-17.0958838246
30
0.0000000000
10
8.9424336198
20
-17.0966149875
30
0.0000000000
10
8.9320600082
20
-17.0972720188
30
0.0000000000
10
8.9196333539
20
-17.0978877219
30
0.0000000000
10
8.9052361421
20
-17.0984321335
30
0.0000000000
10
8.8890265466
20
-17.0989001509
30
0.0000000000
10
8.8710939159
20
-17.0992874729
30
0.0000000000
10
8.8512976889
20
-17.0995962232
30
0.0000000000
10
8.8293187949
20
-17.0998255212
30
0.0000000000
10
8.8048116528
20
-17.0999695040
30
0.0000000000
10
8.7875924569
20
-17.1000000000
30
0.0000000000
10
8.7785076894
20
-17.1000000000
30
0.0000000000
11
8.9648182263
21
-17.0892438523
31
0.0000000000
11
8.9678094507
21
-17.0904045688
31
0.0000000000
11
8.9689924059
21
-17.0914552875
31
0.0000000000
11
8.9666458610
21
-17.0933525672
31
0.0000000000
11
8.9631171412
21
-17.0942319394
31
0.0000000000
11
8.9580730421
21
-17.0950477937
31
0.0000000000
11
8.9514729621
21
-17.0958088614
31
0.0000000000
11
8.9430884413
21
-17.0965298238
31
0.0000000000
11
8.9327448566
21
-17.0972070021
31
0.0000000000
11
8.9203230096
21
-17.0978311167
31
0.0000000000
11
8.9058251746
21
-17.0983894918
31
0.0000000000
11
8.8895522030
21
-17.0988661537
31
0.0000000000
11
8.8716978551
21
-17.0992574282
31
0.0000000000
11
8.8520284271
21
-17.0995687908
31
0.0000000000
11
8.8301647133
21
-17.0998009991
31
0.0000000000
11
8.8057619426
21
-17.0999481500
31
0.0000000000
11
8.7785076894
21
-17.1000000000
31
0.0000000000
0
SPLINE
5
2FA
100
AcDbEntity
8
0
100
AcDbSpline
62
7
6
CONTINUOUS
70
0
71
3
72
14
73
10
74
8
42
0.0000001000
43
0.0000001000
44
0.0000000001
12
0.0671660209
22
0.0000000000
32
0.0000000000
13
0.0188642794
23
-0.0644624955
33
0.0000000000
40
0.0000000000
40
0.0000000000
40
0.0000000000
40
0.0000000000
40
0.0551808584
40
0.1350479733
40
0.2459330835
40
0.3889804748
40
0.5634938653
40
0.7678846952
40
1.0000000000
40
1.0000000000
40
1.0000000000
40
1.0000000000
10
-7.5274900823
20
-16.6500000000
30
0.0000000000
10
-7.5262546560
20
-16.6500000000
30
0.0000000000
10
-7.5233183944
20
-16.6513732954
30
0.0000000000
10
-7.5196482499
20
-16.6555063779
30
0.0000000000
10
-7.5156492368
20
-16.6618529654
30
0.0000000000
10
-7.5114583531
20
-16.6704916905
30
0.0000000000
10
-7.5070690427
20
-16.6813287481
30
0.0000000000
10
-7.5025625334
20
-16.6942491833
30
0.0000000000
10
-7.4996856841
20
-16.7035910665
30
0.0000000000
10
-7.4982261214
20
-16.7085786438
30
0.0000000000
11
-7.5274900823
21
-16.6500000000
31
0.0000000000
11
-7.5240088802
21
-16.6512719016
31
0.0000000000
11
-7.5202095583
21
-16.6550589152
31
0.0000000000
11
-7.5161410112
21
-16.6612971307
31
0.0000000000
11
-7.5118545590
21
-16.6698958825
31
0.0000000000
11
-7.5074034059
21
-16.6807392100
31
0.0000000000
11
-7.5028421180
21
-16.6936874106
31
0.0000000000
11
-7.4982261214
21
-16.7085786438
31
0.0000000000
0
SPLINE
5
2FB
100
AcDbEntity
8
0
100
AcDbSpline
62
7
6
CONTINUOUS
70
0
71
3
72
23
73
19
74
17
42
0.0000001000
43
0.0000001000
44
0.0000000001
12
-0.1959919392
22
0.0000000000
32
0.0000000000
13
0.1874280236
23
0.0573024974
33
0.0000000000
40
0.0000000000
40
0.0000000000
40
0.0000000000
40
0.0000000000
40
0.1388374458
40
0.2633177771
40
0.3748254266
40
0.4749199833
40
0.5653440626
40
0.6476011677
40
0.7214244879
40
0.7854991150
40
0.8392753136
40
0.8830110719
40
0.9173965134
40
0.9434614661
40
0.9617864733
40
0.9725977188
40
0.9836585660
40
1.0000000000
40
1.0000000000
40
1.0000000000
40
1.0000000000
10
-8.7785076894
20
-17.1000000000
30
0.0000000000
10
-8.7875780295
20
-17.1000000000
30
0.0000000000
10
-8.8047807737
20
-17.0999695797
30
0.0000000000
10
-8.8292680160
20
-17.0998259153
30
0.0000000000
10
-8.8512233874
20
-17.0995971095
30
0.0000000000
10
-8.8709527033
20
-17.0992899039
30
0.0000000000
10
-8.8887691934
20
-17.0989060775
30
0.0000000000
10
-8.9048674044
20
-17.0984441935
30
0.0000000000
10
-8.9192391842
20
-17.0979035866
30
0.0000000000
10
-8.9317503259
20
-17.0972927703
30
0.0000000000
10
-8.9422757806
20
-17.0966189555
30
0.0000000000
10
-8.9508917898
20
-17.0959097053
30
0.0000000000
10
-8.9575835358
20
-17.0951331206
30
0.0000000000
10
-8.9628546301
20
-17.0943987566
30
0.0000000000
10
-8.9659710390
20
-17.0934745259
30
0.0000000000
10
-8.9692870623
20
-17.0927575280
30
0.0000000000
10
-8.9677048243
20
-17.0896064463
30
0.0000000000
10
-8.9658391738
20
-17.0895559873
30
0.0000000000
10
-8.9648182263
20
-17.0892438523
30
0.0000000000
11
-8.7785076894
21
-17.1000000000
31
0.0000000000
11
-8.8057186606
21
-17.0999483203
31
0.0000000000
11
-8.8301153598
21
-17.0998014075
31
0.0000000000
11
-8.8519687306
21
-17.0995695754
31
0.0000000000
11
-8.8715840071
21
-17.0992595603
31
0.0000000000
11
-8.8893021704
21
-17.0988724910
31
0.0000000000
11
-8.9054170672
21
-17.0984031676
31
0.0000000000
11
-8.9198752934
21
-17.0978507513
31
0.0000000000
11
-8.9324178389
21
-17.0972256985
31
0.0000000000
11
-8.9429352949
21
-17.0965412826
31
0.0000000000
11
-8.9514757789
21
-17.0958085816
31
0.0000000000
11
-8.9581704511
21
-17.0950345563
31
0.0000000000
11
-8.9632124822
21
-17.0942130303
31
0.0000000000
11
-8.9666953366
21
-17.0933361133
31
0.0000000000
11
-8.9686043621
21
-17.0924166402
31
0.0000000000
11
-8.9678043567
21
-17.0904018180
31
0.0000000000
11
-8.9648182263
21
-17.0892438523
31
0.0000000000
0
SPLINE
5
2FC
100
AcDbEntity
8
0
100
AcDbSpline
62
7
6
CONTINUOUS
70
0
71
3
72
14
73
10
74
8
42
0.0000001000
43
0.0000001000
44
0.0000000001
12
0.0671660209
22
0.0000000000
32
0.0000000000
13
0.0188642794
23
0.0644624955
33
0.0000000000
40
0.0000000000
40
0.0000000000
40
0.0000000000
40
0.0000000000
40
0.0551808584
40
0.1350479733
40
0.2459330835
40
0.3889804748
40
0.5634938653
40
0.7678846952
40
1.0000000000
40
1.0000000000
40
1.0000000000
40
1.0000000000
10
-7.5274900823
20
16.6500000000
30
0.0000000000
10
-7.5262546560
20
16.6500000000
30
0.0000000000
10
-7.5233183944
20
16.6513732954
30
0.0000000000
10
-7.5196482499
20
16.6555063779
30
0.0000000000
10
-7.5156492368
20
16.6618529654
30
0.0000000000
10
-7.5114583531
20
16.6704916905
30
0.0000000000
10
-7.5070690427
20
16.6813287481
30
0.0000000000
10
-7.5025625334
20
16.6942491833
30
0.0000000000
10
-7.4996856841
20
16.7035910665
30
0.0000000000
10
-7.4982261214
20
16.7085786438
30
0.0000000000
11
-7.5274900823
21
16.6500000000
31
0.0000000000
11
-7.5240088802
21
16.6512719016
31
0.0000000000
11
-7.5202095583
21
16.6550589152
31
0.0000000000
11
-7.5161410112
21
16.6612971307
31
0.0000000000
11
-7.5118545590
21
16.6698958825
31
0.0000000000
11
-7.5074034059
21
16.6807392100
31
0.0000000000
11
-7.5028421180
21
16.6936874106
31
0.0000000000
11
-7.4982261214
21
16.7085786438
31
0.0000000000
0
SPLINE
5
2FD
100
AcDbEntity
8
0
100
AcDbSpline
62
7
6
CONTINUOUS
70
0
71
3
72
23
73
19
74
17
42
0.0000001000
43
0.0000001000
44
0.0000000001
12
-0.1876831183
22
0.0573804877
32
0.0000000000
13
0.1962586897
23
-0.0000000000
33
0.0000000000
40
0.0000000000
40
0.0000000000
40
0.0000000000
40
0.0000000000
40
0.0163484906
40
0.0244103574
40
0.0397860108
40
0.0583158459
40
0.0843511414
40
0.1182034776
40
0.1610829068
40
0.2138995637
40
0.2772726350
40
0.3511984508
40
0.4341499433
40
0.5251453269
40
0.6253798296
40
0.7367886386
40
0.8611307221
40
1.0000000000
40
1.0000000000
40
1.0000000000
40
1.0000000000
10
-8.9648182263
20
17.0892438523
30
0.0000000000
10
-8.9658410048
20
17.0895565471
30
0.0000000000
10
-8.9672067599
20
17.0899320017
30
0.0000000000
10
-8.9699380669
20
17.0917979784
30
0.0000000000
10
-8.9661061617
20
17.0937712257
30
0.0000000000
10
-8.9627969257
20
17.0942654478
30
0.0000000000
10
-8.9575093658
20
17.0952008201
30
0.0000000000
10
-8.9509121405
20
17.0958838246
30
0.0000000000
10
-8.9424336198
20
17.0966149875
30
0.0000000000
10
-8.9320600082
20
17.0972720188
30
0.0000000000
10
-8.9196333539
20
17.0978877219
30
0.0000000000
10
-8.9052361421
20
17.0984321335
30
0.0000000000
10
-8.8890265466
20
17.0989001509
30
0.0000000000
10
-8.8710939159
20
17.0992874729
30
0.0000000000
10
-8.8512976889
20
17.0995962232
30
0.0000000000
10
-8.8293187949
20
17.0998255212
30
0.0000000000
10
-8.8048116528
20
17.0999695040
30
0.0000000000
10
-8.7875924569
20
17.1000000000
30
0.0000000000
10
-8.7785076894
20
17.1000000000
30
0.0000000000
11
-8.9648182263
21
17.0892438523
31
0.0000000000
11
-8.9678094507
21
17.0904045688
31
0.0000000000
11
-8.9689924059
21
17.0914552875
31
0.0000000000
11
-8.9666458610
21
17.0933525672
31
0.0000000000
11
-8.9631171412
21
17.0942319394
31
0.0000000000
11
-8.9580730421
21
17.0950477937
31
0.0000000000
11
-8.9514729621
21
17.0958088614
31
0.0000000000
11
-8.9430884413
21
17.0965298238
31
0.0000000000
11
-8.9327448566
21
17.0972070021
31
0.0000000000
11
-8.9203230096
21
17.0978311167
31
0.0000000000
11
-8.9058251746
21
17.0983894918
31
0.0000000000
11
-8.8895522030
21
17.0988661537
31
0.0000000000
11
-8.8716978551
21
17.0992574282
31
0.0000000000
11
-8.8520284271
21
17.0995687908
31
0.0000000000
11
-8.8301647133
21
17.0998009991
31
0.0000000000
11
-8.8057619426
21
17.0999481500
31
0.0000000000
11
-8.7785076894
21
17.1000000000
31
0.0000000000
0
SPLINE
5
2FE
100
AcDbEntity
8
0
100
AcDbSpline
62
7
6
CONTINUOUS
70
0
71
3
72
14
73
10
74
8
42
0.0000001000
43
0.0000001000
44
0.0000000001
12
-0.0671660209
22
0.0000000000
32
0.0000000000
13
-0.0188642794
23
0.0644624955
33
0.0000000000
40
0.0000000000
40
0.0000000000
40
0.0000000000
40
0.0000000000
40
0.0551808584
40
0.1350479733
40
0.2459330835
40
0.3889804748
40
0.5634938653
40
0.7678846952
40
1.0000000000
40
1.0000000000
40
1.0000000000
40
1.0000000000
10
7.5274900823
20
16.6500000000
30
0.0000000000
10
7.5262546560
20
16.6500000000
30
0.0000000000
10
7.5233183944
20
16.6513732954
30
0.0000000000
10
7.5196482499
20
16.6555063779
30
0.0000000000
10
7.5156492368
20
16.6618529654
30
0.0000000000
10
7.5114583531
20
16.6704916905
30
0.0000000000
10
7.5070690427
20
16.6813287481
30
0.0000000000
10
7.5025625334
20
16.6942491833
30
0.0000000000
10
7.4996856841
20
16.7035910665
30
0.0000000000
10
7.4982261214
20
16.7085786438
30
0.0000000000
11
7.5274900823
21
16.6500000000
31
0.0000000000
11
7.5240088802
21
16.6512719016
31
0.0000000000
11
7.5202095583
21
16.6550589152
31
0.0000000000
11
7.5161410112
21
16.6612971307
31
0.0000000000
11
7.5118545590
21
16.6698958825
31
0.0000000000
11
7.5074034059
21
16.6807392100
31
0.0000000000
11
7.5028421180
21
16.6936874106
31
0.0000000000
11
7.4982261214
21
16.7085786438
31
0.0000000000
0
SPLINE
5
2FF
100
AcDbEntity
8
0
100
AcDbSpline
62
7
6
CONTINUOUS
70
0
71
3
72
14
73
10
74
8
42
0.0000001000
43
0.0000001000
44
0.0000000001
12
0.0020153657
22
-0.3999964163
32
0.0000000000
13
0.0000000000
23
-0.4000014934
33
0.0000000000
40
0.0000000000
40
0.0000000000
40
0.0000000000
40
0.0000000000
40
0.1320848505
40
0.2693517472
40
0.4106170301
40
0.5548448203
40
0.7018916691
40
0.8507105078
40
1.0000000000
40
1.0000000000
40
1.0000000000
40
1.0000000000
10
11.1563030050
20
-4.3143593539
30
0.0000000000
10
11.1563917380
20
-4.3319705096
30
0.0000000000
10
11.1565568070
20
-4.3678838355
30
0.0000000000
10
11.1567645892
20
-4.4226325881
30
0.0000000000
10
11.1569361562
20
-4.4790005386
30
0.0000000000
10
11.1570706110
20
-4.5366725914
30
0.0000000000
10
11.1571672418
20
-4.5953518658
30
0.0000000000
10
11.1572254196
20
-4.6547060869
30
0.0000000000
10
11.1572383478
20
-4.6944540140
30
0.0000000000
10
11.1572383478
20
-4.7143593539
30
0.0000000000
11
11.1563030050
21
-4.3143593539
31
0.0000000000
11
11.1565467127
21
-4.3671929293
31
0.0000000000
11
11.1567557877
21
-4.4220994949
31
0.0000000000
11
11.1569283151
21
-4.4786055557
31
0.0000000000
11
11.1570632158
21
-4.5362967294
31
0.0000000000
11
11.1571603572
21
-4.5951156083
31
0.0000000000
11
11.1572188706
21
-4.6546433373
31
0.0000000000
11
11.1572383478
21
-4.7143593539
31
0.0000000000
0
SPLINE
5
300
100
AcDbEntity
8
0
100
AcDbSpline
62
7
6
CONTINUOUS
70
0
71
3
72
14
73
10
74
8
42
0.0000001000
43
0.0000001000
44
0.0000000001
12
0.0000000000
22
0.4000014934
32
0.0000000000
13
0.0020153657
23
0.3999964163
33
0.0000000000
40
0.0000000000
40
0.0000000000
40
0.0000000000
40
0.0000000000
40
0.1492894922
40
0.2981083309
40
0.4451551797
40
0.5893829699
40
0.7306482528
40
0.8679151495
40
1.0000000000
40
1.0000000000
40
1.0000000000
40
1.0000000000
10
-11.1572383478
20
-4.7143593539
30
0.0000000000
10
-11.1572383478
20
-4.6944540140
30
0.0000000000
10
-11.1572254196
20
-4.6547060869
30
0.0000000000
10
-11.1571672418
20
-4.5953518658
30
0.0000000000
10
-11.1570706110
20
-4.5366725914
30
0.0000000000
10
-11.1569361562
20
-4.4790005386
30
0.0000000000
10
-11.1567645892
20
-4.4226325881
30
0.0000000000
10
-11.1565568070
20
-4.3678838355
30
0.0000000000
10
-11.1563917380
20
-4.3319705096
30
0.0000000000
10
-11.1563030050
20
-4.3143593539
30
0.0000000000
11
-11.1572383478
21
-4.7143593539
31
0.0000000000
11
-11.1572188706
21
-4.6546433373
31
0.0000000000
11
-11.1571603572
21
-4.5951156083
31
0.0000000000
11
-11.1570632158
21
-4.5362967294
31
0.0000000000
11
-11.1569283151
21
-4.4786055557
31
0.0000000000
11
-11.1567557877
21
-4.4220994949
31
0.0000000000
11
-11.1565467127
21
-4.3671929293
31
0.0000000000
11
-11.1563030050
21
-4.3143593539
31
0.0000000000
0
SPLINE
5
301
100
AcDbEntity
8
0
100
AcDbSpline
62
7
6
CONTINUOUS
70
0
71
3
72
14
73
10
74
8
42
0.0000001000
43
0.0000001000
44
0.0000000001
12
0.0000000000
22
-0.4000014934
32
0.0000000000
13
0.0020153657
23
-0.3999964163
33
0.0000000000
40
0.0000000000
40
0.0000000000
40
0.0000000000
40
0.0000000000
40
0.1492894922
40
0.2981083309
40
0.4451551797
40
0.5893829699
40
0.7306482528
40
0.8679151495
40
1.0000000000
40
1.0000000000
40
1.0000000000
40
1.0000000000
10
11.1520022272
20
-3.2464101615
30
0.0000000000
10
11.1520022272
20
-3.2663155015
30
0.0000000000
10
11.1520151554
20
-3.3060634285
30
0.0000000000
10
11.1520733332
20
-3.3654176497
30
0.0000000000
10
11.1521699640
20
-3.4240969241
30
0.0000000000
10
11.1523044187
20
-3.4817689769
30
0.0000000000
10
11.1524759858
20
-3.5381369273
30
0.0000000000
10
11.1526837680
20
-3.5928856799
30
0.0000000000
10
11.1528488369
20
-3.6287990059
30
0.0000000000
10
11.1529375700
20
-3.6464101615
30
0.0000000000
11
11.1520022272
21
-3.2464101615
31
0.0000000000
11
11.1520217043
21
-3.3061261782
31
0.0000000000
11
11.1520802177
21
-3.3656539071
31
0.0000000000
11
11.1521773592
21
-3.4244727860
31
0.0000000000
11
11.1523122599
21
-3.4821639598
31
0.0000000000
11
11.1524847873
21
-3.5386700205
31
0.0000000000
11
11.1526938622
21
-3.5935765862
31
0.0000000000
11
11.1529375700
21
-3.6464101615
31
0.0000000000
0
SPLINE
5
302
100
AcDbEntity
8
0
100
AcDbSpline
62
7
6
CONTINUOUS
70
0
71
3
72
14
73
10
74
8
42
0.0000001000
43
0.0000001000
44
0.0000000001
12
0.0020153657
22
0.3999964163
32
0.0000000000
13
0.0000000000
23
0.4000014934
33
0.0000000000
40
0.0000000000
40
0.0000000000
40
0.0000000000
40
0.0000000000
40
0.1320848505
40
0.2693517472
40
0.4106170301
40
0.5548448203
40
0.7018916691
40
0.8507105078
40
1.0000000000
40
1.0000000000
40
1.0000000000
40
1.0000000000
10
-11.1529375700
20
-3.6464101615
30
0.0000000000
10
-11.1528488369
20
-3.6287990059
30
0.0000000000
10
-11.1526837680
20
-3.5928856799
30
0.0000000000
10
-11.1524759858
20
-3.5381369273
30
0.0000000000
10
-11.1523044187
20
-3.4817689769
30
0.0000000000
10
-11.1521699640
20
-3.4240969241
30
0.0000000000
10
-11.1520733332
20
-3.3654176497
30
0.0000000000
10
-11.1520151554
20
-3.3060634285
30
0.0000000000
10
-11.1520022272
20
-3.2663155015
30
0.0000000000
10
-11.1520022272
20
-3.2464101615
30
0.0000000000
11
-11.1529375700
21
-3.6464101615
31
0.0000000000
11
-11.1526938622
21
-3.5935765862
31
0.0000000000
11
-11.1524847873
21
-3.5386700205
31
0.0000000000
11
-11.1523122599
21
-3.4821639598
31
0.0000000000
11
-11.1521773592
21
-3.4244727860
31
0.0000000000
11
-11.1520802177
21
-3.3656539071
31
0.0000000000
11
-11.1520217043
21
-3.3061261782
31
0.0000000000
11
-11.1520022272
21
-3.2464101615
31
0.0000000000
0
SPLINE
5
303
100
AcDbEntity
8
0
100
AcDbSpline
62
7
6
CONTINUOUS
70
0
71
3
72
14
73
10
74
8
42
0.0000001000
43
0.0000001000
44
0.0000000001
12
0.0000000000
22
0.4000014934
32
0.0000000000
13
-0.0020153657
23
0.3999964163
33
0.0000000000
40
0.0000000000
40
0.0000000000
40
0.0000000000
40
0.0000000000
40
0.1492894922
40
0.2981083309
40
0.4451551797
40
0.5893829699
40
0.7306482528
40
0.8679151495
40
1.0000000000
40
1.0000000000
40
1.0000000000
40
1.0000000000
10
-11.1520022272
20
3.2464101615
30
0.0000000000
10
-11.1520022272
20
3.2663155015
30
0.0000000000
10
-11.1520151554
20
3.3060634285
30
0.0000000000
10
-11.1520733332
20
3.3654176497
30
0.0000000000
10
-11.1521699640
20
3.4240969241
30
0.0000000000
10
-11.1523044187
20
3.4817689769
30
0.0000000000
10
-11.1524759858
20
3.5381369273
30
0.0000000000
10
-11.1526837680
20
3.5928856799
30
0.0000000000
10
-11.1528488369
20
3.6287990059
30
0.0000000000
10
-11.1529375700
20
3.6464101615
30
0.0000000000
11
-11.1520022272
21
3.2464101615
31
0.0000000000
11
-11.1520217043
21
3.3061261782
31
0.0000000000
11
-11.1520802177
21
3.3656539071
31
0.0000000000
11
-11.1521773592
21
3.4244727860
31
0.0000000000
11
-11.1523122599
21
3.4821639598
31
0.0000000000
11
-11.1524847873
21
3.5386700205
31
0.0000000000
11
-11.1526938622
21
3.5935765862
31
0.0000000000
11
-11.1529375700
21
3.6464101615
31
0.0000000000
0
SPLINE
5
304
100
AcDbEntity
8
0
100
AcDbSpline
62
7
6
CONTINUOUS
70
0
71
3
72
14
73
10
74
8
42
0.0000001000
43
0.0000001000
44
0.0000000001
12
-0.0020153657
22
-0.3999964163
32
0.0000000000
13
0.0000000000
23
-0.4000014934
33
0.0000000000
40
0.0000000000
40
0.0000000000
40
0.0000000000
40
0.0000000000
40
0.1320848505
40
0.2693517472
40
0.4106170301
40
0.5548448203
40
0.7018916691
40
0.8507105078
40
1.0000000000
40
1.0000000000
40
1.0000000000
40
1.0000000000
10
11.1529375700
20
3.6464101615
30
0.0000000000
10
11.1528488369
20
3.6287990059
30
0.0000000000
10
11.1526837680
20
3.5928856799
30
0.0000000000
10
11.1524759858
20
3.5381369273
30
0.0000000000
10
11.1523044187
20
3.4817689769
30
0.0000000000
10
11.1521699640
20
3.4240969241
30
0.0000000000
10
11.1520733332
20
3.3654176497
30
0.0000000000
10
11.1520151554
20
3.3060634285
30
0.0000000000
10
11.1520022272
20
3.2663155015
30
0.0000000000
10
11.1520022272
20
3.2464101615
30
0.0000000000
11
11.1529375700
21
3.6464101615
31
0.0000000000
11
11.1526938622
21
3.5935765862
31
0.0000000000
11
11.1524847873
21
3.5386700205
31
0.0000000000
11
11.1523122599
21
3.4821639598
31
0.0000000000
11
11.1521773592
21
3.4244727860
31
0.0000000000
11
11.1520802177
21
3.3656539071
31
0.0000000000
11
11.1520217043
21
3.3061261782
31
0.0000000000
11
11.1520022272
21
3.2464101615
31
0.0000000000
0
SPLINE
5
305
100
AcDbEntity
8
0
100
AcDbSpline
62
7
6
CONTINUOUS
70
0
71
3
72
14
73
10
74
8
42
0.0000001000
43
0.0000001000
44
0.0000000001
12
0.0000000000
22
-0.4000014934
32
0.0000000000
13
-0.0020153657
23
-0.3999964163
33
0.0000000000
40
0.0000000000
40
0.0000000000
40
0.0000000000
40
0.0000000000
40
0.1492936750
40
0.2981154507
40
0.4451659934
40
0.5893935695
40
0.7306549559
40
0.8679189290
40
1.0000000000
40
1.0000000000
40
1.0000000000
40
1.0000000000
10
11.1572383478
20
4.7143593539
30
0.0000000000
10
11.1572383478
20
4.6944534563
30
0.0000000000
10
11.1572254189
20
4.6547045799
30
0.0000000000
10
11.1571672382
20
4.5953489169
30
0.0000000000
10
11.1570706036
20
4.5366687869
30
0.0000000000
10
11.1569361460
20
4.4789967897
30
0.0000000000
10
11.1567645793
20
4.4226297772
30
0.0000000000
10
11.1565568008
20
4.3678824379
30
0.0000000000
10
11.1563917355
20
4.3319700056
30
0.0000000000
10
11.1563030050
20
4.3143593539
30
0.0000000000
11
11.1572383478
21
4.7143593539
31
0.0000000000
11
11.1572188695
21
4.6546416642
31
0.0000000000
11
11.1571603535
21
4.5951127604
31
0.0000000000
11
11.1570632072
21
4.5362924039
31
0.0000000000
11
11.1569283037
21
4.4786013158
31
0.0000000000
11
11.1567557785
21
4.4220968137
31
0.0000000000
11
11.1565467064
21
4.3671914175
31
0.0000000000
11
11.1563030050
21
4.3143593539
31
0.0000000000
0
SPLINE
5
306
100
AcDbEntity
8
0
100
AcDbSpline
62
7
6
CONTINUOUS
70
0
71
3
72
14
73
10
74
8
42
0.0000001000
43
0.0000001000
44
0.0000000001
12
-0.0020153657
22
0.3999964163
32
0.0000000000
13
-0.0000000000
23
0.4000014934
33
0.0000000000
40
0.0000000000
40
0.0000000000
40
0.0000000000
40
0.0000000000
40
0.1320810710
40
0.2693450441
40
0.4106064305
40
0.5548340066
40
0.7018845493
40
0.8507063250
40
1.0000000000
40
1.0000000000
40
1.0000000000
40
1.0000000000
10
-11.1563030050
20
4.3143593539
30
0.0000000000
10
-11.1563917355
20
4.3319700056
30
0.0000000000
10
-11.1565568008
20
4.3678824379
30
0.0000000000
10
-11.1567645793
20
4.4226297772
30
0.0000000000
10
-11.1569361460
20
4.4789967897
30
0.0000000000
10
-11.1570706036
20
4.5366687869
30
0.0000000000
10
-11.1571672382
20
4.5953489169
30
0.0000000000
10
-11.1572254189
20
4.6547045799
30
0.0000000000
10
-11.1572383478
20
4.6944534563
30
0.0000000000
10
-11.1572383478
20
4.7143593539
30
0.0000000000
11
-11.1563030050
21
4.3143593539
31
0.0000000000
11
-11.1565467064
21
4.3671914175
31
0.0000000000
11
-11.1567557785
21
4.4220968137
31
0.0000000000
11
-11.1569283037
21
4.4786013158
31
0.0000000000
11
-11.1570632072
21
4.5362924039
31
0.0000000000
11
-11.1571603535
21
4.5951127604
31
0.0000000000
11
-11.1572188695
21
4.6546416642
31
0.0000000000
11
-11.1572383478
21
4.7143593539
31
0.0000000000
0
ENDSEC
0
SECTION
2
OBJECTS
0
DICTIONARY
5
307
100
AcDbDictionary
3
ACAD_GROUP
350
308
3
ACAD_MLINESTYLE
350
309
0
DICTIONARY
5
308
102
{ACAD_REACTORS
330
307
102
}
100
AcDbDictionary
0
DICTIONARY
5
309
102
{ACAD_REACTORS
330
307
102
}
100
AcDbDictionary
3
STANDARD
350
30A
0
MLINESTYLE
5
30A
102
{ACAD_REACTORS
330
309
102
}
100
AcDbMlineStyle
2
STANDARD
70
0
3

62
256
51
90.0
52
90.0
71
2
49
0.5
62
256
6
BYLAYER
49
-0.5
62
256
6
BYLAYER
0
ENDSEC
0
EOF
