0
SECTION
2
HEADER
9
$ACADVER
1
AC1015
9
$DWGCODEPAGE
3
ANSI_1252
9
$EXTMAX
10
297.0000000000
20
210.0000000000
30
0.0000000000
9
$EXTMIN
10
0.0000000000
20
0.0000000000
30
0.0000000000
9
$LIMMIN
10
0.0000000000
20
0.0000000000
9
$LIMMAX
10
297.0000000000
20
210.0000000000
9
$VIEWCTR
10
148.5000000000
20
105.0000000000
9
$VIEWSIZE
40
210.0000000000
9
$CLAYER
8
0
9
$LTSCALE
40
16.3350000000
9
$CELTYPE
6
BYLAYER
9
$DIMSCALE
40
1
9
$DIMASZ
40
3.0000000000
9
$DIMEXO
40
1.8562500000
9
$DIMDLI
40
11.2860000000
9
$DIMEXE
40
5.3460000000
9
$DIMCEN
40
2.6730000000
9
$DIMLFAC
40
1.0000000000
9
$DIMBLK
1
_FILLED
9
$DIMTXT
40
3.0000000000
9
$DIMTOL
70
1
9
$DIMLIM
70
0
9
$DIMTFAC
40
1.0000000000
9
$DIMTP
40
0.0100000000
9
$DIMTM
40
0.0100000000
9
$PDMODE
70
3
9
$PDSIZE
40
3.0000000000
9
$HANDSEED
5
52A
9
$MEASUREMENT
70
1
9
$INSUNITS
70
4
0
ENDSEC
0
SECTION
2
CLASSES
0
CLASS
1
ACDBDICTIONARYWDFLT
2
AcDbDictionaryWithDefault
3
AutoCAD 2000
90
0
280
0
281
0
0
CLASS
1
ACDBPLACEHOLDER
2
AcDbPlaceHolder
3
AutoCAD 2000
90
0
280
0
281
0
0
CLASS
1
LAYOUT
2
AcDbLayout
3
AutoCAD 2000
90
0
280
0
281
0
0
ENDSEC
0
SECTION
2
TABLES
0
TABLE
2
VPORT
5
8
100
AcDbSymbolTable
70
2
0
VPORT
5
1F4
100
AcDbSymbolTableRecord
100
AcDbViewportTableRecord
2
*ACTIVE
70
0
10
0.0
20
0.0
11
1.0
21
1.0
12
148.5000000000
22
105.0000000000
13
0.0
23
0.0
14
1.0
24
1.0
15
0.0
25
0.0
16
0.0
26
0.0
36
1.0
17
0.0
27
0.0
37
0.0
40
210.0000000000
41
1.4142857143
42
50.0
43
0.0
44
0.0
50
0.0
51
0.0
71
0
72
100
73
1
74
1
75
0
76
0
77
0
78
0
0
ENDTAB
0
TABLE
2
LTYPE
5
5
100
AcDbSymbolTable
70
6
0
LTYPE
5
14
100
AcDbSymbolTableRecord
100
AcDbLinetypeTableRecord
2
BYBLOCK
70
0
3

72
65
73
0
40
0.0
0
LTYPE
5
15
100
AcDbSymbolTableRecord
100
AcDbLinetypeTableRecord
2
BYLAYER
70
0
3

72
65
73
0
40
0.0
0
LTYPE
5
16
100
AcDbSymbolTableRecord
100
AcDbLinetypeTableRecord
2
CONTINUOUS
70
64
3
Solid line
72
65
73
0
40
0
0
LTYPE
5
1F5
100
AcDbSymbolTableRecord
100
AcDbLinetypeTableRecord
2
CENTER
70
64
3
____ _ ____ _ ____ _ ____ _ ____ _ ____ _ ____
72
65
73
4
40
0.6
49
0.375
74
0
49
-0.075
74
0
49
0.075
74
0
49
-0.075
74
0
0
LTYPE
5
1F6
100
AcDbSymbolTableRecord
100
AcDbLinetypeTableRecord
2
HIDDEN
70
64
3
- - - - - - - - - - - - - - - - - - - -
72
65
73
2
40
0.2
49
0.1
74
0
49
-0.1
74
0
0
LTYPE
5
1F7
100
AcDbSymbolTableRecord
100
AcDbLinetypeTableRecord
2
PHANTOM
70
64
3
_____ _ _ _____ _ _ _____ _ _ _____
72
65
73
6
40
0.8
49
0.45
74
0
49
-0.05
74
0
49
0.1
74
0
49
-0.05
74
0
49
0.1
74
0
49
-0.05
74
0
0
LTYPE
5
1F8
100
AcDbSymbolTableRecord
100
AcDbLinetypeTableRecord
2
DOT
70
64
3
. . . . . . . . . . . . . . . . . . . .
72
65
73
2
40
0.2
49
0.1
74
0
49
-0.1
74
0
0
LTYPE
5
1F9
100
AcDbSymbolTableRecord
100
AcDbLinetypeTableRecord
2
DASHED
70
64
3
- - - - - - - - - - - - - - - - - - - -
72
65
73
2
40
0.2
49
0.1
74
0
49
-0.1
74
0
0
ENDTAB
0
TABLE
2
LAYER
5
2
100
AcDbSymbolTable
70
36
0
LAYER
5
10
100
AcDbSymbolTableRecord
100
AcDbLayerTableRecord
2
0
70
0
62
7
6
CONTINUOUS
370
-3
390
F
0
LAYER
5
1FA
100
AcDbSymbolTableRecord
100
AcDbLayerTableRecord
2
DEFAULT_1
70
0
62
7
6
CENTER
370
-3
390
F
0
LAYER
5
1FB
100
AcDbSymbolTableRecord
100
AcDbLayerTableRecord
2
DEFAULT_2
70
0
62
9
6
HIDDEN
370
-3
390
F
0
LAYER
5
1FC
100
AcDbSymbolTableRecord
100
AcDbLayerTableRecord
2
DEFAULT_3
70
0
62
7
6
PHANTOM
370
-3
390
F
0
LAYER
5
1FD
100
AcDbSymbolTableRecord
100
AcDbLayerTableRecord
2
_2D_DELETED_OBJS
70
0
62
7
6
CONTINUOUS
370
-3
390
F
0
LAYER
5
1FE
100
AcDbSymbolTableRecord
100
AcDbLayerTableRecord
2
0
70
0
62
7
6
CONTINUOUS
370
-3
390
F
0
LAYER
5
1FF
100
AcDbSymbolTableRecord
100
AcDbLayerTableRecord
2
ASSI
70
0
62
7
6
CONTINUOUS
370
-3
390
F
0
LAYER
5
200
100
AcDbSymbolTableRecord
100
AcDbLayerTableRecord
2
COORDINATE
70
0
62
7
6
CONTINUOUS
370
-3
390
F
0
LAYER
5
201
100
AcDbSymbolTableRecord
100
AcDbLayerTableRecord
2
COORD_ORIGINE
70
0
62
7
6
CONTINUOUS
370
-3
390
F
0
LAYER
5
202
100
AcDbSymbolTableRecord
100
AcDbLayerTableRecord
2
COPY_PUBLISH
70
0
62
7
6
CONTINUOUS
370
-3
390
F
0
LAYER
5
203
100
AcDbSymbolTableRecord
100
AcDbLayerTableRecord
2
COSMETIC
70
0
62
7
6
CONTINUOUS
370
-3
390
F
0
LAYER
5
204
100
AcDbSymbolTableRecord
100
AcDbLayerTableRecord
2
COSMETICHE
70
0
62
7
6
CONTINUOUS
370
-3
390
F
0
LAYER
5
205
100
AcDbSymbolTableRecord
100
AcDbLayerTableRecord
2
CURVE
70
0
62
7
6
CONTINUOUS
370
-3
390
F
0
LAYER
5
206
100
AcDbSymbolTableRecord
100
AcDbLayerTableRecord
2
DEFAULT_1
70
0
62
7
6
CONTINUOUS
370
-3
390
F
0
LAYER
5
207
100
AcDbSymbolTableRecord
100
AcDbLayerTableRecord
2
DEFAULT_2
70
0
62
7
6
CONTINUOUS
370
-3
390
F
0
LAYER
5
208
100
AcDbSymbolTableRecord
100
AcDbLayerTableRecord
2
DEFAULT_3
70
0
62
7
6
CONTINUOUS
370
-3
390
F
0
LAYER
5
209
100
AcDbSymbolTableRecord
100
AcDbLayerTableRecord
2
DRAFT
70
0
62
7
6
CONTINUOUS
370
-3
390
F
0
LAYER
5
20A
100
AcDbSymbolTableRecord
100
AcDbLayerTableRecord
2
IMPORT_IGES
70
0
62
7
6
CONTINUOUS
370
-3
390
F
0
LAYER
5
20B
100
AcDbSymbolTableRecord
100
AcDbLayerTableRecord
2
INTF_1
70
0
62
7
6
CONTINUOUS
370
-3
390
F
0
LAYER
5
20C
100
AcDbSymbolTableRecord
100
AcDbLayerTableRecord
2
INTF_7
70
0
62
7
6
CONTINUOUS
370
-3
390
F
0
LAYER
5
20D
100
AcDbSymbolTableRecord
100
AcDbLayerTableRecord
2
NOTE
70
0
62
7
6
CONTINUOUS
370
-3
390
F
0
LAYER
5
20E
100
AcDbSymbolTableRecord
100
AcDbLayerTableRecord
2
PIANI
70
0
62
7
6
CONTINUOUS
370
-3
390
F
0
LAYER
5
20F
100
AcDbSymbolTableRecord
100
AcDbLayerTableRecord
2
PIANI_ORIGINE
70
0
62
7
6
CONTINUOUS
370
-3
390
F
0
LAYER
5
210
100
AcDbSymbolTableRecord
100
AcDbLayerTableRecord
2
PIANI_SFORMI
70
0
62
7
6
CONTINUOUS
370
-3
390
F
0
LAYER
5
211
100
AcDbSymbolTableRecord
100
AcDbLayerTableRecord
2
PUNTI
70
0
62
7
6
CONTINUOUS
370
-3
390
F
0
LAYER
5
212
100
AcDbSymbolTableRecord
100
AcDbLayerTableRecord
2
RACCORDO
70
0
62
7
6
CONTINUOUS
370
-3
390
F
0
LAYER
5
213
100
AcDbSymbolTableRecord
100
AcDbLayerTableRecord
2
RGB__255__255__255__
70
0
62
7
6
CONTINUOUS
370
-3
390
F
0
LAYER
5
214
100
AcDbSymbolTableRecord
100
AcDbLayerTableRecord
2
RGB____0____0____0__
70
0
62
7
6
CONTINUOUS
370
-3
390
F
0
LAYER
5
215
100
AcDbSymbolTableRecord
100
AcDbLayerTableRecord
2
SMUSSO
70
0
62
7
6
CONTINUOUS
370
-3
390
F
0
LAYER
5
216
100
AcDbSymbolTableRecord
100
AcDbLayerTableRecord
2
SNAPLINE
70
0
62
7
6
CONTINUOUS
370
-3
390
F
0
LAYER
5
217
100
AcDbSymbolTableRecord
100
AcDbLayerTableRecord
2
SUPERFICI
70
0
62
7
6
CONTINUOUS
370
-3
390
F
0
LAYER
5
218
100
AcDbSymbolTableRecord
100
AcDbLayerTableRecord
2
TRASH
70
0
62
7
6
CONTINUOUS
370
-3
390
F
0
LAYER
5
219
100
AcDbSymbolTableRecord
100
AcDbLayerTableRecord
2
_BLACK_HOLE
70
0
62
7
6
CONTINUOUS
370
-3
390
F
0
ENDTAB
0
TABLE
2
STYLE
5
3
100
AcDbSymbolTable
70
1
0
STYLE
5
11
100
AcDbSymbolTableRecord
100
AcDbTextStyleTableRecord
2
STANDARD
70
0
40
0.0
41
0.8000000000
50
0.0
71
0
42
0.2
3
txt
4

0
STYLE
5
21A
100
AcDbSymbolTableRecord
100
AcDbTextStyleTableRecord
2
TEXTSTYLE_1
70
0
40
0.0
41
0.8000000000
50
0.0
71
0
42
0.2
3
txt
4

0
ENDTAB
0
TABLE
2
VIEW
5
6
100
AcDbSymbolTable
70
0
0
ENDTAB
0
TABLE
2
UCS
5
7
100
AcDbSymbolTable
70
0
0
ENDTAB
0
TABLE
2
APPID
5
9
100
AcDbSymbolTable
70
1
0
APPID
5
21B
100
AcDbSymbolTableRecord
100
AcDbRegAppTableRecord
2
ACAD
70
0
0
ENDTAB
0
TABLE
2
BLOCK_RECORD
5
1
100
AcDbSymbolTable
70
0
0
BLOCK_RECORD
5
1F
100
AcDbSymbolTableRecord
100
AcDbBlockTableRecord
2
*MODEL_SPACE
0
BLOCK_RECORD
5
1B
100
AcDbSymbolTableRecord
100
AcDbBlockTableRecord
2
*PAPER_SPACE
0
ENDTAB
0
TABLE
2
DIMSTYLE
5
A
100
AcDbSymbolTable
70
1
100
AcDbDimStyleTable
71
0
0
DIMSTYLE
105
21C
100
AcDbSymbolTableRecord
100
AcDbDimStyleTableRecord
2
STANDARD
70
0
3

4

40
1.0
41
3.0000000000
42
0.0625
43
0.38
44
0.18
45
0.0
46
0.0
47
0.0100000000
48
0.0100000000
140
3.0000000000
141
0.09
142
0.0
143
25.4
144
1.0000000000
145
0.0
146
1.0000000000
147
0.09
71
1
72
0
73
0
74
0
75
0
76
0
77
1
78
8
170
0
171
2
172
0
173
0
174
0
175
0
176
0
177
0
178
0
270
2
271
2
272
2
273
2
274
2
275
0
280
0
281
0
282
0
283
1
284
8
285
0
286
0
287
3
288
0
340
11
0
ENDTAB
0
ENDSEC
0
SECTION
2
BLOCKS
0
BLOCK
5
20
100
AcDbEntity
8
0
100
AcDbBlockBegin
2
*MODEL_SPACE
70
0
10
0.0
20
0.0
30
0.0
3
*MODEL_SPACE
1

0
ENDBLK
5
21
100
AcDbEntity
8
0
100
AcDbBlockEnd
0
BLOCK
5
1C
100
AcDbEntity
8
0
100
AcDbBlockBegin
2
*PAPER_SPACE
70
0
10
0.0
20
0.0
30
0.0
3
*PAPER_SPACE
1

0
ENDBLK
5
1D
100
AcDbEntity
8
0
100
AcDbBlockEnd
0
ENDSEC
0
SECTION
2
ENTITIES
0
TEXT
5
21D
100
AcDbEntity
8
0
100
AcDbText
62
0
6
CONTINUOUS
10
77.6562231587
20
21.1428571429
7
TEXTSTYLE_1
40
3.0000000000
1
47
50
90.0000000000
41
0.7857142857
72
0
100
AcDbText
0
TEXT
5
21E
100
AcDbEntity
8
0
100
AcDbText
62
0
6
CONTINUOUS
10
54.9705088730
20
55.7500000000
7
TEXTSTYLE_1
40
3.0000000000
1
22,3
41
0.7142857143
72
0
100
AcDbText
0
TEXT
5
21F
100
AcDbEntity
8
0
100
AcDbText
62
0
6
CONTINUOUS
10
22.2500000000
20
55.7500000000
7
TEXTSTYLE_1
40
3.0000000000
1
30
41
0.7500000000
72
0
100
AcDbText
0
TEXT
5
220
100
AcDbEntity
8
0
100
AcDbText
62
0
6
CONTINUOUS
10
15.5714285714
20
65.7500000000
7
TEXTSTYLE_1
40
3.0000000000
1
39,5
41
0.6964285714
72
0
100
AcDbText
0
LINE
5
221
100
AcDbEntity
8
0
100
AcDbLine
62
0
6
CONTINUOUS
10
0.0000000000
20
24.0000000000
11
0.0000000000
21
66.5000000000
0
LINE
5
222
100
AcDbEntity
8
0
100
AcDbLine
62
0
6
CONTINUOUS
10
3.0000000000
20
64.0499999999
11
3.0000000000
21
65.9500000001
0
LINE
5
223
100
AcDbEntity
8
0
100
AcDbLine
62
0
6
CONTINUOUS
10
0.0000000000
20
65.0000000000
11
3.0000000000
21
64.0499999999
0
LINE
5
224
100
AcDbEntity
8
0
100
AcDbLine
62
0
6
CONTINUOUS
10
3.0000000000
20
65.9500000001
11
0.0000000000
21
65.0000000000
0
HATCH
5
225
100
AcDbEntity
8
0
100
AcDbHatch
62
0
6
CONTINUOUS
10
0.0
20
0.0
30
0.0
210
0.0
220
0.0
230
1.0
2

70
1
71
1
91
1
92
1
93
3
72
1
10
3.0000000000
20
65.9500000001
11
0.0000000000
21
65.0000000000
72
1
10
0.0000000000
20
65.0000000000
11
3.0000000000
21
64.0499999999
72
1
10
3.0000000000
20
64.0499999999
11
3.0000000000
21
65.9500000001
97
3
330
222
330
223
330
224
75
0
76
1
98
1
10
0.0
20
0.0
0
LINE
5
226
100
AcDbEntity
8
0
100
AcDbLine
62
0
6
CONTINUOUS
10
9.5000000000
20
47.0000000000
11
9.5000000000
21
1.1000000000
0
LINE
5
227
100
AcDbEntity
8
0
100
AcDbLine
62
0
6
CONTINUOUS
10
9.5000000000
20
-0.0000000000
11
9.5000000000
21
0.8368333780
0
LINE
5
228
100
AcDbEntity
8
0
100
AcDbLine
62
0
6
CONTINUOUS
10
9.5000000000
20
47.0000000000
11
9.5000000000
21
56.5000000000
0
LINE
5
229
100
AcDbEntity
8
0
100
AcDbLine
62
0
6
CONTINUOUS
10
12.5000000000
20
54.0499999999
11
12.5000000000
21
55.9500000001
0
LINE
5
22A
100
AcDbEntity
8
0
100
AcDbLine
62
0
6
CONTINUOUS
10
9.5000000000
20
55.0000000000
11
12.5000000000
21
54.0499999999
0
LINE
5
22B
100
AcDbEntity
8
0
100
AcDbLine
62
0
6
CONTINUOUS
10
12.5000000000
20
55.9500000001
11
9.5000000000
21
55.0000000000
0
HATCH
5
22C
100
AcDbEntity
8
0
100
AcDbHatch
62
0
6
CONTINUOUS
10
0.0
20
0.0
30
0.0
210
0.0
220
0.0
230
1.0
2

70
1
71
1
91
1
92
1
93
3
72
1
10
12.5000000000
20
55.9500000001
11
9.5000000000
21
55.0000000000
72
1
10
9.5000000000
20
55.0000000000
11
12.5000000000
21
54.0499999999
72
1
10
12.5000000000
20
54.0499999999
11
12.5000000000
21
55.9500000001
97
3
330
229
330
22A
330
22B
75
0
76
1
98
1
10
0.0
20
0.0
0
LINE
5
22D
100
AcDbEntity
8
0
100
AcDbLine
62
0
6
CONTINUOUS
10
13.5000000000
20
2.1034605474
11
13.5000000000
21
0.0698202597
0
LINE
5
22E
100
AcDbEntity
8
0
100
AcDbLine
62
0
6
CONTINUOUS
10
13.5000000000
20
44.8965394526
11
13.5000000000
21
46.9301797403
0
LINE
5
22F
100
AcDbEntity
8
0
100
AcDbLine
62
0
6
CONTINUOUS
10
15.1000000000
20
45.7000000000
11
15.1000000000
21
44.6720718961
0
LINE
5
230
100
AcDbEntity
8
0
100
AcDbLine
62
0
6
CONTINUOUS
10
15.1000000000
20
1.3000000000
11
15.1000000000
21
2.3279281039
0
LINE
5
231
100
AcDbEntity
8
0
100
AcDbLine
62
0
6
CONTINUOUS
10
17.1439294983
20
45.1560705017
11
19.2000172211
21
43.0999827788
0
LINE
5
232
100
AcDbEntity
8
0
100
AcDbLine
62
0
6
CONTINUOUS
10
56.0228559563
20
1.0000000000
11
55.9562231587
21
1.1000000000
0
LINE
5
233
100
AcDbEntity
8
0
100
AcDbLine
62
0
6
CONTINUOUS
10
58.0437175020
20
15.4417542255
11
57.7117512429
21
15.6414272226
0
LINE
5
234
100
AcDbEntity
8
0
100
AcDbLine
62
9
6
CONTINUOUS
10
59.7679492054
20
11.3993589962
11
59.7459565259
21
11.4146736731
0
LINE
5
235
100
AcDbEntity
8
0
100
AcDbLine
62
3
6
CONTINUOUS
10
59.6160178871
20
16.0295556722
11
59.5991931926
21
16.0415282693
0
LINE
5
236
100
AcDbEntity
8
0
100
AcDbLine
62
3
6
CONTINUOUS
10
59.9422462074
20
12.2500619447
11
60.4666589413
21
11.7362444997
0
LINE
5
237
100
AcDbEntity
8
0
100
AcDbLine
62
0
6
CONTINUOUS
10
60.6775702077
20
11.7996816813
11
60.8060777629
21
11.6689974745
0
LINE
5
238
100
AcDbEntity
8
0
100
AcDbLine
62
3
6
CONTINUOUS
10
58.5705088617
20
12.2503644584
11
58.5152152640
21
12.3086467100
0
LINE
5
239
100
AcDbEntity
8
0
100
AcDbLine
62
0
6
CONTINUOUS
10
60.4666589413
20
11.7362444997
11
60.6260711518
21
11.5584940416
0
LINE
5
23A
100
AcDbEntity
8
0
100
AcDbLine
62
3
6
CONTINUOUS
10
58.5152152640
20
12.3086467100
11
58.4258812589
21
12.4113743858
0
LINE
5
23B
100
AcDbEntity
8
0
100
AcDbLine
62
3
6
CONTINUOUS
10
60.0345973976
20
15.6497354404
11
60.0329335016
21
15.6516529953
0
LINE
5
23C
100
AcDbEntity
8
0
100
AcDbLine
62
0
6
CONTINUOUS
10
60.4666589413
20
11.7362444997
11
60.6217033680
21
11.5561612828
0
LINE
5
23D
100
AcDbEntity
8
0
100
AcDbLine
62
3
6
CONTINUOUS
10
60.0346120663
20
15.6497187343
11
60.1027129142
21
15.5687583532
0
LINE
5
23E
100
AcDbEntity
8
0
100
AcDbLine
62
3
6
CONTINUOUS
10
58.4258812589
20
12.4113743858
11
58.3422525513
21
12.5188282083
0
LINE
5
23F
100
AcDbEntity
8
0
100
AcDbLine
62
3
6
CONTINUOUS
10
60.1027129142
20
15.5687583532
11
60.1987214389
21
15.4414631571
0
LINE
5
240
100
AcDbEntity
8
0
100
AcDbLine
62
0
6
CONTINUOUS
10
58.9132531443
20
16.0415282418
11
58.6959635166
21
16.3491765971
0
LINE
5
241
100
AcDbEntity
8
0
100
AcDbLine
62
3
6
CONTINUOUS
10
58.3422525513
20
12.5188282083
11
58.2645896720
21
12.6306963688
0
LINE
5
242
100
AcDbEntity
8
0
100
AcDbLine
62
3
6
CONTINUOUS
10
60.1987214389
20
15.4414631571
11
60.2863993487
21
15.3083541847
0
LINE
5
243
100
AcDbEntity
8
0
100
AcDbLine
62
3
6
CONTINUOUS
10
58.2645896720
20
12.6306963688
11
58.1931409198
21
12.7466597278
0
LINE
5
244
100
AcDbEntity
8
0
100
AcDbLine
62
3
6
CONTINUOUS
10
58.1931409198
20
12.7466597278
11
58.1281100278
21
12.8663708810
0
LINE
5
245
100
AcDbEntity
8
0
100
AcDbLine
62
3
6
CONTINUOUS
10
58.0605812680
20
11.7318037072
11
58.0457873761
21
11.7362444997
0
LINE
5
246
100
AcDbEntity
8
0
100
AcDbLine
62
0
6
CONTINUOUS
10
57.1423676328
20
15.1567080523
11
56.7703978103
21
15.2770814856
0
LINE
5
247
100
AcDbEntity
8
0
100
AcDbLine
62
0
6
CONTINUOUS
10
61.7420477189
20
15.2770836819
11
61.6065763990
21
15.3319974533
0
LINE
5
248
100
AcDbEntity
8
0
100
AcDbLine
62
0
6
CONTINUOUS
10
59.5855124806
20
16.4976414571
11
61.3989513712
21
15.3319854073
0
LINE
5
249
100
AcDbEntity
8
0
100
AcDbLine
62
3
6
CONTINUOUS
10
59.5855124806
20
16.8806636787
11
61.3989513712
21
15.7150076288
0
LINE
5
24A
100
AcDbEntity
8
0
100
AcDbLine
62
3
6
CONTINUOUS
10
58.0457873761
20
35.2637555003
11
58.5703731235
21
34.7497685373
0
LINE
5
24B
100
AcDbEntity
8
0
100
AcDbLine
62
0
6
CONTINUOUS
10
57.8348761097
20
35.2003183187
11
57.7063685545
21
35.3310025255
0
LINE
5
24C
100
AcDbEntity
8
0
100
AcDbLine
62
0
6
CONTINUOUS
10
58.0457873761
20
35.2637555003
11
57.8863751656
21
35.4415059584
0
LINE
5
24D
100
AcDbEntity
8
0
100
AcDbLine
62
3
6
CONTINUOUS
10
59.9972310534
20
34.6913532900
11
60.0865650585
21
34.5886256142
0
LINE
5
24E
100
AcDbEntity
8
0
100
AcDbLine
62
3
6
CONTINUOUS
10
58.4778489198
20
31.3502645596
11
58.4795128158
21
31.3483470047
0
LINE
5
24F
100
AcDbEntity
8
0
100
AcDbLine
62
0
6
CONTINUOUS
10
58.0457873761
20
35.2637555003
11
57.8907429494
21
35.4438387172
0
LINE
5
250
100
AcDbEntity
8
0
100
AcDbLine
62
3
6
CONTINUOUS
10
58.4778342511
20
31.3502812657
11
58.4097334032
21
31.4312416468
0
LINE
5
251
100
AcDbEntity
8
0
100
AcDbLine
62
3
6
CONTINUOUS
10
60.0865650585
20
34.5886256142
11
60.1701937661
21
34.4811717917
0
LINE
5
252
100
AcDbEntity
8
0
100
AcDbLine
62
3
6
CONTINUOUS
10
58.4097334032
20
31.4312416468
11
58.3137248785
21
31.5585368429
0
LINE
5
253
100
AcDbEntity
8
0
100
AcDbLine
62
0
6
CONTINUOUS
10
59.5991931731
20
30.9584717582
11
59.8164828008
21
30.6508234029
0
LINE
5
254
100
AcDbEntity
8
0
100
AcDbLine
62
3
6
CONTINUOUS
10
60.1701937661
20
34.4811717917
11
60.2478566454
21
34.3693036312
0
LINE
5
255
100
AcDbEntity
8
0
100
AcDbLine
62
3
6
CONTINUOUS
10
58.3137248785
20
31.5585368429
11
58.2260469687
21
31.6916458153
0
LINE
5
256
100
AcDbEntity
8
0
100
AcDbLine
62
3
6
CONTINUOUS
10
60.2863993487
20
15.3083541847
11
60.3653865830
21
15.1699790440
0
LINE
5
257
100
AcDbEntity
8
0
100
AcDbLine
62
3
6
CONTINUOUS
10
58.2260469687
20
31.6916458153
11
58.1470597344
21
31.8300209560
0
LINE
5
258
100
AcDbEntity
8
0
100
AcDbLine
62
3
6
CONTINUOUS
10
60.3653865830
20
15.1699790440
11
60.4353426033
21
15.0268876005
0
LINE
5
259
100
AcDbEntity
8
0
100
AcDbLine
62
3
6
CONTINUOUS
10
58.1470597344
20
31.8300209560
11
58.0771037141
21
31.9731123995
0
LINE
5
25A
100
AcDbEntity
8
0
100
AcDbLine
62
3
6
CONTINUOUS
10
58.1281100278
20
12.8663708810
11
58.0696925735
21
12.9894697089
0
LINE
5
25B
100
AcDbEntity
8
0
100
AcDbLine
62
3
6
CONTINUOUS
10
60.4353426033
20
15.0268876005
11
60.4960201122
21
14.8796681561
0
LINE
5
25C
100
AcDbEntity
8
0
100
AcDbLine
62
3
6
CONTINUOUS
10
58.0696925735
20
12.9894697089
11
58.0180794959
21
13.1155979195
0
LINE
5
25D
100
AcDbEntity
8
0
100
AcDbLine
62
0
6
CONTINUOUS
10
55.5562231587
20
17.8446024539
11
55.7206731148
21
17.3992166250
0
LINE
5
25E
100
AcDbEntity
8
0
100
AcDbLine
62
3
6
CONTINUOUS
10
55.6077456458
20
18.2000000000
11
55.7206731148
21
17.8941544067
0
LINE
5
25F
100
AcDbEntity
8
0
100
AcDbLine
62
3
6
CONTINUOUS
10
58.0180794959
20
13.1155979195
11
57.9734240868
21
13.2443901583
0
LINE
5
260
100
AcDbEntity
8
0
100
AcDbLine
62
9
6
CONTINUOUS
10
48.1062231587
20
45.3997711479
11
48.2475011944
21
44.9755923698
0
LINE
5
261
100
AcDbEntity
8
0
100
AcDbLine
62
9
6
CONTINUOUS
10
48.6058425590
20
45.9000000000
11
48.7474250420
21
45.4749071372
0
LINE
5
262
100
AcDbEntity
8
0
100
AcDbLine
62
0
6
CONTINUOUS
10
36.5000000000
20
65.9500000001
11
36.5000000000
21
64.0499999999
0
LINE
5
263
100
AcDbEntity
8
0
100
AcDbLine
62
0
6
CONTINUOUS
10
39.5000000000
20
65.0000000000
11
36.5000000000
21
65.9500000001
0
LINE
5
264
100
AcDbEntity
8
0
100
AcDbLine
62
0
6
CONTINUOUS
10
36.5000000000
20
64.0499999999
11
39.5000000000
21
65.0000000000
0
HATCH
5
265
100
AcDbEntity
8
0
100
AcDbHatch
62
0
6
CONTINUOUS
10
0.0
20
0.0
30
0.0
210
0.0
220
0.0
230
1.0
2

70
1
71
1
91
1
92
1
93
3
72
1
10
36.5000000000
20
64.0499999999
11
39.5000000000
21
65.0000000000
72
1
10
39.5000000000
20
65.0000000000
11
36.5000000000
21
65.9500000001
72
1
10
36.5000000000
20
65.9500000001
11
36.5000000000
21
64.0499999999
97
3
330
262
330
263
330
264
75
0
76
1
98
1
10
0.0
20
0.0
0
LINE
5
266
100
AcDbEntity
8
0
100
AcDbLine
62
0
6
CONTINUOUS
10
36.5000000000
20
55.9500000001
11
36.5000000000
21
54.0499999999
0
LINE
5
267
100
AcDbEntity
8
0
100
AcDbLine
62
0
6
CONTINUOUS
10
39.5000000000
20
55.0000000000
11
36.5000000000
21
55.9500000001
0
LINE
5
268
100
AcDbEntity
8
0
100
AcDbLine
62
0
6
CONTINUOUS
10
36.5000000000
20
54.0499999999
11
39.5000000000
21
55.0000000000
0
HATCH
5
269
100
AcDbEntity
8
0
100
AcDbHatch
62
0
6
CONTINUOUS
10
0.0
20
0.0
30
0.0
210
0.0
220
0.0
230
1.0
2

70
1
71
1
91
1
92
1
93
3
72
1
10
36.5000000000
20
54.0499999999
11
39.5000000000
21
55.0000000000
72
1
10
39.5000000000
20
55.0000000000
11
36.5000000000
21
55.9500000001
72
1
10
36.5000000000
20
55.9500000001
11
36.5000000000
21
54.0499999999
97
3
330
266
330
267
330
268
75
0
76
1
98
1
10
0.0
20
0.0
0
LINE
5
26A
100
AcDbEntity
8
0
100
AcDbLine
62
9
6
CONTINUOUS
10
37.0087262032
20
42.4367180248
11
37.0087262032
21
40.7019339448
0
LINE
5
26B
100
AcDbEntity
8
0
100
AcDbLine
62
9
6
CONTINUOUS
10
37.0087262032
20
39.4519762322
11
37.0087262032
21
7.5480237678
0
LINE
5
26C
100
AcDbEntity
8
0
100
AcDbLine
62
9
6
CONTINUOUS
10
37.0087262032
20
6.2980660552
11
37.0087262032
21
4.5632819732
0
LINE
5
26D
100
AcDbEntity
8
0
100
AcDbLine
62
0
6
CONTINUOUS
10
37.5000000000
20
42.0927146932
11
37.5000000000
21
4.9072853068
0
LINE
5
26E
100
AcDbEntity
8
0
100
AcDbLine
62
0
6
CONTINUOUS
10
37.5800000000
20
19.9783839422
11
37.5800000000
21
19.9200000000
0
LINE
5
26F
100
AcDbEntity
8
0
100
AcDbLine
62
0
6
CONTINUOUS
10
37.6000000000
20
27.3481649760
11
37.6000000000
21
27.1047832162
0
LINE
5
270
100
AcDbEntity
8
0
100
AcDbLine
62
0
6
CONTINUOUS
10
37.6000000000
20
19.9783839422
11
37.6000000000
21
19.4323870000
0
LINE
5
271
100
AcDbEntity
8
0
100
AcDbLine
62
0
6
CONTINUOUS
10
37.6800000000
20
28.2261986982
11
37.6800000000
21
27.3481649238
0
LINE
5
272
100
AcDbEntity
8
0
100
AcDbLine
62
0
6
CONTINUOUS
10
37.6800000000
20
27.1047832162
11
37.6800000000
21
26.7518439283
0
LINE
5
273
100
AcDbEntity
8
0
100
AcDbLine
62
0
6
CONTINUOUS
10
37.6800000000
20
26.7432111455
11
37.6800000000
21
25.5003740428
0
LINE
5
274
100
AcDbEntity
8
0
100
AcDbLine
62
0
6
CONTINUOUS
10
37.6800000000
20
25.4277055314
11
37.6800000000
21
23.6474602202
0
LINE
5
275
100
AcDbEntity
8
0
100
AcDbLine
62
0
6
CONTINUOUS
10
37.6800000000
20
23.5948198062
11
37.6800000000
21
21.7423659342
0
LINE
5
276
100
AcDbEntity
8
0
100
AcDbLine
62
0
6
CONTINUOUS
10
37.6800000000
20
21.6912602952
11
37.6800000000
21
20.2567888545
0
LINE
5
277
100
AcDbEntity
8
0
100
AcDbLine
62
0
6
CONTINUOUS
10
37.6800000000
20
20.1746305014
11
37.6800000000
21
19.9783839422
0
LINE
5
278
100
AcDbEntity
8
0
100
AcDbLine
62
0
6
CONTINUOUS
10
37.6800000000
20
19.4323870000
11
37.6800000000
21
18.8076470000
0
LINE
5
279
100
AcDbEntity
8
0
100
AcDbLine
62
9
6
CONTINUOUS
10
37.7456369000
20
40.3457123920
11
37.7456369600
21
32.7542876091
0
LINE
5
27A
100
AcDbEntity
8
0
100
AcDbLine
62
9
6
CONTINUOUS
10
37.7456369000
20
14.2457123920
11
37.7456369600
21
6.6542876091
0
LINE
5
27B
100
AcDbEntity
8
0
100
AcDbLine
62
9
6
CONTINUOUS
10
39.2543631036
20
14.2193774775
11
39.2543631647
21
6.6806225237
0
LINE
5
27C
100
AcDbEntity
8
0
100
AcDbLine
62
9
6
CONTINUOUS
10
39.2543631036
20
40.3193774775
11
39.2543631647
21
32.7806225237
0
LINE
5
27D
100
AcDbEntity
8
0
100
AcDbLine
62
0
6
CONTINUOUS
10
39.5000000000
20
40.0693002507
11
39.5000000000
21
33.0307011411
0
LINE
5
27E
100
AcDbEntity
8
0
100
AcDbLine
62
0
6
CONTINUOUS
10
39.5000000000
20
13.9693002507
11
39.5000000000
21
6.9307011411
0
LINE
5
27F
100
AcDbEntity
8
0
100
AcDbLine
62
0
6
CONTINUOUS
10
39.5000000000
20
40.0693002507
11
39.5000000000
21
66.5000000000
0
LINE
5
280
100
AcDbEntity
8
0
100
AcDbLine
62
0
6
CONTINUOUS
10
13.5000000000
20
0.0698202597
11
9.5000000000
21
-0.0000000000
0
LINE
5
281
100
AcDbEntity
8
0
100
AcDbLine
62
9
6
CONTINUOUS
10
13.5000000000
20
0.2368926382
11
9.5000000000
21
0.1666403425
0
LINE
5
282
100
AcDbEntity
8
0
100
AcDbLine
62
0
6
CONTINUOUS
10
62.9310806369
20
-0.0000000000
11
55.5813656805
21
-0.0000000000
0
LINE
5
283
100
AcDbEntity
8
0
100
AcDbLine
62
0
6
CONTINUOUS
10
63.4310806369
20
-0.0000000000
11
79.9062231587
21
-0.0000000000
0
LINE
5
284
100
AcDbEntity
8
0
100
AcDbLine
62
0
6
CONTINUOUS
10
55.7864028990
20
1.0000000000
11
62.7260434184
21
1.0000000000
0
LINE
5
285
100
AcDbEntity
8
0
100
AcDbLine
62
0
6
CONTINUOUS
10
69.9066037584
20
1.1000000000
11
62.5562231587
21
1.1000000000
0
LINE
5
286
100
AcDbEntity
8
0
100
AcDbLine
62
0
6
CONTINUOUS
10
55.9562231587
20
1.1000000000
11
48.6058425590
21
1.1000000000
0
LINE
5
287
100
AcDbEntity
8
0
100
AcDbLine
62
0
6
CONTINUOUS
10
15.6494954839
20
1.3000000000
11
15.1000000000
21
1.3000000000
0
LINE
5
288
100
AcDbEntity
8
0
100
AcDbLine
62
9
6
CONTINUOUS
10
69.7650212754
20
1.5250928628
11
48.7474250420
21
1.5250928628
0
LINE
5
289
100
AcDbEntity
8
0
100
AcDbLine
62
9
6
CONTINUOUS
10
69.7567582212
20
2.4816857691
11
48.7556880962
21
2.4816857691
0
LINE
5
28A
100
AcDbEntity
8
0
100
AcDbLine
62
0
6
CONTINUOUS
10
1.3887449801
20
1.5250928628
11
9.5000000000
21
1.1000000000
0
LINE
5
28B
100
AcDbEntity
8
0
100
AcDbLine
62
9
6
CONTINUOUS
10
1.4061867550
20
2.0244076302
11
9.5000000000
21
1.6002288521
0
LINE
5
28C
100
AcDbEntity
8
0
100
AcDbLine
62
0
6
CONTINUOUS
10
59.7376459380
20
11.3551586979
11
60.0450025692
21
11.3134088587
0
LINE
5
28D
100
AcDbEntity
8
0
100
AcDbLine
62
0
6
CONTINUOUS
10
59.7679492054
20
11.3993589962
11
60.0982223589
21
11.3308140249
0
LINE
5
28E
100
AcDbEntity
8
0
100
AcDbLine
62
0
6
CONTINUOUS
10
56.7703985985
20
31.7229163181
11
56.9058699184
21
31.6680025467
0
LINE
5
28F
100
AcDbEntity
8
0
100
AcDbLine
62
0
6
CONTINUOUS
10
60.4687288154
20
31.5582457745
11
60.8006950745
21
31.3585727774
0
LINE
5
290
100
AcDbEntity
8
0
100
AcDbLine
62
3
6
CONTINUOUS
10
58.9269338368
20
30.1193363213
11
57.1134949462
21
31.2849923712
0
LINE
5
291
100
AcDbEntity
8
0
100
AcDbLine
62
0
6
CONTINUOUS
10
58.9269338368
20
30.5023585429
11
57.1134949462
21
31.6680145927
0
LINE
5
292
100
AcDbEntity
8
0
100
AcDbLine
62
9
6
CONTINUOUS
10
58.7444971120
20
35.6006410038
11
58.7664897915
21
35.5853263269
0
LINE
5
293
100
AcDbEntity
8
0
100
AcDbLine
62
3
6
CONTINUOUS
10
58.8964284303
20
30.9704443278
11
58.9132531248
21
30.9584717307
0
LINE
5
294
100
AcDbEntity
8
0
100
AcDbLine
62
3
6
CONTINUOUS
10
59.9419374557
20
34.7496355416
11
59.9972310534
21
34.6913532900
0
LINE
5
295
100
AcDbEntity
8
0
100
AcDbLine
62
0
6
CONTINUOUS
10
62.5562231587
20
45.9000000000
11
62.4895903611
21
46.0000000000
0
LINE
5
296
100
AcDbEntity
8
0
100
AcDbLine
62
3
6
CONTINUOUS
10
60.2478566454
20
34.3693036312
11
60.3193053976
21
34.2533402722
0
LINE
5
297
100
AcDbEntity
8
0
100
AcDbLine
62
3
6
CONTINUOUS
10
60.3193053976
20
34.2533402722
11
60.3843362896
21
34.1336291190
0
LINE
5
298
100
AcDbEntity
8
0
100
AcDbLine
62
3
6
CONTINUOUS
10
60.3843362896
20
34.1336291190
11
60.4427537439
21
34.0105302911
0
LINE
5
299
100
AcDbEntity
8
0
100
AcDbLine
62
3
6
CONTINUOUS
10
58.0771037141
20
31.9731123995
11
58.0164262052
21
32.1203318439
0
LINE
5
29A
100
AcDbEntity
8
0
100
AcDbLine
62
3
6
CONTINUOUS
10
60.4427537439
20
34.0105302911
11
60.4943668215
21
33.8844020805
0
LINE
5
29B
100
AcDbEntity
8
0
100
AcDbLine
62
3
6
CONTINUOUS
10
62.9047006716
20
28.8000000000
11
62.7917732026
21
29.1058455933
0
LINE
5
29C
100
AcDbEntity
8
0
100
AcDbLine
62
0
6
CONTINUOUS
10
62.9562231587
20
29.1553975461
11
62.7917732026
21
29.6007833750
0
LINE
5
29D
100
AcDbEntity
8
0
100
AcDbLine
62
3
6
CONTINUOUS
10
60.4943668215
20
33.8844020805
11
60.5390222306
21
33.7556098417
0
LINE
5
29E
100
AcDbEntity
8
0
100
AcDbLine
62
3
6
CONTINUOUS
10
60.4960201122
20
14.8796681561
11
60.5472045825
21
14.7289300242
0
LINE
5
29F
100
AcDbEntity
8
0
100
AcDbLine
62
3
6
CONTINUOUS
10
58.0164262052
20
32.1203318439
11
57.9652417349
21
32.2710699758
0
LINE
5
2A0
100
AcDbEntity
8
0
100
AcDbLine
62
9
6
CONTINUOUS
10
69.7650212754
20
1.5250928628
11
69.9066037584
21
1.1000000000
0
LINE
5
2A1
100
AcDbEntity
8
0
100
AcDbLine
62
9
6
CONTINUOUS
10
70.2649451230
20
2.0244076302
11
70.4062231587
21
1.6002288521
0
LINE
5
2A2
100
AcDbEntity
8
0
100
AcDbLine
62
3
6
CONTINUOUS
10
57.9734240868
20
13.2443901583
11
57.9358449408
21
13.3754603343
0
LINE
5
2A3
100
AcDbEntity
8
0
100
AcDbLine
62
3
6
CONTINUOUS
10
60.5390222306
20
33.7556098417
11
60.5766013766
21
33.6245396657
0
LINE
5
2A4
100
AcDbEntity
8
0
100
AcDbLine
62
3
6
CONTINUOUS
10
60.5472045825
20
14.7289300242
11
60.5886811640
21
14.5752881313
0
LINE
5
2A5
100
AcDbEntity
8
0
100
AcDbLine
62
3
6
CONTINUOUS
10
57.9652417349
20
32.2710699758
11
57.9237651534
21
32.4247118687
0
LINE
5
2A6
100
AcDbEntity
8
0
100
AcDbLine
62
3
6
CONTINUOUS
10
57.9358449408
20
13.3754603343
11
57.9054587906
21
13.5084151496
0
LINE
5
2A7
100
AcDbEntity
8
0
100
AcDbLine
62
0
6
CONTINUOUS
10
55.8713508816
20
1.1000000000
11
55.8881627252
21
1.0219067673
0
LINE
5
2A8
100
AcDbEntity
8
0
100
AcDbLine
62
0
6
CONTINUOUS
10
62.6713508816
20
1.1000000000
11
62.6928787950
21
1.0000000000
0
LINE
5
2A9
100
AcDbEntity
8
0
100
AcDbLine
62
0
6
CONTINUOUS
10
55.8410954358
20
45.9000000000
11
55.8195675224
21
46.0000000000
0
LINE
5
2AA
100
AcDbEntity
8
0
100
AcDbLine
62
3
6
CONTINUOUS
10
60.5886811640
20
14.5752881313
11
60.6202712877
21
14.4193613451
0
LINE
5
2AB
100
AcDbEntity
8
0
100
AcDbLine
62
3
6
CONTINUOUS
10
57.9237651534
20
32.4247118687
11
57.8921750297
21
32.5806386549
0
LINE
5
2AC
100
AcDbEntity
8
0
100
AcDbLine
62
3
6
CONTINUOUS
10
57.9054587906
20
13.5084151496
11
57.8823695499
21
13.6428629472
0
LINE
5
2AD
100
AcDbEntity
8
0
100
AcDbLine
62
3
6
CONTINUOUS
10
59.6600284606
20
11.4633545145
11
59.6802106821
21
11.2326706670
0
LINE
5
2AE
100
AcDbEntity
8
0
100
AcDbLine
62
3
6
CONTINUOUS
10
58.8524178568
20
35.5366454855
11
58.8322356353
21
35.7673293330
0
LINE
5
2AF
100
AcDbEntity
8
0
100
AcDbLine
62
3
6
CONTINUOUS
10
55.7527244119
20
28.9644612021
11
55.7649135842
21
28.8000000000
0
LINE
5
2B0
100
AcDbEntity
8
0
100
AcDbLine
62
0
6
CONTINUOUS
10
55.7527244119
20
29.3180145927
11
55.7817257066
21
28.9267174907
0
LINE
5
2B1
100
AcDbEntity
8
0
100
AcDbLine
62
0
6
CONTINUOUS
10
62.7597219055
20
17.6819854073
11
62.7307206108
21
18.0732825093
0
LINE
5
2B2
100
AcDbEntity
8
0
100
AcDbLine
62
3
6
CONTINUOUS
10
62.7597219055
20
18.0355387979
11
62.7475327332
21
18.2000000000
0
LINE
5
2B3
100
AcDbEntity
8
0
100
AcDbLine
62
3
6
CONTINUOUS
10
57.8705506610
20
32.7382130054
11
57.8589531966
21
32.8967964756
0
LINE
5
2B4
100
AcDbEntity
8
0
100
AcDbLine
62
3
6
CONTINUOUS
10
60.6418956564
20
14.2617869946
11
60.6534931208
21
14.1032035244
0
LINE
5
2B5
100
AcDbEntity
8
0
100
AcDbLine
62
3
6
CONTINUOUS
10
57.8666296207
20
13.7784041715
11
57.8582754007
21
13.9146366614
0
LINE
5
2B6
100
AcDbEntity
8
0
100
AcDbLine
62
3
6
CONTINUOUS
10
60.6458166967
20
33.2215958285
11
60.6541709167
21
33.0853633386
0
LINE
5
2B7
100
AcDbEntity
8
0
100
AcDbLine
62
3
6
CONTINUOUS
10
57.8589531966
20
32.8967964756
11
57.8568210128
21
33.0000000000
0
LINE
5
2B8
100
AcDbEntity
8
0
100
AcDbLine
62
3
6
CONTINUOUS
10
57.8582754007
20
13.9146366614
11
57.8568210099
21
14.0000000000
0
LINE
5
2B9
100
AcDbEntity
8
0
100
AcDbLine
62
0
6
CONTINUOUS
10
48.1062231587
20
1.6002288521
11
48.1062231587
21
45.3997711479
0
LINE
5
2BA
100
AcDbEntity
8
0
100
AcDbLine
62
0
6
CONTINUOUS
10
48.1062231587
20
45.8997711479
11
48.1062231587
21
56.5000000000
0
LINE
5
2BB
100
AcDbEntity
8
0
100
AcDbLine
62
9
6
CONTINUOUS
10
48.7556880962
20
44.5183142309
11
48.7556880962
21
2.4816857691
0
LINE
5
2BC
100
AcDbEntity
8
0
100
AcDbLine
62
0
6
CONTINUOUS
10
51.1062231587
20
54.0499999999
11
51.1062231587
21
55.9500000001
0
LINE
5
2BD
100
AcDbEntity
8
0
100
AcDbLine
62
0
6
CONTINUOUS
10
48.1062231587
20
55.0000000000
11
51.1062231587
21
54.0499999999
0
LINE
5
2BE
100
AcDbEntity
8
0
100
AcDbLine
62
0
6
CONTINUOUS
10
51.1062231587
20
55.9500000001
11
48.1062231587
21
55.0000000000
0
HATCH
5
2BF
100
AcDbEntity
8
0
100
AcDbHatch
62
0
6
CONTINUOUS
10
0.0
20
0.0
30
0.0
210
0.0
220
0.0
230
1.0
2

70
1
71
1
91
1
92
1
93
3
72
1
10
51.1062231587
20
55.9500000001
11
48.1062231587
21
55.0000000000
72
1
10
48.1062231587
20
55.0000000000
11
51.1062231587
21
54.0499999999
72
1
10
51.1062231587
20
54.0499999999
11
51.1062231587
21
55.9500000001
97
3
330
2BC
330
2BD
330
2BE
75
0
76
1
98
1
10
0.0
20
0.0
0
LINE
5
2C0
100
AcDbEntity
8
0
100
AcDbLine
62
9
6
CONTINUOUS
10
55.2562231587
20
15.7953772263
11
55.2562231587
21
18.4969981989
0
LINE
5
2C1
100
AcDbEntity
8
0
100
AcDbLine
62
9
6
CONTINUOUS
10
55.2562231587
20
28.5030018011
11
55.2562231587
21
31.2046227737
0
LINE
5
2C2
100
AcDbEntity
8
0
100
AcDbLine
62
0
6
CONTINUOUS
10
55.5562231587
20
16.1000000000
11
55.5562231587
21
18.2000000000
0
LINE
5
2C3
100
AcDbEntity
8
0
100
AcDbLine
62
0
6
CONTINUOUS
10
55.5562231587
20
28.8000000000
11
55.5562231587
21
30.9000000000
0
LINE
5
2C4
100
AcDbEntity
8
0
100
AcDbLine
62
9
6
CONTINUOUS
10
55.7206731148
20
29.6007833750
11
55.7206731148
21
29.1109078115
0
LINE
5
2C5
100
AcDbEntity
8
0
100
AcDbLine
62
9
6
CONTINUOUS
10
55.7206731148
20
17.3992166250
11
55.7206731148
21
17.8890921885
0
LINE
5
2C6
100
AcDbEntity
8
0
100
AcDbLine
62
9
6
CONTINUOUS
10
55.7527244119
20
29.3180145927
11
55.7527244119
21
28.9644612021
0
LINE
5
2C7
100
AcDbEntity
8
0
100
AcDbLine
62
9
6
CONTINUOUS
10
55.7527244119
20
17.6819854073
11
55.7527244119
21
18.0355387979
0
LINE
5
2C8
100
AcDbEntity
8
0
100
AcDbLine
62
9
6
CONTINUOUS
10
55.7817257066
20
18.2000000000
11
55.7817257066
21
18.0732825093
0
LINE
5
2C9
100
AcDbEntity
8
0
100
AcDbLine
62
9
6
CONTINUOUS
10
55.7817257066
20
28.8000000000
11
55.7817257066
21
28.9267174907
0
LINE
5
2CA
100
AcDbEntity
8
0
100
AcDbLine
62
0
6
CONTINUOUS
10
55.7864028990
20
1.1000000000
11
55.7864028990
21
1.0000000000
0
LINE
5
2CB
100
AcDbEntity
8
0
100
AcDbLine
62
0
6
CONTINUOUS
10
55.7864028990
20
45.9000000000
11
55.7864028990
21
46.0000000000
0
LINE
5
2CC
100
AcDbEntity
8
0
100
AcDbLine
62
3
6
CONTINUOUS
10
56.1562231587
20
17.3000000000
11
56.1562231587
21
16.1000000000
0
LINE
5
2CD
100
AcDbEntity
8
0
100
AcDbLine
62
3
6
CONTINUOUS
10
56.1562231587
20
29.7000000000
11
56.1562231587
21
30.9000000000
0
LINE
5
2CE
100
AcDbEntity
8
0
100
AcDbLine
62
9
6
CONTINUOUS
10
0.9327966979
20
2.5027040833
11
0.4419705355
21
2.4816860060
0
LINE
5
2CF
100
AcDbEntity
8
0
100
AcDbLine
62
0
6
CONTINUOUS
10
17.4708547979
20
2.3693115283
11
13.6965095187
21
2.3034300864
0
LINE
5
2D0
100
AcDbEntity
8
0
100
AcDbLine
62
9
6
CONTINUOUS
10
17.4709652612
20
2.4922833312
11
13.6965095428
21
2.4261047768
0
LINE
5
2D1
100
AcDbEntity
8
0
100
AcDbLine
62
0
6
CONTINUOUS
10
37.0087262032
20
4.4073614592
11
19.6827752835
21
4.1049358609
0
LINE
5
2D2
100
AcDbEntity
8
0
100
AcDbLine
62
0
6
CONTINUOUS
10
37.7456369652
20
6.6542876092
11
39.2543631698
21
6.6806225230
0
LINE
5
2D3
100
AcDbEntity
8
0
100
AcDbLine
62
0
6
CONTINUOUS
10
79.3562231588
20
3.0000000000
11
77.4562231586
21
3.0000000000
0
LINE
5
2D4
100
AcDbEntity
8
0
100
AcDbLine
62
0
6
CONTINUOUS
10
77.4562231586
20
3.0000000000
11
78.4062231587
21
-0.0000000000
0
LINE
5
2D5
100
AcDbEntity
8
0
100
AcDbLine
62
0
6
CONTINUOUS
10
78.4062231587
20
-0.0000000000
11
79.3562231588
21
3.0000000000
0
HATCH
5
2D6
100
AcDbEntity
8
0
100
AcDbHatch
62
0
6
CONTINUOUS
10
0.0
20
0.0
30
0.0
210
0.0
220
0.0
230
1.0
2

70
1
71
1
91
1
92
1
93
3
72
1
10
77.4562231586
20
3.0000000000
11
78.4062231587
21
-0.0000000000
72
1
10
78.4062231587
20
-0.0000000000
11
79.3562231588
21
3.0000000000
72
1
10
79.3562231588
20
3.0000000000
11
77.4562231586
21
3.0000000000
97
3
330
2D3
330
2D4
330
2D5
75
0
76
1
98
1
10
0.0
20
0.0
0
LINE
5
2D7
100
AcDbEntity
8
0
100
AcDbLine
62
9
6
CONTINUOUS
10
37.5000000000
20
7.5480237678
11
37.0087262032
21
7.5480237697
0
LINE
5
2D8
100
AcDbEntity
8
0
100
AcDbLine
62
9
6
CONTINUOUS
10
39.5000000000
20
9.4000000000
11
37.5000000000
21
9.4000000000
0
LINE
5
2D9
100
AcDbEntity
8
0
100
AcDbLine
62
9
6
CONTINUOUS
10
39.5000000000
20
11.5000000000
11
37.5000000000
21
11.5000000000
0
LINE
5
2DA
100
AcDbEntity
8
0
100
AcDbLine
62
0
6
CONTINUOUS
10
37.7456369054
20
14.2457123919
11
39.2543631089
21
14.2193774780
0
LINE
5
2DB
100
AcDbEntity
8
0
100
AcDbLine
62
3
6
CONTINUOUS
10
60.4518650494
20
35.2681962928
11
60.4666589413
21
35.2637555003
0
LINE
5
2DC
100
AcDbEntity
8
0
100
AcDbLine
62
0
6
CONTINUOUS
10
61.3700786846
20
31.8432919477
11
61.7420485071
21
31.7229185144
0
LINE
5
2DD
100
AcDbEntity
8
0
100
AcDbLine
62
0
6
CONTINUOUS
10
17.1439294983
20
45.1560705017
11
15.6494954839
21
45.7000000000
0
LINE
5
2DE
100
AcDbEntity
8
0
100
AcDbLine
62
3
6
CONTINUOUS
10
60.5766013766
20
33.6245396657
11
60.6069875268
21
33.4915848504
0
LINE
5
2DF
100
AcDbEntity
8
0
100
AcDbLine
62
0
6
CONTINUOUS
10
62.6410954358
20
45.9000000000
11
62.6242835922
21
45.9780932327
0
LINE
5
2E0
100
AcDbEntity
8
0
100
AcDbLine
62
3
6
CONTINUOUS
10
60.6069875268
20
33.4915848504
11
60.6300767675
21
33.3571370528
0
LINE
5
2E1
100
AcDbEntity
8
0
100
AcDbLine
62
3
6
CONTINUOUS
10
57.8921750297
20
32.5806386549
11
57.8705506610
21
32.7382130054
0
LINE
5
2E2
100
AcDbEntity
8
0
100
AcDbLine
62
3
6
CONTINUOUS
10
60.6202712877
20
14.4193613451
11
60.6418956564
21
14.2617869946
0
LINE
5
2E3
100
AcDbEntity
8
0
100
AcDbLine
62
3
6
CONTINUOUS
10
57.8823695499
20
13.6428629472
11
57.8666296207
21
13.7784041715
0
LINE
5
2E4
100
AcDbEntity
8
0
100
AcDbLine
62
3
6
CONTINUOUS
10
60.6300767675
20
33.3571370528
11
60.6458166967
21
33.2215958285
0
LINE
5
2E5
100
AcDbEntity
8
0
100
AcDbLine
62
3
6
CONTINUOUS
10
60.6534931208
20
14.1032035244
11
60.6556253046
21
14.0000000000
0
LINE
5
2E6
100
AcDbEntity
8
0
100
AcDbLine
62
3
6
CONTINUOUS
10
60.6541709167
20
33.0853633386
11
60.6556253075
21
33.0000000000
0
LINE
5
2E7
100
AcDbEntity
8
0
100
AcDbLine
62
9
6
CONTINUOUS
10
56.7323372659
20
15.7953772263
11
56.7323372659
21
16.1000000000
0
LINE
5
2E8
100
AcDbEntity
8
0
100
AcDbLine
62
9
6
CONTINUOUS
10
56.7323372659
20
30.9000000000
11
56.7323372659
21
31.2046227737
0
LINE
5
2E9
100
AcDbEntity
8
0
100
AcDbLine
62
0
6
CONTINUOUS
10
57.1134949462
20
15.7150076288
11
57.1134949462
21
15.3319854073
0
LINE
5
2EA
100
AcDbEntity
8
0
100
AcDbLine
62
0
6
CONTINUOUS
10
57.1134949462
20
31.2849923712
11
57.1134949462
21
31.6680145927
0
LINE
5
2EB
100
AcDbEntity
8
0
100
AcDbLine
62
3
6
CONTINUOUS
10
58.1134949462
20
17.3000000000
11
58.1134949462
21
16.9903943874
0
LINE
5
2EC
100
AcDbEntity
8
0
100
AcDbLine
62
3
6
CONTINUOUS
10
58.1134949462
20
29.7000000000
11
58.1134949462
21
30.0096056126
0
LINE
5
2ED
100
AcDbEntity
8
0
100
AcDbLine
62
9
6
CONTINUOUS
10
58.5134949462
20
17.3000000000
11
58.5134949462
21
16.9903943874
0
LINE
5
2EE
100
AcDbEntity
8
0
100
AcDbLine
62
9
6
CONTINUOUS
10
58.5134949462
20
29.7000000000
11
58.5134949462
21
30.0096056126
0
LINE
5
2EF
100
AcDbEntity
8
0
100
AcDbLine
62
9
6
CONTINUOUS
10
58.9269338368
20
16.8806636787
11
58.9269338368
21
16.4976414571
0
LINE
5
2F0
100
AcDbEntity
8
0
100
AcDbLine
62
9
6
CONTINUOUS
10
58.9269338368
20
30.1193363213
11
58.9269338368
21
30.5023585429
0
LINE
5
2F1
100
AcDbEntity
8
0
100
AcDbLine
62
0
6
CONTINUOUS
10
58.9562231587
20
30.4569065951
11
58.9562231587
21
30.0738843736
0
LINE
5
2F2
100
AcDbEntity
8
0
100
AcDbLine
62
0
6
CONTINUOUS
10
58.9562231587
20
16.9261156264
11
58.9562231587
21
16.5430934049
0
LINE
5
2F3
100
AcDbEntity
8
0
100
AcDbLine
62
0
6
CONTINUOUS
10
59.5562231587
20
16.5430934049
11
59.5562231587
21
16.9261156264
0
LINE
5
2F4
100
AcDbEntity
8
0
100
AcDbLine
62
0
6
CONTINUOUS
10
59.5562231587
20
30.0738843736
11
59.5562231587
21
30.4569065951
0
LINE
5
2F5
100
AcDbEntity
8
0
100
AcDbLine
62
9
6
CONTINUOUS
10
59.5855124806
20
16.8806636787
11
59.5855124806
21
16.4976414571
0
LINE
5
2F6
100
AcDbEntity
8
0
100
AcDbLine
62
9
6
CONTINUOUS
10
59.5855124806
20
30.1193363213
11
59.5855124806
21
30.5023585429
0
LINE
5
2F7
100
AcDbEntity
8
0
100
AcDbLine
62
9
6
CONTINUOUS
10
59.9989513712
20
17.3000000000
11
59.9989513712
21
16.9903943874
0
LINE
5
2F8
100
AcDbEntity
8
0
100
AcDbLine
62
9
6
CONTINUOUS
10
59.9989513712
20
29.7000000000
11
59.9989513712
21
30.0096056126
0
LINE
5
2F9
100
AcDbEntity
8
0
100
AcDbLine
62
3
6
CONTINUOUS
10
60.3989513712
20
17.3000000000
11
60.3989513712
21
16.9903943874
0
LINE
5
2FA
100
AcDbEntity
8
0
100
AcDbLine
62
3
6
CONTINUOUS
10
60.3989513712
20
29.7000000000
11
60.3989513712
21
30.0096056126
0
LINE
5
2FB
100
AcDbEntity
8
0
100
AcDbLine
62
0
6
CONTINUOUS
10
61.3989513712
20
15.7150076288
11
61.3989513712
21
15.3319854073
0
LINE
5
2FC
100
AcDbEntity
8
0
100
AcDbLine
62
0
6
CONTINUOUS
10
61.3989513712
20
31.2849923712
11
61.3989513712
21
31.6680145927
0
LINE
5
2FD
100
AcDbEntity
8
0
100
AcDbLine
62
9
6
CONTINUOUS
10
61.7801090515
20
31.2046227737
11
61.7801090515
21
30.9000000000
0
LINE
5
2FE
100
AcDbEntity
8
0
100
AcDbLine
62
9
6
CONTINUOUS
10
61.7801090515
20
16.1000000000
11
61.7801090515
21
15.7953772263
0
LINE
5
2FF
100
AcDbEntity
8
0
100
AcDbLine
62
3
6
CONTINUOUS
10
62.3562231587
20
17.3000000000
11
62.3562231587
21
16.1000000000
0
LINE
5
300
100
AcDbEntity
8
0
100
AcDbLine
62
3
6
CONTINUOUS
10
62.3562231587
20
29.7000000000
11
62.3562231587
21
30.9000000000
0
LINE
5
301
100
AcDbEntity
8
0
100
AcDbLine
62
0
6
CONTINUOUS
10
62.7260434184
20
46.0000000000
11
62.7260434184
21
45.9000000000
0
LINE
5
302
100
AcDbEntity
8
0
100
AcDbLine
62
0
6
CONTINUOUS
10
62.7260434184
20
1.0000000000
11
62.7260434184
21
1.1000000000
0
LINE
5
303
100
AcDbEntity
8
0
100
AcDbLine
62
9
6
CONTINUOUS
10
62.7307206108
20
18.2000000000
11
62.7307206108
21
18.0732825093
0
LINE
5
304
100
AcDbEntity
8
0
100
AcDbLine
62
9
6
CONTINUOUS
10
62.7307206108
20
28.8000000000
11
62.7307206108
21
28.9267174907
0
LINE
5
305
100
AcDbEntity
8
0
100
AcDbLine
62
9
6
CONTINUOUS
10
62.7597219055
20
29.3180145927
11
62.7597219055
21
28.9644612021
0
LINE
5
306
100
AcDbEntity
8
0
100
AcDbLine
62
9
6
CONTINUOUS
10
62.7597219055
20
17.6819854073
11
62.7597219055
21
18.0355387979
0
LINE
5
307
100
AcDbEntity
8
0
100
AcDbLine
62
9
6
CONTINUOUS
10
62.7917732026
20
29.6007833750
11
62.7917732026
21
29.1109078115
0
LINE
5
308
100
AcDbEntity
8
0
100
AcDbLine
62
9
6
CONTINUOUS
10
62.7917732026
20
17.3992166250
11
62.7917732026
21
17.8890921885
0
LINE
5
309
100
AcDbEntity
8
0
100
AcDbLine
62
0
6
CONTINUOUS
10
62.9562231587
20
30.9000000000
11
62.9562231587
21
28.8000000000
0
LINE
5
30A
100
AcDbEntity
8
0
100
AcDbLine
62
0
6
CONTINUOUS
10
62.9562231587
20
18.2000000000
11
62.9562231587
21
16.1000000000
0
LINE
5
30B
100
AcDbEntity
8
0
100
AcDbLine
62
9
6
CONTINUOUS
10
63.2562231587
20
31.2046227737
11
63.2562231587
21
28.5030018011
0
LINE
5
30C
100
AcDbEntity
8
0
100
AcDbLine
62
9
6
CONTINUOUS
10
63.2562231587
20
18.4969981989
11
63.2562231587
21
15.7953772263
0
LINE
5
30D
100
AcDbEntity
8
0
100
AcDbLine
62
3
6
CONTINUOUS
10
57.8568210099
20
33.0000000000
11
57.8582754007
21
33.0853633386
0
LINE
5
30E
100
AcDbEntity
8
0
100
AcDbLine
62
3
6
CONTINUOUS
10
60.6556253075
20
14.0000000000
11
60.6541709167
21
13.9146366614
0
LINE
5
30F
100
AcDbEntity
8
0
100
AcDbLine
62
3
6
CONTINUOUS
10
57.8568210128
20
14.0000000000
11
57.8589531966
21
14.1032035244
0
LINE
5
310
100
AcDbEntity
8
0
100
AcDbLine
62
3
6
CONTINUOUS
10
60.6556253046
20
33.0000000000
11
60.6534931208
21
32.8967964756
0
LINE
5
311
100
AcDbEntity
8
0
100
AcDbLine
62
3
6
CONTINUOUS
10
57.8582754007
20
33.0853633386
11
57.8666296207
21
33.2215958285
0
LINE
5
312
100
AcDbEntity
8
0
100
AcDbLine
62
3
6
CONTINUOUS
10
60.6541709167
20
13.9146366614
11
60.6458166967
21
13.7784041715
0
LINE
5
313
100
AcDbEntity
8
0
100
AcDbLine
62
3
6
CONTINUOUS
10
57.8589531966
20
14.1032035244
11
57.8705506610
21
14.2617869946
0
LINE
5
314
100
AcDbEntity
8
0
100
AcDbLine
62
3
6
CONTINUOUS
10
60.6534931208
20
32.8967964756
11
60.6418956564
21
32.7382130054
0
LINE
5
315
100
AcDbEntity
8
0
100
AcDbLine
62
3
6
CONTINUOUS
10
55.7527244119
20
18.0355387979
11
55.7649135842
21
18.2000000000
0
LINE
5
316
100
AcDbEntity
8
0
100
AcDbLine
62
0
6
CONTINUOUS
10
55.7527244119
20
17.6819854073
11
55.7817257066
21
18.0732825093
0
LINE
5
317
100
AcDbEntity
8
0
100
AcDbLine
62
3
6
CONTINUOUS
10
59.6600284606
20
35.5366454855
11
59.6800973991
21
35.7660345023
0
LINE
5
318
100
AcDbEntity
8
0
100
AcDbLine
62
3
6
CONTINUOUS
10
57.8666296207
20
33.2215958285
11
57.8823695499
21
33.3571370528
0
LINE
5
319
100
AcDbEntity
8
0
100
AcDbLine
62
9
6
CONTINUOUS
10
57.8568210128
20
14.0000000000
11
56.5619055589
21
14.0000000000
0
LINE
5
31A
100
AcDbEntity
8
0
100
AcDbLine
62
9
6
CONTINUOUS
10
60.6556253046
20
14.0000000000
11
61.9505407585
21
14.0000000000
0
LINE
5
31B
100
AcDbEntity
8
0
100
AcDbLine
62
0
6
CONTINUOUS
10
61.7185967124
20
15.3319854073
11
61.3989513712
21
15.3319854073
0
LINE
5
31C
100
AcDbEntity
8
0
100
AcDbLine
62
0
6
CONTINUOUS
10
56.7940197792
20
15.3319854073
11
57.1134949462
21
15.3319854073
0
LINE
5
31D
100
AcDbEntity
8
0
100
AcDbLine
62
3
6
CONTINUOUS
10
61.4944934526
20
15.7150076288
11
61.3989513712
21
15.7150076288
0
LINE
5
31E
100
AcDbEntity
8
0
100
AcDbLine
62
3
6
CONTINUOUS
10
57.0179166150
20
15.7150076288
11
57.1134949462
21
15.7150076288
0
LINE
5
31F
100
AcDbEntity
8
0
100
AcDbLine
62
9
6
CONTINUOUS
10
63.2562231587
20
15.7953772263
11
61.7796811919
21
15.7953772015
0
LINE
5
320
100
AcDbEntity
8
0
100
AcDbLine
62
9
6
CONTINUOUS
10
56.7326405932
20
15.7953772019
11
55.2562231587
21
15.7953772263
0
LINE
5
321
100
AcDbEntity
8
0
100
AcDbLine
62
0
6
CONTINUOUS
10
62.9562231587
20
16.1000000000
11
61.7801090515
21
16.1000000000
0
LINE
5
322
100
AcDbEntity
8
0
100
AcDbLine
62
0
6
CONTINUOUS
10
56.7323372659
20
16.1000000000
11
55.5562231587
21
16.1000000000
0
LINE
5
323
100
AcDbEntity
8
0
100
AcDbLine
62
3
6
CONTINUOUS
10
60.3989513712
20
16.9903943874
11
59.6562231587
21
16.9903943874
0
LINE
5
324
100
AcDbEntity
8
0
100
AcDbLine
62
3
6
CONTINUOUS
10
58.1134949462
20
16.9903943874
11
58.8562231587
21
16.9903943874
0
LINE
5
325
100
AcDbEntity
8
0
100
AcDbLine
62
9
6
CONTINUOUS
10
62.3562231587
20
17.0660444431
11
60.3989513712
21
17.0660444431
0
LINE
5
326
100
AcDbEntity
8
0
100
AcDbLine
62
9
6
CONTINUOUS
10
56.1562231587
20
17.0660444431
11
58.1134949462
21
17.0660444431
0
LINE
5
327
100
AcDbEntity
8
0
100
AcDbLine
62
3
6
CONTINUOUS
10
62.3562231587
20
17.3000000000
11
59.9989513712
21
17.3000000000
0
LINE
5
328
100
AcDbEntity
8
0
100
AcDbLine
62
3
6
CONTINUOUS
10
56.1562231587
20
17.3000000000
11
58.5134949462
21
17.3000000000
0
LINE
5
329
100
AcDbEntity
8
0
100
AcDbLine
62
0
6
CONTINUOUS
10
55.7255924952
20
17.3890921885
11
62.7868538222
21
17.3890921885
0
LINE
5
32A
100
AcDbEntity
8
0
100
AcDbLine
62
9
6
CONTINUOUS
10
62.7597219055
20
17.6819854073
11
55.7527244119
21
17.6819854073
0
LINE
5
32B
100
AcDbEntity
8
0
100
AcDbLine
62
9
6
CONTINUOUS
10
62.7917732026
20
17.8941544067
11
62.7868540748
21
17.8941544067
0
LINE
5
32C
100
AcDbEntity
8
0
100
AcDbLine
62
9
6
CONTINUOUS
10
55.7302252405
20
17.8941544067
11
55.7255922426
21
17.8941544067
0
LINE
5
32D
100
AcDbEntity
8
0
100
AcDbLine
62
0
6
CONTINUOUS
10
55.5562231587
20
18.2000000000
11
62.9562231587
21
18.2000000000
0
LINE
5
32E
100
AcDbEntity
8
0
100
AcDbLine
62
9
6
CONTINUOUS
10
55.2562231587
20
18.4969981989
11
63.2562231587
21
18.4969981989
0
LINE
5
32F
100
AcDbEntity
8
0
100
AcDbLine
62
0
6
CONTINUOUS
10
37.5000000000
20
18.8076470000
11
37.6800000000
21
18.8076470000
0
LINE
5
330
100
AcDbEntity
8
0
100
AcDbLine
62
0
6
CONTINUOUS
10
37.5000000000
20
19.1999911072
11
37.6800000000
21
19.1999910000
0
LINE
5
331
100
AcDbEntity
8
0
100
AcDbLine
62
0
6
CONTINUOUS
10
37.5000000000
20
19.4323870000
11
37.6800000000
21
19.4323870000
0
LINE
5
332
100
AcDbEntity
8
0
100
AcDbLine
62
0
6
CONTINUOUS
10
37.5000000000
20
19.5405580000
11
37.6000000000
21
19.5405580000
0
LINE
5
333
100
AcDbEntity
8
0
100
AcDbLine
62
0
6
CONTINUOUS
10
37.5000000000
20
19.9200000000
11
37.5800000000
21
19.9200000000
0
LINE
5
334
100
AcDbEntity
8
0
100
AcDbLine
62
0
6
CONTINUOUS
10
37.5000000000
20
19.9783839422
11
37.6800000000
21
19.9783839422
0
LINE
5
335
100
AcDbEntity
8
0
100
AcDbLine
62
0
6
CONTINUOUS
10
37.5000000000
20
20.2567888545
11
37.6800000000
21
20.2567888545
0
LINE
5
336
100
AcDbEntity
8
0
100
AcDbLine
62
0
6
CONTINUOUS
10
37.5000000000
20
20.5114154864
11
37.6800000000
21
20.5114154864
0
LINE
5
337
100
AcDbEntity
8
0
100
AcDbLine
62
0
6
CONTINUOUS
10
37.5000000000
20
21.4643548464
11
37.6800000000
21
21.4643548464
0
LINE
5
338
100
AcDbEntity
8
0
100
AcDbLine
62
0
6
CONTINUOUS
10
37.5000000000
20
21.6912602952
11
37.6800000000
21
21.6912602952
0
LINE
5
339
100
AcDbEntity
8
0
100
AcDbLine
62
0
6
CONTINUOUS
10
37.6800000000
20
21.7423659342
11
37.5000000000
21
21.7423659342
0
LINE
5
33A
100
AcDbEntity
8
0
100
AcDbLine
62
0
6
CONTINUOUS
10
37.5000000000
20
21.9270361385
11
37.6800000000
21
21.9270361385
0
LINE
5
33B
100
AcDbEntity
8
0
100
AcDbLine
62
0
6
CONTINUOUS
10
37.5000000000
20
22.1928831665
11
37.6800000000
21
22.1928831665
0
LINE
5
33C
100
AcDbEntity
8
0
100
AcDbLine
62
0
6
CONTINUOUS
10
37.5000000000
20
23.4357361504
11
37.6800000000
21
23.4357361504
0
LINE
5
33D
100
AcDbEntity
8
0
100
AcDbLine
62
0
6
CONTINUOUS
10
58.7444971120
20
35.6006410038
11
58.4142239585
21
35.6691859751
0
LINE
5
33E
100
AcDbEntity
8
0
100
AcDbLine
62
0
6
CONTINUOUS
10
79.3562231588
20
44.0000000000
11
78.4062231587
21
47.0000000000
0
LINE
5
33F
100
AcDbEntity
8
0
100
AcDbLine
62
0
6
CONTINUOUS
10
77.4562231586
20
44.0000000000
11
79.3562231588
21
44.0000000000
0
LINE
5
340
100
AcDbEntity
8
0
100
AcDbLine
62
0
6
CONTINUOUS
10
78.4062231587
20
47.0000000000
11
77.4562231586
21
44.0000000000
0
HATCH
5
341
100
AcDbEntity
8
0
100
AcDbHatch
62
0
6
CONTINUOUS
10
0.0
20
0.0
30
0.0
210
0.0
220
0.0
230
1.0
2

70
1
71
1
91
1
92
1
93
3
72
1
10
78.4062231587
20
47.0000000000
11
77.4562231586
21
44.0000000000
72
1
10
77.4562231586
20
44.0000000000
11
79.3562231588
21
44.0000000000
72
1
10
79.3562231588
20
44.0000000000
11
78.4062231587
21
47.0000000000
97
3
330
33E
330
33F
330
340
75
0
76
1
98
1
10
0.0
20
0.0
0
LINE
5
342
100
AcDbEntity
8
0
100
AcDbLine
62
0
6
CONTINUOUS
10
67.4062231587
20
55.9500000001
11
67.4062231587
21
54.0499999999
0
LINE
5
343
100
AcDbEntity
8
0
100
AcDbLine
62
0
6
CONTINUOUS
10
70.4062231587
20
55.0000000000
11
67.4062231587
21
55.9500000001
0
LINE
5
344
100
AcDbEntity
8
0
100
AcDbLine
62
0
6
CONTINUOUS
10
67.4062231587
20
54.0499999999
11
70.4062231587
21
55.0000000000
0
HATCH
5
345
100
AcDbEntity
8
0
100
AcDbHatch
62
0
6
CONTINUOUS
10
0.0
20
0.0
30
0.0
210
0.0
220
0.0
230
1.0
2

70
1
71
1
91
1
92
1
93
3
72
1
10
67.4062231587
20
54.0499999999
11
70.4062231587
21
55.0000000000
72
1
10
70.4062231587
20
55.0000000000
11
67.4062231587
21
55.9500000001
72
1
10
67.4062231587
20
55.9500000001
11
67.4062231587
21
54.0499999999
97
3
330
342
330
343
330
344
75
0
76
1
98
1
10
0.0
20
0.0
0
LINE
5
346
100
AcDbEntity
8
0
100
AcDbLine
62
9
6
CONTINUOUS
10
69.7567582212
20
44.5183142309
11
69.7567582212
21
2.4816857691
0
LINE
5
347
100
AcDbEntity
8
0
100
AcDbLine
62
0
6
CONTINUOUS
10
70.4062231587
20
45.3997711479
11
70.4062231587
21
1.6002288521
0
LINE
5
348
100
AcDbEntity
8
0
100
AcDbLine
62
0
6
CONTINUOUS
10
70.4062231587
20
45.8997711479
11
70.4062231587
21
56.5000000000
0
LINE
5
349
100
AcDbEntity
8
0
100
AcDbLine
62
0
6
CONTINUOUS
10
62.7597219055
20
29.3180145927
11
62.7307206108
21
28.9267174907
0
LINE
5
34A
100
AcDbEntity
8
0
100
AcDbLine
62
3
6
CONTINUOUS
10
62.7597219055
20
28.9644612021
11
62.7475327332
21
28.8000000000
0
LINE
5
34B
100
AcDbEntity
8
0
100
AcDbLine
62
3
6
CONTINUOUS
10
58.8524178568
20
11.4633545145
11
58.8323489183
21
11.2339654977
0
LINE
5
34C
100
AcDbEntity
8
0
100
AcDbLine
62
3
6
CONTINUOUS
10
60.6458166967
20
13.7784041715
11
60.6300767675
21
13.6428629472
0
LINE
5
34D
100
AcDbEntity
8
0
100
AcDbLine
62
3
6
CONTINUOUS
10
57.8705506610
20
14.2617869946
11
57.8921750297
21
14.4193613451
0
LINE
5
34E
100
AcDbEntity
8
0
100
AcDbLine
62
3
6
CONTINUOUS
10
60.6418956564
20
32.7382130054
11
60.6202712877
21
32.5806386549
0
LINE
5
34F
100
AcDbEntity
8
0
100
AcDbLine
62
3
6
CONTINUOUS
10
57.8823695499
20
33.3571370528
11
57.9054587906
21
33.4915848504
0
LINE
5
350
100
AcDbEntity
8
0
100
AcDbLine
62
3
6
CONTINUOUS
10
60.6202712877
20
32.5806386549
11
60.5886811640
21
32.4247118687
0
LINE
5
351
100
AcDbEntity
8
0
100
AcDbLine
62
0
6
CONTINUOUS
10
55.8713508816
20
45.9000000000
11
55.8881627252
21
45.9780932327
0
LINE
5
352
100
AcDbEntity
8
0
100
AcDbLine
62
0
6
CONTINUOUS
10
62.6713508816
20
45.9000000000
11
62.6928787950
21
46.0000000000
0
LINE
5
353
100
AcDbEntity
8
0
100
AcDbLine
62
3
6
CONTINUOUS
10
57.9054587906
20
33.4915848504
11
57.9358449408
21
33.6245396657
0
LINE
5
354
100
AcDbEntity
8
0
100
AcDbLine
62
0
6
CONTINUOUS
10
58.7444971120
20
11.3993589962
11
58.4146444557
21
11.3308872565
0
LINE
5
355
100
AcDbEntity
8
0
100
AcDbLine
62
0
6
CONTINUOUS
10
58.7748003794
20
11.3551586979
11
58.4709869394
21
11.3138903123
0
LINE
5
356
100
AcDbEntity
8
0
100
AcDbLine
62
0
6
CONTINUOUS
10
37.5000000000
20
23.6474602202
11
37.6800000000
21
23.6474602202
0
LINE
5
357
100
AcDbEntity
8
0
100
AcDbLine
62
0
6
CONTINUOUS
10
37.5000000000
20
23.9070926098
11
37.6800000000
21
23.9070926098
0
LINE
5
358
100
AcDbEntity
8
0
100
AcDbLine
62
0
6
CONTINUOUS
10
37.5000000000
20
24.9457555704
11
37.6800000000
21
24.9457555704
0
LINE
5
359
100
AcDbEntity
8
0
100
AcDbLine
62
0
6
CONTINUOUS
10
37.5000000000
20
25.1953605634
11
37.6800000000
21
25.1953605634
0
LINE
5
35A
100
AcDbEntity
8
0
100
AcDbLine
62
0
6
CONTINUOUS
10
37.5000000000
20
25.3496053552
11
37.6800000000
21
25.3496050000
0
LINE
5
35B
100
AcDbEntity
8
0
100
AcDbLine
62
0
6
CONTINUOUS
10
37.5000000000
20
25.3680726120
11
37.6800000000
21
25.3680730000
0
LINE
5
35C
100
AcDbEntity
8
0
100
AcDbLine
62
0
6
CONTINUOUS
10
37.5000000000
20
25.5003740428
11
37.6800000000
21
25.5003740428
0
LINE
5
35D
100
AcDbEntity
8
0
100
AcDbLine
62
0
6
CONTINUOUS
10
37.5000000000
20
26.7432111455
11
37.6800000000
21
26.7432111455
0
LINE
5
35E
100
AcDbEntity
8
0
100
AcDbLine
62
0
6
CONTINUOUS
10
37.5000000000
20
27.1047832162
11
37.6800000000
21
27.1047832162
0
LINE
5
35F
100
AcDbEntity
8
0
100
AcDbLine
62
0
6
CONTINUOUS
10
37.5000000000
20
27.1889550000
11
37.6000000000
21
27.1889550000
0
LINE
5
360
100
AcDbEntity
8
0
100
AcDbLine
62
0
6
CONTINUOUS
10
37.5000000000
20
27.3481649460
11
37.6800000000
21
27.3481650000
0
LINE
5
361
100
AcDbEntity
8
0
100
AcDbLine
62
9
6
CONTINUOUS
10
37.5000000000
20
27.5857464975
11
37.6800000000
21
27.5857464975
0
LINE
5
362
100
AcDbEntity
8
0
100
AcDbLine
62
9
6
CONTINUOUS
10
37.5000000000
20
27.9904338029
11
37.6800000000
21
27.9904338029
0
LINE
5
363
100
AcDbEntity
8
0
100
AcDbLine
62
0
6
CONTINUOUS
10
37.5000000000
20
28.1579038647
11
37.6800000000
21
28.1579040000
0
LINE
5
364
100
AcDbEntity
8
0
100
AcDbLine
62
0
6
CONTINUOUS
10
37.5000000000
20
28.2261987280
11
37.6800000000
21
28.2261990000
0
LINE
5
365
100
AcDbEntity
8
0
100
AcDbLine
62
9
6
CONTINUOUS
10
63.2562231587
20
28.5030018011
11
55.2562231587
21
28.5030018011
0
LINE
5
366
100
AcDbEntity
8
0
100
AcDbLine
62
0
6
CONTINUOUS
10
62.9562231587
20
28.8000000000
11
55.5562231587
21
28.8000000000
0
LINE
5
367
100
AcDbEntity
8
0
100
AcDbLine
62
9
6
CONTINUOUS
10
55.7206731148
20
29.1058455933
11
55.7255922426
21
29.1058455933
0
LINE
5
368
100
AcDbEntity
8
0
100
AcDbLine
62
9
6
CONTINUOUS
10
62.7822210769
20
29.1058455933
11
62.7868540748
21
29.1058455933
0
LINE
5
369
100
AcDbEntity
8
0
100
AcDbLine
62
9
6
CONTINUOUS
10
55.7527244119
20
29.3180145927
11
62.7597219055
21
29.3180145927
0
LINE
5
36A
100
AcDbEntity
8
0
100
AcDbLine
62
0
6
CONTINUOUS
10
62.7868538222
20
29.6109078115
11
55.7255924952
21
29.6109078115
0
LINE
5
36B
100
AcDbEntity
8
0
100
AcDbLine
62
3
6
CONTINUOUS
10
62.3562231587
20
29.7000000000
11
59.9989513712
21
29.7000000000
0
LINE
5
36C
100
AcDbEntity
8
0
100
AcDbLine
62
3
6
CONTINUOUS
10
56.1562231587
20
29.7000000000
11
58.5134949462
21
29.7000000000
0
LINE
5
36D
100
AcDbEntity
8
0
100
AcDbLine
62
9
6
CONTINUOUS
10
62.3562231587
20
29.9339555569
11
60.3989513712
21
29.9339555569
0
LINE
5
36E
100
AcDbEntity
8
0
100
AcDbLine
62
9
6
CONTINUOUS
10
56.1562231587
20
29.9339555569
11
58.1134949462
21
29.9339555569
0
LINE
5
36F
100
AcDbEntity
8
0
100
AcDbLine
62
3
6
CONTINUOUS
10
60.3989513712
20
30.0096056126
11
59.6562231587
21
30.0096056126
0
LINE
5
370
100
AcDbEntity
8
0
100
AcDbLine
62
3
6
CONTINUOUS
10
58.1134949462
20
30.0096056126
11
58.8562231587
21
30.0096056126
0
LINE
5
371
100
AcDbEntity
8
0
100
AcDbLine
62
0
6
CONTINUOUS
10
55.5562231587
20
30.9000000000
11
56.7323372659
21
30.9000000000
0
LINE
5
372
100
AcDbEntity
8
0
100
AcDbLine
62
0
6
CONTINUOUS
10
61.7801090515
20
30.9000000000
11
62.9562231587
21
30.9000000000
0
LINE
5
373
100
AcDbEntity
8
0
100
AcDbLine
62
9
6
CONTINUOUS
10
55.2562231587
20
31.2046227737
11
56.7327651257
21
31.2046227982
0
LINE
5
374
100
AcDbEntity
8
0
100
AcDbLine
62
9
6
CONTINUOUS
10
61.7798057241
20
31.2046227980
11
63.2562231587
21
31.2046227737
0
LINE
5
375
100
AcDbEntity
8
0
100
AcDbLine
62
3
6
CONTINUOUS
10
61.4945297024
20
31.2849923712
11
61.3989513712
21
31.2849923712
0
LINE
5
376
100
AcDbEntity
8
0
100
AcDbLine
62
3
6
CONTINUOUS
10
57.0179528648
20
31.2849923712
11
57.1134949462
21
31.2849923712
0
LINE
5
377
100
AcDbEntity
8
0
100
AcDbLine
62
0
6
CONTINUOUS
10
61.7184265382
20
31.6680145927
11
61.3989513712
21
31.6680145927
0
LINE
5
378
100
AcDbEntity
8
0
100
AcDbLine
62
0
6
CONTINUOUS
10
56.7938496050
20
31.6680145927
11
57.1134949462
21
31.6680145927
0
LINE
5
379
100
AcDbEntity
8
0
100
AcDbLine
62
9
6
CONTINUOUS
10
57.8568210128
20
33.0000000000
11
56.5619055589
21
33.0000000000
0
LINE
5
37A
100
AcDbEntity
8
0
100
AcDbLine
62
9
6
CONTINUOUS
10
60.6556253046
20
33.0000000000
11
61.9505407585
21
33.0000000000
0
LINE
5
37B
100
AcDbEntity
8
0
100
AcDbLine
62
0
6
CONTINUOUS
10
58.7748003794
20
35.6448413021
11
58.4674437482
21
35.6865911413
0
LINE
5
37C
100
AcDbEntity
8
0
100
AcDbLine
62
0
6
CONTINUOUS
10
78.4062231587
20
-0.0000000000
11
78.4062231587
21
47.0000000000
0
LINE
5
37D
100
AcDbEntity
8
0
100
AcDbLine
62
3
6
CONTINUOUS
10
60.6300767675
20
13.6428629472
11
60.6069875268
21
13.5084151496
0
LINE
5
37E
100
AcDbEntity
8
0
100
AcDbLine
62
3
6
CONTINUOUS
10
57.8921750297
20
14.4193613451
11
57.9237651534
21
14.5752881313
0
LINE
5
37F
100
AcDbEntity
8
0
100
AcDbLine
62
0
6
CONTINUOUS
10
55.8410954358
20
1.1000000000
11
55.8195675224
21
1.0000000000
0
LINE
5
380
100
AcDbEntity
8
0
100
AcDbLine
62
0
6
CONTINUOUS
10
62.6410954358
20
1.1000000000
11
62.6242835922
21
1.0219067673
0
LINE
5
381
100
AcDbEntity
8
0
100
AcDbLine
62
3
6
CONTINUOUS
10
60.6069875268
20
13.5084151496
11
60.5766013766
21
13.3754603343
0
LINE
5
382
100
AcDbEntity
8
0
100
AcDbLine
62
3
6
CONTINUOUS
10
60.5886811640
20
32.4247118687
11
60.5472045825
21
32.2710699758
0
LINE
5
383
100
AcDbEntity
8
0
100
AcDbLine
62
3
6
CONTINUOUS
10
57.9237651534
20
14.5752881313
11
57.9652417349
21
14.7289300242
0
LINE
5
384
100
AcDbEntity
8
0
100
AcDbLine
62
3
6
CONTINUOUS
10
57.9358449408
20
33.6245396657
11
57.9734240868
21
33.7556098417
0
LINE
5
385
100
AcDbEntity
8
0
100
AcDbLine
62
9
6
CONTINUOUS
10
48.2475011944
20
2.0244076302
11
48.1062231587
21
1.6002288521
0
LINE
5
386
100
AcDbEntity
8
0
100
AcDbLine
62
9
6
CONTINUOUS
10
48.7474250420
20
1.5250928628
11
48.6058425590
21
1.1000000000
0
LINE
5
387
100
AcDbEntity
8
0
100
AcDbLine
62
3
6
CONTINUOUS
10
57.9734240868
20
33.7556098417
11
58.0180794959
21
33.8844020805
0
LINE
5
388
100
AcDbEntity
8
0
100
AcDbLine
62
0
6
CONTINUOUS
10
55.5562231587
20
29.1553975461
11
55.7206731148
21
29.6007833750
0
LINE
5
389
100
AcDbEntity
8
0
100
AcDbLine
62
0
6
CONTINUOUS
10
37.7456369652
20
32.7542876092
11
39.2543631698
21
32.7806225230
0
LINE
5
38A
100
AcDbEntity
8
0
100
AcDbLine
62
9
6
CONTINUOUS
10
39.5000000000
20
35.5000000000
11
37.5000000000
21
35.5000000000
0
LINE
5
38B
100
AcDbEntity
8
0
100
AcDbLine
62
9
6
CONTINUOUS
10
39.5000000000
20
37.6000000000
11
37.5000000000
21
37.6000000000
0
LINE
5
38C
100
AcDbEntity
8
0
100
AcDbLine
62
9
6
CONTINUOUS
10
37.5000000000
20
39.4519762322
11
37.0087262032
21
39.4519762322
0
LINE
5
38D
100
AcDbEntity
8
0
100
AcDbLine
62
0
6
CONTINUOUS
10
37.7456369054
20
40.3457123919
11
39.2543631089
21
40.3193774780
0
LINE
5
38E
100
AcDbEntity
8
0
100
AcDbLine
62
0
6
CONTINUOUS
10
19.6827752835
20
42.8950641391
11
37.0087262032
21
42.5926385408
0
LINE
5
38F
100
AcDbEntity
8
0
100
AcDbLine
62
0
6
CONTINUOUS
10
13.6965095187
20
44.6965699136
11
17.4708547979
21
44.6306884717
0
LINE
5
390
100
AcDbEntity
8
0
100
AcDbLine
62
9
6
CONTINUOUS
10
13.6965095433
20
44.5738952232
11
17.4709632489
21
44.5077167158
0
LINE
5
391
100
AcDbEntity
8
0
100
AcDbLine
62
9
6
CONTINUOUS
10
0.9327966979
20
44.4972959167
11
0.4419648841
21
44.5183142302
0
LINE
5
392
100
AcDbEntity
8
0
100
AcDbLine
62
3
6
CONTINUOUS
10
60.5766013766
20
13.3754603343
11
60.5390222306
21
13.2443901583
0
LINE
5
393
100
AcDbEntity
8
0
100
AcDbLine
62
9
6
CONTINUOUS
10
69.9066037584
20
45.9000000000
11
69.7650212754
21
45.4749071372
0
LINE
5
394
100
AcDbEntity
8
0
100
AcDbLine
62
9
6
CONTINUOUS
10
70.4062231587
20
45.3997711479
11
70.2649451230
21
44.9755923698
0
LINE
5
395
100
AcDbEntity
8
0
100
AcDbLine
62
3
6
CONTINUOUS
10
60.5472045825
20
32.2710699758
11
60.4960201122
21
32.1203318439
0
LINE
5
396
100
AcDbEntity
8
0
100
AcDbLine
62
3
6
CONTINUOUS
10
57.9652417349
20
14.7289300242
11
58.0164262052
21
14.8796681561
0
LINE
5
397
100
AcDbEntity
8
0
100
AcDbLine
62
3
6
CONTINUOUS
10
60.5390222306
20
13.2443901583
11
60.4943668215
21
13.1155979195
0
LINE
5
398
100
AcDbEntity
8
0
100
AcDbLine
62
3
6
CONTINUOUS
10
55.6077456458
20
28.8000000000
11
55.7206731148
21
29.1058455933
0
LINE
5
399
100
AcDbEntity
8
0
100
AcDbLine
62
3
6
CONTINUOUS
10
58.0180794959
20
33.8844020805
11
58.0696925735
21
34.0105302911
0
LINE
5
39A
100
AcDbEntity
8
0
100
AcDbLine
62
3
6
CONTINUOUS
10
60.4960201122
20
32.1203318439
11
60.4353426033
21
31.9731123995
0
LINE
5
39B
100
AcDbEntity
8
0
100
AcDbLine
62
3
6
CONTINUOUS
10
58.0696925735
20
34.0105302911
11
58.1281100278
21
34.1336291190
0
LINE
5
39C
100
AcDbEntity
8
0
100
AcDbLine
62
0
6
CONTINUOUS
10
59.7376459380
20
35.6448413021
11
60.0414593780
21
35.6861096877
0
LINE
5
39D
100
AcDbEntity
8
0
100
AcDbLine
62
9
6
CONTINUOUS
10
9.5000000000
20
45.3997711479
11
1.4061867550
21
44.9755923698
0
LINE
5
39E
100
AcDbEntity
8
0
100
AcDbLine
62
0
6
CONTINUOUS
10
9.5000000000
20
45.9000000000
11
1.3887449755
21
45.4749071370
0
LINE
5
39F
100
AcDbEntity
8
0
100
AcDbLine
62
9
6
CONTINUOUS
10
48.7556880962
20
44.5183142309
11
69.7567582212
21
44.5183142309
0
LINE
5
3A0
100
AcDbEntity
8
0
100
AcDbLine
62
9
6
CONTINUOUS
10
48.7474250420
20
45.4749071372
11
69.7650212754
21
45.4749071372
0
LINE
5
3A1
100
AcDbEntity
8
0
100
AcDbLine
62
0
6
CONTINUOUS
10
15.6494954839
20
45.7000000000
11
15.1000000000
21
45.7000000000
0
LINE
5
3A2
100
AcDbEntity
8
0
100
AcDbLine
62
0
6
CONTINUOUS
10
48.6058425590
20
45.9000000000
11
55.9562231587
21
45.9000000000
0
LINE
5
3A3
100
AcDbEntity
8
0
100
AcDbLine
62
0
6
CONTINUOUS
10
62.5562231587
20
45.9000000000
11
69.9066037584
21
45.9000000000
0
LINE
5
3A4
100
AcDbEntity
8
0
100
AcDbLine
62
0
6
CONTINUOUS
10
55.7864028990
20
46.0000000000
11
62.7260434184
21
46.0000000000
0
LINE
5
3A5
100
AcDbEntity
8
0
100
AcDbLine
62
0
6
CONTINUOUS
10
62.9310806369
20
47.0000000000
11
55.5813656805
21
47.0000000000
0
LINE
5
3A6
100
AcDbEntity
8
0
100
AcDbLine
62
0
6
CONTINUOUS
10
63.4310806369
20
47.0000000000
11
79.9062231587
21
47.0000000000
0
LINE
5
3A7
100
AcDbEntity
8
0
100
AcDbLine
62
0
6
CONTINUOUS
10
13.5000000000
20
46.9301797403
11
9.5000000000
21
47.0000000000
0
LINE
5
3A8
100
AcDbEntity
8
0
100
AcDbLine
62
9
6
CONTINUOUS
10
13.5000000000
20
46.7631073618
11
9.5000000000
21
46.8333596575
0
LINE
5
3A9
100
AcDbEntity
8
0
100
AcDbLine
62
3
6
CONTINUOUS
10
62.9047006716
20
18.2000000000
11
62.7917732026
21
17.8941544067
0
LINE
5
3AA
100
AcDbEntity
8
0
100
AcDbLine
62
0
6
CONTINUOUS
10
62.9562231587
20
17.8446024539
11
62.7917732026
21
17.3992166250
0
LINE
5
3AB
100
AcDbEntity
8
0
100
AcDbLine
62
3
6
CONTINUOUS
10
60.4943668215
20
13.1155979195
11
60.4427537439
21
12.9894697089
0
LINE
5
3AC
100
AcDbEntity
8
0
100
AcDbLine
62
3
6
CONTINUOUS
10
58.0164262052
20
14.8796681561
11
58.0771037141
21
15.0268876005
0
LINE
5
3AD
100
AcDbEntity
8
0
100
AcDbLine
62
3
6
CONTINUOUS
10
60.4427537439
20
12.9894697089
11
60.3843362896
21
12.8663708810
0
LINE
5
3AE
100
AcDbEntity
8
0
100
AcDbLine
62
3
6
CONTINUOUS
10
60.4353426033
20
31.9731123995
11
60.3653865830
21
31.8300209560
0
LINE
5
3AF
100
AcDbEntity
8
0
100
AcDbLine
62
3
6
CONTINUOUS
10
58.0771037141
20
15.0268876005
11
58.1470597344
21
15.1699790440
0
LINE
5
3B0
100
AcDbEntity
8
0
100
AcDbLine
62
3
6
CONTINUOUS
10
58.1281100278
20
34.1336291190
11
58.1931409198
21
34.2533402722
0
LINE
5
3B1
100
AcDbEntity
8
0
100
AcDbLine
62
3
6
CONTINUOUS
10
60.3653865830
20
31.8300209560
11
60.2863993487
21
31.6916458153
0
LINE
5
3B2
100
AcDbEntity
8
0
100
AcDbLine
62
0
6
CONTINUOUS
10
55.9562231587
20
45.9000000000
11
56.0228559563
21
46.0000000000
0
LINE
5
3B3
100
AcDbEntity
8
0
100
AcDbLine
62
0
6
CONTINUOUS
10
59.7679492054
20
35.6006410038
11
60.0978018617
21
35.6691127435
0
LINE
5
3B4
100
AcDbEntity
8
0
100
AcDbLine
62
0
6
CONTINUOUS
10
9.5000000000
20
55.0000000000
11
39.5000000000
21
55.0000000000
0
LINE
5
3B5
100
AcDbEntity
8
0
100
AcDbLine
62
0
6
CONTINUOUS
10
48.1062231587
20
55.0000000000
11
70.4062231587
21
55.0000000000
0
LINE
5
3B6
100
AcDbEntity
8
0
100
AcDbLine
62
3
6
CONTINUOUS
10
60.3843362896
20
12.8663708810
11
60.3193053976
21
12.7466597278
0
LINE
5
3B7
100
AcDbEntity
8
0
100
AcDbLine
62
3
6
CONTINUOUS
10
58.1470597344
20
15.1699790440
11
58.2260469687
21
15.3083541847
0
LINE
5
3B8
100
AcDbEntity
8
0
100
AcDbLine
62
3
6
CONTINUOUS
10
58.1931409198
20
34.2533402722
11
58.2645896720
21
34.3693036312
0
LINE
5
3B9
100
AcDbEntity
8
0
100
AcDbLine
62
3
6
CONTINUOUS
10
60.2863993487
20
31.6916458153
11
60.1987214389
21
31.5585368429
0
LINE
5
3BA
100
AcDbEntity
8
0
100
AcDbLine
62
3
6
CONTINUOUS
10
58.2645896720
20
34.3693036312
11
58.3422525513
21
34.4811717917
0
LINE
5
3BB
100
AcDbEntity
8
0
100
AcDbLine
62
0
6
CONTINUOUS
10
58.9130740781
20
30.9585982451
11
58.6959221632
21
30.6508499844
0
LINE
5
3BC
100
AcDbEntity
8
0
100
AcDbLine
62
0
6
CONTINUOUS
10
0.0000000000
20
65.0000000000
11
39.5000000000
21
65.0000000000
0
LINE
5
3BD
100
AcDbEntity
8
0
100
AcDbLine
62
3
6
CONTINUOUS
10
60.3193053976
20
12.7466597278
11
60.2478566454
21
12.6306963688
0
LINE
5
3BE
100
AcDbEntity
8
0
100
AcDbLine
62
3
6
CONTINUOUS
10
58.2260469687
20
15.3083541847
11
58.3137248785
21
15.4414631571
0
LINE
5
3BF
100
AcDbEntity
8
0
100
AcDbLine
62
3
6
CONTINUOUS
10
60.2478566454
20
12.6306963688
11
60.1701937661
21
12.5188282083
0
LINE
5
3C0
100
AcDbEntity
8
0
100
AcDbLine
62
0
6
CONTINUOUS
10
59.5993722393
20
16.0414017549
11
59.8165241542
21
16.3491500156
0
LINE
5
3C1
100
AcDbEntity
8
0
100
AcDbLine
62
3
6
CONTINUOUS
10
60.1987214389
20
31.5585368429
11
60.1027129142
21
31.4312416468
0
LINE
5
3C2
100
AcDbEntity
8
0
100
AcDbLine
62
3
6
CONTINUOUS
10
58.3422525513
20
34.4811717917
11
58.4258812589
21
34.5886256142
0
LINE
5
3C3
100
AcDbEntity
8
0
100
AcDbLine
62
3
6
CONTINUOUS
10
60.1027129142
20
31.4312416468
11
60.0345918497
21
31.3502582436
0
LINE
5
3C4
100
AcDbEntity
8
0
100
AcDbLine
62
0
6
CONTINUOUS
10
60.4666589413
20
35.2637555003
11
60.6219344147
21
35.4441070928
0
LINE
5
3C5
100
AcDbEntity
8
0
100
AcDbLine
62
3
6
CONTINUOUS
10
58.4258812589
20
34.5886256142
11
58.5152152640
21
34.6913532900
0
LINE
5
3C6
100
AcDbEntity
8
0
100
AcDbLine
62
0
6
CONTINUOUS
10
19.2000172211
20
3.9000172212
11
17.1439294983
21
1.8439294983
0
LINE
5
3C7
100
AcDbEntity
8
0
100
AcDbLine
62
0
6
CONTINUOUS
10
62.4895903611
20
1.0000000000
11
62.5562231587
21
1.1000000000
0
LINE
5
3C8
100
AcDbEntity
8
0
100
AcDbLine
62
3
6
CONTINUOUS
10
58.3137248785
20
15.4414631571
11
58.4097334032
21
15.5687583532
0
LINE
5
3C9
100
AcDbEntity
8
0
100
AcDbLine
62
3
6
CONTINUOUS
10
60.1701937661
20
12.5188282083
11
60.0865650585
21
12.4113743858
0
LINE
5
3CA
100
AcDbEntity
8
0
100
AcDbLine
62
3
6
CONTINUOUS
10
58.4097334032
20
15.5687583532
11
58.4778544677
21
15.6497417564
0
LINE
5
3CB
100
AcDbEntity
8
0
100
AcDbLine
62
3
6
CONTINUOUS
10
60.0345939972
20
31.3502606893
11
60.0329335016
21
31.3483470047
0
LINE
5
3CC
100
AcDbEntity
8
0
100
AcDbLine
62
3
6
CONTINUOUS
10
58.4778523202
20
15.6497393107
11
58.4795128158
21
15.6516529953
0
LINE
5
3CD
100
AcDbEntity
8
0
100
AcDbLine
62
0
6
CONTINUOUS
10
60.4666589413
20
35.2637555003
11
60.6263360748
21
35.4418014253
0
LINE
5
3CE
100
AcDbEntity
8
0
100
AcDbLine
62
3
6
CONTINUOUS
10
58.5152152640
20
34.6913532900
11
58.5705088617
21
34.7496355416
0
LINE
5
3CF
100
AcDbEntity
8
0
100
AcDbLine
62
0
6
CONTINUOUS
10
60.6775702077
20
35.2003183187
11
60.8059988217
21
35.3308945104
0
LINE
5
3D0
100
AcDbEntity
8
0
100
AcDbLine
62
3
6
CONTINUOUS
10
60.4666589413
20
35.2637555003
11
59.9420731939
21
34.7497685373
0
LINE
5
3D1
100
AcDbEntity
8
0
100
AcDbLine
62
0
6
CONTINUOUS
10
58.0457873761
20
11.7362444997
11
57.8905119027
21
11.5558929072
0
LINE
5
3D2
100
AcDbEntity
8
0
100
AcDbLine
62
3
6
CONTINUOUS
10
60.0865650585
20
12.4113743858
11
59.9972310534
21
12.3086467100
0
LINE
5
3D3
100
AcDbEntity
8
0
100
AcDbLine
62
0
6
CONTINUOUS
10
58.0457873761
20
11.7362444997
11
57.8861102426
21
11.5581985747
0
LINE
5
3D4
100
AcDbEntity
8
0
100
AcDbLine
62
3
6
CONTINUOUS
10
59.9972310534
20
12.3086467100
11
59.9419374557
21
12.2503644584
0
LINE
5
3D5
100
AcDbEntity
8
0
100
AcDbLine
62
0
6
CONTINUOUS
10
57.8348761097
20
11.7996816813
11
57.7064474957
21
11.6691054896
0
LINE
5
3D6
100
AcDbEntity
8
0
100
AcDbLine
62
3
6
CONTINUOUS
10
58.5702036353
20
12.2500653988
11
58.0457873761
21
11.7362444997
0
LINE
5
3D7
100
AcDbEntity
8
0
100
AcDbLine
62
9
6
CONTINUOUS
10
59.7679492054
20
35.6006410038
11
59.7459565259
21
35.5853263269
0
LINE
5
3D8
100
AcDbEntity
8
0
100
AcDbLine
62
0
6
CONTINUOUS
10
59.5855124806
20
30.5023585429
11
61.3989513712
21
31.6680145927
0
LINE
5
3D9
100
AcDbEntity
8
0
100
AcDbLine
62
3
6
CONTINUOUS
10
59.5855124806
20
30.1193363213
11
61.3989513712
21
31.2849923712
0
LINE
5
3DA
100
AcDbEntity
8
0
100
AcDbLine
62
0
6
CONTINUOUS
10
58.0437175020
20
31.5582457745
11
57.7117522086
21
31.3585624117
0
LINE
5
3DB
100
AcDbEntity
8
0
100
AcDbLine
62
9
6
CONTINUOUS
10
58.7444971120
20
11.3993589962
11
58.7664897915
21
11.4146736731
0
LINE
5
3DC
100
AcDbEntity
8
0
100
AcDbLine
62
3
6
CONTINUOUS
10
58.9269338368
20
16.8806636787
11
57.1134949462
21
15.7150076288
0
LINE
5
3DD
100
AcDbEntity
8
0
100
AcDbLine
62
0
6
CONTINUOUS
10
58.9269338368
20
16.4976414571
11
57.1134949462
21
15.3319854073
0
LINE
5
3DE
100
AcDbEntity
8
0
100
AcDbLine
62
0
6
CONTINUOUS
10
60.4687288154
20
15.4417542255
11
60.8006941088
21
15.6414375883
0
LINE
5
3DF
100
AcDbEntity
8
0
100
AcDbLine
62
0
6
CONTINUOUS
10
61.7420485071
20
31.7229185144
11
61.6066101069
21
31.6680029544
0
LINE
5
3E0
100
AcDbEntity
8
0
100
AcDbLine
62
0
6
CONTINUOUS
10
57.1423676328
20
31.8432919477
11
56.7703978936
21
31.7229182683
0
LINE
5
3E1
100
AcDbEntity
8
0
100
AcDbLine
62
3
6
CONTINUOUS
10
58.0605388335
20
35.2681835414
11
58.0457873761
21
35.2637555003
0
LINE
5
3E2
100
AcDbEntity
8
0
100
AcDbLine
62
0
6
CONTINUOUS
10
56.7703978103
20
15.2770814856
11
56.9058362105
21
15.3319970456
0
LINE
5
3E3
100
AcDbEntity
8
0
100
AcDbLine
62
0
6
CONTINUOUS
10
17.1439294983
20
1.8439294983
11
15.6494954839
21
1.3000000000
0
LINE
5
3E4
100
AcDbEntity
8
0
100
AcDbLine
62
0
6
CONTINUOUS
10
61.3700786846
20
15.1567080523
11
61.7420484238
21
15.2770817317
0
LINE
5
3E5
100
AcDbEntity
8
0
100
AcDbLine
62
3
6
CONTINUOUS
10
60.4519074839
20
11.7318164586
11
60.4666589413
21
11.7362444997
0
ARC
5
3E6
100
AcDbEntity
8
0
100
AcDbCircle
62
0
6
CONTINUOUS
10
70.5062231587
20
23.5000000000
40
28.0000000000
100
AcDbArc
50
125.9627651514
51
126.8614108051
0
ARC
5
3E7
100
AcDbEntity
8
0
100
AcDbCircle
62
0
6
CONTINUOUS
10
70.5062231587
20
23.5000000000
40
28.0000000000
100
AcDbArc
50
123.5572123136
51
124.1210936517
0
ARC
5
3E8
100
AcDbEntity
8
0
100
AcDbCircle
62
0
6
CONTINUOUS
10
48.0062231587
20
23.5000000000
40
28.0000000000
100
AcDbArc
50
55.8789063483
51
56.4427876864
0
ARC
5
3E9
100
AcDbEntity
8
0
100
AcDbCircle
62
0
6
CONTINUOUS
10
48.0062231587
20
23.5000000000
40
28.0000000000
100
AcDbArc
50
53.1385891949
51
54.0372348486
0
ARC
5
3EA
100
AcDbEntity
8
0
100
AcDbCircle
62
0
6
CONTINUOUS
10
48.0062231587
20
23.5000000000
40
28.0000000000
100
AcDbArc
50
305.9627651514
51
306.8614108051
0
ARC
5
3EB
100
AcDbEntity
8
0
100
AcDbCircle
62
0
6
CONTINUOUS
10
48.0062231587
20
23.5000000000
40
28.0000000000
100
AcDbArc
50
303.5572123136
51
304.1210936517
0
ARC
5
3EC
100
AcDbEntity
8
0
100
AcDbCircle
62
0
6
CONTINUOUS
10
70.5062231587
20
23.5000000000
40
28.0000000000
100
AcDbArc
50
235.8789063483
51
236.4427876864
0
ARC
5
3ED
100
AcDbEntity
8
0
100
AcDbCircle
62
0
6
CONTINUOUS
10
70.5062231587
20
23.5000000000
40
28.0000000000
100
AcDbArc
50
233.1385891949
51
234.0372348486
0
ARC
5
3EE
100
AcDbEntity
8
0
100
AcDbCircle
62
0
6
CONTINUOUS
10
54.3062231587
20
0.4000000000
40
0.5000000000
100
AcDbArc
50
350.8037184210
51
119.1124227760
0
ARC
5
3EF
100
AcDbEntity
8
0
100
AcDbCircle
62
0
6
CONTINUOUS
10
64.2062231587
20
0.4000000000
40
0.5000000000
100
AcDbArc
50
60.8875772240
51
189.1962815790
0
ARC
5
3F0
100
AcDbEntity
8
0
100
AcDbCircle
62
0
6
CONTINUOUS
10
54.3062231587
20
46.6000000000
40
0.5000000000
100
AcDbArc
50
240.8875772240
51
9.1962815790
0
ARC
5
3F1
100
AcDbEntity
8
0
100
AcDbCircle
62
0
6
CONTINUOUS
10
64.2062231587
20
46.6000000000
40
0.5000000000
100
AcDbArc
50
170.8037184210
51
299.1124227760
0
ARC
5
3F2
100
AcDbEntity
8
0
100
AcDbCircle
62
0
6
CONTINUOUS
10
61.7801090515
20
31.2000000000
40
0.3000000000
100
AcDbArc
50
144.5040673497
51
270.0000000000
0
ARC
5
3F3
100
AcDbEntity
8
0
100
AcDbCircle
62
0
6
CONTINUOUS
10
56.7323372659
20
31.2000000000
40
0.3000000000
100
AcDbArc
50
270.0000000000
51
35.4959326503
0
ARC
5
3F4
100
AcDbEntity
8
0
100
AcDbCircle
62
0
6
CONTINUOUS
10
56.7323372659
20
15.8000000000
40
0.3000000000
100
AcDbArc
50
324.5040673497
51
90.0000000000
0
ARC
5
3F5
100
AcDbEntity
8
0
100
AcDbCircle
62
0
6
CONTINUOUS
10
61.7801090515
20
15.8000000000
40
0.3000000000
100
AcDbArc
50
90.0000000000
51
215.4959326503
0
ARC
5
3F6
100
AcDbEntity
8
0
100
AcDbCircle
62
0
6
CONTINUOUS
10
59.2562231587
20
33.0000000000
40
2.8000000000
100
AcDbArc
50
324.5040673497
51
215.4959326503
0
ARC
5
3F7
100
AcDbEntity
8
0
100
AcDbCircle
62
0
6
CONTINUOUS
10
59.2562231587
20
14.0000000000
40
2.8000000000
100
AcDbArc
50
144.5040673497
51
35.4959326503
0
ARC
5
3F8
100
AcDbEntity
8
0
100
AcDbCircle
62
0
6
CONTINUOUS
10
1.4410809363
20
44.4762776025
40
1.0000000000
100
AcDbArc
50
93.0000000000
51
177.5907686986
0
ARC
5
3F9
100
AcDbEntity
8
0
100
AcDbCircle
62
0
6
CONTINUOUS
10
500.0000000000
20
23.5000000000
40
500.0000000000
100
AcDbArc
50
177.5907686986
51
182.4092313014
0
ARC
5
3FA
100
AcDbEntity
8
0
100
AcDbCircle
62
0
6
CONTINUOUS
10
1.4410809363
20
2.5237223975
40
1.0000000000
100
AcDbArc
50
182.4092313014
51
267.0000000000
0
ARC
5
3FB
100
AcDbEntity
8
0
100
AcDbCircle
62
0
6
CONTINUOUS
10
39.2500000000
20
6.9305844456
40
0.2500000000
100
AcDbArc
50
271.0000156289
51
360.0000000000
0
ARC
5
3FC
100
AcDbEntity
8
0
100
AcDbCircle
62
0
6
CONTINUOUS
10
39.2500000000
20
13.9694155544
40
0.2500000000
100
AcDbArc
50
0.0000000000
51
88.9999983288
0
ARC
5
3FD
100
AcDbEntity
8
0
100
AcDbCircle
62
0
6
CONTINUOUS
10
39.2500000000
20
33.0305844456
40
0.2500000000
100
AcDbArc
50
271.0000156289
51
360.0000000000
0
ARC
5
3FE
100
AcDbEntity
8
0
100
AcDbCircle
62
0
6
CONTINUOUS
10
39.2500000000
20
40.0694155544
40
0.2500000000
100
AcDbArc
50
0.0000000000
51
88.9999983288
0
ARC
5
3FF
100
AcDbEntity
8
0
100
AcDbCircle
62
0
6
CONTINUOUS
10
37.7500000000
20
6.4043256842
40
0.2500000000
100
AcDbArc
50
90.9999846865
51
179.9991412671
0
ARC
5
400
100
AcDbEntity
8
0
100
AcDbCircle
62
0
6
CONTINUOUS
10
37.7500000000
20
14.4956743158
40
0.2500000000
100
AcDbArc
50
180.0000870885
51
269.0000016026
0
ARC
5
401
100
AcDbEntity
8
0
100
AcDbCircle
62
0
6
CONTINUOUS
10
37.7500000000
20
32.5043256842
40
0.2500000000
100
AcDbArc
50
90.9999846865
51
179.9991412671
0
ARC
5
402
100
AcDbEntity
8
0
100
AcDbCircle
62
0
6
CONTINUOUS
10
37.7500000000
20
40.5956743158
40
0.2500000000
100
AcDbArc
50
180.0000870885
51
269.0000016026
0
ARC
5
403
100
AcDbEntity
8
0
100
AcDbCircle
62
0
6
CONTINUOUS
10
13.7000000000
20
2.1034605474
40
0.2000000000
100
AcDbArc
50
91.0000000000
51
180.0000000000
0
ARC
5
404
100
AcDbEntity
8
0
100
AcDbCircle
62
0
6
CONTINUOUS
10
13.7000000000
20
44.8965394526
40
0.2000000000
100
AcDbArc
50
180.0000000000
51
269.0000000000
0
ARC
5
405
100
AcDbEntity
8
0
100
AcDbCircle
62
0
6
CONTINUOUS
10
17.4621285947
20
2.8692353759
40
0.5000000000
100
AcDbArc
50
271.0000000000
51
315.0000000000
0
ARC
5
406
100
AcDbEntity
8
0
100
AcDbCircle
62
0
6
CONTINUOUS
10
17.4621285947
20
44.1307646241
40
0.5000000000
100
AcDbArc
50
45.0000000000
51
89.0000000000
0
ARC
5
407
100
AcDbEntity
8
0
100
AcDbCircle
62
0
6
CONTINUOUS
10
19.6949919680
20
3.4050424743
40
0.7000000000
100
AcDbArc
50
91.0000000000
51
135.0000000000
0
ARC
5
408
100
AcDbEntity
8
0
100
AcDbCircle
62
0
6
CONTINUOUS
10
19.6949919680
20
43.5949575257
40
0.7000000000
100
AcDbArc
50
225.0000000000
51
269.0000000000
0
ARC
5
409
100
AcDbEntity
8
0
100
AcDbCircle
62
0
6
CONTINUOUS
10
37.0000000000
20
42.0927146932
40
0.5000000000
100
AcDbArc
50
0.0000000000
51
89.0000000000
0
ARC
5
40A
100
AcDbEntity
8
0
100
AcDbCircle
62
0
6
CONTINUOUS
10
37.0000000000
20
4.9072853068
40
0.5000000000
100
AcDbArc
50
271.0000000000
51
360.0000000000
0
ARC
5
40B
100
AcDbEntity
8
0
100
AcDbCircle
62
3
6
CONTINUOUS
10
57.8562231587
20
35.4494897428
40
1.0000000000
100
AcDbArc
50
315.5846914028
51
5.0000000000
0
ARC
5
40C
100
AcDbEntity
8
0
100
AcDbCircle
62
3
6
CONTINUOUS
10
58.5134949462
20
30.3927282125
40
0.6927282125
100
AcDbArc
50
270.0000000000
51
54.7728482201
0
ARC
5
40D
100
AcDbEntity
8
0
100
AcDbCircle
62
3
6
CONTINUOUS
10
59.9989513712
20
30.3927282125
40
0.6927282125
100
AcDbArc
50
125.2452847198
51
270.0000000000
0
ARC
5
40E
100
AcDbEntity
8
0
100
AcDbCircle
62
3
6
CONTINUOUS
10
60.6562231587
20
35.4494897428
40
1.0000000000
100
AcDbArc
50
175.0000000000
51
224.4153085972
0
ARC
5
40F
100
AcDbEntity
8
0
100
AcDbCircle
62
3
6
CONTINUOUS
10
60.6562231587
20
11.5505102572
40
1.0000000000
100
AcDbArc
50
135.5846914028
51
185.0000000000
0
ARC
5
410
100
AcDbEntity
8
0
100
AcDbCircle
62
3
6
CONTINUOUS
10
59.9989513712
20
16.6072717875
40
0.6927282125
100
AcDbArc
50
90.0000000000
51
234.7728482201
0
ARC
5
411
100
AcDbEntity
8
0
100
AcDbCircle
62
3
6
CONTINUOUS
10
58.5134949462
20
16.6072717875
40
0.6927282125
100
AcDbArc
50
305.2452847198
51
90.0000000000
0
ARC
5
412
100
AcDbEntity
8
0
100
AcDbCircle
62
3
6
CONTINUOUS
10
57.8562231587
20
11.5505102572
40
1.0000000000
100
AcDbArc
50
355.0000000000
51
44.4153085972
0
SPLINE
5
413
100
AcDbEntity
8
0
100
AcDbSpline
62
9
6
CONTINUOUS
70
0
71
3
72
17
73
13
74
11
42
0.0000001000
43
0.0000001000
44
0.0000000001
12
0.2954536244
22
0.3779692977
32
0.0000000000
13
0.3471463027
23
0.3311193172
33
0.0000000000
40
0.0000000000
40
0.0000000000
40
0.0000000000
40
0.0000000000
40
0.0593956870
40
0.1239084880
40
0.1944013692
40
0.2720581500
40
0.3589339200
40
0.4576772688
40
0.5693375074
40
0.6948981920
40
0.8363624401
40
1.0000000000
40
1.0000000000
40
1.0000000000
40
1.0000000000
10
58.1545610067
20
30.9988302508
30
0.0000000000
10
58.1604105637
20
31.0063134995
30
0.0000000000
10
58.1727072179
20
31.0218514888
30
0.0000000000
10
58.1922936820
20
31.0459936834
30
0.0000000000
10
58.2140601216
20
31.0721242829
30
0.0000000000
10
58.2385337261
20
31.1006495378
30
0.0000000000
10
58.2664761477
20
31.1321444475
30
0.0000000000
10
58.2986815406
20
31.1671162327
30
0.0000000000
10
58.3357575450
20
31.2060004732
30
0.0000000000
10
58.3781938122
20
31.2492054055
30
0.0000000000
10
58.4272785941
20
31.2975132701
30
0.0000000000
10
58.4620863468
20
31.3317053862
30
0.0000000000
10
58.4810217381
20
31.3497665719
30
0.0000000000
11
58.1545610067
21
30.9988302508
31
0.0000000000
11
58.1722424709
21
31.0211753140
31
0.0000000000
11
58.1917404767
21
31.0452105322
31
0.0000000000
11
58.2133865758
21
31.0711936266
31
0.0000000000
11
58.2376471113
21
31.0994667012
31
0.0000000000
11
58.2653060586
21
31.1306439495
31
0.0000000000
11
58.2973759626
21
31.1655086376
31
0.0000000000
11
58.3343131538
21
31.2043050690
31
0.0000000000
11
58.3765245665
21
31.2472775241
31
0.0000000000
11
58.4247586468
21
31.2950192999
31
0.0000000000
11
58.4810217381
21
31.3497665719
31
0.0000000000
0
SPLINE
5
414
100
AcDbEntity
8
0
100
AcDbSpline
62
9
6
CONTINUOUS
70
0
71
3
72
15
73
11
74
9
42
0.0000001000
43
0.0000001000
44
0.0000000001
12
0.4927941109
22
0.1710861659
32
0.0000000000
13
0.4073638890
23
0.3258391849
33
0.0000000000
40
0.0000000000
40
0.0000000000
40
0.0000000000
40
0.0000000000
40
0.0998424198
40
0.2064987179
40
0.3204115156
40
0.4406607723
40
0.5653786801
40
0.6973604135
40
0.8399457152
40
1.0000000000
40
1.0000000000
40
1.0000000000
40
1.0000000000
10
58.0299735160
20
31.0942401319
30
0.0000000000
10
58.0463741015
20
31.0999340175
30
0.0000000000
10
58.0801464450
20
31.1121437963
30
0.0000000000
10
58.1320165441
20
31.1324918039
30
0.0000000000
10
58.1865869633
20
31.1556444831
30
0.0000000000
10
58.2425165002
20
31.1834486447
30
0.0000000000
10
58.2989002622
20
31.2169621812
30
0.0000000000
10
58.3566494674
20
31.2555500728
30
0.0000000000
10
58.4175271861
20
31.3003504757
30
0.0000000000
10
58.4592882928
20
31.3323825860
30
0.0000000000
10
58.4810217381
20
31.3497665719
30
0.0000000000
11
58.0299735160
21
31.0942401319
31
0.0000000000
11
58.0789518406
21
31.1119522624
31
0.0000000000
11
58.1307505323
21
31.1322592776
31
0.0000000000
11
58.1853357091
21
31.1557428143
31
0.0000000000
11
58.2414502536
21
31.1837772756
31
0.0000000000
11
58.2975139374
21
31.2167850782
31
0.0000000000
11
58.3548265058
21
31.2549336753
31
0.0000000000
11
58.4149404872
21
31.2987354169
31
0.0000000000
11
58.4810217381
21
31.3497665719
31
0.0000000000
0
SPLINE
5
415
100
AcDbEntity
8
0
100
AcDbSpline
62
9
6
CONTINUOUS
70
0
71
3
72
17
73
13
74
11
42
0.0000001000
43
0.0000001000
44
0.0000000001
12
-0.2954536244
22
-0.3779692977
32
0.0000000000
13
-0.3471463027
23
-0.3311193172
33
0.0000000000
40
0.0000000000
40
0.0000000000
40
0.0000000000
40
0.0000000000
40
0.0593956870
40
0.1239084880
40
0.1944013692
40
0.2720581500
40
0.3589339200
40
0.4576772688
40
0.5693375074
40
0.6948981920
40
0.8363624401
40
1.0000000000
40
1.0000000000
40
1.0000000000
40
1.0000000000
10
60.3578853107
20
16.0011697492
30
0.0000000000
10
60.3520357537
20
15.9936865005
30
0.0000000000
10
60.3397390995
20
15.9781485112
30
0.0000000000
10
60.3201526354
20
15.9540063166
30
0.0000000000
10
60.2983861958
20
15.9278757171
30
0.0000000000
10
60.2739125913
20
15.8993504622
30
0.0000000000
10
60.2459701697
20
15.8678555525
30
0.0000000000
10
60.2137647768
20
15.8328837673
30
0.0000000000
10
60.1766887724
20
15.7939995268
30
0.0000000000
10
60.1342525052
20
15.7507945945
30
0.0000000000
10
60.0851677233
20
15.7024867299
30
0.0000000000
10
60.0503599706
20
15.6682946138
30
0.0000000000
10
60.0314245793
20
15.6502334281
30
0.0000000000
11
60.3578853107
21
16.0011697492
31
0.0000000000
11
60.3402038465
21
15.9788246860
31
0.0000000000
11
60.3207058407
21
15.9547894678
31
0.0000000000
11
60.2990597416
21
15.9288063734
31
0.0000000000
11
60.2747992061
21
15.9005332988
31
0.0000000000
11
60.2471402588
21
15.8693560505
31
0.0000000000
11
60.2150703548
21
15.8344913624
31
0.0000000000
11
60.1781331636
21
15.7956949310
31
0.0000000000
11
60.1359217509
21
15.7527224759
31
0.0000000000
11
60.0876876706
21
15.7049807001
31
0.0000000000
11
60.0314245793
21
15.6502334281
31
0.0000000000
0
SPLINE
5
416
100
AcDbEntity
8
0
100
AcDbSpline
62
9
6
CONTINUOUS
70
0
71
3
72
15
73
11
74
9
42
0.0000001000
43
0.0000001000
44
0.0000000001
12
-0.4927941109
22
-0.1710861659
32
0.0000000000
13
-0.4073638890
23
-0.3258391849
33
0.0000000000
40
0.0000000000
40
0.0000000000
40
0.0000000000
40
0.0000000000
40
0.0998424198
40
0.2064987179
40
0.3204115156
40
0.4406607723
40
0.5653786801
40
0.6973604135
40
0.8399457152
40
1.0000000000
40
1.0000000000
40
1.0000000000
40
1.0000000000
10
60.4824728014
20
15.9057598681
30
0.0000000000
10
60.4660722159
20
15.9000659825
30
0.0000000000
10
60.4322998724
20
15.8878562037
30
0.0000000000
10
60.3804297733
20
15.8675081961
30
0.0000000000
10
60.3258593541
20
15.8443555169
30
0.0000000000
10
60.2699298172
20
15.8165513553
30
0.0000000000
10
60.2135460552
20
15.7830378188
30
0.0000000000
10
60.1557968500
20
15.7444499272
30
0.0000000000
10
60.0949191313
20
15.6996495243
30
0.0000000000
10
60.0531580246
20
15.6676174140
30
0.0000000000
10
60.0314245793
20
15.6502334281
30
0.0000000000
11
60.4824728014
21
15.9057598681
31
0.0000000000
11
60.4334944768
21
15.8880477376
31
0.0000000000
11
60.3816957851
21
15.8677407224
31
0.0000000000
11
60.3271106083
21
15.8442571857
31
0.0000000000
11
60.2709960638
21
15.8162227244
31
0.0000000000
11
60.2149323800
21
15.7832149218
31
0.0000000000
11
60.1576198116
21
15.7450663247
31
0.0000000000
11
60.0975058302
21
15.7012645831
31
0.0000000000
11
60.0314245793
21
15.6502334281
31
0.0000000000
0
SPLINE
5
417
100
AcDbEntity
8
0
100
AcDbSpline
62
9
6
CONTINUOUS
70
0
71
3
72
13
73
9
74
7
42
0.0000001000
43
0.0000001000
44
0.0000000001
12
0.1577378040
22
-0.9435858999
32
0.0000000000
13
0.0003490206
23
-0.9566793827
33
0.0000000000
40
0.0000000000
40
0.0000000000
40
0.0000000000
40
0.0000000000
40
0.0448208408
40
0.1498261432
40
0.3086281187
40
0.5117190361
40
0.7469352638
40
1.0000000000
40
1.0000000000
40
1.0000000000
40
1.0000000000
10
48.7474250420
20
45.4749071372
30
0.0000000000
10
48.7497816890
20
45.4608096994
30
0.0000000000
10
48.7489935940
20
45.4127248768
30
0.0000000000
10
48.7525314983
20
45.3145848799
30
0.0000000000
10
48.7531323386
20
45.1655686219
30
0.0000000000
10
48.7547220763
20
44.9752101535
30
0.0000000000
10
48.7554079051
20
44.7547198844
30
0.0000000000
10
48.7556586546
20
44.5990148361
30
0.0000000000
10
48.7556880962
20
44.5183142309
30
0.0000000000
11
48.7474250420
21
45.4749071372
31
0.0000000000
11
48.7495343996
21
45.4320798743
31
0.0000000000
11
48.7514894738
21
45.3316424864
31
0.0000000000
11
48.7531711952
21
45.1797292088
31
0.0000000000
11
48.7544793561
21
44.9854407064
31
0.0000000000
11
48.7553359873
21
44.7604158065
31
0.0000000000
11
48.7556880962
21
44.5183142309
31
0.0000000000
0
SPLINE
5
418
100
AcDbEntity
8
0
100
AcDbSpline
62
9
6
CONTINUOUS
70
0
71
3
72
13
73
9
74
7
42
0.0000001000
43
0.0000001000
44
0.0000000001
12
0.1518283431
22
-0.4537411928
32
0.0000000000
13
0.0003498852
23
-0.4784692208
33
0.0000000000
40
0.0000000000
40
0.0000000000
40
0.0000000000
40
0.0000000000
40
0.0448720941
40
0.1499620513
40
0.3088769427
40
0.5121305404
40
0.7475203519
40
1.0000000000
40
1.0000000000
40
1.0000000000
40
1.0000000000
10
48.2475011944
20
44.9755923698
30
0.0000000000
10
48.2497721463
20
44.9688055973
30
0.0000000000
10
48.2491587109
20
44.9443203345
30
0.0000000000
10
48.2525566712
20
44.8955798760
30
0.0000000000
10
48.2532300069
20
44.8208239670
30
0.0000000000
10
48.2547930295
20
44.7256234781
30
0.0000000000
10
48.2554870262
20
44.6153658418
30
0.0000000000
10
48.2557348023
20
44.5375638302
30
0.0000000000
10
48.2557642486
20
44.4972959167
30
0.0000000000
11
48.2475011944
21
44.9755923698
31
0.0000000000
11
48.2496076699
21
44.9542260342
31
0.0000000000
11
48.2515646273
21
44.9039818070
31
0.0000000000
11
48.2532480212
21
44.8279645393
31
0.0000000000
11
48.2545571959
21
44.7307227351
31
0.0000000000
11
48.2554135013
21
44.6180991804
31
0.0000000000
11
48.2557642486
21
44.4972959167
31
0.0000000000
0
SPLINE
5
419
100
AcDbEntity
8
0
100
AcDbSpline
62
9
6
CONTINUOUS
70
0
71
3
72
12
73
8
74
6
42
0.0000001000
43
0.0000001000
44
0.0000000001
12
-0.7813571090
22
-0.0007128045
32
0.0000000000
13
-0.0007145502
23
-0.7813571080
33
0.0000000000
40
0.0000000000
40
0.0000000000
40
0.0000000000
40
0.0000000000
40
0.2000879484
40
0.4001761228
40
0.6002085985
40
0.8001502331
40
1.0000000000
40
1.0000000000
40
1.0000000000
40
1.0000000000
10
48.7474250420
20
45.4749071372
30
0.0000000000
10
48.6953116617
20
45.4748595960
30
0.0000000000
10
48.5903690153
20
45.4582167171
30
0.0000000000
10
48.4489016570
20
45.3860919029
30
0.0000000000
10
48.3364544815
20
45.2737938411
30
0.0000000000
10
48.2642201242
20
45.1324882152
30
0.0000000000
10
48.2475487953
20
45.0276437151
30
0.0000000000
10
48.2475011944
20
44.9755923698
30
0.0000000000
11
48.7474250420
21
45.4749071372
31
0.0000000000
11
48.5930246566
21
45.4503555395
31
0.0000000000
11
48.4537217794
21
45.3793835478
31
0.0000000000
11
48.3431367233
21
45.2689315022
31
0.0000000000
11
48.2720811597
21
45.1297997904
31
0.0000000000
11
48.2475011944
21
44.9755923698
31
0.0000000000
0
SPLINE
5
41A
100
AcDbEntity
8
0
100
AcDbSpline
62
9
6
CONTINUOUS
70
0
71
3
72
10
73
6
74
4
42
0.0000001000
43
0.0000001000
44
0.0000000001
12
0.0308408130
22
-41.9945838571
32
0.0000000000
13
-0.0308408105
23
-41.9945838575
33
0.0000000000
40
0.0000000000
40
0.0000000000
40
0.0000000000
40
0.0000000000
40
0.3332892101
40
0.6667109287
40
1.0000000000
40
1.0000000000
40
1.0000000000
40
1.0000000000
10
48.2557642486
20
44.4972959167
30
0.0000000000
10
48.2591905520
20
39.8318486893
30
0.0000000000
10
48.2637565952
20
30.4990975058
30
0.0000000000
10
48.2637565941
20
16.5008986083
30
0.0000000000
10
48.2591905503
20
7.1681493678
30
0.0000000000
10
48.2557642486
20
2.5027040833
30
0.0000000000
11
48.2557642486
21
44.4972959167
31
0.0000000000
11
48.2626146304
21
30.5009521351
31
0.0000000000
11
48.2626146291
21
16.4990420360
31
0.0000000000
11
48.2557642486
21
2.5027040833
31
0.0000000000
0
SPLINE
5
41B
100
AcDbEntity
8
0
100
AcDbSpline
62
9
6
CONTINUOUS
70
0
71
3
72
12
73
8
74
6
42
0.0000001000
43
0.0000001000
44
0.0000000001
12
-0.5010580615
22
-0.0003673197
32
0.0000000000
13
-0.1919553173
23
-0.4628309326
33
0.0000000000
40
0.0000000000
40
0.0000000000
40
0.0000000000
40
0.0000000000
40
0.3050607102
40
0.5809725745
40
0.8013959844
40
0.9453902239
40
1.0000000000
40
1.0000000000
40
1.0000000000
40
1.0000000000
10
48.7556880962
20
44.5183142305
30
0.0000000000
10
48.7047370535
20
44.5182768789
30
0.0000000000
10
48.6072017055
20
44.5180276728
30
0.0000000000
10
48.4753171533
20
44.5135856071
30
0.0000000000
10
48.3634208527
20
44.5137704023
30
0.0000000000
10
48.3034334817
20
44.5005048015
30
0.0000000000
10
48.2592584609
20
44.5057209479
30
0.0000000000
10
48.2557642486
20
44.4972959167
30
0.0000000000
11
48.7556880962
21
44.5183142305
31
0.0000000000
11
48.6028390176
21
44.5171959986
31
0.0000000000
11
48.4646241835
21
44.5141724692
31
0.0000000000
11
48.3542767105
21
44.5095331264
31
0.0000000000
11
48.2823616072
21
44.5037221554
31
0.0000000000
11
48.2557642486
21
44.4972959167
31
0.0000000000
0
SPLINE
5
41C
100
AcDbEntity
8
0
100
AcDbSpline
62
9
6
CONTINUOUS
70
0
71
3
72
13
73
9
74
7
42
0.0000001000
43
0.0000001000
44
0.0000000001
12
-0.0003490206
22
-0.9566793827
32
0.0000000000
13
-0.1577378174
23
-0.9435858932
33
0.0000000000
40
0.0000000000
40
0.0000000000
40
0.0000000000
40
0.0000000000
40
0.2530647362
40
0.4882809639
40
0.6913718813
40
0.8501738568
40
0.9551791592
40
1.0000000000
40
1.0000000000
40
1.0000000000
40
1.0000000000
10
48.7556880962
20
2.4816857691
30
0.0000000000
10
48.7556586546
20
2.4009851639
30
0.0000000000
10
48.7554079050
20
2.2452801156
30
0.0000000000
10
48.7547220764
20
2.0247898465
30
0.0000000000
10
48.7531323385
20
1.8344313781
30
0.0000000000
10
48.7525314984
20
1.6854151200
30
0.0000000000
10
48.7489935937
20
1.5872751232
30
0.0000000000
10
48.7497816892
20
1.5391903005
30
0.0000000000
10
48.7474250420
20
1.5250928628
30
0.0000000000
11
48.7556880962
21
2.4816857691
31
0.0000000000
11
48.7553359872
21
2.2395841935
31
0.0000000000
11
48.7544793562
21
2.0145592936
31
0.0000000000
11
48.7531711952
21
1.8202707912
31
0.0000000000
11
48.7514894738
21
1.6683575136
31
0.0000000000
11
48.7495343996
21
1.5679201256
31
0.0000000000
11
48.7474250420
21
1.5250928628
31
0.0000000000
0
SPLINE
5
41D
100
AcDbEntity
8
0
100
AcDbSpline
62
9
6
CONTINUOUS
70
0
71
3
72
13
73
9
74
7
42
0.0000001000
43
0.0000001000
44
0.0000000001
12
-0.0003498852
22
-0.4784692210
32
0.0000000000
13
-0.1518282379
23
-0.4537412313
33
0.0000000000
40
0.0000000000
40
0.0000000000
40
0.0000000000
40
0.0000000000
40
0.2524796480
40
0.4878694598
40
0.6911230573
40
0.8500379483
40
0.9551279064
40
1.0000000000
40
1.0000000000
40
1.0000000000
40
1.0000000000
10
48.2557642486
20
2.5027040833
30
0.0000000000
10
48.2557348023
20
2.4624361698
30
0.0000000000
10
48.2554870262
20
2.3846341582
30
0.0000000000
10
48.2547930294
20
2.2743765219
30
0.0000000000
10
48.2532300073
20
2.1791760329
30
0.0000000000
10
48.2525566702
20
2.1044201243
30
0.0000000000
10
48.2491587127
20
2.0556796649
30
0.0000000000
10
48.2497721447
20
2.0311944032
30
0.0000000000
10
48.2475011944
20
2.0244076302
30
0.0000000000
11
48.2557642486
21
2.5027040833
31
0.0000000000
11
48.2554135012
21
2.3819008196
31
0.0000000000
11
48.2545571959
21
2.2692772648
31
0.0000000000
11
48.2532480212
21
2.1720354607
31
0.0000000000
11
48.2515646273
21
2.0960181932
31
0.0000000000
11
48.2496076700
21
2.0457739655
31
0.0000000000
11
48.2475011944
21
2.0244076302
31
0.0000000000
0
SPLINE
5
41E
100
AcDbEntity
8
0
100
AcDbSpline
62
9
6
CONTINUOUS
70
0
71
3
72
12
73
8
74
6
42
0.0000001000
43
0.0000001000
44
0.0000000001
12
-0.5010578737
22
0.0003674017
32
0.0000000000
13
-0.1921898295
23
0.4627334010
33
0.0000000000
40
0.0000000000
40
0.0000000000
40
0.0000000000
40
0.0000000000
40
0.3050562610
40
0.5809650378
40
0.8013878226
40
0.9453845855
40
1.0000000000
40
1.0000000000
40
1.0000000000
40
1.0000000000
10
48.7556880961
20
2.4816867123
30
0.0000000000
10
48.7047378156
20
2.4817240717
30
0.0000000000
10
48.6072041939
20
2.4819733824
30
0.0000000000
10
48.4753193918
20
2.4864148720
30
0.0000000000
10
48.3634275585
20
2.4862310370
30
0.0000000000
10
48.3034309227
20
2.4994944970
30
0.0000000000
10
48.2592630911
20
2.4942799578
30
0.0000000000
10
48.2557642487
20
2.5027040833
30
0.0000000000
11
48.7556880961
21
2.4816867123
31
0.0000000000
11
48.6028413036
21
2.4828049124
31
0.0000000000
11
48.4646280654
21
2.4858283043
31
0.0000000000
11
48.3542809376
21
2.4904674251
31
0.0000000000
11
48.2823645708
21
2.4962781238
31
0.0000000000
11
48.2557642487
21
2.5027040833
31
0.0000000000
0
SPLINE
5
41F
100
AcDbEntity
8
0
100
AcDbSpline
62
9
6
CONTINUOUS
70
0
71
3
72
12
73
8
74
6
42
0.0000001000
43
0.0000001000
44
0.0000000001
12
-0.7813571067
22
0.0007128135
32
0.0000000000
13
-0.0007145527
23
0.7813571042
33
0.0000000000
40
0.0000000000
40
0.0000000000
40
0.0000000000
40
0.0000000000
40
0.2000850064
40
0.4001713425
40
0.6002035309
40
0.8001467217
40
1.0000000000
40
1.0000000000
40
1.0000000000
40
1.0000000000
10
48.7474250420
20
1.5250928628
30
0.0000000000
10
48.6953124281
20
1.5251404039
30
0.0000000000
10
48.5903710587
20
1.5417828329
30
0.0000000000
10
48.4489044943
20
1.6139061505
30
0.0000000000
10
48.3364565563
20
1.7262032234
30
0.0000000000
10
48.2642206400
20
1.8675095132
30
0.0000000000
10
48.2475487963
20
1.9723553706
30
0.0000000000
10
48.2475011944
20
2.0244076302
30
0.0000000000
11
48.7474250420
21
1.5250928628
31
0.0000000000
11
48.5930268704
21
1.5496437422
31
0.0000000000
11
48.4537248409
21
1.6206142324
31
0.0000000000
11
48.3431390838
21
1.7310652579
31
0.0000000000
11
48.2720820215
21
1.8701975692
31
0.0000000000
11
48.2475011944
21
2.0244076302
31
0.0000000000
0
SPLINE
5
420
100
AcDbEntity
8
0
100
AcDbSpline
62
9
6
CONTINUOUS
70
0
71
3
72
13
73
9
74
7
42
0.0000001000
43
0.0000001000
44
0.0000000001
12
-0.1517233721
22
-0.4537763498
32
0.0000000000
13
-0.0003487214
23
-0.4784692665
33
0.0000000000
40
0.0000000000
40
0.0000000000
40
0.0000000000
40
0.0000000000
40
0.0447511791
40
0.1496617630
40
0.3084069250
40
0.5114254892
40
0.7467904150
40
1.0000000000
40
1.0000000000
40
1.0000000000
40
1.0000000000
10
70.2649451230
20
44.9755923698
30
0.0000000000
10
70.2626818564
20
44.9688233609
30
0.0000000000
10
70.2632858216
20
44.9443888060
30
0.0000000000
10
70.2598957914
20
44.8957214402
30
0.0000000000
10
70.2592193592
20
44.8210594969
30
0.0000000000
10
70.2576564798
20
44.7259272635
30
0.0000000000
10
70.2569601935
20
44.6155947072
30
0.0000000000
10
70.2567115020
20
44.5376802515
30
0.0000000000
10
70.2566820688
20
44.4972959167
30
0.0000000000
11
70.2649451230
21
44.9755923698
31
0.0000000000
11
70.2628419575
21
44.9542838407
31
0.0000000000
11
70.2608858976
21
44.9041254636
31
0.0000000000
11
70.2592021813
21
44.8281894262
31
0.0000000000
11
70.2578925625
21
44.7310600855
31
0.0000000000
11
70.2570345987
21
44.6184484404
31
0.0000000000
11
70.2566820688
21
44.4972959167
31
0.0000000000
0
SPLINE
5
421
100
AcDbEntity
8
0
100
AcDbSpline
62
9
6
CONTINUOUS
70
0
71
3
72
13
73
9
74
7
42
0.0000001000
43
0.0000001000
44
0.0000000001
12
-0.1577707675
22
-0.9435803728
32
0.0000000000
13
-0.0003449115
23
-0.9566793726
33
0.0000000000
40
0.0000000000
40
0.0000000000
40
0.0000000000
40
0.0000000000
40
0.0448247981
40
0.1498254833
40
0.3086663044
40
0.5117002731
40
0.7469689740
40
1.0000000000
40
1.0000000000
40
1.0000000000
40
1.0000000000
10
69.7650212754
20
45.4749071372
30
0.0000000000
10
69.7626639278
20
45.4608085373
30
0.0000000000
10
69.7634535271
20
45.4127237243
30
0.0000000000
10
69.7599147372
20
45.3145717156
30
0.0000000000
10
69.7593142654
20
45.1655626178
30
0.0000000000
10
69.7577244114
20
44.9751932123
30
0.0000000000
10
69.7570384071
20
44.7547151132
30
0.0000000000
10
69.7567873123
20
44.5990040853
30
0.0000000000
10
69.7567582212
20
44.5183142309
30
0.0000000000
11
69.7650212754
21
45.4749071372
31
0.0000000000
11
69.7629119660
21
45.4320760821
31
0.0000000000
11
69.7609573365
21
45.3316431047
31
0.0000000000
11
69.7592751481
21
45.1796926690
31
0.0000000000
11
69.7579673126
21
44.9854586496
31
0.0000000000
11
69.7571102241
21
44.7603835538
31
0.0000000000
11
69.7567582212
21
44.5183142309
31
0.0000000000
0
SPLINE
5
422
100
AcDbEntity
8
0
100
AcDbSpline
62
9
6
CONTINUOUS
70
0
71
3
72
12
73
8
74
6
42
0.0000001000
43
0.0000001000
44
0.0000000001
12
-0.0007145499
22
0.7813571086
32
0.0000000000
13
-0.7813571100
23
0.0007128026
33
0.0000000000
40
0.0000000000
40
0.0000000000
40
0.0000000000
40
0.0000000000
40
0.1998485957
40
0.3997897125
40
0.5998222854
40
0.7999110728
40
1.0000000000
40
1.0000000000
40
1.0000000000
40
1.0000000000
10
70.2649451230
20
44.9755923698
30
0.0000000000
10
70.2648975224
20
45.0276434101
30
0.0000000000
10
70.2482263651
20
45.1324874578
30
0.0000000000
10
70.1759925271
20
45.2737928627
30
0.0000000000
10
70.0635456051
20
45.3860912544
30
0.0000000000
10
69.9220779822
20
45.4582165671
30
0.0000000000
10
69.8171349106
20
45.4748595957
30
0.0000000000
10
69.7650212753
20
45.4749071370
30
0.0000000000
11
70.2649451230
21
44.9755923698
31
0.0000000000
11
70.2403654451
21
45.1297989096
31
0.0000000000
11
70.1693103806
21
45.2689304222
31
0.0000000000
11
70.0587255572
21
45.3793828084
31
0.0000000000
11
69.9194223973
21
45.4503553002
31
0.0000000000
11
69.7650212753
21
45.4749071370
31
0.0000000000
0
SPLINE
5
423
100
AcDbEntity
8
0
100
AcDbSpline
62
9
6
CONTINUOUS
70
0
71
3
72
10
73
6
74
4
42
0.0000001000
43
0.0000001000
44
0.0000000001
12
-0.0308407995
22
-41.9945838577
32
0.0000000000
13
0.0308408121
23
-41.9945838614
33
0.0000000000
40
0.0000000000
40
0.0000000000
40
0.0000000000
40
0.0000000000
40
0.3332886949
40
0.6667106342
40
1.0000000000
40
1.0000000000
40
1.0000000000
40
1.0000000000
10
70.2566820688
20
44.4972959167
30
0.0000000000
10
70.2532557722
20
39.8318559011
30
0.0000000000
10
70.2486897246
20
30.4991088406
30
0.0000000000
10
70.2486897194
20
16.5009099430
30
0.0000000000
10
70.2532557639
20
7.1681534907
30
0.0000000000
10
70.2566820688
20
2.5027040833
30
0.0000000000
11
70.2566820688
21
44.4972959167
31
0.0000000000
11
70.2498316919
21
30.5009737711
31
0.0000000000
11
70.2498316854
21
16.4990544038
31
0.0000000000
11
70.2566820688
21
2.5027040833
31
0.0000000000
0
SPLINE
5
424
100
AcDbEntity
8
0
100
AcDbSpline
62
9
6
CONTINUOUS
70
0
71
3
72
12
73
8
74
6
42
0.0000001000
43
0.0000001000
44
0.0000000001
12
-0.1919554533
22
0.4628308754
32
0.0000000000
13
-0.5010580606
23
0.0003673236
33
0.0000000000
40
0.0000000000
40
0.0000000000
40
0.0000000000
40
0.0000000000
40
0.0546097796
40
0.1986040208
40
0.4190274305
40
0.6949392928
40
1.0000000000
40
1.0000000000
40
1.0000000000
40
1.0000000000
10
70.2566820688
20
44.4972959167
30
0.0000000000
10
70.2531878538
20
44.5057209474
30
0.0000000000
10
70.2090128371
20
44.5005048020
30
0.0000000000
10
70.1490254605
20
44.5137704013
30
0.0000000000
10
70.0371291625
20
44.5135856065
30
0.0000000000
10
69.9052446103
20
44.5180276713
30
0.0000000000
10
69.8077092633
20
44.5182768782
30
0.0000000000
10
69.7567582212
20
44.5183142302
30
0.0000000000
11
70.2566820688
21
44.4972959167
31
0.0000000000
11
70.2300847084
21
44.5037221553
31
0.0000000000
11
70.1581696042
21
44.5095331260
31
0.0000000000
11
70.0478221313
21
44.5141724684
31
0.0000000000
11
69.9096072983
21
44.5171959974
31
0.0000000000
11
69.7567582212
21
44.5183142302
31
0.0000000000
0
SPLINE
5
425
100
AcDbEntity
8
0
100
AcDbSpline
62
9
6
CONTINUOUS
70
0
71
3
72
13
73
9
74
7
42
0.0000001000
43
0.0000001000
44
0.0000000001
12
0.0003487202
22
-0.4784692669
32
0.0000000000
13
0.1517232133
23
-0.4537764028
33
0.0000000000
40
0.0000000000
40
0.0000000000
40
0.0000000000
40
0.0000000000
40
0.2532095848
40
0.4885745110
40
0.6915930751
40
0.8503382364
40
0.9552488215
40
1.0000000000
40
1.0000000000
40
1.0000000000
40
1.0000000000
10
70.2566820688
20
2.5027040833
30
0.0000000000
10
70.2567115019
20
2.4623197485
30
0.0000000000
10
70.2569601935
20
2.3844052928
30
0.0000000000
10
70.2576564800
20
2.2740727366
30
0.0000000000
10
70.2592193586
20
2.1789405030
30
0.0000000000
10
70.2598957929
20
2.1042785602
30
0.0000000000
10
70.2632858190
20
2.0556111932
30
0.0000000000
10
70.2626818588
20
2.0311766398
30
0.0000000000
10
70.2649451230
20
2.0244076302
30
0.0000000000
11
70.2566820688
21
2.5027040833
31
0.0000000000
11
70.2570345987
21
2.3815515597
31
0.0000000000
11
70.2578925625
21
2.2689399145
31
0.0000000000
11
70.2592021813
21
2.1718105737
31
0.0000000000
11
70.2608858976
21
2.0958745367
31
0.0000000000
11
70.2628419575
21
2.0457161591
31
0.0000000000
11
70.2649451230
21
2.0244076302
31
0.0000000000
0
SPLINE
5
426
100
AcDbEntity
8
0
100
AcDbSpline
62
9
6
CONTINUOUS
70
0
71
3
72
13
73
9
74
7
42
0.0000001000
43
0.0000001000
44
0.0000000001
12
0.0003449115
22
-0.9566793726
32
0.0000000000
13
0.1577707742
23
-0.9435803728
33
0.0000000000
40
0.0000000000
40
0.0000000000
40
0.0000000000
40
0.0000000000
40
0.2530310260
40
0.4882997269
40
0.6913336956
40
0.8501745167
40
0.9551752019
40
1.0000000000
40
1.0000000000
40
1.0000000000
40
1.0000000000
10
69.7567582212
20
2.4816857691
30
0.0000000000
10
69.7567873123
20
2.4009959147
30
0.0000000000
10
69.7570384072
20
2.2452848868
30
0.0000000000
10
69.7577244113
20
2.0248067877
30
0.0000000000
10
69.7593142654
20
1.8344373822
30
0.0000000000
10
69.7599147372
20
1.6854282844
30
0.0000000000
10
69.7634535272
20
1.5872762758
30
0.0000000000
10
69.7626639277
20
1.5391914627
30
0.0000000000
10
69.7650212754
20
1.5250928628
30
0.0000000000
11
69.7567582212
21
2.4816857691
31
0.0000000000
11
69.7571102241
21
2.2396164462
31
0.0000000000
11
69.7579673125
21
2.0145413504
31
0.0000000000
11
69.7592751481
21
1.8203073310
31
0.0000000000
11
69.7609573365
21
1.6683568953
31
0.0000000000
11
69.7629119660
21
1.5679239180
31
0.0000000000
11
69.7650212754
21
1.5250928628
31
0.0000000000
0
SPLINE
5
427
100
AcDbEntity
8
0
100
AcDbSpline
62
9
6
CONTINUOUS
70
0
71
3
72
12
73
8
74
6
42
0.0000001000
43
0.0000001000
44
0.0000000001
12
-0.1920144794
22
-0.4628063365
32
0.0000000000
13
-0.5010580128
23
-0.0003673722
33
0.0000000000
40
0.0000000000
40
0.0000000000
40
0.0000000000
40
0.0000000000
40
0.0546111894
40
0.1986060630
40
0.4190293170
40
0.6949404067
40
1.0000000000
40
1.0000000000
40
1.0000000000
40
1.0000000000
10
70.2566820688
20
2.5027040833
30
0.0000000000
10
70.2531866891
20
2.4942792818
30
0.0000000000
10
70.2090134815
20
2.4994950365
30
0.0000000000
10
70.1490237776
20
2.4862299695
30
0.0000000000
10
70.0371286023
20
2.4864145265
30
0.0000000000
10
69.9052439863
20
2.4819726003
30
0.0000000000
10
69.8077090724
20
2.4817233628
30
0.0000000000
10
69.7567582212
20
2.4816860060
30
0.0000000000
11
70.2566820688
21
2.5027040833
31
0.0000000000
11
70.2300839656
21
2.4962779224
31
0.0000000000
11
70.1581685448
21
2.4904670240
31
0.0000000000
11
70.0478211583
21
2.4858277370
31
0.0000000000
11
69.9096067253
21
2.4828042382
31
0.0000000000
11
69.7567582212
21
2.4816860060
31
0.0000000000
0
SPLINE
5
428
100
AcDbEntity
8
0
100
AcDbSpline
62
9
6
CONTINUOUS
70
0
71
3
72
12
73
8
74
6
42
0.0000001000
43
0.0000001000
44
0.0000000001
12
-0.0007145527
22
-0.7813571046
32
0.0000000000
13
-0.7813571059
23
-0.0007128135
33
0.0000000000
40
0.0000000000
40
0.0000000000
40
0.0000000000
40
0.0000000000
40
0.1998532782
40
0.3997964689
40
0.5998286573
40
0.7999149934
40
1.0000000000
40
1.0000000000
40
1.0000000000
40
1.0000000000
10
70.2649451230
20
2.0244076302
30
0.0000000000
10
70.2648975211
20
1.9723553706
30
0.0000000000
10
70.2482256774
20
1.8675095132
30
0.0000000000
10
70.1759897612
20
1.7262032235
30
0.0000000000
10
70.0635418232
20
1.6139061506
30
0.0000000000
10
69.9220752588
20
1.5417828329
30
0.0000000000
10
69.8171338893
20
1.5251404039
30
0.0000000000
10
69.7650212754
20
1.5250928628
30
0.0000000000
11
70.2649451230
21
2.0244076302
31
0.0000000000
11
70.2403642959
21
1.8701975692
31
0.0000000000
11
70.1693072337
21
1.7310652580
31
0.0000000000
11
70.0587214766
21
1.6206142325
31
0.0000000000
11
69.9194194471
21
1.5496437422
31
0.0000000000
11
69.7650212754
21
1.5250928628
31
0.0000000000
0
SPLINE
5
429
100
AcDbEntity
8
0
100
AcDbSpline
62
9
6
CONTINUOUS
70
0
71
3
72
8
73
4
74
2
42
0.0000001000
43
0.0000001000
44
0.0000000001
12
-0.2111190222
22
0.2962021413
32
0.0000000000
13
-0.1755830829
23
0.3192357489
33
0.0000000000
40
0.0000000000
40
0.0000000000
40
0.0000000000
40
0.0000000000
40
1.0000000000
40
1.0000000000
40
1.0000000000
40
1.0000000000
10
56.7327651257
20
31.2046227982
30
0.0000000000
10
56.6623921183
20
31.3033568453
30
0.0000000000
10
56.5976233198
20
31.4063256396
30
0.0000000000
10
56.5390956255
20
31.5127375559
30
0.0000000000
11
56.7327651257
21
31.2046227982
31
0.0000000000
11
56.5390956255
21
31.5127375559
31
0.0000000000
0
SPLINE
5
42A
100
AcDbEntity
8
0
100
AcDbSpline
62
9
6
CONTINUOUS
70
0
71
3
72
8
73
4
74
2
42
0.0000001000
43
0.0000001000
44
0.0000000001
12
-0.0833243916
22
0.1514959422
32
0.0000000000
13
-0.0746870052
23
0.1558945911
33
0.0000000000
40
0.0000000000
40
0.0000000000
40
0.0000000000
40
0.0000000000
40
1.0000000000
40
1.0000000000
40
1.0000000000
40
1.0000000000
10
56.5390956255
20
31.5127375559
30
0.0000000000
10
56.5113208283
20
31.5632362033
30
0.0000000000
10
56.4849515621
20
31.6145102605
30
0.0000000000
10
56.4600558937
20
31.6664751242
30
0.0000000000
11
56.5390956255
21
31.5127375559
31
0.0000000000
11
56.4600558937
21
31.6664751242
31
0.0000000000
0
SPLINE
5
42B
100
AcDbEntity
8
0
100
AcDbSpline
62
9
6
CONTINUOUS
70
0
71
3
72
26
73
22
74
20
42
0.0000001000
43
0.0000001000
44
0.0000000001
12
-3.8710848345
22
8.0801363946
32
0.0000000000
13
5.7638961407
23
-6.8516357981
33
0.0000000000
40
0.0000000000
40
0.0000000000
40
0.0000000000
40
0.0000000000
40
0.0544798967
40
0.1040920604
40
0.1491647847
40
0.1915574925
40
0.2330711718
40
0.2743656319
40
0.3157605437
40
0.3575975703
40
0.4012477083
40
0.4486960032
40
0.5008562162
40
0.5581786551
40
0.6217701437
40
0.6918008043
40
0.7646135776
40
0.8337170100
40
0.8954490217
40
0.9505129741
40
1.0000000000
40
1.0000000000
40
1.0000000000
40
1.0000000000
10
56.4600558937
20
31.6664751242
30
0.0000000000
10
56.3897571264
20
31.8132101229
30
0.0000000000
10
56.2778903045
20
32.1040935859
30
0.0000000000
10
56.1815799845
20
32.5399664371
30
0.0000000000
10
56.1485063687
20
32.9485793640
30
0.0000000000
10
56.1659876542
20
33.3337897640
30
0.0000000000
10
56.2279656267
20
33.7028980701
30
0.0000000000
10
56.3326371215
20
34.0591219312
30
0.0000000000
10
56.4793359279
20
34.4012526933
30
0.0000000000
10
56.6695000200
20
34.7294555649
30
0.0000000000
10
56.9095827263
20
35.0462561206
30
0.0000000000
10
57.2109843505
20
35.3509392906
30
0.0000000000
10
57.5858287235
20
35.6341160857
30
0.0000000000
10
58.0436186537
20
35.8776045579
30
0.0000000000
10
58.5882676994
20
36.0545212691
30
0.0000000000
10
59.2036366219
20
36.1292519535
30
0.0000000000
10
59.8381100449
20
36.0746536404
30
0.0000000000
10
60.4237925910
20
35.8991598986
30
0.0000000000
10
60.9180829713
20
35.6416511196
30
0.0000000000
10
61.3148235247
20
35.3406621231
30
0.0000000000
10
61.5327975589
20
35.1162305467
30
0.0000000000
10
61.6278769181
20
35.0032081873
30
0.0000000000
11
56.4600558937
21
31.6664751242
31
0.0000000000
11
56.2848921885
21
32.1213349348
31
0.0000000000
11
56.1891612223
21
32.5547595665
31
0.0000000000
11
56.1566119254
21
32.9567011196
31
0.0000000000
11
56.1738065549
21
33.3355908719
31
0.0000000000
11
56.2353107506
21
33.7018783128
31
0.0000000000
11
56.3394672564
21
34.0563463664
31
0.0000000000
11
56.4854173608
21
34.3967279564
31
0.0000000000
11
56.6730737855
21
34.7205977542
31
0.0000000000
11
56.9089535982
21
35.0318439041
31
0.0000000000
11
57.2075056228
21
35.3336325292
31
0.0000000000
11
57.5798713107
21
35.6149199354
31
0.0000000000
11
58.0326712662
21
35.8557324335
31
0.0000000000
11
58.5737907530
21
36.0314705387
31
0.0000000000
11
59.1957764501
21
36.1069715328
31
0.0000000000
11
59.8448209486
21
36.0511284497
31
0.0000000000
11
60.4370708714
21
35.8737022901
31
0.0000000000
11
60.9269060028
21
35.6185509045
31
0.0000000000
11
61.3193983060
21
35.3208079772
31
0.0000000000
11
61.6278769181
21
35.0032081873
31
0.0000000000
0
SPLINE
5
42C
100
AcDbEntity
8
0
100
AcDbSpline
62
9
6
CONTINUOUS
70
0
71
3
72
8
73
4
74
2
42
0.0000001000
43
0.0000001000
44
0.0000000001
12
0.2582829093
22
-0.3070250373
32
0.0000000000
13
0.2164971561
23
-0.3377354574
33
0.0000000000
40
0.0000000000
40
0.0000000000
40
0.0000000000
40
0.0000000000
40
1.0000000000
40
1.0000000000
40
1.0000000000
40
1.0000000000
10
61.6278769181
20
35.0032081873
30
0.0000000000
10
61.7139712212
20
34.9008665082
30
0.0000000000
10
61.7934289310
20
34.7929555818
30
0.0000000000
10
61.8655946497
20
34.6803770960
30
0.0000000000
11
61.6278769181
21
35.0032081873
31
0.0000000000
11
61.8655946497
21
34.6803770960
31
0.0000000000
0
SPLINE
5
42D
100
AcDbEntity
8
0
100
AcDbSpline
62
9
6
CONTINUOUS
70
0
71
3
72
10
73
6
74
4
42
0.0000001000
43
0.0000001000
44
0.0000000001
12
0.1726702439
22
0.2421111066
32
0.0000000000
13
0.2531961475
23
-0.1559631754
33
0.0000000000
40
0.0000000000
40
0.0000000000
40
0.0000000000
40
0.0000000000
40
0.1338297675
40
0.4994121760
40
1.0000000000
40
1.0000000000
40
1.0000000000
40
1.0000000000
10
61.5358620292
20
31.3741935478
30
0.0000000000
10
61.5435648354
20
31.3849941055
30
0.0000000000
10
61.5934929266
20
31.3171455830
30
0.0000000000
10
61.6676463111
20
31.2965422312
30
0.0000000000
10
61.7378600820
20
31.2306471966
30
0.0000000000
10
61.7801090515
20
31.2046227744
30
0.0000000000
11
61.5358620292
21
31.3741935478
31
0.0000000000
11
61.5693977599
21
31.3527640774
31
0.0000000000
11
61.6587012552
21
31.2907642903
31
0.0000000000
11
61.7801090515
21
31.2046227744
31
0.0000000000
0
SPLINE
5
42E
100
AcDbEntity
8
0
100
AcDbSpline
62
9
6
CONTINUOUS
70
0
71
3
72
10
73
6
74
4
42
0.0000001000
43
0.0000001000
44
0.0000000001
12
0.2419287131
22
0.1729267574
32
0.0000000000
13
0.1726706221
23
-0.2421115900
33
0.0000000000
40
0.0000000000
40
0.0000000000
40
0.0000000000
40
0.0000000000
40
0.5005864164
40
0.8661682322
40
1.0000000000
40
1.0000000000
40
1.0000000000
40
1.0000000000
10
56.7323372656
20
31.2046227748
30
0.0000000000
10
56.7727060081
20
31.2334777034
30
0.0000000000
10
56.8454538295
20
31.2955565165
30
0.0000000000
10
56.9188823847
20
31.3172525994
30
0.0000000000
10
56.9688813502
20
31.3849942882
30
0.0000000000
10
56.9765842884
20
31.3741935475
30
0.0000000000
11
56.7323372656
21
31.2046227748
31
0.0000000000
11
56.8537376813
21
31.2907744990
31
0.0000000000
11
56.9430412155
21
31.3527743137
31
0.0000000000
11
56.9765842884
21
31.3741935475
31
0.0000000000
0
SPLINE
5
42F
100
AcDbEntity
8
0
100
AcDbSpline
62
9
6
CONTINUOUS
70
0
71
3
72
10
73
6
74
4
42
0.0000001000
43
0.0000001000
44
0.0000000001
12
-0.1726702439
22
-0.2421111066
32
0.0000000000
13
-0.2531961475
23
0.1559631754
33
0.0000000000
40
0.0000000000
40
0.0000000000
40
0.0000000000
40
0.0000000000
40
0.1338297675
40
0.4994121760
40
1.0000000000
40
1.0000000000
40
1.0000000000
40
1.0000000000
10
56.9765842882
20
15.6258064522
30
0.0000000000
10
56.9688814820
20
15.6150058945
30
0.0000000000
10
56.9189533908
20
15.6828544170
30
0.0000000000
10
56.8448000063
20
15.7034577688
30
0.0000000000
10
56.7745862354
20
15.7693528034
30
0.0000000000
10
56.7323372659
20
15.7953772256
30
0.0000000000
11
56.9765842882
21
15.6258064522
31
0.0000000000
11
56.9430485575
21
15.6472359226
31
0.0000000000
11
56.8537450622
21
15.7092357097
31
0.0000000000
11
56.7323372659
21
15.7953772256
31
0.0000000000
0
SPLINE
5
430
100
AcDbEntity
8
0
100
AcDbSpline
62
9
6
CONTINUOUS
70
0
71
3
72
10
73
6
74
4
42
0.0000001000
43
0.0000001000
44
0.0000000001
12
-0.2419287131
22
-0.1729267574
32
0.0000000000
13
-0.1726706221
23
0.2421115900
33
0.0000000000
40
0.0000000000
40
0.0000000000
40
0.0000000000
40
0.0000000000
40
0.5005864164
40
0.8661682322
40
1.0000000000
40
1.0000000000
40
1.0000000000
40
1.0000000000
10
61.7801090518
20
15.7953772252
30
0.0000000000
10
61.7397403093
20
15.7665222966
30
0.0000000000
10
61.6669924879
20
15.7044434835
30
0.0000000000
10
61.5935639327
20
15.6827474006
30
0.0000000000
10
61.5435649672
20
15.6150057118
30
0.0000000000
10
61.5358620290
20
15.6258064525
30
0.0000000000
11
61.7801090518
21
15.7953772252
31
0.0000000000
11
61.6587086361
21
15.7092255010
31
0.0000000000
11
61.5694051019
21
15.6472256863
31
0.0000000000
11
61.5358620290
21
15.6258064525
31
0.0000000000
0
SPLINE
5
431
100
AcDbEntity
8
0
100
AcDbSpline
62
9
6
CONTINUOUS
70
0
71
3
72
8
73
4
74
2
42
0.0000001000
43
0.0000001000
44
0.0000000001
12
0.2111190219
22
-0.2962021410
32
0.0000000000
13
0.1755830826
23
-0.3192357486
33
0.0000000000
40
0.0000000000
40
0.0000000000
40
0.0000000000
40
0.0000000000
40
1.0000000000
40
1.0000000000
40
1.0000000000
40
1.0000000000
10
61.7796811919
20
15.7953772015
30
0.0000000000
10
61.8500541992
20
15.6966431545
30
0.0000000000
10
61.9148229977
20
15.5936743602
30
0.0000000000
10
61.9733506919
20
15.4872624440
30
0.0000000000
11
61.7796811919
21
15.7953772015
31
0.0000000000
11
61.9733506919
21
15.4872624440
31
0.0000000000
0
SPLINE
5
432
100
AcDbEntity
8
0
100
AcDbSpline
62
9
6
CONTINUOUS
70
0
71
3
72
8
73
4
74
2
42
0.0000001000
43
0.0000001000
44
0.0000000001
12
0.0833243916
22
-0.1514959419
32
0.0000000000
13
0.0746870049
23
-0.1558945911
33
0.0000000000
40
0.0000000000
40
0.0000000000
40
0.0000000000
40
0.0000000000
40
1.0000000000
40
1.0000000000
40
1.0000000000
40
1.0000000000
10
61.9733506919
20
15.4872624440
30
0.0000000000
10
62.0011254891
20
15.4367637967
30
0.0000000000
10
62.0274947554
20
15.3854897395
30
0.0000000000
10
62.0523904237
20
15.3335248758
30
0.0000000000
11
61.9733506919
21
15.4872624440
31
0.0000000000
11
62.0523904237
21
15.3335248758
31
0.0000000000
0
SPLINE
5
433
100
AcDbEntity
8
0
100
AcDbSpline
62
9
6
CONTINUOUS
70
0
71
3
72
26
73
22
74
20
42
0.0000001000
43
0.0000001000
44
0.0000000001
12
3.8710848345
22
-8.0801363946
32
0.0000000000
13
-5.7638961407
23
6.8516357981
33
0.0000000000
40
0.0000000000
40
0.0000000000
40
0.0000000000
40
0.0000000000
40
0.0544798967
40
0.1040920604
40
0.1491647847
40
0.1915574925
40
0.2330711718
40
0.2743656319
40
0.3157605437
40
0.3575975703
40
0.4012477083
40
0.4486960032
40
0.5008562162
40
0.5581786551
40
0.6217701437
40
0.6918008043
40
0.7646135776
40
0.8337170100
40
0.8954490217
40
0.9505129741
40
1.0000000000
40
1.0000000000
40
1.0000000000
40
1.0000000000
10
62.0523904237
20
15.3335248758
30
0.0000000000
10
62.1226891910
20
15.1867898771
30
0.0000000000
10
62.2345560129
20
14.8959064141
30
0.0000000000
10
62.3308663329
20
14.4600335629
30
0.0000000000
10
62.3639399487
20
14.0514206360
30
0.0000000000
10
62.3464586632
20
13.6662102360
30
0.0000000000
10
62.2844806907
20
13.2971019299
30
0.0000000000
10
62.1798091959
20
12.9408780688
30
0.0000000000
10
62.0331103895
20
12.5987473067
30
0.0000000000
10
61.8429462974
20
12.2705444351
30
0.0000000000
10
61.6028635911
20
11.9537438794
30
0.0000000000
10
61.3014619669
20
11.6490607094
30
0.0000000000
10
60.9266175939
20
11.3658839143
30
0.0000000000
10
60.4688276637
20
11.1223954421
30
0.0000000000
10
59.9241786180
20
10.9454787309
30
0.0000000000
10
59.3088096955
20
10.8707480465
30
0.0000000000
10
58.6743362725
20
10.9253463596
30
0.0000000000
10
58.0886537264
20
11.1008401014
30
0.0000000000
10
57.5943633462
20
11.3583488804
30
0.0000000000
10
57.1976227927
20
11.6593378769
30
0.0000000000
10
56.9796487585
20
11.8837694533
30
0.0000000000
10
56.8845693993
20
11.9967918127
30
0.0000000000
11
62.0523904237
21
15.3335248758
31
0.0000000000
11
62.2275541289
21
14.8786650652
31
0.0000000000
11
62.3232850951
21
14.4452404335
31
0.0000000000
11
62.3558343920
21
14.0432988804
31
0.0000000000
11
62.3386397625
21
13.6644091281
31
0.0000000000
11
62.2771355668
21
13.2981216872
31
0.0000000000
11
62.1729790610
21
12.9436536336
31
0.0000000000
11
62.0270289566
21
12.6032720436
31
0.0000000000
11
61.8393725319
21
12.2794022458
31
0.0000000000
11
61.6034927192
21
11.9681560959
31
0.0000000000
11
61.3049406946
21
11.6663674708
31
0.0000000000
11
60.9325750067
21
11.3850800646
31
0.0000000000
11
60.4797750512
21
11.1442675665
31
0.0000000000
11
59.9386555644
21
10.9685294613
31
0.0000000000
11
59.3166698673
21
10.8930284672
31
0.0000000000
11
58.6676253688
21
10.9488715503
31
0.0000000000
11
58.0753754460
21
11.1262977099
31
0.0000000000
11
57.5855403147
21
11.3814490955
31
0.0000000000
11
57.1930480114
21
11.6791920228
31
0.0000000000
11
56.8845693993
21
11.9967918127
31
0.0000000000
0
SPLINE
5
434
100
AcDbEntity
8
0
100
AcDbSpline
62
9
6
CONTINUOUS
70
0
71
3
72
8
73
4
74
2
42
0.0000001000
43
0.0000001000
44
0.0000000001
12
-0.2582829093
22
0.3070250373
32
0.0000000000
13
-0.2164971561
23
0.3377354574
33
0.0000000000
40
0.0000000000
40
0.0000000000
40
0.0000000000
40
0.0000000000
40
1.0000000000
40
1.0000000000
40
1.0000000000
40
1.0000000000
10
56.8845693993
20
11.9967918127
30
0.0000000000
10
56.7984750962
20
12.0991334918
30
0.0000000000
10
56.7190173864
20
12.2070444182
30
0.0000000000
10
56.6468516677
20
12.3196229040
30
0.0000000000
11
56.8845693993
21
11.9967918127
31
0.0000000000
11
56.6468516677
21
12.3196229040
31
0.0000000000
0
SPLINE
5
435
100
AcDbEntity
8
0
100
AcDbSpline
62
9
6
CONTINUOUS
70
0
71
3
72
9
73
5
74
3
42
0.0000001000
43
0.0000001000
44
0.0000000001
12
-0.3374448269
22
0.5264137647
32
0.0000000000
13
-0.2252380722
23
0.5832769182
33
0.0000000000
40
0.0000000000
40
0.0000000000
40
0.0000000000
40
0.0000000000
40
0.6033277744
40
1.0000000000
40
1.0000000000
40
1.0000000000
40
1.0000000000
10
56.6468516677
20
12.3196229040
30
0.0000000000
10
56.5789883889
20
12.4254895857
30
0.0000000000
10
56.4771948824
20
12.6078022303
30
0.0000000000
10
56.3943481655
20
12.7992292988
30
0.0000000000
10
56.3645662697
20
12.8763525499
30
0.0000000000
11
56.6468516677
21
12.3196229040
31
0.0000000000
11
56.4630554043
21
12.6487958404
31
0.0000000000
11
56.3645662697
21
12.8763525499
31
0.0000000000
0
SPLINE
5
436
100
AcDbEntity
8
0
100
AcDbSpline
62
9
6
CONTINUOUS
70
0
71
3
72
15
73
11
74
9
42
0.0000001000
43
0.0000001000
44
0.0000000001
12
-1.1040160544
22
2.8589619519
32
0.0000000000
13
1.7776984597
23
2.4942163802
33
0.0000000000
40
0.0000000000
40
0.0000000000
40
0.0000000000
40
0.0000000000
40
0.0402617675
40
0.1608446623
40
0.2818525195
40
0.4047772633
40
0.5332017437
40
0.6741319880
40
0.8294165000
40
1.0000000000
40
1.0000000000
40
1.0000000000
40
1.0000000000
10
56.3645662697
20
12.8763525499
30
0.0000000000
10
56.3497497238
20
12.9147215037
30
0.0000000000
10
56.2936045772
20
13.0691805402
30
0.0000000000
10
56.2168910875
20
13.3472340774
30
0.0000000000
10
56.1611756705
20
13.7160934008
30
0.0000000000
10
56.1499444614
20
14.0970248019
30
0.0000000000
10
56.1878739993
20
14.4967989333
30
0.0000000000
10
56.2860616043
20
14.9205311211
30
0.0000000000
10
56.4606469818
20
15.3659002912
30
0.0000000000
10
56.6315585848
20
15.6535531486
30
0.0000000000
10
56.7326405932
20
15.7953772019
30
0.0000000000
11
56.3645662697
21
12.8763525499
31
0.0000000000
11
56.3224167136
21
12.9923124757
31
0.0000000000
11
56.2241885622
21
13.3483432710
31
0.0000000000
11
56.1688332797
21
13.7148206132
31
0.0000000000
11
56.1577364088
21
14.0911626576
31
0.0000000000
11
56.1949025741
21
14.4827536065
31
0.0000000000
11
56.2923159975
21
14.9032726842
31
0.0000000000
11
56.4660597778
21
15.3460227991
31
0.0000000000
11
56.7326405932
21
15.7953772019
31
0.0000000000
0
SPLINE
5
437
100
AcDbEntity
8
0
100
AcDbSpline
62
9
6
CONTINUOUS
70
0
71
3
72
9
73
5
74
3
42
0.0000001000
43
0.0000001000
44
0.0000000001
12
0.3374448269
22
-0.5264137647
32
0.0000000000
13
0.2252380722
23
-0.5832769182
33
0.0000000000
40
0.0000000000
40
0.0000000000
40
0.0000000000
40
0.0000000000
40
0.6033277744
40
1.0000000000
40
1.0000000000
40
1.0000000000
40
1.0000000000
10
61.8655946497
20
34.6803770960
30
0.0000000000
10
61.9334579285
20
34.5745104143
30
0.0000000000
10
62.0352514350
20
34.3921977697
30
0.0000000000
10
62.1180981519
20
34.2007707012
30
0.0000000000
10
62.1478800477
20
34.1236474501
30
0.0000000000
11
61.8655946497
21
34.6803770960
31
0.0000000000
11
62.0493909131
21
34.3512041596
31
0.0000000000
11
62.1478800477
21
34.1236474501
31
0.0000000000
0
SPLINE
5
438
100
AcDbEntity
8
0
100
AcDbSpline
62
9
6
CONTINUOUS
70
0
71
3
72
15
73
11
74
9
42
0.0000001000
43
0.0000001000
44
0.0000000001
12
1.1040160544
22
-2.8589619519
32
0.0000000000
13
-1.7776984597
23
-2.4942163785
33
0.0000000000
40
0.0000000000
40
0.0000000000
40
0.0000000000
40
0.0000000000
40
0.0402617675
40
0.1608446622
40
0.2818525195
40
0.4047772633
40
0.5332017437
40
0.6741319880
40
0.8294165000
40
1.0000000000
40
1.0000000000
40
1.0000000000
40
1.0000000000
10
62.1478800477
20
34.1236474501
30
0.0000000000
10
62.1626965936
20
34.0852784963
30
0.0000000000
10
62.2188417402
20
33.9308194598
30
0.0000000000
10
62.2955552299
20
33.6527659226
30
0.0000000000
10
62.3512706469
20
33.2839065992
30
0.0000000000
10
62.3625018561
20
32.9029751981
30
0.0000000000
10
62.3245723181
20
32.5032010667
30
0.0000000000
10
62.2263847131
20
32.0794688789
30
0.0000000000
10
62.0517993356
20
31.6340997088
30
0.0000000000
10
61.8808877325
20
31.3464468512
30
0.0000000000
10
61.7798057241
20
31.2046227980
30
0.0000000000
11
62.1478800477
21
34.1236474501
31
0.0000000000
11
62.1900296038
21
34.0076875243
31
0.0000000000
11
62.2882577551
21
33.6516567292
31
0.0000000000
11
62.3436130377
21
33.2851793867
31
0.0000000000
11
62.3547099087
21
32.9088373423
31
0.0000000000
11
62.3175437433
21
32.5172463935
31
0.0000000000
11
62.2201303199
21
32.0967273158
31
0.0000000000
11
62.0463865395
21
31.6539772009
31
0.0000000000
11
61.7798057241
21
31.2046227980
31
0.0000000000
0
SPLINE
5
439
100
AcDbEntity
8
0
100
AcDbSpline
62
9
6
CONTINUOUS
70
0
71
3
72
8
73
4
74
2
42
0.0000001000
43
0.0000001000
44
0.0000000001
12
-0.0014683608
22
-0.0003955908
32
0.0000000000
13
-0.0014629872
23
-0.0004150230
33
0.0000000000
40
0.0000000000
40
0.0000000000
40
0.0000000000
40
0.0000000000
40
1.0000000000
40
1.0000000000
40
1.0000000000
40
1.0000000000
10
59.6614944265
20
35.5370498613
30
0.0000000000
10
59.6610049729
20
35.5369179977
30
0.0000000000
10
59.6605161230
20
35.5367838265
30
0.0000000000
10
59.6600284606
20
35.5366454855
30
0.0000000000
11
59.6614944265
21
35.5370498613
31
0.0000000000
11
59.6600284606
21
35.5366454855
31
0.0000000000
0
SPLINE
5
43A
100
AcDbEntity
8
0
100
AcDbSpline
62
9
6
CONTINUOUS
70
0
71
3
72
9
73
5
74
3
42
0.0000001000
43
0.0000001000
44
0.0000000001
12
0.0192372708
22
0.2288854747
32
0.0000000000
13
0.0192144741
23
0.2288873896
33
0.0000000000
40
0.0000000000
40
0.0000000000
40
0.0000000000
40
0.0000000000
40
0.5161132516
40
1.0000000000
40
1.0000000000
40
1.0000000000
40
1.0000000000
10
59.6614944265
20
35.5370498613
30
0.0000000000
10
59.6648039633
20
35.5764268035
30
0.0000000000
10
59.6712143597
20
35.6527221321
30
0.0000000000
10
59.6776209607
20
35.7290177795
30
0.0000000000
10
59.6807201705
20
35.7659363044
30
0.0000000000
11
59.6614944265
21
35.5370498613
31
0.0000000000
11
59.6714199334
21
35.6551809487
31
0.0000000000
11
59.6807201705
21
35.7659363044
31
0.0000000000
0
SPLINE
5
43B
100
AcDbEntity
8
0
100
AcDbSpline
62
9
6
CONTINUOUS
70
0
71
3
72
11
73
7
74
5
42
0.0000001000
43
0.0000001000
44
0.0000000001
12
-0.0800880585
22
-0.0557695903
32
0.0000000000
13
-0.0942328560
23
-0.0253872608
33
0.0000000000
40
0.0000000000
40
0.0000000000
40
0.0000000000
40
0.0000000000
40
0.3460606329
40
0.6262794717
40
0.8431360819
40
1.0000000000
40
1.0000000000
40
1.0000000000
40
1.0000000000
10
59.7459565259
20
35.5853263269
30
0.0000000000
10
59.7367180845
20
35.5788931070
30
0.0000000000
10
59.7198444074
20
35.5674716723
30
0.0000000000
10
59.6965008773
20
35.5530353583
30
0.0000000000
10
59.6777345437
20
35.5430129799
30
0.0000000000
10
59.6664216715
20
35.5383773097
30
0.0000000000
10
59.6614944265
20
35.5370498613
30
0.0000000000
11
59.7459565259
21
35.5853263269
31
0.0000000000
11
59.7179282150
21
35.5664840911
31
0.0000000000
11
59.6945869190
21
35.5522341733
31
0.0000000000
11
59.6758149016
21
35.5424612159
31
0.0000000000
11
59.6614944265
21
35.5370498613
31
0.0000000000
0
SPLINE
5
43C
100
AcDbEntity
8
0
100
AcDbSpline
62
9
6
CONTINUOUS
70
0
71
3
72
11
73
7
74
5
42
0.0000001000
43
0.0000001000
44
0.0000000001
12
-0.5978670287
22
0.6181310510
32
0.0000000000
13
0.0720236094
23
0.8569384911
33
0.0000000000
40
0.0000000000
40
0.0000000000
40
0.0000000000
40
0.0000000000
40
0.2498630547
40
0.4998910702
40
0.7499736731
40
1.0000000000
40
1.0000000000
40
1.0000000000
40
1.0000000000
10
59.9420731939
20
34.7497685373
30
0.0000000000
10
59.8922782332
20
34.8012512415
30
0.0000000000
10
59.8035382550
20
34.9153754684
30
0.0000000000
10
59.7093455760
20
35.1103799195
30
0.0000000000
10
59.6589493554
20
35.3210445189
30
0.0000000000
10
59.6554918270
20
35.4656308002
30
0.0000000000
10
59.6614944265
20
35.5370498613
30
0.0000000000
11
59.9420731939
21
34.7497685373
31
0.0000000000
11
59.8100523405
21
34.9192989377
31
0.0000000000
11
59.7166539473
21
35.1129682075
31
0.0000000000
11
59.6664825547
21
35.3220951218
31
0.0000000000
11
59.6614944265
21
35.5370498613
31
0.0000000000
0
SPLINE
5
43D
100
AcDbEntity
8
0
100
AcDbSpline
62
9
6
CONTINUOUS
70
0
71
3
72
9
73
5
74
3
42
0.0000001000
43
0.0000001000
44
0.0000000001
12
-0.0082653239
22
0.0595212826
32
0.0000000000
13
-0.0083557447
23
0.0595086565
33
0.0000000000
40
0.0000000000
40
0.0000000000
40
0.0000000000
40
0.0000000000
40
0.4998374697
40
1.0000000000
40
1.0000000000
40
1.0000000000
40
1.0000000000
10
59.7459565259
20
35.5853263269
30
0.0000000000
10
59.7445794197
20
35.5952433160
30
0.0000000000
10
59.7418167523
20
35.6150826946
30
0.0000000000
10
59.7390390148
20
35.6349199687
30
0.0000000000
10
59.7376459380
20
35.6448413021
30
0.0000000000
11
59.7459565259
21
35.5853263269
31
0.0000000000
11
59.7418138853
21
35.6150757198
31
0.0000000000
11
59.7376459380
21
35.6448413021
31
0.0000000000
0
SPLINE
5
43E
100
AcDbEntity
8
0
100
AcDbSpline
62
9
6
CONTINUOUS
70
0
71
3
72
11
73
7
74
5
42
0.0000001000
43
0.0000001000
44
0.0000000001
12
-0.5152549942
22
0.5989198509
32
0.0000000000
13
-0.1086674651
23
0.7825497288
33
0.0000000000
40
0.0000000000
40
0.0000000000
40
0.0000000000
40
0.0000000000
40
0.2544634299
40
0.5079517325
40
0.7574237691
40
1.0000000000
40
1.0000000000
40
1.0000000000
40
1.0000000000
10
60.0711145556
20
34.8762027341
30
0.0000000000
10
60.0274100379
20
34.9270038006
30
0.0000000000
10
59.9472983672
20
35.0347731902
30
0.0000000000
10
59.8512775139
20
35.2103438949
30
0.0000000000
10
59.7824287124
20
35.3949040011
30
0.0000000000
10
59.7547432406
20
35.5220503390
30
0.0000000000
10
59.7459565259
20
35.5853263269
30
0.0000000000
11
60.0711145556
21
34.8762027341
31
0.0000000000
11
59.9510889571
21
35.0374830949
31
0.0000000000
11
59.8551663649
21
35.2132874797
31
0.0000000000
11
59.7863557272
21
35.3979832790
31
0.0000000000
11
59.7459565259
21
35.5853263269
31
0.0000000000
0
SPLINE
5
43F
100
AcDbEntity
8
0
100
AcDbSpline
62
9
6
CONTINUOUS
70
0
71
3
72
10
73
6
74
4
42
0.0000001000
43
0.0000001000
44
0.0000000001
12
0.0000000000
22
-1.5116197255
32
0.0000000000
13
0.7837669744
23
-1.2925569721
33
0.0000000000
40
0.0000000000
40
0.0000000000
40
0.0000000000
40
0.0000000000
40
0.4279096880
40
0.8566004734
40
1.0000000000
40
1.0000000000
40
1.0000000000
40
1.0000000000
10
57.6448430853
20
33.0000000000
30
0.0000000000
10
57.6448430853
20
32.7843877583
30
0.0000000000
10
57.6939508480
20
32.3512190490
30
0.0000000000
10
57.8666329315
20
31.8725004550
30
0.0000000000
10
58.0062535643
20
31.6200297938
30
0.0000000000
10
58.0437175020
20
31.5582457745
30
0.0000000000
11
57.6448430853
21
33.0000000000
31
0.0000000000
11
57.7185639861
21
32.3573780445
31
0.0000000000
11
57.9388246564
21
31.7479423636
31
0.0000000000
11
58.0437175020
21
31.5582457745
31
0.0000000000
0
SPLINE
5
440
100
AcDbEntity
8
0
100
AcDbSpline
62
9
6
CONTINUOUS
70
0
71
3
72
11
73
7
74
5
42
0.0000001000
43
0.0000001000
44
0.0000000001
12
-1.5397930128
22
-1.4187598753
32
0.0000000000
13
0.0000000000
23
-2.0937626668
33
0.0000000000
40
0.0000000000
40
0.0000000000
40
0.0000000000
40
0.0000000000
40
0.2487576462
40
0.4987683189
40
0.7493151485
40
1.0000000000
40
1.0000000000
40
1.0000000000
40
1.0000000000
10
58.4413317618
20
34.8762027341
30
0.0000000000
10
58.3136533333
20
34.7585602784
30
0.0000000000
10
58.0831943689
20
34.4933004284
30
0.0000000000
10
57.8306971107
20
34.0310592348
30
0.0000000000
10
57.6781538596
20
33.5257704799
30
0.0000000000
10
57.6448430853
20
33.1749581944
30
0.0000000000
10
57.6448430853
20
33.0000000000
30
0.0000000000
11
58.4413317618
21
34.8762027341
31
0.0000000000
11
58.0992922306
21
34.4834143489
31
0.0000000000
11
57.8476000717
21
34.0244322327
31
0.0000000000
11
57.6952891222
21
33.5224447583
31
0.0000000000
11
57.6448430853
21
33.0000000000
31
0.0000000000
0
SPLINE
5
441
100
AcDbEntity
8
0
100
AcDbSpline
62
9
6
CONTINUOUS
70
0
71
3
72
8
73
4
74
2
42
0.0000001000
43
0.0000001000
44
0.0000000001
12
0.0014683608
22
-0.0003955908
32
0.0000000000
13
0.0014629872
23
-0.0004150230
33
0.0000000000
40
0.0000000000
40
0.0000000000
40
0.0000000000
40
0.0000000000
40
1.0000000000
40
1.0000000000
40
1.0000000000
40
1.0000000000
10
58.8509518909
20
35.5370498613
30
0.0000000000
10
58.8514413445
20
35.5369179977
30
0.0000000000
10
58.8519301944
20
35.5367838265
30
0.0000000000
10
58.8524178568
20
35.5366454855
30
0.0000000000
11
58.8509518909
21
35.5370498613
31
0.0000000000
11
58.8524178568
21
35.5366454855
31
0.0000000000
0
SPLINE
5
442
100
AcDbEntity
8
0
100
AcDbSpline
62
9
6
CONTINUOUS
70
0
71
3
72
9
73
5
74
3
42
0.0000001000
43
0.0000001000
44
0.0000000001
12
-0.0193479449
22
0.2302022768
32
0.0000000000
13
-0.0193248893
23
0.2302042132
33
0.0000000000
40
0.0000000000
40
0.0000000000
40
0.0000000000
40
0.0000000000
40
0.5131609828
40
1.0000000000
40
1.0000000000
40
1.0000000000
40
1.0000000000
10
58.8509518909
20
35.5370498613
30
0.0000000000
10
58.8476423541
20
35.5764268035
30
0.0000000000
10
58.8411950780
20
35.6531610671
30
0.0000000000
10
58.8347516411
20
35.7298956532
30
0.0000000000
10
58.8316156044
20
35.7672531175
30
0.0000000000
11
58.8509518909
21
35.5370498613
31
0.0000000000
11
58.8410263840
21
35.6551809487
31
0.0000000000
11
58.8316156044
21
35.7672531175
31
0.0000000000
0
SPLINE
5
443
100
AcDbEntity
8
0
100
AcDbSpline
62
9
6
CONTINUOUS
70
0
71
3
72
11
73
7
74
5
42
0.0000001000
43
0.0000001000
44
0.0000000001
12
0.5978670287
22
0.6181310510
32
0.0000000000
13
-0.0720236094
23
0.8569384911
33
0.0000000000
40
0.0000000000
40
0.0000000000
40
0.0000000000
40
0.0000000000
40
0.2498630547
40
0.4998910702
40
0.7499736731
40
1.0000000000
40
1.0000000000
40
1.0000000000
40
1.0000000000
10
58.5703731235
20
34.7497685373
30
0.0000000000
10
58.6201680842
20
34.8012512415
30
0.0000000000
10
58.7089080624
20
34.9153754684
30
0.0000000000
10
58.8031007414
20
35.1103799195
30
0.0000000000
10
58.8534969620
20
35.3210445189
30
0.0000000000
10
58.8569544904
20
35.4656308002
30
0.0000000000
10
58.8509518909
20
35.5370498613
30
0.0000000000
11
58.5703731235
21
34.7497685373
31
0.0000000000
11
58.7023939769
21
34.9192989377
31
0.0000000000
11
58.7957923701
21
35.1129682075
31
0.0000000000
11
58.8459637627
21
35.3220951218
31
0.0000000000
11
58.8509518909
21
35.5370498613
31
0.0000000000
0
SPLINE
5
444
100
AcDbEntity
8
0
100
AcDbSpline
62
9
6
CONTINUOUS
70
0
71
3
72
11
73
7
74
5
42
0.0000001000
43
0.0000001000
44
0.0000000001
12
0.0800880585
22
-0.0557695903
32
0.0000000000
13
0.0942328560
23
-0.0253872608
33
0.0000000000
40
0.0000000000
40
0.0000000000
40
0.0000000000
40
0.0000000000
40
0.3460606329
40
0.6262794717
40
0.8431360819
40
1.0000000000
40
1.0000000000
40
1.0000000000
40
1.0000000000
10
58.7664897915
20
35.5853263269
30
0.0000000000
10
58.7757282329
20
35.5788931070
30
0.0000000000
10
58.7926019100
20
35.5674716723
30
0.0000000000
10
58.8159454401
20
35.5530353583
30
0.0000000000
10
58.8347117737
20
35.5430129799
30
0.0000000000
10
58.8460246459
20
35.5383773097
30
0.0000000000
10
58.8509518909
20
35.5370498613
30
0.0000000000
11
58.7664897915
21
35.5853263269
31
0.0000000000
11
58.7945181024
21
35.5664840911
31
0.0000000000
11
58.8178593984
21
35.5522341733
31
0.0000000000
11
58.8366314158
21
35.5424612159
31
0.0000000000
11
58.8509518909
21
35.5370498613
31
0.0000000000
0
SPLINE
5
445
100
AcDbEntity
8
0
100
AcDbSpline
62
9
6
CONTINUOUS
70
0
71
3
72
9
73
5
74
3
42
0.0000001000
43
0.0000001000
44
0.0000000001
12
0.0082653239
22
0.0595212826
32
0.0000000000
13
0.0083557447
23
0.0595086565
33
0.0000000000
40
0.0000000000
40
0.0000000000
40
0.0000000000
40
0.0000000000
40
0.4998374697
40
1.0000000000
40
1.0000000000
40
1.0000000000
40
1.0000000000
10
58.7664897915
20
35.5853263269
30
0.0000000000
10
58.7678668977
20
35.5952433160
30
0.0000000000
10
58.7706295651
20
35.6150826946
30
0.0000000000
10
58.7734073026
20
35.6349199687
30
0.0000000000
10
58.7748003794
20
35.6448413021
30
0.0000000000
11
58.7664897915
21
35.5853263269
31
0.0000000000
11
58.7706324321
21
35.6150757198
31
0.0000000000
11
58.7748003794
21
35.6448413021
31
0.0000000000
0
SPLINE
5
446
100
AcDbEntity
8
0
100
AcDbSpline
62
9
6
CONTINUOUS
70
0
71
3
72
11
73
7
74
5
42
0.0000001000
43
0.0000001000
44
0.0000000001
12
0.5152549942
22
0.5989198509
32
0.0000000000
13
0.1086674651
23
0.7825497288
33
0.0000000000
40
0.0000000000
40
0.0000000000
40
0.0000000000
40
0.0000000000
40
0.2544634299
40
0.5079517325
40
0.7574237691
40
1.0000000000
40
1.0000000000
40
1.0000000000
40
1.0000000000
10
58.4413317618
20
34.8762027341
30
0.0000000000
10
58.4850362795
20
34.9270038006
30
0.0000000000
10
58.5651479502
20
35.0347731902
30
0.0000000000
10
58.6611688035
20
35.2103438949
30
0.0000000000
10
58.7300176050
20
35.3949040011
30
0.0000000000
10
58.7577030768
20
35.5220503390
30
0.0000000000
10
58.7664897915
20
35.5853263269
30
0.0000000000
11
58.4413317618
21
34.8762027341
31
0.0000000000
11
58.5613573603
21
35.0374830949
31
0.0000000000
11
58.6572799525
21
35.2132874797
31
0.0000000000
11
58.7260905902
21
35.3979832790
31
0.0000000000
11
58.7664897915
21
35.5853263269
31
0.0000000000
0
SPLINE
5
447
100
AcDbEntity
8
0
100
AcDbSpline
62
9
6
CONTINUOUS
70
0
71
3
72
10
73
6
74
4
42
0.0000001000
43
0.0000001000
44
0.0000000001
12
0.0000000000
22
-1.5116197255
32
0.0000000000
13
-0.7837669744
23
-1.2925569721
33
0.0000000000
40
0.0000000000
40
0.0000000000
40
0.0000000000
40
0.0000000000
40
0.4279096880
40
0.8566004734
40
1.0000000000
40
1.0000000000
40
1.0000000000
40
1.0000000000
10
60.8676032321
20
33.0000000000
30
0.0000000000
10
60.8676032321
20
32.7843877583
30
0.0000000000
10
60.8184954694
20
32.3512190490
30
0.0000000000
10
60.6458133859
20
31.8725004550
30
0.0000000000
10
60.5061927531
20
31.6200297938
30
0.0000000000
10
60.4687288154
20
31.5582457745
30
0.0000000000
11
60.8676032321
21
33.0000000000
31
0.0000000000
11
60.7938823313
21
32.3573780445
31
0.0000000000
11
60.5736216610
21
31.7479423636
31
0.0000000000
11
60.4687288154
21
31.5582457745
31
0.0000000000
0
SPLINE
5
448
100
AcDbEntity
8
0
100
AcDbSpline
62
9
6
CONTINUOUS
70
0
71
3
72
11
73
7
74
5
42
0.0000001000
43
0.0000001000
44
0.0000000001
12
1.5397930128
22
-1.4187598753
32
0.0000000000
13
0.0000000000
23
-2.0937626668
33
0.0000000000
40
0.0000000000
40
0.0000000000
40
0.0000000000
40
0.0000000000
40
0.2487576462
40
0.4987683189
40
0.7493151485
40
1.0000000000
40
1.0000000000
40
1.0000000000
40
1.0000000000
10
60.0711145556
20
34.8762027341
30
0.0000000000
10
60.1987929841
20
34.7585602784
30
0.0000000000
10
60.4292519485
20
34.4933004284
30
0.0000000000
10
60.6817492067
20
34.0310592348
30
0.0000000000
10
60.8342924578
20
33.5257704799
30
0.0000000000
10
60.8676032321
20
33.1749581944
30
0.0000000000
10
60.8676032321
20
33.0000000000
30
0.0000000000
11
60.0711145556
21
34.8762027341
31
0.0000000000
11
60.4131540868
21
34.4834143489
31
0.0000000000
11
60.6648462457
21
34.0244322327
31
0.0000000000
11
60.8171571952
21
33.5224447583
31
0.0000000000
11
60.8676032321
21
33.0000000000
31
0.0000000000
0
SPLINE
5
449
100
AcDbEntity
8
0
100
AcDbSpline
62
9
6
CONTINUOUS
70
0
71
3
72
8
73
4
74
2
42
0.0000001000
43
0.0000001000
44
0.0000000001
12
0.0014683608
22
0.0003955908
32
0.0000000000
13
0.0014629872
23
0.0004150230
33
0.0000000000
40
0.0000000000
40
0.0000000000
40
0.0000000000
40
0.0000000000
40
1.0000000000
40
1.0000000000
40
1.0000000000
40
1.0000000000
10
58.8509518909
20
11.4629501387
30
0.0000000000
10
58.8514413445
20
11.4630820023
30
0.0000000000
10
58.8519301944
20
11.4632161735
30
0.0000000000
10
58.8524178568
20
11.4633545145
30
0.0000000000
11
58.8509518909
21
11.4629501387
31
0.0000000000
11
58.8524178568
21
11.4633545145
31
0.0000000000
0
SPLINE
5
44A
100
AcDbEntity
8
0
100
AcDbSpline
62
9
6
CONTINUOUS
70
0
71
3
72
9
73
5
74
3
42
0.0000001000
43
0.0000001000
44
0.0000000001
12
-0.0192372708
22
-0.2288854747
32
0.0000000000
13
-0.0192144741
23
-0.2288873896
33
0.0000000000
40
0.0000000000
40
0.0000000000
40
0.0000000000
40
0.0000000000
40
0.5161132516
40
1.0000000000
40
1.0000000000
40
1.0000000000
40
1.0000000000
10
58.8509518909
20
11.4629501387
30
0.0000000000
10
58.8476423541
20
11.4235731965
30
0.0000000000
10
58.8412319577
20
11.3472778679
30
0.0000000000
10
58.8348253567
20
11.2709822205
30
0.0000000000
10
58.8317261469
20
11.2340636956
30
0.0000000000
11
58.8509518909
21
11.4629501387
31
0.0000000000
11
58.8410263840
21
11.3448190513
31
0.0000000000
11
58.8317261469
21
11.2340636956
31
0.0000000000
0
SPLINE
5
44B
100
AcDbEntity
8
0
100
AcDbSpline
62
9
6
CONTINUOUS
70
0
71
3
72
11
73
7
74
5
42
0.0000001000
43
0.0000001000
44
0.0000000001
12
0.0800880585
22
0.0557695903
32
0.0000000000
13
0.0942328560
23
0.0253872608
33
0.0000000000
40
0.0000000000
40
0.0000000000
40
0.0000000000
40
0.0000000000
40
0.3460606329
40
0.6262794717
40
0.8431360819
40
1.0000000000
40
1.0000000000
40
1.0000000000
40
1.0000000000
10
58.7664897915
20
11.4146736731
30
0.0000000000
10
58.7757282329
20
11.4211068930
30
0.0000000000
10
58.7926019100
20
11.4325283277
30
0.0000000000
10
58.8159454401
20
11.4469646417
30
0.0000000000
10
58.8347117737
20
11.4569870201
30
0.0000000000
10
58.8460246459
20
11.4616226903
30
0.0000000000
10
58.8509518909
20
11.4629501387
30
0.0000000000
11
58.7664897915
21
11.4146736731
31
0.0000000000
11
58.7945181024
21
11.4335159089
31
0.0000000000
11
58.8178593984
21
11.4477658267
31
0.0000000000
11
58.8366314158
21
11.4575387841
31
0.0000000000
11
58.8509518909
21
11.4629501387
31
0.0000000000
0
SPLINE
5
44C
100
AcDbEntity
8
0
100
AcDbSpline
62
9
6
CONTINUOUS
70
0
71
3
72
11
73
7
74
5
42
0.0000001000
43
0.0000001000
44
0.0000000001
12
0.5978670287
22
-0.6181310510
32
0.0000000000
13
-0.0720236094
23
-0.8569384911
33
0.0000000000
40
0.0000000000
40
0.0000000000
40
0.0000000000
40
0.0000000000
40
0.2498630547
40
0.4998910702
40
0.7499736731
40
1.0000000000
40
1.0000000000
40
1.0000000000
40
1.0000000000
10
58.5703731235
20
12.2502314627
30
0.0000000000
10
58.6201680842
20
12.1987487585
30
0.0000000000
10
58.7089080624
20
12.0846245316
30
0.0000000000
10
58.8031007414
20
11.8896200805
30
0.0000000000
10
58.8534969620
20
11.6789554811
30
0.0000000000
10
58.8569544904
20
11.5343691998
30
0.0000000000
10
58.8509518909
20
11.4629501387
30
0.0000000000
11
58.5703731235
21
12.2502314627
31
0.0000000000
11
58.7023939769
21
12.0807010623
31
0.0000000000
11
58.7957923701
21
11.8870317925
31
0.0000000000
11
58.8459637627
21
11.6779048782
31
0.0000000000
11
58.8509518909
21
11.4629501387
31
0.0000000000
0
SPLINE
5
44D
100
AcDbEntity
8
0
100
AcDbSpline
62
9
6
CONTINUOUS
70
0
71
3
72
9
73
5
74
3
42
0.0000001000
43
0.0000001000
44
0.0000000001
12
0.0082653239
22
-0.0595212826
32
0.0000000000
13
0.0083557447
23
-0.0595086565
33
0.0000000000
40
0.0000000000
40
0.0000000000
40
0.0000000000
40
0.0000000000
40
0.4998374697
40
1.0000000000
40
1.0000000000
40
1.0000000000
40
1.0000000000
10
58.7664897915
20
11.4146736731
30
0.0000000000
10
58.7678668977
20
11.4047566840
30
0.0000000000
10
58.7706295651
20
11.3849173054
30
0.0000000000
10
58.7734073026
20
11.3650800313
30
0.0000000000
10
58.7748003794
20
11.3551586979
30
0.0000000000
11
58.7664897915
21
11.4146736731
31
0.0000000000
11
58.7706324321
21
11.3849242802
31
0.0000000000
11
58.7748003794
21
11.3551586979
31
0.0000000000
0
SPLINE
5
44E
100
AcDbEntity
8
0
100
AcDbSpline
62
9
6
CONTINUOUS
70
0
71
3
72
11
73
7
74
5
42
0.0000001000
43
0.0000001000
44
0.0000000001
12
0.5152549942
22
-0.5989198509
32
0.0000000000
13
0.1086674651
23
-0.7825497288
33
0.0000000000
40
0.0000000000
40
0.0000000000
40
0.0000000000
40
0.0000000000
40
0.2544634299
40
0.5079517325
40
0.7574237691
40
1.0000000000
40
1.0000000000
40
1.0000000000
40
1.0000000000
10
58.4413317618
20
12.1237972659
30
0.0000000000
10
58.4850362795
20
12.0729961994
30
0.0000000000
10
58.5651479502
20
11.9652268098
30
0.0000000000
10
58.6611688035
20
11.7896561051
30
0.0000000000
10
58.7300176050
20
11.6050959989
30
0.0000000000
10
58.7577030768
20
11.4779496610
30
0.0000000000
10
58.7664897915
20
11.4146736731
30
0.0000000000
11
58.4413317618
21
12.1237972659
31
0.0000000000
11
58.5613573603
21
11.9625169051
31
0.0000000000
11
58.6572799525
21
11.7867125203
31
0.0000000000
11
58.7260905902
21
11.6020167210
31
0.0000000000
11
58.7664897915
21
11.4146736731
31
0.0000000000
0
SPLINE
5
44F
100
AcDbEntity
8
0
100
AcDbSpline
62
9
6
CONTINUOUS
70
0
71
3
72
10
73
6
74
4
42
0.0000001000
43
0.0000001000
44
0.0000000001
12
0.0000000000
22
1.5116197255
32
0.0000000000
13
-0.7837669744
23
1.2925569721
33
0.0000000000
40
0.0000000000
40
0.0000000000
40
0.0000000000
40
0.0000000000
40
0.4279096880
40
0.8566004734
40
1.0000000000
40
1.0000000000
40
1.0000000000
40
1.0000000000
10
60.8676032321
20
14.0000000000
30
0.0000000000
10
60.8676032321
20
14.2156122417
30
0.0000000000
10
60.8184954694
20
14.6487809510
30
0.0000000000
10
60.6458133859
20
15.1274995450
30
0.0000000000
10
60.5061927531
20
15.3799702062
30
0.0000000000
10
60.4687288154
20
15.4417542255
30
0.0000000000
11
60.8676032321
21
14.0000000000
31
0.0000000000
11
60.7938823313
21
14.6426219555
31
0.0000000000
11
60.5736216610
21
15.2520576364
31
0.0000000000
11
60.4687288154
21
15.4417542255
31
0.0000000000
0
SPLINE
5
450
100
AcDbEntity
8
0
100
AcDbSpline
62
9
6
CONTINUOUS
70
0
71
3
72
11
73
7
74
5
42
0.0000001000
43
0.0000001000
44
0.0000000001
12
1.5397930128
22
1.4187598753
32
0.0000000000
13
0.0000000000
23
2.0937626668
33
0.0000000000
40
0.0000000000
40
0.0000000000
40
0.0000000000
40
0.0000000000
40
0.2487576462
40
0.4987683189
40
0.7493151485
40
1.0000000000
40
1.0000000000
40
1.0000000000
40
1.0000000000
10
60.0711145556
20
12.1237972659
30
0.0000000000
10
60.1987929841
20
12.2414397216
30
0.0000000000
10
60.4292519485
20
12.5066995716
30
0.0000000000
10
60.6817492067
20
12.9689407652
30
0.0000000000
10
60.8342924578
20
13.4742295201
30
0.0000000000
10
60.8676032321
20
13.8250418056
30
0.0000000000
10
60.8676032321
20
14.0000000000
30
0.0000000000
11
60.0711145556
21
12.1237972659
31
0.0000000000
11
60.4131540868
21
12.5165856511
31
0.0000000000
11
60.6648462457
21
12.9755677673
31
0.0000000000
11
60.8171571952
21
13.4775552417
31
0.0000000000
11
60.8676032321
21
14.0000000000
31
0.0000000000
0
SPLINE
5
451
100
AcDbEntity
8
0
100
AcDbSpline
62
9
6
CONTINUOUS
70
0
71
3
72
8
73
4
74
2
42
0.0000001000
43
0.0000001000
44
0.0000000001
12
-0.0014683608
22
0.0003955908
32
0.0000000000
13
-0.0014629872
23
0.0004150230
33
0.0000000000
40
0.0000000000
40
0.0000000000
40
0.0000000000
40
0.0000000000
40
1.0000000000
40
1.0000000000
40
1.0000000000
40
1.0000000000
10
59.6614944265
20
11.4629501387
30
0.0000000000
10
59.6610049729
20
11.4630820023
30
0.0000000000
10
59.6605161230
20
11.4632161735
30
0.0000000000
10
59.6600284606
20
11.4633545145
30
0.0000000000
11
59.6614944265
21
11.4629501387
31
0.0000000000
11
59.6600284606
21
11.4633545145
31
0.0000000000
0
SPLINE
5
452
100
AcDbEntity
8
0
100
AcDbSpline
62
9
6
CONTINUOUS
70
0
71
3
72
9
73
5
74
3
42
0.0000001000
43
0.0000001000
44
0.0000000001
12
0.0193479449
22
-0.2302022768
32
0.0000000000
13
0.0193248893
23
-0.2302042132
33
0.0000000000
40
0.0000000000
40
0.0000000000
40
0.0000000000
40
0.0000000000
40
0.5131609828
40
1.0000000000
40
1.0000000000
40
1.0000000000
40
1.0000000000
10
59.6614944265
20
11.4629501387
30
0.0000000000
10
59.6648039633
20
11.4235731965
30
0.0000000000
10
59.6712512394
20
11.3468389329
30
0.0000000000
10
59.6776946763
20
11.2701043468
30
0.0000000000
10
59.6808307130
20
11.2327468825
30
0.0000000000
11
59.6614944265
21
11.4629501387
31
0.0000000000
11
59.6714199334
21
11.3448190513
31
0.0000000000
11
59.6808307130
21
11.2327468825
31
0.0000000000
0
SPLINE
5
453
100
AcDbEntity
8
0
100
AcDbSpline
62
9
6
CONTINUOUS
70
0
71
3
72
11
73
7
74
5
42
0.0000001000
43
0.0000001000
44
0.0000000001
12
-0.5978670287
22
-0.6181310510
32
0.0000000000
13
0.0720236094
23
-0.8569384911
33
0.0000000000
40
0.0000000000
40
0.0000000000
40
0.0000000000
40
0.0000000000
40
0.2498630547
40
0.4998910702
40
0.7499736731
40
1.0000000000
40
1.0000000000
40
1.0000000000
40
1.0000000000
10
59.9420731939
20
12.2502314627
30
0.0000000000
10
59.8922782332
20
12.1987487585
30
0.0000000000
10
59.8035382550
20
12.0846245316
30
0.0000000000
10
59.7093455760
20
11.8896200805
30
0.0000000000
10
59.6589493554
20
11.6789554811
30
0.0000000000
10
59.6554918270
20
11.5343691998
30
0.0000000000
10
59.6614944265
20
11.4629501387
30
0.0000000000
11
59.9420731939
21
12.2502314627
31
0.0000000000
11
59.8100523405
21
12.0807010623
31
0.0000000000
11
59.7166539473
21
11.8870317925
31
0.0000000000
11
59.6664825547
21
11.6779048782
31
0.0000000000
11
59.6614944265
21
11.4629501387
31
0.0000000000
0
SPLINE
5
454
100
AcDbEntity
8
0
100
AcDbSpline
62
9
6
CONTINUOUS
70
0
71
3
72
11
73
7
74
5
42
0.0000001000
43
0.0000001000
44
0.0000000001
12
-0.0800880585
22
0.0557695903
32
0.0000000000
13
-0.0942328560
23
0.0253872608
33
0.0000000000
40
0.0000000000
40
0.0000000000
40
0.0000000000
40
0.0000000000
40
0.3460606329
40
0.6262794717
40
0.8431360819
40
1.0000000000
40
1.0000000000
40
1.0000000000
40
1.0000000000
10
59.7459565259
20
11.4146736731
30
0.0000000000
10
59.7367180845
20
11.4211068930
30
0.0000000000
10
59.7198444074
20
11.4325283277
30
0.0000000000
10
59.6965008773
20
11.4469646417
30
0.0000000000
10
59.6777345437
20
11.4569870201
30
0.0000000000
10
59.6664216715
20
11.4616226903
30
0.0000000000
10
59.6614944265
20
11.4629501387
30
0.0000000000
11
59.7459565259
21
11.4146736731
31
0.0000000000
11
59.7179282150
21
11.4335159089
31
0.0000000000
11
59.6945869190
21
11.4477658267
31
0.0000000000
11
59.6758149016
21
11.4575387841
31
0.0000000000
11
59.6614944265
21
11.4629501387
31
0.0000000000
0
SPLINE
5
455
100
AcDbEntity
8
0
100
AcDbSpline
62
9
6
CONTINUOUS
70
0
71
3
72
9
73
5
74
3
42
0.0000001000
43
0.0000001000
44
0.0000000001
12
-0.0082653239
22
-0.0595212826
32
0.0000000000
13
-0.0083557447
23
-0.0595086565
33
0.0000000000
40
0.0000000000
40
0.0000000000
40
0.0000000000
40
0.0000000000
40
0.4998374697
40
1.0000000000
40
1.0000000000
40
1.0000000000
40
1.0000000000
10
59.7459565259
20
11.4146736731
30
0.0000000000
10
59.7445794197
20
11.4047566840
30
0.0000000000
10
59.7418167523
20
11.3849173054
30
0.0000000000
10
59.7390390148
20
11.3650800313
30
0.0000000000
10
59.7376459380
20
11.3551586979
30
0.0000000000
11
59.7459565259
21
11.4146736731
31
0.0000000000
11
59.7418138853
21
11.3849242802
31
0.0000000000
11
59.7376459380
21
11.3551586979
31
0.0000000000
0
SPLINE
5
456
100
AcDbEntity
8
0
100
AcDbSpline
62
9
6
CONTINUOUS
70
0
71
3
72
11
73
7
74
5
42
0.0000001000
43
0.0000001000
44
0.0000000001
12
-0.5152549942
22
-0.5989198509
32
0.0000000000
13
-0.1086674651
23
-0.7825497288
33
0.0000000000
40
0.0000000000
40
0.0000000000
40
0.0000000000
40
0.0000000000
40
0.2544634299
40
0.5079517325
40
0.7574237691
40
1.0000000000
40
1.0000000000
40
1.0000000000
40
1.0000000000
10
60.0711145556
20
12.1237972659
30
0.0000000000
10
60.0274100379
20
12.0729961994
30
0.0000000000
10
59.9472983672
20
11.9652268098
30
0.0000000000
10
59.8512775139
20
11.7896561051
30
0.0000000000
10
59.7824287124
20
11.6050959989
30
0.0000000000
10
59.7547432406
20
11.4779496610
30
0.0000000000
10
59.7459565259
20
11.4146736731
30
0.0000000000
11
60.0711145556
21
12.1237972659
31
0.0000000000
11
59.9510889571
21
11.9625169051
31
0.0000000000
11
59.8551663649
21
11.7867125203
31
0.0000000000
11
59.7863557272
21
11.6020167210
31
0.0000000000
11
59.7459565259
21
11.4146736731
31
0.0000000000
0
SPLINE
5
457
100
AcDbEntity
8
0
100
AcDbSpline
62
9
6
CONTINUOUS
70
0
71
3
72
10
73
6
74
4
42
0.0000001000
43
0.0000001000
44
0.0000000001
12
0.0000000000
22
1.5116197255
32
0.0000000000
13
0.7837669744
23
1.2925569721
33
0.0000000000
40
0.0000000000
40
0.0000000000
40
0.0000000000
40
0.0000000000
40
0.4279096880
40
0.8566004734
40
1.0000000000
40
1.0000000000
40
1.0000000000
40
1.0000000000
10
57.6448430853
20
14.0000000000
30
0.0000000000
10
57.6448430853
20
14.2156122417
30
0.0000000000
10
57.6939508480
20
14.6487809510
30
0.0000000000
10
57.8666329315
20
15.1274995450
30
0.0000000000
10
58.0062535643
20
15.3799702062
30
0.0000000000
10
58.0437175020
20
15.4417542255
30
0.0000000000
11
57.6448430853
21
14.0000000000
31
0.0000000000
11
57.7185639861
21
14.6426219555
31
0.0000000000
11
57.9388246564
21
15.2520576364
31
0.0000000000
11
58.0437175020
21
15.4417542255
31
0.0000000000
0
SPLINE
5
458
100
AcDbEntity
8
0
100
AcDbSpline
62
9
6
CONTINUOUS
70
0
71
3
72
11
73
7
74
5
42
0.0000001000
43
0.0000001000
44
0.0000000001
12
-1.5397930128
22
1.4187598753
32
0.0000000000
13
0.0000000000
23
2.0937626668
33
0.0000000000
40
0.0000000000
40
0.0000000000
40
0.0000000000
40
0.0000000000
40
0.2487576462
40
0.4987683189
40
0.7493151485
40
1.0000000000
40
1.0000000000
40
1.0000000000
40
1.0000000000
10
58.4413317618
20
12.1237972659
30
0.0000000000
10
58.3136533333
20
12.2414397216
30
0.0000000000
10
58.0831943689
20
12.5066995716
30
0.0000000000
10
57.8306971107
20
12.9689407652
30
0.0000000000
10
57.6781538596
20
13.4742295201
30
0.0000000000
10
57.6448430853
20
13.8250418056
30
0.0000000000
10
57.6448430853
20
14.0000000000
30
0.0000000000
11
58.4413317618
21
12.1237972659
31
0.0000000000
11
58.0992922306
21
12.5165856511
31
0.0000000000
11
57.8476000717
21
12.9755677673
31
0.0000000000
11
57.6952891222
21
13.4775552417
31
0.0000000000
11
57.6448430853
21
14.0000000000
31
0.0000000000
0
SPLINE
5
459
100
AcDbEntity
8
0
100
AcDbSpline
62
9
6
CONTINUOUS
70
0
71
3
72
13
73
9
74
7
42
0.0000001000
43
0.0000001000
44
0.0000000001
12
-0.7353260975
22
-0.0383875871
32
0.0000000000
13
-0.0307181506
23
-0.7356863936
33
0.0000000000
40
0.0000000000
40
0.0000000000
40
0.0000000000
40
0.0000000000
40
0.1661760139
40
0.3329167328
40
0.4996404914
40
0.6663226984
40
0.8331932491
40
1.0000000000
40
1.0000000000
40
1.0000000000
40
1.0000000000
10
1.4061867550
20
44.9755923698
30
0.0000000000
10
1.3654555684
20
44.9734660044
30
0.0000000000
10
1.2840319255
20
44.9590758242
30
0.0000000000
10
1.1710262535
20
44.9084670293
30
0.0000000000
10
1.0735717535
20
44.8317731277
30
0.0000000000
10
0.9977549322
20
44.7335934973
30
0.0000000000
10
0.9481308701
20
44.6199569645
30
0.0000000000
10
0.9345046962
20
44.5382017357
30
0.0000000000
10
0.9327966979
20
44.4972959167
30
0.0000000000
11
1.4061867550
21
44.9755923698
31
0.0000000000
11
1.2856964837
21
44.9542838406
31
0.0000000000
11
1.1736338876
21
44.9041254636
31
0.0000000000
11
1.0771738436
21
44.8281894262
31
0.0000000000
11
1.0021458360
21
44.7310600855
31
0.0000000000
11
0.9529931233
21
44.6184484404
31
0.0000000000
11
0.9327966979
21
44.4972959167
31
0.0000000000
0
SPLINE
5
45A
100
AcDbEntity
8
0
100
AcDbSpline
62
9
6
CONTINUOUS
70
0
71
3
72
12
73
8
74
6
42
0.0000001000
43
0.0000001000
44
0.0000000001
12
-0.0261470927
22
0.4990710030
32
0.0000000000
13
0.4990705785
23
0.0261551809
33
0.0000000000
40
0.0000000000
40
0.0000000000
40
0.0000000000
40
0.0000000000
40
0.3089436939
40
0.5876060637
40
0.8087537240
40
0.9507915428
40
1.0000000000
40
1.0000000000
40
1.0000000000
40
1.0000000000
10
1.4061867550
20
44.9755923698
30
0.0000000000
10
1.4034940952
20
45.0269873162
30
0.0000000000
10
1.3978379601
20
45.1256520607
30
0.0000000000
10
1.3949710384
20
45.2567809177
30
0.0000000000
10
1.3832590634
20
45.3725158008
30
0.0000000000
10
1.3965868612
20
45.4242212339
30
0.0000000000
10
1.3805588111
20
45.4744781183
30
0.0000000000
10
1.3887449755
20
45.4749071370
30
0.0000000000
11
1.4061867550
21
44.9755923698
31
0.0000000000
11
1.3985342089
21
45.1297989097
31
0.0000000000
11
1.3924829242
21
45.2689304222
31
0.0000000000
11
1.3886246234
21
45.3793828085
31
0.0000000000
11
1.3873366372
21
45.4503553003
31
0.0000000000
11
1.3887449755
21
45.4749071370
31
0.0000000000
0
SPLINE
5
45B
100
AcDbEntity
8
0
100
AcDbSpline
62
9
6
CONTINUOUS
70
0
71
3
72
10
73
6
74
4
42
0.0000001000
43
0.0000001000
44
0.0000000001
12
-1.7657692806
22
-41.9684644000
32
0.0000000000
13
1.7657699766
23
-41.9684643761
33
0.0000000000
40
0.0000000000
40
0.0000000000
40
0.0000000000
40
0.0000000000
40
0.3333323477
40
0.6666669816
40
1.0000000000
40
1.0000000000
40
1.0000000000
40
1.0000000000
10
0.9327966979
20
44.4972959167
30
0.0000000000
10
0.7366006913
20
39.8341469941
30
0.0000000000
10
0.4749177321
20
30.5017671651
30
0.0000000000
10
0.4749174354
20
16.4982516231
30
0.0000000000
10
0.7366002192
20
7.1658623860
30
0.0000000000
10
0.9327966979
20
2.5027040833
30
0.0000000000
11
0.9327966979
21
44.4972959167
31
0.0000000000
11
0.5403388711
21
30.5009737720
31
0.0000000000
11
0.5403384979
21
16.4990544027
31
0.0000000000
11
0.9327966979
21
2.5027040833
31
0.0000000000
0
SPLINE
5
45C
100
AcDbEntity
8
0
100
AcDbSpline
62
9
6
CONTINUOUS
70
0
71
3
72
13
73
9
74
7
42
0.0000001000
43
0.0000001000
44
0.0000000001
12
0.0307181308
22
-0.7356863936
32
0.0000000000
13
0.7353260957
23
-0.0383876304
33
0.0000000000
40
0.0000000000
40
0.0000000000
40
0.0000000000
40
0.0000000000
40
0.1668067509
40
0.3336773015
40
0.5003595086
40
0.6670832671
40
0.8338239861
40
1.0000000000
40
1.0000000000
40
1.0000000000
40
1.0000000000
10
0.9327966979
20
2.5027040833
30
0.0000000000
10
0.9345046951
20
2.4617982643
30
0.0000000000
10
0.9481308711
20
2.3800430356
30
0.0000000000
10
0.9977549317
20
2.2664065026
30
0.0000000000
10
1.0735717535
20
2.1682268720
30
0.0000000000
10
1.1710262538
20
2.0915329716
30
0.0000000000
10
1.2840319252
20
2.0409241740
30
0.0000000000
10
1.3654555685
20
2.0265339980
30
0.0000000000
10
1.4061867550
20
2.0244076302
30
0.0000000000
11
0.9327966979
21
2.5027040833
31
0.0000000000
11
0.9529931236
21
2.3815515597
31
0.0000000000
11
1.0021458358
21
2.2689399145
31
0.0000000000
11
1.0771738436
21
2.1718105737
31
0.0000000000
11
1.1736338877
21
2.0958745367
31
0.0000000000
11
1.2856964836
21
2.0457161591
31
0.0000000000
11
1.4061867550
21
2.0244076302
31
0.0000000000
0
SPLINE
5
45D
100
AcDbEntity
8
0
100
AcDbSpline
62
9
6
CONTINUOUS
70
0
71
3
72
12
73
8
74
6
42
0.0000001000
43
0.0000001000
44
0.0000000001
12
-0.0261472367
22
-0.4990710016
32
0.0000000000
13
0.4990705871
23
-0.0261551834
33
0.0000000000
40
0.0000000000
40
0.0000000000
40
0.0000000000
40
0.0000000000
40
0.3089507471
40
0.5876147125
40
0.8087596427
40
0.9507934516
40
1.0000000000
40
1.0000000000
40
1.0000000000
40
1.0000000000
10
1.4061867550
20
2.0244076302
30
0.0000000000
10
1.4034940189
20
1.9730115106
30
0.0000000000
10
1.3978377710
20
1.8743452919
30
0.0000000000
10
1.3949708456
20
1.7432155186
30
0.0000000000
10
1.3832590263
20
1.6274815185
30
0.0000000000
10
1.3965864513
20
1.5757771511
30
0.0000000000
10
1.3805591331
20
1.5255218649
30
0.0000000000
10
1.3887449801
20
1.5250928628
30
0.0000000000
11
1.4061867550
21
2.0244076302
31
0.0000000000
11
1.3985340079
21
1.8701975692
31
0.0000000000
11
1.3924826976
21
1.7310652579
31
0.0000000000
11
1.3886244854
21
1.6206142325
31
0.0000000000
11
1.3873366050
21
1.5496437422
31
0.0000000000
11
1.3887449801
21
1.5250928628
31
0.0000000000
0
SPLINE
5
45E
100
AcDbEntity
8
0
100
AcDbSpline
62
9
6
CONTINUOUS
70
0
71
3
72
11
73
7
74
5
42
0.0000001000
43
0.0000001000
44
0.0000000001
12
0.0024528403
22
-1.2499558604
32
0.0000000000
13
-0.0019132448
23
-1.2499568028
33
0.0000000000
40
0.0000000000
40
0.0000000000
40
0.0000000000
40
0.0000000000
40
0.2240703151
40
0.4700937809
40
0.7311584940
40
1.0000000000
40
1.0000000000
40
1.0000000000
40
1.0000000000
10
37.0087262032
20
40.7019339451
30
0.0000000000
10
37.0089094061
20
40.6085746106
30
0.0000000000
10
37.0091707481
20
40.4127088709
30
0.0000000000
10
37.0092910859
20
40.1080696595
30
0.0000000000
10
37.0091556064
20
39.7847764142
30
0.0000000000
10
37.0088976564
20
39.5639896553
30
0.0000000000
10
37.0087262032
20
39.4519762322
30
0.0000000000
11
37.0087262032
21
40.7019339451
31
0.0000000000
11
37.0091167461
21
40.4218556747
31
0.0000000000
11
37.0092481239
21
40.1143366379
31
0.0000000000
11
37.0091168125
21
39.7880166680
31
0.0000000000
11
37.0087262032
21
39.4519762322
31
0.0000000000
0
SPLINE
5
45F
100
AcDbEntity
8
0
100
AcDbSpline
62
9
6
CONTINUOUS
70
0
71
3
72
9
73
5
74
3
42
0.0000001000
43
0.0000001000
44
0.0000000001
12
27.5087315071
22
-0.1668108151
32
0.0000000000
13
27.5087208227
23
-0.1685642211
33
0.0000000000
40
0.0000000000
40
0.0000000000
40
0.0000000000
40
0.0000000000
40
0.4989034142
40
1.0000000000
40
1.0000000000
40
1.0000000000
40
1.0000000000
10
9.5000000000
20
39.6196591660
30
0.0000000000
10
14.0747333564
20
39.5919183376
30
0.0000000000
10
23.2443096563
20
39.5361712077
30
0.0000000000
10
32.4138841752
20
39.4801318841
30
0.0000000000
10
37.0087262032
20
39.4519762322
30
0.0000000000
11
9.5000000000
21
39.6196591660
31
0.0000000000
11
23.2241987587
21
39.5362207424
31
0.0000000000
11
37.0087262032
21
39.4519762322
31
0.0000000000
0
SPLINE
5
460
100
AcDbEntity
8
0
100
AcDbSpline
62
9
6
CONTINUOUS
70
0
71
3
72
9
73
5
74
3
42
0.0000001000
43
0.0000001000
44
0.0000000001
12
27.5087304971
22
-0.1567445568
32
0.0000000000
13
27.5087218504
23
-0.1582543041
33
0.0000000000
40
0.0000000000
40
0.0000000000
40
0.0000000000
40
0.0000000000
40
0.4989034222
40
1.0000000000
40
1.0000000000
40
1.0000000000
40
1.0000000000
10
9.5000000000
20
40.8594295692
30
0.0000000000
10
14.0747332618
20
40.8333627706
30
0.0000000000
10
23.2443093895
20
40.7809909339
30
0.0000000000
10
32.4138840769
20
40.7283675082
30
0.0000000000
10
37.0087262032
20
40.7019339448
30
0.0000000000
11
9.5000000000
21
40.8594295692
31
0.0000000000
11
23.2241987238
21
40.7810431718
31
0.0000000000
11
37.0087262032
21
40.7019339448
31
0.0000000000
0
SPLINE
5
461
100
AcDbEntity
8
0
100
AcDbSpline
62
9
6
CONTINUOUS
70
0
71
3
72
12
73
8
74
6
42
0.0000001000
43
0.0000001000
44
0.0000000001
12
0.0000000000
22
0.6571982406
32
0.0000000000
13
-0.6571508402
23
0.0078930608
33
0.0000000000
40
0.0000000000
40
0.0000000000
40
0.0000000000
40
0.0000000000
40
0.1632108397
40
0.3426229978
40
0.5443326278
40
0.7662989507
40
1.0000000000
40
1.0000000000
40
1.0000000000
40
1.0000000000
10
37.5000000000
20
42.0927146932
30
0.0000000000
10
37.5000000000
20
42.1284686521
30
0.0000000000
10
37.4819471425
20
42.2042933677
30
0.0000000000
10
37.4079275327
20
42.3011160340
30
0.0000000000
10
37.2970407846
20
42.3762292916
30
0.0000000000
10
37.1599635260
20
42.4244017875
30
0.0000000000
10
37.0599184835
20
42.4361032474
30
0.0000000000
10
37.0087262032
20
42.4367181196
30
0.0000000000
11
37.5000000000
21
42.0927146932
31
0.0000000000
11
37.4763251088
21
42.1973311819
31
0.0000000000
11
37.4069155329
21
42.2926460636
31
0.0000000000
11
37.2983974374
21
42.3687829707
31
0.0000000000
11
37.1612172393
21
42.4183951133
31
0.0000000000
11
37.0087262032
21
42.4367181196
31
0.0000000000
0
SPLINE
5
462
100
AcDbEntity
8
0
100
AcDbSpline
62
9
6
CONTINUOUS
70
0
71
3
72
10
73
6
74
4
42
0.0000001000
43
0.0000001000
44
0.0000000001
12
0.1559123562
22
-0.0027214609
32
0.0000000000
13
0.0033317570
23
-0.1559005100
33
0.0000000000
40
0.0000000000
40
0.0000000000
40
0.0000000000
40
0.0000000000
40
0.1155722653
40
0.4571895520
40
1.0000000000
40
1.0000000000
40
1.0000000000
40
1.0000000000
10
37.0087262032
20
42.5926385408
30
0.0000000000
10
37.0147325846
20
42.5925336990
30
0.0000000000
10
37.0018279637
20
42.5545267913
30
0.0000000000
10
37.0146656986
20
42.5162781987
30
0.0000000000
10
37.0081233657
20
42.4649262615
30
0.0000000000
10
37.0087262032
20
42.4367181196
30
0.0000000000
11
37.0087262032
21
42.5926385408
31
0.0000000000
11
37.0094079951
21
42.5746295528
31
0.0000000000
11
37.0094127791
21
42.5213590832
31
0.0000000000
11
37.0087262032
21
42.4367181196
31
0.0000000000
0
SPLINE
5
463
100
AcDbEntity
8
0
100
AcDbSpline
62
9
6
CONTINUOUS
70
0
71
3
72
10
73
6
74
4
42
0.0000001000
43
0.0000001000
44
0.0000000001
12
0.1229631100
22
0.0021463304
32
0.0000000000
13
-0.0012235856
23
0.1229757535
33
0.0000000000
40
0.0000000000
40
0.0000000000
40
0.0000000000
40
0.0000000000
40
0.1155814602
40
0.4553121375
40
1.0000000000
40
1.0000000000
40
1.0000000000
40
1.0000000000
10
17.4708547979
20
2.3693115283
30
0.0000000000
10
17.4755922165
20
2.3693942203
30
0.0000000000
10
17.4654349437
20
2.3992549249
30
0.0000000000
10
17.4753241371
20
2.4294491754
30
0.0000000000
10
17.4710769553
20
2.4699538021
30
0.0000000000
10
17.4708547979
20
2.4922816022
30
0.0000000000
11
17.4708547979
21
2.3693115283
31
0.0000000000
11
17.4713800398
21
2.3835162415
31
0.0000000000
11
17.4713800398
21
2.4252969455
31
0.0000000000
11
17.4708547979
21
2.4922816022
31
0.0000000000
0
SPLINE
5
464
100
AcDbEntity
8
0
100
AcDbSpline
62
9
6
CONTINUOUS
70
0
71
3
72
12
73
8
74
6
42
0.0000001000
43
0.0000001000
44
0.0000000001
12
-0.1226532831
22
-0.0024072211
32
0.0000000000
13
0.0004875076
23
0.1226759352
33
0.0000000000
40
0.0000000000
40
0.0000000000
40
0.0000000000
40
0.0000000000
40
0.0815036479
40
0.1985341023
40
0.3819483607
40
0.6446314150
40
1.0000000000
40
1.0000000000
40
1.0000000000
40
1.0000000000
10
13.6965095187
20
2.3034300864
30
0.0000000000
10
13.6931772887
20
2.3033646873
30
0.0000000000
10
13.6984250538
20
2.3171438400
30
0.0000000000
10
13.6952066504
20
2.3293697319
30
0.0000000000
10
13.6967762192
20
2.3540525340
30
0.0000000000
10
13.6961375259
20
2.3860618009
30
0.0000000000
10
13.6964517704
20
2.4115730518
30
0.0000000000
10
13.6965095187
20
2.4261047763
30
0.0000000000
11
13.6965095187
21
2.3034300864
31
0.0000000000
11
13.6963196311
21
2.3134268983
31
0.0000000000
11
13.6962772001
21
2.3277837695
31
0.0000000000
11
13.6962849938
21
2.3502844616
31
0.0000000000
11
13.6963571234
21
2.3825095248
31
0.0000000000
11
13.6965095187
21
2.4261047763
31
0.0000000000
0
SPLINE
5
465
100
AcDbEntity
8
0
100
AcDbSpline
62
9
6
CONTINUOUS
70
0
71
3
72
10
73
6
74
4
42
0.0000001000
43
0.0000001000
44
0.0000000001
12
-0.2574034285
22
-0.2574034285
32
0.0000000000
13
-0.3320860661
23
0.1491036362
33
0.0000000000
40
0.0000000000
40
0.0000000000
40
0.0000000000
40
0.0000000000
40
0.2874755625
40
0.6159141315
40
1.0000000000
40
1.0000000000
40
1.0000000000
40
1.0000000000
10
17.8156819853
20
2.5156819853
30
0.0000000000
10
17.7910162535
20
2.4910162535
30
0.0000000000
10
17.7220092033
20
2.4531704723
30
0.0000000000
10
17.5980305043
20
2.4496341948
30
0.0000000000
10
17.5133713196
20
2.4731920690
30
0.0000000000
10
17.4708547979
20
2.4922816022
30
0.0000000000
11
17.8156819853
21
2.5156819853
31
0.0000000000
11
17.7249967952
21
2.4634577942
31
0.0000000000
11
17.6057112108
21
2.4553718203
31
0.0000000000
11
17.4708547979
21
2.4922816022
31
0.0000000000
0
SPLINE
5
466
100
AcDbEntity
8
0
100
AcDbSpline
62
9
6
CONTINUOUS
70
0
71
3
72
10
73
6
74
4
42
0.0000001000
43
0.0000001000
44
0.0000000001
12
-0.2577162410
22
-0.2577161862
32
0.0000000000
13
-0.3261892540
23
0.1625910936
33
0.0000000000
40
0.0000000000
40
0.0000000000
40
0.0000000000
40
0.0000000000
40
0.2741764692
40
0.6024601880
40
1.0000000000
40
1.0000000000
40
1.0000000000
40
1.0000000000
10
19.2000172211
20
3.9000172212
30
0.0000000000
10
19.1764639781
20
3.8764639832
30
0.0000000000
10
19.1063374689
20
3.8424400768
30
0.0000000000
10
18.9820539117
20
3.8489686095
30
0.0000000000
10
18.8984144383
20
3.8800543326
30
0.0000000000
10
18.8551900334
20
3.9015998102
30
0.0000000000
11
19.2000172211
21
3.9000172212
31
0.0000000000
11
19.1116519144
21
3.8533571199
31
0.0000000000
11
18.9920049980
21
3.8539062411
31
0.0000000000
11
18.8551900334
21
3.9015998102
31
0.0000000000
0
SPLINE
5
467
100
AcDbEntity
8
0
100
AcDbSpline
62
9
6
CONTINUOUS
70
0
71
3
72
10
73
6
74
4
42
0.0000001000
43
0.0000001000
44
0.0000000001
12
0.1541895283
22
0.0027548121
32
0.0000000000
13
-0.0015921804
23
0.1542059163
33
0.0000000000
40
0.0000000000
40
0.0000000000
40
0.0000000000
40
0.0000000000
40
0.1167863687
40
0.4582740067
40
1.0000000000
40
1.0000000000
40
1.0000000000
40
1.0000000000
10
19.6827753024
20
4.1049347855
30
0.0000000000
10
19.6887777141
20
4.1050420270
30
0.0000000000
10
19.6759739565
20
4.1427347110
30
0.0000000000
10
19.6883589681
20
4.1805972156
30
0.0000000000
10
19.6830627169
20
4.2312876770
30
0.0000000000
10
19.6827752084
20
4.2591334614
30
0.0000000000
11
19.6827753024
21
4.1049347855
31
0.0000000000
11
19.6834520224
21
4.1229321762
31
0.0000000000
11
19.6834520290
21
4.1755943972
31
0.0000000000
11
19.6827752084
21
4.2591334614
31
0.0000000000
0
SPLINE
5
468
100
AcDbEntity
8
0
100
AcDbSpline
62
9
6
CONTINUOUS
70
0
71
3
72
10
73
6
74
4
42
0.0000001000
43
0.0000001000
44
0.0000000001
12
-0.1559122906
22
-0.0027214606
32
0.0000000000
13
-0.0041780962
23
0.1558800580
33
0.0000000000
40
0.0000000000
40
0.0000000000
40
0.0000000000
40
0.0000000000
40
0.1179250233
40
0.4625162720
40
1.0000000000
40
1.0000000000
40
1.0000000000
40
1.0000000000
10
37.0087262032
20
4.4073614592
30
0.0000000000
10
37.0025975497
20
4.4072544831
30
0.0000000000
10
37.0189729906
20
4.4462450849
30
0.0000000000
10
37.0033587602
20
4.4839985626
30
0.0000000000
10
37.0094747561
20
4.5353542155
30
0.0000000000
10
37.0087262032
20
4.5632818804
30
0.0000000000
11
37.0087262032
21
4.4073614592
31
0.0000000000
11
37.0094138669
21
4.4257373580
31
0.0000000000
11
37.0094059768
21
4.4794715525
31
0.0000000000
11
37.0087262032
21
4.5632818804
31
0.0000000000
0
SPLINE
5
469
100
AcDbEntity
8
0
100
AcDbSpline
62
9
6
CONTINUOUS
70
0
71
3
72
12
73
8
74
6
42
0.0000001000
43
0.0000001000
44
0.0000000001
12
0.0000000000
22
-0.6571938638
32
0.0000000000
13
-0.6571464627
23
-0.0078930080
33
0.0000000000
40
0.0000000000
40
0.0000000000
40
0.0000000000
40
0.0000000000
40
0.1641302470
40
0.3433814393
40
0.5448129117
40
0.7664284784
40
1.0000000000
40
1.0000000000
40
1.0000000000
40
1.0000000000
10
37.5000000000
20
4.9072853068
30
0.0000000000
10
37.5000000000
20
4.8713301764
30
0.0000000000
10
37.4817940511
20
4.7953329515
30
0.0000000000
10
37.4075527049
20
4.6985716169
30
0.0000000000
10
37.2967570431
20
4.6236521303
30
0.0000000000
10
37.1598286094
20
4.5755798781
30
0.0000000000
10
37.0598897696
20
4.5638964077
30
0.0000000000
10
37.0087262032
20
4.5632818804
30
0.0000000000
11
37.5000000000
21
4.9072853068
31
0.0000000000
11
37.4760646964
21
4.8021090555
31
0.0000000000
11
37.4065503805
21
4.7070025064
31
0.0000000000
11
37.2981124374
21
4.6310712758
31
0.0000000000
11
37.1611328476
21
4.5815851120
31
0.0000000000
11
37.0087262032
21
4.5632818804
31
0.0000000000
0
SPLINE
5
46A
100
AcDbEntity
8
0
100
AcDbSpline
62
9
6
CONTINUOUS
70
0
71
3
72
11
73
7
74
5
42
0.0000001000
43
0.0000001000
44
0.0000000001
12
-0.0000000015
22
-0.6339250157
32
0.0000000000
13
-0.6338872870
23
-0.0069161580
33
0.0000000000
40
0.0000000000
40
0.0000000000
40
0.0000000000
40
0.0000000000
40
0.1957009145
40
0.4265244839
40
0.6997450318
40
1.0000000000
40
1.0000000000
40
1.0000000000
40
1.0000000000
10
37.5000000000
20
6.6105554833
30
0.0000000000
10
37.4999999999
20
6.5692022482
30
0.0000000000
10
37.4682150999
20
6.4783687234
30
0.0000000000
10
37.3532418352
20
6.3789533954
30
0.0000000000
10
37.1938287515
20
6.3142828431
30
0.0000000000
10
37.0721688056
20
6.2987582588
30
0.0000000000
10
37.0087262032
20
6.2980660552
30
0.0000000000
11
37.5000000000
21
6.6105554833
31
0.0000000000
11
37.4627702632
21
6.4922137866
31
0.0000000000
11
37.3566252496
21
6.3914954001
31
0.0000000000
11
37.1973719495
21
6.3233992137
31
0.0000000000
11
37.0087262032
21
6.2980660552
31
0.0000000000
0
SPLINE
5
46B
100
AcDbEntity
8
0
100
AcDbSpline
62
9
6
CONTINUOUS
70
0
71
3
72
11
73
7
74
5
42
0.0000001000
43
0.0000001000
44
0.0000000001
12
-0.0000000015
22
0.6339250606
32
0.0000000000
13
-0.6338873312
23
0.0069161369
33
0.0000000000
40
0.0000000000
40
0.0000000000
40
0.0000000000
40
0.0000000000
40
0.1956980082
40
0.4265201556
40
0.6997417280
40
1.0000000000
40
1.0000000000
40
1.0000000000
40
1.0000000000
10
37.5000000000
20
40.3894445167
30
0.0000000000
10
37.4999999999
20
40.4307971406
30
0.0000000000
10
37.4682159499
20
40.5216297768
30
0.0000000000
10
37.3532438686
20
40.6210454764
30
0.0000000000
10
37.1938303938
20
40.6857168800
30
0.0000000000
10
37.0721695081
20
40.7012417372
30
0.0000000000
10
37.0087262032
20
40.7019339463
30
0.0000000000
11
37.5000000000
21
40.3894445167
31
0.0000000000
11
37.4627713092
21
40.5077846202
31
0.0000000000
11
37.3566276150
21
40.6085031025
31
0.0000000000
11
37.1973740026
21
40.6766002411
31
0.0000000000
11
37.0087262032
21
40.7019339463
31
0.0000000000
0
SPLINE
5
46C
100
AcDbEntity
8
0
100
AcDbSpline
62
9
6
CONTINUOUS
70
0
71
3
72
10
73
6
74
4
42
0.0000001000
43
0.0000001000
44
0.0000000001
12
-0.2574034353
22
0.2574034353
32
0.0000000000
13
-0.3320860463
23
-0.1491037051
33
0.0000000000
40
0.0000000000
40
0.0000000000
40
0.0000000000
40
0.0000000000
40
0.2874756097
40
0.6159141701
40
1.0000000000
40
1.0000000000
40
1.0000000000
40
1.0000000000
10
17.8156819853
20
44.4843180147
30
0.0000000000
10
17.7910162488
20
44.5089837512
30
0.0000000000
10
17.7220091968
20
44.5468295430
30
0.0000000000
10
17.5980304922
20
44.5503658232
30
0.0000000000
10
17.5133713128
20
44.5268079379
30
0.0000000000
10
17.4708547979
20
44.5077183978
30
0.0000000000
11
17.8156819853
21
44.4843180147
31
0.0000000000
11
17.7249967805
21
44.5365422205
31
0.0000000000
11
17.6057111961
21
44.5446281945
31
0.0000000000
11
17.4708547979
21
44.5077183978
31
0.0000000000
0
SPLINE
5
46D
100
AcDbEntity
8
0
100
AcDbSpline
62
9
6
CONTINUOUS
70
0
71
3
72
10
73
6
74
4
42
0.0000001000
43
0.0000001000
44
0.0000000001
12
-0.2577152901
22
0.2577162519
32
0.0000000000
13
-0.3261892736
23
-0.1625896536
33
0.0000000000
40
0.0000000000
40
0.0000000000
40
0.0000000000
40
0.0000000000
40
0.2741775937
40
0.6024612117
40
1.0000000000
40
1.0000000000
40
1.0000000000
40
1.0000000000
10
19.2000166410
20
43.0999821987
30
0.0000000000
10
19.1764633883
20
43.1235355393
30
0.0000000000
10
19.1063371440
20
43.1575598434
30
0.0000000000
10
18.9820537275
20
43.1510322014
30
0.0000000000
10
18.8984143674
20
43.1199469408
30
0.0000000000
10
18.8551900712
20
43.0984017095
30
0.0000000000
11
19.2000166410
21
43.0999821987
31
0.0000000000
11
19.1116513440
21
43.1466428286
31
0.0000000000
11
18.9920046664
21
43.1460944495
31
0.0000000000
11
18.8551900712
21
43.0984017095
31
0.0000000000
0
SPLINE
5
46E
100
AcDbEntity
8
0
100
AcDbSpline
62
9
6
CONTINUOUS
70
0
71
3
72
10
73
6
74
4
42
0.0000001000
43
0.0000001000
44
0.0000000001
12
0.1541865202
22
-0.0026913358
32
0.0000000000
13
-0.0015909052
23
-0.1542018026
33
0.0000000000
40
0.0000000000
40
0.0000000000
40
0.0000000000
40
0.0000000000
40
0.1167843102
40
0.4582717998
40
1.0000000000
40
1.0000000000
40
1.0000000000
40
1.0000000000
10
19.6827752835
20
42.8950641391
30
0.0000000000
10
19.6887774723
20
42.8949593705
30
0.0000000000
10
19.6759731306
20
42.8572619471
30
0.0000000000
10
19.6883587321
20
42.8194062136
30
0.0000000000
10
19.6830625629
20
42.7687147256
30
0.0000000000
10
19.6827752835
20
42.7408695706
30
0.0000000000
11
19.6827752835
21
42.8950641391
31
0.0000000000
11
19.6834515895
21
42.8770675327
31
0.0000000000
11
19.6834515896
21
42.8244067438
31
0.0000000000
11
19.6827752835
21
42.7408695706
31
0.0000000000
0
SPLINE
5
46F
100
AcDbEntity
8
0
100
AcDbSpline
62
9
6
CONTINUOUS
70
0
71
3
72
10
73
6
74
4
42
0.0000001000
43
0.0000001000
44
0.0000000001
12
0.1229631100
22
-0.0021463304
32
0.0000000000
13
-0.0012235856
23
-0.1229757535
33
0.0000000000
40
0.0000000000
40
0.0000000000
40
0.0000000000
40
0.0000000000
40
0.1155814602
40
0.4553121375
40
1.0000000000
40
1.0000000000
40
1.0000000000
40
1.0000000000
10
17.4708547979
20
44.6306884717
30
0.0000000000
10
17.4755922165
20
44.6306057797
30
0.0000000000
10
17.4654349437
20
44.6007450751
30
0.0000000000
10
17.4753241371
20
44.5705508246
30
0.0000000000
10
17.4710769553
20
44.5300461979
30
0.0000000000
10
17.4708547979
20
44.5077183978
30
0.0000000000
11
17.4708547979
21
44.6306884717
31
0.0000000000
11
17.4713800398
21
44.6164837585
31
0.0000000000
11
17.4713800398
21
44.5747030545
31
0.0000000000
11
17.4708547979
21
44.5077183978
31
0.0000000000
0
SPLINE
5
470
100
AcDbEntity
8
0
100
AcDbSpline
62
9
6
CONTINUOUS
70
0
71
3
72
12
73
8
74
6
42
0.0000001000
43
0.0000001000
44
0.0000000001
12
-0.0004875183
22
0.1226759356
32
0.0000000000
13
0.1226532974
23
-0.0024066213
33
0.0000000000
40
0.0000000000
40
0.0000000000
40
0.0000000000
40
0.0000000000
40
0.3553676081
40
0.6180509815
40
0.8014656476
40
0.9184962344
40
1.0000000000
40
1.0000000000
40
1.0000000000
40
1.0000000000
10
13.6965095187
20
44.5738952237
30
0.0000000000
10
13.6964517693
20
44.5884269083
30
0.0000000000
10
13.6961375274
20
44.6139381304
30
0.0000000000
10
13.6967762204
20
44.6459473906
30
0.0000000000
10
13.6952066475
20
44.6706302233
30
0.0000000000
10
13.6984250565
20
44.6828561533
30
0.0000000000
10
13.6931772835
20
44.6966352965
30
0.0000000000
10
13.6965095187
20
44.6965699136
30
0.0000000000
11
13.6965095187
21
44.5738952237
31
0.0000000000
11
13.6963571240
21
44.6174903554
31
0.0000000000
11
13.6962849940
21
44.6497154577
31
0.0000000000
11
13.6962771999
21
44.6722161998
31
0.0000000000
11
13.6963196311
21
44.6865730872
31
0.0000000000
11
13.6965095187
21
44.6965699136
31
0.0000000000
0
SPLINE
5
471
100
AcDbEntity
8
0
100
AcDbSpline
62
9
6
CONTINUOUS
70
0
71
3
72
10
73
6
74
4
42
0.0000001000
43
0.0000001000
44
0.0000000001
12
-17.3259505832
22
-0.3041707623
32
0.0000000000
13
-17.3259512545
23
-0.3041323540
33
0.0000000000
40
0.0000000000
40
0.0000000000
40
0.0000000000
40
0.0000000000
40
0.3339406662
40
0.6672739997
40
1.0000000000
40
1.0000000000
40
1.0000000000
40
1.0000000000
10
37.0087262032
20
4.5632819732
30
0.0000000000
10
35.0801130431
20
4.5294236442
30
0.0000000000
10
31.2263942386
20
4.4617698783
30
0.0000000000
10
25.4510772633
20
4.3603861483
30
0.0000000000
10
21.6043734376
20
4.2928613433
30
0.0000000000
10
19.6827752835
20
4.2591304294
30
0.0000000000
11
37.0087262032
21
4.5632819732
31
0.0000000000
11
31.2228866865
21
4.4617090630
31
0.0000000000
11
25.4475697094
21
4.3603252695
31
0.0000000000
11
19.6827752835
21
4.2591304294
31
0.0000000000
0
SPLINE
5
472
100
AcDbEntity
8
0
100
AcDbSpline
62
9
6
CONTINUOUS
70
0
71
3
72
8
73
4
74
2
42
0.0000001000
43
0.0000001000
44
0.0000000001
12
-0.0579365934
22
-0.0010383357
32
0.0000000000
13
-0.0578646909
23
-0.0038740389
33
0.0000000000
40
0.0000000000
40
0.0000000000
40
0.0000000000
40
0.0000000000
40
1.0000000000
40
1.0000000000
40
1.0000000000
40
1.0000000000
10
19.6827752835
20
4.2591304294
30
0.0000000000
10
19.6634630857
20
4.2587843175
30
0.0000000000
10
19.6441490478
20
4.2579653392
30
0.0000000000
10
19.6248608175
20
4.2566739929
30
0.0000000000
11
19.6827752835
21
4.2591304294
31
0.0000000000
11
19.6248608175
21
4.2566739929
31
0.0000000000
0
SPLINE
5
473
100
AcDbEntity
8
0
100
AcDbSpline
62
9
6
CONTINUOUS
70
0
71
3
72
12
73
8
74
6
42
0.0000001000
43
0.0000001000
44
0.0000000001
12
-0.8645249058
22
-0.0578799063
32
0.0000000000
13
-0.6067686251
23
-0.6175227935
33
0.0000000000
40
0.0000000000
40
0.0000000000
40
0.0000000000
40
0.0000000000
40
0.1346683832
40
0.3415489572
40
0.5554649700
40
0.7752792759
40
1.0000000000
40
1.0000000000
40
1.0000000000
40
1.0000000000
10
19.6248608175
20
4.2566739929
30
0.0000000000
10
19.5860527604
20
4.2540757951
30
0.0000000000
10
19.4878918678
20
4.2426363549
30
0.0000000000
10
19.3317003203
20
4.2040706990
30
0.0000000000
10
19.1603835079
20
4.1325867099
30
0.0000000000
10
18.9980538224
20
4.0323405240
30
0.0000000000
10
18.9006411954
20
3.9478565181
30
0.0000000000
10
18.8551900338
20
3.9015997950
30
0.0000000000
11
19.6248608175
21
4.2566739929
31
0.0000000000
11
19.5089752546
21
4.2431467791
31
0.0000000000
11
19.3350785047
21
4.2002712692
31
0.0000000000
11
19.1641653251
21
4.1289552974
31
0.0000000000
11
19.0022415142
21
4.0289783445
31
0.0000000000
11
18.8551900338
21
3.9015997950
31
0.0000000000
0
SPLINE
5
474
100
AcDbEntity
8
0
100
AcDbSpline
62
9
6
CONTINUOUS
70
0
71
3
72
9
73
5
74
3
42
0.0000001000
43
0.0000001000
44
0.0000000001
12
-1.3842691315
22
-1.4092728958
32
0.0000000000
13
-1.3842905720
23
-1.4092518339
33
0.0000000000
40
0.0000000000
40
0.0000000000
40
0.0000000000
40
0.0000000000
40
0.5274588657
40
1.0000000000
40
1.0000000000
40
1.0000000000
40
1.0000000000
10
18.8551900338
20
3.9015997950
30
0.0000000000
10
18.6118083585
20
3.6538219673
30
0.0000000000
10
18.1503525692
20
3.1840964983
30
0.0000000000
10
17.6890100069
20
2.7142598179
30
0.0000000000
10
17.4709652612
20
2.4922833312
30
0.0000000000
11
18.8551900338
21
3.9015997950
31
0.0000000000
11
18.1250419653
21
3.1582693007
31
0.0000000000
11
17.4709652612
21
2.4922833312
31
0.0000000000
0
SPLINE
5
475
100
AcDbEntity
8
0
100
AcDbSpline
62
9
6
CONTINUOUS
70
0
71
3
72
9
73
5
74
3
42
0.0000001000
43
0.0000001000
44
0.0000000001
12
1.3842915764
22
-1.4092528718
32
0.0000000000
13
1.3842701459
23
-1.4092739225
33
0.0000000000
40
0.0000000000
40
0.0000000000
40
0.0000000000
40
0.0000000000
40
0.4727982380
40
1.0000000000
40
1.0000000000
40
1.0000000000
40
1.0000000000
10
17.4709632489
20
44.5077167158
30
0.0000000000
10
17.6891267883
20
44.2856192909
30
0.0000000000
10
18.1504712794
20
43.8157838306
30
0.0000000000
10
18.6119268138
20
43.3460574367
30
0.0000000000
10
18.8551900338
20
43.0984002050
30
0.0000000000
11
17.4709632489
21
44.5077167158
31
0.0000000000
11
18.1253973357
21
43.8413689158
31
0.0000000000
11
18.8551900338
21
43.0984002050
31
0.0000000000
0
SPLINE
5
476
100
AcDbEntity
8
0
100
AcDbSpline
62
9
6
CONTINUOUS
70
0
71
3
72
11
73
7
74
5
42
0.0000001000
43
0.0000001000
44
0.0000000001
12
0.0019147462
22
-1.2499568003
32
0.0000000000
13
-0.0024509948
23
-1.2499558630
33
0.0000000000
40
0.0000000000
40
0.0000000000
40
0.0000000000
40
0.0000000000
40
0.2688389166
40
0.5299187859
40
0.7759274336
40
1.0000000000
40
1.0000000000
40
1.0000000000
40
1.0000000000
10
37.0087262032
20
7.5480237678
30
0.0000000000
10
37.0088977893
20
7.4360114238
30
0.0000000000
10
37.0091554493
20
7.2152194284
30
0.0000000000
10
37.0092910750
20
6.8919271214
30
0.0000000000
10
37.0091709198
20
6.5872868308
30
0.0000000000
10
37.0089092701
20
6.3914263276
30
0.0000000000
10
37.0087262032
20
6.2980660549
30
0.0000000000
11
37.0087262032
21
7.5480237678
31
0.0000000000
11
37.0091167462
21
7.2119865685
31
0.0000000000
11
37.0092481240
21
6.8856476540
31
0.0000000000
11
37.0091168124
21
6.5781471392
31
0.0000000000
11
37.0087262032
21
6.2980660549
31
0.0000000000
0
SPLINE
5
477
100
AcDbEntity
8
0
100
AcDbSpline
62
9
6
CONTINUOUS
70
0
71
3
72
9
73
5
74
3
42
0.0000001000
43
0.0000001000
44
0.0000000001
12
27.5087304962
22
0.1567445571
32
0.0000000000
13
27.5087218507
23
0.1582543044
33
0.0000000000
40
0.0000000000
40
0.0000000000
40
0.0000000000
40
0.0000000000
40
0.4989034231
40
1.0000000000
40
1.0000000000
40
1.0000000000
40
1.0000000000
10
9.5000000000
20
6.1405704308
30
0.0000000000
10
14.0747332699
20
6.1666372295
30
0.0000000000
10
23.2443093977
20
6.2190090661
30
0.0000000000
10
32.4138840851
20
6.2716324918
30
0.0000000000
10
37.0087262032
20
6.2980660552
30
0.0000000000
11
9.5000000000
21
6.1405704308
31
0.0000000000
11
23.2241987484
21
6.2189568283
31
0.0000000000
11
37.0087262032
21
6.2980660552
31
0.0000000000
0
SPLINE
5
478
100
AcDbEntity
8
0
100
AcDbSpline
62
9
6
CONTINUOUS
70
0
71
3
72
12
73
8
74
6
42
0.0000001000
43
0.0000001000
44
0.0000000001
12
0.6067690254
22
-0.6175223888
32
0.0000000000
13
0.8645249143
23
-0.0578798568
33
0.0000000000
40
0.0000000000
40
0.0000000000
40
0.0000000000
40
0.0000000000
40
0.2247207504
40
0.4445350072
40
0.6584510452
40
0.8653316157
40
1.0000000000
40
1.0000000000
40
1.0000000000
40
1.0000000000
10
18.8551900338
20
43.0984002050
30
0.0000000000
10
18.9006412307
20
43.0521435068
30
0.0000000000
10
18.9980539146
20
42.9676596020
30
0.0000000000
10
19.1603834579
20
42.8674131812
30
0.0000000000
10
19.3317003371
20
42.7959293538
30
0.0000000000
10
19.4878918656
20
42.7573636348
30
0.0000000000
10
19.5860527584
20
42.7459241997
30
0.0000000000
10
19.6248608162
20
42.7433260041
30
0.0000000000
11
18.8551900338
21
43.0984002050
31
0.0000000000
11
19.0022415841
21
42.9710217043
31
0.0000000000
11
19.1641652916
21
42.8710446684
31
0.0000000000
11
19.3350785127
21
42.7997287440
31
0.0000000000
11
19.5089752538
21
42.7568532185
31
0.0000000000
11
19.6248608162
21
42.7433260041
31
0.0000000000
0
SPLINE
5
479
100
AcDbEntity
8
0
100
AcDbSpline
62
9
6
CONTINUOUS
70
0
71
3
72
8
73
4
74
2
42
0.0000001000
43
0.0000001000
44
0.0000000001
12
0.0578646927
22
-0.0038740353
32
0.0000000000
13
0.0579365940
23
-0.0010383339
33
0.0000000000
40
0.0000000000
40
0.0000000000
40
0.0000000000
40
0.0000000000
40
1.0000000000
40
1.0000000000
40
1.0000000000
40
1.0000000000
10
19.6248608162
20
42.7433260041
30
0.0000000000
10
19.6441490471
20
42.7420346590
30
0.0000000000
10
19.6634630855
20
42.7412156819
30
0.0000000000
10
19.6827752835
20
42.7408695706
30
0.0000000000
11
19.6248608162
21
42.7433260041
31
0.0000000000
11
19.6827752835
21
42.7408695706
31
0.0000000000
0
SPLINE
5
47A
100
AcDbEntity
8
0
100
AcDbSpline
62
9
6
CONTINUOUS
70
0
71
3
72
9
73
5
74
3
42
0.0000001000
43
0.0000001000
44
0.0000000001
12
27.5087315074
22
0.1668108154
32
0.0000000000
13
27.5087208224
23
0.1685642208
33
0.0000000000
40
0.0000000000
40
0.0000000000
40
0.0000000000
40
0.0000000000
40
0.4989034133
40
1.0000000000
40
1.0000000000
40
1.0000000000
40
1.0000000000
10
9.5000000000
20
7.3803408340
30
0.0000000000
10
14.0747333482
20
7.4080816624
30
0.0000000000
10
23.2443096481
20
7.4638287922
30
0.0000000000
10
32.4138841670
20
7.5198681159
30
0.0000000000
10
37.0087262032
20
7.5480237678
30
0.0000000000
11
9.5000000000
21
7.3803408340
31
0.0000000000
11
23.2241987340
21
7.4637792575
31
0.0000000000
11
37.0087262032
21
7.5480237678
31
0.0000000000
0
SPLINE
5
47B
100
AcDbEntity
8
0
100
AcDbSpline
62
9
6
CONTINUOUS
70
0
71
3
72
10
73
6
74
4
42
0.0000001000
43
0.0000001000
44
0.0000000001
12
17.3259512540
22
-0.3041323537
32
0.0000000000
13
17.3259505837
23
-0.3041707617
33
0.0000000000
40
0.0000000000
40
0.0000000000
40
0.0000000000
40
0.0000000000
40
0.3327259947
40
0.6660593282
40
1.0000000000
40
1.0000000000
40
1.0000000000
40
1.0000000000
10
19.6827752835
20
42.7408695706
30
0.0000000000
10
21.6043734052
20
42.7071386573
30
0.0000000000
10
25.4510771985
20
42.6396138525
30
0.0000000000
10
31.2263941739
20
42.5382301238
30
0.0000000000
10
35.0801130107
20
42.4705763543
30
0.0000000000
10
37.0087262032
20
42.4367180248
30
0.0000000000
11
19.6827752835
21
42.7408695706
31
0.0000000000
11
25.4475696123
21
42.6396747322
31
0.0000000000
11
31.2228865894
21
42.5382909387
31
0.0000000000
11
37.0087262032
21
42.4367180248
31
0.0000000000
0
SPLINE
5
47C
100
AcDbEntity
8
0
100
AcDbSpline
62
0
6
CONTINUOUS
70
0
71
3
72
9
73
5
74
3
42
0.0000001000
43
0.0000001000
44
0.0000000001
12
0.0006655391
22
0.0565858726
32
0.0000000000
13
0.0467388446
23
0.0300431502
33
0.0000000000
40
0.0000000000
40
0.0000000000
40
0.0000000000
40
0.0000000000
40
0.3637012538
40
1.0000000000
40
1.0000000000
40
1.0000000000
40
1.0000000000
10
59.5564028237
20
30.4568210036
30
0.0000000000
10
59.5564835095
20
30.4636811212
30
0.0000000000
10
59.5610323337
20
30.4827272384
30
0.0000000000
10
59.5755991912
20
30.4959864033
30
0.0000000000
10
59.5855124806
20
30.5023585429
30
0.0000000000
11
59.5564028237
21
30.4568210036
31
0.0000000000
11
59.5611175071
21
30.4767698247
31
0.0000000000
11
59.5855124806
21
30.5023585429
31
0.0000000000
0
SPLINE
5
47D
100
AcDbEntity
8
0
100
AcDbSpline
62
0
6
CONTINUOUS
70
0
71
3
72
9
73
5
74
3
42
0.0000001000
43
0.0000001000
44
0.0000000001
12
-0.0006655391
22
0.0565858726
32
0.0000000000
13
-0.0467388446
23
0.0300431502
33
0.0000000000
40
0.0000000000
40
0.0000000000
40
0.0000000000
40
0.0000000000
40
0.3637012538
40
1.0000000000
40
1.0000000000
40
1.0000000000
40
1.0000000000
10
58.9560434937
20
30.4568210036
30
0.0000000000
10
58.9559628079
20
30.4636811212
30
0.0000000000
10
58.9514139837
20
30.4827272384
30
0.0000000000
10
58.9368471262
20
30.4959864033
30
0.0000000000
10
58.9269338368
20
30.5023585429
30
0.0000000000
11
58.9560434937
21
30.4568210036
31
0.0000000000
11
58.9513288103
21
30.4767698247
31
0.0000000000
11
58.9269338368
21
30.5023585429
31
0.0000000000
0
SPLINE
5
47E
100
AcDbEntity
8
0
100
AcDbSpline
62
0
6
CONTINUOUS
70
0
71
3
72
9
73
5
74
3
42
0.0000001000
43
0.0000001000
44
0.0000000001
12
-0.0443941345
22
0.0459099708
32
0.0000000000
13
-0.0463078981
23
0.0439394250
33
0.0000000000
40
0.0000000000
40
0.0000000000
40
0.0000000000
40
0.0000000000
40
0.2040261830
40
1.0000000000
40
1.0000000000
40
1.0000000000
40
1.0000000000
10
58.0756372593
20
31.0496284940
30
0.0000000000
10
58.0726180707
20
31.0527507727
30
0.0000000000
10
58.0576695946
20
31.0679109359
30
0.0000000000
10
58.0422601408
20
31.0825819213
30
0.0000000000
10
58.0299735160
20
31.0942401319
30
0.0000000000
11
58.0756372593
21
31.0496284940
31
0.0000000000
11
58.0664991207
21
31.0589165503
31
0.0000000000
11
58.0299735160
21
31.0942401319
31
0.0000000000
0
SPLINE
5
47F
100
AcDbEntity
8
0
100
AcDbSpline
62
0
6
CONTINUOUS
70
0
71
3
72
8
73
4
74
2
42
0.0000001000
43
0.0000001000
44
0.0000000001
12
-0.0162360564
22
0.0171083784
32
0.0000000000
13
-0.0161543760
23
0.0171857838
33
0.0000000000
40
0.0000000000
40
0.0000000000
40
0.0000000000
40
0.0000000000
40
1.0000000000
40
1.0000000000
40
1.0000000000
40
1.0000000000
10
57.9880610534
20
31.1055144524
30
0.0000000000
10
57.9826490346
20
31.1112172452
30
0.0000000000
10
57.9772508413
20
31.1169331889
30
0.0000000000
10
57.9718660493
20
31.1226617835
30
0.0000000000
11
57.9880610534
21
31.1055144524
31
0.0000000000
11
57.9718660493
21
31.1226617835
31
0.0000000000
0
SPLINE
5
480
100
AcDbEntity
8
0
100
AcDbSpline
62
0
6
CONTINUOUS
70
0
71
3
72
14
73
10
74
8
42
0.0000001000
43
0.0000001000
44
0.0000000001
12
0.3295932407
22
-0.2502789579
32
0.0000000000
13
0.3002633895
23
-0.2848037109
33
0.0000000000
40
0.0000000000
40
0.0000000000
40
0.0000000000
40
0.0000000000
40
0.1784969351
40
0.3536684402
40
0.5241682913
40
0.6885981319
40
0.8457290278
40
0.9941919103
40
1.0000000000
40
1.0000000000
40
1.0000000000
40
1.0000000000
10
57.7117652419
20
31.3585525146
30
0.0000000000
10
57.7313757030
20
31.3436611723
30
0.0000000000
10
57.7702235202
20
31.3141443788
30
0.0000000000
10
57.8271693054
20
31.2695781401
30
0.0000000000
10
57.8818652035
20
31.2252976653
30
0.0000000000
10
57.9336173739
20
31.1813641619
30
0.0000000000
10
57.9822433893
20
31.1384689785
30
0.0000000000
10
58.0139227484
20
31.1094473903
30
0.0000000000
10
58.0293730023
20
31.0948118703
30
0.0000000000
10
58.0299543212
20
31.0942604818
30
0.0000000000
11
57.7117652419
21
31.3585525146
31
0.0000000000
11
57.7704804898
21
31.3137259605
31
0.0000000000
11
57.8275512541
21
31.2690225369
31
0.0000000000
11
57.8823380305
21
31.2245557093
31
0.0000000000
11
57.9342404183
21
31.1805462477
31
0.0000000000
11
57.9830009278
21
31.1375215990
31
0.0000000000
11
58.0282092949
21
31.0959135190
31
0.0000000000
11
58.0299543212
21
31.0942604818
31
0.0000000000
0
SPLINE
5
481
100
AcDbEntity
8
0
100
AcDbSpline
62
0
6
CONTINUOUS
70
0
71
3
72
9
73
5
74
3
42
0.0000001000
43
0.0000001000
44
0.0000000001
12
0.2735258730
22
-0.1033366325
32
0.0000000000
13
0.2754710372
23
-0.0980351302
33
0.0000000000
40
0.0000000000
40
0.0000000000
40
0.0000000000
40
0.0000000000
40
0.3888172367
40
1.0000000000
40
1.0000000000
40
1.0000000000
40
1.0000000000
10
57.4374559487
20
31.4598061549
30
0.0000000000
10
57.4729064734
20
31.4464131336
30
0.0000000000
10
57.5641737663
20
31.4122101582
30
0.0000000000
10
57.6556397045
20
31.3785318310
30
0.0000000000
10
57.7117607544
20
31.3585593704
30
0.0000000000
11
57.4374559487
21
31.4598061549
31
0.0000000000
11
57.5439090976
21
31.4198950365
31
0.0000000000
11
57.7117607544
21
31.3585593704
31
0.0000000000
0
SPLINE
5
482
100
AcDbEntity
8
0
100
AcDbSpline
62
0
6
CONTINUOUS
70
0
71
3
72
10
73
6
74
4
42
0.0000001000
43
0.0000001000
44
0.0000000001
12
0.0000000000
22
-1.2991117779
32
0.0000000000
13
0.4166142364
23
-1.2304974558
33
0.0000000000
40
0.0000000000
40
0.0000000000
40
0.0000000000
40
0.0000000000
40
0.3444905407
40
0.6904147222
40
1.0000000000
40
1.0000000000
40
1.0000000000
40
1.0000000000
10
56.5619055589
20
33.0000000000
30
0.0000000000
10
56.5619055589
20
32.8508227604
30
0.0000000000
10
56.5783233440
20
32.5515765806
30
0.0000000000
10
56.6502088840
20
32.1236728666
30
0.0000000000
10
56.7274053489
20
31.8498995672
30
0.0000000000
10
56.7703978936
20
31.7229182683
30
0.0000000000
11
56.5619055589
21
33.0000000000
31
0.0000000000
11
56.5865580676
21
32.5531477950
31
0.0000000000
11
56.6611965508
21
32.1099951977
31
0.0000000000
11
56.7703978936
21
31.7229182683
31
0.0000000000
0
SPLINE
5
483
100
AcDbEntity
8
0
100
AcDbSpline
62
0
6
CONTINUOUS
70
0
71
3
72
8
73
4
74
2
42
0.0000001000
43
0.0000001000
44
0.0000000001
12
-0.0020069370
22
0.0082461054
32
0.0000000000
13
-0.0084489903
23
0.0029262510
33
0.0000000000
40
0.0000000000
40
0.0000000000
40
0.0000000000
40
0.0000000000
40
1.0000000000
40
1.0000000000
40
1.0000000000
40
1.0000000000
10
62.7917732026
20
29.6007833750
30
0.0000000000
10
62.7911042236
20
29.6035320768
30
0.0000000000
10
62.7881235789
20
29.6054694009
30
0.0000000000
10
62.7853072488
20
29.6064448179
30
0.0000000000
11
62.7917732026
21
29.6007833750
31
0.0000000000
11
62.7853072488
21
29.6064448179
31
0.0000000000
0
SPLINE
5
484
100
AcDbEntity
8
0
100
AcDbSpline
62
0
6
CONTINUOUS
70
0
71
3
72
8
73
4
74
2
42
0.0000001000
43
0.0000001000
44
0.0000000001
12
0.0020069370
22
0.0082461054
32
0.0000000000
13
0.0084489903
23
0.0029262510
33
0.0000000000
40
0.0000000000
40
0.0000000000
40
0.0000000000
40
0.0000000000
40
1.0000000000
40
1.0000000000
40
1.0000000000
40
1.0000000000
10
55.7206731148
20
29.6007833750
30
0.0000000000
10
55.7213420938
20
29.6035320768
30
0.0000000000
10
55.7243227385
20
29.6054694009
30
0.0000000000
10
55.7271390686
20
29.6064448179
30
0.0000000000
11
55.7206731148
21
29.6007833750
31
0.0000000000
11
55.7271390686
21
29.6064448179
31
0.0000000000
0
SPLINE
5
485
100
AcDbEntity
8
0
100
AcDbSpline
62
0
6
CONTINUOUS
70
0
71
3
72
9
73
5
74
3
42
0.0000001000
43
0.0000001000
44
0.0000000001
12
-0.5519616045
22
-1.3363109403
32
0.0000000000
13
0.0000000000
23
-1.4431686222
33
0.0000000000
40
0.0000000000
40
0.0000000000
40
0.0000000000
40
0.0000000000
40
0.4936358206
40
1.0000000000
40
1.0000000000
40
1.0000000000
40
1.0000000000
10
56.8363919653
20
34.4098718519
30
0.0000000000
10
56.7455692921
20
34.1899882027
30
0.0000000000
10
56.6072188472
20
33.7260324987
30
0.0000000000
10
56.5619055589
20
33.2435896317
30
0.0000000000
10
56.5619055589
20
33.0000000000
30
0.0000000000
11
56.8363919653
21
34.4098718519
31
0.0000000000
11
56.6316507736
21
33.7274330095
31
0.0000000000
11
56.5619055589
21
33.0000000000
31
0.0000000000
0
SPLINE
5
486
100
AcDbEntity
8
0
100
AcDbSpline
62
0
6
CONTINUOUS
70
0
71
3
72
9
73
5
74
3
42
0.0000001000
43
0.0000001000
44
0.0000000001
12
-0.2735598566
22
-0.1032932087
32
0.0000000000
13
-0.2754865150
23
-0.0980409819
33
0.0000000000
40
0.0000000000
40
0.0000000000
40
0.0000000000
40
0.0000000000
40
0.3888261670
40
1.0000000000
40
1.0000000000
40
1.0000000000
40
1.0000000000
10
61.0750158860
20
31.4598242925
30
0.0000000000
10
61.0395601425
20
31.4464365917
30
0.0000000000
10
60.9482826913
20
31.4122450770
30
0.0000000000
10
60.8568184576
20
31.3785461383
30
0.0000000000
10
60.8006950745
20
31.3585727774
30
0.0000000000
11
61.0750158860
21
31.4598242925
31
0.0000000000
11
60.9685497807
21
31.4199219510
31
0.0000000000
11
60.8006950745
21
31.3585727774
31
0.0000000000
0
SPLINE
5
487
100
AcDbEntity
8
0
100
AcDbSpline
62
0
6
CONTINUOUS
70
0
71
3
72
14
73
10
74
8
42
0.0000001000
43
0.0000001000
44
0.0000000001
12
-0.3428476250
22
-0.2603437005
32
0.0000000000
13
-0.3095728081
23
-0.2991664264
33
0.0000000000
40
0.0000000000
40
0.0000000000
40
0.0000000000
40
0.0000000000
40
0.1714181039
40
0.3396326630
40
0.5033408247
40
0.6612492124
40
0.8121294999
40
0.9546615325
40
1.0000000000
40
1.0000000000
40
1.0000000000
40
1.0000000000
10
60.8006950745
20
31.3585727774
30
0.0000000000
10
60.7811049779
20
31.3436969029
30
0.0000000000
10
60.7423104514
20
31.3141964400
30
0.0000000000
10
60.6854065545
20
31.2697073627
30
0.0000000000
10
60.6308142043
20
31.2254245479
30
0.0000000000
10
60.5790904327
20
31.1815786268
30
0.0000000000
10
60.5305058367
20
31.1387506566
30
0.0000000000
10
60.4946680434
20
31.1059016351
30
0.0000000000
10
60.4751687219
20
31.0872836230
30
0.0000000000
10
60.4704902030
20
31.0827623739
30
0.0000000000
11
60.8006950745
21
31.3585727774
31
0.0000000000
11
60.7420459719
21
31.3137860103
31
0.0000000000
11
60.6850335830
21
31.2691371335
31
0.0000000000
11
60.6303330004
21
31.2247009004
31
0.0000000000
11
60.5784679764
21
31.1807569861
31
0.0000000000
11
60.5297511375
21
31.1377973582
31
0.0000000000
11
60.4846021103
21
31.0962464328
31
0.0000000000
11
60.4704902030
21
31.0827623739
31
0.0000000000
0
SPLINE
5
488
100
AcDbEntity
8
0
100
AcDbSpline
62
0
6
CONTINUOUS
70
0
71
3
72
9
73
5
74
3
42
0.0000001000
43
0.0000001000
44
0.0000000001
12
-0.0329054602
22
-0.0317993334
32
0.0000000000
13
-0.0317950694
23
-0.0329225028
33
0.0000000000
40
0.0000000000
40
0.0000000000
40
0.0000000000
40
0.0000000000
40
0.8205266158
40
1.0000000000
40
1.0000000000
40
1.0000000000
40
1.0000000000
10
60.4704902030
20
31.0827623739
30
0.0000000000
10
60.4614902677
20
31.0740649741
30
0.0000000000
10
60.4506445371
20
31.0633380344
30
0.0000000000
10
60.4400045230
20
31.0524043144
30
0.0000000000
10
60.4381024001
20
31.0504347434
30
0.0000000000
11
60.4704902030
21
31.0827623739
31
0.0000000000
11
60.4438303479
21
31.0563222773
31
0.0000000000
11
60.4381024001
21
31.0504347434
31
0.0000000000
0
SPLINE
5
489
100
AcDbEntity
8
0
100
AcDbSpline
62
0
6
CONTINUOUS
70
0
71
3
72
10
73
6
74
4
42
0.0000001000
43
0.0000001000
44
0.0000000001
12
0.0000000000
22
-1.2991117010
32
0.0000000000
13
-0.4166198946
23
-1.2304954601
33
0.0000000000
40
0.0000000000
40
0.0000000000
40
0.0000000000
40
0.0000000000
40
0.3444842203
40
0.6904149037
40
1.0000000000
40
1.0000000000
40
1.0000000000
40
1.0000000000
10
61.9505407585
20
33.0000000000
30
0.0000000000
10
61.9505407585
20
32.8508255062
30
0.0000000000
10
61.9341264310
20
32.5515790084
30
0.0000000000
10
61.8622371256
20
32.1236758685
30
0.0000000000
10
61.7850416105
20
31.8498995329
30
0.0000000000
10
61.7420485071
20
31.7229185144
30
0.0000000000
11
61.9505407585
21
33.0000000000
31
0.0000000000
11
61.9258908016
21
32.5531559040
31
0.0000000000
11
61.8512497666
21
32.1099951978
31
0.0000000000
11
61.7420485071
21
31.7229185144
31
0.0000000000
0
SPLINE
5
48A
100
AcDbEntity
8
0
100
AcDbSpline
62
0
6
CONTINUOUS
70
0
71
3
72
8
73
4
74
2
42
0.0000001000
43
0.0000001000
44
0.0000000001
12
0.0424801581
22
-0.1025213322
32
0.0000000000
13
0.0392108862
23
-0.1037986653
33
0.0000000000
40
0.0000000000
40
0.0000000000
40
0.0000000000
40
0.0000000000
40
1.0000000000
40
1.0000000000
40
1.0000000000
40
1.0000000000
10
61.6745630311
20
34.4134765021
30
0.0000000000
10
61.6887230838
20
34.3793027247
30
0.0000000000
10
61.7023385286
20
34.3449073456
30
0.0000000000
10
61.7154088240
20
34.3103077905
30
0.0000000000
11
61.6745630311
21
34.4134765021
31
0.0000000000
11
61.7154088240
21
34.3103077905
31
0.0000000000
0
SPLINE
5
48B
100
AcDbEntity
8
0
100
AcDbSpline
62
0
6
CONTINUOUS
70
0
71
3
72
9
73
5
74
3
42
0.0000001000
43
0.0000001000
44
0.0000000001
12
0.4730289843
22
-1.2521975908
32
0.0000000000
13
0.0000000000
23
-1.3362928631
33
0.0000000000
40
0.0000000000
40
0.0000000000
40
0.0000000000
40
0.0000000000
40
0.4531371713
40
1.0000000000
40
1.0000000000
40
1.0000000000
40
1.0000000000
10
61.7154088240
20
34.3103077905
30
0.0000000000
10
61.7868578293
20
34.1211686991
30
0.0000000000
10
61.9085834462
20
33.6903048013
30
0.0000000000
10
61.9505407585
20
33.2435896317
30
0.0000000000
10
61.9505407585
20
33.0000000000
30
0.0000000000
11
61.7154088240
21
34.3103077905
31
0.0000000000
11
61.8807955438
21
33.7274330095
31
0.0000000000
11
61.9505407585
21
33.0000000000
31
0.0000000000
0
SPLINE
5
48C
100
AcDbEntity
8
0
100
AcDbSpline
62
0
6
CONTINUOUS
70
0
71
3
72
9
73
5
74
3
42
0.0000001000
43
0.0000001000
44
0.0000000001
12
0.1215257494
22
0.1280550181
32
0.0000000000
13
0.1174057875
23
0.1318526524
33
0.0000000000
40
0.0000000000
40
0.0000000000
40
0.0000000000
40
0.0000000000
40
0.9150239097
40
1.0000000000
40
1.0000000000
40
1.0000000000
40
1.0000000000
10
60.5243852640
20
31.1055144524
30
0.0000000000
10
60.5614515861
20
31.1445722535
30
0.0000000000
10
60.6012514236
20
31.1879314197
30
0.0000000000
10
60.6404394905
20
31.2318355204
30
0.0000000000
10
60.6437650521
20
31.2355702947
30
0.0000000000
11
60.5243852640
21
31.1055144524
31
0.0000000000
11
60.6337749755
21
31.2243778577
31
0.0000000000
11
60.6437650521
21
31.2355702947
31
0.0000000000
0
SPLINE
5
48D
100
AcDbEntity
8
0
100
AcDbSpline
62
0
6
CONTINUOUS
70
0
71
3
72
11
73
7
74
5
42
0.0000001000
43
0.0000001000
44
0.0000000001
12
-0.2903922406
22
0.1005754120
32
0.0000000000
13
-0.0142333011
23
-0.2913448726
33
0.0000000000
40
0.0000000000
40
0.0000000000
40
0.0000000000
40
0.0000000000
40
0.0054549784
40
0.1696413575
40
0.5066662436
40
1.0000000000
40
1.0000000000
40
1.0000000000
40
1.0000000000
10
62.7853072488
20
29.6064448179
30
0.0000000000
10
62.7847792210
20
29.6066276968
30
0.0000000000
10
62.7685379977
20
29.6112634243
30
0.0000000000
10
62.7838481391
20
29.5245764717
30
0.0000000000
10
62.7606850297
20
29.4565949082
30
0.0000000000
10
62.7620624948
20
29.3659246795
30
0.0000000000
10
62.7597219055
20
29.3180145927
30
0.0000000000
11
62.7853072488
21
29.6064448179
31
0.0000000000
11
62.7837568111
21
29.6068910245
31
0.0000000000
11
62.7757475540
21
29.5596735830
31
0.0000000000
11
62.7677382970
21
29.4616928111
31
0.0000000000
11
62.7597219055
21
29.3180145927
31
0.0000000000
0
SPLINE
5
48E
100
AcDbEntity
8
0
100
AcDbSpline
62
0
6
CONTINUOUS
70
0
71
3
72
9
73
5
74
3
42
0.0000001000
43
0.0000001000
44
0.0000000001
12
0.3638925373
22
-0.3258439121
32
0.0000000000
13
0.3665818234
23
-0.3228148701
33
0.0000000000
40
0.0000000000
40
0.0000000000
40
0.0000000000
40
0.0000000000
40
0.5118052782
40
1.0000000000
40
1.0000000000
40
1.0000000000
40
1.0000000000
10
60.0329664052
20
31.3483841896
30
0.0000000000
10
60.0950471123
20
31.2927946449
30
0.0000000000
10
60.2179604110
20
31.1860000501
30
0.0000000000
10
60.3399800967
20
31.0781989592
30
0.0000000000
10
60.3996345338
20
31.0256667873
30
0.0000000000
11
60.0329664052
21
31.3483841896
31
0.0000000000
11
60.2206283852
21
31.1832149240
31
0.0000000000
11
60.3996345338
21
31.0256667873
31
0.0000000000
0
SPLINE
5
48F
100
AcDbEntity
8
0
100
AcDbSpline
62
0
6
CONTINUOUS
70
0
71
3
72
11
73
7
74
5
42
0.0000001000
43
0.0000001000
44
0.0000000001
12
0.2903922406
22
0.1005754120
32
0.0000000000
13
0.0142333011
23
-0.2913448726
33
0.0000000000
40
0.0000000000
40
0.0000000000
40
0.0000000000
40
0.0000000000
40
0.0054549784
40
0.1696413575
40
0.5066662436
40
1.0000000000
40
1.0000000000
40
1.0000000000
40
1.0000000000
10
55.7271390686
20
29.6064448179
30
0.0000000000
10
55.7276670964
20
29.6066276968
30
0.0000000000
10
55.7439083197
20
29.6112634243
30
0.0000000000
10
55.7285981783
20
29.5245764717
30
0.0000000000
10
55.7517612877
20
29.4565949082
30
0.0000000000
10
55.7503838226
20
29.3659246795
30
0.0000000000
10
55.7527244119
20
29.3180145927
30
0.0000000000
11
55.7271390686
21
29.6064448179
31
0.0000000000
11
55.7286895063
21
29.6068910245
31
0.0000000000
11
55.7366987634
21
29.5596735830
31
0.0000000000
11
55.7447080204
21
29.4616928111
31
0.0000000000
11
55.7527244119
21
29.3180145927
31
0.0000000000
0
SPLINE
5
490
100
AcDbEntity
8
0
100
AcDbSpline
62
0
6
CONTINUOUS
70
0
71
3
72
8
73
4
74
2
42
0.0000001000
43
0.0000001000
44
0.0000000001
12
0.0094887939
22
-0.1280266134
32
0.0000000000
13
0.0307915638
23
-0.1249022544
33
0.0000000000
40
0.0000000000
40
0.0000000000
40
0.0000000000
40
0.0000000000
40
1.0000000000
40
1.0000000000
40
1.0000000000
40
1.0000000000
10
55.7817257066
20
28.9267174907
30
0.0000000000
10
55.7848886379
20
28.8840419529
30
0.0000000000
10
55.7917355039
20
28.8415458479
30
0.0000000000
10
55.8019993585
20
28.7999117631
30
0.0000000000
11
55.7817257066
21
28.9267174907
31
0.0000000000
11
55.8019993585
21
28.7999117631
31
0.0000000000
0
SPLINE
5
491
100
AcDbEntity
8
0
100
AcDbSpline
62
0
6
CONTINUOUS
70
0
71
3
72
8
73
4
74
2
42
0.0000001000
43
0.0000001000
44
0.0000000001
12
0.0307915638
22
0.1249022544
32
0.0000000000
13
0.0094887939
23
0.1280266134
33
0.0000000000
40
0.0000000000
40
0.0000000000
40
0.0000000000
40
0.0000000000
40
1.0000000000
40
1.0000000000
40
1.0000000000
40
1.0000000000
10
62.7104469589
20
28.7999117631
30
0.0000000000
10
62.7207108135
20
28.8415458479
30
0.0000000000
10
62.7275576795
20
28.8840419529
30
0.0000000000
10
62.7307206108
20
28.9267174907
30
0.0000000000
11
62.7104469589
21
28.7999117631
31
0.0000000000
11
62.7307206108
21
28.9267174907
31
0.0000000000
0
SPLINE
5
492
100
AcDbEntity
8
0
100
AcDbSpline
62
0
6
CONTINUOUS
70
0
71
3
72
9
73
5
74
3
42
0.0000001000
43
0.0000001000
44
0.0000000001
12
-0.0006655391
22
-0.0565858726
32
0.0000000000
13
-0.0467388446
23
-0.0300431502
33
0.0000000000
40
0.0000000000
40
0.0000000000
40
0.0000000000
40
0.0000000000
40
0.3637012538
40
1.0000000000
40
1.0000000000
40
1.0000000000
40
1.0000000000
10
58.9560434937
20
16.5431789964
30
0.0000000000
10
58.9559628079
20
16.5363188788
30
0.0000000000
10
58.9514139837
20
16.5172727616
30
0.0000000000
10
58.9368471262
20
16.5040135967
30
0.0000000000
10
58.9269338368
20
16.4976414571
30
0.0000000000
11
58.9560434937
21
16.5431789964
31
0.0000000000
11
58.9513288103
21
16.5232301753
31
0.0000000000
11
58.9269338368
21
16.4976414571
31
0.0000000000
0
SPLINE
5
493
100
AcDbEntity
8
0
100
AcDbSpline
62
0
6
CONTINUOUS
70
0
71
3
72
9
73
5
74
3
42
0.0000001000
43
0.0000001000
44
0.0000000001
12
0.0006655391
22
-0.0565858726
32
0.0000000000
13
0.0467388446
23
-0.0300431502
33
0.0000000000
40
0.0000000000
40
0.0000000000
40
0.0000000000
40
0.0000000000
40
0.3637012538
40
1.0000000000
40
1.0000000000
40
1.0000000000
40
1.0000000000
10
59.5564028237
20
16.5431789964
30
0.0000000000
10
59.5564835095
20
16.5363188788
30
0.0000000000
10
59.5610323337
20
16.5172727616
30
0.0000000000
10
59.5755991912
20
16.5040135967
30
0.0000000000
10
59.5855124806
20
16.4976414571
30
0.0000000000
11
59.5564028237
21
16.5431789964
31
0.0000000000
11
59.5611175071
21
16.5232301753
31
0.0000000000
11
59.5855124806
21
16.4976414571
31
0.0000000000
0
SPLINE
5
494
100
AcDbEntity
8
0
100
AcDbSpline
62
0
6
CONTINUOUS
70
0
71
3
72
9
73
5
74
3
42
0.0000001000
43
0.0000001000
44
0.0000000001
12
0.0443941345
22
-0.0459099708
32
0.0000000000
13
0.0463078981
23
-0.0439394250
33
0.0000000000
40
0.0000000000
40
0.0000000000
40
0.0000000000
40
0.0000000000
40
0.2040261830
40
1.0000000000
40
1.0000000000
40
1.0000000000
40
1.0000000000
10
60.4368090581
20
15.9503715060
30
0.0000000000
10
60.4398282467
20
15.9472492273
30
0.0000000000
10
60.4547767228
20
15.9320890641
30
0.0000000000
10
60.4701861766
20
15.9174180787
30
0.0000000000
10
60.4824728014
20
15.9057598681
30
0.0000000000
11
60.4368090581
21
15.9503715060
31
0.0000000000
11
60.4459471967
21
15.9410834497
31
0.0000000000
11
60.4824728014
21
15.9057598681
31
0.0000000000
0
SPLINE
5
495
100
AcDbEntity
8
0
100
AcDbSpline
62
0
6
CONTINUOUS
70
0
71
3
72
8
73
4
74
2
42
0.0000001000
43
0.0000001000
44
0.0000000001
12
0.0162360564
22
-0.0171083784
32
0.0000000000
13
0.0161543760
23
-0.0171857838
33
0.0000000000
40
0.0000000000
40
0.0000000000
40
0.0000000000
40
0.0000000000
40
1.0000000000
40
1.0000000000
40
1.0000000000
40
1.0000000000
10
60.5243852640
20
15.8944855476
30
0.0000000000
10
60.5297972828
20
15.8887827548
30
0.0000000000
10
60.5351954761
20
15.8830668111
30
0.0000000000
10
60.5405802681
20
15.8773382165
30
0.0000000000
11
60.5243852640
21
15.8944855476
31
0.0000000000
11
60.5405802681
21
15.8773382165
31
0.0000000000
0
SPLINE
5
496
100
AcDbEntity
8
0
100
AcDbSpline
62
0
6
CONTINUOUS
70
0
71
3
72
14
73
10
74
8
42
0.0000001000
43
0.0000001000
44
0.0000000001
12
-0.3295932407
22
0.2502789579
32
0.0000000000
13
-0.3002633895
23
0.2848037109
33
0.0000000000
40
0.0000000000
40
0.0000000000
40
0.0000000000
40
0.0000000000
40
0.1784969351
40
0.3536684402
40
0.5241682913
40
0.6885981319
40
0.8457290278
40
0.9941919103
40
1.0000000000
40
1.0000000000
40
1.0000000000
40
1.0000000000
10
60.8006810755
20
15.6414474854
30
0.0000000000
10
60.7810706144
20
15.6563388277
30
0.0000000000
10
60.7422227972
20
15.6858556212
30
0.0000000000
10
60.6852770120
20
15.7304218599
30
0.0000000000
10
60.6305811139
20
15.7747023347
30
0.0000000000
10
60.5788289435
20
15.8186358381
30
0.0000000000
10
60.5302029281
20
15.8615310215
30
0.0000000000
10
60.4985235690
20
15.8905526097
30
0.0000000000
10
60.4830733151
20
15.9051881297
30
0.0000000000
10
60.4824919962
20
15.9057395182
30
0.0000000000
11
60.8006810755
21
15.6414474854
31
0.0000000000
11
60.7419658276
21
15.6862740395
31
0.0000000000
11
60.6848950633
21
15.7309774631
31
0.0000000000
11
60.6301082869
21
15.7754442907
31
0.0000000000
11
60.5782058991
21
15.8194537523
31
0.0000000000
11
60.5294453896
21
15.8624784010
31
0.0000000000
11
60.4842370225
21
15.9040864810
31
0.0000000000
11
60.4824919962
21
15.9057395182
31
0.0000000000
0
SPLINE
5
497
100
AcDbEntity
8
0
100
AcDbSpline
62
0
6
CONTINUOUS
70
0
71
3
72
9
73
5
74
3
42
0.0000001000
43
0.0000001000
44
0.0000000001
12
-0.2735258730
22
0.1033366325
32
0.0000000000
13
-0.2754710372
23
0.0980351302
33
0.0000000000
40
0.0000000000
40
0.0000000000
40
0.0000000000
40
0.0000000000
40
0.3888172367
40
1.0000000000
40
1.0000000000
40
1.0000000000
40
1.0000000000
10
61.0749903687
20
15.5401938451
30
0.0000000000
10
61.0395398440
20
15.5535868664
30
0.0000000000
10
60.9482725511
20
15.5877898418
30
0.0000000000
10
60.8568066129
20
15.6214681690
30
0.0000000000
10
60.8006855630
20
15.6414406296
30
0.0000000000
11
61.0749903687
21
15.5401938451
31
0.0000000000
11
60.9685372198
21
15.5801049635
31
0.0000000000
11
60.8006855630
21
15.6414406296
31
0.0000000000
0
SPLINE
5
498
100
AcDbEntity
8
0
100
AcDbSpline
62
0
6
CONTINUOUS
70
0
71
3
72
10
73
6
74
4
42
0.0000001000
43
0.0000001000
44
0.0000000001
12
0.0000000000
22
1.2991117779
32
0.0000000000
13
-0.4166142364
23
1.2304974558
33
0.0000000000
40
0.0000000000
40
0.0000000000
40
0.0000000000
40
0.0000000000
40
0.3444905407
40
0.6904147222
40
1.0000000000
40
1.0000000000
40
1.0000000000
40
1.0000000000
10
61.9505407585
20
14.0000000000
30
0.0000000000
10
61.9505407585
20
14.1491772396
30
0.0000000000
10
61.9341229734
20
14.4484234194
30
0.0000000000
10
61.8622374334
20
14.8763271334
30
0.0000000000
10
61.7850409685
20
15.1501004328
30
0.0000000000
10
61.7420484238
20
15.2770817317
30
0.0000000000
11
61.9505407585
21
14.0000000000
31
0.0000000000
11
61.9258882498
21
14.4468522050
31
0.0000000000
11
61.8512497666
21
14.8900048023
31
0.0000000000
11
61.7420484238
21
15.2770817317
31
0.0000000000
0
SPLINE
5
499
100
AcDbEntity
8
0
100
AcDbSpline
62
0
6
CONTINUOUS
70
0
71
3
72
8
73
4
74
2
42
0.0000001000
43
0.0000001000
44
0.0000000001
12
0.0020069370
22
-0.0082461054
32
0.0000000000
13
0.0084489903
23
-0.0029262510
33
0.0000000000
40
0.0000000000
40
0.0000000000
40
0.0000000000
40
0.0000000000
40
1.0000000000
40
1.0000000000
40
1.0000000000
40
1.0000000000
10
55.7206731148
20
17.3992166250
30
0.0000000000
10
55.7213420938
20
17.3964679232
30
0.0000000000
10
55.7243227385
20
17.3945305991
30
0.0000000000
10
55.7271390686
20
17.3935551821
30
0.0000000000
11
55.7206731148
21
17.3992166250
31
0.0000000000
11
55.7271390686
21
17.3935551821
31
0.0000000000
0
SPLINE
5
49A
100
AcDbEntity
8
0
100
AcDbSpline
62
0
6
CONTINUOUS
70
0
71
3
72
8
73
4
74
2
42
0.0000001000
43
0.0000001000
44
0.0000000001
12
-0.0020069370
22
-0.0082461054
32
0.0000000000
13
-0.0084489903
23
-0.0029262510
33
0.0000000000
40
0.0000000000
40
0.0000000000
40
0.0000000000
40
0.0000000000
40
1.0000000000
40
1.0000000000
40
1.0000000000
40
1.0000000000
10
62.7917732026
20
17.3992166250
30
0.0000000000
10
62.7911042236
20
17.3964679232
30
0.0000000000
10
62.7881235789
20
17.3945305991
30
0.0000000000
10
62.7853072488
20
17.3935551821
30
0.0000000000
11
62.7917732026
21
17.3992166250
31
0.0000000000
11
62.7853072488
21
17.3935551821
31
0.0000000000
0
SPLINE
5
49B
100
AcDbEntity
8
0
100
AcDbSpline
62
0
6
CONTINUOUS
70
0
71
3
72
9
73
5
74
3
42
0.0000001000
43
0.0000001000
44
0.0000000001
12
0.5519616045
22
1.3363109403
32
0.0000000000
13
0.0000000000
23
1.4431686222
33
0.0000000000
40
0.0000000000
40
0.0000000000
40
0.0000000000
40
0.0000000000
40
0.4936358206
40
1.0000000000
40
1.0000000000
40
1.0000000000
40
1.0000000000
10
61.6760543521
20
12.5901281481
30
0.0000000000
10
61.7668770253
20
12.8100117973
30
0.0000000000
10
61.9052274702
20
13.2739675013
30
0.0000000000
10
61.9505407585
20
13.7564103683
30
0.0000000000
10
61.9505407585
20
14.0000000000
30
0.0000000000
11
61.6760543521
21
12.5901281481
31
0.0000000000
11
61.8807955438
21
13.2725669905
31
0.0000000000
11
61.9505407585
21
14.0000000000
31
0.0000000000
0
SPLINE
5
49C
100
AcDbEntity
8
0
100
AcDbSpline
62
0
6
CONTINUOUS
70
0
71
3
72
9
73
5
74
3
42
0.0000001000
43
0.0000001000
44
0.0000000001
12
0.2735598566
22
0.1032932087
32
0.0000000000
13
0.2754865150
23
0.0980409819
33
0.0000000000
40
0.0000000000
40
0.0000000000
40
0.0000000000
40
0.0000000000
40
0.3888261670
40
1.0000000000
40
1.0000000000
40
1.0000000000
40
1.0000000000
10
57.4374304314
20
15.5401757075
30
0.0000000000
10
57.4728861749
20
15.5535634083
30
0.0000000000
10
57.5641636261
20
15.5877549230
30
0.0000000000
10
57.6556278598
20
15.6214538617
30
0.0000000000
10
57.7117512429
20
15.6414272226
30
0.0000000000
11
57.4374304314
21
15.5401757075
31
0.0000000000
11
57.5438965367
21
15.5800780490
31
0.0000000000
11
57.7117512429
21
15.6414272226
31
0.0000000000
0
SPLINE
5
49D
100
AcDbEntity
8
0
100
AcDbSpline
62
0
6
CONTINUOUS
70
0
71
3
72
14
73
10
74
8
42
0.0000001000
43
0.0000001000
44
0.0000000001
12
0.3428476250
22
0.2603437005
32
0.0000000000
13
0.3095728081
23
0.2991664264
33
0.0000000000
40
0.0000000000
40
0.0000000000
40
0.0000000000
40
0.0000000000
40
0.1714181039
40
0.3396326630
40
0.5033408247
40
0.6612492124
40
0.8121294999
40
0.9546615325
40
1.0000000000
40
1.0000000000
40
1.0000000000
40
1.0000000000
10
57.7117512429
20
15.6414272226
30
0.0000000000
10
57.7313413395
20
15.6563030971
30
0.0000000000
10
57.7701358660
20
15.6858035600
30
0.0000000000
10
57.8270397629
20
15.7302926373
30
0.0000000000
10
57.8816321131
20
15.7745754521
30
0.0000000000
10
57.9333558847
20
15.8184213732
30
0.0000000000
10
57.9819404807
20
15.8612493434
30
0.0000000000
10
58.0177782740
20
15.8940983649
30
0.0000000000
10
58.0372775955
20
15.9127163770
30
0.0000000000
10
58.0419561144
20
15.9172376261
30
0.0000000000
11
57.7117512429
21
15.6414272226
31
0.0000000000
11
57.7704003455
21
15.6862139897
31
0.0000000000
11
57.8274127344
21
15.7308628665
31
0.0000000000
11
57.8821133170
21
15.7752990996
31
0.0000000000
11
57.9339783410
21
15.8192430139
31
0.0000000000
11
57.9826951799
21
15.8622026418
31
0.0000000000
11
58.0278442071
21
15.9037535672
31
0.0000000000
11
58.0419561144
21
15.9172376261
31
0.0000000000
0
SPLINE
5
49E
100
AcDbEntity
8
0
100
AcDbSpline
62
0
6
CONTINUOUS
70
0
71
3
72
9
73
5
74
3
42
0.0000001000
43
0.0000001000
44
0.0000000001
12
0.0329054602
22
0.0317993334
32
0.0000000000
13
0.0317950694
23
0.0329225028
33
0.0000000000
40
0.0000000000
40
0.0000000000
40
0.0000000000
40
0.0000000000
40
0.8205266158
40
1.0000000000
40
1.0000000000
40
1.0000000000
40
1.0000000000
10
58.0419561144
20
15.9172376261
30
0.0000000000
10
58.0509560497
20
15.9259350259
30
0.0000000000
10
58.0618017803
20
15.9366619656
30
0.0000000000
10
58.0724417944
20
15.9475956856
30
0.0000000000
10
58.0743439173
20
15.9495652566
30
0.0000000000
11
58.0419561144
21
15.9172376261
31
0.0000000000
11
58.0686159695
21
15.9436777227
31
0.0000000000
11
58.0743439173
21
15.9495652566
31
0.0000000000
0
SPLINE
5
49F
100
AcDbEntity
8
0
100
AcDbSpline
62
0
6
CONTINUOUS
70
0
71
3
72
10
73
6
74
4
42
0.0000001000
43
0.0000001000
44
0.0000000001
12
0.0000000000
22
1.2991117010
32
0.0000000000
13
0.4166198946
23
1.2304954601
33
0.0000000000
40
0.0000000000
40
0.0000000000
40
0.0000000000
40
0.0000000000
40
0.3444842203
40
0.6904149037
40
1.0000000000
40
1.0000000000
40
1.0000000000
40
1.0000000000
10
56.5619055589
20
14.0000000000
30
0.0000000000
10
56.5619055589
20
14.1491744938
30
0.0000000000
10
56.5783198864
20
14.4484209916
30
0.0000000000
10
56.6502091918
20
14.8763241315
30
0.0000000000
10
56.7274047069
20
15.1501004671
30
0.0000000000
10
56.7703978103
20
15.2770814856
30
0.0000000000
11
56.5619055589
21
14.0000000000
31
0.0000000000
11
56.5865555158
21
14.4468440960
31
0.0000000000
11
56.6611965508
21
14.8900048022
31
0.0000000000
11
56.7703978103
21
15.2770814856
31
0.0000000000
0
SPLINE
5
4A0
100
AcDbEntity
8
0
100
AcDbSpline
62
0
6
CONTINUOUS
70
0
71
3
72
8
73
4
74
2
42
0.0000001000
43
0.0000001000
44
0.0000000001
12
-0.0424801581
22
0.1025213322
32
0.0000000000
13
-0.0392108862
23
0.1037986653
33
0.0000000000
40
0.0000000000
40
0.0000000000
40
0.0000000000
40
0.0000000000
40
1.0000000000
40
1.0000000000
40
1.0000000000
40
1.0000000000
10
56.8378832863
20
12.5865234979
30
0.0000000000
10
56.8237232336
20
12.6206972753
30
0.0000000000
10
56.8101077888
20
12.6550926544
30
0.0000000000
10
56.7970374934
20
12.6896922095
30
0.0000000000
11
56.8378832863
21
12.5865234979
31
0.0000000000
11
56.7970374934
21
12.6896922095
31
0.0000000000
0
SPLINE
5
4A1
100
AcDbEntity
8
0
100
AcDbSpline
62
0
6
CONTINUOUS
70
0
71
3
72
9
73
5
74
3
42
0.0000001000
43
0.0000001000
44
0.0000000001
12
-0.4730289843
22
1.2521975908
32
0.0000000000
13
0.0000000000
23
1.3362928631
33
0.0000000000
40
0.0000000000
40
0.0000000000
40
0.0000000000
40
0.0000000000
40
0.4531371713
40
1.0000000000
40
1.0000000000
40
1.0000000000
40
1.0000000000
10
56.7970374934
20
12.6896922095
30
0.0000000000
10
56.7255884881
20
12.8788313009
30
0.0000000000
10
56.6038628712
20
13.3096951987
30
0.0000000000
10
56.5619055589
20
13.7564103683
30
0.0000000000
10
56.5619055589
20
14.0000000000
30
0.0000000000
11
56.7970374934
21
12.6896922095
31
0.0000000000
11
56.6316507736
21
13.2725669905
31
0.0000000000
11
56.5619055589
21
14.0000000000
31
0.0000000000
0
SPLINE
5
4A2
100
AcDbEntity
8
0
100
AcDbSpline
62
0
6
CONTINUOUS
70
0
71
3
72
9
73
5
74
3
42
0.0000001000
43
0.0000001000
44
0.0000000001
12
-0.1215257494
22
-0.1280550181
32
0.0000000000
13
-0.1174057875
23
-0.1318526524
33
0.0000000000
40
0.0000000000
40
0.0000000000
40
0.0000000000
40
0.0000000000
40
0.9150239097
40
1.0000000000
40
1.0000000000
40
1.0000000000
40
1.0000000000
10
57.9880610534
20
15.8944855476
30
0.0000000000
10
57.9509947313
20
15.8554277465
30
0.0000000000
10
57.9111948938
20
15.8120685803
30
0.0000000000
10
57.8720068269
20
15.7681644796
30
0.0000000000
10
57.8686812653
20
15.7644297053
30
0.0000000000
11
57.9880610534
21
15.8944855476
31
0.0000000000
11
57.8786713419
21
15.7756221423
31
0.0000000000
11
57.8686812653
21
15.7644297053
31
0.0000000000
0
SPLINE
5
4A3
100
AcDbEntity
8
0
100
AcDbSpline
62
0
6
CONTINUOUS
70
0
71
3
72
11
73
7
74
5
42
0.0000001000
43
0.0000001000
44
0.0000000001
12
0.2903922406
22
-0.1005754120
32
0.0000000000
13
0.0142333011
23
0.2913448726
33
0.0000000000
40
0.0000000000
40
0.0000000000
40
0.0000000000
40
0.0000000000
40
0.0054549784
40
0.1696413575
40
0.5066662436
40
1.0000000000
40
1.0000000000
40
1.0000000000
40
1.0000000000
10
55.7271390686
20
17.3935551821
30
0.0000000000
10
55.7276670964
20
17.3933723032
30
0.0000000000
10
55.7439083197
20
17.3887365757
30
0.0000000000
10
55.7285981783
20
17.4754235283
30
0.0000000000
10
55.7517612877
20
17.5434050918
30
0.0000000000
10
55.7503838226
20
17.6340753205
30
0.0000000000
10
55.7527244119
20
17.6819854073
30
0.0000000000
11
55.7271390686
21
17.3935551821
31
0.0000000000
11
55.7286895063
21
17.3931089755
31
0.0000000000
11
55.7366987634
21
17.4403264170
31
0.0000000000
11
55.7447080204
21
17.5383071889
31
0.0000000000
11
55.7527244119
21
17.6819854073
31
0.0000000000
0
SPLINE
5
4A4
100
AcDbEntity
8
0
100
AcDbSpline
62
0
6
CONTINUOUS
70
0
71
3
72
9
73
5
74
3
42
0.0000001000
43
0.0000001000
44
0.0000000001
12
-0.3638925373
22
0.3258439121
32
0.0000000000
13
-0.3665818234
23
0.3228148701
33
0.0000000000
40
0.0000000000
40
0.0000000000
40
0.0000000000
40
0.0000000000
40
0.5118052782
40
1.0000000000
40
1.0000000000
40
1.0000000000
40
1.0000000000
10
58.4794799122
20
15.6516158104
30
0.0000000000
10
58.4173992051
20
15.7072053551
30
0.0000000000
10
58.2944859064
20
15.8139999499
30
0.0000000000
10
58.1724662207
20
15.9218010408
30
0.0000000000
10
58.1128117836
20
15.9743332127
30
0.0000000000
11
58.4794799122
21
15.6516158104
31
0.0000000000
11
58.2918179322
21
15.8167850760
31
0.0000000000
11
58.1128117836
21
15.9743332127
31
0.0000000000
0
SPLINE
5
4A5
100
AcDbEntity
8
0
100
AcDbSpline
62
0
6
CONTINUOUS
70
0
71
3
72
11
73
7
74
5
42
0.0000001000
43
0.0000001000
44
0.0000000001
12
-0.2903922406
22
-0.1005754120
32
0.0000000000
13
-0.0142333011
23
0.2913448726
33
0.0000000000
40
0.0000000000
40
0.0000000000
40
0.0000000000
40
0.0000000000
40
0.0054549784
40
0.1696413575
40
0.5066662436
40
1.0000000000
40
1.0000000000
40
1.0000000000
40
1.0000000000
10
62.7853072488
20
17.3935551821
30
0.0000000000
10
62.7847792210
20
17.3933723032
30
0.0000000000
10
62.7685379977
20
17.3887365757
30
0.0000000000
10
62.7838481391
20
17.4754235283
30
0.0000000000
10
62.7606850297
20
17.5434050918
30
0.0000000000
10
62.7620624948
20
17.6340753205
30
0.0000000000
10
62.7597219055
20
17.6819854073
30
0.0000000000
11
62.7853072488
21
17.3935551821
31
0.0000000000
11
62.7837568111
21
17.3931089755
31
0.0000000000
11
62.7757475540
21
17.4403264170
31
0.0000000000
11
62.7677382970
21
17.5383071889
31
0.0000000000
11
62.7597219055
21
17.6819854073
31
0.0000000000
0
SPLINE
5
4A6
100
AcDbEntity
8
0
100
AcDbSpline
62
0
6
CONTINUOUS
70
0
71
3
72
8
73
4
74
2
42
0.0000001000
43
0.0000001000
44
0.0000000001
12
-0.0094887939
22
0.1280266134
32
0.0000000000
13
-0.0307915638
23
0.1249022544
33
0.0000000000
40
0.0000000000
40
0.0000000000
40
0.0000000000
40
0.0000000000
40
1.0000000000
40
1.0000000000
40
1.0000000000
40
1.0000000000
10
62.7307206108
20
18.0732825093
30
0.0000000000
10
62.7275576795
20
18.1159580471
30
0.0000000000
10
62.7207108135
20
18.1584541521
30
0.0000000000
10
62.7104469589
20
18.2000882369
30
0.0000000000
11
62.7307206108
21
18.0732825093
31
0.0000000000
11
62.7104469589
21
18.2000882369
31
0.0000000000
0
SPLINE
5
4A7
100
AcDbEntity
8
0
100
AcDbSpline
62
0
6
CONTINUOUS
70
0
71
3
72
8
73
4
74
2
42
0.0000001000
43
0.0000001000
44
0.0000000001
12
-0.0307915638
22
-0.1249022544
32
0.0000000000
13
-0.0094887939
23
-0.1280266134
33
0.0000000000
40
0.0000000000
40
0.0000000000
40
0.0000000000
40
0.0000000000
40
1.0000000000
40
1.0000000000
40
1.0000000000
40
1.0000000000
10
55.8019993585
20
18.2000882369
30
0.0000000000
10
55.7917355039
20
18.1584541521
30
0.0000000000
10
55.7848886379
20
18.1159580471
30
0.0000000000
10
55.7817257066
20
18.0732825093
30
0.0000000000
11
55.8019993585
21
18.2000882369
31
0.0000000000
11
55.7817257066
21
18.0732825093
31
0.0000000000
0
SPLINE
5
4A8
100
AcDbEntity
8
0
100
AcDbSpline
62
0
6
CONTINUOUS
70
0
71
3
72
10
73
6
74
4
42
0.0000001000
43
0.0000001000
44
0.0000000001
12
0.4872215534
22
-0.3231850225
32
0.0000000000
13
0.5846652038
23
0.0000000000
33
0.0000000000
40
0.0000000000
40
0.0000000000
40
0.0000000000
40
0.0000000000
40
0.3333348274
40
0.6666651726
40
1.0000000000
40
1.0000000000
40
1.0000000000
40
1.0000000000
10
55.0286804889
20
0.1666403425
30
0.0000000000
10
55.0828164597
20
0.1307307346
30
0.0000000000
10
55.1984420839
20
0.0693341210
30
0.0000000000
10
55.3861096252
20
0.0127504023
30
0.0000000000
10
55.5164025889
20
-0.0000000000
30
0.0000000000
10
55.5813656805
20
-0.0000000000
30
0.0000000000
11
55.0286804889
21
0.1666403425
31
0.0000000000
11
55.2008143406
21
0.0752523425
31
0.0000000000
11
55.3874041541
21
0.0189935700
31
0.0000000000
11
55.5813656805
21
-0.0000000000
31
0.0000000000
0
SPLINE
5
4A9
100
AcDbEntity
8
0
100
AcDbSpline
62
0
6
CONTINUOUS
70
0
71
3
72
10
73
6
74
4
42
0.0000001000
43
0.0000001000
44
0.0000000001
12
0.5846652038
22
0.0000000000
32
0.0000000000
13
0.4872215534
23
0.3231850225
33
0.0000000000
40
0.0000000000
40
0.0000000000
40
0.0000000000
40
0.0000000000
40
0.3333348274
40
0.6666651726
40
1.0000000000
40
1.0000000000
40
1.0000000000
40
1.0000000000
10
62.9310806369
20
-0.0000000000
30
0.0000000000
10
62.9960437285
20
-0.0000000000
30
0.0000000000
10
63.1263366922
20
0.0127504023
30
0.0000000000
10
63.3140042335
20
0.0693341210
30
0.0000000000
10
63.4296298577
20
0.1307307346
30
0.0000000000
10
63.4837658285
20
0.1666403425
30
0.0000000000
11
62.9310806369
21
-0.0000000000
31
0.0000000000
11
63.1250421633
21
0.0189935700
31
0.0000000000
11
63.3116319768
21
0.0752523425
31
0.0000000000
11
63.4837658285
21
0.1666403425
31
0.0000000000
0
SPLINE
5
4AA
100
AcDbEntity
8
0
100
AcDbSpline
62
0
6
CONTINUOUS
70
0
71
3
72
10
73
6
74
4
42
0.0000001000
43
0.0000001000
44
0.0000000001
12
0.4872215534
22
0.3231850225
32
0.0000000000
13
0.5846652038
23
0.0000000000
33
0.0000000000
40
0.0000000000
40
0.0000000000
40
0.0000000000
40
0.0000000000
40
0.3333348274
40
0.6666651726
40
1.0000000000
40
1.0000000000
40
1.0000000000
40
1.0000000000
10
55.0286804889
20
46.8333596575
30
0.0000000000
10
55.0828164597
20
46.8692692654
30
0.0000000000
10
55.1984420839
20
46.9306658790
30
0.0000000000
10
55.3861096252
20
46.9872495977
30
0.0000000000
10
55.5164025889
20
47.0000000000
30
0.0000000000
10
55.5813656805
20
47.0000000000
30
0.0000000000
11
55.0286804889
21
46.8333596575
31
0.0000000000
11
55.2008143406
21
46.9247476575
31
0.0000000000
11
55.3874041541
21
46.9810064300
31
0.0000000000
11
55.5813656805
21
47.0000000000
31
0.0000000000
0
SPLINE
5
4AB
100
AcDbEntity
8
0
100
AcDbSpline
62
0
6
CONTINUOUS
70
0
71
3
72
10
73
6
74
4
42
0.0000001000
43
0.0000001000
44
0.0000000001
12
0.5846652038
22
0.0000000000
32
0.0000000000
13
0.4872215534
23
-0.3231850225
33
0.0000000000
40
0.0000000000
40
0.0000000000
40
0.0000000000
40
0.0000000000
40
0.3333348274
40
0.6666651726
40
1.0000000000
40
1.0000000000
40
1.0000000000
40
1.0000000000
10
62.9310806369
20
47.0000000000
30
0.0000000000
10
62.9960437285
20
47.0000000000
30
0.0000000000
10
63.1263366922
20
46.9872495977
30
0.0000000000
10
63.3140042335
20
46.9306658790
30
0.0000000000
10
63.4296298577
20
46.8692692654
30
0.0000000000
10
63.4837658285
20
46.8333596575
30
0.0000000000
11
62.9310806369
21
47.0000000000
31
0.0000000000
11
63.1250421633
21
46.9810064300
31
0.0000000000
11
63.3116319768
21
46.9247476575
31
0.0000000000
11
63.4837658285
21
46.8333596575
31
0.0000000000
0
SPLINE
5
4AC
100
AcDbEntity
8
0
100
AcDbSpline
62
0
6
CONTINUOUS
70
0
71
3
72
15
73
11
74
9
42
0.0000001000
43
0.0000001000
44
0.0000000001
12
0.0000000000
22
0.7840504609
32
0.0000000000
13
0.7840504609
23
0.0000000000
33
0.0000000000
40
0.0000000000
40
0.0000000000
40
0.0000000000
40
0.0000000000
40
0.1250035856
40
0.2500003382
40
0.3749971738
40
0.4999931596
40
0.6249941993
40
0.7499962985
40
0.8749988330
40
1.0000000000
40
1.0000000000
40
1.0000000000
40
1.0000000000
10
48.1062231587
20
45.3997711479
30
0.0000000000
10
48.1062231587
20
45.4324408542
30
0.0000000000
10
48.1126510962
20
45.4979588343
30
0.0000000000
10
48.1412202702
20
45.5923353736
30
0.0000000000
10
48.1876367734
20
45.6793736183
30
0.0000000000
10
48.2501373144
20
45.7556795571
30
0.0000000000
10
48.3263291352
20
45.8183228818
30
0.0000000000
10
48.4133007916
20
45.8648787971
30
0.0000000000
10
48.5076533689
20
45.8935479377
30
0.0000000000
10
48.5731734848
20
45.9000000000
30
0.0000000000
10
48.6058425590
20
45.9000000000
30
0.0000000000
11
48.1062231587
21
45.3997711479
31
0.0000000000
11
48.1158060313
21
45.4973106575
31
0.0000000000
11
48.1441949197
21
45.5911126206
31
0.0000000000
11
48.1903174482
21
45.6775849420
31
0.0000000000
11
48.2524180917
21
45.7534013617
31
0.0000000000
11
48.3281253176
21
45.8156413172
31
0.0000000000
11
48.4145308387
21
45.8618976125
31
0.0000000000
11
48.5083083300
21
45.8903828363
31
0.0000000000
11
48.6058425590
21
45.9000000000
31
0.0000000000
0
SPLINE
5
4AD
100
AcDbEntity
8
0
100
AcDbSpline
62
0
6
CONTINUOUS
70
0
71
3
72
15
73
11
74
9
42
0.0000001000
43
0.0000001000
44
0.0000000001
12
-0.7840504611
22
0.0000000000
32
0.0000000000
13
0.0000000000
23
0.7840504624
33
0.0000000000
40
0.0000000000
40
0.0000000000
40
0.0000000000
40
0.0000000000
40
0.1250026133
40
0.2500082844
40
0.3750136098
40
0.5000160060
40
0.6250106349
40
0.7500042447
40
0.8749978606
40
1.0000000000
40
1.0000000000
40
1.0000000000
40
1.0000000000
10
48.6058425590
20
1.1000000000
30
0.0000000000
10
48.5731731068
20
1.1000000000
30
0.0000000000
10
48.5076517869
20
1.1064522557
30
0.0000000000
10
48.4132973502
20
1.1351224513
30
0.0000000000
10
48.3263243289
20
1.1816801917
30
0.0000000000
10
48.2501326811
20
1.2443250851
30
0.0000000000
10
48.1876337085
20
1.3206311930
30
0.0000000000
10
48.1412190260
20
1.4076680690
30
0.0000000000
10
48.1126509036
20
1.5020427476
30
0.0000000000
10
48.1062231587
20
1.5675595237
30
0.0000000000
10
48.1062231587
20
1.6002288521
30
0.0000000000
11
48.6058425590
21
1.1000000000
31
0.0000000000
11
48.5083072124
21
1.1096173863
31
0.0000000000
11
48.4145275036
21
1.1381037709
31
0.0000000000
11
48.3281202047
21
1.1843621049
31
0.0000000000
11
48.2524129904
21
1.2466037492
31
0.0000000000
11
48.1903140352
21
1.3224201765
31
0.0000000000
11
48.1441935406
21
1.4088907163
31
0.0000000000
11
48.1158058096
21
1.5026904601
31
0.0000000000
11
48.1062231587
21
1.6002288521
31
0.0000000000
0
SPLINE
5
4AE
100
AcDbEntity
8
0
100
AcDbSpline
62
0
6
CONTINUOUS
70
0
71
3
72
15
73
11
74
9
42
0.0000001000
43
0.0000001000
44
0.0000000001
12
0.7840504611
22
0.0000000000
32
0.0000000000
13
-0.0000000000
23
-0.7840504624
33
0.0000000000
40
0.0000000000
40
0.0000000000
40
0.0000000000
40
0.0000000000
40
0.1250026133
40
0.2500082844
40
0.3750136098
40
0.5000160060
40
0.6250106349
40
0.7500042447
40
0.8749978606
40
1.0000000000
40
1.0000000000
40
1.0000000000
40
1.0000000000
10
69.9066037584
20
45.9000000000
30
0.0000000000
10
69.9392732106
20
45.9000000000
30
0.0000000000
10
70.0047945305
20
45.8935477443
30
0.0000000000
10
70.0991489672
20
45.8648775487
30
0.0000000000
10
70.1861219885
20
45.8183198083
30
0.0000000000
10
70.2623136363
20
45.7556749149
30
0.0000000000
10
70.3248126089
20
45.6793688070
30
0.0000000000
10
70.3712272914
20
45.5923319310
30
0.0000000000
10
70.3997954138
20
45.4979572524
30
0.0000000000
10
70.4062231587
20
45.4324404763
30
0.0000000000
10
70.4062231587
20
45.3997711479
30
0.0000000000
11
69.9066037584
21
45.9000000000
31
0.0000000000
11
70.0041391050
21
45.8903826137
31
0.0000000000
11
70.0979188138
21
45.8618962291
31
0.0000000000
11
70.1843261127
21
45.8156378951
31
0.0000000000
11
70.2600333270
21
45.7533962508
31
0.0000000000
11
70.3221322822
21
45.6775798235
31
0.0000000000
11
70.3682527768
21
45.5911092837
31
0.0000000000
11
70.3966405078
21
45.4973095399
31
0.0000000000
11
70.4062231587
21
45.3997711479
31
0.0000000000
0
SPLINE
5
4AF
100
AcDbEntity
8
0
100
AcDbSpline
62
0
6
CONTINUOUS
70
0
71
3
72
15
73
11
74
9
42
0.0000001000
43
0.0000001000
44
0.0000000001
12
0.0000000000
22
-0.7840504609
32
0.0000000000
13
-0.7840504609
23
0.0000000000
33
0.0000000000
40
0.0000000000
40
0.0000000000
40
0.0000000000
40
0.0000000000
40
0.1250035856
40
0.2500003382
40
0.3749971738
40
0.4999931596
40
0.6249941993
40
0.7499962985
40
0.8749988330
40
1.0000000000
40
1.0000000000
40
1.0000000000
40
1.0000000000
10
70.4062231587
20
1.6002288521
30
0.0000000000
10
70.4062231587
20
1.5675591458
30
0.0000000000
10
70.3997952212
20
1.5020411657
30
0.0000000000
10
70.3712260472
20
1.4076646264
30
0.0000000000
10
70.3248095440
20
1.3206263817
30
0.0000000000
10
70.2623090030
20
1.2443204429
30
0.0000000000
10
70.1861171822
20
1.1816771182
30
0.0000000000
10
70.0991455258
20
1.1351212029
30
0.0000000000
10
70.0047929485
20
1.1064520623
30
0.0000000000
10
69.9392728326
20
1.1000000000
30
0.0000000000
10
69.9066037584
20
1.1000000000
30
0.0000000000
11
70.4062231587
21
1.6002288521
31
0.0000000000
11
70.3966402861
21
1.5026893425
31
0.0000000000
11
70.3682513977
21
1.4088873794
31
0.0000000000
11
70.3221288692
21
1.3224150580
31
0.0000000000
11
70.2600282257
21
1.2465986383
31
0.0000000000
11
70.1843209998
21
1.1843586828
31
0.0000000000
11
70.0979154787
21
1.1381023875
31
0.0000000000
11
70.0041379874
21
1.1096171637
31
0.0000000000
11
69.9066037584
21
1.1000000000
31
0.0000000000
0
SPLINE
5
4B0
100
AcDbEntity
8
0
100
AcDbSpline
62
0
6
CONTINUOUS
70
0
71
3
72
10
73
6
74
4
42
0.0000001000
43
0.0000001000
44
0.0000000001
12
-0.2922585009
22
-0.3121411958
32
0.0000000000
13
-0.3023022815
23
-0.3023571099
33
0.0000000000
40
0.0000000000
40
0.0000000000
40
0.0000000000
40
0.0000000000
40
0.1836978905
40
0.5668888506
40
1.0000000000
40
1.0000000000
40
1.0000000000
40
1.0000000000
10
55.5562231587
20
16.1000000000
30
0.0000000000
10
55.5383274020
20
16.0808867736
30
0.0000000000
10
55.4825032604
20
16.0224825361
30
0.0000000000
10
55.3818682955
20
15.9215506240
30
0.0000000000
10
55.2998666549
20
15.8390286381
30
0.0000000000
10
55.2562231587
20
15.7953772263
30
0.0000000000
11
55.5562231587
21
16.1000000000
31
0.0000000000
11
55.5020196565
21
16.0431601385
31
0.0000000000
11
55.3869243812
21
15.9265602856
31
0.0000000000
11
55.2562231587
21
15.7953772263
31
0.0000000000
0
SPLINE
5
4B1
100
AcDbEntity
8
0
100
AcDbSpline
62
0
6
CONTINUOUS
70
0
71
3
72
10
73
6
74
4
42
0.0000001000
43
0.0000001000
44
0.0000000001
12
-0.2922725314
22
0.3121281734
32
0.0000000000
13
-0.3023022558
23
0.3023570842
33
0.0000000000
40
0.0000000000
40
0.0000000000
40
0.0000000000
40
0.0000000000
40
0.1848583743
40
0.5653238328
40
1.0000000000
40
1.0000000000
40
1.0000000000
40
1.0000000000
10
55.5562231587
20
30.9000000000
30
0.0000000000
10
55.5382134837
20
30.9192331689
30
0.0000000000
10
55.4825378610
20
30.9774708073
30
0.0000000000
10
55.3819101099
20
31.0784096134
30
0.0000000000
10
55.3000243540
20
31.1608136342
30
0.0000000000
10
55.2562231587
20
31.2046227737
30
0.0000000000
11
55.5562231587
21
30.9000000000
31
0.0000000000
11
55.5016725664
21
30.9571944780
31
0.0000000000
11
55.3873957356
21
31.0729647933
31
0.0000000000
11
55.2562231587
21
31.2046227737
31
0.0000000000
0
SPLINE
5
4B2
100
AcDbEntity
8
0
100
AcDbSpline
62
0
6
CONTINUOUS
70
0
71
3
72
10
73
6
74
4
42
0.0000001000
43
0.0000001000
44
0.0000000001
12
0.2922585009
22
0.3121411958
32
0.0000000000
13
0.3023022815
23
0.3023571099
33
0.0000000000
40
0.0000000000
40
0.0000000000
40
0.0000000000
40
0.0000000000
40
0.1836978905
40
0.5668888506
40
1.0000000000
40
1.0000000000
40
1.0000000000
40
1.0000000000
10
62.9562231587
20
30.9000000000
30
0.0000000000
10
62.9741189154
20
30.9191132264
30
0.0000000000
10
63.0299430570
20
30.9775174639
30
0.0000000000
10
63.1305780219
20
31.0784493760
30
0.0000000000
10
63.2125796625
20
31.1609713619
30
0.0000000000
10
63.2562231587
20
31.2046227737
30
0.0000000000
11
62.9562231587
21
30.9000000000
31
0.0000000000
11
63.0104266609
21
30.9568398615
31
0.0000000000
11
63.1255219362
21
31.0734397144
31
0.0000000000
11
63.2562231587
21
31.2046227737
31
0.0000000000
0
SPLINE
5
4B3
100
AcDbEntity
8
0
100
AcDbSpline
62
0
6
CONTINUOUS
70
0
71
3
72
10
73
6
74
4
42
0.0000001000
43
0.0000001000
44
0.0000000001
12
-0.3051710864
22
-0.2917241640
32
0.0000000000
13
-0.2984700253
23
-0.2985446603
33
0.0000000000
40
0.0000000000
40
0.0000000000
40
0.0000000000
40
0.0000000000
40
0.1836093578
40
0.5638253611
40
1.0000000000
40
1.0000000000
40
1.0000000000
40
1.0000000000
10
55.5562231587
20
28.8000000000
30
0.0000000000
10
55.5375457363
20
28.7821455712
30
0.0000000000
10
55.4805889329
20
28.7269119356
30
0.0000000000
10
55.3810060641
20
28.6274834079
30
0.0000000000
10
55.2996181772
20
28.5464076709
30
0.0000000000
10
55.2562231587
20
28.5030018011
30
0.0000000000
11
55.5562231587
21
28.8000000000
31
0.0000000000
11
55.5005356860
21
28.7460843086
31
0.0000000000
11
55.3865592021
21
28.6330682850
31
0.0000000000
11
55.2562231587
21
28.5030018011
31
0.0000000000
0
SPLINE
5
4B4
100
AcDbEntity
8
0
100
AcDbSpline
62
0
6
CONTINUOUS
70
0
71
3
72
10
73
6
74
4
42
0.0000001000
43
0.0000001000
44
0.0000000001
12
0.3051772806
22
-0.2917176442
32
0.0000000000
13
0.2984700336
23
-0.2985446686
33
0.0000000000
40
0.0000000000
40
0.0000000000
40
0.0000000000
40
0.0000000000
40
0.1828145070
40
0.5649024754
40
1.0000000000
40
1.0000000000
40
1.0000000000
40
1.0000000000
10
62.9562231587
20
28.8000000000
30
0.0000000000
10
62.9748201034
20
28.7822232609
30
0.0000000000
10
63.0318882581
20
28.7268867267
30
0.0000000000
10
63.1314678449
20
28.6274548140
30
0.0000000000
10
63.2129353011
20
28.5463004832
30
0.0000000000
10
63.2562231587
20
28.5030018011
30
0.0000000000
11
62.9562231587
21
28.8000000000
31
0.0000000000
11
63.0116716536
21
28.7463198723
31
0.0000000000
11
63.1262093891
21
28.6327475142
31
0.0000000000
11
63.2562231587
21
28.5030018011
31
0.0000000000
0
SPLINE
5
4B5
100
AcDbEntity
8
0
100
AcDbSpline
62
0
6
CONTINUOUS
70
0
71
3
72
10
73
6
74
4
42
0.0000001000
43
0.0000001000
44
0.0000000001
12
0.3051710864
22
0.2917241640
32
0.0000000000
13
0.2984700253
23
0.2985446603
33
0.0000000000
40
0.0000000000
40
0.0000000000
40
0.0000000000
40
0.0000000000
40
0.1836093578
40
0.5638253611
40
1.0000000000
40
1.0000000000
40
1.0000000000
40
1.0000000000
10
62.9562231587
20
18.2000000000
30
0.0000000000
10
62.9749005811
20
18.2178544288
30
0.0000000000
10
63.0318573845
20
18.2730880644
30
0.0000000000
10
63.1314402533
20
18.3725165921
30
0.0000000000
10
63.2128281402
20
18.4535923291
30
0.0000000000
10
63.2562231587
20
18.4969981989
30
0.0000000000
11
62.9562231587
21
18.2000000000
31
0.0000000000
11
63.0119106314
21
18.2539156914
31
0.0000000000
11
63.1258871153
21
18.3669317150
31
0.0000000000
11
63.2562231587
21
18.4969981989
31
0.0000000000
0
SPLINE
5
4B6
100
AcDbEntity
8
0
100
AcDbSpline
62
0
6
CONTINUOUS
70
0
71
3
72
10
73
6
74
4
42
0.0000001000
43
0.0000001000
44
0.0000000001
12
0.2922725314
22
-0.3121281734
32
0.0000000000
13
0.3023022558
23
-0.3023570842
33
0.0000000000
40
0.0000000000
40
0.0000000000
40
0.0000000000
40
0.0000000000
40
0.1848583743
40
0.5653238328
40
1.0000000000
40
1.0000000000
40
1.0000000000
40
1.0000000000
10
62.9562231587
20
16.1000000000
30
0.0000000000
10
62.9742328337
20
16.0807668311
30
0.0000000000
10
63.0299084564
20
16.0225291927
30
0.0000000000
10
63.1305362075
20
15.9215903866
30
0.0000000000
10
63.2124219634
20
15.8391863658
30
0.0000000000
10
63.2562231587
20
15.7953772263
30
0.0000000000
11
62.9562231587
21
16.1000000000
31
0.0000000000
11
63.0107737510
21
16.0428055220
31
0.0000000000
11
63.1250505818
21
15.9270352067
31
0.0000000000
11
63.2562231587
21
15.7953772263
31
0.0000000000
0
SPLINE
5
4B7
100
AcDbEntity
8
0
100
AcDbSpline
62
0
6
CONTINUOUS
70
0
71
3
72
10
73
6
74
4
42
0.0000001000
43
0.0000001000
44
0.0000000001
12
-0.3051772806
22
0.2917176442
32
0.0000000000
13
-0.2984700336
23
0.2985446686
33
0.0000000000
40
0.0000000000
40
0.0000000000
40
0.0000000000
40
0.0000000000
40
0.1828145070
40
0.5649024754
40
1.0000000000
40
1.0000000000
40
1.0000000000
40
1.0000000000
10
55.5562231587
20
18.2000000000
30
0.0000000000
10
55.5376262140
20
18.2177767391
30
0.0000000000
10
55.4805580593
20
18.2731132733
30
0.0000000000
10
55.3809784725
20
18.3725451860
30
0.0000000000
10
55.2995110163
20
18.4536995168
30
0.0000000000
10
55.2562231587
20
18.4969981989
30
0.0000000000
11
55.5562231587
21
18.2000000000
31
0.0000000000
11
55.5007746638
21
18.2536801277
31
0.0000000000
11
55.3862369283
21
18.3672524858
31
0.0000000000
11
55.2562231587
21
18.4969981989
31
0.0000000000
0
SPLINE
5
4B8
100
AcDbEntity
8
0
100
AcDbSpline
62
0
6
CONTINUOUS
70
0
71
3
72
10
73
6
74
4
42
0.0000001000
43
0.0000001000
44
0.0000000001
12
-4.0000360296
22
-0.0287443504
32
0.0000000000
13
-3.9999639239
23
-0.0374577367
33
0.0000000000
40
0.0000000000
40
0.0000000000
40
0.0000000000
40
0.0000000000
40
0.3303029973
40
0.6636439357
40
1.0000000000
40
1.0000000000
40
1.0000000000
40
1.0000000000
10
13.5000000000
20
0.8701333974
30
0.0000000000
10
13.0595920367
20
0.8669686157
30
0.0000000000
10
12.1747280889
20
0.8602428544
30
0.0000000000
10
10.8413947123
20
0.8491078677
30
0.0000000000
10
9.9484707076
20
0.8410330903
30
0.0000000000
10
9.5000000000
20
0.8368333780
30
0.0000000000
11
13.5000000000
21
0.8701333974
31
0.0000000000
11
12.1787800239
21
0.8601091825
31
0.0000000000
11
10.8454162086
21
0.8489884009
31
0.0000000000
11
9.5000000000
21
0.8368333780
31
0.0000000000
0
SPLINE
5
4B9
100
AcDbEntity
8
0
100
AcDbSpline
62
0
6
CONTINUOUS
70
0
71
3
72
10
73
6
74
4
42
0.0000001000
43
0.0000001000
44
0.0000000001
12
-4.0000360296
22
0.0287443504
32
0.0000000000
13
-3.9999639239
23
0.0374577367
33
0.0000000000
40
0.0000000000
40
0.0000000000
40
0.0000000000
40
0.0000000000
40
0.3303029973
40
0.6636439357
40
1.0000000000
40
1.0000000000
40
1.0000000000
40
1.0000000000
10
13.5000000000
20
46.1298666026
30
0.0000000000
10
13.0595920367
20
46.1330313843
30
0.0000000000
10
12.1747280889
20
46.1397571456
30
0.0000000000
10
10.8413947123
20
46.1508921323
30
0.0000000000
10
9.9484707076
20
46.1589669097
30
0.0000000000
10
9.5000000000
20
46.1631666220
30
0.0000000000
11
13.5000000000
21
46.1298666026
31
0.0000000000
11
12.1787800239
21
46.1398908175
31
0.0000000000
11
10.8454162086
21
46.1510115991
31
0.0000000000
11
9.5000000000
21
46.1631666220
31
0.0000000000
0
SPLINE
5
4BA
100
AcDbEntity
8
0
100
AcDbSpline
62
0
6
CONTINUOUS
70
0
71
3
72
9
73
5
74
3
42
0.0000001000
43
0.0000001000
44
0.0000000001
12
-0.0747913107
22
0.0792710522
32
0.0000000000
13
-0.0715889856
23
0.0821966978
33
0.0000000000
40
0.0000000000
40
0.0000000000
40
0.0000000000
40
0.0000000000
40
0.7586206278
40
1.0000000000
40
1.0000000000
40
1.0000000000
40
1.0000000000
10
13.6965095433
20
44.5738952232
30
0.0000000000
10
13.6775967996
20
44.5939407750
30
0.0000000000
10
13.6526918683
20
44.6203918158
30
0.0000000000
10
13.6285615060
20
44.6475586120
30
0.0000000000
10
13.6228014712
20
44.6541721411
30
0.0000000000
11
13.6965095433
21
44.5738952232
31
0.0000000000
11
13.6402557789
21
44.6344853064
31
0.0000000000
11
13.6228014712
21
44.6541721411
31
0.0000000000
0
SPLINE
5
4BB
100
AcDbEntity
8
0
100
AcDbSpline
62
0
6
CONTINUOUS
70
0
71
3
72
11
73
7
74
5
42
0.0000001000
43
0.0000001000
44
0.0000000001
12
-0.1573711348
22
0.1806896389
32
0.0000000000
13
-0.0448262742
23
0.2353453524
33
0.0000000000
40
0.0000000000
40
0.0000000000
40
0.0000000000
40
0.0000000000
40
0.2109904001
40
0.5033612948
40
0.7655877278
40
1.0000000000
40
1.0000000000
40
1.0000000000
40
1.0000000000
10
13.6228014712
20
44.6541721411
30
0.0000000000
10
13.6117335383
20
44.6668800675
30
0.0000000000
10
13.5858971634
20
44.6976909510
30
0.0000000000
10
13.5498559419
20
44.7472230434
30
0.0000000000
10
13.5195156149
20
44.8026896211
30
0.0000000000
10
13.5070348945
20
44.8407277611
30
0.0000000000
10
13.5035322849
20
44.8591170407
30
0.0000000000
11
13.6228014712
21
44.6541721411
31
0.0000000000
11
13.5904502060
21
44.6930180919
31
0.0000000000
11
13.5497658957
21
44.7500366011
31
0.0000000000
11
13.5202907517
21
44.8055161199
31
0.0000000000
11
13.5035322849
21
44.8591170407
31
0.0000000000
0
SPLINE
5
4BC
100
AcDbEntity
8
0
100
AcDbSpline
62
0
6
CONTINUOUS
70
0
71
3
72
10
73
6
74
4
42
0.0000001000
43
0.0000001000
44
0.0000000001
12
-3.9999099479
22
-0.0844306543
32
0.0000000000
13
-4.0000789581
23
-0.0760029928
33
0.0000000000
40
0.0000000000
40
0.0000000000
40
0.0000000000
40
0.0000000000
40
0.3303097417
40
0.6636505372
40
1.0000000000
40
1.0000000000
40
1.0000000000
40
1.0000000000
10
13.5000000000
20
0.4001095252
30
0.0000000000
10
13.0595969261
20
0.3908134360
30
0.0000000000
10
12.1747419050
20
0.3724925550
30
0.0000000000
10
10.8414075540
20
0.3458550948
30
0.0000000000
10
9.9484748029
20
0.3286126268
30
0.0000000000
10
9.5000000000
20
0.3200914382
30
0.0000000000
11
13.5000000000
21
0.4001095252
31
0.0000000000
11
12.1787800240
21
0.3727354952
31
0.0000000000
11
10.8454162084
21
0.3460829963
31
0.0000000000
11
9.5000000000
21
0.3200914382
31
0.0000000000
0
SPLINE
5
4BD
100
AcDbEntity
8
0
100
AcDbSpline
62
0
6
CONTINUOUS
70
0
71
3
72
9
73
5
74
3
42
0.0000001000
43
0.0000001000
44
0.0000000001
12
0.1800064550
22
-0.0012223103
32
0.0000000000
13
0.1800141404
23
0.0000000000
33
0.0000000000
40
0.0000000000
40
0.0000000000
40
0.0000000000
40
0.0000000000
40
0.4444441633
40
1.0000000000
40
1.0000000000
40
1.0000000000
40
1.0000000000
10
37.5000012296
20
24.4238470618
30
0.0000000000
10
37.5266688357
20
24.4236659789
30
0.0000000000
10
37.5866664335
20
24.4225342151
30
0.0000000000
10
37.6466640312
20
24.4214024512
30
0.0000000000
10
37.6800000000
20
24.4214024512
30
0.0000000000
11
37.5000012296
21
24.4238470618
31
0.0000000000
11
37.5800000000
21
24.4226599672
31
0.0000000000
11
37.6800000000
21
24.4214024512
31
0.0000000000
0
SPLINE
5
4BE
100
AcDbEntity
8
0
100
AcDbSpline
62
0
6
CONTINUOUS
70
0
71
3
72
10
73
6
74
4
42
0.0000001000
43
0.0000001000
44
0.0000000001
12
-3.9999099479
22
0.0844306543
32
0.0000000000
13
-4.0000789581
23
0.0760029928
33
0.0000000000
40
0.0000000000
40
0.0000000000
40
0.0000000000
40
0.0000000000
40
0.3303097417
40
0.6636505372
40
1.0000000000
40
1.0000000000
40
1.0000000000
40
1.0000000000
10
13.5000000000
20
46.5998904748
30
0.0000000000
10
13.0595969261
20
46.6091865640
30
0.0000000000
10
12.1747419050
20
46.6275074450
30
0.0000000000
10
10.8414075540
20
46.6541449052
30
0.0000000000
10
9.9484748029
20
46.6713873732
30
0.0000000000
10
9.5000000000
20
46.6799085618
30
0.0000000000
11
13.5000000000
21
46.5998904748
31
0.0000000000
11
12.1787800240
21
46.6272645048
31
0.0000000000
11
10.8454162084
21
46.6539170037
31
0.0000000000
11
9.5000000000
21
46.6799085618
31
0.0000000000
0
SPLINE
5
4BF
100
AcDbEntity
8
0
100
AcDbSpline
62
0
6
CONTINUOUS
70
0
71
3
72
8
73
4
74
2
42
0.0000001000
43
0.0000001000
44
0.0000000001
12
0.0069043152
22
0.0362487999
32
0.0000000000
13
0.0123130266
23
0.0348992853
33
0.0000000000
40
0.0000000000
40
0.0000000000
40
0.0000000000
40
0.0000000000
40
1.0000000000
40
1.0000000000
40
1.0000000000
40
1.0000000000
10
13.5035322849
20
2.1408829593
30
0.0000000000
10
13.5058337233
20
2.1529658926
30
0.0000000000
10
13.5091662312
20
2.1648608332
30
0.0000000000
10
13.5132705734
20
2.1764939283
30
0.0000000000
11
13.5035322849
21
2.1408829593
31
0.0000000000
11
13.5132705734
21
2.1764939283
31
0.0000000000
0
SPLINE
5
4C0
100
AcDbEntity
8
0
100
AcDbSpline
62
0
6
CONTINUOUS
70
0
71
3
72
12
73
8
74
6
42
0.0000001000
43
0.0000001000
44
0.0000000001
12
0.0946142247
22
0.2681687296
32
0.0000000000
13
0.1939423658
23
0.2068506274
33
0.0000000000
40
0.0000000000
40
0.0000000000
40
0.0000000000
40
0.0000000000
40
0.0683116806
40
0.2903017596
40
0.5375824730
40
0.8084282692
40
1.0000000000
40
1.0000000000
40
1.0000000000
40
1.0000000000
10
13.5132705734
20
2.1764939283
30
0.0000000000
10
13.5154249923
20
2.1826002805
30
0.0000000000
10
13.5254843081
20
2.2082436312
30
0.0000000000
10
13.5499704901
20
2.2529601114
30
0.0000000000
10
13.5912301202
20
2.3096154440
30
0.0000000000
10
13.6351324194
20
2.3603802463
30
0.0000000000
10
13.6648549841
20
2.3924245386
30
0.0000000000
10
13.6772396090
20
2.4056334495
30
0.0000000000
11
13.5132705734
21
2.1764939283
31
0.0000000000
11
13.5203343334
21
2.1945858626
31
0.0000000000
11
13.5498895399
21
2.2501600256
31
0.0000000000
11
13.5906378694
21
2.3072192192
31
0.0000000000
11
13.6404196179
21
2.3656965193
31
0.0000000000
11
13.6772396090
21
2.4056334495
31
0.0000000000
0
SPLINE
5
4C1
100
AcDbEntity
8
0
100
AcDbSpline
62
0
6
CONTINUOUS
70
0
71
3
72
8
73
4
74
2
42
0.0000001000
43
0.0000001000
44
0.0000000001
12
0.0192295497
22
0.0205094151
32
0.0000000000
13
0.0192935877
23
0.0204485889
33
0.0000000000
40
0.0000000000
40
0.0000000000
40
0.0000000000
40
0.0000000000
40
1.0000000000
40
1.0000000000
40
1.0000000000
40
1.0000000000
10
13.6772396090
20
2.4056334495
30
0.0000000000
10
13.6836494589
20
2.4124699212
30
0.0000000000
10
13.6900783469
20
2.4192885805
30
0.0000000000
10
13.6965095428
20
2.4261047768
30
0.0000000000
11
13.6772396090
21
2.4056334495
31
0.0000000000
11
13.6965095428
21
2.4261047768
31
0.0000000000
0
SPLINE
5
4C2
100
AcDbEntity
8
0
100
AcDbSpline
62
3
6
CONTINUOUS
70
0
71
3
72
10
73
6
74
4
42
0.0000001000
43
0.0000001000
44
0.0000000001
12
0.1574821928
22
-0.0360045557
32
0.0000000000
13
0.0142995524
23
-0.1463504902
33
0.0000000000
40
0.0000000000
40
0.0000000000
40
0.0000000000
40
0.0000000000
40
0.0391760674
40
0.3779900676
40
1.0000000000
40
1.0000000000
40
1.0000000000
40
1.0000000000
10
55.7247519821
20
29.1072325522
30
0.0000000000
10
55.7268084931
20
29.1067623799
30
0.0000000000
10
55.7503054934
20
29.0936557389
30
0.0000000000
10
55.7329762406
20
29.0385503265
30
0.0000000000
10
55.7497595907
20
28.9948050216
30
0.0000000000
10
55.7527244119
20
28.9644612021
30
0.0000000000
11
55.7247519821
21
29.1072325522
31
0.0000000000
11
55.7313563328
21
29.1039625978
31
0.0000000000
11
55.7420411938
21
29.0553001078
31
0.0000000000
11
55.7527244119
21
28.9644612021
31
0.0000000000
0
SPLINE
5
4C3
100
AcDbEntity
8
0
100
AcDbSpline
62
3
6
CONTINUOUS
70
0
71
3
72
10
73
6
74
4
42
0.0000001000
43
0.0000001000
44
0.0000000001
12
-0.1574821928
22
-0.0360045557
32
0.0000000000
13
-0.0142995524
23
-0.1463504902
33
0.0000000000
40
0.0000000000
40
0.0000000000
40
0.0000000000
40
0.0000000000
40
0.0391760674
40
0.3779900676
40
1.0000000000
40
1.0000000000
40
1.0000000000
40
1.0000000000
10
62.7876943353
20
29.1072325522
30
0.0000000000
10
62.7856378243
20
29.1067623799
30
0.0000000000
10
62.7621408240
20
29.0936557389
30
0.0000000000
10
62.7794700768
20
29.0385503265
30
0.0000000000
10
62.7626867267
20
28.9948050216
30
0.0000000000
10
62.7597219055
20
28.9644612021
30
0.0000000000
11
62.7876943353
21
29.1072325522
31
0.0000000000
11
62.7810899846
21
29.1039625978
31
0.0000000000
11
62.7704051236
21
29.0553001078
31
0.0000000000
11
62.7597219055
21
28.9644612021
31
0.0000000000
0
SPLINE
5
4C4
100
AcDbEntity
8
0
100
AcDbSpline
62
3
6
CONTINUOUS
70
0
71
3
72
8
73
4
74
2
42
0.0000001000
43
0.0000001000
44
0.0000000001
12
-0.0506987088
22
0.0517441527
32
0.0000000000
13
-0.0467848455
23
0.0553073436
33
0.0000000000
40
0.0000000000
40
0.0000000000
40
0.0000000000
40
0.0000000000
40
1.0000000000
40
1.0000000000
40
1.0000000000
40
1.0000000000
10
59.9419374444
20
34.7496355306
30
0.0000000000
10
59.9250378748
20
34.7668835815
30
0.0000000000
10
59.9087737787
20
34.7847524962
30
0.0000000000
10
59.8931788302
20
34.8031882774
30
0.0000000000
11
59.9419374444
21
34.7496355306
31
0.0000000000
11
59.8931788302
21
34.8031882774
31
0.0000000000
0
SPLINE
5
4C5
100
AcDbEntity
8
0
100
AcDbSpline
62
3
6
CONTINUOUS
70
0
71
3
72
8
73
4
74
2
42
0.0000001000
43
0.0000001000
44
0.0000000001
12
-0.0310499916
22
0.0367061715
32
0.0000000000
13
-0.0292520382
23
0.0381569304
33
0.0000000000
40
0.0000000000
40
0.0000000000
40
0.0000000000
40
0.0000000000
40
1.0000000000
40
1.0000000000
40
1.0000000000
40
1.0000000000
10
59.8931788302
20
34.8031882774
30
0.0000000000
10
59.8828288330
20
34.8154236679
30
0.0000000000
10
59.8727735728
20
34.8279087439
30
0.0000000000
10
59.8630228934
20
34.8406277207
30
0.0000000000
11
59.8931788302
21
34.8031882774
31
0.0000000000
11
59.8630228934
21
34.8406277207
31
0.0000000000
0
SPLINE
5
4C6
100
AcDbEntity
8
0
100
AcDbSpline
62
3
6
CONTINUOUS
70
0
71
3
72
8
73
4
74
2
42
0.0000001000
43
0.0000001000
44
0.0000000001
12
-0.0136243395
22
0.0177718548
32
0.0000000000
13
-0.0132249201
23
0.0180715101
33
0.0000000000
40
0.0000000000
40
0.0000000000
40
0.0000000000
40
0.0000000000
40
1.0000000000
40
1.0000000000
40
1.0000000000
40
1.0000000000
10
59.8630228934
20
34.8406277207
30
0.0000000000
10
59.8584814469
20
34.8465516723
30
0.0000000000
10
59.8540060731
20
34.8525263638
30
0.0000000000
10
59.8495977664
20
34.8585502005
30
0.0000000000
11
59.8630228934
21
34.8406277207
31
0.0000000000
11
59.8495977664
21
34.8585502005
31
0.0000000000
0
SPLINE
5
4C7
100
AcDbEntity
8
0
100
AcDbSpline
62
3
6
CONTINUOUS
70
0
71
3
72
8
73
4
74
2
42
0.0000001000
43
0.0000001000
44
0.0000000001
12
-0.1133994915
22
0.1549574607
32
0.0000000000
13
-0.0819316065
23
0.1736214819
33
0.0000000000
40
0.0000000000
40
0.0000000000
40
0.0000000000
40
0.0000000000
40
1.0000000000
40
1.0000000000
40
1.0000000000
40
1.0000000000
10
59.8495977664
20
34.8585502005
30
0.0000000000
10
59.8117979359
20
34.9102026874
30
0.0000000000
10
59.7789292303
20
34.9654685809
30
0.0000000000
10
59.7516186948
20
35.0233424082
30
0.0000000000
11
59.8495977664
21
34.8585502005
31
0.0000000000
11
59.7516186948
21
35.0233424082
31
0.0000000000
0
SPLINE
5
4C8
100
AcDbEntity
8
0
100
AcDbSpline
62
3
6
CONTINUOUS
70
0
71
3
72
8
73
4
74
2
42
0.0000001000
43
0.0000001000
44
0.0000000001
12
-0.0104366730
22
0.0221163810
32
0.0000000000
13
-0.0098916513
23
0.0223640499
33
0.0000000000
40
0.0000000000
40
0.0000000000
40
0.0000000000
40
0.0000000000
40
1.0000000000
40
1.0000000000
40
1.0000000000
40
1.0000000000
10
59.7516186948
20
35.0233424082
30
0.0000000000
10
59.7481398038
20
35.0307145352
30
0.0000000000
10
59.7447511017
20
35.0381289795
30
0.0000000000
10
59.7414538846
20
35.0455836628
30
0.0000000000
11
59.7516186948
21
35.0233424082
31
0.0000000000
11
59.7414538846
21
35.0455836628
31
0.0000000000
0
SPLINE
5
4C9
100
AcDbEntity
8
0
100
AcDbSpline
62
3
6
CONTINUOUS
70
0
71
3
72
8
73
4
74
2
42
0.0000001000
43
0.0000001000
44
0.0000000001
12
-0.0290617938
22
0.0657058545
32
0.0000000000
13
-0.0242250420
23
0.0676317741
33
0.0000000000
40
0.0000000000
40
0.0000000000
40
0.0000000000
40
0.0000000000
40
1.0000000000
40
1.0000000000
40
1.0000000000
40
1.0000000000
10
59.7414538846
20
35.0455836628
30
0.0000000000
10
59.7317666200
20
35.0674856143
30
0.0000000000
10
59.7228690461
20
35.0897349055
30
0.0000000000
10
59.7147940321
20
35.1122788302
30
0.0000000000
11
59.7414538846
21
35.0455836628
31
0.0000000000
11
59.7147940321
21
35.1122788302
31
0.0000000000
0
SPLINE
5
4CA
100
AcDbEntity
8
0
100
AcDbSpline
62
3
6
CONTINUOUS
70
0
71
3
72
8
73
4
74
2
42
0.0000001000
43
0.0000001000
44
0.0000000001
12
-0.0022805331
22
0.0063668202
32
0.0000000000
13
-0.0022367745
23
0.0063823326
33
0.0000000000
40
0.0000000000
40
0.0000000000
40
0.0000000000
40
0.0000000000
40
1.0000000000
40
1.0000000000
40
1.0000000000
40
1.0000000000
10
59.7147940321
20
35.1122788302
30
0.0000000000
10
59.7140338544
20
35.1144011036
30
0.0000000000
10
59.7132809665
20
35.1165259882
30
0.0000000000
10
59.7125353750
20
35.1186534324
30
0.0000000000
11
59.7147940321
21
35.1122788302
31
0.0000000000
11
59.7125353750
21
35.1186534324
31
0.0000000000
0
SPLINE
5
4CB
100
AcDbEntity
8
0
100
AcDbSpline
62
3
6
CONTINUOUS
70
0
71
3
72
8
73
4
74
2
42
0.0000001000
43
0.0000001000
44
0.0000000001
12
-0.0215232954
22
0.0614138025
32
0.0000000000
13
-0.0174517551
23
0.0626985171
33
0.0000000000
40
0.0000000000
40
0.0000000000
40
0.0000000000
40
0.0000000000
40
1.0000000000
40
1.0000000000
40
1.0000000000
40
1.0000000000
10
59.7125353750
20
35.1186534324
30
0.0000000000
10
59.7053609432
20
35.1391246999
30
0.0000000000
10
59.6988621017
20
35.1598329766
30
0.0000000000
10
59.6930448500
20
35.1807324823
30
0.0000000000
11
59.7125353750
21
35.1186534324
31
0.0000000000
11
59.6930448500
21
35.1807324823
31
0.0000000000
0
SPLINE
5
4CC
100
AcDbEntity
8
0
100
AcDbSpline
62
3
6
CONTINUOUS
70
0
71
3
72
8
73
4
74
2
42
0.0000001000
43
0.0000001000
44
0.0000000001
12
-0.0066726204
22
0.0239725686
32
0.0000000000
13
-0.0060737685
23
0.0241326252
33
0.0000000000
40
0.0000000000
40
0.0000000000
40
0.0000000000
40
0.0000000000
40
1.0000000000
40
1.0000000000
40
1.0000000000
40
1.0000000000
10
59.6930448500
20
35.1807324823
30
0.0000000000
10
59.6908206432
20
35.1887233385
30
0.0000000000
10
59.6886960774
20
35.1967421503
30
0.0000000000
10
59.6866714879
20
35.2047863587
30
0.0000000000
11
59.6930448500
21
35.1807324823
31
0.0000000000
11
59.6866714879
21
35.2047863587
31
0.0000000000
0
SPLINE
5
4CD
100
AcDbEntity
8
0
100
AcDbSpline
62
3
6
CONTINUOUS
70
0
71
3
72
8
73
4
74
2
42
0.0000001000
43
0.0000001000
44
0.0000000001
12
-0.0467502501
22
0.1857506154
32
0.0000000000
13
-0.0107529348
23
0.1912777194
33
0.0000000000
40
0.0000000000
40
0.0000000000
40
0.0000000000
40
0.0000000000
40
1.0000000000
40
1.0000000000
40
1.0000000000
40
1.0000000000
10
59.6866714879
20
35.2047863587
30
0.0000000000
10
59.6710880712
20
35.2667032305
30
0.0000000000
10
59.6614277447
20
35.3301247278
30
0.0000000000
10
59.6578434331
20
35.3938839676
30
0.0000000000
11
59.6866714879
21
35.2047863587
31
0.0000000000
11
59.6578434331
21
35.3938839676
31
0.0000000000
0
SPLINE
5
4CE
100
AcDbEntity
8
0
100
AcDbSpline
62
3
6
CONTINUOUS
70
0
71
3
72
8
73
4
74
2
42
0.0000001000
43
0.0000001000
44
0.0000000001
12
-0.0015527286
22
0.0276205911
32
0.0000000000
13
-0.0007911837
23
0.0276523053
33
0.0000000000
40
0.0000000000
40
0.0000000000
40
0.0000000000
40
0.0000000000
40
1.0000000000
40
1.0000000000
40
1.0000000000
40
1.0000000000
10
59.6578434331
20
35.3938839676
30
0.0000000000
10
59.6573258569
20
35.4030908313
30
0.0000000000
10
59.6569349747
20
35.4123047374
30
0.0000000000
10
59.6566712468
20
35.4215221725
30
0.0000000000
11
59.6578434331
21
35.3938839676
31
0.0000000000
11
59.6566712468
21
35.4215221725
31
0.0000000000
0
SPLINE
5
4CF
100
AcDbEntity
8
0
100
AcDbSpline
62
3
6
CONTINUOUS
70
0
71
3
72
8
73
4
74
2
42
0.0000001000
43
0.0000001000
44
0.0000000001
12
-0.0012241797
22
0.0427857705
32
0.0000000000
13
0.0006074334
23
0.0427974180
33
0.0000000000
40
0.0000000000
40
0.0000000000
40
0.0000000000
40
0.0000000000
40
1.0000000000
40
1.0000000000
40
1.0000000000
40
1.0000000000
10
59.6566712468
20
35.4215221725
30
0.0000000000
10
59.6562631869
20
35.4357840960
30
0.0000000000
10
59.6561595431
20
35.4500544680
30
0.0000000000
10
59.6563620209
20
35.4643202740
30
0.0000000000
11
59.6566712468
21
35.4215221725
31
0.0000000000
11
59.6563620209
21
35.4643202740
31
0.0000000000
0
SPLINE
5
4D0
100
AcDbEntity
8
0
100
AcDbSpline
62
3
6
CONTINUOUS
70
0
71
3
72
8
73
4
74
2
42
0.0000001000
43
0.0000001000
44
0.0000000001
12
0.0010279803
22
0.0724275243
32
0.0000000000
13
0.0063131661
23
0.0721598181
33
0.0000000000
40
0.0000000000
40
0.0000000000
40
0.0000000000
40
0.0000000000
40
1.0000000000
40
1.0000000000
40
1.0000000000
40
1.0000000000
10
59.6563620209
20
35.4643202740
30
0.0000000000
10
59.6567046810
20
35.4884627821
30
0.0000000000
10
59.6579240719
20
35.5125922128
30
0.0000000000
10
59.6600284606
20
35.5366454855
30
0.0000000000
11
59.6563620209
21
35.4643202740
31
0.0000000000
11
59.6600284606
21
35.5366454855
31
0.0000000000
0
SPLINE
5
4D1
100
AcDbEntity
8
0
100
AcDbSpline
62
3
6
CONTINUOUS
70
0
71
3
72
10
73
6
74
4
42
0.0000001000
43
0.0000001000
44
0.0000000001
12
0.3668428023
22
-0.4283174447
32
0.0000000000
13
0.4582994797
23
-0.3287109177
33
0.0000000000
40
0.0000000000
40
0.0000000000
40
0.0000000000
40
0.0000000000
40
0.3389693341
40
0.6844512944
40
1.0000000000
40
1.0000000000
40
1.0000000000
40
1.0000000000
10
58.4794800700
20
31.3483843247
30
0.0000000000
10
58.5209295568
20
31.2999888317
30
0.0000000000
10
58.6092314701
20
31.2061240730
30
0.0000000000
10
58.7495439346
20
31.0807360130
30
0.0000000000
10
58.8482231022
20
31.0050190138
30
0.0000000000
10
58.8964283714
20
30.9704442456
30
0.0000000000
11
58.4794800700
21
31.3483843247
31
0.0000000000
11
58.6102884265
21
31.2089898090
31
0.0000000000
11
58.7553632891
21
31.0789408046
31
0.0000000000
11
58.8964283714
21
30.9704442456
31
0.0000000000
0
SPLINE
5
4D2
100
AcDbEntity
8
0
100
AcDbSpline
62
3
6
CONTINUOUS
70
0
71
3
72
11
73
7
74
5
42
0.0000001000
43
0.0000001000
44
0.0000000001
12
0.1293564610
22
0.0000000000
32
0.0000000000
13
-0.0015494799
23
0.1317407262
33
0.0000000000
40
0.0000000000
40
0.0000000000
40
0.0000000000
40
0.0000000000
40
0.3551152231
40
0.6682107268
40
0.9232030672
40
1.0000000000
40
1.0000000000
40
1.0000000000
40
1.0000000000
10
58.8562231587
20
30.0096056126
30
0.0000000000
10
58.8715353082
20
30.0096056126
30
0.0000000000
10
58.9005765140
20
30.0138497715
30
0.0000000000
10
58.9368817503
20
30.0319182535
30
0.0000000000
10
58.9546114024
20
30.0559262335
30
0.0000000000
10
58.9560831588
20
30.0704263541
30
0.0000000000
10
58.9560434937
20
30.0737987820
30
0.0000000000
11
58.8562231587
21
30.0096056126
31
0.0000000000
11
58.9016222087
21
30.0166115782
31
0.0000000000
11
58.9371248582
21
30.0361022658
31
0.0000000000
11
58.9549919928
21
30.0638289599
31
0.0000000000
11
58.9560434937
21
30.0737987820
31
0.0000000000
0
SPLINE
5
4D3
100
AcDbEntity
8
0
100
AcDbSpline
62
3
6
CONTINUOUS
70
0
71
3
72
8
73
4
74
2
42
0.0000001000
43
0.0000001000
44
0.0000000001
12
0.0506987088
22
0.0517441527
32
0.0000000000
13
0.0467848455
23
0.0553073436
33
0.0000000000
40
0.0000000000
40
0.0000000000
40
0.0000000000
40
0.0000000000
40
1.0000000000
40
1.0000000000
40
1.0000000000
40
1.0000000000
10
58.5705088730
20
34.7496355306
30
0.0000000000
10
58.5874084426
20
34.7668835815
30
0.0000000000
10
58.6036725387
20
34.7847524962
30
0.0000000000
10
58.6192674872
20
34.8031882774
30
0.0000000000
11
58.5705088730
21
34.7496355306
31
0.0000000000
11
58.6192674872
21
34.8031882774
31
0.0000000000
0
SPLINE
5
4D4
100
AcDbEntity
8
0
100
AcDbSpline
62
3
6
CONTINUOUS
70
0
71
3
72
8
73
4
74
2
42
0.0000001000
43
0.0000001000
44
0.0000000001
12
0.0310499916
22
0.0367061715
32
0.0000000000
13
0.0292520382
23
0.0381569304
33
0.0000000000
40
0.0000000000
40
0.0000000000
40
0.0000000000
40
0.0000000000
40
1.0000000000
40
1.0000000000
40
1.0000000000
40
1.0000000000
10
58.6192674872
20
34.8031882774
30
0.0000000000
10
58.6296174844
20
34.8154236679
30
0.0000000000
10
58.6396727446
20
34.8279087439
30
0.0000000000
10
58.6494234240
20
34.8406277207
30
0.0000000000
11
58.6192674872
21
34.8031882774
31
0.0000000000
11
58.6494234240
21
34.8406277207
31
0.0000000000
0
SPLINE
5
4D5
100
AcDbEntity
8
0
100
AcDbSpline
62
3
6
CONTINUOUS
70
0
71
3
72
8
73
4
74
2
42
0.0000001000
43
0.0000001000
44
0.0000000001
12
0.0136243395
22
0.0177718548
32
0.0000000000
13
0.0132249201
23
0.0180715101
33
0.0000000000
40
0.0000000000
40
0.0000000000
40
0.0000000000
40
0.0000000000
40
1.0000000000
40
1.0000000000
40
1.0000000000
40
1.0000000000
10
58.6494234240
20
34.8406277207
30
0.0000000000
10
58.6539648705
20
34.8465516723
30
0.0000000000
10
58.6584402443
20
34.8525263638
30
0.0000000000
10
58.6628485510
20
34.8585502005
30
0.0000000000
11
58.6494234240
21
34.8406277207
31
0.0000000000
11
58.6628485510
21
34.8585502005
31
0.0000000000
0
SPLINE
5
4D6
100
AcDbEntity
8
0
100
AcDbSpline
62
3
6
CONTINUOUS
70
0
71
3
72
8
73
4
74
2
42
0.0000001000
43
0.0000001000
44
0.0000000001
12
0.1133994915
22
0.1549574607
32
0.0000000000
13
0.0819316065
23
0.1736214819
33
0.0000000000
40
0.0000000000
40
0.0000000000
40
0.0000000000
40
0.0000000000
40
1.0000000000
40
1.0000000000
40
1.0000000000
40
1.0000000000
10
58.6628485510
20
34.8585502005
30
0.0000000000
10
58.7006483815
20
34.9102026874
30
0.0000000000
10
58.7335170871
20
34.9654685809
30
0.0000000000
10
58.7608276226
20
35.0233424082
30
0.0000000000
11
58.6628485510
21
34.8585502005
31
0.0000000000
11
58.7608276226
21
35.0233424082
31
0.0000000000
0
SPLINE
5
4D7
100
AcDbEntity
8
0
100
AcDbSpline
62
3
6
CONTINUOUS
70
0
71
3
72
8
73
4
74
2
42
0.0000001000
43
0.0000001000
44
0.0000000001
12
0.0104366730
22
0.0221163810
32
0.0000000000
13
0.0098916513
23
0.0223640499
33
0.0000000000
40
0.0000000000
40
0.0000000000
40
0.0000000000
40
0.0000000000
40
1.0000000000
40
1.0000000000
40
1.0000000000
40
1.0000000000
10
58.7608276226
20
35.0233424082
30
0.0000000000
10
58.7643065136
20
35.0307145352
30
0.0000000000
10
58.7676952157
20
35.0381289795
30
0.0000000000
10
58.7709924328
20
35.0455836628
30
0.0000000000
11
58.7608276226
21
35.0233424082
31
0.0000000000
11
58.7709924328
21
35.0455836628
31
0.0000000000
0
SPLINE
5
4D8
100
AcDbEntity
8
0
100
AcDbSpline
62
3
6
CONTINUOUS
70
0
71
3
72
8
73
4
74
2
42
0.0000001000
43
0.0000001000
44
0.0000000001
12
0.0290617938
22
0.0657058545
32
0.0000000000
13
0.0242250420
23
0.0676317741
33
0.0000000000
40
0.0000000000
40
0.0000000000
40
0.0000000000
40
0.0000000000
40
1.0000000000
40
1.0000000000
40
1.0000000000
40
1.0000000000
10
58.7709924328
20
35.0455836628
30
0.0000000000
10
58.7806796974
20
35.0674856143
30
0.0000000000
10
58.7895772713
20
35.0897349055
30
0.0000000000
10
58.7976522853
20
35.1122788302
30
0.0000000000
11
58.7709924328
21
35.0455836628
31
0.0000000000
11
58.7976522853
21
35.1122788302
31
0.0000000000
0
SPLINE
5
4D9
100
AcDbEntity
8
0
100
AcDbSpline
62
3
6
CONTINUOUS
70
0
71
3
72
8
73
4
74
2
42
0.0000001000
43
0.0000001000
44
0.0000000001
12
0.0022805331
22
0.0063668202
32
0.0000000000
13
0.0022367745
23
0.0063823326
33
0.0000000000
40
0.0000000000
40
0.0000000000
40
0.0000000000
40
0.0000000000
40
1.0000000000
40
1.0000000000
40
1.0000000000
40
1.0000000000
10
58.7976522853
20
35.1122788302
30
0.0000000000
10
58.7984124630
20
35.1144011036
30
0.0000000000
10
58.7991653509
20
35.1165259882
30
0.0000000000
10
58.7999109424
20
35.1186534324
30
0.0000000000
11
58.7976522853
21
35.1122788302
31
0.0000000000
11
58.7999109424
21
35.1186534324
31
0.0000000000
0
SPLINE
5
4DA
100
AcDbEntity
8
0
100
AcDbSpline
62
3
6
CONTINUOUS
70
0
71
3
72
8
73
4
74
2
42
0.0000001000
43
0.0000001000
44
0.0000000001
12
0.0215232954
22
0.0614138025
32
0.0000000000
13
0.0174517551
23
0.0626985171
33
0.0000000000
40
0.0000000000
40
0.0000000000
40
0.0000000000
40
0.0000000000
40
1.0000000000
40
1.0000000000
40
1.0000000000
40
1.0000000000
10
58.7999109424
20
35.1186534324
30
0.0000000000
10
58.8070853742
20
35.1391246999
30
0.0000000000
10
58.8135842157
20
35.1598329766
30
0.0000000000
10
58.8194014674
20
35.1807324823
30
0.0000000000
11
58.7999109424
21
35.1186534324
31
0.0000000000
11
58.8194014674
21
35.1807324823
31
0.0000000000
0
SPLINE
5
4DB
100
AcDbEntity
8
0
100
AcDbSpline
62
3
6
CONTINUOUS
70
0
71
3
72
8
73
4
74
2
42
0.0000001000
43
0.0000001000
44
0.0000000001
12
0.0066726204
22
0.0239725686
32
0.0000000000
13
0.0060737685
23
0.0241326252
33
0.0000000000
40
0.0000000000
40
0.0000000000
40
0.0000000000
40
0.0000000000
40
1.0000000000
40
1.0000000000
40
1.0000000000
40
1.0000000000
10
58.8194014674
20
35.1807324823
30
0.0000000000
10
58.8216256742
20
35.1887233385
30
0.0000000000
10
58.8237502400
20
35.1967421503
30
0.0000000000
10
58.8257748295
20
35.2047863587
30
0.0000000000
11
58.8194014674
21
35.1807324823
31
0.0000000000
11
58.8257748295
21
35.2047863587
31
0.0000000000
0
SPLINE
5
4DC
100
AcDbEntity
8
0
100
AcDbSpline
62
3
6
CONTINUOUS
70
0
71
3
72
8
73
4
74
2
42
0.0000001000
43
0.0000001000
44
0.0000000001
12
0.0467502501
22
0.1857506154
32
0.0000000000
13
0.0107529348
23
0.1912777194
33
0.0000000000
40
0.0000000000
40
0.0000000000
40
0.0000000000
40
0.0000000000
40
1.0000000000
40
1.0000000000
40
1.0000000000
40
1.0000000000
10
58.8257748295
20
35.2047863587
30
0.0000000000
10
58.8413582462
20
35.2667032305
30
0.0000000000
10
58.8510185727
20
35.3301247278
30
0.0000000000
10
58.8546028843
20
35.3938839676
30
0.0000000000
11
58.8257748295
21
35.2047863587
31
0.0000000000
11
58.8546028843
21
35.3938839676
31
0.0000000000
0
SPLINE
5
4DD
100
AcDbEntity
8
0
100
AcDbSpline
62
3
6
CONTINUOUS
70
0
71
3
72
8
73
4
74
2
42
0.0000001000
43
0.0000001000
44
0.0000000001
12
0.0015527286
22
0.0276205911
32
0.0000000000
13
0.0007911837
23
0.0276523053
33
0.0000000000
40
0.0000000000
40
0.0000000000
40
0.0000000000
40
0.0000000000
40
1.0000000000
40
1.0000000000
40
1.0000000000
40
1.0000000000
10
58.8546028843
20
35.3938839676
30
0.0000000000
10
58.8551204605
20
35.4030908313
30
0.0000000000
10
58.8555113427
20
35.4123047374
30
0.0000000000
10
58.8557750706
20
35.4215221725
30
0.0000000000
11
58.8546028843
21
35.3938839676
31
0.0000000000
11
58.8557750706
21
35.4215221725
31
0.0000000000
0
SPLINE
5
4DE
100
AcDbEntity
8
0
100
AcDbSpline
62
3
6
CONTINUOUS
70
0
71
3
72
8
73
4
74
2
42
0.0000001000
43
0.0000001000
44
0.0000000001
12
0.0012241797
22
0.0427857705
32
0.0000000000
13
-0.0006074334
23
0.0427974180
33
0.0000000000
40
0.0000000000
40
0.0000000000
40
0.0000000000
40
0.0000000000
40
1.0000000000
40
1.0000000000
40
1.0000000000
40
1.0000000000
10
58.8557750706
20
35.4215221725
30
0.0000000000
10
58.8561831305
20
35.4357840960
30
0.0000000000
10
58.8562867743
20
35.4500544680
30
0.0000000000
10
58.8560842965
20
35.4643202740
30
0.0000000000
11
58.8557750706
21
35.4215221725
31
0.0000000000
11
58.8560842965
21
35.4643202740
31
0.0000000000
0
SPLINE
5
4DF
100
AcDbEntity
8
0
100
AcDbSpline
62
3
6
CONTINUOUS
70
0
71
3
72
8
73
4
74
2
42
0.0000001000
43
0.0000001000
44
0.0000000001
12
-0.0010279803
22
0.0724275243
32
0.0000000000
13
-0.0063131661
23
0.0721598181
33
0.0000000000
40
0.0000000000
40
0.0000000000
40
0.0000000000
40
0.0000000000
40
1.0000000000
40
1.0000000000
40
1.0000000000
40
1.0000000000
10
58.8560842965
20
35.4643202740
30
0.0000000000
10
58.8557416364
20
35.4884627821
30
0.0000000000
10
58.8545222455
20
35.5125922128
30
0.0000000000
10
58.8524178568
20
35.5366454855
30
0.0000000000
11
58.8560842965
21
35.4643202740
31
0.0000000000
11
58.8524178568
21
35.5366454855
31
0.0000000000
0
SPLINE
5
4E0
100
AcDbEntity
8
0
100
AcDbSpline
62
3
6
CONTINUOUS
70
0
71
3
72
11
73
7
74
5
42
0.0000001000
43
0.0000001000
44
0.0000000001
12
-0.1293564610
22
0.0000000000
32
0.0000000000
13
0.0015494799
23
0.1317407262
33
0.0000000000
40
0.0000000000
40
0.0000000000
40
0.0000000000
40
0.0000000000
40
0.3551152231
40
0.6682107268
40
0.9232030672
40
1.0000000000
40
1.0000000000
40
1.0000000000
40
1.0000000000
10
59.6562231587
20
30.0096056126
30
0.0000000000
10
59.6409110092
20
30.0096056126
30
0.0000000000
10
59.6118698034
20
30.0138497715
30
0.0000000000
10
59.5755645671
20
30.0319182535
30
0.0000000000
10
59.5578349150
20
30.0559262335
30
0.0000000000
10
59.5563631586
20
30.0704263541
30
0.0000000000
10
59.5564028237
20
30.0737987820
30
0.0000000000
11
59.6562231587
21
30.0096056126
31
0.0000000000
11
59.6108241087
21
30.0166115782
31
0.0000000000
11
59.5753214592
21
30.0361022658
31
0.0000000000
11
59.5574543246
21
30.0638289599
31
0.0000000000
11
59.5564028237
21
30.0737987820
31
0.0000000000
0
SPLINE
5
4E1
100
AcDbEntity
8
0
100
AcDbSpline
62
3
6
CONTINUOUS
70
0
71
3
72
10
73
6
74
4
42
0.0000001000
43
0.0000001000
44
0.0000000001
12
-0.3802778099
22
-0.4439989148
32
0.0000000000
13
-0.4775622153
23
-0.3371655079
33
0.0000000000
40
0.0000000000
40
0.0000000000
40
0.0000000000
40
0.0000000000
40
0.3274313564
40
0.6604967305
40
1.0000000000
40
1.0000000000
40
1.0000000000
40
1.0000000000
10
60.0329664052
20
31.3483841896
30
0.0000000000
10
59.9914614455
20
31.2999244673
30
0.0000000000
10
59.9031235800
20
31.2060329679
30
0.0000000000
10
59.7576635922
20
31.0760660670
30
0.0000000000
10
59.6532378371
20
30.9966279948
30
0.0000000000
10
59.5991931926
20
30.9584717307
30
0.0000000000
11
60.0329664052
21
31.3483841896
31
0.0000000000
11
59.9019754658
21
31.2088118747
31
0.0000000000
11
59.7569829741
21
31.0788581985
31
0.0000000000
11
59.5991931926
21
30.9584717307
31
0.0000000000
0
SPLINE
5
4E2
100
AcDbEntity
8
0
100
AcDbSpline
62
3
6
CONTINUOUS
70
0
71
3
72
9
73
5
74
3
42
0.0000001000
43
0.0000001000
44
0.0000000001
12
0.0006655391
22
0.0565858726
32
0.0000000000
13
0.0467388446
23
0.0300431502
33
0.0000000000
40
0.0000000000
40
0.0000000000
40
0.0000000000
40
0.0000000000
40
0.3637012538
40
1.0000000000
40
1.0000000000
40
1.0000000000
40
1.0000000000
10
59.5564028237
20
30.0737987820
30
0.0000000000
10
59.5564835095
20
30.0806588996
30
0.0000000000
10
59.5610323337
20
30.0997050168
30
0.0000000000
10
59.5755991912
20
30.1129641817
30
0.0000000000
10
59.5855124806
20
30.1193363213
30
0.0000000000
11
59.5564028237
21
30.0737987820
31
0.0000000000
11
59.5611175071
21
30.0937476031
31
0.0000000000
11
59.5855124806
21
30.1193363213
31
0.0000000000
0
SPLINE
5
4E3
100
AcDbEntity
8
0
100
AcDbSpline
62
3
6
CONTINUOUS
70
0
71
3
72
11
73
7
74
5
42
0.0000001000
43
0.0000001000
44
0.0000000001
12
0.0197264655
22
-0.1246288634
32
0.0000000000
13
0.0643488295
23
-0.1085052941
33
0.0000000000
40
0.0000000000
40
0.0000000000
40
0.0000000000
40
0.0000000000
40
0.2133429173
40
0.4676851177
40
0.7288809846
40
1.0000000000
40
1.0000000000
40
1.0000000000
40
1.0000000000
10
59.6966831353
20
35.7634095996
30
0.0000000000
10
59.6980859692
20
35.7545467045
30
0.0000000000
10
59.7017613891
20
35.7352116395
30
0.0000000000
10
59.7098137284
20
35.7055933987
30
0.0000000000
10
59.7216018872
20
35.6746273344
30
0.0000000000
10
59.7318305409
20
35.6546472516
30
0.0000000000
10
59.7376459380
20
35.6448413021
30
0.0000000000
11
59.6966831353
21
35.7634095996
31
0.0000000000
11
59.7017495194
21
35.7369754235
31
0.0000000000
11
59.7102321033
21
35.7060313974
31
0.0000000000
11
59.7219953557
21
35.6752524625
31
0.0000000000
11
59.7376459380
21
35.6448413021
31
0.0000000000
0
SPLINE
5
4E4
100
AcDbEntity
8
0
100
AcDbSpline
62
3
6
CONTINUOUS
70
0
71
3
72
9
73
5
74
3
42
0.0000001000
43
0.0000001000
44
0.0000000001
12
0.0272581515
22
-0.0461745479
32
0.0000000000
13
0.0331026296
23
-0.0421818873
33
0.0000000000
40
0.0000000000
40
0.0000000000
40
0.0000000000
40
0.0000000000
40
0.4971034121
40
1.0000000000
40
1.0000000000
40
1.0000000000
40
1.0000000000
10
59.7376459380
20
35.6448413021
30
0.0000000000
10
59.7421626447
20
35.6371901270
30
0.0000000000
10
59.7517934391
20
35.6221145875
30
0.0000000000
10
59.7624001389
20
35.6077120462
30
0.0000000000
10
59.7679492054
20
35.6006410038
30
0.0000000000
11
59.7376459380
21
35.6448413021
31
0.0000000000
11
59.7519788040
21
35.6223682285
31
0.0000000000
11
59.7679492054
21
35.6006410038
31
0.0000000000
0
SPLINE
5
4E5
100
AcDbEntity
8
0
100
AcDbSpline
62
3
6
CONTINUOUS
70
0
71
3
72
11
73
7
74
5
42
0.0000001000
43
0.0000001000
44
0.0000000001
12
-1.7378147692
22
-1.6972261397
32
0.0000000000
13
0.0000000000
23
-2.4291102768
33
0.0000000000
40
0.0000000000
40
0.0000000000
40
0.0000000000
40
0.0000000000
40
0.1883600039
40
0.4581191389
40
0.7289086077
40
1.0000000000
40
1.0000000000
40
1.0000000000
40
1.0000000000
10
57.8348761097
20
35.2003183187
30
0.0000000000
10
57.7257645108
20
35.0937551446
30
0.0000000000
10
57.4822405157
20
34.8114227372
30
0.0000000000
10
57.1899803145
20
34.2926607159
30
0.0000000000
10
56.9971077831
20
33.6595951974
30
0.0000000000
10
56.9559109357
20
33.2195036290
30
0.0000000000
10
56.9559109357
20
33.0000000000
30
0.0000000000
11
57.8348761097
21
35.2003183187
31
0.0000000000
11
57.5356259472
21
34.8541986862
31
0.0000000000
11
57.2123803509
21
34.2842011423
31
0.0000000000
11
57.0190481362
21
33.6554771408
31
0.0000000000
11
56.9559109357
21
33.0000000000
31
0.0000000000
0
SPLINE
5
4E6
100
AcDbEntity
8
0
100
AcDbSpline
62
3
6
CONTINUOUS
70
0
71
3
72
15
73
11
74
9
42
0.0000001000
43
0.0000001000
44
0.0000000001
12
0.4745246922
22
-0.6063458858
32
0.0000000000
13
0.7373850350
23
-0.2215836155
33
0.0000000000
40
0.0000000000
40
0.0000000000
40
0.0000000000
40
0.0000000000
40
0.1050403893
40
0.2191877806
40
0.3408202578
40
0.4686675635
40
0.6010389849
40
0.7373855678
40
0.8770614184
40
1.0000000000
40
1.0000000000
40
1.0000000000
40
1.0000000000
10
59.7679492054
20
35.6006410038
30
0.0000000000
10
59.7845639582
20
35.5794107345
30
0.0000000000
10
59.8247641795
20
35.5394118459
30
0.0000000000
10
59.8959364707
20
35.4882213711
30
0.0000000000
10
59.9773765342
20
35.4423510570
30
0.0000000000
10
60.0663027157
20
35.4010080478
30
0.0000000000
10
60.1608711009
20
35.3632788364
30
0.0000000000
10
60.2597044582
20
35.3283238746
30
0.0000000000
10
60.3571393005
20
35.2968138132
30
0.0000000000
10
60.4216473593
20
35.2772766846
30
0.0000000000
10
60.4518650494
20
35.2681962928
30
0.0000000000
11
59.7679492054
21
35.6006410038
31
0.0000000000
11
59.8243735533
21
35.5426991185
31
0.0000000000
11
59.8952100156
21
35.4906747346
31
0.0000000000
11
59.9765133505
21
35.4441951410
31
0.0000000000
11
60.0656000554
21
35.4023225974
31
0.0000000000
11
60.1601537449
21
35.3642796695
31
0.0000000000
11
60.2590480393
21
35.3290540885
31
0.0000000000
11
60.3613321268
21
35.2958325562
31
0.0000000000
11
60.4518650494
21
35.2681962928
31
0.0000000000
0
SPLINE
5
4E7
100
AcDbEntity
8
0
100
AcDbSpline
62
3
6
CONTINUOUS
70
0
71
3
72
13
73
9
74
7
42
0.0000001000
43
0.0000001000
44
0.0000000001
12
0.8947834487
22
-0.3054039129
32
0.0000000000
13
0.9105344817
23
-0.2546289968
33
0.0000000000
40
0.0000000000
40
0.0000000000
40
0.0000000000
40
0.0000000000
40
0.1611541140
40
0.3237860571
40
0.4884005259
40
0.6555503244
40
0.8258590763
40
1.0000000000
40
1.0000000000
40
1.0000000000
40
1.0000000000
10
57.1423676328
20
31.8432919477
30
0.0000000000
10
57.1904336441
20
31.8268862487
30
0.0000000000
10
57.2869543968
20
31.7937699019
30
0.0000000000
10
57.4330455076
20
31.7452909216
30
0.0000000000
10
57.5812968803
20
31.6973402893
30
0.0000000000
10
57.7322909058
20
31.6500219498
30
0.0000000000
10
57.8866651128
20
31.6034906202
30
0.0000000000
10
57.9908637301
20
31.5730262174
30
0.0000000000
10
58.0437175020
20
31.5582457745
30
0.0000000000
11
57.1423676328
21
31.8432919477
31
0.0000000000
11
57.2865957593
21
31.7941631059
31
0.0000000000
11
57.4325124594
21
31.7456713744
31
0.0000000000
11
57.5806083146
21
31.6978101758
31
0.0000000000
11
57.7314242512
21
31.6505923272
31
0.0000000000
11
57.8855727043
21
31.6040504380
31
0.0000000000
11
58.0437175020
21
31.5582457745
31
0.0000000000
0
SPLINE
5
4E8
100
AcDbEntity
8
0
100
AcDbSpline
62
3
6
CONTINUOUS
70
0
71
3
72
15
73
11
74
9
42
0.0000001000
43
0.0000001000
44
0.0000000001
12
0.4674878385
22
-0.1337258117
32
0.0000000000
13
0.3208864412
23
-0.3653308459
33
0.0000000000
40
0.0000000000
40
0.0000000000
40
0.0000000000
40
0.0000000000
40
0.1623413365
40
0.3144320696
40
0.4563702407
40
0.5879011645
40
0.7087230941
40
0.8186965680
40
0.9176994849
40
1.0000000000
40
1.0000000000
40
1.0000000000
40
1.0000000000
10
58.0437175020
20
31.5582457745
30
0.0000000000
10
58.0690150355
20
31.5510093655
30
0.0000000000
10
58.1178587871
20
31.5364298315
30
0.0000000000
10
58.1879009230
20
31.5125961065
30
0.0000000000
10
58.2523177844
20
31.4878858570
30
0.0000000000
10
58.3108938258
20
31.4622649654
30
0.0000000000
10
58.3633269507
20
31.4357380345
30
0.0000000000
10
58.4092713267
20
31.4082998880
30
0.0000000000
10
58.4475048976
20
31.3804925227
30
0.0000000000
10
58.4690458787
20
31.3602868640
30
0.0000000000
10
58.4778489185
20
31.3502645584
30
0.0000000000
11
58.0437175020
21
31.5582457745
31
0.0000000000
11
58.1192949579
21
31.5354636427
31
0.0000000000
11
58.1892933536
21
31.5116063960
31
0.0000000000
11
58.2536861674
21
31.4867721763
31
0.0000000000
11
58.3122209546
21
31.4610046629
31
0.0000000000
11
58.3645551831
21
31.4343122995
31
0.0000000000
11
58.4103338421
21
31.4066770460
31
0.0000000000
11
58.4490242094
21
31.3780341116
31
0.0000000000
11
58.4778489185
21
31.3502645584
31
0.0000000000
0
SPLINE
5
4E9
100
AcDbEntity
8
0
100
AcDbSpline
62
3
6
CONTINUOUS
70
0
71
3
72
10
73
6
74
4
42
0.0000001000
43
0.0000001000
44
0.0000000001
12
-0.2115521203
22
-0.0612784902
32
0.0000000000
13
-0.2102519267
23
-0.0656009157
33
0.0000000000
40
0.0000000000
40
0.0000000000
40
0.0000000000
40
0.0000000000
40
0.3284844525
40
0.6618467416
40
1.0000000000
40
1.0000000000
40
1.0000000000
40
1.0000000000
10
58.0457873761
20
35.2637555003
30
0.0000000000
10
58.0226235153
20
35.2570458232
30
0.0000000000
10
57.9759947035
20
35.2433780493
30
0.0000000000
10
57.9056906108
20
35.2222276496
30
0.0000000000
10
57.8585752344
20
35.2077127065
30
0.0000000000
10
57.8348761097
20
35.2003183187
30
0.0000000000
11
58.0457873761
21
35.2637555003
31
0.0000000000
11
57.9763625681
21
35.2433973576
31
0.0000000000
11
57.9060508269
21
35.2222520598
31
0.0000000000
11
57.8348761097
21
35.2003183187
31
0.0000000000
0
SPLINE
5
4EA
100
AcDbEntity
8
0
100
AcDbSpline
62
3
6
CONTINUOUS
70
0
71
3
72
10
73
6
74
4
42
0.0000001000
43
0.0000001000
44
0.0000000001
12
0.0000000000
22
-1.1761951001
32
0.0000000000
13
0.3739038354
23
-1.1151819742
33
0.0000000000
40
0.0000000000
40
0.0000000000
40
0.0000000000
40
0.0000000000
40
0.3455464708
40
0.6914022065
40
1.0000000000
40
1.0000000000
40
1.0000000000
40
1.0000000000
10
56.9559109357
20
33.0000000000
30
0.0000000000
10
56.9559109357
20
32.8645233114
30
0.0000000000
10
56.9705526063
20
32.5932065698
30
0.0000000000
10
57.0348259467
20
32.2056675023
30
0.0000000000
10
57.1039056666
20
31.9580061799
30
0.0000000000
10
57.1423676328
20
31.8432919477
30
0.0000000000
11
56.9559109357
21
33.0000000000
31
0.0000000000
11
56.9779886591
21
32.5941700200
31
0.0000000000
11
57.0447654830
21
32.1928944672
31
0.0000000000
11
57.1423676328
21
31.8432919477
31
0.0000000000
0
SPLINE
5
4EB
100
AcDbEntity
8
0
100
AcDbSpline
62
3
6
CONTINUOUS
70
0
71
3
72
11
73
7
74
5
42
0.0000001000
43
0.0000001000
44
0.0000000001
12
-0.0195102780
22
-0.1263166617
32
0.0000000000
13
-0.0651826909
23
-0.1099113551
33
0.0000000000
40
0.0000000000
40
0.0000000000
40
0.0000000000
40
0.0000000000
40
0.2234063711
40
0.4744948526
40
0.7323493239
40
1.0000000000
40
1.0000000000
40
1.0000000000
40
1.0000000000
10
58.8160157846
20
35.7650250657
30
0.0000000000
10
58.8145628778
20
35.7556184167
30
0.0000000000
10
58.8108280874
20
35.7357382092
30
0.0000000000
10
58.8026325890
20
35.7055933987
30
0.0000000000
10
58.7908444302
20
35.6746273344
30
0.0000000000
10
58.7806157765
20
35.6546472516
30
0.0000000000
10
58.7748003794
20
35.6448413021
30
0.0000000000
11
58.8160157846
21
35.7650250657
31
0.0000000000
11
58.8106967980
21
35.7369754235
31
0.0000000000
11
58.8022142141
21
35.7060313974
31
0.0000000000
11
58.7904509617
21
35.6752524625
31
0.0000000000
11
58.7748003794
21
35.6448413021
31
0.0000000000
0
SPLINE
5
4EC
100
AcDbEntity
8
0
100
AcDbSpline
62
3
6
CONTINUOUS
70
0
71
3
72
9
73
5
74
3
42
0.0000001000
43
0.0000001000
44
0.0000000001
12
-0.0272581515
22
-0.0461745479
32
0.0000000000
13
-0.0331026296
23
-0.0421818873
33
0.0000000000
40
0.0000000000
40
0.0000000000
40
0.0000000000
40
0.0000000000
40
0.4971034121
40
1.0000000000
40
1.0000000000
40
1.0000000000
40
1.0000000000
10
58.7748003794
20
35.6448413021
30
0.0000000000
10
58.7702836727
20
35.6371901270
30
0.0000000000
10
58.7606528783
20
35.6221145875
30
0.0000000000
10
58.7500461785
20
35.6077120462
30
0.0000000000
10
58.7444971120
20
35.6006410038
30
0.0000000000
11
58.7748003794
21
35.6448413021
31
0.0000000000
11
58.7604675134
21
35.6223682285
31
0.0000000000
11
58.7444971120
21
35.6006410038
31
0.0000000000
0
SPLINE
5
4ED
100
AcDbEntity
8
0
100
AcDbSpline
62
3
6
CONTINUOUS
70
0
71
3
72
15
73
11
74
9
42
0.0000001000
43
0.0000001000
44
0.0000000001
12
-0.4745519996
22
-0.6063807792
32
0.0000000000
13
-0.7374279102
23
-0.2215948691
33
0.0000000000
40
0.0000000000
40
0.0000000000
40
0.0000000000
40
0.0000000000
40
0.1050343449
40
0.2191751677
40
0.3408006457
40
0.4686405945
40
0.6010043987
40
0.7373431357
40
0.8770109488
40
1.0000000000
40
1.0000000000
40
1.0000000000
40
1.0000000000
10
58.7444971120
20
35.6006410038
30
0.0000000000
10
58.7278823592
20
35.5794107345
30
0.0000000000
10
58.6876821379
20
35.5394118459
30
0.0000000000
10
58.6165098467
20
35.4882213711
30
0.0000000000
10
58.5350697832
20
35.4423510570
30
0.0000000000
10
58.4461436017
20
35.4010080478
30
0.0000000000
10
58.3515752165
20
35.3632788364
30
0.0000000000
10
58.2527418592
20
35.3283238746
30
0.0000000000
10
58.1552929626
20
35.2968092681
30
0.0000000000
10
58.0907706865
20
35.2772681223
30
0.0000000000
10
58.0605388335
20
35.2681835414
30
0.0000000000
11
58.7444971120
21
35.6006410038
31
0.0000000000
11
58.6880727641
21
35.5426991185
31
0.0000000000
11
58.6172363018
21
35.4906747346
31
0.0000000000
11
58.5359329669
21
35.4441951410
31
0.0000000000
11
58.4468462620
21
35.4023225974
31
0.0000000000
11
58.3522925725
21
35.3642796695
31
0.0000000000
11
58.2533982781
21
35.3290540885
31
0.0000000000
11
58.1511141906
21
35.2958325562
31
0.0000000000
11
58.0605388335
21
35.2681835414
31
0.0000000000
0
SPLINE
5
4EE
100
AcDbEntity
8
0
100
AcDbSpline
62
3
6
CONTINUOUS
70
0
71
3
72
8
73
4
74
2
42
0.0000001000
43
0.0000001000
44
0.0000000001
12
-0.0022264674
22
0.0045740562
32
0.0000000000
13
-0.0054481497
23
-0.0012455895
33
0.0000000000
40
0.0000000000
40
0.0000000000
40
0.0000000000
40
0.0000000000
40
1.0000000000
40
1.0000000000
40
1.0000000000
40
1.0000000000
10
62.7917732026
20
29.1058455933
30
0.0000000000
10
62.7910310468
20
29.1073702787
30
0.0000000000
10
62.7895103852
20
29.1076477487
30
0.0000000000
10
62.7876943353
20
29.1072325522
30
0.0000000000
11
62.7917732026
21
29.1058455933
31
0.0000000000
11
62.7876943353
21
29.1072325522
31
0.0000000000
0
SPLINE
5
4EF
100
AcDbEntity
8
0
100
AcDbSpline
62
3
6
CONTINUOUS
70
0
71
3
72
8
73
4
74
2
42
0.0000001000
43
0.0000001000
44
0.0000000001
12
0.0022264674
22
0.0045740562
32
0.0000000000
13
0.0054481497
23
-0.0012455895
33
0.0000000000
40
0.0000000000
40
0.0000000000
40
0.0000000000
40
0.0000000000
40
1.0000000000
40
1.0000000000
40
1.0000000000
40
1.0000000000
10
55.7206731148
20
29.1058455933
30
0.0000000000
10
55.7214152706
20
29.1073702787
30
0.0000000000
10
55.7229359322
20
29.1076477487
30
0.0000000000
10
55.7247519821
20
29.1072325522
30
0.0000000000
11
55.7206731148
21
29.1058455933
31
0.0000000000
11
55.7247519821
21
29.1072325522
31
0.0000000000
0
SPLINE
5
4F0
100
AcDbEntity
8
0
100
AcDbSpline
62
3
6
CONTINUOUS
70
0
71
3
72
10
73
6
74
4
42
0.0000001000
43
0.0000001000
44
0.0000000001
12
0.0000000000
22
-1.1761951001
32
0.0000000000
13
-0.3739038354
23
-1.1151819742
33
0.0000000000
40
0.0000000000
40
0.0000000000
40
0.0000000000
40
0.0000000000
40
0.3455464708
40
0.6914022065
40
1.0000000000
40
1.0000000000
40
1.0000000000
40
1.0000000000
10
61.5565353817
20
33.0000000000
30
0.0000000000
10
61.5565353817
20
32.8645233114
30
0.0000000000
10
61.5418937111
20
32.5932065698
30
0.0000000000
10
61.4776203707
20
32.2056675023
30
0.0000000000
10
61.4085406508
20
31.9580061799
30
0.0000000000
10
61.3700786846
20
31.8432919477
30
0.0000000000
11
61.5565353817
21
33.0000000000
31
0.0000000000
11
61.5344576583
21
32.5941700200
31
0.0000000000
11
61.4676808344
21
32.1928944672
31
0.0000000000
11
61.3700786846
21
31.8432919477
31
0.0000000000
0
SPLINE
5
4F1
100
AcDbEntity
8
0
100
AcDbSpline
62
3
6
CONTINUOUS
70
0
71
3
72
11
73
7
74
5
42
0.0000001000
43
0.0000001000
44
0.0000000001
12
1.7378147692
22
-1.6972261397
32
0.0000000000
13
0.0000000000
23
-2.4291102768
33
0.0000000000
40
0.0000000000
40
0.0000000000
40
0.0000000000
40
0.0000000000
40
0.1883600039
40
0.4581191389
40
0.7289086077
40
1.0000000000
40
1.0000000000
40
1.0000000000
40
1.0000000000
10
60.6775702077
20
35.2003183187
30
0.0000000000
10
60.7866818066
20
35.0937551446
30
0.0000000000
10
61.0302058017
20
34.8114227372
30
0.0000000000
10
61.3224660029
20
34.2926607159
30
0.0000000000
10
61.5153385343
20
33.6595951974
30
0.0000000000
10
61.5565353817
20
33.2195036290
30
0.0000000000
10
61.5565353817
20
33.0000000000
30
0.0000000000
11
60.6775702077
21
35.2003183187
31
0.0000000000
11
60.9768203702
21
34.8541986862
31
0.0000000000
11
61.3000659665
21
34.2842011423
31
0.0000000000
11
61.4933981812
21
33.6554771408
31
0.0000000000
11
61.5565353817
21
33.0000000000
31
0.0000000000
0
SPLINE
5
4F2
100
AcDbEntity
8
0
100
AcDbSpline
62
3
6
CONTINUOUS
70
0
71
3
72
9
73
5
74
3
42
0.0000001000
43
0.0000001000
44
0.0000000001
12
-0.0006655391
22
0.0565858726
32
0.0000000000
13
-0.0467388446
23
0.0300431502
33
0.0000000000
40
0.0000000000
40
0.0000000000
40
0.0000000000
40
0.0000000000
40
0.3637012538
40
1.0000000000
40
1.0000000000
40
1.0000000000
40
1.0000000000
10
58.9560434937
20
30.0737987820
30
0.0000000000
10
58.9559628079
20
30.0806588996
30
0.0000000000
10
58.9514139837
20
30.0997050168
30
0.0000000000
10
58.9368471262
20
30.1129641817
30
0.0000000000
10
58.9269338368
20
30.1193363213
30
0.0000000000
11
58.9560434937
21
30.0737987820
31
0.0000000000
11
58.9513288103
21
30.0937476031
31
0.0000000000
11
58.9269338368
21
30.1193363213
31
0.0000000000
0
SPLINE
5
4F3
100
AcDbEntity
8
0
100
AcDbSpline
62
3
6
CONTINUOUS
70
0
71
3
72
13
73
9
74
7
42
0.0000001000
43
0.0000001000
44
0.0000000001
12
-0.8947834487
22
-0.3054039129
32
0.0000000000
13
-0.9105344817
23
-0.2546289968
33
0.0000000000
40
0.0000000000
40
0.0000000000
40
0.0000000000
40
0.0000000000
40
0.1611541140
40
0.3237860571
40
0.4884005259
40
0.6555503244
40
0.8258590763
40
1.0000000000
40
1.0000000000
40
1.0000000000
40
1.0000000000
10
61.3700786846
20
31.8432919477
30
0.0000000000
10
61.3220126733
20
31.8268862487
30
0.0000000000
10
61.2254919206
20
31.7937699019
30
0.0000000000
10
61.0794008098
20
31.7452909216
30
0.0000000000
10
60.9311494371
20
31.6973402893
30
0.0000000000
10
60.7801554116
20
31.6500219498
30
0.0000000000
10
60.6257812046
20
31.6034906202
30
0.0000000000
10
60.5215825873
20
31.5730262174
30
0.0000000000
10
60.4687288154
20
31.5582457745
30
0.0000000000
11
61.3700786846
21
31.8432919477
31
0.0000000000
11
61.2258505581
21
31.7941631059
31
0.0000000000
11
61.0799338580
21
31.7456713744
31
0.0000000000
11
60.9318380028
21
31.6978101758
31
0.0000000000
11
60.7810220662
21
31.6505923272
31
0.0000000000
11
60.6268736131
21
31.6040504380
31
0.0000000000
11
60.4687288154
21
31.5582457745
31
0.0000000000
0
SPLINE
5
4F4
100
AcDbEntity
8
0
100
AcDbSpline
62
3
6
CONTINUOUS
70
0
71
3
72
10
73
6
74
4
42
0.0000001000
43
0.0000001000
44
0.0000000001
12
0.2115521203
22
-0.0612784902
32
0.0000000000
13
0.2102519267
23
-0.0656009157
33
0.0000000000
40
0.0000000000
40
0.0000000000
40
0.0000000000
40
0.0000000000
40
0.3284844525
40
0.6618467416
40
1.0000000000
40
1.0000000000
40
1.0000000000
40
1.0000000000
10
60.4666589413
20
35.2637555003
30
0.0000000000
10
60.4898228021
20
35.2570458232
30
0.0000000000
10
60.5364516139
20
35.2433780493
30
0.0000000000
10
60.6067557066
20
35.2222276496
30
0.0000000000
10
60.6538710830
20
35.2077127065
30
0.0000000000
10
60.6775702077
20
35.2003183187
30
0.0000000000
11
60.4666589413
21
35.2637555003
31
0.0000000000
11
60.5360837493
21
35.2433973576
31
0.0000000000
11
60.6063954905
21
35.2222520598
31
0.0000000000
11
60.6775702077
21
35.2003183187
31
0.0000000000
0
SPLINE
5
4F5
100
AcDbEntity
8
0
100
AcDbSpline
62
3
6
CONTINUOUS
70
0
71
3
72
15
73
11
74
9
42
0.0000001000
43
0.0000001000
44
0.0000000001
12
-0.4674900393
22
-0.1337264401
32
0.0000000000
13
-0.3209374736
23
-0.3652948263
33
0.0000000000
40
0.0000000000
40
0.0000000000
40
0.0000000000
40
0.0000000000
40
0.1621034029
40
0.3139866721
40
0.4557486722
40
0.5871361965
40
0.7078484757
40
0.8177447798
40
0.9167117766
40
1.0000000000
40
1.0000000000
40
1.0000000000
40
1.0000000000
10
60.4687288154
20
31.5582457745
30
0.0000000000
10
60.4434682400
20
31.5510199375
30
0.0000000000
10
60.3946931963
20
31.5364619603
30
0.0000000000
10
60.3247441648
20
31.5126665079
30
0.0000000000
10
60.2604031839
20
31.4879963964
30
0.0000000000
10
60.2018840028
20
31.4624186179
30
0.0000000000
10
60.1494878710
20
31.4359375652
30
0.0000000000
10
60.1035565181
20
31.4085469826
30
0.0000000000
10
60.0651821755
20
31.3806967028
30
0.0000000000
10
60.0435040901
20
31.3604022848
30
0.0000000000
10
60.0345939861
20
31.3502606991
30
0.0000000000
11
60.4687288154
21
31.5582457745
31
0.0000000000
11
60.3932612136
21
31.5354987833
31
0.0000000000
11
60.3233559249
21
31.5116799755
31
0.0000000000
11
60.2590387791
21
31.4868867135
31
0.0000000000
11
60.2005605487
21
31.4611630444
31
0.0000000000
11
60.1482621046
21
31.4345172697
31
0.0000000000
11
60.1024967701
21
31.4069320860
31
0.0000000000
11
60.0637895266
21
31.3783409677
31
0.0000000000
11
60.0345939861
21
31.3502606991
31
0.0000000000
0
SPLINE
5
4F6
100
AcDbEntity
8
0
100
AcDbSpline
62
3
6
CONTINUOUS
70
0
71
3
72
10
73
6
74
4
42
0.0000001000
43
0.0000001000
44
0.0000000001
12
-0.1574821928
22
0.0360045557
32
0.0000000000
13
-0.0142995524
23
0.1463504902
33
0.0000000000
40
0.0000000000
40
0.0000000000
40
0.0000000000
40
0.0000000000
40
0.0391760674
40
0.3779900676
40
1.0000000000
40
1.0000000000
40
1.0000000000
40
1.0000000000
10
62.7876943353
20
17.8927674478
30
0.0000000000
10
62.7856378243
20
17.8932376201
30
0.0000000000
10
62.7621408240
20
17.9063442611
30
0.0000000000
10
62.7794700768
20
17.9614496735
30
0.0000000000
10
62.7626867267
20
18.0051949784
30
0.0000000000
10
62.7597219055
20
18.0355387979
30
0.0000000000
11
62.7876943353
21
17.8927674478
31
0.0000000000
11
62.7810899846
21
17.8960374022
31
0.0000000000
11
62.7704051236
21
17.9446998922
31
0.0000000000
11
62.7597219055
21
18.0355387979
31
0.0000000000
0
SPLINE
5
4F7
100
AcDbEntity
8
0
100
AcDbSpline
62
3
6
CONTINUOUS
70
0
71
3
72
10
73
6
74
4
42
0.0000001000
43
0.0000001000
44
0.0000000001
12
0.1574821928
22
0.0360045557
32
0.0000000000
13
0.0142995524
23
0.1463504902
33
0.0000000000
40
0.0000000000
40
0.0000000000
40
0.0000000000
40
0.0000000000
40
0.0391760674
40
0.3779900676
40
1.0000000000
40
1.0000000000
40
1.0000000000
40
1.0000000000
10
55.7247519821
20
17.8927674478
30
0.0000000000
10
55.7268084931
20
17.8932376201
30
0.0000000000
10
55.7503054934
20
17.9063442611
30
0.0000000000
10
55.7329762406
20
17.9614496735
30
0.0000000000
10
55.7497595907
20
18.0051949784
30
0.0000000000
10
55.7527244119
20
18.0355387979
30
0.0000000000
11
55.7247519821
21
17.8927674478
31
0.0000000000
11
55.7313563328
21
17.8960374022
31
0.0000000000
11
55.7420411938
21
17.9446998922
31
0.0000000000
11
55.7527244119
21
18.0355387979
31
0.0000000000
0
SPLINE
5
4F8
100
AcDbEntity
8
0
100
AcDbSpline
62
3
6
CONTINUOUS
70
0
71
3
72
8
73
4
74
2
42
0.0000001000
43
0.0000001000
44
0.0000000001
12
0.0506987088
22
-0.0517441527
32
0.0000000000
13
0.0467848455
23
-0.0553073436
33
0.0000000000
40
0.0000000000
40
0.0000000000
40
0.0000000000
40
0.0000000000
40
1.0000000000
40
1.0000000000
40
1.0000000000
40
1.0000000000
10
58.5705088730
20
12.2503644694
30
0.0000000000
10
58.5874084426
20
12.2331164185
30
0.0000000000
10
58.6036725387
20
12.2152475038
30
0.0000000000
10
58.6192674872
20
12.1968117226
30
0.0000000000
11
58.5705088730
21
12.2503644694
31
0.0000000000
11
58.6192674872
21
12.1968117226
31
0.0000000000
0
SPLINE
5
4F9
100
AcDbEntity
8
0
100
AcDbSpline
62
3
6
CONTINUOUS
70
0
71
3
72
8
73
4
74
2
42
0.0000001000
43
0.0000001000
44
0.0000000001
12
0.0310499916
22
-0.0367061715
32
0.0000000000
13
0.0292520382
23
-0.0381569304
33
0.0000000000
40
0.0000000000
40
0.0000000000
40
0.0000000000
40
0.0000000000
40
1.0000000000
40
1.0000000000
40
1.0000000000
40
1.0000000000
10
58.6192674872
20
12.1968117226
30
0.0000000000
10
58.6296174844
20
12.1845763321
30
0.0000000000
10
58.6396727446
20
12.1720912561
30
0.0000000000
10
58.6494234240
20
12.1593722793
30
0.0000000000
11
58.6192674872
21
12.1968117226
31
0.0000000000
11
58.6494234240
21
12.1593722793
31
0.0000000000
0
SPLINE
5
4FA
100
AcDbEntity
8
0
100
AcDbSpline
62
3
6
CONTINUOUS
70
0
71
3
72
8
73
4
74
2
42
0.0000001000
43
0.0000001000
44
0.0000000001
12
0.0136243392
22
-0.0177718548
32
0.0000000000
13
0.0132249201
23
-0.0180715101
33
0.0000000000
40
0.0000000000
40
0.0000000000
40
0.0000000000
40
0.0000000000
40
1.0000000000
40
1.0000000000
40
1.0000000000
40
1.0000000000
10
58.6494234240
20
12.1593722793
30
0.0000000000
10
58.6539648704
20
12.1534483277
30
0.0000000000
10
58.6584402443
20
12.1474736362
30
0.0000000000
10
58.6628485510
20
12.1414497995
30
0.0000000000
11
58.6494234240
21
12.1593722793
31
0.0000000000
11
58.6628485510
21
12.1414497995
31
0.0000000000
0
SPLINE
5
4FB
100
AcDbEntity
8
0
100
AcDbSpline
62
3
6
CONTINUOUS
70
0
71
3
72
8
73
4
74
2
42
0.0000001000
43
0.0000001000
44
0.0000000001
12
0.1133994915
22
-0.1549574607
32
0.0000000000
13
0.0819316065
23
-0.1736214819
33
0.0000000000
40
0.0000000000
40
0.0000000000
40
0.0000000000
40
0.0000000000
40
1.0000000000
40
1.0000000000
40
1.0000000000
40
1.0000000000
10
58.6628485510
20
12.1414497995
30
0.0000000000
10
58.7006483815
20
12.0897973126
30
0.0000000000
10
58.7335170871
20
12.0345314191
30
0.0000000000
10
58.7608276226
20
11.9766575918
30
0.0000000000
11
58.6628485510
21
12.1414497995
31
0.0000000000
11
58.7608276226
21
11.9766575918
31
0.0000000000
0
SPLINE
5
4FC
100
AcDbEntity
8
0
100
AcDbSpline
62
3
6
CONTINUOUS
70
0
71
3
72
8
73
4
74
2
42
0.0000001000
43
0.0000001000
44
0.0000000001
12
0.0104366730
22
-0.0221163810
32
0.0000000000
13
0.0098916513
23
-0.0223640499
33
0.0000000000
40
0.0000000000
40
0.0000000000
40
0.0000000000
40
0.0000000000
40
1.0000000000
40
1.0000000000
40
1.0000000000
40
1.0000000000
10
58.7608276226
20
11.9766575918
30
0.0000000000
10
58.7643065136
20
11.9692854648
30
0.0000000000
10
58.7676952157
20
11.9618710205
30
0.0000000000
10
58.7709924328
20
11.9544163372
30
0.0000000000
11
58.7608276226
21
11.9766575918
31
0.0000000000
11
58.7709924328
21
11.9544163372
31
0.0000000000
0
SPLINE
5
4FD
100
AcDbEntity
8
0
100
AcDbSpline
62
3
6
CONTINUOUS
70
0
71
3
72
8
73
4
74
2
42
0.0000001000
43
0.0000001000
44
0.0000000001
12
0.0290617938
22
-0.0657058545
32
0.0000000000
13
0.0242250420
23
-0.0676317741
33
0.0000000000
40
0.0000000000
40
0.0000000000
40
0.0000000000
40
0.0000000000
40
1.0000000000
40
1.0000000000
40
1.0000000000
40
1.0000000000
10
58.7709924328
20
11.9544163372
30
0.0000000000
10
58.7806796974
20
11.9325143857
30
0.0000000000
10
58.7895772713
20
11.9102650945
30
0.0000000000
10
58.7976522853
20
11.8877211698
30
0.0000000000
11
58.7709924328
21
11.9544163372
31
0.0000000000
11
58.7976522853
21
11.8877211698
31
0.0000000000
0
SPLINE
5
4FE
100
AcDbEntity
8
0
100
AcDbSpline
62
3
6
CONTINUOUS
70
0
71
3
72
8
73
4
74
2
42
0.0000001000
43
0.0000001000
44
0.0000000001
12
0.0022805331
22
-0.0063668202
32
0.0000000000
13
0.0022367745
23
-0.0063823326
33
0.0000000000
40
0.0000000000
40
0.0000000000
40
0.0000000000
40
0.0000000000
40
1.0000000000
40
1.0000000000
40
1.0000000000
40
1.0000000000
10
58.7976522853
20
11.8877211698
30
0.0000000000
10
58.7984124630
20
11.8855988964
30
0.0000000000
10
58.7991653509
20
11.8834740118
30
0.0000000000
10
58.7999109424
20
11.8813465676
30
0.0000000000
11
58.7976522853
21
11.8877211698
31
0.0000000000
11
58.7999109424
21
11.8813465676
31
0.0000000000
0
SPLINE
5
4FF
100
AcDbEntity
8
0
100
AcDbSpline
62
3
6
CONTINUOUS
70
0
71
3
72
8
73
4
74
2
42
0.0000001000
43
0.0000001000
44
0.0000000001
12
0.0215232954
22
-0.0614138025
32
0.0000000000
13
0.0174517551
23
-0.0626985171
33
0.0000000000
40
0.0000000000
40
0.0000000000
40
0.0000000000
40
0.0000000000
40
1.0000000000
40
1.0000000000
40
1.0000000000
40
1.0000000000
10
58.7999109424
20
11.8813465676
30
0.0000000000
10
58.8070853742
20
11.8608753001
30
0.0000000000
10
58.8135842157
20
11.8401670234
30
0.0000000000
10
58.8194014674
20
11.8192675177
30
0.0000000000
11
58.7999109424
21
11.8813465676
31
0.0000000000
11
58.8194014674
21
11.8192675177
31
0.0000000000
0
SPLINE
5
500
100
AcDbEntity
8
0
100
AcDbSpline
62
3
6
CONTINUOUS
70
0
71
3
72
8
73
4
74
2
42
0.0000001000
43
0.0000001000
44
0.0000000001
12
0.0066726204
22
-0.0239725686
32
0.0000000000
13
0.0060737685
23
-0.0241326252
33
0.0000000000
40
0.0000000000
40
0.0000000000
40
0.0000000000
40
0.0000000000
40
1.0000000000
40
1.0000000000
40
1.0000000000
40
1.0000000000
10
58.8194014674
20
11.8192675177
30
0.0000000000
10
58.8216256742
20
11.8112766615
30
0.0000000000
10
58.8237502400
20
11.8032578497
30
0.0000000000
10
58.8257748295
20
11.7952136413
30
0.0000000000
11
58.8194014674
21
11.8192675177
31
0.0000000000
11
58.8257748295
21
11.7952136413
31
0.0000000000
0
SPLINE
5
501
100
AcDbEntity
8
0
100
AcDbSpline
62
3
6
CONTINUOUS
70
0
71
3
72
8
73
4
74
2
42
0.0000001000
43
0.0000001000
44
0.0000000001
12
0.0467502501
22
-0.1857506154
32
0.0000000000
13
0.0107529348
23
-0.1912777194
33
0.0000000000
40
0.0000000000
40
0.0000000000
40
0.0000000000
40
0.0000000000
40
1.0000000000
40
1.0000000000
40
1.0000000000
40
1.0000000000
10
58.8257748295
20
11.7952136413
30
0.0000000000
10
58.8413582462
20
11.7332967695
30
0.0000000000
10
58.8510185727
20
11.6698752722
30
0.0000000000
10
58.8546028843
20
11.6061160324
30
0.0000000000
11
58.8257748295
21
11.7952136413
31
0.0000000000
11
58.8546028843
21
11.6061160324
31
0.0000000000
0
SPLINE
5
502
100
AcDbEntity
8
0
100
AcDbSpline
62
3
6
CONTINUOUS
70
0
71
3
72
8
73
4
74
2
42
0.0000001000
43
0.0000001000
44
0.0000000001
12
0.0015527286
22
-0.0276205911
32
0.0000000000
13
0.0007911837
23
-0.0276523053
33
0.0000000000
40
0.0000000000
40
0.0000000000
40
0.0000000000
40
0.0000000000
40
1.0000000000
40
1.0000000000
40
1.0000000000
40
1.0000000000
10
58.8546028843
20
11.6061160324
30
0.0000000000
10
58.8551204605
20
11.5969091687
30
0.0000000000
10
58.8555113427
20
11.5876952626
30
0.0000000000
10
58.8557750706
20
11.5784778275
30
0.0000000000
11
58.8546028843
21
11.6061160324
31
0.0000000000
11
58.8557750706
21
11.5784778275
31
0.0000000000
0
SPLINE
5
503
100
AcDbEntity
8
0
100
AcDbSpline
62
3
6
CONTINUOUS
70
0
71
3
72
8
73
4
74
2
42
0.0000001000
43
0.0000001000
44
0.0000000001
12
0.0012241797
22
-0.0427857705
32
0.0000000000
13
-0.0006074334
23
-0.0427974180
33
0.0000000000
40
0.0000000000
40
0.0000000000
40
0.0000000000
40
0.0000000000
40
1.0000000000
40
1.0000000000
40
1.0000000000
40
1.0000000000
10
58.8557750706
20
11.5784778275
30
0.0000000000
10
58.8561831305
20
11.5642159040
30
0.0000000000
10
58.8562867743
20
11.5499455320
30
0.0000000000
10
58.8560842965
20
11.5356797260
30
0.0000000000
11
58.8557750706
21
11.5784778275
31
0.0000000000
11
58.8560842965
21
11.5356797260
31
0.0000000000
0
SPLINE
5
504
100
AcDbEntity
8
0
100
AcDbSpline
62
3
6
CONTINUOUS
70
0
71
3
72
8
73
4
74
2
42
0.0000001000
43
0.0000001000
44
0.0000000001
12
-0.0010279803
22
-0.0724275243
32
0.0000000000
13
-0.0063131661
23
-0.0721598181
33
0.0000000000
40
0.0000000000
40
0.0000000000
40
0.0000000000
40
0.0000000000
40
1.0000000000
40
1.0000000000
40
1.0000000000
40
1.0000000000
10
58.8560842965
20
11.5356797260
30
0.0000000000
10
58.8557416364
20
11.5115372179
30
0.0000000000
10
58.8545222455
20
11.4874077872
30
0.0000000000
10
58.8524178568
20
11.4633545145
30
0.0000000000
11
58.8560842965
21
11.5356797260
31
0.0000000000
11
58.8524178568
21
11.4633545145
31
0.0000000000
0
SPLINE
5
505
100
AcDbEntity
8
0
100
AcDbSpline
62
3
6
CONTINUOUS
70
0
71
3
72
10
73
6
74
4
42
0.0000001000
43
0.0000001000
44
0.0000000001
12
-0.3668428023
22
0.4283174447
32
0.0000000000
13
-0.4582994797
23
0.3287109177
33
0.0000000000
40
0.0000000000
40
0.0000000000
40
0.0000000000
40
0.0000000000
40
0.3389693341
40
0.6844512944
40
1.0000000000
40
1.0000000000
40
1.0000000000
40
1.0000000000
10
60.0329662474
20
15.6516156753
30
0.0000000000
10
59.9915167606
20
15.7000111683
30
0.0000000000
10
59.9032148473
20
15.7938759270
30
0.0000000000
10
59.7629023828
20
15.9192639870
30
0.0000000000
10
59.6642232152
20
15.9949809862
30
0.0000000000
10
59.6160179460
20
16.0295557544
30
0.0000000000
11
60.0329662474
21
15.6516156753
31
0.0000000000
11
59.9021578909
21
15.7910101910
31
0.0000000000
11
59.7570830283
21
15.9210591954
31
0.0000000000
11
59.6160179460
21
16.0295557544
31
0.0000000000
0
SPLINE
5
506
100
AcDbEntity
8
0
100
AcDbSpline
62
3
6
CONTINUOUS
70
0
71
3
72
11
73
7
74
5
42
0.0000001000
43
0.0000001000
44
0.0000000001
12
-0.1293564610
22
0.0000000000
32
0.0000000000
13
0.0015494799
23
-0.1317407262
33
0.0000000000
40
0.0000000000
40
0.0000000000
40
0.0000000000
40
0.0000000000
40
0.3551152231
40
0.6682107268
40
0.9232030672
40
1.0000000000
40
1.0000000000
40
1.0000000000
40
1.0000000000
10
59.6562231587
20
16.9903943874
30
0.0000000000
10
59.6409110092
20
16.9903943874
30
0.0000000000
10
59.6118698034
20
16.9861502285
30
0.0000000000
10
59.5755645671
20
16.9680817465
30
0.0000000000
10
59.5578349150
20
16.9440737665
30
0.0000000000
10
59.5563631586
20
16.9295736459
30
0.0000000000
10
59.5564028237
20
16.9262012180
30
0.0000000000
11
59.6562231587
21
16.9903943874
31
0.0000000000
11
59.6108241087
21
16.9833884218
31
0.0000000000
11
59.5753214592
21
16.9638977342
31
0.0000000000
11
59.5574543246
21
16.9361710401
31
0.0000000000
11
59.5564028237
21
16.9262012180
31
0.0000000000
0
SPLINE
5
507
100
AcDbEntity
8
0
100
AcDbSpline
62
3
6
CONTINUOUS
70
0
71
3
72
8
73
4
74
2
42
0.0000001000
43
0.0000001000
44
0.0000000001
12
-0.0506987088
22
-0.0517441527
32
0.0000000000
13
-0.0467848455
23
-0.0553073436
33
0.0000000000
40
0.0000000000
40
0.0000000000
40
0.0000000000
40
0.0000000000
40
1.0000000000
40
1.0000000000
40
1.0000000000
40
1.0000000000
10
59.9419374444
20
12.2503644694
30
0.0000000000
10
59.9250378748
20
12.2331164185
30
0.0000000000
10
59.9087737787
20
12.2152475038
30
0.0000000000
10
59.8931788302
20
12.1968117226
30
0.0000000000
11
59.9419374444
21
12.2503644694
31
0.0000000000
11
59.8931788302
21
12.1968117226
31
0.0000000000
0
SPLINE
5
508
100
AcDbEntity
8
0
100
AcDbSpline
62
3
6
CONTINUOUS
70
0
71
3
72
8
73
4
74
2
42
0.0000001000
43
0.0000001000
44
0.0000000001
12
-0.0310499916
22
-0.0367061715
32
0.0000000000
13
-0.0292520382
23
-0.0381569304
33
0.0000000000
40
0.0000000000
40
0.0000000000
40
0.0000000000
40
0.0000000000
40
1.0000000000
40
1.0000000000
40
1.0000000000
40
1.0000000000
10
59.8931788302
20
12.1968117226
30
0.0000000000
10
59.8828288330
20
12.1845763321
30
0.0000000000
10
59.8727735728
20
12.1720912561
30
0.0000000000
10
59.8630228934
20
12.1593722793
30
0.0000000000
11
59.8931788302
21
12.1968117226
31
0.0000000000
11
59.8630228934
21
12.1593722793
31
0.0000000000
0
SPLINE
5
509
100
AcDbEntity
8
0
100
AcDbSpline
62
3
6
CONTINUOUS
70
0
71
3
72
8
73
4
74
2
42
0.0000001000
43
0.0000001000
44
0.0000000001
12
-0.0136243392
22
-0.0177718548
32
0.0000000000
13
-0.0132249201
23
-0.0180715101
33
0.0000000000
40
0.0000000000
40
0.0000000000
40
0.0000000000
40
0.0000000000
40
1.0000000000
40
1.0000000000
40
1.0000000000
40
1.0000000000
10
59.8630228934
20
12.1593722793
30
0.0000000000
10
59.8584814470
20
12.1534483277
30
0.0000000000
10
59.8540060731
20
12.1474736362
30
0.0000000000
10
59.8495977664
20
12.1414497995
30
0.0000000000
11
59.8630228934
21
12.1593722793
31
0.0000000000
11
59.8495977664
21
12.1414497995
31
0.0000000000
0
SPLINE
5
50A
100
AcDbEntity
8
0
100
AcDbSpline
62
3
6
CONTINUOUS
70
0
71
3
72
8
73
4
74
2
42
0.0000001000
43
0.0000001000
44
0.0000000001
12
-0.1133994915
22
-0.1549574607
32
0.0000000000
13
-0.0819316065
23
-0.1736214819
33
0.0000000000
40
0.0000000000
40
0.0000000000
40
0.0000000000
40
0.0000000000
40
1.0000000000
40
1.0000000000
40
1.0000000000
40
1.0000000000
10
59.8495977664
20
12.1414497995
30
0.0000000000
10
59.8117979359
20
12.0897973126
30
0.0000000000
10
59.7789292303
20
12.0345314191
30
0.0000000000
10
59.7516186948
20
11.9766575918
30
0.0000000000
11
59.8495977664
21
12.1414497995
31
0.0000000000
11
59.7516186948
21
11.9766575918
31
0.0000000000
0
SPLINE
5
50B
100
AcDbEntity
8
0
100
AcDbSpline
62
3
6
CONTINUOUS
70
0
71
3
72
8
73
4
74
2
42
0.0000001000
43
0.0000001000
44
0.0000000001
12
-0.0104366730
22
-0.0221163810
32
0.0000000000
13
-0.0098916513
23
-0.0223640499
33
0.0000000000
40
0.0000000000
40
0.0000000000
40
0.0000000000
40
0.0000000000
40
1.0000000000
40
1.0000000000
40
1.0000000000
40
1.0000000000
10
59.7516186948
20
11.9766575918
30
0.0000000000
10
59.7481398038
20
11.9692854648
30
0.0000000000
10
59.7447511017
20
11.9618710205
30
0.0000000000
10
59.7414538846
20
11.9544163372
30
0.0000000000
11
59.7516186948
21
11.9766575918
31
0.0000000000
11
59.7414538846
21
11.9544163372
31
0.0000000000
0
SPLINE
5
50C
100
AcDbEntity
8
0
100
AcDbSpline
62
3
6
CONTINUOUS
70
0
71
3
72
8
73
4
74
2
42
0.0000001000
43
0.0000001000
44
0.0000000001
12
-0.0290617938
22
-0.0657058545
32
0.0000000000
13
-0.0242250420
23
-0.0676317741
33
0.0000000000
40
0.0000000000
40
0.0000000000
40
0.0000000000
40
0.0000000000
40
1.0000000000
40
1.0000000000
40
1.0000000000
40
1.0000000000
10
59.7414538846
20
11.9544163372
30
0.0000000000
10
59.7317666200
20
11.9325143857
30
0.0000000000
10
59.7228690461
20
11.9102650945
30
0.0000000000
10
59.7147940321
20
11.8877211698
30
0.0000000000
11
59.7414538846
21
11.9544163372
31
0.0000000000
11
59.7147940321
21
11.8877211698
31
0.0000000000
0
SPLINE
5
50D
100
AcDbEntity
8
0
100
AcDbSpline
62
3
6
CONTINUOUS
70
0
71
3
72
8
73
4
74
2
42
0.0000001000
43
0.0000001000
44
0.0000000001
12
-0.0022805331
22
-0.0063668202
32
0.0000000000
13
-0.0022367745
23
-0.0063823326
33
0.0000000000
40
0.0000000000
40
0.0000000000
40
0.0000000000
40
0.0000000000
40
1.0000000000
40
1.0000000000
40
1.0000000000
40
1.0000000000
10
59.7147940321
20
11.8877211698
30
0.0000000000
10
59.7140338544
20
11.8855988964
30
0.0000000000
10
59.7132809665
20
11.8834740118
30
0.0000000000
10
59.7125353750
20
11.8813465676
30
0.0000000000
11
59.7147940321
21
11.8877211698
31
0.0000000000
11
59.7125353750
21
11.8813465676
31
0.0000000000
0
SPLINE
5
50E
100
AcDbEntity
8
0
100
AcDbSpline
62
3
6
CONTINUOUS
70
0
71
3
72
8
73
4
74
2
42
0.0000001000
43
0.0000001000
44
0.0000000001
12
-0.0215232954
22
-0.0614138025
32
0.0000000000
13
-0.0174517551
23
-0.0626985171
33
0.0000000000
40
0.0000000000
40
0.0000000000
40
0.0000000000
40
0.0000000000
40
1.0000000000
40
1.0000000000
40
1.0000000000
40
1.0000000000
10
59.7125353750
20
11.8813465676
30
0.0000000000
10
59.7053609432
20
11.8608753001
30
0.0000000000
10
59.6988621017
20
11.8401670234
30
0.0000000000
10
59.6930448500
20
11.8192675177
30
0.0000000000
11
59.7125353750
21
11.8813465676
31
0.0000000000
11
59.6930448500
21
11.8192675177
31
0.0000000000
0
SPLINE
5
50F
100
AcDbEntity
8
0
100
AcDbSpline
62
3
6
CONTINUOUS
70
0
71
3
72
8
73
4
74
2
42
0.0000001000
43
0.0000001000
44
0.0000000001
12
-0.0066726204
22
-0.0239725686
32
0.0000000000
13
-0.0060737685
23
-0.0241326252
33
0.0000000000
40
0.0000000000
40
0.0000000000
40
0.0000000000
40
0.0000000000
40
1.0000000000
40
1.0000000000
40
1.0000000000
40
1.0000000000
10
59.6930448500
20
11.8192675177
30
0.0000000000
10
59.6908206432
20
11.8112766615
30
0.0000000000
10
59.6886960774
20
11.8032578497
30
0.0000000000
10
59.6866714879
20
11.7952136413
30
0.0000000000
11
59.6930448500
21
11.8192675177
31
0.0000000000
11
59.6866714879
21
11.7952136413
31
0.0000000000
0
SPLINE
5
510
100
AcDbEntity
8
0
100
AcDbSpline
62
3
6
CONTINUOUS
70
0
71
3
72
8
73
4
74
2
42
0.0000001000
43
0.0000001000
44
0.0000000001
12
-0.0467502501
22
-0.1857506154
32
0.0000000000
13
-0.0107529348
23
-0.1912777194
33
0.0000000000
40
0.0000000000
40
0.0000000000
40
0.0000000000
40
0.0000000000
40
1.0000000000
40
1.0000000000
40
1.0000000000
40
1.0000000000
10
59.6866714879
20
11.7952136413
30
0.0000000000
10
59.6710880712
20
11.7332967695
30
0.0000000000
10
59.6614277447
20
11.6698752722
30
0.0000000000
10
59.6578434331
20
11.6061160324
30
0.0000000000
11
59.6866714879
21
11.7952136413
31
0.0000000000
11
59.6578434331
21
11.6061160324
31
0.0000000000
0
SPLINE
5
511
100
AcDbEntity
8
0
100
AcDbSpline
62
3
6
CONTINUOUS
70
0
71
3
72
8
73
4
74
2
42
0.0000001000
43
0.0000001000
44
0.0000000001
12
-0.0015527286
22
-0.0276205911
32
0.0000000000
13
-0.0007911837
23
-0.0276523053
33
0.0000000000
40
0.0000000000
40
0.0000000000
40
0.0000000000
40
0.0000000000
40
1.0000000000
40
1.0000000000
40
1.0000000000
40
1.0000000000
10
59.6578434331
20
11.6061160324
30
0.0000000000
10
59.6573258569
20
11.5969091687
30
0.0000000000
10
59.6569349747
20
11.5876952626
30
0.0000000000
10
59.6566712468
20
11.5784778275
30
0.0000000000
11
59.6578434331
21
11.6061160324
31
0.0000000000
11
59.6566712468
21
11.5784778275
31
0.0000000000
0
SPLINE
5
512
100
AcDbEntity
8
0
100
AcDbSpline
62
3
6
CONTINUOUS
70
0
71
3
72
8
73
4
74
2
42
0.0000001000
43
0.0000001000
44
0.0000000001
12
-0.0012241797
22
-0.0427857705
32
0.0000000000
13
0.0006074334
23
-0.0427974180
33
0.0000000000
40
0.0000000000
40
0.0000000000
40
0.0000000000
40
0.0000000000
40
1.0000000000
40
1.0000000000
40
1.0000000000
40
1.0000000000
10
59.6566712468
20
11.5784778275
30
0.0000000000
10
59.6562631869
20
11.5642159040
30
0.0000000000
10
59.6561595431
20
11.5499455320
30
0.0000000000
10
59.6563620209
20
11.5356797260
30
0.0000000000
11
59.6566712468
21
11.5784778275
31
0.0000000000
11
59.6563620209
21
11.5356797260
31
0.0000000000
0
SPLINE
5
513
100
AcDbEntity
8
0
100
AcDbSpline
62
3
6
CONTINUOUS
70
0
71
3
72
8
73
4
74
2
42
0.0000001000
43
0.0000001000
44
0.0000000001
12
0.0010279803
22
-0.0724275243
32
0.0000000000
13
0.0063131661
23
-0.0721598181
33
0.0000000000
40
0.0000000000
40
0.0000000000
40
0.0000000000
40
0.0000000000
40
1.0000000000
40
1.0000000000
40
1.0000000000
40
1.0000000000
10
59.6563620209
20
11.5356797260
30
0.0000000000
10
59.6567046810
20
11.5115372179
30
0.0000000000
10
59.6579240719
20
11.4874077872
30
0.0000000000
10
59.6600284606
20
11.4633545145
30
0.0000000000
11
59.6563620209
21
11.5356797260
31
0.0000000000
11
59.6600284606
21
11.4633545145
31
0.0000000000
0
SPLINE
5
514
100
AcDbEntity
8
0
100
AcDbSpline
62
3
6
CONTINUOUS
70
0
71
3
72
11
73
7
74
5
42
0.0000001000
43
0.0000001000
44
0.0000000001
12
0.1293564610
22
0.0000000000
32
0.0000000000
13
-0.0015494799
23
-0.1317407262
33
0.0000000000
40
0.0000000000
40
0.0000000000
40
0.0000000000
40
0.0000000000
40
0.3551152231
40
0.6682107268
40
0.9232030672
40
1.0000000000
40
1.0000000000
40
1.0000000000
40
1.0000000000
10
58.8562231587
20
16.9903943874
30
0.0000000000
10
58.8715353082
20
16.9903943874
30
0.0000000000
10
58.9005765140
20
16.9861502285
30
0.0000000000
10
58.9368817503
20
16.9680817465
30
0.0000000000
10
58.9546114024
20
16.9440737665
30
0.0000000000
10
58.9560831588
20
16.9295736459
30
0.0000000000
10
58.9560434937
20
16.9262012180
30
0.0000000000
11
58.8562231587
21
16.9903943874
31
0.0000000000
11
58.9016222087
21
16.9833884218
31
0.0000000000
11
58.9371248582
21
16.9638977342
31
0.0000000000
11
58.9549919928
21
16.9361710401
31
0.0000000000
11
58.9560434937
21
16.9262012180
31
0.0000000000
0
SPLINE
5
515
100
AcDbEntity
8
0
100
AcDbSpline
62
3
6
CONTINUOUS
70
0
71
3
72
10
73
6
74
4
42
0.0000001000
43
0.0000001000
44
0.0000000001
12
0.3802778099
22
0.4439989148
32
0.0000000000
13
0.4775622153
23
0.3371655079
33
0.0000000000
40
0.0000000000
40
0.0000000000
40
0.0000000000
40
0.0000000000
40
0.3274313564
40
0.6604967305
40
1.0000000000
40
1.0000000000
40
1.0000000000
40
1.0000000000
10
58.4794799122
20
15.6516158104
30
0.0000000000
10
58.5209848719
20
15.7000755327
30
0.0000000000
10
58.6093227374
20
15.7939670321
30
0.0000000000
10
58.7547827252
20
15.9239339330
30
0.0000000000
10
58.8592084803
20
16.0033720052
30
0.0000000000
10
58.9132531248
20
16.0415282693
30
0.0000000000
11
58.4794799122
21
15.6516158104
31
0.0000000000
11
58.6104708516
21
15.7911881253
31
0.0000000000
11
58.7554633433
21
15.9211418015
31
0.0000000000
11
58.9132531248
21
16.0415282693
31
0.0000000000
0
SPLINE
5
516
100
AcDbEntity
8
0
100
AcDbSpline
62
3
6
CONTINUOUS
70
0
71
3
72
9
73
5
74
3
42
0.0000001000
43
0.0000001000
44
0.0000000001
12
-0.0006655391
22
-0.0565858726
32
0.0000000000
13
-0.0467388446
23
-0.0300431502
33
0.0000000000
40
0.0000000000
40
0.0000000000
40
0.0000000000
40
0.0000000000
40
0.3637012538
40
1.0000000000
40
1.0000000000
40
1.0000000000
40
1.0000000000
10
58.9560434937
20
16.9262012180
30
0.0000000000
10
58.9559628079
20
16.9193411004
30
0.0000000000
10
58.9514139837
20
16.9002949832
30
0.0000000000
10
58.9368471262
20
16.8870358183
30
0.0000000000
10
58.9269338368
20
16.8806636787
30
0.0000000000
11
58.9560434937
21
16.9262012180
31
0.0000000000
11
58.9513288103
21
16.9062523969
31
0.0000000000
11
58.9269338368
21
16.8806636787
31
0.0000000000
0
SPLINE
5
517
100
AcDbEntity
8
0
100
AcDbSpline
62
3
6
CONTINUOUS
70
0
71
3
72
11
73
7
74
5
42
0.0000001000
43
0.0000001000
44
0.0000000001
12
-0.0197264655
22
0.1246288634
32
0.0000000000
13
-0.0643488295
23
0.1085052941
33
0.0000000000
40
0.0000000000
40
0.0000000000
40
0.0000000000
40
0.0000000000
40
0.2133429173
40
0.4676851177
40
0.7288809846
40
1.0000000000
40
1.0000000000
40
1.0000000000
40
1.0000000000
10
58.8157631821
20
11.2365904004
30
0.0000000000
10
58.8143603482
20
11.2454532955
30
0.0000000000
10
58.8106849283
20
11.2647883605
30
0.0000000000
10
58.8026325890
20
11.2944066013
30
0.0000000000
10
58.7908444302
20
11.3253726656
30
0.0000000000
10
58.7806157765
20
11.3453527484
30
0.0000000000
10
58.7748003794
20
11.3551586979
30
0.0000000000
11
58.8157631821
21
11.2365904004
31
0.0000000000
11
58.8106967980
21
11.2630245765
31
0.0000000000
11
58.8022142141
21
11.2939686026
31
0.0000000000
11
58.7904509617
21
11.3247475375
31
0.0000000000
11
58.7748003794
21
11.3551586979
31
0.0000000000
0
SPLINE
5
518
100
AcDbEntity
8
0
100
AcDbSpline
62
3
6
CONTINUOUS
70
0
71
3
72
9
73
5
74
3
42
0.0000001000
43
0.0000001000
44
0.0000000001
12
-0.0272581515
22
0.0461745479
32
0.0000000000
13
-0.0331026296
23
0.0421818873
33
0.0000000000
40
0.0000000000
40
0.0000000000
40
0.0000000000
40
0.0000000000
40
0.4971034121
40
1.0000000000
40
1.0000000000
40
1.0000000000
40
1.0000000000
10
58.7748003794
20
11.3551586979
30
0.0000000000
10
58.7702836727
20
11.3628098730
30
0.0000000000
10
58.7606528783
20
11.3778854125
30
0.0000000000
10
58.7500461785
20
11.3922879538
30
0.0000000000
10
58.7444971120
20
11.3993589962
30
0.0000000000
11
58.7748003794
21
11.3551586979
31
0.0000000000
11
58.7604675134
21
11.3776317715
31
0.0000000000
11
58.7444971120
21
11.3993589962
31
0.0000000000
0
SPLINE
5
519
100
AcDbEntity
8
0
100
AcDbSpline
62
3
6
CONTINUOUS
70
0
71
3
72
11
73
7
74
5
42
0.0000001000
43
0.0000001000
44
0.0000000001
12
1.7378147692
22
1.6972261397
32
0.0000000000
13
0.0000000000
23
2.4291102768
33
0.0000000000
40
0.0000000000
40
0.0000000000
40
0.0000000000
40
0.0000000000
40
0.1883600039
40
0.4581191389
40
0.7289086077
40
1.0000000000
40
1.0000000000
40
1.0000000000
40
1.0000000000
10
60.6775702077
20
11.7996816813
30
0.0000000000
10
60.7866818066
20
11.9062448554
30
0.0000000000
10
61.0302058017
20
12.1885772628
30
0.0000000000
10
61.3224660029
20
12.7073392841
30
0.0000000000
10
61.5153385343
20
13.3404048026
30
0.0000000000
10
61.5565353817
20
13.7804963710
30
0.0000000000
10
61.5565353817
20
14.0000000000
30
0.0000000000
11
60.6775702077
21
11.7996816813
31
0.0000000000
11
60.9768203702
21
12.1458013138
31
0.0000000000
11
61.3000659665
21
12.7157988577
31
0.0000000000
11
61.4933981812
21
13.3445228592
31
0.0000000000
11
61.5565353817
21
14.0000000000
31
0.0000000000
0
SPLINE
5
51A
100
AcDbEntity
8
0
100
AcDbSpline
62
3
6
CONTINUOUS
70
0
71
3
72
15
73
11
74
9
42
0.0000001000
43
0.0000001000
44
0.0000000001
12
-0.4745246922
22
0.6063458858
32
0.0000000000
13
-0.7373850350
23
0.2215836155
33
0.0000000000
40
0.0000000000
40
0.0000000000
40
0.0000000000
40
0.0000000000
40
0.1050403893
40
0.2191877806
40
0.3408202578
40
0.4686675635
40
0.6010389849
40
0.7373855678
40
0.8770614184
40
1.0000000000
40
1.0000000000
40
1.0000000000
40
1.0000000000
10
58.7444971120
20
11.3993589962
30
0.0000000000
10
58.7278823592
20
11.4205892655
30
0.0000000000
10
58.6876821379
20
11.4605881541
30
0.0000000000
10
58.6165098467
20
11.5117786289
30
0.0000000000
10
58.5350697832
20
11.5576489430
30
0.0000000000
10
58.4461436017
20
11.5989919522
30
0.0000000000
10
58.3515752165
20
11.6367211636
30
0.0000000000
10
58.2527418592
20
11.6716761254
30
0.0000000000
10
58.1553070169
20
11.7031861868
30
0.0000000000
10
58.0907989581
20
11.7227233154
30
0.0000000000
10
58.0605812680
20
11.7318037072
30
0.0000000000
11
58.7444971120
21
11.3993589962
31
0.0000000000
11
58.6880727641
21
11.4573008815
31
0.0000000000
11
58.6172363018
21
11.5093252654
31
0.0000000000
11
58.5359329669
21
11.5558048590
31
0.0000000000
11
58.4468462620
21
11.5976774026
31
0.0000000000
11
58.3522925725
21
11.6357203305
31
0.0000000000
11
58.2533982781
21
11.6709459115
31
0.0000000000
11
58.1511141906
21
11.7041674438
31
0.0000000000
11
58.0605812680
21
11.7318037072
31
0.0000000000
0
SPLINE
5
51B
100
AcDbEntity
8
0
100
AcDbSpline
62
3
6
CONTINUOUS
70
0
71
3
72
13
73
9
74
7
42
0.0000001000
43
0.0000001000
44
0.0000000001
12
-0.8947834487
22
0.3054039129
32
0.0000000000
13
-0.9105344817
23
0.2546289968
33
0.0000000000
40
0.0000000000
40
0.0000000000
40
0.0000000000
40
0.0000000000
40
0.1611541140
40
0.3237860571
40
0.4884005259
40
0.6555503244
40
0.8258590763
40
1.0000000000
40
1.0000000000
40
1.0000000000
40
1.0000000000
10
61.3700786846
20
15.1567080523
30
0.0000000000
10
61.3220126733
20
15.1731137513
30
0.0000000000
10
61.2254919206
20
15.2062300981
30
0.0000000000
10
61.0794008098
20
15.2547090784
30
0.0000000000
10
60.9311494371
20
15.3026597107
30
0.0000000000
10
60.7801554116
20
15.3499780502
30
0.0000000000
10
60.6257812046
20
15.3965093798
30
0.0000000000
10
60.5215825873
20
15.4269737826
30
0.0000000000
10
60.4687288154
20
15.4417542255
30
0.0000000000
11
61.3700786846
21
15.1567080523
31
0.0000000000
11
61.2258505581
21
15.2058368941
31
0.0000000000
11
61.0799338580
21
15.2543286256
31
0.0000000000
11
60.9318380028
21
15.3021898242
31
0.0000000000
11
60.7810220662
21
15.3494076728
31
0.0000000000
11
60.6268736131
21
15.3959495620
31
0.0000000000
11
60.4687288154
21
15.4417542255
31
0.0000000000
0
SPLINE
5
51C
100
AcDbEntity
8
0
100
AcDbSpline
62
3
6
CONTINUOUS
70
0
71
3
72
15
73
11
74
9
42
0.0000001000
43
0.0000001000
44
0.0000000001
12
-0.4674878385
22
0.1337258117
32
0.0000000000
13
-0.3208864412
23
0.3653308459
33
0.0000000000
40
0.0000000000
40
0.0000000000
40
0.0000000000
40
0.0000000000
40
0.1623413365
40
0.3144320696
40
0.4563702407
40
0.5879011645
40
0.7087230941
40
0.8186965680
40
0.9176994849
40
1.0000000000
40
1.0000000000
40
1.0000000000
40
1.0000000000
10
60.4687288154
20
15.4417542255
30
0.0000000000
10
60.4434312819
20
15.4489906345
30
0.0000000000
10
60.3945875303
20
15.4635701685
30
0.0000000000
10
60.3245453944
20
15.4874038935
30
0.0000000000
10
60.2601285330
20
15.5121141430
30
0.0000000000
10
60.2015524916
20
15.5377350346
30
0.0000000000
10
60.1491193667
20
15.5642619655
30
0.0000000000
10
60.1031749907
20
15.5917001120
30
0.0000000000
10
60.0649414198
20
15.6195074773
30
0.0000000000
10
60.0434004387
20
15.6397131360
30
0.0000000000
10
60.0345973989
20
15.6497354416
30
0.0000000000
11
60.4687288154
21
15.4417542255
31
0.0000000000
11
60.3931513595
21
15.4645363573
31
0.0000000000
11
60.3231529638
21
15.4883936040
31
0.0000000000
11
60.2587601500
21
15.5132278237
31
0.0000000000
11
60.2002253628
21
15.5389953371
31
0.0000000000
11
60.1478911343
21
15.5656877005
31
0.0000000000
11
60.1021124753
21
15.5933229540
31
0.0000000000
11
60.0634221080
21
15.6219658884
31
0.0000000000
11
60.0345973989
21
15.6497354416
31
0.0000000000
0
SPLINE
5
51D
100
AcDbEntity
8
0
100
AcDbSpline
62
3
6
CONTINUOUS
70
0
71
3
72
10
73
6
74
4
42
0.0000001000
43
0.0000001000
44
0.0000000001
12
0.2115521203
22
0.0612784902
32
0.0000000000
13
0.2102519267
23
0.0656009157
33
0.0000000000
40
0.0000000000
40
0.0000000000
40
0.0000000000
40
0.0000000000
40
0.3284844525
40
0.6618467416
40
1.0000000000
40
1.0000000000
40
1.0000000000
40
1.0000000000
10
60.4666589413
20
11.7362444997
30
0.0000000000
10
60.4898228021
20
11.7429541768
30
0.0000000000
10
60.5364516139
20
11.7566219507
30
0.0000000000
10
60.6067557066
20
11.7777723504
30
0.0000000000
10
60.6538710830
20
11.7922872935
30
0.0000000000
10
60.6775702077
20
11.7996816813
30
0.0000000000
11
60.4666589413
21
11.7362444997
31
0.0000000000
11
60.5360837493
21
11.7566026424
31
0.0000000000
11
60.6063954905
21
11.7777479402
31
0.0000000000
11
60.6775702077
21
11.7996816813
31
0.0000000000
0
SPLINE
5
51E
100
AcDbEntity
8
0
100
AcDbSpline
62
3
6
CONTINUOUS
70
0
71
3
72
10
73
6
74
4
42
0.0000001000
43
0.0000001000
44
0.0000000001
12
0.0000000000
22
1.1761951001
32
0.0000000000
13
-0.3739038354
23
1.1151819742
33
0.0000000000
40
0.0000000000
40
0.0000000000
40
0.0000000000
40
0.0000000000
40
0.3455464708
40
0.6914022065
40
1.0000000000
40
1.0000000000
40
1.0000000000
40
1.0000000000
10
61.5565353817
20
14.0000000000
30
0.0000000000
10
61.5565353817
20
14.1354766886
30
0.0000000000
10
61.5418937111
20
14.4067934302
30
0.0000000000
10
61.4776203707
20
14.7943324977
30
0.0000000000
10
61.4085406508
20
15.0419938201
30
0.0000000000
10
61.3700786846
20
15.1567080523
30
0.0000000000
11
61.5565353817
21
14.0000000000
31
0.0000000000
11
61.5344576583
21
14.4058299800
31
0.0000000000
11
61.4676808344
21
14.8071055328
31
0.0000000000
11
61.3700786846
21
15.1567080523
31
0.0000000000
0
SPLINE
5
51F
100
AcDbEntity
8
0
100
AcDbSpline
62
3
6
CONTINUOUS
70
0
71
3
72
11
73
7
74
5
42
0.0000001000
43
0.0000001000
44
0.0000000001
12
0.0195102780
22
0.1263166617
32
0.0000000000
13
0.0651826909
23
0.1099113551
33
0.0000000000
40
0.0000000000
40
0.0000000000
40
0.0000000000
40
0.0000000000
40
0.2234063711
40
0.4744948526
40
0.7323493239
40
1.0000000000
40
1.0000000000
40
1.0000000000
40
1.0000000000
10
59.6964305328
20
11.2349749343
30
0.0000000000
10
59.6978834396
20
11.2443815833
30
0.0000000000
10
59.7016182300
20
11.2642617908
30
0.0000000000
10
59.7098137284
20
11.2944066013
30
0.0000000000
10
59.7216018872
20
11.3253726656
30
0.0000000000
10
59.7318305409
20
11.3453527484
30
0.0000000000
10
59.7376459380
20
11.3551586979
30
0.0000000000
11
59.6964305328
21
11.2349749343
31
0.0000000000
11
59.7017495194
21
11.2630245765
31
0.0000000000
11
59.7102321033
21
11.2939686026
31
0.0000000000
11
59.7219953557
21
11.3247475375
31
0.0000000000
11
59.7376459380
21
11.3551586979
31
0.0000000000
0
SPLINE
5
520
100
AcDbEntity
8
0
100
AcDbSpline
62
3
6
CONTINUOUS
70
0
71
3
72
9
73
5
74
3
42
0.0000001000
43
0.0000001000
44
0.0000000001
12
0.0272581515
22
0.0461745479
32
0.0000000000
13
0.0331026296
23
0.0421818873
33
0.0000000000
40
0.0000000000
40
0.0000000000
40
0.0000000000
40
0.0000000000
40
0.4971034121
40
1.0000000000
40
1.0000000000
40
1.0000000000
40
1.0000000000
10
59.7376459380
20
11.3551586979
30
0.0000000000
10
59.7421626447
20
11.3628098730
30
0.0000000000
10
59.7517934391
20
11.3778854125
30
0.0000000000
10
59.7624001389
20
11.3922879538
30
0.0000000000
10
59.7679492054
20
11.3993589962
30
0.0000000000
11
59.7376459380
21
11.3551586979
31
0.0000000000
11
59.7519788040
21
11.3776317715
31
0.0000000000
11
59.7679492054
21
11.3993589962
31
0.0000000000
0
SPLINE
5
521
100
AcDbEntity
8
0
100
AcDbSpline
62
3
6
CONTINUOUS
70
0
71
3
72
15
73
11
74
9
42
0.0000001000
43
0.0000001000
44
0.0000000001
12
0.4745519996
22
0.6063807792
32
0.0000000000
13
0.7374279102
23
0.2215948691
33
0.0000000000
40
0.0000000000
40
0.0000000000
40
0.0000000000
40
0.0000000000
40
0.1050343449
40
0.2191751677
40
0.3408006457
40
0.4686405945
40
0.6010043987
40
0.7373431357
40
0.8770109488
40
1.0000000000
40
1.0000000000
40
1.0000000000
40
1.0000000000
10
59.7679492054
20
11.3993589962
30
0.0000000000
10
59.7845639582
20
11.4205892655
30
0.0000000000
10
59.8247641795
20
11.4605881541
30
0.0000000000
10
59.8959364707
20
11.5117786289
30
0.0000000000
10
59.9773765342
20
11.5576489430
30
0.0000000000
10
60.0663027157
20
11.5989919522
30
0.0000000000
10
60.1608711009
20
11.6367211636
30
0.0000000000
10
60.2597044582
20
11.6716761254
30
0.0000000000
10
60.3571533548
20
11.7031907319
30
0.0000000000
10
60.4216756309
20
11.7227318777
30
0.0000000000
10
60.4519074839
20
11.7318164586
30
0.0000000000
11
59.7679492054
21
11.3993589962
31
0.0000000000
11
59.8243735533
21
11.4573008815
31
0.0000000000
11
59.8952100156
21
11.5093252654
31
0.0000000000
11
59.9765133505
21
11.5558048590
31
0.0000000000
11
60.0656000554
21
11.5976774026
31
0.0000000000
11
60.1601537449
21
11.6357203305
31
0.0000000000
11
60.2590480393
21
11.6709459115
31
0.0000000000
11
60.3613321268
21
11.7041674438
31
0.0000000000
11
60.4519074839
21
11.7318164586
31
0.0000000000
0
SPLINE
5
522
100
AcDbEntity
8
0
100
AcDbSpline
62
3
6
CONTINUOUS
70
0
71
3
72
8
73
4
74
2
42
0.0000001000
43
0.0000001000
44
0.0000000001
12
0.0022264674
22
-0.0045740562
32
0.0000000000
13
0.0054481497
23
0.0012455895
33
0.0000000000
40
0.0000000000
40
0.0000000000
40
0.0000000000
40
0.0000000000
40
1.0000000000
40
1.0000000000
40
1.0000000000
40
1.0000000000
10
55.7206731148
20
17.8941544067
30
0.0000000000
10
55.7214152706
20
17.8926297213
30
0.0000000000
10
55.7229359322
20
17.8923522513
30
0.0000000000
10
55.7247519821
20
17.8927674478
30
0.0000000000
11
55.7206731148
21
17.8941544067
31
0.0000000000
11
55.7247519821
21
17.8927674478
31
0.0000000000
0
SPLINE
5
523
100
AcDbEntity
8
0
100
AcDbSpline
62
3
6
CONTINUOUS
70
0
71
3
72
8
73
4
74
2
42
0.0000001000
43
0.0000001000
44
0.0000000001
12
-0.0022264674
22
-0.0045740562
32
0.0000000000
13
-0.0054481497
23
0.0012455895
33
0.0000000000
40
0.0000000000
40
0.0000000000
40
0.0000000000
40
0.0000000000
40
1.0000000000
40
1.0000000000
40
1.0000000000
40
1.0000000000
10
62.7917732026
20
17.8941544067
30
0.0000000000
10
62.7910310468
20
17.8926297213
30
0.0000000000
10
62.7895103852
20
17.8923522513
30
0.0000000000
10
62.7876943353
20
17.8927674478
30
0.0000000000
11
62.7917732026
21
17.8941544067
31
0.0000000000
11
62.7876943353
21
17.8927674478
31
0.0000000000
0
SPLINE
5
524
100
AcDbEntity
8
0
100
AcDbSpline
62
3
6
CONTINUOUS
70
0
71
3
72
10
73
6
74
4
42
0.0000001000
43
0.0000001000
44
0.0000000001
12
0.0000000000
22
1.1761951001
32
0.0000000000
13
0.3739038354
23
1.1151819742
33
0.0000000000
40
0.0000000000
40
0.0000000000
40
0.0000000000
40
0.0000000000
40
0.3455464708
40
0.6914022065
40
1.0000000000
40
1.0000000000
40
1.0000000000
40
1.0000000000
10
56.9559109357
20
14.0000000000
30
0.0000000000
10
56.9559109357
20
14.1354766886
30
0.0000000000
10
56.9705526063
20
14.4067934302
30
0.0000000000
10
57.0348259467
20
14.7943324977
30
0.0000000000
10
57.1039056666
20
15.0419938201
30
0.0000000000
10
57.1423676328
20
15.1567080523
30
0.0000000000
11
56.9559109357
21
14.0000000000
31
0.0000000000
11
56.9779886591
21
14.4058299800
31
0.0000000000
11
57.0447654830
21
14.8071055328
31
0.0000000000
11
57.1423676328
21
15.1567080523
31
0.0000000000
0
SPLINE
5
525
100
AcDbEntity
8
0
100
AcDbSpline
62
3
6
CONTINUOUS
70
0
71
3
72
11
73
7
74
5
42
0.0000001000
43
0.0000001000
44
0.0000000001
12
-1.7378147692
22
1.6972261397
32
0.0000000000
13
0.0000000000
23
2.4291102768
33
0.0000000000
40
0.0000000000
40
0.0000000000
40
0.0000000000
40
0.0000000000
40
0.1883600039
40
0.4581191389
40
0.7289086077
40
1.0000000000
40
1.0000000000
40
1.0000000000
40
1.0000000000
10
57.8348761097
20
11.7996816813
30
0.0000000000
10
57.7257645108
20
11.9062448554
30
0.0000000000
10
57.4822405157
20
12.1885772628
30
0.0000000000
10
57.1899803145
20
12.7073392841
30
0.0000000000
10
56.9971077831
20
13.3404048026
30
0.0000000000
10
56.9559109357
20
13.7804963710
30
0.0000000000
10
56.9559109357
20
14.0000000000
30
0.0000000000
11
57.8348761097
21
11.7996816813
31
0.0000000000
11
57.5356259472
21
12.1458013138
31
0.0000000000
11
57.2123803509
21
12.7157988577
31
0.0000000000
11
57.0190481362
21
13.3445228592
31
0.0000000000
11
56.9559109357
21
14.0000000000
31
0.0000000000
0
SPLINE
5
526
100
AcDbEntity
8
0
100
AcDbSpline
62
3
6
CONTINUOUS
70
0
71
3
72
9
73
5
74
3
42
0.0000001000
43
0.0000001000
44
0.0000000001
12
0.0006655391
22
-0.0565858726
32
0.0000000000
13
0.0467388446
23
-0.0300431502
33
0.0000000000
40
0.0000000000
40
0.0000000000
40
0.0000000000
40
0.0000000000
40
0.3637012538
40
1.0000000000
40
1.0000000000
40
1.0000000000
40
1.0000000000
10
59.5564028237
20
16.9262012180
30
0.0000000000
10
59.5564835095
20
16.9193411004
30
0.0000000000
10
59.5610323337
20
16.9002949832
30
0.0000000000
10
59.5755991912
20
16.8870358183
30
0.0000000000
10
59.5855124806
20
16.8806636787
30
0.0000000000
11
59.5564028237
21
16.9262012180
31
0.0000000000
11
59.5611175071
21
16.9062523969
31
0.0000000000
11
59.5855124806
21
16.8806636787
31
0.0000000000
0
SPLINE
5
527
100
AcDbEntity
8
0
100
AcDbSpline
62
3
6
CONTINUOUS
70
0
71
3
72
13
73
9
74
7
42
0.0000001000
43
0.0000001000
44
0.0000000001
12
0.8947834487
22
0.3054039129
32
0.0000000000
13
0.9105344817
23
0.2546289968
33
0.0000000000
40
0.0000000000
40
0.0000000000
40
0.0000000000
40
0.0000000000
40
0.1611541140
40
0.3237860571
40
0.4884005259
40
0.6555503244
40
0.8258590763
40
1.0000000000
40
1.0000000000
40
1.0000000000
40
1.0000000000
10
57.1423676328
20
15.1567080523
30
0.0000000000
10
57.1904336441
20
15.1731137513
30
0.0000000000
10
57.2869543968
20
15.2062300981
30
0.0000000000
10
57.4330455076
20
15.2547090784
30
0.0000000000
10
57.5812968803
20
15.3026597107
30
0.0000000000
10
57.7322909058
20
15.3499780502
30
0.0000000000
10
57.8866651128
20
15.3965093798
30
0.0000000000
10
57.9908637301
20
15.4269737826
30
0.0000000000
10
58.0437175020
20
15.4417542255
30
0.0000000000
11
57.1423676328
21
15.1567080523
31
0.0000000000
11
57.2865957593
21
15.2058368941
31
0.0000000000
11
57.4325124594
21
15.2543286256
31
0.0000000000
11
57.5806083146
21
15.3021898242
31
0.0000000000
11
57.7314242512
21
15.3494076728
31
0.0000000000
11
57.8855727043
21
15.3959495620
31
0.0000000000
11
58.0437175020
21
15.4417542255
31
0.0000000000
0
SPLINE
5
528
100
AcDbEntity
8
0
100
AcDbSpline
62
3
6
CONTINUOUS
70
0
71
3
72
10
73
6
74
4
42
0.0000001000
43
0.0000001000
44
0.0000000001
12
-0.2115521203
22
0.0612784902
32
0.0000000000
13
-0.2102519267
23
0.0656009157
33
0.0000000000
40
0.0000000000
40
0.0000000000
40
0.0000000000
40
0.0000000000
40
0.3284844525
40
0.6618467416
40
1.0000000000
40
1.0000000000
40
1.0000000000
40
1.0000000000
10
58.0457873761
20
11.7362444997
30
0.0000000000
10
58.0226235153
20
11.7429541768
30
0.0000000000
10
57.9759947035
20
11.7566219507
30
0.0000000000
10
57.9056906108
20
11.7777723504
30
0.0000000000
10
57.8585752344
20
11.7922872935
30
0.0000000000
10
57.8348761097
20
11.7996816813
30
0.0000000000
11
58.0457873761
21
11.7362444997
31
0.0000000000
11
57.9763625681
21
11.7566026424
31
0.0000000000
11
57.9060508269
21
11.7777479402
31
0.0000000000
11
57.8348761097
21
11.7996816813
31
0.0000000000
0
SPLINE
5
529
100
AcDbEntity
8
0
100
AcDbSpline
62
3
6
CONTINUOUS
70
0
71
3
72
15
73
11
74
9
42
0.0000001000
43
0.0000001000
44
0.0000000001
12
0.4674900393
22
0.1337264401
32
0.0000000000
13
0.3209374736
23
0.3652948263
33
0.0000000000
40
0.0000000000
40
0.0000000000
40
0.0000000000
40
0.0000000000
40
0.1621034029
40
0.3139866721
40
0.4557486722
40
0.5871361965
40
0.7078484757
40
0.8177447798
40
0.9167117766
40
1.0000000000
40
1.0000000000
40
1.0000000000
40
1.0000000000
10
58.0437175020
20
15.4417542255
30
0.0000000000
10
58.0689780774
20
15.4489800625
30
0.0000000000
10
58.1177531211
20
15.4635380397
30
0.0000000000
10
58.1877021526
20
15.4873334921
30
0.0000000000
10
58.2520431335
20
15.5120036036
30
0.0000000000
10
58.3105623146
20
15.5375813821
30
0.0000000000
10
58.3629584464
20
15.5640624348
30
0.0000000000
10
58.4088897993
20
15.5914530174
30
0.0000000000
10
58.4472641419
20
15.6193032972
30
0.0000000000
10
58.4689422273
20
15.6395977152
30
0.0000000000
10
58.4778523313
20
15.6497393009
30
0.0000000000
11
58.0437175020
21
15.4417542255
31
0.0000000000
11
58.1191851038
21
15.4645012167
31
0.0000000000
11
58.1890903925
21
15.4883200245
31
0.0000000000
11
58.2534075383
21
15.5131132865
31
0.0000000000
11
58.3118857687
21
15.5388369556
31
0.0000000000
11
58.3641842128
21
15.5654827303
31
0.0000000000
11
58.4099495473
21
15.5930679140
31
0.0000000000
11
58.4486567908
21
15.6216590323
31
0.0000000000
11
58.4778523313
21
15.6497393009
31
0.0000000000
0
ENDSEC
0
SECTION
2
OBJECTS
0
DICTIONARY
5
C
100
AcDbDictionary
280
0
281
1
3
ACAD_GROUP
350
D
3
ACAD_MLINESTYLE
350
17
3
ACAD_LAYOUT
350
1A
3
ACAD_PLOTSETTINGS
350
19
3
ACAD_PLOTSTYLENAME
350
E
0
DICTIONARY
5
D
102
{ACAD_REACTORS
330
C
102
}
100
AcDbDictionary
280
0
281
1
0
ACDBDICTIONARYWDFLT
5
E
102
{ACAD_REACTORS
330
C
102
}
100
AcDbDictionary
281
1
3
Normal
350
F
100
AcDbDictionaryWithDefault
340
F
0
DICTIONARY
5
17
102
{ACAD_REACTORS
330
C
102
}
100
AcDbDictionary
280
0
281
1
3
Standard
350
18
0
DICTIONARY
5
19
102
{ACAD_REACTORS
330
C
102
}
100
AcDbDictionary
281
1
0
DICTIONARY
5
1A
102
{ACAD_REACTORS
330
C
102
}
100
AcDbDictionary
281
1
3
Layout1
350
1E
3
Model
350
22
0
ACDBPLACEHOLDER
5
F
102
{ACAD_REACTORS
330
E
102
}
0
MLINESTYLE
5
18
102
{ACAD_REACTORS
330
17
102
}
100
AcDbMlineStyle
2
STANDARD
70
0
3

62
256
51
90.0
52
90.0
71
2
49
0.5
62
256
6
BYLAYER
49
-0.5
62
256
6
BYLAYER
0
LAYOUT
5
1E
102
{ACAD_REACTORS
330
1A
102
}
100
AcDbPlotSettings
1

2

4

6

40
0.0
41
0.0
42
0.0
43
0.0
44
0.0
45
0.0
46
0.0
47
0.0
48
0.0
49
0.0
140
0.0
141
0.0
142
1.0
143
1.0
70
0
72
0
73
0
74
0
7

75
0
147
1.0
148
0.0
149
0.0
100
AcDbLayout
1
Layout1
70
0
71
0
10
0.0
20
0.0
11
0.0
21
0.0
12
0.0
22
0.0
32
0.0
14
0.0
24
0.0
34
0.0
15
0.0
25
0.0
35
0.0
146
0.0
13
0.0
23
0.0
33
0.0
16
0.0
26
0.0
36
0.0
17
0.0
27
0.0
37
0.0
76
0
330
1B
331
0
345
0
346
0
0
LAYOUT
5
22
102
{ACAD_REACTORS
330
1A
102
}
100
AcDbPlotSettings
1

2

4

6

40
0.0
41
0.0
42
0.0
43
0.0
44
0.0
45
0.0
46
0.0
47
0.0
48
0.0
49
0.0
140
0.0
141
0.0
142
1.0
143
1.0
70
0
72
0
73
0
74
0
7

75
0
147
1.0
148
0.0
149
0.0
100
AcDbLayout
1
Model
70
0
71
0
10
0.0
20
0.0
11
0.0
21
0.0
12
0.0
22
0.0
32
0.0
14
0.0
24
0.0
34
0.0
15
0.0
25
0.0
35
0.0
146
0.0
13
0.0
23
0.0
33
0.0
16
0.0
26
0.0
36
0.0
17
0.0
27
0.0
37
0.0
76
0
330
1F
331
0
345
0
346
0
0
ENDSEC
0
EOF
