0
SECTION
2
HEADER
9
$ACADVER
1
AC1015
9
$DWGCODEPAGE
3
ANSI_1252
9
$EXTMAX
10
297.0000000000
20
210.0000000000
30
0.0000000000
9
$EXTMIN
10
0.0000000000
20
0.0000000000
30
0.0000000000
9
$LIMMIN
10
0.0000000000
20
0.0000000000
9
$LIMMAX
10
297.0000000000
20
210.0000000000
9
$VIEWCTR
10
148.5000000000
20
105.0000000000
9
$VIEWSIZE
40
210.0000000000
9
$CLAYER
8
0
9
$LTSCALE
40
16.3350000000
9
$CELTYPE
6
BYLAYER
9
$DIMSCALE
40
1
9
$DIMASZ
40
3.0000000000
9
$DIMEXO
40
1.8562500000
9
$DIMDLI
40
11.2860000000
9
$DIMEXE
40
5.3460000000
9
$DIMCEN
40
2.6730000000
9
$DIMLFAC
40
1.0000000000
9
$DIMBLK
1
_FILLED
9
$DIMTXT
40
3.0000000000
9
$DIMTOL
70
1
9
$DIMLIM
70
0
9
$DIMTFAC
40
1.0000000000
9
$DIMTP
40
0.0100000000
9
$DIMTM
40
0.0100000000
9
$PDMODE
70
3
9
$PDSIZE
40
3.0000000000
9
$HANDSEED
5
37E
9
$MEASUREMENT
70
1
9
$INSUNITS
70
4
0
ENDSEC
0
SECTION
2
CLASSES
0
CLASS
1
ACDBDICTIONARYWDFLT
2
AcDbDictionaryWithDefault
3
AutoCAD 2000
90
0
280
0
281
0
0
CLASS
1
ACDBPLACEHOLDER
2
AcDbPlaceHolder
3
AutoCAD 2000
90
0
280
0
281
0
0
CLASS
1
LAYOUT
2
AcDbLayout
3
AutoCAD 2000
90
0
280
0
281
0
0
ENDSEC
0
SECTION
2
TABLES
0
TABLE
2
VPORT
5
8
100
AcDbSymbolTable
70
2
0
VPORT
5
1F4
100
AcDbSymbolTableRecord
100
AcDbViewportTableRecord
2
*ACTIVE
70
0
10
0.0
20
0.0
11
1.0
21
1.0
12
148.5000000000
22
105.0000000000
13
0.0
23
0.0
14
1.0
24
1.0
15
0.0
25
0.0
16
0.0
26
0.0
36
1.0
17
0.0
27
0.0
37
0.0
40
210.0000000000
41
1.4142857143
42
50.0
43
0.0
44
0.0
50
0.0
51
0.0
71
0
72
100
73
1
74
1
75
0
76
0
77
0
78
0
0
ENDTAB
0
TABLE
2
LTYPE
5
5
100
AcDbSymbolTable
70
6
0
LTYPE
5
14
100
AcDbSymbolTableRecord
100
AcDbLinetypeTableRecord
2
BYBLOCK
70
0
3

72
65
73
0
40
0.0
0
LTYPE
5
15
100
AcDbSymbolTableRecord
100
AcDbLinetypeTableRecord
2
BYLAYER
70
0
3

72
65
73
0
40
0.0
0
LTYPE
5
16
100
AcDbSymbolTableRecord
100
AcDbLinetypeTableRecord
2
CONTINUOUS
70
64
3
Solid line
72
65
73
0
40
0
0
LTYPE
5
1F5
100
AcDbSymbolTableRecord
100
AcDbLinetypeTableRecord
2
CENTER
70
64
3
____ _ ____ _ ____ _ ____ _ ____ _ ____ _ ____
72
65
73
4
40
0.6
49
0.375
74
0
49
-0.075
74
0
49
0.075
74
0
49
-0.075
74
0
0
LTYPE
5
1F6
100
AcDbSymbolTableRecord
100
AcDbLinetypeTableRecord
2
HIDDEN
70
64
3
- - - - - - - - - - - - - - - - - - - -
72
65
73
2
40
0.2
49
0.1
74
0
49
-0.1
74
0
0
LTYPE
5
1F7
100
AcDbSymbolTableRecord
100
AcDbLinetypeTableRecord
2
PHANTOM
70
64
3
_____ _ _ _____ _ _ _____ _ _ _____
72
65
73
6
40
0.8
49
0.45
74
0
49
-0.05
74
0
49
0.1
74
0
49
-0.05
74
0
49
0.1
74
0
49
-0.05
74
0
0
LTYPE
5
1F8
100
AcDbSymbolTableRecord
100
AcDbLinetypeTableRecord
2
DOT
70
64
3
. . . . . . . . . . . . . . . . . . . .
72
65
73
2
40
0.2
49
0.1
74
0
49
-0.1
74
0
0
LTYPE
5
1F9
100
AcDbSymbolTableRecord
100
AcDbLinetypeTableRecord
2
DASHED
70
64
3
- - - - - - - - - - - - - - - - - - - -
72
65
73
2
40
0.2
49
0.1
74
0
49
-0.1
74
0
0
ENDTAB
0
TABLE
2
LAYER
5
2
100
AcDbSymbolTable
70
36
0
LAYER
5
10
100
AcDbSymbolTableRecord
100
AcDbLayerTableRecord
2
0
70
0
62
7
6
CONTINUOUS
370
-3
390
F
0
LAYER
5
1FA
100
AcDbSymbolTableRecord
100
AcDbLayerTableRecord
2
DEFAULT_1
70
0
62
7
6
CENTER
370
-3
390
F
0
LAYER
5
1FB
100
AcDbSymbolTableRecord
100
AcDbLayerTableRecord
2
DEFAULT_2
70
0
62
9
6
HIDDEN
370
-3
390
F
0
LAYER
5
1FC
100
AcDbSymbolTableRecord
100
AcDbLayerTableRecord
2
DEFAULT_3
70
0
62
7
6
PHANTOM
370
-3
390
F
0
LAYER
5
1FD
100
AcDbSymbolTableRecord
100
AcDbLayerTableRecord
2
_2D_DELETED_OBJS
70
0
62
7
6
CONTINUOUS
370
-3
390
F
0
LAYER
5
1FE
100
AcDbSymbolTableRecord
100
AcDbLayerTableRecord
2
0
70
0
62
7
6
CONTINUOUS
370
-3
390
F
0
LAYER
5
1FF
100
AcDbSymbolTableRecord
100
AcDbLayerTableRecord
2
ASSI
70
0
62
7
6
CONTINUOUS
370
-3
390
F
0
LAYER
5
200
100
AcDbSymbolTableRecord
100
AcDbLayerTableRecord
2
COORDINATE
70
0
62
7
6
CONTINUOUS
370
-3
390
F
0
LAYER
5
201
100
AcDbSymbolTableRecord
100
AcDbLayerTableRecord
2
COORD_ORIGINE
70
0
62
7
6
CONTINUOUS
370
-3
390
F
0
LAYER
5
202
100
AcDbSymbolTableRecord
100
AcDbLayerTableRecord
2
COSMETICHE
70
0
62
7
6
CONTINUOUS
370
-3
390
F
0
LAYER
5
203
100
AcDbSymbolTableRecord
100
AcDbLayerTableRecord
2
CURVE
70
0
62
7
6
CONTINUOUS
370
-3
390
F
0
LAYER
5
204
100
AcDbSymbolTableRecord
100
AcDbLayerTableRecord
2
DEFAULT_1
70
0
62
7
6
CONTINUOUS
370
-3
390
F
0
LAYER
5
205
100
AcDbSymbolTableRecord
100
AcDbLayerTableRecord
2
DEFAULT_2
70
0
62
7
6
CONTINUOUS
370
-3
390
F
0
LAYER
5
206
100
AcDbSymbolTableRecord
100
AcDbLayerTableRecord
2
DEFAULT_3
70
0
62
7
6
CONTINUOUS
370
-3
390
F
0
LAYER
5
207
100
AcDbSymbolTableRecord
100
AcDbLayerTableRecord
2
DRAFT
70
0
62
7
6
CONTINUOUS
370
-3
390
F
0
LAYER
5
208
100
AcDbSymbolTableRecord
100
AcDbLayerTableRecord
2
INTF_1
70
0
62
7
6
CONTINUOUS
370
-3
390
F
0
LAYER
5
209
100
AcDbSymbolTableRecord
100
AcDbLayerTableRecord
2
INTF_7
70
0
62
7
6
CONTINUOUS
370
-3
390
F
0
LAYER
5
20A
100
AcDbSymbolTableRecord
100
AcDbLayerTableRecord
2
NOTE
70
0
62
7
6
CONTINUOUS
370
-3
390
F
0
LAYER
5
20B
100
AcDbSymbolTableRecord
100
AcDbLayerTableRecord
2
PIANI
70
0
62
7
6
CONTINUOUS
370
-3
390
F
0
LAYER
5
20C
100
AcDbSymbolTableRecord
100
AcDbLayerTableRecord
2
PIANI_ORIGINE
70
0
62
7
6
CONTINUOUS
370
-3
390
F
0
LAYER
5
20D
100
AcDbSymbolTableRecord
100
AcDbLayerTableRecord
2
PIANI_SFORMI
70
0
62
7
6
CONTINUOUS
370
-3
390
F
0
LAYER
5
20E
100
AcDbSymbolTableRecord
100
AcDbLayerTableRecord
2
PUNTI
70
0
62
7
6
CONTINUOUS
370
-3
390
F
0
LAYER
5
20F
100
AcDbSymbolTableRecord
100
AcDbLayerTableRecord
2
RACCORDO
70
0
62
7
6
CONTINUOUS
370
-3
390
F
0
LAYER
5
210
100
AcDbSymbolTableRecord
100
AcDbLayerTableRecord
2
RGB__255__255__255__
70
0
62
7
6
CONTINUOUS
370
-3
390
F
0
LAYER
5
211
100
AcDbSymbolTableRecord
100
AcDbLayerTableRecord
2
RGB____0____0____0__
70
0
62
7
6
CONTINUOUS
370
-3
390
F
0
LAYER
5
212
100
AcDbSymbolTableRecord
100
AcDbLayerTableRecord
2
SMUSSO
70
0
62
7
6
CONTINUOUS
370
-3
390
F
0
LAYER
5
213
100
AcDbSymbolTableRecord
100
AcDbLayerTableRecord
2
SNAPLINE
70
0
62
7
6
CONTINUOUS
370
-3
390
F
0
LAYER
5
214
100
AcDbSymbolTableRecord
100
AcDbLayerTableRecord
2
SUPERFICI
70
0
62
7
6
CONTINUOUS
370
-3
390
F
0
LAYER
5
215
100
AcDbSymbolTableRecord
100
AcDbLayerTableRecord
2
TRASH
70
0
62
7
6
CONTINUOUS
370
-3
390
F
0
LAYER
5
216
100
AcDbSymbolTableRecord
100
AcDbLayerTableRecord
2
XSEC_DATUMS
70
0
62
7
6
CONTINUOUS
370
-3
390
F
0
LAYER
5
217
100
AcDbSymbolTableRecord
100
AcDbLayerTableRecord
2
_BLACK_HOLE
70
0
62
7
6
CONTINUOUS
370
-3
390
F
0
ENDTAB
0
TABLE
2
STYLE
5
3
100
AcDbSymbolTable
70
1
0
STYLE
5
11
100
AcDbSymbolTableRecord
100
AcDbTextStyleTableRecord
2
STANDARD
70
0
40
0.0
41
0.8000000000
50
0.0
71
0
42
0.2
3
txt
4

0
STYLE
5
218
100
AcDbSymbolTableRecord
100
AcDbTextStyleTableRecord
2
TEXTSTYLE_1
70
0
40
0.0
41
0.8000000000
50
0.0
71
0
42
0.2
3
txt
4

0
ENDTAB
0
TABLE
2
VIEW
5
6
100
AcDbSymbolTable
70
0
0
ENDTAB
0
TABLE
2
UCS
5
7
100
AcDbSymbolTable
70
0
0
ENDTAB
0
TABLE
2
APPID
5
9
100
AcDbSymbolTable
70
1
0
APPID
5
219
100
AcDbSymbolTableRecord
100
AcDbRegAppTableRecord
2
ACAD
70
0
0
ENDTAB
0
TABLE
2
BLOCK_RECORD
5
1
100
AcDbSymbolTable
70
0
0
BLOCK_RECORD
5
1F
100
AcDbSymbolTableRecord
100
AcDbBlockTableRecord
2
*MODEL_SPACE
0
BLOCK_RECORD
5
1B
100
AcDbSymbolTableRecord
100
AcDbBlockTableRecord
2
*PAPER_SPACE
0
ENDTAB
0
TABLE
2
DIMSTYLE
5
A
100
AcDbSymbolTable
70
1
100
AcDbDimStyleTable
71
0
0
DIMSTYLE
105
21A
100
AcDbSymbolTableRecord
100
AcDbDimStyleTableRecord
2
STANDARD
70
0
3

4

40
1.0
41
3.0000000000
42
0.0625
43
0.38
44
0.18
45
0.0
46
0.0
47
0.0100000000
48
0.0100000000
140
3.0000000000
141
0.09
142
0.0
143
25.4
144
1.0000000000
145
0.0
146
1.0000000000
147
0.09
71
1
72
0
73
0
74
0
75
0
76
0
77
1
78
8
170
0
171
2
172
0
173
0
174
0
175
0
176
0
177
0
178
0
270
2
271
2
272
2
273
2
274
2
275
0
280
0
281
0
282
0
283
1
284
8
285
0
286
0
287
3
288
0
340
11
0
ENDTAB
0
ENDSEC
0
SECTION
2
BLOCKS
0
BLOCK
5
20
100
AcDbEntity
8
0
100
AcDbBlockBegin
2
*MODEL_SPACE
70
0
10
0.0
20
0.0
30
0.0
3
*MODEL_SPACE
1

0
ENDBLK
5
21
100
AcDbEntity
8
0
100
AcDbBlockEnd
0
BLOCK
5
1C
100
AcDbEntity
8
0
100
AcDbBlockBegin
2
*PAPER_SPACE
70
0
10
0.0
20
0.0
30
0.0
3
*PAPER_SPACE
1

0
ENDBLK
5
1D
100
AcDbEntity
8
0
100
AcDbBlockEnd
0
ENDSEC
0
SECTION
2
ENTITIES
0
TEXT
5
21B
100
AcDbEntity
8
0
100
AcDbText
62
0
6
CONTINUOUS
10
78.7018834705
20
21.1428571429
7
TEXTSTYLE_1
40
3.0000000000
1
47
50
90.0000000000
41
0.7857142857
72
0
100
AcDbText
0
TEXT
5
21C
100
AcDbEntity
8
0
100
AcDbText
62
0
6
CONTINUOUS
10
56.0161691848
20
55.7500000000
7
TEXTSTYLE_1
40
3.0000000000
1
22,3
41
0.7142857143
72
0
100
AcDbText
0
TEXT
5
21D
100
AcDbEntity
8
0
100
AcDbText
62
0
6
CONTINUOUS
10
22.2500000000
20
55.7500000000
7
TEXTSTYLE_1
40
3.0000000000
1
30
41
0.7500000000
72
0
100
AcDbText
0
TEXT
5
21E
100
AcDbEntity
8
0
100
AcDbText
62
0
6
CONTINUOUS
10
15.5714285714
20
65.7500000000
7
TEXTSTYLE_1
40
3.0000000000
1
39,5
41
0.6964285714
72
0
100
AcDbText
0
LINE
5
21F
100
AcDbEntity
8
0
100
AcDbLine
62
0
6
CONTINUOUS
10
0.0000000000
20
24.0000000000
11
0.0000000000
21
66.5000000000
0
LINE
5
220
100
AcDbEntity
8
0
100
AcDbLine
62
0
6
CONTINUOUS
10
3.0000000000
20
64.0499999999
11
3.0000000000
21
65.9500000001
0
LINE
5
221
100
AcDbEntity
8
0
100
AcDbLine
62
0
6
CONTINUOUS
10
0.0000000000
20
65.0000000000
11
3.0000000000
21
64.0499999999
0
LINE
5
222
100
AcDbEntity
8
0
100
AcDbLine
62
0
6
CONTINUOUS
10
3.0000000000
20
65.9500000001
11
0.0000000000
21
65.0000000000
0
HATCH
5
223
100
AcDbEntity
8
0
100
AcDbHatch
62
0
6
CONTINUOUS
10
0.0
20
0.0
30
0.0
210
0.0
220
0.0
230
1.0
2

70
1
71
1
91
1
92
1
93
3
72
1
10
3.0000000000
20
65.9500000001
11
0.0000000000
21
65.0000000000
72
1
10
0.0000000000
20
65.0000000000
11
3.0000000000
21
64.0499999999
72
1
10
3.0000000000
20
64.0499999999
11
3.0000000000
21
65.9500000001
97
3
330
220
330
221
330
222
75
0
76
1
98
1
10
0.0
20
0.0
0
LINE
5
224
100
AcDbEntity
8
0
100
AcDbLine
62
0
6
CONTINUOUS
10
9.5000000000
20
0.7578694583
11
9.5000000000
21
-0.0000000000
0
LINE
5
225
100
AcDbEntity
8
0
100
AcDbLine
62
0
6
CONTINUOUS
10
9.5000000000
20
0.8368333780
11
9.5000000000
21
47.0000000000
0
LINE
5
226
100
AcDbEntity
8
0
100
AcDbLine
62
0
6
CONTINUOUS
10
9.5000000000
20
47.0000000000
11
9.5000000000
21
56.5000000000
0
LINE
5
227
100
AcDbEntity
8
0
100
AcDbLine
62
0
6
CONTINUOUS
10
12.5000000000
20
54.0499999999
11
12.5000000000
21
55.9500000001
0
LINE
5
228
100
AcDbEntity
8
0
100
AcDbLine
62
0
6
CONTINUOUS
10
9.5000000000
20
55.0000000000
11
12.5000000000
21
54.0499999999
0
LINE
5
229
100
AcDbEntity
8
0
100
AcDbLine
62
0
6
CONTINUOUS
10
12.5000000000
20
55.9500000001
11
9.5000000000
21
55.0000000000
0
HATCH
5
22A
100
AcDbEntity
8
0
100
AcDbHatch
62
0
6
CONTINUOUS
10
0.0
20
0.0
30
0.0
210
0.0
220
0.0
230
1.0
2

70
1
71
1
91
1
92
1
93
3
72
1
10
12.5000000000
20
55.9500000001
11
9.5000000000
21
55.0000000000
72
1
10
9.5000000000
20
55.0000000000
11
12.5000000000
21
54.0499999999
72
1
10
12.5000000000
20
54.0499999999
11
12.5000000000
21
55.9500000001
97
3
330
227
330
228
330
229
75
0
76
1
98
1
10
0.0
20
0.0
0
LINE
5
22B
100
AcDbEntity
8
0
100
AcDbLine
62
0
6
CONTINUOUS
10
13.5000000000
20
2.1034605474
11
13.5000000000
21
0.0698202597
0
LINE
5
22C
100
AcDbEntity
8
0
100
AcDbLine
62
0
6
CONTINUOUS
10
13.5000000000
20
44.8965394526
11
13.5000000000
21
46.9301797403
0
LINE
5
22D
100
AcDbEntity
8
0
100
AcDbLine
62
0
6
CONTINUOUS
10
15.1000000000
20
45.7000000000
11
15.1000000000
21
44.6720718961
0
LINE
5
22E
100
AcDbEntity
8
0
100
AcDbLine
62
0
6
CONTINUOUS
10
15.1000000000
20
1.3000000000
11
15.1000000000
21
2.3279281039
0
LINE
5
22F
100
AcDbEntity
8
0
100
AcDbLine
62
0
6
CONTINUOUS
10
17.1439294983
20
45.1560705017
11
19.2000172211
21
43.0999827788
0
LINE
5
230
100
AcDbEntity
8
0
100
AcDbLine
62
0
6
CONTINUOUS
10
57.0018834705
20
1.1000000000
11
57.0685162681
21
1.0000000000
0
LINE
5
231
100
AcDbEntity
8
0
100
AcDbLine
62
9
6
CONTINUOUS
10
49.2931615062
20
44.9755923698
11
49.1518834705
21
45.3997711479
0
LINE
5
232
100
AcDbEntity
8
0
100
AcDbLine
62
0
6
CONTINUOUS
10
36.5000000000
20
65.9500000001
11
36.5000000000
21
64.0499999999
0
LINE
5
233
100
AcDbEntity
8
0
100
AcDbLine
62
0
6
CONTINUOUS
10
39.5000000000
20
65.0000000000
11
36.5000000000
21
65.9500000001
0
LINE
5
234
100
AcDbEntity
8
0
100
AcDbLine
62
0
6
CONTINUOUS
10
36.5000000000
20
64.0499999999
11
39.5000000000
21
65.0000000000
0
HATCH
5
235
100
AcDbEntity
8
0
100
AcDbHatch
62
0
6
CONTINUOUS
10
0.0
20
0.0
30
0.0
210
0.0
220
0.0
230
1.0
2

70
1
71
1
91
1
92
1
93
3
72
1
10
36.5000000000
20
64.0499999999
11
39.5000000000
21
65.0000000000
72
1
10
39.5000000000
20
65.0000000000
11
36.5000000000
21
65.9500000001
72
1
10
36.5000000000
20
65.9500000001
11
36.5000000000
21
64.0499999999
97
3
330
232
330
233
330
234
75
0
76
1
98
1
10
0.0
20
0.0
0
LINE
5
236
100
AcDbEntity
8
0
100
AcDbLine
62
0
6
CONTINUOUS
10
36.5000000000
20
55.9500000001
11
36.5000000000
21
54.0499999999
0
LINE
5
237
100
AcDbEntity
8
0
100
AcDbLine
62
0
6
CONTINUOUS
10
39.5000000000
20
55.0000000000
11
36.5000000000
21
55.9500000001
0
LINE
5
238
100
AcDbEntity
8
0
100
AcDbLine
62
0
6
CONTINUOUS
10
36.5000000000
20
54.0499999999
11
39.5000000000
21
55.0000000000
0
HATCH
5
239
100
AcDbEntity
8
0
100
AcDbHatch
62
0
6
CONTINUOUS
10
0.0
20
0.0
30
0.0
210
0.0
220
0.0
230
1.0
2

70
1
71
1
91
1
92
1
93
3
72
1
10
36.5000000000
20
54.0499999999
11
39.5000000000
21
55.0000000000
72
1
10
39.5000000000
20
55.0000000000
11
36.5000000000
21
55.9500000001
72
1
10
36.5000000000
20
55.9500000001
11
36.5000000000
21
54.0499999999
97
3
330
236
330
237
330
238
75
0
76
1
98
1
10
0.0
20
0.0
0
LINE
5
23A
100
AcDbEntity
8
0
100
AcDbLine
62
9
6
CONTINUOUS
10
37.0087262032
20
42.4367180268
11
37.0087262032
21
40.7019339448
0
LINE
5
23B
100
AcDbEntity
8
0
100
AcDbLine
62
9
6
CONTINUOUS
10
37.0087262032
20
39.4519762322
11
37.0087262032
21
7.5480237678
0
LINE
5
23C
100
AcDbEntity
8
0
100
AcDbLine
62
9
6
CONTINUOUS
10
37.0087262032
20
6.2980660552
11
37.0087262032
21
4.5632819752
0
LINE
5
23D
100
AcDbEntity
8
0
100
AcDbLine
62
0
6
CONTINUOUS
10
37.5000000000
20
42.0927146932
11
37.5000000000
21
4.9072853068
0
LINE
5
23E
100
AcDbEntity
8
0
100
AcDbLine
62
0
6
CONTINUOUS
10
37.5800000000
20
26.1429980000
11
37.5800000000
21
25.8696570000
0
LINE
5
23F
100
AcDbEntity
8
0
100
AcDbLine
62
0
6
CONTINUOUS
10
37.5800000000
20
25.4596460000
11
37.5800000000
21
25.3175310000
0
LINE
5
240
100
AcDbEntity
8
0
100
AcDbLine
62
0
6
CONTINUOUS
10
37.5800000000
20
25.2880000000
11
37.5800000000
21
25.0496410000
0
LINE
5
241
100
AcDbEntity
8
0
100
AcDbLine
62
0
6
CONTINUOUS
10
37.5800000000
20
23.0312000000
11
37.5800000000
21
22.7709690000
0
LINE
5
242
100
AcDbEntity
8
0
100
AcDbLine
62
0
6
CONTINUOUS
10
37.5800000000
20
21.0445050000
11
37.5800000000
21
20.7711630000
0
LINE
5
243
100
AcDbEntity
8
0
100
AcDbLine
62
0
6
CONTINUOUS
10
37.6000000000
20
27.8694620000
11
37.6000000000
21
26.1429980000
0
LINE
5
244
100
AcDbEntity
8
0
100
AcDbLine
62
0
6
CONTINUOUS
10
37.6000000000
20
25.8696620000
11
37.6000000000
21
25.4596460000
0
LINE
5
245
100
AcDbEntity
8
0
100
AcDbLine
62
0
6
CONTINUOUS
10
37.6000000000
20
25.0496410000
11
37.6000000000
21
23.0443110000
0
LINE
5
246
100
AcDbEntity
8
0
100
AcDbLine
62
0
6
CONTINUOUS
10
37.6000000000
20
22.7709690000
11
37.6000000000
21
21.0445050000
0
LINE
5
247
100
AcDbEntity
8
0
100
AcDbLine
62
0
6
CONTINUOUS
10
37.6000000000
20
20.7711630000
11
37.6000000000
21
19.1305380000
0
LINE
5
248
100
AcDbEntity
8
0
100
AcDbLine
62
0
6
CONTINUOUS
10
37.6800000000
20
28.1923530000
11
37.6800000000
21
27.8694620000
0
LINE
5
249
100
AcDbEntity
8
0
100
AcDbLine
62
0
6
CONTINUOUS
10
37.6800000000
20
27.8506030000
11
37.6800000000
21
27.5676130000
0
LINE
5
24A
100
AcDbEntity
8
0
100
AcDbLine
62
0
6
CONTINUOUS
10
37.6800000000
20
27.0216160578
11
37.6800000000
21
24.6396260000
0
LINE
5
24B
100
AcDbEntity
8
0
100
AcDbLine
62
0
6
CONTINUOUS
10
37.6800000000
20
24.5977037741
11
37.6800000000
21
22.3619990878
0
LINE
5
24C
100
AcDbEntity
8
0
100
AcDbLine
62
0
6
CONTINUOUS
10
37.6800000000
20
22.3584360484
11
37.6800000000
21
19.8952167838
0
LINE
5
24D
100
AcDbEntity
8
0
100
AcDbLine
62
0
6
CONTINUOUS
10
37.6800000000
20
19.6518350762
11
37.6800000000
21
18.7738013018
0
LINE
5
24E
100
AcDbEntity
8
0
100
AcDbLine
62
9
6
CONTINUOUS
10
37.7456369000
20
40.3457123920
11
37.7456369600
21
32.7542876091
0
LINE
5
24F
100
AcDbEntity
8
0
100
AcDbLine
62
9
6
CONTINUOUS
10
37.7456369000
20
14.2457123920
11
37.7456369600
21
6.6542876091
0
LINE
5
250
100
AcDbEntity
8
0
100
AcDbLine
62
9
6
CONTINUOUS
10
39.2543631036
20
14.2193774775
11
39.2543631647
21
6.6806225237
0
LINE
5
251
100
AcDbEntity
8
0
100
AcDbLine
62
9
6
CONTINUOUS
10
39.2543631036
20
40.3193774775
11
39.2543631647
21
32.7806225237
0
LINE
5
252
100
AcDbEntity
8
0
100
AcDbLine
62
0
6
CONTINUOUS
10
39.5000000000
20
40.0693002507
11
39.5000000000
21
33.0307011411
0
LINE
5
253
100
AcDbEntity
8
0
100
AcDbLine
62
0
6
CONTINUOUS
10
39.5000000000
20
13.9693002507
11
39.5000000000
21
6.9307011411
0
LINE
5
254
100
AcDbEntity
8
0
100
AcDbLine
62
0
6
CONTINUOUS
10
39.5000000000
20
40.0693002507
11
39.5000000000
21
66.5000000000
0
LINE
5
255
100
AcDbEntity
8
0
100
AcDbLine
62
0
6
CONTINUOUS
10
9.5000000000
20
-0.0000000000
11
13.5000000000
21
0.0698202597
0
LINE
5
256
100
AcDbEntity
8
0
100
AcDbLine
62
9
6
CONTINUOUS
10
9.5000000000
20
0.1666403425
11
13.5000000000
21
0.2368926382
0
LINE
5
257
100
AcDbEntity
8
0
100
AcDbLine
62
0
6
CONTINUOUS
10
56.6270259923
20
-0.0000000000
11
63.9767409487
21
-0.0000000000
0
LINE
5
258
100
AcDbEntity
8
0
100
AcDbLine
62
0
6
CONTINUOUS
10
64.4767409487
20
-0.0000000000
11
80.9518834705
21
-0.0000000000
0
LINE
5
259
100
AcDbEntity
8
0
100
AcDbLine
62
0
6
CONTINUOUS
10
63.7717037302
20
1.0000000000
11
56.8320632108
21
1.0000000000
0
LINE
5
25A
100
AcDbEntity
8
0
100
AcDbLine
62
0
6
CONTINUOUS
10
70.9522640702
20
1.1000000000
11
63.6018834705
21
1.1000000000
0
LINE
5
25B
100
AcDbEntity
8
0
100
AcDbLine
62
0
6
CONTINUOUS
10
57.0018834705
20
1.1000000000
11
49.6515028708
21
1.1000000000
0
LINE
5
25C
100
AcDbEntity
8
0
100
AcDbLine
62
0
6
CONTINUOUS
10
15.6494954839
20
1.3000000000
11
15.1000000000
21
1.3000000000
0
LINE
5
25D
100
AcDbEntity
8
0
100
AcDbLine
62
9
6
CONTINUOUS
10
70.8106815872
20
1.5250928628
11
49.7930853538
21
1.5250928628
0
LINE
5
25E
100
AcDbEntity
8
0
100
AcDbLine
62
9
6
CONTINUOUS
10
70.8024185330
20
2.4816857691
11
49.8013484080
21
2.4816857691
0
LINE
5
25F
100
AcDbEntity
8
0
100
AcDbLine
62
0
6
CONTINUOUS
10
9.5000000000
20
1.1000000000
11
1.3887449801
21
1.5250928628
0
LINE
5
260
100
AcDbEntity
8
0
100
AcDbLine
62
9
6
CONTINUOUS
10
9.5000000000
20
1.6002288521
11
1.4061867550
21
2.0244076302
0
LINE
5
261
100
AcDbEntity
8
0
100
AcDbLine
62
0
6
CONTINUOUS
10
63.5352506729
20
46.0000000000
11
63.6018834705
21
45.9000000000
0
LINE
5
262
100
AcDbEntity
8
0
100
AcDbLine
62
9
6
CONTINUOUS
10
49.7930853538
20
45.4749071372
11
49.6515028708
21
45.9000000000
0
LINE
5
263
100
AcDbEntity
8
0
100
AcDbLine
62
9
6
CONTINUOUS
10
70.9522640702
20
1.1000000000
11
70.8106815872
21
1.5250928628
0
LINE
5
264
100
AcDbEntity
8
0
100
AcDbLine
62
9
6
CONTINUOUS
10
71.4518834705
20
1.6002288521
11
71.3106054348
21
2.0244076302
0
LINE
5
265
100
AcDbEntity
8
0
100
AcDbLine
62
0
6
CONTINUOUS
10
56.9170111934
20
1.1000000000
11
56.9338230370
21
1.0219067673
0
LINE
5
266
100
AcDbEntity
8
0
100
AcDbLine
62
0
6
CONTINUOUS
10
63.7170111934
20
1.1000000000
11
63.7385391068
21
1.0000000000
0
LINE
5
267
100
AcDbEntity
8
0
100
AcDbLine
62
0
6
CONTINUOUS
10
49.1518834705
20
1.6002288521
11
49.1518834705
21
45.3997711479
0
LINE
5
268
100
AcDbEntity
8
0
100
AcDbLine
62
0
6
CONTINUOUS
10
49.1518834705
20
45.3997711479
11
49.1518834705
21
56.5000000000
0
LINE
5
269
100
AcDbEntity
8
0
100
AcDbLine
62
0
6
CONTINUOUS
10
52.1518834705
20
54.0499999999
11
52.1518834705
21
55.9500000001
0
LINE
5
26A
100
AcDbEntity
8
0
100
AcDbLine
62
0
6
CONTINUOUS
10
49.1518834705
20
55.0000000000
11
52.1518834705
21
54.0499999999
0
LINE
5
26B
100
AcDbEntity
8
0
100
AcDbLine
62
0
6
CONTINUOUS
10
52.1518834705
20
55.9500000001
11
49.1518834705
21
55.0000000000
0
HATCH
5
26C
100
AcDbEntity
8
0
100
AcDbHatch
62
0
6
CONTINUOUS
10
0.0
20
0.0
30
0.0
210
0.0
220
0.0
230
1.0
2

70
1
71
1
91
1
92
1
93
3
72
1
10
52.1518834705
20
55.9500000001
11
49.1518834705
21
55.0000000000
72
1
10
49.1518834705
20
55.0000000000
11
52.1518834705
21
54.0499999999
72
1
10
52.1518834705
20
54.0499999999
11
52.1518834705
21
55.9500000001
97
3
330
269
330
26A
330
26B
75
0
76
1
98
1
10
0.0
20
0.0
0
LINE
5
26D
100
AcDbEntity
8
0
100
AcDbLine
62
9
6
CONTINUOUS
10
56.3018834705
20
15.7953772263
11
56.3018834705
21
18.4969981989
0
LINE
5
26E
100
AcDbEntity
8
0
100
AcDbLine
62
9
6
CONTINUOUS
10
56.3018834705
20
28.5030018011
11
56.3018834705
21
31.2046227737
0
LINE
5
26F
100
AcDbEntity
8
0
100
AcDbLine
62
0
6
CONTINUOUS
10
56.6018834705
20
16.1000000000
11
56.6018834705
21
18.2000000000
0
LINE
5
270
100
AcDbEntity
8
0
100
AcDbLine
62
0
6
CONTINUOUS
10
56.6018834705
20
28.8000000000
11
56.6018834705
21
30.9000000000
0
LINE
5
271
100
AcDbEntity
8
0
100
AcDbLine
62
9
6
CONTINUOUS
10
0.4419648747
20
2.4816857695
11
0.9327966980
21
2.5027040833
0
LINE
5
272
100
AcDbEntity
8
0
100
AcDbLine
62
0
6
CONTINUOUS
10
17.4708547979
20
2.3693115283
11
13.6965095187
21
2.3034300864
0
LINE
5
273
100
AcDbEntity
8
0
100
AcDbLine
62
9
6
CONTINUOUS
10
17.4709309599
20
2.4922827182
11
13.6965095267
21
2.4261047765
0
LINE
5
274
100
AcDbEntity
8
0
100
AcDbLine
62
0
6
CONTINUOUS
10
37.0087262032
20
4.4073614592
11
19.6827752835
21
4.1049358609
0
LINE
5
275
100
AcDbEntity
8
0
100
AcDbLine
62
0
6
CONTINUOUS
10
37.7456369652
20
6.6542876092
11
39.2543631698
21
6.6806225230
0
LINE
5
276
100
AcDbEntity
8
0
100
AcDbLine
62
0
6
CONTINUOUS
10
80.4018834706
20
3.0000000000
11
78.5018834704
21
3.0000000000
0
LINE
5
277
100
AcDbEntity
8
0
100
AcDbLine
62
0
6
CONTINUOUS
10
78.5018834704
20
3.0000000000
11
79.4518834705
21
-0.0000000000
0
LINE
5
278
100
AcDbEntity
8
0
100
AcDbLine
62
0
6
CONTINUOUS
10
79.4518834705
20
-0.0000000000
11
80.4018834706
21
3.0000000000
0
HATCH
5
279
100
AcDbEntity
8
0
100
AcDbHatch
62
0
6
CONTINUOUS
10
0.0
20
0.0
30
0.0
210
0.0
220
0.0
230
1.0
2

70
1
71
1
91
1
92
1
93
3
72
1
10
78.5018834704
20
3.0000000000
11
79.4518834705
21
-0.0000000000
72
1
10
79.4518834705
20
-0.0000000000
11
80.4018834706
21
3.0000000000
72
1
10
80.4018834706
20
3.0000000000
11
78.5018834704
21
3.0000000000
97
3
330
276
330
277
330
278
75
0
76
1
98
1
10
0.0
20
0.0
0
LINE
5
27A
100
AcDbEntity
8
0
100
AcDbLine
62
9
6
CONTINUOUS
10
37.5000000000
20
7.5480237678
11
37.0087262032
21
7.5480237686
0
LINE
5
27B
100
AcDbEntity
8
0
100
AcDbLine
62
9
6
CONTINUOUS
10
39.5000000000
20
9.4000000000
11
37.5000000000
21
9.4000000000
0
LINE
5
27C
100
AcDbEntity
8
0
100
AcDbLine
62
9
6
CONTINUOUS
10
39.5000000000
20
11.5000000000
11
37.5000000000
21
11.5000000000
0
LINE
5
27D
100
AcDbEntity
8
0
100
AcDbLine
62
0
6
CONTINUOUS
10
37.7456369054
20
14.2457123919
11
39.2543631089
21
14.2193774780
0
LINE
5
27E
100
AcDbEntity
8
0
100
AcDbLine
62
0
6
CONTINUOUS
10
17.1439294983
20
45.1560705017
11
15.6494954839
21
45.7000000000
0
LINE
5
27F
100
AcDbEntity
8
0
100
AcDbLine
62
0
6
CONTINUOUS
10
56.8867557476
20
45.9000000000
11
56.8652278342
21
46.0000000000
0
LINE
5
280
100
AcDbEntity
8
0
100
AcDbLine
62
0
6
CONTINUOUS
10
63.6867557476
20
45.9000000000
11
63.6699439040
21
45.9780932327
0
LINE
5
281
100
AcDbEntity
8
0
100
AcDbLine
62
0
6
CONTINUOUS
10
56.8320632108
20
46.0000000000
11
56.8320632108
21
45.9000000000
0
LINE
5
282
100
AcDbEntity
8
0
100
AcDbLine
62
0
6
CONTINUOUS
10
56.8320632108
20
1.0000000000
11
56.8320632108
21
1.1000000000
0
LINE
5
283
100
AcDbEntity
8
0
100
AcDbLine
62
9
6
CONTINUOUS
10
57.7779975777
20
30.9000000000
11
57.7779975777
21
31.2046227737
0
LINE
5
284
100
AcDbEntity
8
0
100
AcDbLine
62
9
6
CONTINUOUS
10
62.8257693633
20
30.9000000000
11
62.8257693633
21
31.2046227737
0
LINE
5
285
100
AcDbEntity
8
0
100
AcDbLine
62
0
6
CONTINUOUS
10
63.7717037302
20
1.1000000000
11
63.7717037302
21
1.0000000000
0
LINE
5
286
100
AcDbEntity
8
0
100
AcDbLine
62
0
6
CONTINUOUS
10
63.7717037302
20
45.9000000000
11
63.7717037302
21
46.0000000000
0
LINE
5
287
100
AcDbEntity
8
0
100
AcDbLine
62
0
6
CONTINUOUS
10
64.0018834705
20
30.9000000000
11
64.0018834705
21
28.8000000000
0
LINE
5
288
100
AcDbEntity
8
0
100
AcDbLine
62
0
6
CONTINUOUS
10
64.0018834705
20
18.2000000000
11
64.0018834705
21
16.1000000000
0
LINE
5
289
100
AcDbEntity
8
0
100
AcDbLine
62
9
6
CONTINUOUS
10
64.3018834705
20
31.2046227737
11
64.3018834705
21
28.5030018011
0
LINE
5
28A
100
AcDbEntity
8
0
100
AcDbLine
62
9
6
CONTINUOUS
10
64.3018834705
20
18.4969981989
11
64.3018834705
21
15.7953772263
0
LINE
5
28B
100
AcDbEntity
8
0
100
AcDbLine
62
0
6
CONTINUOUS
10
57.5483520374
20
14.5000000000
11
63.0554185946
21
14.5000000000
0
LINE
5
28C
100
AcDbEntity
8
0
100
AcDbLine
62
9
6
CONTINUOUS
10
64.3018834705
20
15.7953772263
11
62.8257369040
21
15.7953772263
0
LINE
5
28D
100
AcDbEntity
8
0
100
AcDbLine
62
9
6
CONTINUOUS
10
57.7780654518
20
15.7953772263
11
56.3018834705
21
15.7953772263
0
LINE
5
28E
100
AcDbEntity
8
0
100
AcDbLine
62
0
6
CONTINUOUS
10
64.0018834705
20
16.1000000000
11
62.8257693633
21
16.1000000000
0
LINE
5
28F
100
AcDbEntity
8
0
100
AcDbLine
62
0
6
CONTINUOUS
10
57.7779975777
20
16.1000000000
11
56.6018834705
21
16.1000000000
0
LINE
5
290
100
AcDbEntity
8
0
100
AcDbLine
62
0
6
CONTINUOUS
10
56.6018834705
20
18.2000000000
11
64.0018834705
21
18.2000000000
0
LINE
5
291
100
AcDbEntity
8
0
100
AcDbLine
62
9
6
CONTINUOUS
10
56.3018834705
20
18.4969981989
11
64.3018834705
21
18.4969981989
0
LINE
5
292
100
AcDbEntity
8
0
100
AcDbLine
62
0
6
CONTINUOUS
10
37.5000000000
20
18.7738012720
11
37.6800000000
21
18.7738010000
0
LINE
5
293
100
AcDbEntity
8
0
100
AcDbLine
62
9
6
CONTINUOUS
10
37.5000000000
20
19.0113825674
11
37.6800000000
21
19.0113825674
0
LINE
5
294
100
AcDbEntity
8
0
100
AcDbLine
62
0
6
CONTINUOUS
10
37.5000000000
20
19.1305380000
11
37.6000000000
21
19.1305380000
0
LINE
5
295
100
AcDbEntity
8
0
100
AcDbLine
62
9
6
CONTINUOUS
10
37.6000000000
20
19.4236986281
11
37.6800000000
21
19.4236986281
0
LINE
5
296
100
AcDbEntity
8
0
100
AcDbLine
62
0
6
CONTINUOUS
10
37.5999999757
20
19.5831752121
11
37.6800000000
21
19.5831750000
0
LINE
5
297
100
AcDbEntity
8
0
100
AcDbLine
62
0
6
CONTINUOUS
10
37.5000000000
20
19.5923570000
11
37.6000000000
21
19.5923570000
0
LINE
5
298
100
AcDbEntity
8
0
100
AcDbLine
62
0
6
CONTINUOUS
10
37.6000000178
20
19.6518350240
11
37.6800000000
21
19.6518350000
0
LINE
5
299
100
AcDbEntity
8
0
100
AcDbLine
62
0
6
CONTINUOUS
10
37.6000000000
20
19.8952167838
11
37.6800000000
21
19.8952167838
0
LINE
5
29A
100
AcDbEntity
8
0
100
AcDbLine
62
0
6
CONTINUOUS
10
37.5000000000
20
20.0032430000
11
37.6000000000
21
20.0032430000
0
LINE
5
29B
100
AcDbEntity
8
0
100
AcDbLine
62
0
6
CONTINUOUS
10
37.5000000000
20
20.3611420000
11
37.6000000000
21
20.3611420000
0
LINE
5
29C
100
AcDbEntity
8
0
100
AcDbLine
62
9
6
CONTINUOUS
10
37.6000000000
20
20.3928778136
11
37.6800000000
21
20.3928778136
0
LINE
5
29D
100
AcDbEntity
8
0
100
AcDbLine
62
0
6
CONTINUOUS
10
37.5000000000
20
20.7711630000
11
37.6000000000
21
20.7711630000
0
LINE
5
29E
100
AcDbEntity
8
0
100
AcDbLine
62
0
6
CONTINUOUS
10
37.5800000000
20
20.8901521603
11
37.6800000000
21
20.8901521603
0
LINE
5
29F
100
AcDbEntity
8
0
100
AcDbLine
62
0
6
CONTINUOUS
10
37.5800000000
20
20.9642900000
11
37.6800000000
21
20.9642900000
0
LINE
5
2A0
100
AcDbEntity
8
0
100
AcDbLine
62
0
6
CONTINUOUS
10
37.5000000000
20
21.0445050000
11
37.6000000000
21
21.0445050000
0
LINE
5
2A1
100
AcDbEntity
8
0
100
AcDbLine
62
0
6
CONTINUOUS
10
37.6000000000
20
21.3314379886
11
37.6800000000
21
21.3314379886
0
LINE
5
2A2
100
AcDbEntity
8
0
100
AcDbLine
62
0
6
CONTINUOUS
10
37.5000000000
20
21.4545250000
11
37.6000000000
21
21.4545250000
0
LINE
5
2A3
100
AcDbEntity
8
0
100
AcDbLine
62
0
6
CONTINUOUS
10
37.5000000000
20
21.5839620000
11
37.6000000000
21
21.5839620000
0
LINE
5
2A4
100
AcDbEntity
8
0
100
AcDbLine
62
9
6
CONTINUOUS
10
37.6000000000
20
21.8530733648
11
37.6800000000
21
21.8530733648
0
LINE
5
2A5
100
AcDbEntity
8
0
100
AcDbLine
62
0
6
CONTINUOUS
10
37.5000000000
20
22.2315110000
11
37.6000000000
21
22.2315110000
0
LINE
5
2A6
100
AcDbEntity
8
0
100
AcDbLine
62
0
6
CONTINUOUS
10
37.5999999295
20
22.3201921383
11
37.6800000000
21
22.3201920000
0
LINE
5
2A7
100
AcDbEntity
8
0
100
AcDbLine
62
0
6
CONTINUOUS
10
37.5000000000
20
22.3609530000
11
37.6000000000
21
22.3609530000
0
LINE
5
2A8
100
AcDbEntity
8
0
100
AcDbLine
62
0
6
CONTINUOUS
10
37.6000000000
20
22.7177210000
11
37.6800000000
21
22.7177210000
0
LINE
5
2A9
100
AcDbEntity
8
0
100
AcDbLine
62
0
6
CONTINUOUS
10
37.6000000000
20
22.7616710000
11
37.6800000000
21
22.7616710000
0
LINE
5
2AA
100
AcDbEntity
8
0
100
AcDbLine
62
0
6
CONTINUOUS
10
37.5000000000
20
22.7709690000
11
37.6000000000
21
22.7709690000
0
LINE
5
2AB
100
AcDbEntity
8
0
100
AcDbLine
62
0
6
CONTINUOUS
10
37.5000000000
20
23.0312000000
11
37.5800000000
21
23.0312000000
0
LINE
5
2AC
100
AcDbEntity
8
0
100
AcDbLine
62
0
6
CONTINUOUS
10
37.5000000000
20
23.0443110000
11
37.6000000000
21
23.0443110000
0
LINE
5
2AD
100
AcDbEntity
8
0
100
AcDbLine
62
0
6
CONTINUOUS
10
37.5000000000
20
23.4543260000
11
37.6000000000
21
23.4543260000
0
LINE
5
2AE
100
AcDbEntity
8
0
100
AcDbLine
62
0
6
CONTINUOUS
10
80.4018834706
20
44.0000000000
11
79.4518834705
21
47.0000000000
0
LINE
5
2AF
100
AcDbEntity
8
0
100
AcDbLine
62
0
6
CONTINUOUS
10
78.5018834704
20
44.0000000000
11
80.4018834706
21
44.0000000000
0
LINE
5
2B0
100
AcDbEntity
8
0
100
AcDbLine
62
0
6
CONTINUOUS
10
79.4518834705
20
47.0000000000
11
78.5018834704
21
44.0000000000
0
HATCH
5
2B1
100
AcDbEntity
8
0
100
AcDbHatch
62
0
6
CONTINUOUS
10
0.0
20
0.0
30
0.0
210
0.0
220
0.0
230
1.0
2

70
1
71
1
91
1
92
1
93
3
72
1
10
79.4518834705
20
47.0000000000
11
78.5018834704
21
44.0000000000
72
1
10
78.5018834704
20
44.0000000000
11
80.4018834706
21
44.0000000000
72
1
10
80.4018834706
20
44.0000000000
11
79.4518834705
21
47.0000000000
97
3
330
2AE
330
2AF
330
2B0
75
0
76
1
98
1
10
0.0
20
0.0
0
LINE
5
2B2
100
AcDbEntity
8
0
100
AcDbLine
62
0
6
CONTINUOUS
10
68.4518834705
20
55.9500000001
11
68.4518834705
21
54.0499999999
0
LINE
5
2B3
100
AcDbEntity
8
0
100
AcDbLine
62
0
6
CONTINUOUS
10
71.4518834705
20
55.0000000000
11
68.4518834705
21
55.9500000001
0
LINE
5
2B4
100
AcDbEntity
8
0
100
AcDbLine
62
0
6
CONTINUOUS
10
68.4518834705
20
54.0499999999
11
71.4518834705
21
55.0000000000
0
HATCH
5
2B5
100
AcDbEntity
8
0
100
AcDbHatch
62
0
6
CONTINUOUS
10
0.0
20
0.0
30
0.0
210
0.0
220
0.0
230
1.0
2

70
1
71
1
91
1
92
1
93
3
72
1
10
68.4518834705
20
54.0499999999
11
71.4518834705
21
55.0000000000
72
1
10
71.4518834705
20
55.0000000000
11
68.4518834705
21
55.9500000001
72
1
10
68.4518834705
20
55.9500000001
11
68.4518834705
21
54.0499999999
97
3
330
2B2
330
2B3
330
2B4
75
0
76
1
98
1
10
0.0
20
0.0
0
LINE
5
2B6
100
AcDbEntity
8
0
100
AcDbLine
62
0
6
CONTINUOUS
10
71.4518834705
20
45.3997711479
11
71.4518834705
21
1.6002288521
0
LINE
5
2B7
100
AcDbEntity
8
0
100
AcDbLine
62
0
6
CONTINUOUS
10
71.4518834705
20
45.3997711479
11
71.4518834705
21
56.5000000000
0
LINE
5
2B8
100
AcDbEntity
8
0
100
AcDbLine
62
0
6
CONTINUOUS
10
56.9170111934
20
45.9000000000
11
56.9338230370
21
45.9780932327
0
LINE
5
2B9
100
AcDbEntity
8
0
100
AcDbLine
62
0
6
CONTINUOUS
10
37.6000000000
20
23.7424690675
11
37.6800000000
21
23.7424690000
0
LINE
5
2BA
100
AcDbEntity
8
0
100
AcDbLine
62
0
6
CONTINUOUS
10
37.5000000000
20
23.8419760000
11
37.6000000000
21
23.8419760000
0
LINE
5
2BB
100
AcDbEntity
8
0
100
AcDbLine
62
0
6
CONTINUOUS
10
37.6000000339
20
23.9097190400
11
37.6800000000
21
23.9097190000
0
LINE
5
2BC
100
AcDbEntity
8
0
100
AcDbLine
62
0
6
CONTINUOUS
10
37.6000000000
20
24.0626462262
11
37.6800000000
21
24.0626462262
0
LINE
5
2BD
100
AcDbEntity
8
0
100
AcDbLine
62
0
6
CONTINUOUS
10
37.5000000000
20
24.2519810000
11
37.6000000000
21
24.2519810000
0
LINE
5
2BE
100
AcDbEntity
8
0
100
AcDbLine
62
0
6
CONTINUOUS
10
37.5000000000
20
24.6396260000
11
37.6000000000
21
24.6396260000
0
LINE
5
2BF
100
AcDbEntity
8
0
100
AcDbLine
62
0
6
CONTINUOUS
10
37.6000000000
20
24.6512640000
11
37.6800000000
21
24.6512640000
0
LINE
5
2C0
100
AcDbEntity
8
0
100
AcDbLine
62
0
6
CONTINUOUS
10
37.5000000000
20
25.0496410000
11
37.6000000000
21
25.0496410000
0
LINE
5
2C1
100
AcDbEntity
8
0
100
AcDbLine
62
0
6
CONTINUOUS
10
37.5800000000
20
25.0997010000
11
37.6800000000
21
25.0997010000
0
LINE
5
2C2
100
AcDbEntity
8
0
100
AcDbLine
62
0
6
CONTINUOUS
10
37.5000000000
20
25.2880000000
11
37.5800000000
21
25.2880000000
0
LINE
5
2C3
100
AcDbEntity
8
0
100
AcDbLine
62
0
6
CONTINUOUS
10
37.5000000000
20
25.3175310000
11
37.5800000000
21
25.3175310000
0
LINE
5
2C4
100
AcDbEntity
8
0
100
AcDbLine
62
0
6
CONTINUOUS
10
37.5800000000
20
25.3307130000
11
37.6800000000
21
25.3307130000
0
LINE
5
2C5
100
AcDbEntity
8
0
100
AcDbLine
62
0
6
CONTINUOUS
10
37.5000000000
20
25.4596460000
11
37.6000000000
21
25.4596460000
0
LINE
5
2C6
100
AcDbEntity
8
0
100
AcDbLine
62
0
6
CONTINUOUS
10
37.5000000000
20
25.8696620000
11
37.6000000000
21
25.8696620000
0
LINE
5
2C7
100
AcDbEntity
8
0
100
AcDbLine
62
0
6
CONTINUOUS
10
37.5000000000
20
26.0066810000
11
37.5800000000
21
26.0066810000
0
LINE
5
2C8
100
AcDbEntity
8
0
100
AcDbLine
62
0
6
CONTINUOUS
10
37.5800000000
20
26.0328676094
11
37.6800000000
21
26.0328676094
0
LINE
5
2C9
100
AcDbEntity
8
0
100
AcDbLine
62
0
6
CONTINUOUS
10
37.5000000000
20
26.1154000000
11
37.5800000000
21
26.1154000000
0
LINE
5
2CA
100
AcDbEntity
8
0
100
AcDbLine
62
0
6
CONTINUOUS
10
37.5000000000
20
26.1429980000
11
37.6000000000
21
26.1429980000
0
LINE
5
2CB
100
AcDbEntity
8
0
100
AcDbLine
62
9
6
CONTINUOUS
10
37.6000000000
20
26.5019140967
11
37.6800000000
21
26.5019140967
0
LINE
5
2CC
100
AcDbEntity
8
0
100
AcDbLine
62
0
6
CONTINUOUS
10
37.5000000000
20
26.8012180000
11
37.6000000000
21
26.8012180000
0
LINE
5
2CD
100
AcDbEntity
8
0
100
AcDbLine
62
0
6
CONTINUOUS
10
37.6000000000
20
27.0216160578
11
37.6800000000
21
27.0216160578
0
LINE
5
2CE
100
AcDbEntity
8
0
100
AcDbLine
62
0
6
CONTINUOUS
10
37.5000000000
20
27.2112480000
11
37.6000000000
21
27.2112480000
0
LINE
5
2CF
100
AcDbEntity
8
0
100
AcDbLine
62
0
6
CONTINUOUS
10
37.6000000000
20
27.5676130000
11
37.6800000000
21
27.5676130000
0
LINE
5
2D0
100
AcDbEntity
8
0
100
AcDbLine
62
0
6
CONTINUOUS
10
37.6000000000
20
27.8506030000
11
37.6800000000
21
27.8506030000
0
LINE
5
2D1
100
AcDbEntity
8
0
100
AcDbLine
62
0
6
CONTINUOUS
10
37.5000000000
20
27.8694620000
11
37.6000000000
21
27.8694620000
0
LINE
5
2D2
100
AcDbEntity
8
0
100
AcDbLine
62
0
6
CONTINUOUS
10
37.5000000000
20
28.1923530000
11
37.6800000000
21
28.1923530000
0
LINE
5
2D3
100
AcDbEntity
8
0
100
AcDbLine
62
9
6
CONTINUOUS
10
64.3018834705
20
28.5030018011
11
56.3018834705
21
28.5030018011
0
LINE
5
2D4
100
AcDbEntity
8
0
100
AcDbLine
62
0
6
CONTINUOUS
10
64.0018834705
20
28.8000000000
11
56.6018834705
21
28.8000000000
0
LINE
5
2D5
100
AcDbEntity
8
0
100
AcDbLine
62
0
6
CONTINUOUS
10
56.6018834705
20
30.9000000000
11
57.7779975777
21
30.9000000000
0
LINE
5
2D6
100
AcDbEntity
8
0
100
AcDbLine
62
0
6
CONTINUOUS
10
62.8257693633
20
30.9000000000
11
64.0018834705
21
30.9000000000
0
LINE
5
2D7
100
AcDbEntity
8
0
100
AcDbLine
62
9
6
CONTINUOUS
10
56.3018834705
20
31.2046227737
11
57.7780357396
21
31.2046227737
0
LINE
5
2D8
100
AcDbEntity
8
0
100
AcDbLine
62
9
6
CONTINUOUS
10
62.8257056018
20
31.2046227737
11
64.3018834705
21
31.2046227737
0
LINE
5
2D9
100
AcDbEntity
8
0
100
AcDbLine
62
0
6
CONTINUOUS
10
57.5483483873
20
32.5000000000
11
63.0554149418
21
32.5000000000
0
LINE
5
2DA
100
AcDbEntity
8
0
100
AcDbLine
62
0
6
CONTINUOUS
10
79.4518834705
20
-0.0000000000
11
79.4518834705
21
47.0000000000
0
LINE
5
2DB
100
AcDbEntity
8
0
100
AcDbLine
62
0
6
CONTINUOUS
10
63.7170111934
20
45.9000000000
11
63.7385391068
21
46.0000000000
0
LINE
5
2DC
100
AcDbEntity
8
0
100
AcDbLine
62
0
6
CONTINUOUS
10
56.8867557476
20
1.1000000000
11
56.8652278342
21
1.0000000000
0
LINE
5
2DD
100
AcDbEntity
8
0
100
AcDbLine
62
0
6
CONTINUOUS
10
63.6867557476
20
1.1000000000
11
63.6699439040
21
1.0219067673
0
LINE
5
2DE
100
AcDbEntity
8
0
100
AcDbLine
62
9
6
CONTINUOUS
10
49.1518834705
20
1.6002288521
11
49.2931615062
21
2.0244076302
0
LINE
5
2DF
100
AcDbEntity
8
0
100
AcDbLine
62
9
6
CONTINUOUS
10
49.6515028708
20
1.1000000000
11
49.7930853538
21
1.5250928628
0
LINE
5
2E0
100
AcDbEntity
8
0
100
AcDbLine
62
0
6
CONTINUOUS
10
37.7456369652
20
32.7542876092
11
39.2543631698
21
32.7806225230
0
LINE
5
2E1
100
AcDbEntity
8
0
100
AcDbLine
62
9
6
CONTINUOUS
10
39.5000000000
20
35.5000000000
11
37.5000000000
21
35.5000000000
0
LINE
5
2E2
100
AcDbEntity
8
0
100
AcDbLine
62
9
6
CONTINUOUS
10
39.5000000000
20
37.6000000000
11
37.5000000000
21
37.6000000000
0
LINE
5
2E3
100
AcDbEntity
8
0
100
AcDbLine
62
9
6
CONTINUOUS
10
37.5000000000
20
39.4519762322
11
37.0087262032
21
39.4519762322
0
LINE
5
2E4
100
AcDbEntity
8
0
100
AcDbLine
62
0
6
CONTINUOUS
10
37.7456369054
20
40.3457123919
11
39.2543631089
21
40.3193774780
0
LINE
5
2E5
100
AcDbEntity
8
0
100
AcDbLine
62
0
6
CONTINUOUS
10
19.6827752835
20
42.8950641391
11
37.0087262032
21
42.5926385408
0
LINE
5
2E6
100
AcDbEntity
8
0
100
AcDbLine
62
0
6
CONTINUOUS
10
13.6965095187
20
44.6965699136
11
17.4708547979
21
44.6306884717
0
LINE
5
2E7
100
AcDbEntity
8
0
100
AcDbLine
62
9
6
CONTINUOUS
10
13.6965094983
20
44.5738952240
11
17.4709292669
21
44.5077172998
0
LINE
5
2E8
100
AcDbEntity
8
0
100
AcDbLine
62
9
6
CONTINUOUS
10
0.4419869303
20
44.5183133038
11
0.9327966980
21
44.4972959167
0
LINE
5
2E9
100
AcDbEntity
8
0
100
AcDbLine
62
9
6
CONTINUOUS
10
70.8106815872
20
45.4749071372
11
70.9522640702
21
45.9000000000
0
LINE
5
2EA
100
AcDbEntity
8
0
100
AcDbLine
62
9
6
CONTINUOUS
10
71.3106054348
20
44.9755923698
11
71.4518834705
21
45.3997711479
0
LINE
5
2EB
100
AcDbEntity
8
0
100
AcDbLine
62
9
6
CONTINUOUS
10
1.4061867550
20
44.9755923698
11
9.5000000000
21
45.3997711479
0
LINE
5
2EC
100
AcDbEntity
8
0
100
AcDbLine
62
0
6
CONTINUOUS
10
1.3887449801
20
45.4749071372
11
9.5000000000
21
45.9000000000
0
LINE
5
2ED
100
AcDbEntity
8
0
100
AcDbLine
62
9
6
CONTINUOUS
10
49.8013484080
20
44.5183142309
11
70.8024185330
21
44.5183142309
0
LINE
5
2EE
100
AcDbEntity
8
0
100
AcDbLine
62
9
6
CONTINUOUS
10
49.7930853538
20
45.4749071372
11
70.8106815872
21
45.4749071372
0
LINE
5
2EF
100
AcDbEntity
8
0
100
AcDbLine
62
0
6
CONTINUOUS
10
15.6494954839
20
45.7000000000
11
15.1000000000
21
45.7000000000
0
LINE
5
2F0
100
AcDbEntity
8
0
100
AcDbLine
62
0
6
CONTINUOUS
10
49.6515028708
20
45.9000000000
11
57.0018834705
21
45.9000000000
0
LINE
5
2F1
100
AcDbEntity
8
0
100
AcDbLine
62
0
6
CONTINUOUS
10
63.6018834705
20
45.9000000000
11
70.9522640702
21
45.9000000000
0
LINE
5
2F2
100
AcDbEntity
8
0
100
AcDbLine
62
0
6
CONTINUOUS
10
63.7717037302
20
46.0000000000
11
56.8320632108
21
46.0000000000
0
LINE
5
2F3
100
AcDbEntity
8
0
100
AcDbLine
62
0
6
CONTINUOUS
10
56.6270259923
20
47.0000000000
11
63.9767409487
21
47.0000000000
0
LINE
5
2F4
100
AcDbEntity
8
0
100
AcDbLine
62
0
6
CONTINUOUS
10
64.4767409487
20
47.0000000000
11
80.9518834705
21
47.0000000000
0
LINE
5
2F5
100
AcDbEntity
8
0
100
AcDbLine
62
0
6
CONTINUOUS
10
9.5000000000
20
47.0000000000
11
13.5000000000
21
46.9301797403
0
LINE
5
2F6
100
AcDbEntity
8
0
100
AcDbLine
62
9
6
CONTINUOUS
10
9.5000000000
20
46.8333596575
11
13.5000000000
21
46.7631073618
0
LINE
5
2F7
100
AcDbEntity
8
0
100
AcDbLine
62
0
6
CONTINUOUS
10
57.0685162681
20
46.0000000000
11
57.0018834705
21
45.9000000000
0
LINE
5
2F8
100
AcDbEntity
8
0
100
AcDbLine
62
0
6
CONTINUOUS
10
9.5000000000
20
55.0000000000
11
39.5000000000
21
55.0000000000
0
LINE
5
2F9
100
AcDbEntity
8
0
100
AcDbLine
62
0
6
CONTINUOUS
10
49.1518834705
20
55.0000000000
11
71.4518834705
21
55.0000000000
0
LINE
5
2FA
100
AcDbEntity
8
0
100
AcDbLine
62
0
6
CONTINUOUS
10
0.0000000000
20
65.0000000000
11
39.5000000000
21
65.0000000000
0
LINE
5
2FB
100
AcDbEntity
8
0
100
AcDbLine
62
0
6
CONTINUOUS
10
19.2000172211
20
3.9000172212
11
17.1439294983
21
1.8439294983
0
LINE
5
2FC
100
AcDbEntity
8
0
100
AcDbLine
62
0
6
CONTINUOUS
10
63.6018834705
20
1.1000000000
11
63.5352506729
21
1.0000000000
0
LINE
5
2FD
100
AcDbEntity
8
0
100
AcDbLine
62
0
6
CONTINUOUS
10
17.1439294983
20
1.8439294983
11
15.6494954839
21
1.3000000000
0
ARC
5
2FE
100
AcDbEntity
8
0
100
AcDbCircle
62
0
6
CONTINUOUS
10
49.0518834705
20
23.5000000000
40
28.0000000000
100
AcDbArc
50
305.9627651514
51
306.8614108051
0
ARC
5
2FF
100
AcDbEntity
8
0
100
AcDbCircle
62
0
6
CONTINUOUS
10
49.0518834705
20
23.5000000000
40
28.0000000000
100
AcDbArc
50
303.5572123136
51
304.1210936517
0
ARC
5
300
100
AcDbEntity
8
0
100
AcDbCircle
62
0
6
CONTINUOUS
10
71.5518834705
20
23.5000000000
40
28.0000000000
100
AcDbArc
50
235.8789063483
51
236.4427876864
0
ARC
5
301
100
AcDbEntity
8
0
100
AcDbCircle
62
0
6
CONTINUOUS
10
71.5518834705
20
23.5000000000
40
28.0000000000
100
AcDbArc
50
233.1385891949
51
234.0372348486
0
ARC
5
302
100
AcDbEntity
8
0
100
AcDbCircle
62
0
6
CONTINUOUS
10
71.5518834705
20
23.5000000000
40
28.0000000000
100
AcDbArc
50
125.9627651514
51
126.8614108051
0
ARC
5
303
100
AcDbEntity
8
0
100
AcDbCircle
62
0
6
CONTINUOUS
10
71.5518834705
20
23.5000000000
40
28.0000000000
100
AcDbArc
50
123.5572123136
51
124.1210936517
0
ARC
5
304
100
AcDbEntity
8
0
100
AcDbCircle
62
0
6
CONTINUOUS
10
49.0518834705
20
23.5000000000
40
28.0000000000
100
AcDbArc
50
55.8789063483
51
56.4427876864
0
ARC
5
305
100
AcDbEntity
8
0
100
AcDbCircle
62
0
6
CONTINUOUS
10
49.0518834705
20
23.5000000000
40
28.0000000000
100
AcDbArc
50
53.1385891949
51
54.0372348486
0
ARC
5
306
100
AcDbEntity
8
0
100
AcDbCircle
62
0
6
CONTINUOUS
10
65.2518834705
20
46.6000000000
40
0.5000000000
100
AcDbArc
50
170.8037184210
51
299.1124227760
0
ARC
5
307
100
AcDbEntity
8
0
100
AcDbCircle
62
0
6
CONTINUOUS
10
55.3518834705
20
46.6000000000
40
0.5000000000
100
AcDbArc
50
240.8875772240
51
9.1962815790
0
ARC
5
308
100
AcDbEntity
8
0
100
AcDbCircle
62
0
6
CONTINUOUS
10
65.2518834705
20
0.4000000000
40
0.5000000000
100
AcDbArc
50
60.8875772240
51
189.1962815790
0
ARC
5
309
100
AcDbEntity
8
0
100
AcDbCircle
62
0
6
CONTINUOUS
10
55.3518834705
20
0.4000000000
40
0.5000000000
100
AcDbArc
50
350.8037184210
51
119.1124227760
0
ARC
5
30A
100
AcDbEntity
8
0
100
AcDbCircle
62
0
6
CONTINUOUS
10
62.8257693633
20
15.8000000000
40
0.3000000000
100
AcDbArc
50
90.0000000000
51
215.4959326503
0
ARC
5
30B
100
AcDbEntity
8
0
100
AcDbCircle
62
0
6
CONTINUOUS
10
57.7779975777
20
15.8000000000
40
0.3000000000
100
AcDbArc
50
324.5040673497
51
90.0000000000
0
ARC
5
30C
100
AcDbEntity
8
0
100
AcDbCircle
62
0
6
CONTINUOUS
10
62.8257693633
20
31.2000000000
40
0.3000000000
100
AcDbArc
50
144.5040673497
51
270.0000000000
0
ARC
5
30D
100
AcDbEntity
8
0
100
AcDbCircle
62
0
6
CONTINUOUS
10
57.7779975777
20
31.2000000000
40
0.3000000000
100
AcDbArc
50
270.0000000000
51
35.4959326503
0
ARC
5
30E
100
AcDbEntity
8
0
100
AcDbCircle
62
0
6
CONTINUOUS
10
60.3018834705
20
14.0000000000
40
2.8000000000
100
AcDbArc
50
144.5040673497
51
35.4959326503
0
ARC
5
30F
100
AcDbEntity
8
0
100
AcDbCircle
62
0
6
CONTINUOUS
10
60.3018834705
20
33.0000000000
40
2.8000000000
100
AcDbArc
50
324.5040673497
51
215.4959326503
0
ARC
5
310
100
AcDbEntity
8
0
100
AcDbCircle
62
0
6
CONTINUOUS
10
1.4410809363
20
2.5237223975
40
1.0000000000
100
AcDbArc
50
182.4092313014
51
267.0000000000
0
ARC
5
311
100
AcDbEntity
8
0
100
AcDbCircle
62
0
6
CONTINUOUS
10
500.0000000000
20
23.5000000000
40
500.0000000000
100
AcDbArc
50
177.5907686986
51
182.4092313014
0
ARC
5
312
100
AcDbEntity
8
0
100
AcDbCircle
62
0
6
CONTINUOUS
10
1.4410809363
20
44.4762776025
40
1.0000000000
100
AcDbArc
50
93.0000000000
51
177.5907686986
0
ARC
5
313
100
AcDbEntity
8
0
100
AcDbCircle
62
0
6
CONTINUOUS
10
39.2500000000
20
33.0305844456
40
0.2500000000
100
AcDbArc
50
271.0000156289
51
360.0000000000
0
ARC
5
314
100
AcDbEntity
8
0
100
AcDbCircle
62
0
6
CONTINUOUS
10
39.2500000000
20
40.0694155544
40
0.2500000000
100
AcDbArc
50
0.0000000000
51
88.9999983288
0
ARC
5
315
100
AcDbEntity
8
0
100
AcDbCircle
62
0
6
CONTINUOUS
10
39.2500000000
20
6.9305844456
40
0.2500000000
100
AcDbArc
50
271.0000156289
51
360.0000000000
0
ARC
5
316
100
AcDbEntity
8
0
100
AcDbCircle
62
0
6
CONTINUOUS
10
39.2500000000
20
13.9694155544
40
0.2500000000
100
AcDbArc
50
0.0000000000
51
88.9999983288
0
ARC
5
317
100
AcDbEntity
8
0
100
AcDbCircle
62
0
6
CONTINUOUS
10
37.7500000000
20
32.5043256842
40
0.2500000000
100
AcDbArc
50
90.9999846865
51
179.9991412671
0
ARC
5
318
100
AcDbEntity
8
0
100
AcDbCircle
62
0
6
CONTINUOUS
10
37.7500000000
20
40.5956743158
40
0.2500000000
100
AcDbArc
50
180.0000870885
51
269.0000016026
0
ARC
5
319
100
AcDbEntity
8
0
100
AcDbCircle
62
0
6
CONTINUOUS
10
37.7500000000
20
6.4043256842
40
0.2500000000
100
AcDbArc
50
90.9999846865
51
179.9991412671
0
ARC
5
31A
100
AcDbEntity
8
0
100
AcDbCircle
62
0
6
CONTINUOUS
10
37.7500000000
20
14.4956743158
40
0.2500000000
100
AcDbArc
50
180.0000870885
51
269.0000016026
0
ARC
5
31B
100
AcDbEntity
8
0
100
AcDbCircle
62
0
6
CONTINUOUS
10
13.7000000000
20
44.8965394526
40
0.2000000000
100
AcDbArc
50
180.0000000000
51
269.0000000000
0
ARC
5
31C
100
AcDbEntity
8
0
100
AcDbCircle
62
0
6
CONTINUOUS
10
13.7000000000
20
2.1034605474
40
0.2000000000
100
AcDbArc
50
91.0000000000
51
180.0000000000
0
ARC
5
31D
100
AcDbEntity
8
0
100
AcDbCircle
62
0
6
CONTINUOUS
10
17.4621285947
20
44.1307646241
40
0.5000000000
100
AcDbArc
50
45.0000000000
51
89.0000000000
0
ARC
5
31E
100
AcDbEntity
8
0
100
AcDbCircle
62
0
6
CONTINUOUS
10
17.4621285947
20
2.8692353759
40
0.5000000000
100
AcDbArc
50
271.0000000000
51
315.0000000000
0
ARC
5
31F
100
AcDbEntity
8
0
100
AcDbCircle
62
0
6
CONTINUOUS
10
19.6949919680
20
43.5949575257
40
0.7000000000
100
AcDbArc
50
225.0000000000
51
269.0000000000
0
ARC
5
320
100
AcDbEntity
8
0
100
AcDbCircle
62
0
6
CONTINUOUS
10
19.6949919680
20
3.4050424743
40
0.7000000000
100
AcDbArc
50
91.0000000000
51
135.0000000000
0
ARC
5
321
100
AcDbEntity
8
0
100
AcDbCircle
62
0
6
CONTINUOUS
10
37.0000000000
20
4.9072853068
40
0.5000000000
100
AcDbArc
50
271.0000000000
51
360.0000000000
0
ARC
5
322
100
AcDbEntity
8
0
100
AcDbCircle
62
0
6
CONTINUOUS
10
37.0000000000
20
42.0927146932
40
0.5000000000
100
AcDbArc
50
0.0000000000
51
89.0000000000
0
SPLINE
5
323
100
AcDbEntity
8
0
100
AcDbSpline
62
9
6
CONTINUOUS
70
0
71
3
72
12
73
8
74
6
42
0.0000001000
43
0.0000001000
44
0.0000000001
12
0.0007145527
22
0.7813571046
32
0.0000000000
13
0.7813571063
23
0.0007128135
33
0.0000000000
40
0.0000000000
40
0.0000000000
40
0.0000000000
40
0.0000000000
40
0.1998532782
40
0.3997964689
40
0.5998286573
40
0.7999149935
40
1.0000000000
40
1.0000000000
40
1.0000000000
40
1.0000000000
10
49.2931615062
20
44.9755923698
30
0.0000000000
10
49.2932091081
20
45.0276446294
30
0.0000000000
10
49.3098809518
20
45.1324904868
30
0.0000000000
10
49.3821168680
20
45.2737967766
30
0.0000000000
10
49.4945648060
20
45.3860938495
30
0.0000000000
10
49.6360313704
20
45.4582171672
30
0.0000000000
10
49.7409727399
20
45.4748595961
30
0.0000000000
10
49.7930853538
20
45.4749071372
30
0.0000000000
11
49.2931615062
21
44.9755923698
31
0.0000000000
11
49.3177423333
21
45.1298024308
31
0.0000000000
11
49.3887993955
21
45.2689347421
31
0.0000000000
11
49.4993851526
21
45.3793857676
31
0.0000000000
11
49.6386871821
21
45.4503562579
31
0.0000000000
11
49.7930853538
21
45.4749071372
31
0.0000000000
0
SPLINE
5
324
100
AcDbEntity
8
0
100
AcDbSpline
62
9
6
CONTINUOUS
70
0
71
3
72
23
73
19
74
17
42
0.0000001000
43
0.0000001000
44
0.0000000001
12
5.7450968359
22
-8.0607710015
32
0.0000000000
13
-5.2915927281
23
8.3867355775
33
0.0000000000
40
0.0000000000
40
0.0000000000
40
0.0000000000
40
0.0000000000
40
0.0655998338
40
0.1309260788
40
0.1960944166
40
0.2612394213
40
0.3264391597
40
0.3916822763
40
0.4569342999
40
0.5221206324
40
0.5872706566
40
0.6524076329
40
0.7175650857
40
0.7827028949
40
0.8478519114
40
0.9130356287
40
0.9782851248
40
1.0000000000
40
1.0000000000
40
1.0000000000
40
1.0000000000
10
62.8257369040
20
15.7953772263
30
0.0000000000
10
62.9513627032
20
15.6191154803
30
0.0000000000
10
63.1658268516
20
15.2397992318
30
0.0000000000
10
63.3615025152
20
14.6183603140
30
0.0000000000
10
63.4242995925
20
13.9711478116
30
0.0000000000
10
63.3519960221
20
13.3254196430
30
0.0000000000
10
63.1476819115
20
12.7083264277
30
0.0000000000
10
62.8199029688
20
12.1465621213
30
0.0000000000
10
62.3829199605
20
11.6648839002
30
0.0000000000
10
61.8559199276
20
11.2843221106
30
0.0000000000
10
61.2619114159
20
11.0212423008
30
0.0000000000
10
60.6264090444
20
10.8868217306
30
0.0000000000
10
59.9768819171
20
10.8868715793
30
0.0000000000
10
59.3414007714
20
11.0213903350
30
0.0000000000
10
58.7474415081
20
11.2845580372
30
0.0000000000
10
58.2205148357
20
11.6651858329
30
0.0000000000
10
57.8808004357
20
12.0397521639
30
0.0000000000
10
57.7189800520
20
12.2775489438
30
0.0000000000
10
57.6806779601
20
12.3382545826
30
0.0000000000
11
62.8257369040
21
15.7953772263
31
0.0000000000
11
63.1452329247
21
15.2300696164
31
0.0000000000
11
63.3395242833
21
14.6133107032
31
0.0000000000
11
63.4017939737
21
13.9712482835
31
0.0000000000
11
63.3300455355
21
13.3304082872
31
0.0000000000
11
63.1271852687
21
12.7177334300
31
0.0000000000
11
62.8017102564
21
12.1599313102
31
0.0000000000
11
62.3677153058
21
11.6815596371
31
0.0000000000
11
61.8445943091
21
11.3038084972
31
0.0000000000
11
61.2549406023
21
11.0426642320
31
0.0000000000
11
60.6241321703
21
10.9092401849
31
0.0000000000
11
59.9791649884
21
10.9092896675
31
0.0000000000
11
59.3483691358
21
11.0428129918
31
0.0000000000
11
58.7587648626
21
11.3040442241
31
0.0000000000
11
58.2357209223
21
11.6818578436
31
0.0000000000
11
57.8018098381
21
12.1602718143
31
0.0000000000
11
57.6806779601
21
12.3382545826
31
0.0000000000
0
SPLINE
5
325
100
AcDbEntity
8
0
100
AcDbSpline
62
9
6
CONTINUOUS
70
0
71
3
72
23
73
19
74
17
42
0.0000001000
43
0.0000001000
44
0.0000000001
12
-5.7450731402
22
8.0607374200
32
0.0000000000
13
5.2916901486
23
-8.3866255935
33
0.0000000000
40
0.0000000000
40
0.0000000000
40
0.0000000000
40
0.0000000000
40
0.0655985635
40
0.1309243260
40
0.1960922659
40
0.2612370524
40
0.3264364750
40
0.3916794430
40
0.4569311772
40
0.5221175174
40
0.5872676217
40
0.6524048549
40
0.7175625762
40
0.7827007439
40
0.8478502603
40
0.9130345810
40
0.9782848861
40
1.0000000000
40
1.0000000000
40
1.0000000000
40
1.0000000000
10
57.7780357396
20
31.2046227737
30
0.0000000000
10
57.6524128912
20
31.3808803722
30
0.0000000000
10
57.4379451428
20
31.7601855580
30
0.0000000000
10
57.2422705357
20
32.3816150179
30
0.0000000000
10
57.1794673751
20
33.0288201335
30
0.0000000000
10
57.2517632369
20
33.6745433883
30
0.0000000000
10
57.4560677337
20
34.2916344168
30
0.0000000000
10
57.7838358676
20
34.8533989527
30
0.0000000000
10
58.2208082732
20
35.3350810929
30
0.0000000000
10
58.7477989067
20
35.7156500873
30
0.0000000000
10
59.3418011882
20
35.9787400567
30
0.0000000000
10
59.9773004009
20
36.1131722514
30
0.0000000000
10
60.6268277681
20
36.1131344448
30
0.0000000000
10
61.2623124269
20
35.9786271639
30
0.0000000000
10
61.8562784049
20
35.7154691968
30
0.0000000000
10
62.3832145422
20
35.3348481809
30
0.0000000000
10
62.7229370973
20
34.9602845829
30
0.0000000000
10
62.8847622024
20
34.7224882602
30
0.0000000000
10
62.9230654205
20
34.6617827502
30
0.0000000000
11
57.7780357396
21
31.2046227737
31
0.0000000000
11
57.4585412554
21
31.7699137116
31
0.0000000000
11
57.2642477794
21
32.3866641354
31
0.0000000000
11
57.2019727270
21
33.0287193871
31
0.0000000000
11
57.2737134491
21
33.6695553797
31
0.0000000000
11
57.4765639713
21
34.2822273479
31
0.0000000000
11
57.8020287784
21
34.8400306148
31
0.0000000000
11
58.2360122905
21
35.3184051768
31
0.0000000000
11
58.7591245860
21
35.6961639206
31
0.0000000000
11
59.3487718213
21
35.9573181433
31
0.0000000000
11
59.9795776517
21
36.0907538407
31
0.0000000000
11
60.6245448140
21
36.0907163155
31
0.0000000000
11
61.2553439759
21
35.9572044176
31
0.0000000000
11
61.8449549977
21
35.6959828116
31
0.0000000000
11
62.3680080231
21
35.3181761440
31
0.0000000000
11
62.8019301372
21
34.8397649863
31
0.0000000000
11
62.9230654205
21
34.6617827502
31
0.0000000000
0
SPLINE
5
326
100
AcDbEntity
8
0
100
AcDbSpline
62
9
6
CONTINUOUS
70
0
71
3
72
12
73
8
74
6
42
0.0000001000
43
0.0000001000
44
0.0000000001
12
0.2417588872
22
-0.1732061094
32
0.0000000000
13
0.1726848300
23
0.2421315064
33
0.0000000000
40
0.0000000000
40
0.0000000000
40
0.0000000000
40
0.0000000000
40
0.3095501260
40
0.5882710987
40
0.8091977737
40
0.9509710187
40
1.0000000000
40
1.0000000000
40
1.0000000000
40
1.0000000000
10
57.7779975774
20
15.7953772233
30
0.0000000000
10
57.8029430754
20
15.7775052323
30
0.0000000000
10
57.8505964787
20
15.7429172584
30
0.0000000000
10
57.9153954098
20
15.6993564444
30
0.0000000000
10
57.9694600427
20
15.6561111675
30
0.0000000000
10
57.9996310717
20
15.6463652171
30
0.0000000000
10
58.0194224140
20
15.6218493001
30
0.0000000000
10
58.0222446011
20
15.6258064538
30
0.0000000000
11
57.7779975774
21
15.7953772233
31
0.0000000000
11
57.8529426841
21
15.7419131759
31
0.0000000000
11
57.9206781678
21
15.6941324397
31
0.0000000000
11
57.9746501790
21
15.6566620407
31
0.0000000000
11
58.0096347596
21
15.6331280755
31
0.0000000000
11
58.0222446011
21
15.6258064538
31
0.0000000000
0
SPLINE
5
327
100
AcDbEntity
8
0
100
AcDbSpline
62
9
6
CONTINUOUS
70
0
71
3
72
12
73
8
74
6
42
0.0000001000
43
0.0000001000
44
0.0000000001
12
-0.2417592426
22
-0.1732055767
32
0.0000000000
13
-0.1726848295
23
0.2421314768
33
0.0000000000
40
0.0000000000
40
0.0000000000
40
0.0000000000
40
0.0000000000
40
0.3095501462
40
0.5882711394
40
0.8091978303
40
0.9509710759
40
1.0000000000
40
1.0000000000
40
1.0000000000
40
1.0000000000
10
62.8257693638
20
15.7953772215
30
0.0000000000
10
62.8008238275
20
15.7775052843
30
0.0000000000
10
62.7531703518
20
15.7429174085
30
0.0000000000
10
62.6883713320
20
15.6993567337
30
0.0000000000
10
62.6343067697
20
15.6561113258
30
0.0000000000
10
62.6041356346
20
15.6463655957
30
0.0000000000
10
62.5843445228
20
15.6218493064
30
0.0000000000
10
62.5815223390
20
15.6258064550
30
0.0000000000
11
62.8257693638
21
15.7953772215
31
0.0000000000
11
62.7508241450
21
15.7419133321
31
0.0000000000
11
62.6830886017
21
15.6941326803
31
0.0000000000
11
62.6291165902
21
15.6566622813
31
0.0000000000
11
62.5941320688
21
15.6331282331
31
0.0000000000
11
62.5815223390
21
15.6258064550
31
0.0000000000
0
SPLINE
5
328
100
AcDbEntity
8
0
100
AcDbSpline
62
9
6
CONTINUOUS
70
0
71
3
72
13
73
9
74
7
42
0.0000001000
43
0.0000001000
44
0.0000000001
12
-0.0104618553
22
0.3044615535
32
0.0000000000
13
-0.0019261630
23
0.3046395540
33
0.0000000000
40
0.0000000000
40
0.0000000000
40
0.0000000000
40
0.0000000000
40
0.1974215700
40
0.4086209552
40
0.6178378477
40
0.8045244325
40
0.9443858587
40
1.0000000000
40
1.0000000000
40
1.0000000000
40
1.0000000000
10
57.7779975777
20
15.7953772263
30
0.0000000000
10
57.7773091124
20
15.8154129856
30
0.0000000000
10
57.7765610081
20
15.8569170749
30
0.0000000000
10
57.7784332253
20
15.9196382990
30
0.0000000000
10
57.7784515520
20
15.9812931057
30
0.0000000000
10
57.7776801195
20
16.0356950009
30
0.0000000000
10
57.7780469682
20
16.0745025971
30
0.0000000000
10
57.7780332850
20
16.0943525776
30
0.0000000000
10
57.7779975777
20
16.1000000000
30
0.0000000000
11
57.7779975777
21
15.7953772263
31
0.0000000000
11
57.7770498939
21
15.8555125120
31
0.0000000000
11
57.7781209308
21
15.9198436403
31
0.0000000000
11
57.7782897002
21
15.9835795112
31
0.0000000000
11
57.7778688237
21
16.0404503872
31
0.0000000000
11
57.7780247748
21
16.0830576606
31
0.0000000000
11
57.7779975777
21
16.1000000000
31
0.0000000000
0
SPLINE
5
329
100
AcDbEntity
8
0
100
AcDbSpline
62
9
6
CONTINUOUS
70
0
71
3
72
13
73
9
74
7
42
0.0000001000
43
0.0000001000
44
0.0000000001
12
0.0104618553
22
0.3044615535
32
0.0000000000
13
0.0019261630
23
0.3046395540
33
0.0000000000
40
0.0000000000
40
0.0000000000
40
0.0000000000
40
0.0000000000
40
0.1974215700
40
0.4086209552
40
0.6178378477
40
0.8045244325
40
0.9443858587
40
1.0000000000
40
1.0000000000
40
1.0000000000
40
1.0000000000
10
62.8257693633
20
15.7953772263
30
0.0000000000
10
62.8264578286
20
15.8154129856
30
0.0000000000
10
62.8272059329
20
15.8569170749
30
0.0000000000
10
62.8253337157
20
15.9196382990
30
0.0000000000
10
62.8253153890
20
15.9812931057
30
0.0000000000
10
62.8260868215
20
16.0356950009
30
0.0000000000
10
62.8257199728
20
16.0745025971
30
0.0000000000
10
62.8257336560
20
16.0943525776
30
0.0000000000
10
62.8257693633
20
16.1000000000
30
0.0000000000
11
62.8257693633
21
15.7953772263
31
0.0000000000
11
62.8267170471
21
15.8555125120
31
0.0000000000
11
62.8256460102
21
15.9198436403
31
0.0000000000
11
62.8254772408
21
15.9835795112
31
0.0000000000
11
62.8258981173
21
16.0404503872
31
0.0000000000
11
62.8257421662
21
16.0830576606
31
0.0000000000
11
62.8257693633
21
16.1000000000
31
0.0000000000
0
SPLINE
5
32A
100
AcDbEntity
8
0
100
AcDbSpline
62
9
6
CONTINUOUS
70
0
71
3
72
13
73
9
74
7
42
0.0000001000
43
0.0000001000
44
0.0000000001
12
0.2254551091
22
0.1939796223
32
0.0000000000
13
0.1726949333
23
-0.2421457389
33
0.0000000000
40
0.0000000000
40
0.0000000000
40
0.0000000000
40
0.0000000000
40
0.1980589474
40
0.4094423964
40
0.6182592019
40
0.8041201775
40
0.9437678963
40
1.0000000000
40
1.0000000000
40
1.0000000000
40
1.0000000000
10
57.7779975777
20
31.2046227785
30
0.0000000000
10
57.7928820449
20
31.2174292451
30
0.0000000000
10
57.8264509016
20
31.2403194537
30
0.0000000000
10
57.8771970018
20
31.2752950845
30
0.0000000000
10
57.9260134936
20
31.3079435602
30
0.0000000000
10
57.9704337731
20
31.3442423430
30
0.0000000000
10
57.9987540790
20
31.3529313271
30
0.0000000000
10
58.0190076022
20
31.3787323331
30
0.0000000000
10
58.0222446020
20
31.3741935450
30
0.0000000000
11
57.7779975777
21
31.2046227785
31
0.0000000000
11
57.8253673063
21
31.2396382803
31
0.0000000000
11
57.8772447737
21
31.2751530425
31
0.0000000000
11
57.9281482507
21
31.3107339862
31
0.0000000000
11
57.9733262400
21
31.3425879126
31
0.0000000000
11
58.0078506001
21
31.3656775835
31
0.0000000000
11
58.0222446020
21
31.3741935450
31
0.0000000000
0
SPLINE
5
32B
100
AcDbEntity
8
0
100
AcDbSpline
62
9
6
CONTINUOUS
70
0
71
3
72
13
73
9
74
7
42
0.0000001000
43
0.0000001000
44
0.0000000001
12
-0.2254544702
22
0.1939803969
32
0.0000000000
13
-0.1726949451
23
-0.2421457563
33
0.0000000000
40
0.0000000000
40
0.0000000000
40
0.0000000000
40
0.0000000000
40
0.1980588540
40
0.4094422625
40
0.6182590859
40
0.8041201273
40
0.9437678706
40
1.0000000000
40
1.0000000000
40
1.0000000000
40
1.0000000000
10
62.8257693633
20
31.2046227767
30
0.0000000000
10
62.8108849453
20
31.2174292884
30
0.0000000000
10
62.7773161469
20
31.2403195694
30
0.0000000000
10
62.7265701004
20
31.2752952624
30
0.0000000000
10
62.6777536511
20
31.3079438199
30
0.0000000000
10
62.6333333121
20
31.3442425269
30
0.0000000000
10
62.6050130889
20
31.3529316909
30
0.0000000000
10
62.5847593414
20
31.3787323367
30
0.0000000000
10
62.5815223399
20
31.3741935462
30
0.0000000000
11
62.8257693633
21
31.2046227767
31
0.0000000000
11
62.7783997408
21
31.2396383823
31
0.0000000000
11
62.7265223339
21
31.2751532196
31
0.0000000000
11
62.6756188807
21
31.3107342146
31
0.0000000000
11
62.6304408732
21
31.3425881559
31
0.0000000000
11
62.5959164524
21
31.3656777544
31
0.0000000000
11
62.5815223399
21
31.3741935462
31
0.0000000000
0
SPLINE
5
32C
100
AcDbEntity
8
0
100
AcDbSpline
62
9
6
CONTINUOUS
70
0
71
3
72
13
73
9
74
7
42
0.0000001000
43
0.0000001000
44
0.0000000001
12
-0.1576584643
22
0.9435991563
32
0.0000000000
13
-0.0003511235
23
0.9566793778
33
0.0000000000
40
0.0000000000
40
0.0000000000
40
0.0000000000
40
0.0000000000
40
0.0448233898
40
0.1498225033
40
0.3086294756
40
0.5117243922
40
0.7469283740
40
1.0000000000
40
1.0000000000
40
1.0000000000
40
1.0000000000
10
70.8106815872
20
1.5250928628
30
0.0000000000
10
70.8083259916
20
1.5391913004
30
0.0000000000
10
70.8091118914
20
1.5872745563
30
0.0000000000
10
70.8055758835
20
1.6854153256
30
0.0000000000
10
70.8049739839
20
1.8344323137
30
0.0000000000
10
70.8033845580
20
2.0247898090
30
0.0000000000
10
70.8026986017
20
2.2452796219
30
0.0000000000
10
70.8024481528
20
2.4009829672
30
0.0000000000
10
70.8024185330
20
2.4816857691
30
0.0000000000
11
70.8106815872
21
1.5250928628
31
0.0000000000
11
70.8085722527
21
1.5679225682
31
0.0000000000
11
70.8066173013
21
1.6683540362
31
0.0000000000
11
70.8049354154
21
1.8202720921
31
0.0000000000
11
70.8036271624
21
2.0145644192
31
0.0000000000
11
70.8027706270
21
2.2395776031
31
0.0000000000
11
70.8024185330
21
2.4816857691
31
0.0000000000
0
SPLINE
5
32D
100
AcDbEntity
8
0
100
AcDbSpline
62
9
6
CONTINUOUS
70
0
71
3
72
13
73
9
74
7
42
0.0000001000
43
0.0000001000
44
0.0000000001
12
-0.1515510153
22
0.4538339138
32
0.0000000000
13
-0.0003507749
23
0.4784692359
33
0.0000000000
40
0.0000000000
40
0.0000000000
40
0.0000000000
40
0.0000000000
40
0.0448312305
40
0.1499084338
40
0.3088541801
40
0.5121619630
40
0.7476022504
40
1.0000000000
40
1.0000000000
40
1.0000000000
40
1.0000000000
10
71.3106054348
20
2.0244076302
30
0.0000000000
10
71.3083406953
20
2.0311896078
30
0.0000000000
10
71.3089433358
20
2.0556629517
30
0.0000000000
10
71.3055529257
20
2.1044022276
30
0.0000000000
10
71.3048756795
20
2.1791685349
30
0.0000000000
10
71.3033137476
20
2.2743910677
30
0.0000000000
10
71.3026193701
20
2.3846521872
30
0.0000000000
10
71.3023718922
20
2.4624492305
30
0.0000000000
10
71.3023423806
20
2.5027040833
30
0.0000000000
11
71.3106054348
21
2.0244076302
31
0.0000000000
11
71.3085000712
21
2.0457544293
31
0.0000000000
11
71.3065427226
21
2.0959925358
31
0.0000000000
11
71.3048587842
21
2.1720245606
31
0.0000000000
11
71.3035492620
21
2.2692922916
31
0.0000000000
11
71.3026929233
21
2.3819400013
31
0.0000000000
11
71.3023423806
21
2.5027040833
31
0.0000000000
0
SPLINE
5
32E
100
AcDbEntity
8
0
100
AcDbSpline
62
9
6
CONTINUOUS
70
0
71
3
72
12
73
8
74
6
42
0.0000001000
43
0.0000001000
44
0.0000000001
12
0.7813571086
22
0.0007128054
32
0.0000000000
13
0.0007145511
23
0.7813571076
33
0.0000000000
40
0.0000000000
40
0.0000000000
40
0.0000000000
40
0.0000000000
40
0.2000881370
40
0.4001764314
40
0.6002089278
40
0.8001504626
40
1.0000000000
40
1.0000000000
40
1.0000000000
40
1.0000000000
10
70.8106815872
20
1.5250928628
30
0.0000000000
10
70.8627950166
20
1.5251404041
30
0.0000000000
10
70.9677377453
20
1.5417833122
30
0.0000000000
10
71.1092051553
20
1.6139082232
30
0.0000000000
10
71.2216522821
20
1.7262063497
30
0.0000000000
10
71.2938865384
20
1.8675119329
30
0.0000000000
10
71.3105578339
20
1.9723563447
30
0.0000000000
10
71.3106054348
20
2.0244076302
30
0.0000000000
11
70.8106815872
21
1.5250928628
31
0.0000000000
11
70.9650821144
21
1.5496445069
31
0.0000000000
11
71.1043850471
21
1.6206165958
31
0.0000000000
11
71.2149700590
21
1.7310687086
31
0.0000000000
11
71.2860255256
21
1.8702003823
31
0.0000000000
11
71.3106054348
21
2.0244076302
31
0.0000000000
0
SPLINE
5
32F
100
AcDbEntity
8
0
100
AcDbSpline
62
9
6
CONTINUOUS
70
0
71
3
72
10
73
6
74
4
42
0.0000001000
43
0.0000001000
44
0.0000000001
12
-0.0308408176
22
42.0366204951
32
0.0000000000
13
0.0308408149
23
42.0366204978
33
0.0000000000
40
0.0000000000
40
0.0000000000
40
0.0000000000
40
0.0000000000
40
0.3332896860
40
0.6667103140
40
1.0000000000
40
1.0000000000
40
1.0000000000
40
1.0000000000
10
70.8024185330
20
2.4816857691
30
0.0000000000
10
70.7989922242
20
7.1518097842
30
0.0000000000
10
70.7944261892
20
16.4938944470
30
0.0000000000
10
70.7944261889
20
30.5061055524
30
0.0000000000
10
70.7989922245
20
39.8481902155
30
0.0000000000
10
70.8024185330
20
44.5183142309
30
0.0000000000
11
70.8024185330
21
2.4816857691
31
0.0000000000
11
70.7955681463
21
16.4920599109
31
0.0000000000
11
70.7955681463
21
30.5079400885
31
0.0000000000
11
70.8024185330
21
44.5183142309
31
0.0000000000
0
SPLINE
5
330
100
AcDbEntity
8
0
100
AcDbSpline
62
9
6
CONTINUOUS
70
0
71
3
72
10
73
6
74
4
42
0.0000001000
43
0.0000001000
44
0.0000000001
12
-0.0308408175
22
41.9945838600
32
0.0000000000
13
0.0308408150
23
41.9945838580
33
0.0000000000
40
0.0000000000
40
0.0000000000
40
0.0000000000
40
0.0000000000
40
0.3332892780
40
0.6667108413
40
1.0000000000
40
1.0000000000
40
1.0000000000
40
1.0000000000
10
71.3023423806
20
2.5027040833
30
0.0000000000
10
71.2989160760
20
7.1681522615
30
0.0000000000
10
71.2943500345
20
16.5009022214
30
0.0000000000
10
71.2943500355
20
30.4991011190
30
0.0000000000
10
71.2989160775
20
39.8318494087
30
0.0000000000
10
71.3023423806
20
44.4972959167
30
0.0000000000
11
71.3023423806
21
2.5027040833
31
0.0000000000
11
71.2954919981
21
16.4990507165
31
0.0000000000
11
71.2954919993
21
30.5009542938
31
0.0000000000
11
71.3023423806
21
44.4972959167
31
0.0000000000
0
SPLINE
5
331
100
AcDbEntity
8
0
100
AcDbSpline
62
9
6
CONTINUOUS
70
0
71
3
72
12
73
8
74
6
42
0.0000001000
43
0.0000001000
44
0.0000000001
12
0.5010580612
22
0.0003673236
32
0.0000000000
13
0.1919552769
23
0.4628309465
33
0.0000000000
40
0.0000000000
40
0.0000000000
40
0.0000000000
40
0.0000000000
40
0.3050607110
40
0.5809725757
40
0.8013959858
40
0.9453902249
40
1.0000000000
40
1.0000000000
40
1.0000000000
40
1.0000000000
10
70.8024185330
20
2.4816857695
30
0.0000000000
10
70.8533695758
20
2.4817231215
30
0.0000000000
10
70.9509049241
20
2.4819723284
30
0.0000000000
10
71.0827894762
20
2.4864143936
30
0.0000000000
10
71.1946857776
20
2.4862295979
30
0.0000000000
10
71.2546731470
20
2.4994951988
30
0.0000000000
10
71.2988481691
20
2.4942790520
30
0.0000000000
10
71.3023423806
20
2.5027040833
30
0.0000000000
11
70.8024185330
21
2.4816857695
31
0.0000000000
11
70.9552676120
21
2.4828040024
31
0.0000000000
11
71.0934824463
21
2.4858275314
31
0.0000000000
11
71.2038299194
21
2.4904668739
31
0.0000000000
11
71.2757450225
21
2.4962778446
31
0.0000000000
11
71.3023423806
21
2.5027040833
31
0.0000000000
0
SPLINE
5
332
100
AcDbEntity
8
0
100
AcDbSpline
62
9
6
CONTINUOUS
70
0
71
3
72
13
73
9
74
7
42
0.0000001000
43
0.0000001000
44
0.0000000001
12
0.0003511223
22
0.9566793778
32
0.0000000000
13
0.1576584643
23
0.9435991563
33
0.0000000000
40
0.0000000000
40
0.0000000000
40
0.0000000000
40
0.0000000000
40
0.2530716260
40
0.4882756078
40
0.6913705244
40
0.8501774967
40
0.9551766102
40
1.0000000000
40
1.0000000000
40
1.0000000000
40
1.0000000000
10
70.8024185330
20
44.5183142309
30
0.0000000000
10
70.8024481527
20
44.5990170328
30
0.0000000000
10
70.8026986018
20
44.7547203781
30
0.0000000000
10
70.8033845579
20
44.9752101910
30
0.0000000000
10
70.8049739839
20
45.1655676863
30
0.0000000000
10
70.8055758835
20
45.3145846744
30
0.0000000000
10
70.8091118914
20
45.4127254438
30
0.0000000000
10
70.8083259916
20
45.4608086996
30
0.0000000000
10
70.8106815872
20
45.4749071372
30
0.0000000000
11
70.8024185330
21
44.5183142309
31
0.0000000000
11
70.8027706270
21
44.7604223969
31
0.0000000000
11
70.8036271624
21
44.9854355808
31
0.0000000000
11
70.8049354154
21
45.1797279079
31
0.0000000000
11
70.8066173013
21
45.3316459638
31
0.0000000000
11
70.8085722527
21
45.4320774319
31
0.0000000000
11
70.8106815872
21
45.4749071372
31
0.0000000000
0
SPLINE
5
333
100
AcDbEntity
8
0
100
AcDbSpline
62
9
6
CONTINUOUS
70
0
71
3
72
13
73
9
74
7
42
0.0000001000
43
0.0000001000
44
0.0000000001
12
0.0003507749
22
0.4784692349
32
0.0000000000
13
0.1515509163
23
0.4538339447
33
0.0000000000
40
0.0000000000
40
0.0000000000
40
0.0000000000
40
0.0000000000
40
0.2523977495
40
0.4878380372
40
0.6911458199
40
0.8500915659
40
0.9551687699
40
1.0000000000
40
1.0000000000
40
1.0000000000
40
1.0000000000
10
71.3023423806
20
44.4972959167
30
0.0000000000
10
71.3023718922
20
44.5375507694
30
0.0000000000
10
71.3026193701
20
44.6153478129
30
0.0000000000
10
71.3033137477
20
44.7256089323
30
0.0000000000
10
71.3048756791
20
44.8208314652
30
0.0000000000
10
71.3055529266
20
44.8955977721
30
0.0000000000
10
71.3089433341
20
44.9443370488
30
0.0000000000
10
71.3083406968
20
44.9688103918
30
0.0000000000
10
71.3106054348
20
44.9755923698
30
0.0000000000
11
71.3023423806
21
44.4972959167
31
0.0000000000
11
71.3026929233
21
44.6180599987
31
0.0000000000
11
71.3035492620
21
44.7307077086
31
0.0000000000
11
71.3048587842
21
44.8279754394
31
0.0000000000
11
71.3065427226
21
44.9040074640
31
0.0000000000
11
71.3085000712
21
44.9542455709
31
0.0000000000
11
71.3106054348
21
44.9755923698
31
0.0000000000
0
SPLINE
5
334
100
AcDbEntity
8
0
100
AcDbSpline
62
9
6
CONTINUOUS
70
0
71
3
72
12
73
8
74
6
42
0.0000001000
43
0.0000001000
44
0.0000000001
12
0.5010578786
22
-0.0003673791
32
0.0000000000
13
0.1921868641
23
-0.4627346383
33
0.0000000000
40
0.0000000000
40
0.0000000000
40
0.0000000000
40
0.0000000000
40
0.3050563107
40
0.5809651216
40
0.8013879126
40
0.9453846466
40
1.0000000000
40
1.0000000000
40
1.0000000000
40
1.0000000000
10
70.8024185331
20
44.5183133038
30
0.0000000000
10
70.8533688224
20
44.5182759467
30
0.0000000000
10
70.9509024642
20
44.5180266405
30
0.0000000000
10
71.0827872624
20
44.5135851497
30
0.0000000000
10
71.1946791503
20
44.5137689918
30
0.0000000000
10
71.2546756740
20
44.5005055113
30
0.0000000000
10
71.2988435960
20
44.5057200553
30
0.0000000000
10
71.3023423805
20
44.4972959167
30
0.0000000000
11
70.8024185331
21
44.5183133038
31
0.0000000000
11
70.9552653519
21
44.5171951092
31
0.0000000000
11
71.0934786086
21
44.5141717192
31
0.0000000000
11
71.2038257403
21
44.5095325952
31
0.0000000000
11
71.2757420925
21
44.5037218884
31
0.0000000000
11
71.3023423805
21
44.4972959167
31
0.0000000000
0
SPLINE
5
335
100
AcDbEntity
8
0
100
AcDbSpline
62
9
6
CONTINUOUS
70
0
71
3
72
12
73
8
74
6
42
0.0000001000
43
0.0000001000
44
0.0000000001
12
0.7813571067
22
-0.0007128135
32
0.0000000000
13
0.0007145527
23
-0.7813571046
33
0.0000000000
40
0.0000000000
40
0.0000000000
40
0.0000000000
40
0.0000000000
40
0.2000850064
40
0.4001713425
40
0.6002035310
40
0.8001467218
40
1.0000000000
40
1.0000000000
40
1.0000000000
40
1.0000000000
10
70.8106815872
20
45.4749071372
30
0.0000000000
10
70.8627942011
20
45.4748595961
30
0.0000000000
10
70.9677355705
20
45.4582171672
30
0.0000000000
10
71.1092021349
20
45.3860938495
30
0.0000000000
10
71.2216500730
20
45.2737967766
30
0.0000000000
10
71.2938859892
20
45.1324904868
30
0.0000000000
10
71.3105578329
20
45.0276446294
30
0.0000000000
10
71.3106054348
20
44.9755923698
30
0.0000000000
11
70.8106815872
21
45.4749071372
31
0.0000000000
11
70.9650797588
21
45.4503562579
31
0.0000000000
11
71.1043817883
21
45.3793857676
31
0.0000000000
11
71.2149675455
21
45.2689347421
31
0.0000000000
11
71.2860246077
21
45.1298024308
31
0.0000000000
11
71.3106054348
21
44.9755923698
31
0.0000000000
0
SPLINE
5
336
100
AcDbEntity
8
0
100
AcDbSpline
62
9
6
CONTINUOUS
70
0
71
3
72
13
73
9
74
7
42
0.0000001000
43
0.0000001000
44
0.0000000001
12
0.1514175251
22
0.4538785023
32
0.0000000000
13
0.0003487499
23
0.4784692706
33
0.0000000000
40
0.0000000000
40
0.0000000000
40
0.0000000000
40
0.0000000000
40
0.0447393873
40
0.1496912263
40
0.3085216489
40
0.5116483853
40
0.7470339087
40
1.0000000000
40
1.0000000000
40
1.0000000000
40
1.0000000000
10
49.2931615062
20
2.0244076302
30
0.0000000000
10
49.2954196153
20
2.0311763789
30
0.0000000000
10
49.2948258610
20
2.0556124123
30
0.0000000000
10
49.2982090835
20
2.1043004811
30
0.0000000000
10
49.2988892939
20
2.1789987074
30
0.0000000000
10
49.3004507072
20
2.2741655383
30
0.0000000000
10
49.3011468629
20
2.3844796244
30
0.0000000000
10
49.3013951531
20
2.4623585829
30
0.0000000000
10
49.3014245604
20
2.5027040833
30
0.0000000000
11
49.2931615062
21
2.0244076302
31
0.0000000000
11
49.2952643661
21
2.0457105203
31
0.0000000000
11
49.2972211801
21
2.0958886227
31
0.0000000000
11
49.2989054067
21
2.1718654541
31
0.0000000000
11
49.3002151634
21
2.2690465558
31
0.0000000000
11
49.3010726239
21
2.3816680615
31
0.0000000000
11
49.3014245604
21
2.5027040833
31
0.0000000000
0
SPLINE
5
337
100
AcDbEntity
8
0
100
AcDbSpline
62
9
6
CONTINUOUS
70
0
71
3
72
13
73
9
74
7
42
0.0000001000
43
0.0000001000
44
0.0000000001
12
0.1576341323
22
0.9436032117
32
0.0000000000
13
0.0003456843
23
0.9566793701
33
0.0000000000
40
0.0000000000
40
0.0000000000
40
0.0000000000
40
0.0000000000
40
0.0448270314
40
0.1498225927
40
0.3086597101
40
0.5117110612
40
0.7469567150
40
1.0000000000
40
1.0000000000
40
1.0000000000
40
1.0000000000
10
49.7930853538
20
1.5250928628
30
0.0000000000
10
49.7954407772
20
1.5391925064
30
0.0000000000
10
49.7946552171
20
1.5872756882
30
0.0000000000
10
49.7981906688
20
1.6854261835
30
0.0000000000
10
49.7987929134
20
1.8344377185
30
0.0000000000
10
49.8003821274
20
2.0248042466
30
0.0000000000
10
49.8010682138
20
2.2452844090
30
0.0000000000
10
49.8013192503
20
2.4009920056
30
0.0000000000
10
49.8013484080
20
2.4816857691
30
0.0000000000
11
49.7930853538
21
1.5250928628
31
0.0000000000
11
49.7951946481
21
1.5679260578
31
0.0000000000
11
49.7971492490
21
1.6683541326
31
0.0000000000
11
49.7988314937
21
1.8203010239
31
0.0000000000
11
49.8001394453
21
2.0145516718
31
0.0000000000
11
49.8009963446
21
2.2396047189
31
0.0000000000
11
49.8013484080
21
2.4816857691
31
0.0000000000
0
SPLINE
5
338
100
AcDbEntity
8
0
100
AcDbSpline
62
9
6
CONTINUOUS
70
0
71
3
72
12
73
8
74
6
42
0.0000001000
43
0.0000001000
44
0.0000000001
12
0.0007145508
22
-0.7813571075
32
0.0000000000
13
0.7813571083
23
-0.0007128046
33
0.0000000000
40
0.0000000000
40
0.0000000000
40
0.0000000000
40
0.0000000000
40
0.1998487703
40
0.3997899671
40
0.5998225284
40
0.7999112244
40
1.0000000000
40
1.0000000000
40
1.0000000000
40
1.0000000000
10
49.2931615062
20
2.0244076302
30
0.0000000000
10
49.2932091069
20
1.9723565445
30
0.0000000000
10
49.3098802901
20
1.8675124287
30
0.0000000000
10
49.3821142067
20
1.7262069898
30
0.0000000000
10
49.4945611683
20
1.6139086471
30
0.0000000000
10
49.6360287516
20
1.5417834101
30
0.0000000000
10
49.7409717581
20
1.5251404043
30
0.0000000000
10
49.7930853538
20
1.5250928629
30
0.0000000000
11
49.2931615062
21
2.0244076302
31
0.0000000000
11
49.3177412272
21
1.8702009592
31
0.0000000000
11
49.3887963675
21
1.7310694154
31
0.0000000000
11
49.4993812279
21
1.6206170791
31
0.0000000000
11
49.6386843462
21
1.5496446630
31
0.0000000000
11
49.7930853538
21
1.5250928629
31
0.0000000000
0
SPLINE
5
339
100
AcDbEntity
8
0
100
AcDbSpline
62
9
6
CONTINUOUS
70
0
71
3
72
10
73
6
74
4
42
0.0000001000
43
0.0000001000
44
0.0000000001
12
0.0308408054
22
41.9945838564
32
0.0000000000
13
-0.0308408159
23
41.9945838612
33
0.0000000000
40
0.0000000000
40
0.0000000000
40
0.0000000000
40
0.0000000000
40
0.3332888351
40
0.6667105879
40
1.0000000000
40
1.0000000000
40
1.0000000000
40
1.0000000000
10
49.3014245604
20
2.5027040833
30
0.0000000000
10
49.3048508591
20
7.1681460613
30
0.0000000000
10
49.3094169044
20
16.5008924737
30
0.0000000000
10
49.3094169088
20
30.4990913713
30
0.0000000000
10
49.3048508662
20
39.8318458612
30
0.0000000000
10
49.3014245604
20
44.4972959167
30
0.0000000000
11
49.3014245604
21
2.5027040833
31
0.0000000000
11
49.3082749386
21
16.4990321164
31
0.0000000000
11
49.3082749442
21
30.5009436517
31
0.0000000000
11
49.3014245604
21
44.4972959167
31
0.0000000000
0
SPLINE
5
33A
100
AcDbEntity
8
0
100
AcDbSpline
62
9
6
CONTINUOUS
70
0
71
3
72
10
73
6
74
4
42
0.0000001000
43
0.0000001000
44
0.0000000001
12
0.0308408058
22
42.0366204923
32
0.0000000000
13
-0.0308408158
23
42.0366204915
33
0.0000000000
40
0.0000000000
40
0.0000000000
40
0.0000000000
40
0.0000000000
40
0.3332896861
40
0.6667103140
40
1.0000000000
40
1.0000000000
40
1.0000000000
40
1.0000000000
10
49.8013484080
20
2.4816857691
30
0.0000000000
10
49.8047747155
20
7.1518097853
30
0.0000000000
10
49.8093407530
20
16.4938944488
30
0.0000000000
10
49.8093407515
20
30.5061055542
30
0.0000000000
10
49.8047747166
20
39.8481902162
30
0.0000000000
10
49.8013484080
20
44.5183142309
30
0.0000000000
11
49.8013484080
21
2.4816857691
31
0.0000000000
11
49.8081987949
21
16.4920599154
31
0.0000000000
11
49.8081987946
21
30.5079400890
31
0.0000000000
11
49.8013484080
21
44.5183142309
31
0.0000000000
0
SPLINE
5
33B
100
AcDbEntity
8
0
100
AcDbSpline
62
9
6
CONTINUOUS
70
0
71
3
72
12
73
8
74
6
42
0.0000001000
43
0.0000001000
44
0.0000000001
12
0.1919553876
22
-0.4628309000
32
0.0000000000
13
0.5010580614
23
-0.0003673187
33
0.0000000000
40
0.0000000000
40
0.0000000000
40
0.0000000000
40
0.0000000000
40
0.0546097780
40
0.1986040184
40
0.4190274283
40
0.6949392915
40
1.0000000000
40
1.0000000000
40
1.0000000000
40
1.0000000000
10
49.3014245604
20
2.5027040833
30
0.0000000000
10
49.3049187741
20
2.4942790524
30
0.0000000000
10
49.3490937928
20
2.4994951981
30
0.0000000000
10
49.4090811667
20
2.4862295980
30
0.0000000000
10
49.5209774660
20
2.4864143929
30
0.0000000000
10
49.6528620182
20
2.4819723273
30
0.0000000000
10
49.7503973656
20
2.4817231212
30
0.0000000000
10
49.8013484080
20
2.4816857697
30
0.0000000000
11
49.3014245604
21
2.5027040833
31
0.0000000000
11
49.3280219200
21
2.4962778446
31
0.0000000000
11
49.3999370237
21
2.4904668736
31
0.0000000000
11
49.5102844968
21
2.4858275309
31
0.0000000000
11
49.6484993303
21
2.4828040015
31
0.0000000000
11
49.8013484080
21
2.4816857697
31
0.0000000000
0
SPLINE
5
33C
100
AcDbEntity
8
0
100
AcDbSpline
62
9
6
CONTINUOUS
70
0
71
3
72
13
73
9
74
7
42
0.0000001000
43
0.0000001000
44
0.0000000001
12
-0.0003487499
22
0.4784692708
32
0.0000000000
13
-0.1514174061
23
0.4538785476
33
0.0000000000
40
0.0000000000
40
0.0000000000
40
0.0000000000
40
0.0000000000
40
0.2529660912
40
0.4883516149
40
0.6914783512
40
0.8503087732
40
0.9552606132
40
1.0000000000
40
1.0000000000
40
1.0000000000
40
1.0000000000
10
49.3014245604
20
44.4972959167
30
0.0000000000
10
49.3013951531
20
44.5376414171
30
0.0000000000
10
49.3011468629
20
44.6155203756
30
0.0000000000
10
49.3004507071
20
44.7258344616
30
0.0000000000
10
49.2988892943
20
44.8210012927
30
0.0000000000
10
49.2982090823
20
44.8956995185
30
0.0000000000
10
49.2948258631
20
44.9443875884
30
0.0000000000
10
49.2954196135
20
44.9688236205
30
0.0000000000
10
49.2931615062
20
44.9755923698
30
0.0000000000
11
49.3014245604
21
44.4972959167
31
0.0000000000
11
49.3010726239
21
44.6183319385
31
0.0000000000
11
49.3002151634
21
44.7309534442
31
0.0000000000
11
49.2989054067
21
44.8281345459
31
0.0000000000
11
49.2972211801
21
44.9041113770
31
0.0000000000
11
49.2952643662
21
44.9542894799
31
0.0000000000
11
49.2931615062
21
44.9755923698
31
0.0000000000
0
SPLINE
5
33D
100
AcDbEntity
8
0
100
AcDbSpline
62
9
6
CONTINUOUS
70
0
71
3
72
13
73
9
74
7
42
0.0000001000
43
0.0000001000
44
0.0000000001
12
1.9575673724
22
-3.1024841151
32
0.0000000000
13
-2.1252545384
23
-2.9819516702
33
0.0000000000
40
0.0000000000
40
0.0000000000
40
0.0000000000
40
0.0000000000
40
0.1176702808
40
0.2939248499
40
0.4700267625
40
0.6461727679
40
0.8227223885
40
1.0000000000
40
1.0000000000
40
1.0000000000
40
1.0000000000
10
62.9230654205
20
34.6617827502
30
0.0000000000
10
62.9998479213
20
34.5400926912
30
0.0000000000
10
63.1705193872
20
34.2227954030
30
0.0000000000
10
63.3520827839
20
33.6741763738
30
0.0000000000
10
63.4242979637
20
33.0284501081
30
0.0000000000
10
63.3614242920
20
32.3813179654
30
0.0000000000
10
63.1657439395
20
31.7600219875
30
0.0000000000
10
62.9512922846
20
31.3808338636
30
0.0000000000
10
62.8257056018
20
31.2046227737
30
0.0000000000
11
62.9230654205
21
34.6617827502
31
0.0000000000
11
63.1273446905
21
34.2819073121
31
0.0000000000
11
63.3301319522
21
33.6691847473
31
0.0000000000
11
63.4017941732
21
33.0283299343
31
0.0000000000
11
63.3394504145
21
32.3863393735
31
0.0000000000
11
63.1451465777
21
31.7697411070
31
0.0000000000
11
62.8257056018
21
31.2046227737
31
0.0000000000
0
SPLINE
5
33E
100
AcDbEntity
8
0
100
AcDbSpline
62
9
6
CONTINUOUS
70
0
71
3
72
13
73
9
74
7
42
0.0000001000
43
0.0000001000
44
0.0000000001
12
-1.9575008151
22
3.1024764296
32
0.0000000000
13
2.1252301894
23
2.9819175951
33
0.0000000000
40
0.0000000000
40
0.0000000000
40
0.0000000000
40
0.0000000000
40
0.1176708356
40
0.2939258493
40
0.4700284061
40
0.6461745969
40
0.8227240444
40
1.0000000000
40
1.0000000000
40
1.0000000000
40
1.0000000000
10
57.6806779601
20
12.3382545826
30
0.0000000000
10
57.6038977079
20
12.4599449139
30
0.0000000000
10
57.4332319883
20
12.7772419839
30
0.0000000000
10
57.2516768666
20
13.3258588085
30
0.0000000000
10
57.1794690696
20
13.9715800158
30
0.0000000000
10
57.2423482035
20
14.6187046393
30
0.0000000000
10
57.4380278344
20
15.2399912643
30
0.0000000000
10
57.6524813809
20
15.6191697959
30
0.0000000000
10
57.7780654518
20
15.7953772263
30
0.0000000000
11
57.6806779601
21
12.3382545826
31
0.0000000000
11
57.4764052943
21
12.7181302718
31
0.0000000000
11
57.2736274107
21
13.3308498799
31
0.0000000000
11
57.2019725459
21
13.9717004679
31
0.0000000000
11
57.2643212503
21
14.6136838188
31
0.0000000000
11
57.4586265769
21
15.2302731990
31
0.0000000000
11
57.7780654518
21
15.7953772263
31
0.0000000000
0
SPLINE
5
33F
100
AcDbEntity
8
0
100
AcDbSpline
62
9
6
CONTINUOUS
70
0
71
3
72
13
73
9
74
7
42
0.0000001000
43
0.0000001000
44
0.0000000001
12
-0.0003456843
22
0.9566793701
32
0.0000000000
13
-0.1576341190
23
0.9436032117
33
0.0000000000
40
0.0000000000
40
0.0000000000
40
0.0000000000
40
0.0000000000
40
0.2530432850
40
0.4882889388
40
0.6913402899
40
0.8501774073
40
0.9551729686
40
1.0000000000
40
1.0000000000
40
1.0000000000
40
1.0000000000
10
49.8013484080
20
44.5183142309
30
0.0000000000
10
49.8013192503
20
44.5990079944
30
0.0000000000
10
49.8010682137
20
44.7547155910
30
0.0000000000
10
49.8003821274
20
44.9751957534
30
0.0000000000
10
49.7987929134
20
45.1655622815
30
0.0000000000
10
49.7981906686
20
45.3145738165
30
0.0000000000
10
49.7946552174
20
45.4127243119
30
0.0000000000
10
49.7954407770
20
45.4608074936
30
0.0000000000
10
49.7930853538
20
45.4749071372
30
0.0000000000
11
49.8013484080
21
44.5183142309
31
0.0000000000
11
49.8009963446
21
44.7603952811
31
0.0000000000
11
49.8001394453
21
44.9854483282
31
0.0000000000
11
49.7988314937
21
45.1796989761
31
0.0000000000
11
49.7971492490
21
45.3316458674
31
0.0000000000
11
49.7951946481
21
45.4320739423
31
0.0000000000
11
49.7930853538
21
45.4749071372
31
0.0000000000
0
SPLINE
5
340
100
AcDbEntity
8
0
100
AcDbSpline
62
9
6
CONTINUOUS
70
0
71
3
72
12
73
8
74
6
42
0.0000001000
43
0.0000001000
44
0.0000000001
12
0.1920878019
22
0.4627758456
32
0.0000000000
13
0.5010579540
23
0.0003673964
33
0.0000000000
40
0.0000000000
40
0.0000000000
40
0.0000000000
40
0.0000000000
40
0.0546129504
40
0.1986086123
40
0.4190316711
40
0.6949417965
40
1.0000000000
40
1.0000000000
40
1.0000000000
40
1.0000000000
10
49.3014245604
20
44.4972959167
30
0.0000000000
10
49.3049213876
20
44.5057204348
30
0.0000000000
10
49.3490923475
20
44.5005051797
30
0.0000000000
10
49.4090849472
20
44.5137695786
30
0.0000000000
10
49.5209787261
20
44.5135853208
30
0.0000000000
10
49.6528634204
20
44.5180270680
30
0.0000000000
10
49.7503977949
20
44.5182763380
30
0.0000000000
10
49.8013484080
20
44.5183136971
30
0.0000000000
11
49.3014245604
21
44.4972959167
31
0.0000000000
11
49.3280235896
21
44.5037219887
31
0.0000000000
11
49.3999394051
21
44.5095328012
31
0.0000000000
11
49.5102866836
21
44.5141720186
31
0.0000000000
11
49.6485006181
21
44.5171954750
31
0.0000000000
11
49.8013484080
21
44.5183136971
31
0.0000000000
0
SPLINE
5
341
100
AcDbEntity
8
0
100
AcDbSpline
62
9
6
CONTINUOUS
70
0
71
3
72
13
73
9
74
7
42
0.0000001000
43
0.0000001000
44
0.0000000001
12
-0.7353237514
22
0.0384359975
32
0.0000000000
13
-0.0308987914
23
0.7356790123
33
0.0000000000
40
0.0000000000
40
0.0000000000
40
0.0000000000
40
0.0000000000
40
0.1663534372
40
0.3332298744
40
0.5000478313
40
0.6668741882
40
0.8337390599
40
1.0000000000
40
1.0000000000
40
1.0000000000
40
1.0000000000
10
1.4061867550
20
2.0244076302
30
0.0000000000
10
1.3654122105
20
2.0265389503
30
0.0000000000
10
1.2839118473
20
2.0409501338
30
0.0000000000
10
1.1708290408
20
2.0916400949
30
0.0000000000
10
1.0733430196
20
2.1684468486
30
0.0000000000
10
0.9975624310
20
2.2667287478
30
0.0000000000
10
0.9480653246
20
2.3803134466
30
0.0000000000
10
0.9345091187
20
2.4619325219
30
0.0000000000
10
0.9327966980
20
2.5027040833
30
0.0000000000
11
1.4061867550
21
2.0244076302
31
0.0000000000
11
1.2855705529
21
2.0457544293
31
0.0000000000
11
1.1734341312
21
2.0959925358
31
0.0000000000
11
1.0769613615
21
2.1720245606
31
0.0000000000
11
1.0019388841
21
2.2692922915
31
0.0000000000
11
0.9528792758
21
2.3819400013
31
0.0000000000
11
0.9327966980
21
2.5027040833
31
0.0000000000
0
SPLINE
5
342
100
AcDbEntity
8
0
100
AcDbSpline
62
9
6
CONTINUOUS
70
0
71
3
72
10
73
6
74
4
42
0.0000001000
43
0.0000001000
44
0.0000000001
12
-1.7657702986
22
41.9684643642
32
0.0000000000
13
1.7657701722
23
41.9684643592
33
0.0000000000
40
0.0000000000
40
0.0000000000
40
0.0000000000
40
0.0000000000
40
0.3333329306
40
0.6666671886
40
1.0000000000
40
1.0000000000
40
1.0000000000
40
1.0000000000
10
0.9327966980
20
2.5027040833
30
0.0000000000
10
0.7366002352
20
7.1658611564
30
0.0000000000
10
0.4749176248
20
16.4982439042
30
0.0000000000
10
0.4749176775
20
30.5017594371
30
0.0000000000
10
0.7366003194
20
39.8341405117
30
0.0000000000
10
0.9327966980
20
44.4972959167
30
0.0000000000
11
0.9327966980
21
2.5027040833
31
0.0000000000
11
0.5403385467
21
16.4990507150
31
0.0000000000
11
0.5403386131
21
30.5009542942
31
0.0000000000
11
0.9327966980
21
44.4972959167
31
0.0000000000
0
SPLINE
5
343
100
AcDbEntity
8
0
100
AcDbSpline
62
9
6
CONTINUOUS
70
0
71
3
72
13
73
9
74
7
42
0.0000001000
43
0.0000001000
44
0.0000000001
12
0.0308987643
22
0.7356790123
32
0.0000000000
13
0.7353237496
23
0.0384360246
33
0.0000000000
40
0.0000000000
40
0.0000000000
40
0.0000000000
40
0.0000000000
40
0.1662609401
40
0.3331258118
40
0.4999521687
40
0.6667701255
40
0.8336465628
40
1.0000000000
40
1.0000000000
40
1.0000000000
40
1.0000000000
10
0.9327966980
20
44.4972959167
30
0.0000000000
10
0.9345091172
20
44.5380674781
30
0.0000000000
10
0.9480653257
20
44.6196865533
30
0.0000000000
10
0.9975624305
20
44.7332712524
30
0.0000000000
10
1.0733430197
20
44.8315531514
30
0.0000000000
10
1.1708290410
20
44.9083599046
30
0.0000000000
10
1.2839118472
20
44.9590498673
30
0.0000000000
10
1.3654122106
20
44.9734610482
30
0.0000000000
10
1.4061867550
20
44.9755923698
30
0.0000000000
11
0.9327966980
21
44.4972959167
31
0.0000000000
11
0.9528792760
21
44.6180599987
31
0.0000000000
11
1.0019388840
21
44.7307077086
31
0.0000000000
11
1.0769613615
21
44.8279754394
31
0.0000000000
11
1.1734341313
21
44.9040074640
31
0.0000000000
11
1.2855705530
21
44.9542455709
31
0.0000000000
11
1.4061867550
21
44.9755923698
31
0.0000000000
0
SPLINE
5
344
100
AcDbEntity
8
0
100
AcDbSpline
62
9
6
CONTINUOUS
70
0
71
3
72
12
73
8
74
6
42
0.0000001000
43
0.0000001000
44
0.0000000001
12
-0.4990705841
22
-0.0261551836
32
0.0000000000
13
0.0261472366
23
-0.4990710013
33
0.0000000000
40
0.0000000000
40
0.0000000000
40
0.0000000000
40
0.0000000000
40
0.0492065481
40
0.1912403569
40
0.4123852872
40
0.6910492527
40
1.0000000000
40
1.0000000000
40
1.0000000000
40
1.0000000000
10
1.3887449801
20
45.4749071372
30
0.0000000000
10
1.3805591332
20
45.4744781351
30
0.0000000000
10
1.3965864537
20
45.4242228488
30
0.0000000000
10
1.3832590261
20
45.3725184816
30
0.0000000000
10
1.3949708462
20
45.2567844815
30
0.0000000000
10
1.3978377709
20
45.1256547081
30
0.0000000000
10
1.4034940189
20
45.0269884894
30
0.0000000000
10
1.4061867550
20
44.9755923698
30
0.0000000000
11
1.3887449801
21
45.4749071372
31
0.0000000000
11
1.3873366060
21
45.4503562578
31
0.0000000000
11
1.3886244861
21
45.3793857676
31
0.0000000000
11
1.3924826979
21
45.2689347422
31
0.0000000000
11
1.3985340080
21
45.1298024308
31
0.0000000000
11
1.4061867550
21
44.9755923698
31
0.0000000000
0
SPLINE
5
345
100
AcDbEntity
8
0
100
AcDbSpline
62
9
6
CONTINUOUS
70
0
71
3
72
12
73
8
74
6
42
0.0000001000
43
0.0000001000
44
0.0000000001
12
-0.4990705854
22
0.0261551775
32
0.0000000000
13
0.0261471368
23
0.4990710026
33
0.0000000000
40
0.0000000000
40
0.0000000000
40
0.0000000000
40
0.0000000000
40
0.0492080736
40
0.1912450852
40
0.4123921964
40
0.6910548878
40
1.0000000000
40
1.0000000000
40
1.0000000000
40
1.0000000000
10
1.3887449801
20
1.5250928628
30
0.0000000000
10
1.3805588794
20
1.5255218781
30
0.0000000000
10
1.3965867691
20
1.5757784403
30
0.0000000000
10
1.3832590542
20
1.6274836600
30
0.0000000000
10
1.3949709924
20
1.7432183652
30
0.0000000000
10
1.3978379186
20
1.8743474069
30
0.0000000000
10
1.4034940783
20
1.9730124479
30
0.0000000000
10
1.4061867550
20
2.0244076302
30
0.0000000000
11
1.3887449801
21
1.5250928628
31
0.0000000000
11
1.3873366287
21
1.5496445068
31
0.0000000000
11
1.3886245909
21
1.6206165959
31
0.0000000000
11
1.3924828732
21
1.7310687086
31
0.0000000000
11
1.3985341647
21
1.8702003823
31
0.0000000000
11
1.4061867550
21
2.0244076302
31
0.0000000000
0
SPLINE
5
346
100
AcDbEntity
8
0
100
AcDbSpline
62
9
6
CONTINUOUS
70
0
71
3
72
10
73
6
74
4
42
0.0000001000
43
0.0000001000
44
0.0000000001
12
0.1229631140
22
0.0021463283
32
0.0000000000
13
-0.0004143166
23
0.1229811462
33
0.0000000000
40
0.0000000000
40
0.0000000000
40
0.0000000000
40
0.0000000000
40
0.1154847079
40
0.4552180526
40
1.0000000000
40
1.0000000000
40
1.0000000000
40
1.0000000000
10
17.4708547979
20
2.3693115283
30
0.0000000000
10
17.4755882510
20
2.3693941510
30
0.0000000000
10
17.4654319342
20
2.3992472775
30
0.0000000000
10
17.4753694084
20
2.4294401059
30
0.0000000000
10
17.4709300353
20
2.4699489661
30
0.0000000000
10
17.4708547979
20
2.4922816022
30
0.0000000000
11
17.4708547979
21
2.3693115283
31
0.0000000000
11
17.4713799132
21
2.3835043397
31
0.0000000000
11
17.4713801022
21
2.4252853730
31
0.0000000000
11
17.4708547979
21
2.4922816022
31
0.0000000000
0
SPLINE
5
347
100
AcDbEntity
8
0
100
AcDbSpline
62
9
6
CONTINUOUS
70
0
71
3
72
13
73
9
74
7
42
0.0000001000
43
0.0000001000
44
0.0000000001
12
-0.1226563412
22
-0.0023057947
32
0.0000000000
13
0.0004879125
23
0.1226770482
33
0.0000000000
40
0.0000000000
40
0.0000000000
40
0.0000000000
40
0.0000000000
40
0.0209046803
40
0.0901240318
40
0.2166347377
40
0.4076722673
40
0.6680679148
40
1.0000000000
40
1.0000000000
40
1.0000000000
40
1.0000000000
10
13.6965095187
20
2.3034300864
30
0.0000000000
10
13.6956548215
20
2.3034140191
30
0.0000000000
10
13.6975788346
20
2.3093460418
30
0.0000000000
10
13.6954142949
20
2.3158381745
30
0.0000000000
10
13.6967171201
20
2.3331504775
30
0.0000000000
10
13.6960892729
20
2.3560533017
30
0.0000000000
10
13.6964503933
20
2.3884023784
30
0.0000000000
10
13.6964555341
20
2.4125312935
30
0.0000000000
10
13.6965095187
20
2.4261047763
30
0.0000000000
11
13.6965095187
21
2.3034300864
31
0.0000000000
11
13.6963954223
21
2.3059920918
31
0.0000000000
11
13.6963137764
21
2.3144833922
31
0.0000000000
11
13.6962752303
21
2.3300034271
31
0.0000000000
11
13.6962897112
21
2.3534395282
31
0.0000000000
11
13.6963656388
21
2.3853842600
31
0.0000000000
11
13.6965095187
21
2.4261047763
31
0.0000000000
0
SPLINE
5
348
100
AcDbEntity
8
0
100
AcDbSpline
62
9
6
CONTINUOUS
70
0
71
3
72
8
73
4
74
2
42
0.0000001000
43
0.0000001000
44
0.0000000001
12
-0.0579365934
22
-0.0010383357
32
0.0000000000
13
-0.0578646912
23
-0.0038740389
33
0.0000000000
40
0.0000000000
40
0.0000000000
40
0.0000000000
40
0.0000000000
40
1.0000000000
40
1.0000000000
40
1.0000000000
40
1.0000000000
10
19.6827752835
20
4.2591304294
30
0.0000000000
10
19.6634630857
20
4.2587843175
30
0.0000000000
10
19.6441490479
20
4.2579653392
30
0.0000000000
10
19.6248608175
20
4.2566739929
30
0.0000000000
11
19.6827752835
21
4.2591304294
31
0.0000000000
11
19.6248608175
21
4.2566739929
31
0.0000000000
0
SPLINE
5
349
100
AcDbEntity
8
0
100
AcDbSpline
62
9
6
CONTINUOUS
70
0
71
3
72
12
73
8
74
6
42
0.0000001000
43
0.0000001000
44
0.0000000001
12
-0.8645249058
22
-0.0578799063
32
0.0000000000
13
-0.6067686265
23
-0.6175227935
33
0.0000000000
40
0.0000000000
40
0.0000000000
40
0.0000000000
40
0.0000000000
40
0.1346683832
40
0.3415489572
40
0.5554649700
40
0.7752792759
40
1.0000000000
40
1.0000000000
40
1.0000000000
40
1.0000000000
10
19.6248608175
20
4.2566739929
30
0.0000000000
10
19.5860527604
20
4.2540757951
30
0.0000000000
10
19.4878918678
20
4.2426363549
30
0.0000000000
10
19.3317003203
20
4.2040706990
30
0.0000000000
10
19.1603835079
20
4.1325867099
30
0.0000000000
10
18.9980538224
20
4.0323405240
30
0.0000000000
10
18.9006411955
20
3.9478565181
30
0.0000000000
10
18.8551900338
20
3.9015997950
30
0.0000000000
11
19.6248608175
21
4.2566739929
31
0.0000000000
11
19.5089752546
21
4.2431467791
31
0.0000000000
11
19.3350785047
21
4.2002712692
31
0.0000000000
11
19.1641653251
21
4.1289552974
31
0.0000000000
11
19.0022415143
21
4.0289783445
31
0.0000000000
11
18.8551900338
21
3.9015997950
31
0.0000000000
0
SPLINE
5
34A
100
AcDbEntity
8
0
100
AcDbSpline
62
9
6
CONTINUOUS
70
0
71
3
72
11
73
7
74
5
42
0.0000001000
43
0.0000001000
44
0.0000000001
12
0.0019132448
22
-1.2499568027
32
0.0000000000
13
-0.0024528403
23
-1.2499558596
33
0.0000000000
40
0.0000000000
40
0.0000000000
40
0.0000000000
40
0.0000000000
40
0.2688415017
40
0.5299062157
40
0.7759296814
40
1.0000000000
40
1.0000000000
40
1.0000000000
40
1.0000000000
10
37.0087262032
20
7.5480237678
30
0.0000000000
10
37.0088976564
20
7.4360103465
30
0.0000000000
10
37.0091556064
20
7.2152235889
30
0.0000000000
10
37.0092910859
20
6.8919303451
30
0.0000000000
10
37.0091707481
20
6.5872911319
30
0.0000000000
10
37.0089094061
20
6.3914253908
30
0.0000000000
10
37.0087262032
20
6.2980660549
30
0.0000000000
11
37.0087262032
21
7.5480237678
31
0.0000000000
11
37.0091168125
21
7.2119833373
31
0.0000000000
11
37.0092481239
21
6.8856633663
31
0.0000000000
11
37.0091167461
21
6.5781443296
31
0.0000000000
11
37.0087262032
21
6.2980660549
31
0.0000000000
0
SPLINE
5
34B
100
AcDbEntity
8
0
100
AcDbSpline
62
9
6
CONTINUOUS
70
0
71
3
72
9
73
5
74
3
42
0.0000001000
43
0.0000001000
44
0.0000000001
12
-27.5087218504
22
-0.1582543041
32
0.0000000000
13
-27.5087304971
23
-0.1567445568
33
0.0000000000
40
0.0000000000
40
0.0000000000
40
0.0000000000
40
0.0000000000
40
0.5010965778
40
1.0000000000
40
1.0000000000
40
1.0000000000
40
1.0000000000
10
37.0087262032
20
6.2980660552
30
0.0000000000
10
32.4138840769
20
6.2716324918
30
0.0000000000
10
23.2443093895
20
6.2190090661
30
0.0000000000
10
14.0747332618
20
6.1666372294
30
0.0000000000
10
9.5000000000
20
6.1405704308
30
0.0000000000
11
37.0087262032
21
6.2980660552
31
0.0000000000
11
23.2241987238
21
6.2189568282
31
0.0000000000
11
9.5000000000
21
6.1405704308
31
0.0000000000
0
SPLINE
5
34C
100
AcDbEntity
8
0
100
AcDbSpline
62
9
6
CONTINUOUS
70
0
71
3
72
9
73
5
74
3
42
0.0000001000
43
0.0000001000
44
0.0000000001
12
-27.5087208221
22
-0.1685642211
32
0.0000000000
13
-27.5087315071
23
-0.1668108151
33
0.0000000000
40
0.0000000000
40
0.0000000000
40
0.0000000000
40
0.0000000000
40
0.5010965858
40
1.0000000000
40
1.0000000000
40
1.0000000000
40
1.0000000000
10
37.0087262032
20
7.5480237678
30
0.0000000000
10
32.4138841753
20
7.5198681159
30
0.0000000000
10
23.2443096563
20
7.4638287923
30
0.0000000000
10
14.0747333564
20
7.4080816624
30
0.0000000000
10
9.5000000000
20
7.3803408340
30
0.0000000000
11
37.0087262032
21
7.5480237678
31
0.0000000000
11
23.2241987587
21
7.4637792576
31
0.0000000000
11
9.5000000000
21
7.3803408340
31
0.0000000000
0
SPLINE
5
34D
100
AcDbEntity
8
0
100
AcDbSpline
62
9
6
CONTINUOUS
70
0
71
3
72
9
73
5
74
3
42
0.0000001000
43
0.0000001000
44
0.0000000001
12
-1.3842862887
22
-1.4092903467
32
0.0000000000
13
-1.3843077216
23
-1.4092692938
33
0.0000000000
40
0.0000000000
40
0.0000000000
40
0.0000000000
40
0.0000000000
40
0.5231144866
40
1.0000000000
40
1.0000000000
40
1.0000000000
40
1.0000000000
10
18.8551900338
20
3.9015997950
30
0.0000000000
10
18.6138099634
20
3.6558597296
30
0.0000000000
10
18.1523584090
20
3.1861186674
30
0.0000000000
10
17.6909830594
20
2.7163027551
30
0.0000000000
10
17.4709309599
20
2.4922827182
30
0.0000000000
11
18.8551900338
21
3.9015997950
31
0.0000000000
11
18.1310468308
21
3.1643825378
31
0.0000000000
11
17.4709309599
21
2.4922827182
31
0.0000000000
0
SPLINE
5
34E
100
AcDbEntity
8
0
100
AcDbSpline
62
9
6
CONTINUOUS
70
0
71
3
72
12
73
8
74
6
42
0.0000001000
43
0.0000001000
44
0.0000000001
12
-0.0004883737
22
0.1226767230
32
0.0000000000
13
0.1226534734
23
-0.0024374370
33
0.0000000000
40
0.0000000000
40
0.0000000000
40
0.0000000000
40
0.0000000000
40
0.3888556707
40
0.6764642984
40
0.8667139838
40
0.9695784131
40
1.0000000000
40
1.0000000000
40
1.0000000000
40
1.0000000000
10
13.6965095187
20
44.5738952237
30
0.0000000000
10
13.6964462164
20
44.5897964035
30
0.0000000000
10
13.6960250506
20
44.6178153538
30
0.0000000000
10
13.6969722935
20
44.6521241898
30
0.0000000000
10
13.6949175510
20
44.6781441828
30
0.0000000000
10
13.6981857521
20
44.6878242936
30
0.0000000000
10
13.6952657476
20
44.6965946305
30
0.0000000000
10
13.6965095187
20
44.6965699136
30
0.0000000000
11
13.6965095187
21
44.5738952237
31
0.0000000000
11
13.6963454793
21
44.6215988592
31
0.0000000000
11
13.6962770299
21
44.6568819564
31
0.0000000000
11
13.6962926548
21
44.6802213441
31
0.0000000000
11
13.6963764311
21
44.6928402372
31
0.0000000000
11
13.6965095187
21
44.6965699136
31
0.0000000000
0
SPLINE
5
34F
100
AcDbEntity
8
0
100
AcDbSpline
62
9
6
CONTINUOUS
70
0
71
3
72
10
73
6
74
4
42
0.0000001000
43
0.0000001000
44
0.0000000001
12
-0.2577152912
22
0.2577162519
32
0.0000000000
13
-0.3261892729
23
-0.1625896536
33
0.0000000000
40
0.0000000000
40
0.0000000000
40
0.0000000000
40
0.0000000000
40
0.2741775937
40
0.6024612117
40
1.0000000000
40
1.0000000000
40
1.0000000000
40
1.0000000000
10
19.2000166411
20
43.0999821987
30
0.0000000000
10
19.1764633883
20
43.1235355393
30
0.0000000000
10
19.1063371440
20
43.1575598434
30
0.0000000000
10
18.9820537275
20
43.1510322014
30
0.0000000000
10
18.8984143674
20
43.1199469408
30
0.0000000000
10
18.8551900713
20
43.0984017095
30
0.0000000000
11
19.2000166411
21
43.0999821987
31
0.0000000000
11
19.1116513440
21
43.1466428286
31
0.0000000000
11
18.9920046664
21
43.1460944495
31
0.0000000000
11
18.8551900713
21
43.0984017095
31
0.0000000000
0
SPLINE
5
350
100
AcDbEntity
8
0
100
AcDbSpline
62
9
6
CONTINUOUS
70
0
71
3
72
10
73
6
74
4
42
0.0000001000
43
0.0000001000
44
0.0000000001
12
-0.1559122906
22
0.0027214606
32
0.0000000000
13
-0.0041780967
23
-0.1558800580
33
0.0000000000
40
0.0000000000
40
0.0000000000
40
0.0000000000
40
0.0000000000
40
0.1179250233
40
0.4625162720
40
1.0000000000
40
1.0000000000
40
1.0000000000
40
1.0000000000
10
37.0087262032
20
42.5926385408
30
0.0000000000
10
37.0025975497
20
42.5927455169
30
0.0000000000
10
37.0189729906
20
42.5537549151
30
0.0000000000
10
37.0033587602
20
42.5160014374
30
0.0000000000
10
37.0094747562
20
42.4646457845
30
0.0000000000
10
37.0087262032
20
42.4367181196
30
0.0000000000
11
37.0087262032
21
42.5926385408
31
0.0000000000
11
37.0094138669
21
42.5742626420
31
0.0000000000
11
37.0094059769
21
42.5205284475
31
0.0000000000
11
37.0087262032
21
42.4367181196
31
0.0000000000
0
SPLINE
5
351
100
AcDbEntity
8
0
100
AcDbSpline
62
9
6
CONTINUOUS
70
0
71
3
72
10
73
6
74
4
42
0.0000001000
43
0.0000001000
44
0.0000000001
12
0.1541865227
22
-0.0026913358
32
0.0000000000
13
-0.0015909057
23
-0.1542018026
33
0.0000000000
40
0.0000000000
40
0.0000000000
40
0.0000000000
40
0.0000000000
40
0.1167843102
40
0.4582717998
40
1.0000000000
40
1.0000000000
40
1.0000000000
40
1.0000000000
10
19.6827752835
20
42.8950641391
30
0.0000000000
10
19.6887774724
20
42.8949593705
30
0.0000000000
10
19.6759731306
20
42.8572619471
30
0.0000000000
10
19.6883587321
20
42.8194062136
30
0.0000000000
10
19.6830625630
20
42.7687147256
30
0.0000000000
10
19.6827752835
20
42.7408695706
30
0.0000000000
11
19.6827752835
21
42.8950641391
31
0.0000000000
11
19.6834515895
21
42.8770675327
31
0.0000000000
11
19.6834515897
21
42.8244067438
31
0.0000000000
11
19.6827752835
21
42.7408695706
31
0.0000000000
0
SPLINE
5
352
100
AcDbEntity
8
0
100
AcDbSpline
62
9
6
CONTINUOUS
70
0
71
3
72
12
73
8
74
6
42
0.0000001000
43
0.0000001000
44
0.0000000001
12
0.0000000000
22
0.6571938638
32
0.0000000000
13
-0.6571464627
23
0.0078930080
33
0.0000000000
40
0.0000000000
40
0.0000000000
40
0.0000000000
40
0.0000000000
40
0.1641302470
40
0.3433814393
40
0.5448129117
40
0.7664284784
40
1.0000000000
40
1.0000000000
40
1.0000000000
40
1.0000000000
10
37.5000000000
20
42.0927146932
30
0.0000000000
10
37.5000000000
20
42.1286698236
30
0.0000000000
10
37.4817940511
20
42.2046670485
30
0.0000000000
10
37.4075527049
20
42.3014283831
30
0.0000000000
10
37.2967570431
20
42.3763478697
30
0.0000000000
10
37.1598286094
20
42.4244201219
30
0.0000000000
10
37.0598897696
20
42.4361035923
30
0.0000000000
10
37.0087262032
20
42.4367181196
30
0.0000000000
11
37.5000000000
21
42.0927146932
31
0.0000000000
11
37.4760646964
21
42.1978909445
31
0.0000000000
11
37.4065503805
21
42.2929974936
31
0.0000000000
11
37.2981124374
21
42.3689287242
31
0.0000000000
11
37.1611328476
21
42.4184148880
31
0.0000000000
11
37.0087262032
21
42.4367181196
31
0.0000000000
0
SPLINE
5
353
100
AcDbEntity
8
0
100
AcDbSpline
62
9
6
CONTINUOUS
70
0
71
3
72
9
73
5
74
3
42
0.0000001000
43
0.0000001000
44
0.0000000001
12
1.3843085558
22
-1.4092701551
32
0.0000000000
13
1.3842871302
23
-1.4092912007
33
0.0000000000
40
0.0000000000
40
0.0000000000
40
0.0000000000
40
0.0000000000
40
0.4771016063
40
1.0000000000
40
1.0000000000
40
1.0000000000
40
1.0000000000
10
17.4709292669
20
44.5077172998
30
0.0000000000
10
17.6910812121
20
44.2835956149
30
0.0000000000
10
18.1524581805
20
43.8137807323
30
0.0000000000
10
18.6139095282
20
43.3440389067
30
0.0000000000
10
18.8551900338
20
43.0984002050
30
0.0000000000
11
17.4709292669
21
44.5077172998
31
0.0000000000
11
18.1313455282
21
43.8353133743
31
0.0000000000
11
18.8551900338
21
43.0984002050
31
0.0000000000
0
SPLINE
5
354
100
AcDbEntity
8
0
100
AcDbSpline
62
9
6
CONTINUOUS
70
0
71
3
72
12
73
8
74
6
42
0.0000001000
43
0.0000001000
44
0.0000000001
12
0.6067690254
22
-0.6175223888
32
0.0000000000
13
0.8645249143
23
-0.0578798568
33
0.0000000000
40
0.0000000000
40
0.0000000000
40
0.0000000000
40
0.0000000000
40
0.2247207504
40
0.4445350072
40
0.6584510452
40
0.8653316157
40
1.0000000000
40
1.0000000000
40
1.0000000000
40
1.0000000000
10
18.8551900338
20
43.0984002050
30
0.0000000000
10
18.9006412307
20
43.0521435068
30
0.0000000000
10
18.9980539147
20
42.9676596020
30
0.0000000000
10
19.1603834579
20
42.8674131812
30
0.0000000000
10
19.3317003371
20
42.7959293538
30
0.0000000000
10
19.4878918657
20
42.7573636348
30
0.0000000000
10
19.5860527584
20
42.7459241997
30
0.0000000000
10
19.6248608162
20
42.7433260041
30
0.0000000000
11
18.8551900338
21
43.0984002050
31
0.0000000000
11
19.0022415841
21
42.9710217043
31
0.0000000000
11
19.1641652916
21
42.8710446684
31
0.0000000000
11
19.3350785127
21
42.7997287440
31
0.0000000000
11
19.5089752538
21
42.7568532185
31
0.0000000000
11
19.6248608162
21
42.7433260041
31
0.0000000000
0
SPLINE
5
355
100
AcDbEntity
8
0
100
AcDbSpline
62
9
6
CONTINUOUS
70
0
71
3
72
8
73
4
74
2
42
0.0000001000
43
0.0000001000
44
0.0000000001
12
0.0578646927
22
-0.0038740353
32
0.0000000000
13
0.0579365940
23
-0.0010383339
33
0.0000000000
40
0.0000000000
40
0.0000000000
40
0.0000000000
40
0.0000000000
40
1.0000000000
40
1.0000000000
40
1.0000000000
40
1.0000000000
10
19.6248608162
20
42.7433260041
30
0.0000000000
10
19.6441490471
20
42.7420346590
30
0.0000000000
10
19.6634630855
20
42.7412156819
30
0.0000000000
10
19.6827752835
20
42.7408695706
30
0.0000000000
11
19.6248608162
21
42.7433260041
31
0.0000000000
11
19.6827752835
21
42.7408695706
31
0.0000000000
0
SPLINE
5
356
100
AcDbEntity
8
0
100
AcDbSpline
62
9
6
CONTINUOUS
70
0
71
3
72
10
73
6
74
4
42
0.0000001000
43
0.0000001000
44
0.0000000001
12
17.3259512545
22
-0.3041323540
32
0.0000000000
13
17.3259505832
23
-0.3041707623
33
0.0000000000
40
0.0000000000
40
0.0000000000
40
0.0000000000
40
0.0000000000
40
0.3327260003
40
0.6660593338
40
1.0000000000
40
1.0000000000
40
1.0000000000
40
1.0000000000
10
19.6827752835
20
42.7408695706
30
0.0000000000
10
21.6043734376
20
42.7071386567
30
0.0000000000
10
25.4510772633
20
42.6396138517
30
0.0000000000
10
31.2263942387
20
42.5382301217
30
0.0000000000
10
35.0801130431
20
42.4705763558
30
0.0000000000
10
37.0087262032
20
42.4367180268
30
0.0000000000
11
19.6827752835
21
42.7408695706
31
0.0000000000
11
25.4475697094
21
42.6396747305
31
0.0000000000
11
31.2228866865
21
42.5382909370
31
0.0000000000
11
37.0087262032
21
42.4367180268
31
0.0000000000
0
SPLINE
5
357
100
AcDbEntity
8
0
100
AcDbSpline
62
9
6
CONTINUOUS
70
0
71
3
72
11
73
7
74
5
42
0.0000001000
43
0.0000001000
44
0.0000000001
12
0.0000000000
22
0.6339250763
32
0.0000000000
13
-0.6338873479
23
0.0069161128
33
0.0000000000
40
0.0000000000
40
0.0000000000
40
0.0000000000
40
0.0000000000
40
0.1956972244
40
0.4265189752
40
0.6997408159
40
1.0000000000
40
1.0000000000
40
1.0000000000
40
1.0000000000
10
37.5000000000
20
40.3894445167
30
0.0000000000
10
37.5000000000
20
40.4307969760
30
0.0000000000
10
37.4682161830
20
40.5216293709
30
0.0000000000
10
37.3532444268
20
40.6210451724
30
0.0000000000
10
37.1938308457
20
40.6857168073
30
0.0000000000
10
37.0721697025
20
40.7012417367
30
0.0000000000
10
37.0087262032
20
40.7019339455
30
0.0000000000
11
37.5000000000
21
40.3894445167
31
0.0000000000
11
37.4627715934
21
40.5077841920
31
0.0000000000
11
37.3566282632
21
40.6085026979
31
0.0000000000
11
37.1973745710
21
40.6766000936
31
0.0000000000
11
37.0087262032
21
40.7019339455
31
0.0000000000
0
SPLINE
5
358
100
AcDbEntity
8
0
100
AcDbSpline
62
9
6
CONTINUOUS
70
0
71
3
72
11
73
7
74
5
42
0.0000001000
43
0.0000001000
44
0.0000000001
12
0.0000000000
22
-0.6339250162
32
0.0000000000
13
-0.6338872869
23
-0.0069161561
33
0.0000000000
40
0.0000000000
40
0.0000000000
40
0.0000000000
40
0.0000000000
40
0.1957009186
40
0.4265244901
40
0.6997450365
40
1.0000000000
40
1.0000000000
40
1.0000000000
40
1.0000000000
10
37.5000000000
20
6.6105554833
30
0.0000000000
10
37.5000000000
20
6.5692022473
30
0.0000000000
10
37.4682150987
20
6.4783687213
30
0.0000000000
10
37.3532418324
20
6.3789533936
30
0.0000000000
10
37.1938287493
20
6.3142828422
30
0.0000000000
10
37.0721688046
20
6.2987582586
30
0.0000000000
10
37.0087262032
20
6.2980660552
30
0.0000000000
11
37.5000000000
21
6.6105554833
31
0.0000000000
11
37.4627702618
21
6.4922137843
31
0.0000000000
11
37.3566252463
21
6.3914953977
31
0.0000000000
11
37.1973719466
21
6.3233992125
31
0.0000000000
11
37.0087262032
21
6.2980660552
31
0.0000000000
0
SPLINE
5
359
100
AcDbEntity
8
0
100
AcDbSpline
62
9
6
CONTINUOUS
70
0
71
3
72
10
73
6
74
4
42
0.0000001000
43
0.0000001000
44
0.0000000001
12
-17.3259505837
22
-0.3041707617
32
0.0000000000
13
-17.3259512540
23
-0.3041323537
33
0.0000000000
40
0.0000000000
40
0.0000000000
40
0.0000000000
40
0.0000000000
40
0.3339406718
40
0.6672740053
40
1.0000000000
40
1.0000000000
40
1.0000000000
40
1.0000000000
10
37.0087262032
20
4.5632819752
30
0.0000000000
10
35.0801130107
20
4.5294236457
30
0.0000000000
10
31.2263941738
20
4.4617698762
30
0.0000000000
10
25.4510771985
20
4.3603861475
30
0.0000000000
10
21.6043734052
20
4.2928613427
30
0.0000000000
10
19.6827752835
20
4.2591304294
30
0.0000000000
11
37.0087262032
21
4.5632819752
31
0.0000000000
11
31.2228865894
21
4.4617090613
31
0.0000000000
11
25.4475696122
21
4.3603252678
31
0.0000000000
11
19.6827752835
21
4.2591304294
31
0.0000000000
0
SPLINE
5
35A
100
AcDbEntity
8
0
100
AcDbSpline
62
9
6
CONTINUOUS
70
0
71
3
72
10
73
6
74
4
42
0.0000001000
43
0.0000001000
44
0.0000000001
12
-0.2574038016
22
-0.2574038016
32
0.0000000000
13
-0.3381424736
23
0.1348076488
33
0.0000000000
40
0.0000000000
40
0.0000000000
40
0.0000000000
40
0.0000000000
40
0.2873892450
40
0.6157977594
40
1.0000000000
40
1.0000000000
40
1.0000000000
40
1.0000000000
10
17.8156819853
20
2.5156819853
30
0.0000000000
10
17.7910236239
20
2.4910236239
30
0.0000000000
10
17.7221061208
20
2.4533479730
30
0.0000000000
10
17.5977464520
20
2.4488974784
30
0.0000000000
10
17.5141598299
20
2.4750171353
30
0.0000000000
10
17.4708547979
20
2.4922816022
30
0.0000000000
11
17.8156819853
21
2.5156819853
31
0.0000000000
11
17.7250278186
21
2.4634665828
31
0.0000000000
11
17.6057539638
21
2.4553667874
31
0.0000000000
11
17.4708547979
21
2.4922816022
31
0.0000000000
0
SPLINE
5
35B
100
AcDbEntity
8
0
100
AcDbSpline
62
9
6
CONTINUOUS
70
0
71
3
72
10
73
6
74
4
42
0.0000001000
43
0.0000001000
44
0.0000000001
12
0.1559123588
22
0.0027214609
32
0.0000000000
13
0.0033317570
23
0.1559005100
33
0.0000000000
40
0.0000000000
40
0.0000000000
40
0.0000000000
40
0.0000000000
40
0.1155722653
40
0.4571895520
40
1.0000000000
40
1.0000000000
40
1.0000000000
40
1.0000000000
10
37.0087262032
20
4.4073614592
30
0.0000000000
10
37.0147325847
20
4.4074663010
30
0.0000000000
10
37.0018279638
20
4.4454732087
30
0.0000000000
10
37.0146656986
20
4.4837218013
30
0.0000000000
10
37.0081233657
20
4.5350737385
30
0.0000000000
10
37.0087262032
20
4.5632818804
30
0.0000000000
11
37.0087262032
21
4.4073614592
31
0.0000000000
11
37.0094079952
21
4.4253704472
31
0.0000000000
11
37.0094127792
21
4.4786409168
31
0.0000000000
11
37.0087262032
21
4.5632818804
31
0.0000000000
0
SPLINE
5
35C
100
AcDbEntity
8
0
100
AcDbSpline
62
9
6
CONTINUOUS
70
0
71
3
72
12
73
8
74
6
42
0.0000001000
43
0.0000001000
44
0.0000000001
12
0.0000000000
22
-0.6571982406
32
0.0000000000
13
-0.6571508402
23
-0.0078930608
33
0.0000000000
40
0.0000000000
40
0.0000000000
40
0.0000000000
40
0.0000000000
40
0.1632108397
40
0.3426229978
40
0.5443326278
40
0.7662989507
40
1.0000000000
40
1.0000000000
40
1.0000000000
40
1.0000000000
10
37.5000000000
20
4.9072853068
30
0.0000000000
10
37.5000000000
20
4.8715313479
30
0.0000000000
10
37.4819471425
20
4.7957066323
30
0.0000000000
10
37.4079275327
20
4.6988839660
30
0.0000000000
10
37.2970407846
20
4.6237707084
30
0.0000000000
10
37.1599635260
20
4.5755982125
30
0.0000000000
10
37.0599184835
20
4.5638967526
30
0.0000000000
10
37.0087262032
20
4.5632818804
30
0.0000000000
11
37.5000000000
21
4.9072853068
31
0.0000000000
11
37.4763251088
21
4.8026688181
31
0.0000000000
11
37.4069155329
21
4.7073539364
31
0.0000000000
11
37.2983974374
21
4.6312170293
31
0.0000000000
11
37.1612172393
21
4.5816048867
31
0.0000000000
11
37.0087262032
21
4.5632818804
31
0.0000000000
0
SPLINE
5
35D
100
AcDbEntity
8
0
100
AcDbSpline
62
9
6
CONTINUOUS
70
0
71
3
72
9
73
5
74
3
42
0.0000001000
43
0.0000001000
44
0.0000000001
12
-0.1585086962
22
0.1585086962
32
0.0000000000
13
-0.2237276700
23
-0.0267731274
33
0.0000000000
40
0.0000000000
40
0.0000000000
40
0.0000000000
40
0.0000000000
40
0.4666942425
40
1.0000000000
40
1.0000000000
40
1.0000000000
40
1.0000000000
10
17.8156819853
20
44.4843180147
30
0.0000000000
10
17.7910236200
20
44.5089763800
30
0.0000000000
10
17.7221061155
20
44.5466520395
30
0.0000000000
10
17.6455257032
20
44.5493926456
30
0.0000000000
10
17.6057539517
20
44.5446332246
30
0.0000000000
11
17.8156819853
21
44.4843180147
31
0.0000000000
11
17.7250278066
21
44.5365334293
31
0.0000000000
11
17.6057539517
21
44.5446332246
31
0.0000000000
0
SPLINE
5
35E
100
AcDbEntity
8
0
100
AcDbSpline
62
9
6
CONTINUOUS
70
0
71
3
72
8
73
4
74
2
42
0.0000001000
43
0.0000001000
44
0.0000000001
12
-0.1395858612
22
-0.0167040135
32
0.0000000000
13
-0.1299150801
23
-0.0517934175
33
0.0000000000
40
0.0000000000
40
0.0000000000
40
0.0000000000
40
0.0000000000
40
1.0000000000
40
1.0000000000
40
1.0000000000
40
1.0000000000
10
17.6057539517
20
44.5446332246
30
0.0000000000
10
17.5592253313
20
44.5390652201
30
0.0000000000
10
17.5141598246
20
44.5249828703
30
0.0000000000
10
17.4708547979
20
44.5077183978
30
0.0000000000
11
17.6057539517
21
44.5446332246
31
0.0000000000
11
17.4708547979
21
44.5077183978
31
0.0000000000
0
SPLINE
5
35F
100
AcDbEntity
8
0
100
AcDbSpline
62
9
6
CONTINUOUS
70
0
71
3
72
10
73
6
74
4
42
0.0000001000
43
0.0000001000
44
0.0000000001
12
0.1229631140
22
-0.0021463283
32
0.0000000000
13
-0.0004143166
23
-0.1229811462
33
0.0000000000
40
0.0000000000
40
0.0000000000
40
0.0000000000
40
0.0000000000
40
0.1154847079
40
0.4552180526
40
1.0000000000
40
1.0000000000
40
1.0000000000
40
1.0000000000
10
17.4708547979
20
44.6306884717
30
0.0000000000
10
17.4755882510
20
44.6306058490
30
0.0000000000
10
17.4654319342
20
44.6007527225
30
0.0000000000
10
17.4753694084
20
44.5705598941
30
0.0000000000
10
17.4709300353
20
44.5300510339
30
0.0000000000
10
17.4708547979
20
44.5077183978
30
0.0000000000
11
17.4708547979
21
44.6306884717
31
0.0000000000
11
17.4713799132
21
44.6164956603
31
0.0000000000
11
17.4713801022
21
44.5747146270
31
0.0000000000
11
17.4708547979
21
44.5077183978
31
0.0000000000
0
SPLINE
5
360
100
AcDbEntity
8
0
100
AcDbSpline
62
9
6
CONTINUOUS
70
0
71
3
72
10
73
6
74
4
42
0.0000001000
43
0.0000001000
44
0.0000000001
12
-0.2577162343
22
-0.2577161938
32
0.0000000000
13
-0.3261892558
23
0.1625910927
33
0.0000000000
40
0.0000000000
40
0.0000000000
40
0.0000000000
40
0.0000000000
40
0.2741764693
40
0.6024601875
40
1.0000000000
40
1.0000000000
40
1.0000000000
40
1.0000000000
10
19.2000172211
20
3.9000172212
30
0.0000000000
10
19.1764639787
20
3.8764639825
30
0.0000000000
10
19.1063374701
20
3.8424400744
30
0.0000000000
10
18.9820539125
20
3.8489686056
30
0.0000000000
10
18.8984144387
20
3.8800543283
30
0.0000000000
10
18.8551900335
20
3.9015998058
30
0.0000000000
11
19.2000172211
21
3.9000172212
31
0.0000000000
11
19.1116519153
21
3.8533571178
31
0.0000000000
11
18.9920049990
21
3.8539062374
31
0.0000000000
11
18.8551900335
21
3.9015998058
31
0.0000000000
0
SPLINE
5
361
100
AcDbEntity
8
0
100
AcDbSpline
62
9
6
CONTINUOUS
70
0
71
3
72
11
73
7
74
5
42
0.0000001000
43
0.0000001000
44
0.0000000001
12
0.0024509949
22
-1.2499558627
32
0.0000000000
13
-0.0019147462
23
-1.2499568007
33
0.0000000000
40
0.0000000000
40
0.0000000000
40
0.0000000000
40
0.0000000000
40
0.2240725626
40
0.4700812108
40
0.7311610794
40
1.0000000000
40
1.0000000000
40
1.0000000000
40
1.0000000000
10
37.0087262032
20
40.7019339451
30
0.0000000000
10
37.0089092701
20
40.6085736740
30
0.0000000000
10
37.0091709199
20
40.4127131722
30
0.0000000000
10
37.0092910750
20
40.1080728832
30
0.0000000000
10
37.0091554493
20
39.7847805746
30
0.0000000000
10
37.0088977893
20
39.5639885779
30
0.0000000000
10
37.0087262032
20
39.4519762322
30
0.0000000000
11
37.0087262032
21
40.7019339451
31
0.0000000000
11
37.0091168124
21
40.4218528656
31
0.0000000000
11
37.0092481241
21
40.1143523501
31
0.0000000000
11
37.0091167462
21
39.7880134365
31
0.0000000000
11
37.0087262032
21
39.4519762322
31
0.0000000000
0
SPLINE
5
362
100
AcDbEntity
8
0
100
AcDbSpline
62
9
6
CONTINUOUS
70
0
71
3
72
9
73
5
74
3
42
0.0000001000
43
0.0000001000
44
0.0000000001
12
-27.5087208218
22
0.1685642208
32
0.0000000000
13
-27.5087315074
23
0.1668108154
33
0.0000000000
40
0.0000000000
40
0.0000000000
40
0.0000000000
40
0.0000000000
40
0.5010965867
40
1.0000000000
40
1.0000000000
40
1.0000000000
40
1.0000000000
10
37.0087262032
20
39.4519762322
30
0.0000000000
10
32.4138841671
20
39.4801318841
30
0.0000000000
10
23.2443096481
20
39.5361712078
30
0.0000000000
10
14.0747333482
20
39.5919183376
30
0.0000000000
10
9.5000000000
20
39.6196591660
30
0.0000000000
11
37.0087262032
21
39.4519762322
31
0.0000000000
11
23.2241987340
21
39.5362207425
31
0.0000000000
11
9.5000000000
21
39.6196591660
31
0.0000000000
0
SPLINE
5
363
100
AcDbEntity
8
0
100
AcDbSpline
62
9
6
CONTINUOUS
70
0
71
3
72
9
73
5
74
3
42
0.0000001000
43
0.0000001000
44
0.0000000001
12
-27.5087218507
22
0.1582543044
32
0.0000000000
13
-27.5087304968
23
0.1567445571
33
0.0000000000
40
0.0000000000
40
0.0000000000
40
0.0000000000
40
0.0000000000
40
0.5010965769
40
1.0000000000
40
1.0000000000
40
1.0000000000
40
1.0000000000
10
37.0087262032
20
40.7019339448
30
0.0000000000
10
32.4138840851
20
40.7283675082
30
0.0000000000
10
23.2443093977
20
40.7809909339
30
0.0000000000
10
14.0747332700
20
40.8333627705
30
0.0000000000
10
9.5000000000
20
40.8594295692
30
0.0000000000
11
37.0087262032
21
40.7019339448
31
0.0000000000
11
23.2241987485
21
40.7810431717
31
0.0000000000
11
9.5000000000
21
40.8594295692
31
0.0000000000
0
SPLINE
5
364
100
AcDbEntity
8
0
100
AcDbSpline
62
9
6
CONTINUOUS
70
0
71
3
72
10
73
6
74
4
42
0.0000001000
43
0.0000001000
44
0.0000000001
12
0.1541895309
22
0.0027548121
32
0.0000000000
13
-0.0015921804
23
0.1542059163
33
0.0000000000
40
0.0000000000
40
0.0000000000
40
0.0000000000
40
0.0000000000
40
0.1167863687
40
0.4582740067
40
1.0000000000
40
1.0000000000
40
1.0000000000
40
1.0000000000
10
19.6827753024
20
4.1049347855
30
0.0000000000
10
19.6887777142
20
4.1050420270
30
0.0000000000
10
19.6759739565
20
4.1427347110
30
0.0000000000
10
19.6883589681
20
4.1805972156
30
0.0000000000
10
19.6830627169
20
4.2312876770
30
0.0000000000
10
19.6827752084
20
4.2591334614
30
0.0000000000
11
19.6827753024
21
4.1049347855
31
0.0000000000
11
19.6834520225
21
4.1229321762
31
0.0000000000
11
19.6834520290
21
4.1755943972
31
0.0000000000
11
19.6827752084
21
4.2591334614
31
0.0000000000
0
SPLINE
5
365
100
AcDbEntity
8
0
100
AcDbSpline
62
0
6
CONTINUOUS
70
0
71
3
72
10
73
6
74
4
42
0.0000001000
43
0.0000001000
44
0.0000000001
12
-0.4872215534
22
0.3231850225
32
0.0000000000
13
-0.5846652038
23
0.0000000000
33
0.0000000000
40
0.0000000000
40
0.0000000000
40
0.0000000000
40
0.0000000000
40
0.3333348274
40
0.6666651726
40
1.0000000000
40
1.0000000000
40
1.0000000000
40
1.0000000000
10
64.5294261403
20
46.8333596575
30
0.0000000000
10
64.4752901695
20
46.8692692654
30
0.0000000000
10
64.3596645453
20
46.9306658790
30
0.0000000000
10
64.1719970040
20
46.9872495977
30
0.0000000000
10
64.0417040403
20
47.0000000000
30
0.0000000000
10
63.9767409487
20
47.0000000000
30
0.0000000000
11
64.5294261403
21
46.8333596575
31
0.0000000000
11
64.3572922886
21
46.9247476575
31
0.0000000000
11
64.1707024751
21
46.9810064300
31
0.0000000000
11
63.9767409487
21
47.0000000000
31
0.0000000000
0
SPLINE
5
366
100
AcDbEntity
8
0
100
AcDbSpline
62
0
6
CONTINUOUS
70
0
71
3
72
10
73
6
74
4
42
0.0000001000
43
0.0000001000
44
0.0000000001
12
-0.5846652038
22
0.0000000000
32
0.0000000000
13
-0.4872215534
23
-0.3231850225
33
0.0000000000
40
0.0000000000
40
0.0000000000
40
0.0000000000
40
0.0000000000
40
0.3333348274
40
0.6666651726
40
1.0000000000
40
1.0000000000
40
1.0000000000
40
1.0000000000
10
56.6270259923
20
47.0000000000
30
0.0000000000
10
56.5620629007
20
47.0000000000
30
0.0000000000
10
56.4317699370
20
46.9872495977
30
0.0000000000
10
56.2441023957
20
46.9306658790
30
0.0000000000
10
56.1284767715
20
46.8692692654
30
0.0000000000
10
56.0743408007
20
46.8333596575
30
0.0000000000
11
56.6270259923
21
47.0000000000
31
0.0000000000
11
56.4330644659
21
46.9810064300
31
0.0000000000
11
56.2464746524
21
46.9247476575
31
0.0000000000
11
56.0743408007
21
46.8333596575
31
0.0000000000
0
SPLINE
5
367
100
AcDbEntity
8
0
100
AcDbSpline
62
0
6
CONTINUOUS
70
0
71
3
72
10
73
6
74
4
42
0.0000001000
43
0.0000001000
44
0.0000000001
12
-0.4872215534
22
-0.3231850225
32
0.0000000000
13
-0.5846652038
23
0.0000000000
33
0.0000000000
40
0.0000000000
40
0.0000000000
40
0.0000000000
40
0.0000000000
40
0.3333348274
40
0.6666651726
40
1.0000000000
40
1.0000000000
40
1.0000000000
40
1.0000000000
10
64.5294261403
20
0.1666403425
30
0.0000000000
10
64.4752901695
20
0.1307307346
30
0.0000000000
10
64.3596645453
20
0.0693341210
30
0.0000000000
10
64.1719970040
20
0.0127504023
30
0.0000000000
10
64.0417040403
20
-0.0000000000
30
0.0000000000
10
63.9767409487
20
-0.0000000000
30
0.0000000000
11
64.5294261403
21
0.1666403425
31
0.0000000000
11
64.3572922886
21
0.0752523425
31
0.0000000000
11
64.1707024751
21
0.0189935700
31
0.0000000000
11
63.9767409487
21
-0.0000000000
31
0.0000000000
0
SPLINE
5
368
100
AcDbEntity
8
0
100
AcDbSpline
62
0
6
CONTINUOUS
70
0
71
3
72
10
73
6
74
4
42
0.0000001000
43
0.0000001000
44
0.0000000001
12
-0.5846652038
22
0.0000000000
32
0.0000000000
13
-0.4872215534
23
0.3231850225
33
0.0000000000
40
0.0000000000
40
0.0000000000
40
0.0000000000
40
0.0000000000
40
0.3333348274
40
0.6666651726
40
1.0000000000
40
1.0000000000
40
1.0000000000
40
1.0000000000
10
56.6270259923
20
-0.0000000000
30
0.0000000000
10
56.5620629007
20
-0.0000000000
30
0.0000000000
10
56.4317699370
20
0.0127504023
30
0.0000000000
10
56.2441023957
20
0.0693341210
30
0.0000000000
10
56.1284767715
20
0.1307307346
30
0.0000000000
10
56.0743408007
20
0.1666403425
30
0.0000000000
11
56.6270259923
21
-0.0000000000
31
0.0000000000
11
56.4330644659
21
0.0189935700
31
0.0000000000
11
56.2464746524
21
0.0752523425
31
0.0000000000
11
56.0743408007
21
0.1666403425
31
0.0000000000
0
SPLINE
5
369
100
AcDbEntity
8
0
100
AcDbSpline
62
0
6
CONTINUOUS
70
0
71
3
72
15
73
11
74
9
42
0.0000001000
43
0.0000001000
44
0.0000000001
12
0.0000000000
22
-0.7840504609
32
0.0000000000
13
-0.7840504609
23
0.0000000000
33
0.0000000000
40
0.0000000000
40
0.0000000000
40
0.0000000000
40
0.0000000000
40
0.1250035856
40
0.2500003382
40
0.3749971738
40
0.4999931596
40
0.6249941993
40
0.7499962985
40
0.8749988330
40
1.0000000000
40
1.0000000000
40
1.0000000000
40
1.0000000000
10
71.4518834705
20
1.6002288521
30
0.0000000000
10
71.4518834705
20
1.5675591458
30
0.0000000000
10
71.4454555330
20
1.5020411657
30
0.0000000000
10
71.4168863590
20
1.4076646264
30
0.0000000000
10
71.3704698558
20
1.3206263817
30
0.0000000000
10
71.3079693148
20
1.2443204429
30
0.0000000000
10
71.2317774940
20
1.1816771182
30
0.0000000000
10
71.1448058376
20
1.1351212029
30
0.0000000000
10
71.0504532603
20
1.1064520623
30
0.0000000000
10
70.9849331444
20
1.1000000000
30
0.0000000000
10
70.9522640702
20
1.1000000000
30
0.0000000000
11
71.4518834705
21
1.6002288521
31
0.0000000000
11
71.4423005979
21
1.5026893425
31
0.0000000000
11
71.4139117095
21
1.4088873794
31
0.0000000000
11
71.3677891810
21
1.3224150580
31
0.0000000000
11
71.3056885375
21
1.2465986383
31
0.0000000000
11
71.2299813116
21
1.1843586828
31
0.0000000000
11
71.1435757905
21
1.1381023875
31
0.0000000000
11
71.0497982992
21
1.1096171637
31
0.0000000000
11
70.9522640702
21
1.1000000000
31
0.0000000000
0
SPLINE
5
36A
100
AcDbEntity
8
0
100
AcDbSpline
62
0
6
CONTINUOUS
70
0
71
3
72
15
73
11
74
9
42
0.0000001000
43
0.0000001000
44
0.0000000001
12
0.7840504611
22
0.0000000000
32
0.0000000000
13
-0.0000000000
23
-0.7840504624
33
0.0000000000
40
0.0000000000
40
0.0000000000
40
0.0000000000
40
0.0000000000
40
0.1250026133
40
0.2500082844
40
0.3750136098
40
0.5000160060
40
0.6250106349
40
0.7500042447
40
0.8749978606
40
1.0000000000
40
1.0000000000
40
1.0000000000
40
1.0000000000
10
70.9522640702
20
45.9000000000
30
0.0000000000
10
70.9849335224
20
45.9000000000
30
0.0000000000
10
71.0504548423
20
45.8935477443
30
0.0000000000
10
71.1448092790
20
45.8648775487
30
0.0000000000
10
71.2317823003
20
45.8183198083
30
0.0000000000
10
71.3079739481
20
45.7556749149
30
0.0000000000
10
71.3704729207
20
45.6793688070
30
0.0000000000
10
71.4168876032
20
45.5923319310
30
0.0000000000
10
71.4454557256
20
45.4979572524
30
0.0000000000
10
71.4518834705
20
45.4324404763
30
0.0000000000
10
71.4518834705
20
45.3997711479
30
0.0000000000
11
70.9522640702
21
45.9000000000
31
0.0000000000
11
71.0497994168
21
45.8903826137
31
0.0000000000
11
71.1435791256
21
45.8618962291
31
0.0000000000
11
71.2299864245
21
45.8156378951
31
0.0000000000
11
71.3056936388
21
45.7533962508
31
0.0000000000
11
71.3677925940
21
45.6775798235
31
0.0000000000
11
71.4139130886
21
45.5911092837
31
0.0000000000
11
71.4423008196
21
45.4973095399
31
0.0000000000
11
71.4518834705
21
45.3997711479
31
0.0000000000
0
SPLINE
5
36B
100
AcDbEntity
8
0
100
AcDbSpline
62
0
6
CONTINUOUS
70
0
71
3
72
15
73
11
74
9
42
0.0000001000
43
0.0000001000
44
0.0000000001
12
-0.7840504611
22
0.0000000000
32
0.0000000000
13
0.0000000000
23
0.7840504624
33
0.0000000000
40
0.0000000000
40
0.0000000000
40
0.0000000000
40
0.0000000000
40
0.1250026133
40
0.2500082844
40
0.3750136098
40
0.5000160060
40
0.6250106349
40
0.7500042447
40
0.8749978606
40
1.0000000000
40
1.0000000000
40
1.0000000000
40
1.0000000000
10
49.6515028708
20
1.1000000000
30
0.0000000000
10
49.6188334186
20
1.1000000000
30
0.0000000000
10
49.5533120987
20
1.1064522557
30
0.0000000000
10
49.4589576620
20
1.1351224513
30
0.0000000000
10
49.3719846407
20
1.1816801917
30
0.0000000000
10
49.2957929929
20
1.2443250851
30
0.0000000000
10
49.2332940203
20
1.3206311930
30
0.0000000000
10
49.1868793378
20
1.4076680690
30
0.0000000000
10
49.1583112154
20
1.5020427476
30
0.0000000000
10
49.1518834705
20
1.5675595237
30
0.0000000000
10
49.1518834705
20
1.6002288521
30
0.0000000000
11
49.6515028708
21
1.1000000000
31
0.0000000000
11
49.5539675242
21
1.1096173863
31
0.0000000000
11
49.4601878154
21
1.1381037709
31
0.0000000000
11
49.3737805165
21
1.1843621049
31
0.0000000000
11
49.2980733022
21
1.2466037492
31
0.0000000000
11
49.2359743470
21
1.3224201765
31
0.0000000000
11
49.1898538524
21
1.4088907163
31
0.0000000000
11
49.1614661214
21
1.5026904601
31
0.0000000000
11
49.1518834705
21
1.6002288521
31
0.0000000000
0
SPLINE
5
36C
100
AcDbEntity
8
0
100
AcDbSpline
62
0
6
CONTINUOUS
70
0
71
3
72
15
73
11
74
9
42
0.0000001000
43
0.0000001000
44
0.0000000001
12
0.0000000000
22
0.7840504609
32
0.0000000000
13
0.7840504609
23
0.0000000000
33
0.0000000000
40
0.0000000000
40
0.0000000000
40
0.0000000000
40
0.0000000000
40
0.1250035856
40
0.2500003382
40
0.3749971738
40
0.4999931596
40
0.6249941993
40
0.7499962985
40
0.8749988330
40
1.0000000000
40
1.0000000000
40
1.0000000000
40
1.0000000000
10
49.1518834705
20
45.3997711479
30
0.0000000000
10
49.1518834705
20
45.4324408542
30
0.0000000000
10
49.1583114080
20
45.4979588343
30
0.0000000000
10
49.1868805820
20
45.5923353736
30
0.0000000000
10
49.2332970852
20
45.6793736183
30
0.0000000000
10
49.2957976262
20
45.7556795571
30
0.0000000000
10
49.3719894470
20
45.8183228818
30
0.0000000000
10
49.4589611034
20
45.8648787971
30
0.0000000000
10
49.5533136807
20
45.8935479377
30
0.0000000000
10
49.6188337966
20
45.9000000000
30
0.0000000000
10
49.6515028708
20
45.9000000000
30
0.0000000000
11
49.1518834705
21
45.3997711479
31
0.0000000000
11
49.1614663431
21
45.4973106575
31
0.0000000000
11
49.1898552315
21
45.5911126206
31
0.0000000000
11
49.2359777600
21
45.6775849420
31
0.0000000000
11
49.2980784035
21
45.7534013617
31
0.0000000000
11
49.3737856294
21
45.8156413172
31
0.0000000000
11
49.4601911505
21
45.8618976125
31
0.0000000000
11
49.5539686418
21
45.8903828363
31
0.0000000000
11
49.6515028708
21
45.9000000000
31
0.0000000000
0
SPLINE
5
36D
100
AcDbEntity
8
0
100
AcDbSpline
62
0
6
CONTINUOUS
70
0
71
3
72
13
73
9
74
7
42
0.0000001000
43
0.0000001000
44
0.0000000001
12
0.2836352485
22
0.3201236771
32
0.0000000000
13
0.3023079076
23
0.3023627387
33
0.0000000000
40
0.0000000000
40
0.0000000000
40
0.0000000000
40
0.0000000000
40
0.0527524251
40
0.1832296184
40
0.3610615627
40
0.5664224985
40
0.7842759575
40
1.0000000000
40
1.0000000000
40
1.0000000000
40
1.0000000000
10
64.0018834705
20
30.9000000000
30
0.0000000000
10
64.0068709529
20
30.9056291001
30
0.0000000000
10
64.0245043415
20
30.9248903142
30
0.0000000000
10
64.0607257727
20
30.9614599243
30
0.0000000000
10
64.1119536271
20
31.0137530147
30
0.0000000000
10
64.1722818516
20
31.0745719210
30
0.0000000000
10
64.2364868488
20
31.1391479610
30
0.0000000000
10
64.2801451092
20
31.1828804696
30
0.0000000000
10
64.3018834705
20
31.2046227737
30
0.0000000000
11
64.0018834705
21
30.9000000000
31
0.0000000000
11
64.0170863835
21
30.9166615615
31
0.0000000000
11
64.0559425909
21
30.9566923395
31
0.0000000000
11
64.1092612430
21
31.0108997712
31
0.0000000000
11
64.1710394100
21
31.0732957972
31
0.0000000000
11
64.2367233886
21
31.1393409158
31
0.0000000000
11
64.3018834705
21
31.2046227737
31
0.0000000000
0
SPLINE
5
36E
100
AcDbEntity
8
0
100
AcDbSpline
62
0
6
CONTINUOUS
70
0
71
3
72
13
73
9
74
7
42
0.0000001000
43
0.0000001000
44
0.0000000001
12
0.3106861439
22
-0.2859089715
32
0.0000000000
13
0.2984726736
23
-0.2985473098
33
0.0000000000
40
0.0000000000
40
0.0000000000
40
0.0000000000
40
0.0000000000
40
0.0525041751
40
0.1823420993
40
0.3594503188
40
0.5644355733
40
0.7826938332
40
1.0000000000
40
1.0000000000
40
1.0000000000
40
1.0000000000
10
64.0018834705
20
28.8000000000
30
0.0000000000
10
64.0073209104
20
28.7949961951
30
0.0000000000
10
64.0260051855
20
28.7774101243
30
0.0000000000
10
64.0618870394
20
28.7417511397
30
0.0000000000
10
64.1131723434
20
28.6911645195
30
0.0000000000
10
64.1730609910
20
28.6315780913
30
0.0000000000
10
64.2369076386
20
28.5679516879
30
0.0000000000
10
64.2802634863
20
28.5246271916
30
0.0000000000
10
64.3018834705
20
28.5030018011
30
0.0000000000
11
64.0018834705
21
28.8000000000
31
0.0000000000
11
64.0180409592
21
28.7848269075
31
0.0000000000
11
64.0571878590
21
28.7464619151
31
0.0000000000
11
64.1103448055
21
28.6938832960
31
0.0000000000
11
64.1717288730
21
28.6328876860
31
0.0000000000
11
64.2369877388
21
28.5678421827
31
0.0000000000
11
64.3018834705
21
28.5030018011
31
0.0000000000
0
SPLINE
5
36F
100
AcDbEntity
8
0
100
AcDbSpline
62
0
6
CONTINUOUS
70
0
71
3
72
13
73
9
74
7
42
0.0000001000
43
0.0000001000
44
0.0000000001
12
0.3023078430
22
0.3023626725
32
0.0000000000
13
0.2837502060
23
0.3200206988
33
0.0000000000
40
0.0000000000
40
0.0000000000
40
0.0000000000
40
0.0000000000
40
0.2177385527
40
0.4352150569
40
0.6390373212
40
0.8156901730
40
0.9463907864
40
1.0000000000
40
1.0000000000
40
1.0000000000
40
1.0000000000
10
56.3018834705
20
15.7953772263
30
0.0000000000
10
56.3238248279
20
15.8173225632
30
0.0000000000
10
56.3676475987
20
15.8612205997
30
0.0000000000
10
56.4318617762
20
15.9258073850
30
0.0000000000
10
56.4918775861
20
15.9863147990
30
0.0000000000
10
56.5428598576
20
16.0383510424
30
0.0000000000
10
56.5790679237
20
16.0749135706
30
0.0000000000
10
56.5968129287
20
16.0942813140
30
0.0000000000
10
56.6018834705
20
16.1000000000
30
0.0000000000
11
56.3018834705
21
15.7953772263
31
0.0000000000
11
56.3676514987
21
15.8612692233
31
0.0000000000
11
56.4332207217
21
15.9272011306
31
0.0000000000
11
56.4945353610
21
15.9891302734
31
0.0000000000
11
56.5475012394
21
16.0429775301
31
0.0000000000
11
56.5864272745
21
16.0830736405
31
0.0000000000
11
56.6018834705
21
16.1000000000
31
0.0000000000
0
SPLINE
5
370
100
AcDbEntity
8
0
100
AcDbSpline
62
0
6
CONTINUOUS
70
0
71
3
72
13
73
9
74
7
42
0.0000001000
43
0.0000001000
44
0.0000000001
12
0.2984726535
22
-0.2985472883
32
0.0000000000
13
0.3106368006
23
-0.2859621852
33
0.0000000000
40
0.0000000000
40
0.0000000000
40
0.0000000000
40
0.0000000000
40
0.2186969802
40
0.4366897417
40
0.6406151409
40
0.8169160623
40
0.9469090083
40
1.0000000000
40
1.0000000000
40
1.0000000000
40
1.0000000000
10
56.3018834705
20
18.4969981989
30
0.0000000000
10
56.3236418265
20
18.4752344021
30
0.0000000000
10
56.3671098465
20
18.4317981401
30
0.0000000000
10
56.4309633641
20
18.3681655812
30
0.0000000000
10
56.4906400605
20
18.3087916607
30
0.0000000000
10
56.5417524528
20
18.2583727509
30
0.0000000000
10
56.5776291728
20
18.2227218259
30
0.0000000000
10
56.5963861319
20
18.2050606720
30
0.0000000000
10
56.6018834705
20
18.2000000000
30
0.0000000000
11
56.3018834705
21
18.4969981989
31
0.0000000000
11
56.3671947842
21
18.4317430654
31
0.0000000000
11
56.4323747621
21
18.3667771927
31
0.0000000000
11
56.4934417435
21
18.3060972585
31
0.0000000000
11
56.5463560278
21
18.2537579466
31
0.0000000000
11
56.5855481476
21
18.2153456023
31
0.0000000000
11
56.6018834705
21
18.2000000000
31
0.0000000000
0
SPLINE
5
371
100
AcDbEntity
8
0
100
AcDbSpline
62
0
6
CONTINUOUS
70
0
71
3
72
13
73
9
74
7
42
0.0000001000
43
0.0000001000
44
0.0000000001
12
-0.2984726736
22
-0.2985473098
32
0.0000000000
13
-0.3106861439
23
-0.2859089715
33
0.0000000000
40
0.0000000000
40
0.0000000000
40
0.0000000000
40
0.0000000000
40
0.2173061668
40
0.4355644267
40
0.6405496812
40
0.8176579007
40
0.9474958249
40
1.0000000000
40
1.0000000000
40
1.0000000000
40
1.0000000000
10
64.3018834705
20
18.4969981989
30
0.0000000000
10
64.2802634863
20
18.4753728084
30
0.0000000000
10
64.2369076386
20
18.4320483121
30
0.0000000000
10
64.1730609910
20
18.3684219087
30
0.0000000000
10
64.1131723434
20
18.3088354805
30
0.0000000000
10
64.0618870394
20
18.2582488603
30
0.0000000000
10
64.0260051855
20
18.2225898757
30
0.0000000000
10
64.0073209104
20
18.2050038049
30
0.0000000000
10
64.0018834705
20
18.2000000000
30
0.0000000000
11
64.3018834705
21
18.4969981989
31
0.0000000000
11
64.2369877388
21
18.4321578173
31
0.0000000000
11
64.1717288730
21
18.3671123140
31
0.0000000000
11
64.1103448055
21
18.3061167040
31
0.0000000000
11
64.0571878590
21
18.2535380849
31
0.0000000000
11
64.0180409592
21
18.2151730925
31
0.0000000000
11
64.0018834705
21
18.2000000000
31
0.0000000000
0
SPLINE
5
372
100
AcDbEntity
8
0
100
AcDbSpline
62
0
6
CONTINUOUS
70
0
71
3
72
13
73
9
74
7
42
0.0000001000
43
0.0000001000
44
0.0000000001
12
-0.3023079076
22
0.3023627387
32
0.0000000000
13
-0.2836352485
23
0.3201236771
33
0.0000000000
40
0.0000000000
40
0.0000000000
40
0.0000000000
40
0.0000000000
40
0.2157240425
40
0.4335775015
40
0.6389384373
40
0.8167703816
40
0.9472475749
40
1.0000000000
40
1.0000000000
40
1.0000000000
40
1.0000000000
10
64.3018834705
20
15.7953772263
30
0.0000000000
10
64.2801451092
20
15.8171195304
30
0.0000000000
10
64.2364868488
20
15.8608520390
30
0.0000000000
10
64.1722818516
20
15.9254280790
30
0.0000000000
10
64.1119536271
20
15.9862469853
30
0.0000000000
10
64.0607257727
20
16.0385400757
30
0.0000000000
10
64.0245043415
20
16.0751096858
30
0.0000000000
10
64.0068709529
20
16.0943708999
30
0.0000000000
10
64.0018834705
20
16.1000000000
30
0.0000000000
11
64.3018834705
21
15.7953772263
31
0.0000000000
11
64.2367233886
21
15.8606590842
31
0.0000000000
11
64.1710394100
21
15.9267042028
31
0.0000000000
11
64.1092612430
21
15.9891002288
31
0.0000000000
11
64.0559425909
21
16.0433076605
31
0.0000000000
11
64.0170863835
21
16.0833384385
31
0.0000000000
11
64.0018834705
21
16.1000000000
31
0.0000000000
0
SPLINE
5
373
100
AcDbEntity
8
0
100
AcDbSpline
62
0
6
CONTINUOUS
70
0
71
3
72
13
73
9
74
7
42
0.0000001000
43
0.0000001000
44
0.0000000001
12
0.2984726535
22
0.2985472883
32
0.0000000000
13
0.3106368006
23
0.2859621852
33
0.0000000000
40
0.0000000000
40
0.0000000000
40
0.0000000000
40
0.0000000000
40
0.2186969802
40
0.4366897417
40
0.6406151409
40
0.8169160623
40
0.9469090083
40
1.0000000000
40
1.0000000000
40
1.0000000000
40
1.0000000000
10
56.3018834705
20
28.5030018011
30
0.0000000000
10
56.3236418265
20
28.5247655979
30
0.0000000000
10
56.3671098465
20
28.5682018599
30
0.0000000000
10
56.4309633641
20
28.6318344188
30
0.0000000000
10
56.4906400605
20
28.6912083393
30
0.0000000000
10
56.5417524528
20
28.7416272491
30
0.0000000000
10
56.5776291728
20
28.7772781741
30
0.0000000000
10
56.5963861319
20
28.7949393280
30
0.0000000000
10
56.6018834705
20
28.8000000000
30
0.0000000000
11
56.3018834705
21
28.5030018011
31
0.0000000000
11
56.3671947842
21
28.5682569346
31
0.0000000000
11
56.4323747621
21
28.6332228073
31
0.0000000000
11
56.4934417435
21
28.6939027415
31
0.0000000000
11
56.5463560278
21
28.7462420534
31
0.0000000000
11
56.5855481476
21
28.7846543977
31
0.0000000000
11
56.6018834705
21
28.8000000000
31
0.0000000000
0
SPLINE
5
374
100
AcDbEntity
8
0
100
AcDbSpline
62
0
6
CONTINUOUS
70
0
71
3
72
13
73
9
74
7
42
0.0000001000
43
0.0000001000
44
0.0000000001
12
0.3023078430
22
-0.3023626725
32
0.0000000000
13
0.2837502060
23
-0.3200206988
33
0.0000000000
40
0.0000000000
40
0.0000000000
40
0.0000000000
40
0.0000000000
40
0.2177385527
40
0.4352150569
40
0.6390373212
40
0.8156901730
40
0.9463907864
40
1.0000000000
40
1.0000000000
40
1.0000000000
40
1.0000000000
10
56.3018834705
20
31.2046227737
30
0.0000000000
10
56.3238248279
20
31.1826774368
30
0.0000000000
10
56.3676475987
20
31.1387794003
30
0.0000000000
10
56.4318617762
20
31.0741926150
30
0.0000000000
10
56.4918775861
20
31.0136852010
30
0.0000000000
10
56.5428598576
20
30.9616489576
30
0.0000000000
10
56.5790679237
20
30.9250864294
30
0.0000000000
10
56.5968129287
20
30.9057186860
30
0.0000000000
10
56.6018834705
20
30.9000000000
30
0.0000000000
11
56.3018834705
21
31.2046227737
31
0.0000000000
11
56.3676514987
21
31.1387307767
31
0.0000000000
11
56.4332207217
21
31.0727988694
31
0.0000000000
11
56.4945353610
21
31.0108697266
31
0.0000000000
11
56.5475012394
21
30.9570224699
31
0.0000000000
11
56.5864272745
21
30.9169263595
31
0.0000000000
11
56.6018834705
21
30.9000000000
31
0.0000000000
0
SPLINE
5
375
100
AcDbEntity
8
0
100
AcDbSpline
62
0
6
CONTINUOUS
70
0
71
3
72
10
73
6
74
4
42
0.0000001000
43
0.0000001000
44
0.0000000001
12
-4.0000360296
22
0.0287443504
32
0.0000000000
13
-3.9999639248
23
0.0374577367
33
0.0000000000
40
0.0000000000
40
0.0000000000
40
0.0000000000
40
0.0000000000
40
0.3303029973
40
0.6636439357
40
1.0000000000
40
1.0000000000
40
1.0000000000
40
1.0000000000
10
13.5000000000
20
46.1298666026
30
0.0000000000
10
13.0595920367
20
46.1330313843
30
0.0000000000
10
12.1747280889
20
46.1397571456
30
0.0000000000
10
10.8413947123
20
46.1508921323
30
0.0000000000
10
9.9484707077
20
46.1589669097
30
0.0000000000
10
9.5000000000
20
46.1631666220
30
0.0000000000
11
13.5000000000
21
46.1298666026
31
0.0000000000
11
12.1787800239
21
46.1398908175
31
0.0000000000
11
10.8454162086
21
46.1510115991
31
0.0000000000
11
9.5000000000
21
46.1631666220
31
0.0000000000
0
SPLINE
5
376
100
AcDbEntity
8
0
100
AcDbSpline
62
0
6
CONTINUOUS
70
0
71
3
72
10
73
6
74
4
42
0.0000001000
43
0.0000001000
44
0.0000000001
12
-4.0000360296
22
-0.0287443504
32
0.0000000000
13
-3.9999639248
23
-0.0374577367
33
0.0000000000
40
0.0000000000
40
0.0000000000
40
0.0000000000
40
0.0000000000
40
0.3303029973
40
0.6636439357
40
1.0000000000
40
1.0000000000
40
1.0000000000
40
1.0000000000
10
13.5000000000
20
0.8701333974
30
0.0000000000
10
13.0595920367
20
0.8669686157
30
0.0000000000
10
12.1747280889
20
0.8602428544
30
0.0000000000
10
10.8413947123
20
0.8491078677
30
0.0000000000
10
9.9484707077
20
0.8410330903
30
0.0000000000
10
9.5000000000
20
0.8368333780
30
0.0000000000
11
13.5000000000
21
0.8701333974
31
0.0000000000
11
12.1787800239
21
0.8601091825
31
0.0000000000
11
10.8454162086
21
0.8489884009
31
0.0000000000
11
9.5000000000
21
0.8368333780
31
0.0000000000
0
SPLINE
5
377
100
AcDbEntity
8
0
100
AcDbSpline
62
0
6
CONTINUOUS
70
0
71
3
72
10
73
6
74
4
42
0.0000001000
43
0.0000001000
44
0.0000000001
12
-3.9999099469
22
-0.0844306543
32
0.0000000000
13
-4.0000789581
23
-0.0760029928
33
0.0000000000
40
0.0000000000
40
0.0000000000
40
0.0000000000
40
0.0000000000
40
0.3303097417
40
0.6636505372
40
1.0000000000
40
1.0000000000
40
1.0000000000
40
1.0000000000
10
13.5000000000
20
0.4001095252
30
0.0000000000
10
13.0595969262
20
0.3908134360
30
0.0000000000
10
12.1747419051
20
0.3724925550
30
0.0000000000
10
10.8414075540
20
0.3458550948
30
0.0000000000
10
9.9484748029
20
0.3286126268
30
0.0000000000
10
9.5000000000
20
0.3200914382
30
0.0000000000
11
13.5000000000
21
0.4001095252
31
0.0000000000
11
12.1787800241
21
0.3727354952
31
0.0000000000
11
10.8454162085
21
0.3460829963
31
0.0000000000
11
9.5000000000
21
0.3200914382
31
0.0000000000
0
SPLINE
5
378
100
AcDbEntity
8
0
100
AcDbSpline
62
0
6
CONTINUOUS
70
0
71
3
72
8
73
4
74
2
42
0.0000001000
43
0.0000001000
44
0.0000000001
12
-0.0701749647
22
0.0744179049
32
0.0000000000
13
-0.0675696681
23
0.0768387684
33
0.0000000000
40
0.0000000000
40
0.0000000000
40
0.0000000000
40
0.0000000000
40
1.0000000000
40
1.0000000000
40
1.0000000000
40
1.0000000000
10
13.6965094983
20
44.5738952240
30
0.0000000000
10
13.6731178434
20
44.5987011923
30
0.0000000000
10
13.6497365636
20
44.6235192125
30
0.0000000000
10
13.6272133409
20
44.6491321353
30
0.0000000000
11
13.6965094983
21
44.5738952240
31
0.0000000000
11
13.6272133409
21
44.6491321353
31
0.0000000000
0
SPLINE
5
379
100
AcDbEntity
8
0
100
AcDbSpline
62
0
6
CONTINUOUS
70
0
71
3
72
10
73
6
74
4
42
0.0000001000
43
0.0000001000
44
0.0000000001
12
-0.1626051342
22
0.1849110509
32
0.0000000000
13
-0.0460558790
23
0.2418037871
33
0.0000000000
40
0.0000000000
40
0.0000000000
40
0.0000000000
40
0.0000000000
40
0.3779204599
40
0.7111927404
40
1.0000000000
40
1.0000000000
40
1.0000000000
40
1.0000000000
10
13.6272133409
20
44.6491321353
30
0.0000000000
10
13.6067294052
20
44.6724260251
30
0.0000000000
10
13.5695171181
20
44.7174991001
30
0.0000000000
10
13.5257278331
20
44.7872436199
30
0.0000000000
10
13.5079660423
20
44.8358388110
30
0.0000000000
10
13.5035322849
20
44.8591170407
30
0.0000000000
11
13.6272133409
21
44.6491321353
31
0.0000000000
11
13.5688948785
21
44.7216075535
31
0.0000000000
11
13.5265012621
21
44.7918397508
31
0.0000000000
11
13.5035322849
21
44.8591170407
31
0.0000000000
0
SPLINE
5
37A
100
AcDbEntity
8
0
100
AcDbSpline
62
0
6
CONTINUOUS
70
0
71
3
72
8
73
4
74
2
42
0.0000001000
43
0.0000001000
44
0.0000000001
12
0.0069155868
22
0.0363074904
32
0.0000000000
13
0.0123405447
23
0.0349534431
33
0.0000000000
40
0.0000000000
40
0.0000000000
40
0.0000000000
40
0.0000000000
40
1.0000000000
40
1.0000000000
40
1.0000000000
40
1.0000000000
10
13.5035322849
20
2.1408829593
30
0.0000000000
10
13.5058374805
20
2.1529854561
30
0.0000000000
10
13.5091770457
20
2.1648993275
30
0.0000000000
10
13.5132905606
20
2.1765504752
30
0.0000000000
11
13.5035322849
21
2.1408829593
31
0.0000000000
11
13.5132905606
21
2.1765504752
31
0.0000000000
0
SPLINE
5
37B
100
AcDbEntity
8
0
100
AcDbSpline
62
0
6
CONTINUOUS
70
0
71
3
72
12
73
8
74
6
42
0.0000001000
43
0.0000001000
44
0.0000000001
12
0.0946653120
22
0.2681306792
32
0.0000000000
13
0.1939366703
23
0.2068272440
33
0.0000000000
40
0.0000000000
40
0.0000000000
40
0.0000000000
40
0.0000000000
40
0.0684153632
40
0.2907039132
40
0.5380433871
40
0.8086508042
40
1.0000000000
40
1.0000000000
40
1.0000000000
40
1.0000000000
10
13.5132905606
20
2.1765504752
30
0.0000000000
10
13.5154494145
20
2.1826652278
30
0.0000000000
10
13.5255284027
20
2.2083399607
30
0.0000000000
10
13.5500484455
20
2.2530834484
30
0.0000000000
10
13.5913271911
20
2.3097318950
30
0.0000000000
10
13.6352048303
20
2.3604607508
30
0.0000000000
10
13.6648947636
20
2.3924715221
30
0.0000000000
10
13.6772646389
20
2.4056635977
30
0.0000000000
11
13.5132905606
21
2.1765504752
31
0.0000000000
11
13.5203689979
21
2.1946669314
31
0.0000000000
11
13.5499791390
21
2.2503024308
31
0.0000000000
11
13.5907497490
21
2.3073597861
31
0.0000000000
11
13.6404897005
21
2.3657764208
31
0.0000000000
11
13.6772646389
21
2.4056635977
31
0.0000000000
0
SPLINE
5
37C
100
AcDbEntity
8
0
100
AcDbSpline
62
0
6
CONTINUOUS
70
0
71
3
72
8
73
4
74
2
42
0.0000001000
43
0.0000001000
44
0.0000000001
12
0.0192036510
22
0.0204800787
32
0.0000000000
13
0.0192696231
23
0.0204174096
33
0.0000000000
40
0.0000000000
40
0.0000000000
40
0.0000000000
40
0.0000000000
40
1.0000000000
40
1.0000000000
40
1.0000000000
40
1.0000000000
10
13.6772646389
20
2.4056635977
30
0.0000000000
10
13.6836658559
20
2.4124902906
30
0.0000000000
10
13.6900863190
20
2.4192989733
30
0.0000000000
10
13.6965095267
20
2.4261047765
30
0.0000000000
11
13.6772646389
21
2.4056635977
31
0.0000000000
11
13.6965095267
21
2.4261047765
31
0.0000000000
0
SPLINE
5
37D
100
AcDbEntity
8
0
100
AcDbSpline
62
0
6
CONTINUOUS
70
0
71
3
72
10
73
6
74
4
42
0.0000001000
43
0.0000001000
44
0.0000000001
12
-3.9999099469
22
0.0844306543
32
0.0000000000
13
-4.0000789581
23
0.0760029928
33
0.0000000000
40
0.0000000000
40
0.0000000000
40
0.0000000000
40
0.0000000000
40
0.3303097417
40
0.6636505372
40
1.0000000000
40
1.0000000000
40
1.0000000000
40
1.0000000000
10
13.5000000000
20
46.5998904748
30
0.0000000000
10
13.0595969262
20
46.6091865640
30
0.0000000000
10
12.1747419051
20
46.6275074450
30
0.0000000000
10
10.8414075540
20
46.6541449052
30
0.0000000000
10
9.9484748029
20
46.6713873732
30
0.0000000000
10
9.5000000000
20
46.6799085618
30
0.0000000000
11
13.5000000000
21
46.5998904748
31
0.0000000000
11
12.1787800241
21
46.6272645048
31
0.0000000000
11
10.8454162085
21
46.6539170037
31
0.0000000000
11
9.5000000000
21
46.6799085618
31
0.0000000000
0
ENDSEC
0
SECTION
2
OBJECTS
0
DICTIONARY
5
C
100
AcDbDictionary
280
0
281
1
3
ACAD_GROUP
350
D
3
ACAD_MLINESTYLE
350
17
3
ACAD_LAYOUT
350
1A
3
ACAD_PLOTSETTINGS
350
19
3
ACAD_PLOTSTYLENAME
350
E
0
DICTIONARY
5
D
102
{ACAD_REACTORS
330
C
102
}
100
AcDbDictionary
280
0
281
1
0
ACDBDICTIONARYWDFLT
5
E
102
{ACAD_REACTORS
330
C
102
}
100
AcDbDictionary
281
1
3
Normal
350
F
100
AcDbDictionaryWithDefault
340
F
0
DICTIONARY
5
17
102
{ACAD_REACTORS
330
C
102
}
100
AcDbDictionary
280
0
281
1
3
Standard
350
18
0
DICTIONARY
5
19
102
{ACAD_REACTORS
330
C
102
}
100
AcDbDictionary
281
1
0
DICTIONARY
5
1A
102
{ACAD_REACTORS
330
C
102
}
100
AcDbDictionary
281
1
3
Layout1
350
1E
3
Model
350
22
0
ACDBPLACEHOLDER
5
F
102
{ACAD_REACTORS
330
E
102
}
0
MLINESTYLE
5
18
102
{ACAD_REACTORS
330
17
102
}
100
AcDbMlineStyle
2
STANDARD
70
0
3

62
256
51
90.0
52
90.0
71
2
49
0.5
62
256
6
BYLAYER
49
-0.5
62
256
6
BYLAYER
0
LAYOUT
5
1E
102
{ACAD_REACTORS
330
1A
102
}
100
AcDbPlotSettings
1

2

4

6

40
0.0
41
0.0
42
0.0
43
0.0
44
0.0
45
0.0
46
0.0
47
0.0
48
0.0
49
0.0
140
0.0
141
0.0
142
1.0
143
1.0
70
0
72
0
73
0
74
0
7

75
0
147
1.0
148
0.0
149
0.0
100
AcDbLayout
1
Layout1
70
0
71
0
10
0.0
20
0.0
11
0.0
21
0.0
12
0.0
22
0.0
32
0.0
14
0.0
24
0.0
34
0.0
15
0.0
25
0.0
35
0.0
146
0.0
13
0.0
23
0.0
33
0.0
16
0.0
26
0.0
36
0.0
17
0.0
27
0.0
37
0.0
76
0
330
1B
331
0
345
0
346
0
0
LAYOUT
5
22
102
{ACAD_REACTORS
330
1A
102
}
100
AcDbPlotSettings
1

2

4

6

40
0.0
41
0.0
42
0.0
43
0.0
44
0.0
45
0.0
46
0.0
47
0.0
48
0.0
49
0.0
140
0.0
141
0.0
142
1.0
143
1.0
70
0
72
0
73
0
74
0
7

75
0
147
1.0
148
0.0
149
0.0
100
AcDbLayout
1
Model
70
0
71
0
10
0.0
20
0.0
11
0.0
21
0.0
12
0.0
22
0.0
32
0.0
14
0.0
24
0.0
34
0.0
15
0.0
25
0.0
35
0.0
146
0.0
13
0.0
23
0.0
33
0.0
16
0.0
26
0.0
36
0.0
17
0.0
27
0.0
37
0.0
76
0
330
1F
331
0
345
0
346
0
0
ENDSEC
0
EOF
