0
SECTION
2
HEADER
9
$ACADVER
1
AC1015
9
$DWGCODEPAGE
3
ANSI_1252
9
$EXTMAX
10
297.0000000000
20
210.0000000000
30
0.0000000000
9
$EXTMIN
10
0.0000000000
20
0.0000000000
30
0.0000000000
9
$LIMMIN
10
0.0000000000
20
0.0000000000
9
$LIMMAX
10
297.0000000000
20
210.0000000000
9
$VIEWCTR
10
148.5000000000
20
105.0000000000
9
$VIEWSIZE
40
210.0000000000
9
$CLAYER
8
0
9
$LTSCALE
40
16.3350000000
9
$CELTYPE
6
BYLAYER
9
$DIMSCALE
40
1
9
$DIMASZ
40
3.0000000000
9
$DIMEXO
40
1.8562500000
9
$DIMDLI
40
11.2860000000
9
$DIMEXE
40
5.3460000000
9
$DIMCEN
40
2.6730000000
9
$DIMLFAC
40
1.0000000000
9
$DIMBLK
1
_FILLED
9
$DIMTXT
40
3.0000000000
9
$DIMTOL
70
1
9
$DIMLIM
70
0
9
$DIMTFAC
40
1.0000000000
9
$DIMTP
40
0.0100000000
9
$DIMTM
40
0.0100000000
9
$PDMODE
70
3
9
$PDSIZE
40
3.0000000000
9
$HANDSEED
5
3B4
9
$MEASUREMENT
70
1
9
$INSUNITS
70
4
0
ENDSEC
0
SECTION
2
CLASSES
0
CLASS
1
ACDBDICTIONARYWDFLT
2
AcDbDictionaryWithDefault
3
AutoCAD 2000
90
0
280
0
281
0
0
CLASS
1
ACDBPLACEHOLDER
2
AcDbPlaceHolder
3
AutoCAD 2000
90
0
280
0
281
0
0
CLASS
1
LAYOUT
2
AcDbLayout
3
AutoCAD 2000
90
0
280
0
281
0
0
ENDSEC
0
SECTION
2
TABLES
0
TABLE
2
VPORT
5
8
100
AcDbSymbolTable
70
2
0
VPORT
5
1F4
100
AcDbSymbolTableRecord
100
AcDbViewportTableRecord
2
*ACTIVE
70
0
10
0.0
20
0.0
11
1.0
21
1.0
12
148.5000000000
22
105.0000000000
13
0.0
23
0.0
14
1.0
24
1.0
15
0.0
25
0.0
16
0.0
26
0.0
36
1.0
17
0.0
27
0.0
37
0.0
40
210.0000000000
41
1.4142857143
42
50.0
43
0.0
44
0.0
50
0.0
51
0.0
71
0
72
100
73
1
74
1
75
0
76
0
77
0
78
0
0
ENDTAB
0
TABLE
2
LTYPE
5
5
100
AcDbSymbolTable
70
6
0
LTYPE
5
14
100
AcDbSymbolTableRecord
100
AcDbLinetypeTableRecord
2
BYBLOCK
70
0
3

72
65
73
0
40
0.0
0
LTYPE
5
15
100
AcDbSymbolTableRecord
100
AcDbLinetypeTableRecord
2
BYLAYER
70
0
3

72
65
73
0
40
0.0
0
LTYPE
5
16
100
AcDbSymbolTableRecord
100
AcDbLinetypeTableRecord
2
CONTINUOUS
70
64
3
Solid line
72
65
73
0
40
0
0
LTYPE
5
1F5
100
AcDbSymbolTableRecord
100
AcDbLinetypeTableRecord
2
CENTER
70
64
3
____ _ ____ _ ____ _ ____ _ ____ _ ____ _ ____
72
65
73
4
40
0.6
49
0.375
74
0
49
-0.075
74
0
49
0.075
74
0
49
-0.075
74
0
0
LTYPE
5
1F6
100
AcDbSymbolTableRecord
100
AcDbLinetypeTableRecord
2
HIDDEN
70
64
3
- - - - - - - - - - - - - - - - - - - -
72
65
73
2
40
0.2
49
0.1
74
0
49
-0.1
74
0
0
LTYPE
5
1F7
100
AcDbSymbolTableRecord
100
AcDbLinetypeTableRecord
2
PHANTOM
70
64
3
_____ _ _ _____ _ _ _____ _ _ _____
72
65
73
6
40
0.8
49
0.45
74
0
49
-0.05
74
0
49
0.1
74
0
49
-0.05
74
0
49
0.1
74
0
49
-0.05
74
0
0
LTYPE
5
1F8
100
AcDbSymbolTableRecord
100
AcDbLinetypeTableRecord
2
DOT
70
64
3
. . . . . . . . . . . . . . . . . . . .
72
65
73
2
40
0.2
49
0.1
74
0
49
-0.1
74
0
0
LTYPE
5
1F9
100
AcDbSymbolTableRecord
100
AcDbLinetypeTableRecord
2
DASHED
70
64
3
- - - - - - - - - - - - - - - - - - - -
72
65
73
2
40
0.2
49
0.1
74
0
49
-0.1
74
0
0
ENDTAB
0
TABLE
2
LAYER
5
2
100
AcDbSymbolTable
70
36
0
LAYER
5
10
100
AcDbSymbolTableRecord
100
AcDbLayerTableRecord
2
0
70
0
62
7
6
CONTINUOUS
370
-3
390
F
0
LAYER
5
1FA
100
AcDbSymbolTableRecord
100
AcDbLayerTableRecord
2
DEFAULT_1
70
0
62
7
6
CENTER
370
-3
390
F
0
LAYER
5
1FB
100
AcDbSymbolTableRecord
100
AcDbLayerTableRecord
2
DEFAULT_2
70
0
62
9
6
HIDDEN
370
-3
390
F
0
LAYER
5
1FC
100
AcDbSymbolTableRecord
100
AcDbLayerTableRecord
2
DEFAULT_3
70
0
62
7
6
PHANTOM
370
-3
390
F
0
LAYER
5
1FD
100
AcDbSymbolTableRecord
100
AcDbLayerTableRecord
2
_2D_DELETED_OBJS
70
0
62
7
6
CONTINUOUS
370
-3
390
F
0
LAYER
5
1FE
100
AcDbSymbolTableRecord
100
AcDbLayerTableRecord
2
0
70
0
62
7
6
CONTINUOUS
370
-3
390
F
0
LAYER
5
1FF
100
AcDbSymbolTableRecord
100
AcDbLayerTableRecord
2
ASSI
70
0
62
7
6
CONTINUOUS
370
-3
390
F
0
LAYER
5
200
100
AcDbSymbolTableRecord
100
AcDbLayerTableRecord
2
COORDINATE
70
0
62
7
6
CONTINUOUS
370
-3
390
F
0
LAYER
5
201
100
AcDbSymbolTableRecord
100
AcDbLayerTableRecord
2
COORD_ORIGINE
70
0
62
7
6
CONTINUOUS
370
-3
390
F
0
LAYER
5
202
100
AcDbSymbolTableRecord
100
AcDbLayerTableRecord
2
COSMETICHE
70
0
62
7
6
CONTINUOUS
370
-3
390
F
0
LAYER
5
203
100
AcDbSymbolTableRecord
100
AcDbLayerTableRecord
2
COSMETICI
70
0
62
7
6
CONTINUOUS
370
-3
390
F
0
LAYER
5
204
100
AcDbSymbolTableRecord
100
AcDbLayerTableRecord
2
CURVE
70
0
62
7
6
CONTINUOUS
370
-3
390
F
0
LAYER
5
205
100
AcDbSymbolTableRecord
100
AcDbLayerTableRecord
2
DEFAULT_1
70
0
62
7
6
CONTINUOUS
370
-3
390
F
0
LAYER
5
206
100
AcDbSymbolTableRecord
100
AcDbLayerTableRecord
2
DEFAULT_2
70
0
62
7
6
CONTINUOUS
370
-3
390
F
0
LAYER
5
207
100
AcDbSymbolTableRecord
100
AcDbLayerTableRecord
2
DEFAULT_3
70
0
62
7
6
CONTINUOUS
370
-3
390
F
0
LAYER
5
208
100
AcDbSymbolTableRecord
100
AcDbLayerTableRecord
2
DRAFT
70
0
62
7
6
CONTINUOUS
370
-3
390
F
0
LAYER
5
209
100
AcDbSymbolTableRecord
100
AcDbLayerTableRecord
2
INTF_1
70
0
62
7
6
CONTINUOUS
370
-3
390
F
0
LAYER
5
20A
100
AcDbSymbolTableRecord
100
AcDbLayerTableRecord
2
INTF_2
70
0
62
7
6
CONTINUOUS
370
-3
390
F
0
LAYER
5
20B
100
AcDbSymbolTableRecord
100
AcDbLayerTableRecord
2
NOTE
70
0
62
7
6
CONTINUOUS
370
-3
390
F
0
LAYER
5
20C
100
AcDbSymbolTableRecord
100
AcDbLayerTableRecord
2
PIANI
70
0
62
7
6
CONTINUOUS
370
-3
390
F
0
LAYER
5
20D
100
AcDbSymbolTableRecord
100
AcDbLayerTableRecord
2
PIANI_ORIGINE
70
0
62
7
6
CONTINUOUS
370
-3
390
F
0
LAYER
5
20E
100
AcDbSymbolTableRecord
100
AcDbLayerTableRecord
2
PUNTI
70
0
62
7
6
CONTINUOUS
370
-3
390
F
0
LAYER
5
20F
100
AcDbSymbolTableRecord
100
AcDbLayerTableRecord
2
RACCORDO
70
0
62
7
6
CONTINUOUS
370
-3
390
F
0
LAYER
5
210
100
AcDbSymbolTableRecord
100
AcDbLayerTableRecord
2
RGB__255__255__255__
70
0
62
7
6
CONTINUOUS
370
-3
390
F
0
LAYER
5
211
100
AcDbSymbolTableRecord
100
AcDbLayerTableRecord
2
RGB____0____0____0__
70
0
62
7
6
CONTINUOUS
370
-3
390
F
0
LAYER
5
212
100
AcDbSymbolTableRecord
100
AcDbLayerTableRecord
2
SMUSSO
70
0
62
7
6
CONTINUOUS
370
-3
390
F
0
LAYER
5
213
100
AcDbSymbolTableRecord
100
AcDbLayerTableRecord
2
SNAPLINE
70
0
62
7
6
CONTINUOUS
370
-3
390
F
0
LAYER
5
214
100
AcDbSymbolTableRecord
100
AcDbLayerTableRecord
2
SUPERFICI
70
0
62
7
6
CONTINUOUS
370
-3
390
F
0
LAYER
5
215
100
AcDbSymbolTableRecord
100
AcDbLayerTableRecord
2
TRASH
70
0
62
7
6
CONTINUOUS
370
-3
390
F
0
LAYER
5
216
100
AcDbSymbolTableRecord
100
AcDbLayerTableRecord
2
XSEC_DATUMS
70
0
62
7
6
CONTINUOUS
370
-3
390
F
0
LAYER
5
217
100
AcDbSymbolTableRecord
100
AcDbLayerTableRecord
2
_BLACK_HOLE
70
0
62
7
6
CONTINUOUS
370
-3
390
F
0
ENDTAB
0
TABLE
2
STYLE
5
3
100
AcDbSymbolTable
70
1
0
STYLE
5
11
100
AcDbSymbolTableRecord
100
AcDbTextStyleTableRecord
2
STANDARD
70
0
40
0.0
41
0.8000000000
50
0.0
71
0
42
0.2
3
txt
4

0
STYLE
5
218
100
AcDbSymbolTableRecord
100
AcDbTextStyleTableRecord
2
TEXTSTYLE_1
70
0
40
0.0
41
0.8000000000
50
0.0
71
0
42
0.2
3
txt
4

0
ENDTAB
0
TABLE
2
VIEW
5
6
100
AcDbSymbolTable
70
0
0
ENDTAB
0
TABLE
2
UCS
5
7
100
AcDbSymbolTable
70
0
0
ENDTAB
0
TABLE
2
APPID
5
9
100
AcDbSymbolTable
70
1
0
APPID
5
219
100
AcDbSymbolTableRecord
100
AcDbRegAppTableRecord
2
ACAD
70
0
0
ENDTAB
0
TABLE
2
BLOCK_RECORD
5
1
100
AcDbSymbolTable
70
0
0
BLOCK_RECORD
5
1F
100
AcDbSymbolTableRecord
100
AcDbBlockTableRecord
2
*MODEL_SPACE
0
BLOCK_RECORD
5
1B
100
AcDbSymbolTableRecord
100
AcDbBlockTableRecord
2
*PAPER_SPACE
0
ENDTAB
0
TABLE
2
DIMSTYLE
5
A
100
AcDbSymbolTable
70
1
100
AcDbDimStyleTable
71
0
0
DIMSTYLE
105
21A
100
AcDbSymbolTableRecord
100
AcDbDimStyleTableRecord
2
STANDARD
70
0
3

4

40
1.0
41
3.0000000000
42
0.0625
43
0.38
44
0.18
45
0.0
46
0.0
47
0.0100000000
48
0.0100000000
140
3.0000000000
141
0.09
142
0.0
143
25.4
144
1.0000000000
145
0.0
146
1.0000000000
147
0.09
71
1
72
0
73
0
74
0
75
0
76
0
77
1
78
8
170
0
171
2
172
0
173
0
174
0
175
0
176
0
177
0
178
0
270
2
271
2
272
2
273
2
274
2
275
0
280
0
281
0
282
0
283
1
284
8
285
0
286
0
287
3
288
0
340
11
0
ENDTAB
0
ENDSEC
0
SECTION
2
BLOCKS
0
BLOCK
5
20
100
AcDbEntity
8
0
100
AcDbBlockBegin
2
*MODEL_SPACE
70
0
10
0.0
20
0.0
30
0.0
3
*MODEL_SPACE
1

0
ENDBLK
5
21
100
AcDbEntity
8
0
100
AcDbBlockEnd
0
BLOCK
5
1C
100
AcDbEntity
8
0
100
AcDbBlockBegin
2
*PAPER_SPACE
70
0
10
0.0
20
0.0
30
0.0
3
*PAPER_SPACE
1

0
ENDBLK
5
1D
100
AcDbEntity
8
0
100
AcDbBlockEnd
0
ENDSEC
0
SECTION
2
ENTITIES
0
TEXT
5
21B
100
AcDbEntity
8
0
100
AcDbText
62
0
6
CONTINUOUS
10
73.8162642412
20
21.1428571429
7
TEXTSTYLE_1
40
3.0000000000
1
47
50
90.0000000000
41
0.7857142857
72
0
100
AcDbText
0
TEXT
5
21C
100
AcDbEntity
8
0
100
AcDbText
62
0
6
CONTINUOUS
10
51.1305499555
20
55.7500000000
7
TEXTSTYLE_1
40
3.0000000000
1
22,3
41
0.7142857143
72
0
100
AcDbText
0
TEXT
5
21D
100
AcDbEntity
8
0
100
AcDbText
62
0
6
CONTINUOUS
10
20.6428571429
20
55.7500000000
7
TEXTSTYLE_1
40
3.0000000000
1
27
41
0.7857142857
72
0
100
AcDbText
0
TEXT
5
21E
100
AcDbEntity
8
0
100
AcDbText
62
0
6
CONTINUOUS
10
14.0714285714
20
65.7500000000
7
TEXTSTYLE_1
40
3.0000000000
1
36,5
41
0.6964285714
72
0
100
AcDbText
0
LINE
5
21F
100
AcDbEntity
8
0
100
AcDbLine
62
0
6
CONTINUOUS
10
0.0000000000
20
24.0000000000
11
0.0000000000
21
66.5000000000
0
LINE
5
220
100
AcDbEntity
8
0
100
AcDbLine
62
0
6
CONTINUOUS
10
3.0000000000
20
64.0499999999
11
3.0000000000
21
65.9500000001
0
LINE
5
221
100
AcDbEntity
8
0
100
AcDbLine
62
0
6
CONTINUOUS
10
0.0000000000
20
65.0000000000
11
3.0000000000
21
64.0499999999
0
LINE
5
222
100
AcDbEntity
8
0
100
AcDbLine
62
0
6
CONTINUOUS
10
3.0000000000
20
65.9500000001
11
0.0000000000
21
65.0000000000
0
HATCH
5
223
100
AcDbEntity
8
0
100
AcDbHatch
62
0
6
CONTINUOUS
10
0.0
20
0.0
30
0.0
210
0.0
220
0.0
230
1.0
2

70
1
71
1
91
1
92
1
93
3
72
1
10
3.0000000000
20
65.9500000001
11
0.0000000000
21
65.0000000000
72
1
10
0.0000000000
20
65.0000000000
11
3.0000000000
21
64.0499999999
72
1
10
3.0000000000
20
64.0499999999
11
3.0000000000
21
65.9500000001
97
3
330
220
330
221
330
222
75
0
76
1
98
1
10
0.0
20
0.0
0
LINE
5
224
100
AcDbEntity
8
0
100
AcDbLine
62
0
6
CONTINUOUS
10
9.5000000000
20
0.7929294266
11
9.5000000000
21
-0.0000000000
0
LINE
5
225
100
AcDbEntity
8
0
100
AcDbLine
62
0
6
CONTINUOUS
10
9.5000000000
20
0.8368333780
11
9.5000000000
21
47.0000000000
0
LINE
5
226
100
AcDbEntity
8
0
100
AcDbLine
62
0
6
CONTINUOUS
10
9.5000000000
20
47.0000000000
11
9.5000000000
21
56.5000000000
0
LINE
5
227
100
AcDbEntity
8
0
100
AcDbLine
62
0
6
CONTINUOUS
10
12.5000000000
20
54.0499999999
11
12.5000000000
21
55.9500000001
0
LINE
5
228
100
AcDbEntity
8
0
100
AcDbLine
62
0
6
CONTINUOUS
10
9.5000000000
20
55.0000000000
11
12.5000000000
21
54.0499999999
0
LINE
5
229
100
AcDbEntity
8
0
100
AcDbLine
62
0
6
CONTINUOUS
10
12.5000000000
20
55.9500000001
11
9.5000000000
21
55.0000000000
0
HATCH
5
22A
100
AcDbEntity
8
0
100
AcDbHatch
62
0
6
CONTINUOUS
10
0.0
20
0.0
30
0.0
210
0.0
220
0.0
230
1.0
2

70
1
71
1
91
1
92
1
93
3
72
1
10
12.5000000000
20
55.9500000001
11
9.5000000000
21
55.0000000000
72
1
10
9.5000000000
20
55.0000000000
11
12.5000000000
21
54.0499999999
72
1
10
12.5000000000
20
54.0499999999
11
12.5000000000
21
55.9500000001
97
3
330
227
330
228
330
229
75
0
76
1
98
1
10
0.0
20
0.0
0
LINE
5
22B
100
AcDbEntity
8
0
100
AcDbLine
62
0
6
CONTINUOUS
10
13.5000000000
20
2.1034605474
11
13.5000000000
21
0.0698202597
0
LINE
5
22C
100
AcDbEntity
8
0
100
AcDbLine
62
0
6
CONTINUOUS
10
13.5000000000
20
44.8965394526
11
13.5000000000
21
46.9301797403
0
LINE
5
22D
100
AcDbEntity
8
0
100
AcDbLine
62
0
6
CONTINUOUS
10
15.1000000000
20
45.7000000000
11
15.1000000000
21
44.6720718961
0
LINE
5
22E
100
AcDbEntity
8
0
100
AcDbLine
62
0
6
CONTINUOUS
10
15.1000000000
20
1.3000000000
11
15.1000000000
21
2.3279281039
0
LINE
5
22F
100
AcDbEntity
8
0
100
AcDbLine
62
0
6
CONTINUOUS
10
17.1439294983
20
45.1560705017
11
19.3535533906
21
42.9464466094
0
LINE
5
230
100
AcDbEntity
8
0
100
AcDbLine
62
0
6
CONTINUOUS
10
52.1162642412
20
1.1000000000
11
52.1828970388
21
1.0000000000
0
LINE
5
231
100
AcDbEntity
8
0
100
AcDbLine
62
9
6
CONTINUOUS
10
19.0087262032
20
4.0583061334
11
19.0087262032
21
6.1948402392
0
LINE
5
232
100
AcDbEntity
8
0
100
AcDbLine
62
9
6
CONTINUOUS
10
19.0087262032
20
40.8051597608
11
19.0087262032
21
42.9417173837
0
LINE
5
233
100
AcDbEntity
8
0
100
AcDbLine
62
0
6
CONTINUOUS
10
19.5000000000
20
4.4071067812
11
19.5000000000
21
7.1086513684
0
LINE
5
234
100
AcDbEntity
8
0
100
AcDbLine
62
0
6
CONTINUOUS
10
19.5000000000
20
39.8913486316
11
19.5000000000
21
42.5928932188
0
LINE
5
235
100
AcDbEntity
8
0
100
AcDbLine
62
0
6
CONTINUOUS
10
33.5000000000
20
65.9500000001
11
33.5000000000
21
64.0499999999
0
LINE
5
236
100
AcDbEntity
8
0
100
AcDbLine
62
0
6
CONTINUOUS
10
36.5000000000
20
65.0000000000
11
33.5000000000
21
65.9500000001
0
LINE
5
237
100
AcDbEntity
8
0
100
AcDbLine
62
0
6
CONTINUOUS
10
33.5000000000
20
64.0499999999
11
36.5000000000
21
65.0000000000
0
HATCH
5
238
100
AcDbEntity
8
0
100
AcDbHatch
62
0
6
CONTINUOUS
10
0.0
20
0.0
30
0.0
210
0.0
220
0.0
230
1.0
2

70
1
71
1
91
1
92
1
93
3
72
1
10
33.5000000000
20
64.0499999999
11
36.5000000000
21
65.0000000000
72
1
10
36.5000000000
20
65.0000000000
11
33.5000000000
21
65.9500000001
72
1
10
33.5000000000
20
65.9500000001
11
33.5000000000
21
64.0499999999
97
3
330
235
330
236
330
237
75
0
76
1
98
1
10
0.0
20
0.0
0
LINE
5
239
100
AcDbEntity
8
0
100
AcDbLine
62
0
6
CONTINUOUS
10
33.5000000000
20
55.9500000001
11
33.5000000000
21
54.0499999999
0
LINE
5
23A
100
AcDbEntity
8
0
100
AcDbLine
62
0
6
CONTINUOUS
10
36.5000000000
20
55.0000000000
11
33.5000000000
21
55.9500000001
0
LINE
5
23B
100
AcDbEntity
8
0
100
AcDbLine
62
0
6
CONTINUOUS
10
33.5000000000
20
54.0499999999
11
36.5000000000
21
55.0000000000
0
HATCH
5
23C
100
AcDbEntity
8
0
100
AcDbHatch
62
0
6
CONTINUOUS
10
0.0
20
0.0
30
0.0
210
0.0
220
0.0
230
1.0
2

70
1
71
1
91
1
92
1
93
3
72
1
10
33.5000000000
20
54.0499999999
11
36.5000000000
21
55.0000000000
72
1
10
36.5000000000
20
55.0000000000
11
33.5000000000
21
55.9500000001
72
1
10
33.5000000000
20
55.9500000001
11
33.5000000000
21
54.0499999999
97
3
330
239
330
23A
330
23B
75
0
76
1
98
1
10
0.0
20
0.0
0
LINE
5
23D
100
AcDbEntity
8
0
100
AcDbLine
62
9
6
CONTINUOUS
10
34.0087262032
20
8.3531746055
11
34.0087262032
21
38.6468253945
0
LINE
5
23E
100
AcDbEntity
8
0
100
AcDbLine
62
9
6
CONTINUOUS
10
34.3656945500
20
34.2000000000
11
34.3656945500
21
32.1000000000
0
LINE
5
23F
100
AcDbEntity
8
0
100
AcDbLine
62
0
6
CONTINUOUS
10
34.5000000000
20
8.3531746055
11
34.5000000000
21
30.5093271998
0
LINE
5
240
100
AcDbEntity
8
0
100
AcDbLine
62
0
6
CONTINUOUS
10
34.5000000000
20
35.7906728002
11
34.5000000000
21
38.6468253945
0
LINE
5
241
100
AcDbEntity
8
0
100
AcDbLine
62
9
6
CONTINUOUS
10
34.5015051787
20
34.2000000000
11
34.5015051787
21
32.1000000000
0
LINE
5
242
100
AcDbEntity
8
0
100
AcDbLine
62
0
6
CONTINUOUS
10
34.6500000000
20
28.4128570000
11
34.6500000000
21
27.4138340000
0
LINE
5
243
100
AcDbEntity
8
0
100
AcDbLine
62
0
6
CONTINUOUS
10
34.6500000000
20
27.3655030000
11
34.6500000000
21
26.7854247048
0
LINE
5
244
100
AcDbEntity
8
0
100
AcDbLine
62
0
6
CONTINUOUS
10
34.6500000000
20
26.7432111455
11
34.6500000000
21
25.5003740428
0
LINE
5
245
100
AcDbEntity
8
0
100
AcDbLine
62
0
6
CONTINUOUS
10
34.6500000000
20
25.4389564375
11
34.6500000000
21
22.1928831665
0
LINE
5
246
100
AcDbEntity
8
0
100
AcDbLine
62
0
6
CONTINUOUS
10
34.6500000000
20
22.1694965193
11
34.6500000000
21
21.4643548464
0
LINE
5
247
100
AcDbEntity
8
0
100
AcDbLine
62
0
6
CONTINUOUS
10
34.6500000000
20
21.4639236507
11
34.6500000000
21
19.5234403957
0
LINE
5
248
100
AcDbEntity
8
0
100
AcDbLine
62
0
6
CONTINUOUS
10
34.6500000000
20
19.0732450000
11
34.6500000000
21
18.5459010000
0
LINE
5
249
100
AcDbEntity
8
0
100
AcDbLine
62
9
6
CONTINUOUS
10
34.6895328088
20
30.6173955492
11
34.6895331734
21
29.3599371547
0
LINE
5
24A
100
AcDbEntity
8
0
100
AcDbLine
62
9
6
CONTINUOUS
10
34.6895328093
20
17.6400670064
11
34.6895328352
21
17.3694619978
0
LINE
5
24B
100
AcDbEntity
8
0
100
AcDbLine
62
9
6
CONTINUOUS
10
34.6895329436
20
36.9400669803
11
34.6895328088
21
35.6826044508
0
LINE
5
24C
100
AcDbEntity
8
0
100
AcDbLine
62
9
6
CONTINUOUS
10
34.6895328315
20
11.2120000065
11
34.6895328215
21
11.1824690000
0
LINE
5
24D
100
AcDbEntity
8
0
100
AcDbLine
62
0
6
CONTINUOUS
10
34.7000000000
20
28.4000000000
11
34.7000000000
21
26.5994590000
0
LINE
5
24E
100
AcDbEntity
8
0
100
AcDbLine
62
0
6
CONTINUOUS
10
34.7000000000
20
17.3694620000
11
34.7000000000
21
15.7288370000
0
LINE
5
24F
100
AcDbEntity
8
0
100
AcDbLine
62
0
6
CONTINUOUS
10
34.7000000000
20
15.6763214046
11
34.7000000000
21
13.4688000000
0
LINE
5
250
100
AcDbEntity
8
0
100
AcDbLine
62
0
6
CONTINUOUS
10
34.7000000000
20
13.4556890000
11
34.7000000000
21
11.2120000000
0
LINE
5
251
100
AcDbEntity
8
0
100
AcDbLine
62
0
6
CONTINUOUS
10
34.7000000000
20
11.1824690000
11
34.7000000000
21
10.6303430000
0
LINE
5
252
100
AcDbEntity
8
0
100
AcDbLine
62
0
6
CONTINUOUS
10
34.7000000000
20
10.6284410000
11
34.7000000000
21
8.6305380000
0
LINE
5
253
100
AcDbEntity
8
0
100
AcDbLine
62
9
6
CONTINUOUS
10
44.4075422769
20
44.9755923698
11
44.2662642412
21
45.3997711479
0
LINE
5
254
100
AcDbEntity
8
0
100
AcDbLine
62
9
6
CONTINUOUS
10
44.9074661245
20
45.4749071372
11
44.7658836415
21
45.9000000000
0
LINE
5
255
100
AcDbEntity
8
0
100
AcDbLine
62
0
6
CONTINUOUS
10
52.0313919641
20
1.1000000000
11
52.0529198775
21
1.0000000000
0
LINE
5
256
100
AcDbEntity
8
0
100
AcDbLine
62
9
6
CONTINUOUS
10
36.2157011056
20
36.8600815540
11
36.2157010585
21
29.4399208514
0
LINE
5
257
100
AcDbEntity
8
0
100
AcDbLine
62
9
6
CONTINUOUS
10
36.2157011057
20
17.5600815561
11
36.2157010584
21
10.1724374812
0
LINE
5
258
100
AcDbEntity
8
0
100
AcDbLine
62
0
6
CONTINUOUS
10
36.5000000000
20
36.5608209015
11
36.5000000000
21
29.7395049286
0
LINE
5
259
100
AcDbEntity
8
0
100
AcDbLine
62
0
6
CONTINUOUS
10
36.5000000000
20
17.2608533604
11
36.5000000000
21
10.4720215581
0
LINE
5
25A
100
AcDbEntity
8
0
100
AcDbLine
62
0
6
CONTINUOUS
10
36.5000000000
20
36.5608209015
11
36.5000000000
21
66.5000000000
0
LINE
5
25B
100
AcDbEntity
8
0
100
AcDbLine
62
0
6
CONTINUOUS
10
44.2662642412
20
1.6002288521
11
44.2662642412
21
45.3997711479
0
LINE
5
25C
100
AcDbEntity
8
0
100
AcDbLine
62
0
6
CONTINUOUS
10
44.2662642412
20
45.8997711479
11
44.2662642412
21
56.5000000000
0
LINE
5
25D
100
AcDbEntity
8
0
100
AcDbLine
62
0
6
CONTINUOUS
10
9.5000000000
20
-0.0000000000
11
13.5000000000
21
0.0698202597
0
LINE
5
25E
100
AcDbEntity
8
0
100
AcDbLine
62
9
6
CONTINUOUS
10
9.5000000000
20
0.1666403425
11
13.5000000000
21
0.2368926382
0
LINE
5
25F
100
AcDbEntity
8
0
100
AcDbLine
62
0
6
CONTINUOUS
10
51.7414067630
20
-0.0000000000
11
59.0911217194
21
-0.0000000000
0
LINE
5
260
100
AcDbEntity
8
0
100
AcDbLine
62
0
6
CONTINUOUS
10
59.5911217194
20
-0.0000000000
11
76.0662642412
21
-0.0000000000
0
LINE
5
261
100
AcDbEntity
8
0
100
AcDbLine
62
0
6
CONTINUOUS
10
58.8860845009
20
1.0000000000
11
51.9464439815
21
1.0000000000
0
LINE
5
262
100
AcDbEntity
8
0
100
AcDbLine
62
0
6
CONTINUOUS
10
66.0666448409
20
1.1000000000
11
58.7162642412
21
1.1000000000
0
LINE
5
263
100
AcDbEntity
8
0
100
AcDbLine
62
0
6
CONTINUOUS
10
52.1162642412
20
1.1000000000
11
44.7658836415
21
1.1000000000
0
LINE
5
264
100
AcDbEntity
8
0
100
AcDbLine
62
0
6
CONTINUOUS
10
15.6494954839
20
1.3000000000
11
15.1000000000
21
1.3000000000
0
LINE
5
265
100
AcDbEntity
8
0
100
AcDbLine
62
9
6
CONTINUOUS
10
65.9250623579
20
1.5250928628
11
44.9074661245
21
1.5250928628
0
LINE
5
266
100
AcDbEntity
8
0
100
AcDbLine
62
9
6
CONTINUOUS
10
65.9167993037
20
2.4816857691
11
44.9157291787
21
2.4816857691
0
LINE
5
267
100
AcDbEntity
8
0
100
AcDbLine
62
0
6
CONTINUOUS
10
9.5000000000
20
1.1000000000
11
1.3887449801
21
1.5250928628
0
LINE
5
268
100
AcDbEntity
8
0
100
AcDbLine
62
9
6
CONTINUOUS
10
9.5000000000
20
1.6002288521
11
1.4061867550
21
2.0244076302
0
LINE
5
269
100
AcDbEntity
8
0
100
AcDbLine
62
0
6
CONTINUOUS
10
58.6496314436
20
46.0000000000
11
58.7162642412
21
45.9000000000
0
LINE
5
26A
100
AcDbEntity
8
0
100
AcDbLine
62
9
6
CONTINUOUS
10
66.0666448409
20
1.1000000000
11
65.9250623579
21
1.5250928628
0
LINE
5
26B
100
AcDbEntity
8
0
100
AcDbLine
62
9
6
CONTINUOUS
10
66.5662642412
20
1.6002288521
11
66.4249862055
21
2.0244076302
0
LINE
5
26C
100
AcDbEntity
8
0
100
AcDbLine
62
0
6
CONTINUOUS
10
58.8313919641
20
1.1000000000
11
58.8529198775
21
1.0000000000
0
LINE
5
26D
100
AcDbEntity
8
0
100
AcDbLine
62
0
6
CONTINUOUS
10
52.0011365183
20
45.9000000000
11
51.9796086049
21
46.0000000000
0
LINE
5
26E
100
AcDbEntity
8
0
100
AcDbLine
62
0
6
CONTINUOUS
10
55.3278641648
20
17.8862178901
11
55.3227167217
21
17.9115796736
0
LINE
5
26F
100
AcDbEntity
8
0
100
AcDbLine
62
0
6
CONTINUOUS
10
55.5046642988
20
17.2137822087
11
55.5098117607
21
17.1884203248
0
LINE
5
270
100
AcDbEntity
8
0
100
AcDbLine
62
0
6
CONTINUOUS
10
55.3352795306
20
17.8445538901
11
55.3278641648
21
17.8862178901
0
LINE
5
271
100
AcDbEntity
8
0
100
AcDbLine
62
0
6
CONTINUOUS
10
55.4972489379
20
17.2554461939
11
55.5046642988
21
17.2137822087
0
LINE
5
272
100
AcDbEntity
8
0
100
AcDbLine
62
0
6
CONTINUOUS
10
55.3414357765
20
17.8046769747
11
55.3352795306
21
17.8445538901
0
LINE
5
273
100
AcDbEntity
8
0
100
AcDbLine
62
0
6
CONTINUOUS
10
55.4910926958
20
17.2953230959
11
55.4972489379
21
17.2554461939
0
LINE
5
274
100
AcDbEntity
8
0
100
AcDbLine
62
0
6
CONTINUOUS
10
55.3465068046
20
17.7662466091
11
55.3414357765
21
17.8046769747
0
LINE
5
275
100
AcDbEntity
8
0
100
AcDbLine
62
0
6
CONTINUOUS
10
55.4860216708
20
17.3337534492
11
55.4910926958
21
17.2953230959
0
LINE
5
276
100
AcDbEntity
8
0
100
AcDbLine
62
0
6
CONTINUOUS
10
55.3538876595
20
17.6925815043
11
55.3506284277
21
17.7289280024
0
LINE
5
277
100
AcDbEntity
8
0
100
AcDbLine
62
0
6
CONTINUOUS
10
55.4786408200
20
17.4074185329
11
55.4819000499
21
17.3710720448
0
LINE
5
278
100
AcDbEntity
8
0
100
AcDbLine
62
0
6
CONTINUOUS
10
55.3563588546
20
17.6570281823
11
55.3538876595
21
17.6925815043
0
LINE
5
279
100
AcDbEntity
8
0
100
AcDbLine
62
0
6
CONTINUOUS
10
55.4761696262
20
17.4429718454
11
55.4786408200
21
17.4074185329
0
LINE
5
27A
100
AcDbEntity
8
0
100
AcDbLine
62
0
6
CONTINUOUS
10
55.3581095115
20
17.6218382732
11
55.3563588546
21
17.6570281823
0
LINE
5
27B
100
AcDbEntity
8
0
100
AcDbLine
62
0
6
CONTINUOUS
10
55.4744189702
20
17.4781617455
11
55.4761696262
21
17.4429718454
0
LINE
5
27C
100
AcDbEntity
8
0
100
AcDbLine
62
0
6
CONTINUOUS
10
55.3591760792
20
17.5863728907
11
55.3581095115
21
17.6218382732
0
LINE
5
27D
100
AcDbEntity
8
0
100
AcDbLine
62
0
6
CONTINUOUS
10
55.4733524030
20
17.5136271189
11
55.4744189702
21
17.4781617455
0
LINE
5
27E
100
AcDbEntity
8
0
100
AcDbLine
62
0
6
CONTINUOUS
10
55.3595436253
20
17.5500000000
11
55.3591760792
21
17.5863728907
0
LINE
5
27F
100
AcDbEntity
8
0
100
AcDbLine
62
0
6
CONTINUOUS
10
55.4729848571
20
17.5500000000
11
55.4733524030
21
17.5136271189
0
LINE
5
280
100
AcDbEntity
8
0
100
AcDbLine
62
0
6
CONTINUOUS
10
47.2662642412
20
54.0499999999
11
47.2662642412
21
55.9500000001
0
LINE
5
281
100
AcDbEntity
8
0
100
AcDbLine
62
0
6
CONTINUOUS
10
44.2662642412
20
55.0000000000
11
47.2662642412
21
54.0499999999
0
LINE
5
282
100
AcDbEntity
8
0
100
AcDbLine
62
0
6
CONTINUOUS
10
47.2662642412
20
55.9500000001
11
44.2662642412
21
55.0000000000
0
HATCH
5
283
100
AcDbEntity
8
0
100
AcDbHatch
62
0
6
CONTINUOUS
10
0.0
20
0.0
30
0.0
210
0.0
220
0.0
230
1.0
2

70
1
71
1
91
1
92
1
93
3
72
1
10
47.2662642412
20
55.9500000001
11
44.2662642412
21
55.0000000000
72
1
10
44.2662642412
20
55.0000000000
11
47.2662642412
21
54.0499999999
72
1
10
47.2662642412
20
54.0499999999
11
47.2662642412
21
55.9500000001
97
3
330
280
330
281
330
282
75
0
76
1
98
1
10
0.0
20
0.0
0
LINE
5
284
100
AcDbEntity
8
0
100
AcDbLine
62
9
6
CONTINUOUS
10
47.6662642412
20
24.8007804683
11
47.6662642412
21
34.1063638183
0
LINE
5
285
100
AcDbEntity
8
0
100
AcDbLine
62
0
6
CONTINUOUS
10
47.9662642412
20
33.8000656078
11
47.9662642412
21
25.1000000000
0
LINE
5
286
100
AcDbEntity
8
0
100
AcDbLine
62
0
6
CONTINUOUS
10
50.1662642412
20
33.8000656078
11
50.1662642412
21
25.1000000000
0
LINE
5
287
100
AcDbEntity
8
0
100
AcDbLine
62
9
6
CONTINUOUS
10
50.4662642412
20
34.1063638183
11
50.4662642412
21
24.8007804683
0
LINE
5
288
100
AcDbEntity
8
0
100
AcDbLine
62
0
6
CONTINUOUS
10
51.9464439815
20
46.0000000000
11
51.9464439815
21
45.9000000000
0
LINE
5
289
100
AcDbEntity
8
0
100
AcDbLine
62
0
6
CONTINUOUS
10
51.9464439815
20
1.0000000000
11
51.9464439815
21
1.1000000000
0
LINE
5
28A
100
AcDbEntity
8
0
100
AcDbLine
62
9
6
CONTINUOUS
10
52.4162642412
20
14.5446267761
11
52.4162642412
21
17.5464278567
0
LINE
5
28B
100
AcDbEntity
8
0
100
AcDbLine
62
0
6
CONTINUOUS
10
52.7162642412
20
17.5500000000
11
52.7162642412
21
14.8500000000
0
LINE
5
28C
100
AcDbEntity
8
0
100
AcDbLine
62
3
6
CONTINUOUS
10
52.8162642412
20
18.2777679615
11
52.8162642412
21
14.8500000000
0
LINE
5
28D
100
AcDbEntity
8
0
100
AcDbLine
62
0
6
CONTINUOUS
10
53.3112389880
20
19.2398291122
11
53.3112389880
21
14.8500000000
0
LINE
5
28E
100
AcDbEntity
8
0
100
AcDbLine
62
9
6
CONTINUOUS
10
54.9126662154
20
20.2024910402
11
54.9126662154
21
14.8500000000
0
LINE
5
28F
100
AcDbEntity
8
0
100
AcDbLine
62
0
6
CONTINUOUS
10
55.3227167217
20
14.8500000000
11
55.3227167217
21
20.2473187482
0
LINE
5
290
100
AcDbEntity
8
0
100
AcDbLine
62
0
6
CONTINUOUS
10
55.5098117607
20
20.2473535587
11
55.5098117607
21
14.8500000000
0
LINE
5
291
100
AcDbEntity
8
0
100
AcDbLine
62
9
6
CONTINUOUS
10
55.9198622670
20
14.8500000000
11
55.9198622670
21
20.2010579797
0
LINE
5
292
100
AcDbEntity
8
0
100
AcDbLine
62
0
6
CONTINUOUS
10
55.3591903833
20
17.5143413960
11
55.3595436253
21
17.5500000000
0
LINE
5
293
100
AcDbEntity
8
0
100
AcDbLine
62
0
6
CONTINUOUS
10
55.4733380989
20
17.5856585946
11
55.4729848571
21
17.5500000000
0
LINE
5
294
100
AcDbEntity
8
0
100
AcDbLine
62
9
6
CONTINUOUS
10
0.4419648748
20
2.4816857695
11
0.9327966980
21
2.5027040833
0
LINE
5
295
100
AcDbEntity
8
0
100
AcDbLine
62
0
6
CONTINUOUS
10
17.4708547979
20
2.3693115283
11
13.6965095187
21
2.3034300864
0
LINE
5
296
100
AcDbEntity
8
0
100
AcDbLine
62
9
6
CONTINUOUS
10
17.4709104406
20
2.4922826015
11
13.6965097694
21
2.4261047807
0
LINE
5
297
100
AcDbEntity
8
0
100
AcDbLine
62
0
6
CONTINUOUS
10
19.9912737968
20
7.6085752160
11
34.0087262032
21
7.8532507579
0
LINE
5
298
100
AcDbEntity
8
0
100
AcDbLine
62
9
6
CONTINUOUS
10
19.9912737968
20
8.1084990636
11
34.0087262032
21
8.3531746055
0
LINE
5
299
100
AcDbEntity
8
0
100
AcDbLine
62
0
6
CONTINUOUS
10
75.5162642413
20
3.0000000000
11
73.6162642411
21
3.0000000000
0
LINE
5
29A
100
AcDbEntity
8
0
100
AcDbLine
62
0
6
CONTINUOUS
10
73.6162642411
20
3.0000000000
11
74.5662642412
21
-0.0000000000
0
LINE
5
29B
100
AcDbEntity
8
0
100
AcDbLine
62
0
6
CONTINUOUS
10
74.5662642412
20
-0.0000000000
11
75.5162642413
21
3.0000000000
0
HATCH
5
29C
100
AcDbEntity
8
0
100
AcDbHatch
62
0
6
CONTINUOUS
10
0.0
20
0.0
30
0.0
210
0.0
220
0.0
230
1.0
2

70
1
71
1
91
1
92
1
93
3
72
1
10
73.6162642411
20
3.0000000000
11
74.5662642412
21
-0.0000000000
72
1
10
74.5662642412
20
-0.0000000000
11
75.5162642413
21
3.0000000000
72
1
10
75.5162642413
20
3.0000000000
11
73.6162642411
21
3.0000000000
97
3
330
299
330
29A
330
29B
75
0
76
1
98
1
10
0.0
20
0.0
0
LINE
5
29D
100
AcDbEntity
8
0
100
AcDbLine
62
9
6
CONTINUOUS
10
34.0087262032
20
8.3531746055
11
34.5000000000
21
8.3531746055
0
LINE
5
29E
100
AcDbEntity
8
0
100
AcDbLine
62
0
6
CONTINUOUS
10
34.5000000000
20
8.6305380000
11
34.7000000000
21
8.6305380000
0
LINE
5
29F
100
AcDbEntity
8
0
100
AcDbLine
62
0
6
CONTINUOUS
10
34.5000000000
20
9.0405580000
11
34.7000000000
21
9.0405580000
0
LINE
5
2A0
100
AcDbEntity
8
0
100
AcDbLine
62
0
6
CONTINUOUS
10
34.5000000000
20
9.4937720000
11
34.7000000000
21
9.4937720000
0
LINE
5
2A1
100
AcDbEntity
8
0
100
AcDbLine
62
0
6
CONTINUOUS
10
34.5000000000
20
9.9469810000
11
34.7000000000
21
9.9469810000
0
LINE
5
2A2
100
AcDbEntity
8
0
100
AcDbLine
62
0
6
CONTINUOUS
10
34.5000000000
20
10.3570020000
11
34.7000000000
21
10.3570020000
0
LINE
5
2A3
100
AcDbEntity
8
0
100
AcDbLine
62
0
6
CONTINUOUS
10
34.5000000000
20
10.6303430000
11
34.7000000000
21
10.6303430000
0
LINE
5
2A4
100
AcDbEntity
8
0
100
AcDbLine
62
0
6
CONTINUOUS
10
34.5000000000
20
11.0403590000
11
34.7000000000
21
11.0403590000
0
LINE
5
2A5
100
AcDbEntity
8
0
100
AcDbLine
62
0
6
CONTINUOUS
10
34.5000000000
20
11.1824690000
11
34.7000000000
21
11.1824690000
0
LINE
5
2A6
100
AcDbEntity
8
0
100
AcDbLine
62
0
6
CONTINUOUS
10
34.5000000000
20
11.2120000000
11
34.7000000000
21
11.2120000000
0
LINE
5
2A7
100
AcDbEntity
8
0
100
AcDbLine
62
0
6
CONTINUOUS
10
34.5000000000
20
11.4503590000
11
34.7000000000
21
11.4503590000
0
LINE
5
2A8
100
AcDbEntity
8
0
100
AcDbLine
62
0
6
CONTINUOUS
10
34.5000000000
20
12.0701920000
11
34.7000000000
21
12.0701920000
0
LINE
5
2A9
100
AcDbEntity
8
0
100
AcDbLine
62
0
6
CONTINUOUS
10
34.5000000000
20
12.4530240000
11
34.7000000000
21
12.4530240000
0
LINE
5
2AA
100
AcDbEntity
8
0
100
AcDbLine
62
9
6
CONTINUOUS
10
36.5000000000
20
12.8325166295
11
34.7000000000
21
12.8325166295
0
LINE
5
2AB
100
AcDbEntity
8
0
100
AcDbLine
62
0
6
CONTINUOUS
10
34.5000000000
20
12.8358560000
11
34.7000000000
21
12.8358560000
0
LINE
5
2AC
100
AcDbEntity
8
0
100
AcDbLine
62
0
6
CONTINUOUS
10
34.6895328220
20
17.6400670057
11
36.2157011068
21
17.5600839151
0
LINE
5
2AD
100
AcDbEntity
8
0
100
AcDbLine
62
0
6
CONTINUOUS
10
17.1439294983
20
45.1560705017
11
15.6494954839
21
45.7000000000
0
LINE
5
2AE
100
AcDbEntity
8
0
100
AcDbLine
62
0
6
CONTINUOUS
10
58.8011365183
20
45.9000000000
11
58.7796086049
21
46.0000000000
0
LINE
5
2AF
100
AcDbEntity
8
0
100
AcDbLine
62
0
6
CONTINUOUS
10
55.3506284277
20
17.7289280024
11
55.3465068046
21
17.7662466091
0
LINE
5
2B0
100
AcDbEntity
8
0
100
AcDbLine
62
0
6
CONTINUOUS
10
55.4819000499
20
17.3710720448
11
55.4860216708
21
17.3337534492
0
LINE
5
2B1
100
AcDbEntity
8
0
100
AcDbLine
62
0
6
CONTINUOUS
10
57.5212894944
20
14.8500000000
11
57.5212894944
21
19.2404238905
0
LINE
5
2B2
100
AcDbEntity
8
0
100
AcDbLine
62
3
6
CONTINUOUS
10
58.0162642412
20
14.8500000000
11
58.0162642412
21
18.2777181250
0
LINE
5
2B3
100
AcDbEntity
8
0
100
AcDbLine
62
0
6
CONTINUOUS
10
58.1162642412
20
17.5500000000
11
58.1162642412
21
14.8500000000
0
LINE
5
2B4
100
AcDbEntity
8
0
100
AcDbLine
62
9
6
CONTINUOUS
10
58.4162642412
20
17.5464278567
11
58.4162642412
21
14.5446267761
0
LINE
5
2B5
100
AcDbEntity
8
0
100
AcDbLine
62
0
6
CONTINUOUS
10
58.8860845009
20
1.1000000000
11
58.8860845009
21
1.0000000000
0
LINE
5
2B6
100
AcDbEntity
8
0
100
AcDbLine
62
0
6
CONTINUOUS
10
58.8860845009
20
45.9000000000
11
58.8860845009
21
46.0000000000
0
LINE
5
2B7
100
AcDbEntity
8
0
100
AcDbLine
62
9
6
CONTINUOUS
10
60.3662642412
20
25.6512907745
11
60.3662642412
21
33.2558535121
0
LINE
5
2B8
100
AcDbEntity
8
0
100
AcDbLine
62
0
6
CONTINUOUS
10
60.6662642412
20
25.9500000000
11
60.6662642412
21
32.9500553905
0
LINE
5
2B9
100
AcDbEntity
8
0
100
AcDbLine
62
0
6
CONTINUOUS
10
60.6724800311
20
32.9500553905
11
60.6724800311
21
25.9500000000
0
LINE
5
2BA
100
AcDbEntity
8
0
100
AcDbLine
62
0
6
CONTINUOUS
10
62.8662642412
20
32.9500553678
11
62.8662642412
21
25.9500000000
0
LINE
5
2BB
100
AcDbEntity
8
0
100
AcDbLine
62
9
6
CONTINUOUS
10
63.1662642412
20
33.2558535121
11
63.1662642412
21
25.6512907745
0
LINE
5
2BC
100
AcDbEntity
8
0
100
AcDbLine
62
0
6
CONTINUOUS
10
63.5662642412
20
55.9500000001
11
63.5662642412
21
54.0499999999
0
LINE
5
2BD
100
AcDbEntity
8
0
100
AcDbLine
62
0
6
CONTINUOUS
10
66.5662642412
20
55.0000000000
11
63.5662642412
21
55.9500000001
0
LINE
5
2BE
100
AcDbEntity
8
0
100
AcDbLine
62
0
6
CONTINUOUS
10
63.5662642412
20
54.0499999999
11
66.5662642412
21
55.0000000000
0
HATCH
5
2BF
100
AcDbEntity
8
0
100
AcDbHatch
62
0
6
CONTINUOUS
10
0.0
20
0.0
30
0.0
210
0.0
220
0.0
230
1.0
2

70
1
71
1
91
1
92
1
93
3
72
1
10
63.5662642412
20
54.0499999999
11
66.5662642412
21
55.0000000000
72
1
10
66.5662642412
20
55.0000000000
11
63.5662642412
21
55.9500000001
72
1
10
63.5662642412
20
55.9500000001
11
63.5662642412
21
54.0499999999
97
3
330
2BC
330
2BD
330
2BE
75
0
76
1
98
1
10
0.0
20
0.0
0
LINE
5
2C0
100
AcDbEntity
8
0
100
AcDbLine
62
0
6
CONTINUOUS
10
66.5662642412
20
45.3997711479
11
66.5662642412
21
1.6002288521
0
LINE
5
2C1
100
AcDbEntity
8
0
100
AcDbLine
62
0
6
CONTINUOUS
10
66.5662642412
20
45.8997711479
11
66.5662642412
21
56.5000000000
0
LINE
5
2C2
100
AcDbEntity
8
0
100
AcDbLine
62
0
6
CONTINUOUS
10
55.3581589766
20
17.4794109320
11
55.3591903833
21
17.5143413960
0
LINE
5
2C3
100
AcDbEntity
8
0
100
AcDbLine
62
0
6
CONTINUOUS
10
55.4743695051
20
17.6205890494
11
55.4733380989
21
17.5856585946
0
LINE
5
2C4
100
AcDbEntity
8
0
100
AcDbLine
62
0
6
CONTINUOUS
10
55.3564531193
20
17.4445662760
11
55.3581589766
21
17.4794109320
0
LINE
5
2C5
100
AcDbEntity
8
0
100
AcDbLine
62
0
6
CONTINUOUS
10
55.4760753614
20
17.6554336962
11
55.4743695051
21
17.6205890494
0
LINE
5
2C6
100
AcDbEntity
8
0
100
AcDbLine
62
0
6
CONTINUOUS
10
55.3540228832
20
17.4091305817
11
55.3564531193
21
17.4445662760
0
LINE
5
2C7
100
AcDbEntity
8
0
100
AcDbLine
62
0
6
CONTINUOUS
10
55.4785055963
20
17.6908693809
11
55.4760753614
21
17.6554336962
0
LINE
5
2C8
100
AcDbEntity
8
0
100
AcDbLine
62
0
6
CONTINUOUS
10
55.3507904473
20
17.3727013196
11
55.3540228832
21
17.4091305817
0
LINE
5
2C9
100
AcDbEntity
8
0
100
AcDbLine
62
0
6
CONTINUOUS
10
55.4817380304
20
17.7272986325
11
55.4785055963
21
17.6908693809
0
LINE
5
2CA
100
AcDbEntity
8
0
100
AcDbLine
62
0
6
CONTINUOUS
10
55.3466765377
20
17.3351606339
11
55.3507904473
21
17.3727013196
0
LINE
5
2CB
100
AcDbEntity
8
0
100
AcDbLine
62
0
6
CONTINUOUS
10
55.4858519375
20
17.7648393067
11
55.4817380304
21
17.7272986325
0
LINE
5
2CC
100
AcDbEntity
8
0
100
AcDbLine
62
0
6
CONTINUOUS
10
52.0313919641
20
45.9000000000
11
52.0529198775
21
46.0000000000
0
LINE
5
2CD
100
AcDbEntity
8
0
100
AcDbLine
62
0
6
CONTINUOUS
10
34.7048304648
20
10.0932513393
11
36.2157010621
21
10.1724327121
0
LINE
5
2CE
100
AcDbEntity
8
0
100
AcDbLine
62
0
6
CONTINUOUS
10
34.5000000000
20
13.4556890000
11
34.7000000000
21
13.4556890000
0
LINE
5
2CF
100
AcDbEntity
8
0
100
AcDbLine
62
0
6
CONTINUOUS
10
34.5000000000
20
13.4688000000
11
34.7000000000
21
13.4688000000
0
LINE
5
2D0
100
AcDbEntity
8
0
100
AcDbLine
62
0
6
CONTINUOUS
10
34.5000000000
20
13.7290310000
11
34.7000000000
21
13.7290310000
0
LINE
5
2D1
100
AcDbEntity
8
0
100
AcDbLine
62
0
6
CONTINUOUS
10
34.5000000000
20
14.3872400000
11
34.7000000000
21
14.3872400000
0
LINE
5
2D2
100
AcDbEntity
8
0
100
AcDbLine
62
9
6
CONTINUOUS
10
58.4162642412
20
14.5446267761
11
52.4162642412
21
14.5446267761
0
LINE
5
2D3
100
AcDbEntity
8
0
100
AcDbLine
62
0
6
CONTINUOUS
10
34.5000000000
20
14.7972760000
11
34.7000000000
21
14.7972760000
0
LINE
5
2D4
100
AcDbEntity
8
0
100
AcDbLine
62
0
6
CONTINUOUS
10
58.1162642412
20
14.8500000000
11
52.7162642412
21
14.8500000000
0
LINE
5
2D5
100
AcDbEntity
8
0
100
AcDbLine
62
9
6
CONTINUOUS
10
36.5000000000
20
14.9000000000
11
34.7000000000
21
14.9000000000
0
LINE
5
2D6
100
AcDbEntity
8
0
100
AcDbLine
62
0
6
CONTINUOUS
10
34.5000000000
20
15.4554950000
11
34.7000000000
21
15.4554950000
0
LINE
5
2D7
100
AcDbEntity
8
0
100
AcDbLine
62
0
6
CONTINUOUS
10
34.5000000000
20
15.7288370000
11
34.7000000000
21
15.7288370000
0
LINE
5
2D8
100
AcDbEntity
8
0
100
AcDbLine
62
0
6
CONTINUOUS
10
34.5000000000
20
16.6889550000
11
34.7000000000
21
16.6889550000
0
LINE
5
2D9
100
AcDbEntity
8
0
100
AcDbLine
62
0
6
CONTINUOUS
10
34.5000000000
20
17.3176614522
11
34.7000000000
21
17.3176614522
0
LINE
5
2DA
100
AcDbEntity
8
0
100
AcDbLine
62
0
6
CONTINUOUS
10
34.5000000000
20
17.3694620000
11
34.7000000000
21
17.3694620000
0
LINE
5
2DB
100
AcDbEntity
8
0
100
AcDbLine
62
0
6
CONTINUOUS
10
34.5000000000
20
18.5459010000
11
34.6500000000
21
18.5459010000
0
LINE
5
2DC
100
AcDbEntity
8
0
100
AcDbLine
62
0
6
CONTINUOUS
10
34.5000000000
20
18.9599638203
11
34.6500000000
21
18.9599640000
0
LINE
5
2DD
100
AcDbEntity
8
0
100
AcDbLine
62
0
6
CONTINUOUS
10
34.5000000000
20
19.0732450000
11
34.6500000000
21
19.0732450000
0
LINE
5
2DE
100
AcDbEntity
8
0
100
AcDbLine
62
0
6
CONTINUOUS
10
34.5000000000
20
19.5234402869
11
34.6500000000
21
19.5234400000
0
LINE
5
2DF
100
AcDbEntity
8
0
100
AcDbLine
62
0
6
CONTINUOUS
10
34.5000000000
20
19.5546900000
11
34.6500000000
21
19.5546900000
0
LINE
5
2E0
100
AcDbEntity
8
0
100
AcDbLine
62
0
6
CONTINUOUS
10
34.5000000000
20
19.6933620000
11
34.6500000000
21
19.6933620000
0
LINE
5
2E1
100
AcDbEntity
8
0
100
AcDbLine
62
0
6
CONTINUOUS
10
34.5000000000
20
20.2567888545
11
34.6500000000
21
20.2567888545
0
LINE
5
2E2
100
AcDbEntity
8
0
100
AcDbLine
62
0
6
CONTINUOUS
10
34.5000000000
20
20.5114154864
11
34.6500000000
21
20.5114154864
0
LINE
5
2E3
100
AcDbEntity
8
0
100
AcDbLine
62
0
6
CONTINUOUS
10
34.5000000000
20
21.4643548464
11
34.6500000000
21
21.4643548464
0
LINE
5
2E4
100
AcDbEntity
8
0
100
AcDbLine
62
0
6
CONTINUOUS
10
34.5000000000
20
21.6912602952
11
34.6500000000
21
21.6912602952
0
LINE
5
2E5
100
AcDbEntity
8
0
100
AcDbLine
62
0
6
CONTINUOUS
10
34.5000000000
20
21.8296322297
11
34.6500000000
21
21.8296322297
0
LINE
5
2E6
100
AcDbEntity
8
0
100
AcDbLine
62
0
6
CONTINUOUS
10
34.5000000000
20
22.1928831665
11
34.6500000000
21
22.1928831665
0
LINE
5
2E7
100
AcDbEntity
8
0
100
AcDbLine
62
0
6
CONTINUOUS
10
34.5000000000
20
23.4357361504
11
34.6500000000
21
23.4357361504
0
LINE
5
2E8
100
AcDbEntity
8
0
100
AcDbLine
62
0
6
CONTINUOUS
10
34.5000000000
20
23.4433019593
11
34.6500000000
21
23.4433019593
0
LINE
5
2E9
100
AcDbEntity
8
0
100
AcDbLine
62
0
6
CONTINUOUS
10
75.5162642413
20
44.0000000000
11
74.5662642412
21
47.0000000000
0
LINE
5
2EA
100
AcDbEntity
8
0
100
AcDbLine
62
0
6
CONTINUOUS
10
73.6162642411
20
44.0000000000
11
75.5162642413
21
44.0000000000
0
LINE
5
2EB
100
AcDbEntity
8
0
100
AcDbLine
62
0
6
CONTINUOUS
10
74.5662642412
20
47.0000000000
11
73.6162642411
21
44.0000000000
0
HATCH
5
2EC
100
AcDbEntity
8
0
100
AcDbHatch
62
0
6
CONTINUOUS
10
0.0
20
0.0
30
0.0
210
0.0
220
0.0
230
1.0
2

70
1
71
1
91
1
92
1
93
3
72
1
10
74.5662642412
20
47.0000000000
11
73.6162642411
21
44.0000000000
72
1
10
73.6162642411
20
44.0000000000
11
75.5162642413
21
44.0000000000
72
1
10
75.5162642413
20
44.0000000000
11
74.5662642412
21
47.0000000000
97
3
330
2E9
330
2EA
330
2EB
75
0
76
1
98
1
10
0.0
20
0.0
0
LINE
5
2ED
100
AcDbEntity
8
0
100
AcDbLine
62
0
6
CONTINUOUS
10
74.5662642412
20
-0.0000000000
11
74.5662642412
21
47.0000000000
0
LINE
5
2EE
100
AcDbEntity
8
0
100
AcDbLine
62
0
6
CONTINUOUS
10
55.3415734770
20
17.2962883461
11
55.3466765377
21
17.3351606339
0
LINE
5
2EF
100
AcDbEntity
8
0
100
AcDbLine
62
0
6
CONTINUOUS
10
55.4909549951
20
17.8037115816
11
55.4858519375
21
17.7648393067
0
LINE
5
2F0
100
AcDbEntity
8
0
100
AcDbLine
62
0
6
CONTINUOUS
10
55.3353337068
20
17.2557729081
11
55.3415734770
21
17.2962883461
0
LINE
5
2F1
100
AcDbEntity
8
0
100
AcDbLine
62
0
6
CONTINUOUS
10
55.4971947613
20
17.8442270056
11
55.4909549951
21
17.8037115816
0
LINE
5
2F2
100
AcDbEntity
8
0
100
AcDbLine
62
0
6
CONTINUOUS
10
55.3278082879
20
17.2134883614
11
55.3353337068
21
17.2557729081
0
LINE
5
2F3
100
AcDbEntity
8
0
100
AcDbLine
62
0
6
CONTINUOUS
10
55.5047201751
20
17.8865115369
11
55.4971947613
21
17.8442270056
0
LINE
5
2F4
100
AcDbEntity
8
0
100
AcDbLine
62
0
6
CONTINUOUS
10
55.3227167217
20
17.1884429220
11
55.3278082879
21
17.2134883614
0
LINE
5
2F5
100
AcDbEntity
8
0
100
AcDbLine
62
0
6
CONTINUOUS
10
55.5098117607
20
17.9115570795
11
55.5047201751
21
17.8865115369
0
LINE
5
2F6
100
AcDbEntity
8
0
100
AcDbLine
62
0
6
CONTINUOUS
10
58.8313919641
20
45.9000000000
11
58.8529198775
21
46.0000000000
0
LINE
5
2F7
100
AcDbEntity
8
0
100
AcDbLine
62
0
6
CONTINUOUS
10
52.0011365183
20
1.1000000000
11
51.9796086049
21
1.0000000000
0
LINE
5
2F8
100
AcDbEntity
8
0
100
AcDbLine
62
0
6
CONTINUOUS
10
34.5000000000
20
23.6474602202
11
34.6500000000
21
23.6474602202
0
LINE
5
2F9
100
AcDbEntity
8
0
100
AcDbLine
62
0
6
CONTINUOUS
10
34.5000000000
20
23.9070926098
11
34.6500000000
21
23.9070926098
0
LINE
5
2FA
100
AcDbEntity
8
0
100
AcDbLine
62
0
6
CONTINUOUS
10
34.5000000000
20
24.4214024512
11
34.6500000000
21
24.4214024512
0
LINE
5
2FB
100
AcDbEntity
8
0
100
AcDbLine
62
9
6
CONTINUOUS
10
50.4662642412
20
24.8007804683
11
47.6662642412
21
24.8007804683
0
LINE
5
2FC
100
AcDbEntity
8
0
100
AcDbLine
62
0
6
CONTINUOUS
10
34.5000000000
20
24.9457555704
11
34.6500000000
21
24.9457555704
0
LINE
5
2FD
100
AcDbEntity
8
0
100
AcDbLine
62
0
6
CONTINUOUS
10
50.1662642412
20
25.1000000000
11
47.9662642412
21
25.1000000000
0
LINE
5
2FE
100
AcDbEntity
8
0
100
AcDbLine
62
0
6
CONTINUOUS
10
34.5000000000
20
25.1953605634
11
34.6500000000
21
25.1953605634
0
LINE
5
2FF
100
AcDbEntity
8
0
100
AcDbLine
62
0
6
CONTINUOUS
10
34.5000000000
20
25.3091012226
11
34.6500000000
21
25.3091012226
0
LINE
5
300
100
AcDbEntity
8
0
100
AcDbLine
62
0
6
CONTINUOUS
10
34.5000000000
20
25.3453102754
11
34.6500000000
21
25.3453100000
0
LINE
5
301
100
AcDbEntity
8
0
100
AcDbLine
62
0
6
CONTINUOUS
10
34.5000000000
20
25.5003740428
11
34.6500000000
21
25.5003740428
0
LINE
5
302
100
AcDbEntity
8
0
100
AcDbLine
62
9
6
CONTINUOUS
10
63.1662642412
20
25.6512907745
11
60.3662642412
21
25.6512907745
0
LINE
5
303
100
AcDbEntity
8
0
100
AcDbLine
62
0
6
CONTINUOUS
10
62.8662642412
20
25.9500000000
11
60.6662642412
21
25.9500000000
0
LINE
5
304
100
AcDbEntity
8
0
100
AcDbLine
62
0
6
CONTINUOUS
10
34.6500000000
20
26.5994590000
11
34.7000000000
21
26.5994590000
0
LINE
5
305
100
AcDbEntity
8
0
100
AcDbLine
62
0
6
CONTINUOUS
10
34.5000000000
20
26.7432111455
11
34.6500000000
21
26.7432111455
0
LINE
5
306
100
AcDbEntity
8
0
100
AcDbLine
62
0
6
CONTINUOUS
10
34.5000000000
20
26.7508267155
11
34.6500000000
21
26.7508267155
0
LINE
5
307
100
AcDbEntity
8
0
100
AcDbLine
62
9
6
CONTINUOUS
10
34.5000000000
20
26.7854247048
11
34.6500000000
21
26.7854247048
0
LINE
5
308
100
AcDbEntity
8
0
100
AcDbLine
62
0
6
CONTINUOUS
10
34.5000000000
20
27.1721433785
11
34.6500000000
21
27.1721434548
0
LINE
5
309
100
AcDbEntity
8
0
100
AcDbLine
62
0
6
CONTINUOUS
10
34.5000000000
20
27.3655030000
11
34.6500000000
21
27.3655030000
0
LINE
5
30A
100
AcDbEntity
8
0
100
AcDbLine
62
0
6
CONTINUOUS
10
34.5000000000
20
27.4138340000
11
34.6500000000
21
27.4138340000
0
LINE
5
30B
100
AcDbEntity
8
0
100
AcDbLine
62
9
6
CONTINUOUS
10
34.5000000000
20
27.9919586607
11
34.6500000000
21
27.9919586607
0
LINE
5
30C
100
AcDbEntity
8
0
100
AcDbLine
62
0
6
CONTINUOUS
10
34.6500000000
20
28.4000000000
11
34.7000000000
21
28.4000000000
0
LINE
5
30D
100
AcDbEntity
8
0
100
AcDbLine
62
0
6
CONTINUOUS
10
34.5000000000
20
28.4128570000
11
34.6500000000
21
28.4128570000
0
LINE
5
30E
100
AcDbEntity
8
0
100
AcDbLine
62
9
6
CONTINUOUS
10
36.5000000000
20
32.1000000000
11
34.3656945500
21
32.1000000000
0
LINE
5
30F
100
AcDbEntity
8
0
100
AcDbLine
62
0
6
CONTINUOUS
10
60.6662642412
20
32.9500000000
11
62.8662642412
21
32.9500000000
0
LINE
5
310
100
AcDbEntity
8
0
100
AcDbLine
62
9
6
CONTINUOUS
10
60.3662642412
20
33.2558535121
11
63.1662642412
21
33.2558535121
0
LINE
5
311
100
AcDbEntity
8
0
100
AcDbLine
62
0
6
CONTINUOUS
10
47.9662642412
20
33.8000000000
11
50.1662642412
21
33.8000000000
0
LINE
5
312
100
AcDbEntity
8
0
100
AcDbLine
62
0
6
CONTINUOUS
10
34.6895329453
20
36.9400669992
11
36.2157011067
21
36.8600839151
0
LINE
5
313
100
AcDbEntity
8
0
100
AcDbLine
62
0
6
CONTINUOUS
10
58.8011365183
20
1.1000000000
11
58.7796086049
21
1.0000000000
0
LINE
5
314
100
AcDbEntity
8
0
100
AcDbLine
62
9
6
CONTINUOUS
10
44.2662642412
20
1.6002288521
11
44.4075422769
21
2.0244076302
0
LINE
5
315
100
AcDbEntity
8
0
100
AcDbLine
62
9
6
CONTINUOUS
10
44.7658836415
20
1.1000000000
11
44.9074661245
21
1.5250928628
0
LINE
5
316
100
AcDbEntity
8
0
100
AcDbLine
62
0
6
CONTINUOUS
10
34.6895332032
20
29.3599330143
11
36.2157010622
21
29.4399160826
0
LINE
5
317
100
AcDbEntity
8
0
100
AcDbLine
62
9
6
CONTINUOUS
10
47.6662642412
20
34.1063638183
11
50.4662642412
21
34.1063638183
0
LINE
5
318
100
AcDbEntity
8
0
100
AcDbLine
62
9
6
CONTINUOUS
10
36.5000000000
20
34.2000000000
11
34.3656945500
21
34.2000000000
0
LINE
5
319
100
AcDbEntity
8
0
100
AcDbLine
62
9
6
CONTINUOUS
10
34.0087262032
20
38.6468253945
11
34.5000000000
21
38.6468253945
0
LINE
5
31A
100
AcDbEntity
8
0
100
AcDbLine
62
9
6
CONTINUOUS
10
34.0087262032
20
38.6468253945
11
19.9912737968
21
38.8915009364
0
LINE
5
31B
100
AcDbEntity
8
0
100
AcDbLine
62
0
6
CONTINUOUS
10
34.0087262032
20
39.1467492421
11
19.9912737968
21
39.3914247840
0
LINE
5
31C
100
AcDbEntity
8
0
100
AcDbLine
62
0
6
CONTINUOUS
10
13.6965095187
20
44.6965699136
11
17.4708547979
21
44.6306884717
0
LINE
5
31D
100
AcDbEntity
8
0
100
AcDbLine
62
9
6
CONTINUOUS
10
13.6965097695
20
44.5738952193
11
17.4709104605
21
44.5077173972
0
LINE
5
31E
100
AcDbEntity
8
0
100
AcDbLine
62
9
6
CONTINUOUS
10
0.4419869303
20
44.5183133038
11
0.9327966980
21
44.4972959167
0
LINE
5
31F
100
AcDbEntity
8
0
100
AcDbLine
62
9
6
CONTINUOUS
10
65.9250623579
20
45.4749071372
11
66.0666448409
21
45.9000000000
0
LINE
5
320
100
AcDbEntity
8
0
100
AcDbLine
62
9
6
CONTINUOUS
10
66.4249862055
20
44.9755923698
11
66.5662642412
21
45.3997711479
0
LINE
5
321
100
AcDbEntity
8
0
100
AcDbLine
62
9
6
CONTINUOUS
10
1.4061867550
20
44.9755923698
11
9.5000000000
21
45.3997711479
0
LINE
5
322
100
AcDbEntity
8
0
100
AcDbLine
62
0
6
CONTINUOUS
10
1.3887449801
20
45.4749071372
11
9.5000000000
21
45.9000000000
0
LINE
5
323
100
AcDbEntity
8
0
100
AcDbLine
62
9
6
CONTINUOUS
10
44.9157291787
20
44.5183142309
11
65.9167993037
21
44.5183142309
0
LINE
5
324
100
AcDbEntity
8
0
100
AcDbLine
62
9
6
CONTINUOUS
10
44.9074661245
20
45.4749071372
11
65.9250623579
21
45.4749071372
0
LINE
5
325
100
AcDbEntity
8
0
100
AcDbLine
62
0
6
CONTINUOUS
10
15.6494954839
20
45.7000000000
11
15.1000000000
21
45.7000000000
0
LINE
5
326
100
AcDbEntity
8
0
100
AcDbLine
62
0
6
CONTINUOUS
10
44.7658836415
20
45.9000000000
11
52.1162642412
21
45.9000000000
0
LINE
5
327
100
AcDbEntity
8
0
100
AcDbLine
62
0
6
CONTINUOUS
10
58.7162642412
20
45.9000000000
11
66.0666448409
21
45.9000000000
0
LINE
5
328
100
AcDbEntity
8
0
100
AcDbLine
62
0
6
CONTINUOUS
10
58.8860845009
20
46.0000000000
11
51.9464439815
21
46.0000000000
0
LINE
5
329
100
AcDbEntity
8
0
100
AcDbLine
62
0
6
CONTINUOUS
10
51.7414067630
20
47.0000000000
11
59.0911217194
21
47.0000000000
0
LINE
5
32A
100
AcDbEntity
8
0
100
AcDbLine
62
0
6
CONTINUOUS
10
59.5911217194
20
47.0000000000
11
76.0662642412
21
47.0000000000
0
LINE
5
32B
100
AcDbEntity
8
0
100
AcDbLine
62
0
6
CONTINUOUS
10
9.5000000000
20
47.0000000000
11
13.5000000000
21
46.9301797403
0
LINE
5
32C
100
AcDbEntity
8
0
100
AcDbLine
62
9
6
CONTINUOUS
10
9.5000000000
20
46.8333596575
11
13.5000000000
21
46.7631073618
0
LINE
5
32D
100
AcDbEntity
8
0
100
AcDbLine
62
0
6
CONTINUOUS
10
52.1828970388
20
46.0000000000
11
52.1162642412
21
45.9000000000
0
LINE
5
32E
100
AcDbEntity
8
0
100
AcDbLine
62
0
6
CONTINUOUS
10
9.5000000000
20
55.0000000000
11
36.5000000000
21
55.0000000000
0
LINE
5
32F
100
AcDbEntity
8
0
100
AcDbLine
62
0
6
CONTINUOUS
10
44.2662642412
20
55.0000000000
11
66.5662642412
21
55.0000000000
0
LINE
5
330
100
AcDbEntity
8
0
100
AcDbLine
62
0
6
CONTINUOUS
10
0.0000000000
20
65.0000000000
11
36.5000000000
21
65.0000000000
0
LINE
5
331
100
AcDbEntity
8
0
100
AcDbLine
62
0
6
CONTINUOUS
10
19.3535533906
20
4.0535533906
11
17.1439294983
21
1.8439294983
0
LINE
5
332
100
AcDbEntity
8
0
100
AcDbLine
62
0
6
CONTINUOUS
10
58.7162642412
20
1.1000000000
11
58.6496314436
21
1.0000000000
0
LINE
5
333
100
AcDbEntity
8
0
100
AcDbLine
62
0
6
CONTINUOUS
10
17.1439294983
20
1.8439294983
11
15.6494954839
21
1.3000000000
0
ARC
5
334
100
AcDbEntity
8
0
100
AcDbCircle
62
0
6
CONTINUOUS
10
44.1662642412
20
23.5000000000
40
28.0000000000
100
AcDbArc
50
305.9627651514
51
306.8614108051
0
ARC
5
335
100
AcDbEntity
8
0
100
AcDbCircle
62
0
6
CONTINUOUS
10
44.1662642412
20
23.5000000000
40
28.0000000000
100
AcDbArc
50
303.5572123136
51
304.1210936517
0
ARC
5
336
100
AcDbEntity
8
0
100
AcDbCircle
62
0
6
CONTINUOUS
10
66.6662642412
20
23.5000000000
40
28.0000000000
100
AcDbArc
50
235.8789063483
51
236.4427876864
0
ARC
5
337
100
AcDbEntity
8
0
100
AcDbCircle
62
0
6
CONTINUOUS
10
66.6662642412
20
23.5000000000
40
28.0000000000
100
AcDbArc
50
233.1385891949
51
234.0372348486
0
ARC
5
338
100
AcDbEntity
8
0
100
AcDbCircle
62
0
6
CONTINUOUS
10
66.6662642412
20
23.5000000000
40
28.0000000000
100
AcDbArc
50
125.9627651514
51
126.8614108051
0
ARC
5
339
100
AcDbEntity
8
0
100
AcDbCircle
62
0
6
CONTINUOUS
10
66.6662642412
20
23.5000000000
40
28.0000000000
100
AcDbArc
50
123.5572123136
51
124.1210936517
0
ARC
5
33A
100
AcDbEntity
8
0
100
AcDbCircle
62
0
6
CONTINUOUS
10
44.1662642412
20
23.5000000000
40
28.0000000000
100
AcDbArc
50
55.8789063483
51
56.4427876864
0
ARC
5
33B
100
AcDbEntity
8
0
100
AcDbCircle
62
0
6
CONTINUOUS
10
44.1662642412
20
23.5000000000
40
28.0000000000
100
AcDbArc
50
53.1385891949
51
54.0372348486
0
ARC
5
33C
100
AcDbEntity
8
0
100
AcDbCircle
62
0
6
CONTINUOUS
10
60.3662642412
20
46.6000000000
40
0.5000000000
100
AcDbArc
50
170.8037184210
51
299.1124227760
0
ARC
5
33D
100
AcDbEntity
8
0
100
AcDbCircle
62
0
6
CONTINUOUS
10
50.4662642412
20
46.6000000000
40
0.5000000000
100
AcDbArc
50
240.8875772240
51
9.1962815790
0
ARC
5
33E
100
AcDbEntity
8
0
100
AcDbCircle
62
0
6
CONTINUOUS
10
60.3662642412
20
0.4000000000
40
0.5000000000
100
AcDbArc
50
60.8875772240
51
189.1962815790
0
ARC
5
33F
100
AcDbEntity
8
0
100
AcDbCircle
62
0
6
CONTINUOUS
10
50.4662642412
20
0.4000000000
40
0.5000000000
100
AcDbArc
50
350.8037184210
51
119.1124227760
0
ARC
5
340
100
AcDbEntity
8
0
100
AcDbCircle
62
0
6
CONTINUOUS
10
55.4162642412
20
17.5500000000
40
2.7000000000
100
AcDbArc
50
0.0000000000
51
180.0000000000
0
ARC
5
341
100
AcDbEntity
8
0
100
AcDbCircle
62
0
6
CONTINUOUS
10
1.4410809363
20
2.5237223975
40
1.0000000000
100
AcDbArc
50
182.4092313014
51
267.0000000000
0
ARC
5
342
100
AcDbEntity
8
0
100
AcDbCircle
62
0
6
CONTINUOUS
10
500.0000000000
20
23.5000000000
40
500.0000000000
100
AcDbArc
50
177.5907686986
51
182.4092313014
0
ARC
5
343
100
AcDbEntity
8
0
100
AcDbCircle
62
0
6
CONTINUOUS
10
1.4410809363
20
44.4762776025
40
1.0000000000
100
AcDbArc
50
93.0000000000
51
177.5907686986
0
ARC
5
344
100
AcDbEntity
8
0
100
AcDbCircle
62
0
6
CONTINUOUS
10
34.7000000000
20
17.8397929133
40
0.2000000000
100
AcDbArc
50
180.0000688952
51
267.0000038059
0
ARC
5
345
100
AcDbEntity
8
0
100
AcDbCircle
62
0
6
CONTINUOUS
10
34.7000000000
20
29.1602070867
40
0.2000000000
100
AcDbArc
50
92.9998868443
51
179.9978540870
0
ARC
5
346
100
AcDbEntity
8
0
100
AcDbCircle
62
0
6
CONTINUOUS
10
34.7000000000
20
37.1397929133
40
0.2000000000
100
AcDbArc
50
180.0007595333
51
267.0000391648
0
ARC
5
347
100
AcDbEntity
8
0
100
AcDbCircle
62
0
6
CONTINUOUS
10
36.2000000000
20
17.2604950714
40
0.3000000000
100
AcDbArc
50
0.0000000000
51
86.9999388140
0
ARC
5
348
100
AcDbEntity
8
0
100
AcDbCircle
62
0
6
CONTINUOUS
10
36.2000000000
20
10.4720215581
40
0.3000000000
100
AcDbArc
50
273.0000526347
51
360.0000000000
0
ARC
5
349
100
AcDbEntity
8
0
100
AcDbCircle
62
0
6
CONTINUOUS
10
36.2000000000
20
29.7395049286
40
0.3000000000
100
AcDbArc
50
273.0000526477
51
360.0000000000
0
ARC
5
34A
100
AcDbEntity
8
0
100
AcDbCircle
62
0
6
CONTINUOUS
10
36.2000000000
20
36.5604950714
40
0.3000000000
100
AcDbArc
50
0.0000000000
51
86.9999388320
0
ARC
5
34B
100
AcDbEntity
8
0
100
AcDbCircle
62
0
6
CONTINUOUS
10
13.7000000000
20
2.1034605474
40
0.2000000000
100
AcDbArc
50
91.0000000000
51
180.0000000000
0
ARC
5
34C
100
AcDbEntity
8
0
100
AcDbCircle
62
0
6
CONTINUOUS
10
13.7000000000
20
44.8965394526
40
0.2000000000
100
AcDbArc
50
180.0000000000
51
269.0000000000
0
ARC
5
34D
100
AcDbEntity
8
0
100
AcDbCircle
62
0
6
CONTINUOUS
10
17.4621285947
20
44.1307646241
40
0.5000000000
100
AcDbArc
50
45.0000000000
51
89.0000000000
0
ARC
5
34E
100
AcDbEntity
8
0
100
AcDbCircle
62
0
6
CONTINUOUS
10
19.0000000000
20
42.5928932188
40
0.5000000000
100
AcDbArc
50
0.0000000000
51
45.0000000000
0
ARC
5
34F
100
AcDbEntity
8
0
100
AcDbCircle
62
0
6
CONTINUOUS
10
19.0000000000
20
4.4071067812
40
0.5000000000
100
AcDbArc
50
315.0000000000
51
360.0000000000
0
ARC
5
350
100
AcDbEntity
8
0
100
AcDbCircle
62
0
6
CONTINUOUS
10
17.4621285947
20
2.8692353759
40
0.5000000000
100
AcDbArc
50
271.0000000000
51
315.0000000000
0
ARC
5
351
100
AcDbEntity
8
0
100
AcDbCircle
62
0
6
CONTINUOUS
10
20.0000000000
20
39.8913486316
40
0.5000000000
100
AcDbArc
50
180.0000000000
51
269.0000000000
0
ARC
5
352
100
AcDbEntity
8
0
100
AcDbCircle
62
0
6
CONTINUOUS
10
20.0000000000
20
7.1086513684
40
0.5000000000
100
AcDbArc
50
91.0000000000
51
180.0000000000
0
ARC
5
353
100
AcDbEntity
8
0
100
AcDbCircle
62
0
6
CONTINUOUS
10
34.0000000000
20
8.3531746055
40
0.5000000000
100
AcDbArc
50
271.0000000000
51
360.0000000000
0
ARC
5
354
100
AcDbEntity
8
0
100
AcDbCircle
62
0
6
CONTINUOUS
10
34.0000000000
20
38.6468253945
40
0.5000000000
100
AcDbArc
50
0.0000000000
51
89.0000000000
0
SPLINE
5
355
100
AcDbEntity
8
0
100
AcDbSpline
62
9
6
CONTINUOUS
70
0
71
3
72
13
73
9
74
7
42
0.0000001000
43
0.0000001000
44
0.0000000001
12
-0.1576584643
22
0.9435991563
32
0.0000000000
13
-0.0003511235
23
0.9566793778
33
0.0000000000
40
0.0000000000
40
0.0000000000
40
0.0000000000
40
0.0000000000
40
0.0448233898
40
0.1498225033
40
0.3086294756
40
0.5117243922
40
0.7469283740
40
1.0000000000
40
1.0000000000
40
1.0000000000
40
1.0000000000
10
65.9250623579
20
1.5250928628
30
0.0000000000
10
65.9227067623
20
1.5391913004
30
0.0000000000
10
65.9234926621
20
1.5872745563
30
0.0000000000
10
65.9199566542
20
1.6854153256
30
0.0000000000
10
65.9193547546
20
1.8344323137
30
0.0000000000
10
65.9177653287
20
2.0247898090
30
0.0000000000
10
65.9170793724
20
2.2452796219
30
0.0000000000
10
65.9168289235
20
2.4009829672
30
0.0000000000
10
65.9167993037
20
2.4816857691
30
0.0000000000
11
65.9250623579
21
1.5250928628
31
0.0000000000
11
65.9229530234
21
1.5679225682
31
0.0000000000
11
65.9209980720
21
1.6683540362
31
0.0000000000
11
65.9193161861
21
1.8202720921
31
0.0000000000
11
65.9180079331
21
2.0145644192
31
0.0000000000
11
65.9171513977
21
2.2395776031
31
0.0000000000
11
65.9167993037
21
2.4816857691
31
0.0000000000
0
SPLINE
5
356
100
AcDbEntity
8
0
100
AcDbSpline
62
9
6
CONTINUOUS
70
0
71
3
72
13
73
9
74
7
42
0.0000001000
43
0.0000001000
44
0.0000000001
12
-0.1515510153
22
0.4538339138
32
0.0000000000
13
-0.0003507749
23
0.4784692359
33
0.0000000000
40
0.0000000000
40
0.0000000000
40
0.0000000000
40
0.0000000000
40
0.0448312305
40
0.1499084338
40
0.3088541801
40
0.5121619630
40
0.7476022504
40
1.0000000000
40
1.0000000000
40
1.0000000000
40
1.0000000000
10
66.4249862055
20
2.0244076302
30
0.0000000000
10
66.4227214660
20
2.0311896078
30
0.0000000000
10
66.4233241065
20
2.0556629517
30
0.0000000000
10
66.4199336964
20
2.1044022276
30
0.0000000000
10
66.4192564502
20
2.1791685349
30
0.0000000000
10
66.4176945183
20
2.2743910677
30
0.0000000000
10
66.4170001408
20
2.3846521872
30
0.0000000000
10
66.4167526629
20
2.4624492305
30
0.0000000000
10
66.4167231513
20
2.5027040833
30
0.0000000000
11
66.4249862055
21
2.0244076302
31
0.0000000000
11
66.4228808419
21
2.0457544293
31
0.0000000000
11
66.4209234933
21
2.0959925358
31
0.0000000000
11
66.4192395549
21
2.1720245606
31
0.0000000000
11
66.4179300327
21
2.2692922916
31
0.0000000000
11
66.4170736940
21
2.3819400013
31
0.0000000000
11
66.4167231513
21
2.5027040833
31
0.0000000000
0
SPLINE
5
357
100
AcDbEntity
8
0
100
AcDbSpline
62
9
6
CONTINUOUS
70
0
71
3
72
12
73
8
74
6
42
0.0000001000
43
0.0000001000
44
0.0000000001
12
0.7813571086
22
0.0007128054
32
0.0000000000
13
0.0007145511
23
0.7813571076
33
0.0000000000
40
0.0000000000
40
0.0000000000
40
0.0000000000
40
0.0000000000
40
0.2000881370
40
0.4001764314
40
0.6002089278
40
0.8001504626
40
1.0000000000
40
1.0000000000
40
1.0000000000
40
1.0000000000
10
65.9250623579
20
1.5250928628
30
0.0000000000
10
65.9771757873
20
1.5251404041
30
0.0000000000
10
66.0821185160
20
1.5417833122
30
0.0000000000
10
66.2235859260
20
1.6139082232
30
0.0000000000
10
66.3360330528
20
1.7262063497
30
0.0000000000
10
66.4082673091
20
1.8675119329
30
0.0000000000
10
66.4249386046
20
1.9723563447
30
0.0000000000
10
66.4249862055
20
2.0244076302
30
0.0000000000
11
65.9250623579
21
1.5250928628
31
0.0000000000
11
66.0794628851
21
1.5496445069
31
0.0000000000
11
66.2187658178
21
1.6206165958
31
0.0000000000
11
66.3293508297
21
1.7310687086
31
0.0000000000
11
66.4004062963
21
1.8702003823
31
0.0000000000
11
66.4249862055
21
2.0244076302
31
0.0000000000
0
SPLINE
5
358
100
AcDbEntity
8
0
100
AcDbSpline
62
9
6
CONTINUOUS
70
0
71
3
72
10
73
6
74
4
42
0.0000001000
43
0.0000001000
44
0.0000000001
12
-0.0308408176
22
42.0366204951
32
0.0000000000
13
0.0308408149
23
42.0366204978
33
0.0000000000
40
0.0000000000
40
0.0000000000
40
0.0000000000
40
0.0000000000
40
0.3332896860
40
0.6667103140
40
1.0000000000
40
1.0000000000
40
1.0000000000
40
1.0000000000
10
65.9167993037
20
2.4816857691
30
0.0000000000
10
65.9133729949
20
7.1518097842
30
0.0000000000
10
65.9088069599
20
16.4938944470
30
0.0000000000
10
65.9088069596
20
30.5061055524
30
0.0000000000
10
65.9133729952
20
39.8481902155
30
0.0000000000
10
65.9167993037
20
44.5183142309
30
0.0000000000
11
65.9167993037
21
2.4816857691
31
0.0000000000
11
65.9099489170
21
16.4920599109
31
0.0000000000
11
65.9099489170
21
30.5079400885
31
0.0000000000
11
65.9167993037
21
44.5183142309
31
0.0000000000
0
SPLINE
5
359
100
AcDbEntity
8
0
100
AcDbSpline
62
9
6
CONTINUOUS
70
0
71
3
72
10
73
6
74
4
42
0.0000001000
43
0.0000001000
44
0.0000000001
12
-0.0308408175
22
41.9945838600
32
0.0000000000
13
0.0308408150
23
41.9945838580
33
0.0000000000
40
0.0000000000
40
0.0000000000
40
0.0000000000
40
0.0000000000
40
0.3332892780
40
0.6667108413
40
1.0000000000
40
1.0000000000
40
1.0000000000
40
1.0000000000
10
66.4167231513
20
2.5027040833
30
0.0000000000
10
66.4132968467
20
7.1681522615
30
0.0000000000
10
66.4087308052
20
16.5009022214
30
0.0000000000
10
66.4087308062
20
30.4991011190
30
0.0000000000
10
66.4132968482
20
39.8318494087
30
0.0000000000
10
66.4167231513
20
44.4972959167
30
0.0000000000
11
66.4167231513
21
2.5027040833
31
0.0000000000
11
66.4098727688
21
16.4990507165
31
0.0000000000
11
66.4098727700
21
30.5009542938
31
0.0000000000
11
66.4167231513
21
44.4972959167
31
0.0000000000
0
SPLINE
5
35A
100
AcDbEntity
8
0
100
AcDbSpline
62
9
6
CONTINUOUS
70
0
71
3
72
12
73
8
74
6
42
0.0000001000
43
0.0000001000
44
0.0000000001
12
0.5010580612
22
0.0003673236
32
0.0000000000
13
0.1919552769
23
0.4628309465
33
0.0000000000
40
0.0000000000
40
0.0000000000
40
0.0000000000
40
0.0000000000
40
0.3050607110
40
0.5809725757
40
0.8013959858
40
0.9453902249
40
1.0000000000
40
1.0000000000
40
1.0000000000
40
1.0000000000
10
65.9167993037
20
2.4816857695
30
0.0000000000
10
65.9677503465
20
2.4817231215
30
0.0000000000
10
66.0652856948
20
2.4819723284
30
0.0000000000
10
66.1971702469
20
2.4864143936
30
0.0000000000
10
66.3090665483
20
2.4862295979
30
0.0000000000
10
66.3690539177
20
2.4994951988
30
0.0000000000
10
66.4132289398
20
2.4942790520
30
0.0000000000
10
66.4167231513
20
2.5027040833
30
0.0000000000
11
65.9167993037
21
2.4816857695
31
0.0000000000
11
66.0696483827
21
2.4828040024
31
0.0000000000
11
66.2078632170
21
2.4858275314
31
0.0000000000
11
66.3182106901
21
2.4904668739
31
0.0000000000
11
66.3901257932
21
2.4962778446
31
0.0000000000
11
66.4167231513
21
2.5027040833
31
0.0000000000
0
SPLINE
5
35B
100
AcDbEntity
8
0
100
AcDbSpline
62
9
6
CONTINUOUS
70
0
71
3
72
13
73
9
74
7
42
0.0000001000
43
0.0000001000
44
0.0000000001
12
0.0003511223
22
0.9566793778
32
0.0000000000
13
0.1576584643
23
0.9435991563
33
0.0000000000
40
0.0000000000
40
0.0000000000
40
0.0000000000
40
0.0000000000
40
0.2530716260
40
0.4882756078
40
0.6913705244
40
0.8501774967
40
0.9551766102
40
1.0000000000
40
1.0000000000
40
1.0000000000
40
1.0000000000
10
65.9167993037
20
44.5183142309
30
0.0000000000
10
65.9168289234
20
44.5990170328
30
0.0000000000
10
65.9170793725
20
44.7547203781
30
0.0000000000
10
65.9177653286
20
44.9752101910
30
0.0000000000
10
65.9193547546
20
45.1655676863
30
0.0000000000
10
65.9199566542
20
45.3145846744
30
0.0000000000
10
65.9234926621
20
45.4127254438
30
0.0000000000
10
65.9227067623
20
45.4608086996
30
0.0000000000
10
65.9250623579
20
45.4749071372
30
0.0000000000
11
65.9167993037
21
44.5183142309
31
0.0000000000
11
65.9171513977
21
44.7604223969
31
0.0000000000
11
65.9180079331
21
44.9854355808
31
0.0000000000
11
65.9193161861
21
45.1797279079
31
0.0000000000
11
65.9209980720
21
45.3316459638
31
0.0000000000
11
65.9229530234
21
45.4320774319
31
0.0000000000
11
65.9250623579
21
45.4749071372
31
0.0000000000
0
SPLINE
5
35C
100
AcDbEntity
8
0
100
AcDbSpline
62
9
6
CONTINUOUS
70
0
71
3
72
13
73
9
74
7
42
0.0000001000
43
0.0000001000
44
0.0000000001
12
0.0003507749
22
0.4784692349
32
0.0000000000
13
0.1515509163
23
0.4538339447
33
0.0000000000
40
0.0000000000
40
0.0000000000
40
0.0000000000
40
0.0000000000
40
0.2523977495
40
0.4878380372
40
0.6911458199
40
0.8500915659
40
0.9551687699
40
1.0000000000
40
1.0000000000
40
1.0000000000
40
1.0000000000
10
66.4167231513
20
44.4972959167
30
0.0000000000
10
66.4167526629
20
44.5375507694
30
0.0000000000
10
66.4170001408
20
44.6153478129
30
0.0000000000
10
66.4176945184
20
44.7256089323
30
0.0000000000
10
66.4192564498
20
44.8208314652
30
0.0000000000
10
66.4199336973
20
44.8955977721
30
0.0000000000
10
66.4233241048
20
44.9443370488
30
0.0000000000
10
66.4227214675
20
44.9688103918
30
0.0000000000
10
66.4249862055
20
44.9755923698
30
0.0000000000
11
66.4167231513
21
44.4972959167
31
0.0000000000
11
66.4170736940
21
44.6180599987
31
0.0000000000
11
66.4179300327
21
44.7307077086
31
0.0000000000
11
66.4192395549
21
44.8279754394
31
0.0000000000
11
66.4209234933
21
44.9040074640
31
0.0000000000
11
66.4228808419
21
44.9542455709
31
0.0000000000
11
66.4249862055
21
44.9755923698
31
0.0000000000
0
SPLINE
5
35D
100
AcDbEntity
8
0
100
AcDbSpline
62
9
6
CONTINUOUS
70
0
71
3
72
12
73
8
74
6
42
0.0000001000
43
0.0000001000
44
0.0000000001
12
0.5010578786
22
-0.0003673791
32
0.0000000000
13
0.1921868641
23
-0.4627346383
33
0.0000000000
40
0.0000000000
40
0.0000000000
40
0.0000000000
40
0.0000000000
40
0.3050563107
40
0.5809651216
40
0.8013879126
40
0.9453846466
40
1.0000000000
40
1.0000000000
40
1.0000000000
40
1.0000000000
10
65.9167993038
20
44.5183133038
30
0.0000000000
10
65.9677495931
20
44.5182759467
30
0.0000000000
10
66.0652832349
20
44.5180266405
30
0.0000000000
10
66.1971680331
20
44.5135851497
30
0.0000000000
10
66.3090599210
20
44.5137689918
30
0.0000000000
10
66.3690564447
20
44.5005055113
30
0.0000000000
10
66.4132243667
20
44.5057200553
30
0.0000000000
10
66.4167231512
20
44.4972959167
30
0.0000000000
11
65.9167993038
21
44.5183133038
31
0.0000000000
11
66.0696461226
21
44.5171951092
31
0.0000000000
11
66.2078593793
21
44.5141717192
31
0.0000000000
11
66.3182065110
21
44.5095325952
31
0.0000000000
11
66.3901228632
21
44.5037218884
31
0.0000000000
11
66.4167231512
21
44.4972959167
31
0.0000000000
0
SPLINE
5
35E
100
AcDbEntity
8
0
100
AcDbSpline
62
9
6
CONTINUOUS
70
0
71
3
72
12
73
8
74
6
42
0.0000001000
43
0.0000001000
44
0.0000000001
12
0.7813571067
22
-0.0007128135
32
0.0000000000
13
0.0007145527
23
-0.7813571046
33
0.0000000000
40
0.0000000000
40
0.0000000000
40
0.0000000000
40
0.0000000000
40
0.2000850064
40
0.4001713425
40
0.6002035310
40
0.8001467218
40
1.0000000000
40
1.0000000000
40
1.0000000000
40
1.0000000000
10
65.9250623579
20
45.4749071372
30
0.0000000000
10
65.9771749718
20
45.4748595961
30
0.0000000000
10
66.0821163412
20
45.4582171672
30
0.0000000000
10
66.2235829056
20
45.3860938495
30
0.0000000000
10
66.3360308437
20
45.2737967766
30
0.0000000000
10
66.4082667599
20
45.1324904868
30
0.0000000000
10
66.4249386036
20
45.0276446294
30
0.0000000000
10
66.4249862055
20
44.9755923698
30
0.0000000000
11
65.9250623579
21
45.4749071372
31
0.0000000000
11
66.0794605295
21
45.4503562579
31
0.0000000000
11
66.2187625590
21
45.3793857676
31
0.0000000000
11
66.3293483162
21
45.2689347421
31
0.0000000000
11
66.4004053784
21
45.1298024308
31
0.0000000000
11
66.4249862055
21
44.9755923698
31
0.0000000000
0
SPLINE
5
35F
100
AcDbEntity
8
0
100
AcDbSpline
62
9
6
CONTINUOUS
70
0
71
3
72
13
73
9
74
7
42
0.0000001000
43
0.0000001000
44
0.0000000001
12
0.1514175251
22
0.4538785023
32
0.0000000000
13
0.0003487499
23
0.4784692706
33
0.0000000000
40
0.0000000000
40
0.0000000000
40
0.0000000000
40
0.0000000000
40
0.0447393873
40
0.1496912263
40
0.3085216489
40
0.5116483853
40
0.7470339087
40
1.0000000000
40
1.0000000000
40
1.0000000000
40
1.0000000000
10
44.4075422769
20
2.0244076302
30
0.0000000000
10
44.4098003860
20
2.0311763789
30
0.0000000000
10
44.4092066317
20
2.0556124123
30
0.0000000000
10
44.4125898542
20
2.1043004811
30
0.0000000000
10
44.4132700646
20
2.1789987074
30
0.0000000000
10
44.4148314779
20
2.2741655383
30
0.0000000000
10
44.4155276336
20
2.3844796244
30
0.0000000000
10
44.4157759238
20
2.4623585829
30
0.0000000000
10
44.4158053311
20
2.5027040833
30
0.0000000000
11
44.4075422769
21
2.0244076302
31
0.0000000000
11
44.4096451368
21
2.0457105203
31
0.0000000000
11
44.4116019508
21
2.0958886227
31
0.0000000000
11
44.4132861774
21
2.1718654541
31
0.0000000000
11
44.4145959341
21
2.2690465558
31
0.0000000000
11
44.4154533946
21
2.3816680615
31
0.0000000000
11
44.4158053311
21
2.5027040833
31
0.0000000000
0
SPLINE
5
360
100
AcDbEntity
8
0
100
AcDbSpline
62
9
6
CONTINUOUS
70
0
71
3
72
13
73
9
74
7
42
0.0000001000
43
0.0000001000
44
0.0000000001
12
0.1576341323
22
0.9436032117
32
0.0000000000
13
0.0003456843
23
0.9566793701
33
0.0000000000
40
0.0000000000
40
0.0000000000
40
0.0000000000
40
0.0000000000
40
0.0448270314
40
0.1498225927
40
0.3086597101
40
0.5117110612
40
0.7469567150
40
1.0000000000
40
1.0000000000
40
1.0000000000
40
1.0000000000
10
44.9074661245
20
1.5250928628
30
0.0000000000
10
44.9098215479
20
1.5391925064
30
0.0000000000
10
44.9090359878
20
1.5872756882
30
0.0000000000
10
44.9125714395
20
1.6854261835
30
0.0000000000
10
44.9131736841
20
1.8344377185
30
0.0000000000
10
44.9147628981
20
2.0248042466
30
0.0000000000
10
44.9154489845
20
2.2452844090
30
0.0000000000
10
44.9157000210
20
2.4009920056
30
0.0000000000
10
44.9157291787
20
2.4816857691
30
0.0000000000
11
44.9074661245
21
1.5250928628
31
0.0000000000
11
44.9095754188
21
1.5679260578
31
0.0000000000
11
44.9115300197
21
1.6683541326
31
0.0000000000
11
44.9132122644
21
1.8203010239
31
0.0000000000
11
44.9145202160
21
2.0145516718
31
0.0000000000
11
44.9153771153
21
2.2396047189
31
0.0000000000
11
44.9157291787
21
2.4816857691
31
0.0000000000
0
SPLINE
5
361
100
AcDbEntity
8
0
100
AcDbSpline
62
9
6
CONTINUOUS
70
0
71
3
72
12
73
8
74
6
42
0.0000001000
43
0.0000001000
44
0.0000000001
12
0.0007145508
22
-0.7813571075
32
0.0000000000
13
0.7813571083
23
-0.0007128046
33
0.0000000000
40
0.0000000000
40
0.0000000000
40
0.0000000000
40
0.0000000000
40
0.1998487703
40
0.3997899671
40
0.5998225284
40
0.7999112244
40
1.0000000000
40
1.0000000000
40
1.0000000000
40
1.0000000000
10
44.4075422769
20
2.0244076302
30
0.0000000000
10
44.4075898776
20
1.9723565445
30
0.0000000000
10
44.4242610608
20
1.8675124287
30
0.0000000000
10
44.4964949774
20
1.7262069898
30
0.0000000000
10
44.6089419390
20
1.6139086471
30
0.0000000000
10
44.7504095223
20
1.5417834101
30
0.0000000000
10
44.8553525288
20
1.5251404043
30
0.0000000000
10
44.9074661245
20
1.5250928629
30
0.0000000000
11
44.4075422769
21
2.0244076302
31
0.0000000000
11
44.4321219979
21
1.8702009592
31
0.0000000000
11
44.5031771382
21
1.7310694154
31
0.0000000000
11
44.6137619986
21
1.6206170791
31
0.0000000000
11
44.7530651169
21
1.5496446630
31
0.0000000000
11
44.9074661245
21
1.5250928629
31
0.0000000000
0
SPLINE
5
362
100
AcDbEntity
8
0
100
AcDbSpline
62
9
6
CONTINUOUS
70
0
71
3
72
10
73
6
74
4
42
0.0000001000
43
0.0000001000
44
0.0000000001
12
0.0308408054
22
41.9945838564
32
0.0000000000
13
-0.0308408159
23
41.9945838612
33
0.0000000000
40
0.0000000000
40
0.0000000000
40
0.0000000000
40
0.0000000000
40
0.3332888351
40
0.6667105879
40
1.0000000000
40
1.0000000000
40
1.0000000000
40
1.0000000000
10
44.4158053311
20
2.5027040833
30
0.0000000000
10
44.4192316298
20
7.1681460613
30
0.0000000000
10
44.4237976751
20
16.5008924737
30
0.0000000000
10
44.4237976795
20
30.4990913713
30
0.0000000000
10
44.4192316369
20
39.8318458612
30
0.0000000000
10
44.4158053311
20
44.4972959167
30
0.0000000000
11
44.4158053311
21
2.5027040833
31
0.0000000000
11
44.4226557093
21
16.4990321164
31
0.0000000000
11
44.4226557149
21
30.5009436517
31
0.0000000000
11
44.4158053311
21
44.4972959167
31
0.0000000000
0
SPLINE
5
363
100
AcDbEntity
8
0
100
AcDbSpline
62
9
6
CONTINUOUS
70
0
71
3
72
10
73
6
74
4
42
0.0000001000
43
0.0000001000
44
0.0000000001
12
0.0308408058
22
42.0366204923
32
0.0000000000
13
-0.0308408158
23
42.0366204915
33
0.0000000000
40
0.0000000000
40
0.0000000000
40
0.0000000000
40
0.0000000000
40
0.3332896861
40
0.6667103140
40
1.0000000000
40
1.0000000000
40
1.0000000000
40
1.0000000000
10
44.9157291787
20
2.4816857691
30
0.0000000000
10
44.9191554862
20
7.1518097853
30
0.0000000000
10
44.9237215237
20
16.4938944488
30
0.0000000000
10
44.9237215222
20
30.5061055542
30
0.0000000000
10
44.9191554873
20
39.8481902162
30
0.0000000000
10
44.9157291787
20
44.5183142309
30
0.0000000000
11
44.9157291787
21
2.4816857691
31
0.0000000000
11
44.9225795656
21
16.4920599154
31
0.0000000000
11
44.9225795653
21
30.5079400890
31
0.0000000000
11
44.9157291787
21
44.5183142309
31
0.0000000000
0
SPLINE
5
364
100
AcDbEntity
8
0
100
AcDbSpline
62
9
6
CONTINUOUS
70
0
71
3
72
12
73
8
74
6
42
0.0000001000
43
0.0000001000
44
0.0000000001
12
0.1919553875
22
-0.4628309000
32
0.0000000000
13
0.5010580614
23
-0.0003673187
33
0.0000000000
40
0.0000000000
40
0.0000000000
40
0.0000000000
40
0.0000000000
40
0.0546097780
40
0.1986040184
40
0.4190274283
40
0.6949392915
40
1.0000000000
40
1.0000000000
40
1.0000000000
40
1.0000000000
10
44.4158053311
20
2.5027040833
30
0.0000000000
10
44.4192995448
20
2.4942790524
30
0.0000000000
10
44.4634745635
20
2.4994951981
30
0.0000000000
10
44.5234619374
20
2.4862295980
30
0.0000000000
10
44.6353582367
20
2.4864143929
30
0.0000000000
10
44.7672427889
20
2.4819723273
30
0.0000000000
10
44.8647781363
20
2.4817231212
30
0.0000000000
10
44.9157291787
20
2.4816857697
30
0.0000000000
11
44.4158053311
21
2.5027040833
31
0.0000000000
11
44.4424026907
21
2.4962778446
31
0.0000000000
11
44.5143177944
21
2.4904668736
31
0.0000000000
11
44.6246652675
21
2.4858275309
31
0.0000000000
11
44.7628801010
21
2.4828040015
31
0.0000000000
11
44.9157291787
21
2.4816857697
31
0.0000000000
0
SPLINE
5
365
100
AcDbEntity
8
0
100
AcDbSpline
62
9
6
CONTINUOUS
70
0
71
3
72
13
73
9
74
7
42
0.0000001000
43
0.0000001000
44
0.0000000001
12
-0.0003487499
22
0.4784692708
32
0.0000000000
13
-0.1514174061
23
0.4538785476
33
0.0000000000
40
0.0000000000
40
0.0000000000
40
0.0000000000
40
0.0000000000
40
0.2529660912
40
0.4883516149
40
0.6914783512
40
0.8503087732
40
0.9552606132
40
1.0000000000
40
1.0000000000
40
1.0000000000
40
1.0000000000
10
44.4158053311
20
44.4972959167
30
0.0000000000
10
44.4157759238
20
44.5376414171
30
0.0000000000
10
44.4155276336
20
44.6155203756
30
0.0000000000
10
44.4148314778
20
44.7258344616
30
0.0000000000
10
44.4132700650
20
44.8210012927
30
0.0000000000
10
44.4125898530
20
44.8956995185
30
0.0000000000
10
44.4092066338
20
44.9443875884
30
0.0000000000
10
44.4098003842
20
44.9688236205
30
0.0000000000
10
44.4075422769
20
44.9755923698
30
0.0000000000
11
44.4158053311
21
44.4972959167
31
0.0000000000
11
44.4154533946
21
44.6183319385
31
0.0000000000
11
44.4145959341
21
44.7309534442
31
0.0000000000
11
44.4132861774
21
44.8281345459
31
0.0000000000
11
44.4116019508
21
44.9041113770
31
0.0000000000
11
44.4096451369
21
44.9542894799
31
0.0000000000
11
44.4075422769
21
44.9755923698
31
0.0000000000
0
SPLINE
5
366
100
AcDbEntity
8
0
100
AcDbSpline
62
9
6
CONTINUOUS
70
0
71
3
72
13
73
9
74
7
42
0.0000001000
43
0.0000001000
44
0.0000000001
12
-0.0003456843
22
0.9566793701
32
0.0000000000
13
-0.1576341190
23
0.9436032117
33
0.0000000000
40
0.0000000000
40
0.0000000000
40
0.0000000000
40
0.0000000000
40
0.2530432850
40
0.4882889388
40
0.6913402899
40
0.8501774073
40
0.9551729686
40
1.0000000000
40
1.0000000000
40
1.0000000000
40
1.0000000000
10
44.9157291787
20
44.5183142309
30
0.0000000000
10
44.9157000210
20
44.5990079944
30
0.0000000000
10
44.9154489844
20
44.7547155910
30
0.0000000000
10
44.9147628981
20
44.9751957534
30
0.0000000000
10
44.9131736841
20
45.1655622815
30
0.0000000000
10
44.9125714393
20
45.3145738165
30
0.0000000000
10
44.9090359881
20
45.4127243119
30
0.0000000000
10
44.9098215477
20
45.4608074936
30
0.0000000000
10
44.9074661245
20
45.4749071372
30
0.0000000000
11
44.9157291787
21
44.5183142309
31
0.0000000000
11
44.9153771153
21
44.7603952811
31
0.0000000000
11
44.9145202160
21
44.9854483282
31
0.0000000000
11
44.9132122644
21
45.1796989761
31
0.0000000000
11
44.9115300197
21
45.3316458674
31
0.0000000000
11
44.9095754188
21
45.4320739423
31
0.0000000000
11
44.9074661245
21
45.4749071372
31
0.0000000000
0
SPLINE
5
367
100
AcDbEntity
8
0
100
AcDbSpline
62
9
6
CONTINUOUS
70
0
71
3
72
12
73
8
74
6
42
0.0000001000
43
0.0000001000
44
0.0000000001
12
0.1920878019
22
0.4627758456
32
0.0000000000
13
0.5010579540
23
0.0003673964
33
0.0000000000
40
0.0000000000
40
0.0000000000
40
0.0000000000
40
0.0000000000
40
0.0546129504
40
0.1986086123
40
0.4190316711
40
0.6949417965
40
1.0000000000
40
1.0000000000
40
1.0000000000
40
1.0000000000
10
44.4158053311
20
44.4972959167
30
0.0000000000
10
44.4193021583
20
44.5057204348
30
0.0000000000
10
44.4634731182
20
44.5005051797
30
0.0000000000
10
44.5234657179
20
44.5137695786
30
0.0000000000
10
44.6353594968
20
44.5135853208
30
0.0000000000
10
44.7672441911
20
44.5180270680
30
0.0000000000
10
44.8647785656
20
44.5182763380
30
0.0000000000
10
44.9157291787
20
44.5183136971
30
0.0000000000
11
44.4158053311
21
44.4972959167
31
0.0000000000
11
44.4424043603
21
44.5037219887
31
0.0000000000
11
44.5143201758
21
44.5095328012
31
0.0000000000
11
44.6246674543
21
44.5141720186
31
0.0000000000
11
44.7628813888
21
44.5171954750
31
0.0000000000
11
44.9157291787
21
44.5183136971
31
0.0000000000
0
SPLINE
5
368
100
AcDbEntity
8
0
100
AcDbSpline
62
9
6
CONTINUOUS
70
0
71
3
72
12
73
8
74
6
42
0.0000001000
43
0.0000001000
44
0.0000000001
12
0.0007145527
22
0.7813571046
32
0.0000000000
13
0.7813571063
23
0.0007128135
33
0.0000000000
40
0.0000000000
40
0.0000000000
40
0.0000000000
40
0.0000000000
40
0.1998532782
40
0.3997964689
40
0.5998286573
40
0.7999149935
40
1.0000000000
40
1.0000000000
40
1.0000000000
40
1.0000000000
10
44.4075422769
20
44.9755923698
30
0.0000000000
10
44.4075898788
20
45.0276446294
30
0.0000000000
10
44.4242617225
20
45.1324904868
30
0.0000000000
10
44.4964976387
20
45.2737967766
30
0.0000000000
10
44.6089455767
20
45.3860938495
30
0.0000000000
10
44.7504121411
20
45.4582171672
30
0.0000000000
10
44.8553535106
20
45.4748595961
30
0.0000000000
10
44.9074661245
20
45.4749071372
30
0.0000000000
11
44.4075422769
21
44.9755923698
31
0.0000000000
11
44.4321231040
21
45.1298024308
31
0.0000000000
11
44.5031801662
21
45.2689347421
31
0.0000000000
11
44.6137659233
21
45.3793857676
31
0.0000000000
11
44.7530679528
21
45.4503562579
31
0.0000000000
11
44.9074661245
21
45.4749071372
31
0.0000000000
0
SPLINE
5
369
100
AcDbEntity
8
0
100
AcDbSpline
62
9
6
CONTINUOUS
70
0
71
3
72
11
73
7
74
5
42
0.0000001000
43
0.0000001000
44
0.0000000001
12
0.3000546058
22
0.0000000000
32
0.0000000000
13
0.0000000000
23
0.3000546056
33
0.0000000000
40
0.0000000000
40
0.0000000000
40
0.0000000000
40
0.0000000000
40
0.3826150776
40
0.7069896379
40
0.9237572196
40
1.0000000000
40
1.0000000000
40
1.0000000000
40
1.0000000000
10
52.4162642412
20
17.5464278567
30
0.0000000000
10
52.4545327133
20
17.5464278567
30
0.0000000000
10
52.5229162627
20
17.5486390210
30
0.0000000000
10
52.6235076774
20
17.5420642500
30
0.0000000000
10
52.6690532501
20
17.5572794192
30
0.0000000000
10
52.7162642412
20
17.5423743342
30
0.0000000000
10
52.7162642412
20
17.5500000000
30
0.0000000000
11
52.4162642412
21
17.5464278567
31
0.0000000000
11
52.5310693355
21
17.5466997702
31
0.0000000000
11
52.6283963361
21
17.5474741140
31
0.0000000000
11
52.6934281224
21
17.5486330006
31
0.0000000000
11
52.7162642412
21
17.5500000000
31
0.0000000000
0
SPLINE
5
36A
100
AcDbEntity
8
0
100
AcDbSpline
62
9
6
CONTINUOUS
70
0
71
3
72
11
73
7
74
5
42
0.0000001000
43
0.0000001000
44
0.0000000001
12
-0.3000546062
22
0.0000000000
32
0.0000000000
13
0.0000000000
23
0.3000546043
33
0.0000000000
40
0.0000000000
40
0.0000000000
40
0.0000000000
40
0.0000000000
40
0.3826148622
40
0.7069894362
40
0.9237571483
40
1.0000000000
40
1.0000000000
40
1.0000000000
40
1.0000000000
10
58.4162642412
20
17.5464278567
30
0.0000000000
10
58.3779957906
20
17.5464278567
30
0.0000000000
10
58.3096122594
20
17.5486390193
30
0.0000000000
10
58.2090208541
20
17.5420642494
30
0.0000000000
10
58.1634752659
20
17.5572794247
30
0.0000000000
10
58.1162642412
20
17.5423743271
30
0.0000000000
10
58.1162642412
20
17.5500000000
30
0.0000000000
11
58.4162642412
21
17.5464278567
31
0.0000000000
11
58.3014592115
21
17.5466997700
31
0.0000000000
11
58.2041322069
21
17.5474741133
31
0.0000000000
11
58.1391003815
21
17.5486330000
31
0.0000000000
11
58.1162642412
21
17.5500000000
31
0.0000000000
0
SPLINE
5
36B
100
AcDbEntity
8
0
100
AcDbSpline
62
9
6
CONTINUOUS
70
0
71
3
72
32
73
28
74
26
42
0.0000001000
43
0.0000001000
44
0.0000000001
12
0.0000117165
22
9.4186803837
32
0.0000000000
13
-0.0000284392
23
-9.4186803861
33
0.0000000000
40
0.0000000000
40
0.0000000000
40
0.0000000000
40
0.0000000000
40
0.0215080743
40
0.0441732964
40
0.0687337344
40
0.0956857499
40
0.1256053242
40
0.1590536662
40
0.1965799048
40
0.2387305598
40
0.2860634344
40
0.3391381525
40
0.3983221431
40
0.4625181989
40
0.5287008097
40
0.5935483525
40
0.6539380207
40
0.7081963863
40
0.7566038684
40
0.7997181144
40
0.8380995410
40
0.8722972547
40
0.9028581585
40
0.9303414580
40
0.9553181558
40
0.9783327027
40
1.0000000000
40
1.0000000000
40
1.0000000000
40
1.0000000000
10
52.4162642412
20
17.5464278567
30
0.0000000000
10
52.4162643252
20
17.6139537492
30
0.0000000000
10
52.4209443546
20
17.7526829440
30
0.0000000000
10
52.4431511380
20
17.9675053498
30
0.0000000000
10
52.4842118895
20
18.1969784613
30
0.0000000000
10
52.5494856982
20
18.4444800367
30
0.0000000000
10
52.6460797061
20
18.7115285847
30
0.0000000000
10
52.7831093938
20
18.9977636129
30
0.0000000000
10
52.9715606179
20
19.2997758091
30
0.0000000000
10
53.2239426481
20
19.6099999109
30
0.0000000000
10
53.5534523092
20
19.9153243499
30
0.0000000000
10
53.9718490309
20
20.1951996283
30
0.0000000000
10
54.4821846846
20
20.4188789921
30
0.0000000000
10
55.0670944059
20
20.5490655047
30
0.0000000000
10
55.6844265917
20
20.5576046004
30
0.0000000000
10
56.2784407490
20
20.4419012959
30
0.0000000000
10
56.8029443456
20
20.2266751710
30
0.0000000000
10
57.2361222474
20
19.9492361527
30
0.0000000000
10
57.5781980356
20
19.6425115214
30
0.0000000000
10
57.8405131995
20
19.3285981083
30
0.0000000000
10
58.0364294559
20
19.0216951089
30
0.0000000000
10
58.1787879648
20
18.7301602244
30
0.0000000000
10
58.2789632622
20
18.4579660129
30
0.0000000000
10
58.3464559843
20
18.2058736367
30
0.0000000000
10
58.3887610825
20
17.9724753303
30
0.0000000000
10
58.4114950115
20
17.7547804064
30
0.0000000000
10
58.4162644466
20
17.6144536394
30
0.0000000000
10
58.4162642412
20
17.5464278567
30
0.0000000000
11
52.4162642412
21
17.5464278567
31
0.0000000000
11
52.4230956900
21
17.7488903141
31
0.0000000000
11
52.4450457454
21
17.9612353251
31
0.0000000000
11
52.4857924724
21
18.1889453293
31
0.0000000000
11
52.5505287043
21
18.4344046360
31
0.0000000000
11
52.6463840256
21
18.6994039492
31
0.0000000000
11
52.7824215159
21
18.9835580016
31
0.0000000000
11
52.9695346657
21
19.2834144815
31
0.0000000000
11
53.2200838638
21
19.5913705107
31
0.0000000000
11
53.5471036184
21
19.8943680435
31
0.0000000000
11
53.9626199677
21
20.1722888606
31
0.0000000000
11
54.4731799618
21
20.3960350849
31
0.0000000000
11
55.0633848264
21
20.5273755747
31
0.0000000000
11
55.6866780875
21
20.5359950815
31
0.0000000000
11
56.2861933606
21
20.4192408809
31
0.0000000000
11
56.8124161292
21
20.2033409501
31
0.0000000000
11
57.2427734093
21
19.9277384371
31
0.0000000000
11
57.5822410710
21
19.6233734133
31
0.0000000000
11
57.8426366873
21
19.3117734723
31
0.0000000000
11
58.0371579154
21
19.0070679267
31
0.0000000000
11
58.1784939635
21
18.7176360440
31
0.0000000000
11
58.2779120785
21
18.4475067180
31
0.0000000000
11
58.3448590721
21
18.1974572368
31
0.0000000000
11
58.3868170905
21
17.9659816945
31
0.0000000000
11
58.4093312714
21
17.7503874063
31
0.0000000000
11
58.4162642412
21
17.5464278567
31
0.0000000000
0
SPLINE
5
36C
100
AcDbEntity
8
0
100
AcDbSpline
62
9
6
CONTINUOUS
70
0
71
3
72
13
73
9
74
7
42
0.0000001000
43
0.0000001000
44
0.0000000001
12
0.0308987643
22
0.7356790123
32
0.0000000000
13
0.7353237496
23
0.0384360246
33
0.0000000000
40
0.0000000000
40
0.0000000000
40
0.0000000000
40
0.0000000000
40
0.1662609401
40
0.3331258118
40
0.4999521687
40
0.6667701255
40
0.8336465628
40
1.0000000000
40
1.0000000000
40
1.0000000000
40
1.0000000000
10
0.9327966980
20
44.4972959167
30
0.0000000000
10
0.9345091172
20
44.5380674781
30
0.0000000000
10
0.9480653257
20
44.6196865533
30
0.0000000000
10
0.9975624306
20
44.7332712524
30
0.0000000000
10
1.0733430197
20
44.8315531514
30
0.0000000000
10
1.1708290410
20
44.9083599046
30
0.0000000000
10
1.2839118472
20
44.9590498673
30
0.0000000000
10
1.3654122106
20
44.9734610482
30
0.0000000000
10
1.4061867550
20
44.9755923698
30
0.0000000000
11
0.9327966980
21
44.4972959167
31
0.0000000000
11
0.9528792760
21
44.6180599987
31
0.0000000000
11
1.0019388841
21
44.7307077086
31
0.0000000000
11
1.0769613616
21
44.8279754394
31
0.0000000000
11
1.1734341313
21
44.9040074640
31
0.0000000000
11
1.2855705530
21
44.9542455709
31
0.0000000000
11
1.4061867550
21
44.9755923698
31
0.0000000000
0
SPLINE
5
36D
100
AcDbEntity
8
0
100
AcDbSpline
62
9
6
CONTINUOUS
70
0
71
3
72
12
73
8
74
6
42
0.0000001000
43
0.0000001000
44
0.0000000001
12
-0.4990705841
22
-0.0261551836
32
0.0000000000
13
0.0261472366
23
-0.4990710013
33
0.0000000000
40
0.0000000000
40
0.0000000000
40
0.0000000000
40
0.0000000000
40
0.0492065481
40
0.1912403569
40
0.4123852872
40
0.6910492527
40
1.0000000000
40
1.0000000000
40
1.0000000000
40
1.0000000000
10
1.3887449801
20
45.4749071372
30
0.0000000000
10
1.3805591332
20
45.4744781351
30
0.0000000000
10
1.3965864537
20
45.4242228488
30
0.0000000000
10
1.3832590261
20
45.3725184816
30
0.0000000000
10
1.3949708462
20
45.2567844815
30
0.0000000000
10
1.3978377709
20
45.1256547081
30
0.0000000000
10
1.4034940189
20
45.0269884894
30
0.0000000000
10
1.4061867550
20
44.9755923698
30
0.0000000000
11
1.3887449801
21
45.4749071372
31
0.0000000000
11
1.3873366060
21
45.4503562578
31
0.0000000000
11
1.3886244861
21
45.3793857676
31
0.0000000000
11
1.3924826979
21
45.2689347422
31
0.0000000000
11
1.3985340080
21
45.1298024308
31
0.0000000000
11
1.4061867550
21
44.9755923698
31
0.0000000000
0
SPLINE
5
36E
100
AcDbEntity
8
0
100
AcDbSpline
62
9
6
CONTINUOUS
70
0
71
3
72
12
73
8
74
6
42
0.0000001000
43
0.0000001000
44
0.0000000001
12
-0.4990705793
22
0.0261551775
32
0.0000000000
13
0.0261471368
23
0.4990710026
33
0.0000000000
40
0.0000000000
40
0.0000000000
40
0.0000000000
40
0.0000000000
40
0.0492080736
40
0.1912450852
40
0.4123921964
40
0.6910548878
40
1.0000000000
40
1.0000000000
40
1.0000000000
40
1.0000000000
10
1.3887449801
20
1.5250928628
30
0.0000000000
10
1.3805588795
20
1.5255218781
30
0.0000000000
10
1.3965867691
20
1.5757784403
30
0.0000000000
10
1.3832590543
20
1.6274836600
30
0.0000000000
10
1.3949709925
20
1.7432183652
30
0.0000000000
10
1.3978379186
20
1.8743474069
30
0.0000000000
10
1.4034940783
20
1.9730124479
30
0.0000000000
10
1.4061867550
20
2.0244076302
30
0.0000000000
11
1.3887449801
21
1.5250928628
31
0.0000000000
11
1.3873366287
21
1.5496445068
31
0.0000000000
11
1.3886245909
21
1.6206165959
31
0.0000000000
11
1.3924828732
21
1.7310687086
31
0.0000000000
11
1.3985341647
21
1.8702003823
31
0.0000000000
11
1.4061867550
21
2.0244076302
31
0.0000000000
0
SPLINE
5
36F
100
AcDbEntity
8
0
100
AcDbSpline
62
9
6
CONTINUOUS
70
0
71
3
72
13
73
9
74
7
42
0.0000001000
43
0.0000001000
44
0.0000000001
12
-0.7353237514
22
0.0384359975
32
0.0000000000
13
-0.0308987932
23
0.7356790123
33
0.0000000000
40
0.0000000000
40
0.0000000000
40
0.0000000000
40
0.0000000000
40
0.1663534372
40
0.3332298744
40
0.5000478313
40
0.6668741882
40
0.8337390599
40
1.0000000000
40
1.0000000000
40
1.0000000000
40
1.0000000000
10
1.4061867550
20
2.0244076302
30
0.0000000000
10
1.3654122105
20
2.0265389503
30
0.0000000000
10
1.2839118474
20
2.0409501338
30
0.0000000000
10
1.1708290408
20
2.0916400949
30
0.0000000000
10
1.0733430197
20
2.1684468486
30
0.0000000000
10
0.9975624311
20
2.2667287478
30
0.0000000000
10
0.9480653246
20
2.3803134466
30
0.0000000000
10
0.9345091188
20
2.4619325219
30
0.0000000000
10
0.9327966980
20
2.5027040833
30
0.0000000000
11
1.4061867550
21
2.0244076302
31
0.0000000000
11
1.2855705530
21
2.0457544293
31
0.0000000000
11
1.1734341312
21
2.0959925358
31
0.0000000000
11
1.0769613616
21
2.1720245606
31
0.0000000000
11
1.0019388842
21
2.2692922915
31
0.0000000000
11
0.9528792758
21
2.3819400013
31
0.0000000000
11
0.9327966980
21
2.5027040833
31
0.0000000000
0
SPLINE
5
370
100
AcDbEntity
8
0
100
AcDbSpline
62
9
6
CONTINUOUS
70
0
71
3
72
10
73
6
74
4
42
0.0000001000
43
0.0000001000
44
0.0000000001
12
-1.7657702986
22
41.9684643642
32
0.0000000000
13
1.7657701722
23
41.9684643592
33
0.0000000000
40
0.0000000000
40
0.0000000000
40
0.0000000000
40
0.0000000000
40
0.3333329306
40
0.6666671886
40
1.0000000000
40
1.0000000000
40
1.0000000000
40
1.0000000000
10
0.9327966980
20
2.5027040833
30
0.0000000000
10
0.7366002352
20
7.1658611564
30
0.0000000000
10
0.4749176248
20
16.4982439042
30
0.0000000000
10
0.4749176775
20
30.5017594371
30
0.0000000000
10
0.7366003194
20
39.8341405117
30
0.0000000000
10
0.9327966980
20
44.4972959167
30
0.0000000000
11
0.9327966980
21
2.5027040833
31
0.0000000000
11
0.5403385467
21
16.4990507150
31
0.0000000000
11
0.5403386131
21
30.5009542942
31
0.0000000000
11
0.9327966980
21
44.4972959167
31
0.0000000000
0
SPLINE
5
371
100
AcDbEntity
8
0
100
AcDbSpline
62
9
6
CONTINUOUS
70
0
71
3
72
13
73
9
74
7
42
0.0000001000
43
0.0000001000
44
0.0000000001
12
0.4004939611
22
1.1471149071
32
0.0000000000
13
1.2148327365
23
0.0212001190
33
0.0000000000
40
0.0000000000
40
0.0000000000
40
0.0000000000
40
0.0000000000
40
0.2019102917
40
0.3934798756
40
0.5688338021
40
0.7280828137
40
0.8703382229
40
1.0000000000
40
1.0000000000
40
1.0000000000
40
1.0000000000
10
19.0646731499
20
7.4384449894
30
0.0000000000
10
19.0916277674
20
7.5156497579
30
0.0000000000
10
19.1630849887
20
7.6602420108
30
0.0000000000
10
19.3125986513
20
7.8381311454
30
0.0000000000
10
19.4837091415
20
7.9678887943
30
0.0000000000
10
19.6591320742
20
8.0515488206
30
0.0000000000
10
19.8286200954
20
8.0969480788
30
0.0000000000
10
19.9387680063
20
8.1075827819
30
0.0000000000
10
19.9912737968
20
8.1084990636
30
0.0000000000
11
19.0646731499
21
7.4384449894
31
0.0000000000
11
19.1733799464
21
7.6583699346
31
0.0000000000
11
19.3230975297
21
7.8365890859
31
0.0000000000
11
19.4928680240
21
7.9653203719
31
0.0000000000
11
19.6675048519
21
8.0486300418
31
0.0000000000
11
19.8344626331
21
8.0933485714
31
0.0000000000
11
19.9912737968
21
8.1084990636
31
0.0000000000
0
SPLINE
5
372
100
AcDbEntity
8
0
100
AcDbSpline
62
9
6
CONTINUOUS
70
0
71
3
72
9
73
5
74
3
42
0.0000001000
43
0.0000001000
44
0.0000000001
12
-9.5087256920
22
0.0543592681
32
0.0000000000
13
-9.5087267118
23
0.0541806593
33
0.0000000000
40
0.0000000000
40
0.0000000000
40
0.0000000000
40
0.0000000000
40
0.5003812241
40
1.0000000000
40
1.0000000000
40
1.0000000000
40
1.0000000000
10
19.0087262032
20
40.8051597608
30
0.0000000000
10
17.4227302694
20
40.8142265465
30
0.0000000000
10
14.2531549530
20
40.8323313293
30
0.0000000000
10
11.0835794667
20
40.8504063443
30
0.0000000000
10
9.5000000000
20
40.8594295692
30
0.0000000000
11
19.0087262032
21
40.8051597608
31
0.0000000000
11
14.2507382735
21
40.8323376800
31
0.0000000000
11
9.5000000000
21
40.8594295692
31
0.0000000000
0
SPLINE
5
373
100
AcDbEntity
8
0
100
AcDbSpline
62
9
6
CONTINUOUS
70
0
71
3
72
10
73
6
74
4
42
0.0000001000
43
0.0000001000
44
0.0000000001
12
-9.5646725108
22
-0.0582092509
32
0.0000000000
13
-9.5646737859
23
-0.0579994400
33
0.0000000000
40
0.0000000000
40
0.0000000000
40
0.0000000000
40
0.0000000000
40
0.3329849738
40
0.6663190833
40
1.0000000000
40
1.0000000000
40
1.0000000000
40
1.0000000000
10
19.0646731499
20
7.4384449894
30
0.0000000000
10
18.0030424081
20
7.4319840541
30
0.0000000000
10
15.8786677541
20
7.4190632098
30
0.0000000000
10
12.6904433707
20
7.3996951761
30
0.0000000000
10
10.5638497056
20
7.3867919361
30
0.0000000000
10
9.5000000000
20
7.3803408340
30
0.0000000000
11
19.0646731499
21
7.4384449894
31
0.0000000000
11
15.8797808534
21
7.4190738644
31
0.0000000000
11
12.6915490463
21
7.3997057714
31
0.0000000000
11
9.5000000000
21
7.3803408340
31
0.0000000000
0
SPLINE
5
374
100
AcDbEntity
8
0
100
AcDbSpline
62
9
6
CONTINUOUS
70
0
71
3
72
13
73
9
74
7
42
0.0000001000
43
0.0000001000
44
0.0000000001
12
-1.2148493554
22
0.0212434709
32
0.0000000000
13
-0.4005442216
23
1.1471157612
33
0.0000000000
40
0.0000000000
40
0.0000000000
40
0.0000000000
40
0.0000000000
40
0.1304448982
40
0.2750048464
40
0.4347107173
40
0.6109995862
40
0.8022507238
40
1.0000000000
40
1.0000000000
40
1.0000000000
40
1.0000000000
10
19.9912737968
20
38.8915009364
30
0.0000000000
10
19.9384501633
20
38.8924246372
30
0.0000000000
10
19.8270499677
20
38.9032281523
30
0.0000000000
10
19.6562433185
20
38.9494140023
30
0.0000000000
10
19.4797980759
20
39.0344418180
30
0.0000000000
10
19.3089647336
20
39.1653215168
30
0.0000000000
10
19.1613159595
20
39.3428884112
30
0.0000000000
10
19.0910755932
20
39.4859412401
30
0.0000000000
10
19.0646731499
20
39.5615550106
30
0.0000000000
11
19.9912737968
21
38.8915009364
31
0.0000000000
11
19.8335204141
21
38.9068167949
31
0.0000000000
11
19.6639630406
21
38.9526600756
31
0.0000000000
11
19.4891631459
21
39.0369198786
31
0.0000000000
11
19.3191244221
21
39.1671782970
31
0.0000000000
11
19.1705942613
21
39.3458897613
31
0.0000000000
11
19.0646731499
21
39.5615550106
31
0.0000000000
0
SPLINE
5
375
100
AcDbEntity
8
0
100
AcDbSpline
62
9
6
CONTINUOUS
70
0
71
3
72
12
73
8
74
6
42
0.0000001000
43
0.0000001000
44
0.0000000001
12
0.0005443336
22
-1.5972713104
32
0.0000000000
13
0.0000275681
23
-1.5972714018
33
0.0000000000
40
0.0000000000
40
0.0000000000
40
0.0000000000
40
0.0000000000
40
0.2204453266
40
0.4463810232
40
0.6579304053
40
0.8416756533
40
1.0000000000
40
1.0000000000
40
1.0000000000
40
1.0000000000
10
34.3656945500
20
32.1000000000
30
0.0000000000
10
34.3657345486
20
31.9826296681
30
0.0000000000
10
34.3760469904
20
31.7448921032
30
0.0000000000
10
34.4146783285
20
31.3966329717
30
0.0000000000
10
34.4581258952
20
31.0687495862
30
0.0000000000
10
34.4905088482
20
30.7757346581
30
0.0000000000
10
34.4999985451
20
30.5936228502
30
0.0000000000
10
34.5000000000
20
30.5093271998
30
0.0000000000
11
34.3656945500
21
32.1000000000
31
0.0000000000
11
34.3797973508
21
31.7481715210
31
0.0000000000
11
34.4168323950
21
31.3891962676
31
0.0000000000
11
34.4587747488
21
31.0539076593
31
0.0000000000
11
34.4889606500
21
30.7619730842
31
0.0000000000
11
34.5000000000
21
30.5093271998
31
0.0000000000
0
SPLINE
5
376
100
AcDbEntity
8
0
100
AcDbSpline
62
9
6
CONTINUOUS
70
0
71
3
72
12
73
8
74
6
42
0.0000001000
43
0.0000001000
44
0.0000000001
12
-0.0000183999
22
-1.5972575549
32
0.0000000000
13
-0.0006099096
23
-1.5972574389
33
0.0000000000
40
0.0000000000
40
0.0000000000
40
0.0000000000
40
0.0000000000
40
0.1529845524
40
0.3287581305
40
0.5299448047
40
0.7580328279
40
1.0000000000
40
1.0000000000
40
1.0000000000
40
1.0000000000
10
34.5000000000
20
35.7906728002
30
0.0000000000
10
34.4999990617
20
35.7092208895
30
0.0000000000
10
34.4911736555
20
35.5341930472
30
0.0000000000
10
34.4608636183
20
35.2536312532
30
0.0000000000
10
34.4187944057
20
34.9342549909
30
0.0000000000
10
34.3777431786
20
34.5791723041
30
0.0000000000
10
34.3657437427
20
34.3288279552
30
0.0000000000
10
34.3656945500
20
34.2000000000
30
0.0000000000
11
34.5000000000
21
35.7906728002
31
0.0000000000
11
34.4896248028
21
35.5465374297
31
0.0000000000
11
34.4613060617
21
35.2672136063
31
0.0000000000
11
34.4214543710
21
34.9483473403
31
0.0000000000
11
34.3825353327
21
34.5861168065
31
0.0000000000
11
34.3656945500
21
34.2000000000
31
0.0000000000
0
SPLINE
5
377
100
AcDbEntity
8
0
100
AcDbSpline
62
9
6
CONTINUOUS
70
0
71
3
72
12
73
8
74
6
42
0.0000001000
43
0.0000001000
44
0.0000000001
12
0.0087246135
22
0.4999850191
32
0.0000000000
13
-0.4999849763
23
0.0087272680
33
0.0000000000
40
0.0000000000
40
0.0000000000
40
0.0000000000
40
0.0000000000
40
0.3098579557
40
0.5892097349
40
0.8103191748
40
0.9518361988
40
1.0000000000
40
1.0000000000
40
1.0000000000
40
1.0000000000
10
34.0087262032
20
38.6468253945
30
0.0000000000
10
34.0096273335
20
38.6984668398
30
0.0000000000
10
34.0118462631
20
38.7976050022
30
0.0000000000
10
34.0101187264
20
38.9290667573
30
0.0000000000
10
34.0177924642
20
39.0452760496
30
0.0000000000
10
34.0027082522
20
39.0962634056
30
0.0000000000
10
34.0167532622
20
39.1466091293
30
0.0000000000
10
34.0087262032
20
39.1467492421
30
0.0000000000
11
34.0087262032
21
38.6468253945
31
0.0000000000
11
34.0110000885
21
38.8017566295
31
0.0000000000
11
34.0121908759
21
38.9414445215
31
0.0000000000
11
34.0121817145
21
39.0520127583
31
0.0000000000
11
34.0109752731
21
39.1227696374
31
0.0000000000
11
34.0087262032
21
39.1467492421
31
0.0000000000
0
SPLINE
5
378
100
AcDbEntity
8
0
100
AcDbSpline
62
9
6
CONTINUOUS
70
0
71
3
72
11
73
7
74
5
42
0.0000001000
43
0.0000001000
44
0.0000000001
12
0.0087242971
22
0.4999669136
32
0.0000000000
13
-0.4999668690
23
0.0087269562
33
0.0000000000
40
0.0000000000
40
0.0000000000
40
0.0000000000
40
0.0000000000
40
0.3825594610
40
0.7068735929
40
0.9236229581
40
1.0000000000
40
1.0000000000
40
1.0000000000
40
1.0000000000
10
19.9912737968
20
38.8915009364
30
0.0000000000
10
19.9923863176
20
38.9552566274
30
0.0000000000
10
19.9907898620
20
39.0692673940
30
0.0000000000
10
20.0033773785
20
39.2366023965
30
0.0000000000
10
19.9801667764
20
39.3130715434
30
0.0000000000
10
20.0040024603
20
39.3912026043
30
0.0000000000
10
19.9912737968
20
39.3914247840
30
0.0000000000
11
19.9912737968
21
38.8915009364
31
0.0000000000
11
19.9939475520
21
39.0827784405
31
0.0000000000
11
19.9948864295
21
39.2449467427
31
0.0000000000
11
19.9939475503
21
39.3533266846
31
0.0000000000
11
19.9912737968
21
39.3914247840
31
0.0000000000
0
SPLINE
5
379
100
AcDbEntity
8
0
100
AcDbSpline
62
9
6
CONTINUOUS
70
0
71
3
72
11
73
7
74
5
42
0.0000001000
43
0.0000001000
44
0.0000000001
12
0.4642567373
22
0.1622491600
32
0.0000000000
13
-0.1598981330
23
0.4650717099
33
0.0000000000
40
0.0000000000
40
0.0000000000
40
0.0000000000
40
0.0000000000
40
0.3838949988
40
0.7080589917
40
0.9241614522
40
1.0000000000
40
1.0000000000
40
1.0000000000
40
1.0000000000
10
19.0646724023
20
39.5615550082
30
0.0000000000
10
19.1240810155
20
39.5823172219
30
0.0000000000
10
19.2288039620
20
39.6228847525
30
0.0000000000
10
19.3885309133
20
39.6657803954
30
0.0000000000
10
19.4503955602
20
39.7146986666
30
0.0000000000
10
19.5320229673
20
39.7146975993
30
0.0000000000
10
19.5279808199
20
39.7264543870
30
0.0000000000
11
19.0646724023
21
39.5615550082
31
0.0000000000
11
19.2428278224
21
39.6240427816
31
0.0000000000
11
19.3931215364
21
39.6772114710
31
0.0000000000
11
19.4931438799
21
39.7131338494
31
0.0000000000
11
19.5279808199
21
39.7264543870
31
0.0000000000
0
SPLINE
5
37A
100
AcDbEntity
8
0
100
AcDbSpline
62
9
6
CONTINUOUS
70
0
71
3
72
11
73
7
74
5
42
0.0000001000
43
0.0000001000
44
0.0000000001
12
0.5171477453
22
-0.0020862283
32
0.0000000000
13
0.0000521711
23
-0.5171519492
33
0.0000000000
40
0.0000000000
40
0.0000000000
40
0.0000000000
40
0.0000000000
40
0.3649086280
40
0.6760133781
40
0.8921528812
40
1.0000000000
40
1.0000000000
40
1.0000000000
40
1.0000000000
10
19.0091809718
20
40.0011604851
30
0.0000000000
10
19.0720848632
20
40.0009067242
30
0.0000000000
10
19.1878647289
20
39.9965214270
30
0.0000000000
10
19.3433941977
20
39.9728790879
30
0.0000000000
10
19.4431468927
20
39.9488936426
30
0.0000000000
10
19.4999981244
20
39.9099397475
30
0.0000000000
10
19.4999999999
20
39.8913486316
30
0.0000000000
11
19.0091809718
21
40.0011604851
31
0.0000000000
11
19.1976827663
21
39.9922302598
31
0.0000000000
11
19.3567807077
21
39.9682942702
31
0.0000000000
11
19.4628101514
21
39.9329128172
31
0.0000000000
11
19.4999999999
21
39.8913486316
31
0.0000000000
0
SPLINE
5
37B
100
AcDbEntity
8
0
100
AcDbSpline
62
9
6
CONTINUOUS
70
0
71
3
72
11
73
7
74
5
42
0.0000001000
43
0.0000001000
44
0.0000000001
12
0.6327516343
22
-0.0068667975
32
0.0000000000
13
0.0000000000
23
-0.6327888935
33
0.0000000000
40
0.0000000000
40
0.0000000000
40
0.0000000000
40
0.0000000000
40
0.3007655770
40
0.5742506146
40
0.8049027741
40
1.0000000000
40
1.0000000000
40
1.0000000000
40
1.0000000000
10
19.0087262032
20
40.8051597608
30
0.0000000000
10
19.0721628400
20
40.8044713287
30
0.0000000000
10
19.1937666442
20
40.7890432235
30
0.0000000000
10
19.3531172107
20
40.7247630473
30
0.0000000000
10
19.4681155793
20
40.6259777475
30
0.0000000000
10
19.5000000000
20
40.5354954797
30
0.0000000000
10
19.5000000000
20
40.4943436938
30
0.0000000000
11
19.0087262032
21
40.8051597608
31
0.0000000000
11
19.1973719388
21
40.7799622628
31
0.0000000000
11
19.3566252370
21
40.7122307322
31
0.0000000000
11
19.4627702576
21
40.6120516868
31
0.0000000000
11
19.5000000000
21
40.4943436938
31
0.0000000000
0
SPLINE
5
37C
100
AcDbEntity
8
0
100
AcDbSpline
62
9
6
CONTINUOUS
70
0
71
3
72
9
73
5
74
3
42
0.0000001000
43
0.0000001000
44
0.0000000001
12
0.2034168936
22
-0.0024801360
32
0.0000000000
13
0.1941526524
23
-0.0624537136
33
0.0000000000
40
0.0000000000
40
0.0000000000
40
0.0000000000
40
0.0000000000
40
0.7549879484
40
1.0000000000
40
1.0000000000
40
1.0000000000
40
1.0000000000
10
19.0087262032
20
42.9420904629
30
0.0000000000
10
19.0599186376
20
42.9414663053
30
0.0000000000
10
19.1278853829
20
42.9333930358
30
0.0000000000
10
19.1934638865
20
42.9151839360
30
0.0000000000
10
19.2093204664
20
42.9100832985
30
0.0000000000
11
19.0087262032
21
42.9420904629
31
0.0000000000
11
19.1611854708
21
42.9234983707
31
0.0000000000
11
19.2093204664
21
42.9100832985
31
0.0000000000
0
SPLINE
5
37D
100
AcDbEntity
8
0
100
AcDbSpline
62
9
6
CONTINUOUS
70
0
71
3
72
11
73
7
74
5
42
0.0000001000
43
0.0000001000
44
0.0000000001
12
0.4365616674
22
-0.1404302085
32
0.0000000000
13
0.0000000000
23
-0.4574267580
33
0.0000000000
40
0.0000000000
40
0.0000000000
40
0.0000000000
40
0.0000000000
40
0.2105150838
40
0.5017859350
40
0.7621126893
40
1.0000000000
40
1.0000000000
40
1.0000000000
40
1.0000000000
10
19.2093204664
20
42.9100832985
30
0.0000000000
10
19.2399547384
20
42.9002290728
30
0.0000000000
10
19.3110981925
20
42.8710537376
30
0.0000000000
10
19.4081518796
20
42.8042431707
30
0.0000000000
10
19.4820513161
20
42.7059050818
30
0.0000000000
10
19.5000000000
20
42.6291652259
30
0.0000000000
10
19.5000000000
20
42.5928932188
30
0.0000000000
11
19.2093204664
21
42.9100832985
31
0.0000000000
11
19.2983739744
21
42.8731418072
31
0.0000000000
11
19.4069026076
21
42.7958558279
31
0.0000000000
11
19.4763195742
21
42.6991013348
31
0.0000000000
11
19.5000000000
21
42.5928932188
31
0.0000000000
0
SPLINE
5
37E
100
AcDbEntity
8
0
100
AcDbSpline
62
9
6
CONTINUOUS
70
0
71
3
72
10
73
6
74
4
42
0.0000001000
43
0.0000001000
44
0.0000000001
12
-0.2574028570
22
0.2574028559
32
0.0000000000
13
-0.3381447029
23
-0.1347984457
33
0.0000000000
40
0.0000000000
40
0.0000000000
40
0.0000000000
40
0.0000000000
40
0.2873825923
40
0.6157919838
40
1.0000000000
40
1.0000000000
40
1.0000000000
40
1.0000000000
10
17.8156819847
20
44.4843180153
30
0.0000000000
10
17.7910242846
20
44.5089757153
30
0.0000000000
10
17.7221070781
20
44.5466499059
30
0.0000000000
10
17.5977482162
20
44.5511000908
30
0.0000000000
10
17.5141607664
20
44.5249819451
30
0.0000000000
10
17.4708547979
20
44.5077183973
30
0.0000000000
11
17.8156819847
21
44.4843180153
31
0.0000000000
11
17.7250298880
21
44.5365313897
31
0.0000000000
11
17.6057561557
21
44.5446312217
31
0.0000000000
11
17.4708547979
21
44.5077183973
31
0.0000000000
0
SPLINE
5
37F
100
AcDbEntity
8
0
100
AcDbSpline
62
9
6
CONTINUOUS
70
0
71
3
72
10
73
6
74
4
42
0.0000001000
43
0.0000001000
44
0.0000000001
12
-0.2578131681
22
0.2578131681
32
0.0000000000
13
-0.3252563795
23
-0.1647529895
33
0.0000000000
40
0.0000000000
40
0.0000000000
40
0.0000000000
40
0.0000000000
40
0.2726804640
40
0.6009808259
40
1.0000000000
40
1.0000000000
40
1.0000000000
40
1.0000000000
10
19.3535533906
20
42.9464466094
30
0.0000000000
10
19.3301198525
20
42.9698801475
30
0.0000000000
10
19.2598401411
20
43.0034682941
30
0.0000000000
10
19.1355788303
20
42.9957648502
30
0.0000000000
10
19.0519873804
20
42.9640036634
30
0.0000000000
10
19.0087262031
20
42.9420904628
30
0.0000000000
11
19.3535533906
21
42.9464466094
31
0.0000000000
11
19.2654388262
21
42.9924919813
31
0.0000000000
11
19.1457491196
21
42.9909799369
31
0.0000000000
11
19.0087262031
21
42.9420904628
31
0.0000000000
0
SPLINE
5
380
100
AcDbEntity
8
0
100
AcDbSpline
62
9
6
CONTINUOUS
70
0
71
3
72
10
73
6
74
4
42
0.0000001000
43
0.0000001000
44
0.0000000001
12
0.1229631238
22
-0.0021463294
32
0.0000000000
13
-0.0004147296
23
-0.1229811531
33
0.0000000000
40
0.0000000000
40
0.0000000000
40
0.0000000000
40
0.0000000000
40
0.1154847889
40
0.4552181102
40
1.0000000000
40
1.0000000000
40
1.0000000000
40
1.0000000000
10
17.4708547979
20
44.6306884717
30
0.0000000000
10
17.4755882547
20
44.6306058489
30
0.0000000000
10
17.4654323561
20
44.6007527311
30
0.0000000000
10
17.4753694531
20
44.5705598834
30
0.0000000000
10
17.4709301103
20
44.5300510323
30
0.0000000000
10
17.4708547979
20
44.5077183973
30
0.0000000000
11
17.4708547979
21
44.6306884717
31
0.0000000000
11
17.4713800893
21
44.6164956559
31
0.0000000000
11
17.4713802783
21
44.5747146226
31
0.0000000000
11
17.4708547979
21
44.5077183973
31
0.0000000000
0
SPLINE
5
381
100
AcDbEntity
8
0
100
AcDbSpline
62
9
6
CONTINUOUS
70
0
71
3
72
11
73
7
74
5
42
0.0000001000
43
0.0000001000
44
0.0000000001
12
-0.0004882941
22
0.1226763687
32
0.0000000000
13
0.1226531773
23
-0.0024345495
33
0.0000000000
40
0.0000000000
40
0.0000000000
40
0.0000000000
40
0.0000000000
40
0.4913000078
40
0.7962198747
40
0.9541141793
40
1.0000000000
40
1.0000000000
40
1.0000000000
40
1.0000000000
10
13.6965095187
20
44.5738952237
30
0.0000000000
10
13.6964295524
20
44.5939855240
30
0.0000000000
10
13.6976353959
20
44.6251099710
30
0.0000000000
10
13.6940323485
20
44.6679793803
30
0.0000000000
10
13.6992000557
20
44.6832079112
30
0.0000000000
10
13.6946335048
20
44.6966071507
30
0.0000000000
10
13.6965095187
20
44.6965699136
30
0.0000000000
11
13.6965095187
21
44.5738952237
31
0.0000000000
11
13.6963137480
21
44.6341662842
31
0.0000000000
11
13.6962765720
21
44.6715730242
31
0.0000000000
11
13.6963535350
21
44.6909429247
31
0.0000000000
11
13.6965095187
21
44.6965699136
31
0.0000000000
0
SPLINE
5
382
100
AcDbEntity
8
0
100
AcDbSpline
62
9
6
CONTINUOUS
70
0
71
3
72
12
73
8
74
6
42
0.0000001000
43
0.0000001000
44
0.0000000001
12
0.0087245953
22
-0.4999840164
32
0.0000000000
13
-0.4999839725
23
-0.0087272526
33
0.0000000000
40
0.0000000000
40
0.0000000000
40
0.0000000000
40
0.0000000000
40
0.3056537999
40
0.5853782817
40
0.8075377488
40
0.9504758579
40
1.0000000000
40
1.0000000000
40
1.0000000000
40
1.0000000000
10
34.0087262032
20
8.3531746055
30
0.0000000000
10
34.0096151051
20
8.3022339340
30
0.0000000000
10
34.0118146799
20
8.2037541609
30
0.0000000000
10
34.0101087466
20
8.0727263759
30
0.0000000000
10
34.0178233487
20
7.9560474301
30
0.0000000000
10
34.0026013433
20
7.9045364662
30
0.0000000000
10
34.0169799623
20
7.8533948278
30
0.0000000000
10
34.0087262032
20
7.8532507579
30
0.0000000000
11
34.0087262032
21
8.3531746055
31
0.0000000000
11
34.0109752731
21
8.2003458741
31
0.0000000000
11
34.0121817145
21
8.0604720158
31
0.0000000000
11
34.0121908759
21
7.9493789238
31
0.0000000000
11
34.0110000885
21
7.8779111938
31
0.0000000000
11
34.0087262032
21
7.8532507579
31
0.0000000000
0
SPLINE
5
383
100
AcDbEntity
8
0
100
AcDbSpline
62
9
6
CONTINUOUS
70
0
71
3
72
11
73
7
74
5
42
0.0000001000
43
0.0000001000
44
0.0000000001
12
0.0087242966
22
-0.4999669140
32
0.0000000000
13
-0.4999668677
23
-0.0087269568
33
0.0000000000
40
0.0000000000
40
0.0000000000
40
0.0000000000
40
0.0000000000
40
0.3825592777
40
0.7068734192
40
0.9236228949
40
1.0000000000
40
1.0000000000
40
1.0000000000
40
1.0000000000
10
19.9912737968
20
8.1084990636
30
0.0000000000
10
19.9923863170
20
8.0447434031
30
0.0000000000
10
19.9907898634
20
7.9307326627
30
0.0000000000
10
20.0033773786
20
7.7633976740
30
0.0000000000
10
19.9801667683
20
7.6869285048
30
0.0000000000
10
20.0040024708
20
7.6087973959
30
0.0000000000
10
19.9912737968
20
7.6085752160
30
0.0000000000
11
19.9912737968
21
8.1084990636
31
0.0000000000
11
19.9939475511
21
7.9172216512
31
0.0000000000
11
19.9948864295
21
7.7550533442
31
0.0000000000
11
19.9939475511
21
7.6466733471
31
0.0000000000
11
19.9912737968
21
7.6085752160
31
0.0000000000
0
SPLINE
5
384
100
AcDbEntity
8
0
100
AcDbSpline
62
9
6
CONTINUOUS
70
0
71
3
72
11
73
7
74
5
42
0.0000001000
43
0.0000001000
44
0.0000000001
12
0.4642646220
22
-0.1622345639
32
0.0000000000
13
-0.1621339261
23
-0.4642997746
33
0.0000000000
40
0.0000000000
40
0.0000000000
40
0.0000000000
40
0.0000000000
40
0.3839005297
40
0.7080679714
40
0.9241689787
40
1.0000000000
40
1.0000000000
40
1.0000000000
40
1.0000000000
10
19.0646728146
20
7.4384449929
30
0.0000000000
10
19.1240832927
20
7.4176843479
30
0.0000000000
10
19.2287918175
20
7.3771258127
30
0.0000000000
10
19.3885820805
20
7.3342067009
30
0.0000000000
10
19.4503269686
20
7.2853354137
30
0.0000000000
10
19.5320818058
20
7.2852807717
30
0.0000000000
10
19.5279835454
20
7.2735446630
30
0.0000000000
11
19.0646728146
21
7.4384449929
31
0.0000000000
11
19.2428333370
21
7.3759605005
31
0.0000000000
11
19.3931298703
21
7.3227921416
31
0.0000000000
11
19.4931514080
21
7.2868679539
31
0.0000000000
11
19.5279835454
21
7.2735446630
31
0.0000000000
0
SPLINE
5
385
100
AcDbEntity
8
0
100
AcDbSpline
62
9
6
CONTINUOUS
70
0
71
3
72
11
73
7
74
5
42
0.0000001000
43
0.0000001000
44
0.0000000001
12
0.5171492843
22
0.0020800027
32
0.0000000000
13
0.0000603124
23
0.5171534626
33
0.0000000000
40
0.0000000000
40
0.0000000000
40
0.0000000000
40
0.0000000000
40
0.3649095782
40
0.6760162533
40
0.8921564912
40
1.0000000000
40
1.0000000000
40
1.0000000000
40
1.0000000000
10
19.0091798936
20
6.9988523479
30
0.0000000000
10
19.0720841360
20
6.9991053522
30
0.0000000000
10
19.1878646634
20
7.0034890716
30
0.0000000000
10
19.3433964103
20
7.0271282017
30
0.0000000000
10
19.4431484012
20
7.0511107122
30
0.0000000000
10
19.5000029907
20
7.0900608191
30
0.0000000000
10
19.5000051588
20
7.1086513671
30
0.0000000000
11
19.0091798936
21
6.9988523479
31
0.0000000000
11
19.1976828626
21
7.0077798447
31
0.0000000000
11
19.3567827805
21
7.0317125564
31
0.0000000000
11
19.4628141343
21
7.0670905198
31
0.0000000000
11
19.5000051588
21
7.1086513671
31
0.0000000000
0
SPLINE
5
386
100
AcDbEntity
8
0
100
AcDbSpline
62
9
6
CONTINUOUS
70
0
71
3
72
11
73
7
74
5
42
0.0000001000
43
0.0000001000
44
0.0000000001
12
0.6327516616
22
0.0068668485
32
0.0000000000
13
0.0000000000
23
0.6327889201
33
0.0000000000
40
0.0000000000
40
0.0000000000
40
0.0000000000
40
0.0000000000
40
0.3007688895
40
0.5742549091
40
0.8049055453
40
1.0000000000
40
1.0000000000
40
1.0000000000
40
1.0000000000
10
19.0087262032
20
6.1948402392
30
0.0000000000
10
19.0721635414
20
6.1955286840
30
0.0000000000
10
19.1937682711
20
6.2109570684
30
0.0000000000
10
19.3531191979
20
6.2752380800
30
0.0000000000
10
19.4681163974
20
6.3740237181
30
0.0000000000
10
19.5000000000
20
6.4645051031
30
0.0000000000
10
19.5000000000
20
6.5056563062
30
0.0000000000
11
19.0087262032
21
6.1948402392
31
0.0000000000
11
19.1973739871
21
6.2200382962
31
0.0000000000
11
19.3566275714
21
6.2877707609
31
0.0000000000
11
19.4627712500
21
6.3879498330
31
0.0000000000
11
19.5000000000
21
6.5056563062
31
0.0000000000
0
SPLINE
5
387
100
AcDbEntity
8
0
100
AcDbSpline
62
9
6
CONTINUOUS
70
0
71
3
72
9
73
5
74
3
42
0.0000001000
43
0.0000001000
44
0.0000000001
12
0.2034168936
22
0.0024801360
32
0.0000000000
13
0.1941526524
23
0.0624537136
33
0.0000000000
40
0.0000000000
40
0.0000000000
40
0.0000000000
40
0.0000000000
40
0.7549879484
40
1.0000000000
40
1.0000000000
40
1.0000000000
40
1.0000000000
10
19.0087262032
20
4.0579095371
30
0.0000000000
10
19.0599186376
20
4.0585336947
30
0.0000000000
10
19.1278853829
20
4.0666069642
30
0.0000000000
10
19.1934638865
20
4.0848160640
30
0.0000000000
10
19.2093204664
20
4.0899167015
30
0.0000000000
11
19.0087262032
21
4.0579095371
31
0.0000000000
11
19.1611854708
21
4.0765016293
31
0.0000000000
11
19.2093204664
21
4.0899167015
31
0.0000000000
0
SPLINE
5
388
100
AcDbEntity
8
0
100
AcDbSpline
62
9
6
CONTINUOUS
70
0
71
3
72
11
73
7
74
5
42
0.0000001000
43
0.0000001000
44
0.0000000001
12
0.4365616674
22
0.1404302085
32
0.0000000000
13
0.0000000000
23
0.4574267580
33
0.0000000000
40
0.0000000000
40
0.0000000000
40
0.0000000000
40
0.0000000000
40
0.2105150838
40
0.5017859350
40
0.7621126893
40
1.0000000000
40
1.0000000000
40
1.0000000000
40
1.0000000000
10
19.2093204664
20
4.0899167015
30
0.0000000000
10
19.2399547384
20
4.0997709272
30
0.0000000000
10
19.3110981925
20
4.1289462624
30
0.0000000000
10
19.4081518796
20
4.1957568293
30
0.0000000000
10
19.4820513161
20
4.2940949182
30
0.0000000000
10
19.5000000000
20
4.3708347741
30
0.0000000000
10
19.5000000000
20
4.4071067812
30
0.0000000000
11
19.2093204664
21
4.0899167015
31
0.0000000000
11
19.2983739744
21
4.1268581928
31
0.0000000000
11
19.4069026076
21
4.2041441721
31
0.0000000000
11
19.4763195742
21
4.3008986652
31
0.0000000000
11
19.5000000000
21
4.4071067812
31
0.0000000000
0
SPLINE
5
389
100
AcDbEntity
8
0
100
AcDbSpline
62
9
6
CONTINUOUS
70
0
71
3
72
10
73
6
74
4
42
0.0000001000
43
0.0000001000
44
0.0000000001
12
-0.2574025907
22
-0.2574025897
32
0.0000000000
13
-0.3320885008
23
0.1490953205
33
0.0000000000
40
0.0000000000
40
0.0000000000
40
0.0000000000
40
0.0000000000
40
0.2874709271
40
0.6159101062
40
1.0000000000
40
1.0000000000
40
1.0000000000
40
1.0000000000
10
17.8156819847
20
2.5156819847
30
0.0000000000
10
17.7910167309
20
2.4910167310
30
0.0000000000
10
17.7220097556
20
2.4531722558
30
0.0000000000
10
17.5980317563
20
2.4496364091
30
0.0000000000
10
17.5133720769
20
2.4731929342
30
0.0000000000
10
17.4708547979
20
2.4922816028
30
0.0000000000
11
17.8156819847
21
2.5156819847
31
0.0000000000
11
17.7249981772
21
2.4634594570
31
0.0000000000
11
17.6057127511
21
2.4553736228
31
0.0000000000
11
17.4708547979
21
2.4922816028
31
0.0000000000
0
SPLINE
5
38A
100
AcDbEntity
8
0
100
AcDbSpline
62
9
6
CONTINUOUS
70
0
71
3
72
10
73
6
74
4
42
0.0000001000
43
0.0000001000
44
0.0000000001
12
-0.2578130761
22
-0.2578130750
32
0.0000000000
13
-0.3252565895
23
0.1647522849
33
0.0000000000
40
0.0000000000
40
0.0000000000
40
0.0000000000
40
0.0000000000
40
0.2726799329
40
0.6009804287
40
1.0000000000
40
1.0000000000
40
1.0000000000
40
1.0000000000
10
19.3535533907
20
4.0535533906
30
0.0000000000
10
19.3301199066
20
4.0301199066
30
0.0000000000
10
19.2598402074
20
3.9965319002
30
0.0000000000
10
19.1355789823
20
4.0042353709
30
0.0000000000
10
19.0519874514
20
4.0359964085
30
0.0000000000
10
19.0087262031
20
4.0579095372
30
0.0000000000
11
19.3535533907
21
4.0535533906
31
0.0000000000
11
19.2654389940
21
4.0075081928
31
0.0000000000
11
19.1457492816
21
4.0090202417
31
0.0000000000
11
19.0087262031
21
4.0579095372
31
0.0000000000
0
SPLINE
5
38B
100
AcDbEntity
8
0
100
AcDbSpline
62
9
6
CONTINUOUS
70
0
71
3
72
10
73
6
74
4
42
0.0000001000
43
0.0000001000
44
0.0000000001
12
0.1229631212
22
0.0021463289
32
0.0000000000
13
-0.0012240169
23
0.1229757585
33
0.0000000000
40
0.0000000000
40
0.0000000000
40
0.0000000000
40
0.0000000000
40
0.1155815375
40
0.4553121891
40
1.0000000000
40
1.0000000000
40
1.0000000000
40
1.0000000000
10
17.4708547979
20
2.3693115283
30
0.0000000000
10
17.4755922201
20
2.3693942203
30
0.0000000000
10
17.4654354095
20
2.3992549145
30
0.0000000000
10
17.4753241881
20
2.4294491859
30
0.0000000000
10
17.4710770336
20
2.4699538039
30
0.0000000000
10
17.4708547979
20
2.4922816028
30
0.0000000000
11
17.4708547979
21
2.3693115283
31
0.0000000000
11
17.4713802343
21
2.3835162449
31
0.0000000000
11
17.4713802343
21
2.4252969489
31
0.0000000000
11
17.4708547979
21
2.4922816028
31
0.0000000000
0
SPLINE
5
38C
100
AcDbEntity
8
0
100
AcDbSpline
62
9
6
CONTINUOUS
70
0
71
3
72
11
73
7
74
5
42
0.0000001000
43
0.0000001000
44
0.0000000001
12
-0.1226532381
22
-0.0024314304
32
0.0000000000
13
0.0004882844
23
0.1226763692
33
0.0000000000
40
0.0000000000
40
0.0000000000
40
0.0000000000
40
0.0000000000
40
0.0458886670
40
0.2037895940
40
0.5087104826
40
1.0000000000
40
1.0000000000
40
1.0000000000
40
1.0000000000
10
13.6965095187
20
2.3034300864
30
0.0000000000
10
13.6946333875
20
2.3033928947
30
0.0000000000
10
13.6992001821
20
2.3167926457
30
0.0000000000
10
13.6940323481
20
2.3320216174
30
0.0000000000
10
13.6976353492
20
2.3748907549
30
0.0000000000
10
13.6964295557
20
2.4060149049
30
0.0000000000
10
13.6965095187
20
2.4261047763
30
0.0000000000
11
13.6965095187
21
2.3034300864
31
0.0000000000
11
13.6963535313
21
2.3090574245
31
0.0000000000
11
13.6962765712
21
2.3284281374
31
0.0000000000
11
13.6963137499
21
2.3658350027
31
0.0000000000
11
13.6965095187
21
2.4261047763
31
0.0000000000
0
SPLINE
5
38D
100
AcDbEntity
8
0
100
AcDbSpline
62
9
6
CONTINUOUS
70
0
71
3
72
9
73
5
74
3
42
0.0000001000
43
0.0000001000
44
0.0000000001
12
-1.5380208146
22
-1.5658221655
32
0.0000000000
13
-1.5380596497
23
-1.5657840189
33
0.0000000000
40
0.0000000000
40
0.0000000000
40
0.0000000000
40
0.0000000000
40
0.5124127084
40
1.0000000000
40
1.0000000000
40
1.0000000000
40
1.0000000000
10
19.0087262032
20
4.0583061334
30
0.0000000000
10
18.7460257328
20
3.7908570745
30
0.0000000000
10
18.2336237101
20
3.2686496585
30
0.0000000000
10
17.7208898869
20
2.7467680645
30
0.0000000000
10
17.4709104406
20
2.4922826015
30
0.0000000000
11
19.0087262032
21
4.0583061334
31
0.0000000000
11
18.2208159965
21
3.2557711918
31
0.0000000000
11
17.4709104406
21
2.4922826015
31
0.0000000000
0
SPLINE
5
38E
100
AcDbEntity
8
0
100
AcDbSpline
62
9
6
CONTINUOUS
70
0
71
3
72
9
73
5
74
3
42
0.0000001000
43
0.0000001000
44
0.0000000001
12
1.5380480908
22
-1.5657718295
32
0.0000000000
13
1.5380096658
23
-1.5658095730
33
0.0000000000
40
0.0000000000
40
0.0000000000
40
0.0000000000
40
0.0000000000
40
0.4875960870
40
1.0000000000
40
1.0000000000
40
1.0000000000
40
1.0000000000
10
17.4709104605
20
44.5077173972
30
0.0000000000
10
17.7208925374
20
44.2532293248
30
0.0000000000
10
18.2336167975
20
43.7313461879
30
0.0000000000
10
18.7460321462
20
43.2091597011
30
0.0000000000
10
19.0087262032
20
42.9417173837
30
0.0000000000
11
17.4709104605
21
44.5077173972
31
0.0000000000
11
18.2208237796
21
43.7442208525
31
0.0000000000
11
19.0087262032
21
42.9417173837
31
0.0000000000
0
SPLINE
5
38F
100
AcDbEntity
8
0
100
AcDbSpline
62
9
6
CONTINUOUS
70
0
71
3
72
10
73
6
74
4
42
0.0000001000
43
0.0000001000
44
0.0000000001
12
0.0015621781
22
0.8039949732
32
0.0000000000
13
-0.0004328585
23
0.8039963732
33
0.0000000000
40
0.0000000000
40
0.0000000000
40
0.0000000000
40
0.0000000000
40
0.3081353508
40
0.6439076493
40
1.0000000000
40
1.0000000000
40
1.0000000000
40
1.0000000000
10
19.0087262033
20
6.1948402388
30
0.0000000000
10
19.0088866574
20
6.2774199965
30
0.0000000000
10
19.0091263313
20
6.4499863585
30
0.0000000000
10
19.0092705075
20
6.7179851734
30
0.0000000000
10
19.0092326093
20
6.9034041050
30
0.0000000000
10
19.0091812301
20
6.9988364245
30
0.0000000000
11
19.0087262033
21
6.1948402388
31
0.0000000000
11
19.0090824185
21
6.4425797232
31
0.0000000000
11
19.0092351574
21
6.7125394295
31
0.0000000000
11
19.0091812301
21
6.9988364245
31
0.0000000000
0
SPLINE
5
390
100
AcDbEntity
8
0
100
AcDbSpline
62
9
6
CONTINUOUS
70
0
71
3
72
9
73
5
74
3
42
0.0000001000
43
0.0000001000
44
0.0000000001
12
-9.5087256919
22
-0.0543592683
32
0.0000000000
13
-9.5087267118
23
-0.0541806598
33
0.0000000000
40
0.0000000000
40
0.0000000000
40
0.0000000000
40
0.0000000000
40
0.5003812224
40
1.0000000000
40
1.0000000000
40
1.0000000000
40
1.0000000000
10
19.0087262032
20
6.1948402392
30
0.0000000000
10
17.4227302748
20
6.1857734535
30
0.0000000000
10
14.2531549584
20
6.1676686707
30
0.0000000000
10
11.0835794721
20
6.1495936558
30
0.0000000000
10
9.5000000000
20
6.1405704308
30
0.0000000000
11
19.0087262032
21
6.1948402392
31
0.0000000000
11
14.2507382896
21
6.1676623201
31
0.0000000000
11
9.5000000000
21
6.1405704308
31
0.0000000000
0
SPLINE
5
391
100
AcDbEntity
8
0
100
AcDbSpline
62
9
6
CONTINUOUS
70
0
71
3
72
9
73
5
74
3
42
0.0000001000
43
0.0000001000
44
0.0000000001
12
-0.0002275748
22
0.4439929222
32
0.0000000000
13
0.1121333241
23
0.4295996784
33
0.0000000000
40
0.0000000000
40
0.0000000000
40
0.0000000000
40
0.0000000000
40
0.5216096454
40
1.0000000000
40
1.0000000000
40
1.0000000000
40
1.0000000000
10
19.0091812301
20
6.9988364245
30
0.0000000000
10
19.0091416617
20
7.0760334214
30
0.0000000000
10
19.0187084282
20
7.2241984671
30
0.0000000000
10
19.0467919829
20
7.3699395418
30
0.0000000000
10
19.0646731498
20
7.4384449893
30
0.0000000000
11
19.0091812301
21
6.9988364245
31
0.0000000000
11
19.0241598823
21
7.2299425495
31
0.0000000000
11
19.0646731498
21
7.4384449893
31
0.0000000000
0
SPLINE
5
392
100
AcDbEntity
8
0
100
AcDbSpline
62
9
6
CONTINUOUS
70
0
71
3
72
12
73
8
74
6
42
0.0000001000
43
0.0000001000
44
0.0000000001
12
-0.0000466006
22
-1.4963990409
32
0.0000000000
13
-0.0007170720
23
-1.4963988717
33
0.0000000000
40
0.0000000000
40
0.0000000000
40
0.0000000000
40
0.0000000000
40
0.1523027562
40
0.3281886629
40
0.5301528190
40
0.7585460096
40
1.0000000000
40
1.0000000000
40
1.0000000000
40
1.0000000000
10
34.6895328088
20
35.6826044508
30
0.0000000000
10
34.6895304430
20
35.6066358847
30
0.0000000000
10
34.6771114420
20
35.4429593549
30
0.0000000000
10
34.6346880027
20
35.1818599412
30
0.0000000000
10
34.5759919089
20
34.8852249919
30
0.0000000000
10
34.5186001459
20
34.5549464152
30
0.0000000000
10
34.5015628920
20
34.3204371596
30
0.0000000000
10
34.5015051787
20
34.2000000000
30
0.0000000000
11
34.6895328088
21
35.6826044508
31
0.0000000000
11
34.6750225943
21
35.4551611368
31
0.0000000000
11
34.6353994873
21
35.1949652838
31
0.0000000000
11
34.5796303956
21
34.8979364735
31
0.0000000000
11
34.5251745497
21
34.5605354011
31
0.0000000000
11
34.5015051787
21
34.2000000000
31
0.0000000000
0
SPLINE
5
393
100
AcDbEntity
8
0
100
AcDbSpline
62
9
6
CONTINUOUS
70
0
71
3
72
12
73
8
74
6
42
0.0000001000
43
0.0000001000
44
0.0000000001
12
0.0006570597
22
-1.4964286265
32
0.0000000000
13
0.0000707057
23
-1.4964287668
33
0.0000000000
40
0.0000000000
40
0.0000000000
40
0.0000000000
40
0.0000000000
40
0.2199042186
40
0.4460957272
40
0.6584592360
40
0.8423705856
40
1.0000000000
40
1.0000000000
40
1.0000000000
40
1.0000000000
10
34.5015051787
20
32.1000000000
30
0.0000000000
10
34.5015533421
20
31.9903096774
30
0.0000000000
10
34.5161803801
20
31.7676478182
30
0.0000000000
10
34.5702446713
20
31.4434835784
30
0.0000000000
10
34.6308563208
20
31.1389818101
30
0.0000000000
10
34.6761716773
20
30.8663514449
30
0.0000000000
10
34.6895290937
20
30.6960226126
30
0.0000000000
10
34.6895328088
20
30.6173955492
30
0.0000000000
11
34.5015051787
21
32.1000000000
31
0.0000000000
11
34.5213204458
21
31.7715261382
31
0.0000000000
11
34.5731610208
21
31.4370400938
31
0.0000000000
11
34.6318556981
21
31.1247206644
31
0.0000000000
11
34.6740930168
21
30.8527708855
31
0.0000000000
11
34.6895328088
21
30.6173955492
31
0.0000000000
0
SPLINE
5
394
100
AcDbEntity
8
0
100
AcDbSpline
62
9
6
CONTINUOUS
70
0
71
3
72
10
73
6
74
4
42
0.0000001000
43
0.0000001000
44
0.0000000001
12
0.0004335925
22
0.8039963733
32
0.0000000000
13
-0.0015620501
23
0.8039949727
33
0.0000000000
40
0.0000000000
40
0.0000000000
40
0.0000000000
40
0.0000000000
40
0.3560776323
40
0.6918532258
40
1.0000000000
40
1.0000000000
40
1.0000000000
40
1.0000000000
10
19.0091812301
20
40.0011635755
30
0.0000000000
10
19.0092326943
20
40.0965919505
30
0.0000000000
10
19.0092705281
20
40.2820078207
30
0.0000000000
10
19.0091263320
20
40.5500066355
30
0.0000000000
10
19.0088866502
20
40.7225769421
30
0.0000000000
10
19.0087262033
20
40.8051597612
30
0.0000000000
11
19.0091812301
21
40.0011635755
31
0.0000000000
11
19.0092351908
21
40.2874487370
31
0.0000000000
11
19.0090824227
21
40.5574110924
31
0.0000000000
11
19.0087262033
21
40.8051597612
31
0.0000000000
0
SPLINE
5
395
100
AcDbEntity
8
0
100
AcDbSpline
62
9
6
CONTINUOUS
70
0
71
3
72
9
73
5
74
3
42
0.0000001000
43
0.0000001000
44
0.0000000001
12
-0.1121300617
22
0.4296015073
32
0.0000000000
13
0.0002700704
23
0.4439938435
33
0.0000000000
40
0.0000000000
40
0.0000000000
40
0.0000000000
40
0.0000000000
40
0.4872624985
40
1.0000000000
40
1.0000000000
40
1.0000000000
40
1.0000000000
10
19.0646731498
20
39.5615550107
30
0.0000000000
10
19.0464608918
20
39.6313312453
30
0.0000000000
10
19.0185443666
20
39.7771251482
30
0.0000000000
10
19.0091350717
20
39.9252794775
30
0.0000000000
10
19.0091812301
20
40.0011635755
30
0.0000000000
11
19.0646731498
21
39.5615550107
31
0.0000000000
11
19.0236496146
21
39.7739714717
31
0.0000000000
11
19.0091812301
21
40.0011635755
31
0.0000000000
0
SPLINE
5
396
100
AcDbEntity
8
0
100
AcDbSpline
62
9
6
CONTINUOUS
70
0
71
3
72
10
73
6
74
4
42
0.0000001000
43
0.0000001000
44
0.0000000001
12
-9.5646725103
22
0.0582092501
32
0.0000000000
13
-9.5646737850
23
0.0579994404
33
0.0000000000
40
0.0000000000
40
0.0000000000
40
0.0000000000
40
0.0000000000
40
0.3329848136
40
0.6663190031
40
1.0000000000
40
1.0000000000
40
1.0000000000
40
1.0000000000
10
19.0646731499
20
39.5615550106
30
0.0000000000
10
18.0030429189
20
39.5680159427
30
0.0000000000
10
15.8786685206
20
39.5809367856
30
0.0000000000
10
12.6904441371
20
39.6003048193
30
0.0000000000
10
10.5638499612
20
39.6132080623
30
0.0000000000
10
9.5000000000
20
39.6196591660
30
0.0000000000
11
19.0646731499
21
39.5615550106
31
0.0000000000
11
15.8797823857
21
39.5809261263
31
0.0000000000
11
12.6915498133
21
39.6002942240
31
0.0000000000
11
9.5000000000
21
39.6196591660
31
0.0000000000
0
SPLINE
5
397
100
AcDbEntity
8
0
100
AcDbSpline
62
9
6
CONTINUOUS
70
0
71
3
72
10
73
6
74
4
42
0.0000001000
43
0.0000001000
44
0.0000000001
12
0.0000000000
22
0.2344051605
32
0.0000000000
13
0.2343109738
23
0.0066443488
33
0.0000000000
40
0.0000000000
40
0.0000000000
40
0.0000000000
40
0.0000000000
40
0.2480720628
40
0.5866280702
40
1.0000000000
40
1.0000000000
40
1.0000000000
40
1.0000000000
10
34.5000000000
20
30.5093271998
30
0.0000000000
10
34.5000000000
20
30.5287103237
30
0.0000000000
10
34.5262215698
20
30.5729886962
30
0.0000000000
10
34.5985564403
20
30.6068376446
30
0.0000000000
10
34.6572469490
20
30.6164800200
30
0.0000000000
10
34.6895328088
20
30.6173955491
30
0.0000000000
11
34.5000000000
21
30.5093271998
31
0.0000000000
11
34.5250761862
21
30.5617918006
31
0.0000000000
11
34.5940163398
21
30.6011001947
31
0.0000000000
11
34.6895328088
21
30.6173955491
31
0.0000000000
0
SPLINE
5
398
100
AcDbEntity
8
0
100
AcDbSpline
62
9
6
CONTINUOUS
70
0
71
3
72
10
73
6
74
4
42
0.0000001000
43
0.0000001000
44
0.0000000001
12
0.0000000000
22
-0.2344052594
32
0.0000000000
13
0.2343110859
23
-0.0066438632
33
0.0000000000
40
0.0000000000
40
0.0000000000
40
0.0000000000
40
0.0000000000
40
0.2480730882
40
0.5866291015
40
1.0000000000
40
1.0000000000
40
1.0000000000
40
1.0000000000
10
34.5000000000
20
35.7906728002
30
0.0000000000
10
34.5000000000
20
35.7712895880
30
0.0000000000
10
34.5262215954
20
35.7270110894
30
0.0000000000
10
34.5985565435
20
35.6931621759
30
0.0000000000
10
34.6572470141
20
35.6835199108
30
0.0000000000
10
34.6895328088
20
35.6826044509
30
0.0000000000
11
34.5000000000
21
35.7906728002
31
0.0000000000
11
34.5250762913
21
35.7382079562
31
0.0000000000
11
34.5940165101
21
35.6988996070
31
0.0000000000
11
34.6895328088
21
35.6826044509
31
0.0000000000
0
SPLINE
5
399
100
AcDbEntity
8
0
100
AcDbSpline
62
0
6
CONTINUOUS
70
0
71
3
72
10
73
6
74
4
42
0.0000001000
43
0.0000001000
44
0.0000000001
12
-0.4872215534
22
0.3231850225
32
0.0000000000
13
-0.5846652038
23
0.0000000000
33
0.0000000000
40
0.0000000000
40
0.0000000000
40
0.0000000000
40
0.0000000000
40
0.3333348274
40
0.6666651726
40
1.0000000000
40
1.0000000000
40
1.0000000000
40
1.0000000000
10
59.6438069110
20
46.8333596575
30
0.0000000000
10
59.5896709402
20
46.8692692654
30
0.0000000000
10
59.4740453160
20
46.9306658790
30
0.0000000000
10
59.2863777747
20
46.9872495977
30
0.0000000000
10
59.1560848110
20
47.0000000000
30
0.0000000000
10
59.0911217194
20
47.0000000000
30
0.0000000000
11
59.6438069110
21
46.8333596575
31
0.0000000000
11
59.4716730593
21
46.9247476575
31
0.0000000000
11
59.2850832458
21
46.9810064300
31
0.0000000000
11
59.0911217194
21
47.0000000000
31
0.0000000000
0
SPLINE
5
39A
100
AcDbEntity
8
0
100
AcDbSpline
62
0
6
CONTINUOUS
70
0
71
3
72
10
73
6
74
4
42
0.0000001000
43
0.0000001000
44
0.0000000001
12
-0.5846652038
22
0.0000000000
32
0.0000000000
13
-0.4872215534
23
-0.3231850225
33
0.0000000000
40
0.0000000000
40
0.0000000000
40
0.0000000000
40
0.0000000000
40
0.3333348274
40
0.6666651726
40
1.0000000000
40
1.0000000000
40
1.0000000000
40
1.0000000000
10
51.7414067630
20
47.0000000000
30
0.0000000000
10
51.6764436714
20
47.0000000000
30
0.0000000000
10
51.5461507077
20
46.9872495977
30
0.0000000000
10
51.3584831664
20
46.9306658790
30
0.0000000000
10
51.2428575422
20
46.8692692654
30
0.0000000000
10
51.1887215714
20
46.8333596575
30
0.0000000000
11
51.7414067630
21
47.0000000000
31
0.0000000000
11
51.5474452366
21
46.9810064300
31
0.0000000000
11
51.3608554231
21
46.9247476575
31
0.0000000000
11
51.1887215714
21
46.8333596575
31
0.0000000000
0
SPLINE
5
39B
100
AcDbEntity
8
0
100
AcDbSpline
62
0
6
CONTINUOUS
70
0
71
3
72
10
73
6
74
4
42
0.0000001000
43
0.0000001000
44
0.0000000001
12
-0.4872215534
22
-0.3231850225
32
0.0000000000
13
-0.5846652038
23
0.0000000000
33
0.0000000000
40
0.0000000000
40
0.0000000000
40
0.0000000000
40
0.0000000000
40
0.3333348274
40
0.6666651726
40
1.0000000000
40
1.0000000000
40
1.0000000000
40
1.0000000000
10
59.6438069110
20
0.1666403425
30
0.0000000000
10
59.5896709402
20
0.1307307346
30
0.0000000000
10
59.4740453160
20
0.0693341210
30
0.0000000000
10
59.2863777747
20
0.0127504023
30
0.0000000000
10
59.1560848110
20
-0.0000000000
30
0.0000000000
10
59.0911217194
20
-0.0000000000
30
0.0000000000
11
59.6438069110
21
0.1666403425
31
0.0000000000
11
59.4716730593
21
0.0752523425
31
0.0000000000
11
59.2850832458
21
0.0189935700
31
0.0000000000
11
59.0911217194
21
-0.0000000000
31
0.0000000000
0
SPLINE
5
39C
100
AcDbEntity
8
0
100
AcDbSpline
62
0
6
CONTINUOUS
70
0
71
3
72
10
73
6
74
4
42
0.0000001000
43
0.0000001000
44
0.0000000001
12
-0.5846652038
22
0.0000000000
32
0.0000000000
13
-0.4872215534
23
0.3231850225
33
0.0000000000
40
0.0000000000
40
0.0000000000
40
0.0000000000
40
0.0000000000
40
0.3333348274
40
0.6666651726
40
1.0000000000
40
1.0000000000
40
1.0000000000
40
1.0000000000
10
51.7414067630
20
-0.0000000000
30
0.0000000000
10
51.6764436714
20
-0.0000000000
30
0.0000000000
10
51.5461507077
20
0.0127504023
30
0.0000000000
10
51.3584831664
20
0.0693341210
30
0.0000000000
10
51.2428575422
20
0.1307307346
30
0.0000000000
10
51.1887215714
20
0.1666403425
30
0.0000000000
11
51.7414067630
21
-0.0000000000
31
0.0000000000
11
51.5474452366
21
0.0189935700
31
0.0000000000
11
51.3608554231
21
0.0752523425
31
0.0000000000
11
51.1887215714
21
0.1666403425
31
0.0000000000
0
SPLINE
5
39D
100
AcDbEntity
8
0
100
AcDbSpline
62
0
6
CONTINUOUS
70
0
71
3
72
15
73
11
74
9
42
0.0000001000
43
0.0000001000
44
0.0000000001
12
0.0000000000
22
-0.7840504609
32
0.0000000000
13
-0.7840504609
23
0.0000000000
33
0.0000000000
40
0.0000000000
40
0.0000000000
40
0.0000000000
40
0.0000000000
40
0.1250035856
40
0.2500003382
40
0.3749971738
40
0.4999931596
40
0.6249941993
40
0.7499962985
40
0.8749988330
40
1.0000000000
40
1.0000000000
40
1.0000000000
40
1.0000000000
10
66.5662642412
20
1.6002288521
30
0.0000000000
10
66.5662642412
20
1.5675591458
30
0.0000000000
10
66.5598363037
20
1.5020411657
30
0.0000000000
10
66.5312671297
20
1.4076646264
30
0.0000000000
10
66.4848506265
20
1.3206263817
30
0.0000000000
10
66.4223500855
20
1.2443204429
30
0.0000000000
10
66.3461582647
20
1.1816771182
30
0.0000000000
10
66.2591866083
20
1.1351212029
30
0.0000000000
10
66.1648340310
20
1.1064520623
30
0.0000000000
10
66.0993139151
20
1.1000000000
30
0.0000000000
10
66.0666448409
20
1.1000000000
30
0.0000000000
11
66.5662642412
21
1.6002288521
31
0.0000000000
11
66.5566813686
21
1.5026893425
31
0.0000000000
11
66.5282924802
21
1.4088873794
31
0.0000000000
11
66.4821699517
21
1.3224150580
31
0.0000000000
11
66.4200693082
21
1.2465986383
31
0.0000000000
11
66.3443620823
21
1.1843586828
31
0.0000000000
11
66.2579565612
21
1.1381023875
31
0.0000000000
11
66.1641790699
21
1.1096171637
31
0.0000000000
11
66.0666448409
21
1.1000000000
31
0.0000000000
0
SPLINE
5
39E
100
AcDbEntity
8
0
100
AcDbSpline
62
0
6
CONTINUOUS
70
0
71
3
72
15
73
11
74
9
42
0.0000001000
43
0.0000001000
44
0.0000000001
12
0.7840504611
22
0.0000000000
32
0.0000000000
13
-0.0000000000
23
-0.7840504624
33
0.0000000000
40
0.0000000000
40
0.0000000000
40
0.0000000000
40
0.0000000000
40
0.1250026133
40
0.2500082844
40
0.3750136098
40
0.5000160060
40
0.6250106349
40
0.7500042447
40
0.8749978606
40
1.0000000000
40
1.0000000000
40
1.0000000000
40
1.0000000000
10
66.0666448409
20
45.9000000000
30
0.0000000000
10
66.0993142931
20
45.9000000000
30
0.0000000000
10
66.1648356130
20
45.8935477443
30
0.0000000000
10
66.2591900497
20
45.8648775487
30
0.0000000000
10
66.3461630710
20
45.8183198083
30
0.0000000000
10
66.4223547188
20
45.7556749149
30
0.0000000000
10
66.4848536914
20
45.6793688070
30
0.0000000000
10
66.5312683739
20
45.5923319310
30
0.0000000000
10
66.5598364963
20
45.4979572524
30
0.0000000000
10
66.5662642412
20
45.4324404763
30
0.0000000000
10
66.5662642412
20
45.3997711479
30
0.0000000000
11
66.0666448409
21
45.9000000000
31
0.0000000000
11
66.1641801875
21
45.8903826137
31
0.0000000000
11
66.2579598963
21
45.8618962291
31
0.0000000000
11
66.3443671952
21
45.8156378951
31
0.0000000000
11
66.4200744095
21
45.7533962508
31
0.0000000000
11
66.4821733647
21
45.6775798235
31
0.0000000000
11
66.5282938593
21
45.5911092837
31
0.0000000000
11
66.5566815903
21
45.4973095399
31
0.0000000000
11
66.5662642412
21
45.3997711479
31
0.0000000000
0
SPLINE
5
39F
100
AcDbEntity
8
0
100
AcDbSpline
62
0
6
CONTINUOUS
70
0
71
3
72
15
73
11
74
9
42
0.0000001000
43
0.0000001000
44
0.0000000001
12
-0.7840504611
22
0.0000000000
32
0.0000000000
13
0.0000000000
23
0.7840504624
33
0.0000000000
40
0.0000000000
40
0.0000000000
40
0.0000000000
40
0.0000000000
40
0.1250026133
40
0.2500082844
40
0.3750136098
40
0.5000160060
40
0.6250106349
40
0.7500042447
40
0.8749978606
40
1.0000000000
40
1.0000000000
40
1.0000000000
40
1.0000000000
10
44.7658836415
20
1.1000000000
30
0.0000000000
10
44.7332141893
20
1.1000000000
30
0.0000000000
10
44.6676928694
20
1.1064522557
30
0.0000000000
10
44.5733384327
20
1.1351224513
30
0.0000000000
10
44.4863654114
20
1.1816801917
30
0.0000000000
10
44.4101737636
20
1.2443250851
30
0.0000000000
10
44.3476747910
20
1.3206311930
30
0.0000000000
10
44.3012601085
20
1.4076680690
30
0.0000000000
10
44.2726919861
20
1.5020427476
30
0.0000000000
10
44.2662642412
20
1.5675595237
30
0.0000000000
10
44.2662642412
20
1.6002288521
30
0.0000000000
11
44.7658836415
21
1.1000000000
31
0.0000000000
11
44.6683482949
21
1.1096173863
31
0.0000000000
11
44.5745685861
21
1.1381037709
31
0.0000000000
11
44.4881612872
21
1.1843621049
31
0.0000000000
11
44.4124540729
21
1.2466037492
31
0.0000000000
11
44.3503551177
21
1.3224201765
31
0.0000000000
11
44.3042346231
21
1.4088907163
31
0.0000000000
11
44.2758468921
21
1.5026904601
31
0.0000000000
11
44.2662642412
21
1.6002288521
31
0.0000000000
0
SPLINE
5
3A0
100
AcDbEntity
8
0
100
AcDbSpline
62
0
6
CONTINUOUS
70
0
71
3
72
15
73
11
74
9
42
0.0000001000
43
0.0000001000
44
0.0000000001
12
0.0000000000
22
0.7840504609
32
0.0000000000
13
0.7840504609
23
0.0000000000
33
0.0000000000
40
0.0000000000
40
0.0000000000
40
0.0000000000
40
0.0000000000
40
0.1250035856
40
0.2500003382
40
0.3749971738
40
0.4999931596
40
0.6249941993
40
0.7499962985
40
0.8749988330
40
1.0000000000
40
1.0000000000
40
1.0000000000
40
1.0000000000
10
44.2662642412
20
45.3997711479
30
0.0000000000
10
44.2662642412
20
45.4324408542
30
0.0000000000
10
44.2726921787
20
45.4979588343
30
0.0000000000
10
44.3012613527
20
45.5923353736
30
0.0000000000
10
44.3476778559
20
45.6793736183
30
0.0000000000
10
44.4101783969
20
45.7556795571
30
0.0000000000
10
44.4863702177
20
45.8183228818
30
0.0000000000
10
44.5733418741
20
45.8648787971
30
0.0000000000
10
44.6676944514
20
45.8935479377
30
0.0000000000
10
44.7332145673
20
45.9000000000
30
0.0000000000
10
44.7658836415
20
45.9000000000
30
0.0000000000
11
44.2662642412
21
45.3997711479
31
0.0000000000
11
44.2758471138
21
45.4973106575
31
0.0000000000
11
44.3042360022
21
45.5911126206
31
0.0000000000
11
44.3503585307
21
45.6775849420
31
0.0000000000
11
44.4124591742
21
45.7534013617
31
0.0000000000
11
44.4881664001
21
45.8156413172
31
0.0000000000
11
44.5745719212
21
45.8618976125
31
0.0000000000
11
44.6683494125
21
45.8903828363
31
0.0000000000
11
44.7658836415
21
45.9000000000
31
0.0000000000
0
SPLINE
5
3A1
100
AcDbEntity
8
0
100
AcDbSpline
62
0
6
CONTINUOUS
70
0
71
3
72
13
73
9
74
7
42
0.0000001000
43
0.0000001000
44
0.0000000001
12
0.0000000000
22
0.4287788285
32
0.0000000000
13
0.3031810390
23
0.3032037928
33
0.0000000000
40
0.0000000000
40
0.0000000000
40
0.0000000000
40
0.0000000000
40
0.0557694653
40
0.1872655180
40
0.3643359906
40
0.5680843212
40
0.7845372909
40
1.0000000000
40
1.0000000000
40
1.0000000000
40
1.0000000000
10
50.1662642412
20
33.8000656078
30
0.0000000000
10
50.1662642412
20
33.8080365298
30
0.0000000000
10
50.1950665013
20
33.8239696653
30
0.0000000000
10
50.2229767617
20
33.8642662373
30
0.0000000000
10
50.2778566255
20
33.9153317502
30
0.0000000000
10
50.3365895032
20
33.9765105169
30
0.0000000000
10
50.4009740127
20
34.0408558211
30
0.0000000000
10
50.4444895052
20
34.0845874481
30
0.0000000000
10
50.4662642412
20
34.1063638183
30
0.0000000000
11
50.1662642412
21
33.8000656078
31
0.0000000000
11
50.1821372528
21
33.8179504583
31
0.0000000000
11
50.2211955012
21
33.8586132756
31
0.0000000000
11
50.2742754716
21
33.9128993796
31
0.0000000000
11
50.3356318044
21
33.9750901264
31
0.0000000000
11
50.4010160578
21
34.0409587771
31
0.0000000000
11
50.4662642412
21
34.1063638183
31
0.0000000000
0
SPLINE
5
3A2
100
AcDbEntity
8
0
100
AcDbSpline
62
0
6
CONTINUOUS
70
0
71
3
72
13
73
9
74
7
42
0.0000001000
43
0.0000001000
44
0.0000000001
12
-0.2809868016
22
-0.3232322922
32
0.0000000000
13
-0.3026978284
23
-0.3027401075
33
0.0000000000
40
0.0000000000
40
0.0000000000
40
0.0000000000
40
0.0000000000
40
0.0537390942
40
0.1845245422
40
0.3611286694
40
0.5648313580
40
0.7822256547
40
1.0000000000
40
1.0000000000
40
1.0000000000
40
1.0000000000
10
52.7162642412
20
14.8500000000
30
0.0000000000
10
52.7112309158
20
14.8442099298
30
0.0000000000
10
52.6935814726
20
14.8246690037
30
0.0000000000
10
52.6573371835
20
14.7880111701
30
0.0000000000
10
52.6063855248
20
14.7358347677
30
0.0000000000
10
52.5463570316
20
14.6752369200
30
0.0000000000
10
52.4821066460
20
14.6105568455
30
0.0000000000
10
52.4382375150
20
14.5666031190
30
0.0000000000
10
52.4162642412
20
14.5446267761
30
0.0000000000
11
52.7162642412
21
14.8500000000
31
0.0000000000
11
52.7008770160
21
14.8328968206
31
0.0000000000
11
52.6619731316
21
14.7926299646
31
0.0000000000
11
52.6090262908
21
14.7386588730
31
0.0000000000
11
52.5477186810
21
14.6766392027
31
0.0000000000
11
52.4821187036
21
14.6106210899
31
0.0000000000
11
52.4162642412
21
14.5446267761
31
0.0000000000
0
SPLINE
5
3A3
100
AcDbEntity
8
0
100
AcDbSpline
62
0
6
CONTINUOUS
70
0
71
3
72
13
73
9
74
7
42
0.0000001000
43
0.0000001000
44
0.0000000001
12
0.0000000000
22
0.4287788285
32
0.0000000000
13
-0.3031810390
23
0.3032037928
33
0.0000000000
40
0.0000000000
40
0.0000000000
40
0.0000000000
40
0.0000000000
40
0.0557694653
40
0.1872655180
40
0.3643359906
40
0.5680843212
40
0.7845372909
40
1.0000000000
40
1.0000000000
40
1.0000000000
40
1.0000000000
10
47.9662642412
20
33.8000656078
30
0.0000000000
10
47.9662642412
20
33.8080365298
30
0.0000000000
10
47.9374619811
20
33.8239696653
30
0.0000000000
10
47.9095517207
20
33.8642662373
30
0.0000000000
10
47.8546718569
20
33.9153317502
30
0.0000000000
10
47.7959389792
20
33.9765105169
30
0.0000000000
10
47.7315544697
20
34.0408558211
30
0.0000000000
10
47.6880389772
20
34.0845874481
30
0.0000000000
10
47.6662642412
20
34.1063638183
30
0.0000000000
11
47.9662642412
21
33.8000656078
31
0.0000000000
11
47.9503912296
21
33.8179504583
31
0.0000000000
11
47.9113329812
21
33.8586132756
31
0.0000000000
11
47.8582530108
21
33.9128993796
31
0.0000000000
11
47.7968966780
21
33.9750901264
31
0.0000000000
11
47.7315124246
21
34.0409587771
31
0.0000000000
11
47.6662642412
21
34.1063638183
31
0.0000000000
0
SPLINE
5
3A4
100
AcDbEntity
8
0
100
AcDbSpline
62
0
6
CONTINUOUS
70
0
71
3
72
13
73
9
74
7
42
0.0000001000
43
0.0000001000
44
0.0000000001
12
-0.3026978284
22
0.3027401075
32
0.0000000000
13
-0.2809868016
23
0.3232322922
33
0.0000000000
40
0.0000000000
40
0.0000000000
40
0.0000000000
40
0.0000000000
40
0.2177743453
40
0.4351686420
40
0.6388713306
40
0.8154754578
40
0.9462609058
40
1.0000000000
40
1.0000000000
40
1.0000000000
40
1.0000000000
10
58.4162642412
20
14.5446267761
30
0.0000000000
10
58.3942909674
20
14.5666031190
30
0.0000000000
10
58.3504218364
20
14.6105568455
30
0.0000000000
10
58.2861714508
20
14.6752369200
30
0.0000000000
10
58.2261429576
20
14.7358347677
30
0.0000000000
10
58.1751912989
20
14.7880111701
30
0.0000000000
10
58.1389470098
20
14.8246690037
30
0.0000000000
10
58.1212975666
20
14.8442099298
30
0.0000000000
10
58.1162642412
20
14.8500000000
30
0.0000000000
11
58.4162642412
21
14.5446267761
31
0.0000000000
11
58.3504097788
21
14.6106210899
31
0.0000000000
11
58.2848098014
21
14.6766392027
31
0.0000000000
11
58.2235021916
21
14.7386588730
31
0.0000000000
11
58.1705553508
21
14.7926299646
31
0.0000000000
11
58.1316514664
21
14.8328968206
31
0.0000000000
11
58.1162642412
21
14.8500000000
31
0.0000000000
0
SPLINE
5
3A5
100
AcDbEntity
8
0
100
AcDbSpline
62
0
6
CONTINUOUS
70
0
71
3
72
13
73
9
74
7
42
0.0000001000
43
0.0000001000
44
0.0000000001
12
0.2993132104
22
0.2994002723
32
0.0000000000
13
0.3048433176
23
0.2937859577
33
0.0000000000
40
0.0000000000
40
0.0000000000
40
0.0000000000
40
0.0000000000
40
0.2174142321
40
0.4355056813
40
0.6402382905
40
0.8172506823
40
0.9472823258
40
1.0000000000
40
1.0000000000
40
1.0000000000
40
1.0000000000
10
60.3662642412
20
25.6512907745
30
0.0000000000
10
60.3879558918
20
25.6729887346
30
0.0000000000
10
60.4314158671
20
25.7164431595
30
0.0000000000
10
60.4953449786
20
25.7802870373
30
0.0000000000
10
60.5552617265
20
25.8400805763
30
0.0000000000
10
60.6064807195
20
25.8909963068
30
0.0000000000
10
60.6424281668
20
25.9268484930
30
0.0000000000
10
60.6609073643
20
25.9448374292
30
0.0000000000
10
60.6662642412
20
25.9500000000
30
0.0000000000
11
60.3662642412
21
25.6512907745
31
0.0000000000
11
60.4313548068
21
25.7163690417
31
0.0000000000
11
60.4966829827
21
25.7816151326
31
0.0000000000
11
60.5580517691
21
25.8428224146
31
0.0000000000
11
60.6111661997
21
25.8956873970
31
0.0000000000
11
60.6502641926
21
25.9344403384
31
0.0000000000
11
60.6662642412
21
25.9500000000
31
0.0000000000
0
SPLINE
5
3A6
100
AcDbEntity
8
0
100
AcDbSpline
62
0
6
CONTINUOUS
70
0
71
3
72
13
73
9
74
7
42
0.0000001000
43
0.0000001000
44
0.0000000001
12
-0.2993132104
22
0.2994002723
32
0.0000000000
13
-0.3048433176
23
0.2937859577
33
0.0000000000
40
0.0000000000
40
0.0000000000
40
0.0000000000
40
0.0000000000
40
0.2174142321
40
0.4355056813
40
0.6402382905
40
0.8172506823
40
0.9472823258
40
1.0000000000
40
1.0000000000
40
1.0000000000
40
1.0000000000
10
63.1662642412
20
25.6512907745
30
0.0000000000
10
63.1445725906
20
25.6729887346
30
0.0000000000
10
63.1011126153
20
25.7164431595
30
0.0000000000
10
63.0371835038
20
25.7802870373
30
0.0000000000
10
62.9772667559
20
25.8400805763
30
0.0000000000
10
62.9260477629
20
25.8909963068
30
0.0000000000
10
62.8901003156
20
25.9268484930
30
0.0000000000
10
62.8716211181
20
25.9448374292
30
0.0000000000
10
62.8662642412
20
25.9500000000
30
0.0000000000
11
63.1662642412
21
25.6512907745
31
0.0000000000
11
63.1011736756
21
25.7163690417
31
0.0000000000
11
63.0358454997
21
25.7816151326
31
0.0000000000
11
62.9744767133
21
25.8428224146
31
0.0000000000
11
62.9213622827
21
25.8956873970
31
0.0000000000
11
62.8822642898
21
25.9344403384
31
0.0000000000
11
62.8662642412
21
25.9500000000
31
0.0000000000
0
SPLINE
5
3A7
100
AcDbEntity
8
0
100
AcDbSpline
62
0
6
CONTINUOUS
70
0
71
3
72
13
73
9
74
7
42
0.0000001000
43
0.0000001000
44
0.0000000001
12
0.0000000000
22
0.4284159367
32
0.0000000000
13
-0.3029191960
23
0.3029524281
33
0.0000000000
40
0.0000000000
40
0.0000000000
40
0.0000000000
40
0.0000000000
40
0.0555322668
40
0.1869223292
40
0.3639826637
40
0.5677953175
40
0.7843712437
40
1.0000000000
40
1.0000000000
40
1.0000000000
40
1.0000000000
10
60.6662642412
20
32.9500553678
30
0.0000000000
10
60.6662642412
20
32.9579856705
30
0.0000000000
10
60.6373814188
20
32.9737330579
30
0.0000000000
10
60.6095654432
20
33.0139850311
30
0.0000000000
10
60.5546507808
20
33.0649244117
30
0.0000000000
10
60.4959345623
20
33.1260512899
30
0.0000000000
10
60.4315468966
20
33.1903569994
30
0.0000000000
10
60.3880369377
20
33.2340784270
30
0.0000000000
10
60.3662642412
20
33.2558535121
30
0.0000000000
11
60.6662642412
21
32.9500553678
31
0.0000000000
11
60.6503912296
21
32.9677769594
31
0.0000000000
11
60.6113329812
21
33.0083105492
31
0.0000000000
11
60.5582530108
21
33.0625006672
31
0.0000000000
11
60.4968966780
21
33.1246262423
31
0.0000000000
11
60.4315124246
21
33.1904584329
31
0.0000000000
11
60.3662642412
21
33.2558535121
31
0.0000000000
0
SPLINE
5
3A8
100
AcDbEntity
8
0
100
AcDbSpline
62
0
6
CONTINUOUS
70
0
71
3
72
13
73
9
74
7
42
0.0000001000
43
0.0000001000
44
0.0000000001
12
0.2995661460
22
0.2996550415
32
0.0000000000
13
0.3030762104
23
0.2961116571
33
0.0000000000
40
0.0000000000
40
0.0000000000
40
0.0000000000
40
0.0000000000
40
0.2174452139
40
0.4354859338
40
0.6401422486
40
0.8171253418
40
0.9472147478
40
1.0000000000
40
1.0000000000
40
1.0000000000
40
1.0000000000
10
47.6662642412
20
24.8007804683
30
0.0000000000
10
47.6879773161
20
24.8224999865
30
0.0000000000
10
47.7314684209
20
24.8659930255
30
0.0000000000
10
47.7954221245
20
24.9299015485
30
0.0000000000
10
47.8553473173
20
24.9897567999
30
0.0000000000
10
47.9065463052
20
25.0407702865
30
0.0000000000
10
47.9425142565
20
25.0766810957
30
0.0000000000
10
47.9609315898
20
25.0947898905
30
0.0000000000
10
47.9662642412
20
25.1000000000
30
0.0000000000
11
47.6662642412
21
24.8007804683
31
0.0000000000
11
47.7314130168
21
24.8659294735
31
0.0000000000
11
47.7967619021
21
24.9312352018
31
0.0000000000
11
47.8581260989
21
24.9925053704
31
0.0000000000
11
47.9112278100
21
25.0454555717
31
0.0000000000
11
47.9503111434
21
25.0843242721
31
0.0000000000
11
47.9662642412
21
25.1000000000
31
0.0000000000
0
SPLINE
5
3A9
100
AcDbEntity
8
0
100
AcDbSpline
62
0
6
CONTINUOUS
70
0
71
3
72
13
73
9
74
7
42
0.0000001000
43
0.0000001000
44
0.0000000001
12
-0.2995661453
22
0.2996550413
32
0.0000000000
13
-0.3030721824
23
0.2961157733
33
0.0000000000
40
0.0000000000
40
0.0000000000
40
0.0000000000
40
0.0000000000
40
0.2178354398
40
0.4358020850
40
0.6401608257
40
0.8169168619
40
0.9470497072
40
1.0000000000
40
1.0000000000
40
1.0000000000
40
1.0000000000
10
50.4662642412
20
24.8007804683
30
0.0000000000
10
50.4445122002
20
24.8225389642
30
0.0000000000
10
50.4009895100
20
24.8660635659
30
0.0000000000
10
50.3370339232
20
24.9299739163
30
0.0000000000
10
50.2771684932
20
24.9897693436
30
0.0000000000
10
50.2260177623
20
25.0407349760
30
0.0000000000
10
50.1900515532
20
25.0766438132
30
0.0000000000
10
50.1716134948
20
25.0947735277
30
0.0000000000
10
50.1662642412
20
25.1000000000
30
0.0000000000
11
50.4662642412
21
24.8007804683
31
0.0000000000
11
50.4009985320
21
24.8660463715
31
0.0000000000
11
50.3356718083
21
24.9313298739
31
0.0000000000
11
50.2743968120
21
24.9925109302
31
0.0000000000
11
50.2213632561
21
25.0453932293
31
0.0000000000
11
50.1822669953
21
25.0842750325
31
0.0000000000
11
50.1662642412
21
25.1000000000
31
0.0000000000
0
SPLINE
5
3AA
100
AcDbEntity
8
0
100
AcDbSpline
62
0
6
CONTINUOUS
70
0
71
3
72
13
73
9
74
7
42
0.0000001000
43
0.0000001000
44
0.0000000001
12
0.0000000000
22
0.4284159367
32
0.0000000000
13
0.3029191960
23
0.3029524281
33
0.0000000000
40
0.0000000000
40
0.0000000000
40
0.0000000000
40
0.0000000000
40
0.0555322668
40
0.1869223292
40
0.3639826637
40
0.5677953175
40
0.7843712437
40
1.0000000000
40
1.0000000000
40
1.0000000000
40
1.0000000000
10
62.8662642412
20
32.9500553678
30
0.0000000000
10
62.8662642412
20
32.9579856705
30
0.0000000000
10
62.8951470636
20
32.9737330579
30
0.0000000000
10
62.9229630392
20
33.0139850311
30
0.0000000000
10
62.9778777016
20
33.0649244117
30
0.0000000000
10
63.0365939201
20
33.1260512899
30
0.0000000000
10
63.1009815858
20
33.1903569994
30
0.0000000000
10
63.1444915447
20
33.2340784270
30
0.0000000000
10
63.1662642412
20
33.2558535121
30
0.0000000000
11
62.8662642412
21
32.9500553678
31
0.0000000000
11
62.8821372528
21
32.9677769594
31
0.0000000000
11
62.9211955012
21
33.0083105492
31
0.0000000000
11
62.9742754716
21
33.0625006672
31
0.0000000000
11
63.0356318044
21
33.1246262423
31
0.0000000000
11
63.1010160578
21
33.1904584329
31
0.0000000000
11
63.1662642412
21
33.2558535121
31
0.0000000000
0
SPLINE
5
3AB
100
AcDbEntity
8
0
100
AcDbSpline
62
0
6
CONTINUOUS
70
0
71
3
72
10
73
6
74
4
42
0.0000001000
43
0.0000001000
44
0.0000000001
12
-4.0000360296
22
0.0287443504
32
0.0000000000
13
-3.9999639248
23
0.0374577367
33
0.0000000000
40
0.0000000000
40
0.0000000000
40
0.0000000000
40
0.0000000000
40
0.3303029973
40
0.6636439357
40
1.0000000000
40
1.0000000000
40
1.0000000000
40
1.0000000000
10
13.5000000000
20
46.1298666026
30
0.0000000000
10
13.0595920367
20
46.1330313843
30
0.0000000000
10
12.1747280890
20
46.1397571456
30
0.0000000000
10
10.8413947123
20
46.1508921323
30
0.0000000000
10
9.9484707077
20
46.1589669097
30
0.0000000000
10
9.5000000000
20
46.1631666220
30
0.0000000000
11
13.5000000000
21
46.1298666026
31
0.0000000000
11
12.1787800240
21
46.1398908175
31
0.0000000000
11
10.8454162086
21
46.1510115991
31
0.0000000000
11
9.5000000000
21
46.1631666220
31
0.0000000000
0
SPLINE
5
3AC
100
AcDbEntity
8
0
100
AcDbSpline
62
0
6
CONTINUOUS
70
0
71
3
72
10
73
6
74
4
42
0.0000001000
43
0.0000001000
44
0.0000000001
12
-4.0000360296
22
-0.0287443504
32
0.0000000000
13
-3.9999639248
23
-0.0374577367
33
0.0000000000
40
0.0000000000
40
0.0000000000
40
0.0000000000
40
0.0000000000
40
0.3303029973
40
0.6636439357
40
1.0000000000
40
1.0000000000
40
1.0000000000
40
1.0000000000
10
13.5000000000
20
0.8701333974
30
0.0000000000
10
13.0595920367
20
0.8669686157
30
0.0000000000
10
12.1747280890
20
0.8602428544
30
0.0000000000
10
10.8413947123
20
0.8491078677
30
0.0000000000
10
9.9484707077
20
0.8410330903
30
0.0000000000
10
9.5000000000
20
0.8368333780
30
0.0000000000
11
13.5000000000
21
0.8701333974
31
0.0000000000
11
12.1787800240
21
0.8601091825
31
0.0000000000
11
10.8454162086
21
0.8489884009
31
0.0000000000
11
9.5000000000
21
0.8368333780
31
0.0000000000
0
SPLINE
5
3AD
100
AcDbEntity
8
0
100
AcDbSpline
62
0
6
CONTINUOUS
70
0
71
3
72
8
73
4
74
2
42
0.0000001000
43
0.0000001000
44
0.0000000001
12
0.0034040784
22
0.0178721490
32
0.0000000000
13
0.0048148011
23
0.0175713588
33
0.0000000000
40
0.0000000000
40
0.0000000000
40
0.0000000000
40
0.0000000000
40
1.0000000000
40
1.0000000000
40
1.0000000000
40
1.0000000000
10
13.5035322849
20
2.1408829593
30
0.0000000000
10
13.5046669777
20
2.1468403423
30
0.0000000000
10
13.5060523298
20
2.1527520070
30
0.0000000000
10
13.5076572635
20
2.1586091266
30
0.0000000000
11
13.5035322849
21
2.1408829593
31
0.0000000000
11
13.5076572635
21
2.1586091266
31
0.0000000000
0
SPLINE
5
3AE
100
AcDbEntity
8
0
100
AcDbSpline
62
0
6
CONTINUOUS
70
0
71
3
72
12
73
8
74
6
42
0.0000001000
43
0.0000001000
44
0.0000000001
12
0.0800558000
22
0.2921593502
32
0.0000000000
13
0.2068946496
23
0.2206926360
33
0.0000000000
40
0.0000000000
40
0.0000000000
40
0.0000000000
40
0.0000000000
40
0.1261627864
40
0.3349789375
40
0.5675733903
40
0.8214620147
40
1.0000000000
40
1.0000000000
40
1.0000000000
40
1.0000000000
10
13.5076572635
20
2.1586091266
30
0.0000000000
10
13.5110239511
20
2.1708956725
30
0.0000000000
10
13.5225284629
20
2.2028807975
30
0.0000000000
10
13.5501361691
20
2.2532347623
30
0.0000000000
10
13.5915309988
20
2.3099864214
30
0.0000000000
10
13.6354340113
20
2.3607235357
30
0.0000000000
10
13.6651099466
20
2.3926714170
30
0.0000000000
10
13.6774227979
20
2.4058054232
30
0.0000000000
11
13.5076572635
21
2.1586091266
31
0.0000000000
11
13.5203691928
21
2.1946672271
31
0.0000000000
11
13.5500556660
21
2.2504242243
31
0.0000000000
11
13.5909841089
21
2.3076558492
31
0.0000000000
11
13.6407973866
21
2.3661125662
31
0.0000000000
11
13.6774227979
21
2.4058054232
31
0.0000000000
0
SPLINE
5
3AF
100
AcDbEntity
8
0
100
AcDbSpline
62
0
6
CONTINUOUS
70
0
71
3
72
8
73
4
74
2
42
0.0000001000
43
0.0000001000
44
0.0000000001
12
0.0190568490
22
0.0203277666
32
0.0000000000
13
0.0190989807
23
0.0202876245
33
0.0000000000
40
0.0000000000
40
0.0000000000
40
0.0000000000
40
0.0000000000
40
1.0000000000
40
1.0000000000
40
1.0000000000
40
1.0000000000
10
13.6774227979
20
2.4058054232
30
0.0000000000
10
13.6837750809
20
2.4125813454
30
0.0000000000
10
13.6901434425
20
2.4193422392
30
0.0000000000
10
13.6965097694
20
2.4261047807
30
0.0000000000
11
13.6774227979
21
2.4058054232
31
0.0000000000
11
13.6965097694
21
2.4261047807
31
0.0000000000
0
SPLINE
5
3B0
100
AcDbEntity
8
0
100
AcDbSpline
62
0
6
CONTINUOUS
70
0
71
3
72
9
73
5
74
3
42
0.0000001000
43
0.0000001000
44
0.0000000001
12
-0.0630244055
22
0.0669473431
32
0.0000000000
13
-0.0611995724
23
0.0686367575
33
0.0000000000
40
0.0000000000
40
0.0000000000
40
0.0000000000
40
0.0000000000
40
0.8953026459
40
1.0000000000
40
1.0000000000
40
1.0000000000
40
1.0000000000
10
13.6965097695
20
44.5738952193
30
0.0000000000
10
13.6777011305
20
44.5938745971
30
0.0000000000
10
13.6566729787
20
44.6161742473
30
0.0000000000
10
13.6362055536
20
44.6389923701
30
0.0000000000
10
13.6340697425
20
44.6413877324
30
0.0000000000
11
13.6965097695
21
44.5738952193
31
0.0000000000
11
13.6404974705
21
44.6342200592
31
0.0000000000
11
13.6340697425
21
44.6413877324
31
0.0000000000
0
SPLINE
5
3B1
100
AcDbEntity
8
0
100
AcDbSpline
62
0
6
CONTINUOUS
70
0
71
3
72
11
73
7
74
5
42
0.0000001000
43
0.0000001000
44
0.0000000001
12
-0.1708032259
22
0.1915598338
32
0.0000000000
13
-0.0480135369
23
0.2520816394
33
0.0000000000
40
0.0000000000
40
0.0000000000
40
0.0000000000
40
0.0000000000
40
0.2612545955
40
0.5338701981
40
0.7791137001
40
1.0000000000
40
1.0000000000
40
1.0000000000
40
1.0000000000
10
13.6340697425
20
44.6413877324
30
0.0000000000
10
13.6191953666
20
44.6580696947
30
0.0000000000
10
13.5895009144
20
44.6927899265
30
0.0000000000
10
13.5501663817
20
44.7467448019
30
0.0000000000
10
13.5196615671
20
44.8023255743
30
0.0000000000
10
13.5070674624
20
44.8405565805
30
0.0000000000
10
13.5035322849
20
44.8591170407
30
0.0000000000
11
13.6340697425
21
44.6413877324
31
0.0000000000
11
13.5907893044
21
44.6925901503
31
0.0000000000
11
13.5501038528
21
44.7494993009
31
0.0000000000
11
13.5204975913
21
44.8050331072
31
0.0000000000
11
13.5035322849
21
44.8591170407
31
0.0000000000
0
SPLINE
5
3B2
100
AcDbEntity
8
0
100
AcDbSpline
62
0
6
CONTINUOUS
70
0
71
3
72
10
73
6
74
4
42
0.0000001000
43
0.0000001000
44
0.0000000001
12
-3.9999099469
22
-0.0844306543
32
0.0000000000
13
-4.0000789581
23
-0.0760029928
33
0.0000000000
40
0.0000000000
40
0.0000000000
40
0.0000000000
40
0.0000000000
40
0.3303097417
40
0.6636505372
40
1.0000000000
40
1.0000000000
40
1.0000000000
40
1.0000000000
10
13.5000000000
20
0.4001095252
30
0.0000000000
10
13.0595969262
20
0.3908134360
30
0.0000000000
10
12.1747419051
20
0.3724925550
30
0.0000000000
10
10.8414075540
20
0.3458550948
30
0.0000000000
10
9.9484748029
20
0.3286126268
30
0.0000000000
10
9.5000000000
20
0.3200914382
30
0.0000000000
11
13.5000000000
21
0.4001095252
31
0.0000000000
11
12.1787800241
21
0.3727354952
31
0.0000000000
11
10.8454162085
21
0.3460829963
31
0.0000000000
11
9.5000000000
21
0.3200914382
31
0.0000000000
0
SPLINE
5
3B3
100
AcDbEntity
8
0
100
AcDbSpline
62
0
6
CONTINUOUS
70
0
71
3
72
10
73
6
74
4
42
0.0000001000
43
0.0000001000
44
0.0000000001
12
-3.9999099469
22
0.0844306543
32
0.0000000000
13
-4.0000789581
23
0.0760029928
33
0.0000000000
40
0.0000000000
40
0.0000000000
40
0.0000000000
40
0.0000000000
40
0.3303097417
40
0.6636505372
40
1.0000000000
40
1.0000000000
40
1.0000000000
40
1.0000000000
10
13.5000000000
20
46.5998904748
30
0.0000000000
10
13.0595969262
20
46.6091865640
30
0.0000000000
10
12.1747419051
20
46.6275074450
30
0.0000000000
10
10.8414075540
20
46.6541449052
30
0.0000000000
10
9.9484748029
20
46.6713873732
30
0.0000000000
10
9.5000000000
20
46.6799085618
30
0.0000000000
11
13.5000000000
21
46.5998904748
31
0.0000000000
11
12.1787800241
21
46.6272645048
31
0.0000000000
11
10.8454162085
21
46.6539170037
31
0.0000000000
11
9.5000000000
21
46.6799085618
31
0.0000000000
0
ENDSEC
0
SECTION
2
OBJECTS
0
DICTIONARY
5
C
100
AcDbDictionary
280
0
281
1
3
ACAD_GROUP
350
D
3
ACAD_MLINESTYLE
350
17
3
ACAD_LAYOUT
350
1A
3
ACAD_PLOTSETTINGS
350
19
3
ACAD_PLOTSTYLENAME
350
E
0
DICTIONARY
5
D
102
{ACAD_REACTORS
330
C
102
}
100
AcDbDictionary
280
0
281
1
0
ACDBDICTIONARYWDFLT
5
E
102
{ACAD_REACTORS
330
C
102
}
100
AcDbDictionary
281
1
3
Normal
350
F
100
AcDbDictionaryWithDefault
340
F
0
DICTIONARY
5
17
102
{ACAD_REACTORS
330
C
102
}
100
AcDbDictionary
280
0
281
1
3
Standard
350
18
0
DICTIONARY
5
19
102
{ACAD_REACTORS
330
C
102
}
100
AcDbDictionary
281
1
0
DICTIONARY
5
1A
102
{ACAD_REACTORS
330
C
102
}
100
AcDbDictionary
281
1
3
Layout1
350
1E
3
Model
350
22
0
ACDBPLACEHOLDER
5
F
102
{ACAD_REACTORS
330
E
102
}
0
MLINESTYLE
5
18
102
{ACAD_REACTORS
330
17
102
}
100
AcDbMlineStyle
2
STANDARD
70
0
3

62
256
51
90.0
52
90.0
71
2
49
0.5
62
256
6
BYLAYER
49
-0.5
62
256
6
BYLAYER
0
LAYOUT
5
1E
102
{ACAD_REACTORS
330
1A
102
}
100
AcDbPlotSettings
1

2

4

6

40
0.0
41
0.0
42
0.0
43
0.0
44
0.0
45
0.0
46
0.0
47
0.0
48
0.0
49
0.0
140
0.0
141
0.0
142
1.0
143
1.0
70
0
72
0
73
0
74
0
7

75
0
147
1.0
148
0.0
149
0.0
100
AcDbLayout
1
Layout1
70
0
71
0
10
0.0
20
0.0
11
0.0
21
0.0
12
0.0
22
0.0
32
0.0
14
0.0
24
0.0
34
0.0
15
0.0
25
0.0
35
0.0
146
0.0
13
0.0
23
0.0
33
0.0
16
0.0
26
0.0
36
0.0
17
0.0
27
0.0
37
0.0
76
0
330
1B
331
0
345
0
346
0
0
LAYOUT
5
22
102
{ACAD_REACTORS
330
1A
102
}
100
AcDbPlotSettings
1

2

4

6

40
0.0
41
0.0
42
0.0
43
0.0
44
0.0
45
0.0
46
0.0
47
0.0
48
0.0
49
0.0
140
0.0
141
0.0
142
1.0
143
1.0
70
0
72
0
73
0
74
0
7

75
0
147
1.0
148
0.0
149
0.0
100
AcDbLayout
1
Model
70
0
71
0
10
0.0
20
0.0
11
0.0
21
0.0
12
0.0
22
0.0
32
0.0
14
0.0
24
0.0
34
0.0
15
0.0
25
0.0
35
0.0
146
0.0
13
0.0
23
0.0
33
0.0
16
0.0
26
0.0
36
0.0
17
0.0
27
0.0
37
0.0
76
0
330
1F
331
0
345
0
346
0
0
ENDSEC
0
EOF
