0
SECTION
2
HEADER
9
$ACADVER
1
AC1015
9
$DWGCODEPAGE
3
ANSI_1252
9
$EXTMAX
10
297.0000000000
20
210.0000000000
30
0.0000000000
9
$EXTMIN
10
0.0000000000
20
0.0000000000
30
0.0000000000
9
$LIMMIN
10
0.0000000000
20
0.0000000000
9
$LIMMAX
10
297.0000000000
20
210.0000000000
9
$VIEWCTR
10
148.5000000000
20
105.0000000000
9
$VIEWSIZE
40
210.0000000000
9
$CLAYER
8
0
9
$LTSCALE
40
16.3350000000
9
$CELTYPE
6
BYLAYER
9
$DIMSCALE
40
1
9
$DIMASZ
40
3.0000000000
9
$DIMEXO
40
1.8562500000
9
$DIMDLI
40
11.2860000000
9
$DIMEXE
40
5.3460000000
9
$DIMCEN
40
2.6730000000
9
$DIMLFAC
40
1.0000000000
9
$DIMBLK
1
_FILLED
9
$DIMTXT
40
3.0000000000
9
$DIMTOL
70
1
9
$DIMLIM
70
0
9
$DIMTFAC
40
1.0000000000
9
$DIMTP
40
0.0100000000
9
$DIMTM
40
0.0100000000
9
$PDMODE
70
3
9
$PDSIZE
40
3.0000000000
9
$HANDSEED
5
3EA
9
$MEASUREMENT
70
1
9
$INSUNITS
70
4
0
ENDSEC
0
SECTION
2
CLASSES
0
CLASS
1
ACDBDICTIONARYWDFLT
2
AcDbDictionaryWithDefault
3
AutoCAD 2000
90
0
280
0
281
0
0
CLASS
1
ACDBPLACEHOLDER
2
AcDbPlaceHolder
3
AutoCAD 2000
90
0
280
0
281
0
0
CLASS
1
LAYOUT
2
AcDbLayout
3
AutoCAD 2000
90
0
280
0
281
0
0
ENDSEC
0
SECTION
2
TABLES
0
TABLE
2
VPORT
5
8
100
AcDbSymbolTable
70
2
0
VPORT
5
1F4
100
AcDbSymbolTableRecord
100
AcDbViewportTableRecord
2
*ACTIVE
70
0
10
0.0
20
0.0
11
1.0
21
1.0
12
148.5000000000
22
105.0000000000
13
0.0
23
0.0
14
1.0
24
1.0
15
0.0
25
0.0
16
0.0
26
0.0
36
1.0
17
0.0
27
0.0
37
0.0
40
210.0000000000
41
1.4142857143
42
50.0
43
0.0
44
0.0
50
0.0
51
0.0
71
0
72
100
73
1
74
1
75
0
76
0
77
0
78
0
0
ENDTAB
0
TABLE
2
LTYPE
5
5
100
AcDbSymbolTable
70
6
0
LTYPE
5
14
100
AcDbSymbolTableRecord
100
AcDbLinetypeTableRecord
2
BYBLOCK
70
0
3

72
65
73
0
40
0.0
0
LTYPE
5
15
100
AcDbSymbolTableRecord
100
AcDbLinetypeTableRecord
2
BYLAYER
70
0
3

72
65
73
0
40
0.0
0
LTYPE
5
16
100
AcDbSymbolTableRecord
100
AcDbLinetypeTableRecord
2
CONTINUOUS
70
64
3
Solid line
72
65
73
0
40
0
0
LTYPE
5
1F5
100
AcDbSymbolTableRecord
100
AcDbLinetypeTableRecord
2
CENTER
70
64
3
____ _ ____ _ ____ _ ____ _ ____ _ ____ _ ____
72
65
73
4
40
0.6
49
0.375
74
0
49
-0.075
74
0
49
0.075
74
0
49
-0.075
74
0
0
LTYPE
5
1F6
100
AcDbSymbolTableRecord
100
AcDbLinetypeTableRecord
2
HIDDEN
70
64
3
- - - - - - - - - - - - - - - - - - - -
72
65
73
2
40
0.2
49
0.1
74
0
49
-0.1
74
0
0
LTYPE
5
1F7
100
AcDbSymbolTableRecord
100
AcDbLinetypeTableRecord
2
PHANTOM
70
64
3
_____ _ _ _____ _ _ _____ _ _ _____
72
65
73
6
40
0.8
49
0.45
74
0
49
-0.05
74
0
49
0.1
74
0
49
-0.05
74
0
49
0.1
74
0
49
-0.05
74
0
0
LTYPE
5
1F8
100
AcDbSymbolTableRecord
100
AcDbLinetypeTableRecord
2
DOT
70
64
3
. . . . . . . . . . . . . . . . . . . .
72
65
73
2
40
0.2
49
0.1
74
0
49
-0.1
74
0
0
LTYPE
5
1F9
100
AcDbSymbolTableRecord
100
AcDbLinetypeTableRecord
2
DASHED
70
64
3
- - - - - - - - - - - - - - - - - - - -
72
65
73
2
40
0.2
49
0.1
74
0
49
-0.1
74
0
0
ENDTAB
0
TABLE
2
LAYER
5
2
100
AcDbSymbolTable
70
36
0
LAYER
5
10
100
AcDbSymbolTableRecord
100
AcDbLayerTableRecord
2
0
70
0
62
7
6
CONTINUOUS
370
-3
390
F
0
LAYER
5
1FA
100
AcDbSymbolTableRecord
100
AcDbLayerTableRecord
2
DEFAULT_1
70
0
62
7
6
CENTER
370
-3
390
F
0
LAYER
5
1FB
100
AcDbSymbolTableRecord
100
AcDbLayerTableRecord
2
DEFAULT_2
70
0
62
9
6
HIDDEN
370
-3
390
F
0
LAYER
5
1FC
100
AcDbSymbolTableRecord
100
AcDbLayerTableRecord
2
DEFAULT_3
70
0
62
7
6
PHANTOM
370
-3
390
F
0
LAYER
5
1FD
100
AcDbSymbolTableRecord
100
AcDbLayerTableRecord
2
_2D_DELETED_OBJS
70
0
62
7
6
CONTINUOUS
370
-3
390
F
0
LAYER
5
1FE
100
AcDbSymbolTableRecord
100
AcDbLayerTableRecord
2
0
70
0
62
7
6
CONTINUOUS
370
-3
390
F
0
LAYER
5
1FF
100
AcDbSymbolTableRecord
100
AcDbLayerTableRecord
2
ASSI
70
0
62
7
6
CONTINUOUS
370
-3
390
F
0
LAYER
5
200
100
AcDbSymbolTableRecord
100
AcDbLayerTableRecord
2
COORDINATE
70
0
62
7
6
CONTINUOUS
370
-3
390
F
0
LAYER
5
201
100
AcDbSymbolTableRecord
100
AcDbLayerTableRecord
2
COORD_ORIGINE
70
0
62
7
6
CONTINUOUS
370
-3
390
F
0
LAYER
5
202
100
AcDbSymbolTableRecord
100
AcDbLayerTableRecord
2
COSMETICHE
70
0
62
7
6
CONTINUOUS
370
-3
390
F
0
LAYER
5
203
100
AcDbSymbolTableRecord
100
AcDbLayerTableRecord
2
CURVE
70
0
62
7
6
CONTINUOUS
370
-3
390
F
0
LAYER
5
204
100
AcDbSymbolTableRecord
100
AcDbLayerTableRecord
2
DEFAULT_1
70
0
62
7
6
CONTINUOUS
370
-3
390
F
0
LAYER
5
205
100
AcDbSymbolTableRecord
100
AcDbLayerTableRecord
2
DEFAULT_2
70
0
62
7
6
CONTINUOUS
370
-3
390
F
0
LAYER
5
206
100
AcDbSymbolTableRecord
100
AcDbLayerTableRecord
2
DEFAULT_3
70
0
62
7
6
CONTINUOUS
370
-3
390
F
0
LAYER
5
207
100
AcDbSymbolTableRecord
100
AcDbLayerTableRecord
2
DRAFT
70
0
62
7
6
CONTINUOUS
370
-3
390
F
0
LAYER
5
208
100
AcDbSymbolTableRecord
100
AcDbLayerTableRecord
2
INTF_1
70
0
62
7
6
CONTINUOUS
370
-3
390
F
0
LAYER
5
209
100
AcDbSymbolTableRecord
100
AcDbLayerTableRecord
2
NOTE
70
0
62
7
6
CONTINUOUS
370
-3
390
F
0
LAYER
5
20A
100
AcDbSymbolTableRecord
100
AcDbLayerTableRecord
2
PIANI
70
0
62
7
6
CONTINUOUS
370
-3
390
F
0
LAYER
5
20B
100
AcDbSymbolTableRecord
100
AcDbLayerTableRecord
2
PIANI_ORIGINE
70
0
62
7
6
CONTINUOUS
370
-3
390
F
0
LAYER
5
20C
100
AcDbSymbolTableRecord
100
AcDbLayerTableRecord
2
PUNTI
70
0
62
7
6
CONTINUOUS
370
-3
390
F
0
LAYER
5
20D
100
AcDbSymbolTableRecord
100
AcDbLayerTableRecord
2
RACCORDO
70
0
62
7
6
CONTINUOUS
370
-3
390
F
0
LAYER
5
20E
100
AcDbSymbolTableRecord
100
AcDbLayerTableRecord
2
RGB____0____0____0__
70
0
62
7
6
CONTINUOUS
370
-3
390
F
0
LAYER
5
20F
100
AcDbSymbolTableRecord
100
AcDbLayerTableRecord
2
SMUSSO
70
0
62
7
6
CONTINUOUS
370
-3
390
F
0
LAYER
5
210
100
AcDbSymbolTableRecord
100
AcDbLayerTableRecord
2
SNAPLINE
70
0
62
7
6
CONTINUOUS
370
-3
390
F
0
LAYER
5
211
100
AcDbSymbolTableRecord
100
AcDbLayerTableRecord
2
SUPERFICI
70
0
62
7
6
CONTINUOUS
370
-3
390
F
0
LAYER
5
212
100
AcDbSymbolTableRecord
100
AcDbLayerTableRecord
2
TRASH
70
0
62
7
6
CONTINUOUS
370
-3
390
F
0
LAYER
5
213
100
AcDbSymbolTableRecord
100
AcDbLayerTableRecord
2
XSEC_DATUMS
70
0
62
7
6
CONTINUOUS
370
-3
390
F
0
LAYER
5
214
100
AcDbSymbolTableRecord
100
AcDbLayerTableRecord
2
_BLACK_HOLE
70
0
62
7
6
CONTINUOUS
370
-3
390
F
0
ENDTAB
0
TABLE
2
STYLE
5
3
100
AcDbSymbolTable
70
1
0
STYLE
5
11
100
AcDbSymbolTableRecord
100
AcDbTextStyleTableRecord
2
STANDARD
70
0
40
0.0
41
0.8000000000
50
0.0
71
0
42
0.2
3
txt
4

0
STYLE
5
215
100
AcDbSymbolTableRecord
100
AcDbTextStyleTableRecord
2
TEXTSTYLE_1
70
0
40
0.0
41
0.8000000000
50
0.0
71
0
42
0.2
3
txt
4

0
ENDTAB
0
TABLE
2
VIEW
5
6
100
AcDbSymbolTable
70
0
0
ENDTAB
0
TABLE
2
UCS
5
7
100
AcDbSymbolTable
70
0
0
ENDTAB
0
TABLE
2
APPID
5
9
100
AcDbSymbolTable
70
1
0
APPID
5
216
100
AcDbSymbolTableRecord
100
AcDbRegAppTableRecord
2
ACAD
70
0
0
ENDTAB
0
TABLE
2
BLOCK_RECORD
5
1
100
AcDbSymbolTable
70
0
0
BLOCK_RECORD
5
1F
100
AcDbSymbolTableRecord
100
AcDbBlockTableRecord
2
*MODEL_SPACE
0
BLOCK_RECORD
5
1B
100
AcDbSymbolTableRecord
100
AcDbBlockTableRecord
2
*PAPER_SPACE
0
ENDTAB
0
TABLE
2
DIMSTYLE
5
A
100
AcDbSymbolTable
70
1
100
AcDbDimStyleTable
71
0
0
DIMSTYLE
105
217
100
AcDbSymbolTableRecord
100
AcDbDimStyleTableRecord
2
STANDARD
70
0
3

4

40
1.0
41
3.0000000000
42
0.0625
43
0.38
44
0.18
45
0.0
46
0.0
47
0.0100000000
48
0.0100000000
140
3.0000000000
141
0.09
142
0.0
143
25.4
144
1.0000000000
145
0.0
146
1.0000000000
147
0.09
71
1
72
0
73
0
74
0
75
0
76
0
77
1
78
8
170
0
171
2
172
0
173
0
174
0
175
0
176
0
177
0
178
0
270
2
271
2
272
2
273
2
274
2
275
0
280
0
281
0
282
0
283
1
284
8
285
0
286
0
287
3
288
0
340
11
0
ENDTAB
0
ENDSEC
0
SECTION
2
BLOCKS
0
BLOCK
5
20
100
AcDbEntity
8
0
100
AcDbBlockBegin
2
*MODEL_SPACE
70
0
10
0.0
20
0.0
30
0.0
3
*MODEL_SPACE
1

0
ENDBLK
5
21
100
AcDbEntity
8
0
100
AcDbBlockEnd
0
BLOCK
5
1C
100
AcDbEntity
8
0
100
AcDbBlockBegin
2
*PAPER_SPACE
70
0
10
0.0
20
0.0
30
0.0
3
*PAPER_SPACE
1

0
ENDBLK
5
1D
100
AcDbEntity
8
0
100
AcDbBlockEnd
0
ENDSEC
0
SECTION
2
ENTITIES
0
TEXT
5
218
100
AcDbEntity
8
0
100
AcDbText
62
0
6
CONTINUOUS
10
118.3515213588
20
21.1428571429
7
TEXTSTYLE_1
40
3.0000000000
1
47
50
90.0000000000
41
0.7857142857
72
0
100
AcDbText
0
TEXT
5
219
100
AcDbEntity
8
0
100
AcDbText
62
0
6
CONTINUOUS
10
73.1658070731
20
55.7500000000
7
TEXTSTYLE_1
40
3.0000000000
1
67,3
41
0.7142857143
72
0
100
AcDbText
0
TEXT
5
21A
100
AcDbEntity
8
0
100
AcDbText
62
0
6
CONTINUOUS
10
20.1428571429
20
55.7500000000
7
TEXTSTYLE_1
40
3.0000000000
1
26
41
0.7857142857
72
0
100
AcDbText
0
TEXT
5
21B
100
AcDbEntity
8
0
100
AcDbText
62
0
6
CONTINUOUS
10
13.6785714286
20
65.7500000000
7
TEXTSTYLE_1
40
3.0000000000
1
35,5
41
0.6785714286
72
0
100
AcDbText
0
LINE
5
21C
100
AcDbEntity
8
0
100
AcDbLine
62
0
6
CONTINUOUS
10
0.0000000000
20
24.0000000000
11
0.0000000000
21
66.5000000000
0
LINE
5
21D
100
AcDbEntity
8
0
100
AcDbLine
62
0
6
CONTINUOUS
10
3.0000000000
20
64.0499999999
11
3.0000000000
21
65.9500000001
0
LINE
5
21E
100
AcDbEntity
8
0
100
AcDbLine
62
0
6
CONTINUOUS
10
0.0000000000
20
65.0000000000
11
3.0000000000
21
64.0499999999
0
LINE
5
21F
100
AcDbEntity
8
0
100
AcDbLine
62
0
6
CONTINUOUS
10
3.0000000000
20
65.9500000001
11
0.0000000000
21
65.0000000000
0
HATCH
5
220
100
AcDbEntity
8
0
100
AcDbHatch
62
0
6
CONTINUOUS
10
0.0
20
0.0
30
0.0
210
0.0
220
0.0
230
1.0
2

70
1
71
1
91
1
92
1
93
3
72
1
10
3.0000000000
20
65.9500000001
11
0.0000000000
21
65.0000000000
72
1
10
0.0000000000
20
65.0000000000
11
3.0000000000
21
64.0499999999
72
1
10
3.0000000000
20
64.0499999999
11
3.0000000000
21
65.9500000001
97
3
330
21D
330
21E
330
21F
75
0
76
1
98
1
10
0.0
20
0.0
0
LINE
5
221
100
AcDbEntity
8
0
100
AcDbLine
62
0
6
CONTINUOUS
10
9.5000000000
20
47.0000000000
11
9.5000000000
21
-0.0000000000
0
LINE
5
222
100
AcDbEntity
8
0
100
AcDbLine
62
0
6
CONTINUOUS
10
9.5000000000
20
47.0000000000
11
9.5000000000
21
56.5000000000
0
LINE
5
223
100
AcDbEntity
8
0
100
AcDbLine
62
0
6
CONTINUOUS
10
12.5000000000
20
54.0499999999
11
12.5000000000
21
55.9500000001
0
LINE
5
224
100
AcDbEntity
8
0
100
AcDbLine
62
0
6
CONTINUOUS
10
9.5000000000
20
55.0000000000
11
12.5000000000
21
54.0499999999
0
LINE
5
225
100
AcDbEntity
8
0
100
AcDbLine
62
0
6
CONTINUOUS
10
12.5000000000
20
55.9500000001
11
9.5000000000
21
55.0000000000
0
HATCH
5
226
100
AcDbEntity
8
0
100
AcDbHatch
62
0
6
CONTINUOUS
10
0.0
20
0.0
30
0.0
210
0.0
220
0.0
230
1.0
2

70
1
71
1
91
1
92
1
93
3
72
1
10
12.5000000000
20
55.9500000001
11
9.5000000000
21
55.0000000000
72
1
10
9.5000000000
20
55.0000000000
11
12.5000000000
21
54.0499999999
72
1
10
12.5000000000
20
54.0499999999
11
12.5000000000
21
55.9500000001
97
3
330
223
330
224
330
225
75
0
76
1
98
1
10
0.0
20
0.0
0
LINE
5
227
100
AcDbEntity
8
0
100
AcDbLine
62
0
6
CONTINUOUS
10
13.5000000000
20
2.1034605474
11
13.5000000000
21
0.0698202597
0
LINE
5
228
100
AcDbEntity
8
0
100
AcDbLine
62
0
6
CONTINUOUS
10
13.5000000000
20
44.8965394526
11
13.5000000000
21
46.9301797403
0
LINE
5
229
100
AcDbEntity
8
0
100
AcDbLine
62
0
6
CONTINUOUS
10
15.1000000000
20
45.7000000000
11
15.1000000000
21
44.6720718961
0
LINE
5
22A
100
AcDbEntity
8
0
100
AcDbLine
62
0
6
CONTINUOUS
10
15.1000000000
20
1.3000000000
11
15.1000000000
21
2.3279281039
0
LINE
5
22B
100
AcDbEntity
8
0
100
AcDbLine
62
0
6
CONTINUOUS
10
17.1439294983
20
45.1560705017
11
19.3535533906
21
42.9464466094
0
LINE
5
22C
100
AcDbEntity
8
0
100
AcDbLine
62
0
6
CONTINUOUS
10
51.6515213588
20
1.1000000000
11
51.7181541564
21
1.0000000000
0
LINE
5
22D
100
AcDbEntity
8
0
100
AcDbLine
62
9
6
CONTINUOUS
10
19.0087262032
20
4.0579186945
11
19.0087262032
21
6.1802708859
0
LINE
5
22E
100
AcDbEntity
8
0
100
AcDbLine
62
9
6
CONTINUOUS
10
19.0087262032
20
40.8197291113
11
19.0087262032
21
42.9421024555
0
LINE
5
22F
100
AcDbEntity
8
0
100
AcDbLine
62
0
6
CONTINUOUS
10
19.5000000000
20
4.4071067812
11
19.5000000000
21
5.5086513684
0
LINE
5
230
100
AcDbEntity
8
0
100
AcDbLine
62
0
6
CONTINUOUS
10
19.5000000000
20
41.4913486316
11
19.5000000000
21
42.5928932188
0
LINE
5
231
100
AcDbEntity
8
0
100
AcDbLine
62
9
6
CONTINUOUS
10
24.0087262032
20
26.8086513684
11
24.0087262032
21
36.7913486316
0
LINE
5
232
100
AcDbEntity
8
0
100
AcDbLine
62
0
6
CONTINUOUS
10
24.5000000000
20
27.3000000000
11
24.5000000000
21
36.3000000000
0
LINE
5
233
100
AcDbEntity
8
0
100
AcDbLine
62
0
6
CONTINUOUS
10
32.5000000000
20
65.9500000001
11
32.5000000000
21
64.0499999999
0
LINE
5
234
100
AcDbEntity
8
0
100
AcDbLine
62
0
6
CONTINUOUS
10
35.5000000000
20
65.0000000000
11
32.5000000000
21
65.9500000001
0
LINE
5
235
100
AcDbEntity
8
0
100
AcDbLine
62
0
6
CONTINUOUS
10
32.5000000000
20
64.0499999999
11
35.5000000000
21
65.0000000000
0
HATCH
5
236
100
AcDbEntity
8
0
100
AcDbHatch
62
0
6
CONTINUOUS
10
0.0
20
0.0
30
0.0
210
0.0
220
0.0
230
1.0
2

70
1
71
1
91
1
92
1
93
3
72
1
10
32.5000000000
20
64.0499999999
11
35.5000000000
21
65.0000000000
72
1
10
35.5000000000
20
65.0000000000
11
32.5000000000
21
65.9500000001
72
1
10
32.5000000000
20
65.9500000001
11
32.5000000000
21
64.0499999999
97
3
330
233
330
234
330
235
75
0
76
1
98
1
10
0.0
20
0.0
0
LINE
5
237
100
AcDbEntity
8
0
100
AcDbLine
62
0
6
CONTINUOUS
10
32.5000000000
20
55.9500000001
11
32.5000000000
21
54.0499999999
0
LINE
5
238
100
AcDbEntity
8
0
100
AcDbLine
62
0
6
CONTINUOUS
10
35.5000000000
20
55.0000000000
11
32.5000000000
21
55.9500000001
0
LINE
5
239
100
AcDbEntity
8
0
100
AcDbLine
62
0
6
CONTINUOUS
10
32.5000000000
20
54.0499999999
11
35.5000000000
21
55.0000000000
0
HATCH
5
23A
100
AcDbEntity
8
0
100
AcDbHatch
62
0
6
CONTINUOUS
10
0.0
20
0.0
30
0.0
210
0.0
220
0.0
230
1.0
2

70
1
71
1
91
1
92
1
93
3
72
1
10
32.5000000000
20
54.0499999999
11
35.5000000000
21
55.0000000000
72
1
10
35.5000000000
20
55.0000000000
11
32.5000000000
21
55.9500000001
72
1
10
32.5000000000
20
55.9500000001
11
32.5000000000
21
54.0499999999
97
3
330
237
330
238
330
239
75
0
76
1
98
1
10
0.0
20
0.0
0
LINE
5
23B
100
AcDbEntity
8
0
100
AcDbLine
62
9
6
CONTINUOUS
10
33.0087262032
20
26.6515557841
11
33.0087262032
21
7.5235319101
0
LINE
5
23C
100
AcDbEntity
8
0
100
AcDbLine
62
9
6
CONTINUOUS
10
33.0087262032
20
36.9484442159
11
33.0087262032
21
39.4764680899
0
LINE
5
23D
100
AcDbEntity
8
0
100
AcDbLine
62
9
6
CONTINUOUS
10
33.0087262032
20
32.1573023576
11
33.0085785911
21
27.6514060558
0
LINE
5
23E
100
AcDbEntity
8
0
100
AcDbLine
62
9
6
CONTINUOUS
10
33.1409792221
20
35.7500000000
11
33.1409792221
21
33.6500000019
0
LINE
5
23F
100
AcDbEntity
8
0
100
AcDbLine
62
0
6
CONTINUOUS
10
33.5000000000
20
32.1573023576
11
33.5000000000
21
6.7357195406
0
LINE
5
240
100
AcDbEntity
8
0
100
AcDbLine
62
0
6
CONTINUOUS
10
33.5000000000
20
36.9484442159
11
33.5000000000
21
40.2642804594
0
LINE
5
241
100
AcDbEntity
8
0
100
AcDbLine
62
9
6
CONTINUOUS
10
33.5377865768
20
35.7500000001
11
33.5377865768
21
33.6500000019
0
LINE
5
242
100
AcDbEntity
8
0
100
AcDbLine
62
0
6
CONTINUOUS
10
33.6500000000
20
19.5000000000
11
33.6500000000
21
19.2510857439
0
LINE
5
243
100
AcDbEntity
8
0
100
AcDbLine
62
9
6
CONTINUOUS
10
33.6895330158
20
8.5300000000
11
33.6895330372
21
8.5102749249
0
LINE
5
244
100
AcDbEntity
8
0
100
AcDbLine
62
9
6
CONTINUOUS
10
33.6895328171
20
38.4900670001
11
33.6895330335
21
30.9099330106
0
LINE
5
245
100
AcDbEntity
8
0
100
AcDbLine
62
9
6
CONTINUOUS
10
33.6895327706
20
11.2049540089
11
33.6895328304
21
9.5324000000
0
LINE
5
246
100
AcDbEntity
8
0
100
AcDbLine
62
9
6
CONTINUOUS
10
33.6895328088
20
19.5000000000
11
33.6895326215
21
18.3966916958
0
LINE
5
247
100
AcDbEntity
8
0
100
AcDbLine
62
0
6
CONTINUOUS
10
33.7000000000
20
30.8500533865
11
33.7000000000
21
30.8300268904
0
LINE
5
248
100
AcDbEntity
8
0
100
AcDbLine
62
0
6
CONTINUOUS
10
33.7000000000
20
30.8250107030
11
33.7000000000
21
19.5000000000
0
LINE
5
249
100
AcDbEntity
8
0
100
AcDbLine
62
0
6
CONTINUOUS
10
33.7000000000
20
13.2550410000
11
33.7000000000
21
11.2049440000
0
LINE
5
24A
100
AcDbEntity
8
0
100
AcDbLine
62
0
6
CONTINUOUS
10
33.7000000000
20
9.5324000000
11
33.7000000000
21
8.5300000000
0
LINE
5
24B
100
AcDbEntity
8
0
100
AcDbLine
62
9
6
CONTINUOUS
10
35.2157007869
20
12.4314800435
11
35.2157010193
21
8.5899160813
0
LINE
5
24C
100
AcDbEntity
8
0
100
AcDbLine
62
9
6
CONTINUOUS
10
35.2157007723
20
38.4100839319
11
35.2157010193
21
30.9899160813
0
LINE
5
24D
100
AcDbEntity
8
0
100
AcDbLine
62
9
6
CONTINUOUS
10
35.2157007869
20
19.8314800435
11
35.2157005461
21
18.3700523356
0
LINE
5
24E
100
AcDbEntity
8
0
100
AcDbLine
62
9
6
CONTINUOUS
10
35.3034905174
20
31.0085203487
11
35.3034904813
21
28.6314800434
0
LINE
5
24F
100
AcDbEntity
8
0
100
AcDbLine
62
9
6
CONTINUOUS
10
35.3034904813
20
25.7685199566
11
35.3034904813
21
19.8314800434
0
LINE
5
250
100
AcDbEntity
8
0
100
AcDbLine
62
9
6
CONTINUOUS
10
35.3034904813
20
18.3685199566
11
35.3034904813
21
12.4314800434
0
LINE
5
251
100
AcDbEntity
8
0
100
AcDbLine
62
0
6
CONTINUOUS
10
35.5000000000
20
38.1103763816
11
35.5000000000
21
28.8314495825
0
LINE
5
252
100
AcDbEntity
8
0
100
AcDbLine
62
0
6
CONTINUOUS
10
35.5000000000
20
25.5685504175
11
35.5000000000
21
8.8896231911
0
LINE
5
253
100
AcDbEntity
8
0
100
AcDbLine
62
0
6
CONTINUOUS
10
35.5000000000
20
38.1103763816
11
35.5000000000
21
66.5000000000
0
LINE
5
254
100
AcDbEntity
8
0
100
AcDbLine
62
9
6
CONTINUOUS
10
43.9427993945
20
44.9755923698
11
43.8015213588
21
45.3997711479
0
LINE
5
255
100
AcDbEntity
8
0
100
AcDbLine
62
9
6
CONTINUOUS
10
44.4427232421
20
45.4749071372
11
44.3011407591
21
45.9000000000
0
LINE
5
256
100
AcDbEntity
8
0
100
AcDbLine
62
0
6
CONTINUOUS
10
51.5881769951
20
1.0000000000
11
51.5666490817
21
1.1000000000
0
LINE
5
257
100
AcDbEntity
8
0
100
AcDbLine
62
0
6
CONTINUOUS
10
43.8015213588
20
1.6002288521
11
43.8015213588
21
45.3997711479
0
LINE
5
258
100
AcDbEntity
8
0
100
AcDbLine
62
0
6
CONTINUOUS
10
43.8015213588
20
45.8997711479
11
43.8015213588
21
56.5000000000
0
LINE
5
259
100
AcDbEntity
8
0
100
AcDbLine
62
9
6
CONTINUOUS
10
44.4509862963
20
2.4816857691
11
44.4509862963
21
44.5183142309
0
LINE
5
25A
100
AcDbEntity
8
0
100
AcDbLine
62
0
6
CONTINUOUS
10
13.5000000000
20
0.0698202597
11
9.5000000000
21
-0.0000000000
0
LINE
5
25B
100
AcDbEntity
8
0
100
AcDbLine
62
9
6
CONTINUOUS
10
13.5000000000
20
0.2368926388
11
9.5000000000
21
0.1666403419
0
LINE
5
25C
100
AcDbEntity
8
0
100
AcDbLine
62
0
6
CONTINUOUS
10
103.6263788370
20
-0.0000000000
11
96.2766638806
21
-0.0000000000
0
LINE
5
25D
100
AcDbEntity
8
0
100
AcDbLine
62
0
6
CONTINUOUS
10
58.6263788370
20
-0.0000000000
11
51.2766638806
21
-0.0000000000
0
LINE
5
25E
100
AcDbEntity
8
0
100
AcDbLine
62
0
6
CONTINUOUS
10
104.1263788370
20
-0.0000000000
11
120.6015213588
21
-0.0000000000
0
LINE
5
25F
100
AcDbEntity
8
0
100
AcDbLine
62
0
6
CONTINUOUS
10
51.4817010991
20
1.0000000000
11
58.4213416185
21
1.0000000000
0
LINE
5
260
100
AcDbEntity
8
0
100
AcDbLine
62
0
6
CONTINUOUS
10
96.4817010991
20
1.0000000000
11
103.4213416185
21
1.0000000000
0
LINE
5
261
100
AcDbEntity
8
0
100
AcDbLine
62
0
6
CONTINUOUS
10
110.6019019585
20
1.1000000000
11
103.2515213588
21
1.1000000000
0
LINE
5
262
100
AcDbEntity
8
0
100
AcDbLine
62
0
6
CONTINUOUS
10
96.6515213588
20
1.1000000000
11
58.2515213588
21
1.1000000000
0
LINE
5
263
100
AcDbEntity
8
0
100
AcDbLine
62
0
6
CONTINUOUS
10
51.6515213588
20
1.1000000000
11
44.3011407591
21
1.1000000000
0
LINE
5
264
100
AcDbEntity
8
0
100
AcDbLine
62
0
6
CONTINUOUS
10
15.6494954839
20
1.3000000000
11
15.1000000000
21
1.3000000000
0
LINE
5
265
100
AcDbEntity
8
0
100
AcDbLine
62
9
6
CONTINUOUS
10
110.4603194755
20
1.5250928628
11
44.4427232421
21
1.5250928628
0
LINE
5
266
100
AcDbEntity
8
0
100
AcDbLine
62
9
6
CONTINUOUS
10
110.4520564213
20
2.4816857691
11
44.4509862963
21
2.4816857691
0
LINE
5
267
100
AcDbEntity
8
0
100
AcDbLine
62
0
6
CONTINUOUS
10
9.5000000000
20
1.1000000000
11
1.3887449801
21
1.5250928628
0
LINE
5
268
100
AcDbEntity
8
0
100
AcDbLine
62
9
6
CONTINUOUS
10
9.5000000000
20
1.6002288521
11
1.4061867550
21
2.0244076302
0
LINE
5
269
100
AcDbEntity
8
0
100
AcDbLine
62
3
6
CONTINUOUS
10
50.1866822302
20
24.4879425397
11
50.2257576313
21
24.4775000000
0
LINE
5
26A
100
AcDbEntity
8
0
100
AcDbLine
62
3
6
CONTINUOUS
10
50.1330635114
20
24.5041439604
11
50.1866822302
21
24.4879425397
0
LINE
5
26B
100
AcDbEntity
8
0
100
AcDbLine
62
3
6
CONTINUOUS
10
50.0781009353
20
24.5227849476
11
50.1330635114
21
24.5041439604
0
LINE
5
26C
100
AcDbEntity
8
0
100
AcDbLine
62
3
6
CONTINUOUS
10
50.0656395904
20
24.5275000000
11
50.0781009353
21
24.5227849476
0
LINE
5
26D
100
AcDbEntity
8
0
100
AcDbLine
62
0
6
CONTINUOUS
10
58.1848885612
20
46.0000000000
11
58.2515213588
21
45.9000000000
0
LINE
5
26E
100
AcDbEntity
8
0
100
AcDbLine
62
0
6
CONTINUOUS
10
58.3881769951
20
1.0000000000
11
58.3666490817
21
1.1000000000
0
LINE
5
26F
100
AcDbEntity
8
0
100
AcDbLine
62
0
6
CONTINUOUS
10
51.5148657225
20
46.0000000000
11
51.5363936359
21
45.9000000000
0
LINE
5
270
100
AcDbEntity
8
0
100
AcDbLine
62
9
6
CONTINUOUS
10
46.5515213588
20
20.4981989194
11
46.5515213588
21
26.5018010806
0
LINE
5
271
100
AcDbEntity
8
0
100
AcDbLine
62
0
6
CONTINUOUS
10
46.8015213588
20
54.0499999999
11
46.8015213588
21
55.9500000001
0
LINE
5
272
100
AcDbEntity
8
0
100
AcDbLine
62
0
6
CONTINUOUS
10
43.8015213588
20
55.0000000000
11
46.8015213588
21
54.0499999999
0
LINE
5
273
100
AcDbEntity
8
0
100
AcDbLine
62
0
6
CONTINUOUS
10
46.8015213588
20
55.9500000001
11
43.8015213588
21
55.0000000000
0
HATCH
5
274
100
AcDbEntity
8
0
100
AcDbHatch
62
0
6
CONTINUOUS
10
0.0
20
0.0
30
0.0
210
0.0
220
0.0
230
1.0
2

70
1
71
1
91
1
92
1
93
3
72
1
10
46.8015213588
20
55.9500000001
11
43.8015213588
21
55.0000000000
72
1
10
43.8015213588
20
55.0000000000
11
46.8015213588
21
54.0499999999
72
1
10
46.8015213588
20
54.0499999999
11
46.8015213588
21
55.9500000001
97
3
330
271
330
272
330
273
75
0
76
1
98
1
10
0.0
20
0.0
0
LINE
5
275
100
AcDbEntity
8
0
100
AcDbLine
62
0
6
CONTINUOUS
10
46.8515213588
20
20.8000000000
11
46.8515213588
21
26.2000000000
0
LINE
5
276
100
AcDbEntity
8
0
100
AcDbLine
62
9
6
CONTINUOUS
10
49.5515213588
20
26.5018010806
11
49.5515213537
21
26.2000000000
0
LINE
5
277
100
AcDbEntity
8
0
100
AcDbLine
62
9
6
CONTINUOUS
10
49.5515213588
20
20.4981989194
11
49.5515213588
21
20.8000000000
0
LINE
5
278
100
AcDbEntity
8
0
100
AcDbLine
62
0
6
CONTINUOUS
10
51.4817010991
20
1.1000000000
11
51.4817010991
21
1.0000000000
0
LINE
5
279
100
AcDbEntity
8
0
100
AcDbLine
62
0
6
CONTINUOUS
10
51.4817010991
20
45.9000000000
11
51.4817010991
21
46.0000000000
0
LINE
5
27A
100
AcDbEntity
8
0
100
AcDbLine
62
9
6
CONTINUOUS
10
0.4419648767
20
2.4816857695
11
0.9327966980
21
2.5027040833
0
LINE
5
27B
100
AcDbEntity
8
0
100
AcDbLine
62
0
6
CONTINUOUS
10
17.4708547979
20
2.3693115283
11
13.6965095187
21
2.3034300864
0
LINE
5
27C
100
AcDbEntity
8
0
100
AcDbLine
62
9
6
CONTINUOUS
10
17.4711000007
20
2.4922859092
11
13.6965095187
21
2.4261047763
0
LINE
5
27D
100
AcDbEntity
8
0
100
AcDbLine
62
0
6
CONTINUOUS
10
19.7762410258
20
6.0048218050
11
33.0087262032
21
6.2357956930
0
LINE
5
27E
100
AcDbEntity
8
0
100
AcDbLine
62
9
6
CONTINUOUS
10
19.0087262032
20
6.1802708859
11
20.2374033591
21
6.2018658126
0
LINE
5
27F
100
AcDbEntity
8
0
100
AcDbLine
62
0
6
CONTINUOUS
10
120.0515213589
20
3.0000000000
11
118.1515213587
21
3.0000000000
0
LINE
5
280
100
AcDbEntity
8
0
100
AcDbLine
62
0
6
CONTINUOUS
10
118.1515213587
20
3.0000000000
11
119.1015213588
21
-0.0000000000
0
LINE
5
281
100
AcDbEntity
8
0
100
AcDbLine
62
0
6
CONTINUOUS
10
119.1015213588
20
-0.0000000000
11
120.0515213589
21
3.0000000000
0
HATCH
5
282
100
AcDbEntity
8
0
100
AcDbHatch
62
0
6
CONTINUOUS
10
0.0
20
0.0
30
0.0
210
0.0
220
0.0
230
1.0
2

70
1
71
1
91
1
92
1
93
3
72
1
10
118.1515213587
20
3.0000000000
11
119.1015213588
21
-0.0000000000
72
1
10
119.1015213588
20
-0.0000000000
11
120.0515213589
21
3.0000000000
72
1
10
120.0515213589
20
3.0000000000
11
118.1515213587
21
3.0000000000
97
3
330
27F
330
280
330
281
75
0
76
1
98
1
10
0.0
20
0.0
0
LINE
5
283
100
AcDbEntity
8
0
100
AcDbLine
62
9
6
CONTINUOUS
10
33.5000000000
20
7.5235319101
11
33.0087262032
21
7.5235319122
0
LINE
5
284
100
AcDbEntity
8
0
100
AcDbLine
62
0
6
CONTINUOUS
10
33.5000000000
20
8.5300000000
11
33.7000000000
21
8.5300000000
0
LINE
5
285
100
AcDbEntity
8
0
100
AcDbLine
62
0
6
CONTINUOUS
10
33.5000000000
20
9.5324000000
11
33.7000000000
21
9.5324000000
0
LINE
5
286
100
AcDbEntity
8
0
100
AcDbLine
62
0
6
CONTINUOUS
10
33.5000000000
20
11.2049440000
11
33.7000000000
21
11.2049440000
0
LINE
5
287
100
AcDbEntity
8
0
100
AcDbLine
62
9
6
CONTINUOUS
10
35.5000000000
20
11.2500000000
11
33.6895328088
21
11.2500000000
0
LINE
5
288
100
AcDbEntity
8
0
100
AcDbLine
62
3
6
CONTINUOUS
10
92.1866822302
20
24.4879425397
11
92.2257576313
21
24.4775000000
0
LINE
5
289
100
AcDbEntity
8
0
100
AcDbLine
62
3
6
CONTINUOUS
10
92.1330635114
20
24.5041439604
11
92.1866822302
21
24.4879425397
0
LINE
5
28A
100
AcDbEntity
8
0
100
AcDbLine
62
3
6
CONTINUOUS
10
92.0781009353
20
24.5227849476
11
92.1330635114
21
24.5041439604
0
LINE
5
28B
100
AcDbEntity
8
0
100
AcDbLine
62
0
6
CONTINUOUS
10
15.6494954839
20
45.7000000000
11
17.1439294983
21
45.1560705017
0
LINE
5
28C
100
AcDbEntity
8
0
100
AcDbLine
62
3
6
CONTINUOUS
10
92.0656395904
20
24.5275000000
11
92.0781009353
21
24.5227849476
0
LINE
5
28D
100
AcDbEntity
8
0
100
AcDbLine
62
0
6
CONTINUOUS
10
88.8515213588
20
22.2841799543
11
90.1515213588
21
21.7799881078
0
LINE
5
28E
100
AcDbEntity
8
0
100
AcDbLine
62
0
6
CONTINUOUS
10
96.6515213588
20
1.1000000000
11
96.7181541564
21
1.0000000000
0
LINE
5
28F
100
AcDbEntity
8
0
100
AcDbLine
62
0
6
CONTINUOUS
10
58.3148657225
20
46.0000000000
11
58.3363936359
21
45.9000000000
0
LINE
5
290
100
AcDbEntity
8
0
100
AcDbLine
62
9
6
CONTINUOUS
10
56.8015213588
20
28.4529717831
11
56.8015213588
21
31.2546527917
0
LINE
5
291
100
AcDbEntity
8
0
100
AcDbLine
62
0
6
CONTINUOUS
10
57.1015213588
20
30.9500000000
11
57.1015213588
21
28.7500000000
0
LINE
5
292
100
AcDbEntity
8
0
100
AcDbLine
62
9
6
CONTINUOUS
10
57.6515213588
20
15.7453472083
11
57.6515213588
21
18.5470282169
0
LINE
5
293
100
AcDbEntity
8
0
100
AcDbLine
62
0
6
CONTINUOUS
10
57.9515213588
20
16.0500000000
11
57.9515213588
21
18.2500000000
0
LINE
5
294
100
AcDbEntity
8
0
100
AcDbLine
62
0
6
CONTINUOUS
10
58.4213416185
20
46.0000000000
11
58.4213416185
21
45.9000000000
0
LINE
5
295
100
AcDbEntity
8
0
100
AcDbLine
62
0
6
CONTINUOUS
10
58.4213416185
20
1.0000000000
11
58.4213416185
21
1.1000000000
0
LINE
5
296
100
AcDbEntity
8
0
100
AcDbLine
62
0
6
CONTINUOUS
10
64.9515213588
20
18.2500000000
11
64.9515213588
21
16.0500000000
0
LINE
5
297
100
AcDbEntity
8
0
100
AcDbLine
62
9
6
CONTINUOUS
10
65.2515213588
20
18.5470282169
11
65.2515213588
21
15.7453472083
0
LINE
5
298
100
AcDbEntity
8
0
100
AcDbLine
62
0
6
CONTINUOUS
10
65.8015213588
20
30.9500000000
11
65.8015213588
21
28.7500000000
0
LINE
5
299
100
AcDbEntity
8
0
100
AcDbLine
62
9
6
CONTINUOUS
10
66.1015213588
20
31.2546527917
11
66.1015213588
21
28.4529717831
0
LINE
5
29A
100
AcDbEntity
8
0
100
AcDbLine
62
0
6
CONTINUOUS
10
51.5881769951
20
46.0000000000
11
51.5666490817
21
45.9000000000
0
LINE
5
29B
100
AcDbEntity
8
0
100
AcDbLine
62
0
6
CONTINUOUS
10
33.6895330515
20
8.5099330063
11
35.2157010657
21
8.5899160828
0
LINE
5
29C
100
AcDbEntity
8
0
100
AcDbLine
62
0
6
CONTINUOUS
10
33.6995360459
20
12.4034829146
11
35.3034904813
21
12.4314800434
0
LINE
5
29D
100
AcDbEntity
8
0
100
AcDbLine
62
0
6
CONTINUOUS
10
33.7000000000
20
19.8034910130
11
35.3034904813
21
19.8314800434
0
LINE
5
29E
100
AcDbEntity
8
0
100
AcDbLine
62
0
6
CONTINUOUS
10
33.5000000000
20
13.2550410000
11
33.7000000000
21
13.2550410000
0
LINE
5
29F
100
AcDbEntity
8
0
100
AcDbLine
62
9
6
CONTINUOUS
10
107.2515213588
20
15.7453472083
11
99.6515213588
21
15.7453472083
0
LINE
5
2A0
100
AcDbEntity
8
0
100
AcDbLine
62
9
6
CONTINUOUS
10
65.2515213588
20
15.7453472083
11
57.6515213588
21
15.7453472083
0
LINE
5
2A1
100
AcDbEntity
8
0
100
AcDbLine
62
0
6
CONTINUOUS
10
106.9515213588
20
16.0500000000
11
99.9515213588
21
16.0500000000
0
LINE
5
2A2
100
AcDbEntity
8
0
100
AcDbLine
62
0
6
CONTINUOUS
10
64.9515213588
20
16.0500000000
11
57.9515213588
21
16.0500000000
0
LINE
5
2A3
100
AcDbEntity
8
0
100
AcDbLine
62
0
6
CONTINUOUS
10
57.9515213588
20
18.2500000000
11
64.9515213588
21
18.2500000000
0
LINE
5
2A4
100
AcDbEntity
8
0
100
AcDbLine
62
0
6
CONTINUOUS
10
99.9515213588
20
18.2500000000
11
106.9515213588
21
18.2500000000
0
LINE
5
2A5
100
AcDbEntity
8
0
100
AcDbLine
62
9
6
CONTINUOUS
10
57.6515213588
20
18.5470282169
11
65.2515213588
21
18.5470282169
0
LINE
5
2A6
100
AcDbEntity
8
0
100
AcDbLine
62
9
6
CONTINUOUS
10
99.6515213588
20
18.5470282169
11
107.2515213588
21
18.5470282169
0
LINE
5
2A7
100
AcDbEntity
8
0
100
AcDbLine
62
9
6
CONTINUOUS
10
35.5000000000
20
18.6500000000
11
33.5000000000
21
18.6500000000
0
LINE
5
2A8
100
AcDbEntity
8
0
100
AcDbLine
62
0
6
CONTINUOUS
10
33.5000000000
20
19.2510960529
11
33.6500000000
21
19.2510960529
0
LINE
5
2A9
100
AcDbEntity
8
0
100
AcDbLine
62
0
6
CONTINUOUS
10
33.5000000000
20
19.2755110000
11
33.6500000000
21
19.2755110000
0
LINE
5
2AA
100
AcDbEntity
8
0
100
AcDbLine
62
0
6
CONTINUOUS
10
33.5000000000
20
19.5000000000
11
33.7000000000
21
19.5000000000
0
LINE
5
2AB
100
AcDbEntity
8
0
100
AcDbLine
62
9
6
CONTINUOUS
10
91.5515213588
20
20.4981989194
11
88.5515213588
21
20.4981989194
0
LINE
5
2AC
100
AcDbEntity
8
0
100
AcDbLine
62
9
6
CONTINUOUS
10
49.5515213588
20
20.4981989194
11
46.5515213588
21
20.4981989194
0
LINE
5
2AD
100
AcDbEntity
8
0
100
AcDbLine
62
0
6
CONTINUOUS
10
91.5515213588
20
20.8000000000
11
88.8515213588
21
20.8000000000
0
LINE
5
2AE
100
AcDbEntity
8
0
100
AcDbLine
62
0
6
CONTINUOUS
10
49.5515213588
20
20.8000000000
11
46.8515213588
21
20.8000000000
0
LINE
5
2AF
100
AcDbEntity
8
0
100
AcDbLine
62
0
6
CONTINUOUS
10
33.5000000000
20
21.1000000000
11
33.7000000000
21
21.1000000000
0
LINE
5
2B0
100
AcDbEntity
8
0
100
AcDbLine
62
0
6
CONTINUOUS
10
94.1188239639
20
22.6674494937
11
88.8515213588
21
22.6674494937
0
LINE
5
2B1
100
AcDbEntity
8
0
100
AcDbLine
62
0
6
CONTINUOUS
10
46.8515213588
20
22.6674494937
11
52.1188239639
21
22.6674494937
0
LINE
5
2B2
100
AcDbEntity
8
0
100
AcDbLine
62
3
6
CONTINUOUS
10
94.2203532695
20
23.0917135624
11
88.8515213588
21
23.0917135624
0
LINE
5
2B3
100
AcDbEntity
8
0
100
AcDbLine
62
3
6
CONTINUOUS
10
46.8515213588
20
23.0917135624
11
52.2203532695
21
23.0917135624
0
LINE
5
2B4
100
AcDbEntity
8
0
100
AcDbLine
62
0
6
CONTINUOUS
10
33.5000000000
20
18.4000000000
11
35.3034904813
21
18.3685199566
0
LINE
5
2B5
100
AcDbEntity
8
0
100
AcDbLine
62
0
6
CONTINUOUS
10
58.3881769951
20
46.0000000000
11
58.3666490817
21
45.9000000000
0
LINE
5
2B6
100
AcDbEntity
8
0
100
AcDbLine
62
0
6
CONTINUOUS
10
51.5148657225
20
1.0000000000
11
51.5363936359
21
1.1000000000
0
LINE
5
2B7
100
AcDbEntity
8
0
100
AcDbLine
62
0
6
CONTINUOUS
10
33.7016840575
20
28.6035204083
11
35.3034904813
21
28.6314800434
0
LINE
5
2B8
100
AcDbEntity
8
0
100
AcDbLine
62
9
6
CONTINUOUS
10
94.1613913949
20
24.1846067812
11
88.8515213588
21
24.1846067812
0
LINE
5
2B9
100
AcDbEntity
8
0
100
AcDbLine
62
9
6
CONTINUOUS
10
46.8515213588
20
24.1846067812
11
52.1613913949
21
24.1846067812
0
LINE
5
2BA
100
AcDbEntity
8
0
100
AcDbLine
62
3
6
CONTINUOUS
10
52.0678819756
20
24.4775000000
11
46.8515213588
21
24.4775000000
0
LINE
5
2BB
100
AcDbEntity
8
0
100
AcDbLine
62
3
6
CONTINUOUS
10
88.8515213588
20
24.4775000000
11
94.0678819756
21
24.4775000000
0
LINE
5
2BC
100
AcDbEntity
8
0
100
AcDbLine
62
3
6
CONTINUOUS
10
52.0470433329
20
24.5275000000
11
46.8515213588
21
24.5275000000
0
LINE
5
2BD
100
AcDbEntity
8
0
100
AcDbLine
62
3
6
CONTINUOUS
10
88.8515213588
20
24.5275000000
11
94.0470433329
21
24.5275000000
0
LINE
5
2BE
100
AcDbEntity
8
0
100
AcDbLine
62
9
6
CONTINUOUS
10
93.9053976764
20
24.8203932188
11
88.8515213588
21
24.8203932188
0
LINE
5
2BF
100
AcDbEntity
8
0
100
AcDbLine
62
9
6
CONTINUOUS
10
46.8515213588
20
24.8203932188
11
51.9053976764
21
24.8203932188
0
LINE
5
2C0
100
AcDbEntity
8
0
100
AcDbLine
62
3
6
CONTINUOUS
10
92.7599093783
20
25.9132864376
11
88.8515213588
21
25.9132864376
0
LINE
5
2C1
100
AcDbEntity
8
0
100
AcDbLine
62
3
6
CONTINUOUS
10
46.8515213588
20
25.9132864376
11
50.7599093784
21
25.9132864376
0
LINE
5
2C2
100
AcDbEntity
8
0
100
AcDbLine
62
0
6
CONTINUOUS
10
46.8515213588
20
26.2000000000
11
49.5515213588
21
26.2000000000
0
LINE
5
2C3
100
AcDbEntity
8
0
100
AcDbLine
62
0
6
CONTINUOUS
10
88.8515213588
20
26.2000000000
11
91.5515213588
21
26.2000000000
0
LINE
5
2C4
100
AcDbEntity
8
0
100
AcDbLine
62
9
6
CONTINUOUS
10
46.5515213588
20
26.5018010806
11
49.5515213588
21
26.5018010806
0
LINE
5
2C5
100
AcDbEntity
8
0
100
AcDbLine
62
9
6
CONTINUOUS
10
88.5515213588
20
26.5018010806
11
91.5515213588
21
26.5018010806
0
LINE
5
2C6
100
AcDbEntity
8
0
100
AcDbLine
62
9
6
CONTINUOUS
10
33.5000000000
20
26.6515557841
11
33.0087262032
21
26.6515557841
0
LINE
5
2C7
100
AcDbEntity
8
0
100
AcDbLine
62
0
6
CONTINUOUS
10
33.5000000000
20
27.5994590000
11
33.7000000000
21
27.5994590000
0
LINE
5
2C8
100
AcDbEntity
8
0
100
AcDbLine
62
9
6
CONTINUOUS
10
108.1015213588
20
28.4529717831
11
98.8015213588
21
28.4529717831
0
LINE
5
2C9
100
AcDbEntity
8
0
100
AcDbLine
62
9
6
CONTINUOUS
10
66.1015213588
20
28.4529717831
11
56.8015213588
21
28.4529717831
0
LINE
5
2CA
100
AcDbEntity
8
0
100
AcDbLine
62
0
6
CONTINUOUS
10
107.8015213588
20
28.7500000000
11
99.1015213588
21
28.7500000000
0
LINE
5
2CB
100
AcDbEntity
8
0
100
AcDbLine
62
0
6
CONTINUOUS
10
65.8015213588
20
28.7500000000
11
57.1015213588
21
28.7500000000
0
LINE
5
2CC
100
AcDbEntity
8
0
100
AcDbLine
62
0
6
CONTINUOUS
10
33.5000000000
20
29.4000000000
11
33.7000000000
21
29.4000000000
0
LINE
5
2CD
100
AcDbEntity
8
0
100
AcDbLine
62
0
6
CONTINUOUS
10
33.5364971851
20
30.8250107572
11
33.7000000000
21
30.8250110000
0
LINE
5
2CE
100
AcDbEntity
8
0
100
AcDbLine
62
0
6
CONTINUOUS
10
33.7000000000
20
30.8501503732
11
33.5573727704
21
30.8501503732
0
LINE
5
2CF
100
AcDbEntity
8
0
100
AcDbLine
62
0
6
CONTINUOUS
10
57.1015213588
20
30.9500000000
11
65.8015213588
21
30.9500000000
0
LINE
5
2D0
100
AcDbEntity
8
0
100
AcDbLine
62
0
6
CONTINUOUS
10
99.1015213588
20
30.9500000000
11
107.8015213588
21
30.9500000000
0
LINE
5
2D1
100
AcDbEntity
8
0
100
AcDbLine
62
9
6
CONTINUOUS
10
56.8015213588
20
31.2546527917
11
66.1015213588
21
31.2546527917
0
LINE
5
2D2
100
AcDbEntity
8
0
100
AcDbLine
62
9
6
CONTINUOUS
10
98.8015213588
20
31.2546527917
11
108.1015213588
21
31.2546527917
0
LINE
5
2D3
100
AcDbEntity
8
0
100
AcDbLine
62
9
6
CONTINUOUS
10
33.5000000000
20
32.1573023576
11
33.0087262032
21
32.1573023576
0
LINE
5
2D4
100
AcDbEntity
8
0
100
AcDbLine
62
9
6
CONTINUOUS
10
35.5000000000
20
33.6500000000
11
33.1409792221
21
33.6500000019
0
LINE
5
2D5
100
AcDbEntity
8
0
100
AcDbLine
62
0
6
CONTINUOUS
10
33.7000000000
20
25.7965089870
11
35.3034904813
21
25.7685199566
0
LINE
5
2D6
100
AcDbEntity
8
0
100
AcDbLine
62
9
6
CONTINUOUS
10
33.0087262032
20
26.6515557841
11
24.0087262032
21
26.8086513684
0
LINE
5
2D7
100
AcDbEntity
8
0
100
AcDbLine
62
0
6
CONTINUOUS
10
33.0087262032
20
27.1514796317
11
24.5000000000
21
27.3000000000
0
LINE
5
2D8
100
AcDbEntity
8
0
100
AcDbLine
62
9
6
CONTINUOUS
10
33.0085785911
20
27.6514060558
11
24.5000000000
21
27.7999238476
0
LINE
5
2D9
100
AcDbEntity
8
0
100
AcDbLine
62
0
6
CONTINUOUS
10
33.6895328361
20
38.4900670050
11
35.2157008071
21
38.4100839308
0
LINE
5
2DA
100
AcDbEntity
8
0
100
AcDbLine
62
0
6
CONTINUOUS
10
96.5881769951
20
1.0000000000
11
96.5666490817
21
1.1000000000
0
LINE
5
2DB
100
AcDbEntity
8
0
100
AcDbLine
62
0
6
CONTINUOUS
10
58.3148657225
20
1.0000000000
11
58.3363936359
21
1.1000000000
0
LINE
5
2DC
100
AcDbEntity
8
0
100
AcDbLine
62
9
6
CONTINUOUS
10
43.8015213588
20
1.6002288521
11
43.9427993945
21
2.0244076302
0
LINE
5
2DD
100
AcDbEntity
8
0
100
AcDbLine
62
9
6
CONTINUOUS
10
44.3011407591
20
1.1000000000
11
44.4427232421
21
1.5250928628
0
LINE
5
2DE
100
AcDbEntity
8
0
100
AcDbLine
62
3
6
CONTINUOUS
10
93.0838856741
20
24.4790575857
11
93.1336098620
21
24.4929446119
0
LINE
5
2DF
100
AcDbEntity
8
0
100
AcDbLine
62
3
6
CONTINUOUS
10
93.0775921531
20
24.4775000000
11
93.0838856741
21
24.4790575857
0
LINE
5
2E0
100
AcDbEntity
8
0
100
AcDbLine
62
0
6
CONTINUOUS
10
33.6895330515
20
30.9099330063
11
35.2157010657
21
30.9899160828
0
LINE
5
2E1
100
AcDbEntity
8
0
100
AcDbLine
62
9
6
CONTINUOUS
10
33.0087262032
20
35.9485965208
11
24.5000000000
21
35.8000761524
0
LINE
5
2E2
100
AcDbEntity
8
0
100
AcDbLine
62
0
6
CONTINUOUS
10
24.5000000000
20
36.3000000000
11
33.0087262032
21
36.4485203683
0
LINE
5
2E3
100
AcDbEntity
8
0
100
AcDbLine
62
9
6
CONTINUOUS
10
24.0087262032
20
36.7913486316
11
33.0087262032
21
36.9484442159
0
LINE
5
2E4
100
AcDbEntity
8
0
100
AcDbLine
62
9
6
CONTINUOUS
10
35.5000000000
20
35.7500000000
11
33.1409792221
21
35.7500000000
0
LINE
5
2E5
100
AcDbEntity
8
0
100
AcDbLine
62
9
6
CONTINUOUS
10
33.0087262032
20
36.9484442159
11
33.5000000000
21
36.9484442159
0
LINE
5
2E6
100
AcDbEntity
8
0
100
AcDbLine
62
9
6
CONTINUOUS
10
33.0087262032
20
39.4764680899
11
33.5000000000
21
39.4764680899
0
LINE
5
2E7
100
AcDbEntity
8
0
100
AcDbLine
62
0
6
CONTINUOUS
10
118.1515213587
20
44.0000000000
11
120.0515213589
21
44.0000000000
0
LINE
5
2E8
100
AcDbEntity
8
0
100
AcDbLine
62
0
6
CONTINUOUS
10
120.0515213589
20
44.0000000000
11
119.1015213588
21
47.0000000000
0
LINE
5
2E9
100
AcDbEntity
8
0
100
AcDbLine
62
0
6
CONTINUOUS
10
119.1015213588
20
47.0000000000
11
118.1515213587
21
44.0000000000
0
HATCH
5
2EA
100
AcDbEntity
8
0
100
AcDbHatch
62
0
6
CONTINUOUS
10
0.0
20
0.0
30
0.0
210
0.0
220
0.0
230
1.0
2

70
1
71
1
91
1
92
1
93
3
72
1
10
120.0515213589
20
44.0000000000
11
119.1015213588
21
47.0000000000
72
1
10
119.1015213588
20
47.0000000000
11
118.1515213587
21
44.0000000000
72
1
10
118.1515213587
20
44.0000000000
11
120.0515213589
21
44.0000000000
97
3
330
2E7
330
2E8
330
2E9
75
0
76
1
98
1
10
0.0
20
0.0
0
LINE
5
2EB
100
AcDbEntity
8
0
100
AcDbLine
62
0
6
CONTINUOUS
10
33.0087262032
20
40.7642043070
11
19.7762410258
21
40.9951781950
0
LINE
5
2EC
100
AcDbEntity
8
0
100
AcDbLine
62
0
6
CONTINUOUS
10
13.6965095187
20
44.6965699136
11
17.4708547979
21
44.6306884717
0
LINE
5
2ED
100
AcDbEntity
8
0
100
AcDbLine
62
9
6
CONTINUOUS
10
20.2374033591
20
40.7981341874
11
19.0087262032
21
40.8197291113
0
LINE
5
2EE
100
AcDbEntity
8
0
100
AcDbLine
62
9
6
CONTINUOUS
10
13.6965095194
20
44.5738952237
11
17.4708091451
21
44.5077191893
0
LINE
5
2EF
100
AcDbEntity
8
0
100
AcDbLine
62
9
6
CONTINUOUS
10
0.4420109709
20
44.5183122942
11
0.9327966980
21
44.4972959167
0
LINE
5
2F0
100
AcDbEntity
8
0
100
AcDbLine
62
0
6
CONTINUOUS
10
103.1848885612
20
46.0000000000
11
103.2515213588
21
45.9000000000
0
LINE
5
2F1
100
AcDbEntity
8
0
100
AcDbLine
62
9
6
CONTINUOUS
10
110.6019019585
20
1.1000000000
11
110.4603194755
21
1.5250928628
0
LINE
5
2F2
100
AcDbEntity
8
0
100
AcDbLine
62
9
6
CONTINUOUS
10
111.1015213588
20
1.6002288521
11
110.9602433231
21
2.0244076302
0
LINE
5
2F3
100
AcDbEntity
8
0
100
AcDbLine
62
0
6
CONTINUOUS
10
103.3881769951
20
1.0000000000
11
103.3666490817
21
1.1000000000
0
LINE
5
2F4
100
AcDbEntity
8
0
100
AcDbLine
62
0
6
CONTINUOUS
10
96.5148657225
20
46.0000000000
11
96.5363936359
21
45.9000000000
0
LINE
5
2F5
100
AcDbEntity
8
0
100
AcDbLine
62
9
6
CONTINUOUS
10
88.5515213588
20
20.4981989194
11
88.5515213588
21
26.5018010806
0
LINE
5
2F6
100
AcDbEntity
8
0
100
AcDbLine
62
0
6
CONTINUOUS
10
88.8515213588
20
20.8000000000
11
88.8515213588
21
26.2000000000
0
LINE
5
2F7
100
AcDbEntity
8
0
100
AcDbLine
62
9
6
CONTINUOUS
10
90.1515213588
20
24.4775000000
11
90.1515213588
21
21.7799881078
0
LINE
5
2F8
100
AcDbEntity
8
0
100
AcDbLine
62
0
6
CONTINUOUS
10
90.1515213588
20
20.8000000000
11
90.1515213588
21
21.7799881078
0
LINE
5
2F9
100
AcDbEntity
8
0
100
AcDbLine
62
9
6
CONTINUOUS
10
90.1515213588
20
24.5275000000
11
90.1515213588
21
26.2000000000
0
LINE
5
2FA
100
AcDbEntity
8
0
100
AcDbLine
62
9
6
CONTINUOUS
10
91.5515213588
20
26.5018010806
11
91.5515213537
21
26.2000000000
0
LINE
5
2FB
100
AcDbEntity
8
0
100
AcDbLine
62
9
6
CONTINUOUS
10
91.5515213588
20
20.4981989194
11
91.5515213588
21
20.8000000000
0
LINE
5
2FC
100
AcDbEntity
8
0
100
AcDbLine
62
0
6
CONTINUOUS
10
96.4817010991
20
1.1000000000
11
96.4817010991
21
1.0000000000
0
LINE
5
2FD
100
AcDbEntity
8
0
100
AcDbLine
62
0
6
CONTINUOUS
10
96.4817010991
20
45.9000000000
11
96.4817010991
21
46.0000000000
0
LINE
5
2FE
100
AcDbEntity
8
0
100
AcDbLine
62
3
6
CONTINUOUS
10
51.0838856741
20
24.4790575857
11
51.1336098620
21
24.4929446119
0
LINE
5
2FF
100
AcDbEntity
8
0
100
AcDbLine
62
3
6
CONTINUOUS
10
51.0775921531
20
24.4775000000
11
51.0838856741
21
24.4790575857
0
LINE
5
300
100
AcDbEntity
8
0
100
AcDbLine
62
9
6
CONTINUOUS
10
1.4061867550
20
44.9755923698
11
9.5000000000
21
45.3997711479
0
LINE
5
301
100
AcDbEntity
8
0
100
AcDbLine
62
0
6
CONTINUOUS
10
1.3887449801
20
45.4749071372
11
9.5000000000
21
45.9000000000
0
LINE
5
302
100
AcDbEntity
8
0
100
AcDbLine
62
9
6
CONTINUOUS
10
44.4509862963
20
44.5183142309
11
110.4520564213
21
44.5183142309
0
LINE
5
303
100
AcDbEntity
8
0
100
AcDbLine
62
9
6
CONTINUOUS
10
44.4427232421
20
45.4749071372
11
110.4603194755
21
45.4749071372
0
LINE
5
304
100
AcDbEntity
8
0
100
AcDbLine
62
0
6
CONTINUOUS
10
15.6494954839
20
45.7000000000
11
15.1000000000
21
45.7000000000
0
LINE
5
305
100
AcDbEntity
8
0
100
AcDbLine
62
0
6
CONTINUOUS
10
44.3011407591
20
45.9000000000
11
51.6515213588
21
45.9000000000
0
LINE
5
306
100
AcDbEntity
8
0
100
AcDbLine
62
0
6
CONTINUOUS
10
58.2515213588
20
45.9000000000
11
96.6515213588
21
45.9000000000
0
LINE
5
307
100
AcDbEntity
8
0
100
AcDbLine
62
0
6
CONTINUOUS
10
103.2515213588
20
45.9000000000
11
110.6019019585
21
45.9000000000
0
LINE
5
308
100
AcDbEntity
8
0
100
AcDbLine
62
0
6
CONTINUOUS
10
51.4817010991
20
46.0000000000
11
58.4213416185
21
46.0000000000
0
LINE
5
309
100
AcDbEntity
8
0
100
AcDbLine
62
0
6
CONTINUOUS
10
96.4817010991
20
46.0000000000
11
103.4213416185
21
46.0000000000
0
LINE
5
30A
100
AcDbEntity
8
0
100
AcDbLine
62
0
6
CONTINUOUS
10
103.6263788370
20
47.0000000000
11
96.2766638806
21
47.0000000000
0
LINE
5
30B
100
AcDbEntity
8
0
100
AcDbLine
62
0
6
CONTINUOUS
10
58.6263788370
20
47.0000000000
11
51.2766638806
21
47.0000000000
0
LINE
5
30C
100
AcDbEntity
8
0
100
AcDbLine
62
0
6
CONTINUOUS
10
104.1263788370
20
47.0000000000
11
120.6015213588
21
47.0000000000
0
LINE
5
30D
100
AcDbEntity
8
0
100
AcDbLine
62
0
6
CONTINUOUS
10
13.5000000000
20
46.9301797403
11
9.5000000000
21
47.0000000000
0
LINE
5
30E
100
AcDbEntity
8
0
100
AcDbLine
62
9
6
CONTINUOUS
10
13.5000000000
20
46.7631073612
11
9.5000000000
21
46.8333596581
0
LINE
5
30F
100
AcDbEntity
8
0
100
AcDbLine
62
0
6
CONTINUOUS
10
111.1015213588
20
55.0000000000
11
108.1015213588
21
55.9500000001
0
LINE
5
310
100
AcDbEntity
8
0
100
AcDbLine
62
0
6
CONTINUOUS
10
108.1015213588
20
55.9500000001
11
108.1015213588
21
54.0499999999
0
LINE
5
311
100
AcDbEntity
8
0
100
AcDbLine
62
0
6
CONTINUOUS
10
108.1015213588
20
54.0499999999
11
111.1015213588
21
55.0000000000
0
HATCH
5
312
100
AcDbEntity
8
0
100
AcDbHatch
62
0
6
CONTINUOUS
10
0.0
20
0.0
30
0.0
210
0.0
220
0.0
230
1.0
2

70
1
71
1
91
1
92
1
93
3
72
1
10
108.1015213588
20
55.9500000001
11
108.1015213588
21
54.0499999999
72
1
10
108.1015213588
20
54.0499999999
11
111.1015213588
21
55.0000000000
72
1
10
111.1015213588
20
55.0000000000
11
108.1015213588
21
55.9500000001
97
3
330
30F
330
310
330
311
75
0
76
1
98
1
10
0.0
20
0.0
0
LINE
5
313
100
AcDbEntity
8
0
100
AcDbLine
62
0
6
CONTINUOUS
10
103.3148657225
20
46.0000000000
11
103.3363936359
21
45.9000000000
0
LINE
5
314
100
AcDbEntity
8
0
100
AcDbLine
62
9
6
CONTINUOUS
10
98.8015213588
20
28.4529717831
11
98.8015213588
21
31.2546527917
0
LINE
5
315
100
AcDbEntity
8
0
100
AcDbLine
62
0
6
CONTINUOUS
10
99.1015213588
20
28.7500000000
11
99.1015213588
21
30.9500000000
0
LINE
5
316
100
AcDbEntity
8
0
100
AcDbLine
62
9
6
CONTINUOUS
10
99.6515213588
20
15.7453472083
11
99.6515213588
21
18.5470282169
0
LINE
5
317
100
AcDbEntity
8
0
100
AcDbLine
62
0
6
CONTINUOUS
10
99.9515213588
20
16.0500000000
11
99.9515213588
21
18.2500000000
0
LINE
5
318
100
AcDbEntity
8
0
100
AcDbLine
62
0
6
CONTINUOUS
10
103.4213416185
20
46.0000000000
11
103.4213416185
21
45.9000000000
0
LINE
5
319
100
AcDbEntity
8
0
100
AcDbLine
62
0
6
CONTINUOUS
10
103.4213416185
20
1.0000000000
11
103.4213416185
21
1.1000000000
0
LINE
5
31A
100
AcDbEntity
8
0
100
AcDbLine
62
0
6
CONTINUOUS
10
106.9515213588
20
18.2500000000
11
106.9515213588
21
16.0500000000
0
LINE
5
31B
100
AcDbEntity
8
0
100
AcDbLine
62
9
6
CONTINUOUS
10
107.2515213588
20
18.5470282169
11
107.2515213588
21
15.7453472083
0
LINE
5
31C
100
AcDbEntity
8
0
100
AcDbLine
62
0
6
CONTINUOUS
10
107.8015213588
20
30.9500000000
11
107.8015213588
21
28.7500000000
0
LINE
5
31D
100
AcDbEntity
8
0
100
AcDbLine
62
9
6
CONTINUOUS
10
108.1015213588
20
31.2546527917
11
108.1015213588
21
28.4529717831
0
LINE
5
31E
100
AcDbEntity
8
0
100
AcDbLine
62
0
6
CONTINUOUS
10
51.7181541564
20
46.0000000000
11
51.6515213588
21
45.9000000000
0
LINE
5
31F
100
AcDbEntity
8
0
100
AcDbLine
62
0
6
CONTINUOUS
10
9.5000000000
20
55.0000000000
11
35.5000000000
21
55.0000000000
0
LINE
5
320
100
AcDbEntity
8
0
100
AcDbLine
62
0
6
CONTINUOUS
10
43.8015213588
20
55.0000000000
11
111.1015213588
21
55.0000000000
0
LINE
5
321
100
AcDbEntity
8
0
100
AcDbLine
62
9
6
CONTINUOUS
10
110.4520564213
20
2.4816857691
11
110.4520564213
21
44.5183142309
0
LINE
5
322
100
AcDbEntity
8
0
100
AcDbLine
62
0
6
CONTINUOUS
10
111.1015213588
20
45.3997711479
11
111.1015213588
21
1.6002288521
0
LINE
5
323
100
AcDbEntity
8
0
100
AcDbLine
62
0
6
CONTINUOUS
10
111.1015213588
20
45.8997711479
11
111.1015213588
21
56.5000000000
0
LINE
5
324
100
AcDbEntity
8
0
100
AcDbLine
62
0
6
CONTINUOUS
10
96.5881769951
20
46.0000000000
11
96.5666490817
21
45.9000000000
0
LINE
5
325
100
AcDbEntity
8
0
100
AcDbLine
62
0
6
CONTINUOUS
10
103.3881769951
20
46.0000000000
11
103.3666490817
21
45.9000000000
0
LINE
5
326
100
AcDbEntity
8
0
100
AcDbLine
62
0
6
CONTINUOUS
10
0.0000000000
20
65.0000000000
11
35.5000000000
21
65.0000000000
0
LINE
5
327
100
AcDbEntity
8
0
100
AcDbLine
62
0
6
CONTINUOUS
10
119.1015213588
20
-0.0000000000
11
119.1015213588
21
47.0000000000
0
LINE
5
328
100
AcDbEntity
8
0
100
AcDbLine
62
0
6
CONTINUOUS
10
96.5148657225
20
1.0000000000
11
96.5363936359
21
1.1000000000
0
LINE
5
329
100
AcDbEntity
8
0
100
AcDbLine
62
0
6
CONTINUOUS
10
103.3148657225
20
1.0000000000
11
103.3363936359
21
1.1000000000
0
LINE
5
32A
100
AcDbEntity
8
0
100
AcDbLine
62
0
6
CONTINUOUS
10
19.3535533906
20
4.0535533906
11
17.1439294983
21
1.8439294983
0
LINE
5
32B
100
AcDbEntity
8
0
100
AcDbLine
62
9
6
CONTINUOUS
10
110.4603194755
20
45.4749071372
11
110.6019019585
21
45.9000000000
0
LINE
5
32C
100
AcDbEntity
8
0
100
AcDbLine
62
9
6
CONTINUOUS
10
110.9602433231
20
44.9755923698
11
111.1015213588
21
45.3997711479
0
LINE
5
32D
100
AcDbEntity
8
0
100
AcDbLine
62
0
6
CONTINUOUS
10
58.2515213588
20
1.1000000000
11
58.1848885612
21
1.0000000000
0
LINE
5
32E
100
AcDbEntity
8
0
100
AcDbLine
62
0
6
CONTINUOUS
10
96.7181541564
20
46.0000000000
11
96.6515213588
21
45.9000000000
0
LINE
5
32F
100
AcDbEntity
8
0
100
AcDbLine
62
0
6
CONTINUOUS
10
103.2515213588
20
1.1000000000
11
103.1848885612
21
1.0000000000
0
LINE
5
330
100
AcDbEntity
8
0
100
AcDbLine
62
3
6
CONTINUOUS
10
51.2377519013
20
24.5274328840
11
51.2379253947
21
24.5275000000
0
LINE
5
331
100
AcDbEntity
8
0
100
AcDbLine
62
0
6
CONTINUOUS
10
15.6494954839
20
1.3000000000
11
17.1439294983
21
1.8439294983
0
LINE
5
332
100
AcDbEntity
8
0
100
AcDbLine
62
3
6
CONTINUOUS
10
51.1849953398
20
24.5090295986
11
51.2377519013
21
24.5274328840
0
LINE
5
333
100
AcDbEntity
8
0
100
AcDbLine
62
3
6
CONTINUOUS
10
51.1336098620
20
24.4929446119
11
51.1849953398
21
24.5090295986
0
LINE
5
334
100
AcDbEntity
8
0
100
AcDbLine
62
3
6
CONTINUOUS
10
93.2377519013
20
24.5274328840
11
93.2379253947
21
24.5275000000
0
LINE
5
335
100
AcDbEntity
8
0
100
AcDbLine
62
3
6
CONTINUOUS
10
93.1849953398
20
24.5090295986
11
93.2377519013
21
24.5274328840
0
LINE
5
336
100
AcDbEntity
8
0
100
AcDbLine
62
3
6
CONTINUOUS
10
93.1336098620
20
24.4929446119
11
93.1849953398
21
24.5090295986
0
ARC
5
337
100
AcDbEntity
8
0
100
AcDbCircle
62
0
6
CONTINUOUS
10
66.2015213588
20
23.5000000000
40
28.0000000000
100
AcDbArc
50
125.9627651514
51
126.8614108133
0
ARC
5
338
100
AcDbEntity
8
0
100
AcDbCircle
62
0
6
CONTINUOUS
10
66.2015213588
20
23.5000000000
40
28.0000000000
100
AcDbArc
50
123.5572123136
51
124.1210936517
0
ARC
5
339
100
AcDbEntity
8
0
100
AcDbCircle
62
0
6
CONTINUOUS
10
43.7015213588
20
23.5000000000
40
28.0000000000
100
AcDbArc
50
55.8789063483
51
56.4427876864
0
ARC
5
33A
100
AcDbEntity
8
0
100
AcDbCircle
62
0
6
CONTINUOUS
10
43.7015213588
20
23.5000000000
40
28.0000000000
100
AcDbArc
50
53.1306352597
51
54.0372348486
0
ARC
5
33B
100
AcDbEntity
8
0
100
AcDbCircle
62
0
6
CONTINUOUS
10
111.2015213588
20
23.5000000000
40
28.0000000000
100
AcDbArc
50
125.9627651514
51
126.8693647403
0
ARC
5
33C
100
AcDbEntity
8
0
100
AcDbCircle
62
0
6
CONTINUOUS
10
111.2015213588
20
23.5000000000
40
28.0000000000
100
AcDbArc
50
123.5572123136
51
124.1210936517
0
ARC
5
33D
100
AcDbEntity
8
0
100
AcDbCircle
62
0
6
CONTINUOUS
10
88.7015213588
20
23.5000000000
40
28.0000000000
100
AcDbArc
50
55.8789063483
51
56.4427876864
0
ARC
5
33E
100
AcDbEntity
8
0
100
AcDbCircle
62
0
6
CONTINUOUS
10
88.7015213588
20
23.5000000000
40
28.0000000000
100
AcDbArc
50
53.1385891867
51
54.0372348486
0
ARC
5
33F
100
AcDbEntity
8
0
100
AcDbCircle
62
0
6
CONTINUOUS
10
88.7015213588
20
23.5000000000
40
28.0000000000
100
AcDbArc
50
305.9627651514
51
306.8614108133
0
ARC
5
340
100
AcDbEntity
8
0
100
AcDbCircle
62
0
6
CONTINUOUS
10
88.7015213588
20
23.5000000000
40
28.0000000000
100
AcDbArc
50
303.5572123136
51
304.1210936517
0
ARC
5
341
100
AcDbEntity
8
0
100
AcDbCircle
62
0
6
CONTINUOUS
10
111.2015213588
20
23.5000000000
40
28.0000000000
100
AcDbArc
50
235.8789063483
51
236.4427876864
0
ARC
5
342
100
AcDbEntity
8
0
100
AcDbCircle
62
0
6
CONTINUOUS
10
111.2015213588
20
23.5000000000
40
28.0000000000
100
AcDbArc
50
233.1306352597
51
234.0372348486
0
ARC
5
343
100
AcDbEntity
8
0
100
AcDbCircle
62
0
6
CONTINUOUS
10
43.7015213588
20
23.5000000000
40
28.0000000000
100
AcDbArc
50
305.9627651514
51
306.8693647403
0
ARC
5
344
100
AcDbEntity
8
0
100
AcDbCircle
62
0
6
CONTINUOUS
10
43.7015213588
20
23.5000000000
40
28.0000000000
100
AcDbArc
50
303.5572123136
51
304.1210936517
0
ARC
5
345
100
AcDbEntity
8
0
100
AcDbCircle
62
0
6
CONTINUOUS
10
66.2015213588
20
23.5000000000
40
28.0000000000
100
AcDbArc
50
235.8789063483
51
236.4427876864
0
ARC
5
346
100
AcDbEntity
8
0
100
AcDbCircle
62
0
6
CONTINUOUS
10
66.2015213588
20
23.5000000000
40
28.0000000000
100
AcDbArc
50
233.1385891867
51
234.0372348486
0
ARC
5
347
100
AcDbEntity
8
0
100
AcDbCircle
62
0
6
CONTINUOUS
10
95.0015213588
20
0.4000000000
40
0.5000000000
100
AcDbArc
50
350.8037184210
51
119.1124227760
0
ARC
5
348
100
AcDbEntity
8
0
100
AcDbCircle
62
0
6
CONTINUOUS
10
104.9015213588
20
0.4000000000
40
0.5000000000
100
AcDbArc
50
60.8875772240
51
189.1962815790
0
ARC
5
349
100
AcDbEntity
8
0
100
AcDbCircle
62
0
6
CONTINUOUS
10
59.9015213588
20
0.4000000000
40
0.5000000000
100
AcDbArc
50
60.8875772240
51
189.1962815790
0
ARC
5
34A
100
AcDbEntity
8
0
100
AcDbCircle
62
0
6
CONTINUOUS
10
50.0015213588
20
0.4000000000
40
0.5000000000
100
AcDbArc
50
350.8037184210
51
119.1124227760
0
ARC
5
34B
100
AcDbEntity
8
0
100
AcDbCircle
62
0
6
CONTINUOUS
10
95.0015213588
20
46.6000000000
40
0.5000000000
100
AcDbArc
50
240.8875772240
51
9.1962815790
0
ARC
5
34C
100
AcDbEntity
8
0
100
AcDbCircle
62
0
6
CONTINUOUS
10
104.9015213588
20
46.6000000000
40
0.5000000000
100
AcDbArc
50
170.8037184210
51
299.1124227760
0
ARC
5
34D
100
AcDbEntity
8
0
100
AcDbCircle
62
0
6
CONTINUOUS
10
59.9015213588
20
46.6000000000
40
0.5000000000
100
AcDbArc
50
170.8037184210
51
299.1124227760
0
ARC
5
34E
100
AcDbEntity
8
0
100
AcDbCircle
62
0
6
CONTINUOUS
10
50.0015213588
20
46.6000000000
40
0.5000000000
100
AcDbArc
50
240.8875772240
51
9.1962815790
0
ARC
5
34F
100
AcDbEntity
8
0
100
AcDbCircle
62
0
6
CONTINUOUS
10
49.5515213588
20
23.5000000000
40
2.7000000000
100
AcDbArc
50
270.0000000000
51
90.0000000000
0
ARC
5
350
100
AcDbEntity
8
0
100
AcDbCircle
62
0
6
CONTINUOUS
10
91.5515213588
20
23.5000000000
40
2.7000000000
100
AcDbArc
50
270.0000000000
51
90.0000000000
0
ARC
5
351
100
AcDbEntity
8
0
100
AcDbCircle
62
0
6
CONTINUOUS
10
1.4410809363
20
2.5237223975
40
1.0000000000
100
AcDbArc
50
182.4092313014
51
267.0000000000
0
ARC
5
352
100
AcDbEntity
8
0
100
AcDbCircle
62
0
6
CONTINUOUS
10
500.0000000000
20
23.5000000000
40
500.0000000000
100
AcDbArc
50
177.5907686986
51
182.4092313014
0
ARC
5
353
100
AcDbEntity
8
0
100
AcDbCircle
62
0
6
CONTINUOUS
10
1.4410809363
20
44.4762776025
40
1.0000000000
100
AcDbArc
50
93.0000000000
51
177.5907686986
0
ARC
5
354
100
AcDbEntity
8
0
100
AcDbCircle
62
0
6
CONTINUOUS
10
35.3000000000
20
28.8314495825
40
0.2000000000
100
AcDbArc
50
271.0000000169
51
360.0000000000
0
ARC
5
355
100
AcDbEntity
8
0
100
AcDbCircle
62
0
6
CONTINUOUS
10
35.3000000000
20
25.5685504175
40
0.2000000000
100
AcDbArc
50
0.0000000000
51
88.9999999709
0
ARC
5
356
100
AcDbEntity
8
0
100
AcDbCircle
62
0
6
CONTINUOUS
10
35.3000000000
20
20.0314495825
40
0.2000000000
100
AcDbArc
50
271.0000000168
51
360.0000000000
0
ARC
5
357
100
AcDbEntity
8
0
100
AcDbCircle
62
0
6
CONTINUOUS
10
35.3000000000
20
18.1685504175
40
0.2000000000
100
AcDbArc
50
0.0000000000
51
88.9999999709
0
ARC
5
358
100
AcDbEntity
8
0
100
AcDbCircle
62
0
6
CONTINUOUS
10
35.3000000000
20
12.6314495825
40
0.2000000000
100
AcDbArc
50
271.0000000168
51
360.0000000000
0
ARC
5
359
100
AcDbEntity
8
0
100
AcDbCircle
62
0
6
CONTINUOUS
10
33.7000000000
20
30.7102070867
40
0.2000000000
100
AcDbArc
50
92.9999303762
51
180.0000000000
0
ARC
5
35A
100
AcDbEntity
8
0
100
AcDbCircle
62
0
6
CONTINUOUS
10
33.7000000000
20
38.6897929133
40
0.2000000000
100
AcDbArc
50
180.0000000000
51
267.0000078456
0
ARC
5
35B
100
AcDbEntity
8
0
100
AcDbCircle
62
0
6
CONTINUOUS
10
33.7000000000
20
8.3102070867
40
0.2000000000
100
AcDbArc
50
92.9999303762
51
179.9986900138
0
ARC
5
35C
100
AcDbEntity
8
0
100
AcDbCircle
62
0
6
CONTINUOUS
10
35.2000000000
20
8.8895049286
40
0.3000000000
100
AcDbArc
50
273.0000533236
51
360.0000000000
0
ARC
5
35D
100
AcDbEntity
8
0
100
AcDbCircle
62
0
6
CONTINUOUS
10
35.2000000000
20
38.1104950714
40
0.3000000000
100
AcDbArc
50
0.0000000000
51
86.9999961251
0
ARC
5
35E
100
AcDbEntity
8
0
100
AcDbCircle
62
0
6
CONTINUOUS
10
35.2000000000
20
31.2895049286
40
0.3000000000
100
AcDbArc
50
273.0000533236
51
360.0000000000
0
ARC
5
35F
100
AcDbEntity
8
0
100
AcDbCircle
62
0
6
CONTINUOUS
10
13.7000000000
20
2.1034605474
40
0.2000000000
100
AcDbArc
50
91.0000000000
51
180.0000000000
0
ARC
5
360
100
AcDbEntity
8
0
100
AcDbCircle
62
0
6
CONTINUOUS
10
13.7000000000
20
44.8965394526
40
0.2000000000
100
AcDbArc
50
180.0000000000
51
269.0000000000
0
ARC
5
361
100
AcDbEntity
8
0
100
AcDbCircle
62
0
6
CONTINUOUS
10
20.0000000000
20
5.5086513684
40
0.5000000000
100
AcDbArc
50
91.0000000000
51
180.0000000000
0
ARC
5
362
100
AcDbEntity
8
0
100
AcDbCircle
62
0
6
CONTINUOUS
10
19.9999996086
20
41.4913486384
40
0.4999998043
100
AcDbArc
50
180.0000007829
51
269.0000448570
0
ARC
5
363
100
AcDbEntity
8
0
100
AcDbCircle
62
0
6
CONTINUOUS
10
33.0000000000
20
26.6515557841
40
0.5000000000
100
AcDbArc
50
0.0000000000
51
89.0000000000
0
ARC
5
364
100
AcDbEntity
8
0
100
AcDbCircle
62
0
6
CONTINUOUS
10
33.0000000000
20
36.9484442159
40
0.5000000000
100
AcDbArc
50
271.0000000000
51
360.0000000000
0
ARC
5
365
100
AcDbEntity
8
0
100
AcDbCircle
62
0
6
CONTINUOUS
10
19.0000000000
20
4.4071067812
40
0.5000000000
100
AcDbArc
50
315.0000000000
51
360.0000000000
0
ARC
5
366
100
AcDbEntity
8
0
100
AcDbCircle
62
0
6
CONTINUOUS
10
17.4621285947
20
2.8692353759
40
0.5000000000
100
AcDbArc
50
271.0000000000
51
315.0000000000
0
ARC
5
367
100
AcDbEntity
8
0
100
AcDbCircle
62
0
6
CONTINUOUS
10
17.4621285947
20
44.1307646241
40
0.5000000000
100
AcDbArc
50
45.0000000000
51
89.0000000000
0
ARC
5
368
100
AcDbEntity
8
0
100
AcDbCircle
62
0
6
CONTINUOUS
10
19.0000000000
20
42.5928932188
40
0.5000000000
100
AcDbArc
50
0.0000000000
51
45.0000000000
0
ARC
5
369
100
AcDbEntity
8
0
100
AcDbCircle
62
0
6
CONTINUOUS
10
33.0000000000
20
6.7357195406
40
0.5000000000
100
AcDbArc
50
271.0000000000
51
360.0000000000
0
ARC
5
36A
100
AcDbEntity
8
0
100
AcDbCircle
62
0
6
CONTINUOUS
10
33.0000000000
20
40.2642804594
40
0.5000000000
100
AcDbArc
50
0.0000000000
51
89.0000000000
0
SPLINE
5
36B
100
AcDbEntity
8
0
100
AcDbSpline
62
9
6
CONTINUOUS
70
0
71
3
72
21
73
17
74
15
42
0.0000001000
43
0.0000001000
44
0.0000000001
12
9.4078293126
22
-0.0020655497
32
0.0000000000
13
-9.4078293715
23
-0.0018159679
33
0.0000000000
40
0.0000000000
40
0.0000000000
40
0.0000000000
40
0.0000000000
40
0.0716955866
40
0.1434077278
40
0.2146961889
40
0.2856986365
40
0.3567236281
40
0.4281298847
40
0.5000418125
40
0.5719763112
40
0.6434139517
40
0.7144536837
40
0.7854479298
40
0.8567010726
40
0.9283606811
40
1.0000000000
40
1.0000000000
40
1.0000000000
40
1.0000000000
10
91.5515213588
20
26.5018010806
30
0.0000000000
10
91.7763546392
20
26.5017517170
30
0.0000000000
10
92.2277156547
20
26.4508204131
30
0.0000000000
10
92.8679760686
20
26.2254867108
30
0.0000000000
10
93.4403700107
20
25.8643557515
30
0.0000000000
10
93.9167822429
20
25.3868762198
30
0.0000000000
10
94.2760052205
20
24.8155344427
30
0.0000000000
10
94.5005605970
20
24.1759921884
30
0.0000000000
10
94.5771437539
20
23.4995326647
30
0.0000000000
10
94.5003458245
20
22.8229936545
30
0.0000000000
10
94.2754712505
20
22.1833276565
30
0.0000000000
10
93.9159206053
20
21.6120478958
30
0.0000000000
10
93.4393524674
20
21.1348538337
30
0.0000000000
10
92.8670723675
20
20.7741223801
30
0.0000000000
10
92.2271947877
20
20.5491034342
30
0.0000000000
10
91.7761781883
20
20.4982422843
30
0.0000000000
10
91.5515213588
20
20.4981989194
30
0.0000000000
11
91.5515213588
21
26.5018010806
31
0.0000000000
11
92.2217412004
21
26.4259365847
31
0.0000000000
11
92.8581822422
21
26.2020996357
31
0.0000000000
11
93.4253723411
21
25.8441984964
31
0.0000000000
11
93.8971987094
21
25.3713605521
31
0.0000000000
11
94.2528585180
21
24.8056880920
31
0.0000000000
11
94.4754163661
21
24.1718477823
31
0.0000000000
11
94.5515207259
21
23.4996067931
31
0.0000000000
11
94.4751905045
21
22.8271777049
31
0.0000000000
11
94.2522910542
21
22.1931444668
31
0.0000000000
11
93.8962984246
21
21.6275175391
31
0.0000000000
11
93.4243062117
21
21.1549541888
31
0.0000000000
11
92.8572528700
21
20.7974590606
31
0.0000000000
11
92.2212217129
21
20.5739463404
31
0.0000000000
11
91.5515213588
21
20.4981989194
31
0.0000000000
0
SPLINE
5
36C
100
AcDbEntity
8
0
100
AcDbSpline
62
9
6
CONTINUOUS
70
0
71
3
72
21
73
17
74
15
42
0.0000001000
43
0.0000001000
44
0.0000000001
12
9.4078293126
22
-0.0020655497
32
0.0000000000
13
-9.4078293715
23
-0.0018159679
33
0.0000000000
40
0.0000000000
40
0.0000000000
40
0.0000000000
40
0.0000000000
40
0.0716955866
40
0.1434077278
40
0.2146961889
40
0.2856986365
40
0.3567236281
40
0.4281298847
40
0.5000418125
40
0.5719763112
40
0.6434139517
40
0.7144536837
40
0.7854479298
40
0.8567010726
40
0.9283606811
40
1.0000000000
40
1.0000000000
40
1.0000000000
40
1.0000000000
10
49.5515213588
20
26.5018010806
30
0.0000000000
10
49.7763546392
20
26.5017517170
30
0.0000000000
10
50.2277156547
20
26.4508204131
30
0.0000000000
10
50.8679760686
20
26.2254867108
30
0.0000000000
10
51.4403700107
20
25.8643557515
30
0.0000000000
10
51.9167822429
20
25.3868762198
30
0.0000000000
10
52.2760052205
20
24.8155344427
30
0.0000000000
10
52.5005605970
20
24.1759921884
30
0.0000000000
10
52.5771437539
20
23.4995326647
30
0.0000000000
10
52.5003458245
20
22.8229936545
30
0.0000000000
10
52.2754712505
20
22.1833276565
30
0.0000000000
10
51.9159206053
20
21.6120478958
30
0.0000000000
10
51.4393524674
20
21.1348538337
30
0.0000000000
10
50.8670723675
20
20.7741223801
30
0.0000000000
10
50.2271947877
20
20.5491034342
30
0.0000000000
10
49.7761781883
20
20.4982422843
30
0.0000000000
10
49.5515213588
20
20.4981989194
30
0.0000000000
11
49.5515213588
21
26.5018010806
31
0.0000000000
11
50.2217412004
21
26.4259365847
31
0.0000000000
11
50.8581822422
21
26.2020996357
31
0.0000000000
11
51.4253723411
21
25.8441984964
31
0.0000000000
11
51.8971987094
21
25.3713605521
31
0.0000000000
11
52.2528585180
21
24.8056880920
31
0.0000000000
11
52.4754163661
21
24.1718477823
31
0.0000000000
11
52.5515207259
21
23.4996067931
31
0.0000000000
11
52.4751905045
21
22.8271777049
31
0.0000000000
11
52.2522910542
21
22.1931444668
31
0.0000000000
11
51.8962984246
21
21.6275175391
31
0.0000000000
11
51.4243062117
21
21.1549541888
31
0.0000000000
11
50.8572528700
21
20.7974590606
31
0.0000000000
11
50.2212217129
21
20.5739463404
31
0.0000000000
11
49.5515213588
21
20.4981989194
31
0.0000000000
0
SPLINE
5
36D
100
AcDbEntity
8
0
100
AcDbSpline
62
9
6
CONTINUOUS
70
0
71
3
72
11
73
7
74
5
42
0.0000001000
43
0.0000001000
44
0.0000000001
12
0.0007129028
22
0.7795522193
32
0.0000000000
13
0.7795522206
23
0.0007111664
33
0.0000000000
40
0.0000000000
40
0.0000000000
40
0.0000000000
40
0.0000000000
40
0.2498284575
40
0.4998010769
40
0.7498901806
40
1.0000000000
40
1.0000000000
40
1.0000000000
40
1.0000000000
10
43.9427993945
20
44.9755923698
30
0.0000000000
10
43.9428587623
20
45.0405104793
30
0.0000000000
10
43.9689860292
20
45.1717790553
30
0.0000000000
10
44.0802843572
20
45.3376581272
30
0.0000000000
10
44.2463634647
20
45.4487745240
30
0.0000000000
10
44.3777320204
20
45.4748478473
30
0.0000000000
10
44.4427232421
20
45.4749071372
30
0.0000000000
11
43.9427993945
21
44.9755923698
31
0.0000000000
11
43.9809848041
21
45.1665665949
31
0.0000000000
11
44.0893850290
21
45.3285000925
31
0.0000000000
11
44.2515160587
21
45.4367682499
31
0.0000000000
11
44.4427232421
21
45.4749071372
31
0.0000000000
0
SPLINE
5
36E
100
AcDbEntity
8
0
100
AcDbSpline
62
9
6
CONTINUOUS
70
0
71
3
72
11
73
7
74
5
42
0.0000001000
43
0.0000001000
44
0.0000000001
12
0.1922459004
22
0.4626268344
32
0.0000000000
13
0.5009809780
23
0.0003675009
33
0.0000000000
40
0.0000000000
40
0.0000000000
40
0.0000000000
40
0.0000000000
40
0.0824479891
40
0.3003243933
40
0.6220816919
40
1.0000000000
40
1.0000000000
40
1.0000000000
40
1.0000000000
10
43.9510624490
20
44.4972959167
30
0.0000000000
10
43.9563458783
20
44.5100101341
30
0.0000000000
10
44.0239633424
20
44.4984258890
30
0.0000000000
10
44.1123904296
20
44.5185572046
30
0.0000000000
10
44.2731782107
20
44.5152242901
30
0.0000000000
10
44.3878763350
20
44.5182666556
30
0.0000000000
10
44.4509862962
20
44.5183129507
30
0.0000000000
11
43.9510624490
21
44.4972959167
31
0.0000000000
11
43.9915932124
21
44.5052552362
31
0.0000000000
11
44.1005347751
21
44.5120292323
31
0.0000000000
11
44.2616640282
21
44.5166091491
31
0.0000000000
11
44.4509862962
21
44.5183129507
31
0.0000000000
0
SPLINE
5
36F
100
AcDbEntity
8
0
100
AcDbSpline
62
9
6
CONTINUOUS
70
0
71
3
72
12
73
8
74
6
42
0.0000001000
43
0.0000001000
44
0.0000000001
12
-0.0003419053
22
0.9566761798
32
0.0000000000
13
-0.1578266171
23
0.9435677957
33
0.0000000000
40
0.0000000000
40
0.0000000000
40
0.0000000000
40
0.0000000000
40
0.3020546674
40
0.5740920651
40
0.7926325096
40
0.9388264459
40
1.0000000000
40
1.0000000000
40
1.0000000000
40
1.0000000000
10
44.4509862963
20
44.5183142309
30
0.0000000000
10
44.4509518716
20
44.6146370660
30
0.0000000000
10
44.4508001011
20
44.7977296517
30
0.0000000000
10
44.4491420466
20
45.0504177330
30
0.0000000000
10
44.4489659548
20
45.2536669111
30
0.0000000000
10
44.4441401527
20
45.3890809407
30
0.0000000000
10
44.4459415138
20
45.4556666720
30
0.0000000000
10
44.4427232421
20
45.4749071372
30
0.0000000000
11
44.4509862963
21
44.5183142309
31
0.0000000000
11
44.4505017372
21
44.8072823483
31
0.0000000000
11
44.4493039796
21
45.0675313070
31
0.0000000000
11
44.4474984777
21
45.2765959618
31
0.0000000000
11
44.4452399476
21
45.4164379901
31
0.0000000000
11
44.4427232421
21
45.4749071372
31
0.0000000000
0
SPLINE
5
370
100
AcDbEntity
8
0
100
AcDbSpline
62
9
6
CONTINUOUS
70
0
71
3
72
12
73
8
74
6
42
0.0000001000
43
0.0000001000
44
0.0000000001
12
-0.0003468855
22
0.4784629969
32
0.0000000000
13
-0.1514757135
23
0.4538524731
33
0.0000000000
40
0.0000000000
40
0.0000000000
40
0.0000000000
40
0.0000000000
40
0.3019350757
40
0.5743181479
40
0.7930026116
40
0.9391435730
40
1.0000000000
40
1.0000000000
40
1.0000000000
40
1.0000000000
10
43.9510624487
20
44.4972959167
30
0.0000000000
10
43.9510275364
20
44.5454508371
30
0.0000000000
10
43.9508654741
20
44.6370830956
30
0.0000000000
10
43.9492485563
20
44.7634155321
30
0.0000000000
10
43.9489601387
20
44.8653901257
30
0.0000000000
10
43.9443562982
20
44.9325292355
30
0.0000000000
10
43.9458721514
20
44.9663857565
30
0.0000000000
10
43.9427993945
20
44.9755923698
30
0.0000000000
11
43.9510624487
21
44.4972959167
31
0.0000000000
11
43.9505782683
21
44.6417599046
31
0.0000000000
11
43.9493787390
21
44.7720796396
31
0.0000000000
11
43.9475689308
21
44.8766964380
31
0.0000000000
11
43.9453053633
21
44.9465828508
31
0.0000000000
11
43.9427993945
21
44.9755923698
31
0.0000000000
0
SPLINE
5
371
100
AcDbEntity
8
0
100
AcDbSpline
62
9
6
CONTINUOUS
70
0
71
3
72
11
73
7
74
5
42
0.0000001000
43
0.0000001000
44
0.0000000001
12
0.1919260111
22
-0.4627598814
32
0.0000000000
13
0.5009812041
23
-0.0003672436
33
0.0000000000
40
0.0000000000
40
0.0000000000
40
0.0000000000
40
0.0000000000
40
0.0824389936
40
0.3003131931
40
0.6220743346
40
1.0000000000
40
1.0000000000
40
1.0000000000
40
1.0000000000
10
43.9510624487
20
2.5027040833
30
0.0000000000
10
43.9563365111
20
2.4899875970
30
0.0000000000
10
44.0239704977
20
2.5015763767
30
0.0000000000
10
44.1123795221
20
2.4814397463
30
0.0000000000
10
44.2731774829
20
2.4847752014
30
0.0000000000
10
44.3878750780
20
2.4817320334
30
0.0000000000
10
44.4509862963
20
2.4816857698
30
0.0000000000
11
43.9510624487
21
2.5027040833
31
0.0000000000
11
43.9915885359
21
2.4947442419
31
0.0000000000
11
44.1005290132
21
2.4879697936
31
0.0000000000
11
44.2616602572
21
2.4833896030
31
0.0000000000
11
44.4509862963
21
2.4816857698
31
0.0000000000
0
SPLINE
5
372
100
AcDbEntity
8
0
100
AcDbSpline
62
9
6
CONTINUOUS
70
0
71
3
72
10
73
6
74
4
42
0.0000001000
43
0.0000001000
44
0.0000000001
12
0.0308407995
22
41.9945838577
32
0.0000000000
13
-0.0308408121
23
41.9945838614
33
0.0000000000
40
0.0000000000
40
0.0000000000
40
0.0000000000
40
0.0000000000
40
0.3332886949
40
0.6667106342
40
1.0000000000
40
1.0000000000
40
1.0000000000
40
1.0000000000
10
43.9510624487
20
2.5027040833
30
0.0000000000
10
43.9544887453
20
7.1681440989
30
0.0000000000
10
43.9590547929
20
16.5008911594
30
0.0000000000
10
43.9590547981
20
30.4990900570
30
0.0000000000
10
43.9544887536
20
39.8318465093
30
0.0000000000
10
43.9510624487
20
44.4972959167
30
0.0000000000
11
43.9510624487
21
2.5027040833
31
0.0000000000
11
43.9579128256
21
16.4990262289
31
0.0000000000
11
43.9579128321
21
30.5009455962
31
0.0000000000
11
43.9510624487
21
44.4972959167
31
0.0000000000
0
SPLINE
5
373
100
AcDbEntity
8
0
100
AcDbSpline
62
9
6
CONTINUOUS
70
0
71
3
72
11
73
7
74
5
42
0.0000001000
43
0.0000001000
44
0.0000000001
12
0.0007128937
22
-0.7795522246
32
0.0000000000
13
0.7795522269
23
-0.0007111404
33
0.0000000000
40
0.0000000000
40
0.0000000000
40
0.0000000000
40
0.0000000000
40
0.2498173425
40
0.4997870953
40
0.7498806029
40
1.0000000000
40
1.0000000000
40
1.0000000000
40
1.0000000000
10
43.9427993945
20
2.0244076302
30
0.0000000000
10
43.9428587589
20
1.9594924085
30
0.0000000000
10
43.9689840579
20
1.8282276472
30
0.0000000000
10
44.0802775645
20
1.6623485259
30
0.0000000000
10
44.2463571827
20
1.5512272568
30
0.0000000000
10
44.3777295312
20
1.5251521530
30
0.0000000000
10
44.4427232422
20
1.5250928630
30
0.0000000000
11
43.9427993945
21
2.0244076302
31
0.0000000000
11
43.9809814124
21
1.8334415617
31
0.0000000000
11
44.0893771624
21
1.6715077556
31
0.0000000000
11
44.2515090241
21
1.5632346594
31
0.0000000000
11
44.4427232422
21
1.5250928630
31
0.0000000000
0
SPLINE
5
374
100
AcDbEntity
8
0
100
AcDbSpline
62
9
6
CONTINUOUS
70
0
71
3
72
12
73
8
74
6
42
0.0000001000
43
0.0000001000
44
0.0000000001
12
0.1578266073
22
0.9435678006
32
0.0000000000
13
0.0003419053
23
0.9566761798
33
0.0000000000
40
0.0000000000
40
0.0000000000
40
0.0000000000
40
0.0000000000
40
0.0611735541
40
0.2073674904
40
0.4259079349
40
0.6979453326
40
1.0000000000
40
1.0000000000
40
1.0000000000
40
1.0000000000
10
44.4427232421
20
1.5250928628
30
0.0000000000
10
44.4459415136
20
1.5443333281
30
0.0000000000
10
44.4441401529
20
1.6109190593
30
0.0000000000
10
44.4489659547
20
1.7463330890
30
0.0000000000
10
44.4491420466
20
1.9495822670
30
0.0000000000
10
44.4508001011
20
2.2022703483
30
0.0000000000
10
44.4509518716
20
2.3853629340
30
0.0000000000
10
44.4509862963
20
2.4816857691
30
0.0000000000
11
44.4427232421
21
1.5250928628
31
0.0000000000
11
44.4452399476
21
1.5835620100
31
0.0000000000
11
44.4474984777
21
1.7234040383
31
0.0000000000
11
44.4493039796
21
1.9324686930
31
0.0000000000
11
44.4505017372
21
2.1927176517
31
0.0000000000
11
44.4509862963
21
2.4816857691
31
0.0000000000
0
SPLINE
5
375
100
AcDbEntity
8
0
100
AcDbSpline
62
9
6
CONTINUOUS
70
0
71
3
72
12
73
8
74
6
42
0.0000001000
43
0.0000001000
44
0.0000000001
12
0.1514757024
22
0.4538524743
32
0.0000000000
13
0.0003468855
23
0.4784629978
33
0.0000000000
40
0.0000000000
40
0.0000000000
40
0.0000000000
40
0.0000000000
40
0.0608564275
40
0.2069973882
40
0.4256818522
40
0.6980649242
40
1.0000000000
40
1.0000000000
40
1.0000000000
40
1.0000000000
10
43.9427993945
20
2.0244076302
30
0.0000000000
10
43.9458721512
20
2.0336142436
30
0.0000000000
10
43.9443562983
20
2.0674707645
30
0.0000000000
10
43.9489601387
20
2.1346098744
30
0.0000000000
10
43.9492485563
20
2.2365844678
30
0.0000000000
10
43.9508654741
20
2.3629169044
30
0.0000000000
10
43.9510275364
20
2.4545491628
30
0.0000000000
10
43.9510624487
20
2.5027040833
30
0.0000000000
11
43.9427993945
21
2.0244076302
31
0.0000000000
11
43.9453053633
21
2.0534171495
31
0.0000000000
11
43.9475689308
21
2.1233035619
31
0.0000000000
11
43.9493787390
21
2.2279203604
31
0.0000000000
11
43.9505782683
21
2.3582400953
31
0.0000000000
11
43.9510624487
21
2.5027040833
31
0.0000000000
0
SPLINE
5
376
100
AcDbEntity
8
0
100
AcDbSpline
62
9
6
CONTINUOUS
70
0
71
3
72
11
73
7
74
5
42
0.0000001000
43
0.0000001000
44
0.0000000001
12
0.7795522197
22
-0.0007111676
32
0.0000000000
13
0.0007129028
23
-0.7795522184
33
0.0000000000
40
0.0000000000
40
0.0000000000
40
0.0000000000
40
0.0000000000
40
0.2501098189
40
0.5001989225
40
0.7501715422
40
1.0000000000
40
1.0000000000
40
1.0000000000
40
1.0000000000
10
110.4603194755
20
45.4749071372
30
0.0000000000
10
110.5253106970
20
45.4748478472
30
0.0000000000
10
110.6566792525
20
45.4487745240
30
0.0000000000
10
110.8227583602
20
45.3376581275
30
0.0000000000
10
110.9340566884
20
45.1717790555
30
0.0000000000
10
110.9601839553
20
45.0405104793
30
0.0000000000
10
110.9602433231
20
44.9755923698
30
0.0000000000
11
110.4603194755
21
45.4749071372
31
0.0000000000
11
110.6515266584
21
45.4367682499
31
0.0000000000
11
110.8136576883
21
45.3285000929
31
0.0000000000
11
110.9220579135
21
45.1665665950
31
0.0000000000
11
110.9602433231
21
44.9755923698
31
0.0000000000
0
SPLINE
5
377
100
AcDbEntity
8
0
100
AcDbSpline
62
9
6
CONTINUOUS
70
0
71
3
72
11
73
7
74
5
42
0.0000001000
43
0.0000001000
44
0.0000000001
12
0.5009808732
22
-0.0003674562
32
0.0000000000
13
0.1924113391
23
-0.4625579384
33
0.0000000000
40
0.0000000000
40
0.0000000000
40
0.0000000000
40
0.0000000000
40
0.3779144499
40
0.6996697282
40
0.9175472819
40
1.0000000000
40
1.0000000000
40
1.0000000000
40
1.0000000000
10
110.4520564214
20
44.5183122942
30
0.0000000000
10
110.5151657251
20
44.5182660052
30
0.0000000000
10
110.6298641156
20
44.5152241041
30
0.0000000000
10
110.7906466117
20
44.5185556884
30
0.0000000000
10
110.8790830732
20
44.4984272016
30
0.0000000000
10
110.9466919889
20
44.5100089698
30
0.0000000000
10
110.9519802682
20
44.4972959167
30
0.0000000000
11
110.4520564214
21
44.5183122942
31
0.0000000000
11
110.6413767176
21
44.5166085666
31
0.0000000000
11
110.8025049293
21
44.5120288169
31
0.0000000000
11
110.9114470594
21
44.5052550331
31
0.0000000000
11
110.9519802682
21
44.4972959167
31
0.0000000000
0
SPLINE
5
378
100
AcDbEntity
8
0
100
AcDbSpline
62
9
6
CONTINUOUS
70
0
71
3
72
12
73
8
74
6
42
0.0000001000
43
0.0000001000
44
0.0000000001
12
0.0003505837
22
0.4784629334
32
0.0000000000
13
0.1517262829
23
0.4537687050
33
0.0000000000
40
0.0000000000
40
0.0000000000
40
0.0000000000
40
0.0000000000
40
0.3009963327
40
0.5736078059
40
0.7925656777
40
0.9389455800
40
1.0000000000
40
1.0000000000
40
1.0000000000
40
1.0000000000
10
110.9519802689
20
44.4972959167
30
0.0000000000
10
110.9520154437
20
44.5453011128
30
0.0000000000
10
110.9521758689
20
44.6368200931
30
0.0000000000
10
110.9537920725
20
44.7630823047
30
0.0000000000
10
110.9540725195
20
44.8651769970
30
0.0000000000
10
110.9586933063
20
44.9324250199
30
0.0000000000
10
110.9571554697
20
44.9663575081
30
0.0000000000
10
110.9602433231
20
44.9755923698
30
0.0000000000
11
110.9519802689
21
44.4972959167
31
0.0000000000
11
110.9524617170
21
44.6413107390
31
0.0000000000
11
110.9536596509
21
44.7717397581
31
0.0000000000
11
110.9554688467
21
44.8764873889
31
0.0000000000
11
110.9577327702
21
44.9464881656
31
0.0000000000
11
110.9602433231
21
44.9755923698
31
0.0000000000
0
SPLINE
5
379
100
AcDbEntity
8
0
100
AcDbSpline
62
9
6
CONTINUOUS
70
0
71
3
72
12
73
8
74
6
42
0.0000001000
43
0.0000001000
44
0.0000000001
12
0.0003513640
22
0.9566761918
32
0.0000000000
13
0.1578961232
23
0.9435561855
33
0.0000000000
40
0.0000000000
40
0.0000000000
40
0.0000000000
40
0.0000000000
40
0.3020508962
40
0.5741045971
40
0.7926457225
40
0.9388301530
40
1.0000000000
40
1.0000000000
40
1.0000000000
40
1.0000000000
10
110.4520564213
20
44.5183142309
30
0.0000000000
10
110.4520917979
20
44.6146358646
30
0.0000000000
10
110.4522420403
20
44.7977324702
30
0.0000000000
10
110.4539006475
20
45.0504246895
30
0.0000000000
10
110.4540752218
20
45.2536764609
30
0.0000000000
10
110.4589035808
20
45.3890861096
30
0.0000000000
10
110.4570999816
20
45.4556680747
30
0.0000000000
10
110.4603194755
20
45.4749071372
30
0.0000000000
11
110.4520564213
21
44.5183142309
31
0.0000000000
11
110.4525408344
21
44.8072787455
31
0.0000000000
11
110.4537382994
21
45.0675433068
31
0.0000000000
11
110.4555437154
21
45.2766086172
31
0.0000000000
11
110.4578025733
21
45.4164415473
31
0.0000000000
11
110.4603194755
21
45.4749071372
31
0.0000000000
0
SPLINE
5
37A
100
AcDbEntity
8
0
100
AcDbSpline
62
9
6
CONTINUOUS
70
0
71
3
72
11
73
7
74
5
42
0.0000001000
43
0.0000001000
44
0.0000000001
12
0.5009812043
22
0.0003672659
32
0.0000000000
13
0.1919258721
23
0.4627599388
33
0.0000000000
40
0.0000000000
40
0.0000000000
40
0.0000000000
40
0.0000000000
40
0.3779256700
40
0.6996868131
40
0.9175610108
40
1.0000000000
40
1.0000000000
40
1.0000000000
40
1.0000000000
10
110.4520564213
20
2.4816857695
30
0.0000000000
10
110.5151676404
20
2.4817320359
30
0.0000000000
10
110.6298652353
20
2.4847752080
30
0.0000000000
10
110.7906632007
20
2.4814397478
30
0.0000000000
10
110.8790722169
20
2.5015763792
30
0.0000000000
10
110.9467062106
20
2.4899875961
30
0.0000000000
10
110.9519802689
20
2.5027040833
30
0.0000000000
11
110.4520564213
21
2.4816857695
31
0.0000000000
11
110.6413824626
21
2.4833896076
31
0.0000000000
11
110.8025137074
21
2.4879697960
31
0.0000000000
11
110.9114541838
21
2.4947442424
31
0.0000000000
11
110.9519802689
21
2.5027040833
31
0.0000000000
0
SPLINE
5
37B
100
AcDbEntity
8
0
100
AcDbSpline
62
9
6
CONTINUOUS
70
0
71
3
72
10
73
6
74
4
42
0.0000001000
43
0.0000001000
44
0.0000000001
12
-0.0308408130
22
41.9945838571
32
0.0000000000
13
0.0308408105
23
41.9945838575
33
0.0000000000
40
0.0000000000
40
0.0000000000
40
0.0000000000
40
0.0000000000
40
0.3332892101
40
0.6667109287
40
1.0000000000
40
1.0000000000
40
1.0000000000
40
1.0000000000
10
110.9519802689
20
2.5027040833
30
0.0000000000
10
110.9485539655
20
7.1681513107
30
0.0000000000
10
110.9439879223
20
16.5009024942
30
0.0000000000
10
110.9439879234
20
30.4991013917
30
0.0000000000
10
110.9485539672
20
39.8318506322
30
0.0000000000
10
110.9519802689
20
44.4972959167
30
0.0000000000
11
110.9519802689
21
2.5027040833
31
0.0000000000
11
110.9451298871
21
16.4990478649
31
0.0000000000
11
110.9451298884
21
30.5009579640
31
0.0000000000
11
110.9519802689
21
44.4972959167
31
0.0000000000
0
SPLINE
5
37C
100
AcDbEntity
8
0
100
AcDbSpline
62
9
6
CONTINUOUS
70
0
71
3
72
11
73
7
74
5
42
0.0000001000
43
0.0000001000
44
0.0000000001
12
0.7795522263
22
0.0007111452
32
0.0000000000
13
0.0007128941
23
0.7795522243
33
0.0000000000
40
0.0000000000
40
0.0000000000
40
0.0000000000
40
0.0000000000
40
0.2501177144
40
0.5002104435
40
0.7501806978
40
1.0000000000
40
1.0000000000
40
1.0000000000
40
1.0000000000
10
110.4603194755
20
1.5250928628
30
0.0000000000
10
110.5253127492
20
1.5251521528
30
0.0000000000
10
110.6566844301
20
1.5512269435
30
0.0000000000
10
110.8227639576
20
1.6623473546
30
0.0000000000
10
110.9340583126
20
1.8282264663
30
0.0000000000
10
110.9601839582
20
1.9594918993
30
0.0000000000
10
110.9602433231
20
2.0244076302
30
0.0000000000
11
110.4603194755
21
1.5250928628
31
0.0000000000
11
110.6515324578
21
1.5632341481
31
0.0000000000
11
110.8136641708
21
1.6715063737
31
0.0000000000
11
110.9220607075
21
1.8334401234
31
0.0000000000
11
110.9602433231
21
2.0244076302
31
0.0000000000
0
SPLINE
5
37D
100
AcDbEntity
8
0
100
AcDbSpline
62
9
6
CONTINUOUS
70
0
71
3
72
12
73
8
74
6
42
0.0000001000
43
0.0000001000
44
0.0000000001
12
-0.1517262721
22
0.4537687070
32
0.0000000000
13
-0.0003505837
23
0.4784629331
33
0.0000000000
40
0.0000000000
40
0.0000000000
40
0.0000000000
40
0.0000000000
40
0.0610544204
40
0.2074343222
40
0.4263921941
40
0.6990036671
40
1.0000000000
40
1.0000000000
40
1.0000000000
40
1.0000000000
10
110.9602433231
20
2.0244076302
30
0.0000000000
10
110.9571554699
20
2.0336424920
30
0.0000000000
10
110.9586933061
20
2.0675749801
30
0.0000000000
10
110.9540725196
20
2.1348230031
30
0.0000000000
10
110.9537920725
20
2.2369176952
30
0.0000000000
10
110.9521758689
20
2.3631799069
30
0.0000000000
10
110.9520154437
20
2.4546988872
30
0.0000000000
10
110.9519802689
20
2.5027040833
30
0.0000000000
11
110.9602433231
21
2.0244076302
31
0.0000000000
11
110.9577327702
21
2.0535118346
31
0.0000000000
11
110.9554688467
21
2.1235126110
31
0.0000000000
11
110.9536596510
21
2.2282602419
31
0.0000000000
11
110.9524617170
21
2.3586892609
31
0.0000000000
11
110.9519802689
21
2.5027040833
31
0.0000000000
0
SPLINE
5
37E
100
AcDbEntity
8
0
100
AcDbSpline
62
9
6
CONTINUOUS
70
0
71
3
72
12
73
8
74
6
42
0.0000001000
43
0.0000001000
44
0.0000000001
12
-0.1578961134
22
0.9435561855
32
0.0000000000
13
-0.0003513640
23
0.9566761918
33
0.0000000000
40
0.0000000000
40
0.0000000000
40
0.0000000000
40
0.0000000000
40
0.0611698470
40
0.2073542775
40
0.4258954029
40
0.6979491038
40
1.0000000000
40
1.0000000000
40
1.0000000000
40
1.0000000000
10
110.4603194755
20
1.5250928628
30
0.0000000000
10
110.4570999818
20
1.5443319253
30
0.0000000000
10
110.4589035805
20
1.6109138904
30
0.0000000000
10
110.4540752219
20
1.7463235391
30
0.0000000000
10
110.4539006475
20
1.9495753105
30
0.0000000000
10
110.4522420403
20
2.2022675298
30
0.0000000000
10
110.4520917979
20
2.3853641354
30
0.0000000000
10
110.4520564213
20
2.4816857691
30
0.0000000000
11
110.4603194755
21
1.5250928628
31
0.0000000000
11
110.4578025732
21
1.5835584527
31
0.0000000000
11
110.4555437153
21
1.7233913828
31
0.0000000000
11
110.4537382994
21
1.9324566932
31
0.0000000000
11
110.4525408344
21
2.1927212545
31
0.0000000000
11
110.4520564213
21
2.4816857691
31
0.0000000000
0
SPLINE
5
37F
100
AcDbEntity
8
0
100
AcDbSpline
62
9
6
CONTINUOUS
70
0
71
3
72
12
73
8
74
6
42
0.0000001000
43
0.0000001000
44
0.0000000001
12
-0.7345049491
22
0.0383433403
32
0.0000000000
13
-0.0308478593
23
0.7348579048
33
0.0000000000
40
0.0000000000
40
0.0000000000
40
0.0000000000
40
0.0000000000
40
0.1995153952
40
0.3999009652
40
0.6002538235
40
0.8006372166
40
1.0000000000
40
1.0000000000
40
1.0000000000
40
1.0000000000
10
1.4061867550
20
2.0244076302
30
0.0000000000
10
1.3573384066
20
2.0269576591
30
0.0000000000
10
1.2595873967
20
2.0467134663
30
0.0000000000
10
1.1282828999
20
2.1176220731
30
0.0000000000
10
1.0230735026
20
2.2239483266
30
0.0000000000
10
0.9535665245
20
2.3559581850
30
0.0000000000
10
0.9348466697
20
2.4538696442
30
0.0000000000
10
0.9327966980
20
2.5027040833
30
0.0000000000
11
1.4061867550
21
2.0244076302
31
0.0000000000
11
1.2623572749
21
2.0535118346
31
0.0000000000
11
1.1326571849
21
2.1235126110
31
0.0000000000
11
1.0290084300
21
2.2282602419
31
0.0000000000
11
0.9603788367
21
2.3586892609
31
0.0000000000
11
0.9327966980
21
2.5027040833
31
0.0000000000
0
SPLINE
5
380
100
AcDbEntity
8
0
100
AcDbSpline
62
9
6
CONTINUOUS
70
0
71
3
72
11
73
7
74
5
42
0.0000001000
43
0.0000001000
44
0.0000000001
12
-0.4990532991
22
0.0261542762
32
0.0000000000
13
0.0261460323
23
0.4990537302
33
0.0000000000
40
0.0000000000
40
0.0000000000
40
0.0000000000
40
0.0000000000
40
0.0763695306
40
0.2931021832
40
0.6174079460
40
1.0000000000
40
1.0000000000
40
1.0000000000
40
1.0000000000
10
1.3887449801
20
1.5250928628
30
0.0000000000
10
1.3760408247
20
1.5257586594
30
0.0000000000
10
1.4025768711
20
1.6029569393
30
0.0000000000
10
1.3820602470
20
1.6801381817
30
0.0000000000
10
1.4004717920
20
1.8468318278
30
0.0000000000
10
1.4028523336
20
1.9607629663
30
0.0000000000
10
1.4061867550
20
2.0244076302
30
0.0000000000
11
1.3887449801
21
1.5250928628
31
0.0000000000
11
1.3874063261
21
1.5632341481
31
0.0000000000
11
1.3902506484
21
1.6715063738
31
0.0000000000
11
1.3968451398
21
1.8334401233
31
0.0000000000
11
1.4061867550
21
2.0244076302
31
0.0000000000
0
SPLINE
5
381
100
AcDbEntity
8
0
100
AcDbSpline
62
9
6
CONTINUOUS
70
0
71
3
72
10
73
6
74
4
42
0.0000001000
43
0.0000001000
44
0.0000000001
12
-1.7657700571
22
41.9684643740
32
0.0000000000
13
1.7657699116
23
41.9684643726
33
0.0000000000
40
0.0000000000
40
0.0000000000
40
0.0000000000
40
0.0000000000
40
0.3333328627
40
0.6666672760
40
1.0000000000
40
1.0000000000
40
1.0000000000
40
1.0000000000
10
0.9327966980
20
2.5027040833
30
0.0000000000
10
0.7366003020
20
7.1658602076
30
0.0000000000
10
0.4749175926
20
16.4982441751
30
0.0000000000
10
0.4749176540
20
30.5017597117
30
0.0000000000
10
0.7366003998
20
39.8341417329
30
0.0000000000
10
0.9327966980
20
44.4972959167
30
0.0000000000
11
0.9327966980
21
2.5027040833
31
0.0000000000
11
0.5403385845
21
16.4990478625
31
0.0000000000
11
0.5403386618
21
30.5009579652
31
0.0000000000
11
0.9327966980
21
44.4972959167
31
0.0000000000
0
SPLINE
5
382
100
AcDbEntity
8
0
100
AcDbSpline
62
9
6
CONTINUOUS
70
0
71
3
72
12
73
8
74
6
42
0.0000001000
43
0.0000001000
44
0.0000000001
12
0.0308478623
22
0.7348579048
32
0.0000000000
13
0.7345049491
23
0.0383433373
33
0.0000000000
40
0.0000000000
40
0.0000000000
40
0.0000000000
40
0.0000000000
40
0.1993627834
40
0.3997461765
40
0.6000990347
40
0.8004846048
40
1.0000000000
40
1.0000000000
40
1.0000000000
40
1.0000000000
10
0.9327966980
20
44.4972959167
30
0.0000000000
10
0.9348466699
20
44.5461303558
30
0.0000000000
10
0.9535665248
20
44.6440418149
30
0.0000000000
10
1.0230735024
20
44.7760516735
30
0.0000000000
10
1.1282829001
20
44.8823779267
30
0.0000000000
10
1.2595873965
20
44.9532865340
30
0.0000000000
10
1.3573384066
20
44.9730423411
30
0.0000000000
10
1.4061867550
20
44.9755923698
30
0.0000000000
11
0.9327966980
21
44.4972959167
31
0.0000000000
11
0.9603788369
21
44.6413107390
31
0.0000000000
11
1.0290084300
21
44.7717397581
31
0.0000000000
11
1.1326571849
21
44.8764873889
31
0.0000000000
11
1.2623572748
21
44.9464881656
31
0.0000000000
11
1.4061867550
21
44.9755923698
31
0.0000000000
0
SPLINE
5
383
100
AcDbEntity
8
0
100
AcDbSpline
62
9
6
CONTINUOUS
70
0
71
3
72
11
73
7
74
5
42
0.0000001000
43
0.0000001000
44
0.0000000001
12
-0.4990533092
22
-0.0261542745
32
0.0000000000
13
0.0261463311
23
-0.4990537244
33
0.0000000000
40
0.0000000000
40
0.0000000000
40
0.0000000000
40
0.0000000000
40
0.0763647410
40
0.2930892384
40
0.6173944875
40
1.0000000000
40
1.0000000000
40
1.0000000000
40
1.0000000000
10
1.3887449801
20
45.4749071372
30
0.0000000000
10
1.3760416212
20
45.4742413824
30
0.0000000000
10
1.4025759558
20
45.3970466398
30
0.0000000000
10
1.3820599880
20
45.3198670530
30
0.0000000000
10
1.4004716374
20
45.1531723617
30
0.0000000000
10
1.4028521782
20
45.0392392718
30
0.0000000000
10
1.4061867550
20
44.9755923698
30
0.0000000000
11
1.3887449801
21
45.4749071372
31
0.0000000000
11
1.3874062175
21
45.4367682500
31
0.0000000000
11
1.3902503050
21
45.3285000929
31
0.0000000000
11
1.3968447483
21
45.1665665951
31
0.0000000000
11
1.4061867550
21
44.9755923698
31
0.0000000000
0
SPLINE
5
384
100
AcDbEntity
8
0
100
AcDbSpline
62
9
6
CONTINUOUS
70
0
71
3
72
14
73
10
74
8
42
0.0000001000
43
0.0000001000
44
0.0000000001
12
-0.0000299381
22
-1.4932667309
32
0.0000000000
13
-0.0000040635
23
-1.4932667315
33
0.0000000000
40
0.0000000000
40
0.0000000000
40
0.0000000000
40
0.0000000000
40
0.2002935013
40
0.3781810556
40
0.5352256143
40
0.6738982670
40
0.7964253142
40
0.9045393772
40
1.0000000000
40
1.0000000000
40
1.0000000000
40
1.0000000000
10
33.5377865768
20
33.6500000019
30
0.0000000000
10
33.5377845780
20
33.5503027946
30
0.0000000000
10
33.5358789008
20
33.3620564899
30
0.0000000000
10
33.5287378460
20
33.0957339362
30
0.0000000000
10
33.5201381021
20
32.8601500847
30
0.0000000000
10
33.5119648697
20
32.6521275021
30
0.0000000000
10
33.5053970323
20
32.4684155268
30
0.0000000000
10
33.5011285269
20
32.3061494333
30
0.0000000000
10
33.5000001293
20
32.2048184150
30
0.0000000000
10
33.5000000000
20
32.1573023576
30
0.0000000000
11
33.5377865768
21
33.6500000019
31
0.0000000000
11
33.5348852044
21
33.3509224528
31
0.0000000000
11
33.5280047535
21
33.0853780099
31
0.0000000000
11
33.5196891018
21
32.8510160769
31
0.0000000000
11
33.5117787745
21
32.6440919615
31
0.0000000000
11
33.5054462813
21
32.4612360159
31
0.0000000000
11
33.5013962015
21
32.2998436920
31
0.0000000000
11
33.5000000000
21
32.1573023576
31
0.0000000000
0
SPLINE
5
385
100
AcDbEntity
8
0
100
AcDbSpline
62
9
6
CONTINUOUS
70
0
71
3
72
11
73
7
74
5
42
0.0000001000
43
0.0000001000
44
0.0000000001
12
0.0356171368
22
-0.9281025585
32
0.0000000000
13
0.0000230559
23
-0.9287857325
33
0.0000000000
40
0.0000000000
40
0.0000000000
40
0.0000000000
40
0.0000000000
40
0.2105635789
40
0.4457111303
40
0.7082743159
40
1.0000000000
40
1.0000000000
40
1.0000000000
40
1.0000000000
10
33.5147206439
20
36.6784384769
30
0.0000000000
10
33.5172205345
20
36.6132969448
30
0.0000000000
10
33.5225903953
20
36.4754114561
30
0.0000000000
10
33.5301868472
20
36.2562629792
30
0.0000000000
10
33.5362181753
20
36.0119256524
30
0.0000000000
10
33.5377843348
20
35.8403168845
30
0.0000000000
10
33.5377865768
20
35.7500000001
30
0.0000000000
11
33.5147206439
21
36.6784384769
31
0.0000000000
11
33.5221626505
21
36.4830116763
31
0.0000000000
11
33.5295500428
21
36.2647349596
31
0.0000000000
11
33.5353965696
21
36.0209401124
31
0.0000000000
11
33.5377865768
21
35.7500000001
31
0.0000000000
0
SPLINE
5
386
100
AcDbEntity
8
0
100
AcDbSpline
62
9
6
CONTINUOUS
70
0
71
3
72
17
73
13
74
11
42
0.0000001000
43
0.0000001000
44
0.0000000001
12
-0.0000630721
22
1.2009013146
32
0.0000000000
13
-1.2001001738
23
0.0438582617
33
0.0000000000
40
0.0000000000
40
0.0000000000
40
0.0000000000
40
0.0000000000
40
0.1400683333
40
0.2654652750
40
0.3746919674
40
0.4706300142
40
0.5570619661
40
0.6390559556
40
0.7265685358
40
0.8207114703
40
0.9135420591
40
1.0000000000
40
1.0000000000
40
1.0000000000
40
1.0000000000
10
33.5000000000
20
26.6515557841
30
0.0000000000
10
33.4999970552
20
26.7076251993
30
0.0000000000
10
33.4955511415
20
26.8139502150
30
0.0000000000
10
33.4770213045
20
26.9629440601
30
0.0000000000
10
33.4503719013
20
27.0926950504
30
0.0000000000
10
33.4180104256
20
27.2049697491
30
0.0000000000
10
33.3805334847
20
27.3040686928
30
0.0000000000
10
33.3357915639
20
27.3964060989
30
0.0000000000
10
33.2792846958
20
27.4858947599
30
0.0000000000
10
33.2060809292
20
27.5687475564
30
0.0000000000
10
33.1148752924
20
27.6320980818
30
0.0000000000
10
33.0431646551
20
27.6501745174
30
0.0000000000
10
33.0085785918
20
27.6514384824
30
0.0000000000
11
33.5000000000
21
26.6515557841
31
0.0000000000
11
33.4928883105
21
26.8196136250
31
0.0000000000
11
33.4741329595
21
26.9690304577
31
0.0000000000
11
33.4475350358
21
27.0974759518
31
0.0000000000
11
33.4154018668
21
27.2081163315
31
0.0000000000
11
33.3784383156
21
27.3051078586
31
0.0000000000
11
33.3351892170
21
27.3935680446
31
0.0000000000
11
33.2784979507
21
27.4820600976
31
0.0000000000
11
33.2025613850
21
27.5658179732
31
0.0000000000
11
33.1095574430
21
27.6272845584
31
0.0000000000
11
33.0085785918
21
27.6514384824
31
0.0000000000
0
SPLINE
5
387
100
AcDbEntity
8
0
100
AcDbSpline
62
9
6
CONTINUOUS
70
0
71
3
72
14
73
10
74
8
42
0.0000001000
43
0.0000001000
44
0.0000000001
12
-0.0000234859
22
-1.4996625358
32
0.0000000000
13
-0.0000187546
23
-1.4996625372
33
0.0000000000
40
0.0000000000
40
0.0000000000
40
0.0000000000
40
0.0000000000
40
0.1799417404
40
0.3437546021
40
0.4946770711
40
0.6347473336
40
0.7652130643
40
0.8867154996
40
1.0000000000
40
1.0000000000
40
1.0000000000
40
1.0000000000
10
33.1409792221
20
33.6500000019
30
0.0000000000
10
33.1409778134
20
33.5600493730
30
0.0000000000
10
33.1340463942
20
33.3881558857
30
0.0000000000
10
33.1086541434
20
33.1421071770
30
0.0000000000
10
33.0784300043
20
32.9167670608
30
0.0000000000
10
33.0498931844
20
32.7080275614
30
0.0000000000
10
33.0270914007
20
32.5133567615
30
0.0000000000
10
33.0123930166
20
32.3313138405
30
0.0000000000
10
33.0087269114
20
32.2139318647
30
0.0000000000
10
33.0087262032
20
32.1573023576
30
0.0000000000
11
33.1409792221
21
33.6500000019
31
0.0000000000
11
33.1307854731
21
33.3803407202
31
0.0000000000
11
33.1067029702
21
33.1358599650
31
0.0000000000
11
33.0776106148
21
32.9114047161
31
0.0000000000
11
33.0499352689
21
32.7031776979
31
0.0000000000
11
33.0277806622
21
32.5087814954
31
0.0000000000
11
33.0136108052
21
32.3271206437
31
0.0000000000
11
33.0087262032
21
32.1573023576
31
0.0000000000
0
SPLINE
5
388
100
AcDbEntity
8
0
100
AcDbSpline
62
9
6
CONTINUOUS
70
0
71
3
72
9
73
5
74
3
42
0.0000001000
43
0.0000001000
44
0.0000000001
12
0.0121466624
22
-0.2085632174
32
0.0000000000
13
0.0000051453
23
-0.2089166265
33
0.0000000000
40
0.0000000000
40
0.0000000000
40
0.0000000000
40
0.0000000000
40
0.4914008413
40
1.0000000000
40
1.0000000000
40
1.0000000000
40
1.0000000000
10
33.1347836311
20
35.9588024278
30
0.0000000000
10
33.1367732578
20
35.9246397143
30
0.0000000000
10
33.1399038036
20
35.8550614068
30
0.0000000000
10
33.1409783498
20
35.7854182735
30
0.0000000000
10
33.1409792221
20
35.7500000000
30
0.0000000000
11
33.1347836311
21
35.9588024278
31
0.0000000000
11
33.1393534914
21
35.8562423828
31
0.0000000000
11
33.1409792221
21
35.7500000000
31
0.0000000000
0
SPLINE
5
389
100
AcDbEntity
8
0
100
AcDbSpline
62
9
6
CONTINUOUS
70
0
71
3
72
9
73
5
74
3
42
0.0000001000
43
0.0000001000
44
0.0000000001
12
-0.1252227491
22
-0.0181665436
32
0.0000000000
13
-0.1265143609
23
-0.0022083222
33
0.0000000000
40
0.0000000000
40
0.0000000000
40
0.0000000000
40
0.0000000000
40
0.4997054812
40
1.0000000000
40
1.0000000000
40
1.0000000000
40
1.0000000000
10
33.1347836311
20
35.9588024278
30
0.0000000000
10
33.1139254664
20
35.9557764540
30
0.0000000000
10
33.0719837616
20
35.9510278924
30
0.0000000000
10
33.0298243503
20
35.9489647913
30
0.0000000000
10
33.0087262032
20
35.9485965208
30
0.0000000000
11
33.1347836311
21
35.9588024278
31
0.0000000000
11
33.0719541043
21
35.9517012639
31
0.0000000000
11
33.0087262032
21
35.9485965208
31
0.0000000000
0
SPLINE
5
38A
100
AcDbEntity
8
0
100
AcDbSpline
62
9
6
CONTINUOUS
70
0
71
3
72
9
73
5
74
3
42
0.0000001000
43
0.0000001000
44
0.0000000001
12
1.5378910901
22
-1.5656422420
32
0.0000000000
13
1.5378787504
23
-1.5656543625
33
0.0000000000
40
0.0000000000
40
0.0000000000
40
0.0000000000
40
0.0000000000
40
0.4854012245
40
1.0000000000
40
1.0000000000
40
1.0000000000
40
1.0000000000
10
17.4708091451
20
44.5077191893
30
0.0000000000
10
17.7196405512
20
44.2543976355
30
0.0000000000
10
18.2322879058
20
43.7325335786
30
0.0000000000
10
18.7449293626
20
43.2106637281
30
0.0000000000
10
19.0087262032
20
42.9421024555
30
0.0000000000
11
17.4708091451
21
44.5077191893
31
0.0000000000
11
18.2173184689
21
43.7477693660
31
0.0000000000
11
19.0087262032
21
42.9421024555
31
0.0000000000
0
SPLINE
5
38B
100
AcDbEntity
8
0
100
AcDbSpline
62
9
6
CONTINUOUS
70
0
71
3
72
9
73
5
74
3
42
0.0000001000
43
0.0000001000
44
0.0000000001
12
23.5087300692
22
-0.1425551164
32
0.0000000000
13
23.5087222898
23
-0.1438327369
33
0.0000000000
40
0.0000000000
40
0.0000000000
40
0.0000000000
40
0.0000000000
40
0.4990616772
40
1.0000000000
40
1.0000000000
40
1.0000000000
40
1.0000000000
10
9.5000000000
20
39.6196592268
30
0.0000000000
10
13.4107687524
20
39.5959446283
30
0.0000000000
10
21.2470114733
20
39.5483213112
30
0.0000000000
10
29.0832528982
20
39.5004851999
30
0.0000000000
10
33.0087262032
20
39.4764680899
30
0.0000000000
11
9.5000000000
21
39.6196592268
31
0.0000000000
11
21.2323053001
21
39.5483576842
31
0.0000000000
11
33.0087262032
21
39.4764680899
31
0.0000000000
0
SPLINE
5
38C
100
AcDbEntity
8
0
100
AcDbSpline
62
9
6
CONTINUOUS
70
0
71
3
72
9
73
5
74
3
42
0.0000001000
43
0.0000001000
44
0.0000000001
12
10.7374040070
22
-0.0611816537
32
0.0000000000
13
10.7374027062
23
-0.0614095567
33
0.0000000000
40
0.0000000000
40
0.0000000000
40
0.0000000000
40
0.0000000000
40
0.4995695920
40
1.0000000000
40
1.0000000000
40
1.0000000000
40
1.0000000000
10
9.5000000000
20
40.8594293820
30
0.0000000000
10
11.2880268463
20
40.8492412174
30
0.0000000000
10
14.8671614093
20
40.8288287496
30
0.0000000000
10
18.4462957534
20
40.8083779239
30
0.0000000000
10
20.2374033591
20
40.7981341874
30
0.0000000000
11
9.5000000000
21
40.8594293820
31
0.0000000000
11
14.8640803784
21
40.8288367480
31
0.0000000000
11
20.2374033591
21
40.7981341874
31
0.0000000000
0
SPLINE
5
38D
100
AcDbEntity
8
0
100
AcDbSpline
62
9
6
CONTINUOUS
70
0
71
3
72
10
73
6
74
4
42
0.0000001000
43
0.0000001000
44
0.0000000001
12
-12.7716319300
22
0.2711888856
32
0.0000000000
13
-12.7716292692
23
0.2713142179
33
0.0000000000
40
0.0000000000
40
0.0000000000
40
0.0000000000
40
0.0000000000
40
0.3370145849
40
0.6703478255
40
1.0000000000
40
1.0000000000
40
1.0000000000
40
1.0000000000
10
33.0090339587
20
40.5268826905
30
0.0000000000
10
31.5742918809
20
40.5573475604
30
0.0000000000
10
28.7204800854
20
40.6179493420
30
0.0000000000
10
24.4632698900
20
40.7083667538
30
0.0000000000
10
21.6408018104
20
40.7683210805
30
0.0000000000
10
20.2374033569
20
40.7981341878
30
0.0000000000
11
33.0090339587
21
40.5268826905
31
0.0000000000
11
28.7048078779
21
40.6182845075
31
0.0000000000
11
24.4475988656
21
40.7087018364
31
0.0000000000
11
20.2374033569
21
40.7981341878
31
0.0000000000
0
SPLINE
5
38E
100
AcDbEntity
8
0
100
AcDbSpline
62
9
6
CONTINUOUS
70
0
71
3
72
10
73
6
74
4
42
0.0000001000
43
0.0000001000
44
0.0000000001
12
0.0016046926
22
1.0504136884
32
0.0000000000
13
-0.0012242252
23
1.0504142008
33
0.0000000000
40
0.0000000000
40
0.0000000000
40
0.0000000000
40
0.0000000000
40
0.3488441881
40
0.6859452825
40
1.0000000000
40
1.0000000000
40
1.0000000000
40
1.0000000000
10
33.0087262032
20
39.4764680899
30
0.0000000000
10
33.0089127991
20
39.5986116600
30
0.0000000000
10
33.0091862953
20
39.8387872548
30
0.0000000000
10
33.0092937920
20
40.1889255784
30
0.0000000000
10
33.0091621166
20
40.4169201788
30
0.0000000000
10
33.0090339587
20
40.5268826905
30
0.0000000000
11
33.0087262032
21
39.4764680899
31
0.0000000000
11
33.0091393131
21
39.8428989949
31
0.0000000000
11
33.0092422192
21
40.1969949971
31
0.0000000000
11
33.0090339587
21
40.5268826905
31
0.0000000000
0
SPLINE
5
38F
100
AcDbEntity
8
0
100
AcDbSpline
62
9
6
CONTINUOUS
70
0
71
3
72
11
73
7
74
5
42
0.0000001000
43
0.0000001000
44
0.0000000001
12
-0.0087243562
22
-0.4999669162
32
0.0000000000
13
0.4999668697
23
-0.0087269547
33
0.0000000000
40
0.0000000000
40
0.0000000000
40
0.0000000000
40
0.0000000000
40
0.3825592784
40
0.7068734102
40
0.9236228760
40
1.0000000000
40
1.0000000000
40
1.0000000000
40
1.0000000000
10
33.0087262032
20
27.6514034792
30
0.0000000000
10
33.0076136754
20
27.5876478183
30
0.0000000000
10
33.0092100815
20
27.4736370767
30
0.0000000000
10
32.9966227130
20
27.3063020962
30
0.0000000000
10
33.0198330686
20
27.2298329139
30
0.0000000000
10
32.9959975260
20
27.1517018116
30
0.0000000000
10
33.0087262032
20
27.1514796317
30
0.0000000000
11
33.0087262032
21
27.6514034792
31
0.0000000000
11
33.0060524366
21
27.4601260650
31
0.0000000000
11
33.0051135679
21
27.2979577615
31
0.0000000000
11
33.0060523831
21
27.1895777679
31
0.0000000000
11
33.0087262032
21
27.1514796317
31
0.0000000000
0
SPLINE
5
390
100
AcDbEntity
8
0
100
AcDbSpline
62
9
6
CONTINUOUS
70
0
71
3
72
9
73
5
74
3
42
0.0000001000
43
0.0000001000
44
0.0000000001
12
-0.0600540385
22
-0.0087023329
32
0.0000000000
13
0.0154152369
23
-0.0680863326
33
0.0000000000
40
0.0000000000
40
0.0000000000
40
0.0000000000
40
0.0000000000
40
0.6275856454
40
1.0000000000
40
1.0000000000
40
1.0000000000
40
1.0000000000
10
33.0717613296
20
36.4536197205
30
0.0000000000
10
33.0591983121
20
36.4517992341
30
0.0000000000
10
33.0730972456
20
36.4209583605
30
0.0000000000
10
33.0801336189
20
36.3964922502
30
0.0000000000
10
33.0820472374
20
36.3880401410
30
0.0000000000
11
33.0717613296
21
36.4536197205
31
0.0000000000
11
33.0739409408
21
36.4155994431
31
0.0000000000
11
33.0820472374
21
36.3880401410
31
0.0000000000
0
SPLINE
5
391
100
AcDbEntity
8
0
100
AcDbSpline
62
9
6
CONTINUOUS
70
0
71
3
72
9
73
5
74
3
42
0.0000001000
43
0.0000001000
44
0.0000000001
12
0.0349921972
22
-0.1545542506
32
0.0000000000
13
0.0161777037
23
-0.1349530629
33
0.0000000000
40
0.0000000000
40
0.0000000000
40
0.0000000000
40
0.0000000000
40
0.6207063619
40
1.0000000000
40
1.0000000000
40
1.0000000000
40
1.0000000000
10
33.0820472374
20
36.3880401410
30
0.0000000000
10
33.0892871972
20
36.3560625388
30
0.0000000000
10
33.0846512067
20
36.3197512778
30
0.0000000000
10
33.0881865778
20
36.2763533913
30
0.0000000000
10
33.0902319445
20
36.2592911119
30
0.0000000000
11
33.0820472374
21
36.3880401410
31
0.0000000000
11
33.0866802523
21
36.3082549679
31
0.0000000000
11
33.0902319445
21
36.2592911119
31
0.0000000000
0
SPLINE
5
392
100
AcDbEntity
8
0
100
AcDbSpline
62
9
6
CONTINUOUS
70
0
71
3
72
9
73
5
74
3
42
0.0000001000
43
0.0000001000
44
0.0000000001
12
0.0352933653
22
-0.2944143276
32
0.0000000000
13
0.0431166574
23
-0.2973958930
33
0.0000000000
40
0.0000000000
40
0.0000000000
40
0.0000000000
40
0.0000000000
40
0.3645504411
40
1.0000000000
40
1.0000000000
40
1.0000000000
40
1.0000000000
10
33.0902319445
20
36.2592911119
30
0.0000000000
10
33.0945206818
20
36.2235148209
30
0.0000000000
10
33.1147807044
20
36.1181195685
30
0.0000000000
10
33.1256629518
20
36.0217971665
30
0.0000000000
10
33.1347957721
20
35.9588038035
30
0.0000000000
11
33.0902319445
21
36.2592911119
31
0.0000000000
11
33.1080460037
21
36.1478768042
31
0.0000000000
11
33.1347957721
21
35.9588038035
31
0.0000000000
0
SPLINE
5
393
100
AcDbEntity
8
0
100
AcDbSpline
62
9
6
CONTINUOUS
70
0
71
3
72
9
73
5
74
3
42
0.0000001000
43
0.0000001000
44
0.0000000001
12
-0.0608476265
22
-0.0010620991
32
0.0000000000
13
0.0066822388
23
-0.0696818228
33
0.0000000000
40
0.0000000000
40
0.0000000000
40
0.0000000000
40
0.0000000000
40
0.6275679788
40
1.0000000000
40
1.0000000000
40
1.0000000000
40
1.0000000000
10
33.0087262032
20
36.4485203683
30
0.0000000000
10
32.9959975292
20
36.4482981885
30
0.0000000000
10
33.0058938821
20
36.4158589087
30
0.0000000000
10
33.0097818579
20
36.3906300291
30
0.0000000000
10
33.0106114178
20
36.3819794484
30
0.0000000000
11
33.0087262032
21
36.4485203683
31
0.0000000000
11
33.0060524489
21
36.4104222373
31
0.0000000000
11
33.0106114178
21
36.3819794484
31
0.0000000000
0
SPLINE
5
394
100
AcDbEntity
8
0
100
AcDbSpline
62
9
6
CONTINUOUS
70
0
71
3
72
10
73
6
74
4
42
0.0000001000
43
0.0000001000
44
0.0000000001
12
0.0482237291
22
-0.5028730102
32
0.0000000000
13
0.0076625207
23
-0.4391192811
33
0.0000000000
40
0.0000000000
40
0.0000000000
40
0.0000000000
40
0.0000000000
40
0.1951769447
40
0.5644304647
40
1.0000000000
40
1.0000000000
40
1.0000000000
40
1.0000000000
10
33.0106114178
20
36.3819794484
30
0.0000000000
10
33.0137488045
20
36.3492630425
30
0.0000000000
10
32.9972403458
20
36.2854860510
30
0.0000000000
10
33.0092101366
20
36.1263629217
30
0.0000000000
10
33.0076136830
20
36.0123521812
30
0.0000000000
10
33.0087262032
20
35.9485965208
30
0.0000000000
11
33.0106114178
21
36.3819794484
31
0.0000000000
11
33.0051135705
21
36.3020422401
31
0.0000000000
11
33.0060524489
21
36.1398739332
31
0.0000000000
11
33.0087262032
21
35.9485965208
31
0.0000000000
0
SPLINE
5
395
100
AcDbEntity
8
0
100
AcDbSpline
62
9
6
CONTINUOUS
70
0
71
3
72
10
73
6
74
4
42
0.0000001000
43
0.0000001000
44
0.0000000001
12
0.2373168263
22
0.0041423801
32
0.0000000000
13
-0.0025701890
23
0.2373390598
33
0.0000000000
40
0.0000000000
40
0.0000000000
40
0.0000000000
40
0.0000000000
40
0.1202449289
40
0.4666937284
40
1.0000000000
40
1.0000000000
40
1.0000000000
40
1.0000000000
10
33.0087262032
20
6.2357956930
30
0.0000000000
10
33.0182382515
20
6.2359617264
30
0.0000000000
10
32.9985110630
20
6.2950872443
30
0.0000000000
10
33.0174140698
20
6.3533405254
30
0.0000000000
10
33.0094888183
20
6.4309258164
30
0.0000000000
10
33.0090319190
20
6.4731172861
30
0.0000000000
11
33.0087262032
21
6.2357956930
31
0.0000000000
11
33.0099679529
21
6.2643091587
31
0.0000000000
11
33.0100738816
21
6.3465397440
31
0.0000000000
11
33.0090319190
21
6.4731172861
31
0.0000000000
0
SPLINE
5
396
100
AcDbEntity
8
0
100
AcDbSpline
62
9
6
CONTINUOUS
70
0
71
3
72
10
73
6
74
4
42
0.0000001000
43
0.0000001000
44
0.0000000001
12
0.1772405430
22
0.4833327265
32
0.0000000000
13
0.5147272695
23
0.0089762108
33
0.0000000000
40
0.0000000000
40
0.0000000000
40
0.0000000000
40
0.0000000000
40
0.3515859591
40
0.6831090452
40
1.0000000000
40
1.0000000000
40
1.0000000000
40
1.0000000000
10
19.3924785564
20
5.7043135109
30
0.0000000000
10
19.4132503185
20
5.7609578443
30
0.0000000000
10
19.4725626233
20
5.8654688500
30
0.0000000000
10
19.6096960671
20
5.9757735528
30
0.0000000000
10
19.7218701953
20
6.0038750967
30
0.0000000000
10
19.7762410006
20
6.0048232567
30
0.0000000000
11
19.3924785564
21
5.7043135109
31
0.0000000000
11
19.4834078767
21
5.8608136008
31
0.0000000000
11
19.6177816867
21
5.9660366980
31
0.0000000000
11
19.7762410006
21
6.0048232567
31
0.0000000000
0
SPLINE
5
397
100
AcDbEntity
8
0
100
AcDbSpline
62
9
6
CONTINUOUS
70
0
71
3
72
10
73
6
74
4
42
0.0000001000
43
0.0000001000
44
0.0000000001
12
0.1772458245
22
-0.4833263200
32
0.0000000000
13
0.5147228604
23
-0.0089883327
33
0.0000000000
40
0.0000000000
40
0.0000000000
40
0.0000000000
40
0.0000000000
40
0.3515821853
40
0.6831057572
40
1.0000000000
40
1.0000000000
40
1.0000000000
40
1.0000000000
10
19.3924784142
20
41.2956864174
30
0.0000000000
10
19.4132505723
20
41.2390434428
30
0.0000000000
10
19.4725638113
20
41.1345347604
30
0.0000000000
10
19.6096970479
20
41.0242325886
30
0.0000000000
10
19.7218701635
20
40.9961300231
30
0.0000000000
10
19.7762410672
20
40.9951805728
30
0.0000000000
11
19.3924784142
21
41.2956864174
31
0.0000000000
11
19.4834082185
21
41.1391905619
31
0.0000000000
11
19.6177818624
21
41.0339691034
31
0.0000000000
11
19.7762410672
21
40.9951805728
31
0.0000000000
0
SPLINE
5
398
100
AcDbEntity
8
0
100
AcDbSpline
62
9
6
CONTINUOUS
70
0
71
3
72
12
73
8
74
6
42
0.0000001000
43
0.0000001000
44
0.0000000001
12
0.0000000022
22
-0.6020559641
32
0.0000000000
13
-0.6017217549
23
-0.0200577158
33
0.0000000000
40
0.0000000000
40
0.0000000000
40
0.0000000000
40
0.0000000000
40
0.1383787011
40
0.3049070404
40
0.5093987135
40
0.7455368817
40
1.0000000000
40
1.0000000000
40
1.0000000000
40
1.0000000000
10
33.5000000000
20
6.7357195432
30
0.0000000000
10
33.5000000001
20
6.7079489691
30
0.0000000000
10
33.4796185058
20
6.6463412845
30
0.0000000000
10
33.4037542820
20
6.5742989701
30
0.0000000000
10
33.2943326925
20
6.5184241990
30
0.0000000000
10
33.1586608973
20
6.4819620417
30
0.0000000000
10
33.0600705837
20
6.4748186024
30
0.0000000000
10
33.0090319190
20
6.4731172861
30
0.0000000000
11
33.5000000000
21
6.7357195432
31
0.0000000000
11
33.4763451549
21
6.6558365578
31
0.0000000000
11
33.4070693472
21
6.5833603156
31
0.0000000000
11
33.2986157031
21
6.5250918295
31
0.0000000000
11
33.1615814999
21
6.4872305180
31
0.0000000000
11
33.0090319190
21
6.4731172861
31
0.0000000000
0
SPLINE
5
399
100
AcDbEntity
8
0
100
AcDbSpline
62
9
6
CONTINUOUS
70
0
71
3
72
9
73
5
74
3
42
0.0000001000
43
0.0000001000
44
0.0000000001
12
-1.5377433726
22
-1.5655177131
32
0.0000000000
13
-1.5377564221
23
-1.5655048961
33
0.0000000000
40
0.0000000000
40
0.0000000000
40
0.0000000000
40
0.0000000000
40
0.5148571694
40
1.0000000000
40
1.0000000000
40
1.0000000000
40
1.0000000000
10
19.0087262032
20
4.0579186945
30
0.0000000000
10
18.7448201365
20
3.7892460217
30
0.0000000000
10
18.2321620321
20
3.2674823876
30
0.0000000000
10
17.7197771685
20
2.7454504014
30
0.0000000000
10
17.4711000007
20
2.4922859092
30
0.0000000000
11
19.0087262032
21
4.0579186945
31
0.0000000000
11
18.2170011656
21
3.2519073920
31
0.0000000000
11
17.4711000007
21
2.4922859092
31
0.0000000000
0
SPLINE
5
39A
100
AcDbEntity
8
0
100
AcDbSpline
62
9
6
CONTINUOUS
70
0
71
3
72
10
73
6
74
4
42
0.0000001000
43
0.0000001000
44
0.0000000001
12
0.0016042141
22
-1.0504137058
32
0.0000000000
13
-0.0012240334
23
-1.0504142176
33
0.0000000000
40
0.0000000000
40
0.0000000000
40
0.0000000000
40
0.0000000000
40
0.3488020035
40
0.6859078403
40
1.0000000000
40
1.0000000000
40
1.0000000000
40
1.0000000000
10
33.0087262032
20
7.5235319101
30
0.0000000000
10
33.0089127209
20
7.4014031084
30
0.0000000000
10
33.0091862646
20
7.1612406197
30
0.0000000000
10
33.0092937670
20
6.8111022901
30
0.0000000000
10
33.0091613200
20
6.5830929160
30
0.0000000000
10
33.0090331669
20
6.4731172926
30
0.0000000000
11
33.0087262032
21
7.5235319101
31
0.0000000000
11
33.0091392593
21
7.1571453104
31
0.0000000000
11
33.0092419873
21
6.8030443209
31
0.0000000000
11
33.0090331669
21
6.4731172926
31
0.0000000000
0
SPLINE
5
39B
100
AcDbEntity
8
0
100
AcDbSpline
62
9
6
CONTINUOUS
70
0
71
3
72
22
73
18
74
16
42
0.0000001000
43
0.0000001000
44
0.0000000001
12
-0.0347704492
22
-0.8649630846
32
0.0000000000
13
-0.8416006850
23
-0.2026780665
33
0.0000000000
40
0.0000000000
40
0.0000000000
40
0.0000000000
40
0.0000000000
40
0.0383270803
40
0.0790831509
40
0.1223278280
40
0.1681286136
40
0.2166433915
40
0.2683183421
40
0.3239194082
40
0.3841890903
40
0.4498640451
40
0.5216190608
40
0.5998127189
40
0.6853603001
40
0.7806531970
40
0.8863148095
40
1.0000000000
40
1.0000000000
40
1.0000000000
40
1.0000000000
10
33.5147205610
20
36.6784382306
30
0.0000000000
10
33.5142763444
20
36.6673877274
30
0.0000000000
10
33.5131455642
20
36.6445943690
30
0.0000000000
10
33.5106740158
20
36.6093801287
30
0.0000000000
10
33.5071822251
20
36.5720846428
30
0.0000000000
10
33.5024400582
20
36.5326701612
30
0.0000000000
10
33.4961561807
20
36.4910081169
30
0.0000000000
10
33.4879336293
20
36.4468023533
30
0.0000000000
10
33.4772285842
20
36.3996417484
30
0.0000000000
10
33.4632887389
20
36.3491222408
30
0.0000000000
10
33.4451230497
20
36.2950095343
30
0.0000000000
10
33.4214667410
20
36.2374036355
30
0.0000000000
10
33.3906299418
20
36.1767524636
30
0.0000000000
10
33.3501984779
20
36.1136903008
30
0.0000000000
10
33.2965100440
20
36.0504296011
30
0.0000000000
10
33.2260056809
20
35.9921293904
30
0.0000000000
10
33.1666761922
20
35.9664861091
30
0.0000000000
10
33.1347836808
20
35.9588056109
30
0.0000000000
11
33.5147205610
21
36.6784382306
31
0.0000000000
11
33.5130705978
21
36.6453009984
31
0.0000000000
11
33.5105918738
21
36.6101072118
31
0.0000000000
11
33.5070919543
21
36.5728359201
31
0.0000000000
11
33.5023430171
21
36.5334733714
31
0.0000000000
11
33.4960634743
21
36.4919481074
31
0.0000000000
11
33.4878642032
21
36.4479729399
31
0.0000000000
11
33.4771829420
21
36.4010413696
31
0.0000000000
11
33.4632682409
21
36.3507579826
31
0.0000000000
11
33.4451222594
21
36.2968793570
31
0.0000000000
11
33.4214440621
21
36.2394538702
31
0.0000000000
11
33.3906540842
21
36.1791727612
31
0.0000000000
11
33.3504526106
21
36.1169793271
31
0.0000000000
11
33.2967952602
21
36.0543237522
31
0.0000000000
11
33.2254417737
21
35.9970967486
31
0.0000000000
11
33.1347836808
21
35.9588056109
31
0.0000000000
0
SPLINE
5
39C
100
AcDbEntity
8
0
100
AcDbSpline
62
9
6
CONTINUOUS
70
0
71
3
72
10
73
6
74
4
42
0.0000001000
43
0.0000001000
44
0.0000000001
12
12.7716284789
22
0.2713142012
32
0.0000000000
13
12.7716311411
23
0.2711888685
33
0.0000000000
40
0.0000000000
40
0.0000000000
40
0.0000000000
40
0.0000000000
40
0.3296521914
40
0.6629854492
40
1.0000000000
40
1.0000000000
40
1.0000000000
40
1.0000000000
10
20.2374033569
20
6.2018658122
30
0.0000000000
10
21.6408017955
20
6.2316789192
30
0.0000000000
10
24.4632698450
20
6.2916332452
30
0.0000000000
10
28.7204797765
20
6.3820506514
30
0.0000000000
10
31.5742913229
20
6.4426524277
30
0.0000000000
10
33.0090331669
20
6.4731172926
30
0.0000000000
11
20.2374033569
21
6.2018658122
31
0.0000000000
11
24.4475988204
21
6.2912981626
31
0.0000000000
11
28.7048077884
21
6.3817154905
31
0.0000000000
11
33.0090331669
21
6.4731172926
31
0.0000000000
0
SPLINE
5
39D
100
AcDbEntity
8
0
100
AcDbSpline
62
9
6
CONTINUOUS
70
0
71
3
72
9
73
5
74
3
42
0.0000001000
43
0.0000001000
44
0.0000000001
12
10.7374040079
22
0.0611816538
32
0.0000000000
13
10.7374027052
23
0.0614095567
33
0.0000000000
40
0.0000000000
40
0.0000000000
40
0.0000000000
40
0.0000000000
40
0.4995695919
40
1.0000000000
40
1.0000000000
40
1.0000000000
40
1.0000000000
10
9.5000000000
20
6.1405706180
30
0.0000000000
10
11.2880268461
20
6.1507587826
30
0.0000000000
10
14.8671614091
20
6.1711712504
30
0.0000000000
10
18.4462957532
20
6.1916220761
30
0.0000000000
10
20.2374033591
20
6.2018658126
30
0.0000000000
11
9.5000000000
21
6.1405706180
31
0.0000000000
11
14.8640803775
21
6.1711632520
31
0.0000000000
11
20.2374033591
21
6.2018658126
31
0.0000000000
0
SPLINE
5
39E
100
AcDbEntity
8
0
100
AcDbSpline
62
9
6
CONTINUOUS
70
0
71
3
72
12
73
8
74
6
42
0.0000001000
43
0.0000001000
44
0.0000000001
12
0.6018003716
22
-0.0197706458
32
0.0000000000
13
0.0000000000
23
-0.6021250418
33
0.0000000000
40
0.0000000000
40
0.0000000000
40
0.0000000000
40
0.0000000000
40
0.2544270453
40
0.4905221921
40
0.6949909189
40
0.8615409325
40
1.0000000000
40
1.0000000000
40
1.0000000000
40
1.0000000000
10
33.0090319188
20
40.5268827122
30
0.0000000000
10
33.0600700156
20
40.5252059832
30
0.0000000000
10
33.1586596245
20
40.5181038020
30
0.0000000000
10
33.2943371903
20
40.4816736983
30
0.0000000000
10
33.4037663882
20
40.4257968484
30
0.0000000000
10
33.4796326773
20
40.3537099754
30
0.0000000000
10
33.5000000000
20
40.2920703500
30
0.0000000000
10
33.5000000000
20
40.2642804594
30
0.0000000000
11
33.0090319188
21
40.5268827122
31
0.0000000000
11
33.1615830753
21
40.5128316151
31
0.0000000000
11
33.2986164309
21
40.4750032673
31
0.0000000000
11
33.4070701228
21
40.4167342164
31
0.0000000000
11
33.4763460793
21
40.3442241534
31
0.0000000000
11
33.5000000000
21
40.2642804594
31
0.0000000000
0
SPLINE
5
39F
100
AcDbEntity
8
0
100
AcDbSpline
62
9
6
CONTINUOUS
70
0
71
3
72
9
73
5
74
3
42
0.0000001000
43
0.0000001000
44
0.0000000001
12
0.0051406266
22
-0.2945960400
32
0.0000000000
13
0.0101289950
23
-0.3053030951
33
0.0000000000
40
0.0000000000
40
0.0000000000
40
0.0000000000
40
0.0000000000
40
0.5258873663
40
1.0000000000
40
1.0000000000
40
1.0000000000
40
1.0000000000
10
33.0087262032
20
36.9484442159
30
0.0000000000
10
33.0096273334
20
36.8968027707
30
0.0000000000
10
33.0118462631
20
36.7976646082
30
0.0000000000
10
33.0105901143
20
36.7020744404
30
0.0000000000
10
33.0121908758
20
36.6538250889
30
0.0000000000
11
33.0087262032
21
36.9484442159
31
0.0000000000
11
33.0110000885
21
36.7935129810
31
0.0000000000
11
33.0121908758
21
36.6538250889
31
0.0000000000
0
SPLINE
5
3A0
100
AcDbEntity
8
0
100
AcDbSpline
62
9
6
CONTINUOUS
70
0
71
3
72
10
73
6
74
4
42
0.0000001000
43
0.0000001000
44
0.0000000001
12
0.0070011735
22
-0.2110258479
32
0.0000000000
13
-0.1623048033
23
-0.0485839167
33
0.0000000000
40
0.0000000000
40
0.0000000000
40
0.0000000000
40
0.0000000000
40
0.5429163534
40
0.8903999645
40
1.0000000000
40
1.0000000000
40
1.0000000000
40
1.0000000000
10
33.0121908758
20
36.6538250889
30
0.0000000000
10
33.0134578930
20
36.6156352943
30
0.0000000000
10
33.0177924642
20
36.5499935608
30
0.0000000000
10
33.0028377938
20
36.4994440789
30
0.0000000000
10
33.0162380910
20
36.4505239432
30
0.0000000000
10
33.0103085536
20
36.4487490102
30
0.0000000000
11
33.0121908758
21
36.6538250889
31
0.0000000000
11
33.0121817145
21
36.5432568521
31
0.0000000000
11
33.0109752731
21
36.4724999731
31
0.0000000000
11
33.0103085536
21
36.4487490102
31
0.0000000000
0
SPLINE
5
3A1
100
AcDbEntity
8
0
100
AcDbSpline
62
9
6
CONTINUOUS
70
0
71
3
72
8
73
4
74
2
42
0.0000001000
43
0.0000001000
44
0.0000000001
12
-0.0014059305
22
-0.0004208478
32
0.0000000000
13
-0.0017638587
23
-0.0000307884
33
0.0000000000
40
0.0000000000
40
0.0000000000
40
0.0000000000
40
0.0000000000
40
1.0000000000
40
1.0000000000
40
1.0000000000
40
1.0000000000
10
33.0103085536
20
36.4487490102
30
0.0000000000
10
33.0098399101
20
36.4486087276
30
0.0000000000
10
33.0093141561
20
36.4485306311
30
0.0000000000
10
33.0087262032
20
36.4485203683
30
0.0000000000
11
33.0103085536
21
36.4487490102
31
0.0000000000
11
33.0087262032
21
36.4485203683
31
0.0000000000
0
SPLINE
5
3A2
100
AcDbEntity
8
0
100
AcDbSpline
62
9
6
CONTINUOUS
70
0
71
3
72
12
73
8
74
6
42
0.0000001000
43
0.0000001000
44
0.0000000001
12
0.0087246125
22
0.4999850181
32
0.0000000000
13
-0.4999849763
23
0.0087272742
33
0.0000000000
40
0.0000000000
40
0.0000000000
40
0.0000000000
40
0.0000000000
40
0.3098579557
40
0.5892097349
40
0.8103191748
40
0.9518361988
40
1.0000000000
40
1.0000000000
40
1.0000000000
40
1.0000000000
10
33.0087262032
20
26.6515557841
30
0.0000000000
10
33.0096273334
20
26.7031972293
30
0.0000000000
10
33.0118462631
20
26.8023353918
30
0.0000000000
10
33.0101187264
20
26.9337971469
30
0.0000000000
10
33.0177924642
20
27.0500064392
30
0.0000000000
10
33.0027082521
20
27.1009937951
30
0.0000000000
10
33.0167532622
20
27.1513395188
30
0.0000000000
10
33.0087262032
20
27.1514796317
30
0.0000000000
11
33.0087262032
21
26.6515557841
31
0.0000000000
11
33.0110000885
21
26.8064870190
31
0.0000000000
11
33.0121908759
21
26.9461749111
31
0.0000000000
11
33.0121817145
21
27.0567431479
31
0.0000000000
11
33.0109752731
21
27.1275000269
31
0.0000000000
11
33.0087262032
21
27.1514796317
31
0.0000000000
0
SPLINE
5
3A3
100
AcDbEntity
8
0
100
AcDbSpline
62
9
6
CONTINUOUS
70
0
71
3
72
9
73
5
74
3
42
0.0000001000
43
0.0000001000
44
0.0000000001
12
23.5087300721
22
0.1425551168
32
0.0000000000
13
23.5087222869
23
0.1438327372
33
0.0000000000
40
0.0000000000
40
0.0000000000
40
0.0000000000
40
0.0000000000
40
0.4990616801
40
1.0000000000
40
1.0000000000
40
1.0000000000
40
1.0000000000
10
9.5000000000
20
7.3803407732
30
0.0000000000
10
13.4107687756
20
7.4040553719
30
0.0000000000
10
21.2470114965
20
7.4516786889
30
0.0000000000
10
29.0832529214
20
7.4995148002
30
0.0000000000
10
33.0087262032
20
7.5235319101
30
0.0000000000
11
9.5000000000
21
7.3803407732
31
0.0000000000
11
21.2323053687
21
7.4516423162
31
0.0000000000
11
33.0087262032
21
7.5235319101
31
0.0000000000
0
SPLINE
5
3A4
100
AcDbEntity
8
0
100
AcDbSpline
62
9
6
CONTINUOUS
70
0
71
3
72
10
73
6
74
4
42
0.0000001000
43
0.0000001000
44
0.0000000001
12
-0.2232069067
22
-0.2232069040
32
0.0000000000
13
-0.3009210494
23
0.0983877909
33
0.0000000000
40
0.0000000000
40
0.0000000000
40
0.0000000000
40
0.0000000000
40
0.3315187025
40
0.7102743445
40
1.0000000000
40
1.0000000000
40
1.0000000000
40
1.0000000000
10
17.8156819837
20
2.5156819837
30
0.0000000000
10
17.7910162290
20
2.4910162293
30
0.0000000000
10
17.7220088727
20
2.4531710813
30
0.0000000000
10
17.6145011278
20
2.4501050269
30
0.0000000000
10
17.5450688444
20
2.4653145255
30
0.0000000000
10
17.5160073283
20
2.4748163479
30
0.0000000000
11
17.8156819837
21
2.5156819837
31
0.0000000000
11
17.7249964260
21
2.4634582372
31
0.0000000000
11
17.6057112944
21
2.4553726690
31
0.0000000000
11
17.5160073283
21
2.4748163479
31
0.0000000000
0
SPLINE
5
3A5
100
AcDbEntity
8
0
100
AcDbSpline
62
9
6
CONTINUOUS
70
0
71
3
72
8
73
4
74
2
42
0.0000001000
43
0.0000001000
44
0.0000000001
12
-0.0461022552
22
0.0150733857
32
0.0000000000
13
-0.0441179766
23
0.0198080202
33
0.0000000000
40
0.0000000000
40
0.0000000000
40
0.0000000000
40
0.0000000000
40
1.0000000000
40
1.0000000000
40
1.0000000000
40
1.0000000000
10
17.5160073283
20
2.4748163479
30
0.0000000000
10
17.5006399099
20
2.4798408098
30
0.0000000000
10
17.4855607901
20
2.4856789303
30
0.0000000000
10
17.4708547979
20
2.4922816037
30
0.0000000000
11
17.5160073283
21
2.4748163479
31
0.0000000000
11
17.4708547979
21
2.4922816037
31
0.0000000000
0
SPLINE
5
3A6
100
AcDbEntity
8
0
100
AcDbSpline
62
9
6
CONTINUOUS
70
0
71
3
72
10
73
6
74
4
42
0.0000001000
43
0.0000001000
44
0.0000000001
12
0.3327010152
22
-0.1491293445
32
0.0000000000
13
0.2578076091
23
0.2578076091
33
0.0000000000
40
0.0000000000
40
0.0000000000
40
0.0000000000
40
0.0000000000
40
0.3970024351
40
0.7269980023
40
1.0000000000
40
1.0000000000
40
1.0000000000
40
1.0000000000
10
19.0087262034
20
4.0579095372
30
0.0000000000
10
19.0527539078
20
4.0381746329
30
0.0000000000
10
19.1349014947
20
4.0035392112
30
0.0000000000
10
19.2596380855
20
3.9965929248
30
0.0000000000
10
19.3300927264
20
4.0300927264
30
0.0000000000
10
19.3535533905
20
4.0535533905
30
0.0000000000
11
19.0087262034
21
4.0579095372
31
0.0000000000
11
19.1450183843
21
4.0091695309
31
0.0000000000
11
19.2653213223
21
4.0074844007
31
0.0000000000
11
19.3535533905
21
4.0535533905
31
0.0000000000
0
SPLINE
5
3A7
100
AcDbEntity
8
0
100
AcDbSpline
62
9
6
CONTINUOUS
70
0
71
3
72
10
73
6
74
4
42
0.0000001000
43
0.0000001000
44
0.0000000001
12
0.1229631382
22
0.0021463313
32
0.0000000000
13
-0.0012248653
23
0.1229757684
33
0.0000000000
40
0.0000000000
40
0.0000000000
40
0.0000000000
40
0.0000000000
40
0.1155816898
40
0.4553122916
40
1.0000000000
40
1.0000000000
40
1.0000000000
40
1.0000000000
10
17.4708547979
20
2.3693115283
30
0.0000000000
10
17.4755922270
20
2.3693942205
30
0.0000000000
10
17.4654363251
20
2.3992548940
30
0.0000000000
10
17.4753242882
20
2.4294492066
30
0.0000000000
10
17.4710771876
20
2.4699538072
30
0.0000000000
10
17.4708547979
20
2.4922816037
30
0.0000000000
11
17.4708547979
21
2.3693115283
31
0.0000000000
11
17.4713806166
21
2.3835162516
31
0.0000000000
11
17.4713806166
21
2.4252969556
31
0.0000000000
11
17.4708547979
21
2.4922816037
31
0.0000000000
0
SPLINE
5
3A8
100
AcDbEntity
8
0
100
AcDbSpline
62
9
6
CONTINUOUS
70
0
71
3
72
13
73
9
74
7
42
0.0000001000
43
0.0000001000
44
0.0000000001
12
-0.1226634427
22
-0.0018778504
32
0.0000000000
13
0.0004877502
23
0.1226768469
33
0.0000000000
40
0.0000000000
40
0.0000000000
40
0.0000000000
40
0.0000000000
40
0.0266811988
40
0.1119434644
40
0.2588684792
40
0.4636420328
40
0.7158811775
40
1.0000000000
40
1.0000000000
40
1.0000000000
40
1.0000000000
10
13.6965095187
20
2.3034300864
30
0.0000000000
10
13.6954185828
20
2.3034133853
30
0.0000000000
10
13.6978689825
20
2.3107889503
30
0.0000000000
10
13.6952571945
20
2.3185472628
30
0.0000000000
10
13.6967422728
20
2.3380780611
30
0.0000000000
10
13.6961169824
20
2.3620448103
30
0.0000000000
10
13.6964473149
20
2.3926248529
30
0.0000000000
10
13.6964633257
20
2.4144865092
30
0.0000000000
10
13.6965095187
20
2.4261047763
30
0.0000000000
11
13.6965095187
21
2.3034300864
31
0.0000000000
11
13.6963833009
21
2.3067008431
31
0.0000000000
11
13.6963016238
21
2.3171603128
31
0.0000000000
11
13.6962735100
21
2.3351847308
31
0.0000000000
11
13.6963020185
21
2.3603058870
31
0.0000000000
11
13.6963837746
21
2.3912499264
31
0.0000000000
11
13.6965095187
21
2.4261047763
31
0.0000000000
0
SPLINE
5
3A9
100
AcDbEntity
8
0
100
AcDbSpline
62
9
6
CONTINUOUS
70
0
71
3
72
8
73
4
74
2
42
0.0000001000
43
0.0000001000
44
0.0000000001
12
0.1535235561
22
0.0018718173
32
0.0000000000
13
0.1498078272
23
0.0355929684
33
0.0000000000
40
0.0000000000
40
0.0000000000
40
0.0000000000
40
0.0000000000
40
1.0000000000
40
1.0000000000
40
1.0000000000
40
1.0000000000
10
19.0087262032
20
4.0579095371
30
0.0000000000
10
19.0599007219
20
4.0585334762
30
0.0000000000
10
19.1111969052
20
4.0646247910
30
0.0000000000
10
19.1611328476
20
4.0764891138
30
0.0000000000
11
19.0087262032
21
4.0579095371
31
0.0000000000
11
19.1611328476
21
4.0764891138
31
0.0000000000
0
SPLINE
5
3AA
100
AcDbEntity
8
0
100
AcDbSpline
62
9
6
CONTINUOUS
70
0
71
3
72
11
73
7
74
5
42
0.0000001000
43
0.0000001000
44
0.0000000001
12
0.4950043350
22
0.1176084992
32
0.0000000000
13
0.0000000000
23
0.5073197802
33
0.0000000000
40
0.0000000000
40
0.0000000000
40
0.0000000000
40
0.0000000000
40
0.2875897026
40
0.5498314287
40
0.7843286594
40
1.0000000000
40
1.0000000000
40
1.0000000000
40
1.0000000000
10
19.1611328476
20
4.0764891138
30
0.0000000000
10
19.2085855641
20
4.0877634449
30
0.0000000000
10
19.2969601676
20
4.1192851558
30
0.0000000000
10
19.4077903579
20
4.1954522374
30
0.0000000000
10
19.4819033799
20
4.2937273650
30
0.0000000000
10
19.5000000000
20
4.3706353355
30
0.0000000000
10
19.5000000000
20
4.4071067812
30
0.0000000000
11
19.1611328476
21
4.0764891138
31
0.0000000000
11
19.2981124375
21
4.1267224275
31
0.0000000000
11
19.4065503805
21
4.2038000797
31
0.0000000000
11
19.4760646964
21
4.3003425625
31
0.0000000000
11
19.5000000000
21
4.4071067812
31
0.0000000000
0
SPLINE
5
3AB
100
AcDbEntity
8
0
100
AcDbSpline
62
9
6
CONTINUOUS
70
0
71
3
72
10
73
6
74
4
42
0.0000001000
43
0.0000001000
44
0.0000000001
12
0.1833061641
22
-0.1400489101
32
0.0000000000
13
0.0000196394
23
-0.2306834338
33
0.0000000000
40
0.0000000000
40
0.0000000000
40
0.0000000000
40
0.0000000000
40
0.3438503075
40
0.6706320586
40
1.0000000000
40
1.0000000000
40
1.0000000000
40
1.0000000000
10
19.3924836145
20
5.7043109406
30
0.0000000000
10
19.4134935748
20
5.6882589870
30
0.0000000000
10
19.4514087685
20
5.6523744989
30
0.0000000000
10
19.4907236259
20
5.5849017854
30
0.0000000000
10
19.4999978438
20
5.5339779443
30
0.0000000000
10
19.5000000000
20
5.5086513684
30
0.0000000000
11
19.3924836145
21
5.7043109406
31
0.0000000000
11
19.4493375729
21
5.6489992762
31
0.0000000000
11
19.4865238935
21
5.5834264552
31
0.0000000000
11
19.5000000000
21
5.5086513684
31
0.0000000000
0
SPLINE
5
3AC
100
AcDbEntity
8
0
100
AcDbSpline
62
9
6
CONTINUOUS
70
0
71
3
72
12
73
8
74
6
42
0.0000001000
43
0.0000001000
44
0.0000000001
12
0.3334731332
22
-0.5149274834
32
0.0000000000
13
0.4875849604
23
-0.3723110922
33
0.0000000000
40
0.0000000000
40
0.0000000000
40
0.0000000000
40
0.0000000000
40
0.2810948300
40
0.5185999872
40
0.7160984446
40
0.8761336856
40
1.0000000000
40
1.0000000000
40
1.0000000000
40
1.0000000000
10
19.0087262032
20
6.1802704213
30
0.0000000000
10
19.0399720611
20
6.1320226035
30
0.0000000000
10
19.0992902491
20
6.0440730895
30
0.0000000000
10
19.1859990228
20
5.9260197572
30
0.0000000000
10
19.2627051029
20
5.8314697314
30
0.0000000000
10
19.3293263889
20
5.7589326422
30
0.0000000000
10
19.3723518305
20
5.7196832082
30
0.0000000000
10
19.3924836145
20
5.7043109406
30
0.0000000000
11
19.0087262032
21
6.1802704213
31
0.0000000000
11
19.1052974623
21
6.0374019786
31
0.0000000000
11
19.1918578521
21
5.9201971368
31
0.0000000000
11
19.2685688423
21
5.8264134603
31
0.0000000000
11
19.3355190075
21
5.7546039977
31
0.0000000000
11
19.3924836145
21
5.7043109406
31
0.0000000000
0
SPLINE
5
3AD
100
AcDbEntity
8
0
100
AcDbSpline
62
9
6
CONTINUOUS
70
0
71
3
72
12
73
8
74
6
42
0.0000001000
43
0.0000001000
44
0.0000000001
12
0.7391063499
22
-0.2823776696
32
0.0000000000
13
0.7910901266
23
0.0138475773
33
0.0000000000
40
0.0000000000
40
0.0000000000
40
0.0000000000
40
0.0000000000
40
0.2578563394
40
0.4851606276
40
0.6837743980
40
0.8551440188
40
1.0000000000
40
1.0000000000
40
1.0000000000
40
1.0000000000
10
19.0087268191
20
6.1802708966
30
0.0000000000
10
19.0722545717
20
6.1559999392
30
0.0000000000
10
19.1929803848
20
6.1133616695
30
0.0000000000
10
19.3662811672
20
6.0631320487
30
0.0000000000
10
19.5201218886
20
6.0286762204
30
0.0000000000
10
19.6545499651
20
6.0087262086
30
0.0000000000
10
19.7380429803
20
6.0041531702
30
0.0000000000
10
19.7762410258
20
6.0048218050
30
0.0000000000
11
19.0087268191
21
6.1802708966
31
0.0000000000
11
19.2012147180
21
6.1126535816
31
0.0000000000
11
19.3740522752
21
6.0629377537
31
0.0000000000
11
19.5275166134
21
6.0291236552
31
0.0000000000
11
19.6617443203
21
6.0099544684
31
0.0000000000
11
19.7762410258
21
6.0048218050
31
0.0000000000
0
SPLINE
5
3AE
100
AcDbEntity
8
0
100
AcDbSpline
62
9
6
CONTINUOUS
70
0
71
3
72
10
73
6
74
4
42
0.0000001000
43
0.0000001000
44
0.0000000001
12
0.0020336256
22
-0.1890033527
32
0.0000000000
13
-0.1889855765
23
-0.0032946581
33
0.0000000000
40
0.0000000000
40
0.0000000000
40
0.0000000000
40
0.0000000000
40
0.5383075064
40
0.8818207875
40
1.0000000000
40
1.0000000000
40
1.0000000000
40
1.0000000000
10
20.2374033580
20
6.2018657679
30
0.0000000000
10
20.2377682633
20
6.1679517934
30
0.0000000000
10
20.2442184826
20
6.1059587833
30
0.0000000000
10
20.2290589284
20
6.0595675110
30
0.0000000000
10
20.2448480789
20
6.0130012102
30
0.0000000000
10
20.2374033567
20
6.0128714235
30
0.0000000000
11
20.2374033580
21
6.2018657679
31
0.0000000000
11
20.2382580886
21
6.1001215451
31
0.0000000000
11
20.2382580881
21
6.0351926250
31
0.0000000000
11
20.2374033567
21
6.0128714235
31
0.0000000000
0
SPLINE
5
3AF
100
AcDbEntity
8
0
100
AcDbSpline
62
9
6
CONTINUOUS
70
0
71
3
72
10
73
6
74
4
42
0.0000001000
43
0.0000001000
44
0.0000000001
12
0.0020336259
22
0.1890033979
32
0.0000000000
13
-0.1889855510
23
0.0032987653
33
0.0000000000
40
0.0000000000
40
0.0000000000
40
0.0000000000
40
0.0000000000
40
0.5383074110
40
0.8818206906
40
1.0000000000
40
1.0000000000
40
1.0000000000
40
1.0000000000
10
20.2374033567
20
40.7981341875
30
0.0000000000
10
20.2377682620
20
40.8320481641
30
0.0000000000
10
20.2442184794
20
40.8940410377
30
0.0000000000
10
20.2290589276
20
40.9404326916
30
0.0000000000
10
20.2448480840
20
40.9869986279
30
0.0000000000
10
20.2374033567
20
40.9871285765
30
0.0000000000
11
20.2374033567
21
40.7981341875
31
0.0000000000
11
20.2382580875
21
40.8998784163
31
0.0000000000
11
20.2382580875
21
40.9648073514
31
0.0000000000
11
20.2374033567
21
40.9871285765
31
0.0000000000
0
SPLINE
5
3B0
100
AcDbEntity
8
0
100
AcDbSpline
62
9
6
CONTINUOUS
70
0
71
3
72
15
73
11
74
9
42
0.0000001000
43
0.0000001000
44
0.0000000001
12
-0.7911810987
22
0.0137733051
32
0.0000000000
13
-0.7390481505
23
-0.2827809564
33
0.0000000000
40
0.0000000000
40
0.0000000000
40
0.0000000000
40
0.0000000000
40
0.1218886530
40
0.2515374983
40
0.3842353755
40
0.5172130473
40
0.6477485736
40
0.7732675854
40
0.8913831331
40
1.0000000000
40
1.0000000000
40
1.0000000000
40
1.0000000000
10
19.7762410258
20
40.9951781950
30
0.0000000000
10
19.7440956930
20
40.9957377982
30
0.0000000000
10
19.6776792960
20
40.9928214173
30
0.0000000000
10
19.5770438455
20
40.9803041416
30
0.0000000000
10
19.4744684318
20
40.9612765908
30
0.0000000000
10
19.3726927532
20
40.9374070744
30
0.0000000000
10
19.2737473106
20
40.9101335382
30
0.0000000000
10
19.1794950682
20
40.8808089002
30
0.0000000000
10
19.0915788829
20
40.8507195711
30
0.0000000000
10
19.0354839047
20
40.8299673718
30
0.0000000000
10
19.0087262065
20
40.8197291113
30
0.0000000000
11
19.7762410258
21
40.9951781950
31
0.0000000000
11
19.6798541637
21
40.9916720548
31
0.0000000000
11
19.5779987181
21
40.9794068850
31
0.0000000000
11
19.4747132983
21
40.9604872222
31
0.0000000000
11
19.3722355425
21
40.9365981812
31
0.0000000000
11
19.2726338378
21
40.9092317523
31
0.0000000000
11
19.1777797442
21
40.8797729309
31
0.0000000000
11
19.0893421558
21
40.8495324034
31
0.0000000000
11
19.0087262065
21
40.8197291113
31
0.0000000000
0
SPLINE
5
3B1
100
AcDbEntity
8
0
100
AcDbSpline
62
9
6
CONTINUOUS
70
0
71
3
72
10
73
6
74
4
42
0.0000001000
43
0.0000001000
44
0.0000000001
12
0.0025698306
22
0.2373390668
32
0.0000000000
13
-0.2373168299
23
0.0041423799
33
0.0000000000
40
0.0000000000
40
0.0000000000
40
0.0000000000
40
0.0000000000
40
0.5333062712
40
0.8797550666
40
1.0000000000
40
1.0000000000
40
1.0000000000
40
1.0000000000
10
33.0090319188
20
40.5268827122
30
0.0000000000
10
33.0094887544
20
40.5690741831
30
0.0000000000
10
33.0174141005
20
40.6466594726
30
0.0000000000
10
32.9985111170
20
40.7049127572
30
0.0000000000
10
33.0182382520
20
40.7640382736
30
0.0000000000
10
33.0087262032
20
40.7642043070
30
0.0000000000
11
33.0090319188
21
40.5268827122
31
0.0000000000
11
33.0100739052
21
40.6534602556
31
0.0000000000
11
33.0099679765
21
40.7356908409
31
0.0000000000
11
33.0087262032
21
40.7642043070
31
0.0000000000
0
SPLINE
5
3B2
100
AcDbEntity
8
0
100
AcDbSpline
62
9
6
CONTINUOUS
70
0
71
3
72
10
73
6
74
4
42
0.0000001000
43
0.0000001000
44
0.0000000001
12
0.0000022424
22
-0.2306777194
32
0.0000000000
13
-0.1833523870
23
-0.1399789707
33
0.0000000000
40
0.0000000000
40
0.0000000000
40
0.0000000000
40
0.0000000000
40
0.3293831610
40
0.6561625059
40
1.0000000000
40
1.0000000000
40
1.0000000000
40
1.0000000000
10
19.5000000000
20
41.4913486316
30
0.0000000000
10
19.5000002462
20
41.4660215128
30
0.0000000000
10
19.4907287389
20
41.4150922635
30
0.0000000000
10
19.4513789301
20
41.3476485589
30
0.0000000000
10
19.4134980896
20
41.3117323989
30
0.0000000000
10
19.3924836145
20
41.2956890594
30
0.0000000000
11
19.5000000000
21
41.4913486316
31
0.0000000000
11
19.4865219576
21
41.4165722391
31
0.0000000000
11
19.4493214177
21
41.3510102695
31
0.0000000000
11
19.3924836145
21
41.2956890594
31
0.0000000000
0
SPLINE
5
3B3
100
AcDbEntity
8
0
100
AcDbSpline
62
9
6
CONTINUOUS
70
0
71
3
72
8
73
4
74
2
42
0.0000001000
43
0.0000001000
44
0.0000000001
12
0.1535773032
22
-0.0018724728
32
0.0000000000
13
0.1498582788
23
-0.0356181402
33
0.0000000000
40
0.0000000000
40
0.0000000000
40
0.0000000000
40
0.0000000000
40
1.0000000000
40
1.0000000000
40
1.0000000000
40
1.0000000000
10
19.0087262032
20
42.9420904629
30
0.0000000000
10
19.0599186376
20
42.9414663053
30
0.0000000000
10
19.1112327112
20
42.9353710841
30
0.0000000000
10
19.1611854708
20
42.9234983707
30
0.0000000000
11
19.0087262032
21
42.9420904629
31
0.0000000000
11
19.1611854708
21
42.9234983707
31
0.0000000000
0
SPLINE
5
3B4
100
AcDbEntity
8
0
100
AcDbSpline
62
9
6
CONTINUOUS
70
0
71
3
72
11
73
7
74
5
42
0.0000001000
43
0.0000001000
44
0.0000000001
12
0.4949492255
22
-0.1176389520
32
0.0000000000
13
-0.0000000000
23
-0.5072700526
33
0.0000000000
40
0.0000000000
40
0.0000000000
40
0.0000000000
40
0.0000000000
40
0.2880882209
40
0.5507394072
40
0.7854869990
40
1.0000000000
40
1.0000000000
40
1.0000000000
40
1.0000000000
10
19.1611854708
20
42.9234983707
30
0.0000000000
10
19.2087151514
20
42.9122015719
30
0.0000000000
10
19.2972217538
20
42.8806061076
30
0.0000000000
10
19.4081518796
20
42.8042431707
30
0.0000000000
10
19.4820513161
20
42.7059050818
30
0.0000000000
10
19.5000000000
20
42.6291652259
30
0.0000000000
10
19.5000000000
20
42.5928932188
30
0.0000000000
11
19.1611854708
21
42.9234983707
31
0.0000000000
11
19.2983739745
21
42.8731418072
31
0.0000000000
11
19.4069026076
21
42.7958558279
31
0.0000000000
11
19.4763195742
21
42.6991013348
31
0.0000000000
11
19.5000000000
21
42.5928932188
31
0.0000000000
0
SPLINE
5
3B5
100
AcDbEntity
8
0
100
AcDbSpline
62
9
6
CONTINUOUS
70
0
71
3
72
15
73
11
74
9
42
0.0000001000
43
0.0000001000
44
0.0000000001
12
-0.4872032470
22
-0.3728898295
32
0.0000000000
13
-0.3337901622
23
-0.5147795224
33
0.0000000000
40
0.0000000000
40
0.0000000000
40
0.0000000000
40
0.0000000000
40
0.1033775130
40
0.2221096232
40
0.3502510283
40
0.4837896712
40
0.6189534994
40
0.7521965337
40
0.8802081079
40
1.0000000000
40
1.0000000000
40
1.0000000000
40
1.0000000000
10
19.3924836145
20
41.2956890594
30
0.0000000000
10
19.3756949945
20
41.2828395850
30
0.0000000000
10
19.3416485765
20
41.2526054967
30
0.0000000000
10
19.2919993469
20
41.2009338885
30
0.0000000000
10
19.2411051175
20
41.1420530659
30
0.0000000000
10
19.1904341824
20
41.0786392156
30
0.0000000000
10
19.1410594334
20
41.0129060137
30
0.0000000000
10
19.0939492051
20
40.9469197968
30
0.0000000000
10
19.0499549362
20
40.8825938295
30
0.0000000000
10
19.0220546549
20
40.8402845903
30
0.0000000000
10
19.0087262032
20
40.8197291193
30
0.0000000000
11
19.3924836145
21
41.2956890594
31
0.0000000000
11
19.3445571589
21
41.2541468445
31
0.0000000000
11
19.2937880422
21
41.2019077720
31
0.0000000000
11
19.2422101104
21
41.1425738467
31
0.0000000000
11
19.1909632612
21
41.0786505642
31
0.0000000000
11
19.1410957301
21
41.0123932507
31
0.0000000000
11
19.0935574088
21
40.9458887510
31
0.0000000000
11
19.0491954511
21
40.8810790587
31
0.0000000000
11
19.0087262032
21
40.8197291193
31
0.0000000000
0
SPLINE
5
3B6
100
AcDbEntity
8
0
100
AcDbSpline
62
9
6
CONTINUOUS
70
0
71
3
72
10
73
6
74
4
42
0.0000001000
43
0.0000001000
44
0.0000000001
12
-0.2578119396
22
0.2578119396
32
0.0000000000
13
-0.3252591756
23
-0.1647436221
33
0.0000000000
40
0.0000000000
40
0.0000000000
40
0.0000000000
40
0.0000000000
40
0.2726729976
40
0.6009748215
40
1.0000000000
40
1.0000000000
40
1.0000000000
40
1.0000000000
10
19.3535533905
20
42.9464466095
30
0.0000000000
10
19.3301206057
20
42.9698793943
30
0.0000000000
10
19.2598411689
20
43.0034656692
30
0.0000000000
10
19.1355809884
20
42.9957619600
30
0.0000000000
10
19.0519884036
20
42.9640027473
30
0.0000000000
10
19.0087262034
20
42.9420904629
30
0.0000000000
11
19.3535533905
21
42.9464466095
31
0.0000000000
11
19.2654412061
21
42.9924896353
31
0.0000000000
11
19.1457515364
21
42.9909776156
31
0.0000000000
11
19.0087262034
21
42.9420904629
31
0.0000000000
0
SPLINE
5
3B7
100
AcDbEntity
8
0
100
AcDbSpline
62
9
6
CONTINUOUS
70
0
71
3
72
10
73
6
74
4
42
0.0000001000
43
0.0000001000
44
0.0000000001
12
-0.2232069232
22
0.2232069205
32
0.0000000000
13
-0.3009210514
23
-0.0983878670
33
0.0000000000
40
0.0000000000
40
0.0000000000
40
0.0000000000
40
0.0000000000
40
0.3315188124
40
0.7102744102
40
1.0000000000
40
1.0000000000
40
1.0000000000
40
1.0000000000
10
17.8156819837
20
44.4843180163
30
0.0000000000
10
17.7910162190
20
44.5089837807
30
0.0000000000
10
17.7220088557
20
44.5468289433
30
0.0000000000
10
17.6145011007
20
44.5498949976
30
0.0000000000
10
17.5450688255
20
44.5346854882
30
0.0000000000
10
17.5160073158
20
44.5251836606
30
0.0000000000
11
17.8156819837
21
44.4843180163
31
0.0000000000
11
17.7249963917
21
44.5365417880
31
0.0000000000
11
17.6057112652
21
44.5446273517
31
0.0000000000
11
17.5160073158
21
44.5251836606
31
0.0000000000
0
SPLINE
5
3B8
100
AcDbEntity
8
0
100
AcDbSpline
62
9
6
CONTINUOUS
70
0
71
3
72
8
73
4
74
2
42
0.0000001000
43
0.0000001000
44
0.0000000001
12
-0.0461022438
22
-0.0150733938
32
0.0000000000
13
-0.0441179631
23
-0.0198080292
33
0.0000000000
40
0.0000000000
40
0.0000000000
40
0.0000000000
40
0.0000000000
40
1.0000000000
40
1.0000000000
40
1.0000000000
40
1.0000000000
10
17.5160073158
20
44.5251836606
30
0.0000000000
10
17.5006399012
20
44.5201591960
30
0.0000000000
10
17.4855607856
20
44.5143210727
30
0.0000000000
10
17.4708547979
20
44.5077183963
30
0.0000000000
11
17.5160073158
21
44.5251836606
31
0.0000000000
11
17.4708547979
21
44.5077183963
31
0.0000000000
0
SPLINE
5
3B9
100
AcDbEntity
8
0
100
AcDbSpline
62
9
6
CONTINUOUS
70
0
71
3
72
10
73
6
74
4
42
0.0000001000
43
0.0000001000
44
0.0000000001
12
0.1229631382
22
-0.0021463313
32
0.0000000000
13
-0.0012248791
23
-0.1229757683
33
0.0000000000
40
0.0000000000
40
0.0000000000
40
0.0000000000
40
0.0000000000
40
0.1155816923
40
0.4553122933
40
1.0000000000
40
1.0000000000
40
1.0000000000
40
1.0000000000
10
17.4708547979
20
44.6306884717
30
0.0000000000
10
17.4755922271
20
44.6306057795
30
0.0000000000
10
17.4654363400
20
44.6007451064
30
0.0000000000
10
17.4753242898
20
44.5705507931
30
0.0000000000
10
17.4710771901
20
44.5300461927
30
0.0000000000
10
17.4708547979
20
44.5077183963
30
0.0000000000
11
17.4708547979
21
44.6306884717
31
0.0000000000
11
17.4713806228
21
44.6164837483
31
0.0000000000
11
17.4713806228
21
44.5747030443
31
0.0000000000
11
17.4708547979
21
44.5077183963
31
0.0000000000
0
SPLINE
5
3BA
100
AcDbEntity
8
0
100
AcDbSpline
62
9
6
CONTINUOUS
70
0
71
3
72
13
73
9
74
7
42
0.0000001000
43
0.0000001000
44
0.0000000001
12
-0.0004878149
22
0.1226768309
32
0.0000000000
13
0.1226643606
23
-0.0018158782
33
0.0000000000
40
0.0000000000
40
0.0000000000
40
0.0000000000
40
0.0000000000
40
0.2814661730
40
0.5329011876
40
0.7382011592
40
0.8863359864
40
0.9727936600
40
1.0000000000
40
1.0000000000
40
1.0000000000
40
1.0000000000
10
13.6965095187
20
44.5738952237
30
0.0000000000
10
13.6964637509
20
44.5854050164
30
0.0000000000
10
13.6964471610
20
44.6071265838
30
0.0000000000
10
13.6961192412
20
44.6375836630
30
0.0000000000
10
13.6967425360
20
44.6615910169
30
0.0000000000
10
13.6952484561
20
44.6812483689
30
0.0000000000
10
13.6978908369
20
44.6890964216
30
0.0000000000
10
13.6953971026
20
44.6965863814
30
0.0000000000
10
13.6965095187
20
44.6965699136
30
0.0000000000
11
13.6965095187
21
44.5738952237
31
0.0000000000
11
13.6963848155
21
44.6084246495
31
0.0000000000
11
13.6963028665
21
44.6392700351
31
0.0000000000
11
13.6962735191
21
44.6644557670
31
0.0000000000
11
13.6963008008
21
44.6826286012
31
0.0000000000
11
13.6963822926
21
44.6932347254
31
0.0000000000
11
13.6965095187
21
44.6965699136
31
0.0000000000
0
SPLINE
5
3BB
100
AcDbEntity
8
0
100
AcDbSpline
62
0
6
CONTINUOUS
70
0
71
3
72
10
73
6
74
4
42
0.0000001000
43
0.0000001000
44
0.0000000001
12
0.4872214546
22
-0.3231849577
32
0.0000000000
13
0.5846650854
23
0.0000000000
33
0.0000000000
40
0.0000000000
40
0.0000000000
40
0.0000000000
40
0.0000000000
40
0.3318282329
40
0.6682190999
40
1.0000000000
40
1.0000000000
40
1.0000000000
40
1.0000000000
10
95.7239786890
20
0.1666403425
30
0.0000000000
10
95.7778699671
20
0.1308930447
30
0.0000000000
10
95.8937262480
20
0.0693070195
30
0.0000000000
10
96.0814231375
20
0.0127173161
30
0.0000000000
10
96.2120036445
20
-0.0000000000
30
0.0000000000
10
96.2766638806
20
-0.0000000000
30
0.0000000000
11
95.7239786890
21
0.1666403425
31
0.0000000000
11
95.8952942185
21
0.0755895780
31
0.0000000000
11
96.0835979853
21
0.0188168871
31
0.0000000000
11
96.2766638806
21
-0.0000000000
31
0.0000000000
0
SPLINE
5
3BC
100
AcDbEntity
8
0
100
AcDbSpline
62
0
6
CONTINUOUS
70
0
71
3
72
10
73
6
74
4
42
0.0000001000
43
0.0000001000
44
0.0000000001
12
0.5846650854
22
0.0000000000
32
0.0000000000
13
0.4872214546
23
0.3231849577
33
0.0000000000
40
0.0000000000
40
0.0000000000
40
0.0000000000
40
0.0000000000
40
0.3317809001
40
0.6681717671
40
1.0000000000
40
1.0000000000
40
1.0000000000
40
1.0000000000
10
58.6263788370
20
-0.0000000000
30
0.0000000000
10
58.6910390731
20
-0.0000000000
30
0.0000000000
10
58.8216195801
20
0.0127173161
30
0.0000000000
10
59.0093164696
20
0.0693070195
30
0.0000000000
10
59.1251727505
20
0.1308930447
30
0.0000000000
10
59.1790640286
20
0.1666403425
30
0.0000000000
11
58.6263788370
21
-0.0000000000
31
0.0000000000
11
58.8194447323
21
0.0188168871
31
0.0000000000
11
59.0077484991
21
0.0755895780
31
0.0000000000
11
59.1790640286
21
0.1666403425
31
0.0000000000
0
SPLINE
5
3BD
100
AcDbEntity
8
0
100
AcDbSpline
62
0
6
CONTINUOUS
70
0
71
3
72
10
73
6
74
4
42
0.0000001000
43
0.0000001000
44
0.0000000001
12
0.4872214546
22
0.3231849577
32
0.0000000000
13
0.5846650854
23
-0.0000000000
33
0.0000000000
40
0.0000000000
40
0.0000000000
40
0.0000000000
40
0.0000000000
40
0.3318282329
40
0.6682190999
40
1.0000000000
40
1.0000000000
40
1.0000000000
40
1.0000000000
10
95.7239786890
20
46.8333596575
30
0.0000000000
10
95.7778699671
20
46.8691069553
30
0.0000000000
10
95.8937262480
20
46.9306929805
30
0.0000000000
10
96.0814231375
20
46.9872826839
30
0.0000000000
10
96.2120036445
20
47.0000000000
30
0.0000000000
10
96.2766638806
20
47.0000000000
30
0.0000000000
11
95.7239786890
21
46.8333596575
31
0.0000000000
11
95.8952942185
21
46.9244104220
31
0.0000000000
11
96.0835979853
21
46.9811831129
31
0.0000000000
11
96.2766638806
21
47.0000000000
31
0.0000000000
0
SPLINE
5
3BE
100
AcDbEntity
8
0
100
AcDbSpline
62
0
6
CONTINUOUS
70
0
71
3
72
10
73
6
74
4
42
0.0000001000
43
0.0000001000
44
0.0000000001
12
0.5846650854
22
0.0000000000
32
0.0000000000
13
0.4872214546
23
-0.3231849577
33
0.0000000000
40
0.0000000000
40
0.0000000000
40
0.0000000000
40
0.0000000000
40
0.3317809001
40
0.6681717671
40
1.0000000000
40
1.0000000000
40
1.0000000000
40
1.0000000000
10
58.6263788370
20
47.0000000000
30
0.0000000000
10
58.6910390731
20
47.0000000000
30
0.0000000000
10
58.8216195801
20
46.9872826839
30
0.0000000000
10
59.0093164696
20
46.9306929805
30
0.0000000000
10
59.1251727505
20
46.8691069553
30
0.0000000000
10
59.1790640286
20
46.8333596575
30
0.0000000000
11
58.6263788370
21
47.0000000000
31
0.0000000000
11
58.8194447323
21
46.9811831129
31
0.0000000000
11
59.0077484991
21
46.9244104220
31
0.0000000000
11
59.1790640286
21
46.8333596575
31
0.0000000000
0
SPLINE
5
3BF
100
AcDbEntity
8
0
100
AcDbSpline
62
0
6
CONTINUOUS
70
0
71
3
72
10
73
6
74
4
42
0.0000001000
43
0.0000001000
44
0.0000000001
12
0.5846650854
22
0.0000000000
32
0.0000000000
13
0.4872214546
23
0.3231849577
33
0.0000000000
40
0.0000000000
40
0.0000000000
40
0.0000000000
40
0.0000000000
40
0.3317809001
40
0.6681717671
40
1.0000000000
40
1.0000000000
40
1.0000000000
40
1.0000000000
10
103.6263788370
20
-0.0000000000
30
0.0000000000
10
103.6910390731
20
-0.0000000000
30
0.0000000000
10
103.8216195801
20
0.0127173161
30
0.0000000000
10
104.0093164696
20
0.0693070195
30
0.0000000000
10
104.1251727505
20
0.1308930447
30
0.0000000000
10
104.1790640286
20
0.1666403425
30
0.0000000000
11
103.6263788370
21
-0.0000000000
31
0.0000000000
11
103.8194447323
21
0.0188168871
31
0.0000000000
11
104.0077484991
21
0.0755895780
31
0.0000000000
11
104.1790640286
21
0.1666403425
31
0.0000000000
0
SPLINE
5
3C0
100
AcDbEntity
8
0
100
AcDbSpline
62
0
6
CONTINUOUS
70
0
71
3
72
10
73
6
74
4
42
0.0000001000
43
0.0000001000
44
0.0000000001
12
0.4872214546
22
-0.3231849577
32
0.0000000000
13
0.5846650854
23
0.0000000000
33
0.0000000000
40
0.0000000000
40
0.0000000000
40
0.0000000000
40
0.0000000000
40
0.3318282329
40
0.6682190999
40
1.0000000000
40
1.0000000000
40
1.0000000000
40
1.0000000000
10
50.7239786890
20
0.1666403425
30
0.0000000000
10
50.7778699671
20
0.1308930447
30
0.0000000000
10
50.8937262480
20
0.0693070195
30
0.0000000000
10
51.0814231375
20
0.0127173161
30
0.0000000000
10
51.2120036445
20
-0.0000000000
30
0.0000000000
10
51.2766638806
20
-0.0000000000
30
0.0000000000
11
50.7239786890
21
0.1666403425
31
0.0000000000
11
50.8952942185
21
0.0755895780
31
0.0000000000
11
51.0835979853
21
0.0188168871
31
0.0000000000
11
51.2766638806
21
-0.0000000000
31
0.0000000000
0
SPLINE
5
3C1
100
AcDbEntity
8
0
100
AcDbSpline
62
0
6
CONTINUOUS
70
0
71
3
72
10
73
6
74
4
42
0.0000001000
43
0.0000001000
44
0.0000000001
12
0.5846650854
22
0.0000000000
32
0.0000000000
13
0.4872214546
23
-0.3231849577
33
0.0000000000
40
0.0000000000
40
0.0000000000
40
0.0000000000
40
0.0000000000
40
0.3317809001
40
0.6681717671
40
1.0000000000
40
1.0000000000
40
1.0000000000
40
1.0000000000
10
103.6263788370
20
47.0000000000
30
0.0000000000
10
103.6910390731
20
47.0000000000
30
0.0000000000
10
103.8216195801
20
46.9872826839
30
0.0000000000
10
104.0093164696
20
46.9306929805
30
0.0000000000
10
104.1251727505
20
46.8691069553
30
0.0000000000
10
104.1790640286
20
46.8333596575
30
0.0000000000
11
103.6263788370
21
47.0000000000
31
0.0000000000
11
103.8194447323
21
46.9811831129
31
0.0000000000
11
104.0077484991
21
46.9244104220
31
0.0000000000
11
104.1790640286
21
46.8333596575
31
0.0000000000
0
SPLINE
5
3C2
100
AcDbEntity
8
0
100
AcDbSpline
62
0
6
CONTINUOUS
70
0
71
3
72
10
73
6
74
4
42
0.0000001000
43
0.0000001000
44
0.0000000001
12
0.4872214546
22
0.3231849577
32
0.0000000000
13
0.5846650854
23
-0.0000000000
33
0.0000000000
40
0.0000000000
40
0.0000000000
40
0.0000000000
40
0.0000000000
40
0.3318282329
40
0.6682190999
40
1.0000000000
40
1.0000000000
40
1.0000000000
40
1.0000000000
10
50.7239786890
20
46.8333596575
30
0.0000000000
10
50.7778699671
20
46.8691069553
30
0.0000000000
10
50.8937262480
20
46.9306929805
30
0.0000000000
10
51.0814231375
20
46.9872826839
30
0.0000000000
10
51.2120036445
20
47.0000000000
30
0.0000000000
10
51.2766638806
20
47.0000000000
30
0.0000000000
11
50.7239786890
21
46.8333596575
31
0.0000000000
11
50.8952942185
21
46.9244104220
31
0.0000000000
11
51.0835979853
21
46.9811831129
31
0.0000000000
11
51.2766638806
21
47.0000000000
31
0.0000000000
0
SPLINE
5
3C3
100
AcDbEntity
8
0
100
AcDbSpline
62
0
6
CONTINUOUS
70
0
71
3
72
15
73
11
74
9
42
0.0000001000
43
0.0000001000
44
0.0000000001
12
0.0000000000
22
0.7840504620
32
0.0000000000
13
0.7840504609
23
0.0000000000
33
0.0000000000
40
0.0000000000
40
0.0000000000
40
0.0000000000
40
0.0000000000
40
0.1250038016
40
0.2500010661
40
0.3749984375
40
0.4999946546
40
0.6249954755
40
0.7499970461
40
0.8749990664
40
1.0000000000
40
1.0000000000
40
1.0000000000
40
1.0000000000
10
43.8015213588
20
45.3997711479
30
0.0000000000
10
43.8015213588
20
45.4324409107
30
0.0000000000
10
43.8079493262
20
45.4979590819
30
0.0000000000
10
43.8365186679
20
45.5923359231
30
0.0000000000
10
43.8829354687
20
45.6793743968
30
0.0000000000
10
43.9454362686
20
45.7556803131
30
0.0000000000
10
44.0216281198
20
45.8183233834
30
0.0000000000
10
44.1085995530
20
45.8648790007
30
0.0000000000
10
44.2029518263
20
45.8935479691
30
0.0000000000
10
44.2684717459
20
45.9000000000
30
0.0000000000
10
44.3011407591
20
45.9000000000
30
0.0000000000
11
43.8015213588
21
45.3997711479
31
0.0000000000
11
43.8111042645
21
45.4973108244
31
0.0000000000
11
43.8394933388
21
45.5911131505
31
0.0000000000
11
43.8856162007
21
45.6775857703
31
0.0000000000
11
43.9477171239
21
45.7534021953
31
0.0000000000
11
44.0234243532
21
45.8156418764
31
0.0000000000
11
44.1098295828
21
45.8618978383
31
0.0000000000
11
44.2036067104
21
45.8903828722
31
0.0000000000
11
44.3011407591
21
45.9000000000
31
0.0000000000
0
SPLINE
5
3C4
100
AcDbEntity
8
0
100
AcDbSpline
62
0
6
CONTINUOUS
70
0
71
3
72
15
73
11
74
9
42
0.0000001000
43
0.0000001000
44
0.0000000001
12
-0.7840504626
22
0.0000000000
32
0.0000000000
13
0.0000000000
23
0.7840504603
33
0.0000000000
40
0.0000000000
40
0.0000000000
40
0.0000000000
40
0.0000000000
40
0.1250023789
40
0.2500075340
40
0.3750123286
40
0.5000145052
40
0.6250093663
40
0.7500035140
40
0.8749976437
40
1.0000000000
40
1.0000000000
40
1.0000000000
40
1.0000000000
10
44.3011407591
20
1.1000000000
30
0.0000000000
10
44.2684713681
20
1.1000000000
30
0.0000000000
10
44.2029502454
20
1.1064522242
30
0.0000000000
10
44.1085961138
20
1.1351222470
30
0.0000000000
10
44.0216233166
20
1.1816796880
30
0.0000000000
10
43.9454316383
20
1.2443243261
30
0.0000000000
10
43.8829324057
20
1.3206304114
30
0.0000000000
10
43.8365174246
20
1.4076675173
30
0.0000000000
10
43.8079491337
20
1.5020424990
30
0.0000000000
10
43.8015213588
20
1.5675594671
30
0.0000000000
10
43.8015213588
20
1.6002288521
30
0.0000000000
11
44.3011407591
21
1.1000000000
31
0.0000000000
11
44.2036055936
21
1.1096173502
31
0.0000000000
11
44.1098262497
21
1.1381035443
31
0.0000000000
11
44.0234192436
21
1.1843615434
31
0.0000000000
11
43.9477120258
21
1.2466029123
31
0.0000000000
11
43.8856127898
21
1.3224193449
31
0.0000000000
11
43.8394919606
21
1.4088901842
31
0.0000000000
11
43.8111040429
21
1.5026902924
31
0.0000000000
11
43.8015213588
21
1.6002288521
31
0.0000000000
0
SPLINE
5
3C5
100
AcDbEntity
8
0
100
AcDbSpline
62
0
6
CONTINUOUS
70
0
71
3
72
15
73
11
74
9
42
0.0000001000
43
0.0000001000
44
0.0000000001
12
0.7840504626
22
0.0000000000
32
0.0000000000
13
-0.0000000000
23
-0.7840504603
33
0.0000000000
40
0.0000000000
40
0.0000000000
40
0.0000000000
40
0.0000000000
40
0.1250023789
40
0.2500075340
40
0.3750123286
40
0.5000145052
40
0.6250093663
40
0.7500035140
40
0.8749976437
40
1.0000000000
40
1.0000000000
40
1.0000000000
40
1.0000000000
10
110.6019019585
20
45.9000000000
30
0.0000000000
10
110.6345713495
20
45.9000000000
30
0.0000000000
10
110.7000924722
20
45.8935477758
30
0.0000000000
10
110.7944466038
20
45.8648777530
30
0.0000000000
10
110.8814194010
20
45.8183203120
30
0.0000000000
10
110.9576110793
20
45.7556756739
30
0.0000000000
10
111.0201103119
20
45.6793695886
30
0.0000000000
10
111.0665252930
20
45.5923324827
30
0.0000000000
10
111.0950935839
20
45.4979575010
30
0.0000000000
10
111.1015213588
20
45.4324405329
30
0.0000000000
10
111.1015213588
20
45.3997711479
30
0.0000000000
11
110.6019019585
21
45.9000000000
31
0.0000000000
11
110.6994371240
21
45.8903826498
31
0.0000000000
11
110.7932164679
21
45.8618964557
31
0.0000000000
11
110.8796234740
21
45.8156384566
31
0.0000000000
11
110.9553306918
21
45.7533970877
31
0.0000000000
11
111.0174299278
21
45.6775806551
31
0.0000000000
11
111.0635507570
21
45.5911098158
31
0.0000000000
11
111.0919386747
21
45.4973097076
31
0.0000000000
11
111.1015213588
21
45.3997711479
31
0.0000000000
0
SPLINE
5
3C6
100
AcDbEntity
8
0
100
AcDbSpline
62
0
6
CONTINUOUS
70
0
71
3
72
15
73
11
74
9
42
0.0000001000
43
0.0000001000
44
0.0000000001
12
0.0000000000
22
-0.7840504620
32
0.0000000000
13
-0.7840504609
23
-0.0000000000
33
0.0000000000
40
0.0000000000
40
0.0000000000
40
0.0000000000
40
0.0000000000
40
0.1250038016
40
0.2500010661
40
0.3749984375
40
0.4999946546
40
0.6249954755
40
0.7499970461
40
0.8749990664
40
1.0000000000
40
1.0000000000
40
1.0000000000
40
1.0000000000
10
111.1015213588
20
1.6002288521
30
0.0000000000
10
111.1015213588
20
1.5675590893
30
0.0000000000
10
111.0950933914
20
1.5020409181
30
0.0000000000
10
111.0665240497
20
1.4076640769
30
0.0000000000
10
111.0201072489
20
1.3206256032
30
0.0000000000
10
110.9576064490
20
1.2443196869
30
0.0000000000
10
110.8814145978
20
1.1816766166
30
0.0000000000
10
110.7944431646
20
1.1351209993
30
0.0000000000
10
110.7000908913
20
1.1064520309
30
0.0000000000
10
110.6345709717
20
1.1000000000
30
0.0000000000
10
110.6019019585
20
1.1000000000
30
0.0000000000
11
111.1015213588
21
1.6002288521
31
0.0000000000
11
111.0919384531
21
1.5026891756
31
0.0000000000
11
111.0635493788
21
1.4088868495
31
0.0000000000
11
111.0174265169
21
1.3224142297
31
0.0000000000
11
110.9553255937
21
1.2465978047
31
0.0000000000
11
110.8796183644
21
1.1843581236
31
0.0000000000
11
110.7932131348
21
1.1381021617
31
0.0000000000
11
110.6994360072
21
1.1096171278
31
0.0000000000
11
110.6019019585
21
1.1000000000
31
0.0000000000
0
SPLINE
5
3C7
100
AcDbEntity
8
0
100
AcDbSpline
62
0
6
CONTINUOUS
70
0
71
3
72
12
73
8
74
6
42
0.0000001000
43
0.0000001000
44
0.0000000001
12
0.2984866202
22
0.2985615561
32
0.0000000000
13
0.3087416581
23
0.2880117640
33
0.0000000000
40
0.0000000000
40
0.0000000000
40
0.0000000000
40
0.0000000000
40
0.2626563802
40
0.5204949386
40
0.7505695636
40
0.9257261620
40
1.0000000000
40
1.0000000000
40
1.0000000000
40
1.0000000000
10
98.8015213588
20
28.4529717831
30
0.0000000000
10
98.8276544972
20
28.4791114823
30
0.0000000000
10
98.8794814209
20
28.5308711255
30
0.0000000000
10
98.9542840186
20
28.6054450184
30
0.0000000000
10
99.0206089561
20
28.6710767870
30
0.0000000000
10
99.0684453954
20
28.7186767108
30
0.0000000000
10
99.0938775495
20
28.7428694203
30
0.0000000000
10
99.1015213588
20
28.7500000000
30
0.0000000000
11
98.8015213588
21
28.4529717831
31
0.0000000000
11
98.8799729029
21
28.5313387305
31
0.0000000000
11
98.9571008688
21
28.6081524864
31
0.0000000000
11
99.0260676339
21
28.6765501791
31
0.0000000000
11
99.0787801237
21
28.7284111511
31
0.0000000000
11
99.1015213588
21
28.7500000000
31
0.0000000000
0
SPLINE
5
3C8
100
AcDbEntity
8
0
100
AcDbSpline
62
0
6
CONTINUOUS
70
0
71
3
72
12
73
8
74
6
42
0.0000001000
43
0.0000001000
44
0.0000000001
12
0.3023219038
22
0.3023762679
32
0.0000000000
13
0.2865218652
23
0.3175239182
33
0.0000000000
40
0.0000000000
40
0.0000000000
40
0.0000000000
40
0.0000000000
40
0.2615692142
40
0.5189265639
40
0.7491360411
40
0.9250418547
40
1.0000000000
40
1.0000000000
40
1.0000000000
40
1.0000000000
10
99.6515213588
20
15.7453472083
30
0.0000000000
10
99.6778807264
20
15.7717113159
30
0.0000000000
10
99.7301115357
20
15.8240778414
30
0.0000000000
10
99.8054122817
20
15.8997797004
30
0.0000000000
10
99.8717316287
20
15.9671830106
30
0.0000000000
10
99.9200303099
20
16.0158678479
30
0.0000000000
10
99.9443623096
20
16.0420663320
30
0.0000000000
10
99.9515213588
20
16.0500000000
30
0.0000000000
11
99.6515213588
21
15.7453472083
31
0.0000000000
11
99.7305176867
21
15.8245212068
31
0.0000000000
11
99.8080651808
21
15.9025963375
31
0.0000000000
11
99.8772171032
21
15.9726487530
31
0.0000000000
11
99.9297452459
21
16.0264825213
31
0.0000000000
11
99.9515213588
21
16.0500000000
31
0.0000000000
0
SPLINE
5
3C9
100
AcDbEntity
8
0
100
AcDbSpline
62
0
6
CONTINUOUS
70
0
71
3
72
12
73
8
74
6
42
0.0000001000
43
0.0000001000
44
0.0000000001
12
0.2984866202
22
-0.2985615561
32
0.0000000000
13
0.3087416581
23
-0.2880117640
33
0.0000000000
40
0.0000000000
40
0.0000000000
40
0.0000000000
40
0.0000000000
40
0.2626563802
40
0.5204949386
40
0.7505695636
40
0.9257261620
40
1.0000000000
40
1.0000000000
40
1.0000000000
40
1.0000000000
10
99.6515213588
20
18.5470282169
30
0.0000000000
10
99.6776544972
20
18.5208885177
30
0.0000000000
10
99.7294814209
20
18.4691288745
30
0.0000000000
10
99.8042840186
20
18.3945549816
30
0.0000000000
10
99.8706089561
20
18.3289232130
30
0.0000000000
10
99.9184453954
20
18.2813232892
30
0.0000000000
10
99.9438775495
20
18.2571305797
30
0.0000000000
10
99.9515213588
20
18.2500000000
30
0.0000000000
11
99.6515213588
21
18.5470282169
31
0.0000000000
11
99.7299729029
21
18.4686612695
31
0.0000000000
11
99.8071008688
21
18.3918475136
31
0.0000000000
11
99.8760676339
21
18.3234498209
31
0.0000000000
11
99.9287801237
21
18.2715888489
31
0.0000000000
11
99.9515213588
21
18.2500000000
31
0.0000000000
0
SPLINE
5
3CA
100
AcDbEntity
8
0
100
AcDbSpline
62
0
6
CONTINUOUS
70
0
71
3
72
12
73
8
74
6
42
0.0000001000
43
0.0000001000
44
0.0000000001
12
-0.3023219038
22
0.3023762679
32
0.0000000000
13
-0.2865218652
23
0.3175239182
33
0.0000000000
40
0.0000000000
40
0.0000000000
40
0.0000000000
40
0.0000000000
40
0.2615692142
40
0.5189265639
40
0.7491360411
40
0.9250418547
40
1.0000000000
40
1.0000000000
40
1.0000000000
40
1.0000000000
10
107.2515213588
20
15.7453472083
30
0.0000000000
10
107.2251619912
20
15.7717113159
30
0.0000000000
10
107.1729311819
20
15.8240778414
30
0.0000000000
10
107.0976304359
20
15.8997797004
30
0.0000000000
10
107.0313110889
20
15.9671830106
30
0.0000000000
10
106.9830124077
20
16.0158678479
30
0.0000000000
10
106.9586804080
20
16.0420663320
30
0.0000000000
10
106.9515213588
20
16.0500000000
30
0.0000000000
11
107.2515213588
21
15.7453472083
31
0.0000000000
11
107.1725250309
21
15.8245212068
31
0.0000000000
11
107.0949775368
21
15.9025963375
31
0.0000000000
11
107.0258256144
21
15.9726487530
31
0.0000000000
11
106.9732974717
21
16.0264825213
31
0.0000000000
11
106.9515213588
21
16.0500000000
31
0.0000000000
0
SPLINE
5
3CB
100
AcDbEntity
8
0
100
AcDbSpline
62
0
6
CONTINUOUS
70
0
71
3
72
12
73
8
74
6
42
0.0000001000
43
0.0000001000
44
0.0000000001
12
-0.2984866377
22
-0.2985615738
32
0.0000000000
13
-0.3087745873
23
-0.2879766165
33
0.0000000000
40
0.0000000000
40
0.0000000000
40
0.0000000000
40
0.0000000000
40
0.2612345032
40
0.5197799551
40
0.7510894526
40
0.9264313226
40
1.0000000000
40
1.0000000000
40
1.0000000000
40
1.0000000000
10
107.2515213588
20
18.5470282169
30
0.0000000000
10
107.2255296893
20
18.5210300221
30
0.0000000000
10
107.1737740652
20
18.4693413703
30
0.0000000000
10
107.0989205832
20
18.3947148594
30
0.0000000000
10
107.0323817502
20
18.3288737532
30
0.0000000000
10
106.9844759113
20
18.2812007740
30
0.0000000000
10
106.9590934048
20
18.2570620196
30
0.0000000000
10
106.9515213588
20
18.2500000000
30
0.0000000000
11
107.2515213588
21
18.5470282169
31
0.0000000000
11
107.1734947968
21
18.4690852069
31
0.0000000000
11
107.0961559093
21
18.3920603127
31
0.0000000000
11
107.0268189916
21
18.3232954923
31
0.0000000000
11
106.9740494581
21
18.2713809664
31
0.0000000000
11
106.9515213588
21
18.2500000000
31
0.0000000000
0
SPLINE
5
3CC
100
AcDbEntity
8
0
100
AcDbSpline
62
0
6
CONTINUOUS
70
0
71
3
72
12
73
8
74
6
42
0.0000001000
43
0.0000001000
44
0.0000000001
12
0.3008613644
22
-0.3009462391
32
0.0000000000
13
0.2950216309
23
-0.3066928343
33
0.0000000000
40
0.0000000000
40
0.0000000000
40
0.0000000000
40
0.0000000000
40
0.2606714862
40
0.5188761122
40
0.7501951184
40
0.9259980428
40
1.0000000000
40
1.0000000000
40
1.0000000000
40
1.0000000000
10
46.5515213588
20
26.5018010806
30
0.0000000000
10
46.5776633518
20
26.4756517128
30
0.0000000000
10
46.6296757909
20
26.4235763861
30
0.0000000000
10
46.7048377453
20
26.3482469984
30
0.0000000000
10
46.7713584750
20
26.2813031384
30
0.0000000000
10
46.8195420371
20
26.2329698279
30
0.0000000000
10
46.8442439661
20
26.2075652900
30
0.0000000000
10
46.8515213588
20
26.2000000000
30
0.0000000000
11
46.5515213588
21
26.5018010806
31
0.0000000000
11
46.6299164310
21
26.4233220913
31
0.0000000000
11
46.7075031114
21
26.3455194131
31
0.0000000000
11
46.7769308867
21
26.2757380991
31
0.0000000000
11
46.8295809262
21
26.2225897743
31
0.0000000000
11
46.8515213588
21
26.2000000000
31
0.0000000000
0
SPLINE
5
3CD
100
AcDbEntity
8
0
100
AcDbSpline
62
0
6
CONTINUOUS
70
0
71
3
72
12
73
8
74
6
42
0.0000001000
43
0.0000001000
44
0.0000000001
12
0.3008613644
22
0.3009462391
32
0.0000000000
13
0.2950216309
23
0.3066928343
33
0.0000000000
40
0.0000000000
40
0.0000000000
40
0.0000000000
40
0.0000000000
40
0.2606714862
40
0.5188761122
40
0.7501951184
40
0.9259980428
40
1.0000000000
40
1.0000000000
40
1.0000000000
40
1.0000000000
10
46.5515213588
20
20.4981989194
30
0.0000000000
10
46.5776633518
20
20.5243482872
30
0.0000000000
10
46.6296757909
20
20.5764236139
30
0.0000000000
10
46.7048377453
20
20.6517530016
30
0.0000000000
10
46.7713584750
20
20.7186968616
30
0.0000000000
10
46.8195420371
20
20.7670301721
30
0.0000000000
10
46.8442439661
20
20.7924347100
30
0.0000000000
10
46.8515213588
20
20.8000000000
30
0.0000000000
11
46.5515213588
21
20.4981989194
31
0.0000000000
11
46.6299164310
21
20.5766779087
31
0.0000000000
11
46.7075031114
21
20.6544805869
31
0.0000000000
11
46.7769308867
21
20.7242619009
31
0.0000000000
11
46.8295809262
21
20.7774102257
31
0.0000000000
11
46.8515213588
21
20.8000000000
31
0.0000000000
0
SPLINE
5
3CE
100
AcDbEntity
8
0
100
AcDbSpline
62
0
6
CONTINUOUS
70
0
71
3
72
12
73
8
74
6
42
0.0000001000
43
0.0000001000
44
0.0000000001
12
-0.2984866202
22
-0.2985615561
32
0.0000000000
13
-0.3087416581
23
-0.2880117640
33
0.0000000000
40
0.0000000000
40
0.0000000000
40
0.0000000000
40
0.0000000000
40
0.2626563802
40
0.5204949386
40
0.7505695636
40
0.9257261620
40
1.0000000000
40
1.0000000000
40
1.0000000000
40
1.0000000000
10
65.2515213588
20
18.5470282169
30
0.0000000000
10
65.2253882204
20
18.5208885177
30
0.0000000000
10
65.1735612967
20
18.4691288745
30
0.0000000000
10
65.0987586990
20
18.3945549816
30
0.0000000000
10
65.0324337615
20
18.3289232130
30
0.0000000000
10
64.9845973222
20
18.2813232892
30
0.0000000000
10
64.9591651681
20
18.2571305797
30
0.0000000000
10
64.9515213588
20
18.2500000000
30
0.0000000000
11
65.2515213588
21
18.5470282169
31
0.0000000000
11
65.1730698147
21
18.4686612695
31
0.0000000000
11
65.0959418488
21
18.3918475136
31
0.0000000000
11
65.0269750837
21
18.3234498209
31
0.0000000000
11
64.9742625939
21
18.2715888489
31
0.0000000000
11
64.9515213588
21
18.2500000000
31
0.0000000000
0
SPLINE
5
3CF
100
AcDbEntity
8
0
100
AcDbSpline
62
0
6
CONTINUOUS
70
0
71
3
72
12
73
8
74
6
42
0.0000001000
43
0.0000001000
44
0.0000000001
12
0.2984866202
22
-0.2985615561
32
0.0000000000
13
0.3087416581
23
-0.2880117640
33
0.0000000000
40
0.0000000000
40
0.0000000000
40
0.0000000000
40
0.0000000000
40
0.2626563802
40
0.5204949386
40
0.7505695636
40
0.9257261620
40
1.0000000000
40
1.0000000000
40
1.0000000000
40
1.0000000000
10
57.6515213588
20
18.5470282169
30
0.0000000000
10
57.6776544972
20
18.5208885177
30
0.0000000000
10
57.7294814209
20
18.4691288745
30
0.0000000000
10
57.8042840186
20
18.3945549816
30
0.0000000000
10
57.8706089561
20
18.3289232130
30
0.0000000000
10
57.9184453954
20
18.2813232892
30
0.0000000000
10
57.9438775495
20
18.2571305797
30
0.0000000000
10
57.9515213588
20
18.2500000000
30
0.0000000000
11
57.6515213588
21
18.5470282169
31
0.0000000000
11
57.7299729029
21
18.4686612695
31
0.0000000000
11
57.8071008688
21
18.3918475136
31
0.0000000000
11
57.8760676339
21
18.3234498209
31
0.0000000000
11
57.9287801237
21
18.2715888489
31
0.0000000000
11
57.9515213588
21
18.2500000000
31
0.0000000000
0
SPLINE
5
3D0
100
AcDbEntity
8
0
100
AcDbSpline
62
0
6
CONTINUOUS
70
0
71
3
72
12
73
8
74
6
42
0.0000001000
43
0.0000001000
44
0.0000000001
12
0.3023219613
22
0.3023763250
32
0.0000000000
13
0.2864434706
23
0.3175951098
33
0.0000000000
40
0.0000000000
40
0.0000000000
40
0.0000000000
40
0.0000000000
40
0.2594744949
40
0.5178669927
40
0.7499043871
40
0.9260888396
40
1.0000000000
40
1.0000000000
40
1.0000000000
40
1.0000000000
10
57.6515213588
20
15.7453472083
30
0.0000000000
10
57.6776696382
20
15.7715001897
30
0.0000000000
10
57.7297940695
20
15.8237595271
30
0.0000000000
10
57.8051741857
20
15.8995370062
30
0.0000000000
10
57.8718048826
20
15.9672619609
30
0.0000000000
10
57.9202146379
20
16.0160498245
30
0.0000000000
10
57.9444642357
20
16.0421753923
30
0.0000000000
10
57.9515213588
20
16.0500000000
30
0.0000000000
11
57.6515213588
21
15.7453472083
31
0.0000000000
11
57.7298857457
21
15.8238865070
31
0.0000000000
11
57.8077463709
21
15.9022744930
31
0.0000000000
11
57.8774474251
21
15.9728831189
31
0.0000000000
11
57.9300559153
21
16.0268049700
31
0.0000000000
11
57.9515213588
21
16.0500000000
31
0.0000000000
0
SPLINE
5
3D1
100
AcDbEntity
8
0
100
AcDbSpline
62
0
6
CONTINUOUS
70
0
71
3
72
12
73
8
74
6
42
0.0000001000
43
0.0000001000
44
0.0000000001
12
-0.3023219613
22
0.3023763250
32
0.0000000000
13
-0.2864434706
23
0.3175951098
33
0.0000000000
40
0.0000000000
40
0.0000000000
40
0.0000000000
40
0.0000000000
40
0.2594744949
40
0.5178669927
40
0.7499043871
40
0.9260888396
40
1.0000000000
40
1.0000000000
40
1.0000000000
40
1.0000000000
10
65.2515213588
20
15.7453472083
30
0.0000000000
10
65.2253730794
20
15.7715001897
30
0.0000000000
10
65.1732486481
20
15.8237595271
30
0.0000000000
10
65.0978685319
20
15.8995370062
30
0.0000000000
10
65.0312378350
20
15.9672619609
30
0.0000000000
10
64.9828280797
20
16.0160498245
30
0.0000000000
10
64.9585784819
20
16.0421753923
30
0.0000000000
10
64.9515213588
20
16.0500000000
30
0.0000000000
11
65.2515213588
21
15.7453472083
31
0.0000000000
11
65.1731569719
21
15.8238865070
31
0.0000000000
11
65.0952963467
21
15.9022744930
31
0.0000000000
11
65.0255952925
21
15.9728831189
31
0.0000000000
11
64.9729868023
21
16.0268049700
31
0.0000000000
11
64.9515213588
21
16.0500000000
31
0.0000000000
0
SPLINE
5
3D2
100
AcDbEntity
8
0
100
AcDbSpline
62
0
6
CONTINUOUS
70
0
71
3
72
12
73
8
74
6
42
0.0000001000
43
0.0000001000
44
0.0000000001
12
-0.3023219613
22
-0.3023763250
32
0.0000000000
13
-0.2864434706
23
-0.3175951098
33
0.0000000000
40
0.0000000000
40
0.0000000000
40
0.0000000000
40
0.0000000000
40
0.2594744949
40
0.5178669927
40
0.7499043871
40
0.9260888396
40
1.0000000000
40
1.0000000000
40
1.0000000000
40
1.0000000000
10
66.1015213588
20
31.2546527917
30
0.0000000000
10
66.0753730794
20
31.2284998103
30
0.0000000000
10
66.0232486481
20
31.1762404729
30
0.0000000000
10
65.9478685319
20
31.1004629938
30
0.0000000000
10
65.8812378350
20
31.0327380391
30
0.0000000000
10
65.8328280797
20
30.9839501755
30
0.0000000000
10
65.8085784819
20
30.9578246077
30
0.0000000000
10
65.8015213588
20
30.9500000000
30
0.0000000000
11
66.1015213588
21
31.2546527917
31
0.0000000000
11
66.0231569719
21
31.1761134930
31
0.0000000000
11
65.9452963467
21
31.0977255070
31
0.0000000000
11
65.8755952925
21
31.0271168811
31
0.0000000000
11
65.8229868023
21
30.9731950300
31
0.0000000000
11
65.8015213588
21
30.9500000000
31
0.0000000000
0
SPLINE
5
3D3
100
AcDbEntity
8
0
100
AcDbSpline
62
0
6
CONTINUOUS
70
0
71
3
72
12
73
8
74
6
42
0.0000001000
43
0.0000001000
44
0.0000000001
12
0.3023219613
22
-0.3023763250
32
0.0000000000
13
0.2864434706
23
-0.3175951098
33
0.0000000000
40
0.0000000000
40
0.0000000000
40
0.0000000000
40
0.0000000000
40
0.2594744949
40
0.5178669927
40
0.7499043871
40
0.9260888396
40
1.0000000000
40
1.0000000000
40
1.0000000000
40
1.0000000000
10
56.8015213588
20
31.2546527917
30
0.0000000000
10
56.8276696382
20
31.2284998103
30
0.0000000000
10
56.8797940695
20
31.1762404729
30
0.0000000000
10
56.9551741857
20
31.1004629938
30
0.0000000000
10
57.0218048826
20
31.0327380391
30
0.0000000000
10
57.0702146379
20
30.9839501755
30
0.0000000000
10
57.0944642357
20
30.9578246077
30
0.0000000000
10
57.1015213588
20
30.9500000000
30
0.0000000000
11
56.8015213588
21
31.2546527917
31
0.0000000000
11
56.8798857457
21
31.1761134930
31
0.0000000000
11
56.9577463709
21
31.0977255070
31
0.0000000000
11
57.0274474251
21
31.0271168811
31
0.0000000000
11
57.0800559153
21
30.9731950300
31
0.0000000000
11
57.1015213588
21
30.9500000000
31
0.0000000000
0
SPLINE
5
3D4
100
AcDbEntity
8
0
100
AcDbSpline
62
0
6
CONTINUOUS
70
0
71
3
72
12
73
8
74
6
42
0.0000001000
43
0.0000001000
44
0.0000000001
12
0.2984866377
22
0.2985615738
32
0.0000000000
13
0.3087745873
23
0.2879766165
33
0.0000000000
40
0.0000000000
40
0.0000000000
40
0.0000000000
40
0.0000000000
40
0.2612345032
40
0.5197799551
40
0.7510894526
40
0.9264313226
40
1.0000000000
40
1.0000000000
40
1.0000000000
40
1.0000000000
10
56.8015213588
20
28.4529717831
30
0.0000000000
10
56.8275130283
20
28.4789699779
30
0.0000000000
10
56.8792686524
20
28.5306586297
30
0.0000000000
10
56.9541221344
20
28.6052851406
30
0.0000000000
10
57.0206609674
20
28.6711262468
30
0.0000000000
10
57.0685668063
20
28.7187992260
30
0.0000000000
10
57.0939493128
20
28.7429379804
30
0.0000000000
10
57.1015213588
20
28.7500000000
30
0.0000000000
11
56.8015213588
21
28.4529717831
31
0.0000000000
11
56.8795479208
21
28.5309147931
31
0.0000000000
11
56.9568868083
21
28.6079396873
31
0.0000000000
11
57.0262237260
21
28.6767045077
31
0.0000000000
11
57.0789932595
21
28.7286190336
31
0.0000000000
11
57.1015213588
21
28.7500000000
31
0.0000000000
0
SPLINE
5
3D5
100
AcDbEntity
8
0
100
AcDbSpline
62
0
6
CONTINUOUS
70
0
71
3
72
12
73
8
74
6
42
0.0000001000
43
0.0000001000
44
0.0000000001
12
-0.2984866202
22
0.2985615561
32
0.0000000000
13
-0.3087416581
23
0.2880117640
33
0.0000000000
40
0.0000000000
40
0.0000000000
40
0.0000000000
40
0.0000000000
40
0.2626563802
40
0.5204949386
40
0.7505695636
40
0.9257261620
40
1.0000000000
40
1.0000000000
40
1.0000000000
40
1.0000000000
10
66.1015213588
20
28.4529717831
30
0.0000000000
10
66.0753882204
20
28.4791114823
30
0.0000000000
10
66.0235612967
20
28.5308711255
30
0.0000000000
10
65.9487586990
20
28.6054450184
30
0.0000000000
10
65.8824337615
20
28.6710767870
30
0.0000000000
10
65.8345973222
20
28.7186767108
30
0.0000000000
10
65.8091651681
20
28.7428694203
30
0.0000000000
10
65.8015213588
20
28.7500000000
30
0.0000000000
11
66.1015213588
21
28.4529717831
31
0.0000000000
11
66.0230698147
21
28.5313387305
31
0.0000000000
11
65.9459418488
21
28.6081524864
31
0.0000000000
11
65.8769750837
21
28.6765501791
31
0.0000000000
11
65.8242625939
21
28.7284111511
31
0.0000000000
11
65.8015213588
21
28.7500000000
31
0.0000000000
0
SPLINE
5
3D6
100
AcDbEntity
8
0
100
AcDbSpline
62
0
6
CONTINUOUS
70
0
71
3
72
12
73
8
74
6
42
0.0000001000
43
0.0000001000
44
0.0000000001
12
0.3008613644
22
-0.3009462391
32
0.0000000000
13
0.2950216309
23
-0.3066928343
33
0.0000000000
40
0.0000000000
40
0.0000000000
40
0.0000000000
40
0.0000000000
40
0.2606714862
40
0.5188761122
40
0.7501951184
40
0.9259980428
40
1.0000000000
40
1.0000000000
40
1.0000000000
40
1.0000000000
10
88.5515213588
20
26.5018010806
30
0.0000000000
10
88.5776633518
20
26.4756517128
30
0.0000000000
10
88.6296757909
20
26.4235763861
30
0.0000000000
10
88.7048377453
20
26.3482469984
30
0.0000000000
10
88.7713584750
20
26.2813031384
30
0.0000000000
10
88.8195420371
20
26.2329698279
30
0.0000000000
10
88.8442439661
20
26.2075652900
30
0.0000000000
10
88.8515213588
20
26.2000000000
30
0.0000000000
11
88.5515213588
21
26.5018010806
31
0.0000000000
11
88.6299164310
21
26.4233220913
31
0.0000000000
11
88.7075031114
21
26.3455194131
31
0.0000000000
11
88.7769308867
21
26.2757380991
31
0.0000000000
11
88.8295809262
21
26.2225897743
31
0.0000000000
11
88.8515213588
21
26.2000000000
31
0.0000000000
0
SPLINE
5
3D7
100
AcDbEntity
8
0
100
AcDbSpline
62
0
6
CONTINUOUS
70
0
71
3
72
12
73
8
74
6
42
0.0000001000
43
0.0000001000
44
0.0000000001
12
0.3008613644
22
0.3009462391
32
0.0000000000
13
0.2950216309
23
0.3066928343
33
0.0000000000
40
0.0000000000
40
0.0000000000
40
0.0000000000
40
0.0000000000
40
0.2606714862
40
0.5188761122
40
0.7501951184
40
0.9259980428
40
1.0000000000
40
1.0000000000
40
1.0000000000
40
1.0000000000
10
88.5515213588
20
20.4981989194
30
0.0000000000
10
88.5776633518
20
20.5243482872
30
0.0000000000
10
88.6296757909
20
20.5764236139
30
0.0000000000
10
88.7048377453
20
20.6517530016
30
0.0000000000
10
88.7713584750
20
20.7186968616
30
0.0000000000
10
88.8195420371
20
20.7670301721
30
0.0000000000
10
88.8442439661
20
20.7924347100
30
0.0000000000
10
88.8515213588
20
20.8000000000
30
0.0000000000
11
88.5515213588
21
20.4981989194
31
0.0000000000
11
88.6299164310
21
20.5766779087
31
0.0000000000
11
88.7075031114
21
20.6544805869
31
0.0000000000
11
88.7769308867
21
20.7242619009
31
0.0000000000
11
88.8295809262
21
20.7774102257
31
0.0000000000
11
88.8515213588
21
20.8000000000
31
0.0000000000
0
SPLINE
5
3D8
100
AcDbEntity
8
0
100
AcDbSpline
62
0
6
CONTINUOUS
70
0
71
3
72
12
73
8
74
6
42
0.0000001000
43
0.0000001000
44
0.0000000001
12
-0.2984866377
22
0.2985615738
32
0.0000000000
13
-0.3087745873
23
0.2879766165
33
0.0000000000
40
0.0000000000
40
0.0000000000
40
0.0000000000
40
0.0000000000
40
0.2612345032
40
0.5197799551
40
0.7510894526
40
0.9264313226
40
1.0000000000
40
1.0000000000
40
1.0000000000
40
1.0000000000
10
108.1015213588
20
28.4529717831
30
0.0000000000
10
108.0755296893
20
28.4789699779
30
0.0000000000
10
108.0237740652
20
28.5306586297
30
0.0000000000
10
107.9489205832
20
28.6052851406
30
0.0000000000
10
107.8823817502
20
28.6711262468
30
0.0000000000
10
107.8344759113
20
28.7187992260
30
0.0000000000
10
107.8090934048
20
28.7429379804
30
0.0000000000
10
107.8015213588
20
28.7500000000
30
0.0000000000
11
108.1015213588
21
28.4529717831
31
0.0000000000
11
108.0234947968
21
28.5309147931
31
0.0000000000
11
107.9461559093
21
28.6079396873
31
0.0000000000
11
107.8768189916
21
28.6767045077
31
0.0000000000
11
107.8240494581
21
28.7286190336
31
0.0000000000
11
107.8015213588
21
28.7500000000
31
0.0000000000
0
SPLINE
5
3D9
100
AcDbEntity
8
0
100
AcDbSpline
62
0
6
CONTINUOUS
70
0
71
3
72
12
73
8
74
6
42
0.0000001000
43
0.0000001000
44
0.0000000001
12
-0.3023219038
22
-0.3023762679
32
0.0000000000
13
-0.2865218652
23
-0.3175239182
33
0.0000000000
40
0.0000000000
40
0.0000000000
40
0.0000000000
40
0.0000000000
40
0.2615692142
40
0.5189265639
40
0.7491360411
40
0.9250418547
40
1.0000000000
40
1.0000000000
40
1.0000000000
40
1.0000000000
10
108.1015213588
20
31.2546527917
30
0.0000000000
10
108.0751619912
20
31.2282886841
30
0.0000000000
10
108.0229311819
20
31.1759221586
30
0.0000000000
10
107.9476304359
20
31.1002202996
30
0.0000000000
10
107.8813110889
20
31.0328169894
30
0.0000000000
10
107.8330124077
20
30.9841321521
30
0.0000000000
10
107.8086804080
20
30.9579336680
30
0.0000000000
10
107.8015213588
20
30.9500000000
30
0.0000000000
11
108.1015213588
21
31.2546527917
31
0.0000000000
11
108.0225250309
21
31.1754787932
31
0.0000000000
11
107.9449775368
21
31.0974036625
31
0.0000000000
11
107.8758256144
21
31.0273512470
31
0.0000000000
11
107.8232974717
21
30.9735174787
31
0.0000000000
11
107.8015213588
21
30.9500000000
31
0.0000000000
0
SPLINE
5
3DA
100
AcDbEntity
8
0
100
AcDbSpline
62
0
6
CONTINUOUS
70
0
71
3
72
12
73
8
74
6
42
0.0000001000
43
0.0000001000
44
0.0000000001
12
0.3023219613
22
-0.3023763250
32
0.0000000000
13
0.2864434706
23
-0.3175951098
33
0.0000000000
40
0.0000000000
40
0.0000000000
40
0.0000000000
40
0.0000000000
40
0.2594744949
40
0.5178669927
40
0.7499043871
40
0.9260888396
40
1.0000000000
40
1.0000000000
40
1.0000000000
40
1.0000000000
10
98.8015213588
20
31.2546527917
30
0.0000000000
10
98.8276696382
20
31.2284998103
30
0.0000000000
10
98.8797940695
20
31.1762404729
30
0.0000000000
10
98.9551741857
20
31.1004629938
30
0.0000000000
10
99.0218048826
20
31.0327380391
30
0.0000000000
10
99.0702146379
20
30.9839501755
30
0.0000000000
10
99.0944642357
20
30.9578246077
30
0.0000000000
10
99.1015213588
20
30.9500000000
30
0.0000000000
11
98.8015213588
21
31.2546527917
31
0.0000000000
11
98.8798857457
21
31.1761134930
31
0.0000000000
11
98.9577463709
21
31.0977255070
31
0.0000000000
11
99.0274474251
21
31.0271168811
31
0.0000000000
11
99.0800559153
21
30.9731950300
31
0.0000000000
11
99.1015213588
21
30.9500000000
31
0.0000000000
0
SPLINE
5
3DB
100
AcDbEntity
8
0
100
AcDbSpline
62
0
6
CONTINUOUS
70
0
71
3
72
11
73
7
74
5
42
0.0000001000
43
0.0000001000
44
0.0000000001
12
0.0000000000
22
-0.0998014300
32
0.0000000000
13
-0.0005592789
23
-0.0998008261
33
0.0000000000
40
0.0000000000
40
0.0000000000
40
0.0000000000
40
0.0000000000
40
0.2117726890
40
0.5125175404
40
0.8754392395
40
1.0000000000
40
1.0000000000
40
1.0000000000
40
1.0000000000
10
33.5000000000
20
36.9765253366
30
0.0000000000
10
33.5000000000
20
36.9694802642
30
0.0000000000
10
33.5004613661
20
36.9524339877
30
0.0000000000
10
33.5005141930
20
36.9233086574
30
0.0000000000
10
33.5001891966
20
36.8970886849
30
0.0000000000
10
33.5000660842
20
36.8808717853
30
0.0000000000
10
33.5000428628
20
36.8767280297
30
0.0000000000
11
33.5000000000
21
36.9765253366
31
0.0000000000
11
33.5003077827
21
36.9553923605
31
0.0000000000
11
33.5004460253
21
36.9253779124
31
0.0000000000
11
33.5001340841
21
36.8891591508
31
0.0000000000
11
33.5000428628
21
36.8767280297
31
0.0000000000
0
SPLINE
5
3DC
100
AcDbEntity
8
0
100
AcDbSpline
62
0
6
CONTINUOUS
70
0
71
3
72
8
73
4
74
2
42
0.0000001000
43
0.0000001000
44
0.0000000001
12
-0.0000735036
22
-0.0131163921
32
0.0000000000
13
-0.0000073851
23
-0.0131165454
33
0.0000000000
40
0.0000000000
40
0.0000000000
40
0.0000000000
40
0.0000000000
40
1.0000000000
40
1.0000000000
40
1.0000000000
40
1.0000000000
10
33.5000428628
20
36.8767280297
30
0.0000000000
10
33.5000183616
20
36.8723558990
30
0.0000000000
10
33.5000030295
20
36.8679837252
30
0.0000000000
10
33.5000005678
20
36.8636115434
30
0.0000000000
11
33.5000428628
21
36.8767280297
31
0.0000000000
11
33.5000005678
21
36.8636115434
31
0.0000000000
0
SPLINE
5
3DD
100
AcDbEntity
8
0
100
AcDbSpline
62
0
6
CONTINUOUS
70
0
71
3
72
10
73
6
74
4
42
0.0000001000
43
0.0000001000
44
0.0000000001
12
-4.0000360307
22
-0.0287443499
32
0.0000000000
13
-3.9999639245
23
-0.0374577371
33
0.0000000000
40
0.0000000000
40
0.0000000000
40
0.0000000000
40
0.0000000000
40
0.3308206703
40
0.6641622673
40
1.0000000000
40
1.0000000000
40
1.0000000000
40
1.0000000000
10
13.5000000000
20
0.8701333974
30
0.0000000000
10
13.0589017997
20
0.8669636557
30
0.0000000000
10
12.1733467430
20
0.8602320685
30
0.0000000000
10
10.8400133789
20
0.8490955944
30
0.0000000000
10
9.9477796051
20
0.8410266185
30
0.0000000000
10
9.5000000000
20
0.8368333780
30
0.0000000000
11
13.5000000000
21
0.8701333974
31
0.0000000000
11
12.1767093255
21
0.8600926689
31
0.0000000000
11
10.8433428882
21
0.8489703711
31
0.0000000000
11
9.5000000000
21
0.8368333780
31
0.0000000000
0
SPLINE
5
3DE
100
AcDbEntity
8
0
100
AcDbSpline
62
0
6
CONTINUOUS
70
0
71
3
72
10
73
6
74
4
42
0.0000001000
43
0.0000001000
44
0.0000000001
12
-4.0000360307
22
0.0287443499
32
0.0000000000
13
-3.9999639245
23
0.0374577371
33
0.0000000000
40
0.0000000000
40
0.0000000000
40
0.0000000000
40
0.0000000000
40
0.3308206703
40
0.6641622673
40
1.0000000000
40
1.0000000000
40
1.0000000000
40
1.0000000000
10
13.5000000000
20
46.1298666026
30
0.0000000000
10
13.0589017997
20
46.1330363443
30
0.0000000000
10
12.1733467430
20
46.1397679315
30
0.0000000000
10
10.8400133789
20
46.1509044056
30
0.0000000000
10
9.9477796051
20
46.1589733815
30
0.0000000000
10
9.5000000000
20
46.1631666220
30
0.0000000000
11
13.5000000000
21
46.1298666026
31
0.0000000000
11
12.1767093255
21
46.1399073311
31
0.0000000000
11
10.8433428882
21
46.1510296289
31
0.0000000000
11
9.5000000000
21
46.1631666220
31
0.0000000000
0
SPLINE
5
3DF
100
AcDbEntity
8
0
100
AcDbSpline
62
0
6
CONTINUOUS
70
0
71
3
72
11
73
7
74
5
42
0.0000001000
43
0.0000001000
44
0.0000000001
12
-0.0000701810
22
-0.1246433754
32
0.0000000000
13
0.0134432122
23
-0.1239237888
33
0.0000000000
40
0.0000000000
40
0.0000000000
40
0.0000000000
40
0.0000000000
40
0.0970304997
40
0.4020976907
40
0.7080642817
40
1.0000000000
40
1.0000000000
40
1.0000000000
40
1.0000000000
10
33.5000005678
20
36.8636115434
30
0.0000000000
10
33.4999982979
20
36.8595801404
30
0.0000000000
10
33.5000342370
20
36.8428738411
30
0.0000000000
10
33.5005161709
20
36.8134559080
30
0.0000000000
10
33.5023201328
20
36.7759750909
30
0.0000000000
10
33.5044683933
20
36.7512198244
30
0.0000000000
10
33.5057765779
20
36.7391605643
30
0.0000000000
11
33.5000005678
21
36.8636115434
31
0.0000000000
11
33.5000294869
21
36.8515173414
31
0.0000000000
11
33.5007161764
21
36.8134991519
31
0.0000000000
11
33.5025979273
21
36.7754091113
31
0.0000000000
11
33.5057765779
21
36.7391605643
31
0.0000000000
0
SPLINE
5
3E0
100
AcDbEntity
8
0
100
AcDbSpline
62
0
6
CONTINUOUS
70
0
71
3
72
9
73
5
74
3
42
0.0000001000
43
0.0000001000
44
0.0000000001
12
0.0066210482
22
-0.0610349172
32
0.0000000000
13
0.0113670538
23
-0.0603274174
33
0.0000000000
40
0.0000000000
40
0.0000000000
40
0.0000000000
40
0.0000000000
40
0.5388431980
40
1.0000000000
40
1.0000000000
40
1.0000000000
40
1.0000000000
10
33.5057765779
20
36.7391605643
30
0.0000000000
10
33.5069658135
20
36.7281978143
30
0.0000000000
10
33.5095704530
20
36.7078956457
30
0.0000000000
10
33.5129733125
20
36.6877119432
30
0.0000000000
10
33.5147206439
20
36.6784384769
30
0.0000000000
11
33.5057765779
21
36.7391605643
31
0.0000000000
11
33.5100045628
21
36.7063528403
31
0.0000000000
11
33.5147206439
21
36.6784384769
31
0.0000000000
0
SPLINE
5
3E1
100
AcDbEntity
8
0
100
AcDbSpline
62
0
6
CONTINUOUS
70
0
71
3
72
10
73
6
74
4
42
0.0000001000
43
0.0000001000
44
0.0000000001
12
-3.9999099467
22
0.0844306543
32
0.0000000000
13
-4.0000789575
23
0.0760029932
33
0.0000000000
40
0.0000000000
40
0.0000000000
40
0.0000000000
40
0.0000000000
40
0.3308274198
40
0.6641688634
40
1.0000000000
40
1.0000000000
40
1.0000000000
40
1.0000000000
10
13.5000000000
20
46.5998904748
30
0.0000000000
10
13.0589067043
20
46.6092011333
30
0.0000000000
10
12.1733605793
20
46.6275357671
30
0.0000000000
10
10.8400261996
20
46.6541717891
30
0.0000000000
10
9.9477836876
20
46.6714005046
30
0.0000000000
10
9.5000000000
20
46.6799085618
30
0.0000000000
11
13.5000000000
21
46.5998904748
31
0.0000000000
11
12.1767093253
21
46.6273066284
31
0.0000000000
11
10.8433428884
21
46.6539577341
31
0.0000000000
11
9.5000000000
21
46.6799085618
31
0.0000000000
0
SPLINE
5
3E2
100
AcDbEntity
8
0
100
AcDbSpline
62
0
6
CONTINUOUS
70
0
71
3
72
8
73
4
74
2
42
0.0000001000
43
0.0000001000
44
0.0000000001
12
0.0087882330
22
0.0461372976
32
0.0000000000
13
0.0172422726
23
0.0439100652
33
0.0000000000
40
0.0000000000
40
0.0000000000
40
0.0000000000
40
0.0000000000
40
1.0000000000
40
1.0000000000
40
1.0000000000
40
1.0000000000
10
13.5035322849
20
2.1408829593
30
0.0000000000
10
13.5064616959
20
2.1562620585
30
0.0000000000
10
13.5110544674
20
2.1713276117
30
0.0000000000
10
13.5168018916
20
2.1859643001
30
0.0000000000
11
13.5035322849
21
2.1408829593
31
0.0000000000
11
13.5168018916
21
2.1859643001
31
0.0000000000
0
SPLINE
5
3E3
100
AcDbEntity
8
0
100
AcDbSpline
62
0
6
CONTINUOUS
70
0
71
3
72
11
73
7
74
5
42
0.0000001000
43
0.0000001000
44
0.0000000001
12
0.0979092514
22
0.2493407753
32
0.0000000000
13
0.1821538090
23
0.1948022290
33
0.0000000000
40
0.0000000000
40
0.0000000000
40
0.0000000000
40
0.0000000000
40
0.0933319453
40
0.4023838088
40
0.7502983778
40
1.0000000000
40
1.0000000000
40
1.0000000000
40
1.0000000000
10
13.5168018916
20
2.1859643001
30
0.0000000000
10
13.5198479119
20
2.1937214533
30
0.0000000000
10
13.5343785143
20
2.2266456798
30
0.0000000000
10
13.5700886425
20
2.2832673639
30
0.0000000000
10
13.6215535405
20
2.3454685419
30
0.0000000000
10
13.6575278606
20
2.3845647872
30
0.0000000000
10
13.6726892278
20
2.4007789314
30
0.0000000000
11
13.5168018916
21
2.1859643001
31
0.0000000000
11
13.5268371788
21
2.2088572163
31
0.0000000000
11
13.5695718927
21
2.2793370207
31
0.0000000000
11
13.6278238489
21
2.3515614893
31
0.0000000000
11
13.6726892278
21
2.4007789314
31
0.0000000000
0
SPLINE
5
3E4
100
AcDbEntity
8
0
100
AcDbSpline
62
0
6
CONTINUOUS
70
0
71
3
72
8
73
4
74
2
42
0.0000001000
43
0.0000001000
44
0.0000000001
12
0.0237462411
22
0.0253951362
32
0.0000000000
13
0.0238618950
23
0.0252865446
33
0.0000000000
40
0.0000000000
40
0.0000000000
40
0.0000000000
40
0.0000000000
40
1.0000000000
40
1.0000000000
40
1.0000000000
40
1.0000000000
10
13.6726892278
20
2.4007789314
30
0.0000000000
10
13.6806046415
20
2.4092439768
30
0.0000000000
10
13.6885555537
20
2.4176759281
30
0.0000000000
10
13.6965095187
20
2.4261047763
30
0.0000000000
11
13.6726892278
21
2.4007789314
31
0.0000000000
11
13.6965095187
21
2.4261047763
31
0.0000000000
0
SPLINE
5
3E5
100
AcDbEntity
8
0
100
AcDbSpline
62
0
6
CONTINUOUS
70
0
71
3
72
9
73
5
74
3
42
0.0000001000
43
0.0000001000
44
0.0000000001
12
-0.0916878312
22
0.0971860238
32
0.0000000000
13
-0.0856603701
23
0.1025630161
33
0.0000000000
40
0.0000000000
40
0.0000000000
40
0.0000000000
40
0.0000000000
40
0.6127597432
40
1.0000000000
40
1.0000000000
40
1.0000000000
40
1.0000000000
10
13.6965095194
20
44.5738952237
30
0.0000000000
10
13.6777819821
20
44.5937457847
30
0.0000000000
10
13.6472465892
20
44.6261707731
30
0.0000000000
10
13.6178680306
20
44.6596650155
30
0.0000000000
10
13.6068109827
20
44.6729038584
30
0.0000000000
11
13.6965095194
21
44.5738952237
31
0.0000000000
11
13.6407946249
21
44.6338847174
31
0.0000000000
11
13.6068109827
21
44.6729038584
31
0.0000000000
0
SPLINE
5
3E6
100
AcDbEntity
8
0
100
AcDbSpline
62
0
6
CONTINUOUS
70
0
71
3
72
11
73
7
74
5
42
0.0000001000
43
0.0000001000
44
0.0000000001
12
-0.1378070793
22
0.1649993971
32
0.0000000000
13
-0.0402204208
23
0.2111509807
33
0.0000000000
40
0.0000000000
40
0.0000000000
40
0.0000000000
40
0.0000000000
40
0.1155317585
40
0.4416142926
40
0.7353977707
40
1.0000000000
40
1.0000000000
40
1.0000000000
40
1.0000000000
10
13.6068109827
20
44.6729038584
30
0.0000000000
10
13.6015039513
20
44.6792580819
30
0.0000000000
10
13.5814994479
20
44.7037832350
30
0.0000000000
10
13.5503707751
20
44.7464198871
30
0.0000000000
10
13.5197336043
20
44.8021350786
30
0.0000000000
10
13.5070797559
20
44.8404933673
30
0.0000000000
10
13.5035322849
20
44.8591170407
30
0.0000000000
11
13.6068109827
21
44.6729038584
31
0.0000000000
11
13.5911268540
21
44.6921640700
31
0.0000000000
11
13.5503226955
21
44.7491528015
31
0.0000000000
11
13.5205741502
21
44.8048546531
31
0.0000000000
11
13.5035322849
21
44.8591170407
31
0.0000000000
0
SPLINE
5
3E7
100
AcDbEntity
8
0
100
AcDbSpline
62
0
6
CONTINUOUS
70
0
71
3
72
10
73
6
74
4
42
0.0000001000
43
0.0000001000
44
0.0000000001
12
-3.9999099467
22
-0.0844306543
32
0.0000000000
13
-4.0000789575
23
-0.0760029932
33
0.0000000000
40
0.0000000000
40
0.0000000000
40
0.0000000000
40
0.0000000000
40
0.3308274198
40
0.6641688634
40
1.0000000000
40
1.0000000000
40
1.0000000000
40
1.0000000000
10
13.5000000000
20
0.4001095252
30
0.0000000000
10
13.0589067043
20
0.3907988667
30
0.0000000000
10
12.1733605793
20
0.3724642329
30
0.0000000000
10
10.8400261996
20
0.3458282109
30
0.0000000000
10
9.9477836876
20
0.3285994954
30
0.0000000000
10
9.5000000000
20
0.3200914382
30
0.0000000000
11
13.5000000000
21
0.4001095252
31
0.0000000000
11
12.1767093253
21
0.3726933716
31
0.0000000000
11
10.8433428884
21
0.3460422659
31
0.0000000000
11
9.5000000000
21
0.3200914382
31
0.0000000000
0
SPLINE
5
3E8
100
AcDbEntity
8
0
100
AcDbSpline
62
0
6
CONTINUOUS
70
0
71
3
72
13
73
9
74
7
42
0.0000001000
43
0.0000001000
44
0.0000000001
12
0.4955760332
22
-0.4870766899
32
0.0000000000
13
0.4600647796
23
-0.5211500425
33
0.0000000000
40
0.0000000000
40
0.0000000000
40
0.0000000000
40
0.0000000000
40
0.2179821607
40
0.4369715270
40
0.6424732538
40
0.8194446517
40
0.9483227042
40
1.0000000000
40
1.0000000000
40
1.0000000000
40
1.0000000000
10
24.0087262032
20
36.7913486316
30
0.0000000000
10
24.0447351147
20
36.7559572885
30
0.0000000000
10
24.1168593577
20
36.6849494961
30
0.0000000000
10
24.2226561295
20
36.5803008302
30
0.0000000000
10
24.3215727161
20
36.4821950704
30
0.0000000000
10
24.4050409471
20
36.3981809361
30
0.0000000000
10
24.4638069210
20
36.3397958285
30
0.0000000000
10
24.4920750321
20
36.3089772083
30
0.0000000000
10
24.5000000000
20
36.3000000000
30
0.0000000000
11
24.0087262032
21
36.7913486316
31
0.0000000000
11
24.1166513904
21
36.6850713818
31
0.0000000000
11
24.2248533183
21
36.5780781578
31
0.0000000000
11
24.3261290757
21
36.4774104457
31
0.0000000000
11
24.4130077196
21
36.3903812238
31
0.0000000000
11
24.4757781712
21
36.3265093585
31
0.0000000000
11
24.5000000000
21
36.3000000000
31
0.0000000000
0
SPLINE
5
3E9
100
AcDbEntity
8
0
100
AcDbSpline
62
0
6
CONTINUOUS
70
0
71
3
72
13
73
9
74
7
42
0.0000001000
43
0.0000001000
44
0.0000000001
12
0.4955760332
22
0.4870766899
32
0.0000000000
13
0.4600647796
23
0.5211500425
33
0.0000000000
40
0.0000000000
40
0.0000000000
40
0.0000000000
40
0.0000000000
40
0.2179821607
40
0.4369715270
40
0.6424732538
40
0.8194446517
40
0.9483227042
40
1.0000000000
40
1.0000000000
40
1.0000000000
40
1.0000000000
10
24.0087262032
20
26.8086513684
30
0.0000000000
10
24.0447351147
20
26.8440427115
30
0.0000000000
10
24.1168593577
20
26.9150505039
30
0.0000000000
10
24.2226561295
20
27.0196991698
30
0.0000000000
10
24.3215727161
20
27.1178049296
30
0.0000000000
10
24.4050409471
20
27.2018190639
30
0.0000000000
10
24.4638069210
20
27.2602041715
30
0.0000000000
10
24.4920750321
20
27.2910227917
30
0.0000000000
10
24.5000000000
20
27.3000000000
30
0.0000000000
11
24.0087262032
21
26.8086513684
31
0.0000000000
11
24.1166513904
21
26.9149286182
31
0.0000000000
11
24.2248533183
21
27.0219218422
31
0.0000000000
11
24.3261290757
21
27.1225895543
31
0.0000000000
11
24.4130077196
21
27.2096187762
31
0.0000000000
11
24.4757781712
21
27.2734906415
31
0.0000000000
11
24.5000000000
21
27.3000000000
31
0.0000000000
0
ENDSEC
0
SECTION
2
OBJECTS
0
DICTIONARY
5
C
100
AcDbDictionary
280
0
281
1
3
ACAD_GROUP
350
D
3
ACAD_MLINESTYLE
350
17
3
ACAD_LAYOUT
350
1A
3
ACAD_PLOTSETTINGS
350
19
3
ACAD_PLOTSTYLENAME
350
E
0
DICTIONARY
5
D
102
{ACAD_REACTORS
330
C
102
}
100
AcDbDictionary
280
0
281
1
0
ACDBDICTIONARYWDFLT
5
E
102
{ACAD_REACTORS
330
C
102
}
100
AcDbDictionary
281
1
3
Normal
350
F
100
AcDbDictionaryWithDefault
340
F
0
DICTIONARY
5
17
102
{ACAD_REACTORS
330
C
102
}
100
AcDbDictionary
280
0
281
1
3
Standard
350
18
0
DICTIONARY
5
19
102
{ACAD_REACTORS
330
C
102
}
100
AcDbDictionary
281
1
0
DICTIONARY
5
1A
102
{ACAD_REACTORS
330
C
102
}
100
AcDbDictionary
281
1
3
Layout1
350
1E
3
Model
350
22
0
ACDBPLACEHOLDER
5
F
102
{ACAD_REACTORS
330
E
102
}
0
MLINESTYLE
5
18
102
{ACAD_REACTORS
330
17
102
}
100
AcDbMlineStyle
2
STANDARD
70
0
3

62
256
51
90.0
52
90.0
71
2
49
0.5
62
256
6
BYLAYER
49
-0.5
62
256
6
BYLAYER
0
LAYOUT
5
1E
102
{ACAD_REACTORS
330
1A
102
}
100
AcDbPlotSettings
1

2

4

6

40
0.0
41
0.0
42
0.0
43
0.0
44
0.0
45
0.0
46
0.0
47
0.0
48
0.0
49
0.0
140
0.0
141
0.0
142
1.0
143
1.0
70
0
72
0
73
0
74
0
7

75
0
147
1.0
148
0.0
149
0.0
100
AcDbLayout
1
Layout1
70
0
71
0
10
0.0
20
0.0
11
0.0
21
0.0
12
0.0
22
0.0
32
0.0
14
0.0
24
0.0
34
0.0
15
0.0
25
0.0
35
0.0
146
0.0
13
0.0
23
0.0
33
0.0
16
0.0
26
0.0
36
0.0
17
0.0
27
0.0
37
0.0
76
0
330
1B
331
0
345
0
346
0
0
LAYOUT
5
22
102
{ACAD_REACTORS
330
1A
102
}
100
AcDbPlotSettings
1

2

4

6

40
0.0
41
0.0
42
0.0
43
0.0
44
0.0
45
0.0
46
0.0
47
0.0
48
0.0
49
0.0
140
0.0
141
0.0
142
1.0
143
1.0
70
0
72
0
73
0
74
0
7

75
0
147
1.0
148
0.0
149
0.0
100
AcDbLayout
1
Model
70
0
71
0
10
0.0
20
0.0
11
0.0
21
0.0
12
0.0
22
0.0
32
0.0
14
0.0
24
0.0
34
0.0
15
0.0
25
0.0
35
0.0
146
0.0
13
0.0
23
0.0
33
0.0
16
0.0
26
0.0
36
0.0
17
0.0
27
0.0
37
0.0
76
0
330
1F
331
0
345
0
346
0
0
ENDSEC
0
EOF
