  0
SECTION
  2
HEADER
  9
$ACADVER
  1
AC1015
  9
$DWGCODEPAGE
  3
ANSI_1252
  9
$EXTMAX
 10
297.0
 20
210.0
 30
0.0
  9
$EXTMIN
 10
0.0
 20
0.0
 30
0.0
  9
$LIMMIN
 10
0.0
 20
0.0
  9
$LIMMAX
 10
297.0
 20
210.0
  9
$VIEWCTR
 10
148.5
 20
105.0
  9
$VIEWSIZE
 40
210.0
  9
$CLAYER
  8
0
  9
$LTSCALE
 40
16.335
  9
$CELTYPE
  6
BYLAYER
  9
$DIMSCALE
 40
1.0
  9
$DIMASZ
 40
3.0
  9
$DIMEXO
 40
1.85625
  9
$DIMDLI
 40
11.286
  9
$DIMEXE
 40
5.346
  9
$DIMCEN
 40
2.673
  9
$DIMLFAC
 40
1.0
  9
$DIMBLK
  1
_FILLED
  9
$DIMTXT
 40
3.0
  9
$DIMTOL
 70
1
  9
$DIMLIM
 70
0
  9
$DIMTFAC
 40
1.0
  9
$DIMTP
 40
0.01
  9
$DIMTM
 40
0.01
  9
$PDMODE
 70
3
  9
$PDSIZE
 40
3.0
  9
$HANDSEED
  5
4FD
  9
$TILEMODE
 70
1
  9
$MEASUREMENT
 70
1
  9
$INSUNITS
 70
4
  0
ENDSEC
  0
SECTION
  2
CLASSES
  0
CLASS
  1
ACDBDICTIONARYWDFLT
  2
AcDbDictionaryWithDefault
  3
AutoCAD 2000
 90
0
280
0
281
0
  0
CLASS
  1
ACDBPLACEHOLDER
  2
AcDbPlaceHolder
  3
AutoCAD 2000
 90
0
280
0
281
0
  0
CLASS
  1
LAYOUT
  2
AcDbLayout
  3
AutoCAD 2000
 90
0
280
0
281
0
  0
ENDSEC
  0
SECTION
  2
TABLES
  0
TABLE
  2
VPORT
  5
8
100
AcDbSymbolTable
 70
2
  0
VPORT
  5
1F4
100
AcDbSymbolTableRecord
100
AcDbViewportTableRecord
  2
*ACTIVE
 70
0
 10
0.0
 20
0.0
 11
1.0
 21
1.0
 12
148.5
 22
105.0
 13
0.0
 23
0.0
 14
1.0
 24
1.0
 15
0.0
 25
0.0
 16
0.0
 26
0.0
 36
1.0
 17
0.0
 27
0.0
 37
0.0
 40
210.0
 41
1.4142857143
 42
50.0
 43
0.0
 44
0.0
 50
0.0
 51
0.0
 71
0
 72
100
 73
1
 74
1
 75
0
 76
0
 77
0
 78
0
  0
ENDTAB
  0
TABLE
  2
LTYPE
  5
5
100
AcDbSymbolTable
 70
6
  0
LTYPE
  5
14
100
AcDbSymbolTableRecord
100
AcDbLinetypeTableRecord
  2
BYBLOCK
 70
0
  3

 72
65
 73
0
 40
0.0
  0
LTYPE
  5
15
100
AcDbSymbolTableRecord
100
AcDbLinetypeTableRecord
  2
BYLAYER
 70
0
  3

 72
65
 73
0
 40
0.0
  0
LTYPE
  5
16
100
AcDbSymbolTableRecord
100
AcDbLinetypeTableRecord
  2
CONTINUOUS
 70
64
  3
Solid line
 72
65
 73
0
 40
0.0
  0
LTYPE
  5
1F5
100
AcDbSymbolTableRecord
100
AcDbLinetypeTableRecord
  2
CENTER
 70
64
  3
____ _ ____ _ ____ _ ____ _ ____ _ ____ _ ____
 72
65
 73
4
 40
0.6
 49
0.375
 74
0
 49
-0.075
 74
0
 49
0.075
 74
0
 49
-0.075
 74
0
  0
LTYPE
  5
1F6
100
AcDbSymbolTableRecord
100
AcDbLinetypeTableRecord
  2
HIDDEN
 70
64
  3
- - - - - - - - - - - - - - - - - - - -
 72
65
 73
2
 40
0.2
 49
0.1
 74
0
 49
-0.1
 74
0
  0
LTYPE
  5
1F7
100
AcDbSymbolTableRecord
100
AcDbLinetypeTableRecord
  2
PHANTOM
 70
64
  3
_____ _ _ _____ _ _ _____ _ _ _____
 72
65
 73
6
 40
0.8
 49
0.45
 74
0
 49
-0.05
 74
0
 49
0.1
 74
0
 49
-0.05
 74
0
 49
0.1
 74
0
 49
-0.05
 74
0
  0
LTYPE
  5
1F8
100
AcDbSymbolTableRecord
100
AcDbLinetypeTableRecord
  2
DOT
 70
64
  3
. . . . . . . . . . . . . . . . . . . .
 72
65
 73
2
 40
0.2
 49
0.1
 74
0
 49
-0.1
 74
0
  0
LTYPE
  5
1F9
100
AcDbSymbolTableRecord
100
AcDbLinetypeTableRecord
  2
DASHED
 70
64
  3
- - - - - - - - - - - - - - - - - - - -
 72
65
 73
2
 40
0.2
 49
0.1
 74
0
 49
-0.1
 74
0
  0
ENDTAB
  0
TABLE
  2
LAYER
  5
2
100
AcDbSymbolTable
 70
36
  0
LAYER
  5
10
100
AcDbSymbolTableRecord
100
AcDbLayerTableRecord
  2
0
 70
0
 62
7
  6
CONTINUOUS
370
-3
390
F
  0
LAYER
  5
1FA
100
AcDbSymbolTableRecord
100
AcDbLayerTableRecord
  2
DEFAULT_1
 70
0
 62
7
  6
CENTER
370
-3
390
F
  0
LAYER
  5
1FB
100
AcDbSymbolTableRecord
100
AcDbLayerTableRecord
  2
DEFAULT_2
 70
0
 62
7
  6
HIDDEN
370
-3
390
F
  0
LAYER
  5
1FC
100
AcDbSymbolTableRecord
100
AcDbLayerTableRecord
  2
DEFAULT_3
 70
0
 62
7
  6
PHANTOM
370
-3
390
F
  0
LAYER
  5
1FD
100
AcDbSymbolTableRecord
100
AcDbLayerTableRecord
  2
ASSI
 70
0
 62
7
  6
CONTINUOUS
370
-3
390
F
  0
LAYER
  5
1FE
100
AcDbSymbolTableRecord
100
AcDbLayerTableRecord
  2
COLORE_TOP
 70
0
 62
7
  6
CONTINUOUS
370
-3
390
F
  0
LAYER
  5
1FF
100
AcDbSymbolTableRecord
100
AcDbLayerTableRecord
  2
COORDINATE
 70
0
 62
7
  6
CONTINUOUS
370
-3
390
F
  0
LAYER
  5
200
100
AcDbSymbolTableRecord
100
AcDbLayerTableRecord
  2
COORD_ORIGINE
 70
0
 62
7
  6
CONTINUOUS
370
-3
390
F
  0
LAYER
  5
201
100
AcDbSymbolTableRecord
100
AcDbLayerTableRecord
  2
COPY_PUBLISH
 70
0
 62
7
  6
CONTINUOUS
370
-3
390
F
  0
LAYER
  5
202
100
AcDbSymbolTableRecord
100
AcDbLayerTableRecord
  2
COSMETIC
 70
0
 62
7
  6
CONTINUOUS
370
-3
390
F
  0
LAYER
  5
203
100
AcDbSymbolTableRecord
100
AcDbLayerTableRecord
  2
COSMETICHE
 70
0
 62
7
  6
CONTINUOUS
370
-3
390
F
  0
LAYER
  5
204
100
AcDbSymbolTableRecord
100
AcDbLayerTableRecord
  2
CURVE
 70
0
 62
7
  6
CONTINUOUS
370
-3
390
F
  0
LAYER
  5
205
100
AcDbSymbolTableRecord
100
AcDbLayerTableRecord
  2
DRAFT
 70
0
 62
7
  6
CONTINUOUS
370
-3
390
F
  0
LAYER
  5
206
100
AcDbSymbolTableRecord
100
AcDbLayerTableRecord
  2
IMPORT
 70
0
 62
7
  6
CONTINUOUS
370
-3
390
F
  0
LAYER
  5
207
100
AcDbSymbolTableRecord
100
AcDbLayerTableRecord
  2
IMPORTED
 70
0
 62
7
  6
CONTINUOUS
370
-3
390
F
  0
LAYER
  5
208
100
AcDbSymbolTableRecord
100
AcDbLayerTableRecord
  2
IMPORT_IGES
 70
0
 62
7
  6
CONTINUOUS
370
-3
390
F
  0
LAYER
  5
209
100
AcDbSymbolTableRecord
100
AcDbLayerTableRecord
  2
NOTE
 70
0
 62
7
  6
CONTINUOUS
370
-3
390
F
  0
LAYER
  5
20A
100
AcDbSymbolTableRecord
100
AcDbLayerTableRecord
  2
PIANI
 70
0
 62
7
  6
CONTINUOUS
370
-3
390
F
  0
LAYER
  5
20B
100
AcDbSymbolTableRecord
100
AcDbLayerTableRecord
  2
PIANI_DI_RIFERIMENTO
 70
0
 62
7
  6
CONTINUOUS
370
-3
390
F
  0
LAYER
  5
20C
100
AcDbSymbolTableRecord
100
AcDbLayerTableRecord
  2
PIANI_ORIGINE
 70
0
 62
7
  6
CONTINUOUS
370
-3
390
F
  0
LAYER
  5
20D
100
AcDbSymbolTableRecord
100
AcDbLayerTableRecord
  2
PIANI_RIFERIMENTO
 70
0
 62
7
  6
CONTINUOUS
370
-3
390
F
  0
LAYER
  5
20E
100
AcDbSymbolTableRecord
100
AcDbLayerTableRecord
  2
PIANI_SFORMO
 70
0
 62
7
  6
CONTINUOUS
370
-3
390
F
  0
LAYER
  5
20F
100
AcDbSymbolTableRecord
100
AcDbLayerTableRecord
  2
PUNTI
 70
0
 62
7
  6
CONTINUOUS
370
-3
390
F
  0
LAYER
  5
210
100
AcDbSymbolTableRecord
100
AcDbLayerTableRecord
  2
RACCORDO
 70
0
 62
7
  6
CONTINUOUS
370
-3
390
F
  0
LAYER
  5
211
100
AcDbSymbolTableRecord
100
AcDbLayerTableRecord
  2
SCRITTE
 70
0
 62
7
  6
CONTINUOUS
370
-3
390
F
  0
LAYER
  5
212
100
AcDbSymbolTableRecord
100
AcDbLayerTableRecord
  2
SMUSSO
 70
0
 62
7
  6
CONTINUOUS
370
-3
390
F
  0
LAYER
  5
213
100
AcDbSymbolTableRecord
100
AcDbLayerTableRecord
  2
SNAPLINE
 70
0
 62
7
  6
CONTINUOUS
370
-3
390
F
  0
LAYER
  5
214
100
AcDbSymbolTableRecord
100
AcDbLayerTableRecord
  2
SUPERFICI
 70
0
 62
7
  6
CONTINUOUS
370
-3
390
F
  0
LAYER
  5
215
100
AcDbSymbolTableRecord
100
AcDbLayerTableRecord
  2
TRASH
 70
0
 62
7
  6
CONTINUOUS
370
-3
390
F
  0
LAYER
  5
216
100
AcDbSymbolTableRecord
100
AcDbLayerTableRecord
  2
XSEC_DATUMS
 70
0
 62
7
  6
CONTINUOUS
370
-3
390
F
  0
ENDTAB
  0
TABLE
  2
STYLE
  5
3
100
AcDbSymbolTable
 70
1
  0
STYLE
  5
11
100
AcDbSymbolTableRecord
100
AcDbTextStyleTableRecord
  2
STANDARD
 70
0
 40
0.0
 41
0.8
 50
0.0
 71
0
 42
0.2
  3
txt
  4

  0
STYLE
  5
217
100
AcDbSymbolTableRecord
100
AcDbTextStyleTableRecord
  2
TEXTSTYLE_1
 70
0
 40
0.0
 41
0.8
 50
0.0
 71
0
 42
0.2
  3
gdt
  4

  0
STYLE
  5
218
100
AcDbSymbolTableRecord
100
AcDbTextStyleTableRecord
  2
TEXTSTYLE_2
 70
0
 40
0.0
 41
0.8
 50
0.0
 71
0
 42
0.2
  3
txt
  4

  0
ENDTAB
  0
TABLE
  2
VIEW
  5
6
100
AcDbSymbolTable
 70
0
  0
ENDTAB
  0
TABLE
  2
UCS
  5
7
100
AcDbSymbolTable
 70
0
  0
ENDTAB
  0
TABLE
  2
APPID
  5
9
100
AcDbSymbolTable
 70
1
  0
APPID
  5
219
100
AcDbSymbolTableRecord
100
AcDbRegAppTableRecord
  2
ACAD
 70
0
  0
ENDTAB
  0
TABLE
  2
BLOCK_RECORD
  5
1
100
AcDbSymbolTable
 70
0
  0
BLOCK_RECORD
  5
21A
100
AcDbSymbolTableRecord
100
AcDbBlockTableRecord
  2
*Model_Space
  0
BLOCK_RECORD
  5
21B
100
AcDbSymbolTableRecord
100
AcDbBlockTableRecord
  2
*Paper_Space
  0
ENDTAB
  0
TABLE
  2
DIMSTYLE
  5
A
100
AcDbSymbolTable
 70
1
100
AcDbDimStyleTable
 71
0
  0
DIMSTYLE
105
21C
100
AcDbSymbolTableRecord
100
AcDbDimStyleTableRecord
  2
STANDARD
 70
0
  3

  4

 40
1.0
 41
3.0
 42
0.0625
 43
0.38
 44
0.18
 45
0.0
 46
0.0
 47
0.01
 48
0.01
140
3.0
141
0.09
142
0.0
143
25.4
144
1.0
145
0.0
146
1.0
147
0.09
 71
1.0
 72
0.0
 73
0
 74
0
 75
0
 76
0
 77
1
 78
8
170
0
171
2
172
0
173
0
174
0
175
0
176
0
177
0
178
0
270
2
271
2
272
2
273
2
274
2
275
0
280
0
281
0
282
0
283
1
284
8
285
0
286
0
287
3
288
0
340
11
  0
ENDTAB
  0
ENDSEC
  0
SECTION
  2
BLOCKS
  0
BLOCK
  5
20
100
AcDbEntity
  8
0
100
AcDbBlockBegin
  2
*Model_Space
 70
0
 10
0.0
 20
0.0
 30
0.0
  3
*Model_Space
  1

  0
ENDBLK
  5
21
100
AcDbEntity
  8
0
100
AcDbBlockEnd
  0
BLOCK
  5
1C
100
AcDbEntity
  8
0
100
AcDbBlockBegin
  2
*Paper_Space
 70
0
 10
0.0
 20
0.0
 30
0.0
  3
*Paper_Space
  1

  0
ENDBLK
  5
1D
100
AcDbEntity
  8
0
100
AcDbBlockEnd
  0
ENDSEC
  0
SECTION
  2
ENTITIES
  0
MTEXT
  5
21D
100
AcDbEntity
  8
0
100
AcDbMText
 62
7
  6
CONTINUOUS
  7
TEXTSTYLE_2
 71
2
 72
1
 10
-14.6102481666
 20
36.4528690229
 30
0.0
 11
1.0
 21
0.0
 31
0.0
 44
0.9
  1
24
 40
3.0
 41
4.8
  0
MTEXT
  5
21E
100
AcDbEntity
  8
0
100
AcDbMText
 62
7
  6
CONTINUOUS
  7
TEXTSTYLE_2
 71
2
 72
1
 10
-21.961451981
 20
46.4528690229
 30
0.0
 11
1.0
 21
0.0
 31
0.0
 44
0.9
  1
38,7
 40
3.0
 41
9.6
  0
MTEXT
  5
21F
100
AcDbEntity
  8
0
100
AcDbMText
 62
7
  6
CONTINUOUS
  7
TEXTSTYLE_2
 71
2
 72
1
 10
18.5486070686
 20
36.4528690229
 30
0.0
 11
1.0
 21
0.0
 31
0.0
 44
0.9
  1
22,3
 40
3.0
 41
9.6
  0
MTEXT
  5
220
100
AcDbEntity
  8
0
100
AcDbMText
 62
7
  6
CONTINUOUS
  7
TEXTSTYLE_2
 71
2
 72
1
 10
33.9486070686
 20
0.3028690229
 30
0.0
 11
0.0
 21
1.0
 31
0.0
 44
0.9
  1
48,8
 40
3.0
 41
9.6
  0
LINE
  5
221
100
AcDbEntity
  8
RACCORDO
100
AcDbLine
 62
7
  6
CONTINUOUS
 10
-14.3679919
 20
-18.0004143817
 11
-14.3692841668
 21
-17.9880215101
  0
LINE
  5
222
100
AcDbEntity
  8
RACCORDO
100
AcDbLine
 62
7
  6
CONTINUOUS
 10
-14.3692841668
 20
-17.9880215101
 11
-14.3705358551
 21
-17.9751627723
  0
LINE
  5
223
100
AcDbEntity
  8
RACCORDO
100
AcDbLine
 62
7
  6
CONTINUOUS
 10
-14.3705358551
 20
-17.9751627723
 11
-14.3717414416
 21
-17.9618452546
  0
LINE
  5
224
100
AcDbEntity
  8
RACCORDO
100
AcDbLine
 62
7
  6
CONTINUOUS
 10
-14.3717414416
 20
-17.9618452546
 11
-14.3728938463
 21
-17.9480968305
  0
LINE
  5
225
100
AcDbEntity
  8
RACCORDO
100
AcDbLine
 62
7
  6
CONTINUOUS
 10
-14.3728938463
 20
-17.9480968305
 11
-14.3739881212
 21
-17.9339271421
  0
LINE
  5
226
100
AcDbEntity
  8
RACCORDO
100
AcDbLine
 62
7
  6
CONTINUOUS
 10
-14.3739881212
 20
-17.9339271421
 11
-14.3750195849
 21
-17.9193457062
  0
LINE
  5
227
100
AcDbEntity
  8
RACCORDO
100
AcDbLine
 62
7
  6
CONTINUOUS
 10
-14.3750195849
 20
-17.9193457062
 11
-14.375982381
 21
-17.9043836663
  0
LINE
  5
228
100
AcDbEntity
  8
RACCORDO
100
AcDbLine
 62
7
  6
CONTINUOUS
 10
-14.375982381
 20
-17.9043836663
 11
-14.3768725188
 21
-17.8890535881
  0
LINE
  5
229
100
AcDbEntity
  8
RACCORDO
100
AcDbLine
 62
7
  6
CONTINUOUS
 10
-14.3768725188
 20
-17.8890535881
 11
-14.3776864095
 21
-17.8733663081
  0
LINE
  5
22A
100
AcDbEntity
  8
RACCORDO
100
AcDbLine
 62
7
  6
CONTINUOUS
 10
-14.3776864095
 20
-17.8733663081
 11
-14.3784197428
 21
-17.8573532294
  0
LINE
  5
22B
100
AcDbEntity
  8
RACCORDO
100
AcDbLine
 62
7
  6
CONTINUOUS
 10
-14.3784197428
 20
-17.8573532294
 11
-14.3790694447
 21
-17.8410348824
  0
LINE
  5
22C
100
AcDbEntity
  8
RACCORDO
100
AcDbLine
 62
7
  6
CONTINUOUS
 10
-14.3790694447
 20
-17.8410348824
 11
-14.3796333654
 21
-17.8244173308
  0
LINE
  5
22D
100
AcDbEntity
  8
RACCORDO
100
AcDbLine
 62
7
  6
CONTINUOUS
 10
-14.3796333654
 20
-17.8244173308
 11
-14.3801092473
 21
-17.8075113558
  0
LINE
  5
22E
100
AcDbEntity
  8
RACCORDO
100
AcDbLine
 62
7
  6
CONTINUOUS
 10
-14.3801092473
 20
-17.8075113558
 11
-14.3804950846
 21
-17.7903331148
  0
LINE
  5
22F
100
AcDbEntity
  8
RACCORDO
100
AcDbLine
 62
7
  6
CONTINUOUS
 10
-14.3804950846
 20
-17.7903331148
 11
-14.3807893141
 21
-17.7728930639
  0
LINE
  5
230
100
AcDbEntity
  8
RACCORDO
100
AcDbLine
 62
7
  6
CONTINUOUS
 10
-14.3807893141
 20
-17.7728930639
 11
-14.3809905655
 21
-17.7551929513
  0
LINE
  5
231
100
AcDbEntity
  8
RACCORDO
100
AcDbLine
 62
7
  6
CONTINUOUS
 10
-14.3809905655
 20
-17.7551929513
 11
-14.3810976025
 21
-17.7372457181
  0
LINE
  5
232
100
AcDbEntity
  8
RACCORDO
100
AcDbLine
 62
7
  6
CONTINUOUS
 10
-14.3810976025
 20
-17.7372457181
 11
-14.3811094621
 21
-17.7190648851
  0
LINE
  5
233
100
AcDbEntity
  8
0
100
AcDbLine
 62
7
  6
CONTINUOUS
 10
-41.3126557954
 20
20.3968612321
 11
-41.3126557954
 21
44.2028690229
  0
LINE
  5
234
100
AcDbEntity
  8
DRAFT
100
AcDbLine
 62
7
  6
CONTINUOUS
 10
-38.3126557954
 20
41.7528690228
 11
-38.3126557954
 21
43.652869023
  0
LINE
  5
235
100
AcDbEntity
  8
DRAFT
100
AcDbLine
 62
7
  6
CONTINUOUS
 10
-41.3126557954
 20
42.7028690229
 11
-38.3126557954
 21
41.7528690228
  0
LINE
  5
236
100
AcDbEntity
  8
DRAFT
100
AcDbLine
 62
7
  6
CONTINUOUS
 10
-38.3126557954
 20
43.652869023
 11
-41.3126557954
 21
42.7028690229
  0
HATCH
  5
237
100
AcDbEntity
  8
DRAFT
100
AcDbHatch
 62
7
  6
CONTINUOUS
 10
0.0
 20
0.0
 30
0.0
210
0.0
220
0.0
230
1.0
  2

 70
1
 71
1
 91
1
 92
1
 93
3
 72
1
 10
-38.3126557954
 20
43.652869023
 11
-41.3126557954
 21
42.7028690229
 72
1
 10
-41.3126557954
 20
42.7028690229
 11
-38.3126557954
 21
41.7528690228
 72
1
 10
-38.3126557954
 20
41.7528690228
 11
-38.3126557954
 21
43.652869023
 97
3
330
234
330
235
330
236
 75
0
 76
1
 98
1
 10
0.0
 20
0.0
  0
LINE
  5
238
100
AcDbEntity
  8
RACCORDO
100
AcDbLine
 62
7
  6
CONTINUOUS
 10
-33.6102481666
 20
16.3464255008
 11
-33.6102481666
 21
18.6068661658
  0
LINE
  5
239
100
AcDbEntity
  8
RACCORDO
100
AcDbLine
 62
7
  6
CONTINUOUS
 10
-30.1102481666
 20
24.4397746749
 11
-30.1102481666
 21
24.1472065902
  0
LINE
  5
23A
100
AcDbEntity
  8
RACCORDO
100
AcDbLine
 62
7
  6
CONTINUOUS
 10
-30.1102481666
 20
-21.6971309771
 11
-30.1102481666
 21
-22.0753138077
  0
LINE
  5
23B
100
AcDbEntity
  8
RACCORDO
100
AcDbLine
 62
7
  6
CONTINUOUS
 10
-30.1102481666
 20
-23.5414685444
 11
-30.1102481666
 21
-23.8340366292
  0
LINE
  5
23C
100
AcDbEntity
  8
RACCORDO
100
AcDbLine
 62
7
  6
CONTINUOUS
 10
-30.1102481666
 20
22.3028690229
 11
-30.1102481666
 21
22.6810518534
  0
LINE
  5
23D
100
AcDbEntity
  8
DRAFT
100
AcDbLine
 62
7
  6
CONTINUOUS
 10
-29.1102481666
 20
-22.8197807079
 11
-29.1102481666
 21
-22.0840406754
  0
LINE
  5
23E
100
AcDbEntity
  8
DRAFT
100
AcDbLine
 62
7
  6
CONTINUOUS
 10
-29.1102481666
 20
22.6897787212
 11
-29.1102481666
 21
23.4255187537
  0
LINE
  5
23F
100
AcDbEntity
  8
ASSI
100
AcDbLine
 62
7
  6
CONTINUOUS
 10
-28.9602481666
 20
22.1616667778
 11
-28.9602481666
 21
20.2565177714
  0
LINE
  5
240
100
AcDbEntity
  8
ASSI
100
AcDbLine
 62
7
  6
CONTINUOUS
 10
-28.9602481666
 20
-19.6507797257
 11
-28.9602481666
 21
-21.5559287321
  0
LINE
  5
241
100
AcDbEntity
  8
RACCORDO
100
AcDbLine
 62
7
  6
CONTINUOUS
 10
-27.6102481666
 20
-21.7471176497
 11
-27.6102481666
 21
-24.0971309771
  0
LINE
  5
242
100
AcDbEntity
  8
RACCORDO
100
AcDbLine
 62
7
  6
CONTINUOUS
 10
-27.6102481666
 20
22.3528556954
 11
-27.6102481666
 21
24.7028690229
  0
LINE
  5
243
100
AcDbEntity
  8
RACCORDO
100
AcDbLine
 62
7
  6
CONTINUOUS
 10
-26.6102481666
 20
24.4485014197
 11
-26.6102481666
 21
24.1472065902
  0
LINE
  5
244
100
AcDbEntity
  8
RACCORDO
100
AcDbLine
 62
7
  6
CONTINUOUS
 10
-26.6102481666
 20
-23.5414685444
 11
-26.6102481666
 21
-23.8427633739
  0
LINE
  5
245
100
AcDbEntity
  8
RACCORDO
100
AcDbLine
 62
7
  6
CONTINUOUS
 10
-26.6102481666
 20
-22.0884041093
 11
-26.6102481666
 21
22.6941421551
  0
LINE
  5
246
100
AcDbEntity
  8
0
100
AcDbLine
 62
7
  6
CONTINUOUS
 10
-26.6102481666
 20
22.8441288276
 11
-26.6102481666
 21
34.2028690229
  0
LINE
  5
247
100
AcDbEntity
  8
DRAFT
100
AcDbLine
 62
7
  6
CONTINUOUS
 10
-23.6102481666
 20
31.7528690228
 11
-23.6102481666
 21
33.652869023
  0
LINE
  5
248
100
AcDbEntity
  8
DRAFT
100
AcDbLine
 62
7
  6
CONTINUOUS
 10
-26.6102481666
 20
32.7028690229
 11
-23.6102481666
 21
31.7528690228
  0
LINE
  5
249
100
AcDbEntity
  8
DRAFT
100
AcDbLine
 62
7
  6
CONTINUOUS
 10
-23.6102481666
 20
33.652869023
 11
-26.6102481666
 21
32.7028690229
  0
HATCH
  5
24A
100
AcDbEntity
  8
DRAFT
100
AcDbHatch
 62
7
  6
CONTINUOUS
 10
0.0
 20
0.0
 30
0.0
210
0.0
220
0.0
230
1.0
  2

 70
1
 71
1
 91
1
 92
1
 93
3
 72
1
 10
-23.6102481666
 20
33.652869023
 11
-26.6102481666
 21
32.7028690229
 72
1
 10
-26.6102481666
 20
32.7028690229
 11
-23.6102481666
 21
31.7528690228
 72
1
 10
-23.6102481666
 20
31.7528690228
 11
-23.6102481666
 21
33.652869023
 97
3
330
247
330
248
330
249
 75
0
 76
1
 98
1
 10
0.0
 20
0.0
  0
LINE
  5
24B
100
AcDbEntity
  8
RACCORDO
100
AcDbLine
 62
7
  6
CONTINUOUS
 10
-19.9085028472
 20
24.0580615794
 11
-19.9085028472
 21
22.6356569097
  0
LINE
  5
24C
100
AcDbEntity
  8
RACCORDO
100
AcDbLine
 62
7
  6
CONTINUOUS
 10
-19.9085028472
 20
-22.029918864
 11
-19.9085028472
 21
-23.4523235336
  0
LINE
  5
24D
100
AcDbEntity
  8
RACCORDO
100
AcDbLine
 62
7
  6
CONTINUOUS
 10
-19.6102481666
 20
24.0563263844
 11
-19.6102481666
 21
22.6330540805
  0
LINE
  5
24E
100
AcDbEntity
  8
RACCORDO
100
AcDbLine
 62
7
  6
CONTINUOUS
 10
-19.6102481666
 20
-22.0273160348
 11
-19.6102481666
 21
-23.4505883386
  0
LINE
  5
24F
100
AcDbEntity
  8
RACCORDO
100
AcDbLine
 62
7
  6
CONTINUOUS
 10
-16.907630206
 20
-20.5971309771
 11
-16.907630206
 21
-20.3777711507
  0
LINE
  5
250
100
AcDbEntity
  8
RACCORDO
100
AcDbLine
 62
7
  6
CONTINUOUS
 10
-16.907630206
 20
20.9835091964
 11
-16.907630206
 21
21.2028690229
  0
LINE
  5
251
100
AcDbEntity
  8
RACCORDO
100
AcDbLine
 62
7
  6
CONTINUOUS
 10
-16.9050124447
 20
21.7479647824
 11
-16.9050124447
 21
21.5028690229
  0
LINE
  5
252
100
AcDbEntity
  8
RACCORDO
100
AcDbLine
 62
7
  6
CONTINUOUS
 10
-16.9050124447
 20
-20.8971309771
 11
-16.9050124447
 21
-21.1422267366
  0
LINE
  5
253
100
AcDbEntity
  8
RACCORDO
100
AcDbLine
 62
7
  6
CONTINUOUS
 10
-16.6102481666
 20
-21.0098242208
 11
-16.6102481666
 21
-19.0152615362
  0
LINE
  5
254
100
AcDbEntity
  8
RACCORDO
100
AcDbLine
 62
7
  6
CONTINUOUS
 10
-16.6102481666
 20
19.620999582
 11
-16.6102481666
 21
21.6155622666
  0
LINE
  5
255
100
AcDbEntity
  8
RACCORDO
100
AcDbLine
 62
7
  6
CONTINUOUS
 10
-15.2927957602
 20
-18.9922653189
 11
-15.2927957602
 21
-18.7010016053
  0
LINE
  5
256
100
AcDbEntity
  8
RACCORDO
100
AcDbLine
 62
7
  6
CONTINUOUS
 10
-15.2927957602
 20
-17.2870034345
 11
-15.2927957602
 21
-7.8497364154
  0
LINE
  5
257
100
AcDbEntity
  8
RACCORDO
100
AcDbLine
 62
7
  6
CONTINUOUS
 10
-14.392210616
 20
-17.2870034345
 11
-14.3922106146
 21
-9.9369668573
  0
LINE
  5
258
100
AcDbEntity
  8
RACCORDO
100
AcDbLine
 62
7
  6
CONTINUOUS
 10
-14.3676218802
 20
-17.2870033187
 11
-14.3676041171
 21
-9.9295230151
  0
LINE
  5
259
100
AcDbEntity
  8
RACCORDO
100
AcDbLine
 62
7
  6
CONTINUOUS
 10
-14.3102481666
 20
-18.2852662335
 11
-14.3102481666
 21
-9.3235617233
  0
LINE
  5
25A
100
AcDbEntity
  8
DRAFT
100
AcDbLine
 62
7
  6
CONTINUOUS
 10
-5.6102481666
 20
43.652869023
 11
-5.6102481666
 21
41.7528690228
  0
LINE
  5
25B
100
AcDbEntity
  8
DRAFT
100
AcDbLine
 62
7
  6
CONTINUOUS
 10
-2.6102481666
 20
42.7028690229
 11
-5.6102481666
 21
43.652869023
  0
LINE
  5
25C
100
AcDbEntity
  8
DRAFT
100
AcDbLine
 62
7
  6
CONTINUOUS
 10
-5.6102481666
 20
41.7528690228
 11
-2.6102481666
 21
42.7028690229
  0
HATCH
  5
25D
100
AcDbEntity
  8
DRAFT
100
AcDbHatch
 62
7
  6
CONTINUOUS
 10
0.0
 20
0.0
 30
0.0
210
0.0
220
0.0
230
1.0
  2

 70
1
 71
1
 91
1
 92
1
 93
3
 72
1
 10
-5.6102481666
 20
41.7528690228
 11
-2.6102481666
 21
42.7028690229
 72
1
 10
-2.6102481666
 20
42.7028690229
 11
-5.6102481666
 21
43.652869023
 72
1
 10
-5.6102481666
 20
43.652869023
 11
-5.6102481666
 21
41.7528690228
 97
3
330
25A
330
25B
330
25C
 75
0
 76
1
 98
1
 10
0.0
 20
0.0
  0
LINE
  5
25E
100
AcDbEntity
  8
DRAFT
100
AcDbLine
 62
7
  6
CONTINUOUS
 10
-5.6102481666
 20
33.652869023
 11
-5.6102481666
 21
31.7528690228
  0
LINE
  5
25F
100
AcDbEntity
  8
DRAFT
100
AcDbLine
 62
7
  6
CONTINUOUS
 10
-2.6102481666
 20
32.7028690229
 11
-5.6102481666
 21
33.652869023
  0
LINE
  5
260
100
AcDbEntity
  8
DRAFT
100
AcDbLine
 62
7
  6
CONTINUOUS
 10
-5.6102481666
 20
31.7528690228
 11
-2.6102481666
 21
32.7028690229
  0
HATCH
  5
261
100
AcDbEntity
  8
DRAFT
100
AcDbHatch
 62
7
  6
CONTINUOUS
 10
0.0
 20
0.0
 30
0.0
210
0.0
220
0.0
230
1.0
  2

 70
1
 71
1
 91
1
 92
1
 93
3
 72
1
 10
-5.6102481666
 20
31.7528690228
 11
-2.6102481666
 21
32.7028690229
 72
1
 10
-2.6102481666
 20
32.7028690229
 11
-5.6102481666
 21
33.652869023
 72
1
 10
-5.6102481666
 20
33.652869023
 11
-5.6102481666
 21
31.7528690228
 97
3
330
25E
330
25F
330
260
 75
0
 76
1
 98
1
 10
0.0
 20
0.0
  0
LINE
  5
262
100
AcDbEntity
  8
RACCORDO
100
AcDbLine
 62
7
  6
CONTINUOUS
 10
-5.5927957602
 20
19.4286892349
 11
-5.5927957602
 21
19.2366074422
  0
LINE
  5
263
100
AcDbEntity
  8
RACCORDO
100
AcDbLine
 62
7
  6
CONTINUOUS
 10
-5.5927957602
 20
-7.6804222856
 11
-5.5927957602
 21
-2.8504904926
  0
LINE
  5
264
100
AcDbEntity
  8
RACCORDO
100
AcDbLine
 62
7
  6
CONTINUOUS
 10
-5.5927957602
 20
0.656228488
 11
-5.5927957602
 21
10.6495091835
  0
LINE
  5
265
100
AcDbEntity
  8
RACCORDO
100
AcDbLine
 62
7
  6
CONTINUOUS
 10
-5.5927957602
 20
14.1562284643
 11
-5.5927957602
 21
17.8226092714
  0
LINE
  5
266
100
AcDbEntity
  8
RACCORDO
100
AcDbLine
 62
7
  6
CONTINUOUS
 10
-14.367659814
 20
-17.3027558663
 11
-14.3676218794
 21
-17.2870033187
  0
LINE
  5
267
100
AcDbEntity
  8
RACCORDO
100
AcDbLine
 62
7
  6
CONTINUOUS
 10
-14.3811094621
 20
-17.7190648851
 11
-14.3810253014
 21
-17.7006522517
  0
LINE
  5
268
100
AcDbEntity
  8
RACCORDO
100
AcDbLine
 62
7
  6
CONTINUOUS
 10
-14.3103128068
 20
-9.3408735614
 11
-14.3102482311
 21
-9.3305468104
  0
LINE
  5
269
100
AcDbEntity
  8
RACCORDO
100
AcDbLine
 62
7
  6
CONTINUOUS
 10
-14.367856127
 20
-17.3261063868
 11
-14.367659814
 21
-17.3027558663
  0
LINE
  5
26A
100
AcDbEntity
  8
RACCORDO
100
AcDbLine
 62
7
  6
CONTINUOUS
 10
-14.3810253014
 20
-17.7006522517
 11
-14.3808446099
 21
-17.6820207007
  0
LINE
  5
26B
100
AcDbEntity
  8
RACCORDO
100
AcDbLine
 62
7
  6
CONTINUOUS
 10
-14.3676041171
 20
-9.9295230151
 11
-14.3674314549
 21
-9.9126030448
  0
LINE
  5
26C
100
AcDbEntity
  8
RACCORDO
100
AcDbLine
 62
7
  6
CONTINUOUS
 10
-14.3808446099
 20
-17.6820207007
 11
-14.3805671364
 21
-17.6631839232
  0
LINE
  5
26D
100
AcDbEntity
  8
RACCORDO
100
AcDbLine
 62
7
  6
CONTINUOUS
 10
-14.3682163403
 20
-17.3492454059
 11
-14.367856127
 21
-17.3261063868
  0
LINE
  5
26E
100
AcDbEntity
  8
RACCORDO
100
AcDbLine
 62
7
  6
CONTINUOUS
 10
-14.3805671364
 20
-17.6631839232
 11
-14.3801925945
 21
-17.6441440811
  0
LINE
  5
26F
100
AcDbEntity
  8
RACCORDO
100
AcDbLine
 62
7
  6
CONTINUOUS
 10
-14.3674314549
 20
-9.9126030448
 11
-14.3670716069
 21
-9.8955112064
  0
LINE
  5
270
100
AcDbEntity
  8
RACCORDO
100
AcDbLine
 62
7
  6
CONTINUOUS
 10
-14.3687369388
 20
-17.3721801698
 11
-14.3682163403
 21
-17.3492454059
  0
LINE
  5
271
100
AcDbEntity
  8
RACCORDO
100
AcDbLine
 62
7
  6
CONTINUOUS
 10
-14.3107773189
 20
-9.3606696895
 11
-14.3103128068
 21
-9.3408735614
  0
LINE
  5
272
100
AcDbEntity
  8
RACCORDO
100
AcDbLine
 62
7
  6
CONTINUOUS
 10
-14.3801925945
 20
-17.6441440811
 11
-14.3797212191
 21
-17.6249145663
  0
LINE
  5
273
100
AcDbEntity
  8
RACCORDO
100
AcDbLine
 62
7
  6
CONTINUOUS
 10
-14.3797212191
 20
-17.6249145663
 11
-14.3791534577
 21
-17.605508874
  0
LINE
  5
274
100
AcDbEntity
  8
RACCORDO
100
AcDbLine
 62
7
  6
CONTINUOUS
 10
-14.3694154389
 20
-17.3949098666
 11
-14.3687369388
 21
-17.3721801698
  0
LINE
  5
275
100
AcDbEntity
  8
RACCORDO
100
AcDbLine
 62
7
  6
CONTINUOUS
 10
-14.3670716069
 20
-9.8955112064
 11
-14.3665211852
 21
-9.8782519569
  0
LINE
  5
276
100
AcDbEntity
  8
RACCORDO
100
AcDbLine
 62
7
  6
CONTINUOUS
 10
-14.3791534577
 20
-17.605508874
 11
-14.3784895452
 21
-17.5859285601
  0
LINE
  5
277
100
AcDbEntity
  8
RACCORDO
100
AcDbLine
 62
7
  6
CONTINUOUS
 10
-14.3702492842
 20
-17.4174258648
 11
-14.3694154389
 21
-17.3949098666
  0
LINE
  5
278
100
AcDbEntity
  8
RACCORDO
100
AcDbLine
 62
7
  6
CONTINUOUS
 10
-14.3784895452
 20
-17.5859285601
 11
-14.3777304267
 21
-17.5661872116
  0
LINE
  5
279
100
AcDbEntity
  8
RACCORDO
100
AcDbLine
 62
7
  6
CONTINUOUS
 10
-14.3665211852
 20
-9.8782519569
 11
-14.3657780086
 21
-9.8608261436
  0
LINE
  5
27A
100
AcDbEntity
  8
RACCORDO
100
AcDbLine
 62
7
  6
CONTINUOUS
 10
-14.3777304267
 20
-17.5661872116
 11
-14.3768773123
 21
-17.5462988421
  0
LINE
  5
27B
100
AcDbEntity
  8
RACCORDO
100
AcDbLine
 62
7
  6
CONTINUOUS
 10
-14.311654376
 20
-9.380492415
 11
-14.3107773189
 21
-9.3606696895
  0
LINE
  5
27C
100
AcDbEntity
  8
RACCORDO
100
AcDbLine
 62
7
  6
CONTINUOUS
 10
-14.3712360055
 20
-17.4397267824
 11
-14.3702492842
 21
-17.4174258648
  0
LINE
  5
27D
100
AcDbEntity
  8
RACCORDO
100
AcDbLine
 62
7
  6
CONTINUOUS
 10
-14.3768773123
 20
-17.5462988421
 11
-14.3759310434
 21
-17.5262647183
  0
LINE
  5
27E
100
AcDbEntity
  8
RACCORDO
100
AcDbLine
 62
7
  6
CONTINUOUS
 10
-14.3759310434
 20
-17.5262647183
 11
-14.3748930471
 21
-17.5060943592
  0
LINE
  5
27F
100
AcDbEntity
  8
RACCORDO
100
AcDbLine
 62
7
  6
CONTINUOUS
 10
-14.3723743458
 20
-17.4618182237
 11
-14.3712360055
 21
-17.4397267824
  0
LINE
  5
280
100
AcDbEntity
  8
RACCORDO
100
AcDbLine
 62
7
  6
CONTINUOUS
 10
-14.3657780086
 20
-9.8608261436
 11
-14.3648410083
 21
-9.8432314277
  0
LINE
  5
281
100
AcDbEntity
  8
RACCORDO
100
AcDbLine
 62
7
  6
CONTINUOUS
 10
-14.3748930471
 20
-17.5060943592
 11
-14.373765406
 21
-17.4858077376
  0
LINE
  5
282
100
AcDbEntity
  8
RACCORDO
100
AcDbLine
 62
7
  6
CONTINUOUS
 10
-14.373765406
 20
-17.4858077376
 11
-14.3723743458
 21
-17.4618182237
  0
LINE
  5
283
100
AcDbEntity
  8
RACCORDO
100
AcDbLine
 62
7
  6
CONTINUOUS
 10
-14.3129048439
 20
-9.4003644185
 11
-14.311654376
 21
-9.380492415
  0
LINE
  5
284
100
AcDbEntity
  8
RACCORDO
100
AcDbLine
 62
7
  6
CONTINUOUS
 10
-14.3648410083
 20
-9.8432314277
 11
-14.3637106649
 21
-9.825471415
  0
LINE
  5
285
100
AcDbEntity
  8
ASSI
100
AcDbLine
 62
7
  6
CONTINUOUS
 10
-28.9602481666
 20
20.2565177714
 11
-31.4102481666
 21
0.3028690229
  0
LINE
  5
286
100
AcDbEntity
  8
DRAFT
100
AcDbLine
 62
7
  6
CONTINUOUS
 10
-33.2893651948
 20
21.9385524638
 11
-33.552691898
 21
20.7979592022
  0
LINE
  5
287
100
AcDbEntity
  8
ASSI
100
AcDbLine
 62
7
  6
CONTINUOUS
 10
8.1922287048
 20
-21.5923319458
 11
8.2371945843
 21
-21.6030835784
  0
LINE
  5
288
100
AcDbEntity
  8
ASSI
100
AcDbLine
 62
7
  6
CONTINUOUS
 10
8.1485489735
 20
-21.5791987248
 11
8.1922287048
 21
-21.5923319458
  0
LINE
  5
289
100
AcDbEntity
  8
ASSI
100
AcDbLine
 62
7
  6
CONTINUOUS
 10
8.1062661653
 20
-21.5638282164
 11
8.1485489735
 21
-21.5791987248
  0
LINE
  5
28A
100
AcDbEntity
  8
ASSI
100
AcDbLine
 62
7
  6
CONTINUOUS
 10
8.0654575121
 20
-21.5463580258
 11
8.1062661653
 21
-21.5638282164
  0
LINE
  5
28B
100
AcDbEntity
  8
ASSI
100
AcDbLine
 62
7
  6
CONTINUOUS
 10
8.0262077256
 20
-21.5269327101
 11
8.0654575121
 21
-21.5463580258
  0
LINE
  5
28C
100
AcDbEntity
  8
ASSI
100
AcDbLine
 62
7
  6
CONTINUOUS
 10
7.9885921389
 20
-21.5056991506
 11
8.0262077256
 21
-21.5269327101
  0
LINE
  5
28D
100
AcDbEntity
  8
RACCORDO
100
AcDbLine
 62
7
  6
CONTINUOUS
 10
-27.4852481666
 20
-22.8919494916
 11
-26.7352481666
 21
-23.3249621935
  0
LINE
  5
28E
100
AcDbEntity
  8
RACCORDO
100
AcDbLine
 62
7
  6
CONTINUOUS
 10
-29.1102481666
 20
23.4255187537
 11
-29.9852481666
 21
23.9307002392
  0
LINE
  5
28F
100
AcDbEntity
  8
ASSI
100
AcDbLine
 62
7
  6
CONTINUOUS
 10
7.9526578659
 20
-21.4827937522
 11
7.9885921389
 21
-21.5056991506
  0
LINE
  5
290
100
AcDbEntity
  8
ASSI
100
AcDbLine
 62
7
  6
CONTINUOUS
 10
7.9184555355
 20
-21.458358872
 11
7.9526578659
 21
-21.4827937522
  0
LINE
  5
291
100
AcDbEntity
  8
ASSI
100
AcDbLine
 62
7
  6
CONTINUOUS
 10
7.886027071
 20
-21.4325370085
 11
7.9184555355
 21
-21.458358872
  0
LINE
  5
292
100
AcDbEntity
  8
ASSI
100
AcDbLine
 62
7
  6
CONTINUOUS
 10
7.8553926609
 20
-21.4054584737
 11
7.886027071
 21
-21.4325370085
  0
LINE
  5
293
100
AcDbEntity
  8
RACCORDO
100
AcDbLine
 62
7
  6
CONTINUOUS
 10
-13.8189743699
 20
-8.8238584625
 11
-13.819122677
 21
-8.8237139934
  0
LINE
  5
294
100
AcDbEntity
  8
ASSI
100
AcDbLine
 62
7
  6
CONTINUOUS
 10
7.8265752853
 20
-21.3772599749
 11
7.8553926609
 21
-21.4054584737
  0
LINE
  5
295
100
AcDbEntity
  8
RACCORDO
100
AcDbLine
 62
7
  6
CONTINUOUS
 10
10.2355084899
 20
-24.0840323984
 11
10.2486070686
 21
-24.0971309771
  0
LINE
  5
296
100
AcDbEntity
  8
RACCORDO
100
AcDbLine
 62
7
  6
CONTINUOUS
 10
22.9445244338
 20
-23.4930483423
 11
22.9486070686
 21
-23.4971309771
  0
LINE
  5
297
100
AcDbEntity
  8
RACCORDO
100
AcDbLine
 62
7
  6
CONTINUOUS
 10
29.1355084899
 20
-24.0840323984
 11
29.1486070686
 21
-24.0971309771
  0
LINE
  5
298
100
AcDbEntity
  8
RACCORDO
100
AcDbLine
 62
7
  6
CONTINUOUS
 10
7.9617056473
 20
24.6897704442
 11
7.9486070686
 21
24.7028690229
  0
LINE
  5
299
100
AcDbEntity
  8
ASSI
100
AcDbLine
 62
7
  6
CONTINUOUS
 10
7.7995861989
 20
-21.3480728586
 11
7.8265752853
 21
-21.3772599749
  0
LINE
  5
29A
100
AcDbEntity
  8
ASSI
100
AcDbLine
 62
7
  6
CONTINUOUS
 10
7.7744169481
 20
-21.3180105991
 11
7.7995861989
 21
-21.3480728586
  0
LINE
  5
29B
100
AcDbEntity
  8
ASSI
100
AcDbLine
 62
7
  6
CONTINUOUS
 10
7.7510851294
 20
-21.2872237146
 11
7.7744169481
 21
-21.3180105991
  0
LINE
  5
29C
100
AcDbEntity
  8
ASSI
100
AcDbLine
 62
7
  6
CONTINUOUS
 10
7.7295580466
 20
-21.255804733
 11
7.7510851294
 21
-21.2872237146
  0
LINE
  5
29D
100
AcDbEntity
  8
DRAFT
100
AcDbLine
 62
7
  6
CONTINUOUS
 10
10.2398803239
 20
-22.0840406754
 11
10.2486070686
 21
-22.0971309771
  0
LINE
  5
29E
100
AcDbEntity
  8
RACCORDO
100
AcDbLine
 62
7
  6
CONTINUOUS
 10
22.9445244338
 20
-22.0910069385
 11
22.9486070686
 21
-22.0971309771
  0
LINE
  5
29F
100
AcDbEntity
  8
DRAFT
100
AcDbLine
 62
7
  6
CONTINUOUS
 10
29.1398803239
 20
-22.0840406754
 11
29.1486070686
 21
-22.0971309771
  0
LINE
  5
2A0
100
AcDbEntity
  8
DRAFT
100
AcDbLine
 62
7
  6
CONTINUOUS
 10
7.9486070686
 20
22.7028690229
 11
7.9573338133
 21
22.6897787212
  0
LINE
  5
2A1
100
AcDbEntity
  8
RACCORDO
100
AcDbLine
 62
7
  6
CONTINUOUS
 10
14.1526897034
 20
22.6967449842
 11
14.1486070686
 21
22.7028690229
  0
LINE
  5
2A2
100
AcDbEntity
  8
ASSI
100
AcDbLine
 62
7
  6
CONTINUOUS
 10
7.7097553039
 20
-21.2237593797
 11
7.7295580466
 21
-21.255804733
  0
LINE
  5
2A3
100
AcDbEntity
  8
ASSI
100
AcDbLine
 62
7
  6
CONTINUOUS
 10
7.6915558698
 20
-21.1909738411
 11
7.7097553039
 21
-21.2237593797
  0
LINE
  5
2A4
100
AcDbEntity
  8
ASSI
100
AcDbLine
 62
7
  6
CONTINUOUS
 10
7.6750755032
 20
-21.157744644
 11
7.6915558698
 21
-21.1909738411
  0
LINE
  5
2A5
100
AcDbEntity
  8
ASSI
100
AcDbLine
 62
7
  6
CONTINUOUS
 10
7.6605167153
 20
-21.124702489
 11
7.6750755032
 21
-21.157744644
  0
LINE
  5
2A6
100
AcDbEntity
  8
ASSI
100
AcDbLine
 62
7
  6
CONTINUOUS
 10
7.647769006
 20
-21.0919281595
 11
7.6605167153
 21
-21.124702489
  0
LINE
  5
2A7
100
AcDbEntity
  8
RACCORDO
100
AcDbLine
 62
7
  6
CONTINUOUS
 10
-14.350148735
 20
-18.1142572576
 11
-14.3501183913
 21
-18.114336776
  0
LINE
  5
2A8
100
AcDbEntity
  8
RACCORDO
100
AcDbLine
 62
7
  6
CONTINUOUS
 10
-14.3501183913
 20
-18.114336776
 11
-14.3500703917
 21
-18.1144650903
  0
LINE
  5
2A9
100
AcDbEntity
  8
RACCORDO
100
AcDbLine
 62
7
  6
CONTINUOUS
 10
-14.3500674916
 20
-18.1144728812
 11
-14.3501082893
 21
-18.114356012
  0
LINE
  5
2AA
100
AcDbEntity
  8
ASSI
100
AcDbLine
 62
7
  6
CONTINUOUS
 10
7.6367380155
 20
-21.0595360308
 11
7.647769006
 21
-21.0919281595
  0
LINE
  5
2AB
100
AcDbEntity
  8
RACCORDO
100
AcDbLine
 62
7
  6
CONTINUOUS
 10
-14.3501082893
 20
-18.114356012
 11
-14.3501912431
 21
-18.1141106253
  0
LINE
  5
2AC
100
AcDbEntity
  8
RACCORDO
100
AcDbLine
 62
7
  6
CONTINUOUS
 10
-14.3501912431
 20
-18.1141106253
 11
-14.3503142707
 21
-18.1137340794
  0
LINE
  5
2AD
100
AcDbEntity
  8
RACCORDO
100
AcDbLine
 62
7
  6
CONTINUOUS
 10
-14.3503142707
 20
-18.1137340794
 11
-14.3504748618
 21
-18.1132247406
  0
LINE
  5
2AE
100
AcDbEntity
  8
RACCORDO
100
AcDbLine
 62
7
  6
CONTINUOUS
 10
-14.3504748618
 20
-18.1132247406
 11
-14.3506717661
 21
-18.1125764909
  0
LINE
  5
2AF
100
AcDbEntity
  8
ASSI
100
AcDbLine
 62
7
  6
CONTINUOUS
 10
7.6274119395
 20
-21.0279575475
 11
7.6367380155
 21
-21.0595360308
  0
LINE
  5
2B0
100
AcDbEntity
  8
RACCORDO
100
AcDbLine
 62
7
  6
CONTINUOUS
 10
-14.3506717661
 20
-18.1125764909
 11
-14.3509043116
 21
-18.1117802175
  0
LINE
  5
2B1
100
AcDbEntity
  8
RACCORDO
100
AcDbLine
 62
7
  6
CONTINUOUS
 10
-14.3509043116
 20
-18.1117802175
 11
-14.351170319
 21
-18.1108313188
  0
LINE
  5
2B2
100
AcDbEntity
  8
ASSI
100
AcDbLine
 62
7
  6
CONTINUOUS
 10
7.4764766669
 20
-20.4753222795
 11
7.6274101058
 21
-21.0279580398
  0
LINE
  5
2B3
100
AcDbEntity
  8
ASSI
100
AcDbLine
 62
7
  6
CONTINUOUS
 10
7.4486070686
 20
-20.2675458058
 11
7.5993073005
 21
-20.8193281206
  0
LINE
  5
2B4
100
AcDbEntity
  8
RACCORDO
100
AcDbLine
 62
7
  6
CONTINUOUS
 10
-14.351170319
 20
-18.1108313188
 11
-14.3514670896
 21
-18.1097267981
  0
LINE
  5
2B5
100
AcDbEntity
  8
RACCORDO
100
AcDbLine
 62
7
  6
CONTINUOUS
 10
-14.3514670896
 20
-18.1097267981
 11
-14.3517926489
 21
-18.1084602497
  0
LINE
  5
2B6
100
AcDbEntity
  8
RACCORDO
100
AcDbLine
 62
7
  6
CONTINUOUS
 10
-14.3517926489
 20
-18.1084602497
 11
-14.3521434106
 21
-18.1070307411
  0
LINE
  5
2B7
100
AcDbEntity
  8
RACCORDO
100
AcDbLine
 62
7
  6
CONTINUOUS
 10
-14.3521434106
 20
-18.1070307411
 11
-14.3525170138
 21
-18.1054318068
  0
LINE
  5
2B8
100
AcDbEntity
  8
RACCORDO
100
AcDbLine
 62
7
  6
CONTINUOUS
 10
-14.3525170138
 20
-18.1054318068
 11
-14.3529126468
 21
-18.1036492176
  0
LINE
  5
2B9
100
AcDbEntity
  8
RACCORDO
100
AcDbLine
 62
7
  6
CONTINUOUS
 10
-14.3529126468
 20
-18.1036492176
 11
-14.3533274738
 21
-18.1016760976
  0
LINE
  5
2BA
100
AcDbEntity
  8
RACCORDO
100
AcDbLine
 62
7
  6
CONTINUOUS
 10
-14.3533274738
 20
-18.1016760976
 11
-14.3537570197
 21
-18.0995125828
  0
LINE
  5
2BB
100
AcDbEntity
  8
RACCORDO
100
AcDbLine
 62
7
  6
CONTINUOUS
 10
-14.3537570197
 20
-18.0995125828
 11
-14.3543565297
 21
-18.0963458201
  0
LINE
  5
2BC
100
AcDbEntity
  8
RACCORDO
100
AcDbLine
 62
7
  6
CONTINUOUS
 10
-14.3543565297
 20
-18.0963458201
 11
-14.3556642985
 21
-18.0891805675
  0
LINE
  5
2BD
100
AcDbEntity
  8
RACCORDO
100
AcDbLine
 62
7
  6
CONTINUOUS
 10
-14.3556642985
 20
-18.0891805675
 11
-14.3570049347
 21
-18.0814626721
  0
LINE
  5
2BE
100
AcDbEntity
  8
RACCORDO
100
AcDbLine
 62
7
  6
CONTINUOUS
 10
-14.3570049347
 20
-18.0814626721
 11
-14.3583724903
 21
-18.0731834441
  0
LINE
  5
2BF
100
AcDbEntity
  8
RACCORDO
100
AcDbLine
 62
7
  6
CONTINUOUS
 10
-14.3583724903
 20
-18.0731834441
 11
-14.359758493
 21
-18.0643500306
  0
LINE
  5
2C0
100
AcDbEntity
  8
RACCORDO
100
AcDbLine
 62
7
  6
CONTINUOUS
 10
-14.359758493
 20
-18.0643500306
 11
-14.3611523057
 21
-18.0549865712
  0
LINE
  5
2C1
100
AcDbEntity
  8
RACCORDO
100
AcDbLine
 62
7
  6
CONTINUOUS
 10
-14.3611523057
 20
-18.0549865712
 11
-14.3625469334
 21
-18.045096725
  0
LINE
  5
2C2
100
AcDbEntity
  8
RACCORDO
100
AcDbLine
 62
7
  6
CONTINUOUS
 10
-14.3625469334
 20
-18.045096725
 11
-14.3639360621
 21
-18.0346800807
  0
LINE
  5
2C3
100
AcDbEntity
  8
RACCORDO
100
AcDbLine
 62
7
  6
CONTINUOUS
 10
-14.3639360621
 20
-18.0346800807
 11
-14.3653107757
 21
-18.023757803
  0
LINE
  5
2C4
100
AcDbEntity
  8
ASSI
100
AcDbLine
 62
7
  6
CONTINUOUS
 10
-29.0171557114
 20
-21.0613106305
 11
-34.3428460182
 21
22.3129561963
  0
LINE
  5
2C5
100
AcDbEntity
  8
ASSI
100
AcDbLine
 62
7
  6
CONTINUOUS
 10
-31.4102481666
 20
0.3028690229
 11
-28.9602481666
 21
-19.6507797257
  0
LINE
  5
2C6
100
AcDbEntity
  8
RACCORDO
100
AcDbLine
 62
7
  6
CONTINUOUS
 10
-32.6437357801
 20
20.7830773699
 11
-32.793092119
 21
21.9994871355
  0
LINE
  5
2C7
100
AcDbEntity
  8
RACCORDO
100
AcDbLine
 62
7
  6
CONTINUOUS
 10
-14.3653107757
 20
-18.023757803
 11
-14.3666647617
 21
-18.0123344762
  0
LINE
  5
2C8
100
AcDbEntity
  8
RACCORDO
100
AcDbLine
 62
7
  6
CONTINUOUS
 10
-14.3666647617
 20
-18.0123344762
 11
-14.3679919
 21
-18.0004143817
  0
LINE
  5
2C9
100
AcDbEntity
  8
RACCORDO
100
AcDbLine
 62
7
  6
CONTINUOUS
 10
-4.6102481666
 20
-7.6804222856
 11
-4.6102481666
 21
-4.1036190863
  0
LINE
  5
2CA
100
AcDbEntity
  8
RACCORDO
100
AcDbLine
 62
7
  6
CONTINUOUS
 10
-4.6102481666
 20
1.9093559097
 11
-4.6102481666
 21
9.396382136
  0
LINE
  5
2CB
100
AcDbEntity
  8
RACCORDO
100
AcDbLine
 62
7
  6
CONTINUOUS
 10
-4.6102481666
 20
15.4093571328
 11
-4.6102481666
 21
18.7216901495
  0
LINE
  5
2CC
100
AcDbEntity
  8
RACCORDO
100
AcDbLine
 62
7
  6
CONTINUOUS
 10
-4.3363948895
 20
-4.1731719199
 11
-4.3363948895
 21
-3.837383587
  0
LINE
  5
2CD
100
AcDbEntity
  8
RACCORDO
100
AcDbLine
 62
7
  6
CONTINUOUS
 10
-4.3363948895
 20
1.6431216327
 11
-4.3363948895
 21
1.9789099656
  0
LINE
  5
2CE
100
AcDbEntity
  8
RACCORDO
100
AcDbLine
 62
7
  6
CONTINUOUS
 10
-4.3363948895
 20
9.3268280801
 11
-4.3363948895
 21
9.662616413
  0
LINE
  5
2CF
100
AcDbEntity
  8
RACCORDO
100
AcDbLine
 62
7
  6
CONTINUOUS
 10
-4.3363948895
 20
15.1431216327
 11
-4.3363948895
 21
15.4789099656
  0
LINE
  5
2D0
100
AcDbEntity
  8
RACCORDO
100
AcDbLine
 62
7
  6
CONTINUOUS
 10
-2.9102481666
 20
13.6905948919
 11
-2.9102481666
 21
11.1151431539
  0
LINE
  5
2D1
100
AcDbEntity
  8
RACCORDO
100
AcDbLine
 62
7
  6
CONTINUOUS
 10
-2.9102481666
 20
0.1905948919
 11
-2.9102481666
 21
-2.3848568461
  0
LINE
  5
2D2
100
AcDbEntity
  8
RACCORDO
100
AcDbLine
 62
7
  6
CONTINUOUS
 10
-2.9050124447
 20
13.8365604155
 11
-2.9050124447
 21
13.6906719904
  0
LINE
  5
2D3
100
AcDbEntity
  8
RACCORDO
100
AcDbLine
 62
7
  6
CONTINUOUS
 10
-2.9050124447
 20
11.1150660553
 11
-2.9050124447
 21
10.9691776913
  0
LINE
  5
2D4
100
AcDbEntity
  8
RACCORDO
100
AcDbLine
 62
7
  6
CONTINUOUS
 10
-2.9050124447
 20
0.3365603835
 11
-2.9050124447
 21
0.1906719904
  0
LINE
  5
2D5
100
AcDbEntity
  8
RACCORDO
100
AcDbLine
 62
7
  6
CONTINUOUS
 10
-2.9050124447
 20
-2.3849339447
 11
-2.9050124447
 21
-2.5308223744
  0
LINE
  5
2D6
100
AcDbEntity
  8
RACCORDO
100
AcDbLine
 62
7
  6
CONTINUOUS
 10
-2.8841015224
 20
-2.8242927
 11
-2.8841014438
 21
-4.0461127073
  0
LINE
  5
2D7
100
AcDbEntity
  8
RACCORDO
100
AcDbLine
 62
7
  6
CONTINUOUS
 10
-2.8841014438
 20
15.351850753
 11
-2.8841014009
 21
14.130030793
  0
LINE
  5
2D8
100
AcDbEntity
  8
RACCORDO
100
AcDbLine
 62
7
  6
CONTINUOUS
 10
-2.8841014438
 20
1.851850753
 11
-2.8841014003
 21
0.6300307591
  0
LINE
  5
2D9
100
AcDbEntity
  8
RACCORDO
100
AcDbLine
 62
7
  6
CONTINUOUS
 10
-2.8841013734
 20
10.6757073069
 11
-2.8841014438
 21
9.4538872927
  0
LINE
  5
2DA
100
AcDbEntity
  8
RACCORDO
100
AcDbLine
 62
7
  6
CONTINUOUS
 10
-2.6106991009
 20
13.6196449977
 11
-2.6106991009
 21
11.186093048
  0
LINE
  5
2DB
100
AcDbEntity
  8
RACCORDO
100
AcDbLine
 62
7
  6
CONTINUOUS
 10
-2.6106991009
 20
0.1196449977
 11
-2.6106991009
 21
-2.313906952
  0
LINE
  5
2DC
100
AcDbEntity
  8
RACCORDO
100
AcDbLine
 62
7
  6
CONTINUOUS
 10
-2.6102481666
 20
15.0529914976
 11
-2.6102481666
 21
9.7527465482
  0
LINE
  5
2DD
100
AcDbEntity
  8
RACCORDO
100
AcDbLine
 62
7
  6
CONTINUOUS
 10
-2.6102481666
 20
1.5529914976
 11
-2.6102481666
 21
-3.7472534518
  0
LINE
  5
2DE
100
AcDbEntity
  8
0
100
AcDbLine
 62
7
  6
CONTINUOUS
 10
-2.6102481666
 20
15.5529923436
 11
-2.6102481666
 21
44.2028690229
  0
LINE
  5
2DF
100
AcDbEntity
  8
RACCORDO
100
AcDbLine
 62
7
  6
CONTINUOUS
 10
-14.3637106649
 20
-9.825471415
 11
-14.3623892425
 21
-9.807551755
  0
LINE
  5
2E0
100
AcDbEntity
  8
RACCORDO
100
AcDbLine
 62
7
  6
CONTINUOUS
 10
-14.3144893826
 20
-9.4202888507
 11
-14.3129048439
 21
-9.4003644185
  0
LINE
  5
2E1
100
AcDbEntity
  8
RACCORDO
100
AcDbLine
 62
7
  6
CONTINUOUS
 10
-14.3623892425
 20
-9.807551755
 11
-14.3608800838
 21
-9.7894713945
  0
LINE
  5
2E2
100
AcDbEntity
  8
RACCORDO
100
AcDbLine
 62
7
  6
CONTINUOUS
 10
-14.3608800838
 20
-9.7894713945
 11
-14.3591890217
 21
-9.7712419895
  0
LINE
  5
2E3
100
AcDbEntity
  8
RACCORDO
100
AcDbLine
 62
7
  6
CONTINUOUS
 10
-14.3163656898
 20
-9.4402341435
 11
-14.3144893826
 21
-9.4202888507
  0
LINE
  5
2E4
100
AcDbEntity
  8
RACCORDO
100
AcDbLine
 62
7
  6
CONTINUOUS
 10
-14.3591890217
 20
-9.7712419895
 11
-14.3573231499
 21
-9.7528651284
  0
LINE
  5
2E5
100
AcDbEntity
  8
RACCORDO
100
AcDbLine
 62
7
  6
CONTINUOUS
 10
-14.318494558
 20
-9.4602007397
 11
-14.3163656898
 21
-9.4402341435
  0
LINE
  5
2E6
100
AcDbEntity
  8
RACCORDO
100
AcDbLine
 62
7
  6
CONTINUOUS
 10
-14.3573231499
 20
-9.7528651284
 11
-14.3552881382
 21
-9.7343189927
  0
LINE
  5
2E7
100
AcDbEntity
  8
RACCORDO
100
AcDbLine
 62
7
  6
CONTINUOUS
 10
-14.3552881382
 20
-9.7343189927
 11
-14.3530944981
 21
-9.7156118534
  0
LINE
  5
2E8
100
AcDbEntity
  8
RACCORDO
100
AcDbLine
 62
7
  6
CONTINUOUS
 10
-14.3208398972
 20
-9.4802025543
 11
-14.318494558
 21
-9.4602007397
  0
LINE
  5
2E9
100
AcDbEntity
  8
RACCORDO
100
AcDbLine
 62
7
  6
CONTINUOUS
 10
-14.3530944981
 20
-9.7156118534
 11
-14.3507550484
 21
-9.6967531238
  0
LINE
  5
2EA
100
AcDbEntity
  8
RACCORDO
100
AcDbLine
 62
7
  6
CONTINUOUS
 10
-14.3233607644
 20
-9.5002052452
 11
-14.3208398972
 21
-9.4802025543
  0
LINE
  5
2EB
100
AcDbEntity
  8
RACCORDO
100
AcDbLine
 62
7
  6
CONTINUOUS
 10
-14.3507550484
 20
-9.6967531238
 11
-14.3482791364
 21
-9.6777150826
  0
LINE
  5
2EC
100
AcDbEntity
  8
RACCORDO
100
AcDbLine
 62
7
  6
CONTINUOUS
 10
-14.3260212127
 20
-9.5202053865
 11
-14.3233607644
 21
-9.5002052452
  0
LINE
  5
2ED
100
AcDbEntity
  8
RACCORDO
100
AcDbLine
 62
7
  6
CONTINUOUS
 10
-14.3482791364
 20
-9.6777150826
 11
-14.3456815469
 21
-9.6584935815
  0
LINE
  5
2EE
100
AcDbEntity
  8
RACCORDO
100
AcDbLine
 62
7
  6
CONTINUOUS
 10
-14.3287878317
 20
-9.540205321
 11
-14.3260212127
 21
-9.5202053865
  0
LINE
  5
2EF
100
AcDbEntity
  8
RACCORDO
100
AcDbLine
 62
7
  6
CONTINUOUS
 10
-14.3456815469
 20
-9.6584935815
 11
-14.3402026206
 21
-9.6195815571
  0
LINE
  5
2F0
100
AcDbEntity
  8
RACCORDO
100
AcDbLine
 62
7
  6
CONTINUOUS
 10
-14.3402026206
 20
-9.6195815571
 11
-14.3287878317
 21
-9.540205321
  0
LINE
  5
2F1
100
AcDbEntity
  8
ASSI
100
AcDbLine
 62
7
  6
CONTINUOUS
 10
8.2371945843
 20
-21.6030835784
 11
8.2833212007
 21
-21.6113128755
  0
LINE
  5
2F2
100
AcDbEntity
  8
RACCORDO
100
AcDbLine
 62
7
  6
CONTINUOUS
 10
14.1526897034
 20
24.098786388
 11
14.1486070686
 21
24.1028690229
  0
LINE
  5
2F3
100
AcDbEntity
  8
DRAFT
100
AcDbLine
 62
7
  6
CONTINUOUS
 10
26.8486070686
 20
22.7028690229
 11
26.8573338133
 21
22.6897787212
  0
LINE
  5
2F4
100
AcDbEntity
  8
DRAFT
100
AcDbLine
 62
7
  6
CONTINUOUS
 10
36.7486070685
 20
-21.0971309771
 11
37.6986070686
 21
-24.0971309771
  0
LINE
  5
2F5
100
AcDbEntity
  8
DRAFT
100
AcDbLine
 62
7
  6
CONTINUOUS
 10
38.6486070687
 20
-21.0971309771
 11
36.7486070685
 21
-21.0971309771
  0
LINE
  5
2F6
100
AcDbEntity
  8
DRAFT
100
AcDbLine
 62
7
  6
CONTINUOUS
 10
37.6986070686
 20
-24.0971309771
 11
38.6486070687
 21
-21.0971309771
  0
HATCH
  5
2F7
100
AcDbEntity
  8
DRAFT
100
AcDbHatch
 62
7
  6
CONTINUOUS
 10
0.0
 20
0.0
 30
0.0
210
0.0
220
0.0
230
1.0
  2

 70
1
 71
1
 91
1
 92
1
 93
3
 72
1
 10
37.6986070686
 20
-24.0971309771
 11
38.6486070687
 21
-21.0971309771
 72
1
 10
38.6486070687
 20
-21.0971309771
 11
36.7486070685
 21
-21.0971309771
 72
1
 10
36.7486070685
 20
-21.0971309771
 11
37.6986070686
 21
-24.0971309771
 97
3
330
2F4
330
2F5
330
2F6
 75
0
 76
1
 98
1
 10
0.0
 20
0.0
  0
LINE
  5
2F8
100
AcDbEntity
  8
ASSI
100
AcDbLine
 62
7
  6
CONTINUOUS
 10
7.5993073005
 20
20.6682551862
 11
7.4486070686
 21
21.5191913716
  0
LINE
  5
2F9
100
AcDbEntity
  8
ASSI
100
AcDbLine
 62
7
  6
CONTINUOUS
 10
8.3990331605
 20
21.4620200109
 11
8.2483329286
 21
22.3129561963
  0
LINE
  5
2FA
100
AcDbEntity
  8
RACCORDO
100
AcDbLine
 62
7
  6
CONTINUOUS
 10
7.9624244144
 20
-23.3249621935
 11
7.9573338133
 21
-22.8197807079
  0
LINE
  5
2FB
100
AcDbEntity
  8
RACCORDO
100
AcDbLine
 62
7
  6
CONTINUOUS
 10
10.2398803239
 20
23.4255187537
 11
10.2347897228
 21
23.9307002392
  0
LINE
  5
2FC
100
AcDbEntity
  8
RACCORDO
100
AcDbLine
 62
7
  6
CONTINUOUS
 10
7.3986070686
 20
22.331038526
 11
7.3986070686
 21
22.3028690229
  0
LINE
  5
2FD
100
AcDbEntity
  8
ASSI
100
AcDbLine
 62
7
  6
CONTINUOUS
 10
7.3986070686
 20
22.3028690229
 11
7.3986070686
 21
-21.6971309771
  0
LINE
  5
2FE
100
AcDbEntity
  8
RACCORDO
100
AcDbLine
 62
7
  6
CONTINUOUS
 10
7.3986070686
 20
-21.6971309771
 11
7.3986070686
 21
-21.7253004802
  0
LINE
  5
2FF
100
AcDbEntity
  8
0
100
AcDbLine
 62
7
  6
CONTINUOUS
 10
7.3986070686
 20
22.6616667778
 11
7.3986070686
 21
34.2028690229
  0
LINE
  5
300
100
AcDbEntity
  8
ASSI
100
AcDbLine
 62
7
  6
CONTINUOUS
 10
7.4486070686
 20
-20.2675458058
 11
7.4486070686
 21
21.5191913716
  0
LINE
  5
301
100
AcDbEntity
  8
RACCORDO
100
AcDbLine
 62
7
  6
CONTINUOUS
 10
7.7486070686
 20
-22.0971309771
 11
7.7486070686
 21
-22.0753138077
  0
LINE
  5
302
100
AcDbEntity
  8
RACCORDO
100
AcDbLine
 62
7
  6
CONTINUOUS
 10
7.7486070686
 20
22.6810518534
 11
7.7486070686
 21
22.7028690229
  0
LINE
  5
303
100
AcDbEntity
  8
RACCORDO
100
AcDbLine
 62
7
  6
CONTINUOUS
 10
7.9486070686
 20
-22.0971309771
 11
7.9486070686
 21
-24.0971309771
  0
LINE
  5
304
100
AcDbEntity
  8
RACCORDO
100
AcDbLine
 62
7
  6
CONTINUOUS
 10
7.9486070686
 20
22.7028690229
 11
7.9486070686
 21
24.7028690229
  0
LINE
  5
305
100
AcDbEntity
  8
DRAFT
100
AcDbLine
 62
7
  6
CONTINUOUS
 10
7.9573338133
 20
-22.8197807079
 11
7.9573338133
 21
-22.0840406754
  0
LINE
  5
306
100
AcDbEntity
  8
DRAFT
100
AcDbLine
 62
7
  6
CONTINUOUS
 10
7.9573338133
 20
22.6897787212
 11
7.9573338133
 21
23.4255187537
  0
LINE
  5
307
100
AcDbEntity
  8
RACCORDO
100
AcDbLine
 62
7
  6
CONTINUOUS
 10
7.9631516431
 20
-23.8340366292
 11
7.9631516431
 21
-23.5414685444
  0
LINE
  5
308
100
AcDbEntity
  8
RACCORDO
100
AcDbLine
 62
7
  6
CONTINUOUS
 10
7.9631516431
 20
24.1472065902
 11
7.9631516431
 21
24.4397746749
  0
LINE
  5
309
100
AcDbEntity
  8
RACCORDO
100
AcDbLine
 62
7
  6
CONTINUOUS
 10
10.2340624941
 20
24.4397746749
 11
10.2340624941
 21
24.1472065902
  0
LINE
  5
30A
100
AcDbEntity
  8
RACCORDO
100
AcDbLine
 62
7
  6
CONTINUOUS
 10
10.2340624941
 20
-23.5414685444
 11
10.2340624941
 21
-23.8340366292
  0
LINE
  5
30B
100
AcDbEntity
  8
DRAFT
100
AcDbLine
 62
7
  6
CONTINUOUS
 10
10.2398803239
 20
-22.8197807079
 11
10.2398803239
 21
-22.0840406754
  0
LINE
  5
30C
100
AcDbEntity
  8
DRAFT
100
AcDbLine
 62
7
  6
CONTINUOUS
 10
10.2398803239
 20
22.6897787212
 11
10.2398803239
 21
23.4255187537
  0
LINE
  5
30D
100
AcDbEntity
  8
RACCORDO
100
AcDbLine
 62
7
  6
CONTINUOUS
 10
10.2486070686
 20
-22.0971309771
 11
10.2486070686
 21
-24.0971309771
  0
LINE
  5
30E
100
AcDbEntity
  8
RACCORDO
100
AcDbLine
 62
7
  6
CONTINUOUS
 10
10.2486070686
 20
22.7028690229
 11
10.2486070686
 21
24.7028690229
  0
LINE
  5
30F
100
AcDbEntity
  8
DRAFT
100
AcDbLine
 62
7
  6
CONTINUOUS
 10
10.3986070686
 20
31.7528690228
 11
10.3986070686
 21
33.652869023
  0
LINE
  5
310
100
AcDbEntity
  8
DRAFT
100
AcDbLine
 62
7
  6
CONTINUOUS
 10
7.3986070686
 20
32.7028690229
 11
10.3986070686
 21
31.7528690228
  0
LINE
  5
311
100
AcDbEntity
  8
DRAFT
100
AcDbLine
 62
7
  6
CONTINUOUS
 10
10.3986070686
 20
33.652869023
 11
7.3986070686
 21
32.7028690229
  0
HATCH
  5
312
100
AcDbEntity
  8
DRAFT
100
AcDbHatch
 62
7
  6
CONTINUOUS
 10
0.0
 20
0.0
 30
0.0
210
0.0
220
0.0
230
1.0
  2

 70
1
 71
1
 91
1
 92
1
 93
3
 72
1
 10
10.3986070686
 20
33.652869023
 11
7.3986070686
 21
32.7028690229
 72
1
 10
7.3986070686
 20
32.7028690229
 11
10.3986070686
 21
31.7528690228
 72
1
 10
10.3986070686
 20
31.7528690228
 11
10.3986070686
 21
33.652869023
 97
3
330
30F
330
310
330
311
 75
0
 76
1
 98
1
 10
0.0
 20
0.0
  0
LINE
  5
313
100
AcDbEntity
  8
DRAFT
100
AcDbLine
 62
7
  6
CONTINUOUS
 10
14.1486070686
 20
-23.4971309771
 11
14.1486070686
 21
-22.0971309771
  0
LINE
  5
314
100
AcDbEntity
  8
DRAFT
100
AcDbLine
 62
7
  6
CONTINUOUS
 10
14.1486070686
 20
22.7028690229
 11
14.1486070686
 21
24.1028690229
  0
LINE
  5
315
100
AcDbEntity
  8
RACCORDO
100
AcDbLine
 62
7
  6
CONTINUOUS
 10
14.1526897034
 20
24.098786388
 11
14.1526897034
 21
22.6967449842
  0
LINE
  5
316
100
AcDbEntity
  8
RACCORDO
100
AcDbLine
 62
7
  6
CONTINUOUS
 10
14.1526897034
 20
-22.0910069385
 11
14.1526897034
 21
-23.4930483423
  0
LINE
  5
317
100
AcDbEntity
  8
RACCORDO
100
AcDbLine
 62
7
  6
CONTINUOUS
 10
14.4526846265
 20
24.0970511931
 11
14.4526846265
 21
22.6941421551
  0
LINE
  5
318
100
AcDbEntity
  8
RACCORDO
100
AcDbLine
 62
7
  6
CONTINUOUS
 10
14.4526846265
 20
-22.0884041093
 11
14.4526846265
 21
-23.4913131473
  0
LINE
  5
319
100
AcDbEntity
  8
CURVE
100
AcDbLine
 62
7
  6
CONTINUOUS
 10
14.9747974449
 20
-13.8473353912
 11
14.9747974449
 21
-15.7218908435
  0
LINE
  5
31A
100
AcDbEntity
  8
RACCORDO
100
AcDbLine
 62
7
  6
CONTINUOUS
 10
7.9573338133
 20
23.4255187537
 11
7.9624244144
 21
23.9307002392
  0
LINE
  5
31B
100
AcDbEntity
  8
RACCORDO
100
AcDbLine
 62
7
  6
CONTINUOUS
 10
10.2347897228
 20
-23.3249621935
 11
10.2398803239
 21
-22.8197807079
  0
LINE
  5
31C
100
AcDbEntity
  8
ASSI
100
AcDbLine
 62
7
  6
CONTINUOUS
 10
8.3304907174
 20
-21.6168860765
 11
8.3785574696
 21
-21.6196701888
  0
LINE
  5
31D
100
AcDbEntity
  8
ASSI
100
AcDbLine
 62
7
  6
CONTINUOUS
 10
8.2833212007
 20
-21.6113128755
 11
8.3304907174
 21
-21.6168860765
  0
LINE
  5
31E
100
AcDbEntity
  8
RACCORDO
100
AcDbLine
 62
7
  6
CONTINUOUS
 10
26.8617056473
 20
24.6897704442
 11
26.8486070686
 21
24.7028690229
  0
LINE
  5
31F
100
AcDbEntity
  8
CURVE
100
AcDbLine
 62
7
  6
CONTINUOUS
 10
15.7890831673
 20
-15.721890802
 11
15.7890831673
 21
-14.5169884696
  0
LINE
  5
320
100
AcDbEntity
  8
CURVE
100
AcDbLine
 62
7
  6
CONTINUOUS
 10
16.3319403344
 20
-14.6508964407
 11
16.3319403344
 21
-15.4541872453
  0
LINE
  5
321
100
AcDbEntity
  8
CURVE
100
AcDbLine
 62
7
  6
CONTINUOUS
 10
17.1462261134
 20
-15.0525756661
 11
17.1462261134
 21
-14.6508964495
  0
LINE
  5
322
100
AcDbEntity
  8
CURVE
100
AcDbLine
 62
7
  6
CONTINUOUS
 10
17.2819403225
 20
-12.4298721731
 11
17.2819403225
 21
-12.0277521721
  0
LINE
  5
323
100
AcDbEntity
  8
CURVE
100
AcDbLine
 62
7
  6
CONTINUOUS
 10
17.6890832239
 20
-15.5880427947
 11
17.6890832239
 21
-15.1864537123
  0
LINE
  5
324
100
AcDbEntity
  8
CURVE
100
AcDbLine
 62
7
  6
CONTINUOUS
 10
18.0962261015
 20
-11.4914871856
 11
18.0962261015
 21
-12.5638971799
  0
LINE
  5
325
100
AcDbEntity
  8
CURVE
100
AcDbLine
 62
7
  6
CONTINUOUS
 10
18.5033687764
 20
-14.6508964407
 11
18.5033687764
 21
-15.7218907924
  0
LINE
  5
326
100
AcDbEntity
  8
CURVE
100
AcDbLine
 62
7
  6
CONTINUOUS
 10
18.8652737313
 20
-10.686864854
 11
18.8652737313
 21
-12.5638971681
  0
LINE
  5
327
100
AcDbEntity
  8
CURVE
100
AcDbLine
 62
7
  6
CONTINUOUS
 10
19.2724164062
 20
-13.8473353912
 11
19.2724164062
 21
-15.7218908435
  0
LINE
  5
328
100
AcDbEntity
  8
CURVE
100
AcDbLine
 62
7
  6
CONTINUOUS
 10
19.7247976595
 20
-11.4914871856
 11
19.7247976595
 21
-12.295839673
  0
LINE
  5
329
100
AcDbEntity
  8
CURVE
100
AcDbLine
 62
7
  6
CONTINUOUS
 10
20.1319401079
 20
-14.6508964407
 11
20.1319401079
 21
-15.4541872453
  0
LINE
  5
32A
100
AcDbEntity
  8
CURVE
100
AcDbLine
 62
7
  6
CONTINUOUS
 10
20.5390829855
 20
-11.8936971898
 11
20.5390829855
 21
-11.4914871841
  0
LINE
  5
32B
100
AcDbEntity
  8
CURVE
100
AcDbLine
 62
7
  6
CONTINUOUS
 10
20.9462258869
 20
-15.0525756661
 11
20.9462258869
 21
-14.6508964495
  0
LINE
  5
32C
100
AcDbEntity
  8
CURVE
100
AcDbLine
 62
7
  6
CONTINUOUS
 10
21.0819403225
 20
-11.2233097296
 11
21.0819403225
 21
-12.5638971744
  0
LINE
  5
32D
100
AcDbEntity
  8
CURVE
100
AcDbLine
 62
7
  6
CONTINUOUS
 10
21.4890832239
 20
-14.3830727855
 11
21.4890832239
 21
-15.7218908217
  0
LINE
  5
32E
100
AcDbEntity
  8
CURVE
100
AcDbLine
 62
7
  6
CONTINUOUS
 10
21.7152735048
 20
-11.6255647228
 11
21.7152735048
 21
-11.3574022676
  0
LINE
  5
32F
100
AcDbEntity
  8
CURVE
100
AcDbLine
 62
7
  6
CONTINUOUS
 10
22.1224164062
 20
-14.7847970621
 11
22.1224164062
 21
-14.5169884212
  0
LINE
  5
330
100
AcDbEntity
  8
RACCORDO
100
AcDbLine
 62
7
  6
CONTINUOUS
 10
22.6445295107
 20
-23.4913131473
 11
22.6445295107
 21
-22.0884041093
  0
LINE
  5
331
100
AcDbEntity
  8
RACCORDO
100
AcDbLine
 62
7
  6
CONTINUOUS
 10
22.6445295107
 20
22.6941421551
 11
22.6445295107
 21
24.0970511931
  0
LINE
  5
332
100
AcDbEntity
  8
RACCORDO
100
AcDbLine
 62
7
  6
CONTINUOUS
 10
22.9445244338
 20
-23.4930483423
 11
22.9445244338
 21
-22.0910069385
  0
LINE
  5
333
100
AcDbEntity
  8
RACCORDO
100
AcDbLine
 62
7
  6
CONTINUOUS
 10
22.9445244338
 20
22.6967449842
 11
22.9445244338
 21
24.098786388
  0
LINE
  5
334
100
AcDbEntity
  8
DRAFT
100
AcDbLine
 62
7
  6
CONTINUOUS
 10
22.9486070686
 20
24.1028690229
 11
22.9486070686
 21
22.7028690229
  0
LINE
  5
335
100
AcDbEntity
  8
DRAFT
100
AcDbLine
 62
7
  6
CONTINUOUS
 10
22.9486070686
 20
-22.0971309771
 11
22.9486070686
 21
-23.4971309771
  0
LINE
  5
336
100
AcDbEntity
  8
ASSI
100
AcDbLine
 62
7
  6
CONTINUOUS
 10
28.6964206525
 20
-21.6199790227
 11
28.7180702496
 21
-21.6196862678
  0
LINE
  5
337
100
AcDbEntity
  8
RACCORDO
100
AcDbLine
 62
7
  6
CONTINUOUS
 10
-27.6102481666
 20
-22.0971309771
 11
-17.6015216311
 21
-22.0097861439
  0
LINE
  5
338
100
AcDbEntity
  8
RACCORDO
100
AcDbLine
 62
7
  6
CONTINUOUS
 10
-26.6102481666
 20
-22.0005247202
 11
-17.1923896054
 21
-21.9183363136
  0
LINE
  5
339
100
AcDbEntity
  8
RACCORDO
100
AcDbLine
 62
7
  6
CONTINUOUS
 10
-27.6102481666
 20
-21.7471176497
 11
-26.6102481666
 21
-21.7383907819
  0
LINE
  5
33A
100
AcDbEntity
  8
RACCORDO
100
AcDbLine
 62
7
  6
CONTINUOUS
 10
-27.6102481666
 20
-24.0971309771
 11
-26.8587937338
 21
-24.0927591431
  0
LINE
  5
33B
100
AcDbEntity
  8
RACCORDO
100
AcDbLine
 62
7
  6
CONTINUOUS
 10
-19.6102481666
 20
-23.4505883386
 11
-26.6153444888
 21
-23.4913427969
  0
LINE
  5
33C
100
AcDbEntity
  8
DRAFT
100
AcDbLine
 62
7
  6
CONTINUOUS
 10
29.1486070686
 20
-24.0971309771
 11
26.8486070686
 21
-24.0971309771
  0
LINE
  5
33D
100
AcDbEntity
  8
DRAFT
100
AcDbLine
 62
7
  6
CONTINUOUS
 10
10.2486070686
 20
-24.0971309771
 11
7.9486070686
 21
-24.0971309771
  0
LINE
  5
33E
100
AcDbEntity
  8
0
100
AcDbLine
 62
7
  6
CONTINUOUS
 10
29.6486070686
 20
-24.0971309771
 11
39.1986070686
 21
-24.0971309771
  0
LINE
  5
33F
100
AcDbEntity
  8
RACCORDO
100
AcDbLine
 62
7
  6
CONTINUOUS
 10
7.9617056473
 20
-24.0840323984
 11
10.2355084899
 21
-24.0840323984
  0
LINE
  5
340
100
AcDbEntity
  8
RACCORDO
100
AcDbLine
 62
7
  6
CONTINUOUS
 10
26.8617056473
 20
-24.0840323984
 11
29.1355084899
 21
-24.0840323984
  0
LINE
  5
341
100
AcDbEntity
  8
RACCORDO
100
AcDbLine
 62
7
  6
CONTINUOUS
 10
7.9631516431
 20
-23.8340366292
 11
10.2340624941
 21
-23.8340366292
  0
LINE
  5
342
100
AcDbEntity
  8
RACCORDO
100
AcDbLine
 62
7
  6
CONTINUOUS
 10
26.8631516431
 20
-23.8340366292
 11
29.1340624941
 21
-23.8340366292
  0
LINE
  5
343
100
AcDbEntity
  8
RACCORDO
100
AcDbLine
 62
7
  6
CONTINUOUS
 10
29.1340624941
 20
-23.5414685444
 11
26.8631516431
 21
-23.5414685444
  0
LINE
  5
344
100
AcDbEntity
  8
RACCORDO
100
AcDbLine
 62
7
  6
CONTINUOUS
 10
10.2340624941
 20
-23.5414685444
 11
7.9631516431
 21
-23.5414685444
  0
LINE
  5
345
100
AcDbEntity
  8
DRAFT
100
AcDbLine
 62
7
  6
CONTINUOUS
 10
22.9486070686
 20
-23.4971309771
 11
14.1486070686
 21
-23.4971309771
  0
LINE
  5
346
100
AcDbEntity
  8
RACCORDO
100
AcDbLine
 62
7
  6
CONTINUOUS
 10
22.6445295107
 20
-23.4913131473
 11
14.4526846265
 21
-23.4913131473
  0
LINE
  5
347
100
AcDbEntity
  8
RACCORDO
100
AcDbLine
 62
7
  6
CONTINUOUS
 10
29.1347897228
 20
-23.3249621935
 11
26.8624244144
 21
-23.3249621935
  0
LINE
  5
348
100
AcDbEntity
  8
RACCORDO
100
AcDbLine
 62
7
  6
CONTINUOUS
 10
10.2347897228
 20
-23.3249621935
 11
7.9624244144
 21
-23.3249621935
  0
LINE
  5
349
100
AcDbEntity
  8
DRAFT
100
AcDbLine
 62
7
  6
CONTINUOUS
 10
29.1398803239
 20
-22.8197807079
 11
26.8573338133
 21
-22.8197807079
  0
LINE
  5
34A
100
AcDbEntity
  8
DRAFT
100
AcDbLine
 62
7
  6
CONTINUOUS
 10
10.2398803239
 20
-22.8197807079
 11
7.9573338133
 21
-22.8197807079
  0
LINE
  5
34B
100
AcDbEntity
  8
RACCORDO
100
AcDbLine
 62
7
  6
CONTINUOUS
 10
7.7486070686
 20
-22.0971309771
 11
7.9486070686
 21
-22.0971309771
  0
LINE
  5
34C
100
AcDbEntity
  8
DRAFT
100
AcDbLine
 62
7
  6
CONTINUOUS
 10
10.2486070686
 20
-22.0971309771
 11
14.1486070686
 21
-22.0971309771
  0
LINE
  5
34D
100
AcDbEntity
  8
DRAFT
100
AcDbLine
 62
7
  6
CONTINUOUS
 10
22.9486070686
 20
-22.0971309771
 11
26.8486070686
 21
-22.0971309771
  0
LINE
  5
34E
100
AcDbEntity
  8
RACCORDO
100
AcDbLine
 62
7
  6
CONTINUOUS
 10
29.1486070686
 20
-22.0971309771
 11
29.3486070686
 21
-22.0971309771
  0
LINE
  5
34F
100
AcDbEntity
  8
RACCORDO
100
AcDbLine
 62
7
  6
CONTINUOUS
 10
14.4526846265
 20
-22.0884041093
 11
22.6445295107
 21
-22.0884041093
  0
LINE
  5
350
100
AcDbEntity
  8
DRAFT
100
AcDbLine
 62
7
  6
CONTINUOUS
 10
29.1398803239
 20
-22.0840406754
 11
26.8573338133
 21
-22.0840406754
  0
LINE
  5
351
100
AcDbEntity
  8
DRAFT
100
AcDbLine
 62
7
  6
CONTINUOUS
 10
10.2398803239
 20
-22.0840406754
 11
7.9573338133
 21
-22.0840406754
  0
LINE
  5
352
100
AcDbEntity
  8
RACCORDO
100
AcDbLine
 62
7
  6
CONTINUOUS
 10
7.7486070686
 20
-22.0753138077
 11
29.3486070686
 21
-22.0753138077
  0
LINE
  5
353
100
AcDbEntity
  8
ASSI
100
AcDbLine
 62
7
  6
CONTINUOUS
 10
7.3986070686
 20
-21.6971309771
 11
29.6986070686
 21
-21.6971309771
  0
LINE
  5
354
100
AcDbEntity
  8
ASSI
100
AcDbLine
 62
7
  6
CONTINUOUS
 10
28.696439948
 20
-21.6199986478
 11
8.4007741892
 21
-21.6199986478
  0
LINE
  5
355
100
AcDbEntity
  8
0
100
AcDbLine
 62
7
  6
CONTINUOUS
 10
7.3986070686
 20
-21.5559287321
 11
8.0878137441
 21
-21.5559287321
  0
LINE
  5
356
100
AcDbEntity
  8
0
100
AcDbLine
 62
7
  6
CONTINUOUS
 10
29.0094011156
 20
-21.5559287321
 11
29.6986070686
 21
-21.5559287321
  0
LINE
  5
357
100
AcDbEntity
  8
RACCORDO
100
AcDbLine
 62
7
  6
CONTINUOUS
 10
-26.6102481666
 20
-20.8971309771
 11
-16.9050124447
 21
-20.8971309771
  0
LINE
  5
358
100
AcDbEntity
  8
RACCORDO
100
AcDbLine
 62
7
  6
CONTINUOUS
 10
-26.6102481666
 20
-20.5971309771
 11
-16.6102481666
 21
-20.5971309771
  0
LINE
  5
359
100
AcDbEntity
  8
ASSI
100
AcDbLine
 62
7
  6
CONTINUOUS
 10
28.6803726773
 20
-20.4031336057
 11
8.4168414599
 21
-20.4031336057
  0
LINE
  5
35A
100
AcDbEntity
  8
0
100
AcDbLine
 62
7
  6
CONTINUOUS
 10
7.3986070686
 20
-19.6507797257
 11
7.4486070686
 21
-19.6507797257
  0
LINE
  5
35B
100
AcDbEntity
  8
0
100
AcDbLine
 62
7
  6
CONTINUOUS
 10
29.6486070686
 20
-19.6507797257
 11
29.6986070686
 21
-19.6507797257
  0
LINE
  5
35C
100
AcDbEntity
  8
RACCORDO
100
AcDbLine
 62
7
  6
CONTINUOUS
 10
-29.8617025995
 20
-24.0840323984
 11
-27.6102481666
 21
-24.0971309771
  0
LINE
  5
35D
100
AcDbEntity
  8
RACCORDO
100
AcDbLine
 62
7
  6
CONTINUOUS
 10
-30.1102481666
 20
-22.0753138077
 11
-27.6102481666
 21
-22.0971309771
  0
LINE
  5
35E
100
AcDbEntity
  8
RACCORDO
100
AcDbLine
 62
7
  6
CONTINUOUS
 10
-30.1102481666
 20
-21.7253004802
 11
-27.6102481666
 21
-21.7471176497
  0
LINE
  5
35F
100
AcDbEntity
  8
RACCORDO
100
AcDbLine
 62
7
  6
CONTINUOUS
 10
-29.1280440892
 20
-18.2841916031
 11
-29.3583898729
 21
-18.2821814059
  0
LINE
  5
360
100
AcDbEntity
  8
ASSI
100
AcDbLine
 62
7
  6
CONTINUOUS
 10
8.3785574696
 20
-21.6196701888
 11
8.4007934915
 21
-21.6199790229
  0
LINE
  5
361
100
AcDbEntity
  8
RACCORDO
100
AcDbLine
 62
7
  6
CONTINUOUS
 10
-26.6102481666
 20
-21.1850446412
 11
-16.6944144915
 21
-21.3581261618
  0
LINE
  5
362
100
AcDbEntity
  8
RACCORDO
100
AcDbLine
 62
7
  6
CONTINUOUS
 10
-26.6102481666
 20
-20.972821217
 11
-16.9050124447
 21
-21.1422267366
  0
LINE
  5
363
100
AcDbEntity
  8
RACCORDO
100
AcDbLine
 62
7
  6
CONTINUOUS
 10
-29.1532476155
 20
-18.078925354
 11
-29.3838407882
 21
-18.0749003352
  0
LINE
  5
364
100
AcDbEntity
  8
RACCORDO
100
AcDbLine
 62
7
  6
CONTINUOUS
 10
-29.2762771541
 20
-17.0769301703
 11
-29.5068703268
 21
-17.0729051515
  0
LINE
  5
365
100
AcDbEntity
  8
RACCORDO
100
AcDbLine
 62
7
  6
CONTINUOUS
 10
-14.3993318097
 20
-17.4736202827
 11
-14.3731397019
 21
-17.4751415243
  0
LINE
  5
366
100
AcDbEntity
  8
DRAFT
100
AcDbLine
 62
7
  6
CONTINUOUS
 10
38.6486070687
 20
21.7028690229
 11
37.6986070686
 21
24.7028690229
  0
LINE
  5
367
100
AcDbEntity
  8
DRAFT
100
AcDbLine
 62
7
  6
CONTINUOUS
 10
36.7486070685
 20
21.7028690229
 11
38.6486070687
 21
21.7028690229
  0
LINE
  5
368
100
AcDbEntity
  8
DRAFT
100
AcDbLine
 62
7
  6
CONTINUOUS
 10
37.6986070686
 20
24.7028690229
 11
36.7486070685
 21
21.7028690229
  0
HATCH
  5
369
100
AcDbEntity
  8
DRAFT
100
AcDbHatch
 62
7
  6
CONTINUOUS
 10
0.0
 20
0.0
 30
0.0
210
0.0
220
0.0
230
1.0
  2

 70
1
 71
1
 91
1
 92
1
 93
3
 72
1
 10
37.6986070686
 20
24.7028690229
 11
36.7486070685
 21
21.7028690229
 72
1
 10
36.7486070685
 20
21.7028690229
 11
38.6486070687
 21
21.7028690229
 72
1
 10
38.6486070687
 20
21.7028690229
 11
37.6986070686
 21
24.7028690229
 97
3
330
366
330
367
330
368
 75
0
 76
1
 98
1
 10
0.0
 20
0.0
  0
LINE
  5
36A
100
AcDbEntity
  8
RACCORDO
100
AcDbLine
 62
7
  6
CONTINUOUS
 10
26.8624244144
 20
-23.3249621935
 11
26.8573338133
 21
-22.8197807079
  0
LINE
  5
36B
100
AcDbEntity
  8
RACCORDO
100
AcDbLine
 62
7
  6
CONTINUOUS
 10
29.1398803239
 20
23.4255187537
 11
29.1347897228
 21
23.9307002392
  0
LINE
  5
36C
100
AcDbEntity
  8
DRAFT
100
AcDbLine
 62
7
  6
CONTINUOUS
 10
26.6986070686
 20
33.652869023
 11
26.6986070686
 21
31.7528690228
  0
LINE
  5
36D
100
AcDbEntity
  8
DRAFT
100
AcDbLine
 62
7
  6
CONTINUOUS
 10
29.6986070686
 20
32.7028690229
 11
26.6986070686
 21
33.652869023
  0
LINE
  5
36E
100
AcDbEntity
  8
DRAFT
100
AcDbLine
 62
7
  6
CONTINUOUS
 10
26.6986070686
 20
31.7528690228
 11
29.6986070686
 21
32.7028690229
  0
HATCH
  5
36F
100
AcDbEntity
  8
DRAFT
100
AcDbHatch
 62
7
  6
CONTINUOUS
 10
0.0
 20
0.0
 30
0.0
210
0.0
220
0.0
230
1.0
  2

 70
1
 71
1
 91
1
 92
1
 93
3
 72
1
 10
26.6986070686
 20
31.7528690228
 11
29.6986070686
 21
32.7028690229
 72
1
 10
29.6986070686
 20
32.7028690229
 11
26.6986070686
 21
33.652869023
 72
1
 10
26.6986070686
 20
33.652869023
 11
26.6986070686
 21
31.7528690228
 97
3
330
36C
330
36D
330
36E
 75
0
 76
1
 98
1
 10
0.0
 20
0.0
  0
LINE
  5
370
100
AcDbEntity
  8
RACCORDO
100
AcDbLine
 62
7
  6
CONTINUOUS
 10
26.8486070686
 20
-22.0971309771
 11
26.8486070686
 21
-24.0971309771
  0
LINE
  5
371
100
AcDbEntity
  8
RACCORDO
100
AcDbLine
 62
7
  6
CONTINUOUS
 10
26.8486070686
 20
22.7028690229
 11
26.8486070686
 21
24.7028690229
  0
LINE
  5
372
100
AcDbEntity
  8
DRAFT
100
AcDbLine
 62
7
  6
CONTINUOUS
 10
26.8573338133
 20
-22.8197807079
 11
26.8573338133
 21
-22.0840406754
  0
LINE
  5
373
100
AcDbEntity
  8
DRAFT
100
AcDbLine
 62
7
  6
CONTINUOUS
 10
26.8573338133
 20
22.6897787212
 11
26.8573338133
 21
23.4255187537
  0
LINE
  5
374
100
AcDbEntity
  8
RACCORDO
100
AcDbLine
 62
7
  6
CONTINUOUS
 10
26.8631516431
 20
-23.8340366292
 11
26.8631516431
 21
-23.5414685444
  0
LINE
  5
375
100
AcDbEntity
  8
RACCORDO
100
AcDbLine
 62
7
  6
CONTINUOUS
 10
26.8631516431
 20
24.1472065902
 11
26.8631516431
 21
24.4397746749
  0
LINE
  5
376
100
AcDbEntity
  8
RACCORDO
100
AcDbLine
 62
7
  6
CONTINUOUS
 10
29.1340624941
 20
24.4397746749
 11
29.1340624941
 21
24.1472065902
  0
LINE
  5
377
100
AcDbEntity
  8
RACCORDO
100
AcDbLine
 62
7
  6
CONTINUOUS
 10
29.1340624941
 20
-23.5414685444
 11
29.1340624941
 21
-23.8340366292
  0
LINE
  5
378
100
AcDbEntity
  8
DRAFT
100
AcDbLine
 62
7
  6
CONTINUOUS
 10
29.1398803239
 20
-22.8197807079
 11
29.1398803239
 21
-22.0840406754
  0
LINE
  5
379
100
AcDbEntity
  8
DRAFT
100
AcDbLine
 62
7
  6
CONTINUOUS
 10
29.1398803239
 20
22.6897787212
 11
29.1398803239
 21
23.4255187537
  0
LINE
  5
37A
100
AcDbEntity
  8
RACCORDO
100
AcDbLine
 62
7
  6
CONTINUOUS
 10
29.1486070686
 20
-22.0971309771
 11
29.1486070686
 21
-24.0971309771
  0
LINE
  5
37B
100
AcDbEntity
  8
RACCORDO
100
AcDbLine
 62
7
  6
CONTINUOUS
 10
29.1486070686
 20
22.7028690229
 11
29.1486070686
 21
24.7028690229
  0
LINE
  5
37C
100
AcDbEntity
  8
RACCORDO
100
AcDbLine
 62
7
  6
CONTINUOUS
 10
29.3486070686
 20
22.7028690229
 11
29.3486070686
 21
22.6810518534
  0
LINE
  5
37D
100
AcDbEntity
  8
RACCORDO
100
AcDbLine
 62
7
  6
CONTINUOUS
 10
29.3486070686
 20
-22.0753138077
 11
29.3486070686
 21
-22.0971309771
  0
LINE
  5
37E
100
AcDbEntity
  8
ASSI
100
AcDbLine
 62
7
  6
CONTINUOUS
 10
29.6486070686
 20
-20.2675458058
 11
29.6486070686
 21
21.5191913716
  0
LINE
  5
37F
100
AcDbEntity
  8
RACCORDO
100
AcDbLine
 62
7
  6
CONTINUOUS
 10
29.6986070686
 20
22.331038526
 11
29.6986070686
 21
22.3028690229
  0
LINE
  5
380
100
AcDbEntity
  8
ASSI
100
AcDbLine
 62
7
  6
CONTINUOUS
 10
29.6986070686
 20
22.3028690229
 11
29.6986070686
 21
-21.6971309771
  0
LINE
  5
381
100
AcDbEntity
  8
RACCORDO
100
AcDbLine
 62
7
  6
CONTINUOUS
 10
29.6986070686
 20
-21.6971309771
 11
29.6986070686
 21
-21.7253004802
  0
LINE
  5
382
100
AcDbEntity
  8
0
100
AcDbLine
 62
7
  6
CONTINUOUS
 10
29.6986070686
 20
22.6616667778
 11
29.6986070686
 21
34.2028690229
  0
LINE
  5
383
100
AcDbEntity
  8
RACCORDO
100
AcDbLine
 62
7
  6
CONTINUOUS
 10
26.8573338133
 20
23.4255187537
 11
26.8624244144
 21
23.9307002392
  0
LINE
  5
384
100
AcDbEntity
  8
RACCORDO
100
AcDbLine
 62
7
  6
CONTINUOUS
 10
29.1347897228
 20
-23.3249621935
 11
29.1398803239
 21
-22.8197807079
  0
LINE
  5
385
100
AcDbEntity
  8
ASSI
100
AcDbLine
 62
7
  6
CONTINUOUS
 10
28.7180702496
 20
-21.6196862678
 11
28.7658621529
 21
-21.6169615393
  0
LINE
  5
386
100
AcDbEntity
  8
DRAFT
100
AcDbLine
 62
7
  6
CONTINUOUS
 10
-26.6102481666
 20
-20.5471309771
 11
-16.6102481666
 21
-20.3725803278
  0
LINE
  5
387
100
AcDbEntity
  8
RACCORDO
100
AcDbLine
 62
7
  6
CONTINUOUS
 10
-15.2927957602
 20
-19.2851139287
 11
-16.6102481666
 21
-19.308110146
  0
LINE
  5
388
100
AcDbEntity
  8
RACCORDO
100
AcDbLine
 62
7
  6
CONTINUOUS
 10
-15.2927957602
 20
-18.9922653189
 11
-16.6102481666
 21
-19.0152615362
  0
LINE
  5
389
100
AcDbEntity
  8
RACCORDO
100
AcDbLine
 62
7
  6
CONTINUOUS
 10
-26.6102481666
 20
-18.7828281966
 11
-15.2927957602
 21
-18.7010016053
  0
LINE
  5
38A
100
AcDbEntity
  8
RACCORDO
100
AcDbLine
 62
7
  6
CONTINUOUS
 10
-26.6102481666
 20
-17.3688300258
 11
-15.2927957602
 21
-17.2870034345
  0
LINE
  5
38B
100
AcDbEntity
  8
RACCORDO
100
AcDbLine
 62
7
  6
CONTINUOUS
 10
-14.3102481666
 20
-17.4576255495
 11
-14.3721583033
 21
-17.4576255495
  0
LINE
  5
38C
100
AcDbEntity
  8
RACCORDO
100
AcDbLine
 62
7
  6
CONTINUOUS
 10
-15.2927957602
 20
-17.2870034345
 11
-14.3676218802
 21
-17.2870033187
  0
LINE
  5
38D
100
AcDbEntity
  8
CURVE
100
AcDbLine
 62
7
  6
CONTINUOUS
 10
18.5033687764
 20
-15.721890802
 11
17.9605116659
 21
-15.721890802
  0
LINE
  5
38E
100
AcDbEntity
  8
CURVE
100
AcDbLine
 62
7
  6
CONTINUOUS
 10
16.6033688896
 20
-15.721890802
 11
17.1462261134
 21
-15.721890802
  0
LINE
  5
38F
100
AcDbEntity
  8
CURVE
100
AcDbLine
 62
7
  6
CONTINUOUS
 10
20.4033690029
 20
-15.721890802
 11
20.9462258869
 21
-15.721890802
  0
LINE
  5
390
100
AcDbEntity
  8
CURVE
100
AcDbLine
 62
7
  6
CONTINUOUS
 10
16.3319403344
 20
-15.0525756661
 11
17.1462261134
 21
-15.0525756661
  0
LINE
  5
391
100
AcDbEntity
  8
CURVE
100
AcDbLine
 62
7
  6
CONTINUOUS
 10
17.9605116659
 20
-15.0525756661
 11
18.5033687764
 21
-15.0525756661
  0
LINE
  5
392
100
AcDbEntity
  8
CURVE
100
AcDbLine
 62
7
  6
CONTINUOUS
 10
20.1319401079
 20
-15.0525756661
 11
20.9462258869
 21
-15.0525756661
  0
LINE
  5
393
100
AcDbEntity
  8
CURVE
100
AcDbLine
 62
7
  6
CONTINUOUS
 10
22.0319401079
 20
-14.3830727855
 11
21.4890832239
 21
-14.3830727855
  0
LINE
  5
394
100
AcDbEntity
  8
CURVE
100
AcDbLine
 62
7
  6
CONTINUOUS
 10
20.6747974449
 20
-14.3830727855
 11
20.4033690029
 21
-14.3830727855
  0
LINE
  5
395
100
AcDbEntity
  8
CURVE
100
AcDbLine
 62
7
  6
CONTINUOUS
 10
19.5890832239
 20
-14.3830727855
 11
19.0462258869
 21
-14.3830727855
  0
LINE
  5
396
100
AcDbEntity
  8
CURVE
100
AcDbLine
 62
7
  6
CONTINUOUS
 10
16.8747974449
 20
-14.3830727855
 11
16.6033688896
 21
-14.3830727855
  0
LINE
  5
397
100
AcDbEntity
  8
CURVE
100
AcDbLine
 62
7
  6
CONTINUOUS
 10
15.6533688896
 20
-14.3830727855
 11
14.9747974449
 21
-14.3830727855
  0
LINE
  5
398
100
AcDbEntity
  8
CURVE
100
AcDbLine
 62
7
  6
CONTINUOUS
 10
17.6890832239
 20
-14.3830727855
 11
18.3676545554
 21
-14.3830727855
  0
LINE
  5
399
100
AcDbEntity
  8
CURVE
100
AcDbLine
 62
7
  6
CONTINUOUS
 10
18.0962261015
 20
-12.5638971715
 11
17.553368991
 21
-12.5638971715
  0
LINE
  5
39A
100
AcDbEntity
  8
CURVE
100
AcDbLine
 62
7
  6
CONTINUOUS
 10
19.9962261015
 20
-12.5638971715
 11
20.5390829855
 21
-12.5638971715
  0
LINE
  5
39B
100
AcDbEntity
  8
CURVE
100
AcDbLine
 62
7
  6
CONTINUOUS
 10
17.553368991
 20
-11.8936971898
 11
18.0962261015
 21
-11.8936971898
  0
LINE
  5
39C
100
AcDbEntity
  8
CURVE
100
AcDbLine
 62
7
  6
CONTINUOUS
 10
19.7247976595
 20
-11.8936971898
 11
20.5390829855
 21
-11.8936971898
  0
LINE
  5
39D
100
AcDbEntity
  8
CURVE
100
AcDbLine
 62
7
  6
CONTINUOUS
 10
21.6247976595
 20
-11.2233097296
 11
21.0819403225
 21
-11.2233097296
  0
LINE
  5
39E
100
AcDbEntity
  8
CURVE
100
AcDbLine
 62
7
  6
CONTINUOUS
 10
20.2676545435
 20
-11.2233097296
 11
19.9962261015
 21
-11.2233097296
  0
LINE
  5
39F
100
AcDbEntity
  8
CURVE
100
AcDbLine
 62
7
  6
CONTINUOUS
 10
19.1819403225
 20
-11.2233097296
 11
18.639083212
 21
-11.2233097296
  0
LINE
  5
3A0
100
AcDbEntity
  8
CURVE
100
AcDbLine
 62
7
  6
CONTINUOUS
 10
17.2819403225
 20
-11.2233097296
 11
17.960511654
 21
-11.2233097296
  0
LINE
  5
3A1
100
AcDbEntity
  8
RACCORDO
100
AcDbLine
 62
7
  6
CONTINUOUS
 10
-14.3922106146
 20
-9.9369668573
 11
-14.3676218802
 21
-9.9369668586
  0
LINE
  5
3A2
100
AcDbEntity
  8
RACCORDO
100
AcDbLine
 62
7
  6
CONTINUOUS
 10
-14.3102481666
 20
-9.9366364047
 11
-14.3676211149
 21
-9.9366364047
  0
LINE
  5
3A3
100
AcDbEntity
  8
RACCORDO
100
AcDbLine
 62
7
  6
CONTINUOUS
 10
-5.5927957602
 20
-7.6804222856
 11
-4.6102481666
 21
-7.6804222856
  0
LINE
  5
3A4
100
AcDbEntity
  8
DRAFT
100
AcDbLine
 62
7
  6
CONTINUOUS
 10
-4.3363948895
 20
1.9789099656
 11
-2.8841014438
 21
1.851850753
  0
LINE
  5
3A5
100
AcDbEntity
  8
0
100
AcDbLine
 62
7
  6
CONTINUOUS
 10
37.6986070686
 20
-24.0971309771
 11
37.6986070686
 21
24.7028690229
  0
LINE
  5
3A6
100
AcDbEntity
  8
ASSI
100
AcDbLine
 62
7
  6
CONTINUOUS
 10
28.8488812086
 20
22.3129561963
 11
28.6981809767
 21
21.4620200109
  0
LINE
  5
3A7
100
AcDbEntity
  8
ASSI
100
AcDbLine
 62
7
  6
CONTINUOUS
 10
29.6486070686
 20
21.5191913716
 11
29.4979068367
 21
20.6682551862
  0
LINE
  5
3A8
100
AcDbEntity
  8
ASSI
100
AcDbLine
 62
7
  6
CONTINUOUS
 10
28.8127733639
 20
-21.611478159
 11
28.858660028
 21
-21.6033661833
  0
LINE
  5
3A9
100
AcDbEntity
  8
ASSI
100
AcDbLine
 62
7
  6
CONTINUOUS
 10
-28.9602481666
 20
-21.5559287321
 11
-30.1102481666
 21
-21.6971309771
  0
LINE
  5
3AA
100
AcDbEntity
  8
ASSI
100
AcDbLine
 62
7
  6
CONTINUOUS
 10
28.7658621529
 20
-21.6169615393
 11
28.8127733639
 21
-21.611478159
  0
LINE
  5
3AB
100
AcDbEntity
  8
ASSI
100
AcDbLine
 62
7
  6
CONTINUOUS
 10
-34.7476341528
 20
-21.6130929453
 11
-29.0171557114
 21
-21.0613106305
  0
LINE
  5
3AC
100
AcDbEntity
  8
ASSI
100
AcDbLine
 62
7
  6
CONTINUOUS
 10
-34.8450962183
 20
-20.8193281206
 11
-29.1146177768
 21
-20.2675458058
  0
LINE
  5
3AD
100
AcDbEntity
  8
RACCORDO
100
AcDbLine
 62
7
  6
CONTINUOUS
 10
-5.5927957602
 20
-8.6802699808
 11
-13.8189743699
 21
-8.8238584625
  0
LINE
  5
3AE
100
AcDbEntity
  8
RACCORDO
100
AcDbLine
 62
7
  6
CONTINUOUS
 10
-5.5927957602
 20
-7.6804222856
 11
-15.2927957602
 21
-7.8497364154
  0
LINE
  5
3AF
100
AcDbEntity
  8
RACCORDO
100
AcDbLine
 62
7
  6
CONTINUOUS
 10
-31.0018674125
 20
-4.8971309771
 11
-30.7717684499
 21
-4.8971309771
  0
LINE
  5
3B0
100
AcDbEntity
  8
RACCORDO
100
AcDbLine
 62
7
  6
CONTINUOUS
 10
-31.0264243247
 20
-4.6971309771
 11
-30.7963253621
 21
-4.6971309771
  0
LINE
  5
3B1
100
AcDbEntity
  8
RACCORDO
100
AcDbLine
 62
7
  6
CONTINUOUS
 10
-31.0509812368
 20
-4.4971309771
 11
-30.8208822743
 21
-4.4971309771
  0
LINE
  5
3B2
100
AcDbEntity
  8
RACCORDO
100
AcDbLine
 62
7
  6
CONTINUOUS
 10
-2.6102481666
 20
-2.5308223744
 11
-2.9050124447
 21
-2.5308223744
  0
LINE
  5
3B3
100
AcDbEntity
  8
ASSI
100
AcDbLine
 62
7
  6
CONTINUOUS
 10
7.3986070686
 20
0.3028690229
 11
7.4486070686
 21
0.3028690229
  0
LINE
  5
3B4
100
AcDbEntity
  8
ASSI
100
AcDbLine
 62
7
  6
CONTINUOUS
 10
29.6486070686
 20
0.3028690229
 11
29.6986070686
 21
0.3028690229
  0
LINE
  5
3B5
100
AcDbEntity
  8
RACCORDO
100
AcDbLine
 62
7
  6
CONTINUOUS
 10
-2.6102481666
 20
0.3365603835
 11
-2.9050124447
 21
0.3365603835
  0
LINE
  5
3B6
100
AcDbEntity
  8
DRAFT
100
AcDbLine
 62
7
  6
CONTINUOUS
 10
-31.1913090052
 20
-1.4802473547
 11
-31.4219021779
 21
-1.4762223359
  0
LINE
  5
3B7
100
AcDbEntity
  8
DRAFT
100
AcDbLine
 62
7
  6
CONTINUOUS
 10
-4.3363948895
 20
15.4789099656
 11
-2.8841014438
 21
15.351850753
  0
LINE
  5
3B8
100
AcDbEntity
  8
ASSI
100
AcDbLine
 62
7
  6
CONTINUOUS
 10
-30.1102481666
 20
22.3028690229
 11
-28.9602481666
 21
22.1616667778
  0
LINE
  5
3B9
100
AcDbEntity
  8
ASSI
100
AcDbLine
 62
7
  6
CONTINUOUS
 10
28.858660028
 20
-21.6033661833
 11
28.9034047416
 21
-21.5927567766
  0
LINE
  5
3BA
100
AcDbEntity
  8
DRAFT
100
AcDbLine
 62
7
  6
CONTINUOUS
 10
-29.2121466608
 20
-19.4732367878
 11
-28.9854651596
 21
-19.4454037992
  0
LINE
  5
3BB
100
AcDbEntity
  8
DRAFT
100
AcDbLine
 62
7
  6
CONTINUOUS
 10
-4.3363948895
 20
-4.1731719199
 11
-2.8841014438
 21
-4.0461127073
  0
LINE
  5
3BC
100
AcDbEntity
  8
DRAFT
100
AcDbLine
 62
7
  6
CONTINUOUS
 10
-31.8578577351
 20
2.0743507491
 11
-31.1913090052
 21
2.0859854004
  0
LINE
  5
3BD
100
AcDbEntity
  8
RACCORDO
100
AcDbLine
 62
7
  6
CONTINUOUS
 10
-30.8208822743
 20
5.1028690229
 11
-32.2297130215
 21
5.1028690229
  0
LINE
  5
3BE
100
AcDbEntity
  8
RACCORDO
100
AcDbLine
 62
7
  6
CONTINUOUS
 10
-30.7963253621
 20
5.3028690229
 11
-32.2542699337
 21
5.3028690229
  0
LINE
  5
3BF
100
AcDbEntity
  8
RACCORDO
100
AcDbLine
 62
7
  6
CONTINUOUS
 10
-30.7717684499
 20
5.5028690229
 11
-32.2788268459
 21
5.5028690229
  0
LINE
  5
3C0
100
AcDbEntity
  8
RACCORDO
100
AcDbLine
 62
7
  6
CONTINUOUS
 10
-2.6102481666
 20
10.9691776913
 11
-2.9050124447
 21
10.9691776913
  0
LINE
  5
3C1
100
AcDbEntity
  8
ASSI
100
AcDbLine
 62
7
  6
CONTINUOUS
 10
29.4979068367
 20
-20.8193281206
 11
29.6486070686
 21
-20.2675458058
  0
LINE
  5
3C2
100
AcDbEntity
  8
ASSI
100
AcDbLine
 62
7
  6
CONTINUOUS
 10
29.4682631869
 20
-21.0335045003
 11
29.6207374703
 21
-20.4753222795
  0
LINE
  5
3C3
100
AcDbEntity
  8
DRAFT
100
AcDbLine
 62
7
  6
CONTINUOUS
 10
-4.3363948895
 20
9.3268280801
 11
-2.8841014438
 21
9.4538872927
  0
LINE
  5
3C4
100
AcDbEntity
  8
RACCORDO
100
AcDbLine
 62
7
  6
CONTINUOUS
 10
-29.2762771541
 20
17.682668216
 11
-33.6102481666
 21
17.6070184706
  0
LINE
  5
3C5
100
AcDbEntity
  8
RACCORDO
100
AcDbLine
 62
7
  6
CONTINUOUS
 10
-29.1532476155
 20
18.6846633998
 11
-33.6102481666
 21
18.6068661658
  0
LINE
  5
3C6
100
AcDbEntity
  8
RACCORDO
100
AcDbLine
 62
7
  6
CONTINUOUS
 10
-2.6102481666
 20
13.8365604155
 11
-2.9050124447
 21
13.8365604155
  0
LINE
  5
3C7
100
AcDbEntity
  8
RACCORDO
100
AcDbLine
 62
7
  6
CONTINUOUS
 10
-5.5927957602
 20
17.8226092714
 11
-4.6102481666
 21
17.8226348471
  0
LINE
  5
3C8
100
AcDbEntity
  8
ASSI
100
AcDbLine
 62
7
  6
CONTINUOUS
 10
28.6803726773
 20
19.8968612321
 11
8.4168414599
 21
19.8968612321
  0
LINE
  5
3C9
100
AcDbEntity
  8
0
100
AcDbLine
 62
7
  6
CONTINUOUS
 10
7.3986070686
 20
20.2565177714
 11
7.4486070686
 21
20.2565177714
  0
LINE
  5
3CA
100
AcDbEntity
  8
0
100
AcDbLine
 62
7
  6
CONTINUOUS
 10
29.6486070686
 20
20.2565177714
 11
29.6986070686
 21
20.2565177714
  0
LINE
  5
3CB
100
AcDbEntity
  8
RACCORDO
100
AcDbLine
 62
7
  6
CONTINUOUS
 10
-26.6102481666
 20
21.2028690229
 11
-16.6102481666
 21
21.2028690229
  0
LINE
  5
3CC
100
AcDbEntity
  8
ASSI
100
AcDbLine
 62
7
  6
CONTINUOUS
 10
28.6981809767
 20
21.4620200109
 11
8.3990331605
 21
21.4620200109
  0
LINE
  5
3CD
100
AcDbEntity
  8
RACCORDO
100
AcDbLine
 62
7
  6
CONTINUOUS
 10
-26.6102481666
 20
21.5028690229
 11
-16.9050124447
 21
21.5028690229
  0
LINE
  5
3CE
100
AcDbEntity
  8
0
100
AcDbLine
 62
7
  6
CONTINUOUS
 10
7.3986070686
 20
22.1616667778
 11
7.7793479333
 21
22.1616667778
  0
LINE
  5
3CF
100
AcDbEntity
  8
0
100
AcDbLine
 62
7
  6
CONTINUOUS
 10
29.3178661939
 20
22.1616667778
 11
29.6986070686
 21
22.1616667778
  0
LINE
  5
3D0
100
AcDbEntity
  8
ASSI
100
AcDbLine
 62
7
  6
CONTINUOUS
 10
7.3986070686
 20
22.3028690229
 11
8.1238125092
 21
22.3028690229
  0
LINE
  5
3D1
100
AcDbEntity
  8
ASSI
100
AcDbLine
 62
7
  6
CONTINUOUS
 10
28.9734016476
 20
22.3028690229
 11
29.6986070686
 21
22.3028690229
  0
LINE
  5
3D2
100
AcDbEntity
  8
ASSI
100
AcDbLine
 62
7
  6
CONTINUOUS
 10
8.2483329286
 20
22.3129561963
 11
28.8488812086
 21
22.3129561963
  0
LINE
  5
3D3
100
AcDbEntity
  8
RACCORDO
100
AcDbLine
 62
7
  6
CONTINUOUS
 10
29.3486070686
 20
22.6810518534
 11
7.7486070686
 21
22.6810518534
  0
LINE
  5
3D4
100
AcDbEntity
  8
DRAFT
100
AcDbLine
 62
7
  6
CONTINUOUS
 10
29.1398803239
 20
22.6897787212
 11
26.8573338133
 21
22.6897787212
  0
LINE
  5
3D5
100
AcDbEntity
  8
DRAFT
100
AcDbLine
 62
7
  6
CONTINUOUS
 10
10.2398803239
 20
22.6897787212
 11
7.9573338133
 21
22.6897787212
  0
LINE
  5
3D6
100
AcDbEntity
  8
RACCORDO
100
AcDbLine
 62
7
  6
CONTINUOUS
 10
14.4526846265
 20
22.6941421551
 11
22.6445295107
 21
22.6941421551
  0
LINE
  5
3D7
100
AcDbEntity
  8
RACCORDO
100
AcDbLine
 62
7
  6
CONTINUOUS
 10
7.7486070686
 20
22.7028690229
 11
7.9486070686
 21
22.7028690229
  0
LINE
  5
3D8
100
AcDbEntity
  8
DRAFT
100
AcDbLine
 62
7
  6
CONTINUOUS
 10
10.2486070686
 20
22.7028690229
 11
14.1486070686
 21
22.7028690229
  0
LINE
  5
3D9
100
AcDbEntity
  8
DRAFT
100
AcDbLine
 62
7
  6
CONTINUOUS
 10
22.9486070686
 20
22.7028690229
 11
26.8486070686
 21
22.7028690229
  0
LINE
  5
3DA
100
AcDbEntity
  8
RACCORDO
100
AcDbLine
 62
7
  6
CONTINUOUS
 10
29.1486070686
 20
22.7028690229
 11
29.3486070686
 21
22.7028690229
  0
LINE
  5
3DB
100
AcDbEntity
  8
DRAFT
100
AcDbLine
 62
7
  6
CONTINUOUS
 10
29.1398803239
 20
23.4255187537
 11
26.8573338133
 21
23.4255187537
  0
LINE
  5
3DC
100
AcDbEntity
  8
DRAFT
100
AcDbLine
 62
7
  6
CONTINUOUS
 10
10.2398803239
 20
23.4255187537
 11
7.9573338133
 21
23.4255187537
  0
LINE
  5
3DD
100
AcDbEntity
  8
RACCORDO
100
AcDbLine
 62
7
  6
CONTINUOUS
 10
-26.6153444888
 20
24.0970808426
 11
-19.6102481666
 21
24.0563263844
  0
LINE
  5
3DE
100
AcDbEntity
  8
RACCORDO
100
AcDbLine
 62
7
  6
CONTINUOUS
 10
-5.5927957602
 20
17.8226092714
 11
-26.6102481666
 21
17.9745680716
  0
LINE
  5
3DF
100
AcDbEntity
  8
RACCORDO
100
AcDbLine
 62
7
  6
CONTINUOUS
 10
-5.5927957602
 20
19.2366074422
 11
-26.6102481666
 21
19.3885662424
  0
LINE
  5
3E0
100
AcDbEntity
  8
RACCORDO
100
AcDbLine
 62
7
  6
CONTINUOUS
 10
-26.6102481666
 20
22.3441288276
 11
-27.6102481666
 21
22.3528556954
  0
LINE
  5
3E1
100
AcDbEntity
  8
RACCORDO
100
AcDbLine
 62
7
  6
CONTINUOUS
 10
-26.6102481666
 20
22.6062627659
 11
-17.1923896054
 21
22.5240743594
  0
LINE
  5
3E2
100
AcDbEntity
  8
RACCORDO
100
AcDbLine
 62
7
  6
CONTINUOUS
 10
-17.6015216311
 20
22.6155241896
 11
-27.6102481666
 21
22.7028690229
  0
LINE
  5
3E3
100
AcDbEntity
  8
RACCORDO
100
AcDbLine
 62
7
  6
CONTINUOUS
 10
-16.6102481666
 20
19.620999582
 11
-5.5927957602
 21
19.4286892349
  0
LINE
  5
3E4
100
AcDbEntity
  8
RACCORDO
100
AcDbLine
 62
7
  6
CONTINUOUS
 10
-16.6102481666
 20
19.9138481917
 11
-5.5927957602
 21
19.7215378446
  0
LINE
  5
3E5
100
AcDbEntity
  8
DRAFT
100
AcDbLine
 62
7
  6
CONTINUOUS
 10
-26.6102481666
 20
21.1528690229
 11
-16.6102481666
 21
20.9783183736
  0
LINE
  5
3E6
100
AcDbEntity
  8
ASSI
100
AcDbLine
 62
7
  6
CONTINUOUS
 10
29.4587923283
 20
-21.064781394
 11
29.4682631869
 21
-21.0335045003
  0
LINE
  5
3E7
100
AcDbEntity
  8
RACCORDO
100
AcDbLine
 62
7
  6
CONTINUOUS
 10
-26.6102481666
 20
21.5785592627
 11
-16.9050124447
 21
21.7479647824
  0
LINE
  5
3E8
100
AcDbEntity
  8
RACCORDO
100
AcDbLine
 62
7
  6
CONTINUOUS
 10
-26.6102481666
 20
21.7907826869
 11
-16.6944144915
 21
21.9638642075
  0
LINE
  5
3E9
100
AcDbEntity
  8
RACCORDO
100
AcDbLine
 62
7
  6
CONTINUOUS
 10
-27.6102481666
 20
22.3528556954
 11
-30.1102481666
 21
22.331038526
  0
LINE
  5
3EA
100
AcDbEntity
  8
RACCORDO
100
AcDbLine
 62
7
  6
CONTINUOUS
 10
-27.6102481666
 20
22.7028690229
 11
-30.1102481666
 21
22.6810518534
  0
LINE
  5
3EB
100
AcDbEntity
  8
RACCORDO
100
AcDbLine
 62
7
  6
CONTINUOUS
 10
-29.8617025995
 20
24.6897704442
 11
-27.6102481666
 21
24.7028690229
  0
LINE
  5
3EC
100
AcDbEntity
  8
RACCORDO
100
AcDbLine
 62
7
  6
CONTINUOUS
 10
7.9624244144
 20
23.9307002392
 11
10.2347897228
 21
23.9307002392
  0
LINE
  5
3ED
100
AcDbEntity
  8
RACCORDO
100
AcDbLine
 62
7
  6
CONTINUOUS
 10
26.8624244144
 20
23.9307002392
 11
29.1347897228
 21
23.9307002392
  0
LINE
  5
3EE
100
AcDbEntity
  8
RACCORDO
100
AcDbLine
 62
7
  6
CONTINUOUS
 10
14.4526846265
 20
24.0970511931
 11
22.6445295107
 21
24.0970511931
  0
LINE
  5
3EF
100
AcDbEntity
  8
DRAFT
100
AcDbLine
 62
7
  6
CONTINUOUS
 10
14.1486070686
 20
24.1028690229
 11
22.9486070686
 21
24.1028690229
  0
LINE
  5
3F0
100
AcDbEntity
  8
RACCORDO
100
AcDbLine
 62
7
  6
CONTINUOUS
 10
7.9631516431
 20
24.1472065902
 11
10.2340624941
 21
24.1472065902
  0
LINE
  5
3F1
100
AcDbEntity
  8
RACCORDO
100
AcDbLine
 62
7
  6
CONTINUOUS
 10
26.8631516431
 20
24.1472065902
 11
29.1340624941
 21
24.1472065902
  0
LINE
  5
3F2
100
AcDbEntity
  8
RACCORDO
100
AcDbLine
 62
7
  6
CONTINUOUS
 10
29.1340624941
 20
24.4397746749
 11
26.8631516431
 21
24.4397746749
  0
LINE
  5
3F3
100
AcDbEntity
  8
RACCORDO
100
AcDbLine
 62
7
  6
CONTINUOUS
 10
10.2340624941
 20
24.4397746749
 11
7.9631516431
 21
24.4397746749
  0
LINE
  5
3F4
100
AcDbEntity
  8
RACCORDO
100
AcDbLine
 62
7
  6
CONTINUOUS
 10
29.1355084899
 20
24.6897704442
 11
26.8617056473
 21
24.6897704442
  0
LINE
  5
3F5
100
AcDbEntity
  8
RACCORDO
100
AcDbLine
 62
7
  6
CONTINUOUS
 10
10.2355084899
 20
24.6897704442
 11
7.9617056473
 21
24.6897704442
  0
LINE
  5
3F6
100
AcDbEntity
  8
DRAFT
100
AcDbLine
 62
7
  6
CONTINUOUS
 10
7.9486070686
 20
24.7028690229
 11
10.2486070686
 21
24.7028690229
  0
LINE
  5
3F7
100
AcDbEntity
  8
DRAFT
100
AcDbLine
 62
7
  6
CONTINUOUS
 10
26.8486070686
 20
24.7028690229
 11
29.1486070686
 21
24.7028690229
  0
LINE
  5
3F8
100
AcDbEntity
  8
0
100
AcDbLine
 62
7
  6
CONTINUOUS
 10
29.6486070686
 20
24.7028690229
 11
39.1986070686
 21
24.7028690229
  0
LINE
  5
3F9
100
AcDbEntity
  8
0
100
AcDbLine
 62
7
  6
CONTINUOUS
 10
7.3986070686
 20
32.7028690229
 11
29.6986070686
 21
32.7028690229
  0
LINE
  5
3FA
100
AcDbEntity
  8
0
100
AcDbLine
 62
7
  6
CONTINUOUS
 10
-2.6102481666
 20
32.7028690229
 11
-26.6102481666
 21
32.7028690229
  0
LINE
  5
3FB
100
AcDbEntity
  8
RACCORDO
100
AcDbLine
 62
7
  6
CONTINUOUS
 10
-27.6102481666
 20
24.7028690229
 11
-26.8587937338
 21
24.6984971889
  0
LINE
  5
3FC
100
AcDbEntity
  8
ASSI
100
AcDbLine
 62
7
  6
CONTINUOUS
 10
29.447574904
 20
-21.0970106931
 11
29.4587923283
 21
-21.064781394
  0
LINE
  5
3FD
100
AcDbEntity
  8
ASSI
100
AcDbLine
 62
7
  6
CONTINUOUS
 10
29.4346623513
 20
-21.1295710218
 11
29.447574904
 21
-21.0970106931
  0
LINE
  5
3FE
100
AcDbEntity
  8
DRAFT
100
AcDbLine
 62
7
  6
CONTINUOUS
 10
10.2486070686
 20
22.7028690229
 11
10.2398803239
 21
22.6897787212
  0
LINE
  5
3FF
100
AcDbEntity
  8
DRAFT
100
AcDbLine
 62
7
  6
CONTINUOUS
 10
-33.552691898
 20
20.7979592022
 11
-34.1478550687
 21
20.7248823536
  0
LINE
  5
400
100
AcDbEntity
  8
0
100
AcDbLine
 62
7
  6
CONTINUOUS
 10
-2.6102481666
 20
42.7028690229
 11
-41.3126557954
 21
42.7028690229
  0
LINE
  5
401
100
AcDbEntity
  8
ASSI
100
AcDbLine
 62
7
  6
CONTINUOUS
 10
29.419968795
 20
-21.1623471235
 11
29.4346623513
 21
-21.1295710218
  0
LINE
  5
402
100
AcDbEntity
  8
RACCORDO
100
AcDbLine
 62
7
  6
CONTINUOUS
 10
22.9445244338
 20
22.6967449842
 11
22.9486070686
 21
22.7028690229
  0
LINE
  5
403
100
AcDbEntity
  8
DRAFT
100
AcDbLine
 62
7
  6
CONTINUOUS
 10
29.1486070686
 20
22.7028690229
 11
29.1398803239
 21
22.6897787212
  0
LINE
  5
404
100
AcDbEntity
  8
ASSI
100
AcDbLine
 62
7
  6
CONTINUOUS
 10
-34.2453839527
 20
21.5191913716
 11
-39.9391309176
 21
20.6682551862
  0
LINE
  5
405
100
AcDbEntity
  8
ASSI
100
AcDbLine
 62
7
  6
CONTINUOUS
 10
-34.3428460182
 20
22.3129561963
 11
-40.036592983
 21
21.4620200109
  0
LINE
  5
406
100
AcDbEntity
  8
0
100
AcDbLine
 62
7
  6
CONTINUOUS
 10
-32.793092119
 20
21.9994871355
 11
-33.2893651948
 21
21.9385524638
  0
LINE
  5
407
100
AcDbEntity
  8
ASSI
100
AcDbLine
 62
7
  6
CONTINUOUS
 10
29.4033905734
 20
-21.1952618379
 11
29.419968795
 21
-21.1623471235
  0
LINE
  5
408
100
AcDbEntity
  8
ASSI
100
AcDbLine
 62
7
  6
CONTINUOUS
 10
29.3851087786
 20
-21.2277432629
 11
29.4033905734
 21
-21.1952618379
  0
LINE
  5
409
100
AcDbEntity
  8
DRAFT
100
AcDbLine
 62
7
  6
CONTINUOUS
 10
7.9573338133
 20
-22.0840406754
 11
7.9486070686
 21
-22.0971309771
  0
LINE
  5
40A
100
AcDbEntity
  8
RACCORDO
100
AcDbLine
 62
7
  6
CONTINUOUS
 10
14.1526897034
 20
-22.0910069385
 11
14.1486070686
 21
-22.0971309771
  0
LINE
  5
40B
100
AcDbEntity
  8
RACCORDO
100
AcDbLine
 62
7
  6
CONTINUOUS
 10
10.2355084899
 20
24.6897704442
 11
10.2486070686
 21
24.7028690229
  0
LINE
  5
40C
100
AcDbEntity
  8
ASSI
100
AcDbLine
 62
7
  6
CONTINUOUS
 10
29.3652256757
 20
-21.2595164735
 11
29.3851087786
 21
-21.2277432629
  0
LINE
  5
40D
100
AcDbEntity
  8
DRAFT
100
AcDbLine
 62
7
  6
CONTINUOUS
 10
26.8573338133
 20
-22.0840406754
 11
26.8486070686
 21
-22.0971309771
  0
LINE
  5
40E
100
AcDbEntity
  8
RACCORDO
100
AcDbLine
 62
7
  6
CONTINUOUS
 10
22.9445244338
 20
24.098786388
 11
22.9486070686
 21
24.1028690229
  0
LINE
  5
40F
100
AcDbEntity
  8
RACCORDO
100
AcDbLine
 62
7
  6
CONTINUOUS
 10
-34.0016118567
 20
19.5338269717
 11
-33.3859019277
 21
19.6930603862
  0
LINE
  5
410
100
AcDbEntity
  8
ASSI
100
AcDbLine
 62
7
  6
CONTINUOUS
 10
29.3436295911
 20
-21.2906728266
 11
29.3652256757
 21
-21.2595164735
  0
LINE
  5
411
100
AcDbEntity
  8
RACCORDO
100
AcDbLine
 62
7
  6
CONTINUOUS
 10
29.1355084899
 20
24.6897704442
 11
29.1486070686
 21
24.7028690229
  0
LINE
  5
412
100
AcDbEntity
  8
ASSI
100
AcDbLine
 62
7
  6
CONTINUOUS
 10
29.3202456128
 20
-21.321197507
 11
29.3436295911
 21
-21.2906728266
  0
LINE
  5
413
100
AcDbEntity
  8
ASSI
100
AcDbLine
 62
7
  6
CONTINUOUS
 10
29.2950427037
 20
-21.3509972081
 11
29.3202456128
 21
-21.321197507
  0
LINE
  5
414
100
AcDbEntity
  8
RACCORDO
100
AcDbLine
 62
7
  6
CONTINUOUS
 10
-26.7352481666
 20
23.9307002392
 11
-27.4852481666
 21
23.4976875373
  0
LINE
  5
415
100
AcDbEntity
  8
ASSI
100
AcDbLine
 62
7
  6
CONTINUOUS
 10
29.2680373543
 20
-21.3799245749
 11
29.2950427037
 21
-21.3509972081
  0
LINE
  5
416
100
AcDbEntity
  8
RACCORDO
100
AcDbLine
 62
7
  6
CONTINUOUS
 10
7.9617056473
 20
-24.0840323984
 11
7.9486070686
 21
-24.0971309771
  0
LINE
  5
417
100
AcDbEntity
  8
RACCORDO
100
AcDbLine
 62
7
  6
CONTINUOUS
 10
14.1526897034
 20
-23.4930483423
 11
14.1486070686
 21
-23.4971309771
  0
LINE
  5
418
100
AcDbEntity
  8
RACCORDO
100
AcDbLine
 62
7
  6
CONTINUOUS
 10
26.8617056473
 20
-24.0840323984
 11
26.8486070686
 21
-24.0971309771
  0
LINE
  5
419
100
AcDbEntity
  8
ASSI
100
AcDbLine
 62
7
  6
CONTINUOUS
 10
29.2392240639
 20
-21.4078645348
 11
29.2680373543
 21
-21.3799245749
  0
LINE
  5
41A
100
AcDbEntity
  8
ASSI
100
AcDbLine
 62
7
  6
CONTINUOUS
 10
29.2086150517
 20
-21.4346869468
 11
29.2392240639
 21
-21.4078645348
  0
LINE
  5
41B
100
AcDbEntity
  8
RACCORDO
100
AcDbLine
 62
7
  6
CONTINUOUS
 10
-29.9852481666
 20
-23.3249621935
 11
-29.1102481666
 21
-22.8197807079
  0
LINE
  5
41C
100
AcDbEntity
  8
ASSI
100
AcDbLine
 62
7
  6
CONTINUOUS
 10
29.1762329112
 20
-21.4602575254
 11
29.2086150517
 21
-21.4346869468
  0
LINE
  5
41D
100
AcDbEntity
  8
ASSI
100
AcDbLine
 62
7
  6
CONTINUOUS
 10
29.1420991226
 20
-21.4844469506
 11
29.1762329112
 21
-21.4602575254
  0
LINE
  5
41E
100
AcDbEntity
  8
ASSI
100
AcDbLine
 62
7
  6
CONTINUOUS
 10
29.1062556754
 20
-21.5071148681
 11
29.1420991226
 21
-21.4844469506
  0
LINE
  5
41F
100
AcDbEntity
  8
ASSI
100
AcDbLine
 62
7
  6
CONTINUOUS
 10
29.068752914
 20
-21.5281212199
 11
29.1062556754
 21
-21.5071148681
  0
LINE
  5
420
100
AcDbEntity
  8
ASSI
100
AcDbLine
 62
7
  6
CONTINUOUS
 10
29.0296386807
 20
-21.5473313188
 11
29.068752914
 21
-21.5281212199
  0
LINE
  5
421
100
AcDbEntity
  8
ASSI
100
AcDbLine
 62
7
  6
CONTINUOUS
 10
28.9889876404
 20
-21.5646008764
 11
29.0296386807
 21
-21.5473313188
  0
LINE
  5
422
100
AcDbEntity
  8
ASSI
100
AcDbLine
 62
7
  6
CONTINUOUS
 10
28.9468837673
 20
-21.5797878577
 11
28.9889876404
 21
-21.5646008764
  0
LINE
  5
423
100
AcDbEntity
  8
ASSI
100
AcDbLine
 62
7
  6
CONTINUOUS
 10
28.9034047416
 20
-21.5927567766
 11
28.9468837673
 21
-21.5797878577
  0
ARC
  5
424
100
AcDbEntity
  8
ASSI
100
AcDbCircle
 62
7
  6
CONTINUOUS
 10
-11244.7349972818
 20
-0.2531361868
 40
11253.1698791128
100
AcDbArc
 50
359.8974057587
 51
0.1025942413
  0
ARC
  5
425
100
AcDbEntity
  8
ASSI
100
AcDbCircle
 62
7
  6
CONTINUOUS
 10
-11185.5978994283
 20
-0.1584163364
 40
11193.2330553993
100
AcDbArc
 50
359.8971314428
 51
0.1028685572
  0
ARC
  5
426
100
AcDbEntity
  8
RACCORDO
100
AcDbCircle
 62
7
  6
CONTINUOUS
 10
-32.5641560414
 20
-237.5794744328
 40
239.7575951281
100
AcDbArc
 50
82.8940394686
 51
83.5408795088
  0
ARC
  5
427
100
AcDbEntity
  8
RACCORDO
100
AcDbCircle
 62
7
  6
CONTINUOUS
 10
-32.5639429879
 20
-224.077724553
 40
239.755832365
100
AcDbArc
 50
82.8940382624
 51
83.5408830569
  0
ARC
  5
428
100
AcDbEntity
  8
RACCORDO
100
AcDbCircle
 62
7
  6
CONTINUOUS
 10
-25.3288323151
 20
-160.0231785819
 40
162.2135001083
100
AcDbArc
 50
82.0467317343
 51
82.7816257671
  0
ARC
  5
429
100
AcDbEntity
  8
RACCORDO
100
AcDbCircle
 62
7
  6
CONTINUOUS
 10
-25.3285238336
 20
-146.5209372059
 40
162.2112376419
100
AcDbArc
 50
82.0467301063
 51
82.7816344333
  0
ARC
  5
42A
100
AcDbEntity
  8
RACCORDO
100
AcDbCircle
 62
7
  6
CONTINUOUS
 10
-44.450521102
 20
-5.6385528223
 40
41.6615803604
100
AcDbArc
 50
3.8733073432
 51
4.2779314501
  0
ARC
  5
42B
100
AcDbEntity
  8
RACCORDO
100
AcDbCircle
 62
7
  6
CONTINUOUS
 10
-40.3372249991
 20
3.1512365524
 40
37.53788671
100
AcDbArc
 50
355.699796093
 51
356.1488701372
  0
ARC
  5
42C
100
AcDbEntity
  8
RACCORDO
100
AcDbCircle
 62
7
  6
CONTINUOUS
 10
-40.6490902379
 20
-44.5139249697
 40
33.3169252565
100
AcDbArc
 50
44.0284986359
 51
44.5471722056
  0
ARC
  5
42D
100
AcDbEntity
  8
RACCORDO
100
AcDbCircle
 62
7
  6
CONTINUOUS
 10
-7.0602485201
 20
-2.3772670333
 40
4.4500005094
100
AcDbArc
 50
0.0151679786
 51
0.8158174158
  0
ARC
  5
42E
100
AcDbEntity
  8
RACCORDO
100
AcDbCircle
 62
7
  6
CONTINUOUS
 10
-6.9513092617
 20
0.1822150686
 40
4.3410611124
100
AcDbArc
 50
359.1741362225
 51
359.9948783831
  0
ARC
  5
42F
100
AcDbEntity
  8
RACCORDO
100
AcDbCircle
 62
7
  6
CONTINUOUS
 10
-16.8115924314
 20
-17.2881250092
 40
2.4193820711
100
AcDbArc
 50
355.6027877705
 51
0.0265611214
  0
ARC
  5
430
100
AcDbEntity
  8
ASSI
100
AcDbCircle
 62
7
  6
CONTINUOUS
 10
-34.8914027816
 20
-20.1199986478
 40
1.5
100
AcDbArc
 50
190.880231945
 51
275.5
  0
ARC
  5
431
100
AcDbEntity
  8
RACCORDO
100
AcDbCircle
 62
7
  6
CONTINUOUS
 10
-15.3102481666
 20
-18.2852662335
 40
1.0
100
AcDbArc
 50
271.0
 51
360.0
  0
ARC
  5
432
100
AcDbEntity
  8
RACCORDO
100
AcDbCircle
 62
7
  6
CONTINUOUS
 10
-5.6102481666
 20
-7.6804222856
 40
1.0
100
AcDbArc
 50
271.0
 51
360.0
  0
ARC
  5
433
100
AcDbEntity
  8
RACCORDO
100
AcDbCircle
 62
7
  6
CONTINUOUS
 10
-17.6102481666
 20
-21.0098242208
 40
1.0
100
AcDbArc
 50
270.5
 51
360.0
  0
ARC
  5
434
100
AcDbEntity
  8
ASSI
100
AcDbCircle
 62
7
  6
CONTINUOUS
 10
28.700374425
 20
-20.8180324534
 40
0.7975334641
100
AcDbArc
 50
344.7697455056
 51
359.9069176435
  0
ARC
  5
435
100
AcDbEntity
  8
ASSI
100
AcDbCircle
 62
7
  6
CONTINUOUS
 10
8.3968396912
 20
-20.8180324611
 40
0.7975334432
100
AcDbArc
 50
180.0930818117
 51
195.2302505298
  0
ARC
  5
436
100
AcDbEntity
  8
ASSI
100
AcDbCircle
 62
7
  6
CONTINUOUS
 10
-34.9121835592
 20
-20.1225445203
 40
0.7000057836
100
AcDbArc
 50
190.8806628435
 51
275.4995691015
  0
ARC
  5
437
100
AcDbEntity
  8
RACCORDO
100
AcDbCircle
 62
7
  6
CONTINUOUS
 10
-13.8102481666
 20
-9.3237823101
 40
0.5
100
AcDbArc
 50
179.0117185741
 51
179.9999580441
  0
ARC
  5
438
100
AcDbEntity
  8
RACCORDO
100
AcDbCircle
 62
7
  6
CONTINUOUS
 10
-13.8102481666
 20
-9.3237823101
 40
0.5
100
AcDbArc
 50
91.0000000002
 51
178.9607431221
  0
ARC
  5
439
100
AcDbEntity
  8
RACCORDO
100
AcDbCircle
 62
7
  6
CONTINUOUS
 10
-13.8102897148
 20
-9.3236027716
 40
0.4999629744
100
AcDbArc
 50
91.0123027607
 51
178.9812180157
  0
ARC
  5
43A
100
AcDbEntity
  8
RACCORDO
100
AcDbCircle
 62
7
  6
CONTINUOUS
 10
-13.8108145648
 20
-9.3235626211
 40
0.4994335459
100
AcDbArc
 50
178.9847528428
 51
179.9998970005
  0
ARC
  5
43B
100
AcDbEntity
  8
RACCORDO
100
AcDbCircle
 62
7
  6
CONTINUOUS
 10
-13.8189400618
 20
-9.3237031729
 40
0.4913081055
100
AcDbArc
 50
178.9515855436
 51
179.9970774042
  0
ARC
  5
43C
100
AcDbEntity
  8
RACCORDO
100
AcDbCircle
 62
7
  6
CONTINUOUS
 10
7.7486146896
 20
-21.7471248845
 40
0.350006664
100
AcDbArc
 50
179.99881568
 51
269.9987524488
  0
ARC
  5
43D
100
AcDbEntity
  8
RACCORDO
100
AcDbCircle
 62
7
  6
CONTINUOUS
 10
29.3485994751
 20
-21.7471249119
 40
0.350006664
100
AcDbArc
 50
270.0012430565
 51
0.0011888146
  0
ARC
  5
43E
100
AcDbEntity
  8
RACCORDO
100
AcDbCircle
 62
7
  6
CONTINUOUS
 10
-14.6107849295
 20
-18.257581599
 40
0.3000184413
100
AcDbArc
 50
358.5943348482
 51
30.6370191895
  0
ARC
  5
43F
100
AcDbEntity
  8
RACCORDO
100
AcDbCircle
 62
7
  6
CONTINUOUS
 10
-2.9102481666
 20
-3.7472542979
 40
0.3
100
AcDbArc
 50
275.0
 51
360.0
  0
ARC
  5
440
100
AcDbEntity
  8
RACCORDO
100
AcDbCircle
 62
7
  6
CONTINUOUS
 10
-2.9102481666
 20
1.5529923436
 40
0.3
100
AcDbArc
 50
0.0
 51
85.0
  0
ARC
  5
441
100
AcDbEntity
  8
RACCORDO
100
AcDbCircle
 62
7
  6
CONTINUOUS
 10
-4.3102481666
 20
2.2777683751
 40
0.3
100
AcDbArc
 50
180.0
 51
265.0
  0
ARC
  5
442
100
AcDbEntity
  8
RACCORDO
100
AcDbCircle
 62
7
  6
CONTINUOUS
 10
-4.3102481666
 20
-4.4720303293
 40
0.3
100
AcDbArc
 50
95.0
 51
180.0
  0
ARC
  5
443
100
AcDbEntity
  8
RACCORDO
100
AcDbCircle
 62
7
  6
CONTINUOUS
 10
-14.6102481666
 20
-18.2576122804
 40
0.3
100
AcDbArc
 50
0.0
 51
30.931263689
  0
ARC
  5
444
100
AcDbEntity
  8
RACCORDO
100
AcDbCircle
 62
7
  6
CONTINUOUS
 10
-29.8602481666
 20
-23.5414685444
 40
0.25
100
AcDbArc
 50
120.0
 51
180.0
  0
ARC
  5
445
100
AcDbEntity
  8
RACCORDO
100
AcDbCircle
 62
7
  6
CONTINUOUS
 10
-29.8602481666
 20
-23.8340366292
 40
0.25
100
AcDbArc
 50
180.0
 51
269.6666666667
  0
ARC
  5
446
100
AcDbEntity
  8
RACCORDO
100
AcDbCircle
 62
7
  6
CONTINUOUS
 10
-26.8602481666
 20
-23.8427633739
 40
0.25
100
AcDbArc
 50
270.3333333333
 51
360.0
  0
ARC
  5
447
100
AcDbEntity
  8
RACCORDO
100
AcDbCircle
 62
7
  6
CONTINUOUS
 10
-26.8602481666
 20
-23.5414685444
 40
0.25
100
AcDbArc
 50
0.0
 51
60.0
  0
ARC
  5
448
100
AcDbEntity
  8
RACCORDO
100
AcDbCircle
 62
7
  6
CONTINUOUS
 10
-27.3602481666
 20
-22.6754431406
 40
0.25
100
AcDbArc
 50
180.0
 51
240.0
  0
ARC
  5
449
100
AcDbEntity
  8
RACCORDO
100
AcDbCircle
 62
7
  6
CONTINUOUS
 10
-2.9055983265
 20
0.0526428358
 40
0.138030398
100
AcDbArc
 50
89.7568024467
 51
91.9304923671
  0
ARC
  5
44A
100
AcDbEntity
  8
RACCORDO
100
AcDbCircle
 62
7
  6
CONTINUOUS
 10
-2.9055983265
 20
-2.2469047901
 40
0.138030398
100
AcDbArc
 50
268.0695076328
 51
270.2431975533
  0
ARC
  5
44B
100
AcDbEntity
  8
RACCORDO
100
AcDbCircle
 62
7
  6
CONTINUOUS
 10
-14.3558515966
 20
-18.2575839973
 40
0.0456034387
100
AcDbArc
 50
350.6805131774
 51
359.9644649365
  0
ARC
  5
44C
100
AcDbEntity
  8
RACCORDO
100
AcDbCircle
 62
7
  6
CONTINUOUS
 10
-32.5645483404
 20
248.8882103965
 40
239.7606185196
100
AcDbArc
 50
276.4591330414
 51
277.1059649363
  0
ARC
  5
44D
100
AcDbEntity
  8
RACCORDO
100
AcDbCircle
 62
7
  6
CONTINUOUS
 10
-32.5630367823
 20
235.3757914441
 40
239.7481080347
100
AcDbArc
 50
276.459107981
 51
277.105973618
  0
ARC
  5
44E
100
AcDbEntity
  8
RACCORDO
100
AcDbCircle
 62
7
  6
CONTINUOUS
 10
-25.3305303721
 20
171.3412056323
 40
162.2259058441
100
AcDbArc
 50
277.2184242285
 51
277.9532616896
  0
ARC
  5
44F
100
AcDbEntity
  8
RACCORDO
100
AcDbCircle
 62
7
  6
CONTINUOUS
 10
-25.3302008469
 20
157.8389807979
 40
162.2236568012
100
AcDbArc
 50
277.2184072519
 51
277.9532550975
  0
ARC
  5
450
100
AcDbEntity
  8
RACCORDO
100
AcDbCircle
 62
7
  6
CONTINUOUS
 10
-44.4430272715
 20
7.8619391402
 40
41.6540707154
100
AcDbArc
 50
3.8733285144
 51
4.2780256361
  0
ARC
  5
451
100
AcDbEntity
  8
RACCORDO
100
AcDbCircle
 62
7
  6
CONTINUOUS
 10
-40.3371688497
 20
16.651232703
 40
37.5378304276
100
AcDbArc
 50
355.6997955744
 51
356.1488703117
  0
ARC
  5
452
100
AcDbEntity
  8
RACCORDO
100
AcDbCircle
 62
7
  6
CONTINUOUS
 10
-40.6490902385
 20
45.119663016
 40
33.3169252573
100
AcDbArc
 50
315.4528277944
 51
315.9715013641
  0
ARC
  5
453
100
AcDbEntity
  8
RACCORDO
100
AcDbCircle
 62
7
  6
CONTINUOUS
 10
-7.0602485201
 20
11.1227329667
 40
4.4500005094
100
AcDbArc
 50
0.0151679786
 51
0.8158174158
  0
ARC
  5
454
100
AcDbEntity
  8
RACCORDO
100
AcDbCircle
 62
7
  6
CONTINUOUS
 10
-6.9513092617
 20
13.6822150686
 40
4.3410611124
100
AcDbArc
 50
359.1741362225
 51
359.9948783831
  0
ARC
  5
455
100
AcDbEntity
  8
ASSI
100
AcDbCircle
 62
7
  6
CONTINUOUS
 10
-39.8148788663
 20
19.9784962159
 40
1.5
100
AcDbArc
 50
98.5
 51
183.119768055
  0
ARC
  5
456
100
AcDbEntity
  8
RACCORDO
100
AcDbCircle
 62
7
  6
CONTINUOUS
 10
-33.6362819317
 20
20.6612080265
 40
1.0
100
AcDbArc
 50
284.5
 51
7.0
  0
ARC
  5
457
100
AcDbEntity
  8
RACCORDO
100
AcDbCircle
 62
7
  6
CONTINUOUS
 10
-5.6102481666
 20
18.7216901495
 40
1.0
100
AcDbArc
 50
0.0
 51
89.0
  0
ARC
  5
458
100
AcDbEntity
  8
RACCORDO
100
AcDbCircle
 62
7
  6
CONTINUOUS
 10
-17.6102481666
 20
21.6155622666
 40
1.0
100
AcDbArc
 50
0.0
 51
89.5
  0
ARC
  5
459
100
AcDbEntity
  8
ASSI
100
AcDbCircle
 62
7
  6
CONTINUOUS
 10
-39.8356582658
 20
19.975939138
 40
0.7000057859
100
AcDbArc
 50
98.5004310741
 51
183.1193369809
  0
ARC
  5
45A
100
AcDbEntity
  8
RACCORDO
100
AcDbCircle
 62
7
  6
CONTINUOUS
 10
29.3485994749
 20
22.3528629578
 40
0.350006664
100
AcDbArc
 50
359.9988111601
 51
89.9987569182
  0
ARC
  5
45B
100
AcDbEntity
  8
RACCORDO
100
AcDbCircle
 62
7
  6
CONTINUOUS
 10
7.7486147322
 20
22.3528629573
 40
0.350006664
100
AcDbArc
 50
90.001254533
 51
180.0011887604
  0
ARC
  5
45C
100
AcDbEntity
  8
RACCORDO
100
AcDbCircle
 62
7
  6
CONTINUOUS
 10
-2.9102481666
 20
15.0529923436
 40
0.3
100
AcDbArc
 50
0.0
 51
85.0
  0
ARC
  5
45D
100
AcDbEntity
  8
RACCORDO
100
AcDbCircle
 62
7
  6
CONTINUOUS
 10
-2.9102481666
 20
9.7527457021
 40
0.3
100
AcDbArc
 50
275.0
 51
360.0
  0
ARC
  5
45E
100
AcDbEntity
  8
RACCORDO
100
AcDbCircle
 62
7
  6
CONTINUOUS
 10
-4.3102481666
 20
15.7777683751
 40
0.3
100
AcDbArc
 50
180.0
 51
265.0
  0
ARC
  5
45F
100
AcDbEntity
  8
RACCORDO
100
AcDbCircle
 62
7
  6
CONTINUOUS
 10
-4.3102481666
 20
9.0279696707
 40
0.3
100
AcDbArc
 50
95.0
 51
180.0
  0
ARC
  5
460
100
AcDbEntity
  8
RACCORDO
100
AcDbCircle
 62
7
  6
CONTINUOUS
 10
-29.8602481666
 20
24.1472065902
 40
0.25
100
AcDbArc
 50
180.0
 51
240.0
  0
ARC
  5
461
100
AcDbEntity
  8
RACCORDO
100
AcDbCircle
 62
7
  6
CONTINUOUS
 10
-29.8602481666
 20
24.4397746749
 40
0.25
100
AcDbArc
 50
90.3333333333
 51
180.0
  0
ARC
  5
462
100
AcDbEntity
  8
RACCORDO
100
AcDbCircle
 62
7
  6
CONTINUOUS
 10
-26.8602481666
 20
24.4485014197
 40
0.25
100
AcDbArc
 50
0.0
 51
89.6666666667
  0
ARC
  5
463
100
AcDbEntity
  8
RACCORDO
100
AcDbCircle
 62
7
  6
CONTINUOUS
 10
-26.8602481666
 20
24.1472065902
 40
0.25
100
AcDbArc
 50
300.0
 51
360.0
  0
ARC
  5
464
100
AcDbEntity
  8
RACCORDO
100
AcDbCircle
 62
7
  6
CONTINUOUS
 10
-27.3602481666
 20
23.2811811864
 40
0.25
100
AcDbArc
 50
120.0
 51
180.0
  0
ARC
  5
465
100
AcDbEntity
  8
RACCORDO
100
AcDbCircle
 62
7
  6
CONTINUOUS
 10
-2.9055983265
 20
13.5526428358
 40
0.138030398
100
AcDbArc
 50
89.7568024466
 51
91.9304923671
  0
ARC
  5
466
100
AcDbEntity
  8
RACCORDO
100
AcDbCircle
 62
7
  6
CONTINUOUS
 10
-2.9055983265
 20
11.2530952099
 40
0.1380303981
100
AcDbArc
 50
268.069507633
 51
270.2431975533
  0
ARC
  5
467
100
AcDbEntity
  8
ASSI
100
AcDbCircle
 62
7
  6
CONTINUOUS
 10
11375.9152862677
 20
-0.2531361868
 40
11347.252804384
100
AcDbArc
 50
179.8982563942
 51
180.1017436058
  0
ARC
  5
468
100
AcDbEntity
  8
ASSI
100
AcDbCircle
 62
7
  6
CONTINUOUS
 10
11316.2770835755
 20
-0.1584163364
 40
11286.8148758318
100
AcDbArc
 50
179.8979843528
 51
180.1020156472
  0
ARC
  5
469
100
AcDbEntity
  8
ASSI
100
AcDbCircle
 62
7
  6
CONTINUOUS
 10
258.2427300296
 20
36.2238579915
 40
300.0
100
AcDbArc
 50
183.119768055
 51
190.880231945
  0
ARC
  5
46A
100
AcDbEntity
  8
CURVE
100
AcDbCircle
 62
7
  6
CONTINUOUS
 10
258.2427300296
 20
36.2238579915
 40
300.0
100
AcDbArc
 50
188.9962068119
 51
189.3593429711
  0
ARC
  5
46B
100
AcDbEntity
  8
CURVE
100
AcDbCircle
 62
7
  6
CONTINUOUS
 10
258.2427300296
 20
36.2238579915
 40
300.0
100
AcDbArc
 50
189.607858316
 51
189.9711626866
  0
ARC
  5
46C
100
AcDbEntity
  8
ASSI
100
AcDbCircle
 62
7
  6
CONTINUOUS
 10
258.2219445788
 20
36.2213058591
 40
299.2000000127
100
AcDbArc
 50
183.1197680552
 51
190.8802319448
  0
SPLINE
  5
46D
100
AcDbEntity
  8
ASSI
100
AcDbSpline
 62
7
  6
CONTINUOUS
 70
0
 71
3
 72
23
 73
19
 74
17
 42
0.0000001
 43
0.0000001
 44
0.0000000001
 12
1.2172078817
 22
0.0172604935
 32
0.0
 13
0.0010327908
 23
1.217329661
 33
0.0
 40
0.0
 40
0.0
 40
0.0
 40
0.0
 40
0.0013194756
 40
0.004817412
 40
0.0105799371
 40
0.0186130945
 40
0.0289002973
 40
0.0414212923
 40
0.0730789112
 40
0.1133665066
 40
0.1619671138
 40
0.2185397951
 40
0.2826548166
 40
0.3538393439
 40
0.4315699382
 40
0.6042528479
 40
0.7956699495
 40
1.0
 40
1.0
 40
1.0
 40
1.0
 10
8.4007895523
 20
-21.6199768725
 30
0.0
 10
8.401324911
 20
-21.6199692809
 30
0.0
 10
8.4017933343
 20
-21.6172723735
 30
0.0
 10
8.4025582202
 20
-21.6137630566
 30
0.0
 10
8.40322501
 20
-21.6063723418
 30
0.0
 10
8.4039797588
 20
-21.5968063017
 30
0.0
 10
8.4047039997
 20
-21.584243607
 30
0.0
 10
8.4057618294
 20
-21.5622001969
 30
0.0
 10
8.4069845602
 20
-21.5279254935
 30
0.0
 10
8.4083288619
 20
-21.4790382072
 30
0.0
 10
8.409609767
 20
-21.4200239398
 30
0.0
 10
8.4108163774
 20
-21.3513422536
 30
0.0
 10
8.4119365748
 20
-21.2734925702
 30
0.0
 10
8.4129612693
 20
-21.1870560112
 30
0.0
 10
8.4142328497
 20
-21.0565650994
 30
0.0
 10
8.4154881455
 20
-20.8772846118
 30
0.0
 10
8.4164673669
 20
-20.6466307948
 30
0.0
 10
8.4167711165
 20
-20.4860459494
 30
0.0
 10
8.4168414599
 20
-20.4031336057
 30
0.0
 11
8.4007895523
 21
-21.6199768725
 31
0.0
 11
8.4015724975
 21
-21.6185743763
 31
0.0
 11
8.4023499216
 21
-21.6143878031
 31
0.0
 11
8.4031200888
 21
-21.6074153144
 31
0.0
 11
8.4038814429
 21
-21.5976659932
 31
0.0
 11
8.4046327022
 21
-21.5851656262
 31
0.0
 11
8.4053726083
 21
-21.5699414115
 31
0.0
 11
8.4068133266
 21
-21.5314305789
 31
0.0
 11
8.4081933201
 21
-21.4824066956
 31
0.0
 11
8.4095018745
 21
-21.4232581866
 31
0.0
 11
8.4107284286
 21
-21.3544014825
 31
0.0
 11
8.4118640634
 21
-21.2763605994
 31
0.0
 11
8.4129006494
 21
-21.189711732
 31
0.0
 11
8.4138305632
 21
-21.0950925094
 31
0.0
 11
8.4153433197
 21
-20.8848858493
 31
0.0
 11
8.4163566896
 21
-20.6518702538
 31
0.0
 11
8.4168414599
 21
-20.4031336057
 31
0.0
  0
SPLINE
  5
46E
100
AcDbEntity
  8
ASSI
100
AcDbSpline
 62
7
  6
CONTINUOUS
 70
0
 71
3
 72
22
 73
18
 74
16
 42
0.0000001
 43
0.0000001
 44
0.0000000001
 12
0.1510997083
 22
-0.5520862091
 32
0.0
 13
0.0010353644
 23
0.5723890335
 33
0.0
 40
0.0
 40
0.0
 40
0.0
 40
0.0
 40
0.006327314
 40
0.0119169329
 40
0.0183610078
 40
0.0273442522
 40
0.0528944484
 40
0.0884188322
 40
0.1336383987
 40
0.1881694453
 40
0.2515753075
 40
0.3233041295
 40
0.402767295
 40
0.4892681242
 40
0.5820664634
 40
0.7834518884
 40
1.0
 40
1.0
 40
1.0
 40
1.0
 10
7.5993073005
 20
-20.8193281206
 30
0.0
 10
7.5996259856
 20
-20.8204925282
 30
0.0
 10
7.6008839129
 20
-20.8242818607
 30
0.0
 10
7.6029913884
 20
-20.8192839446
 30
0.0
 10
7.6035306655
 20
-20.8158916122
 30
0.0
 10
7.6048804526
 20
-20.8078652861
 30
0.0
 10
7.6060899083
 20
-20.7947778436
 30
0.0
 10
7.6076200838
 20
-20.7744461994
 30
0.0
 10
7.6090079689
 20
-20.7487134846
 30
0.0
 10
7.6103587577
 20
-20.717598224
 30
0.0
 10
7.6116068674
 20
-20.6814366459
 30
0.0
 10
7.6127570291
 20
-20.6405064787
 30
0.0
 10
7.6137906666
 20
-20.5951675747
 30
0.0
 10
7.6147012513
 20
-20.5458047049
 30
0.0
 10
7.6157672296
 20
-20.4731790937
 30
0.0
 10
7.6167050821
 20
-20.3757370017
 30
0.0
 10
7.6170408645
 20
-20.2959970169
 30
0.0
 10
7.6171155999
 20
-20.2546804288
 30
0.0
 11
7.5993073005
 21
-20.8193281206
 31
0.0
 11
7.6009927637
 21
-20.8225337189
 31
0.0
 11
7.6026619241
 21
-20.8198041894
 31
0.0
 11
7.6034851097
 21
-20.8162086959
 31
0.0
 11
7.60429811
 21
-20.8111314563
 31
0.0
 11
7.6058870617
 21
-20.7965933553
 31
0.0
 11
7.6074158728
 21
-20.7763171082
 31
0.0
 11
7.6088718342
 21
-20.7504748641
 31
0.0
 11
7.610242456
 21
-20.7192919478
 31
0.0
 11
7.6115157735
 21
-20.683021412
 31
0.0
 11
7.6126811724
 21
-20.641981097
 31
0.0
 11
7.6137284978
 21
-20.5965092378
 31
0.0
 11
7.6146490923
 21
-20.54700559
 31
0.0
 11
7.6154349532
 21
-20.4938945652
 31
0.0
 11
7.6165770111
 21
-20.3786292257
 31
0.0
 11
7.6171155999
 21
-20.2546804288
 31
0.0
  0
SPLINE
  5
46F
100
AcDbEntity
  8
ASSI
100
AcDbSpline
 62
7
  6
CONTINUOUS
 70
0
 71
3
 72
15
 73
11
 74
9
 42
0.0000001
 43
0.0000001
 44
0.0000000001
 12
0.1140450959
 22
-0.8241623944
 32
0.0
 13
0.8320143259
 23
-0.0014478566
 33
0.0
 40
0.0
 40
0.0
 40
0.0
 40
0.0
 40
0.0414953643
 40
0.0712994473
 40
0.1082072569
 40
0.2035807495
 40
0.3262838942
 40
0.4725537711
 40
0.6375400781
 40
1.0
 40
1.0
 40
1.0
 40
1.0
 10
7.6171155999
 20
-20.2546804288
 30
0.0
 10
7.6186930475
 20
-20.2660800684
 30
0.0
 10
7.632973867
 20
-20.2828969807
 30
0.0
 10
7.6577160615
 20
-20.2991344229
 30
0.0
 10
7.6984313057
 20
-20.3188843183
 30
0.0
 10
7.765989884
 20
-20.3402425337
 30
0.0
 10
7.8648325116
 20
-20.361715645
 30
0.0
 10
7.9839395192
 20
-20.3794434708
 30
0.0
 10
8.1699373688
 20
-20.397742507
 30
0.0
 10
8.3163175107
 20
-20.4029586683
 30
0.0
 10
8.4168414599
 20
-20.4031335983
 30
0.0
 11
7.6171155999
 21
-20.2546804288
 31
0.0
 11
7.636000492
 21
-20.2835823658
 31
0.0
 11
7.6563918887
 21
-20.2976928244
 31
0.0
 11
7.6838865934
 21
-20.311368155
 31
0.0
 11
7.7590131087
 21
-20.3369177825
 31
0.0
 11
7.8586170683
 21
-20.3593144113
 31
0.0
 11
7.9789132794
 21
-20.3777378666
 31
0.0
 11
8.1154941141
 21
-20.3914874894
 31
0.0
 11
8.4168414599
 21
-20.4031335983
 31
0.0
  0
SPLINE
  5
470
100
AcDbEntity
  8
ASSI
100
AcDbSpline
 62
7
  6
CONTINUOUS
 70
0
 71
3
 72
18
 73
14
 74
12
 42
0.0000001
 43
0.0000001
 44
0.0000000001
 12
0.3478736327
 22
-0.7238346033
 32
0.0
 13
0.8030881517
 23
0.0014209537
 33
0.0
 40
0.0
 40
0.0
 40
0.0
 40
0.0
 40
0.0088438321
 40
0.0259875807
 40
0.0518685508
 40
0.0864445222
 40
0.1294268207
 40
0.180425994
 40
0.3046947483
 40
0.454617674
 40
0.6247470753
 40
0.8090075741
 40
1.0
 40
1.0
 40
1.0
 40
1.0
 10
7.6171155999
 20
19.9378477561
 30
0.0
 10
7.6181411119
 20
19.9357139322
 30
0.0
 10
7.6251829685
 20
19.93248803
 30
0.0
 10
7.6380370984
 20
19.9287810851
 30
0.0
 10
7.658741995
 20
19.92496238
 30
0.0
 10
7.6860737693
 20
19.9212283701
 30
0.0
 10
7.7203426805
 20
19.9176154782
 30
0.0
 10
7.7785464992
 20
19.9127190309
 30
0.0
 10
7.8654666535
 20
19.9075346294
 30
0.0
 10
7.9843104467
 20
19.9026942257
 30
0.0
 10
8.1192732407
 20
19.8991747946
 30
0.0
 10
8.265257925
 20
19.8971169848
 30
0.0
 10
8.3657135418
 20
19.8967713339
 30
0.0
 10
8.4168414599
 20
19.8968617977
 30
0.0
 11
7.6171155999
 21
19.9378477561
 31
0.0
 11
7.6228642699
 21
19.9336768201
 31
0.0
 11
7.6360015665
 21
19.9295575677
 31
0.0
 11
7.6563934341
 21
19.9255355209
 31
0.0
 11
7.6838885517
 21
19.921655067
 31
0.0
 11
7.7182080001
 21
19.9179522061
 31
0.0
 11
7.7590156721
 21
19.9144591797
 31
0.0
 11
7.8586198716
 21
19.9082279726
 31
0.0
 11
7.9789159083
 21
19.903189318
 31
0.0
 11
8.1154961559
 21
19.8995352142
 31
0.0
 11
8.2634584114
 21
19.8974004304
 31
0.0
 11
8.4168414599
 21
19.8968617977
 31
0.0
  0
SPLINE
  5
471
100
AcDbEntity
  8
ASSI
100
AcDbSpline
 62
7
  6
CONTINUOUS
 70
0
 71
3
 72
14
 73
10
 74
8
 42
0.0000001
 43
0.0000001
 44
0.0000000001
 12
-0.0013058012
 22
1.5653539668
 32
0.0
 13
-0.1290329935
 23
1.5600273163
 33
0.0
 40
0.0
 40
0.0
 40
0.0
 40
0.0
 40
0.3488465294
 40
0.5110563907
 40
0.6576873001
 40
0.7837377255
 40
0.8849335032
 40
0.9578441424
 40
1.0
 40
1.0
 40
1.0
 40
1.0
 10
8.4168414599
 20
19.8968612321
 30
0.0
 10
8.4166896185
 20
20.0788839983
 30
0.0
 10
8.4159060293
 20
20.3455457926
 30
0.0
 10
8.4136321321
 20
20.688709301
 30
0.0
 10
8.4114991938
 20
20.9156205459
 30
0.0
 10
8.4089252298
 20
21.1106839152
 30
0.0
 10
8.4061879014
 20
21.2672874743
 30
0.0
 10
8.4030476445
 20
21.3800688624
 30
0.0
 10
8.400846326
 20
21.4400985811
 30
0.0
 10
8.3990331605
 20
21.4620200109
 30
0.0
 11
8.4168414599
 21
19.8968612321
 31
0.0
 11
8.4151616836
 21
20.4429271371
 31
0.0
 11
8.4134549802
 21
20.6968373394
 31
0.0
 11
8.4112421364
 21
20.926356028
 31
0.0
 11
8.4085978398
 21
21.1236519106
 31
0.0
 11
8.4056122785
 21
21.2820310402
 31
0.0
 11
8.402388078
 21
21.3961164873
 31
0.0
 11
8.3990331605
 21
21.4620200109
 31
0.0
  0
SPLINE
  5
472
100
AcDbEntity
  8
ASSI
100
AcDbSpline
 62
7
  6
CONTINUOUS
 70
0
 71
3
 72
14
 73
10
 74
8
 42
0.0000001
 43
0.0000001
 44
0.0000000001
 12
-0.0013008228
 22
0.7308252239
 32
0.0
 13
-0.1273110755
 23
0.719652059
 33
0.0
 40
0.0
 40
0.0
 40
0.0
 40
0.0
 40
0.3487339752
 40
0.5108932117
 40
0.6574819154
 40
0.7835043444
 40
0.8847049067
 40
0.9576764796
 40
1.0
 40
1.0
 40
1.0
 40
1.0
 10
7.6171155999
 20
19.9378477561
 30
0.0
 10
7.6169643862
 20
20.0228022846
 30
0.0
 10
7.6161787263
 20
20.1472610116
 30
0.0
 10
7.6139059096
 20
20.3074128457
 30
0.0
 10
7.6117721491
 20
20.4133086081
 30
0.0
 10
7.6092003743
 20
20.5043299389
 30
0.0
 10
7.60645741
 20
20.5774293707
 30
0.0
 10
7.6033288901
 20
20.6300416056
 30
0.0
 10
7.6011033848
 20
20.65810245
 30
0.0
 10
7.5993073005
 20
20.6682551862
 30
0.0
 11
7.6171155999
 21
19.9378477561
 31
0.0
 11
7.6154349928
 21
20.1927062042
 31
0.0
 11
7.6137285104
 21
20.3112041654
 31
0.0
 11
7.6115157674
 21
20.4183122032
 31
0.0
 11
7.6088718217
 21
20.5103747611
 31
0.0
 11
7.6058870362
 21
20.5842745492
 31
0.0
 11
7.6026619179
 21
20.6375064905
 31
0.0
 11
7.5993073005
 21
20.6682551862
 31
0.0
  0
SPLINE
  5
473
100
AcDbEntity
  8
ASSI
100
AcDbSpline
 62
7
  6
CONTINUOUS
 70
0
 71
3
 72
11
 73
7
 74
5
 42
0.0000001
 43
0.0000001
 44
0.0000000001
 12
0.0008605931
 22
1.2425466384
 32
0.0
 13
1.2425376349
 23
0.0048076235
 33
0.0
 40
0.0
 40
0.0
 40
0.0
 40
0.0
 40
0.2486652645
 40
0.4982561444
 40
0.7488669178
 40
1.0
 40
1.0
 40
1.0
 40
1.0
 10
7.5993073005
 20
20.6682551862
 30
0.0
 10
7.5993786337
 20
20.7712479157
 30
0.0
 10
7.6413177706
 20
20.9798677434
 30
0.0
 10
7.819658203
 20
21.2431143442
 30
0.0
 10
8.0851341075
 20
21.4197638642
 30
0.0
 10
8.2950190585
 20
21.4616175598
 30
0.0
 10
8.3990331605
 20
21.4620200109
 30
0.0
 11
7.5993073005
 21
20.6682551862
 31
0.0
 11
7.6603484362
 21
20.9711438562
 31
0.0
 11
7.8337614467
 21
21.2282577253
 31
0.0
 11
8.0930824095
 21
21.4006522963
 31
0.0
 11
8.3990331605
 21
21.4620200109
 31
0.0
  0
SPLINE
  5
474
100
AcDbEntity
  8
ASSI
100
AcDbSpline
 62
7
  6
CONTINUOUS
 70
0
 71
3
 72
15
 73
11
 74
9
 42
0.0000001
 43
0.0000001
 44
0.0000000001
 12
-0.1140925763
 22
-0.8241539452
 32
0.0
 13
-0.8320124609
 23
-0.0014477103
 33
0.0
 40
0.0
 40
0.0
 40
0.0
 40
0.0
 40
0.0414961337
 40
0.0713008404
 40
0.1082092881
 40
0.2035838738
 40
0.3262876214
 40
0.4725574533
 40
0.6375430289
 40
1.0
 40
1.0
 40
1.0
 40
1.0
 10
29.4800985373
 20
-20.2546804288
 30
0.0
 10
29.4785204037
 20
-20.2660801629
 30
0.0
 10
29.4642386744
 20
-20.2828965937
 30
0.0
 10
29.4394957576
 20
-20.2991338232
 30
0.0
 10
29.3987797184
 20
-20.318883332
 30
0.0
 10
29.3312205271
 20
-20.3402411509
 30
0.0
 10
29.2323775582
 20
-20.3617137881
 30
0.0
 10
29.1132708122
 20
-20.3794411694
 30
0.0
 10
28.9272743699
 20
-20.397739659
 30
0.0
 10
28.7808955828
 20
-20.4029556583
 30
0.0
 10
28.6803726773
 20
-20.4031305692
 30
0.0
 11
29.4800985373
 21
-20.2546804288
 31
0.0
 11
29.4612120608
 21
-20.2835820029
 31
0.0
 11
29.4408199588
 21
-20.2976922563
 31
0.0
 11
29.4133246285
 21
-20.3113673666
 31
0.0
 11
29.3381971792
 21
-20.3369165199
 31
0.0
 11
29.2385928287
 21
-20.359312653
 31
0.0
 11
29.1182968589
 21
-20.3777356342
 31
0.0
 11
28.9817169047
 21
-20.3914848558
 31
0.0
 11
28.6803726773
 21
-20.4031305692
 31
0.0
  0
SPLINE
  5
475
100
AcDbEntity
  8
ASSI
100
AcDbSpline
 62
7
  6
CONTINUOUS
 70
0
 71
3
 72
23
 73
19
 74
17
 42
0.0000001
 43
0.0000001
 44
0.0000000001
 12
0.0010327906
 22
-1.2173296639
 32
0.0
 13
1.217208232
 23
-0.01722342
 33
0.0
 40
0.0
 40
0.0
 40
0.0
 40
0.0
 40
0.204330103
 40
0.3957472486
 40
0.5684301895
 40
0.6461607934
 40
0.7173453258
 40
0.7814603476
 40
0.8380330241
 40
0.8866336212
 40
0.9269212013
 40
0.9585787993
 40
0.9710997818
 40
0.9813869708
 40
0.9894201131
 40
0.9951826218
 40
0.9986805408
 40
1.0
 40
1.0
 40
1.0
 40
1.0
 10
28.6803726773
 20
-20.4031336057
 30
0.0
 10
28.6804430207
 20
-20.4860459709
 30
0.0
 10
28.6807467705
 20
-20.646630856
 30
0.0
 10
28.6817259923
 20
-20.8772847255
 30
0.0
 10
28.6829812887
 20
-21.0565652482
 30
0.0
 10
28.6842528697
 20
-21.187056179
 30
0.0
 10
28.6852775647
 20
-21.2734927444
 30
0.0
 10
28.6863977625
 20
-21.3513424283
 30
0.0
 10
28.6876043734
 20
-21.4200241088
 30
0.0
 10
28.6888852792
 20
-21.4790383642
 30
0.0
 10
28.6902295813
 20
-21.5279256316
 30
0.0
 10
28.6914523129
 20
-21.562200316
 30
0.0
 10
28.6925101423
 20
-21.5842437059
 30
0.0
 10
28.6932343849
 20
-21.5968063861
 30
0.0
 10
28.6939891299
 20
-21.6063724021
 30
0.0
 10
28.6946559286
 20
-21.6137631094
 30
0.0
 10
28.6954207978
 20
-21.6172723855
 30
0.0
 10
28.6958892395
 20
-21.6199692973
 30
0.0
 10
28.6964245917
 20
-21.6199768725
 30
0.0
 11
28.6803726773
 21
-20.4031336057
 31
0.0
 11
28.6808574479
 21
-20.6518703184
 31
0.0
 11
28.6818708182
 21
-20.8848859683
 31
0.0
 11
28.6833835754
 21
-21.0950926671
 31
0.0
 11
28.6843134897
 21
-21.1897119016
 31
0.0
 11
28.6853500762
 21
-21.2763607756
 31
0.0
 11
28.6864857114
 21
-21.3544016593
 31
0.0
 11
28.687712266
 21
-21.4232583578
 31
0.0
 11
28.6890208211
 21
-21.4824068546
 31
0.0
 11
28.6904008152
 21
-21.5314307195
 31
0.0
 11
28.691841534
 21
-21.5699415267
 31
0.0
 11
28.6925814404
 21
-21.5851657263
 31
0.0
 11
28.6933326999
 21
-21.5976660764
 31
0.0
 11
28.6940940542
 21
-21.6074153792
 31
0.0
 11
28.6948642217
 21
-21.6143878478
 31
0.0
 11
28.6956416463
 21
-21.6185743994
 31
0.0
 11
28.6964245917
 21
-21.6199768725
 31
0.0
  0
SPLINE
  5
476
100
AcDbEntity
  8
ASSI
100
AcDbSpline
 62
7
  6
CONTINUOUS
 70
0
 71
3
 72
22
 73
18
 74
16
 42
0.0000001
 43
0.0000001
 44
0.0000000001
 12
0.0010353644
 22
-0.572389034
 32
0.0
 13
0.1510996988
 23
0.5520862216
 33
0.0
 40
0.0
 40
0.0
 40
0.0
 40
0.0
 40
0.2165481114
 40
0.4179335363
 40
0.5107318754
 40
0.5972327046
 40
0.6766958699
 40
0.7484246919
 40
0.811830554
 40
0.8663616006
 40
0.9115811671
 40
0.9471055507
 40
0.9726557469
 40
0.9816389914
 40
0.9880830664
 40
0.9936726856
 40
1.0
 40
1.0
 40
1.0
 40
1.0
 10
29.4800985373
 20
-20.2546804288
 30
0.0
 10
29.4801732727
 20
-20.2959970169
 30
0.0
 10
29.4805090551
 20
-20.3757370017
 30
0.0
 10
29.4814469076
 20
-20.4731790937
 30
0.0
 10
29.4825128859
 20
-20.5458047049
 30
0.0
 10
29.4834234706
 20
-20.5951675747
 30
0.0
 10
29.4844571081
 20
-20.6405064787
 30
0.0
 10
29.4856072698
 20
-20.6814366459
 30
0.0
 10
29.4868553795
 20
-20.717598224
 30
0.0
 10
29.4882061683
 20
-20.7487134846
 30
0.0
 10
29.4895940534
 20
-20.7744461994
 30
0.0
 10
29.4911242289
 20
-20.7947778435
 30
0.0
 10
29.4923336846
 20
-20.807865286
 30
0.0
 10
29.4936834717
 20
-20.8158916122
 30
0.0
 10
29.4942227489
 20
-20.8192839446
 30
0.0
 10
29.4963302243
 20
-20.8242818611
 30
0.0
 10
29.4975881516
 20
-20.8204925283
 30
0.0
 10
29.4979068367
 20
-20.8193281206
 30
0.0
 11
29.4800985373
 21
-20.2546804288
 31
0.0
 11
29.4806371261
 21
-20.3786292256
 31
0.0
 11
29.481779184
 21
-20.4938945652
 31
0.0
 11
29.4825650449
 21
-20.54700559
 31
0.0
 11
29.4834856394
 21
-20.5965092378
 31
0.0
 11
29.4845329648
 21
-20.641981097
 31
0.0
 11
29.4856983637
 21
-20.683021412
 31
0.0
 11
29.4869716812
 21
-20.7192919478
 31
0.0
 11
29.488342303
 21
-20.7504748641
 31
0.0
 11
29.4897982644
 21
-20.7763171082
 31
0.0
 11
29.4913270755
 21
-20.7965933552
 31
0.0
 11
29.4929160272
 21
-20.8111314562
 31
0.0
 11
29.4937290275
 21
-20.8162086958
 31
0.0
 11
29.4945522132
 21
-20.8198041894
 31
0.0
 11
29.4962213735
 21
-20.8225337191
 31
0.0
 11
29.4979068367
 21
-20.8193281206
 31
0.0
  0
SPLINE
  5
477
100
AcDbEntity
  8
ASSI
100
AcDbSpline
 62
7
  6
CONTINUOUS
 70
0
 71
3
 72
18
 73
14
 74
12
 42
0.0000001
 43
0.0000001
 44
0.0000000001
 12
-0.3477905838
 22
-0.723874765
 32
0.0
 13
-0.803088369
 23
0.0014209925
 33
0.0
 40
0.0
 40
0.0
 40
0.0
 40
0.0
 40
0.0088432975
 40
0.0259864401
 40
0.0518668376
 40
0.086442298
 40
0.129424166
 40
0.1804230049
 40
0.3046914345
 40
0.4546145415
 40
0.6247446309
 40
0.8090062354
 40
1.0
 40
1.0
 40
1.0
 40
1.0
 10
29.4800985373
 20
19.9378477561
 30
0.0
 10
29.4790733321
 20
19.9357139428
 30
0.0
 10
29.4720317094
 20
19.9324878853
 30
0.0
 10
29.4591781483
 20
19.928781003
 30
0.0
 10
29.4384736612
 20
19.9249622217
 30
0.0
 10
29.4111423154
 20
19.9212281888
 30
0.0
 10
29.3768737343
 20
19.9176152462
 30
0.0
 10
29.3186702022
 20
19.9127187293
 30
0.0
 10
29.2317501541
 20
19.9075342469
 30
0.0
 10
29.1129061867
 20
19.9026937641
 30
0.0
 10
28.9779428283
 20
19.8991742701
 30
0.0
 10
28.8319572662
 20
19.8971164227
 30
0.0
 10
28.7315009676
 20
19.8967707667
 30
0.0
 10
28.6803726773
 20
19.8968612336
 30
0.0
 11
29.4800985373
 21
19.9378477561
 31
0.0
 11
29.4743504244
 21
19.93367678
 31
0.0
 11
29.4612136472
 21
19.9295574853
 31
0.0
 11
29.4408222513
 21
19.9255353941
 31
0.0
 11
29.4133275472
 21
19.9216548939
 31
0.0
 11
29.3790084421
 21
19.9179519857
 31
0.0
 11
29.3382010326
 21
19.9144589113
 31
0.0
 11
29.2385970731
 21
19.9082276099
 31
0.0
 11
29.1183008614
 21
19.9031888699
 31
0.0
 11
28.9817200258
 21
19.8995346989
 31
0.0
 11
28.8337568426
 21
19.8973998745
 31
0.0
 11
28.6803726773
 21
19.8968612336
 31
0.0
  0
SPLINE
  5
478
100
AcDbEntity
  8
ASSI
100
AcDbSpline
 62
7
  6
CONTINUOUS
 70
0
 71
3
 72
11
 73
7
 74
5
 42
0.0000001
 43
0.0000001
 44
0.0000000001
 12
-0.0008605943
 22
1.2425466374
 32
0.0
 13
-1.2425376326
 23
0.0048076315
 33
0.0
 40
0.0
 40
0.0
 40
0.0
 40
0.0
 40
0.2486652466
 40
0.4982561227
 40
0.7488669026
 40
1.0
 40
1.0
 40
1.0
 40
1.0
 10
29.4979068367
 20
20.6682551862
 30
0.0
 10
29.4978355034
 20
20.7712479082
 30
0.0
 10
29.4558963702
 20
20.979867726
 30
0.0
 10
29.2775559502
 20
21.2431143265
 30
0.0
 10
29.0120800449
 20
21.4197638592
 30
0.0
 10
28.8021950849
 20
21.4616175595
 30
0.0
 10
28.6981809768
 20
21.4620200113
 30
0.0
 11
29.4979068367
 21
20.6682551862
 31
0.0
 11
29.4368657087
 21
20.9711438347
 31
0.0
 11
29.263452709
 21
21.228257705
 31
0.0
 11
29.004131745
 21
21.4006522884
 31
0.0
 11
28.6981809768
 21
21.4620200113
 31
0.0
  0
SPLINE
  5
479
100
AcDbEntity
  8
ASSI
100
AcDbSpline
 62
7
  6
CONTINUOUS
 70
0
 71
3
 72
14
 73
10
 74
8
 42
0.0000001
 43
0.0000001
 44
0.0000000001
 12
-0.1290330077
 22
-1.5600273163
 32
0.0
 13
-0.0013058012
 23
-1.5653539668
 33
0.0
 40
0.0
 40
0.0
 40
0.0
 40
0.0
 40
0.0421558576
 40
0.1150664968
 40
0.2162622745
 40
0.3423126999
 40
0.4889436093
 40
0.6511534706
 40
1.0
 40
1.0
 40
1.0
 40
1.0
 10
28.6981809767
 20
21.4620200109
 30
0.0
 10
28.696367811
 20
21.4400985811
 30
0.0
 10
28.694166493
 20
21.3800688624
 30
0.0
 10
28.6910262357
 20
21.2672874743
 30
0.0
 10
28.6882889075
 20
21.1106839152
 30
0.0
 10
28.6857149435
 20
20.9156205459
 30
0.0
 10
28.6835820051
 20
20.688709301
 30
0.0
 10
28.6813081079
 20
20.3455457926
 30
0.0
 10
28.6805245187
 20
20.0788839983
 30
0.0
 10
28.6803726773
 20
19.8968612321
 30
0.0
 11
28.6981809767
 21
21.4620200109
 31
0.0
 11
28.6948260593
 21
21.3961164873
 31
0.0
 11
28.6916018587
 21
21.2820310402
 31
0.0
 11
28.6886162974
 21
21.1236519106
 31
0.0
 11
28.6859720008
 21
20.926356028
 31
0.0
 11
28.683759157
 21
20.6968373394
 31
0.0
 11
28.6820524536
 21
20.4429271371
 31
0.0
 11
28.6803726773
 21
19.8968612321
 31
0.0
  0
SPLINE
  5
47A
100
AcDbEntity
  8
ASSI
100
AcDbSpline
 62
7
  6
CONTINUOUS
 70
0
 71
3
 72
14
 73
10
 74
8
 42
0.0000001
 43
0.0000001
 44
0.0000000001
 12
-0.1273110755
 22
-0.719652059
 32
0.0
 13
-0.0013008228
 23
-0.7308252239
 33
0.0
 40
0.0
 40
0.0
 40
0.0
 40
0.0
 40
0.0423235204
 40
0.1152950932
 40
0.2164956556
 40
0.3425180846
 40
0.4891067883
 40
0.6512660248
 40
1.0
 40
1.0
 40
1.0
 40
1.0
 10
29.4979068367
 20
20.6682551862
 30
0.0
 10
29.4961107524
 20
20.65810245
 30
0.0
 10
29.4938852471
 20
20.6300416057
 30
0.0
 10
29.4907567272
 20
20.5774293708
 30
0.0
 10
29.4880137629
 20
20.5043299389
 30
0.0
 10
29.4854419881
 20
20.4133086081
 30
0.0
 10
29.4833082276
 20
20.3074128457
 30
0.0
 10
29.481035411
 20
20.1472610116
 30
0.0
 10
29.480249751
 20
20.0228022846
 30
0.0
 10
29.4800985373
 20
19.9378477561
 30
0.0
 11
29.4979068367
 21
20.6682551862
 31
0.0
 11
29.4945522193
 21
20.6375064905
 31
0.0
 11
29.491327101
 21
20.5842745493
 31
0.0
 11
29.4883423155
 21
20.5103747611
 31
0.0
 11
29.4856983698
 21
20.4183122032
 31
0.0
 11
29.4834856268
 21
20.3112041654
 31
0.0
 11
29.4817791444
 21
20.1927062042
 31
0.0
 11
29.4800985373
 21
19.9378477561
 31
0.0
  0
SPLINE
  5
47B
100
AcDbEntity
  8
ASSI
100
AcDbSpline
 62
7
  6
CONTINUOUS
 70
0
 71
3
 72
21
 73
17
 74
15
 42
0.0000001
 43
0.0000001
 44
0.0000000001
 12
0.076749681
 22
-0.7969261373
 32
0.0
 13
0.7969275435
 23
0.0767353961
 33
0.0
 40
0.0
 40
0.0
 40
0.0
 40
0.0
 40
0.194680069
 40
0.382230748
 40
0.5548513406
 40
0.7061480611
 40
0.7719978975
 40
0.8304100057
 40
0.8808134096
 40
0.9227763698
 40
0.9558804589
 40
0.9797951637
 40
0.9882651937
 40
0.9944039532
 40
0.9982398514
 40
1.0
 40
1.0
 40
1.0
 40
1.0
 10
-34.8450962183
 20
-20.8193281206
 30
0.0
 10
-34.8401156739
 20
-20.8710433324
 30
0.0
 10
-34.8300782627
 20
-20.9725551526
 30
0.0
 10
-34.8147414874
 20
-21.119833347
 30
0.0
 10
-34.799801458
 20
-21.2555100141
 30
0.0
 10
-34.7876784591
 20
-21.3588204963
 30
0.0
 10
-34.7785439383
 20
-21.4317895007
 30
0.0
 10
-34.7724641707
 20
-21.478006028
 30
0.0
 10
-34.7668943135
 20
-21.5178540704
 30
0.0
 10
-34.7618899782
 20
-21.5509736266
 30
0.0
 10
-34.7575283172
 20
-21.5770012714
 30
0.0
 10
-34.7541506684
 20
-21.5942095914
 30
0.0
 10
-34.7517580888
 20
-21.6041347975
 30
0.0
 10
-34.7502514675
 20
-21.6089588493
 30
0.0
 10
-34.749225466
 20
-21.6116598966
 30
0.0
 10
-34.7481017231
 20
-21.6131379672
 30
0.0
 10
-34.7476341528
 20
-21.6130929453
 30
0.0
 11
-34.8450962183
 21
-20.8193281206
 31
0.0
 11
-34.8297540955
 21
-20.974434664
 31
0.0
 11
-34.8141755822
 21
-21.1237799315
 31
0.0
 11
-34.7990044364
 21
-21.2611470582
 31
0.0
 11
-34.7848051172
 21
-21.38144211
 31
0.0
 11
-34.7782394926
 21
-21.4337519406
 31
0.0
 11
-34.7721185349
 21
-21.4801151512
 31
0.0
 11
-34.7665015468
 21
-21.5200759528
 31
0.0
 11
-34.7614385762
 21
-21.5532883714
 31
0.0
 11
-34.7569790321
 21
-21.5794140684
 31
0.0
 11
-34.7531681163
 21
-21.598177405
 31
0.0
 11
-34.751517165
 21
-21.6047545849
 31
0.0
 11
-34.7500416421
 21
-21.6094426363
 31
0.0
 11
-34.7487458654
 21
-21.6122269571
 31
0.0
 11
-34.7476341528
 21
-21.6130929453
 31
0.0
  0
SPLINE
  5
47C
100
AcDbEntity
  8
ASSI
100
AcDbSpline
 62
7
  6
CONTINUOUS
 70
0
 71
3
 72
26
 73
22
 74
20
 42
0.0000001
 43
0.0000001
 44
0.0000000001
 12
-0.7650851104
 22
-0.1470951994
 32
0.0
 13
0.1473871031
 23
-0.765028594
 33
0.0
 40
0.0
 40
0.0
 40
0.0
 40
0.0
 40
0.1963059693
 40
0.384678619
 40
0.5575228608
 40
0.6361580047
 40
0.7086371569
 40
0.7742998494
 40
0.8324894856
 40
0.882652279
 40
0.924367992
 40
0.9419296631
 40
0.957225688
 40
0.9702188871
 40
0.980890103
 40
0.9892213986
 40
0.9951948808
 40
0.9972918932
 40
0.998792848
 40
0.99969574
 40
1.0
 40
1.0
 40
1.0
 40
1.0
 10
-35.5996049719
 20
-20.2546804288
 30
0.0
 10
-35.6496685633
 20
-20.2643056507
 30
0.0
 10
-35.7477693322
 20
-20.2831837189
 30
0.0
 10
-35.8899392493
 20
-20.3105939516
 30
0.0
 10
-36.0020941569
 20
-20.332263625
 30
0.0
 10
-36.0846920367
 20
-20.3482553588
 30
0.0
 10
-36.1399593272
 20
-20.358972334
 30
0.0
 10
-36.190010686
 20
-20.3686957118
 30
0.0
 10
-36.2343692425
 20
-20.3773327622
 30
0.0
 10
-36.2726191008
 20
-20.3848026885
 30
0.0
 10
-36.30050987
 20
-20.3902709919
 30
0.0
 10
-36.319510747
 20
-20.3940148672
 30
0.0
 10
-36.3311929808
 20
-20.3963250351
 30
0.0
 10
-36.3411131995
 20
-20.3983003474
 30
0.0
 10
-36.3492699957
 20
-20.3999282418
 30
0.0
 10
-36.3556026158
 20
-20.4012282087
 30
0.0
 10
-36.3598251483
 20
-20.4020643446
 30
0.0
 10
-36.3621878759
 20
-20.4026147312
 30
0.0
 10
-36.3634421918
 20
-20.4028130396
 30
0.0
 10
-36.3639267235
 20
-20.40306905
 30
0.0
 10
-36.3644377883
 20
-20.40305298
 30
0.0
 10
-36.3644228403
 20
-20.4031305692
 30
0.0
 11
-35.5996049719
 21
-20.2546804288
 31
0.0
 11
-35.7497907625
 21
-20.2835820029
 31
0.0
 11
-35.8938971137
 21
-20.3113673665
 31
0.0
 11
-36.0261136539
 21
-20.3369165199
 31
0.0
 11
-36.0862610072
 21
-20.3485622793
 31
0.0
 11
-36.1416965347
 21
-20.359312653
 31
0.0
 11
-36.1919150884
 21
-20.3690695977
 31
0.0
 11
-36.2364144813
 21
-20.3777356342
 31
0.0
 11
-36.2747711942
 21
-20.3852283409
 31
0.0
 11
-36.3066638943
 21
-20.3914848558
 31
0.0
 11
-36.3200879569
 21
-20.3941303054
 31
0.0
 11
-36.3317783505
 21
-20.3964436759
 31
0.0
 11
-36.3417066496
 21
-20.3984193433
 31
0.0
 11
-36.3498582166
 21
-20.4000543057
 31
0.0
 11
-36.3562193354
 21
-20.4013457362
 31
0.0
 11
-36.3607762898
 21
-20.4022908082
 31
0.0
 11
-36.362373919
 21
-20.4026325763
 31
0.0
 11
-36.3635153635
 21
-20.4028866948
 31
0.0
 11
-36.3641989088
 21
-20.4030528102
 31
0.0
 11
-36.3644228403
 21
-20.4031305692
 31
0.0
  0
SPLINE
  5
47D
100
AcDbEntity
  8
ASSI
100
AcDbSpline
 62
7
  6
CONTINUOUS
 70
0
 71
3
 72
26
 73
22
 74
20
 42
0.0000001
 43
0.0000001
 44
0.0000000001
 12
-0.7779603813
 22
-0.0423659079
 32
0.0
 13
-0.0424007853
 23
0.7779586771
 33
0.0
 40
0.0
 40
0.0
 40
0.0
 40
0.0
 40
0.1963044418
 40
0.3846761418
 40
0.5575200716
 40
0.636155285
 40
0.7086346344
 40
0.7742976239
 40
0.8324876284
 40
0.8826508268
 40
0.9243669469
 40
0.9419288117
 40
0.9572250179
 40
0.9702183821
 40
0.9808897445
 40
0.9892211659
 40
0.9951947513
 40
0.997291806
 40
0.9987927967
 40
0.9996957179
 40
1.0
 40
1.0
 40
1.0
 40
1.0
 10
-40.5346268967
 20
19.9378477561
 30
0.0
 10
-40.5855325895
 20
19.9350755508
 30
0.0
 10
-40.6852877764
 20
19.9296600544
 30
0.0
 10
-40.8298680289
 20
19.9218619423
 30
0.0
 10
-40.9439358648
 20
19.915755092
 30
0.0
 10
-41.0279507035
 20
19.9112894726
 30
0.0
 10
-41.0841702942
 20
19.9083176689
 30
0.0
 10
-41.135088484
 20
19.9056436324
 30
0.0
 10
-41.1802201004
 20
19.9032927546
 30
0.0
 10
-41.2191420209
 20
19.9012872553
 30
0.0
 10
-41.2475280627
 20
19.8998456947
 30
0.0
 10
-41.2668708592
 20
19.8988816017
 30
0.0
 10
-41.2787653456
 20
19.89829694
 30
0.0
 10
-41.2888690999
 20
19.8978136421
 30
0.0
 10
-41.2971777086
 20
19.8974198595
 30
0.0
 10
-41.3036369531
 20
19.8971492018
 30
0.0
 10
-41.3079364772
 20
19.8969389698
 30
0.0
 10
-41.3103622955
 20
19.8969014093
 30
0.0
 10
-41.3116273394
 20
19.8967903759
 30
0.0
 10
-41.31215952
 20
19.8969215683
 30
0.0
 10
-41.3126514674
 20
19.8967823273
 30
0.0
 10
-41.312655768
 20
19.8968612336
 30
0.0
 11
-40.5346268967
 21
19.9378477561
 31
0.0
 11
-40.6873454077
 21
19.9295574853
 31
0.0
 11
-40.8338953514
 21
19.9216548939
 31
0.0
 11
-40.9683679214
 21
19.9144589114
 31
0.0
 11
-41.0295473195
 21
19.9112077079
 31
0.0
 11
-41.0859382403
 21
19.9082276099
 31
0.0
 11
-41.1370267901
 21
19.9055456945
 31
0.0
 11
-41.1823020838
 21
19.9031888698
 31
0.0
 11
-41.2213332071
 21
19.9011796232
 31
0.0
 11
-41.2537931308
 21
19.8995346989
 31
0.0
 11
-41.2674588658
 21
19.8988539704
 31
0.0
 11
-41.2793620459
 21
19.8982704421
 31
0.0
 11
-41.289473726
 21
19.8977855339
 31
0.0
 11
-41.2977789749
 21
19.8973998745
 31
0.0
 11
-41.304263798
 21
19.8971140392
 31
0.0
 11
-41.308914201
 21
19.8969286036
 31
0.0
 11
-41.3105471216
 21
19.8968737155
 31
0.0
 11
-41.3117161892
 21
19.8968441432
 31
0.0
 11
-41.3124196544
 21
19.8968399586
 31
0.0
 11
-41.312655768
 21
19.8968612336
 31
0.0
  0
SPLINE
  5
47E
100
AcDbEntity
  8
ASSI
100
AcDbSpline
 62
7
  6
CONTINUOUS
 70
0
 71
3
 72
21
 73
17
 74
15
 42
0.0000001
 43
0.0000001
 44
0.0000000001
 12
-0.1183240209
 22
0.7918214522
 32
0.0
 13
0.7918192886
 23
0.1183382031
 33
0.0
 40
0.0
 40
0.0
 40
0.0
 40
0.0
 40
0.1946800601
 40
0.3822307214
 40
0.5548513101
 40
0.7061480355
 40
0.7719978756
 40
0.8304099855
 40
0.8808133935
 40
0.9227763588
 40
0.9558804507
 40
0.9797951581
 40
0.9882651894
 40
0.9944039504
 40
0.9982398499
 40
1.0
 40
1.0
 40
1.0
 40
1.0
 10
-39.9391309176
 20
20.6682551862
 30
0.0
 10
-39.9468093601
 20
20.7196391355
 30
0.0
 10
-39.9616280372
 20
20.8205638832
 30
0.0
 10
-39.9823766518
 20
20.9671775794
 30
0.0
 10
-40.0007035633
 20
21.1024383855
 30
0.0
 10
-40.0139337378
 20
21.2056129252
 30
0.0
 10
-40.0227233512
 20
21.278624282
 30
0.0
 10
-40.0280049682
 20
21.3249388124
 30
0.0
 10
-40.0322406728
 20
21.3649506712
 30
0.0
 10
-40.0353973325
 20
21.3982970967
 30
0.0
 10
-40.0374618871
 20
21.4246067936
 30
0.0
 10
-40.0383476365
 20
21.442121082
 30
0.0
 10
-40.0384272499
 20
21.4523302861
 30
0.0
 10
-40.0381324242
 20
21.4573755284
 30
0.0
 10
-40.037790341
 20
21.4602445568
 30
0.0
 10
-40.0370575542
 20
21.4619505803
 30
0.0
 10
-40.0365929806
 20
21.4620200113
 30
0.0
 11
-39.9391309176
 21
20.6682551862
 31
0.0
 11
-39.9617681943
 21
20.8224659906
 31
0.0
 11
-39.982782321
 21
20.9711438348
 31
0.0
 11
-40.0012939406
 21
21.1081008
 31
0.0
 11
-40.01661841
 21
21.228257705
 31
0.0
 11
-40.022902706
 21
21.2806020816
 31
0.0
 11
-40.0281798421
 21
21.3270689019
 31
0.0
 11
-40.0323970948
 21
21.3672015728
 31
0.0
 11
-40.0355193263
 21
21.4006522884
 31
0.0
 11
-40.0375126262
 21
21.4270808043
 31
0.0
 11
-40.0383541707
 21
21.4462087359
 31
0.0
 11
-40.0383434225
 21
21.4529899478
 31
0.0
 11
-40.0380458701
 21
21.4578957064
 31
0.0
 11
-40.0374621704
 21
21.4609107986
 31
0.0
 11
-40.0365929806
 21
21.4620200113
 31
0.0
  0
SPLINE
  5
47F
100
AcDbEntity
  8
RACCORDO
100
AcDbSpline
 62
7
  6
CONTINUOUS
 70
0
 71
3
 72
17
 73
13
 74
11
 42
0.0000001
 43
0.0000001
 44
0.0000000001
 12
1.3315881693
 22
0.0164352513
 32
0.0
 13
0.0
 23
1.3316895936
 33
0.0
 40
0.0
 40
0.0
 40
0.0
 40
0.0
 40
0.1451003611
 40
0.2872780534
 40
0.4241406651
 40
0.5538550599
 40
0.6754346233
 40
0.7890262798
 40
0.843342795
 40
0.8963401077
 40
0.9484091071
 40
1.0
 40
1.0
 40
1.0
 40
1.0
 10
-15.2927957602
 20
-18.9922653189
 30
0.0
 10
-15.2283911188
 20
-18.9914703986
 30
0.0
 10
-15.1008065011
 20
-18.9811952068
 30
0.0
 10
-14.9164600237
 20
-18.9400277761
 30
0.0
 10
-14.7464431776
 20
-18.8746117638
 30
0.0
 10
-14.5969883034
 20
-18.7871700845
 30
0.0
 10
-14.4736146156
 20
-18.6807002799
 30
0.0
 10
-14.3952918418
 20
-18.5772912438
 30
0.0
 10
-14.3512003662
 20
-18.4894517076
 30
0.0
 10
-14.3276558463
 20
-18.4225155789
 30
0.0
 10
-14.313427121
 20
-18.3542432178
 30
0.0
 10
-14.3102481666
 20
-18.3081672519
 30
0.0
 10
-14.3102481666
 20
-18.2852662335
 30
0.0
 11
-15.2927957602
 21
-18.9922653189
 31
0.0
 11
-15.1002032864
 21
-18.9765985835
 31
0.0
 11
-14.9155043433
 21
-18.9349496855
 31
0.0
 11
-14.7456412549
 21
-18.868883827
 31
0.0
 11
-14.5969978006
 21
-18.7808838695
 31
0.0
 11
-14.4751602077
 21
-18.6742572723
 31
0.0
 11
-14.3847077244
 21
-18.553011216
 31
0.0
 11
-14.3523631107
 21
-18.4883130634
 31
0.0
 11
-14.3290396997
 21
-18.4217023586
 31
0.0
 11
-14.3149571547
 21
-18.3538077189
 31
0.0
 11
-14.3102481666
 21
-18.2852662335
 31
0.0
  0
SPLINE
  5
480
100
AcDbEntity
  8
RACCORDO
100
AcDbSpline
 62
7
  6
CONTINUOUS
 70
0
 71
3
 72
17
 73
13
 74
11
 42
0.0000001
 43
0.0000001
 44
0.0000000001
 12
-0.0151059695
 22
-0.0922317045
 32
0.0
 13
-0.0291012384
 23
0.0888143882
 33
0.0
 40
0.0
 40
0.0
 40
0.0
 40
0.0
 40
0.0948508731
 40
0.1679160107
 40
0.2015553346
 40
0.2366016664
 40
0.2755807254
 40
0.3204362444
 40
0.4326075121
 40
0.5805440719
 40
0.7685500254
 40
1.0
 40
1.0
 40
1.0
 40
1.0
 10
-14.3108500915
 20
-18.2649689931
 30
0.0
 10
-14.3113276963
 20
-18.267885079
 30
0.0
 10
-14.3126864039
 20
-18.273031203
 30
0.0
 10
-14.3169014747
 20
-18.2781320284
 30
0.0
 10
-14.3210743513
 20
-18.2798133159
 30
0.0
 10
-14.3244713553
 20
-18.2800291218
 30
0.0
 10
-14.3281283161
 20
-18.2792372205
 30
0.0
 10
-14.3337024422
 20
-18.2766530489
 30
0.0
 10
-14.3410576068
 20
-18.2704150405
 30
0.0
 10
-14.3495717918
 20
-18.2592792922
 30
0.0
 10
-14.357976816
 20
-18.2436566444
 30
0.0
 10
-14.3626573276
 20
-18.2314207519
 30
0.0
 10
-14.3649024879
 20
-18.2245687226
 30
0.0
 11
-14.3108500915
 21
-18.2649689931
 31
0.0
 11
-14.3135496222
 21
-18.273412778
 31
0.0
 11
-14.3181525085
 21
-18.2784570527
 31
0.0
 11
-14.321067753
 21
-18.2796342415
 31
0.0
 11
-14.3243341608
 21
-18.2798774554
 31
0.0
 11
-14.3279054469
 21
-18.2791581491
 31
0.0
 11
-14.3317327206
 21
-18.2774473881
 31
0.0
 11
-14.3399474289
 21
-18.2709339992
 31
0.0
 11
-14.3485377301
 21
-18.2601001866
 31
0.0
 11
-14.3570252751
 21
-18.2447149127
 31
0.0
 11
-14.3649024879
 21
-18.2245687226
 31
0.0
  0
SPLINE
  5
481
100
AcDbEntity
  8
RACCORDO
100
AcDbSpline
 62
7
  6
CONTINUOUS
 70
0
 71
3
 72
14
 73
10
 74
8
 42
0.0000001
 43
0.0000001
 44
0.0000000001
 12
-0.209667119
 22
0.7251227009
 32
0.0
 13
0.0582398374
 23
0.752576479
 33
0.0
 40
0.0
 40
0.0
 40
0.0
 40
0.0
 40
0.0763540324
 40
0.1709962594
 40
0.2822423528
 40
0.4079767184
 40
0.5456636143
 40
0.6923915346
 40
1.0
 40
1.0
 40
1.0
 40
1.0
 10
-14.3649024712
 20
-18.2245686804
 30
0.0
 10
-14.3702387812
 20
-18.206113333
 30
0.0
 10
-14.3801051873
 20
-18.1641821478
 30
0.0
 10
-14.3919979898
 20
-18.0941403476
 30
0.0
 10
-14.4017028361
 20
-18.0112328018
 30
0.0
 10
-14.4084875367
 20
-17.9171810419
 30
0.0
 10
-14.4118214949
 20
-17.8140119718
 30
0.0
 10
-14.4112927854
 20
-17.6650309271
 30
0.0
 10
-14.4053035394
 20
-17.5507865788
 30
0.0
 10
-14.3993318504
 20
-17.4736202802
 30
0.0
 11
-14.3649024712
 21
-18.2245686804
 31
0.0
 11
-14.378519373
 21
-18.1685663191
 31
0.0
 11
-14.3907383548
 21
-18.0981805827
 31
0.0
 11
-14.4006962409
 21
-18.0148015953
 31
0.0
 11
-14.40767215
 21
-17.9201506675
 31
0.0
 11
-14.4111466616
 21
-17.8162790275
 31
0.0
 11
-14.4108541203
 21
-17.7055252729
 31
0.0
 11
-14.3993318504
 21
-17.4736202802
 31
0.0
  0
SPLINE
  5
482
100
AcDbEntity
  8
RACCORDO
100
AcDbSpline
 62
7
  6
CONTINUOUS
 70
0
 71
3
 72
14
 73
10
 74
8
 42
0.0000001
 43
0.0000001
 44
0.0000000001
 12
1.0927656489
 22
0.0134875632
 32
0.0
 13
0.4791208475
 23
0.9822229336
 33
0.0
 40
0.0
 40
0.0
 40
0.0
 40
0.0
 40
0.2762770305
 40
0.4104514838
 40
0.5400579445
 40
0.6641145457
 40
0.7820535282
 40
0.8938275273
 40
1.0
 40
1.0
 40
1.0
 40
1.0
 10
-15.2927957602
 20
-18.7010016053
 30
0.0
 10
-15.1921604107
 20
-18.699759504
 30
0.0
 10
-15.0420897399
 20
-18.6819788133
 30
0.0
 10
-14.8531571894
 20
-18.6259860641
 30
0.0
 10
-14.7231147386
 20
-18.5697755933
 30
0.0
 10
-14.6065057538
 20
-18.5002220337
 30
0.0
 10
-14.5059675488
 20
-18.4188058334
 30
0.0
 10
-14.4238949879
 20
-18.3273322509
 30
0.0
 10
-14.3818589696
 20
-18.2593304018
 30
0.0
 10
-14.3649024879
 20
-18.2245687226
 30
0.0
 11
-15.2927957602
 21
-18.7010016053
 31
0.0
 11
-14.9930693041
 21
-18.664598323
 31
0.0
 11
-14.852551214
 21
-18.6226969217
 31
0.0
 11
-14.7226776596
 21
-18.5661741161
 31
0.0
 11
-14.6064690974
 21
-18.4963444472
 31
0.0
 11
-14.5066281728
 21
-18.4148319381
 31
0.0
 11
-14.425476921
 21
-18.3235323904
 31
0.0
 11
-14.3649024879
 21
-18.2245687226
 31
0.0
  0
SPLINE
  5
483
100
AcDbEntity
  8
RACCORDO
100
AcDbSpline
 62
7
  6
CONTINUOUS
 70
0
 71
3
 72
10
 73
6
 74
4
 42
0.0000001
 43
0.0000001
 44
0.0000000001
 12
0.0072276059
 22
1.4139831445
 32
0.0
 13
-0.0051110124
 23
1.4139923796
 33
0.0
 40
0.0
 40
0.0
 40
0.0
 40
0.0
 40
0.2143121281
 40
0.4588110544
 40
1.0
 40
1.0
 40
1.0
 40
1.0
 10
-15.2927957602
 20
-18.7010016053
 30
0.0
 10
-15.292279439
 20
-18.5999903597
 30
0.0
 10
-15.2915612022
 20
-18.3837379894
 30
0.0
 10
-15.2911216005
 20
-17.9124040993
 30
0.0
 10
-15.2918737524
 20
-17.5420824495
 30
0.0
 10
-15.2927957602
 20
-17.2870034345
 30
0.0
 11
-15.2927957602
 21
-18.7010016053
 31
0.0
 11
-15.2917211596
 21
-18.3979658151
 31
0.0
 11
-15.2913583116
 21
-18.0522441284
 31
0.0
 11
-15.2927957602
 21
-17.2870034345
 31
0.0
  0
SPLINE
  5
484
100
AcDbEntity
  8
RACCORDO
100
AcDbSpline
 62
7
  6
CONTINUOUS
 70
0
 71
3
 72
15
 73
11
 74
9
 42
0.0000001
 43
0.0000001
 44
0.0000000001
 12
0.0000000252
 22
0.6130105308
 32
0.0
 13
0.0000771191
 23
0.6130105235
 33
0.0
 40
0.0
 40
0.0
 40
0.0
 40
0.0
 40
0.1548589302
 40
0.3055284327
 40
0.4487182246
 40
0.582253091
 40
0.7047766606
 40
0.815444221
 40
0.9138189648
 40
1.0
 40
1.0
 40
1.0
 40
1.0
 10
-14.3922106146
 20
-9.9369668573
 30
0.0
 10
-14.3922106133
 20
-9.9053234723
 30
0.0
 10
-14.3899060986
 20
-9.8428701296
 30
0.0
 10
-14.3802584886
 20
-9.7516330689
 30
0.0
 10
-14.3663620272
 20
-9.6653830622
 30
0.0
 10
-14.3505732563
 20
-9.5853372555
 30
0.0
 10
-14.3351492895
 20
-9.5120086349
 30
0.0
 10
-14.3220501844
 20
-9.4455256879
 30
0.0
 10
-14.312924694
 20
-9.3858721062
 30
0.0
 10
-14.3102503849
 20
-9.3481648966
 30
0.0
 10
-14.3102481695
 20
-9.3305549361
 30
0.0
 11
-14.3922106146
 21
-9.9369668573
 31
0.0
 11
-14.3887789459
 21
-9.8420987489
 31
0.0
 11
-14.3792468141
 21
-9.7502299513
 31
0.0
 11
-14.3655270927
 21
-9.6635319428
 31
0.0
 11
-14.3499628472
 21
-9.5831669495
 31
0.0
 11
-14.3348149164
 21
-9.509602096
 31
0.0
 11
-14.3220681739
 21
-9.4429699888
 31
0.0
 11
-14.3134087969
 21
-9.3832901888
 31
0.0
 11
-14.3102481695
 21
-9.3305549361
 31
0.0
  0
SPLINE
  5
485
100
AcDbEntity
  8
RACCORDO
100
AcDbSpline
 62
7
  6
CONTINUOUS
 70
0
 71
3
 72
26
 73
22
 74
20
 42
0.0000001
 43
0.0000001
 44
0.0000000001
 12
0.292900119
 22
0.0051126758
 32
0.0
 13
-0.0029946524
 23
0.29292957
 33
0.0
 40
0.0
 40
0.0
 40
0.0
 40
0.0
 40
0.0003971306
 40
0.0012254616
 40
0.0043671924
 40
0.0095381221
 40
0.0167491989
 40
0.0260006892
 40
0.0372881827
 40
0.0506061992
 40
0.0659483091
 40
0.1026656087
 40
0.1473542062
 40
0.1999066832
 40
0.2601987018
 40
0.3280835777
 40
0.4033999005
 40
0.4859658814
 40
0.5755830365
 40
0.7750870849
 40
1.0
 40
1.0
 40
1.0
 40
1.0
 10
-15.2927957602
 20
-19.2851139287
 30
0.0
 10
-15.292756987
 20
-19.2851132519
 30
0.0
 10
-15.2926734904
 20
-19.2849940755
 30
0.0
 10
-15.2925640935
 20
-19.2846057935
 30
0.0
 10
-15.2924227143
 20
-19.2836989847
 30
0.0
 10
-15.2922887364
 20
-19.2822025746
 30
0.0
 10
-15.2921529209
 20
-19.2800882828
 30
0.0
 10
-15.2920288486
 20
-19.2773836264
 30
0.0
 10
-15.2919132182
 20
-19.2740786876
 30
0.0
 10
-15.291808258
 20
-19.2701795376
 30
0.0
 10
-15.2916742104
 20
-19.2637968021
 30
0.0
 10
-15.2915427123
 20
-19.2543504133
 30
0.0
 10
-15.2914346947
 20
-19.2412699864
 30
0.0
 10
-15.2913706299
 20
-19.2258872573
 30
0.0
 10
-15.2913508961
 20
-19.2082393312
 30
0.0
 10
-15.2913759594
 20
-19.1883685677
 30
0.0
 10
-15.2914459572
 20
-19.1663228882
 30
0.0
 10
-15.2915608181
 20
-19.1421552534
 30
0.0
 10
-15.2917817201
 20
-19.1058612982
 30
0.0
 10
-15.2921751317
 20
-19.0556682488
 30
0.0
 10
-15.2925712482
 20
-19.0142265334
 30
0.0
 10
-15.2927957602
 20
-18.9922653189
 30
0.0
 11
-15.2927957602
 21
-19.2851139287
 31
0.0
 11
-15.2927084151
 21
-19.2850370833
 31
0.0
 11
-15.2926236997
 21
-19.2848096962
 31
0.0
 11
-15.292462216
 21
-19.2839036198
 31
0.0
 11
-15.2923114241
 21
-19.2823963465
 31
0.0
 11
-15.2921714382
 21
-19.2802885419
 31
0.0
 11
-15.2920423515
 21
-19.2775814412
 31
0.0
 11
-15.2919242323
 21
-19.2742769382
 31
0.0
 11
-15.2918171476
 21
-19.2703769633
 31
0.0
 11
-15.2917211624
 21
-19.2658835959
 31
0.0
 11
-15.2915627021
 21
-19.2551286185
 31
0.0
 11
-15.291449244
 21
-19.2420378145
 31
0.0
 11
-15.2913810581
 21
-19.2266429866
 31
0.0
 11
-15.2913583148
 21
-19.2089807633
 31
0.0
 11
-15.2913810581
 21
-19.1890942497
 31
0.0
 11
-15.291449244
 21
-19.1670308242
 31
0.0
 11
-15.2915627021
 21
-19.1428438093
 31
0.0
 11
-15.2917211624
 21
-19.1165914012
 31
0.0
 11
-15.2921714382
 21
-19.058149447
 31
0.0
 11
-15.2927957602
 21
-18.9922653189
 31
0.0
  0
SPLINE
  5
486
100
AcDbEntity
  8
RACCORDO
100
AcDbSpline
 62
7
  6
CONTINUOUS
 70
0
 71
3
 72
9
 73
5
 74
3
 42
0.0000001
 43
0.0000001
 44
0.0000000001
 12
0.044210057
 22
0.1191575551
 32
0.0
 13
-0.0238339508
 23
0.1248398767
 33
0.0
 40
0.0
 40
0.0
 40
0.0
 40
0.0
 40
0.504435982
 40
1.0
 40
1.0
 40
1.0
 40
1.0
 10
-14.3649024918
 20
-18.224568645
 30
0.0
 10
-14.3574687773
 20
-18.2045328589
 30
0.0
 10
-14.3477923498
 20
-18.1627023755
 30
0.0
 10
-14.3498908045
 20
-18.1197659336
 30
0.0
 10
-14.3538278873
 20
-18.0991438833
 30
0.0
 11
-14.3649024918
 21
-18.224568645
 31
0.0
 11
-14.3507026863
 21
-18.1620498396
 31
0.0
 11
-14.3538278873
 21
-18.0991438833
 31
0.0
  0
SPLINE
  5
487
100
AcDbEntity
  8
RACCORDO
100
AcDbSpline
 62
7
  6
CONTINUOUS
 70
0
 71
3
 72
18
 73
14
 74
12
 42
0.0000001
 43
0.0000001
 44
0.0000000001
 12
0.3125537563
 22
0.0013290878
 32
0.0
 13
0.0650816021
 23
0.3057057423
 33
0.0
 40
0.0
 40
0.0
 40
0.0
 40
0.0
 40
0.1810954828
 40
0.3551213438
 40
0.5160926765
 40
0.6588919487
 40
0.779590958
 40
0.8308667392
 40
0.8758907441
 40
0.9147384617
 40
0.947753795
 40
0.9757021885
 40
1.0
 40
1.0
 40
1.0
 40
1.0
 10
-2.9050124447
 20
-2.3849339447
 30
0.0
 10
-2.8861450869
 20
-2.3848537141
 30
0.0
 10
-2.8491441549
 20
-2.38385311
 30
0.0
 10
-2.7955040059
 20
-2.3798424835
 30
0.0
 10
-2.7461003237
 20
-2.3734948059
 30
0.0
 10
-2.7026599105
 20
-2.3650469978
 30
0.0
 10
-2.6710317358
 20
-2.3561189677
 30
0.0
 10
-2.6499588673
 20
-2.3478795614
 30
0.0
 10
-2.6372819698
 20
-2.3417070837
 30
0.0
 10
-2.6269244705
 20
-2.3352473799
 30
0.0
 10
-2.6189340242
 20
-2.3285166182
 30
0.0
 10
-2.6133489353
 20
-2.3215130616
 30
0.0
 10
-2.6112262144
 20
-2.3163829455
 30
0.0
 10
-2.6106991009
 20
-2.313906952
 30
0.0
 11
-2.9050124447
 21
-2.3849339447
 31
0.0
 11
-2.8484313117
 21
-2.3833757333
 31
0.0
 11
-2.7941956474
 21
-2.3792425324
 31
0.0
 11
-2.744311646
 21
-2.3726889755
 31
0.0
 11
-2.700542216
 21
-2.3639523565
 31
0.0
 11
-2.664341507
 21
-2.3533361122
 31
0.0
 11
-2.6494421267
 21
-2.3474318912
 31
0.0
 11
-2.636828055
 21
-2.3411931547
 31
0.0
 11
-2.6265873296
 21
-2.3346694768
 31
0.0
 11
-2.6187885384
 21
-2.3279119689
 31
0.0
 11
-2.6134817167
 21
-2.320973251
 31
0.0
 11
-2.6106991009
 21
-2.313906952
 31
0.0
  0
SPLINE
  5
488
100
AcDbEntity
  8
RACCORDO
100
AcDbSpline
 62
7
  6
CONTINUOUS
 70
0
 71
3
 72
15
 73
11
 74
9
 42
0.0000001
 43
0.0000001
 44
0.0000000001
 12
-0.0000000582
 22
-0.3533323899
 32
0.0
 13
-0.3528694487
 23
-0.0180811541
 33
0.0
 40
0.0
 40
0.0
 40
0.0
 40
0.0
 40
0.0928377161
 40
0.191345287
 40
0.2996359991
 40
0.4196881279
 40
0.5515799189
 40
0.6939534195
 40
0.8444371642
 40
1.0
 40
1.0
 40
1.0
 40
1.0
 10
-2.6102481666
 20
-2.649259156
 30
0.0
 10
-2.6102481684
 20
-2.6601933467
 30
0.0
 10
-2.613963789
 20
-2.6828671937
 30
0.0
 10
-2.6300139433
 20
-2.7147850642
 30
0.0
 10
-2.6555739411
 20
-2.7440169388
 30
0.0
 10
-2.6895902241
 20
-2.769767048
 30
0.0
 10
-2.7309115772
 20
-2.7913539564
 30
0.0
 10
-2.7781922704
 20
-2.808132272
 30
0.0
 10
-2.8298708454
 20
-2.8195726836
 30
0.0
 10
-2.8658037317
 20
-2.8233574035
 30
0.0
 10
-2.8841015224
 20
-2.8242949887
 30
0.0
 11
-2.6102481666
 21
-2.649259156
 31
0.0
 11
-2.6153917908
 21
-2.6816559438
 31
0.0
 11
-2.6306458885
 21
-2.7129411518
 31
0.0
 11
-2.6554875605
 21
-2.7420430265
 31
0.0
 11
-2.6890651007
 21
-2.7679633163
 31
0.0
 11
-2.7302268586
 21
-2.7898133203
 31
0.0
 11
-2.7775616018
 21
-2.8068436497
 31
0.0
 11
-2.8294456194
 21
-2.8184703712
 31
0.0
 11
-2.8841015224
 21
-2.8242949887
 31
0.0
  0
SPLINE
  5
489
100
AcDbEntity
  8
RACCORDO
100
AcDbSpline
 62
7
  6
CONTINUOUS
 70
0
 71
3
 72
18
 73
14
 74
12
 42
0.0000001
 43
0.0000001
 44
0.0000000001
 12
-0.0650816021
 22
0.3057057546
 32
0.0
 13
-0.3125537563
 23
0.0013290878
 33
0.0
 40
0.0
 40
0.0
 40
0.0
 40
0.0
 40
0.0242978115
 40
0.052246205
 40
0.0852615383
 40
0.1241092559
 40
0.1691332608
 40
0.220409042
 40
0.3411080513
 40
0.4839073235
 40
0.6448786562
 40
0.8189045172
 40
1.0
 40
1.0
 40
1.0
 40
1.0
 10
-2.6106991009
 20
0.1196449977
 30
0.0
 10
-2.6112262144
 20
0.1221209913
 30
0.0
 10
-2.6133489353
 20
0.1272511074
 30
0.0
 10
-2.6189340242
 20
0.1342546639
 30
0.0
 10
-2.6269244705
 20
0.1409854257
 30
0.0
 10
-2.6372819698
 20
0.1474451294
 30
0.0
 10
-2.6499588673
 20
0.1536176071
 30
0.0
 10
-2.6710317358
 20
0.1618570135
 30
0.0
 10
-2.7026599105
 20
0.1707850435
 30
0.0
 10
-2.7461003237
 20
0.1792328516
 30
0.0
 10
-2.7955040059
 20
0.1855805293
 30
0.0
 10
-2.8491441549
 20
0.1895911558
 30
0.0
 10
-2.8861450869
 20
0.1905917598
 30
0.0
 10
-2.9050124447
 20
0.1906719904
 30
0.0
 11
-2.6106991009
 21
0.1196449977
 31
0.0
 11
-2.6134817167
 21
0.1267112968
 31
0.0
 11
-2.6187885384
 21
0.1336500147
 31
0.0
 11
-2.6265873296
 21
0.1404075225
 31
0.0
 11
-2.636828055
 21
0.1469312004
 31
0.0
 11
-2.6494421267
 21
0.1531699369
 31
0.0
 11
-2.664341507
 21
0.1590741579
 31
0.0
 11
-2.700542216
 21
0.1696904022
 31
0.0
 11
-2.744311646
 21
0.1784270212
 31
0.0
 11
-2.7941956474
 21
0.1849805782
 31
0.0
 11
-2.8484313117
 21
0.1891137791
 31
0.0
 11
-2.9050124447
 21
0.1906719904
 31
0.0
  0
SPLINE
  5
48A
100
AcDbEntity
  8
RACCORDO
100
AcDbSpline
 62
7
  6
CONTINUOUS
 70
0
 71
3
 72
15
 73
11
 74
9
 42
0.0000001
 43
0.0000001
 44
0.0000000001
 12
-0.0000000517
 22
0.3533322102
 32
0.0
 13
-0.3528692648
 23
0.0180812589
 33
0.0
 40
0.0
 40
0.0
 40
0.0
 40
0.0
 40
0.0928377183
 40
0.1913452894
 40
0.2996359987
 40
0.4196881226
 40
0.5515799085
 40
0.6939534065
 40
0.8444371537
 40
1.0
 40
1.0
 40
1.0
 40
1.0
 10
-2.6102481666
 20
0.454997188
 30
0.0
 10
-2.6102481682
 20
0.4659313734
 30
0.0
 10
-2.6139637857
 20
0.4886052093
 30
0.0
 10
-2.6300139276
 20
0.5205230656
 30
0.0
 10
-2.6555739066
 20
0.5497549293
 30
0.0
 10
-2.689590166
 20
0.5755050314
 30
0.0
 10
-2.730911492
 20
0.5970919375
 30
0.0
 10
-2.7781921566
 20
0.613870256
 30
0.0
 10
-2.8298707036
 20
0.6253106761
 30
0.0
 10
-2.8658035722
 20
0.6290954049
 30
0.0
 10
-2.8841013546
 20
0.6300329956
 30
0.0
 11
-2.6102481666
 21
0.454997188
 31
0.0
 11
-2.6153917866
 21
0.4873939605
 31
0.0
 11
-2.6306458727
 21
0.5186791547
 31
0.0
 11
-2.6554875264
 21
0.5477810183
 31
0.0
 11
-2.6890650431
 21
0.5737013007
 31
0.0
 11
-2.7302267738
 21
0.5955513021
 31
0.0
 11
-2.777561488
 21
0.6125816342
 31
0.0
 11
-2.8294454772
 21
0.6242083641
 31
0.0
 11
-2.8841013546
 21
0.6300329956
 31
0.0
  0
SPLINE
  5
48B
100
AcDbEntity
  8
RACCORDO
100
AcDbSpline
 62
7
  6
CONTINUOUS
 70
0
 71
3
 72
26
 73
22
 74
20
 42
0.0000001
 43
0.0000001
 44
0.0000000001
 12
0.0029946524
 22
0.2929295686
 32
0.0
 13
-0.292900119
 23
0.0051126758
 33
0.0
 40
0.0
 40
0.0
 40
0.0
 40
0.0
 40
0.2249129151
 40
0.4244169635
 40
0.5140341186
 40
0.5966000995
 40
0.6719164223
 40
0.7398012982
 40
0.8000933168
 40
0.8526457938
 40
0.8973343913
 40
0.9340516909
 40
0.9493938008
 40
0.9627118173
 40
0.9739993108
 40
0.9832508011
 40
0.9904618779
 40
0.9956328076
 40
0.9987745384
 40
0.9996028694
 40
1.0
 40
1.0
 40
1.0
 40
1.0
 10
-5.5927957602
 20
19.4286892349
 30
0.0
 10
-5.5925712482
 20
19.4506504493
 30
0.0
 10
-5.5921751317
 20
19.4920921648
 30
0.0
 10
-5.5917817201
 20
19.5422852141
 30
0.0
 10
-5.5915608181
 20
19.5785791693
 30
0.0
 10
-5.5914459572
 20
19.6027468042
 30
0.0
 10
-5.5913759594
 20
19.6247924836
 30
0.0
 10
-5.5913508961
 20
19.6446632472
 30
0.0
 10
-5.5913706299
 20
19.6623111732
 30
0.0
 10
-5.5914346947
 20
19.6776939023
 30
0.0
 10
-5.5915427123
 20
19.6907743292
 30
0.0
 10
-5.5916742104
 20
19.7002207181
 30
0.0
 10
-5.591808258
 20
19.7066034536
 30
0.0
 10
-5.5919132182
 20
19.7105026035
 30
0.0
 10
-5.5920288486
 20
19.7138075423
 30
0.0
 10
-5.5921529209
 20
19.7165121987
 30
0.0
 10
-5.5922887364
 20
19.7186264905
 30
0.0
 10
-5.5924227143
 20
19.7201229006
 30
0.0
 10
-5.5925640935
 20
19.7210297095
 30
0.0
 10
-5.5926734904
 20
19.7214179914
 30
0.0
 10
-5.592756987
 20
19.7215371678
 30
0.0
 10
-5.5927957602
 20
19.7215378446
 30
0.0
 11
-5.5927957602
 21
19.4286892349
 31
0.0
 11
-5.5921714382
 21
19.494573363
 31
0.0
 11
-5.5917211624
 21
19.5530153171
 31
0.0
 11
-5.5915627021
 21
19.5792677252
 31
0.0
 11
-5.591449244
 21
19.6034547402
 31
0.0
 11
-5.5913810581
 21
19.6255181657
 31
0.0
 11
-5.5913583148
 21
19.6454046793
 31
0.0
 11
-5.5913810581
 21
19.6630669025
 31
0.0
 11
-5.591449244
 21
19.6784617304
 31
0.0
 11
-5.5915627021
 21
19.6915525344
 31
0.0
 11
-5.5917211624
 21
19.7023075119
 31
0.0
 11
-5.5918171476
 21
19.7068008793
 31
0.0
 11
-5.5919242323
 21
19.7107008541
 31
0.0
 11
-5.5920423515
 21
19.7140053571
 31
0.0
 11
-5.5921714382
 21
19.7167124578
 31
0.0
 11
-5.5923114241
 21
19.7188202624
 31
0.0
 11
-5.592462216
 21
19.7203275358
 31
0.0
 11
-5.5926236997
 21
19.7212336121
 31
0.0
 11
-5.5927084151
 21
19.7214609992
 31
0.0
 11
-5.5927957602
 21
19.7215378446
 31
0.0
  0
SPLINE
  5
48C
100
AcDbEntity
  8
RACCORDO
100
AcDbSpline
 62
7
  6
CONTINUOUS
 70
0
 71
3
 72
10
 73
6
 74
4
 42
0.0000001
 43
0.0000001
 44
0.0000000001
 12
0.0072273231
 22
-1.4139831459
 32
0.0
 13
-0.0051110395
 23
-1.413992379
 33
0.0
 40
0.0
 40
0.0
 40
0.0
 40
0.0
 40
0.2143121281
 40
0.4588110544
 40
1.0
 40
1.0
 40
1.0
 40
1.0
 10
-5.5927957602
 20
19.2366074422
 30
0.0
 10
-5.5922794592
 20
19.1355961965
 30
0.0
 10
-5.59156119
 20
18.9193438263
 30
0.0
 10
-5.5911216099
 20
18.4480099361
 30
0.0
 10
-5.5918737475
 20
18.0776882863
 30
0.0
 10
-5.5927957602
 20
17.8226092714
 30
0.0
 11
-5.5927957602
 21
19.2366074422
 31
0.0
 11
-5.5917211588
 21
18.9335716519
 31
0.0
 11
-5.5913583116
 21
18.5878499653
 31
0.0
 11
-5.5927957602
 21
17.8226092714
 31
0.0
  0
SPLINE
  5
48D
100
AcDbEntity
  8
RACCORDO
100
AcDbSpline
 62
7
  6
CONTINUOUS
 70
0
 71
3
 72
15
 73
11
 74
9
 42
0.0000001
 43
0.0000001
 44
0.0000000001
 12
-0.0000000711
 22
0.3533322072
 32
0.0
 13
-0.3528692626
 23
0.0180812591
 33
0.0
 40
0.0
 40
0.0
 40
0.0
 40
0.0
 40
0.0928377191
 40
0.1913452914
 40
0.2996360018
 40
0.4196881262
 40
0.5515799121
 40
0.6939534093
 40
0.8444371553
 40
1.0
 40
1.0
 40
1.0
 40
1.0
 10
-2.6102481666
 20
13.9549972168
 30
0.0
 10
-2.6102481688
 20
13.9659314022
 30
0.0
 10
-2.6139637874
 20
13.9886052379
 30
0.0
 10
-2.6300139303
 20
14.0205230937
 30
0.0
 10
-2.6555739098
 20
14.0497549568
 30
0.0
 10
-2.6895901693
 20
14.0755050585
 30
0.0
 10
-2.730911495
 20
14.0970919641
 30
0.0
 10
-2.7781921589
 20
14.1138702822
 30
0.0
 10
-2.829870705
 20
14.125310702
 30
0.0
 10
-2.8658035729
 20
14.1290954308
 30
0.0
 10
-2.884101355
 20
14.1300330215
 30
0.0
 11
-2.6102481666
 21
13.9549972168
 31
0.0
 11
-2.6153917881
 21
13.987393989
 31
0.0
 11
-2.6306458753
 21
14.0186791829
 31
0.0
 11
-2.6554875296
 21
14.0477810459
 31
0.0
 11
-2.6890650465
 21
14.0737013279
 31
0.0
 11
-2.7302267768
 21
14.0955513288
 31
0.0
 11
-2.7775614903
 21
14.1125816605
 31
0.0
 11
-2.8294454786
 21
14.1242083901
 31
0.0
 11
-2.884101355
 21
14.1300330215
 31
0.0
  0
SPLINE
  5
48E
100
AcDbEntity
  8
RACCORDO
100
AcDbSpline
 62
7
  6
CONTINUOUS
 70
0
 71
3
 72
10
 73
6
 74
4
 42
0.0000001
 43
0.0000001
 44
0.0000000001
 12
0.5076752357
 22
0.4461424724
 32
0.0
 13
0.5276746419
 23
0.4222993274
 33
0.0
 40
0.0
 40
0.0
 40
0.0
 40
0.0
 40
0.5124538699
 40
0.7612202801
 40
1.0
 40
1.0
 40
1.0
 40
1.0
 10
-5.5927957602
 20
14.1562284643
 30
0.0
 10
-5.5060757138
 20
14.2324376098
 30
0.0
 10
-5.3773715028
 20
14.3457780406
 30
0.0
 10
-5.2062206634
 20
14.4922775284
 30
0.0
 10
-5.1215432199
 20
14.5622536841
 30
0.0
 10
-5.0795438855
 20
14.5958658558
 30
0.0
 11
-5.5927957602
 21
14.1562284643
 31
0.0
 11
-5.332072509
 21
14.3842135273
 31
0.0
 11
-5.2041902917
 21
14.4933633043
 31
0.0
 11
-5.0795438855
 21
14.5958658558
 31
0.0
  0
SPLINE
  5
48F
100
AcDbEntity
  8
RACCORDO
100
AcDbSpline
 62
7
  6
CONTINUOUS
 70
0
 71
3
 72
15
 73
11
 74
9
 42
0.0000001
 43
0.0000001
 44
0.0000000001
 12
0.7522660395
 22
0.6020372724
 32
0.0
 13
0.0000018844
 23
0.9635108065
 33
0.0
 40
0.0
 40
0.0
 40
0.0
 40
0.0
 40
0.1485548329
 40
0.2915443789
 40
0.4285729017
 40
0.5590066044
 40
0.6820573058
 40
0.7968984219
 40
0.9028879989
 40
1.0
 40
1.0
 40
1.0
 40
1.0
 10
-5.0795438855
 20
14.5958658558
 30
0.0
 10
-5.0422929669
 20
14.6256777046
 30
0.0
 10
-4.9730488876
 20
14.6891100323
 30
0.0
 10
-4.8816995964
 20
14.7923156116
 30
0.0
 10
-4.8032703034
 20
14.8984700855
 30
0.0
 10
-4.7372069414
 20
15.0052473199
 30
0.0
 10
-4.6836198115
 20
15.1108794717
 30
0.0
 10
-4.6432040373
 20
15.2138885208
 30
0.0
 10
-4.6171486969
 20
15.3128859545
 30
0.0
 10
-4.6102482276
 20
15.3781681911
 30
0.0
 10
-4.6102481666
 20
15.4093576786
 30
0.0
 11
-5.0795438855
 21
14.5958658558
 31
0.0
 11
-4.9735710438
 21
14.6920799516
 31
0.0
 11
-4.882040294
 21
14.7950519785
 31
0.0
 11
-4.8035483004
 21
14.9012146923
 31
0.0
 11
-4.7375474191
 21
15.0081628518
 31
0.0
 11
-4.6842050425
 21
15.1140459278
 31
0.0
 11
-4.644288552
 21
15.2172459352
 31
0.0
 11
-4.6190746994
 21
15.3162064602
 31
0.0
 11
-4.6102481666
 21
15.4093576786
 31
0.0
  0
SPLINE
  5
490
100
AcDbEntity
  8
RACCORDO
100
AcDbSpline
 62
7
  6
CONTINUOUS
 70
0
 71
3
 72
10
 73
6
 74
4
 42
0.0000001
 43
0.0000001
 44
0.0000000001
 12
-0.5276738171
 22
0.4222999995
 32
0.0
 13
-0.5076750811
 23
0.4461423078
 33
0.0
 40
0.0
 40
0.0
 40
0.0
 40
0.0
 40
0.2387797469
 40
0.4875461448
 40
1.0
 40
1.0
 40
1.0
 40
1.0
 10
-5.0795438592
 20
10.2098721551
 30
0.0
 10
-5.1215431327
 20
10.2434843841
 30
0.0
 10
-5.2062204477
 20
10.3134606417
 30
0.0
 10
-5.3773712537
 20
10.4599600499
 30
0.0
 10
-5.5060757427
 20
10.5733000683
 30
0.0
 10
-5.5927957602
 20
10.6495091835
 30
0.0
 11
-5.0795438592
 21
10.2098721551
 31
0.0
 11
-5.204190113
 21
10.3123748362
 31
0.0
 11
-5.3320723021
 21
10.4215245474
 31
0.0
 11
-5.5927957602
 21
10.6495091835
 31
0.0
  0
SPLINE
  5
491
100
AcDbEntity
  8
RACCORDO
100
AcDbSpline
 62
7
  6
CONTINUOUS
 70
0
 71
3
 72
10
 73
6
 74
4
 42
0.0000001
 43
0.0000001
 44
0.0000000001
 12
0.5076754109
 22
0.4461422602
 32
0.0
 13
0.5276745633
 23
0.4222994122
 33
0.0
 40
0.0
 40
0.0
 40
0.0
 40
0.0
 40
0.5124538668
 40
0.7612202769
 40
1.0
 40
1.0
 40
1.0
 40
1.0
 10
-5.5927957602
 20
0.656228488
 30
0.0
 10
-5.5060756844
 20
0.7324375968
 30
0.0
 10
-5.3773714485
 20
0.8457779944
 30
0.0
 10
-5.2062206401
 20
0.9922775139
 30
0.0
 10
-5.1215432095
 20
1.0622536841
 30
0.0
 10
-5.0795438808
 20
1.095865863
 30
0.0
 11
-5.5927957602
 21
0.656228488
 31
0.0
 11
-5.3320724687
 21
0.8842134951
 31
0.0
 11
-5.2041902688
 21
0.9933632893
 31
0.0
 11
-5.0795438808
 21
1.095865863
 31
0.0
  0
SPLINE
  5
492
100
AcDbEntity
  8
RACCORDO
100
AcDbSpline
 62
7
  6
CONTINUOUS
 70
0
 71
3
 72
15
 73
11
 74
9
 42
0.0000001
 43
0.0000001
 44
0.0000000001
 12
0.7522646989
 22
0.6020362097
 32
0.0
 13
0.0000056285
 23
0.963509094
 33
0.0
 40
0.0
 40
0.0
 40
0.0
 40
0.0
 40
0.1485547483
 40
0.2915442274
 40
0.4285727037
 40
0.5590063849
 40
0.6820570949
 40
0.7968982535
 40
0.9028879057
 40
1.0
 40
1.0
 40
1.0
 40
1.0
 10
-5.0795438808
 20
1.095865863
 30
0.0
 10
-5.0422930498
 20
1.1256776422
 30
0.0
 10
-4.9730491184
 20
1.1891098104
 30
0.0
 10
-4.8816999981
 20
1.2923151285
 30
0.0
 10
-4.8032708179
 20
1.3984693395
 30
0.0
 10
-4.7372075116
 20
1.5052463229
 30
0.0
 10
-4.6836203745
 20
1.6108782446
 30
0.0
 10
-4.6432045199
 20
1.7138870924
 30
0.0
 10
-4.6171490116
 20
1.8128843609
 30
0.0
 10
-4.6102483488
 20
1.8781665083
 30
0.0
 10
-4.6102481666
 20
1.9093559703
 30
0.0
 11
-5.0795438808
 21
1.095865863
 31
0.0
 11
-4.9735712735
 21
1.1920797175
 31
0.0
 11
-4.8820406946
 21
1.2950514826
 31
0.0
 11
-4.8035488138
 21
1.4012139325
 31
0.0
 11
-4.7375479864
 21
1.5081618387
 31
0.0
 11
-4.6842055986
 21
1.6140446826
 31
0.0
 11
-4.6442890202
 21
1.7172444892
 31
0.0
 11
-4.619074988
 21
1.816204856
 31
0.0
 11
-4.6102481666
 21
1.9093559703
 31
0.0
  0
SPLINE
  5
493
100
AcDbEntity
  8
RACCORDO
100
AcDbSpline
 62
7
  6
CONTINUOUS
 70
0
 71
3
 72
18
 73
14
 74
12
 42
0.0000001
 43
0.0000001
 44
0.0000000001
 12
0.3125537563
 22
0.0013290878
 32
0.0
 13
0.0650816021
 23
0.3057057423
 33
0.0
 40
0.0
 40
0.0
 40
0.0
 40
0.0
 40
0.1810954828
 40
0.3551213438
 40
0.5160926765
 40
0.6588919487
 40
0.779590958
 40
0.8308667392
 40
0.8758907441
 40
0.9147384617
 40
0.947753795
 40
0.9757021885
 40
1.0
 40
1.0
 40
1.0
 40
1.0
 10
-2.9050124447
 20
11.1150660553
 30
0.0
 10
-2.8861450869
 20
11.1151462859
 30
0.0
 10
-2.8491441549
 20
11.11614689
 30
0.0
 10
-2.7955040059
 20
11.1201575165
 30
0.0
 10
-2.7461003237
 20
11.1265051941
 30
0.0
 10
-2.7026599105
 20
11.1349530022
 30
0.0
 10
-2.6710317358
 20
11.1438810323
 30
0.0
 10
-2.6499588673
 20
11.1521204386
 30
0.0
 10
-2.6372819698
 20
11.1582929163
 30
0.0
 10
-2.6269244705
 20
11.1647526201
 30
0.0
 10
-2.6189340242
 20
11.1714833818
 30
0.0
 10
-2.6133489353
 20
11.1784869384
 30
0.0
 10
-2.6112262144
 20
11.1836170545
 30
0.0
 10
-2.6106991009
 20
11.186093048
 30
0.0
 11
-2.9050124447
 21
11.1150660553
 31
0.0
 11
-2.8484313117
 21
11.1166242667
 31
0.0
 11
-2.7941956474
 21
11.1207574676
 31
0.0
 11
-2.744311646
 21
11.1273110245
 31
0.0
 11
-2.700542216
 21
11.1360476435
 31
0.0
 11
-2.664341507
 21
11.1466638878
 31
0.0
 11
-2.6494421267
 21
11.1525681088
 31
0.0
 11
-2.636828055
 21
11.1588068453
 31
0.0
 11
-2.6265873296
 21
11.1653305232
 31
0.0
 11
-2.6187885384
 21
11.1720880311
 31
0.0
 11
-2.6134817167
 21
11.179026749
 31
0.0
 11
-2.6106991009
 21
11.186093048
 31
0.0
  0
SPLINE
  5
494
100
AcDbEntity
  8
RACCORDO
100
AcDbSpline
 62
7
  6
CONTINUOUS
 70
0
 71
3
 72
15
 73
11
 74
9
 42
0.0000001
 43
0.0000001
 44
0.0000000001
 12
-0.0000000388
 22
-0.353332234
 32
0.0
 13
-0.35286929
 23
-0.0180812378
 33
0.0
 40
0.0
 40
0.0
 40
0.0
 40
0.0
 40
0.0928377197
 40
0.1913452912
 40
0.2996360005
 40
0.4196881243
 40
0.5515799101
 40
0.6939534078
 40
0.8444371546
 40
1.0
 40
1.0
 40
1.0
 40
1.0
 10
-2.6102481666
 20
10.8507408806
 30
0.0
 10
-2.6102481678
 20
10.8398066943
 30
0.0
 10
-2.6139637848
 20
10.8171328565
 30
0.0
 10
-2.6300139272
 20
10.7852149974
 30
0.0
 10
-2.6555739079
 20
10.7559831316
 30
0.0
 10
-2.68959017
 20
10.7302330281
 30
0.0
 10
-2.7309114994
 20
10.7086461216
 30
0.0
 10
-2.7781921677
 20
10.6918678038
 30
0.0
 10
-2.8298707187
 20
10.6804273855
 30
0.0
 10
-2.8658035898
 20
10.6766426585
 30
0.0
 10
-2.8841013734
 20
10.6757050689
 30
0.0
 11
-2.6102481666
 21
10.8507408806
 31
0.0
 11
-2.6153917859
 21
10.8183441053
 31
0.0
 11
-2.6306458725
 21
10.7870589084
 31
0.0
 11
-2.6554875278
 21
10.7579570428
 31
0.0
 11
-2.6890650471
 21
10.732036759
 31
0.0
 11
-2.7302267811
 21
10.7101867572
 31
0.0
 11
-2.7775614991
 21
10.6931564257
 31
0.0
 11
-2.8294454923
 21
10.6815296976
 31
0.0
 11
-2.8841013734
 21
10.6757050689
 31
0.0
  0
SPLINE
  5
495
100
AcDbEntity
  8
RACCORDO
100
AcDbSpline
 62
7
  6
CONTINUOUS
 70
0
 71
3
 72
15
 73
11
 74
9
 42
0.0000001
 43
0.0000001
 44
0.0000000001
 12
-0.0000018844
 22
0.9635106216
 32
0.0
 13
-0.7522658227
 23
0.6020372496
 33
0.0
 40
0.0
 40
0.0
 40
0.0
 40
0.0
 40
0.0971120051
 40
0.203101585
 40
0.317942703
 40
0.4409934061
 40
0.5714271098
 40
0.7084556334
 40
0.8514451809
 40
1.0
 40
1.0
 40
1.0
 40
1.0
 10
-4.6102481666
 20
-4.1036196319
 30
0.0
 10
-4.6102482276
 20
-4.0724301491
 30
0.0
 10
-4.6171486951
 20
-4.0071479227
 30
0.0
 10
-4.6432040282
 20
-3.9081505045
 30
0.0
 10
-4.6836197915
 20
-3.8051414715
 30
0.0
 10
-4.7372069074
 20
-3.6995093366
 30
0.0
 10
-4.80327025
 20
-3.5927321163
 30
0.0
 10
-4.8816995277
 20
-3.4865776635
 30
0.0
 10
-4.9730487618
 20
-3.3833720681
 30
0.0
 10
-5.0422928865
 20
-3.3199398233
 30
0.0
 10
-5.0795437909
 20
-3.2901279784
 30
0.0
 11
-4.6102481666
 21
-4.1036196319
 31
0.0
 11
-4.6190746971
 21
-4.0104684274
 31
0.0
 11
-4.6442885428
 21
-3.9115079179
 31
0.0
 11
-4.6842050225
 21
-3.808307927
 31
0.0
 11
-4.7375473849
 21
-3.7024248672
 31
0.0
 11
-4.8035482482
 21
-3.5954767237
 31
0.0
 11
-4.8820402195
 21
-3.4893140237
 31
0.0
 11
-4.9735709426
 21
-3.3863420065
 31
0.0
 11
-5.0795437909
 21
-3.2901279784
 31
0.0
  0
SPLINE
  5
496
100
AcDbEntity
  8
RACCORDO
100
AcDbSpline
 62
7
  6
CONTINUOUS
 70
0
 71
3
 72
10
 73
6
 74
4
 42
0.0000001
 43
0.0000001
 44
0.0000000001
 12
-0.5276745838
 22
0.4222996115
 32
0.0
 13
-0.5076754022
 23
0.4461424813
 33
0.0
 40
0.0
 40
0.0
 40
0.0
 40
0.0
 40
0.2387797155
 40
0.4875461303
 40
1.0
 40
1.0
 40
1.0
 40
1.0
 10
-5.0795437909
 20
-3.2901279784
 30
0.0
 10
-5.1215431199
 20
-3.2565157847
 30
0.0
 10
-5.2062205996
 20
-3.186539639
 30
0.0
 10
-5.3773713252
 20
-3.0400399505
 30
0.0
 10
-5.5060756854
 20
-2.9266996396
 30
0.0
 10
-5.5927957602
 20
-2.8504904926
 30
0.0
 11
-5.0795437909
 21
-3.2901279784
 31
0.0
 11
-5.2041902036
 21
-3.1876253902
 31
0.0
 11
-5.3320723874
 21
-3.0784755186
 31
0.0
 11
-5.5927957602
 21
-2.8504904926
 31
0.0
  0
SPLINE
  5
497
100
AcDbEntity
  8
RACCORDO
100
AcDbSpline
 62
7
  6
CONTINUOUS
 70
0
 71
3
 72
18
 73
14
 74
12
 42
0.0000001
 43
0.0000001
 44
0.0000000001
 12
-0.0650816021
 22
0.3057057546
 32
0.0
 13
-0.3125537563
 23
0.0013290878
 33
0.0
 40
0.0
 40
0.0
 40
0.0
 40
0.0
 40
0.0242978115
 40
0.052246205
 40
0.0852615383
 40
0.1241092559
 40
0.1691332608
 40
0.220409042
 40
0.3411080513
 40
0.4839073235
 40
0.6448786562
 40
0.8189045172
 40
1.0
 40
1.0
 40
1.0
 40
1.0
 10
-2.6106991009
 20
13.6196449977
 30
0.0
 10
-2.6112262144
 20
13.6221209913
 30
0.0
 10
-2.6133489353
 20
13.6272511074
 30
0.0
 10
-2.6189340242
 20
13.6342546639
 30
0.0
 10
-2.6269244705
 20
13.6409854257
 30
0.0
 10
-2.6372819698
 20
13.6474451294
 30
0.0
 10
-2.6499588673
 20
13.6536176071
 30
0.0
 10
-2.6710317358
 20
13.6618570135
 30
0.0
 10
-2.7026599105
 20
13.6707850435
 30
0.0
 10
-2.7461003237
 20
13.6792328516
 30
0.0
 10
-2.7955040059
 20
13.6855805293
 30
0.0
 10
-2.8491441549
 20
13.6895911558
 30
0.0
 10
-2.8861450869
 20
13.6905917598
 30
0.0
 10
-2.9050124447
 20
13.6906719904
 30
0.0
 11
-2.6106991009
 21
13.6196449977
 31
0.0
 11
-2.6134817167
 21
13.6267112968
 31
0.0
 11
-2.6187885384
 21
13.6336500147
 31
0.0
 11
-2.6265873296
 21
13.6404075225
 31
0.0
 11
-2.636828055
 21
13.6469312004
 31
0.0
 11
-2.6494421267
 21
13.6531699369
 31
0.0
 11
-2.664341507
 21
13.6590741579
 31
0.0
 11
-2.700542216
 21
13.6696904022
 31
0.0
 11
-2.744311646
 21
13.6784270212
 31
0.0
 11
-2.7941956474
 21
13.6849805782
 31
0.0
 11
-2.8484313117
 21
13.6891137791
 31
0.0
 11
-2.9050124447
 21
13.6906719904
 31
0.0
  0
SPLINE
  5
498
100
AcDbEntity
  8
RACCORDO
100
AcDbSpline
 62
7
  6
CONTINUOUS
 70
0
 71
3
 72
29
 73
25
 74
23
 42
0.0000001
 43
0.0000001
 44
0.0000000001
 12
1.0002689311
 22
0.0174598797
 32
0.0
 13
-0.0174544396
 23
1.0002688683
 33
0.0
 40
0.0
 40
0.0
 40
0.0
 40
0.0
 40
0.0005231823
 40
0.0015220553
 40
0.003085262
 40
0.0052320995
 40
0.0112952828
 40
0.0197220974
 40
0.0304997679
 40
0.043606262
 40
0.0590115587
 40
0.076680056
 40
0.0965698638
 40
0.1186335339
 40
0.1690667495
 40
0.2274964532
 40
0.2933614717
 40
0.3660286838
 40
0.4447992766
 40
0.5289155484
 40
0.6175681996
 40
0.7099040353
 40
0.8050350067
 40
1.0
 40
1.0
 40
1.0
 40
1.0
 10
-5.5927957602
 20
-8.6802699808
 30
0.0
 10
-5.5926213192
 20
-8.6802669359
 30
0.0
 10
-5.5922183414
 20
-8.6798263041
 30
0.0
 10
-5.591894009
 20
-8.6788883626
 30
0.0
 10
-5.5914906056
 20
-8.6773493364
 30
0.0
 10
-5.5909382624
 20
-8.6741461934
 30
0.0
 10
-5.5903053541
 20
-8.6686240281
 30
0.0
 10
-5.5896406596
 20
-8.6602273378
 30
0.0
 10
-5.5890123933
 20
-8.6494687594
 30
0.0
 10
-5.5884295392
 20
-8.6363800058
 30
0.0
 10
-5.5878951201
 20
-8.6209889994
 30
0.0
 10
-5.587412123
 20
-8.6033335774
 30
0.0
 10
-5.5869822679
 20
-8.5834557565
 30
0.0
 10
-5.5864588294
 20
-8.5526515913
 30
0.0
 10
-5.5859731291
 20
-8.5089933614
 30
0.0
 10
-5.5856367341
 20
-8.4507269791
 30
0.0
 10
-5.5855316852
 20
-8.3850452737
 30
0.0
 10
-5.5856599391
 20
-8.3125804974
 30
0.0
 10
-5.586021512
 20
-8.2340301455
 30
0.0
 10
-5.5866135153
 20
-8.1501503435
 30
0.0
 10
-5.5874307308
 20
-8.0617485892
 30
0.0
 10
-5.5884655145
 20
-7.9696757617
 30
0.0
 10
-5.5901363296
 20
-7.8421557046
 30
0.0
 10
-5.5916614253
 20
-7.74542809
 30
0.0
 10
-5.5927957602
 20
-7.6804222856
 30
0.0
 11
-5.5927957602
 21
-8.6802699808
 31
0.0
 11
-5.592372993
 21
-8.6799614063
 31
0.0
 11
-5.5919609099
 21
-8.6790510353
 31
0.0
 11
-5.591559805
 21
-8.6775394835
 31
0.0
 11
-5.5911699689
 21
-8.6754274177
 31
0.0
 11
-5.590425049
 21
-8.6694075957
 31
0.0
 11
-5.5897278738
 21
-8.6610061092
 31
0.0
 11
-5.5890800936
 21
-8.6502433762
 31
0.0
 11
-5.5884832973
 21
-8.6371449511
 31
0.0
 11
-5.5879389128
 21
-8.6217427841
 31
0.0
 11
-5.5874482534
 21
-8.604073657
 31
0.0
 11
-5.5870124995
 21
-8.5841802446
 31
0.0
 11
-5.5866326981
 21
-8.5621105503
 31
0.0
 11
-5.5860444866
 21
-8.5116595239
 31
0.0
 11
-5.5856892807
 21
-8.4532062921
 31
0.0
 11
-5.5855704977
 21
-8.387313642
 31
0.0
 11
-5.5856892806
 21
-8.3146159235
 31
0.0
 11
-5.5860444865
 21
-8.2358129574
 31
0.0
 11
-5.586632698
 21
-8.1516633162
 31
0.0
 11
-5.5874482533
 21
-8.0629770793
 31
0.0
 11
-5.5884832972
 21
-7.9706081558
 31
0.0
 11
-5.5897278737
 21
-7.8754452586
 31
0.0
 11
-5.5927957602
 21
-7.6804222856
 31
0.0
  0
SPLINE
  5
499
100
AcDbEntity
  8
RACCORDO
100
AcDbSpline
 62
7
  6
CONTINUOUS
 70
0
 71
3
 72
17
 73
13
 74
11
 42
0.0000001
 43
0.0000001
 44
0.0000000001
 12
0.0
 22
1.3316895878
 32
0.0
 13
-1.3315881693
 23
0.0164352534
 33
0.0
 40
0.0
 40
0.0
 40
0.0
 40
0.0
 40
0.0515908929
 40
0.1036598923
 40
0.1566572049
 40
0.2109737202
 40
0.3245653767
 40
0.4461449401
 40
0.5758593349
 40
0.7127219466
 40
0.8548996389
 40
1.0
 40
1.0
 40
1.0
 40
1.0
 10
-4.6102481666
 20
18.5296083568
 30
0.0
 10
-4.6102481666
 20
18.5525093751
 30
0.0
 10
-4.613427121
 20
18.598585341
 30
0.0
 10
-4.6276558463
 20
18.6668577021
 30
0.0
 10
-4.6512003662
 20
18.7337938308
 30
0.0
 10
-4.6952918418
 20
18.8216333669
 30
0.0
 10
-4.7736146156
 20
18.9250424031
 30
0.0
 10
-4.8969883034
 20
19.0315122077
 30
0.0
 10
-5.0464431776
 20
19.118953887
 30
0.0
 10
-5.2164600237
 20
19.1843698993
 30
0.0
 10
-5.4008065011
 20
19.22553733
 30
0.0
 10
-5.5283911188
 20
19.2358125218
 30
0.0
 10
-5.5927957602
 20
19.2366074422
 30
0.0
 11
-4.6102481666
 21
18.5296083568
 31
0.0
 11
-4.6149571548
 21
18.5981498421
 31
0.0
 11
-4.6290396997
 21
18.6660444818
 31
0.0
 11
-4.6523631107
 21
18.7326551865
 31
0.0
 11
-4.6847077244
 21
18.7973533392
 31
0.0
 11
-4.7751602077
 21
18.9185993955
 31
0.0
 11
-4.8969978006
 21
19.0252259927
 31
0.0
 11
-5.0456412549
 21
19.1132259502
 31
0.0
 11
-5.2155043433
 21
19.1792918087
 31
0.0
 11
-5.4002032864
 21
19.2209407067
 31
0.0
 11
-5.5927957602
 21
19.2366074422
 31
0.0
  0
SPLINE
  5
49A
100
AcDbEntity
  8
RACCORDO
100
AcDbSpline
 62
7
  6
CONTINUOUS
 70
0
 71
3
 72
17
 73
13
 74
11
 42
0.0000001
 43
0.0000001
 44
0.0000000001
 12
0.0
 22
1.3316895936
 32
0.0
 13
-1.3315881693
 23
0.0164352534
 33
0.0
 40
0.0
 40
0.0
 40
0.0
 40
0.0
 40
0.0515908929
 40
0.1036598923
 40
0.156657205
 40
0.2109737202
 40
0.3245653767
 40
0.4461449401
 40
0.5758593349
 40
0.7127219466
 40
0.8548996389
 40
1.0
 40
1.0
 40
1.0
 40
1.0
 10
-4.6102481666
 20
18.7216901495
 30
0.0
 10
-4.6102481666
 20
18.7445911679
 30
0.0
 10
-4.613427121
 20
18.7906671337
 30
0.0
 10
-4.6276558463
 20
18.8589394948
 30
0.0
 10
-4.6512003662
 20
18.9258756235
 30
0.0
 10
-4.6952918418
 20
19.0137151597
 30
0.0
 10
-4.7736146156
 20
19.1171241959
 30
0.0
 10
-4.8969883034
 20
19.2235940005
 30
0.0
 10
-5.0464431776
 20
19.3110356798
 30
0.0
 10
-5.2164600237
 20
19.376451692
 30
0.0
 10
-5.4008065011
 20
19.4176191228
 30
0.0
 10
-5.5283911188
 20
19.4278943145
 30
0.0
 10
-5.5927957602
 20
19.4286892349
 30
0.0
 11
-4.6102481666
 21
18.7216901495
 31
0.0
 11
-4.6149571547
 21
18.7902316348
 31
0.0
 11
-4.6290396997
 21
18.8581262745
 31
0.0
 11
-4.6523631107
 21
18.9247369793
 31
0.0
 11
-4.6847077244
 21
18.9894351319
 31
0.0
 11
-4.7751602077
 21
19.1106811883
 31
0.0
 11
-4.8969978006
 21
19.2173077855
 31
0.0
 11
-5.0456412549
 21
19.305307743
 31
0.0
 11
-5.2155043433
 21
19.3713736014
 31
0.0
 11
-5.4002032864
 21
19.4130224995
 31
0.0
 11
-5.5927957602
 21
19.4286892349
 31
0.0
  0
SPLINE
  5
49B
100
AcDbEntity
  8
RACCORDO
100
AcDbSpline
 62
7
  6
CONTINUOUS
 70
0
 71
3
 72
16
 73
12
 74
10
 42
0.0000001
 43
0.0000001
 44
0.0000000001
 12
-0.0000114436
 22
0.9911780353
 32
0.0
 13
-0.8658875659
 23
0.4823615079
 33
0.0
 40
0.0
 40
0.0
 40
0.0
 40
0.0
 40
0.0867734377
 40
0.1342851772
 40
0.1847912431
 40
0.294857015
 40
0.4166281175
 40
0.5490880552
 40
0.6911142429
 40
0.841692528
 40
1.0
 40
1.0
 40
1.0
 40
1.0
 10
-4.3363948895
 20
9.662616413
 30
0.0
 10
-4.3363952205
 20
9.6912857215
 30
0.0
 10
-4.3432087598
 20
9.7357468907
 30
0.0
 10
-4.3617196936
 20
9.7939487321
 30
0.0
 10
-4.3884492291
 20
9.8573955927
 30
0.0
 10
-4.4347495648
 20
9.9387385338
 30
0.0
 10
-4.5061771729
 20
10.0358661738
 30
0.0
 10
-4.5937498483
 20
10.1334386388
 30
0.0
 10
-4.6965984088
 20
10.2293367923
 30
0.0
 10
-4.8143326185
 20
10.3209409517
 30
0.0
 10
-4.9007873418
 20
10.3755921448
 30
0.0
 10
-4.946479499
 20
10.4010459551
 30
0.0
 11
-4.3363948895
 21
9.662616413
 31
0.0
 11
-4.3479726652
 21
9.7478415171
 31
0.0
 11
-4.3620711219
 21
9.7927741979
 31
0.0
 11
-4.3813628814
 21
9.8389681586
 31
0.0
 11
-4.4345065613
 21
9.9342436505
 31
0.0
 11
-4.50553546
 21
10.0318275799
 31
0.0
 11
-4.5929755353
 21
10.1297646002
 31
0.0
 11
-4.6958487809
 21
10.2258593443
 31
0.0
 11
-4.813693777
 21
10.3174458402
 31
0.0
 11
-4.946479499
 21
10.4010459551
 31
0.0
  0
SPLINE
  5
49C
100
AcDbEntity
  8
RACCORDO
100
AcDbSpline
 62
7
  6
CONTINUOUS
 70
0
 71
3
 72
16
 73
12
 74
10
 42
0.0000001
 43
0.0000001
 44
0.0000000001
 12
0.8658889243
 22
0.4823621221
 32
0.0
 13
0.0000114471
 23
0.9911795217
 33
0.0
 40
0.0
 40
0.0
 40
0.0
 40
0.0
 40
0.1583074887
 40
0.3088857814
 40
0.4509119775
 40
0.5833719218
 40
0.7051430269
 40
0.8152087954
 40
0.865714856
 40
0.9132265874
 40
1.0
 40
1.0
 40
1.0
 40
1.0
 10
-4.9464808154
 20
14.4046913923
 30
0.0
 10
-4.9007885817
 20
14.4301452377
 30
0.0
 10
-4.8143336119
 20
14.4847963378
 30
0.0
 10
-4.6965991778
 20
14.5764006014
 30
0.0
 10
-4.5937503982
 20
14.6722988371
 30
0.0
 10
-4.5061775419
 20
14.7698714131
 30
0.0
 10
-4.4347497829
 20
14.8669991689
 30
0.0
 10
-4.3884493465
 20
14.9483422121
 30
0.0
 10
-4.3617197512
 20
15.0117891536
 30
0.0
 10
-4.3432087764
 20
15.0699910647
 30
0.0
 10
-4.3363952206
 20
15.1144522895
 30
0.0
 10
-4.3363948895
 20
15.1431216327
 30
0.0
 11
-4.9464808154
 21
14.4046913923
 31
0.0
 11
-4.8136947862
 21
14.4882914919
 31
0.0
 11
-4.6958495443
 21
14.5798780485
 31
0.0
 11
-4.5929760842
 21
14.6759728844
 31
0.0
 11
-4.5055358259
 21
14.773910014
 31
0.0
 11
-4.4345067767
 21
14.871494061
 31
0.0
 11
-4.3813629817
 21
14.9667696721
 31
0.0
 11
-4.3620711797
 21
15.0129636906
 31
0.0
 11
-4.3479726914
 21
15.0578964271
 31
0.0
 11
-4.3363948895
 21
15.1431216327
 31
0.0
  0
SPLINE
  5
49D
100
AcDbEntity
  8
RACCORDO
100
AcDbSpline
 62
7
  6
CONTINUOUS
 70
0
 71
3
 72
15
 73
11
 74
9
 42
0.0000001
 43
0.0000001
 44
0.0000000001
 12
-0.0000056255
 22
0.9635090614
 32
0.0
 13
-0.7522646626
 23
0.6020361984
 33
0.0
 40
0.0
 40
0.0
 40
0.0
 40
0.0
 40
0.0971120951
 40
0.2031017478
 40
0.3179429064
 40
0.4409936167
 40
0.5714272977
 40
0.7084557735
 40
0.8514452529
 40
1.0
 40
1.0
 40
1.0
 40
1.0
 10
-4.6102481666
 20
9.3963820755
 30
0.0
 10
-4.6102483487
 20
9.4275715367
 30
0.0
 10
-4.6171490113
 20
9.4928536821
 30
0.0
 10
-4.6432045181
 20
9.5918509476
 30
0.0
 10
-4.6836203707
 20
9.6948597922
 30
0.0
 10
-4.7372075049
 20
9.8004917107
 30
0.0
 10
-4.8032708075
 20
9.907268691
 30
0.0
 10
-4.8816999839
 20
10.0134228985
 30
0.0
 10
-4.9730490958
 20
10.1166282174
 30
0.0
 10
-5.0422930303
 20
10.1800603767
 30
0.0
 10
-5.0795438592
 20
10.2098721551
 30
0.0
 11
-4.6102481666
 21
9.3963820755
 31
0.0
 11
-4.6190749875
 21
9.4895331872
 31
0.0
 11
-4.6442890185
 21
9.5884935511
 31
0.0
 11
-4.6842055947
 21
9.6916933543
 31
0.0
 11
-4.7375479798
 21
9.7975761952
 31
0.0
 11
-4.8035488035
 21
9.9045240981
 31
0.0
 11
-4.8820406796
 21
10.010686545
 31
0.0
 11
-4.9735712534
 21
10.1136583084
 31
0.0
 11
-5.0795438592
 21
10.2098721551
 31
0.0
  0
SPLINE
  5
49E
100
AcDbEntity
  8
RACCORDO
100
AcDbSpline
 62
7
  6
CONTINUOUS
 70
0
 71
3
 72
16
 73
12
 74
10
 42
0.0000001
 43
0.0000001
 44
0.0000000001
 12
0.8658887815
 22
0.4823620512
 32
0.0
 13
0.0000114471
 23
0.9911793607
 33
0.0
 40
0.0
 40
0.0
 40
0.0
 40
0.0
 40
0.1583074871
 40
0.3088857789
 40
0.4509119741
 40
0.5833719177
 40
0.7051430224
 40
0.8152087913
 40
0.8657148525
 40
0.9132265848
 40
1.0
 40
1.0
 40
1.0
 40
1.0
 10
-4.9464806742
 20
0.9046914686
 30
0.0
 10
-4.9007884485
 20
0.93014531
 30
0.0
 10
-4.8143335045
 20
0.984796419
 30
0.0
 10
-4.6965990949
 20
1.0764006719
 30
0.0
 10
-4.5937503389
 20
1.1722988986
 30
0.0
 10
-4.5061775021
 20
1.2698714627
 30
0.0
 10
-4.4347497594
 20
1.3669992059
 30
0.0
 10
-4.3884493338
 20
1.4483422381
 30
0.0
 10
-4.361719745
 20
1.5117891709
 30
0.0
 10
-4.3432087746
 20
1.5699910745
 30
0.0
 10
-4.3363952206
 20
1.6144522933
 30
0.0
 10
-4.3363948895
 20
1.6431216327
 30
0.0
 11
-4.9464806742
 21
0.9046914686
 31
0.0
 11
-4.8136946773
 21
0.9882915689
 31
0.0
 11
-4.6958494619
 21
1.079878119
 31
0.0
 11
-4.592976025
 21
1.175972945
 31
0.0
 11
-4.5055357865
 21
1.2739100629
 31
0.0
 11
-4.4345067535
 21
1.371494097
 31
0.0
 11
-4.3813629709
 21
1.4667696953
 31
0.0
 11
-4.3620711734
 21
1.5129637076
 31
0.0
 11
-4.3479726885
 21
1.5578964382
 31
0.0
 11
-4.3363948895
 21
1.6431216327
 31
0.0
  0
SPLINE
  5
49F
100
AcDbEntity
  8
RACCORDO
100
AcDbSpline
 62
7
  6
CONTINUOUS
 70
0
 71
3
 72
16
 73
12
 74
10
 42
0.0000001
 43
0.0000001
 44
0.0000000001
 12
-0.0000114436
 22
0.991178859
 32
0.0
 13
-0.8658882762
 23
0.4823619284
 33
0.0
 40
0.0
 40
0.0
 40
0.0
 40
0.0
 40
0.0867734231
 40
0.1342851575
 40
0.1847912198
 40
0.2948569882
 40
0.4166280906
 40
0.5490880299
 40
0.6911142198
 40
0.8416925068
 40
1.0
 40
1.0
 40
1.0
 40
1.0
 10
-4.3363948895
 20
-3.837383587
 30
0.0
 10
-4.3363952205
 20
-3.8087142595
 30
0.0
 10
-4.343208769
 20
-3.7642530598
 30
0.0
 10
-4.3617197251
 20
-3.7060511804
 30
0.0
 10
-4.3884492933
 20
-3.6426042757
 30
0.0
 10
-4.4347496839
 20
-3.5612612788
 30
0.0
 10
-4.5061773745
 20
-3.464133576
 30
0.0
 10
-4.5937501475
 20
-3.3665610489
 30
0.0
 10
-4.6965988314
 20
-3.2706628575
 30
0.0
 10
-4.814333148
 20
-3.1790586081
 30
0.0
 10
-4.9007880558
 20
-3.1244075371
 30
0.0
 10
-4.9464802566
 20
-3.0989537012
 30
0.0
 11
-4.3363948895
 21
-3.837383587
 31
0.0
 11
-4.3479726796
 21
-3.7521584272
 31
0.0
 11
-4.3620711535
 21
-3.7072257161
 31
0.0
 11
-4.3813629362
 21
-3.6610317239
 31
0.0
 11
-4.4345066789
 21
-3.565756167
 31
0.0
 11
-4.5055356598
 21
-3.4681721733
 31
0.0
 11
-4.5929758348
 21
-3.3702350935
 31
0.0
 11
-4.6958491967
 21
-3.2741402992
 31
0.0
 11
-4.8136943257
 21
-3.1825537687
 31
0.0
 11
-4.9464802566
 21
-3.0989537012
 31
0.0
  0
SPLINE
  5
4A0
100
AcDbEntity
  8
RACCORDO
100
AcDbSpline
 62
7
  6
CONTINUOUS
 70
0
 71
3
 72
11
 73
7
 74
5
 42
0.0000001
 43
0.0000001
 44
0.0000000001
 12
-0.1705085316
 22
0.1606910316
 32
0.0
 13
-0.0947611685
 23
0.2142780636
 33
0.0
 40
0.0
 40
0.0
 40
0.0
 40
0.0
 40
0.2391574323
 40
0.4906964794
 40
0.7469681456
 40
1.0
 40
1.0
 40
1.0
 40
1.0
 10
-4.9464794278
 20
14.4046919614
 30
0.0
 10
-4.960072222
 20
14.4175021129
 30
0.0
 10
-4.9864035832
 20
14.4454690058
 30
0.0
 10
-5.0219763015
 20
14.491812806
 30
0.0
 10
-5.0536124239
 20
14.5422099173
 30
0.0
 10
-5.0715512876
 20
14.5777927972
 30
0.0
 10
-5.079543819
 20
14.5958658558
 30
0.0
 11
-4.9464794278
 21
14.4046919614
 31
0.0
 11
-4.9850353272
 21
14.4453517567
 31
0.0
 11
-5.0209980504
 21
14.4920419948
 31
0.0
 11
-5.0529272619
 21
14.54289225
 31
0.0
 11
-5.079543819
 21
14.5958658558
 31
0.0
  0
SPLINE
  5
4A1
100
AcDbEntity
  8
RACCORDO
100
AcDbSpline
 62
7
  6
CONTINUOUS
 70
0
 71
3
 72
15
 73
11
 74
9
 42
0.0000001
 43
0.0000001
 44
0.0000000001
 12
-0.4178402624
 22
0.0325657105
 32
0.0
 13
0.0
 23
0.4191073956
 33
0.0
 40
0.0
 40
0.0
 40
0.0
 40
0.0
 40
0.1321123639
 40
0.2629024443
 40
0.3916498645
 40
0.5178797008
 40
0.6414429469
 40
0.762555087
 40
0.8817865864
 40
1.0
 40
1.0
 40
1.0
 40
1.0
 10
-4.3363948895
 20
15.1431216327
 30
0.0
 10
-4.3547955111
 20
15.1445557437
 30
0.0
 10
-4.3912512873
 20
15.1504411735
 30
0.0
 10
-4.443295492
 20
15.1681184314
 30
0.0
 10
-4.4908581118
 20
15.1940461513
 30
0.0
 10
-4.532295005
 20
15.2273714421
 30
0.0
 10
-4.5661765593
 20
15.2669873246
 30
0.0
 10
-4.5913029225
 20
15.3115709141
 30
0.0
 10
-4.6067636417
 20
15.3595678932
 30
0.0
 10
-4.6102481666
 20
15.3928412044
 30
0.0
 10
-4.6102481666
 20
15.4093559097
 30
0.0
 11
-4.3363948895
 21
15.1431216327
 31
0.0
 11
-4.3910507837
 21
15.1519810445
 31
0.0
 11
-4.4429347909
 21
15.1696656118
 31
0.0
 11
-4.4902695224
 21
15.1955692111
 31
0.0
 11
-4.5314312686
 21
15.228803664
 31
0.0
 11
-4.5650087976
 21
15.2682291299
 31
0.0
 11
-4.5898504595
 21
15.3124938709
 31
0.0
 11
-4.6051045487
 21
15.3600795195
 31
0.0
 11
-4.6102481666
 21
15.4093559097
 31
0.0
  0
SPLINE
  5
4A2
100
AcDbEntity
  8
RACCORDO
100
AcDbSpline
 62
7
  6
CONTINUOUS
 70
0
 71
3
 72
15
 73
11
 74
9
 42
0.0000001
 43
0.0000001
 44
0.0000000001
 12
-0.4178402643
 22
-0.0325657039
 32
0.0
 13
0.0
 23
-0.4191073983
 33
0.0
 40
0.0
 40
0.0
 40
0.0
 40
0.0
 40
0.1321123633
 40
0.2629024429
 40
0.3916498624
 40
0.5178796982
 40
0.6414429442
 40
0.7625550846
 40
0.881786585
 40
1.0
 40
1.0
 40
1.0
 40
1.0
 10
-4.3363948895
 20
9.662616413
 30
0.0
 10
-4.3547955111
 20
9.6611823023
 30
0.0
 10
-4.3912512872
 20
9.6552968731
 30
0.0
 10
-4.443295492
 20
9.6376196157
 30
0.0
 10
-4.4908581119
 20
9.6116918961
 30
0.0
 10
-4.5322950051
 20
9.5783666053
 30
0.0
 10
-4.5661765593
 20
9.5387507227
 30
0.0
 10
-4.5913029225
 20
9.4941671329
 30
0.0
 10
-4.6067636417
 20
9.4461701532
 30
0.0
 10
-4.6102481666
 20
9.4128968416
 30
0.0
 10
-4.6102481666
 20
9.396382136
 30
0.0
 11
-4.3363948895
 21
9.662616413
 31
0.0
 11
-4.3910507837
 21
9.6537570021
 31
0.0
 11
-4.4429347909
 21
9.6360724353
 31
0.0
 11
-4.4902695224
 21
9.6101688363
 31
0.0
 11
-4.5314312686
 21
9.5769343834
 31
0.0
 11
-4.5650087976
 21
9.5375089175
 31
0.0
 11
-4.5898504595
 21
9.4932441762
 31
0.0
 11
-4.6051045487
 21
9.445658527
 31
0.0
 11
-4.6102481666
 21
9.396382136
 31
0.0
  0
SPLINE
  5
4A3
100
AcDbEntity
  8
RACCORDO
100
AcDbSpline
 62
7
  6
CONTINUOUS
 70
0
 71
3
 72
11
 73
7
 74
5
 42
0.0000001
 43
0.0000001
 44
0.0000000001
 12
-0.1705088949
 22
-0.1606905205
 32
0.0
 13
-0.0947614949
 23
-0.2142778241
 33
0.0
 40
0.0
 40
0.0
 40
0.0
 40
0.0
 40
0.2391572482
 40
0.4906962517
 40
0.7469679944
 40
1.0
 40
1.0
 40
1.0
 40
1.0
 10
-4.94647912
 20
10.4010457015
 30
0.0
 10
-4.9600719327
 20
10.3882356006
 30
0.0
 10
-4.9864033408
 20
10.360268795
 30
0.0
 10
-5.0219761404
 20
10.3139250986
 30
0.0
 10
-5.0536123582
 20
10.2635280555
 30
0.0
 10
-5.0715512867
 20
10.2279452043
 30
0.0
 10
-5.0795438504
 20
10.2098721551
 30
0.0
 11
-4.94647912
 21
10.4010457015
 31
0.0
 11
-4.9850350763
 21
10.3603860479
 31
0.0
 11
-5.0209978829
 21
10.3136959143
 31
0.0
 11
-5.0529271928
 21
10.2628457257
 31
0.0
 11
-5.0795438504
 21
10.2098721551
 31
0.0
  0
SPLINE
  5
4A4
100
AcDbEntity
  8
RACCORDO
100
AcDbSpline
 62
7
  6
CONTINUOUS
 70
0
 71
3
 72
11
 73
7
 74
5
 42
0.0000001
 43
0.0000001
 44
0.0000000001
 12
-0.1705085526
 22
0.1606910275
 32
0.0
 13
-0.0947611796
 23
0.2142780717
 33
0.0
 40
0.0
 40
0.0
 40
0.0
 40
0.0
 40
0.2391574328
 40
0.4906964805
 40
0.7469681467
 40
1.0
 40
1.0
 40
1.0
 40
1.0
 10
-4.9464794073
 20
0.904691965
 30
0.0
 10
-4.9600722032
 20
0.9175021162
 30
0.0
 10
-4.9864035675
 20
0.9454690091
 30
0.0
 10
-5.0219762901
 20
0.99181281
 30
0.0
 10
-5.0536124162
 20
1.0422099227
 30
0.0
 10
-5.071551282
 20
1.0777928038
 30
0.0
 10
-5.0795438143
 20
1.095865863
 30
0.0
 11
-4.9464794073
 21
0.904691965
 31
0.0
 11
-4.9850353113
 21
0.9453517601
 31
0.0
 11
-5.0209980389
 21
0.992041999
 31
0.0
 11
-5.0529272542
 21
1.0428922556
 31
0.0
 11
-5.0795438143
 21
1.095865863
 31
0.0
  0
SPLINE
  5
4A5
100
AcDbEntity
  8
RACCORDO
100
AcDbSpline
 62
7
  6
CONTINUOUS
 70
0
 71
3
 72
15
 73
11
 74
9
 42
0.0000001
 43
0.0000001
 44
0.0000000001
 12
-0.4178402624
 22
0.0325657105
 32
0.0
 13
0.0
 23
0.4191073956
 33
0.0
 40
0.0
 40
0.0
 40
0.0
 40
0.0
 40
0.1321123639
 40
0.2629024443
 40
0.3916498645
 40
0.5178797008
 40
0.6414429469
 40
0.762555087
 40
0.8817865864
 40
1.0
 40
1.0
 40
1.0
 40
1.0
 10
-4.3363948895
 20
1.6431216327
 30
0.0
 10
-4.3547955111
 20
1.6445557437
 30
0.0
 10
-4.3912512873
 20
1.6504411735
 30
0.0
 10
-4.443295492
 20
1.6681184314
 30
0.0
 10
-4.4908581118
 20
1.6940461513
 30
0.0
 10
-4.532295005
 20
1.7273714421
 30
0.0
 10
-4.5661765593
 20
1.7669873246
 30
0.0
 10
-4.5913029225
 20
1.8115709141
 30
0.0
 10
-4.6067636417
 20
1.8595678932
 30
0.0
 10
-4.6102481666
 20
1.8928412044
 30
0.0
 10
-4.6102481666
 20
1.9093559097
 30
0.0
 11
-4.3363948895
 21
1.6431216327
 31
0.0
 11
-4.3910507837
 21
1.6519810445
 31
0.0
 11
-4.4429347909
 21
1.6696656118
 31
0.0
 11
-4.4902695224
 21
1.6955692111
 31
0.0
 11
-4.5314312686
 21
1.728803664
 31
0.0
 11
-4.5650087976
 21
1.7682291299
 31
0.0
 11
-4.5898504595
 21
1.8124938709
 31
0.0
 11
-4.6051045487
 21
1.8600795195
 31
0.0
 11
-4.6102481666
 21
1.9093559097
 31
0.0
  0
SPLINE
  5
4A6
100
AcDbEntity
  8
RACCORDO
100
AcDbSpline
 62
7
  6
CONTINUOUS
 70
0
 71
3
 72
15
 73
11
 74
9
 42
0.0000001
 43
0.0000001
 44
0.0000000001
 12
-0.4178402643
 22
-0.0325657039
 32
0.0
 13
0.0
 23
-0.4191073983
 33
0.0
 40
0.0
 40
0.0
 40
0.0
 40
0.0
 40
0.1321123633
 40
0.2629024429
 40
0.3916498624
 40
0.5178796982
 40
0.6414429442
 40
0.7625550846
 40
0.881786585
 40
1.0
 40
1.0
 40
1.0
 40
1.0
 10
-4.3363948895
 20
-3.837383587
 30
0.0
 10
-4.3547955111
 20
-3.8388176977
 30
0.0
 10
-4.3912512872
 20
-3.8447031269
 30
0.0
 10
-4.443295492
 20
-3.8623803843
 30
0.0
 10
-4.4908581119
 20
-3.8883081039
 30
0.0
 10
-4.5322950051
 20
-3.9216333947
 30
0.0
 10
-4.5661765593
 20
-3.9612492773
 30
0.0
 10
-4.5913029225
 20
-4.0058328671
 30
0.0
 10
-4.6067636417
 20
-4.0538298468
 30
0.0
 10
-4.6102481666
 20
-4.0871031584
 30
0.0
 10
-4.6102481666
 20
-4.103617864
 30
0.0
 11
-4.3363948895
 21
-3.837383587
 31
0.0
 11
-4.3910507837
 21
-3.8462429979
 31
0.0
 11
-4.4429347909
 21
-3.8639275647
 31
0.0
 11
-4.4902695224
 21
-3.8898311637
 31
0.0
 11
-4.5314312686
 21
-3.9230656166
 31
0.0
 11
-4.5650087976
 21
-3.9624910825
 31
0.0
 11
-4.5898504595
 21
-4.0067558238
 31
0.0
 11
-4.6051045487
 21
-4.054341473
 31
0.0
 11
-4.6102481666
 21
-4.103617864
 31
0.0
  0
SPLINE
  5
4A7
100
AcDbEntity
  8
RACCORDO
100
AcDbSpline
 62
7
  6
CONTINUOUS
 70
0
 71
3
 72
11
 73
7
 74
5
 42
0.0000001
 43
0.0000001
 44
0.0000000001
 12
-0.1705087252
 22
-0.1606905013
 32
0.0
 13
-0.0947613376
 23
-0.214277743
 33
0.0
 40
0.0
 40
0.0
 40
0.0
 40
0.0
 40
0.239157247
 40
0.490696241
 40
0.7469679798
 40
1.0
 40
1.0
 40
1.0
 40
1.0
 10
-4.9464792247
 20
-3.0989544795
 30
0.0
 10
-4.9600720238
 20
-3.1117645788
 30
0.0
 10
-4.986403403
 20
-3.1397313793
 30
0.0
 10
-5.0219761578
 20
-3.1860750653
 30
0.0
 10
-5.0536123308
 20
-3.2364720951
 30
0.0
 10
-5.0715512312
 20
-3.272054935
 30
0.0
 10
-5.0795437821
 20
-3.2901279784
 30
0.0
 11
-4.9464792247
 21
-3.0989544795
 31
0.0
 11
-4.9850351395
 21
-3.1396141265
 31
0.0
 11
-5.0209979004
 21
-3.1863042487
 31
0.0
 11
-5.0529271649
 21
-3.2371544228
 31
0.0
 11
-5.0795437821
 21
-3.2901279784
 31
0.0
  0
SPLINE
  5
4A8
100
AcDbEntity
  8
RACCORDO
100
AcDbSpline
 62
7
  6
CONTINUOUS
 70
0
 71
3
 72
10
 73
6
 74
4
 42
0.0000001
 43
0.0000001
 44
0.0000000001
 12
-0.6526598903
 22
0.2313863481
 32
0.0
 13
-0.6436701465
 23
0.2553298191
 33
0.0
 40
0.0
 40
0.0
 40
0.0
 40
0.0
 40
0.2427315218
 40
0.4918989492
 40
1.0
 40
1.0
 40
1.0
 40
1.0
 10
-4.9464808158
 20
-3.0989539332
 30
0.0
 10
-4.9992878586
 20
-3.0802323464
 30
0.0
 10
-5.1058473016
 20
-3.0410098761
 30
0.0
 10
-5.3213389059
 20
-2.958287698
 30
0.0
 10
-5.4837792676
 20
-2.8937349424
 30
0.0
 10
-5.5927957602
 20
-2.8504904926
 30
0.0
 11
-4.9464808158
 21
-3.0989539332
 31
0.0
 11
-5.1043168975
 21
-3.0411654782
 31
0.0
 11
-5.2654602668
 21
-2.9795004831
 31
0.0
 11
-5.5927957602
 21
-2.8504904926
 31
0.0
  0
SPLINE
  5
4A9
100
AcDbEntity
  8
RACCORDO
100
AcDbSpline
 62
7
  6
CONTINUOUS
 70
0
 71
3
 72
10
 73
6
 74
4
 42
0.0000001
 43
0.0000001
 44
0.0000000001
 12
0.6436693435
 22
0.2553300423
 32
0.0
 13
0.6526594034
 23
0.2313857335
 33
0.0
 40
0.0
 40
0.0
 40
0.0
 40
0.0
 40
0.5081010438
 40
0.7572684713
 40
1.0
 40
1.0
 40
1.0
 40
1.0
 10
-5.5927957602
 20
0.656228488
 30
0.0
 10
-5.4837794051
 20
0.699472975
 30
0.0
 10
-5.3213392086
 20
0.7640256896
 30
0.0
 10
-5.1058477739
 20
0.8467476911
 30
0.0
 10
-4.9992884274
 20
0.8859701134
 30
0.0
 10
-4.9464814225
 20
0.904691651
 30
0.0
 11
-5.5927957602
 21
0.656228488
 31
0.0
 11
-5.2654606111
 21
0.7852384183
 31
0.0
 11
-5.1043173761
 21
0.8469033013
 31
0.0
 11
-4.9464814225
 21
0.904691651
 31
0.0
  0
SPLINE
  5
4AA
100
AcDbEntity
  8
RACCORDO
100
AcDbSpline
 62
7
  6
CONTINUOUS
 70
0
 71
3
 72
10
 73
6
 74
4
 42
0.0000001
 43
0.0000001
 44
0.0000000001
 12
-0.6526608295
 22
0.2313870748
 32
0.0
 13
-0.6436711666
 23
0.2553303071
 33
0.0
 40
0.0
 40
0.0
 40
0.0
 40
0.0
 40
0.2427315076
 40
0.4918989332
 40
1.0
 40
1.0
 40
1.0
 40
1.0
 10
-4.9464795618
 20
10.401045852
 30
0.0
 10
-4.9992866775
 20
10.4197674965
 30
0.0
 10
-5.1058462494
 20
10.4589901377
 30
0.0
 10
-5.3213383878
 20
10.5417119695
 30
0.0
 10
-5.4837790914
 20
10.6062646497
 30
0.0
 10
-5.5927957602
 20
10.6495091835
 30
0.0
 11
-4.9464795618
 21
10.401045852
 31
0.0
 11
-5.1043158726
 21
10.4588344489
 31
0.0
 11
-5.2654595995
 21
10.5204992927
 31
0.0
 11
-5.5927957602
 21
10.6495091835
 31
0.0
  0
SPLINE
  5
4AB
100
AcDbEntity
  8
RACCORDO
100
AcDbSpline
 62
7
  6
CONTINUOUS
 70
0
 71
3
 72
10
 73
6
 74
4
 42
0.0000001
 43
0.0000001
 44
0.0000000001
 12
0.6436690393
 22
0.2553302059
 32
0.0
 13
0.6526592427
 23
0.2313855202
 33
0.0
 40
0.0
 40
0.0
 40
0.0
 40
0.0
 40
0.5081010402
 40
0.7572684667
 40
1.0
 40
1.0
 40
1.0
 40
1.0
 10
-5.5927957602
 20
14.1562284643
 30
0.0
 10
-5.4837794574
 20
14.1994729787
 30
0.0
 10
-5.3213393362
 20
14.2640257292
 30
0.0
 10
-5.1058479612
 20
14.34674768
 30
0.0
 10
-4.9992886376
 20
14.3859700615
 30
0.0
 10
-4.9464816447
 20
14.4046915822
 30
0.0
 11
-5.5927957602
 21
14.1562284643
 31
0.0
 11
-5.2654607516
 21
14.2852384364
 31
0.0
 11
-5.1043175635
 21
14.3469032853
 31
0.0
 11
-4.9464816447
 21
14.4046915822
 31
0.0
  0
SPLINE
  5
4AC
100
AcDbEntity
  8
RACCORDO
100
AcDbSpline
 62
7
  6
CONTINUOUS
 70
0
 71
3
 72
11
 73
7
 74
5
 42
0.0000001
 43
0.0000001
 44
0.0000000001
 12
0.0000017285
 22
0.0091580153
 32
0.0
 13
-0.0045233852
 23
0.007962928
 33
0.0
 40
0.0
 40
0.0
 40
0.0
 40
0.0
 40
0.1074348386
 40
0.3096099049
 40
0.6074601843
 40
1.0
 40
1.0
 40
1.0
 40
1.0
 10
-14.3102481666
 20
-9.3235617233
 30
0.0
 10
-14.3102481047
 20
-9.32323376
 30
0.0
 10
-14.3106087095
 20
-9.3223268746
 30
0.0
 10
-14.3113577211
 20
-9.3206529751
 30
0.0
 10
-14.3126409086
 20
-9.318235966
 30
0.0
 10
-14.3136633808
 20
-9.3163969721
 30
0.0
 10
-14.3142552504
 20
-9.31535505
 30
0.0
 11
-14.3102481666
 21
-9.3235617233
 31
0.0
 11
-14.3105009117
 21
-9.3226108504
 31
0.0
 11
-14.3112564781
 21
-9.3209205089
 31
0.0
 11
-14.3125103517
 21
-9.3184980631
 31
0.0
 11
-14.3142552504
 21
-9.31535505
 31
0.0
  0
SPLINE
  5
4AD
100
AcDbEntity
  8
RACCORDO
100
AcDbSpline
 62
7
  6
CONTINUOUS
 70
0
 71
3
 72
21
 73
17
 74
15
 42
0.0000001
 43
0.0000001
 44
0.0000000001
 12
-0.8704626722
 22
1.532354764
 32
0.0
 13
-0.9891372632
 23
1.4585690997
 33
0.0
 40
0.0
 40
0.0
 40
0.0
 40
0.0
 40
0.0087738702
 40
0.0214129035
 40
0.0375130865
 40
0.0566441922
 40
0.10237508
 40
0.1557837282
 40
0.2147802802
 40
0.277887732
 40
0.3440680615
 40
0.4125814113
 40
0.5545832685
 40
0.7009579102
 40
0.8498671438
 40
1.0
 40
1.0
 40
1.0
 40
1.0
 10
-14.3142552504
 20
-9.31535505
 30
0.0
 10
-14.3168010259
 20
-9.3108734894
 30
0.0
 10
-14.3232983292
 20
-9.3000995223
 30
0.0
 10
-14.3349507548
 20
-9.2813961147
 30
0.0
 10
-14.3500456385
 20
-9.2576689151
 30
0.0
 10
-14.3757967241
 20
-9.2176826194
 30
0.0
 10
-14.4137626268
 20
-9.1594951378
 30
0.0
 10
-14.4648381325
 20
-9.0819000928
 30
0.0
 10
-14.5217651742
 20
-8.9959364295
 30
0.0
 10
-14.5830168249
 20
-8.903838375
 30
0.0
 10
-14.6475126066
 20
-8.807183957
 30
0.0
 10
-14.7379007904
 20
-8.6720903769
 30
0.0
 10
-14.8547584627
 20
-8.4980252481
 30
0.0
 10
-14.9982805436
 20
-8.2849776324
 30
0.0
 10
-15.1447580204
 20
-8.0681619763
 30
0.0
 10
-15.2432950927
 20
-7.9227295128
 30
0.0
 10
-15.2927957602
 20
-7.8497364645
 30
0.0
 11
-14.3142552504
 21
-9.31535505
 31
0.0
 11
-14.3221513868
 21
-9.3020607184
 31
0.0
 11
-14.3339017986
 21
-9.283138061
 31
0.0
 11
-14.3491100211
 21
-9.2591842111
 31
0.0
 11
-14.3673529342
 21
-9.2308306852
 31
0.0
 11
-14.4113396783
 21
-9.163299923
 31
0.0
 11
-14.4630679077
 21
-9.0846648113
 31
0.0
 11
-14.5204593916
 21
-8.9979682101
 31
0.0
 11
-14.5820402486
 21
-8.9053568263
 31
0.0
 11
-14.6467716124
 21
-8.8083371539
 31
0.0
 11
-14.7139113047
 21
-8.707981739
 31
0.0
 11
-14.8533810518
 21
-8.5001945677
 31
0.0
 11
-14.9974953678
 21
-8.2862440056
 31
0.0
 11
-15.1444041303
 21
-8.0687904187
 31
0.0
 11
-15.2927957602
 21
-7.8497364645
 31
0.0
  0
SPLINE
  5
4AE
100
AcDbEntity
  8
RACCORDO
100
AcDbSpline
 62
7
  6
CONTINUOUS
 70
0
 71
3
 72
35
 73
31
 74
29
 42
0.0000001
 43
0.0000001
 44
0.0000000001
 12
-0.7968390657
 22
1.5766064641
 32
0.0
 13
-1.4789880616
 23
0.9660396784
 33
0.0
 40
0.0
 40
0.0
 40
0.0
 40
0.0
 40
0.0003249419
 40
0.0009422121
 40
0.0018540666
 40
0.0030593551
 40
0.0045546505
 40
0.0063357042
 40
0.0107360654
 40
0.0162143854
 40
0.0227180615
 40
0.0301889415
 40
0.038566694
 40
0.0477898517
 40
0.0577982175
 40
0.0799384326
 40
0.1045544083
 40
0.1312680061
 40
0.1597579628
 40
0.189755259
 40
0.2210350508
 40
0.2534113743
 40
0.3208609499
 40
0.3911434506
 40
0.4635739221
 40
0.5376504571
 40
0.6129936636
 40
0.6893074893
 40
0.8439291252
 40
1.0
 40
1.0
 40
1.0
 40
1.0
 10
-13.819122677
 20
-8.8237139934
 30
0.0
 10
-13.8192089858
 20
-8.8235432249
 30
0.0
 10
-13.8196213991
 20
-8.8231506363
 30
0.0
 10
-13.82042634
 20
-8.8224277953
 30
0.0
 10
-13.8216916976
 20
-8.8214230852
 30
0.0
 10
-13.8233772409
 20
-8.8201289893
 30
0.0
 10
-13.8254966991
 20
-8.8185551756
 30
0.0
 10
-13.8291503861
 20
-8.8158940824
 30
0.0
 10
-13.8347449268
 20
-8.8119134399
 30
0.0
 10
-13.8426480821
 20
-8.8063819965
 30
0.0
 10
-13.8520681485
 20
-8.7998647299
 30
0.0
 10
-13.8629206867
 20
-8.7924174728
 30
0.0
 10
-13.8751176514
 20
-8.7840992965
 30
0.0
 10
-13.8885694945
 20
-8.774969312
 30
0.0
 10
-13.9087512859
 20
-8.7613245664
 30
0.0
 10
-13.9364838857
 20
-8.7426652913
 30
0.0
 10
-13.9724268002
 20
-8.7185876645
 30
0.0
 10
-14.01151637
 20
-8.6924892594
 30
0.0
 10
-14.053274839
 20
-8.6646816429
 30
0.0
 10
-14.0972998861
 20
-8.6354267304
 30
0.0
 10
-14.1432556886
 20
-8.6049425237
 30
0.0
 10
-14.2076188037
 20
-8.5623120253
 30
0.0
 10
-14.2911791028
 20
-8.5070745336
 30
0.0
 10
-14.3944775378
 20
-8.4389258329
 30
0.0
 10
-14.5010867953
 20
-8.3687094885
 30
0.0
 10
-14.6102312019
 20
-8.2969246432
 30
0.0
 10
-14.7213281288
 20
-8.2239471694
 30
0.0
 10
-14.8721165517
 20
-8.1250071019
 30
0.0
 10
-15.0627424658
 20
-8.0001310997
 30
0.0
 10
-15.215853391
 20
-7.8999933004
 30
0.0
 10
-15.2927957112
 20
-7.8497364145
 30
0.0
 11
-13.819122677
 21
-8.8237139934
 31
0.0
 11
-13.819493046
 21
-8.823275443
 31
0.0
 11
-13.820305574
 21
-8.8225482348
 31
0.0
 11
-13.8215574188
 21
-8.8215345147
 31
0.0
 11
-13.8232453283
 21
-8.8202366794
 31
0.0
 11
-13.8253636218
 21
-8.8186586127
 31
0.0
 11
-13.8279057289
 21
-8.8168047434
 31
0.0
 11
-13.834232803
 21
-8.8122888149
 31
0.0
 11
-13.8421580196
 21
-8.8067347615
 31
0.0
 11
-13.8516036279
 21
-8.800194377
 31
0.0
 11
-13.8624837595
 21
-8.7927245581
 31
0.0
 11
-13.8747093293
 21
-8.7843841225
 31
0.0
 11
-13.8881895515
 21
-8.7752328482
 31
0.0
 11
-13.9028354795
 21
-8.7653291632
 31
0.0
 11
-13.9352813177
 21
-8.7434895074
 31
0.0
 11
-13.9714065511
 21
-8.719283999
 31
0.0
 11
-14.0106515319
 21
-8.693077704
 31
0.0
 11
-14.052540487
 21
-8.6651802528
 31
0.0
 11
-14.0966747823
 21
-8.6358505365
 31
0.0
 11
-14.1427210722
 21
-8.6053046543
 31
0.0
 11
-14.1904035248
 21
-8.5737211306
 31
0.0
 11
-14.2897973925
 21
-8.5080093937
 31
0.0
 11
-14.3934303253
 21
-8.4396353217
 31
0.0
 11
-14.5002848223
 21
-8.3692540336
 31
0.0
 11
-14.6096148683
 21
-8.2973449039
 31
0.0
 11
-14.7208565957
 21
-8.2242703539
 31
0.0
 11
-14.8335697956
 21
-8.1503128788
 31
0.0
 11
-15.0620470869
 21
-8.0006269354
 31
0.0
 11
-15.2927957112
 21
-7.8497364145
 31
0.0
  0
SPLINE
  5
4AF
100
AcDbEntity
  8
RACCORDO
100
AcDbSpline
 62
7
  6
CONTINUOUS
 70
0
 71
3
 72
9
 73
5
 74
3
 42
0.0000001
 43
0.0000001
 44
0.0000000001
 12
0.0157151959
 22
0.0162785237
 32
0.0
 13
0.0144423629
 23
0.0174176882
 33
0.0
 40
0.0
 40
0.0
 40
0.0
 40
0.0
 40
0.2523593162
 40
1.0
 40
1.0
 40
1.0
 40
1.0
 10
-16.6944144915
 20
21.9638642075
 30
0.0
 10
-16.6930925328
 20
21.9652335532
 30
0.0
 10
-16.6879022484
 20
21.9707061259
 30
0.0
 10
-16.6829347355
 20
21.9763887492
 30
0.0
 10
-16.6793355028
 20
21.9807294733
 30
0.0
 11
-16.6944144915
 21
21.9638642075
 31
0.0
 11
-16.6904870868
 21
21.9680090397
 31
0.0
 11
-16.6793355028
 21
21.9807294733
 31
0.0
  0
SPLINE
  5
4B0
100
AcDbEntity
  8
RACCORDO
100
AcDbSpline
 62
7
  6
CONTINUOUS
 70
0
 71
3
 72
9
 73
5
 74
3
 42
0.0000001
 43
0.0000001
 44
0.0000000001
 12
0.0157151959
 22
-0.0162785225
 32
0.0
 13
0.0144423629
 23
-0.0174176882
 33
0.0
 40
0.0
 40
0.0
 40
0.0
 40
0.0
 40
0.2523593162
 40
1.0
 40
1.0
 40
1.0
 40
1.0
 10
-16.6944144915
 20
-21.3581261618
 30
0.0
 10
-16.6930925328
 20
-21.3594955074
 30
0.0
 10
-16.6879022484
 20
-21.3649680802
 30
0.0
 10
-16.6829347355
 20
-21.3706507034
 30
0.0
 10
-16.6793355028
 20
-21.3749914275
 30
0.0
 11
-16.6944144915
 21
-21.3581261618
 31
0.0
 11
-16.6904870868
 21
-21.362270994
 31
0.0
 11
-16.6793355028
 21
-21.3749914275
 31
0.0
  0
SPLINE
  5
4B1
100
AcDbEntity
  8
RACCORDO
100
AcDbSpline
 62
7
  6
CONTINUOUS
 70
0
 71
3
 72
26
 73
22
 74
20
 42
0.0000001
 43
0.0000001
 44
0.0000000001
 12
0.0
 22
-0.4205962143
 32
0.0
 13
-0.297383804
 23
-0.2974291025
 33
0.0
 40
0.0
 40
0.0
 40
0.0
 40
0.0
 40
0.0007506059
 40
0.0023563009
 40
0.0048236031
 40
0.0081451064
 40
0.0173071635
 40
0.0296992452
 40
0.0451295091
 40
0.063394056
 40
0.0842682414
 40
0.1075266114
 40
0.1603371057
 40
0.2202192582
 40
0.2858036204
 40
0.3559626574
 40
0.4297811496
 40
0.5065164163
 40
0.6664080932
 40
0.8318553478
 40
1.0
 40
1.0
 40
1.0
 40
1.0
 10
-16.6102481666
 20
-20.5971766686
 30
0.0
 10
-16.6102481666
 20
-20.5972819026
 30
0.0
 10
-16.6104603524
 20
-20.5975708836
 30
0.0
 10
-16.6108316574
 20
-20.598110198
 30
0.0
 10
-16.6115051522
 20
-20.5989140733
 30
0.0
 10
-16.6128628316
 20
-20.6005022092
 30
0.0
 10
-16.6152055124
 20
-20.6030929494
 30
0.0
 10
-16.6187233659
 20
-20.6068990486
 30
0.0
 10
-16.6231513689
 20
-20.6116058398
 30
0.0
 10
-16.6284223052
 20
-20.6171504759
 30
0.0
 10
-16.6344745459
 20
-20.6234671134
 30
0.0
 10
-16.6439061075
 20
-20.6332532353
 30
0.0
 10
-16.6571808635
 20
-20.6469307175
 30
0.0
 10
-16.6746412701
 20
-20.6648149423
 30
0.0
 10
-16.6938438914
 20
-20.6843973592
 30
0.0
 10
-16.7144502266
 20
-20.7053397188
 30
0.0
 10
-16.7361837157
 20
-20.7273662014
 30
0.0
 10
-16.7667896639
 20
-20.7583116455
 30
0.0
 10
-16.8064910912
 20
-20.7983292839
 30
0.0
 10
-16.8553002131
 20
-20.8473634072
 30
0.0
 10
-16.8883446126
 20
-20.8804606061
 30
0.0
 10
-16.9050124447
 20
-20.8971309771
 30
0.0
 11
-16.6102481666
 21
-20.5971766686
 31
0.0
 11
-16.6103802253
 21
-20.5974634233
 31
0.0
 11
-16.6107742616
 21
-20.5980119049
 31
0.0
 11
-16.6114270661
 21
-20.5988185935
 31
0.0
 11
-16.6123354291
 21
-20.5998799693
 31
0.0
 11
-16.6149049894
 21
-20.6027517333
 31
0.0
 11
-16.6184396934
 21
-20.6065820686
 31
0.0
 11
-16.6228826754
 21
-20.6113126981
 31
0.0
 11
-16.6281736729
 21
-20.6168821205
 31
0.0
 11
-16.6342461951
 21
-20.6232229343
 31
0.0
 11
-16.6410335069
 21
-20.6302676073
 31
0.0
 11
-16.6564976885
 21
-20.6462121168
 31
0.0
 11
-16.6740890943
 21
-20.6642367536
 31
0.0
 11
-16.6934002422
 21
-20.683934119
 31
0.0
 11
-16.7140951425
 21
-20.704969332
 31
0.0
 11
-16.7359007608
 21
-20.7270709083
 31
0.0
 11
-16.7585953463
 21
-20.7500187474
 31
0.0
 11
-16.805955549
 21
-20.7977634012
 31
0.0
 11
-16.8550456529
 21
-20.847083192
 31
0.0
 11
-16.9050124447
 21
-20.8971309771
 31
0.0
  0
SPLINE
  5
4B2
100
AcDbEntity
  8
RACCORDO
100
AcDbSpline
 62
7
  6
CONTINUOUS
 70
0
 71
3
 72
26
 73
22
 74
20
 42
0.0000001
 43
0.0000001
 44
0.0000000001
 12
0.0
 22
0.4205962144
 32
0.0
 13
-0.297383804
 23
0.2974291043
 33
0.0
 40
0.0
 40
0.0
 40
0.0
 40
0.0
 40
0.0007506059
 40
0.0023563009
 40
0.0048236031
 40
0.0081451064
 40
0.0173071635
 40
0.0296992452
 40
0.0451295091
 40
0.063394056
 40
0.0842682414
 40
0.1075266114
 40
0.1603371057
 40
0.2202192582
 40
0.2858036204
 40
0.3559626574
 40
0.4297811496
 40
0.5065164163
 40
0.6664080932
 40
0.8318553478
 40
1.0
 40
1.0
 40
1.0
 40
1.0
 10
-16.6102481666
 20
21.2029147143
 30
0.0
 10
-16.6102481666
 20
21.2030199483
 30
0.0
 10
-16.6104603524
 20
21.2033089293
 30
0.0
 10
-16.6108316574
 20
21.2038482437
 30
0.0
 10
-16.6115051522
 20
21.2046521191
 30
0.0
 10
-16.6128628316
 20
21.2062402549
 30
0.0
 10
-16.6152055124
 20
21.2088309951
 30
0.0
 10
-16.6187233659
 20
21.2126370943
 30
0.0
 10
-16.6231513689
 20
21.2173438856
 30
0.0
 10
-16.6284223052
 20
21.2228885217
 30
0.0
 10
-16.6344745459
 20
21.2292051591
 30
0.0
 10
-16.6439061075
 20
21.238991281
 30
0.0
 10
-16.6571808635
 20
21.2526687633
 30
0.0
 10
-16.6746412701
 20
21.270552988
 30
0.0
 10
-16.6938438914
 20
21.2901354049
 30
0.0
 10
-16.7144502266
 20
21.3110777645
 30
0.0
 10
-16.7361837157
 20
21.3331042472
 30
0.0
 10
-16.7667896639
 20
21.3640496912
 30
0.0
 10
-16.8064910912
 20
21.4040673296
 30
0.0
 10
-16.8553002131
 20
21.453101453
 30
0.0
 10
-16.8883446126
 20
21.4861986518
 30
0.0
 10
-16.9050124447
 20
21.5028690229
 30
0.0
 11
-16.6102481666
 21
21.2029147143
 31
0.0
 11
-16.6103802253
 21
21.203201469
 31
0.0
 11
-16.6107742616
 21
21.2037499506
 31
0.0
 11
-16.6114270661
 21
21.2045566393
 31
0.0
 11
-16.6123354291
 21
21.205618015
 31
0.0
 11
-16.6149049894
 21
21.208489779
 31
0.0
 11
-16.6184396934
 21
21.2123201143
 31
0.0
 11
-16.6228826754
 21
21.2170507439
 31
0.0
 11
-16.6281736729
 21
21.2226201663
 31
0.0
 11
-16.6342461951
 21
21.2289609801
 31
0.0
 11
-16.6410335069
 21
21.236005653
 31
0.0
 11
-16.6564976885
 21
21.2519501625
 31
0.0
 11
-16.6740890943
 21
21.2699747993
 31
0.0
 11
-16.6934002422
 21
21.2896721647
 31
0.0
 11
-16.7140951425
 21
21.3107073777
 31
0.0
 11
-16.7359007608
 21
21.3328089541
 31
0.0
 11
-16.7585953463
 21
21.3557567931
 31
0.0
 11
-16.805955549
 21
21.4035014469
 31
0.0
 11
-16.8550456529
 21
21.4528212377
 31
0.0
 11
-16.9050124447
 21
21.5028690229
 31
0.0
  0
ELLIPSE
  5
4B3
100
AcDbEntity
  8
ASSI
100
AcDbEllipse
 62
7
  6
CONTINUOUS
 10
8.2488813026
 20
-20.2670015193
 30
0.0
 11
0.7994523746
 21
0.036532932
 31
0.0
 40
0.9925150713
 41
3.0962683115
 42
3.3608498558
  0
ELLIPSE
  5
4B4
100
AcDbEntity
  8
ASSI
100
AcDbEllipse
 62
7
  6
CONTINUOUS
 10
8.2488813026
 20
21.518647085
 30
0.0
 11
0.7994523746
 21
-0.036532932
 31
0.0
 40
0.9925150713
 41
1.6168059016
 42
3.1869169957
  0
ELLIPSE
  5
4B5
100
AcDbEntity
  8
ASSI
100
AcDbEllipse
 62
7
  6
CONTINUOUS
 10
28.8483328346
 20
-20.2670015193
 30
0.0
 11
0.7994523746
 21
-0.036532932
 31
0.0
 40
0.9925150713
 41
-0.2192571823
 42
0.0453243421
  0
ELLIPSE
  5
4B6
100
AcDbEntity
  8
ASSI
100
AcDbEllipse
 62
7
  6
CONTINUOUS
 10
28.8483328346
 20
21.518647085
 30
0.0
 11
0.7994523746
 21
0.036532932
 31
0.0
 40
0.9925150713
 41
-0.0453243421
 42
1.524786752
  0
ELLIPSE
  5
4B7
100
AcDbEntity
  8
CURVE
100
AcDbEllipse
 62
7
  6
CONTINUOUS
 10
12.5700274719
 20
36.2238579915
 30
0.0
 11
-199.2835013381
 21
299.7891807665
 31
0.0
 40
0.0564264962
 41
-4.580380425
 42
-4.5799275319
  0
ELLIPSE
  5
4B8
100
AcDbEntity
  8
CURVE
100
AcDbEllipse
 62
7
  6
CONTINUOUS
 10
1.4605177009
 20
36.2238579915
 30
0.0
 11
299.4403141212
 21
-299.4404399957
 31
0.0
 40
0.0611626202
 41
-1.4623825879
 42
-1.4619296948
  0
ELLIPSE
  5
4B9
100
AcDbEntity
  8
CURVE
100
AcDbEllipse
 62
7
  6
CONTINUOUS
 10
14.2962568296
 20
36.2238579915
 30
0.0
 11
-199.282499148
 21
299.7891837051
 31
0.0
 40
0.0564263869
 41
-4.5910562911
 42
-4.5906036022
  0
ELLIPSE
  5
4BA
100
AcDbEntity
  8
CURVE
100
AcDbEllipse
 62
7
  6
CONTINUOUS
 10
7.6462325425
 20
36.2238579915
 30
0.0
 11
299.4402827698
 21
-299.440440113
 31
0.0
 40
0.0611626202
 41
-1.4694369807
 42
-1.4685314679
  0
ELLIPSE
  5
4BB
100
AcDbEntity
  8
CURVE
100
AcDbEllipse
 62
7
  6
CONTINUOUS
 10
30.9890786254
 20
36.2238579915
 30
0.0
 11
299.4403141211
 21
299.4404399957
 31
0.0
 40
0.0611626202
 41
-1.6694393233
 42
-1.6685339383
  0
ELLIPSE
  5
4BC
100
AcDbEntity
  8
CURVE
100
AcDbEllipse
 62
7
  6
CONTINUOUS
 10
9.2748020195
 20
36.2238579915
 30
0.0
 11
299.4403141211
 21
-299.4404399957
 31
0.0
 40
0.0611626202
 41
-1.4730587153
 42
-1.4721533303
  0
ELLIPSE
  5
4BD
100
AcDbEntity
  8
CURVE
100
AcDbEllipse
 62
7
  6
CONTINUOUS
 10
40.8962358409
 20
36.2238579915
 30
0.0
 11
599.8228558481
 21
298.5647914243
 31
0.0
 40
0.0488641202
 41
-1.6344812002
 42
-1.6340284725
  0
ELLIPSE
  5
4BE
100
AcDbEntity
  8
CURVE
100
AcDbEllipse
 62
7
  6
CONTINUOUS
 10
-7.1466387383
 20
36.2238579915
 30
0.0
 11
599.8227932222
 21
-298.5647915437
 31
0.0
 40
0.0488641233
 41
-1.5057532174
 42
-1.5053004568
  0
ELLIPSE
  5
4BF
100
AcDbEntity
  8
CURVE
100
AcDbEllipse
 62
7
  6
CONTINUOUS
 10
12.4640762189
 20
36.2238579915
 30
0.0
 11
-149.2825835243
 21
299.9113023155
 31
0.0
 40
0.0488641694
 41
-4.5778824988
 42
-4.5769771138
  0
ELLIPSE
  5
4C0
100
AcDbEntity
  8
CURVE
100
AcDbEllipse
 62
7
  6
CONTINUOUS
 10
12.450511775
 20
36.2238579915
 30
0.0
 11
-79.4795634791
 21
299.9902898758
 31
0.0
 40
0.0303688977
 41
-4.5616106466
 42
-4.5570834056
  0
ELLIPSE
  5
4C1
100
AcDbEntity
  8
CURVE
100
AcDbEllipse
 62
7
  6
CONTINUOUS
 10
19.3459283708
 20
36.2238579915
 30
0.0
 11
86.9452129584
 21
299.9864502597
 31
0.0
 40
0.0327937085
 41
-1.7246433478
 42
-1.7210214919
  0
ELLIPSE
  5
4C2
100
AcDbEntity
  8
CURVE
100
AcDbEllipse
 62
7
  6
CONTINUOUS
 10
12.7750948699
 20
36.2238579915
 30
0.0
 11
-86.9452207473
 21
299.9864502552
 31
0.0
 40
0.0327937109
 41
-4.5621638169
 42
-4.5585419609
  0
ELLIPSE
  5
4C3
100
AcDbEntity
  8
CURVE
100
AcDbEllipse
 62
7
  6
CONTINUOUS
 10
19.6705115301
 20
36.2238579915
 30
0.0
 11
79.4795572506
 21
299.9902898787
 31
0.0
 40
0.0303688957
 41
-1.7261019027
 42
-1.7215746617
  0
ELLIPSE
  5
4C4
100
AcDbEntity
  8
CURVE
100
AcDbEllipse
 62
7
  6
CONTINUOUS
 10
11.271228961
 20
36.2238579915
 30
0.0
 11
-149.2823334267
 21
299.9113027913
 31
0.0
 40
0.0488641202
 41
-4.5672063062
 42
-4.5663005106
  0
ELLIPSE
  5
4C5
100
AcDbEntity
  8
CURVE
100
AcDbEllipse
 62
7
  6
CONTINUOUS
 10
4.853351161
 20
36.2238579915
 30
0.0
 11
299.4407843914
 21
-299.4404382365
 31
0.0
 40
0.0611626202
 41
-1.4587592606
 42
-1.4578533019
  0
ELLIPSE
  5
4C6
100
AcDbEntity
  8
CURVE
100
AcDbEllipse
 62
7
  6
CONTINUOUS
 10
34.5962438786
 20
36.2238579915
 30
0.0
 11
299.4408157428
 21
299.4404381192
 31
0.0
 40
0.0611626202
 41
-1.6801157589
 42
-1.6792099632
  0
ELLIPSE
  5
4C7
100
AcDbEntity
  8
CURVE
100
AcDbEllipse
 62
7
  6
CONTINUOUS
 10
6.4819462561
 20
36.2238579915
 30
0.0
 11
299.4403141211
 21
-299.4404399957
 31
0.0
 40
0.0611626202
 41
-1.4623825879
 42
-1.4614767923
  0
ELLIPSE
  5
4C8
100
AcDbEntity
  8
CURVE
100
AcDbEllipse
 62
7
  6
CONTINUOUS
 10
1.0533705116
 20
36.2238579915
 30
0.0
 11
299.4404081752
 21
-299.4404396438
 31
0.0
 40
0.0611626202
 41
-1.4587591837
 42
-1.4578532251
  0
ELLIPSE
  5
4C9
100
AcDbEntity
  8
CURVE
100
AcDbEllipse
 62
7
  6
CONTINUOUS
 10
30.7962260001
 20
36.2238579915
 30
0.0
 11
299.4404395266
 21
299.4404395266
 31
0.0
 40
0.0611626202
 41
-1.6801158357
 42
-1.6792100401
  0
ELLIPSE
  5
4CA
100
AcDbEntity
  8
CURVE
100
AcDbEllipse
 62
7
  6
CONTINUOUS
 10
47.7033563667
 20
36.2238579915
 30
0.0
 11
599.8223548413
 21
298.5647923801
 31
0.0
 40
0.0488641448
 41
-1.6451586184
 42
-1.6447056755
  0
ELLIPSE
  5
4CB
100
AcDbEntity
  8
CURVE
100
AcDbEllipse
 62
7
  6
CONTINUOUS
 10
-13.1394721142
 20
36.2238579915
 30
0.0
 11
599.8222922155
 21
-298.5647924995
 31
0.0
 40
0.0488641479
 41
-1.4950751403
 42
-1.4946221557
  0
ELLIPSE
  5
4CC
100
AcDbEntity
  8
CURVE
100
AcDbEllipse
 62
7
  6
CONTINUOUS
 10
2.6819344127
 20
36.2238579915
 30
0.0
 11
299.440564932
 21
-299.4404390574
 31
0.0
 40
0.0611626202
 41
-1.4623826391
 42
-1.4614768435
  0
ELLIPSE
  5
4CD
100
AcDbEntity
  8
RACCORDO
100
AcDbEllipse
 62
7
  6
CONTINUOUS
 10
7.7486070686
 20
-21.7253004802
 30
0.0
 11
0.0
 21
0.3500133274
 31
0.0
 40
0.9999619231
 41
7.853981634
 42
9.4247779608
  0
ELLIPSE
  5
4CE
100
AcDbEntity
  8
RACCORDO
100
AcDbEllipse
 62
7
  6
CONTINUOUS
 10
29.3486070686
 20
22.331038526
 30
0.0
 11
0.0
 21
-0.3500133274
 31
0.0
 40
0.9999619231
 41
7.853981634
 42
9.4247779608
  0
ELLIPSE
  5
4CF
100
AcDbEntity
  8
RACCORDO
100
AcDbEllipse
 62
7
  6
CONTINUOUS
 10
7.7486070686
 20
22.331038526
 30
0.0
 11
0.0
 21
0.3500133274
 31
0.0
 40
0.9999619231
 41
0.0
 42
1.5707963268
  0
ELLIPSE
  5
4D0
100
AcDbEntity
  8
RACCORDO
100
AcDbEllipse
 62
7
  6
CONTINUOUS
 10
29.3486070686
 20
-21.7253004802
 30
0.0
 11
0.0
 21
-0.3500133274
 31
0.0
 40
0.9999619231
 41
0.0
 42
1.5707963268
  0
ELLIPSE
  5
4D1
100
AcDbEntity
  8
RACCORDO
100
AcDbEllipse
 62
7
  6
CONTINUOUS
 10
29.1355169515
 20
-23.5414685444
 30
0.0
 11
0.0
 21
0.25
 31
0.0
 40
0.0058178298
 41
0.5235987756
 42
1.5707963268
  0
ELLIPSE
  5
4D2
100
AcDbEntity
  8
RACCORDO
100
AcDbEllipse
 62
7
  6
CONTINUOUS
 10
26.8616971857
 20
-23.5414685444
 30
0.0
 11
0.0
 21
0.25
 31
0.0
 40
0.0058178298
 41
-1.5707963268
 42
-0.5235987756
  0
ELLIPSE
  5
4D3
100
AcDbEntity
  8
RACCORDO
100
AcDbEllipse
 62
7
  6
CONTINUOUS
 10
26.8616971857
 20
-23.8340366292
 30
0.0
 11
0.0
 21
0.25
 31
0.0
 40
0.0058178298
 41
-3.1357748894
 42
-1.5707963268
  0
ELLIPSE
  5
4D4
100
AcDbEntity
  8
RACCORDO
100
AcDbEllipse
 62
7
  6
CONTINUOUS
 10
29.1355169515
 20
-23.8340366292
 30
0.0
 11
0.0
 21
0.25
 31
0.0
 40
0.0058178298
 41
-4.7123889804
 42
-3.1474104178
  0
ELLIPSE
  5
4D5
100
AcDbEntity
  8
RACCORDO
100
AcDbEllipse
 62
7
  6
CONTINUOUS
 10
10.2355169515
 20
-23.5414685444
 30
0.0
 11
0.0
 21
0.25
 31
0.0
 40
0.0058178298
 41
0.5235987756
 42
1.5707963268
  0
ELLIPSE
  5
4D6
100
AcDbEntity
  8
RACCORDO
100
AcDbEllipse
 62
7
  6
CONTINUOUS
 10
7.9616971857
 20
-23.5414685444
 30
0.0
 11
0.0
 21
0.25
 31
0.0
 40
0.0058178298
 41
-1.5707963268
 42
-0.5235987756
  0
ELLIPSE
  5
4D7
100
AcDbEntity
  8
RACCORDO
100
AcDbEllipse
 62
7
  6
CONTINUOUS
 10
7.9616971857
 20
-23.8340366292
 30
0.0
 11
0.0
 21
0.25
 31
0.0
 40
0.0058178298
 41
-3.1357748894
 42
-1.5707963268
  0
ELLIPSE
  5
4D8
100
AcDbEntity
  8
RACCORDO
100
AcDbEllipse
 62
7
  6
CONTINUOUS
 10
10.2355169515
 20
-23.8340366292
 30
0.0
 11
0.0
 21
0.25
 31
0.0
 40
0.0058178298
 41
-4.7123889804
 42
-3.1474104178
  0
ELLIPSE
  5
4D9
100
AcDbEntity
  8
RACCORDO
100
AcDbEllipse
 62
7
  6
CONTINUOUS
 10
7.9616971857
 20
24.1472065902
 30
0.0
 11
0.0
 21
0.25
 31
0.0
 40
0.0058178298
 41
-2.617993878
 42
-1.5707963268
  0
ELLIPSE
  5
4DA
100
AcDbEntity
  8
RACCORDO
100
AcDbEllipse
 62
7
  6
CONTINUOUS
 10
10.2355169515
 20
24.1472065902
 30
0.0
 11
0.0
 21
0.25
 31
0.0
 40
0.0058178298
 41
-4.7123889804
 42
-3.6651914292
  0
ELLIPSE
  5
4DB
100
AcDbEntity
  8
RACCORDO
100
AcDbEllipse
 62
7
  6
CONTINUOUS
 10
10.2355169515
 20
24.4397746749
 30
0.0
 11
0.0
 21
0.25
 31
0.0
 40
0.0058178298
 41
0.0058177642
 42
1.5707963268
  0
ELLIPSE
  5
4DC
100
AcDbEntity
  8
RACCORDO
100
AcDbEllipse
 62
7
  6
CONTINUOUS
 10
7.9616971857
 20
24.4397746749
 30
0.0
 11
0.0
 21
0.25
 31
0.0
 40
0.0058178298
 41
-1.5707963268
 42
-0.0058177642
  0
ELLIPSE
  5
4DD
100
AcDbEntity
  8
RACCORDO
100
AcDbEllipse
 62
7
  6
CONTINUOUS
 10
26.8616971857
 20
24.1472065902
 30
0.0
 11
0.0
 21
0.25
 31
0.0
 40
0.0058178298
 41
-2.617993878
 42
-1.5707963268
  0
ELLIPSE
  5
4DE
100
AcDbEntity
  8
RACCORDO
100
AcDbEllipse
 62
7
  6
CONTINUOUS
 10
29.1355169515
 20
24.1472065902
 30
0.0
 11
0.0
 21
0.25
 31
0.0
 40
0.0058178298
 41
-4.7123889804
 42
-3.6651914292
  0
ELLIPSE
  5
4DF
100
AcDbEntity
  8
RACCORDO
100
AcDbEllipse
 62
7
  6
CONTINUOUS
 10
29.1355169515
 20
24.4397746749
 30
0.0
 11
0.0
 21
0.25
 31
0.0
 40
0.0058178298
 41
0.0058177642
 42
1.5707963268
  0
ELLIPSE
  5
4E0
100
AcDbEntity
  8
RACCORDO
100
AcDbEllipse
 62
7
  6
CONTINUOUS
 10
26.8616971857
 20
24.4397746749
 30
0.0
 11
0.0
 21
0.25
 31
0.0
 40
0.0058178298
 41
-1.5707963268
 42
-0.0058177642
  0
ELLIPSE
  5
4E1
100
AcDbEntity
  8
RACCORDO
100
AcDbEllipse
 62
7
  6
CONTINUOUS
 10
14.4526846265
 20
-22.0910221697
 30
0.0
 11
0.3
 21
0.0
 31
0.0
 40
0.0087268678
 41
1.5707963268
 42
3.1357748894
  0
ELLIPSE
  5
4E2
100
AcDbEntity
  8
RACCORDO
100
AcDbEllipse
 62
7
  6
CONTINUOUS
 10
14.4526846265
 20
-23.4930584963
 30
0.0
 11
0.3
 21
0.0
 31
0.0
 40
0.0058178298
 41
1.5707963268
 42
3.1357748894
  0
ELLIPSE
  5
4E3
100
AcDbEntity
  8
RACCORDO
100
AcDbEllipse
 62
7
  6
CONTINUOUS
 10
22.6445295107
 20
-23.4930584963
 30
0.0
 11
0.3
 21
0.0
 31
0.0
 40
0.0058178298
 41
0.0058177642
 42
1.5707963268
  0
ELLIPSE
  5
4E4
100
AcDbEntity
  8
RACCORDO
100
AcDbEllipse
 62
7
  6
CONTINUOUS
 10
22.6445295107
 20
-22.0910221697
 30
0.0
 11
0.3
 21
0.0
 31
0.0
 40
0.0087268678
 41
0.0058177642
 42
1.5707963268
  0
ELLIPSE
  5
4E5
100
AcDbEntity
  8
RACCORDO
100
AcDbEllipse
 62
7
  6
CONTINUOUS
 10
14.4526846265
 20
24.098796542
 30
0.0
 11
0.3
 21
0.0
 31
0.0
 40
0.0058178298
 41
-3.1357748894
 42
-1.5707963268
  0
ELLIPSE
  5
4E6
100
AcDbEntity
  8
RACCORDO
100
AcDbEllipse
 62
7
  6
CONTINUOUS
 10
14.4526846265
 20
22.6967602154
 30
0.0
 11
0.3
 21
0.0
 31
0.0
 40
0.0087268678
 41
-3.1357748894
 42
-1.5707963268
  0
ELLIPSE
  5
4E7
100
AcDbEntity
  8
RACCORDO
100
AcDbEllipse
 62
7
  6
CONTINUOUS
 10
22.6445295107
 20
22.6967602154
 30
0.0
 11
0.3
 21
0.0
 31
0.0
 40
0.0087268678
 41
-1.5707963268
 42
-0.0058177642
  0
ELLIPSE
  5
4E8
100
AcDbEntity
  8
RACCORDO
100
AcDbEllipse
 62
7
  6
CONTINUOUS
 10
22.6445295107
 20
24.098796542
 30
0.0
 11
0.3
 21
0.0
 31
0.0
 40
0.0058178298
 41
-1.5707963268
 42
-0.0058177642
  0
ELLIPSE
  5
4E9
100
AcDbEntity
  8
CURVE
100
AcDbEllipse
 62
7
  6
CONTINUOUS
 10
258.2427300296
 20
36.2238579915
 30
0.0
 11
-187.6441942839
 21
234.0719042336
 31
0.0
 40
1.0
 41
1.0645491574
 42
1.0650020505
  0
ELLIPSE
  5
4EA
100
AcDbEntity
  8
CURVE
100
AcDbEllipse
 62
7
  6
CONTINUOUS
 10
258.2427300296
 20
36.2238579915
 30
0.0
 11
281.3984104537
 21
103.9948777301
 31
0.0
 40
1.0
 41
2.9464199111
 42
2.9468726
  0
ELLIPSE
  5
4EB
100
AcDbEntity
  8
CURVE
100
AcDbEllipse
 62
7
  6
CONTINUOUS
 10
258.2427300296
 20
36.2238579915
 30
0.0
 11
236.403226082
 21
-184.6984425977
 31
0.0
 40
1.0
 41
-2.3159217
 42
-2.3150161872
  0
ELLIPSE
  5
4EC
100
AcDbEntity
  8
CURVE
100
AcDbEllipse
 62
7
  6
CONTINUOUS
 10
258.2427300296
 20
36.2238579915
 30
0.0
 11
285.1592503936
 21
-93.1890654259
 31
0.0
 40
1.0
 41
-2.6669125662
 42
-2.6660071812
  0
ELLIPSE
  5
4ED
100
AcDbEntity
  8
CURVE
100
AcDbEllipse
 62
7
  6
CONTINUOUS
 10
258.2427300296
 20
36.2238579915
 30
0.0
 11
289.0891359626
 21
-80.1715128235
 31
0.0
 40
1.0
 41
-2.7081680294
 42
-2.7077152689
  0
ELLIPSE
  5
4EE
100
AcDbEntity
  8
CURVE
100
AcDbEllipse
 62
7
  6
CONTINUOUS
 10
258.2427300296
 20
36.2238579915
 30
0.0
 11
261.106708782
 21
147.727068031
 31
0.0
 40
1.0
 41
2.7855446339
 42
2.7900718749
  0
ELLIPSE
  5
4EF
100
AcDbEntity
  8
CURVE
100
AcDbEllipse
 62
7
  6
CONTINUOUS
 10
258.2427300296
 20
36.2238579915
 30
0.0
 11
-36.5608030215
 21
297.7638454924
 31
0.0
 40
1.0
 41
-4.6748325333
 42
-4.6712106774
  0
ELLIPSE
  5
4F0
100
AcDbEntity
  8
CURVE
100
AcDbEllipse
 62
7
  6
CONTINUOUS
 10
258.2427300296
 20
36.2238579915
 30
0.0
 11
51.2951894223
 21
295.5821434765
 31
0.0
 40
1.0
 41
1.9014486906
 42
1.9059759316
  0
ELLIPSE
  5
4F1
100
AcDbEntity
  8
CURVE
100
AcDbEllipse
 62
7
  6
CONTINUOUS
 10
258.2427300296
 20
36.2238579915
 30
0.0
 11
297.7638454924
 21
36.5608030215
 31
0.0
 40
1.0
 41
-3.0906420407
 42
-3.0897360821
  0
ELLIPSE
  5
4F2
100
AcDbEntity
  8
CURVE
100
AcDbEllipse
 62
7
  6
CONTINUOUS
 10
258.2427300296
 20
36.2238579915
 30
0.0
 11
297.7638454924
 21
36.5608030215
 31
0.0
 40
1.0
 41
-3.0942654641
 42
-3.0933596685
  0
ELLIPSE
  5
4F3
100
AcDbEntity
  8
CURVE
100
AcDbEllipse
 62
7
  6
CONTINUOUS
 10
258.2427300296
 20
36.2238579915
 30
0.0
 11
289.0891359626
 21
-80.1715128235
 31
0.0
 40
1.0
 41
-2.7015663824
 42
-2.7006605868
  0
ELLIPSE
  5
4F4
100
AcDbEntity
  8
CURVE
100
AcDbEllipse
 62
7
  6
CONTINUOUS
 10
258.2427300296
 20
36.2238579915
 30
0.0
 11
112.3689109079
 21
278.1604354709
 31
0.0
 40
1.0
 41
-4.1566987215
 42
-4.1562457786
  0
ELLIPSE
  5
4F5
100
AcDbEntity
  8
CURVE
100
AcDbEllipse
 62
7
  6
CONTINUOUS
 10
258.2427300296
 20
36.2238579915
 30
0.0
 11
289.0891359626
 21
-80.1715128235
 31
0.0
 40
1.0
 41
-2.697942959
 42
-2.6970370004
  0
ELLIPSE
  5
4F6
100
AcDbEntity
  8
CURVE
100
AcDbEllipse
 62
7
  6
CONTINUOUS
 10
258.2427300296
 20
36.2238579915
 30
0.0
 11
20.4082686796
 21
299.3050326498
 31
0.0
 40
1.0
 41
-4.4748086024
 42
-4.4739028067
  0
ELLIPSE
  5
4F7
100
AcDbEntity
  8
CURVE
100
AcDbEllipse
 62
7
  6
CONTINUOUS
 10
258.2427300296
 20
36.2238579915
 30
0.0
 11
272.5142074986
 21
-125.4432409953
 31
0.0
 40
1.0
 41
-2.5406911052
 42
-2.5397853096
  0
ELLIPSE
  5
4F8
100
AcDbEntity
  8
CURVE
100
AcDbEllipse
 62
7
  6
CONTINUOUS
 10
258.2427300296
 20
36.2238579915
 30
0.0
 11
261.106708782
 21
147.727068031
 31
0.0
 40
1.0
 41
2.7962207613
 42
2.7966736544
  0
ELLIPSE
  5
4F9
100
AcDbEntity
  8
RACCORDO
100
AcDbEllipse
 62
7
  6
CONTINUOUS
 10
139.5306405626
 20
12.4028690229
 30
0.0
 11
160.4118925661
 21
0.0
 31
0.0
 40
0.0174550649
 41
2.6637077142
 42
3.619477593
  0
ELLIPSE
  5
4FA
100
AcDbEntity
  8
RACCORDO
100
AcDbEllipse
 62
7
  6
CONTINUOUS
 10
139.5306405626
 20
-1.0971309771
 30
0.0
 11
160.4118925661
 21
0.0
 31
0.0
 40
0.0174550649
 41
2.6637077142
 42
3.619477593
  0
ENDSEC
  0
SECTION
  2
OBJECTS
  0
DICTIONARY
  5
C
100
AcDbDictionary
280
0
281
1
  3
ACAD_GROUP
350
D
  3
ACAD_MLINESTYLE
350
17
  3
ACAD_LAYOUT
350
1A
  3
ACAD_PLOTSETTINGS
350
19
  3
ACAD_PLOTSTYLENAME
350
E
  0
DICTIONARY
  5
D
102
{ACAD_REACTORS
330
C
102
}
100
AcDbDictionary
280
0
281
1
  0
ACDBDICTIONARYWDFLT
  5
E
102
{ACAD_REACTORS
330
C
102
}
100
AcDbDictionary
281
1
  3
Normal
350
F
100
AcDbDictionaryWithDefault
340
F
  0
DICTIONARY
  5
17
102
{ACAD_REACTORS
330
C
102
}
100
AcDbDictionary
280
0
281
1
  3
Standard
350
18
  0
DICTIONARY
  5
19
102
{ACAD_REACTORS
330
C
102
}
100
AcDbDictionary
281
1
  0
DICTIONARY
  5
1A
102
{ACAD_REACTORS
330
C
102
}
100
AcDbDictionary
281
1
  3
Model
350
4FB
  3
Layout1
350
4FC
  0
ACDBPLACEHOLDER
  5
F
102
{ACAD_REACTORS
330
E
102
}
  0
MLINESTYLE
  5
18
102
{ACAD_REACTORS
330
17
102
}
100
AcDbMlineStyle
  2
STANDARD
 70
0
  3

 62
256
 51
90.0
 52
90.0
 71
2
 49
0.5
 62
256
  6
BYLAYER
 49
-0.5
 62
256
  6
BYLAYER
  0
LAYOUT
  5
4FB
102
{ACAD_REACTORS
330
1A
102
}
100
AcDbPlotSettings
  1

  2
none_device
  4
ISO_A4_(297.00_x_210.00_MM)
  6

 40
0.0
 41
0.0
 42
0.0
 43
0.0
 44
297.0
 45
210.0
 46
0.0
 47
0.0
 48
0.0
 49
0.0
140
0.0
141
0.0
142
1.0
143
1.0
 70
1024
 72
1
 73
0
 74
0
  7

 75
0
147
1.0
148
0.0
149
0.0
100
AcDbLayout
  1
Model
 70
0
 71
0
 10
0.0
 20
0.0
 11
297.0
 21
210.0
 12
0.0
 22
0.0
 32
0.0
 14
0.0
 24
0.0
 34
0.0
 15
0.0
 25
0.0
 35
0.0
146
0.0
 13
0.0
 23
0.0
 33
0.0
 16
1.0
 26
0.0
 36
0.0
 17
0.0
 27
1.0
 37
0.0
 76
0
330
21A
345
0
346
0
  0
LAYOUT
  5
4FC
102
{ACAD_REACTORS
330
1A
102
}
100
AcDbPlotSettings
  1

  2
none_device
  4
ISO_A4_(297.00_x_210.00_MM)
  6

 40
0.0
 41
0.0
 42
0.0
 43
0.0
 44
297.0
 45
210.0
 46
0.0
 47
0.0
 48
0.0
 49
0.0
140
0.0
141
0.0
142
1.0
143
1.0
 70
0
 72
1
 73
0
 74
0
  7

 75
0
147
1.0
148
0.0
149
0.0
100
AcDbLayout
  1
Layout1
 70
0
 71
1
 10
0.0
 20
0.0
 11
297.0
 21
210.0
 12
0.0
 22
0.0
 32
0.0
 14
0.0
 24
0.0
 34
0.0
 15
0.0
 25
0.0
 35
0.0
146
0.0
 13
0.0
 23
0.0
 33
0.0
 16
1.0
 26
0.0
 36
0.0
 17
0.0
 27
1.0
 37
0.0
 76
0
330
21B
345
0
346
0
  0
ENDSEC
  0
EOF
