  0
SECTION
  2
HEADER
  9
$ACADVER
  1
AC1032
  9
$ACADMAINTVER
 90
      155
  9
$DWGCODEPAGE
  3
ANSI_1252
  9
$REQUIREDVERSIONS
160
                 0
  9
$INSBASE
 10
0.0
 20
0.0
 30
0.0
  9
$EXTMIN
 10
1.000000000000000E+20
 20
1.000000000000000E+20
 30
1.000000000000000E+20
  9
$EXTMAX
 10
-1.000000000000000E+20
 20
-1.000000000000000E+20
 30
-1.000000000000000E+20
  9
$LIMMIN
 10
0.0
 20
0.0
  9
$LIMMAX
 10
12.0
 20
9.0
  9
$ORTHOMODE
 70
     0
  9
$REGENMODE
 70
     1
  9
$FILLMODE
 70
     1
  9
$QTEXTMODE
 70
     0
  9
$MIRRTEXT
 70
     0
  9
$LTSCALE
 40
1.0
  9
$ATTMODE
 70
     1
  9
$TEXTSIZE
 40
0.2
  9
$TRACEWID
 40
0.05
  9
$TEXTSTYLE
  7
Standard
  9
$CLAYER
  8
0
  9
$CELTYPE
  6
ByLayer
  9
$CECOLOR
 62
   256
  9
$CELTSCALE
 40
1.0
  9
$DISPSILH
 70
     0
  9
$DIMSCALE
 40
1.0
  9
$DIMASZ
 40
0.18
  9
$DIMEXO
 40
0.0625
  9
$DIMDLI
 40
0.38
  9
$DIMRND
 40
0.0
  9
$DIMDLE
 40
0.0
  9
$DIMEXE
 40
0.18
  9
$DIMTP
 40
0.0
  9
$DIMTM
 40
0.0
  9
$DIMTXT
 40
0.18
  9
$DIMCEN
 40
0.09
  9
$DIMTSZ
 40
0.0
  9
$DIMTOL
 70
     0
  9
$DIMLIM
 70
     0
  9
$DIMTIH
 70
     1
  9
$DIMTOH
 70
     1
  9
$DIMSE1
 70
     0
  9
$DIMSE2
 70
     0
  9
$DIMTAD
 70
     0
  9
$DIMZIN
 70
     0
  9
$DIMBLK
  1

  9
$DIMASO
 70
     1
  9
$DIMSHO
 70
     1
  9
$DIMPOST
  1

  9
$DIMAPOST
  1

  9
$DIMALT
 70
     0
  9
$DIMALTD
 70
     2
  9
$DIMALTF
 40
25.4
  9
$DIMLFAC
 40
1.0
  9
$DIMTOFL
 70
     0
  9
$DIMTVP
 40
0.0
  9
$DIMTIX
 70
     0
  9
$DIMSOXD
 70
     0
  9
$DIMSAH
 70
     0
  9
$DIMBLK1
  1

  9
$DIMBLK2
  1

  9
$DIMSTYLE
  2
Standard
  9
$DIMCLRD
 70
     0
  9
$DIMCLRE
 70
     0
  9
$DIMCLRT
 70
     0
  9
$DIMTFAC
 40
1.0
  9
$DIMGAP
 40
0.09
  9
$DIMJUST
 70
     0
  9
$DIMSD1
 70
     0
  9
$DIMSD2
 70
     0
  9
$DIMTOLJ
 70
     1
  9
$DIMTZIN
 70
     0
  9
$DIMALTZ
 70
     0
  9
$DIMALTTZ
 70
     0
  9
$DIMUPT
 70
     0
  9
$DIMDEC
 70
     4
  9
$DIMTDEC
 70
     4
  9
$DIMALTU
 70
     2
  9
$DIMALTTD
 70
     2
  9
$DIMTXSTY
  7
Standard
  9
$DIMAUNIT
 70
     0
  9
$DIMADEC
 70
     0
  9
$DIMALTRND
 40
0.0
  9
$DIMAZIN
 70
     0
  9
$DIMDSEP
 70
    46
  9
$DIMATFIT
 70
     3
  9
$DIMFRAC
 70
     0
  9
$DIMLDRBLK
  1

  9
$DIMLUNIT
 70
     2
  9
$DIMLWD
 70
    -2
  9
$DIMLWE
 70
    -2
  9
$DIMTMOVE
 70
     0
  9
$DIMFXL
 40
1.0
  9
$DIMFXLON
 70
     0
  9
$DIMJOGANG
 40
0.7853981633974483
  9
$DIMTFILL
 70
     0
  9
$DIMTFILLCLR
 70
     0
  9
$DIMARCSYM
 70
     0
  9
$DIMLTYPE
  6

  9
$DIMLTEX1
  6

  9
$DIMLTEX2
  6

  9
$DIMTXTDIRECTION
 70
     0
  9
$LUNITS
 70
     2
  9
$LUPREC
 70
     4
  9
$SKETCHINC
 40
0.1
  9
$FILLETRAD
 40
0.0
  9
$AUNITS
 70
     0
  9
$AUPREC
 70
     0
  9
$MENU
  1
.
  9
$ELEVATION
 40
0.0
  9
$PELEVATION
 40
0.0
  9
$THICKNESS
 40
0.0
  9
$LIMCHECK
 70
     0
  9
$CHAMFERA
 40
0.0
  9
$CHAMFERB
 40
0.0
  9
$CHAMFERC
 40
0.0
  9
$CHAMFERD
 40
0.0
  9
$SKPOLY
 70
     0
  9
$TDCREATE
 40
2460221.681030093
  9
$TDUCREATE
 40
2460221.597696759
  9
$TDUPDATE
 40
2460221.681030093
  9
$TDUUPDATE
 40
2460221.597696759
  9
$TDINDWG
 40
0.0000000000
  9
$TDUSRTIMER
 40
0.0000000000
  9
$USRTIMER
 70
     1
  9
$ANGBASE
 50
0.0
  9
$ANGDIR
 70
     0
  9
$PDMODE
 70
     0
  9
$PDSIZE
 40
0.0
  9
$PLINEWID
 40
0.0
  9
$SPLFRAME
 70
     0
  9
$SPLINETYPE
 70
     6
  9
$SPLINESEGS
 70
     8
  9
$HANDSEED
  5
F4
  9
$SURFTAB1
 70
     6
  9
$SURFTAB2
 70
     6
  9
$SURFTYPE
 70
     6
  9
$SURFU
 70
     6
  9
$SURFV
 70
     6
  9
$UCSBASE
  2

  9
$UCSNAME
  2

  9
$UCSORG
 10
0.0
 20
0.0
 30
0.0
  9
$UCSXDIR
 10
1.0
 20
0.0
 30
0.0
  9
$UCSYDIR
 10
0.0
 20
1.0
 30
0.0
  9
$UCSORTHOREF
  2

  9
$UCSORTHOVIEW
 70
     0
  9
$UCSORGTOP
 10
0.0
 20
0.0
 30
0.0
  9
$UCSORGBOTTOM
 10
0.0
 20
0.0
 30
0.0
  9
$UCSORGLEFT
 10
0.0
 20
0.0
 30
0.0
  9
$UCSORGRIGHT
 10
0.0
 20
0.0
 30
0.0
  9
$UCSORGFRONT
 10
0.0
 20
0.0
 30
0.0
  9
$UCSORGBACK
 10
0.0
 20
0.0
 30
0.0
  9
$PUCSBASE
  2

  9
$PUCSNAME
  2

  9
$PUCSORG
 10
0.0
 20
0.0
 30
0.0
  9
$PUCSXDIR
 10
1.0
 20
0.0
 30
0.0
  9
$PUCSYDIR
 10
0.0
 20
1.0
 30
0.0
  9
$PUCSORTHOREF
  2

  9
$PUCSORTHOVIEW
 70
     0
  9
$PUCSORGTOP
 10
0.0
 20
0.0
 30
0.0
  9
$PUCSORGBOTTOM
 10
0.0
 20
0.0
 30
0.0
  9
$PUCSORGLEFT
 10
0.0
 20
0.0
 30
0.0
  9
$PUCSORGRIGHT
 10
0.0
 20
0.0
 30
0.0
  9
$PUCSORGFRONT
 10
0.0
 20
0.0
 30
0.0
  9
$PUCSORGBACK
 10
0.0
 20
0.0
 30
0.0
  9
$USERI1
 70
     0
  9
$USERI2
 70
     0
  9
$USERI3
 70
     0
  9
$USERI4
 70
     0
  9
$USERI5
 70
     0
  9
$USERR1
 40
0.0
  9
$USERR2
 40
0.0
  9
$USERR3
 40
0.0
  9
$USERR4
 40
0.0
  9
$USERR5
 40
0.0
  9
$WORLDVIEW
 70
     1
  9
$SHADEDGE
 70
     3
  9
$SHADEDIF
 70
    70
  9
$TILEMODE
 70
     1
  9
$MAXACTVP
 70
    64
  9
$PINSBASE
 10
0.0
 20
0.0
 30
0.0
  9
$PLIMCHECK
 70
     0
  9
$PEXTMIN
 10
1.000000000000000E+20
 20
1.000000000000000E+20
 30
1.000000000000000E+20
  9
$PEXTMAX
 10
-1.000000000000000E+20
 20
-1.000000000000000E+20
 30
-1.000000000000000E+20
  9
$PLIMMIN
 10
0.0
 20
0.0
  9
$PLIMMAX
 10
12.0
 20
9.0
  9
$UNITMODE
 70
     0
  9
$VISRETAIN
 70
     1
  9
$PLINEGEN
 70
     0
  9
$PSLTSCALE
 70
     1
  9
$TREEDEPTH
 70
  3020
  9
$CMLSTYLE
  2
Standard
  9
$CMLJUST
 70
     0
  9
$CMLSCALE
 40
1.0
  9
$PROXYGRAPHICS
 70
     1
  9
$MEASUREMENT
 70
     0
  9
$CELWEIGHT
370
    -1
  9
$ENDCAPS
280
     0
  9
$JOINSTYLE
280
     0
  9
$LWDISPLAY
290
     1
  9
$INSUNITS
 70
     4
  9
$HYPERLINKBASE
  1

  9
$STYLESHEET
  1

  9
$XEDIT
290
     1
  9
$CEPSNTYPE
380
     0
  9
$PSTYLEMODE
290
     1
  9
$FINGERPRINTGUID
  2
{FC38B693-1A06-FE47-9748-5EC1BAC0BF25}
  9
$VERSIONGUID
  2
{7755312B-8555-A34E-B43B-12805E36D27A}
  9
$EXTNAMES
290
     1
  9
$PSVPSCALE
 40
0.0
  9
$OLESTARTUP
290
     0
  9
$SORTENTS
280
   127
  9
$INDEXCTL
280
     0
  9
$HIDETEXT
280
     1
  9
$XCLIPFRAME
280
     2
  9
$HALOGAP
280
     0
  9
$OBSCOLOR
 70
   257
  9
$OBSLTYPE
280
     0
  9
$INTERSECTIONDISPLAY
280
     0
  9
$INTERSECTIONCOLOR
 70
   257
  9
$DIMASSOC
280
     2
  9
$PROJECTNAME
  1

  9
$CAMERADISPLAY
290
     0
  9
$LENSLENGTH
 40
50.0
  9
$CAMERAHEIGHT
 40
0.0
  9
$STEPSPERSEC
 40
2.0
  9
$STEPSIZE
 40
6.0
  9
$3DDWFPREC
 40
2.0
  9
$PSOLWIDTH
 40
0.25
  9
$PSOLHEIGHT
 40
4.0
  9
$LOFTANG1
 40
1.570796326794896
  9
$LOFTANG2
 40
1.570796326794896
  9
$LOFTMAG1
 40
0.0
  9
$LOFTMAG2
 40
0.0
  9
$LOFTPARAM
 70
     7
  9
$LOFTNORMALS
280
     1
  9
$LATITUDE
 40
37.795
  9
$LONGITUDE
 40
-122.394
  9
$NORTHDIRECTION
 40
0.0
  9
$TIMEZONE
 70
 -8000
  9
$LIGHTGLYPHDISPLAY
280
     1
  9
$TILEMODELIGHTSYNCH
280
     1
  9
$CMATERIAL
347
11
  9
$SOLIDHIST
280
     0
  9
$SHOWHIST
280
     1
  9
$DWFFRAME
280
     2
  9
$DGNFRAME
280
     0
  9
$REALWORLDSCALE
290
     1
  9
$INTERFERECOLOR
 62
     1
  9
$INTERFEREOBJVS
345
33
  9
$INTERFEREVPVS
346
30
  9
$CSHADOW
280
     0
  9
$SHADOWPLANELOCATION
 40
0.0
  0
ENDSEC
  0
SECTION
  2
CLASSES
  0
CLASS
  1
ACDBDICTIONARYWDFLT
  2
AcDbDictionaryWithDefault
  3
ObjectDBX Classes
 90
        0
 91
        1
280
     0
281
     0
  0
CLASS
  1
MATERIAL
  2
AcDbMaterial
  3
ObjectDBX Classes
 90
     1153
 91
        3
280
     0
281
     0
  0
CLASS
  1
VISUALSTYLE
  2
AcDbVisualStyle
  3
ObjectDBX Classes
 90
     4095
 91
       24
280
     0
281
     0
  0
CLASS
  1
SCALE
  2
AcDbScale
  3
ObjectDBX Classes
 90
     1153
 91
       17
280
     0
281
     0
  0
CLASS
  1
TABLESTYLE
  2
AcDbTableStyle
  3
ObjectDBX Classes
 90
     4095
 91
        1
280
     0
281
     0
  0
CLASS
  1
MLEADERSTYLE
  2
AcDbMLeaderStyle
  3
ACDB_MLEADERSTYLE_CLASS
 90
     4095
 91
        1
280
     0
281
     0
  0
CLASS
  1
ACDBSECTIONVIEWSTYLE
  2
AcDbSectionViewStyle
  3
ObjectDBX Classes
 90
     1025
 91
        1
280
     0
281
     0
  0
CLASS
  1
ACDBDETAILVIEWSTYLE
  2
AcDbDetailViewStyle
  3
ObjectDBX Classes
 90
     1025
 91
        1
280
     0
281
     0
  0
CLASS
  1
DICTIONARYVAR
  2
AcDbDictionaryVar
  3
ObjectDBX Classes
 90
        0
 91
        5
280
     0
281
     0
  0
CLASS
  1
CELLSTYLEMAP
  2
AcDbCellStyleMap
  3
ObjectDBX Classes
 90
     1152
 91
        1
280
     0
281
     0
  0
ENDSEC
  0
SECTION
  2
TABLES
  0
TABLE
  2
VPORT
  5
8
330
0
100
AcDbSymbolTable
 70
     1
  0
VPORT
  5
57
330
8
100
AcDbSymbolTableRecord
100
AcDbViewportTableRecord
  2
*Active
 70
     0
 10
0.0
 20
0.0
 11
1.0
 21
1.0
 12
0.0
 22
0.0
 13
0.0
 23
0.0
 14
1.0
 24
1.0
 15
0.0
 25
0.0
 16
0.0
 26
0.0
 36
1.0
 17
225.0000043518447
 27
174.9999985999132
 37
0.0
 40
356.999997143823
 41
1.285714320868321
 42
50.0
 43
0.0
 44
0.0
 50
0.0
 51
0.0
 71
     0
 72
   100
 73
     1
 74
     0
 75
     1
 76
     0
 77
     0
 78
     0
281
     0
 65
     1
110
0.0
120
0.0
130
0.0
111
1.0
121
0.0
131
0.0
112
0.0
122
1.0
132
0.0
 79
     0
146
0.0
 60
     3
 61
     5
292
     1
282
     1
141
0.0
142
0.0
 63
   250
421
  3355443
  0
ENDTAB
  0
TABLE
  2
LTYPE
  5
5
330
0
100
AcDbSymbolTable
 70
     1
  0
LTYPE
  5
5B
330
5
100
AcDbSymbolTableRecord
100
AcDbLinetypeTableRecord
  2
ByBlock
 70
     0
  3

 72
    65
 73
     0
 40
0.0
  0
LTYPE
  5
5C
330
5
100
AcDbSymbolTableRecord
100
AcDbLinetypeTableRecord
  2
ByLayer
 70
     0
  3

 72
    65
 73
     0
 40
0.0
  0
LTYPE
  5
5D
330
5
100
AcDbSymbolTableRecord
100
AcDbLinetypeTableRecord
  2
Continuous
 70
     0
  3
Solid line
 72
    65
 73
     0
 40
0.0
  0
ENDTAB
  0
TABLE
  2
LAYER
  5
2
330
0
100
AcDbSymbolTable
 70
     2
  0
LAYER
  5
54
330
2
100
AcDbSymbolTableRecord
100
AcDbLayerTableRecord
  2
0
 70
     0
 62
     7
  6
Continuous
370
    -3
390
F
347
21
348
0
  0
LAYER
  5
78
330
2
100
AcDbSymbolTableRecord
100
AcDbLayerTableRecord
  2
Livello 1
 70
     0
 62
     7
  6
Continuous
370
     0
390
F
347
21
348
0
  0
ENDTAB
  0
TABLE
  2
STYLE
  5
3
330
0
100
AcDbSymbolTable
 70
     2
  0
STYLE
  5
55
330
3
100
AcDbSymbolTableRecord
100
AcDbTextStyleTableRecord
  2
Standard
 70
     0
 40
0.0
 41
1.0
 50
0.0
 71
     0
 42
0.2
  3
txt
  4

  0
STYLE
  5
5A
330
3
100
AcDbSymbolTableRecord
100
AcDbTextStyleTableRecord
  2
Annotative
 70
     0
 40
0.0
 41
1.0
 50
0.0
 71
     0
 42
0.2
  3
txt
  4

1001
AcadAnnotative
1000
AnnotativeData
1002
{
1070
     1
1070
     1
1002
}
  0
ENDTAB
  0
TABLE
  2
VIEW
  5
6
330
0
100
AcDbSymbolTable
 70
     0
  0
ENDTAB
  0
TABLE
  2
UCS
  5
7
330
0
100
AcDbSymbolTable
 70
     0
  0
ENDTAB
  0
TABLE
  2
APPID
  5
9
330
0
100
AcDbSymbolTable
 70
     2
  0
APPID
  5
56
330
9
100
AcDbSymbolTableRecord
100
AcDbRegAppTableRecord
  2
ACAD
 70
     0
  0
APPID
  5
5E
330
9
100
AcDbSymbolTableRecord
100
AcDbRegAppTableRecord
  2
AcadAnnotative
 70
     0
  0
ENDTAB
  0
TABLE
  2
DIMSTYLE
  5
A
330
0
100
AcDbSymbolTable
 70
     2
100
AcDbDimStyleTable
 71
     0
  0
DIMSTYLE
105
58
330
A
100
AcDbSymbolTableRecord
100
AcDbDimStyleTableRecord
  2
Standard
 70
     0
340
55
  0
DIMSTYLE
105
59
330
A
100
AcDbSymbolTableRecord
100
AcDbDimStyleTableRecord
  2
Annotative
 70
     0
340
55
1001
AcadAnnotative
1000
AnnotativeData
1002
{
1070
     1
1070
     1
1002
}
  0
ENDTAB
  0
TABLE
  2
BLOCK_RECORD
  5
1
330
0
100
AcDbSymbolTable
 70
     5
  0
BLOCK_RECORD
  5
70
330
1
100
AcDbSymbolTableRecord
100
AcDbBlockTableRecord
  2
*Model_Space
340
73
 70
     0
280
     1
281
     0
  0
BLOCK_RECORD
  5
6C
330
1
100
AcDbSymbolTableRecord
100
AcDbBlockTableRecord
  2
*Paper_Space
340
6F
 70
     0
280
     1
281
     0
  0
BLOCK_RECORD
  5
74
330
1
100
AcDbSymbolTableRecord
100
AcDbBlockTableRecord
  2
*Paper_Space0
340
77
 70
     0
280
     1
281
     0
  0
BLOCK_RECORD
  5
B3
330
1
100
AcDbSymbolTableRecord
100
AcDbBlockTableRecord
  2
Block_0
340
0
102
{BLKREFS
331
B4
102
}
 70
     0
280
     1
281
     0
  0
BLOCK_RECORD
  5
B7
330
1
100
AcDbSymbolTableRecord
100
AcDbBlockTableRecord
  2
Block_1
340
0
102
{BLKREFS
331
B8
102
}
 70
     0
280
     1
281
     0
  0
BLOCK_RECORD
  5
D3
330
1
100
AcDbSymbolTableRecord
100
AcDbBlockTableRecord
  2
Block_2
340
0
102
{BLKREFS
331
D4
102
}
 70
     0
280
     1
281
     0
  0
BLOCK_RECORD
  5
D7
330
1
100
AcDbSymbolTableRecord
100
AcDbBlockTableRecord
  2
Block_3
340
0
102
{BLKREFS
331
D8
102
}
 70
     0
280
     1
281
     0
  0
ENDTAB
  0
ENDSEC
  0
SECTION
  2
BLOCKS
  0
BLOCK
  5
71
330
70
100
AcDbEntity
  8
0
100
AcDbBlockBegin
  2
*Model_Space
 70
     0
 10
0.0
 20
0.0
 30
0.0
  3
*Model_Space
  1

  0
ENDBLK
  5
72
330
70
100
AcDbEntity
  8
0
100
AcDbBlockEnd
  0
BLOCK
  5
6D
330
6C
100
AcDbEntity
 67
     1
  8
0
100
AcDbBlockBegin
  2
*Paper_Space
 70
     0
 10
0.0
 20
0.0
 30
0.0
  3
*Paper_Space
  1

  0
ENDBLK
  5
6E
330
6C
100
AcDbEntity
 67
     1
  8
0
100
AcDbBlockEnd
  0
BLOCK
  5
75
330
74
100
AcDbEntity
 67
     1
  8
0
100
AcDbBlockBegin
  2
*Paper_Space0
 70
     0
 10
0.0
 20
0.0
 30
0.0
  3
*Paper_Space0
  1

  0
ENDBLK
  5
76
330
74
100
AcDbEntity
 67
     1
  8
0
100
AcDbBlockEnd
  0
BLOCK
  5
B5
330
B3
100
AcDbEntity
  8
0
100
AcDbBlockBegin
  2
Block_0
 70
     0
 10
0.0
 20
0.0
 30
0.0
  3
Block_0
  1

  0
INSERT
  5
B8
330
B3
100
AcDbEntity
  8
Livello 1
100
AcDbBlockReference
  2
Block_1
 10
0.0
 20
0.0
 30
0.0
  0
ENDBLK
  5
B6
330
B3
100
AcDbEntity
  8
0
100
AcDbBlockEnd
  0
BLOCK
  5
B9
330
B7
100
AcDbEntity
  8
0
100
AcDbBlockBegin
  2
Block_1
 70
     0
 10
0.0
 20
0.0
 30
0.0
  3
Block_1
  1

  0
SPLINE
  5
BB
330
B7
100
AcDbEntity
  8
Livello 1
100
AcDbSpline
210
0.0
220
0.0
230
1.0
 70
    11
 71
     3
 72
    32
 73
    28
 74
     0
 42
0.0000000001
 43
0.0000000001
 40
0.0
 40
0.0
 40
0.0
 40
0.0
 40
1.0
 40
1.0
 40
1.0
 40
2.0
 40
2.0
 40
2.0
 40
3.0
 40
3.0
 40
3.0
 40
4.0
 40
4.0
 40
4.0
 40
5.0
 40
5.0
 40
5.0
 40
6.0
 40
6.0
 40
6.0
 40
7.0
 40
7.0
 40
7.0
 40
8.0
 40
8.0
 40
8.0
 40
9.0
 40
9.0
 40
9.0
 40
9.0
 10
216.6090005968894
 20
229.1412244435828
 30
0.0
 10
216.6090005968894
 20
229.1412244435828
 30
0.0
 10
216.6090005968894
 20
228.5211072562378
 30
0.0
 10
216.6090005968894
 20
228.5211072562378
 30
0.0
 10
216.6090005968894
 20
228.5211072562378
 30
0.0
 10
212.6574760753079
 20
228.5211072562378
 30
0.0
 10
212.6574760753079
 20
228.5211072562378
 30
0.0
 10
212.8001030283972
 20
228.3717623669522
 30
0.0
 10
212.942385471938
 20
228.17608094339
 30
0.0
 10
213.0846679154788
 20
227.9337184760027
 30
0.0
 10
213.2272948685682
 20
227.6913560086154
 30
0.0
 10
213.3340928286109
 20
227.4737982287219
 30
0.0
 10
213.4050617956071
 20
227.2808728815479
 30
0.0
 10
213.4050617956071
 20
227.2808728815479
 30
0.0
 10
212.8056151811736
 20
227.2808728815479
 30
0.0
 10
212.8056151811736
 20
227.2808728815479
 30
0.0
 10
212.6426621647213
 20
227.6276217421382
 30
0.0
 10
212.4452581934165
 20
227.9307901448402
 30
0.0
 10
212.2130587577106
 20
228.1903780896538
 30
0.0
 10
211.9812038315533
 20
228.4499660344674
 30
0.0
 10
211.7562390963665
 20
228.6335896238312
 30
0.0
 10
211.5378200426016
 20
228.7415933672938
 30
0.0
 10
211.5378200426016
 20
228.7415933672938
 30
0.0
 10
211.5378200426016
 20
229.1412244435828
 30
0.0
 10
211.5378200426016
 20
229.1412244435828
 30
0.0
 10
211.5378200426016
 20
229.1412244435828
 30
0.0
 10
216.6090005968894
 20
229.1412244435828
 30
0.0
 10
216.6090005968894
 20
229.1412244435828
 30
0.0
  0
HATCH
  5
BC
330
B7
100
AcDbEntity
  8
Livello 1
 62
   144
420
  1404587
440
 33554687
100
AcDbHatch
 10
0.0
 20
0.0
 30
0.0
210
0.0
220
0.0
230
1.0
  2
SOLID
 70
     1
 71
     1
 91
        1
 92
        1
 93
        1
 72
     4
 94
        3
 73
     0
 74
     0
 95
       32
 96
       28
 40
0.0
 40
0.0
 40
0.0
 40
0.0
 40
1.0
 40
1.0
 40
1.0
 40
2.0
 40
2.0
 40
2.0
 40
3.0
 40
3.0
 40
3.0
 40
4.0
 40
4.0
 40
4.0
 40
5.0
 40
5.0
 40
5.0
 40
6.0
 40
6.0
 40
6.0
 40
7.0
 40
7.0
 40
7.0
 40
8.0
 40
8.0
 40
8.0
 40
9.0
 40
9.0
 40
9.0
 40
9.0
 10
216.6090005968894
 20
229.1412244435828
 10
216.6090005968894
 20
229.1412244435828
 10
216.6090005968894
 20
228.5211072562378
 10
216.6090005968894
 20
228.5211072562378
 10
216.6090005968894
 20
228.5211072562378
 10
212.6574760753079
 20
228.5211072562378
 10
212.6574760753079
 20
228.5211072562378
 10
212.8001030283972
 20
228.3717623669522
 10
212.942385471938
 20
228.17608094339
 10
213.0846679154788
 20
227.9337184760027
 10
213.2272948685682
 20
227.6913560086154
 10
213.3340928286109
 20
227.4737982287219
 10
213.4050617956071
 20
227.2808728815479
 10
213.4050617956071
 20
227.2808728815479
 10
212.8056151811736
 20
227.2808728815479
 10
212.8056151811736
 20
227.2808728815479
 10
212.6426621647213
 20
227.6276217421382
 10
212.4452581934165
 20
227.9307901448402
 10
212.2130587577106
 20
228.1903780896538
 10
211.9812038315533
 20
228.4499660344674
 10
211.7562390963665
 20
228.6335896238312
 10
211.5378200426016
 20
228.7415933672938
 10
211.5378200426016
 20
228.7415933672938
 10
211.5378200426016
 20
229.1412244435828
 10
211.5378200426016
 20
229.1412244435828
 10
211.5378200426016
 20
229.1412244435828
 10
216.6090005968894
 20
229.1412244435828
 10
216.6090005968894
 20
229.1412244435828
 97
        0
 97
        1
330
BB
 75
     2
 76
     1
 98
        1
 10
0.0
 20
0.0
450
        0
451
        0
460
0.0
461
0.0
452
        0
462
0.0
453
        0
470

  0
SPLINE
  5
BD
330
B7
100
AcDbEntity
  8
Livello 1
100
AcDbSpline
210
0.0
220
0.0
230
1.0
 70
    11
 71
     3
 72
    14
 73
    10
 74
     0
 42
0.0000000001
 43
0.0000000001
 40
0.0
 40
0.0
 40
0.0
 40
0.0
 40
1.0
 40
1.0
 40
1.0
 40
2.0
 40
2.0
 40
2.0
 40
3.0
 40
3.0
 40
3.0
 40
3.0
 10
214.8313313265005
 20
232.7172335572721
 30
0.0
 10
214.8313313265005
 20
232.7172335572721
 30
0.0
 10
212.5541232107504
 20
232.7172335572721
 30
0.0
 10
212.5541232107504
 20
232.7172335572721
 30
0.0
 10
212.5541232107504
 20
232.7172335572721
 30
0.0
 10
214.8313313265005
 20
231.1359347295424
 30
0.0
 10
214.8313313265005
 20
231.1359347295424
 30
0.0
 10
214.8313313265005
 20
231.1359347295424
 30
0.0
 10
214.8313313265005
 20
232.7172335572721
 30
0.0
 10
214.8313313265005
 20
232.7172335572721
 30
0.0
  0
SPLINE
  5
BE
330
B7
100
AcDbEntity
  8
Livello 1
100
AcDbSpline
210
0.0
220
0.0
230
1.0
 70
    11
 71
     3
 72
    38
 73
    34
 74
     0
 42
0.0000000001
 43
0.0000000001
 40
0.0
 40
0.0
 40
0.0
 40
0.0
 40
1.0
 40
1.0
 40
1.0
 40
2.0
 40
2.0
 40
2.0
 40
3.0
 40
3.0
 40
3.0
 40
4.0
 40
4.0
 40
4.0
 40
5.0
 40
5.0
 40
5.0
 40
6.0
 40
6.0
 40
6.0
 40
7.0
 40
7.0
 40
7.0
 40
8.0
 40
8.0
 40
8.0
 40
9.0
 40
9.0
 40
9.0
 40
10.0
 40
10.0
 40
10.0
 40
11.0
 40
11.0
 40
11.0
 40
11.0
 10
216.6090005968894
 20
232.7172335572721
 30
0.0
 10
216.6090005968894
 20
232.7172335572721
 30
0.0
 10
215.3997720815667
 20
232.7172335572721
 30
0.0
 10
215.3997720815667
 20
232.7172335572721
 30
0.0
 10
215.3997720815667
 20
232.7172335572721
 30
0.0
 10
215.3997720815667
 20
230.5261528286532
 30
0.0
 10
215.3997720815667
 20
230.5261528286532
 30
0.0
 10
215.3997720815667
 20
230.5261528286532
 30
0.0
 10
214.8313313265005
 20
230.5261528286532
 30
0.0
 10
214.8313313265005
 20
230.5261528286532
 30
0.0
 10
214.8313313265005
 20
230.5261528286532
 30
0.0
 10
211.5584906155131
 20
232.8309217082853
 30
0.0
 10
211.5584906155131
 20
232.8309217082853
 30
0.0
 10
211.5584906155131
 20
232.8309217082853
 30
0.0
 10
211.5584906155131
 20
233.3373507446171
 30
0.0
 10
211.5584906155131
 20
233.3373507446171
 30
0.0
 10
211.5584906155131
 20
233.3373507446171
 30
0.0
 10
214.8313313265005
 20
233.3373507446171
 30
0.0
 10
214.8313313265005
 20
233.3373507446171
 30
0.0
 10
214.8313313265005
 20
233.3373507446171
 30
0.0
 10
214.8313313265005
 20
234.0194796506965
 30
0.0
 10
214.8313313265005
 20
234.0194796506965
 30
0.0
 10
214.8313313265005
 20
234.0194796506965
 30
0.0
 10
215.3997720815667
 20
234.0194796506965
 30
0.0
 10
215.3997720815667
 20
234.0194796506965
 30
0.0
 10
215.3997720815667
 20
234.0194796506965
 30
0.0
 10
215.3997720815667
 20
233.3373507446171
 30
0.0
 10
215.3997720815667
 20
233.3373507446171
 30
0.0
 10
215.3997720815667
 20
233.3373507446171
 30
0.0
 10
216.6090005968894
 20
233.3373507446171
 30
0.0
 10
216.6090005968894
 20
233.3373507446171
 30
0.0
 10
216.6090005968894
 20
233.3373507446171
 30
0.0
 10
216.6090005968894
 20
232.7172335572721
 30
0.0
 10
216.6090005968894
 20
232.7172335572721
 30
0.0
  0
HATCH
  5
BF
330
B7
100
AcDbEntity
  8
Livello 1
 62
   144
420
  1404587
440
 33554687
100
AcDbHatch
 10
0.0
 20
0.0
 30
0.0
210
0.0
220
0.0
230
1.0
  2
SOLID
 70
     1
 71
     1
 91
        2
 92
        1
 93
        1
 72
     4
 94
        3
 73
     0
 74
     0
 95
       14
 96
       10
 40
0.0
 40
0.0
 40
0.0
 40
0.0
 40
1.0
 40
1.0
 40
1.0
 40
2.0
 40
2.0
 40
2.0
 40
3.0
 40
3.0
 40
3.0
 40
3.0
 10
214.8313313265005
 20
232.7172335572721
 10
214.8313313265005
 20
232.7172335572721
 10
212.5541232107504
 20
232.7172335572721
 10
212.5541232107504
 20
232.7172335572721
 10
212.5541232107504
 20
232.7172335572721
 10
214.8313313265005
 20
231.1359347295424
 10
214.8313313265005
 20
231.1359347295424
 10
214.8313313265005
 20
231.1359347295424
 10
214.8313313265005
 20
232.7172335572721
 10
214.8313313265005
 20
232.7172335572721
 97
        0
 97
        1
330
BD
 92
        1
 93
        1
 72
     4
 94
        3
 73
     0
 74
     0
 95
       38
 96
       34
 40
0.0
 40
0.0
 40
0.0
 40
0.0
 40
1.0
 40
1.0
 40
1.0
 40
2.0
 40
2.0
 40
2.0
 40
3.0
 40
3.0
 40
3.0
 40
4.0
 40
4.0
 40
4.0
 40
5.0
 40
5.0
 40
5.0
 40
6.0
 40
6.0
 40
6.0
 40
7.0
 40
7.0
 40
7.0
 40
8.0
 40
8.0
 40
8.0
 40
9.0
 40
9.0
 40
9.0
 40
10.0
 40
10.0
 40
10.0
 40
11.0
 40
11.0
 40
11.0
 40
11.0
 10
216.6090005968894
 20
232.7172335572721
 10
216.6090005968894
 20
232.7172335572721
 10
215.3997720815667
 20
232.7172335572721
 10
215.3997720815667
 20
232.7172335572721
 10
215.3997720815667
 20
232.7172335572721
 10
215.3997720815667
 20
230.5261528286532
 10
215.3997720815667
 20
230.5261528286532
 10
215.3997720815667
 20
230.5261528286532
 10
214.8313313265005
 20
230.5261528286532
 10
214.8313313265005
 20
230.5261528286532
 10
214.8313313265005
 20
230.5261528286532
 10
211.5584906155131
 20
232.8309217082853
 10
211.5584906155131
 20
232.8309217082853
 10
211.5584906155131
 20
232.8309217082853
 10
211.5584906155131
 20
233.3373507446171
 10
211.5584906155131
 20
233.3373507446171
 10
211.5584906155131
 20
233.3373507446171
 10
214.8313313265005
 20
233.3373507446171
 10
214.8313313265005
 20
233.3373507446171
 10
214.8313313265005
 20
233.3373507446171
 10
214.8313313265005
 20
234.0194796506965
 10
214.8313313265005
 20
234.0194796506965
 10
214.8313313265005
 20
234.0194796506965
 10
215.3997720815667
 20
234.0194796506965
 10
215.3997720815667
 20
234.0194796506965
 10
215.3997720815667
 20
234.0194796506965
 10
215.3997720815667
 20
233.3373507446171
 10
215.3997720815667
 20
233.3373507446171
 10
215.3997720815667
 20
233.3373507446171
 10
216.6090005968894
 20
233.3373507446171
 10
216.6090005968894
 20
233.3373507446171
 10
216.6090005968894
 20
233.3373507446171
 10
216.6090005968894
 20
232.7172335572721
 10
216.6090005968894
 20
232.7172335572721
 97
        0
 97
        1
330
BE
 75
     2
 76
     1
 98
        1
 10
0.0
 20
0.0
450
        0
451
        0
460
0.0
461
0.0
452
        0
462
0.0
453
        0
470

  0
SPLINE
  5
C0
330
B7
100
AcDbEntity
  8
Livello 1
100
AcDbSpline
210
0.0
220
0.0
230
1.0
 70
    11
 71
     3
 72
    32
 73
    28
 74
     0
 42
0.0000000001
 43
0.0000000001
 40
0.0
 40
0.0
 40
0.0
 40
0.0
 40
1.0
 40
1.0
 40
1.0
 40
2.0
 40
2.0
 40
2.0
 40
3.0
 40
3.0
 40
3.0
 40
4.0
 40
4.0
 40
4.0
 40
5.0
 40
5.0
 40
5.0
 40
6.0
 40
6.0
 40
6.0
 40
7.0
 40
7.0
 40
7.0
 40
8.0
 40
8.0
 40
8.0
 40
9.0
 40
9.0
 40
9.0
 40
9.0
 10
216.6090005968894
 20
236.9891519589819
 30
0.0
 10
216.6090005968894
 20
236.9891519589819
 30
0.0
 10
216.6090005968894
 20
236.3690347716369
 30
0.0
 10
216.6090005968894
 20
236.3690347716369
 30
0.0
 10
216.6090005968894
 20
236.3690347716369
 30
0.0
 10
212.6574760753079
 20
236.3690347716369
 30
0.0
 10
212.6574760753079
 20
236.3690347716369
 30
0.0
 10
212.8001030283972
 20
236.2198621371256
 30
0.0
 10
212.942385471938
 20
236.0238362040149
 30
0.0
 10
213.0846679154788
 20
235.7816459914019
 30
0.0
 10
213.2272948685682
 20
235.5394557787887
 30
0.0
 10
213.3340928286109
 20
235.321725744121
 30
0.0
 10
213.4050617956071
 20
235.128800396947
 30
0.0
 10
213.4050617956071
 20
235.128800396947
 30
0.0
 10
212.8056151811736
 20
235.128800396947
 30
0.0
 10
212.8056151811736
 20
235.128800396947
 30
0.0
 10
212.6426621647213
 20
235.4757215123116
 30
0.0
 10
212.4452581934165
 20
235.7788899150136
 30
0.0
 10
212.2130587577106
 20
236.0383056050529
 30
0.0
 10
211.9812038315533
 20
236.2977212950923
 30
0.0
 10
211.7562390963665
 20
236.4816893940046
 30
0.0
 10
211.5378200426016
 20
236.5895208826929
 30
0.0
 10
211.5378200426016
 20
236.5895208826929
 30
0.0
 10
211.5378200426016
 20
236.9891519589819
 30
0.0
 10
211.5378200426016
 20
236.9891519589819
 30
0.0
 10
211.5378200426016
 20
236.9891519589819
 30
0.0
 10
216.6090005968894
 20
236.9891519589819
 30
0.0
 10
216.6090005968894
 20
236.9891519589819
 30
0.0
  0
HATCH
  5
C1
330
B7
100
AcDbEntity
  8
Livello 1
 62
   144
420
  1404587
440
 33554687
100
AcDbHatch
 10
0.0
 20
0.0
 30
0.0
210
0.0
220
0.0
230
1.0
  2
SOLID
 70
     1
 71
     1
 91
        1
 92
        1
 93
        1
 72
     4
 94
        3
 73
     0
 74
     0
 95
       32
 96
       28
 40
0.0
 40
0.0
 40
0.0
 40
0.0
 40
1.0
 40
1.0
 40
1.0
 40
2.0
 40
2.0
 40
2.0
 40
3.0
 40
3.0
 40
3.0
 40
4.0
 40
4.0
 40
4.0
 40
5.0
 40
5.0
 40
5.0
 40
6.0
 40
6.0
 40
6.0
 40
7.0
 40
7.0
 40
7.0
 40
8.0
 40
8.0
 40
8.0
 40
9.0
 40
9.0
 40
9.0
 40
9.0
 10
216.6090005968894
 20
236.9891519589819
 10
216.6090005968894
 20
236.9891519589819
 10
216.6090005968894
 20
236.3690347716369
 10
216.6090005968894
 20
236.3690347716369
 10
216.6090005968894
 20
236.3690347716369
 10
212.6574760753079
 20
236.3690347716369
 10
212.6574760753079
 20
236.3690347716369
 10
212.8001030283972
 20
236.2198621371256
 10
212.942385471938
 20
236.0238362040149
 10
213.0846679154788
 20
235.7816459914019
 10
213.2272948685682
 20
235.5394557787887
 10
213.3340928286109
 20
235.321725744121
 10
213.4050617956071
 20
235.128800396947
 10
213.4050617956071
 20
235.128800396947
 10
212.8056151811736
 20
235.128800396947
 10
212.8056151811736
 20
235.128800396947
 10
212.6426621647213
 20
235.4757215123116
 10
212.4452581934165
 20
235.7788899150136
 10
212.2130587577106
 20
236.0383056050529
 10
211.9812038315533
 20
236.2977212950923
 10
211.7562390963665
 20
236.4816893940046
 10
211.5378200426016
 20
236.5895208826929
 10
211.5378200426016
 20
236.5895208826929
 10
211.5378200426016
 20
236.9891519589819
 10
211.5378200426016
 20
236.9891519589819
 10
211.5378200426016
 20
236.9891519589819
 10
216.6090005968894
 20
236.9891519589819
 10
216.6090005968894
 20
236.9891519589819
 97
        0
 97
        1
330
C0
 75
     2
 76
     1
 98
        1
 10
0.0
 20
0.0
450
        0
451
        0
460
0.0
461
0.0
452
        0
462
0.0
453
        0
470

  0
SPLINE
  5
C2
330
B7
100
AcDbEntity
  8
Livello 1
100
AcDbSpline
210
0.0
220
0.0
230
1.0
 70
    11
 71
     3
 72
    17
 73
    13
 74
     0
 42
0.0000000001
 43
0.0000000001
 40
0.0
 40
0.0
 40
0.0
 40
0.0
 40
1.0
 40
1.0
 40
1.0
 40
2.0
 40
2.0
 40
2.0
 40
3.0
 40
3.0
 40
3.0
 40
4.0
 40
4.0
 40
4.0
 40
4.0
 10
216.6090005968894
 20
238.9252956216923
 30
0.0
 10
216.6090005968894
 20
238.9252956216923
 30
0.0
 10
215.9027560224132
 20
238.9252956216923
 30
0.0
 10
215.9027560224132
 20
238.9252956216923
 30
0.0
 10
215.9027560224132
 20
238.9252956216923
 30
0.0
 10
215.9027560224132
 20
239.6315401961685
 30
0.0
 10
215.9027560224132
 20
239.6315401961685
 30
0.0
 10
215.9027560224132
 20
239.6315401961685
 30
0.0
 10
216.6090005968894
 20
239.6315401961685
 30
0.0
 10
216.6090005968894
 20
239.6315401961685
 30
0.0
 10
216.6090005968894
 20
239.6315401961685
 30
0.0
 10
216.6090005968894
 20
238.9252956216923
 30
0.0
 10
216.6090005968894
 20
238.9252956216923
 30
0.0
  0
HATCH
  5
C3
330
B7
100
AcDbEntity
  8
Livello 1
 62
   144
420
  1404587
440
 33554687
100
AcDbHatch
 10
0.0
 20
0.0
 30
0.0
210
0.0
220
0.0
230
1.0
  2
SOLID
 70
     1
 71
     1
 91
        1
 92
        1
 93
        1
 72
     4
 94
        3
 73
     0
 74
     0
 95
       17
 96
       13
 40
0.0
 40
0.0
 40
0.0
 40
0.0
 40
1.0
 40
1.0
 40
1.0
 40
2.0
 40
2.0
 40
2.0
 40
3.0
 40
3.0
 40
3.0
 40
4.0
 40
4.0
 40
4.0
 40
4.0
 10
216.6090005968894
 20
238.9252956216923
 10
216.6090005968894
 20
238.9252956216923
 10
215.9027560224132
 20
238.9252956216923
 10
215.9027560224132
 20
238.9252956216923
 10
215.9027560224132
 20
238.9252956216923
 10
215.9027560224132
 20
239.6315401961685
 10
215.9027560224132
 20
239.6315401961685
 10
215.9027560224132
 20
239.6315401961685
 10
216.6090005968894
 20
239.6315401961685
 10
216.6090005968894
 20
239.6315401961685
 10
216.6090005968894
 20
239.6315401961685
 10
216.6090005968894
 20
238.9252956216923
 10
216.6090005968894
 20
238.9252956216923
 97
        0
 97
        1
330
C2
 75
     2
 76
     1
 98
        1
 10
0.0
 20
0.0
450
        0
451
        0
460
0.0
461
0.0
452
        0
462
0.0
453
        0
470

  0
SPLINE
  5
C4
330
B7
100
AcDbEntity
  8
Livello 1
100
AcDbSpline
210
0.0
220
0.0
230
1.0
 70
     9
 71
     3
 72
    29
 73
    25
 74
     0
 42
0.0000000001
 43
0.0000000001
 40
0.0
 40
0.0
 40
0.0
 40
0.0
 40
1.0
 40
1.0
 40
1.0
 40
2.0
 40
2.0
 40
2.0
 40
3.0
 40
3.0
 40
3.0
 40
4.0
 40
4.0
 40
4.0
 40
5.0
 40
5.0
 40
5.0
 40
6.0
 40
6.0
 40
6.0
 40
7.0
 40
7.0
 40
7.0
 40
8.0
 40
8.0
 40
8.0
 40
8.0
 10
214.1181965610538
 20
241.1749429735604
 30
0.0
 10
214.9474310443534
 20
241.1749429735604
 30
0.0
 10
215.4993353410905
 20
241.2720946662445
 30
0.0
 10
215.7735649417163
 20
241.4660535420641
 30
0.0
 10
216.0481390518908
 20
241.6600124178836
 30
0.0
 10
216.1852538522037
 20
241.8994465541085
 30
0.0
 10
216.1852538522037
 20
242.1843559507387
 30
0.0
 10
216.1852538522037
 20
242.4692653473688
 30
0.0
 10
216.0474500327937
 20
242.7086994835937
 30
0.0
 10
215.7718423939737
 20
242.9026583594132
 30
0.0
 10
215.4962347551537
 20
243.0966172352328
 30
0.0
 10
214.9450194775138
 20
243.1937689279168
 30
0.0
 10
214.1181965610538
 20
243.1937689279168
 30
0.0
 10
213.286895020463
 20
243.1937689279168
 30
0.0
 10
212.7346462141774
 20
243.0966172352328
 30
0.0
 10
212.4611056326486
 20
242.9026583594132
 30
0.0
 10
212.1879095606683
 20
242.7086994835937
 30
0.0
 10
212.0511392699039
 20
242.4668537805291
 30
0.0
 10
212.0511392699039
 20
242.1774657597682
 30
0.0
 10
212.0511392699039
 20
241.892556363138
 30
0.0
 10
212.1717176118876
 20
241.6651800611115
 30
0.0
 10
212.4128742958551
 20
241.4953368536887
 30
0.0
 10
212.7208658322365
 20
241.2817409336032
 30
0.0
 10
213.2893065873027
 20
241.1749429735604
 30
0.0
 10
214.1181965610538
 20
241.1749429735604
 30
0.0
  0
SPLINE
  5
C5
330
B7
100
AcDbEntity
  8
Livello 1
100
AcDbSpline
210
0.0
220
0.0
230
1.0
 70
     9
 71
     3
 72
    41
 73
    37
 74
     0
 42
0.0000000001
 43
0.0000000001
 40
0.0
 40
0.0
 40
0.0
 40
0.0
 40
1.0
 40
1.0
 40
1.0
 40
2.0
 40
2.0
 40
2.0
 40
3.0
 40
3.0
 40
3.0
 40
4.0
 40
4.0
 40
4.0
 40
5.0
 40
5.0
 40
5.0
 40
6.0
 40
6.0
 40
6.0
 40
7.0
 40
7.0
 40
7.0
 40
8.0
 40
8.0
 40
8.0
 40
9.0
 40
9.0
 40
9.0
 40
10.0
 40
10.0
 40
10.0
 40
11.0
 40
11.0
 40
11.0
 40
12.0
 40
12.0
 40
12.0
 40
12.0
 10
214.1181965610538
 20
240.5376003087892
 30
0.0
 10
213.52116151346
 20
240.5376003087892
 30
0.0
 10
213.0405706932676
 20
240.5989230084267
 30
0.0
 10
212.6764241004767
 20
240.7219129172501
 30
0.0
 10
212.3126220172343
 20
240.8449028260735
 30
0.0
 10
212.0318467351865
 20
241.0274928867917
 30
0.0
 10
211.8340982543331
 20
241.2696830994048
 30
0.0
 10
211.6366942830283
 20
241.5118733120179
 30
0.0
 10
211.5378200426016
 20
241.8167642624625
 30
0.0
 10
211.5378200426016
 20
242.1843559507387
 30
0.0
 10
211.5378200426016
 20
242.4554849654278
 30
0.0
 10
211.5925970608171
 20
242.69319655391
 30
0.0
 10
211.701462078151
 20
242.8974907161854
 30
0.0
 10
211.8106716050335
 20
243.1017848784607
 30
0.0
 10
211.9681124687093
 20
243.2705945572379
 30
0.0
 10
212.1734401596303
 20
243.4039197525171
 30
0.0
 10
212.3791123600997
 20
243.5372449477963
 30
0.0
 10
212.6295708018774
 20
243.6416313409993
 30
0.0
 10
212.9244709754147
 20
243.7174234416748
 30
0.0
 10
213.2197156585006
 20
243.7932155423503
 30
0.0
 10
213.617624187047
 20
243.8311115926881
 30
0.0
 10
214.1181965610538
 20
243.8311115926881
 30
0.0
 10
214.7107529845168
 20
243.8311115926881
 30
0.0
 10
215.189276747418
 20
243.7701334025991
 30
0.0
 10
215.5530788306604
 20
243.6485215319698
 30
0.0
 10
215.9172254234513
 20
243.5269096613405
 30
0.0
 10
216.1986897245962
 20
243.3446641101708
 30
0.0
 10
216.3971272245465
 20
243.1024738975577
 30
0.0
 10
216.5959092340455
 20
242.8602836849447
 30
0.0
 10
216.6951279840207
 20
242.554014696306
 30
0.0
 10
216.6951279840207
 20
242.1843559507387
 30
0.0
 10
216.6951279840207
 20
241.6975639586728
 30
0.0
 10
216.520806152467
 20
241.3151583598101
 30
0.0
 10
216.1714734702627
 20
241.0371391541505
 30
0.0
 10
215.7511718210622
 20
240.7039984207268
 30
0.0
 10
215.0669758576916
 20
240.5376003087892
 30
0.0
 10
214.1181965610538
 20
240.5376003087892
 30
0.0
  0
HATCH
  5
C6
330
B7
100
AcDbEntity
  8
Livello 1
 62
   144
420
  1404587
440
 33554687
100
AcDbHatch
 10
0.0
 20
0.0
 30
0.0
210
0.0
220
0.0
230
1.0
  2
SOLID
 70
     1
 71
     1
 91
        2
 92
        1
 93
        1
 72
     4
 94
        3
 73
     0
 74
     0
 95
       29
 96
       25
 40
0.0
 40
0.0
 40
0.0
 40
0.0
 40
1.0
 40
1.0
 40
1.0
 40
2.0
 40
2.0
 40
2.0
 40
3.0
 40
3.0
 40
3.0
 40
4.0
 40
4.0
 40
4.0
 40
5.0
 40
5.0
 40
5.0
 40
6.0
 40
6.0
 40
6.0
 40
7.0
 40
7.0
 40
7.0
 40
8.0
 40
8.0
 40
8.0
 40
8.0
 10
214.1181965610538
 20
241.1749429735604
 10
214.9474310443534
 20
241.1749429735604
 10
215.4993353410905
 20
241.2720946662445
 10
215.7735649417163
 20
241.4660535420641
 10
216.0481390518908
 20
241.6600124178836
 10
216.1852538522037
 20
241.8994465541085
 10
216.1852538522037
 20
242.1843559507387
 10
216.1852538522037
 20
242.4692653473688
 10
216.0474500327937
 20
242.7086994835937
 10
215.7718423939737
 20
242.9026583594132
 10
215.4962347551537
 20
243.0966172352328
 10
214.9450194775138
 20
243.1937689279168
 10
214.1181965610538
 20
243.1937689279168
 10
213.286895020463
 20
243.1937689279168
 10
212.7346462141774
 20
243.0966172352328
 10
212.4611056326486
 20
242.9026583594132
 10
212.1879095606683
 20
242.7086994835937
 10
212.0511392699039
 20
242.4668537805291
 10
212.0511392699039
 20
242.1774657597682
 10
212.0511392699039
 20
241.892556363138
 10
212.1717176118876
 20
241.6651800611115
 10
212.4128742958551
 20
241.4953368536887
 10
212.7208658322365
 20
241.2817409336032
 10
213.2893065873027
 20
241.1749429735604
 10
214.1181965610538
 20
241.1749429735604
 97
        0
 97
        1
330
C4
 92
        1
 93
        1
 72
     4
 94
        3
 73
     0
 74
     0
 95
       41
 96
       37
 40
0.0
 40
0.0
 40
0.0
 40
0.0
 40
1.0
 40
1.0
 40
1.0
 40
2.0
 40
2.0
 40
2.0
 40
3.0
 40
3.0
 40
3.0
 40
4.0
 40
4.0
 40
4.0
 40
5.0
 40
5.0
 40
5.0
 40
6.0
 40
6.0
 40
6.0
 40
7.0
 40
7.0
 40
7.0
 40
8.0
 40
8.0
 40
8.0
 40
9.0
 40
9.0
 40
9.0
 40
10.0
 40
10.0
 40
10.0
 40
11.0
 40
11.0
 40
11.0
 40
12.0
 40
12.0
 40
12.0
 40
12.0
 10
214.1181965610538
 20
240.5376003087892
 10
213.52116151346
 20
240.5376003087892
 10
213.0405706932676
 20
240.5989230084267
 10
212.6764241004767
 20
240.7219129172501
 10
212.3126220172343
 20
240.8449028260735
 10
212.0318467351865
 20
241.0274928867917
 10
211.8340982543331
 20
241.2696830994048
 10
211.6366942830283
 20
241.5118733120179
 10
211.5378200426016
 20
241.8167642624625
 10
211.5378200426016
 20
242.1843559507387
 10
211.5378200426016
 20
242.4554849654278
 10
211.5925970608171
 20
242.69319655391
 10
211.701462078151
 20
242.8974907161854
 10
211.8106716050335
 20
243.1017848784607
 10
211.9681124687093
 20
243.2705945572379
 10
212.1734401596303
 20
243.4039197525171
 10
212.3791123600997
 20
243.5372449477963
 10
212.6295708018774
 20
243.6416313409993
 10
212.9244709754147
 20
243.7174234416748
 10
213.2197156585006
 20
243.7932155423503
 10
213.617624187047
 20
243.8311115926881
 10
214.1181965610538
 20
243.8311115926881
 10
214.7107529845168
 20
243.8311115926881
 10
215.189276747418
 20
243.7701334025991
 10
215.5530788306604
 20
243.6485215319698
 10
215.9172254234513
 20
243.5269096613405
 10
216.1986897245962
 20
243.3446641101708
 10
216.3971272245465
 20
243.1024738975577
 10
216.5959092340455
 20
242.8602836849447
 10
216.6951279840207
 20
242.554014696306
 10
216.6951279840207
 20
242.1843559507387
 10
216.6951279840207
 20
241.6975639586728
 10
216.520806152467
 20
241.3151583598101
 10
216.1714734702627
 20
241.0371391541505
 10
215.7511718210622
 20
240.7039984207268
 10
215.0669758576916
 20
240.5376003087892
 10
214.1181965610538
 20
240.5376003087892
 97
        0
 97
        1
330
C5
 75
     2
 76
     1
 98
        1
 10
0.0
 20
0.0
450
        0
451
        0
460
0.0
461
0.0
452
        0
462
0.0
453
        0
470

  0
SPLINE
  5
C7
330
B7
100
AcDbEntity
  8
Livello 1
100
AcDbSpline
210
0.0
220
0.0
230
1.0
 70
    11
 71
     3
 72
    89
 73
    85
 74
     0
 42
0.0000000001
 43
0.0000000001
 40
0.0
 40
0.0
 40
0.0
 40
0.0
 40
1.0
 40
1.0
 40
1.0
 40
2.0
 40
2.0
 40
2.0
 40
3.0
 40
3.0
 40
3.0
 40
4.0
 40
4.0
 40
4.0
 40
5.0
 40
5.0
 40
5.0
 40
6.0
 40
6.0
 40
6.0
 40
7.0
 40
7.0
 40
7.0
 40
8.0
 40
8.0
 40
8.0
 40
9.0
 40
9.0
 40
9.0
 40
10.0
 40
10.0
 40
10.0
 40
11.0
 40
11.0
 40
11.0
 40
12.0
 40
12.0
 40
12.0
 40
13.0
 40
13.0
 40
13.0
 40
14.0
 40
14.0
 40
14.0
 40
15.0
 40
15.0
 40
15.0
 40
16.0
 40
16.0
 40
16.0
 40
17.0
 40
17.0
 40
17.0
 40
18.0
 40
18.0
 40
18.0
 40
19.0
 40
19.0
 40
19.0
 40
20.0
 40
20.0
 40
20.0
 40
21.0
 40
21.0
 40
21.0
 40
22.0
 40
22.0
 40
22.0
 40
23.0
 40
23.0
 40
23.0
 40
24.0
 40
24.0
 40
24.0
 40
25.0
 40
25.0
 40
25.0
 40
26.0
 40
26.0
 40
26.0
 40
27.0
 40
27.0
 40
27.0
 40
28.0
 40
28.0
 40
28.0
 40
28.0
 10
216.6090005968894
 20
246.5940781718584
 30
0.0
 10
216.6090005968894
 20
246.5940781718584
 30
0.0
 10
212.9503091915541
 20
246.5940781718584
 30
0.0
 10
212.9503091915541
 20
246.5940781718584
 30
0.0
 10
212.9503091915541
 20
246.5940781718584
 30
0.0
 10
212.9503091915541
 20
247.1487385449837
 30
0.0
 10
212.9503091915541
 20
247.1487385449837
 30
0.0
 10
212.9503091915541
 20
247.1487385449837
 30
0.0
 10
213.4636284188563
 20
247.1487385449837
 30
0.0
 10
213.4636284188563
 20
247.1487385449837
 30
0.0
 10
213.2844834536233
 20
247.2634602246425
 30
0.0
 10
213.1404784623399
 20
247.4164224641876
 30
0.0
 10
213.0312689354575
 20
247.6069362445219
 30
0.0
 10
212.9224039181236
 20
247.7974500248562
 30
0.0
 10
212.8676268999081
 20
248.0144910404269
 30
0.0
 10
212.8676268999081
 20
248.2580592912341
 30
0.0
 10
212.8676268999081
 20
248.5291883059232
 30
0.0
 10
212.9241264658662
 20
248.7513969647219
 30
0.0
 10
213.0364365786853
 20
248.9246852676299
 30
0.0
 10
213.149091201053
 20
249.097973570538
 30
0.0
 10
213.3065320647289
 20
249.2202744602644
 30
0.0
 10
213.5084146601645
 20
249.2915879368091
 30
0.0
 10
213.0812228199936
 20
249.58097595757
 30
0.0
 10
212.8676268999081
 20
249.9575248941078
 30
0.0
 10
212.8676268999081
 20
250.421579255971
 30
0.0
 10
212.8676268999081
 20
250.7843478105678
 30
0.0
 10
212.9682236880774
 20
251.063400544873
 30
0.0
 10
213.1690727548675
 20
251.2587374588867
 30
0.0
 10
213.3702663312061
 20
251.4540743729004
 30
0.0
 10
213.6796359057815
 20
251.5515705751329
 30
0.0
 10
214.0975259881423
 20
251.5515705751329
 30
0.0
 10
214.0975259881423
 20
251.5515705751329
 30
0.0
 10
216.6090005968894
 20
251.5515705751329
 30
0.0
 10
216.6090005968894
 20
251.5515705751329
 30
0.0
 10
216.6090005968894
 20
251.5515705751329
 30
0.0
 10
216.6090005968894
 20
250.9348984832732
 30
0.0
 10
216.6090005968894
 20
250.9348984832732
 30
0.0
 10
216.6090005968894
 20
250.9348984832732
 30
0.0
 10
214.3042317172573
 20
250.9348984832732
 30
0.0
 10
214.3042317172573
 20
250.9348984832732
 30
0.0
 10
214.0561848423193
 20
250.9348984832732
 30
0.0
 10
213.8777288961834
 20
250.9149169294587
 30
0.0
 10
213.7685193693009
 20
250.8746093122814
 30
0.0
 10
213.659654351967
 20
250.8343016951039
 30
0.0
 10
213.5718044170932
 20
250.7616101803652
 30
0.0
 10
213.5049695646793
 20
250.655845748968
 30
0.0
 10
213.438479221814
 20
250.5500813175708
 30
0.0
 10
213.4050617956071
 20
250.4260578801019
 30
0.0
 10
213.4050617956071
 20
250.283775436561
 30
0.0
 10
213.4050617956071
 20
250.0264268038129
 30
0.0
 10
213.4908446731898
 20
249.8128308837274
 30
0.0
 10
213.6617214092582
 20
249.6429876763045
 30
0.0
 10
213.8329426548751
 20
249.4731444688817
 30
0.0
 10
214.1068277459525
 20
249.388050610396
 30
0.0
 10
214.4833766824903
 20
249.388050610396
 30
0.0
 10
214.4833766824903
 20
249.388050610396
 30
0.0
 10
216.6090005968894
 20
249.388050610396
 30
0.0
 10
216.6090005968894
 20
249.388050610396
 30
0.0
 10
216.6090005968894
 20
249.388050610396
 30
0.0
 10
216.6090005968894
 20
248.7679334230511
 30
0.0
 10
216.6090005968894
 20
248.7679334230511
 30
0.0
 10
216.6090005968894
 20
248.7679334230511
 30
0.0
 10
214.231884712067
 20
248.7679334230511
 30
0.0
 10
214.231884712067
 20
248.7679334230511
 30
0.0
 10
213.9562770732471
 20
248.7679334230511
 30
0.0
 10
213.7495713441321
 20
248.7172905194179
 30
0.0
 10
213.6117675247221
 20
248.6163492217001
 30
0.0
 10
213.4739637053121
 20
248.5154079239823
 30
0.0
 10
213.4050617956071
 20
248.3500433406903
 30
0.0
 10
213.4050617956071
 20
248.1202554718241
 30
0.0
 10
213.4050617956071
 20
247.9455891307219
 30
0.0
 10
213.4512260751094
 20
247.7843586620123
 30
0.0
 10
213.5428656150171
 20
247.6362195561465
 30
0.0
 10
213.6348496644732
 20
247.4880804502808
 30
0.0
 10
213.769208388398
 20
247.380593471141
 30
0.0
 10
213.9459417867913
 20
247.3141031282757
 30
0.0
 10
214.1230196947331
 20
247.2476127854103
 30
0.0
 10
214.3779567606416
 20
247.2141953592034
 30
0.0
 10
214.7107529845168
 20
247.2141953592034
 30
0.0
 10
214.7107529845168
 20
247.2141953592034
 30
0.0
 10
216.6090005968894
 20
247.2141953592034
 30
0.0
 10
216.6090005968894
 20
247.2141953592034
 30
0.0
 10
216.6090005968894
 20
247.2141953592034
 30
0.0
 10
216.6090005968894
 20
246.5940781718584
 30
0.0
 10
216.6090005968894
 20
246.5940781718584
 30
0.0
  0
HATCH
  5
C8
330
B7
100
AcDbEntity
  8
Livello 1
 62
   144
420
  1404587
440
 33554687
100
AcDbHatch
 10
0.0
 20
0.0
 30
0.0
210
0.0
220
0.0
230
1.0
  2
SOLID
 70
     1
 71
     1
 91
        1
 92
        1
 93
        1
 72
     4
 94
        3
 73
     0
 74
     0
 95
       89
 96
       85
 40
0.0
 40
0.0
 40
0.0
 40
0.0
 40
1.0
 40
1.0
 40
1.0
 40
2.0
 40
2.0
 40
2.0
 40
3.0
 40
3.0
 40
3.0
 40
4.0
 40
4.0
 40
4.0
 40
5.0
 40
5.0
 40
5.0
 40
6.0
 40
6.0
 40
6.0
 40
7.0
 40
7.0
 40
7.0
 40
8.0
 40
8.0
 40
8.0
 40
9.0
 40
9.0
 40
9.0
 40
10.0
 40
10.0
 40
10.0
 40
11.0
 40
11.0
 40
11.0
 40
12.0
 40
12.0
 40
12.0
 40
13.0
 40
13.0
 40
13.0
 40
14.0
 40
14.0
 40
14.0
 40
15.0
 40
15.0
 40
15.0
 40
16.0
 40
16.0
 40
16.0
 40
17.0
 40
17.0
 40
17.0
 40
18.0
 40
18.0
 40
18.0
 40
19.0
 40
19.0
 40
19.0
 40
20.0
 40
20.0
 40
20.0
 40
21.0
 40
21.0
 40
21.0
 40
22.0
 40
22.0
 40
22.0
 40
23.0
 40
23.0
 40
23.0
 40
24.0
 40
24.0
 40
24.0
 40
25.0
 40
25.0
 40
25.0
 40
26.0
 40
26.0
 40
26.0
 40
27.0
 40
27.0
 40
27.0
 40
28.0
 40
28.0
 40
28.0
 40
28.0
 10
216.6090005968894
 20
246.5940781718584
 10
216.6090005968894
 20
246.5940781718584
 10
212.9503091915541
 20
246.5940781718584
 10
212.9503091915541
 20
246.5940781718584
 10
212.9503091915541
 20
246.5940781718584
 10
212.9503091915541
 20
247.1487385449837
 10
212.9503091915541
 20
247.1487385449837
 10
212.9503091915541
 20
247.1487385449837
 10
213.4636284188563
 20
247.1487385449837
 10
213.4636284188563
 20
247.1487385449837
 10
213.2844834536233
 20
247.2634602246425
 10
213.1404784623399
 20
247.4164224641876
 10
213.0312689354575
 20
247.6069362445219
 10
212.9224039181236
 20
247.7974500248562
 10
212.8676268999081
 20
248.0144910404269
 10
212.8676268999081
 20
248.2580592912341
 10
212.8676268999081
 20
248.5291883059232
 10
212.9241264658662
 20
248.7513969647219
 10
213.0364365786853
 20
248.9246852676299
 10
213.149091201053
 20
249.097973570538
 10
213.3065320647289
 20
249.2202744602644
 10
213.5084146601645
 20
249.2915879368091
 10
213.0812228199936
 20
249.58097595757
 10
212.8676268999081
 20
249.9575248941078
 10
212.8676268999081
 20
250.421579255971
 10
212.8676268999081
 20
250.7843478105678
 10
212.9682236880774
 20
251.063400544873
 10
213.1690727548675
 20
251.2587374588867
 10
213.3702663312061
 20
251.4540743729004
 10
213.6796359057815
 20
251.5515705751329
 10
214.0975259881423
 20
251.5515705751329
 10
214.0975259881423
 20
251.5515705751329
 10
216.6090005968894
 20
251.5515705751329
 10
216.6090005968894
 20
251.5515705751329
 10
216.6090005968894
 20
251.5515705751329
 10
216.6090005968894
 20
250.9348984832732
 10
216.6090005968894
 20
250.9348984832732
 10
216.6090005968894
 20
250.9348984832732
 10
214.3042317172573
 20
250.9348984832732
 10
214.3042317172573
 20
250.9348984832732
 10
214.0561848423193
 20
250.9348984832732
 10
213.8777288961834
 20
250.9149169294587
 10
213.7685193693009
 20
250.8746093122814
 10
213.659654351967
 20
250.8343016951039
 10
213.5718044170932
 20
250.7616101803652
 10
213.5049695646793
 20
250.655845748968
 10
213.438479221814
 20
250.5500813175708
 10
213.4050617956071
 20
250.4260578801019
 10
213.4050617956071
 20
250.283775436561
 10
213.4050617956071
 20
250.0264268038129
 10
213.4908446731898
 20
249.8128308837274
 10
213.6617214092582
 20
249.6429876763045
 10
213.8329426548751
 20
249.4731444688817
 10
214.1068277459525
 20
249.388050610396
 10
214.4833766824903
 20
249.388050610396
 10
214.4833766824903
 20
249.388050610396
 10
216.6090005968894
 20
249.388050610396
 10
216.6090005968894
 20
249.388050610396
 10
216.6090005968894
 20
249.388050610396
 10
216.6090005968894
 20
248.7679334230511
 10
216.6090005968894
 20
248.7679334230511
 10
216.6090005968894
 20
248.7679334230511
 10
214.231884712067
 20
248.7679334230511
 10
214.231884712067
 20
248.7679334230511
 10
213.9562770732471
 20
248.7679334230511
 10
213.7495713441321
 20
248.7172905194179
 10
213.6117675247221
 20
248.6163492217001
 10
213.4739637053121
 20
248.5154079239823
 10
213.4050617956071
 20
248.3500433406903
 10
213.4050617956071
 20
248.1202554718241
 10
213.4050617956071
 20
247.9455891307219
 10
213.4512260751094
 20
247.7843586620123
 10
213.5428656150171
 20
247.6362195561465
 10
213.6348496644732
 20
247.4880804502808
 10
213.769208388398
 20
247.380593471141
 10
213.9459417867913
 20
247.3141031282757
 10
214.1230196947331
 20
247.2476127854103
 10
214.3779567606416
 20
247.2141953592034
 10
214.7107529845168
 20
247.2141953592034
 10
214.7107529845168
 20
247.2141953592034
 10
216.6090005968894
 20
247.2141953592034
 10
216.6090005968894
 20
247.2141953592034
 10
216.6090005968894
 20
247.2141953592034
 10
216.6090005968894
 20
246.5940781718584
 10
216.6090005968894
 20
246.5940781718584
 97
        0
 97
        1
330
C7
 75
     2
 76
     1
 98
        1
 10
0.0
 20
0.0
450
        0
451
        0
460
0.0
461
0.0
452
        0
462
0.0
453
        0
470

  0
SPLINE
  5
C9
330
B7
100
AcDbEntity
  8
Livello 1
100
AcDbSpline
210
0.0
220
0.0
230
1.0
 70
    11
 71
     3
 72
    89
 73
    85
 74
     0
 42
0.0000000001
 43
0.0000000001
 40
0.0
 40
0.0
 40
0.0
 40
0.0
 40
1.0
 40
1.0
 40
1.0
 40
2.0
 40
2.0
 40
2.0
 40
3.0
 40
3.0
 40
3.0
 40
4.0
 40
4.0
 40
4.0
 40
5.0
 40
5.0
 40
5.0
 40
6.0
 40
6.0
 40
6.0
 40
7.0
 40
7.0
 40
7.0
 40
8.0
 40
8.0
 40
8.0
 40
9.0
 40
9.0
 40
9.0
 40
10.0
 40
10.0
 40
10.0
 40
11.0
 40
11.0
 40
11.0
 40
12.0
 40
12.0
 40
12.0
 40
13.0
 40
13.0
 40
13.0
 40
14.0
 40
14.0
 40
14.0
 40
15.0
 40
15.0
 40
15.0
 40
16.0
 40
16.0
 40
16.0
 40
17.0
 40
17.0
 40
17.0
 40
18.0
 40
18.0
 40
18.0
 40
19.0
 40
19.0
 40
19.0
 40
20.0
 40
20.0
 40
20.0
 40
21.0
 40
21.0
 40
21.0
 40
22.0
 40
22.0
 40
22.0
 40
23.0
 40
23.0
 40
23.0
 40
24.0
 40
24.0
 40
24.0
 40
25.0
 40
25.0
 40
25.0
 40
26.0
 40
26.0
 40
26.0
 40
27.0
 40
27.0
 40
27.0
 40
28.0
 40
28.0
 40
28.0
 40
28.0
 10
216.6090005968894
 20
252.4714110696947
 30
0.0
 10
216.6090005968894
 20
252.4714110696947
 30
0.0
 10
212.9503091915541
 20
252.4714110696947
 30
0.0
 10
212.9503091915541
 20
252.4714110696947
 30
0.0
 10
212.9503091915541
 20
252.4714110696947
 30
0.0
 10
212.9503091915541
 20
253.0260714428198
 30
0.0
 10
212.9503091915541
 20
253.0260714428198
 30
0.0
 10
212.9503091915541
 20
253.0260714428198
 30
0.0
 10
213.4636284188563
 20
253.0260714428198
 30
0.0
 10
213.4636284188563
 20
253.0260714428198
 30
0.0
 10
213.2844834536233
 20
253.1407931224787
 30
0.0
 10
213.1404784623399
 20
253.2937553620238
 30
0.0
 10
213.0312689354575
 20
253.4842691423581
 30
0.0
 10
212.9224039181236
 20
253.6747829226924
 30
0.0
 10
212.8676268999081
 20
253.8918239382632
 30
0.0
 10
212.8676268999081
 20
254.1353921890703
 30
0.0
 10
212.8676268999081
 20
254.4065212037595
 30
0.0
 10
212.9241264658662
 20
254.6287298625581
 30
0.0
 10
213.0364365786853
 20
254.8020181654662
 30
0.0
 10
213.149091201053
 20
254.9753064683742
 30
0.0
 10
213.3065320647289
 20
255.0976073581006
 30
0.0
 10
213.5084146601645
 20
255.1689208346453
 30
0.0
 10
213.0812228199936
 20
255.4583088554063
 30
0.0
 10
212.8676268999081
 20
255.8348577919441
 30
0.0
 10
212.8676268999081
 20
256.2989121538072
 30
0.0
 10
212.8676268999081
 20
256.6616807084041
 30
0.0
 10
212.9682236880774
 20
256.9407334427093
 30
0.0
 10
213.1690727548675
 20
257.1360703567229
 30
0.0
 10
213.3702663312061
 20
257.3314072707366
 30
0.0
 10
213.6796359057815
 20
257.4289034729692
 30
0.0
 10
214.0975259881423
 20
257.4289034729692
 30
0.0
 10
214.0975259881423
 20
257.4289034729692
 30
0.0
 10
216.6090005968894
 20
257.4289034729692
 30
0.0
 10
216.6090005968894
 20
257.4289034729692
 30
0.0
 10
216.6090005968894
 20
257.4289034729692
 30
0.0
 10
216.6090005968894
 20
256.8122313811094
 30
0.0
 10
216.6090005968894
 20
256.8122313811094
 30
0.0
 10
216.6090005968894
 20
256.8122313811094
 30
0.0
 10
214.3042317172573
 20
256.8122313811094
 30
0.0
 10
214.3042317172573
 20
256.8122313811094
 30
0.0
 10
214.0561848423193
 20
256.8122313811094
 30
0.0
 10
213.8777288961834
 20
256.792249827295
 30
0.0
 10
213.7685193693009
 20
256.7519422101176
 30
0.0
 10
213.659654351967
 20
256.7116345929402
 30
0.0
 10
213.5718044170932
 20
256.6389430782014
 30
0.0
 10
213.5049695646793
 20
256.5331786468042
 30
0.0
 10
213.438479221814
 20
256.427414215407
 30
0.0
 10
213.4050617956071
 20
256.303390777938
 30
0.0
 10
213.4050617956071
 20
256.1611083343972
 30
0.0
 10
213.4050617956071
 20
255.9037597016491
 30
0.0
 10
213.4908446731898
 20
255.6901637815636
 30
0.0
 10
213.6617214092582
 20
255.5203205741408
 30
0.0
 10
213.8329426548751
 20
255.3504773667179
 30
0.0
 10
214.1068277459525
 20
255.2653835082323
 30
0.0
 10
214.4833766824903
 20
255.2653835082323
 30
0.0
 10
214.4833766824903
 20
255.2653835082323
 30
0.0
 10
216.6090005968894
 20
255.2653835082323
 30
0.0
 10
216.6090005968894
 20
255.2653835082323
 30
0.0
 10
216.6090005968894
 20
255.2653835082323
 30
0.0
 10
216.6090005968894
 20
254.6452663208873
 30
0.0
 10
216.6090005968894
 20
254.6452663208873
 30
0.0
 10
216.6090005968894
 20
254.6452663208873
 30
0.0
 10
214.231884712067
 20
254.6452663208873
 30
0.0
 10
214.231884712067
 20
254.6452663208873
 30
0.0
 10
213.9562770732471
 20
254.6452663208873
 30
0.0
 10
213.7495713441321
 20
254.5946234172541
 30
0.0
 10
213.6117675247221
 20
254.4936821195363
 30
0.0
 10
213.4739637053121
 20
254.3927408218185
 30
0.0
 10
213.4050617956071
 20
254.2273762385265
 30
0.0
 10
213.4050617956071
 20
253.9975883696603
 30
0.0
 10
213.4050617956071
 20
253.8229220285582
 30
0.0
 10
213.4512260751094
 20
253.6616915598485
 30
0.0
 10
213.5428656150171
 20
253.5135524539827
 30
0.0
 10
213.6348496644732
 20
253.365413348117
 30
0.0
 10
213.769208388398
 20
253.2579263689772
 30
0.0
 10
213.9459417867913
 20
253.1914360261119
 30
0.0
 10
214.1230196947331
 20
253.1249456832465
 30
0.0
 10
214.3779567606416
 20
253.0915282570397
 30
0.0
 10
214.7107529845168
 20
253.0915282570397
 30
0.0
 10
214.7107529845168
 20
253.0915282570397
 30
0.0
 10
216.6090005968894
 20
253.0915282570397
 30
0.0
 10
216.6090005968894
 20
253.0915282570397
 30
0.0
 10
216.6090005968894
 20
253.0915282570397
 30
0.0
 10
216.6090005968894
 20
252.4714110696947
 30
0.0
 10
216.6090005968894
 20
252.4714110696947
 30
0.0
  0
HATCH
  5
CA
330
B7
100
AcDbEntity
  8
Livello 1
 62
   144
420
  1404587
440
 33554687
100
AcDbHatch
 10
0.0
 20
0.0
 30
0.0
210
0.0
220
0.0
230
1.0
  2
SOLID
 70
     1
 71
     1
 91
        1
 92
        1
 93
        1
 72
     4
 94
        3
 73
     0
 74
     0
 95
       89
 96
       85
 40
0.0
 40
0.0
 40
0.0
 40
0.0
 40
1.0
 40
1.0
 40
1.0
 40
2.0
 40
2.0
 40
2.0
 40
3.0
 40
3.0
 40
3.0
 40
4.0
 40
4.0
 40
4.0
 40
5.0
 40
5.0
 40
5.0
 40
6.0
 40
6.0
 40
6.0
 40
7.0
 40
7.0
 40
7.0
 40
8.0
 40
8.0
 40
8.0
 40
9.0
 40
9.0
 40
9.0
 40
10.0
 40
10.0
 40
10.0
 40
11.0
 40
11.0
 40
11.0
 40
12.0
 40
12.0
 40
12.0
 40
13.0
 40
13.0
 40
13.0
 40
14.0
 40
14.0
 40
14.0
 40
15.0
 40
15.0
 40
15.0
 40
16.0
 40
16.0
 40
16.0
 40
17.0
 40
17.0
 40
17.0
 40
18.0
 40
18.0
 40
18.0
 40
19.0
 40
19.0
 40
19.0
 40
20.0
 40
20.0
 40
20.0
 40
21.0
 40
21.0
 40
21.0
 40
22.0
 40
22.0
 40
22.0
 40
23.0
 40
23.0
 40
23.0
 40
24.0
 40
24.0
 40
24.0
 40
25.0
 40
25.0
 40
25.0
 40
26.0
 40
26.0
 40
26.0
 40
27.0
 40
27.0
 40
27.0
 40
28.0
 40
28.0
 40
28.0
 40
28.0
 10
216.6090005968894
 20
252.4714110696947
 10
216.6090005968894
 20
252.4714110696947
 10
212.9503091915541
 20
252.4714110696947
 10
212.9503091915541
 20
252.4714110696947
 10
212.9503091915541
 20
252.4714110696947
 10
212.9503091915541
 20
253.0260714428198
 10
212.9503091915541
 20
253.0260714428198
 10
212.9503091915541
 20
253.0260714428198
 10
213.4636284188563
 20
253.0260714428198
 10
213.4636284188563
 20
253.0260714428198
 10
213.2844834536233
 20
253.1407931224787
 10
213.1404784623399
 20
253.2937553620238
 10
213.0312689354575
 20
253.4842691423581
 10
212.9224039181236
 20
253.6747829226924
 10
212.8676268999081
 20
253.8918239382632
 10
212.8676268999081
 20
254.1353921890703
 10
212.8676268999081
 20
254.4065212037595
 10
212.9241264658662
 20
254.6287298625581
 10
213.0364365786853
 20
254.8020181654662
 10
213.149091201053
 20
254.9753064683742
 10
213.3065320647289
 20
255.0976073581006
 10
213.5084146601645
 20
255.1689208346453
 10
213.0812228199936
 20
255.4583088554063
 10
212.8676268999081
 20
255.8348577919441
 10
212.8676268999081
 20
256.2989121538072
 10
212.8676268999081
 20
256.6616807084041
 10
212.9682236880774
 20
256.9407334427093
 10
213.1690727548675
 20
257.1360703567229
 10
213.3702663312061
 20
257.3314072707366
 10
213.6796359057815
 20
257.4289034729692
 10
214.0975259881423
 20
257.4289034729692
 10
214.0975259881423
 20
257.4289034729692
 10
216.6090005968894
 20
257.4289034729692
 10
216.6090005968894
 20
257.4289034729692
 10
216.6090005968894
 20
257.4289034729692
 10
216.6090005968894
 20
256.8122313811094
 10
216.6090005968894
 20
256.8122313811094
 10
216.6090005968894
 20
256.8122313811094
 10
214.3042317172573
 20
256.8122313811094
 10
214.3042317172573
 20
256.8122313811094
 10
214.0561848423193
 20
256.8122313811094
 10
213.8777288961834
 20
256.792249827295
 10
213.7685193693009
 20
256.7519422101176
 10
213.659654351967
 20
256.7116345929402
 10
213.5718044170932
 20
256.6389430782014
 10
213.5049695646793
 20
256.5331786468042
 10
213.438479221814
 20
256.427414215407
 10
213.4050617956071
 20
256.303390777938
 10
213.4050617956071
 20
256.1611083343972
 10
213.4050617956071
 20
255.9037597016491
 10
213.4908446731898
 20
255.6901637815636
 10
213.6617214092582
 20
255.5203205741408
 10
213.8329426548751
 20
255.3504773667179
 10
214.1068277459525
 20
255.2653835082323
 10
214.4833766824903
 20
255.2653835082323
 10
214.4833766824903
 20
255.2653835082323
 10
216.6090005968894
 20
255.2653835082323
 10
216.6090005968894
 20
255.2653835082323
 10
216.6090005968894
 20
255.2653835082323
 10
216.6090005968894
 20
254.6452663208873
 10
216.6090005968894
 20
254.6452663208873
 10
216.6090005968894
 20
254.6452663208873
 10
214.231884712067
 20
254.6452663208873
 10
214.231884712067
 20
254.6452663208873
 10
213.9562770732471
 20
254.6452663208873
 10
213.7495713441321
 20
254.5946234172541
 10
213.6117675247221
 20
254.4936821195363
 10
213.4739637053121
 20
254.3927408218185
 10
213.4050617956071
 20
254.2273762385265
 10
213.4050617956071
 20
253.9975883696603
 10
213.4050617956071
 20
253.8229220285582
 10
213.4512260751094
 20
253.6616915598485
 10
213.5428656150171
 20
253.5135524539827
 10
213.6348496644732
 20
253.365413348117
 10
213.769208388398
 20
253.2579263689772
 10
213.9459417867913
 20
253.1914360261119
 10
214.1230196947331
 20
253.1249456832465
 10
214.3779567606416
 20
253.0915282570397
 10
214.7107529845168
 20
253.0915282570397
 10
214.7107529845168
 20
253.0915282570397
 10
216.6090005968894
 20
253.0915282570397
 10
216.6090005968894
 20
253.0915282570397
 10
216.6090005968894
 20
253.0915282570397
 10
216.6090005968894
 20
252.4714110696947
 10
216.6090005968894
 20
252.4714110696947
 97
        0
 97
        1
330
C9
 75
     2
 76
     1
 98
        1
 10
0.0
 20
0.0
450
        0
451
        0
460
0.0
461
0.0
452
        0
462
0.0
453
        0
470

  0
ENDBLK
  5
BA
330
B7
100
AcDbEntity
  8
0
100
AcDbBlockEnd
  0
BLOCK
  5
D5
330
D3
100
AcDbEntity
  8
0
100
AcDbBlockBegin
  2
Block_2
 70
     0
 10
0.0
 20
0.0
 30
0.0
  3
Block_2
  1

  0
INSERT
  5
D8
330
D3
100
AcDbEntity
  8
Livello 1
100
AcDbBlockReference
  2
Block_3
 10
0.0
 20
0.0
 30
0.0
  0
ENDBLK
  5
D6
330
D3
100
AcDbEntity
  8
0
100
AcDbBlockEnd
  0
BLOCK
  5
D9
330
D7
100
AcDbEntity
  8
0
100
AcDbBlockBegin
  2
Block_3
 70
     0
 10
0.0
 20
0.0
 30
0.0
  3
Block_3
  1

  0
SPLINE
  5
DB
330
D7
100
AcDbEntity
  8
Livello 1
100
AcDbSpline
210
0.0
220
0.0
230
1.0
 70
    11
 71
     3
 72
    32
 73
    28
 74
     0
 42
0.0000000001
 43
0.0000000001
 40
0.0
 40
0.0
 40
0.0
 40
0.0
 40
1.0
 40
1.0
 40
1.0
 40
2.0
 40
2.0
 40
2.0
 40
3.0
 40
3.0
 40
3.0
 40
4.0
 40
4.0
 40
4.0
 40
5.0
 40
5.0
 40
5.0
 40
6.0
 40
6.0
 40
6.0
 40
7.0
 40
7.0
 40
7.0
 40
8.0
 40
8.0
 40
8.0
 40
9.0
 40
9.0
 40
9.0
 40
9.0
 10
216.7147650282866
 20
80.8484673191976
 30
0.0
 10
216.7147650282866
 20
80.8484673191976
 30
0.0
 10
216.7147650282866
 20
80.22835013185263
 30
0.0
 10
216.7147650282866
 20
80.22835013185263
 30
0.0
 10
216.7147650282866
 20
80.22835013185263
 30
0.0
 10
212.763240506705
 20
80.22835013185263
 30
0.0
 10
212.763240506705
 20
80.22835013185263
 30
0.0
 10
212.9055229502458
 20
80.07917749734131
 30
0.0
 10
213.0481499033352
 20
79.88349607377912
 30
0.0
 10
213.190432346876
 20
79.64096135161753
 30
0.0
 10
213.3327147904168
 20
79.39842662945595
 30
0.0
 10
213.4395127504596
 20
79.18104110433668
 30
0.0
 10
213.5108262270043
 20
78.9881157571627
 30
0.0
 10
213.5108262270043
 20
78.9881157571627
 30
0.0
 10
212.9113796125708
 20
78.9881157571627
 30
0.0
 10
212.9113796125708
 20
78.9881157571627
 30
0.0
 10
212.7484265961185
 20
79.33503687252735
 30
0.0
 10
212.5506781152651
 20
79.63820527522933
 30
0.0
 10
212.3188231891078
 20
79.89762096526866
 30
0.0
 10
212.0869682629505
 20
80.15703665530796
 30
0.0
 10
211.8616590182152
 20
80.34100475422031
 30
0.0
 10
211.6435844739988
 20
80.44883624290863
 30
0.0
 10
211.6435844739988
 20
80.44883624290863
 30
0.0
 10
211.6435844739988
 20
80.8484673191976
 30
0.0
 10
211.6435844739988
 20
80.8484673191976
 30
0.0
 10
211.6435844739988
 20
80.8484673191976
 30
0.0
 10
216.7147650282866
 20
80.8484673191976
 30
0.0
 10
216.7147650282866
 20
80.8484673191976
 30
0.0
  0
HATCH
  5
DC
330
D7
100
AcDbEntity
  8
Livello 1
 62
   144
420
  1404587
440
 33554687
100
AcDbHatch
 10
0.0
 20
0.0
 30
0.0
210
0.0
220
0.0
230
1.0
  2
SOLID
 70
     1
 71
     1
 91
        1
 92
        1
 93
        1
 72
     4
 94
        3
 73
     0
 74
     0
 95
       32
 96
       28
 40
0.0
 40
0.0
 40
0.0
 40
0.0
 40
1.0
 40
1.0
 40
1.0
 40
2.0
 40
2.0
 40
2.0
 40
3.0
 40
3.0
 40
3.0
 40
4.0
 40
4.0
 40
4.0
 40
5.0
 40
5.0
 40
5.0
 40
6.0
 40
6.0
 40
6.0
 40
7.0
 40
7.0
 40
7.0
 40
8.0
 40
8.0
 40
8.0
 40
9.0
 40
9.0
 40
9.0
 40
9.0
 10
216.7147650282866
 20
80.8484673191976
 10
216.7147650282866
 20
80.8484673191976
 10
216.7147650282866
 20
80.22835013185263
 10
216.7147650282866
 20
80.22835013185263
 10
216.7147650282866
 20
80.22835013185263
 10
212.763240506705
 20
80.22835013185263
 10
212.763240506705
 20
80.22835013185263
 10
212.9055229502458
 20
80.07917749734131
 10
213.0481499033352
 20
79.88349607377912
 10
213.190432346876
 20
79.64096135161753
 10
213.3327147904168
 20
79.39842662945595
 10
213.4395127504596
 20
79.18104110433668
 10
213.5108262270043
 20
78.9881157571627
 10
213.5108262270043
 20
78.9881157571627
 10
212.9113796125708
 20
78.9881157571627
 10
212.9113796125708
 20
78.9881157571627
 10
212.7484265961185
 20
79.33503687252735
 10
212.5506781152651
 20
79.63820527522933
 10
212.3188231891078
 20
79.89762096526866
 10
212.0869682629505
 20
80.15703665530796
 10
211.8616590182152
 20
80.34100475422031
 10
211.6435844739988
 20
80.44883624290863
 10
211.6435844739988
 20
80.44883624290863
 10
211.6435844739988
 20
80.8484673191976
 10
211.6435844739988
 20
80.8484673191976
 10
211.6435844739988
 20
80.8484673191976
 10
216.7147650282866
 20
80.8484673191976
 10
216.7147650282866
 20
80.8484673191976
 97
        0
 97
        1
330
DB
 75
     2
 76
     1
 98
        1
 10
0.0
 20
0.0
450
        0
451
        0
460
0.0
461
0.0
452
        0
462
0.0
453
        0
470

  0
SPLINE
  5
DD
330
D7
100
AcDbEntity
  8
Livello 1
100
AcDbSpline
210
0.0
220
0.0
230
1.0
 70
    11
 71
     3
 72
    29
 73
    25
 74
     0
 42
0.0000000001
 43
0.0000000001
 40
0.0
 40
0.0
 40
0.0
 40
0.0
 40
1.0
 40
1.0
 40
1.0
 40
2.0
 40
2.0
 40
2.0
 40
3.0
 40
3.0
 40
3.0
 40
4.0
 40
4.0
 40
4.0
 40
5.0
 40
5.0
 40
5.0
 40
6.0
 40
6.0
 40
6.0
 40
7.0
 40
7.0
 40
7.0
 40
8.0
 40
8.0
 40
8.0
 40
8.0
 10
214.223960992451
 20
83.07399900266899
 30
0.0
 10
215.0531954757506
 20
83.07399900266899
 30
0.0
 10
215.6047552629391
 20
83.17080618580453
 30
0.0
 10
215.8793293731135
 20
83.3651095711726
 30
0.0
 10
216.153903483288
 20
83.55941295654071
 30
0.0
 10
216.2910182836009
 20
83.79850258321704
 30
0.0
 10
216.2910182836009
 20
84.08341197984722
 30
0.0
 10
216.2910182836009
 20
84.36832137647737
 30
0.0
 10
216.1532144641909
 20
84.6074110031537
 30
0.0
 10
215.8776068253709
 20
84.80171438852179
 30
0.0
 10
215.6019991865509
 20
84.99601777388988
 30
0.0
 10
215.0507839089109
 20
85.09282495702541
 30
0.0
 10
214.223960992451
 20
85.09282495702541
 30
0.0
 10
213.3926594518602
 20
85.09282495702541
 30
0.0
 10
212.8400661360261
 20
84.99601777388988
 30
0.0
 10
212.5668700640458
 20
84.80171438852179
 30
0.0
 10
212.2936739920655
 20
84.6074110031537
 30
0.0
 10
212.1569037013011
 20
84.36590980963769
 30
0.0
 10
212.1569037013011
 20
84.07652178887671
 30
0.0
 10
212.1569037013011
 20
83.79161239224655
 30
0.0
 10
212.2774820432848
 20
83.56423609022005
 30
0.0
 10
212.5186387272523
 20
83.39439288279724
 30
0.0
 10
212.8262857540851
 20
83.18079696271174
 30
0.0
 10
213.3947265091513
 20
83.07399900266899
 30
0.0
 10
214.223960992451
 20
83.07399900266899
 30
0.0
  0
SPLINE
  5
DE
330
D7
100
AcDbEntity
  8
Livello 1
100
AcDbSpline
210
0.0
220
0.0
230
1.0
 70
     9
 71
     3
 72
    41
 73
    37
 74
     0
 42
0.0000000001
 43
0.0000000001
 40
0.0
 40
0.0
 40
0.0
 40
0.0
 40
1.0
 40
1.0
 40
1.0
 40
2.0
 40
2.0
 40
2.0
 40
3.0
 40
3.0
 40
3.0
 40
4.0
 40
4.0
 40
4.0
 40
5.0
 40
5.0
 40
5.0
 40
6.0
 40
6.0
 40
6.0
 40
7.0
 40
7.0
 40
7.0
 40
8.0
 40
8.0
 40
8.0
 40
9.0
 40
9.0
 40
9.0
 40
10.0
 40
10.0
 40
10.0
 40
11.0
 40
11.0
 40
11.0
 40
12.0
 40
12.0
 40
12.0
 40
12.0
 10
214.223960992451
 20
82.43665633789779
 30
0.0
 10
213.6269259448571
 20
82.43665633789779
 30
0.0
 10
213.1463351246648
 20
82.49832354708376
 30
0.0
 10
212.7821885318739
 20
82.62096894635865
 30
0.0
 10
212.418041939083
 20
82.74361434563354
 30
0.0
 10
212.1372666570351
 20
82.92620440635179
 30
0.0
 10
211.9398626857303
 20
83.16873912851338
 30
0.0
 10
211.7424587144255
 20
83.41127385067496
 30
0.0
 10
211.6435844739988
 20
83.71582029157105
 30
0.0
 10
211.6435844739988
 20
84.08341197984722
 30
0.0
 10
211.6435844739988
 20
84.35454099453636
 30
0.0
 10
211.6980169826658
 20
84.59225258301861
 30
0.0
 10
211.8072265095482
 20
84.79654674529392
 30
0.0
 10
211.9164360364306
 20
85.00084090756924
 30
0.0
 10
212.073532390558
 20
85.16965058634648
 30
0.0
 10
212.2792045910274
 20
85.30297578162565
 30
0.0
 10
212.4848767914969
 20
85.43630097690481
 30
0.0
 10
212.734990723726
 20
85.54068737010789
 30
0.0
 10
213.0302354068119
 20
85.61647947078339
 30
0.0
 10
213.3254800898978
 20
85.69227157145887
 30
0.0
 10
213.7233886184442
 20
85.73016762179662
 30
0.0
 10
214.223960992451
 20
85.73016762179662
 30
0.0
 10
214.816517415914
 20
85.73016762179662
 30
0.0
 10
215.2946966692666
 20
85.66918943170771
 30
0.0
 10
215.6588432620575
 20
85.54757756107838
 30
0.0
 10
216.0229898548484
 20
85.42596569044906
 30
0.0
 10
216.3041096464448
 20
85.24406464882787
 30
0.0
 10
216.5028916559437
 20
85.00152992666629
 30
0.0
 10
216.7016736654427
 20
84.7589952045047
 30
0.0
 10
216.8008924154178
 20
84.45307072541451
 30
0.0
 10
216.8008924154178
 20
84.08341197984722
 30
0.0
 10
216.8008924154178
 20
83.59661998778141
 30
0.0
 10
216.6262260743156
 20
83.21421438891867
 30
0.0
 10
216.2772379016599
 20
82.93619518325902
 30
0.0
 10
215.8569362524594
 20
82.60305444983535
 30
0.0
 10
215.1723957795403
 20
82.43665633789779
 30
0.0
 10
214.223960992451
 20
82.43665633789779
 30
0.0
  0
HATCH
  5
DF
330
D7
100
AcDbEntity
  8
Livello 1
 62
   144
420
  1404587
440
 33554687
100
AcDbHatch
 10
0.0
 20
0.0
 30
0.0
210
0.0
220
0.0
230
1.0
  2
SOLID
 70
     1
 71
     1
 91
        2
 92
        1
 93
        1
 72
     4
 94
        3
 73
     0
 74
     0
 95
       29
 96
       25
 40
0.0
 40
0.0
 40
0.0
 40
0.0
 40
1.0
 40
1.0
 40
1.0
 40
2.0
 40
2.0
 40
2.0
 40
3.0
 40
3.0
 40
3.0
 40
4.0
 40
4.0
 40
4.0
 40
5.0
 40
5.0
 40
5.0
 40
6.0
 40
6.0
 40
6.0
 40
7.0
 40
7.0
 40
7.0
 40
8.0
 40
8.0
 40
8.0
 40
8.0
 10
214.223960992451
 20
83.07399900266899
 10
215.0531954757506
 20
83.07399900266899
 10
215.6047552629391
 20
83.17080618580453
 10
215.8793293731135
 20
83.3651095711726
 10
216.153903483288
 20
83.55941295654071
 10
216.2910182836009
 20
83.79850258321704
 10
216.2910182836009
 20
84.08341197984722
 10
216.2910182836009
 20
84.36832137647737
 10
216.1532144641909
 20
84.6074110031537
 10
215.8776068253709
 20
84.80171438852179
 10
215.6019991865509
 20
84.99601777388988
 10
215.0507839089109
 20
85.09282495702541
 10
214.223960992451
 20
85.09282495702541
 10
213.3926594518602
 20
85.09282495702541
 10
212.8400661360261
 20
84.99601777388988
 10
212.5668700640458
 20
84.80171438852179
 10
212.2936739920655
 20
84.6074110031537
 10
212.1569037013011
 20
84.36590980963769
 10
212.1569037013011
 20
84.07652178887671
 10
212.1569037013011
 20
83.79161239224655
 10
212.2774820432848
 20
83.56423609022005
 10
212.5186387272523
 20
83.39439288279724
 10
212.8262857540851
 20
83.18079696271174
 10
213.3947265091513
 20
83.07399900266899
 10
214.223960992451
 20
83.07399900266899
 97
        0
 97
        1
330
DD
 92
        1
 93
        1
 72
     4
 94
        3
 73
     0
 74
     0
 95
       41
 96
       37
 40
0.0
 40
0.0
 40
0.0
 40
0.0
 40
1.0
 40
1.0
 40
1.0
 40
2.0
 40
2.0
 40
2.0
 40
3.0
 40
3.0
 40
3.0
 40
4.0
 40
4.0
 40
4.0
 40
5.0
 40
5.0
 40
5.0
 40
6.0
 40
6.0
 40
6.0
 40
7.0
 40
7.0
 40
7.0
 40
8.0
 40
8.0
 40
8.0
 40
9.0
 40
9.0
 40
9.0
 40
10.0
 40
10.0
 40
10.0
 40
11.0
 40
11.0
 40
11.0
 40
12.0
 40
12.0
 40
12.0
 40
12.0
 10
214.223960992451
 20
82.43665633789779
 10
213.6269259448571
 20
82.43665633789779
 10
213.1463351246648
 20
82.49832354708376
 10
212.7821885318739
 20
82.62096894635865
 10
212.418041939083
 20
82.74361434563354
 10
212.1372666570351
 20
82.92620440635179
 10
211.9398626857303
 20
83.16873912851338
 10
211.7424587144255
 20
83.41127385067496
 10
211.6435844739988
 20
83.71582029157105
 10
211.6435844739988
 20
84.08341197984722
 10
211.6435844739988
 20
84.35454099453636
 10
211.6980169826658
 20
84.59225258301861
 10
211.8072265095482
 20
84.79654674529392
 10
211.9164360364306
 20
85.00084090756924
 10
212.073532390558
 20
85.16965058634648
 10
212.2792045910274
 20
85.30297578162565
 10
212.4848767914969
 20
85.43630097690481
 10
212.734990723726
 20
85.54068737010789
 10
213.0302354068119
 20
85.61647947078339
 10
213.3254800898978
 20
85.69227157145887
 10
213.7233886184442
 20
85.73016762179662
 10
214.223960992451
 20
85.73016762179662
 10
214.816517415914
 20
85.73016762179662
 10
215.2946966692666
 20
85.66918943170771
 10
215.6588432620575
 20
85.54757756107838
 10
216.0229898548484
 20
85.42596569044906
 10
216.3041096464448
 20
85.24406464882787
 10
216.5028916559437
 20
85.00152992666629
 10
216.7016736654427
 20
84.7589952045047
 10
216.8008924154178
 20
84.45307072541451
 10
216.8008924154178
 20
84.08341197984722
 10
216.8008924154178
 20
83.59661998778141
 10
216.6262260743156
 20
83.21421438891867
 10
216.2772379016599
 20
82.93619518325902
 10
215.8569362524594
 20
82.60305444983535
 10
215.1723957795403
 20
82.43665633789779
 10
214.223960992451
 20
82.43665633789779
 97
        0
 97
        1
330
DE
 75
     2
 76
     1
 98
        1
 10
0.0
 20
0.0
450
        0
451
        0
460
0.0
461
0.0
452
        0
462
0.0
453
        0
470

  0
SPLINE
  5
E0
330
D7
100
AcDbEntity
  8
Livello 1
100
AcDbSpline
210
0.0
220
0.0
230
1.0
 70
    11
 71
     3
 72
    29
 73
    25
 74
     0
 42
0.0000000001
 43
0.0000000001
 40
0.0
 40
0.0
 40
0.0
 40
0.0
 40
1.0
 40
1.0
 40
1.0
 40
2.0
 40
2.0
 40
2.0
 40
3.0
 40
3.0
 40
3.0
 40
4.0
 40
4.0
 40
4.0
 40
5.0
 40
5.0
 40
5.0
 40
6.0
 40
6.0
 40
6.0
 40
7.0
 40
7.0
 40
7.0
 40
8.0
 40
8.0
 40
8.0
 40
8.0
 10
214.223960992451
 20
86.99796276036856
 30
0.0
 10
215.0531954757506
 20
86.99796276036856
 30
0.0
 10
215.6047552629391
 20
87.09511445305262
 30
0.0
 10
215.8793293731135
 20
87.28907332887217
 30
0.0
 10
216.153903483288
 20
87.48303220469175
 30
0.0
 10
216.2910182836009
 20
87.72246634091661
 30
0.0
 10
216.2910182836009
 20
88.00737573754677
 30
0.0
 10
216.2910182836009
 20
88.29228513417694
 30
0.0
 10
216.1532144641909
 20
88.53171927040179
 30
0.0
 10
215.8776068253709
 20
88.72567814622135
 30
0.0
 10
215.6019991865509
 20
88.91963702204092
 30
0.0
 10
215.0507839089109
 20
89.01678871472496
 30
0.0
 10
214.223960992451
 20
89.01678871472496
 30
0.0
 10
213.3926594518602
 20
89.01678871472496
 30
0.0
 10
212.8400661360261
 20
88.91963702204092
 30
0.0
 10
212.5668700640458
 20
88.72567814622135
 30
0.0
 10
212.2936739920655
 20
88.53171927040179
 30
0.0
 10
212.1569037013011
 20
88.28987356733724
 30
0.0
 10
212.1569037013011
 20
88.00048554657626
 30
0.0
 10
212.1569037013011
 20
87.71557614994611
 30
0.0
 10
212.2774820432848
 20
87.48819984791962
 30
0.0
 10
212.5186387272523
 20
87.31835664049681
 30
0.0
 10
212.8262857540851
 20
87.10476072041132
 30
0.0
 10
213.3947265091513
 20
86.99796276036856
 30
0.0
 10
214.223960992451
 20
86.99796276036856
 30
0.0
  0
SPLINE
  5
E1
330
D7
100
AcDbEntity
  8
Livello 1
100
AcDbSpline
210
0.0
220
0.0
230
1.0
 70
     9
 71
     3
 72
    41
 73
    37
 74
     0
 42
0.0000000001
 43
0.0000000001
 40
0.0
 40
0.0
 40
0.0
 40
0.0
 40
1.0
 40
1.0
 40
1.0
 40
2.0
 40
2.0
 40
2.0
 40
3.0
 40
3.0
 40
3.0
 40
4.0
 40
4.0
 40
4.0
 40
5.0
 40
5.0
 40
5.0
 40
6.0
 40
6.0
 40
6.0
 40
7.0
 40
7.0
 40
7.0
 40
8.0
 40
8.0
 40
8.0
 40
9.0
 40
9.0
 40
9.0
 40
10.0
 40
10.0
 40
10.0
 40
11.0
 40
11.0
 40
11.0
 40
12.0
 40
12.0
 40
12.0
 40
12.0
 10
214.223960992451
 20
86.36062009559735
 30
0.0
 10
213.6269259448571
 20
86.36062009559735
 30
0.0
 10
213.1463351246648
 20
86.42228730478333
 30
0.0
 10
212.7821885318739
 20
86.5449327040582
 30
0.0
 10
212.418041939083
 20
86.66757810333312
 30
0.0
 10
212.1372666570351
 20
86.85051267359988
 30
0.0
 10
211.9398626857303
 20
87.09270288621294
 30
0.0
 10
211.7424587144255
 20
87.334893098826
 30
0.0
 10
211.6435844739988
 20
87.63978404927062
 30
0.0
 10
211.6435844739988
 20
88.00737573754677
 30
0.0
 10
211.6435844739988
 20
88.27850475223593
 30
0.0
 10
211.6980169826658
 20
88.51621634071817
 30
0.0
 10
211.8072265095482
 20
88.72051050299349
 30
0.0
 10
211.9164360364306
 20
88.92480466526881
 30
0.0
 10
212.073532390558
 20
89.09361434404605
 30
0.0
 10
212.2792045910274
 20
89.22693953932521
 30
0.0
 10
212.4848767914969
 20
89.36026473460438
 30
0.0
 10
212.734990723726
 20
89.46465112780746
 30
0.0
 10
213.0302354068119
 20
89.54044322848295
 30
0.0
 10
213.3254800898978
 20
89.61623532915844
 30
0.0
 10
213.7233886184442
 20
89.65413137949619
 30
0.0
 10
214.223960992451
 20
89.65413137949619
 30
0.0
 10
214.816517415914
 20
89.65413137949619
 30
0.0
 10
215.2946966692666
 20
89.59315318940728
 30
0.0
 10
215.6588432620575
 20
89.47154131877795
 30
0.0
 10
216.0229898548484
 20
89.34992944814863
 30
0.0
 10
216.3041096464448
 20
89.16768389697891
 30
0.0
 10
216.5028916559437
 20
88.92549368436585
 30
0.0
 10
216.7016736654427
 20
88.68330347175279
 30
0.0
 10
216.8008924154178
 20
88.37703448311406
 30
0.0
 10
216.8008924154178
 20
88.00737573754677
 30
0.0
 10
216.8008924154178
 20
87.52058374548097
 30
0.0
 10
216.6262260743156
 20
87.13817814661823
 30
0.0
 10
216.2772379016599
 20
86.86015894095858
 30
0.0
 10
215.8569362524594
 20
86.52701820753492
 30
0.0
 10
215.1723957795403
 20
86.36062009559735
 30
0.0
 10
214.223960992451
 20
86.36062009559735
 30
0.0
  0
HATCH
  5
E2
330
D7
100
AcDbEntity
  8
Livello 1
 62
   144
420
  1404587
440
 33554687
100
AcDbHatch
 10
0.0
 20
0.0
 30
0.0
210
0.0
220
0.0
230
1.0
  2
SOLID
 70
     1
 71
     1
 91
        2
 92
        1
 93
        1
 72
     4
 94
        3
 73
     0
 74
     0
 95
       29
 96
       25
 40
0.0
 40
0.0
 40
0.0
 40
0.0
 40
1.0
 40
1.0
 40
1.0
 40
2.0
 40
2.0
 40
2.0
 40
3.0
 40
3.0
 40
3.0
 40
4.0
 40
4.0
 40
4.0
 40
5.0
 40
5.0
 40
5.0
 40
6.0
 40
6.0
 40
6.0
 40
7.0
 40
7.0
 40
7.0
 40
8.0
 40
8.0
 40
8.0
 40
8.0
 10
214.223960992451
 20
86.99796276036856
 10
215.0531954757506
 20
86.99796276036856
 10
215.6047552629391
 20
87.09511445305262
 10
215.8793293731135
 20
87.28907332887217
 10
216.153903483288
 20
87.48303220469175
 10
216.2910182836009
 20
87.72246634091661
 10
216.2910182836009
 20
88.00737573754677
 10
216.2910182836009
 20
88.29228513417694
 10
216.1532144641909
 20
88.53171927040179
 10
215.8776068253709
 20
88.72567814622135
 10
215.6019991865509
 20
88.91963702204092
 10
215.0507839089109
 20
89.01678871472496
 10
214.223960992451
 20
89.01678871472496
 10
213.3926594518602
 20
89.01678871472496
 10
212.8400661360261
 20
88.91963702204092
 10
212.5668700640458
 20
88.72567814622135
 10
212.2936739920655
 20
88.53171927040179
 10
212.1569037013011
 20
88.28987356733724
 10
212.1569037013011
 20
88.00048554657626
 10
212.1569037013011
 20
87.71557614994611
 10
212.2774820432848
 20
87.48819984791962
 10
212.5186387272523
 20
87.31835664049681
 10
212.8262857540851
 20
87.10476072041132
 10
213.3947265091513
 20
86.99796276036856
 10
214.223960992451
 20
86.99796276036856
 97
        0
 97
        1
330
E0
 92
        1
 93
        1
 72
     4
 94
        3
 73
     0
 74
     0
 95
       41
 96
       37
 40
0.0
 40
0.0
 40
0.0
 40
0.0
 40
1.0
 40
1.0
 40
1.0
 40
2.0
 40
2.0
 40
2.0
 40
3.0
 40
3.0
 40
3.0
 40
4.0
 40
4.0
 40
4.0
 40
5.0
 40
5.0
 40
5.0
 40
6.0
 40
6.0
 40
6.0
 40
7.0
 40
7.0
 40
7.0
 40
8.0
 40
8.0
 40
8.0
 40
9.0
 40
9.0
 40
9.0
 40
10.0
 40
10.0
 40
10.0
 40
11.0
 40
11.0
 40
11.0
 40
12.0
 40
12.0
 40
12.0
 40
12.0
 10
214.223960992451
 20
86.36062009559735
 10
213.6269259448571
 20
86.36062009559735
 10
213.1463351246648
 20
86.42228730478333
 10
212.7821885318739
 20
86.5449327040582
 10
212.418041939083
 20
86.66757810333312
 10
212.1372666570351
 20
86.85051267359988
 10
211.9398626857303
 20
87.09270288621294
 10
211.7424587144255
 20
87.334893098826
 10
211.6435844739988
 20
87.63978404927062
 10
211.6435844739988
 20
88.00737573754677
 10
211.6435844739988
 20
88.27850475223593
 10
211.6980169826658
 20
88.51621634071817
 10
211.8072265095482
 20
88.72051050299349
 10
211.9164360364306
 20
88.92480466526881
 10
212.073532390558
 20
89.09361434404605
 10
212.2792045910274
 20
89.22693953932521
 10
212.4848767914969
 20
89.36026473460438
 10
212.734990723726
 20
89.46465112780746
 10
213.0302354068119
 20
89.54044322848295
 10
213.3254800898978
 20
89.61623532915844
 10
213.7233886184442
 20
89.65413137949619
 10
214.223960992451
 20
89.65413137949619
 10
214.816517415914
 20
89.65413137949619
 10
215.2946966692666
 20
89.59315318940728
 10
215.6588432620575
 20
89.47154131877795
 10
216.0229898548484
 20
89.34992944814863
 10
216.3041096464448
 20
89.16768389697891
 10
216.5028916559437
 20
88.92549368436585
 10
216.7016736654427
 20
88.68330347175279
 10
216.8008924154178
 20
88.37703448311406
 10
216.8008924154178
 20
88.00737573754677
 10
216.8008924154178
 20
87.52058374548097
 10
216.6262260743156
 20
87.13817814661823
 10
216.2772379016599
 20
86.86015894095858
 10
215.8569362524594
 20
86.52701820753492
 10
215.1723957795403
 20
86.36062009559735
 10
214.223960992451
 20
86.36062009559735
 97
        0
 97
        1
330
E1
 75
     2
 76
     1
 98
        1
 10
0.0
 20
0.0
450
        0
451
        0
460
0.0
461
0.0
452
        0
462
0.0
453
        0
470

  0
SPLINE
  5
E3
330
D7
100
AcDbEntity
  8
Livello 1
100
AcDbSpline
210
0.0
220
0.0
230
1.0
 70
    11
 71
     3
 72
    17
 73
    13
 74
     0
 42
0.0000000001
 43
0.0000000001
 40
0.0
 40
0.0
 40
0.0
 40
0.0
 40
1.0
 40
1.0
 40
1.0
 40
2.0
 40
2.0
 40
2.0
 40
3.0
 40
3.0
 40
3.0
 40
4.0
 40
4.0
 40
4.0
 40
4.0
 10
216.7147650282866
 20
90.63253849730715
 30
0.0
 10
216.7147650282866
 20
90.63253849730715
 30
0.0
 10
216.0085204538104
 20
90.63253849730715
 30
0.0
 10
216.0085204538104
 20
90.63253849730715
 30
0.0
 10
216.0085204538104
 20
90.63253849730715
 30
0.0
 10
216.0085204538104
 20
91.33878307178337
 30
0.0
 10
216.0085204538104
 20
91.33878307178337
 30
0.0
 10
216.0085204538104
 20
91.33878307178337
 30
0.0
 10
216.7147650282866
 20
91.33878307178337
 30
0.0
 10
216.7147650282866
 20
91.33878307178337
 30
0.0
 10
216.7147650282866
 20
91.33878307178337
 30
0.0
 10
216.7147650282866
 20
90.63253849730715
 30
0.0
 10
216.7147650282866
 20
90.63253849730715
 30
0.0
  0
HATCH
  5
E4
330
D7
100
AcDbEntity
  8
Livello 1
 62
   144
420
  1404587
440
 33554687
100
AcDbHatch
 10
0.0
 20
0.0
 30
0.0
210
0.0
220
0.0
230
1.0
  2
SOLID
 70
     1
 71
     1
 91
        1
 92
        1
 93
        1
 72
     4
 94
        3
 73
     0
 74
     0
 95
       17
 96
       13
 40
0.0
 40
0.0
 40
0.0
 40
0.0
 40
1.0
 40
1.0
 40
1.0
 40
2.0
 40
2.0
 40
2.0
 40
3.0
 40
3.0
 40
3.0
 40
4.0
 40
4.0
 40
4.0
 40
4.0
 10
216.7147650282866
 20
90.63253849730715
 10
216.7147650282866
 20
90.63253849730715
 10
216.0085204538104
 20
90.63253849730715
 10
216.0085204538104
 20
90.63253849730715
 10
216.0085204538104
 20
90.63253849730715
 10
216.0085204538104
 20
91.33878307178337
 10
216.0085204538104
 20
91.33878307178337
 10
216.0085204538104
 20
91.33878307178337
 10
216.7147650282866
 20
91.33878307178337
 10
216.7147650282866
 20
91.33878307178337
 10
216.7147650282866
 20
91.33878307178337
 10
216.7147650282866
 20
90.63253849730715
 10
216.7147650282866
 20
90.63253849730715
 97
        0
 97
        1
330
E3
 75
     2
 76
     1
 98
        1
 10
0.0
 20
0.0
450
        0
451
        0
460
0.0
461
0.0
452
        0
462
0.0
453
        0
470

  0
SPLINE
  5
E5
330
D7
100
AcDbEntity
  8
Livello 1
100
AcDbSpline
210
0.0
220
0.0
230
1.0
 70
    11
 71
     3
 72
    71
 73
    67
 74
     0
 42
0.0000000001
 43
0.0000000001
 40
0.0
 40
0.0
 40
0.0
 40
0.0
 40
1.0
 40
1.0
 40
1.0
 40
2.0
 40
2.0
 40
2.0
 40
3.0
 40
3.0
 40
3.0
 40
4.0
 40
4.0
 40
4.0
 40
5.0
 40
5.0
 40
5.0
 40
6.0
 40
6.0
 40
6.0
 40
7.0
 40
7.0
 40
7.0
 40
8.0
 40
8.0
 40
8.0
 40
9.0
 40
9.0
 40
9.0
 40
10.0
 40
10.0
 40
10.0
 40
11.0
 40
11.0
 40
11.0
 40
12.0
 40
12.0
 40
12.0
 40
13.0
 40
13.0
 40
13.0
 40
14.0
 40
14.0
 40
14.0
 40
15.0
 40
15.0
 40
15.0
 40
16.0
 40
16.0
 40
16.0
 40
17.0
 40
17.0
 40
17.0
 40
18.0
 40
18.0
 40
18.0
 40
19.0
 40
19.0
 40
19.0
 40
20.0
 40
20.0
 40
20.0
 40
21.0
 40
21.0
 40
21.0
 40
22.0
 40
22.0
 40
22.0
 40
22.0
 10
216.1187635093384
 20
95.50390351345042
 30
0.0
 10
216.1187635093384
 20
95.50390351345042
 30
0.0
 10
216.7147650282866
 20
95.50390351345042
 30
0.0
 10
216.7147650282866
 20
95.50390351345042
 30
0.0
 10
216.7147650282866
 20
95.50390351345042
 30
0.0
 10
216.7147650282866
 20
92.16560598824333
 30
0.0
 10
216.7147650282866
 20
92.16560598824333
 30
0.0
 10
216.5655923937753
 20
92.1611273641125
 30
0.0
 10
216.4219319120403
 20
92.18524303250925
 30
0.0
 10
216.2841280926304
 20
92.23795299343356
 30
0.0
 10
216.0567517906039
 20
92.32304685191925
 30
0.0
 10
215.8328205840626
 20
92.4591281235866
 30
0.0
 10
215.6123344730067
 20
92.64619680843567
 30
0.0
 10
215.3918483619507
 20
92.83326549328474
 30
0.0
 10
215.1369112960422
 20
93.10370548887686
 30
0.0
 10
214.8475232752812
 20
93.45751679521201
 30
0.0
 10
214.397249295359
 20
94.00632050601231
 30
0.0
 10
214.0406819126357
 20
94.37735728977372
 30
0.0
 10
213.7778211271111
 20
94.57028263694772
 30
0.0
 10
213.5149603415865
 20
94.76320798412171
 30
0.0
 10
213.2662244475515
 20
94.8596706577087
 30
0.0
 10
213.0319579545545
 20
94.8596706577087
 30
0.0
 10
212.7863226464562
 20
94.8596706577087
 30
0.0
 10
212.5789278982442
 20
94.77182072283483
 30
0.0
 10
212.410118219467
 20
94.59612085308709
 30
0.0
 10
212.2413085406897
 20
94.42042098333933
 30
0.0
 10
212.1569037013011
 20
94.19132213357022
 30
0.0
 10
212.1569037013011
 20
93.90882430377974
 30
0.0
 10
212.1569037013011
 20
93.61013452520857
 30
0.0
 10
212.2464761839176
 20
93.37138940808078
 30
0.0
 10
212.4256211491506
 20
93.19224444284778
 30
0.0
 10
212.6047661143835
 20
93.01309947761479
 30
0.0
 10
212.8528129893215
 20
92.92249346635271
 30
0.0
 10
213.1697617739645
 20
92.92008189951303
 30
0.0
 10
213.1697617739645
 20
92.92008189951303
 30
0.0
 10
213.1043049597448
 20
92.28273923474182
 30
0.0
 10
213.1043049597448
 20
92.28273923474182
 30
0.0
 10
212.6288817827803
 20
92.32649194740449
 30
0.0
 10
212.266457737732
 20
92.49047849250239
 30
0.0
 10
212.0173773341484
 20
92.77538788913254
 30
0.0
 10
211.7682969305649
 20
93.0602972857627
 30
0.0
 10
211.6435844739988
 20
93.44270288462544
 30
0.0
 10
211.6435844739988
 20
93.92260468572073
 30
0.0
 10
211.6435844739988
 20
94.40732962049539
 30
0.0
 10
211.7779431979236
 20
94.79076874800369
 30
0.0
 10
212.0466606457731
 20
95.07326657779419
 30
0.0
 10
212.3153780936225
 20
95.35576440758466
 30
0.0
 10
212.6485188270462
 20
95.49701332247991
 30
0.0
 10
213.0457383364955
 20
95.49701332247991
 30
0.0
 10
213.2479654414797
 20
95.49701332247991
 30
0.0
 10
213.4464029414301
 20
95.45567217665691
 30
0.0
 10
213.6417398554438
 20
95.37298988501092
 30
0.0
 10
213.8370767694574
 20
95.29030759336492
 30
0.0
 10
214.0424044603783
 20
95.15319279305199
 30
0.0
 10
214.2584119473035
 20
94.96130097452356
 30
0.0
 10
214.4744194342286
 20
94.76940915599515
 30
0.0
 10
214.7706976459601
 20
94.45073782360955
 30
0.0
 10
215.1472465824979
 20
94.00528697736673
 30
0.0
 10
215.4597167430101
 20
93.63321666495975
 30
0.0
 10
215.671590115353
 20
93.39447154783194
 30
0.0
 10
215.7828666995265
 20
93.28870711643478
 30
0.0
 10
215.8941432837001
 20
93.18294268503761
 30
0.0
 10
216.0061088869707
 20
93.09578176926079
 30
0.0
 10
216.1187635093384
 20
93.02687985955579
 30
0.0
 10
216.1187635093384
 20
93.02687985955579
 30
0.0
 10
216.1187635093384
 20
95.50390351345042
 30
0.0
 10
216.1187635093384
 20
95.50390351345042
 30
0.0
  0
HATCH
  5
E6
330
D7
100
AcDbEntity
  8
Livello 1
 62
   144
420
  1404587
440
 33554687
100
AcDbHatch
 10
0.0
 20
0.0
 30
0.0
210
0.0
220
0.0
230
1.0
  2
SOLID
 70
     1
 71
     1
 91
        1
 92
        1
 93
        1
 72
     4
 94
        3
 73
     0
 74
     0
 95
       71
 96
       67
 40
0.0
 40
0.0
 40
0.0
 40
0.0
 40
1.0
 40
1.0
 40
1.0
 40
2.0
 40
2.0
 40
2.0
 40
3.0
 40
3.0
 40
3.0
 40
4.0
 40
4.0
 40
4.0
 40
5.0
 40
5.0
 40
5.0
 40
6.0
 40
6.0
 40
6.0
 40
7.0
 40
7.0
 40
7.0
 40
8.0
 40
8.0
 40
8.0
 40
9.0
 40
9.0
 40
9.0
 40
10.0
 40
10.0
 40
10.0
 40
11.0
 40
11.0
 40
11.0
 40
12.0
 40
12.0
 40
12.0
 40
13.0
 40
13.0
 40
13.0
 40
14.0
 40
14.0
 40
14.0
 40
15.0
 40
15.0
 40
15.0
 40
16.0
 40
16.0
 40
16.0
 40
17.0
 40
17.0
 40
17.0
 40
18.0
 40
18.0
 40
18.0
 40
19.0
 40
19.0
 40
19.0
 40
20.0
 40
20.0
 40
20.0
 40
21.0
 40
21.0
 40
21.0
 40
22.0
 40
22.0
 40
22.0
 40
22.0
 10
216.1187635093384
 20
95.50390351345042
 10
216.1187635093384
 20
95.50390351345042
 10
216.7147650282866
 20
95.50390351345042
 10
216.7147650282866
 20
95.50390351345042
 10
216.7147650282866
 20
95.50390351345042
 10
216.7147650282866
 20
92.16560598824333
 10
216.7147650282866
 20
92.16560598824333
 10
216.5655923937753
 20
92.1611273641125
 10
216.4219319120403
 20
92.18524303250925
 10
216.2841280926304
 20
92.23795299343356
 10
216.0567517906039
 20
92.32304685191925
 10
215.8328205840626
 20
92.4591281235866
 10
215.6123344730067
 20
92.64619680843567
 10
215.3918483619507
 20
92.83326549328474
 10
215.1369112960422
 20
93.10370548887686
 10
214.8475232752812
 20
93.45751679521201
 10
214.397249295359
 20
94.00632050601231
 10
214.0406819126357
 20
94.37735728977372
 10
213.7778211271111
 20
94.57028263694772
 10
213.5149603415865
 20
94.76320798412171
 10
213.2662244475515
 20
94.8596706577087
 10
213.0319579545545
 20
94.8596706577087
 10
212.7863226464562
 20
94.8596706577087
 10
212.5789278982442
 20
94.77182072283483
 10
212.410118219467
 20
94.59612085308709
 10
212.2413085406897
 20
94.42042098333933
 10
212.1569037013011
 20
94.19132213357022
 10
212.1569037013011
 20
93.90882430377974
 10
212.1569037013011
 20
93.61013452520857
 10
212.2464761839176
 20
93.37138940808078
 10
212.4256211491506
 20
93.19224444284778
 10
212.6047661143835
 20
93.01309947761479
 10
212.8528129893215
 20
92.92249346635271
 10
213.1697617739645
 20
92.92008189951303
 10
213.1697617739645
 20
92.92008189951303
 10
213.1043049597448
 20
92.28273923474182
 10
213.1043049597448
 20
92.28273923474182
 10
212.6288817827803
 20
92.32649194740449
 10
212.266457737732
 20
92.49047849250239
 10
212.0173773341484
 20
92.77538788913254
 10
211.7682969305649
 20
93.0602972857627
 10
211.6435844739988
 20
93.44270288462544
 10
211.6435844739988
 20
93.92260468572073
 10
211.6435844739988
 20
94.40732962049539
 10
211.7779431979236
 20
94.79076874800369
 10
212.0466606457731
 20
95.07326657779419
 10
212.3153780936225
 20
95.35576440758466
 10
212.6485188270462
 20
95.49701332247991
 10
213.0457383364955
 20
95.49701332247991
 10
213.2479654414797
 20
95.49701332247991
 10
213.4464029414301
 20
95.45567217665691
 10
213.6417398554438
 20
95.37298988501092
 10
213.8370767694574
 20
95.29030759336492
 10
214.0424044603783
 20
95.15319279305199
 10
214.2584119473035
 20
94.96130097452356
 10
214.4744194342286
 20
94.76940915599515
 10
214.7706976459601
 20
94.45073782360955
 10
215.1472465824979
 20
94.00528697736673
 10
215.4597167430101
 20
93.63321666495975
 10
215.671590115353
 20
93.39447154783194
 10
215.7828666995265
 20
93.28870711643478
 10
215.8941432837001
 20
93.18294268503761
 10
216.0061088869707
 20
93.09578176926079
 10
216.1187635093384
 20
93.02687985955579
 10
216.1187635093384
 20
93.02687985955579
 10
216.1187635093384
 20
95.50390351345042
 10
216.1187635093384
 20
95.50390351345042
 97
        0
 97
        1
330
E5
 75
     2
 76
     1
 98
        1
 10
0.0
 20
0.0
450
        0
451
        0
460
0.0
461
0.0
452
        0
462
0.0
453
        0
470

  0
SPLINE
  5
E7
330
D7
100
AcDbEntity
  8
Livello 1
100
AcDbSpline
210
0.0
220
0.0
230
1.0
 70
    11
 71
     3
 72
    89
 73
    85
 74
     0
 42
0.0000000001
 43
0.0000000001
 40
0.0
 40
0.0
 40
0.0
 40
0.0
 40
1.0
 40
1.0
 40
1.0
 40
2.0
 40
2.0
 40
2.0
 40
3.0
 40
3.0
 40
3.0
 40
4.0
 40
4.0
 40
4.0
 40
5.0
 40
5.0
 40
5.0
 40
6.0
 40
6.0
 40
6.0
 40
7.0
 40
7.0
 40
7.0
 40
8.0
 40
8.0
 40
8.0
 40
9.0
 40
9.0
 40
9.0
 40
10.0
 40
10.0
 40
10.0
 40
11.0
 40
11.0
 40
11.0
 40
12.0
 40
12.0
 40
12.0
 40
13.0
 40
13.0
 40
13.0
 40
14.0
 40
14.0
 40
14.0
 40
15.0
 40
15.0
 40
15.0
 40
16.0
 40
16.0
 40
16.0
 40
17.0
 40
17.0
 40
17.0
 40
18.0
 40
18.0
 40
18.0
 40
19.0
 40
19.0
 40
19.0
 40
20.0
 40
20.0
 40
20.0
 40
21.0
 40
21.0
 40
21.0
 40
22.0
 40
22.0
 40
22.0
 40
23.0
 40
23.0
 40
23.0
 40
24.0
 40
24.0
 40
24.0
 40
25.0
 40
25.0
 40
25.0
 40
26.0
 40
26.0
 40
26.0
 40
27.0
 40
27.0
 40
27.0
 40
28.0
 40
28.0
 40
28.0
 40
28.0
 10
216.7147650282866
 20
98.30132104747328
 30
0.0
 10
216.7147650282866
 20
98.30132104747328
 30
0.0
 10
213.0560736229512
 20
98.30132104747328
 30
0.0
 10
213.0560736229512
 20
98.30132104747328
 30
0.0
 10
213.0560736229512
 20
98.30132104747328
 30
0.0
 10
213.0560736229512
 20
98.85598142059851
 30
0.0
 10
213.0560736229512
 20
98.85598142059851
 30
0.0
 10
213.0560736229512
 20
98.85598142059851
 30
0.0
 10
213.5693928502535
 20
98.85598142059851
 30
0.0
 10
213.5693928502535
 20
98.85598142059851
 30
0.0
 10
213.3902478850205
 20
98.97070310025732
 30
0.0
 10
213.246242893737
 20
99.12366533980241
 30
0.0
 10
213.1370333668547
 20
99.31417912013674
 30
0.0
 10
213.0278238399722
 20
99.50469290047106
 30
0.0
 10
212.9733913313053
 20
99.72173391604179
 30
0.0
 10
212.9733913313053
 20
99.96530216684895
 30
0.0
 10
212.9733913313053
 20
100.2364311815381
 30
0.0
 10
213.0295463877148
 20
100.4586398403367
 30
0.0
 10
213.1422010100825
 20
100.6319281432448
 30
0.0
 10
213.2548556324502
 20
100.8052164461529
 30
0.0
 10
213.4119519865776
 20
100.9275173358792
 30
0.0
 10
213.6141790915617
 20
100.9988308124239
 30
0.0
 10
213.1869872513908
 20
101.2882188331849
 30
0.0
 10
212.9733913313053
 20
101.6647677697227
 30
0.0
 10
212.9733913313053
 20
102.1288221315858
 30
0.0
 10
212.9733913313053
 20
102.4915906861826
 30
0.0
 10
213.0739881194746
 20
102.7706434204879
 30
0.0
 10
213.2748371862646
 20
102.9659803345015
 30
0.0
 10
213.4756862530547
 20
103.1613172485152
 30
0.0
 10
213.7854003371787
 20
103.2588134507478
 30
0.0
 10
214.2032904195394
 20
103.2588134507478
 30
0.0
 10
214.2032904195394
 20
103.2588134507478
 30
0.0
 10
216.7147650282866
 20
103.2588134507478
 30
0.0
 10
216.7147650282866
 20
103.2588134507478
 30
0.0
 10
216.7147650282866
 20
103.2588134507478
 30
0.0
 10
216.7147650282866
 20
102.6421413588881
 30
0.0
 10
216.7147650282866
 20
102.6421413588881
 30
0.0
 10
216.7147650282866
 20
102.6421413588881
 30
0.0
 10
214.4099961486544
 20
102.6421413588881
 30
0.0
 10
214.4099961486544
 20
102.6421413588881
 30
0.0
 10
214.1619492737165
 20
102.6421413588881
 30
0.0
 10
213.9834933275805
 20
102.6221598050736
 30
0.0
 10
213.8742838006981
 20
102.5818521878962
 30
0.0
 10
213.7650742738157
 20
102.5415445707188
 30
0.0
 10
213.6772243389418
 20
102.46885305598
 30
0.0
 10
213.6107339960765
 20
102.3630886245828
 30
0.0
 10
213.5442436532112
 20
102.2573241931856
 30
0.0
 10
213.5108262270043
 20
102.1333007557166
 30
0.0
 10
213.5108262270043
 20
101.9910183121758
 30
0.0
 10
213.5108262270043
 20
101.7336696794277
 30
0.0
 10
213.5962645950384
 20
101.5200737593422
 30
0.0
 10
213.7674858406553
 20
101.3502305519194
 30
0.0
 10
213.9387070862723
 20
101.1803873444966
 30
0.0
 10
214.2125921773497
 20
101.0952934860109
 30
0.0
 10
214.5891411138875
 20
101.0952934860109
 30
0.0
 10
214.5891411138875
 20
101.0952934860109
 30
0.0
 10
216.7147650282866
 20
101.0952934860109
 30
0.0
 10
216.7147650282866
 20
101.0952934860109
 30
0.0
 10
216.7147650282866
 20
101.0952934860109
 30
0.0
 10
216.7147650282866
 20
100.4751762986659
 30
0.0
 10
216.7147650282866
 20
100.4751762986659
 30
0.0
 10
216.7147650282866
 20
100.4751762986659
 30
0.0
 10
214.3376491434642
 20
100.4751762986659
 30
0.0
 10
214.3376491434642
 20
100.4751762986659
 30
0.0
 10
214.0620415046442
 20
100.4751762986659
 30
0.0
 10
213.8553357755292
 20
100.4245333950327
 30
0.0
 10
213.7175319561193
 20
100.3235920973149
 30
0.0
 10
213.5797281367092
 20
100.2226507995971
 30
0.0
 10
213.5108262270043
 20
100.0572862163051
 30
0.0
 10
213.5108262270043
 20
99.82749834743897
 30
0.0
 10
213.5108262270043
 20
99.65283200633679
 30
0.0
 10
213.5566459969581
 20
99.49160153762711
 30
0.0
 10
213.6486300464143
 20
99.34346243176136
 30
0.0
 10
213.7406140958704
 20
99.19532332589561
 30
0.0
 10
213.8749728197951
 20
99.08783634675582
 30
0.0
 10
214.0517062181885
 20
99.0213460038905
 30
0.0
 10
214.2284396165818
 20
98.95485566102518
 30
0.0
 10
214.4833766824903
 20
98.92143823481825
 30
0.0
 10
214.816517415914
 20
98.92143823481825
 30
0.0
 10
214.816517415914
 20
98.92143823481825
 30
0.0
 10
216.7147650282866
 20
98.92143823481825
 30
0.0
 10
216.7147650282866
 20
98.92143823481825
 30
0.0
 10
216.7147650282866
 20
98.92143823481825
 30
0.0
 10
216.7147650282866
 20
98.30132104747328
 30
0.0
 10
216.7147650282866
 20
98.30132104747328
 30
0.0
  0
HATCH
  5
E8
330
D7
100
AcDbEntity
  8
Livello 1
 62
   144
420
  1404587
440
 33554687
100
AcDbHatch
 10
0.0
 20
0.0
 30
0.0
210
0.0
220
0.0
230
1.0
  2
SOLID
 70
     1
 71
     1
 91
        1
 92
        1
 93
        1
 72
     4
 94
        3
 73
     0
 74
     0
 95
       89
 96
       85
 40
0.0
 40
0.0
 40
0.0
 40
0.0
 40
1.0
 40
1.0
 40
1.0
 40
2.0
 40
2.0
 40
2.0
 40
3.0
 40
3.0
 40
3.0
 40
4.0
 40
4.0
 40
4.0
 40
5.0
 40
5.0
 40
5.0
 40
6.0
 40
6.0
 40
6.0
 40
7.0
 40
7.0
 40
7.0
 40
8.0
 40
8.0
 40
8.0
 40
9.0
 40
9.0
 40
9.0
 40
10.0
 40
10.0
 40
10.0
 40
11.0
 40
11.0
 40
11.0
 40
12.0
 40
12.0
 40
12.0
 40
13.0
 40
13.0
 40
13.0
 40
14.0
 40
14.0
 40
14.0
 40
15.0
 40
15.0
 40
15.0
 40
16.0
 40
16.0
 40
16.0
 40
17.0
 40
17.0
 40
17.0
 40
18.0
 40
18.0
 40
18.0
 40
19.0
 40
19.0
 40
19.0
 40
20.0
 40
20.0
 40
20.0
 40
21.0
 40
21.0
 40
21.0
 40
22.0
 40
22.0
 40
22.0
 40
23.0
 40
23.0
 40
23.0
 40
24.0
 40
24.0
 40
24.0
 40
25.0
 40
25.0
 40
25.0
 40
26.0
 40
26.0
 40
26.0
 40
27.0
 40
27.0
 40
27.0
 40
28.0
 40
28.0
 40
28.0
 40
28.0
 10
216.7147650282866
 20
98.30132104747328
 10
216.7147650282866
 20
98.30132104747328
 10
213.0560736229512
 20
98.30132104747328
 10
213.0560736229512
 20
98.30132104747328
 10
213.0560736229512
 20
98.30132104747328
 10
213.0560736229512
 20
98.85598142059851
 10
213.0560736229512
 20
98.85598142059851
 10
213.0560736229512
 20
98.85598142059851
 10
213.5693928502535
 20
98.85598142059851
 10
213.5693928502535
 20
98.85598142059851
 10
213.3902478850205
 20
98.97070310025732
 10
213.246242893737
 20
99.12366533980241
 10
213.1370333668547
 20
99.31417912013674
 10
213.0278238399722
 20
99.50469290047106
 10
212.9733913313053
 20
99.72173391604179
 10
212.9733913313053
 20
99.96530216684895
 10
212.9733913313053
 20
100.2364311815381
 10
213.0295463877148
 20
100.4586398403367
 10
213.1422010100825
 20
100.6319281432448
 10
213.2548556324502
 20
100.8052164461529
 10
213.4119519865776
 20
100.9275173358792
 10
213.6141790915617
 20
100.9988308124239
 10
213.1869872513908
 20
101.2882188331849
 10
212.9733913313053
 20
101.6647677697227
 10
212.9733913313053
 20
102.1288221315858
 10
212.9733913313053
 20
102.4915906861826
 10
213.0739881194746
 20
102.7706434204879
 10
213.2748371862646
 20
102.9659803345015
 10
213.4756862530547
 20
103.1613172485152
 10
213.7854003371787
 20
103.2588134507478
 10
214.2032904195394
 20
103.2588134507478
 10
214.2032904195394
 20
103.2588134507478
 10
216.7147650282866
 20
103.2588134507478
 10
216.7147650282866
 20
103.2588134507478
 10
216.7147650282866
 20
103.2588134507478
 10
216.7147650282866
 20
102.6421413588881
 10
216.7147650282866
 20
102.6421413588881
 10
216.7147650282866
 20
102.6421413588881
 10
214.4099961486544
 20
102.6421413588881
 10
214.4099961486544
 20
102.6421413588881
 10
214.1619492737165
 20
102.6421413588881
 10
213.9834933275805
 20
102.6221598050736
 10
213.8742838006981
 20
102.5818521878962
 10
213.7650742738157
 20
102.5415445707188
 10
213.6772243389418
 20
102.46885305598
 10
213.6107339960765
 20
102.3630886245828
 10
213.5442436532112
 20
102.2573241931856
 10
213.5108262270043
 20
102.1333007557166
 10
213.5108262270043
 20
101.9910183121758
 10
213.5108262270043
 20
101.7336696794277
 10
213.5962645950384
 20
101.5200737593422
 10
213.7674858406553
 20
101.3502305519194
 10
213.9387070862723
 20
101.1803873444966
 10
214.2125921773497
 20
101.0952934860109
 10
214.5891411138875
 20
101.0952934860109
 10
214.5891411138875
 20
101.0952934860109
 10
216.7147650282866
 20
101.0952934860109
 10
216.7147650282866
 20
101.0952934860109
 10
216.7147650282866
 20
101.0952934860109
 10
216.7147650282866
 20
100.4751762986659
 10
216.7147650282866
 20
100.4751762986659
 10
216.7147650282866
 20
100.4751762986659
 10
214.3376491434642
 20
100.4751762986659
 10
214.3376491434642
 20
100.4751762986659
 10
214.0620415046442
 20
100.4751762986659
 10
213.8553357755292
 20
100.4245333950327
 10
213.7175319561193
 20
100.3235920973149
 10
213.5797281367092
 20
100.2226507995971
 10
213.5108262270043
 20
100.0572862163051
 10
213.5108262270043
 20
99.82749834743897
 10
213.5108262270043
 20
99.65283200633679
 10
213.5566459969581
 20
99.49160153762711
 10
213.6486300464143
 20
99.34346243176136
 10
213.7406140958704
 20
99.19532332589561
 10
213.8749728197951
 20
99.08783634675582
 10
214.0517062181885
 20
99.0213460038905
 10
214.2284396165818
 20
98.95485566102518
 10
214.4833766824903
 20
98.92143823481825
 10
214.816517415914
 20
98.92143823481825
 10
214.816517415914
 20
98.92143823481825
 10
216.7147650282866
 20
98.92143823481825
 10
216.7147650282866
 20
98.92143823481825
 10
216.7147650282866
 20
98.92143823481825
 10
216.7147650282866
 20
98.30132104747328
 10
216.7147650282866
 20
98.30132104747328
 97
        0
 97
        1
330
E7
 75
     2
 76
     1
 98
        1
 10
0.0
 20
0.0
450
        0
451
        0
460
0.0
461
0.0
452
        0
462
0.0
453
        0
470

  0
SPLINE
  5
E9
330
D7
100
AcDbEntity
  8
Livello 1
100
AcDbSpline
210
0.0
220
0.0
230
1.0
 70
    11
 71
     3
 72
    89
 73
    85
 74
     0
 42
0.0000000001
 43
0.0000000001
 40
0.0
 40
0.0
 40
0.0
 40
0.0
 40
1.0
 40
1.0
 40
1.0
 40
2.0
 40
2.0
 40
2.0
 40
3.0
 40
3.0
 40
3.0
 40
4.0
 40
4.0
 40
4.0
 40
5.0
 40
5.0
 40
5.0
 40
6.0
 40
6.0
 40
6.0
 40
7.0
 40
7.0
 40
7.0
 40
8.0
 40
8.0
 40
8.0
 40
9.0
 40
9.0
 40
9.0
 40
10.0
 40
10.0
 40
10.0
 40
11.0
 40
11.0
 40
11.0
 40
12.0
 40
12.0
 40
12.0
 40
13.0
 40
13.0
 40
13.0
 40
14.0
 40
14.0
 40
14.0
 40
15.0
 40
15.0
 40
15.0
 40
16.0
 40
16.0
 40
16.0
 40
17.0
 40
17.0
 40
17.0
 40
18.0
 40
18.0
 40
18.0
 40
19.0
 40
19.0
 40
19.0
 40
20.0
 40
20.0
 40
20.0
 40
21.0
 40
21.0
 40
21.0
 40
22.0
 40
22.0
 40
22.0
 40
23.0
 40
23.0
 40
23.0
 40
24.0
 40
24.0
 40
24.0
 40
25.0
 40
25.0
 40
25.0
 40
26.0
 40
26.0
 40
26.0
 40
27.0
 40
27.0
 40
27.0
 40
28.0
 40
28.0
 40
28.0
 40
28.0
 10
216.7147650282866
 20
104.1786539453095
 30
0.0
 10
216.7147650282866
 20
104.1786539453095
 30
0.0
 10
213.0560736229512
 20
104.1786539453095
 30
0.0
 10
213.0560736229512
 20
104.1786539453095
 30
0.0
 10
213.0560736229512
 20
104.1786539453095
 30
0.0
 10
213.0560736229512
 20
104.7333143184347
 30
0.0
 10
213.0560736229512
 20
104.7333143184347
 30
0.0
 10
213.0560736229512
 20
104.7333143184347
 30
0.0
 10
213.5693928502535
 20
104.7333143184347
 30
0.0
 10
213.5693928502535
 20
104.7333143184347
 30
0.0
 10
213.3902478850205
 20
104.8480359980935
 30
0.0
 10
213.246242893737
 20
105.0009982376386
 30
0.0
 10
213.1370333668547
 20
105.1915120179729
 30
0.0
 10
213.0278238399722
 20
105.3820257983073
 30
0.0
 10
212.9733913313053
 20
105.599066813878
 30
0.0
 10
212.9733913313053
 20
105.8426350646852
 30
0.0
 10
212.9733913313053
 20
106.1137640793743
 30
0.0
 10
213.0295463877148
 20
106.3359727381729
 30
0.0
 10
213.1422010100825
 20
106.509261041081
 30
0.0
 10
213.2548556324502
 20
106.6825493439891
 30
0.0
 10
213.4119519865776
 20
106.8048502337154
 30
0.0
 10
213.6141790915617
 20
106.8761637102601
 30
0.0
 10
213.1869872513908
 20
107.1655517310211
 30
0.0
 10
212.9733913313053
 20
107.5421006675589
 30
0.0
 10
212.9733913313053
 20
108.0061550294221
 30
0.0
 10
212.9733913313053
 20
108.3689235840189
 30
0.0
 10
213.0739881194746
 20
108.6479763183241
 30
0.0
 10
213.2748371862646
 20
108.8433132323378
 30
0.0
 10
213.4756862530547
 20
109.0386501463514
 30
0.0
 10
213.7854003371787
 20
109.136146348584
 30
0.0
 10
214.2032904195394
 20
109.136146348584
 30
0.0
 10
214.2032904195394
 20
109.136146348584
 30
0.0
 10
216.7147650282866
 20
109.136146348584
 30
0.0
 10
216.7147650282866
 20
109.136146348584
 30
0.0
 10
216.7147650282866
 20
109.136146348584
 30
0.0
 10
216.7147650282866
 20
108.5194742567243
 30
0.0
 10
216.7147650282866
 20
108.5194742567243
 30
0.0
 10
216.7147650282866
 20
108.5194742567243
 30
0.0
 10
214.4099961486544
 20
108.5194742567243
 30
0.0
 10
214.4099961486544
 20
108.5194742567243
 30
0.0
 10
214.1619492737165
 20
108.5194742567243
 30
0.0
 10
213.9834933275805
 20
108.4994927029098
 30
0.0
 10
213.8742838006981
 20
108.4591850857324
 30
0.0
 10
213.7650742738157
 20
108.418877468555
 30
0.0
 10
213.6772243389418
 20
108.3461859538162
 30
0.0
 10
213.6107339960765
 20
108.240421522419
 30
0.0
 10
213.5442436532112
 20
108.1346570910219
 30
0.0
 10
213.5108262270043
 20
108.0106336535529
 30
0.0
 10
213.5108262270043
 20
107.8683512100121
 30
0.0
 10
213.5108262270043
 20
107.6110025772639
 30
0.0
 10
213.5962645950384
 20
107.3974066571784
 30
0.0
 10
213.7674858406553
 20
107.2275634497556
 30
0.0
 10
213.9387070862723
 20
107.0577202423328
 30
0.0
 10
214.2125921773497
 20
106.9726263838471
 30
0.0
 10
214.5891411138875
 20
106.9726263838471
 30
0.0
 10
214.5891411138875
 20
106.9726263838471
 30
0.0
 10
216.7147650282866
 20
106.9726263838471
 30
0.0
 10
216.7147650282866
 20
106.9726263838471
 30
0.0
 10
216.7147650282866
 20
106.9726263838471
 30
0.0
 10
216.7147650282866
 20
106.3525091965021
 30
0.0
 10
216.7147650282866
 20
106.3525091965021
 30
0.0
 10
216.7147650282866
 20
106.3525091965021
 30
0.0
 10
214.3376491434642
 20
106.3525091965021
 30
0.0
 10
214.3376491434642
 20
106.3525091965021
 30
0.0
 10
214.0620415046442
 20
106.3525091965021
 30
0.0
 10
213.8553357755292
 20
106.3018662928689
 30
0.0
 10
213.7175319561193
 20
106.2009249951511
 30
0.0
 10
213.5797281367092
 20
106.0999836974333
 30
0.0
 10
213.5108262270043
 20
105.9346191141413
 30
0.0
 10
213.5108262270043
 20
105.7048312452752
 30
0.0
 10
213.5108262270043
 20
105.530164904173
 30
0.0
 10
213.5566459969581
 20
105.3689344354633
 30
0.0
 10
213.6486300464143
 20
105.2207953295976
 30
0.0
 10
213.7406140958704
 20
105.0726562237318
 30
0.0
 10
213.8749728197951
 20
104.965169244592
 30
0.0
 10
214.0517062181885
 20
104.8986789017267
 30
0.0
 10
214.2284396165818
 20
104.8321885588614
 30
0.0
 10
214.4833766824903
 20
104.7987711326545
 30
0.0
 10
214.816517415914
 20
104.7987711326545
 30
0.0
 10
214.816517415914
 20
104.7987711326545
 30
0.0
 10
216.7147650282866
 20
104.7987711326545
 30
0.0
 10
216.7147650282866
 20
104.7987711326545
 30
0.0
 10
216.7147650282866
 20
104.7987711326545
 30
0.0
 10
216.7147650282866
 20
104.1786539453095
 30
0.0
 10
216.7147650282866
 20
104.1786539453095
 30
0.0
  0
HATCH
  5
EA
330
D7
100
AcDbEntity
  8
Livello 1
 62
   144
420
  1404587
440
 33554687
100
AcDbHatch
 10
0.0
 20
0.0
 30
0.0
210
0.0
220
0.0
230
1.0
  2
SOLID
 70
     1
 71
     1
 91
        1
 92
        1
 93
        1
 72
     4
 94
        3
 73
     0
 74
     0
 95
       89
 96
       85
 40
0.0
 40
0.0
 40
0.0
 40
0.0
 40
1.0
 40
1.0
 40
1.0
 40
2.0
 40
2.0
 40
2.0
 40
3.0
 40
3.0
 40
3.0
 40
4.0
 40
4.0
 40
4.0
 40
5.0
 40
5.0
 40
5.0
 40
6.0
 40
6.0
 40
6.0
 40
7.0
 40
7.0
 40
7.0
 40
8.0
 40
8.0
 40
8.0
 40
9.0
 40
9.0
 40
9.0
 40
10.0
 40
10.0
 40
10.0
 40
11.0
 40
11.0
 40
11.0
 40
12.0
 40
12.0
 40
12.0
 40
13.0
 40
13.0
 40
13.0
 40
14.0
 40
14.0
 40
14.0
 40
15.0
 40
15.0
 40
15.0
 40
16.0
 40
16.0
 40
16.0
 40
17.0
 40
17.0
 40
17.0
 40
18.0
 40
18.0
 40
18.0
 40
19.0
 40
19.0
 40
19.0
 40
20.0
 40
20.0
 40
20.0
 40
21.0
 40
21.0
 40
21.0
 40
22.0
 40
22.0
 40
22.0
 40
23.0
 40
23.0
 40
23.0
 40
24.0
 40
24.0
 40
24.0
 40
25.0
 40
25.0
 40
25.0
 40
26.0
 40
26.0
 40
26.0
 40
27.0
 40
27.0
 40
27.0
 40
28.0
 40
28.0
 40
28.0
 40
28.0
 10
216.7147650282866
 20
104.1786539453095
 10
216.7147650282866
 20
104.1786539453095
 10
213.0560736229512
 20
104.1786539453095
 10
213.0560736229512
 20
104.1786539453095
 10
213.0560736229512
 20
104.1786539453095
 10
213.0560736229512
 20
104.7333143184347
 10
213.0560736229512
 20
104.7333143184347
 10
213.0560736229512
 20
104.7333143184347
 10
213.5693928502535
 20
104.7333143184347
 10
213.5693928502535
 20
104.7333143184347
 10
213.3902478850205
 20
104.8480359980935
 10
213.246242893737
 20
105.0009982376386
 10
213.1370333668547
 20
105.1915120179729
 10
213.0278238399722
 20
105.3820257983073
 10
212.9733913313053
 20
105.599066813878
 10
212.9733913313053
 20
105.8426350646852
 10
212.9733913313053
 20
106.1137640793743
 10
213.0295463877148
 20
106.3359727381729
 10
213.1422010100825
 20
106.509261041081
 10
213.2548556324502
 20
106.6825493439891
 10
213.4119519865776
 20
106.8048502337154
 10
213.6141790915617
 20
106.8761637102601
 10
213.1869872513908
 20
107.1655517310211
 10
212.9733913313053
 20
107.5421006675589
 10
212.9733913313053
 20
108.0061550294221
 10
212.9733913313053
 20
108.3689235840189
 10
213.0739881194746
 20
108.6479763183241
 10
213.2748371862646
 20
108.8433132323378
 10
213.4756862530547
 20
109.0386501463514
 10
213.7854003371787
 20
109.136146348584
 10
214.2032904195394
 20
109.136146348584
 10
214.2032904195394
 20
109.136146348584
 10
216.7147650282866
 20
109.136146348584
 10
216.7147650282866
 20
109.136146348584
 10
216.7147650282866
 20
109.136146348584
 10
216.7147650282866
 20
108.5194742567243
 10
216.7147650282866
 20
108.5194742567243
 10
216.7147650282866
 20
108.5194742567243
 10
214.4099961486544
 20
108.5194742567243
 10
214.4099961486544
 20
108.5194742567243
 10
214.1619492737165
 20
108.5194742567243
 10
213.9834933275805
 20
108.4994927029098
 10
213.8742838006981
 20
108.4591850857324
 10
213.7650742738157
 20
108.418877468555
 10
213.6772243389418
 20
108.3461859538162
 10
213.6107339960765
 20
108.240421522419
 10
213.5442436532112
 20
108.1346570910219
 10
213.5108262270043
 20
108.0106336535529
 10
213.5108262270043
 20
107.8683512100121
 10
213.5108262270043
 20
107.6110025772639
 10
213.5962645950384
 20
107.3974066571784
 10
213.7674858406553
 20
107.2275634497556
 10
213.9387070862723
 20
107.0577202423328
 10
214.2125921773497
 20
106.9726263838471
 10
214.5891411138875
 20
106.9726263838471
 10
214.5891411138875
 20
106.9726263838471
 10
216.7147650282866
 20
106.9726263838471
 10
216.7147650282866
 20
106.9726263838471
 10
216.7147650282866
 20
106.9726263838471
 10
216.7147650282866
 20
106.3525091965021
 10
216.7147650282866
 20
106.3525091965021
 10
216.7147650282866
 20
106.3525091965021
 10
214.3376491434642
 20
106.3525091965021
 10
214.3376491434642
 20
106.3525091965021
 10
214.0620415046442
 20
106.3525091965021
 10
213.8553357755292
 20
106.3018662928689
 10
213.7175319561193
 20
106.2009249951511
 10
213.5797281367092
 20
106.0999836974333
 10
213.5108262270043
 20
105.9346191141413
 10
213.5108262270043
 20
105.7048312452752
 10
213.5108262270043
 20
105.530164904173
 10
213.5566459969581
 20
105.3689344354633
 10
213.6486300464143
 20
105.2207953295976
 10
213.7406140958704
 20
105.0726562237318
 10
213.8749728197951
 20
104.965169244592
 10
214.0517062181885
 20
104.8986789017267
 10
214.2284396165818
 20
104.8321885588614
 10
214.4833766824903
 20
104.7987711326545
 10
214.816517415914
 20
104.7987711326545
 10
214.816517415914
 20
104.7987711326545
 10
216.7147650282866
 20
104.7987711326545
 10
216.7147650282866
 20
104.7987711326545
 10
216.7147650282866
 20
104.7987711326545
 10
216.7147650282866
 20
104.1786539453095
 10
216.7147650282866
 20
104.1786539453095
 97
        0
 97
        1
330
E9
 75
     2
 76
     1
 98
        1
 10
0.0
 20
0.0
450
        0
451
        0
460
0.0
461
0.0
452
        0
462
0.0
453
        0
470

  0
ENDBLK
  5
DA
330
D7
100
AcDbEntity
  8
0
100
AcDbBlockEnd
  0
ENDSEC
  0
SECTION
  2
ENTITIES
  0
LINE
  5
79
330
70
100
AcDbEntity
  8
Livello 1
 62
   250
420
  2300182
370
     9
100
AcDbLine
 10
61.33581253213783
 20
43.18038810074326
 30
0.0
 11
60.83561158248804
 21
43.68059174187391
 31
0.0
  0
LINE
  5
7A
330
70
100
AcDbEntity
  8
Livello 1
 62
   250
420
  2300182
370
     9
100
AcDbLine
 10
198.8359898388001
 20
43.68059174187391
 30
0.0
 11
198.3357835061886
 21
43.18038810074326
 31
0.0
  0
LINE
  5
7B
330
70
100
AcDbEntity
  8
Livello 1
 62
   250
420
  2300182
370
     9
100
AcDbLine
 10
60.83599915573013
 20
43.68059174187391
 30
0.0
 11
60.83599915573013
 21
48.18041397585638
 31
0.0
  0
LINE
  5
7C
330
70
100
AcDbEntity
  8
Livello 1
 62
   250
420
  2300182
370
     9
100
AcDbLine
 10
129.8358087850866
 20
43.68059174187391
 30
0.0
 11
60.83561158248804
 21
43.68059174187391
 31
0.0
  0
LINE
  5
7D
330
70
100
AcDbEntity
  8
Livello 1
 62
   250
420
  2300182
370
     9
100
AcDbLine
 10
198.8359898388001
 20
43.68059174187391
 30
0.0
 11
129.8358087850866
 21
43.68059174187391
 31
0.0
  0
LINE
  5
7E
330
70
100
AcDbEntity
  8
Livello 1
 62
   250
420
  2300182
370
     9
100
AcDbLine
 10
200.2843941081863
 20
48.18041397585638
 30
0.0
 11
200.2584051691195
 21
51.01378431104484
 31
0.0
  0
LINE
  5
7F
330
70
100
AcDbEntity
  8
Livello 1
 62
   250
420
  2300182
370
     9
100
AcDbLine
 10
59.73600169913664
 20
84.08038675537422
 30
0.0
 11
59.33598843256726
 21
48.18041397585638
 31
0.0
  0
LWPOLYLINE
  5
80
330
70
100
AcDbEntity
  8
Livello 1
 62
   250
420
  2300182
370
     9
100
AcDbPolyline
 90
       10
 70
     0
 43
0.0
 10
199.9359872953936
 20
84.08038675537422
 10
199.9359872953936
 20
84.08038675537422
 10
199.9358796361597
 20
84.08038675537422
 10
199.9357719769258
 20
84.08038675537422
 10
199.9351044896755
 20
84.08038675537422
 10
199.9327144546826
 20
84.08038675537422
 10
199.9227021459286
 20
84.08038675537422
 10
199.882416060598
 20
84.08038675537422
 10
199.7184079836533
 20
84.08038675537422
 10
199.0411022112532
 20
84.08038675537422
  0
LINE
  5
81
330
70
100
AcDbEntity
  8
Livello 1
 62
   250
420
  2300182
370
     9
100
AcDbLine
 10
200.277482385369
 20
53.43041651767538
 30
0.0
 11
199.9359872953936
 21
84.08038675537422
 31
0.0
  0
LWPOLYLINE
  5
82
330
70
100
AcDbEntity
  8
Livello 1
 62
   250
420
  2300182
370
     9
100
AcDbPolyline
 90
        3
 70
     0
 43
0.0
 10
200.2584051691195
 20
51.01378431104484
 10
200.2774177898287
 20
53.4285109492351
 10
200.277482385369
 20
53.43041651767538
  0
LINE
  5
83
330
70
100
AcDbEntity
  8
Livello 1
 62
   250
420
  2300182
370
     9
100
AcDbLine
 10
199.0359776317188
 20
84.08038675537422
 30
0.0
 11
199.0044119443353
 21
85.21040498934466
 31
0.0
  0
LINE
  5
84
330
70
100
AcDbEntity
  8
Livello 1
 62
   250
420
  2300182
370
     9
100
AcDbLine
 10
60.66751245465463
 20
85.21040498934466
 30
0.0
 11
60.63601136281138
 21
84.08038675537422
 31
0.0
  0
LWPOLYLINE
  5
85
330
70
100
AcDbEntity
  8
Livello 1
 62
   250
420
  2300182
370
     9
100
AcDbPolyline
 90
        4
 70
     0
 43
0.0
 10
199.0044119443353
 20
85.21040498934466
 10
199.0032922883025
 20
85.21040498934466
 10
60.66860519587886
 20
85.21040498934466
 10
60.66751245465463
 20
85.21040498934466
  0
LINE
  5
86
330
70
100
AcDbEntity
  8
Livello 1
 62
   250
420
  2300182
370
     9
100
AcDbLine
 10
184.9490037243791
 20
92.68040014705018
 30
0.0
 11
199.0044119443353
 21
85.21040498934466
 31
0.0
  0
LINE
  5
87
330
70
100
AcDbEntity
  8
Livello 1
 62
   250
420
  2300182
370
     9
100
AcDbLine
 10
60.66751245465463
 20
85.21040498934466
 30
0.0
 11
74.72288299387895
 21
92.68040014705018
 31
0.0
  0
LWPOLYLINE
  5
88
330
70
100
AcDbEntity
  8
Livello 1
 62
   250
420
  2300182
370
     9
100
AcDbPolyline
 90
       10
 70
     0
 43
0.0
 10
184.9490037243791
 20
92.68040014705018
 10
184.9490037243791
 20
92.68040014705018
 10
184.9486807466773
 20
92.68040014705018
 10
184.9479056001931
 20
92.68040014705018
 10
184.9443097817804
 20
92.68040014705018
 10
184.9298834444359
 20
92.68040014705018
 10
184.8717905218159
 20
92.68040014705018
 10
184.6339066785594
 20
92.68040014705018
 10
183.6427096437595
 20
92.68040014705018
 10
179.4366033317413
 20
92.68040014705018
  0
LINE
  5
89
330
70
100
AcDbEntity
  8
Livello 1
 62
   250
420
  2300182
370
     9
100
AcDbLine
 10
80.23598855449884
 20
97.54068702802369
 30
0.0
 11
80.23598855449884
 21
92.68509408964883
 31
0.0
  0
LWPOLYLINE
  5
8A
330
70
100
AcDbEntity
  8
Livello 1
 62
   250
420
  2300182
370
     9
100
AcDbPolyline
 90
       65
 70
     0
 43
0.0
 10
129.8360133376311
 20
143.4304139520439
 10
128.7758820953559
 20
143.4190882006361
 10
127.7076010490735
 20
143.3847987346345
 10
126.6319130474978
 20
143.3270826193331
 10
125.5493025571815
 20
143.2453154311754
 10
124.4605985542255
 20
143.1390880650724
 10
123.3665977169611
 20
143.0078945226248
 10
122.2680859577956
 20
142.8514010602073
 10
121.1657953595197
 20
142.6690155520335
 10
120.060619493775
 20
142.4604903818653
 10
118.9533873366625
 20
142.2255025720011
 10
117.8449924598237
 20
141.9637076128923
 10
116.7363930304404
 20
141.6748148246073
 10
115.6286010453116
 20
141.3585873568315
 10
114.5223916509213
 20
141.0149067844077
 10
113.4189060351489
 20
140.6436116184849
 10
112.3190162377894
 20
140.2445080724421
 10
111.223809617105
 20
139.8176822736664
 10
110.1342981698948
 20
139.3631019243877
 10
109.0515800203445
 20
138.880713194989
 10
107.9764949104787
 20
138.3706991061679
 10
106.9102916874109
 20
137.833210380852
 10
105.8537993272421
 20
137.2684085078921
 10
104.8081913156219
 20
136.6765841672197
 10
103.7744904152727
 20
136.0579957409963
 10
102.7536870911464
 20
135.4130092706172
 10
101.7466856808079
 20
134.7419907974777
 10
100.7546058402899
 20
134.0453924903602
 10
99.77828731161686
 20
133.3237849432044
 10
98.81880668712799
 20
132.5775880270227
 10
97.8768852836905
 20
131.8075876542226
 10
96.95370735287745
 20
131.0141929298929
 10
96.04977889308827
 20
130.1982866597518
 10
95.16621956035558
 20
129.3605040332794
 10
94.3035999486192
 20
128.5014910058792
 10
93.46279209767379
 20
127.6223026380434
 10
92.64438813330592
 20
126.7234879918651
 10
91.84918473384652
 20
125.8061990211472
 10
91.0778063228523
 20
124.8710924472165
 10
90.3305866439484
 20
123.919298692029
 10
89.60841388581458
 20
122.9514852428352
 10
88.9113957076848
 20
121.968890180825
 10
88.2401995968093
 20
120.9724070776399
 10
87.59521850939188
 20
119.9630048663851
 10
86.97658701947494
 20
118.9417063097828
 10
86.38469270030054
 20
117.9094157453978
 10
85.81979393403008
 20
116.8674143181139
 10
85.28201452878258
 20
115.8164125788746
 10
84.7715105904472
 20
114.7576916725638
 10
84.28831441679413
 20
113.6920913412059
 10
83.83238294412981
 20
112.6207097089867
 10
83.40389919315184
 20
111.5444834112415
 10
83.00268552612434
 20
110.4644890403092
 10
82.62870426231538
 20
109.381717061142
 10
82.28160550921476
 20
108.2969964498409
 10
81.96138926682248
 20
107.2113930328217
 10
81.66780791890055
 20
106.1257142543388
 10
81.40040391370481
 20
105.0408859838038
 10
81.15910188977153
 20
103.9577910269348
 10
80.94341738054811
 20
102.8773014235265
 10
80.75309200387314
 20
101.8000954267527
 10
80.58760361246214
 20
100.7271957993353
 10
80.44648927160929
 20
99.65908700782719
 10
80.32951213099998
 20
98.59680258087381
 10
80.23598855449884
 20
97.54068702802369
  0
LWPOLYLINE
  5
8B
330
70
100
AcDbEntity
  8
Livello 1
 62
   250
420
  2300182
370
     9
100
AcDbPolyline
 90
       65
 70
     0
 43
0.0
 10
129.8360133376311
 20
143.4304139520439
 10
130.896112282136
 20
143.4190882006361
 10
131.9642856691845
 20
143.3847987346345
 10
133.0400813299941
 20
143.3270826193331
 10
134.1225841610765
 20
143.2453154311754
 10
135.2112881640325
 20
143.1390880650724
 10
136.3052890012969
 20
143.0078945226248
 10
137.4038007604624
 20
142.8514010602073
 10
138.5060913587383
 20
142.6690155520335
 10
139.6113102881766
 20
142.4604903818653
 10
140.7184993815955
 20
142.2255025720011
 10
141.8268942584343
 20
141.9637076128923
 10
142.9355044537409
 20
141.6748148246073
 10
144.0434040981037
 20
141.3585873568315
 10
145.1494950673367
 20
141.0149067844077
 10
146.2529914490325
 20
140.6436116184849
 10
147.3529135441622
 20
140.2445080724421
 10
148.4481093989231
 20
139.8176822736664
 10
149.5375993142866
 20
139.3631019243877
 10
150.6204143571474
 20
138.880713194989
 10
151.6953918077793
 20
138.3706991061679
 10
152.761702690081
 20
137.833210380852
 10
153.8180981569393
 20
137.2684085078921
 10
154.863695402636
 20
136.6765841672197
 10
155.8974070689087
 20
136.0579957409963
 10
156.9183072863455
 20
135.4130092706172
 10
157.9252010374501
 20
134.7419907974777
 10
158.9172916438915
 20
134.0453924903602
 10
159.8935994066412
 20
133.3237849432044
 10
160.85308003113
 20
132.5775880270227
 10
161.7950014345675
 20
131.8075876542226
 10
162.7182870246145
 20
131.0141929298929
 10
163.6221078251698
 20
130.1982866597518
 10
164.505710221596
 20
129.3605040332794
 10
165.3682867696388
 20
128.5014910058792
 10
166.2092022798181
 20
127.6223026380434
 10
167.0275093508755
 20
126.7234879918651
 10
167.8227019844115
 20
125.8061990211472
 10
168.5941880546396
 20
124.8710924472165
 10
169.341310840233
 20
123.919298692029
 10
170.063585874639
 20
122.9514852428352
 10
170.7604963935349
 20
121.968890180825
 10
171.4316871214487
 20
120.9724070776399
 10
172.0768135488319
 20
119.9630048663851
 10
172.6954127409787
 20
118.9417063097828
 10
173.2873016771914
 20
117.9094157453978
 10
173.8522004434619
 20
116.8674143181139
 10
174.3900121464795
 20
115.8164125788746
 10
174.9004891700064
 20
114.7576916725638
 10
175.3836853436595
 20
113.6920913412059
 10
175.8395037741282
 20
112.6207097089867
 10
176.2679875251062
 20
111.5444834112415
 10
176.6692011921337
 20
110.4644890403092
 10
177.0432954981382
 20
109.381717061142
 10
177.3902812090432
 20
108.2969964498409
 10
177.7105028343972
 20
107.2113930328217
 10
178.0041864585914
 20
106.1257142543388
 10
178.2714828045532
 20
105.0408859838038
 10
178.5127902114482
 20
103.9577910269348
 10
178.7285070184418
 20
102.8773014235265
 10
178.9189023736188
 20
101.8000954267527
 10
179.0843961479915
 20
100.7271957993353
 10
179.2253974466487
 20
99.65908700782719
 10
179.3424122679899
 20
98.59680258087381
 10
179.4360112059548
 20
97.54068702802369
  0
LWPOLYLINE
  5
8C
330
70
100
AcDbEntity
  8
Livello 1
 62
   250
420
  2300182
370
     9
100
AcDbPolyline
 90
       10
 70
     0
 43
0.0
 10
80.23838935541512
 20
92.68040014705018
 10
76.02999528467631
 20
92.68040014705018
 10
75.03819535816645
 20
92.68040014705018
 10
74.80021462159943
 20
92.68040014705018
 10
74.74200327382209
 20
92.68040014705018
 10
74.72760923424779
 20
92.68040014705018
 10
74.7240833943371
 20
92.68040014705018
 10
74.723200588619
 20
92.68040014705018
 10
74.72299065311287
 20
92.68040014705018
 10
74.72288299387895
 20
92.68040014705018
  0
LINE
  5
8D
330
70
100
AcDbEntity
  8
Livello 1
 62
   250
420
  2300182
370
     9
100
AcDbLine
 10
179.4360112059548
 20
92.68160593047001
 30
0.0
 11
179.4360112059548
 21
97.54068702802369
 31
0.0
  0
LWPOLYLINE
  5
8E
330
70
100
AcDbEntity
  8
Livello 1
 62
   250
420
  2300182
370
     9
100
AcDbPolyline
 90
        8
 70
     0
 43
0.0
 10
60.6320925666969
 20
84.08038675537422
 10
59.95380709526816
 20
84.08038675537422
 10
59.78958908281736
 20
84.08038675537422
 10
59.74930299748672
 20
84.08038675537422
 10
59.73928530577102
 20
84.08038675537422
 10
59.73681452635268
 20
84.08038675537422
 10
59.73621163464277
 20
84.08038675537422
 10
59.73600169913664
 20
84.08038675537422
  0
LINE
  5
8F
330
70
100
AcDbEntity
  8
Livello 1
 62
   250
420
  2300182
370
     9
100
AcDbLine
 10
199.0411022112532
 20
84.08038675537422
 30
0.0
 11
60.6320925666969
 21
84.08038675537422
 31
0.0
  0
LINE
  5
90
330
70
100
AcDbEntity
  8
Livello 1
 62
   250
420
  2300182
370
     9
100
AcDbLine
 10
179.4366033317413
 20
92.68040014705018
 30
0.0
 11
80.23838935541512
 21
92.68040014705018
 31
0.0
  0
LINE
  5
91
330
70
100
AcDbEntity
  8
Livello 1
 62
   250
420
  2300182
370
     9
100
AcDbLine
 10
198.8359898388001
 20
48.18041397585638
 30
0.0
 11
198.8359898388001
 21
43.68059174187391
 31
0.0
  0
LWPOLYLINE
  5
92
330
70
100
AcDbEntity
  8
Livello 1
 62
   250
420
  2300182
370
     9
100
AcDbPolyline
 90
        9
 70
     0
 43
0.0
 10
60.84810005362207
 20
48.18041397585638
 10
59.70139463839497
 20
48.18041397585638
 10
59.42559321295393
 20
48.18041397585638
 10
59.35821468140883
 20
48.18041397585638
 10
59.34148981942027
 20
48.18041397585638
 10
59.33729110929762
 20
48.18041397585638
 10
59.33630602730731
 20
48.18041397585638
 10
59.33609070883949
 20
48.18041397585638
 10
59.33598843256726
 20
48.18041397585638
  0
LINE
  5
93
330
70
100
AcDbEntity
  8
Livello 1
 62
   250
420
  2300182
370
     9
100
AcDbLine
 10
198.8017111387219
 20
48.18041397585638
 30
0.0
 11
60.84810005362207
 21
48.18041397585638
 31
0.0
  0
LWPOLYLINE
  5
94
330
70
100
AcDbEntity
  8
Livello 1
 62
   250
420
  2300182
370
     9
100
AcDbPolyline
 90
       10
 70
     0
 43
0.0
 10
129.8358087850866
 20
43.18038810074326
 10
81.39899357774053
 20
43.18038810074326
 10
66.14530578655069
 20
43.18038810074326
 10
62.47941197846652
 20
43.18038810074326
 10
61.61288433653905
 20
43.18038810074326
 10
61.404003890899
 20
43.18038810074326
 10
61.35270964890064
 20
43.18038810074326
 10
61.34001124226049
 20
43.18038810074326
 10
61.33690527336206
 20
43.18038810074326
 10
61.33581253213783
 20
43.18038810074326
  0
LWPOLYLINE
  5
95
330
70
100
AcDbEntity
  8
Livello 1
 62
   250
420
  2300182
370
     9
100
AcDbPolyline
 90
       10
 70
     0
 43
0.0
 10
198.3357835061886
 20
43.18038810074326
 10
198.3347069138495
 20
43.18038810074326
 10
198.3316063279128
 20
43.18038810074326
 10
198.3189025383109
 20
43.18038810074326
 10
198.2676998066613
 20
43.18038810074326
 10
198.0586901699406
 20
43.18038810074326
 10
197.1921840598599
 20
43.18038810074326
 10
193.5263010176991
 20
43.18038810074326
 10
178.2726132265093
 20
43.18038810074326
 10
129.8358087850866
 20
43.18038810074326
  0
LINE
  5
96
330
70
100
AcDbEntity
  8
Livello 1
 62
   250
420
  2300182
370
     9
100
AcDbLine
 10
200.2843941081863
 20
48.18041397585638
 30
0.0
 11
198.8017111387219
 21
48.18041397585638
 31
0.0
  0
LWPOLYLINE
  5
97
330
70
100
AcDbEntity
  8
Livello 1
 62
   250
420
  2300182
370
     9
100
AcDbPolyline
 90
      129
 70
     0
 43
0.0
 10
182.336006458051
 20
241.6119963995579
 10
182.3231088818281
 20
242.7772999474437
 10
182.2838132614494
 20
243.9525081448496
 10
182.2175813007455
 20
245.1368027815977
 10
182.1237239806192
 20
246.3294087112041
 10
182.00150921828
 20
247.5293785324102
 10
181.8503771857114
 20
248.7360016942722
 10
181.6700049052118
 20
249.9483092636848
 10
181.459617230297
 20
251.165116989075
 10
181.2186973966441
 20
252.385520532878
 10
180.9469870220918
 20
253.6085940256821
 10
180.644098533398
 20
254.8330240248334
 10
180.3094828684697
 20
256.0577985335333
 10
179.9429785384561
 20
257.2817763639022
 10
179.5443056293489
 20
258.5038163280607
 10
179.1133887796845
 20
259.7225834515082
 10
178.6499157776845
 20
260.9369796100588
 10
178.1539081551957
 20
262.1457128929054
 10
177.6254089759115
 20
263.3474052618542
 10
177.0643213465217
 20
264.5410016564125
 10
176.4709144151108
 20
265.7249948473058
 10
175.8452958409128
 20
266.8982867103479
 10
175.1877886016295
 20
268.059391548111
 10
174.4987049090392
 20
269.2072973637963
 10
173.7783031453032
 20
270.3404969281288
 10
173.0270893088211
 20
271.4579136487696
 10
172.2456878231495
 20
272.5581910193713
 10
171.4346908140749
 20
273.6401878520544
 10
170.59458274815
 20
274.702698363399
 10
169.7261818355524
 20
275.7445167699854
 10
168.830198627226
 20
276.7646095431678
 10
167.9076128221995
 20
277.7618139632202
 10
166.9591026736465
 20
278.73507496965
 10
165.9857878375997
 20
279.6835958841264
 10
164.9885941834707
 20
280.6061924550763
 10
163.9685014102882
 20
281.5021971952494
 10
162.9267153014721
 20
282.3705981078471
 10
161.8642155560509
 20
283.210706173772
 10
160.7822079574444
 20
284.0217031828466
 10
159.6818982890726
 20
284.8031154344416
 10
158.564513866202
 20
285.5543185050003
 10
157.4313143018694
 20
286.2746879709661
 10
156.2834084861841
 20
286.9637931954032
 10
155.1222067551105
 20
287.6213112006098
 10
153.9490117853788
 20
288.2468974770377
 10
152.7649862967154
 20
288.8404013017591
 10
151.5714006680804
 20
289.4013920378385
 10
150.3696975332083
 20
289.9298912171226
 10
149.1610073140552
 20
290.4258988396114
 10
147.9466003895812
 20
290.889414905305
 10
146.7277902024402
 20
291.3203963505098
 10
145.5058040678987
 20
291.7189938981532
 10
144.281804705683
 20
292.0855089940902
 10
143.056997899213
 20
292.420113893095
 10
141.8326109637551
 20
292.7230023817889
 10
140.6094944072576
 20
292.9947127563412
 10
139.389101629378
 20
293.2355895263005
 10
138.1721862447538
 20
293.4459987330622
 10
136.9600078664219
 20
293.6263925454085
 10
135.7534062364067
 20
293.7775030461303
 10
134.553393351507
 20
293.8996962766228
 10
133.3607981878241
 20
293.9935966604426
 10
132.1764820192291
 20
294.0597855574529
 10
131.0013061195934
 20
294.0990811778316
 10
129.8360133376311
 20
294.1120002859013
 10
128.6706882578985
 20
294.0990811778316
 10
127.4956200174967
 20
294.0597855574529
 10
126.3113038489018
 20
293.9935966604426
 10
125.1187086852188
 20
293.8996962766228
 10
123.9185881410852
 20
293.7775030461303
 10
122.71198651107
 20
293.6263925454085
 10
121.4998081327381
 20
293.4459987330622
 10
120.2830004073478
 20
293.2355895263005
 10
119.0624999702344
 20
292.9947127563412
 10
117.8394910729707
 20
292.7230023817889
 10
116.6149964782789
 20
292.420113893095
 10
115.3901896718089
 20
292.0855089940902
 10
114.1661903095932
 20
291.7189938981532
 10
112.9442041750517
 20
291.3203963505098
 10
111.7253939879106
 20
290.889414905305
 10
110.5110947226706
 20
290.4258988396114
 10
109.3024045035175
 20
289.9298912171226
 10
108.1006044753348
 20
289.4013920378385
 10
106.9070834422402
 20
288.8404013017591
 10
105.723090251347
 20
288.2468974770377
 10
104.5497876223814
 20
287.6213112006098
 10
103.3885858913078
 20
286.9637931954032
 10
102.2407877348564
 20
286.2746879709661
 10
101.1074912772133
 20
285.5543185050003
 10
99.99009608841937
 20
284.8031154344416
 10
98.88978642004753
 20
284.0217031828466
 10
97.80788648067499
 20
283.210706173772
 10
96.74538673525375
 20
282.3705981078471
 10
95.70349296720369
 20
281.5021971952494
 10
94.68350785325512
 20
280.6061924550763
 10
93.68631419912617
 20
279.6835958841264
 10
92.71289170384543
 20
278.73507496965
 10
91.76448921452633
 20
277.7618139632202
 10
90.8417957502659
 20
276.7646095431678
 10
89.94591481821176
 20
275.7445167699854
 10
89.07748160784402
 20
274.702698363399
 10
88.23741122265094
 20
273.6401878520544
 10
87.42630655434243
 20
272.5581910193713
 10
86.6449050686708
 20
271.4579136487696
 10
85.89380427438429
 20
270.3404969281288
 10
85.17339712768668
 20
269.2072973637963
 10
84.48421115882416
 20
268.059391548111
 10
83.82670391954084
 20
266.8982867103479
 10
83.20108534534284
 20
265.7249948473058
 10
82.60771609466383
 20
264.5410016564125
 10
82.04669306081429
 20
263.3474052618542
 10
81.51809160525797
 20
262.1457128929054
 10
81.02208398276912
 20
260.9369796100588
 10
80.55870787407961
 20
259.7225834515082
 10
80.127688748143
 20
258.5038163280607
 10
79.7290804345762
 20
257.2817763639022
 10
79.36261916825613
 20
256.0577985335333
 10
79.02800888628956
 20
254.8330240248334
 10
78.72500735540014
 20
253.6085940256821
 10
78.45329698084784
 20
252.385520532878
 10
78.21249018939056
 20
251.165116989075
 10
78.00209713151402
 20
249.9483092636848
 10
77.8216118088188
 20
248.7360016942722
 10
77.67058743548415
 20
247.5293785324102
 10
77.54838882203
 20
246.3294087112041
 10
77.45451535301865
 20
245.1368027815977
 10
77.3881918819659
 20
243.9525081448496
 10
77.34899853785947
 20
242.7772999474437
 10
77.33601483424944
 20
241.6119963995579
  0
LWPOLYLINE
  5
98
330
70
100
AcDbEntity
  8
Livello 1
 62
   250
420
  2300182
370
     9
100
AcDbPolyline
 90
      129
 70
     0
 43
0.0
 10
199.0359776317188
 20
241.6119963995579
 10
199.0189890046072
 20
240.0761082366932
 10
198.9672049130946
 20
238.527085647291
 10
198.8798932743902
 20
236.9660913510775
 10
198.7560851553891
 20
235.3941158130048
 10
198.595091536994
 20
233.8123002209523
 10
198.3960080816402
 20
232.2218934220335
 10
198.1581027065369
 20
230.6241011996682
 10
197.8808155836678
 20
229.0201939328166
 10
197.5633069710085
 20
227.4114850641324
 10
197.2052108271635
 20
225.7995033547372
 10
196.8057950693424
 20
224.1855191835912
 10
196.3647797835368
 20
222.5711043755096
 10
195.8817989283516
 20
220.9577015642267
 10
195.3563142076171
 20
219.3469902337917
 10
194.7883040894865
 20
217.740520677173
 10
194.1773810007178
 20
216.1398862510323
 10
193.5235880050045
 20
214.5467018438786
 10
192.8268820386531
 20
212.962711535301
 10
192.0874999519781
 20
211.3894871501149
 10
191.3052910220521
 20
209.8287942997564
 10
190.4807074176576
 20
208.2823985956616
 10
189.6140075209558
 20
206.7518072671055
 10
188.7056004370358
 20
205.2388074573709
 10
187.7560890576074
 20
203.7451217142005
 10
186.7659901469934
 20
202.2723003305626
 10
185.7360788516779
 20
200.8220012586595
 10
184.6670011270646
 20
199.3958824506935
 10
183.5597043744117
 20
197.9954080722459
 10
182.4150068038971
 20
196.6222145436722
 10
181.2341141989406
 20
195.2775937757791
 10
180.017984726724
 20
193.9631821889224
 10
178.7678134047438
 20
192.6802070983686
 10
177.4849029097303
 20
191.4300896060053
 10
176.1704159614098
 20
190.2139924315589
 10
174.8259028527507
 20
189.0330136992153
 10
173.4526877923302
 20
187.888380724241
 10
172.0521918820358
 20
186.7810839715881
 10
170.6260838399932
 20
185.711984715128
 10
169.1757847680902
 20
184.6819872924254
 10
167.7028987889119
 20
183.6918883818114
 10
166.2092022798181
 20
182.7424200660765
 10
164.6962132360069
 20
181.8340775776968
 10
163.1656865029911
 20
180.9674207446887
 10
161.6192154374326
 20
180.1427940766006
 10
160.0584902893039
 20
179.3605851466746
 10
158.4854166270453
 20
178.6210954007657
 10
156.9013078933104
 20
177.9243894344143
 10
155.3081988476204
 20
177.2706933320115
 10
153.7074998259394
 20
176.6597917750896
 10
152.1009872056271
 20
176.0917062954953
 10
150.4903081729622
 20
175.5663184680713
 10
148.8769807231431
 20
175.0831868899586
 10
147.2625982128317
 20
174.6422146678466
 10
145.6486140416857
 20
174.2429065692594
 10
144.036481609363
 20
173.8846920002571
 10
142.4278911658362
 20
173.5673018127551
 10
140.8239838989845
 20
173.2899823921159
 10
139.2261809106958
 20
173.0521093147827
 10
137.6356879843899
 20
172.8529935616587
 10
136.0540015834181
 20
172.6919891773402
 10
134.4819937475752
 20
172.5682025901859
 10
132.9209886854384
 20
172.4808155900178
 10
131.3720091597297
 20
172.4290960940455
 10
129.8360133376311
 20
172.4119890417765
 10
128.3000928769961
 20
172.4290960940455
 10
126.7511133512875
 20
172.4808155900178
 10
125.1901082891506
 20
172.5682025901859
 10
123.6181004533077
 20
172.6919891773402
 10
122.036306393102
 20
172.8529935616587
 10
120.4458780623364
 20
173.0521093147827
 10
118.8481181377413
 20
173.2899823921159
 10
117.2442108708897
 20
173.5673018127551
 10
115.6355127681289
 20
173.8846920002571
 10
114.0234879950401
 20
174.2429065692594
 10
112.4095038238941
 20
174.6422146678466
 10
110.7951213135827
 20
175.0831868899586
 10
109.1816862045297
 20
175.5663184680713
 10
107.5710071718648
 20
176.0917062954953
 10
105.9644945515525
 20
176.6597917750896
 10
104.3639031891054
 20
177.2706933320115
 10
102.7706972501048
 20
177.9243894344143
 10
101.1866854096805
 20
178.6210954007657
 10
99.613504088188
 20
179.3605851466746
 10
98.0527789400593
 20
180.1427940766006
 10
96.50638323596455
 20
180.9674207446887
 10
94.97578114148501
 20
181.8340775776968
 10
93.46279209767379
 20
182.7424200660765
 10
91.96909558857999
 20
183.6918883818114
 10
90.49628497086551
 20
184.6819872924254
 10
89.04601281377095
 20
185.711984715128
 10
87.61991015469007
 20
186.7810839715881
 10
86.21938194662551
 20
187.888380724241
 10
84.84619380101339
 20
189.0330136992153
 10
83.50158379904376
 20
190.2139924315589
 10
82.18720450995721
 20
191.4300896060053
 10
80.90418635570982
 20
192.6802070983686
 10
79.65408501223166
 20
193.9631821889224
 10
78.43798783778526
 20
195.2775937757791
 10
77.25699295655653
 20
196.6222145436722
 10
76.11240304527583
 20
197.9954080722459
 10
75.00510629262297
 20
199.3958824506935
 10
73.93601241912451
 20
200.8220012586595
 10
72.90600961346024
 20
202.2723003305626
 10
71.91589993692282
 20
203.7451217142005
 10
70.9663993234178
 20
205.2388074573709
 10
70.05810528169337
 20
206.7518072671055
 10
69.19140000202995
 20
208.2823985956616
 10
68.3668163976354
 20
209.8287942997564
 10
67.58460208474772
 20
211.3894871501149
 10
66.84510695587715
 20
212.962711535301
 10
66.14840637248743
 20
214.5467018438786
 10
65.49471027008465
 20
216.1398862510323
 10
64.88380871316273
 20
217.740520677173
 10
64.31569093579824
 20
219.3469902337917
 10
63.79030310837426
 20
220.9577015642267
 10
63.30720921099341
 20
222.5711043755096
 10
62.86619930814955
 20
224.1855191835912
 10
62.46689120956232
 20
225.7995033547372
 10
62.10871432129194
 20
227.4114850641324
 10
61.79128645305804
 20
229.0201939328166
 10
61.51400471315069
 20
230.6241011996682
 10
61.27608857212401
 20
232.2218934220335
 10
61.07701588269353
 20
233.8123002209523
 10
60.91590383914114
 20
235.3941158130048
 10
60.79218184752711
 20
236.9660913510775
 10
60.70480023032076
 20
238.527085647291
 10
60.65308073434845
 20
240.0761082366932
 10
60.63601136281138
 20
241.6119963995579
  0
LWPOLYLINE
  5
99
330
70
100
AcDbEntity
  8
Livello 1
 62
   250
420
  2300182
370
     9
100
AcDbPolyline
 90
      129
 70
     0
 43
0.0
 10
199.0044765398756
 20
241.6119963995579
 10
198.9874017853768
 20
240.0768187876371
 10
198.9356822894045
 20
238.5285067491786
 10
198.8484137143938
 20
236.9682014720622
 10
198.7246917227798
 20
235.3968934212398
 10
198.5636981043846
 20
233.815896039365
 10
198.3646792445711
 20
232.2261997913901
 10
198.1269245923954
 20
230.6290965881218
 10
197.8497020650666
 20
229.025899872214
 10
197.5324087708751
 20
227.4179876818608
 10
197.1744848818045
 20
225.8066949915626
 10
196.7753275061447
 20
224.1934859669008
 10
196.3344844751134
 20
222.5798032416098
 10
195.8516112791621
 20
220.967197108658
 10
195.326384940589
 20
219.3571963291668
 10
194.7585901409262
 20
217.751415791645
 10
194.148011561706
 20
216.1514919164482
 10
193.4945846073881
 20
214.5590826557786
 10
192.7982016187384
 20
212.9757813662982
 10
192.0590994460716
 20
211.4032890639026
 10
191.2772134938473
 20
209.843306764488
 10
190.4530174626949
 20
208.2976000794903
 10
189.5866836073885
 20
206.7677193018779
 10
188.6787932877912
 20
205.2553869793936
 10
187.7297125452985
 20
203.7623902553203
 10
186.7400873353137
 20
202.2901932952391
 10
185.7105851450871
 20
200.8405832424331
 10
184.6419811211029
 20
199.4150888580238
 10
183.5352226646197
 20
198.0153034986732
 10
182.3910849221214
 20
196.6427128618093
 10
181.2106875496409
 20
195.2988026448602
 10
179.9950856076705
 20
193.9849078223263
 10
178.7455171774002
 20
192.7026002190227
 10
177.4631019148627
 20
191.4529994909822
 10
176.1493147515627
 20
190.2373975490118
 10
174.8054153005369
 20
189.0570001765313
 10
173.4327923659028
 20
187.9129054977266
 10
172.0328993473184
 20
186.8061039775497
 10
170.6073941969857
 20
185.7374999535656
 10
169.1577949101031
 20
184.7079977633391
 10
167.6856840774091
 20
183.7184156170478
 10
166.1925904600252
 20
182.7692918108615
 10
164.6803012012344
 20
181.8612938320303
 10
163.1505173169326
 20
180.9950030404175
 10
161.6047137386244
 20
180.170807009265
 10
160.0447960347501
 20
179.3890179503513
 10
158.4722929664312
 20
178.6498081184506
 10
156.8889916769507
 20
177.9534897253413
 10
155.2965824162811
 20
177.3000089414063
 10
153.6966047114673
 20
176.6893872984926
 10
152.0908995354093
 20
176.1215924988298
 10
150.4808879899948
 20
175.5964092239503
 10
148.8683033888897
 20
175.1136006235393
 10
147.2545991317519
 20
174.6728006562016
 10
145.6414116389369
 20
174.2736002168483
 10
144.0300974167919
 20
173.9156009663138
 10
142.4220990990516
 20
173.5983076721223
 10
140.8189023831438
 20
173.321095910717
 10
139.2219176050328
 20
173.0833950881582
 10
137.6321890592877
 20
172.8843977601914
 10
136.0511163159492
 20
172.7233826099496
 10
134.4799159243607
 20
172.5997036820291
 10
132.9196106472442
 20
172.5123920433248
 10
131.3713093747092
 20
172.4605971858887
 10
129.8360133376311
 20
172.4435977928537
 10
128.3007926620166
 20
172.4605971858887
 10
126.7524913894816
 20
172.5123920433248
 10
125.1921861123651
 20
172.5997036820291
 10
123.6208780615427
 20
172.7233826099496
 10
122.0399129774381
 20
172.8843977601914
 10
120.450184431693
 20
173.0833950881582
 10
118.8530919943481
 20
173.321095910717
 10
117.2498952784403
 20
173.5983076721223
 10
115.6420046199339
 20
173.9156009663138
 10
114.030690397789
 20
174.2736002168483
 10
112.4174060116634
 20
174.6728006562016
 10
110.8037986478361
 20
175.1136006235393
 10
109.191214046731
 20
175.5964092239503
 10
107.5812025013165
 20
176.1215924988298
 10
105.975400431948
 20
176.6893872984926
 10
104.3755196204447
 20
177.3000089414063
 10
102.7831103597751
 20
177.9534897253413
 10
101.1998090702947
 20
178.6498081184506
 10
99.62730600197577
 20
179.3890179503513
 10
98.06728063886751
 20
180.170807009265
 10
96.52158471979323
 20
180.9950030404175
 10
94.99169317625751
 20
181.8612938320303
 10
93.47940391746673
 20
182.7692918108615
 10
91.98641795931676
 20
183.7184156170478
 10
90.5142102333122
 20
184.7079977633391
 10
89.06460556346791
 20
185.7374999535656
 10
87.63910041313526
 20
186.8061039775497
 10
86.23931505378468
 20
187.9129054977266
 10
84.86669211915062
 20
189.0570001765313
 10
83.5227119236994
 20
190.2373975490118
 10
82.20889784559089
 20
191.4529994909822
 10
80.92658485932565
 20
192.7026002190227
 10
79.67701104609367
 20
193.9849078223263
 10
78.46140910412326
 20
195.2988026448602
 10
77.28101711460445
 20
196.6427128618093
 10
76.13689013802958
 20
198.0153034986732
 10
75.03008323489102
 20
199.4150888580238
 10
73.96148459386857
 20
200.8405832424331
 10
72.93200931845048
 20
202.2901932952391
 10
71.94239487438908
 20
203.7623902553203
 10
70.99331951485801
 20
205.2553869793936
 10
70.08530538714175
 20
206.7677193018779
 10
69.21898768072043
 20
208.2976000794903
 10
68.39479164956798
 20
209.843306764488
 10
67.61300259065426
 20
211.4032890639026
 10
66.87379275875357
 20
212.9757813662982
 10
66.1775120463761
 20
214.5590826557786
 10
65.52399358170927
 20
216.1514919164482
 10
64.91340423656571
 20
217.751415791645
 10
64.34560943690296
 20
219.3571963291668
 10
63.82039386425324
 20
220.967197108658
 10
63.33761756161243
 20
222.5798032416098
 10
62.89678529650454
 20
224.1934859669008
 10
62.49761715492138
 20
225.8066949915626
 10
62.1395856066168
 20
227.4179876818608
 10
61.82229231242529
 20
229.025899872214
 10
61.54511823175185
 20
230.6290965881218
 10
61.30741740919301
 20
232.2261997913901
 10
61.10841469826457
 20
233.815896039365
 10
60.9474049309844
 20
235.3968934212398
 10
60.82368832233206
 20
236.9682014720622
 10
60.73640898139792
 20
238.5285067491786
 10
60.6845872091534
 20
240.0768187876371
 10
60.66758243315668
 20
241.6119963995579
  0
LWPOLYLINE
  5
9A
330
70
100
AcDbEntity
  8
Livello 1
 62
   250
420
  2300182
370
     9
100
AcDbPolyline
 90
      129
 70
     0
 43
0.0
 10
60.66758243315668
 20
241.6119963995579
 10
60.6845872091534
 20
243.1472816707128
 10
60.73640898139792
 20
244.6955937091712
 10
60.82368832233206
 20
246.2558989862876
 10
60.9474049309844
 20
247.8270993778761
 10
61.10841469826457
 20
249.4082044189847
 10
61.30741740919301
 20
250.9979006669597
 10
61.54511823175185
 20
252.5949823383812
 10
61.82229231242529
 20
254.1980929269019
 10
62.1395856066168
 20
255.806112776489
 10
62.49761715492138
 20
257.4173839349403
 10
62.89678529650454
 20
259.0306144914489
 10
63.33761756161243
 20
260.64429721674
 10
63.82039386425324
 20
262.2569033496919
 10
64.34560943690296
 20
263.866904129183
 10
64.91340423656571
 20
265.4726200711644
 10
65.52399358170927
 20
267.0726085419016
 10
66.1775120463761
 20
268.6650178025712
 10
66.87379275875357
 20
270.2483190920517
 10
67.61300259065426
 20
271.8208113944472
 10
68.39479164956798
 20
273.3806860346279
 10
69.21898768072043
 20
274.9265003788595
 10
70.08530538714175
 20
276.4563165609315
 10
70.99331951485801
 20
277.9686058197222
 10
71.94239487438908
 20
279.4617102030295
 10
72.93200931845048
 20
280.9337995038768
 10
73.96148459386857
 20
282.3834095566828
 10
75.03008323489102
 20
283.809011600326
 10
76.13689013802958
 20
285.2087969596766
 10
77.28101711460445
 20
286.5813875965404
 10
78.46140910412326
 20
287.9252978134896
 10
79.67701104609367
 20
289.2391065086364
 10
80.92658485932565
 20
290.5215002393271
 10
82.20889784559089
 20
291.7711009673675
 10
83.5227119236994
 20
292.9867029093379
 10
84.86669211915062
 20
294.1671002818185
 10
86.23931505378468
 20
295.3111949606232
 10
87.63910041313526
 20
296.4179964808
 10
89.06460556346791
 20
297.4866005047842
 10
90.5142102333122
 20
298.5161026950108
 10
91.98641795931676
 20
299.505684841302
 10
93.47940391746673
 20
300.4548086474883
 10
94.99169317625751
 20
301.3626989670856
 10
96.52158471979323
 20
302.2289897586984
 10
98.06728063886751
 20
303.0531857898509
 10
99.62730600197577
 20
303.8351148057687
 10
101.1998090702947
 20
304.5741954465886
 10
102.7831103597751
 20
305.2705999670852
 10
104.3755196204447
 20
305.9239838577096
 10
105.975400431948
 20
306.5346055006233
 10
107.5812025013165
 20
307.1024003002861
 10
109.191214046731
 20
307.6276912343995
 10
110.8037986478361
 20
308.1104998348105
 10
112.4174060116634
 20
308.5512998021482
 10
114.030690397789
 20
308.9505002415015
 10
115.6420046199339
 20
309.3084025987254
 10
117.2498952784403
 20
309.6256743610701
 10
118.8530919943481
 20
309.9028968883989
 10
120.450184431693
 20
310.1406946042682
 10
122.0399129774381
 20
310.3397134640817
 10
123.6208780615427
 20
310.5007070824768
 10
125.1921861123651
 20
310.6243860103973
 10
126.7524913894816
 20
310.7117191809483
 10
128.3007926620166
 20
310.7633956132271
 10
129.8360133376311
 20
310.7804918995727
 10
131.3713093747092
 20
310.7633956132271
 10
132.9196106472442
 20
310.7117191809483
 10
134.4799159243607
 20
310.6243860103973
 10
136.0511163159492
 20
310.5007070824768
 10
137.6321890592877
 20
310.3397134640817
 10
139.2219176050328
 20
310.1406946042682
 10
140.8189023831438
 20
309.9028968883989
 10
142.4220990990516
 20
309.6256743610701
 10
144.0300974167919
 20
309.3084025987254
 10
145.6414116389369
 20
308.9505002415015
 10
147.2545991317519
 20
308.5512998021482
 10
148.8683033888897
 20
308.1104998348105
 10
150.4808879899948
 20
307.6276912343995
 10
152.0908995354093
 20
307.1024003002861
 10
153.6966047114673
 20
306.5346055006233
 10
155.2965824162811
 20
305.9239838577096
 10
156.8889916769507
 20
305.2705999670852
 10
158.4722929664312
 20
304.5741954465886
 10
160.0447960347501
 20
303.8351148057687
 10
161.6047137386244
 20
303.0531857898509
 10
163.1505173169326
 20
302.2289897586984
 10
164.6803012012344
 20
301.3626989670856
 10
166.1925904600252
 20
300.4548086474883
 10
167.6856840774091
 20
299.505684841302
 10
169.1577949101031
 20
298.5161026950108
 10
170.6073941969857
 20
297.4866005047842
 10
172.0328993473184
 20
296.4179964808
 10
173.4327923659028
 20
295.3111949606232
 10
174.8054153005369
 20
294.1671002818185
 10
176.1493147515627
 20
292.9867029093379
 10
177.4631019148627
 20
291.7711009673675
 10
178.7455171774002
 20
290.5215002393271
 10
179.9950856076705
 20
289.2391065086364
 10
181.2106875496409
 20
287.9252978134896
 10
182.3910849221214
 20
286.5813875965404
 10
183.5352226646197
 20
285.2087969596766
 10
184.6419811211029
 20
283.809011600326
 10
185.7105851450871
 20
282.3834095566828
 10
186.7400873353137
 20
280.9337995038768
 10
187.7297125452985
 20
279.4617102030295
 10
188.6787932877912
 20
277.9686058197222
 10
189.5866836073885
 20
276.4563165609315
 10
190.4530174626949
 20
274.9265003788595
 10
191.2772134938473
 20
273.3806860346279
 10
192.0590994460716
 20
271.8208113944472
 10
192.7982016187384
 20
270.2483190920517
 10
193.4945846073881
 20
268.6650178025712
 10
194.148011561706
 20
267.0726085419016
 10
194.7585901409262
 20
265.4726200711644
 10
195.326384940589
 20
263.866904129183
 10
195.8516112791621
 20
262.2569033496919
 10
196.3344844751134
 20
260.64429721674
 10
196.7753275061447
 20
259.0306144914489
 10
197.1744848818045
 20
257.4173839349403
 10
197.5324087708751
 20
255.806112776489
 10
197.8497020650666
 20
254.1980929269019
 10
198.1269245923954
 20
252.5949823383812
 10
198.3646792445711
 20
250.9979006669597
 10
198.5636981043846
 20
249.4082044189847
 10
198.7246917227798
 20
247.8270993778761
 10
198.8484137143938
 20
246.2558989862876
 10
198.9356822894045
 20
244.6955937091712
 10
198.9874017853768
 20
243.1472816707128
 10
199.0044765398756
 20
241.6119963995579
  0
LWPOLYLINE
  5
9B
330
70
100
AcDbEntity
  8
Livello 1
 62
   250
420
  2300182
370
     9
100
AcDbPolyline
 90
      129
 70
     0
 43
0.0
 10
60.63601136281138
 20
241.6119963995579
 10
60.65308073434845
 20
243.1479922216566
 10
60.70480023032076
 20
244.6969932792121
 10
60.79218184752711
 20
246.2580091072723
 10
60.91590383914114
 20
247.829984645345
 10
61.07701588269353
 20
249.4116925781636
 10
61.27608857212401
 20
251.0022070363163
 10
61.51400471315069
 20
252.5999992586816
 10
61.79128645305804
 20
254.2039065255332
 10
62.10871432129194
 20
255.8126153942174
 10
62.46689120956232
 20
257.4245971036126
 10
62.86619930814955
 20
259.0385812747586
 10
63.30720921099341
 20
260.6529960828402
 10
63.79030310837426
 20
262.2662912348892
 10
64.31569093579824
 20
263.8770025653242
 10
64.88380871316273
 20
265.4835151856365
 10
65.49471027008465
 20
267.0842142073175
 10
66.14840637248743
 20
268.6773986144713
 10
66.84510695587715
 20
270.2613889230488
 10
67.58460208474772
 20
271.8346133082349
 10
68.3668163976354
 20
273.3951984993595
 10
69.19140000202995
 20
274.9417018626882
 10
70.05810528169337
 20
276.4721855320104
 10
70.9663993234178
 20
277.985185341745
 10
71.91589993692282
 20
279.478914148609
 10
72.90600961346024
 20
280.9518001277872
 10
73.93601241912451
 20
282.4020991996903
 10
75.00510629262297
 20
283.8282180076562
 10
76.11240304527583
 20
285.2286923861039
 10
77.25699295655653
 20
286.6018859146777
 10
78.43798783778526
 20
287.9463990233368
 10
79.65408501223166
 20
289.2609182694274
 10
80.90418635570982
 20
290.5437857007473
 10
82.18720450995721
 20
291.7940108523445
 10
83.50158379904376
 20
293.0100864949441
 10
84.84619380101339
 20
294.1909790999006
 10
86.21938194662551
 20
295.3357197341088
 10
87.61991015469007
 20
296.4430164867617
 10
89.04601281377095
 20
297.512094211375
 10
90.49628497086551
 20
298.5420055066905
 10
91.96909558857999
 20
299.5321044173045
 10
93.46279209767379
 20
300.4816157967329
 10
94.97578114148501
 20
301.390022880653
 10
96.50638323596455
 20
302.2566797136611
 10
98.0527789400593
 20
303.0813063817492
 10
99.613504088188
 20
303.8635153116752
 10
101.1866854096805
 20
304.6030050575841
 10
102.7706972501048
 20
305.2996033647016
 10
104.3639031891054
 20
305.9533963604149
 10
105.9644945515525
 20
306.5643194491836
 10
107.5710071718648
 20
307.1322865036206
 10
109.1816862045297
 20
307.6578142880487
 10
110.7951213135827
 20
308.1407951432339
 10
112.4095038238941
 20
308.5818104290395
 10
114.0234879950401
 20
308.9811831231671
 10
115.6355127681289
 20
309.3393007988587
 10
117.2442108708897
 20
309.6567878796713
 10
118.8481181377413
 20
309.9341180662339
 10
120.4458780623364
 20
310.1720019094905
 10
122.036306393102
 20
310.3711068966911
 10
123.6181004533077
 20
310.5321005150862
 10
125.1901082891506
 20
310.6559086340873
 10
126.7511133512875
 20
310.7432202727916
 10
128.3000928769961
 20
310.7950043643043
 10
129.8360133376311
 20
310.8119929914159
 10
131.3720091597297
 20
310.7950043643043
 10
132.9209886854384
 20
310.7432202727916
 10
134.4819937475752
 20
310.6559086340873
 10
136.0540015834181
 20
310.5321005150862
 10
137.6356879843899
 20
310.3711068966911
 10
139.2261809106958
 20
310.1720019094905
 10
140.8239838989845
 20
309.9341180662339
 10
142.4278911658362
 20
309.6567878796713
 10
144.036481609363
 20
309.3393007988587
 10
145.6486140416857
 20
308.9811831231671
 10
147.2625982128317
 20
308.5818104290395
 10
148.8769807231431
 20
308.1407951432339
 10
150.4903081729622
 20
307.6578142880487
 10
152.1009872056271
 20
307.1322865036206
 10
153.7074998259394
 20
306.5643194491836
 10
155.3081988476204
 20
305.9533963604149
 10
156.9013078933104
 20
305.2996033647016
 10
158.4854166270453
 20
304.6030050575841
 10
160.0584902893039
 20
303.8635153116752
 10
161.6192154374326
 20
303.0813063817492
 10
163.1656865029911
 20
302.2566797136611
 10
164.6962132360069
 20
301.390022880653
 10
166.2092022798181
 20
300.4816157967329
 10
167.7028987889119
 20
299.5321044173045
 10
169.1757847680902
 20
298.5420055066905
 10
170.6260838399932
 20
297.512094211375
 10
172.0521918820358
 20
296.4430164867617
 10
173.4526877923302
 20
295.3357197341088
 10
174.8259028527507
 20
294.1909790999006
 10
176.1704159614098
 20
293.0100864949441
 10
177.4849029097303
 20
291.7940108523445
 10
178.7678134047438
 20
290.5437857007473
 10
180.017984726724
 20
289.2609182694274
 10
181.2341141989406
 20
287.9463990233368
 10
182.4150068038971
 20
286.6018859146777
 10
183.5597043744117
 20
285.2286923861039
 10
184.6670011270646
 20
283.8282180076562
 10
185.7360788516779
 20
282.4020991996903
 10
186.7659901469934
 20
280.9518001277872
 10
187.7560890576074
 20
279.478914148609
 10
188.7056004370358
 20
277.985185341745
 10
189.6140075209558
 20
276.4721855320104
 10
190.4807074176576
 20
274.9417018626882
 10
191.3052910220521
 20
273.3951984993595
 10
192.0874999519781
 20
271.8346133082349
 10
192.8268820386531
 20
270.2613889230488
 10
193.5235880050045
 20
268.6773986144713
 10
194.1773810007178
 20
267.0842142073175
 10
194.7883040894865
 20
265.4835151856365
 10
195.3563142076171
 20
263.8770025653242
 10
195.8817989283516
 20
262.2662912348892
 10
196.3647797835368
 20
260.6529960828402
 10
196.8057950693424
 20
259.0385812747586
 10
197.2052108271635
 20
257.4245971036126
 10
197.5633069710085
 20
255.8126153942174
 10
197.8808155836678
 20
254.2039065255332
 10
198.1581027065369
 20
252.5999992586816
 10
198.3960080816402
 20
251.0022070363163
 10
198.595091536994
 20
249.4116925781636
 10
198.7560851553891
 20
247.829984645345
 10
198.8798932743902
 20
246.2580091072723
 10
198.9672049130946
 20
244.6969932792121
 10
199.0189890046072
 20
243.1479922216566
 10
199.0359776317188
 20
241.6119963995579
  0
LWPOLYLINE
  5
9C
330
70
100
AcDbEntity
  8
Livello 1
 62
   250
420
  2300182
370
     9
100
AcDbPolyline
 90
      129
 70
     0
 43
0.0
 10
74.72288299387895
 20
241.6119963995579
 10
74.73650188696909
 20
242.8352852108298
 10
74.7777084587497
 20
244.0689954359446
 10
74.84731015347513
 20
245.3122227373373
 10
74.94590986285531
 20
246.5641919685239
 10
75.07411047860017
 20
247.8239987919394
 10
75.23268176423219
 20
249.0906096789383
 10
75.42219431369111
 20
250.3632064193428
 10
75.64299801948715
 20
251.6405832297331
 10
75.89590570883635
 20
252.9218142406975
 10
76.18108963651299
 20
254.205715200663
 10
76.49908271572495
 20
255.4910803262097
 10
76.85041785968009
 20
256.7768976205389
 10
77.23508430245501
 20
258.0618105773031
 10
77.65358804244913
 20
259.3445918812359
 10
78.10598829224108
 20
260.6241003444577
 10
78.59250575326041
 20
261.8989148650808
 10
79.11320502104743
 20
263.1677004686048
 10
79.66808609560219
 20
264.4293159671501
 10
80.25701440288226
 20
265.6822110677483
 10
80.87998455992595
 20
266.9252230506732
 10
81.5367166527251
 20
268.1568016229565
 10
82.22699536281185
 20
269.3757840648718
 10
82.95040081917397
 20
270.580792338225
 10
83.70661542707139
 20
271.7704053411286
 10
84.49521931549186
 20
272.9435034175497
 10
85.31549655052986
 20
274.0984932108265
 10
86.16688730416901
 20
275.2342981286198
 10
87.04879945062279
 20
276.3497123875098
 10
87.96040939675176
 20
277.4433794811491
 10
88.900990442727
 20
278.5142012853519
 10
89.86950367694126
 20
279.5611227396258
 10
90.86517933587202
 20
280.5828949968573
 10
91.88700542272052
 20
281.5785060602478
 10
92.93379768591369
 20
282.5470946559257
 10
94.00469485158021
 20
283.4876057233989
 10
95.09841577483651
 20
284.39928564803
 10
96.21367931079902
 20
285.2811870285604
 10
97.34959188782625
 20
286.1325777821995
 10
98.50458168110302
 20
286.952898080931
 10
99.67760439606042
 20
287.7413943101176
 10
100.8673142922745
 20
288.4977219602106
 10
102.0723010337809
 20
289.2210843528792
 10
103.2912188801559
 20
289.9113953607361
 10
104.5229051116731
 20
290.5680951557651
 10
105.765917094598
 20
291.190989951345
 10
107.0188121951962
 20
291.7799936200889
 10
108.2803092685842
 20
292.3349123753755
 10
109.5492132972655
 20
292.8555093668903
 10
110.8240062860418
 20
293.3420860404883
 10
112.1035039833402
 20
293.7944916732419
 10
113.3863068191198
 20
294.2130061791594
 10
114.6711874781139
 20
294.5976941537812
 10
115.9569940065196
 20
294.9489001066556
 10
117.2424129616833
 20
295.2669900791781
 10
118.5263139216488
 20
295.55222245351
 10
119.8074911029962
 20
295.8050063347402
 10
121.0849002111567
 20
296.0258800190382
 10
122.3574108241741
 20
296.2154033344205
 10
123.6240970726367
 20
296.3738992585888
 10
124.8838931301288
 20
296.5022075335676
 10
126.1357977657751
 20
296.6008018599861
 10
127.3790896627082
 20
296.670306661401
 10
128.612692228589
 20
296.7115186161434
 10
129.8360133376311
 20
296.7250836796165
 10
131.0593129148263
 20
296.7115186161434
 10
132.2930123740176
 20
296.670306661401
 10
133.5361966117168
 20
296.6008018599861
 10
134.788208906597
 20
296.5022075335676
 10
136.0480049640891
 20
296.3738992585888
 10
137.3145835533178
 20
296.2154033344205
 10
138.5872018255691
 20
296.0258800190382
 10
139.8646109337296
 20
295.8050063347402
 10
141.145788115077
 20
295.55222245351
 10
142.4296890750425
 20
295.2669900791781
 10
143.7151080302062
 20
294.9489001066556
 10
145.000806899378
 20
294.5976941537812
 10
146.2857952176061
 20
294.2130061791594
 10
147.5685980533856
 20
293.7944916732419
 10
148.848095750684
 20
293.3420860404883
 10
150.1228887394604
 20
292.8555093668903
 10
151.3916958748311
 20
292.3349123753755
 10
152.6532898415296
 20
291.7799936200889
 10
153.9061849421278
 20
291.190989951345
 10
155.1491969250527
 20
290.5680951557651
 10
156.3808185610296
 20
289.9113953607361
 10
157.5998010029449
 20
289.2210843528792
 10
158.8047877444513
 20
288.4977219602106
 10
159.9943899814315
 20
287.7413943101176
 10
161.1674126963889
 20
286.952898080931
 10
162.3225101488996
 20
286.1325777821995
 10
163.4583150666929
 20
285.2811870285604
 10
164.5736862618893
 20
284.39928564803
 10
165.6674071851456
 20
283.4876057233989
 10
166.7381966915782
 20
282.5470946559257
 10
167.7850966140053
 20
281.5785060602478
 10
168.8068796371602
 20
280.5828949968573
 10
169.8024907005507
 20
279.5611227396258
 10
170.7711115939988
 20
278.5142012853519
 10
171.7115795977785
 20
277.4433794811491
 10
172.6231949268691
 20
276.3497123875098
 10
173.5052147325568
 20
275.2342981286198
 10
174.356605486196
 20
274.0984932108265
 10
175.176882721234
 20
272.9435034175497
 10
175.9654112481907
 20
271.7704053411286
 10
176.7216958345902
 20
270.580792338225
 10
177.4451012909523
 20
269.3757840648718
 10
178.1353907669624
 20
268.1568016229565
 10
178.7921120938382
 20
266.9252230506732
 10
179.4150176553415
 20
265.6822110677483
 10
180.0040105581619
 20
264.4293159671501
 10
180.5587893564445
 20
263.1677004686048
 10
181.0794940071932
 20
261.8989148650808
 10
181.5660060852509
 20
260.6241003444577
 10
182.0185193772384
 20
259.3445918812359
 10
182.4370123513091
 20
258.0618105773031
 10
182.8216787940841
 20
256.7768976205389
 10
183.1729062788053
 20
255.4910803262097
 10
183.4910177831745
 20
254.205715200663
 10
183.7762070938129
 20
252.9218142406975
 10
184.0289909750431
 20
251.6405832297331
 10
184.2499077230348
 20
250.3632064193428
 10
184.4393233791831
 20
249.0906096789383
 10
184.5978838988918
 20
247.8239987919394
 10
184.7261921738705
 20
246.5641919685239
 10
184.824786500289
 20
245.3122227373373
 10
184.8942913017039
 20
244.0689954359446
 10
184.9355032564462
 20
242.8352852108298
 10
184.949111383613
 20
241.6119963995579
  0
LWPOLYLINE
  5
9D
330
70
100
AcDbEntity
  8
Livello 1
 62
   250
420
  2300182
370
     9
100
AcDbPolyline
 90
      129
 70
     0
 43
0.0
 10
184.949111383613
 20
241.6119963995579
 10
184.9355032564462
 20
240.3887075882861
 10
184.8942913017039
 20
239.1551050224053
 10
184.824786500289
 20
237.9118131254721
 10
184.7261921738705
 20
236.6599084898259
 10
184.5978838988918
 20
235.4001016664104
 10
184.4393233791831
 20
234.1333831201776
 10
184.2499077230348
 20
232.860894039007
 10
184.0289909750431
 20
231.5835172286167
 10
183.7762070938129
 20
230.3022862176523
 10
183.4910177831745
 20
229.0183852576868
 10
183.1729062788053
 20
227.7330201321401
 10
182.8216787940841
 20
226.447202837811
 10
182.4370123513091
 20
225.1622898810467
 10
182.0185193772384
 20
223.8795085771139
 10
181.5660060852509
 20
222.6000001138921
 10
181.0794940071932
 20
221.325185593269
 10
180.5587893564445
 20
220.056399989745
 10
180.0040105581619
 20
218.7947844911998
 10
179.4150176553415
 20
217.5418893906015
 10
178.7921120938382
 20
216.2988774076766
 10
178.1353907669624
 20
215.0671911761595
 10
177.4451012909523
 20
213.848316393478
 10
176.7216958345902
 20
212.643286588278
 10
175.9654112481907
 20
211.4535874579873
 10
175.176882721234
 20
210.2805970408001
 10
174.356605486196
 20
209.1256072475233
 10
173.5052147325568
 20
207.9896946704961
 10
172.6231949268691
 20
206.87438807084
 10
171.7115795977785
 20
205.7807209772007
 10
170.7711115939988
 20
204.709791513764
 10
169.8024907005507
 20
203.662977718724
 10
168.8068796371602
 20
202.6412054614925
 10
167.7850966140053
 20
201.6454867388682
 10
166.7381966915782
 20
200.6770058024241
 10
165.6674071851456
 20
199.7363870757169
 10
164.5736862618893
 20
198.8248148103198
 10
163.4583150666929
 20
197.9429134297894
 10
162.3225101488996
 20
197.0915011443035
 10
161.1674126963889
 20
196.2712023774187
 10
159.9943899814315
 20
195.4825984889983
 10
158.8047877444513
 20
194.7263784981391
 10
157.5998010029449
 20
194.0030161054706
 10
156.3808185610296
 20
193.3127050976136
 10
155.1491969250527
 20
192.6560053025847
 10
153.9061849421278
 20
192.0330028477708
 10
152.6532898415296
 20
191.4441068382609
 10
151.3916958748311
 20
190.8891880829743
 10
150.1228887394604
 20
190.3684834322256
 10
148.848095750684
 20
189.8820144178615
 10
147.5685980533856
 20
189.4296087851079
 10
146.2857952176061
 20
189.0110942791904
 10
145.000806899378
 20
188.6264063045686
 10
143.7151080302062
 20
188.2750926924603
 10
142.4296890750425
 20
187.9571103791717
 10
141.145788115077
 20
187.6718780048398
 10
139.8646109337296
 20
187.4190079962225
 10
138.5872018255691
 20
187.1982204393115
 10
137.3145835533178
 20
187.0086971239292
 10
136.0480049640891
 20
186.850201199761
 10
134.788208906597
 20
186.7218929247822
 10
133.5361966117168
 20
186.6232985983637
 10
132.2930123740176
 20
186.5536861377149
 10
131.0593129148263
 20
186.5125172466662
 10
129.8360133376311
 20
186.4990167787333
 10
128.612692228589
 20
186.5125172466662
 10
127.3790896627082
 20
186.5536861377149
 10
126.1357977657751
 20
186.6232985983637
 10
124.8838931301288
 20
186.7218929247822
 10
123.6240970726367
 20
186.850201199761
 10
122.3574108241741
 20
187.0086971239292
 10
121.0849002111567
 20
187.1982204393115
 10
119.8074911029962
 20
187.4190079962225
 10
118.5263139216488
 20
187.6718780048398
 10
117.2424129616833
 20
187.9571103791717
 10
115.9569940065196
 20
188.2750926924603
 10
114.6711874781139
 20
188.6264063045686
 10
113.3863068191198
 20
189.0110942791904
 10
112.1035039833402
 20
189.4296087851079
 10
110.8240062860418
 20
189.8820144178615
 10
109.5492132972655
 20
190.3684834322256
 10
108.2803092685842
 20
190.8891880829743
 10
107.0188121951962
 20
191.4441068382609
 10
105.765917094598
 20
192.0330028477708
 10
104.5229051116731
 20
192.6560053025847
 10
103.2912188801559
 20
193.3127050976136
 10
102.0723010337809
 20
194.0030161054706
 10
100.8673142922745
 20
194.7263784981391
 10
99.67760439606042
 20
195.4825984889983
 10
98.50458168110302
 20
196.2712023774187
 10
97.34959188782625
 20
197.0915011443035
 10
96.21367931079902
 20
197.9429134297894
 10
95.09841577483651
 20
198.8248148103198
 10
94.00469485158021
 20
199.7363870757169
 10
92.93379768591369
 20
200.6770058024241
 10
91.88700542272052
 20
201.6454867388682
 10
90.86517933587202
 20
202.6412054614925
 10
89.86950367694126
 20
203.662977718724
 10
88.900990442727
 20
204.709791513764
 10
87.96040939675176
 20
205.7807209772007
 10
87.04879945062279
 20
206.87438807084
 10
86.16688730416901
 20
207.9896946704961
 10
85.31549655052986
 20
209.1256072475233
 10
84.49521931549186
 20
210.2805970408001
 10
83.70661542707139
 20
211.4535874579873
 10
82.95040081917397
 20
212.643286588278
 10
82.22699536281185
 20
213.848316393478
 10
81.5367166527251
 20
215.0671911761595
 10
80.87998455992595
 20
216.2988774076766
 10
80.25701440288226
 20
217.5418893906015
 10
79.66808609560219
 20
218.7947844911998
 10
79.11320502104743
 20
220.056399989745
 10
78.59250575326041
 20
221.325185593269
 10
78.10598829224108
 20
222.6000001138921
 10
77.65358804244913
 20
223.8795085771139
 10
77.23508430245501
 20
225.1622898810467
 10
76.85041785968009
 20
226.447202837811
 10
76.49908271572495
 20
227.7330201321401
 10
76.18108963651299
 20
229.0183852576868
 10
75.89590570883635
 20
230.3022862176523
 10
75.64299801948715
 20
231.5835172286167
 10
75.42219431369111
 20
232.860894039007
 10
75.23268176423219
 20
234.1333831201776
 10
75.07411047860017
 20
235.4001016664104
 10
74.94590986285531
 20
236.6599084898259
 10
74.84731015347513
 20
237.9118131254721
 10
74.7777084587497
 20
239.1551050224053
 10
74.73650188696909
 20
240.3887075882861
 10
74.72288299387895
 20
241.6119963995579
  0
LWPOLYLINE
  5
9E
330
70
100
AcDbEntity
  8
Livello 1
 62
   250
420
  2300182
370
     9
100
AcDbPolyline
 90
      129
 70
     0
 43
0.0
 10
77.33601483424944
 20
241.6119963995579
 10
77.34899853785947
 20
240.4466928516722
 10
77.3881918819659
 20
239.2715923135003
 10
77.45451535301865
 20
238.0872976767521
 10
77.54838882203
 20
236.8946917471457
 10
77.67058743548415
 20
235.6946142667057
 10
77.8216118088188
 20
234.4880126366905
 10
78.00209713151402
 20
233.275791194665
 10
78.21249018939056
 20
232.0589834692747
 10
78.45329698084784
 20
230.8385153299314
 10
78.72500735540014
 20
229.6155064326677
 10
79.02800888628956
 20
228.391011837976
 10
79.36261916825613
 20
227.1662157974294
 10
79.7290804345762
 20
225.9422164352137
 10
80.127688748143
 20
224.7201764710552
 10
80.55870787407961
 20
223.5014093476078
 10
81.02208398276912
 20
222.287120848291
 10
81.51809160525797
 20
221.0783875654444
 10
82.04669306081429
 20
219.8766090691086
 10
82.60771609466383
 20
218.6830988019373
 10
83.20108534534284
 20
217.4991056110441
 10
83.82670391954084
 20
216.3257922161551
 10
84.48421115882416
 20
215.1646012510048
 10
85.17339712768668
 20
214.0168030945535
 10
85.89380427438429
 20
212.883495870987
 10
86.6449050686708
 20
211.7661222140398
 10
87.42630655434243
 20
210.6658017797446
 10
88.23741122265094
 20
209.5839126062954
 10
89.07748160784402
 20
208.5214020949508
 10
89.94591481821176
 20
207.4795190928242
 10
90.8417957502659
 20
206.459490915182
 10
91.76448921452633
 20
205.4622864951296
 10
92.71289170384543
 20
204.4889178294659
 10
93.68631419912617
 20
203.5405045742234
 10
94.68350785325512
 20
202.6178003440396
 10
95.70349296720369
 20
201.7219032631003
 10
96.74538673525375
 20
200.8535023505028
 10
97.80788648067499
 20
200.0133942845778
 10
98.88978642004753
 20
199.2022896162693
 10
99.99009608841937
 20
198.4208773646743
 10
101.1074912772133
 20
197.6697819533495
 10
102.2407877348564
 20
196.9494124873837
 10
103.3885858913078
 20
196.2601996037127
 10
104.5497876223814
 20
195.602681598506
 10
105.723090251347
 20
194.9770953220782
 10
106.9070834422402
 20
194.3836991565907
 10
108.1006044753348
 20
193.8227084205113
 10
109.3024045035175
 20
193.2941015819933
 10
110.5110947226706
 20
192.7980939595045
 10
111.7253939879106
 20
192.3346855530448
 10
112.9442041750517
 20
191.90370410784
 10
114.1661903095932
 20
191.5051065601966
 10
115.3901896718089
 20
191.1385914642596
 10
116.6149964782789
 20
190.8039865652547
 10
117.8394910729707
 20
190.500990417327
 10
119.0624999702344
 20
190.2293231064683
 10
120.2830004073478
 20
189.9885109320493
 10
121.4998081327381
 20
189.7781017252876
 10
122.71198651107
 20
189.5976002537073
 10
123.9185881410852
 20
189.4465974122195
 10
125.1187086852188
 20
189.324404181727
 10
126.3113038489018
 20
189.2305037979072
 10
127.4956200174967
 20
189.1642072416629
 10
128.6706882578985
 20
189.1250192805182
 10
129.8360133376311
 20
189.1119925132146
 10
131.0013061195934
 20
189.1250192805182
 10
132.1764820192291
 20
189.1642072416629
 10
133.3607981878241
 20
189.2305037979072
 10
134.553393351507
 20
189.324404181727
 10
135.7534062364067
 20
189.4465974122195
 10
136.9600078664219
 20
189.5976002537073
 10
138.1721862447538
 20
189.7781017252876
 10
139.389101629378
 20
189.9885109320493
 10
140.6094944072576
 20
190.2293231064683
 10
141.8326109637551
 20
190.500990417327
 10
143.056997899213
 20
190.8039865652547
 10
144.281804705683
 20
191.1385914642596
 10
145.5058040678987
 20
191.5051065601966
 10
146.7277902024402
 20
191.90370410784
 10
147.9466003895812
 20
192.3346855530448
 10
149.1610073140552
 20
192.7980939595045
 10
150.3696975332083
 20
193.2941015819933
 10
151.5714006680804
 20
193.8227084205113
 10
152.7649862967154
 20
194.3836991565907
 10
153.9490117853788
 20
194.9770953220782
 10
155.1222067551105
 20
195.602681598506
 10
156.2834084861841
 20
196.2601996037127
 10
157.4313143018694
 20
196.9494124873837
 10
158.564513866202
 20
197.6697819533495
 10
159.6818982890726
 20
198.4208773646743
 10
160.7822079574444
 20
199.2022896162693
 10
161.8642155560509
 20
200.0133942845778
 10
162.9267153014721
 20
200.8535023505028
 10
163.9685014102882
 20
201.7219032631003
 10
164.9885941834707
 20
202.6178003440396
 10
165.9857878375997
 20
203.5405045742234
 10
166.9591026736465
 20
204.4889178294659
 10
167.9076128221995
 20
205.4622864951296
 10
168.830198627226
 20
206.459490915182
 10
169.7261818355524
 20
207.4795190928242
 10
170.59458274815
 20
208.5214020949508
 10
171.4346908140749
 20
209.5839126062954
 10
172.2456878231495
 20
210.6658017797446
 10
173.0270893088211
 20
211.7661222140398
 10
173.7783031453032
 20
212.883495870987
 10
174.4987049090392
 20
214.0168030945535
 10
175.1877886016295
 20
215.1646012510048
 10
175.8452958409128
 20
216.3257922161551
 10
176.4709144151108
 20
217.4991056110441
 10
177.0643213465217
 20
218.6830988019373
 10
177.6254089759115
 20
219.8766090691086
 10
178.1539081551957
 20
221.0783875654444
 10
178.6499157776845
 20
222.287120848291
 10
179.1133887796845
 20
223.5014093476078
 10
179.5443056293489
 20
224.7201764710552
 10
179.9429785384561
 20
225.9422164352137
 10
180.3094828684697
 20
227.1662157974294
 10
180.644098533398
 20
228.391011837976
 10
180.9469870220918
 20
229.6155064326677
 10
181.2186973966441
 20
230.8385153299314
 10
181.459617230297
 20
232.0589834692747
 10
181.6700049052118
 20
233.275791194665
 10
181.8503771857114
 20
234.4880126366905
 10
182.00150921828
 20
235.6946142667057
 10
182.1237239806192
 20
236.8946917471457
 10
182.2175813007455
 20
238.0872976767521
 10
182.2838132614494
 20
239.2715923135003
 10
182.3231088818281
 20
240.4466928516722
 10
182.336006458051
 20
241.6119963995579
  0
LWPOLYLINE
  5
9F
330
70
100
AcDbEntity
  8
Livello 1
 62
   250
420
  2300182
370
     9
100
AcDbPolyline
 90
      129
 70
     0
 43
0.0
 10
200.2845017674202
 20
238.9169843288341
 10
200.2081929024219
 20
237.3692105865453
 10
200.0968947864016
 20
235.8097881151469
 10
199.9495092951732
 20
234.2400088254461
 10
199.7654981325673
 20
232.6607985868544
 10
199.5439138973254
 20
231.0734062464851
 10
199.2840891021972
 20
229.4790160559115
 10
198.9855069828599
 20
227.8788122667065
 10
198.6473062654423
 20
226.2741083215239
 10
198.2690778448555
 20
224.6662176630175
 10
197.8504126160105
 20
223.0566905841556
 10
197.3906000279635
 20
221.4467974638983
 10
196.8892955711661
 20
219.8380885952141
 10
196.3464131182311
 20
218.2321142710713
 10
195.7613928411421
 20
216.6302094659705
 10
195.1342993354395
 20
215.0342043868882
 10
194.4650034100426
 20
213.4455847312523
 10
193.7533112783303
 20
211.8659223238782
 10
192.999395195077
 20
210.2968966488147
 10
192.2033843513632
 20
208.7401010627238
 10
191.3655155975036
 20
207.197279645195
 10
190.4860042519662
 20
205.6700042210434
 10
189.5653240153799
 20
204.1599112106245
 10
188.6038839928338
 20
202.668615502447
 10
187.6022870760378
 20
201.1978181124067
 10
186.5610930930081
 20
199.7489832060849
 10
185.4812063813098
 20
198.3237902675306
 10
184.3631867689591
 20
196.923811121559
 10
183.2081969756823
 20
195.5505099337512
 10
182.0169906161168
 20
194.2052862741483
 10
180.7906012189082
 20
192.8896043083314
 10
179.5302991630167
 20
191.6046913515671
 10
178.2371933385516
 20
190.3521192286706
 10
176.9125218267028
 20
189.1329214682875
 10
175.5575011768137
 20
187.9482823219908
 10
174.173692447776
 20
186.7993860413535
 10
172.7624090822434
 20
185.6873092187148
 10
171.3251152457972
 20
184.6128054687122
 10
169.8633074017887
 20
183.5769729155315
 10
168.3786112046501
 20
182.5805005782698
 10
166.872501585886
 20
181.6241205397176
 10
165.346701093239
 20
180.7085218189721
 10
163.8028030833711
 20
179.8341135211222
 10
162.2423901470208
 20
179.0014877719543
 10
160.6672063637774
 20
178.2109890810169
 10
159.078791260686
 20
177.4628865963949
 10
157.4790073424933
 20
176.7573956365561
 10
155.8692864770103
 20
176.0947099881215
 10
154.2514804030604
 20
175.4748081192443
 10
152.6270102225312
 20
174.8975931366141
 10
150.9977061423992
 20
174.3629896787671
 10
149.3650215623223
 20
173.8707931931588
 10
147.7304960093456
 20
173.4207883613214
 10
146.0956797764372
 20
173.0126952692468
 10
144.4621123906423
 20
172.6459217911484
 10
142.8311826560782
 20
172.3200911197075
 10
141.2043116746327
 20
172.0346972565247
 10
139.58290978227
 20
171.7890942461966
 10
137.9682150601802
 20
171.5826038355494
 10
136.3614117599363
 20
171.4146877284137
 10
134.7638994515792
 20
171.2845169486882
 10
133.1767870252182
 20
171.1911979247315
 10
131.6011080094988
 20
171.1340847011401
 10
130.0379066989901
 20
171.1122837062725
 10
128.4883027497247
 20
171.1249121344106
 10
126.9392909262458
 20
171.1715824123124
 10
125.3781028434113
 20
171.2531127501555
 10
123.8057074343263
 20
171.3704182514282
 10
122.2232781846406
 20
171.5242955944616
 10
120.6319024526165
 20
171.715390734659
 10
119.0327967875975
 20
171.944704902896
 10
117.4271992707734
 20
172.2127010338782
 10
115.8163049196407
 20
172.5201112103964
 10
114.2016101975509
 20
172.8674952604669
 10
112.584299356077
 20
173.2554130121061
 10
110.9659011563405
 20
173.68439199556
 10
109.347912061693
 20
174.154712124837
 10
107.7318070036389
 20
174.6669116961065
 10
106.1190824455297
 20
175.2210876026791
 10
104.511407105491
 20
175.8176058859501
 10
102.9102128513341
 20
176.4564127163025
 10
101.3172868263417
 20
177.137798773668
 10
99.73408243017175
 20
177.8615918032722
 10
98.16239757203058
 20
178.6276841458813
 10
96.6037825448866
 20
179.4359035467208
 10
95.05999219425259
 20
180.2860992828636
 10
93.53250145163315
 20
181.1777007603696
 10
92.02321588546858
 20
182.1104818948478
 10
90.53350276802961
 20
183.083807496818
 10
89.0651007959439
 20
184.09701007903
 10
87.61948490071612
 20
185.1494867497738
 10
86.19839377897395
 20
186.2404838944121
 10
84.80318932002642
 20
187.3690971753799
 10
83.43550794422901
 20
188.5344007232657
 10
82.09660926461854
 20
189.7352748820367
 10
80.78790900012094
 20
190.9708799096683
 10
79.51078518893035
 20
192.2397947042729
 10
78.26650282704524
 20
193.5410072690518
 10
77.05619233642171
 20
194.8729888428833
 10
75.88098413901587
 20
196.2346197697348
 10
74.74211093305601
 20
197.6243928203313
 10
73.6403855457582
 20
199.0408868927853
 10
72.57679844207444
 20
200.4825947578221
 10
71.55211938552723
 20
201.9479876543198
 10
70.56709122483056
 20
203.4355152893104
 10
69.62249448943032
 20
204.9436058379785
 10
68.71871136960689
 20
206.4704936888881
 10
67.85642011853394
 20
208.0147146764577
 10
67.03599754353017
 20
209.5744816574045
 10
66.25769664379529
 20
211.1482874024538
 10
65.52170044002692
 20
212.7343232364757
 10
64.82838573954378
 20
214.3309958028083
 10
64.17761796830347
 20
215.9366902129429
 10
63.56949940257822
 20
217.5497915783708
 10
63.00378242613002
 20
219.1685988831962
 10
62.48051010265244
 20
220.7916264299909
 10
61.99939175221391
 20
222.4172808620932
 10
61.56000212084047
 20
224.0439042273007
 10
61.1621043582175
 20
225.6702261466532
 10
60.80520323186902
 20
227.2946101997953
 10
60.48869046712338
 20
228.9156998803796
 10
60.21210851223647
 20
230.5322032775992
 10
59.97490292215363
 20
232.1425916303324
 10
59.77618550819506
 20
233.7457883462402
 10
59.61549333565494
 20
235.3405876419027
 10
59.49198666250874
 20
236.925589947279
 10
59.40481498080853
 20
238.4998909248043
 10
59.35309548483621
 20
240.0623924502926
 10
59.33598843256726
 20
241.6119963995579
  0
LWPOLYLINE
  5
A0
330
70
100
AcDbEntity
  8
Livello 1
 62
   250
420
  2300182
370
     9
100
AcDbPolyline
 90
      129
 70
     0
 43
0.0
 10
180.6360240908544
 20
241.6119963995579
 10
180.6234925560268
 20
242.7396192155738
 10
180.5854996123786
 20
243.8766945123273
 10
180.5213993045061
 20
245.0226839936489
 10
180.4304918473891
 20
246.1765971945865
 10
180.3123035403983
 20
247.3377881597367
 10
180.1661884281301
 20
248.505417147075
 10
179.9914897892577
 20
249.6782999050283
 10
179.7879061779263
 20
250.8557904781932
 10
179.5548885320427
 20
252.0366830831497
 10
179.2920062146714
 20
253.2201164460265
 10
178.9988070570298
 20
254.404884783404
 10
178.675097272497
 20
255.5901052895638
 10
178.3204892878309
 20
256.7743783944653
 10
177.9346924230998
 20
257.9568858879305
 10
177.5177066783039
 20
259.1362066680718
 10
177.0692952031285
 20
260.3111995470099
 10
176.5893072746461
 20
261.4807879324054
 10
176.0779151476309
 20
262.6435937860644
 10
175.5349896310023
 20
263.7985189838008
 10
174.9609182980024
 20
264.9441854874207
 10
174.3555181279335
 20
266.079495172738
 10
173.7193166510417
 20
267.2030915334054
 10
173.0523892287909
 20
268.3137041904628
 10
172.3554033484313
 20
269.4102780834178
 10
171.6286066262009
 20
270.4915213014635
 10
170.8725050604991
 20
271.5562065293332
 10
170.0877123089592
 20
272.6031064517603
 10
169.2748097314443
 20
273.6312090719459
 10
168.4344863470515
 20
274.6393086064704
 10
167.5676141955755
 20
275.6263069311477
 10
166.6747961687262
 20
276.591192049179
 10
165.757087326996
 20
277.5331026866931
 10
164.8151982213287
 20
278.4508115284233
 10
163.8502808055272
 20
279.3435864915791
 10
162.8632824808499
 20
280.2105017067486
 10
161.8551829463255
 20
281.0507820274478
 10
160.8270803261398
 20
281.8636953708861
 10
159.7801158081724
 20
282.648488122426
 10
158.715495175843
 20
283.4046004540512
 10
157.6343057874143
 20
284.1313864103582
 10
156.5376995966891
 20
284.8285014817985
 10
155.427011578168
 20
285.4952997129686
 10
154.3034798130409
 20
286.1315011898604
 10
153.1682131914171
 20
286.7368905940059
 10
152.0224928581803
 20
287.3111018840099
 10
150.8675999582141
 20
287.8538982095578
 10
149.7048156364019
 20
288.3652795706496
 10
148.535216485083
 20
288.8453105628256
 10
147.3602128402216
 20
289.2936897402308
 10
146.180913591927
 20
289.7106970168735
 10
144.9984060984617
 20
290.096504647528
 10
143.8140899298668
 20
290.4511126321941
 10
142.6289017214771
 20
290.7748008848801
 10
141.4441010863295
 20
291.0679785106749
 10
140.2607000212228
 20
291.3309038917398
 10
139.0798181821897
 20
291.5638784739298
 10
137.9023168431014
 20
291.7675051489549
 10
136.729401787378
 20
291.9421930219038
 10
135.5618158637332
 20
292.0882866023252
 10
134.4006033667362
 20
292.2064964411628
 10
133.2467116976453
 20
292.2974038982798
 10
132.1007114504004
 20
292.3615042061523
 10
130.9636038558767
 20
292.3995079157239
 10
129.8360133376311
 20
292.4119963868579
 10
128.7084981808491
 20
292.3995079157239
 10
127.5713905863254
 20
292.3615042061523
 10
126.4253903390805
 20
292.2974038982798
 10
125.2713910107557
 20
292.2064964411628
 10
124.1101892796821
 20
292.0882866023252
 10
122.9427002493479
 20
291.9421930219038
 10
121.769720598084
 20
291.7675051489549
 10
120.5922838545361
 20
291.5638784739298
 10
119.411402015503
 20
291.3309038917398
 10
118.2280009503963
 20
291.0679785106749
 10
117.0430926560148
 20
290.7748008848801
 10
115.858012106859
 20
290.4511126321941
 10
114.6735882790302
 20
290.096504647528
 10
113.4911884447988
 20
289.7106970168735
 10
112.3118891965042
 20
289.2936897402308
 10
111.1367778924089
 20
288.8453105628256
 10
109.9672864003239
 20
288.3652795706496
 10
108.8043944192778
 20
287.8538982095578
 10
107.6496091785455
 20
287.3111018840099
 10
106.5038888453087
 20
286.7368905940059
 10
105.3685791599914
 20
286.1315011898604
 10
104.2449827993239
 20
285.4952997129686
 10
103.1343055467262
 20
284.8285014817985
 10
102.0377962493115
 20
284.1313864103582
 10
100.9566068608828
 20
283.4046004540512
 10
99.89188933524296
 20
282.648488122426
 10
98.84502171058606
 20
281.8636953708861
 10
97.81691909040038
 20
281.0507820274478
 10
96.80878725810575
 20
280.2105017067486
 10
95.82171357196472
 20
279.3435864915791
 10
94.85679615616319
 20
278.4508115284233
 10
93.91498241195963
 20
277.5331026866931
 10
92.99730586799958
 20
276.591192049179
 10
92.10448784115031
 20
275.6263069311477
 10
91.23761568967433
 20
274.6393086064704
 10
90.39729230528154
 20
273.6312090719459
 10
89.58438972776667
 20
272.6031064517603
 10
88.79959697622675
 20
271.5562065293332
 10
88.04349002756323
 20
270.4915213014635
 10
87.31669868829452
 20
269.4102780834178
 10
86.61961053166271
 20
268.3137041904628
 10
85.95279076864581
 20
267.2030915334054
 10
85.31648163252016
 20
266.079495172738
 10
84.71118912168517
 20
264.9441854874207
 10
84.13700474648962
 20
263.7985189838008
 10
83.59411691059291
 20
262.6435937860644
 10
83.08269248580756
 20
261.4807879324054
 10
82.60281221655905
 20
260.3111995470099
 10
82.154287699188
 20
259.1362066680718
 10
81.73730733735377
 20
257.9568858879305
 10
81.35161274889496
 20
256.7743783944653
 10
80.99699938126715
 20
255.5901052895638
 10
80.67318732046214
 20
254.404884783404
 10
80.38010120501621
 20
253.2201164460265
 10
80.11720812172146
 20
252.0366830831497
 10
79.88409358252735
 20
250.8557904781932
 10
79.68050458823417
 20
249.6782999050283
 10
79.50591360859575
 20
248.505417147075
 10
79.35969083709368
 20
247.3377881597367
 10
79.24150791306452
 20
246.1765971945865
 10
79.15070273221971
 20
245.0226839936489
 10
79.08650014807506
 20
243.8766945123273
 10
79.0485018214651
 20
242.7396192155738
 10
79.03601335033106
 20
241.6119963995579
  0
LWPOLYLINE
  5
A1
330
70
100
AcDbEntity
  8
Livello 1
 62
   250
420
  2300182
370
     9
100
AcDbPolyline
 90
       65
 70
     0
 43
0.0
 10
59.33598843256726
 20
241.6119963995579
 10
59.35239031685407
 20
243.131692613642
 10
59.40209658515219
 20
244.6633820663841
 10
59.48588238394581
 20
246.2061173565257
 10
59.60448517898722
 20
247.758908019115
 10
59.75868549972233
 20
249.3206774618126
 10
59.94929079040548
 20
250.89041368782
 10
60.17669400724044
 20
252.4667817226363
 10
60.44169721151989
 20
254.0487911013098
 10
60.74480640164323
 20
255.6350853174932
 10
61.08650604416305
 20
257.2243939922261
 10
61.46718909528316
 20
258.8154252147015
 10
61.88748536152195
 20
260.4066932874916
 10
62.34750788507501
 20
261.9970785545637
 10
62.8476065584526
 20
263.5849015318685
 10
63.38809897639473
 20
265.1688057130589
 10
63.96898513890142
 20
266.7474130599408
 10
64.59039962001504
 20
268.3190010247714
 10
65.25239086639089
 20
269.8822992285906
 10
65.95480277213977
 20
271.4355851236559
 10
66.69761380541491
 20
272.9775022036198
 10
67.48049560555283
 20
274.5064140481269
 10
68.30321132223898
 20
276.0208134279023
 10
69.16529263780579
 20
277.5190854544375
 10
70.06649731897697
 20
278.9999166850786
 10
71.00608790000021
 20
280.4616061039297
 10
71.98360144616969
 20
281.9028187364905
 10
72.99829510877137
 20
283.3220042897924
 10
74.04950140055501
 20
284.7178062574881
 10
75.13619755879841
 20
286.08880353769
 10
76.25778607475337
 20
287.4335965603573
 10
77.41299118649799
 20
288.7510010739169
 10
78.60111310901183
 20
290.039595976481
 10
79.82080610187097
 20
291.2983046757106
 10
81.07101510458305
 20
292.5258998563391
 10
82.35060969519198
 20
293.7214125852611
 10
83.65821721846534
 20
294.8835940153633
 10
84.99259959321312
 20
296.0117120638551
 10
86.35248644047514
 20
297.1046040110103
 10
87.73628978655116
 20
298.1617100288125
 10
89.1428899754085
 20
299.1820827160031
 10
90.57061290595978
 20
300.1652053082595
 10
92.01799441262377
 20
301.1103026590975
 10
93.48371028682331
 20
302.0170087271216
 10
94.96608104450935
 20
302.8846990887754
 10
96.46369634971764
 20
303.7130938300505
 10
97.97510280279031
 20
304.5018053777048
 10
99.49861015375491
 20
305.2508121998918
 10
101.0327004074133
 20
305.9596836596755
 10
102.5761031848052
 20
306.6284843525964
 10
104.1270851722646
 20
307.2573004060416
 10
105.6842145019806
 20
307.8459810970837
 10
107.2461023698356
 20
308.3949139989646
 10
108.8113061420951
 20
308.9040129842974
 10
110.378307823561
 20
309.3736871581709
 10
111.9459123967368
 20
309.8044102212142
 10
113.5126018664244
 20
310.1962898326614
 10
115.07709508774
 20
310.5498858205288
 10
116.6383154683447
 20
310.8656934172923
 10
118.1947019493467
 20
311.1442939828151
 10
119.745404022798
 20
311.3861827495731
 10
121.2889898208876
 20
311.59200567297
 10
122.8245980697441
 20
311.7624948357964
 10
124.3510983474116
 20
311.8983177253023
 10
125.8674032956273
 20
312.0001848924318
  0
LWPOLYLINE
  5
A2
330
70
100
AcDbEntity
  8
Livello 1
 62
   250
420
  2300182
370
     9
100
AcDbPolyline
 90
       65
 70
     0
 43
0.0
 10
200.2845017674202
 20
244.3070084702818
 10
200.2118963800686
 20
245.793674831401
 10
200.1069932225427
 20
247.2904180968146
 10
199.9690171483584
 20
248.7959894194091
 10
199.7973867976526
 20
250.3098074393214
 10
199.5914992787154
 20
251.8306017775914
 10
199.3508162953771
 20
253.3573173737266
 10
199.074627296694
 20
254.8890068264687
 10
198.7624155183432
 20
256.4243997568574
 10
198.4137933870827
 20
257.962290381473
 10
198.0284809889043
 20
259.5017097672101
 10
197.6058969639449
 20
261.0410860892536
 10
197.1459121211237
 20
262.5794934781919
 10
196.6480958235051
 20
264.1152955136695
 10
196.1124050073955
 20
265.6474156033473
 10
195.5385166950932
 20
267.1743034542568
 10
194.9265170139854
 20
268.6948178785186
 10
194.2763198366848
 20
270.2073870513175
 10
193.5880112905787
 20
271.7107190618467
 10
192.8616990349009
 20
273.2033928082183
 10
192.0974907288853
 20
274.6839871885447
 10
191.2957954776209
 20
276.1511026327851
 10
190.4567855358819
 20
277.6032965072051
 10
189.5809130724507
 20
279.0392769009975
 10
188.6685871924162
 20
280.4576011804281
 10
187.7203892556415
 20
281.8568913073027
 10
186.736879090143
 20
283.2358984345079
 10
185.7187026513242
 20
284.5930938009221
 10
184.6667212130564
 20
285.9274223460529
 10
183.581386944122
 20
287.2374844998595
 10
182.4640132871748
 20
288.5220960107688
 10
181.3151170065375
 20
289.7799864998207
 10
180.1358069923195
 20
291.0102085657566
 10
178.9271921346302
 20
292.2115779570035
 10
177.6902198347278
 20
293.3830180812224
 10
176.4259989827218
 20
294.5235169416143
 10
175.135789191649
 20
295.6321917324613
 10
173.8206993516186
 20
296.7083103709727
 10
172.482085968978
 20
297.7507962648092
 10
171.1212086567639
 20
298.7591111178016
 10
169.7393054961665
 20
299.7323721242314
 10
168.3376899298394
 20
300.6702132427035
 10
166.9177938255937
 20
301.5720100496613
 10
165.4809952216234
 20
302.4370950578543
 10
164.0286183265058
 20
303.2653175443551
 10
162.5621165398987
 20
304.0560961493007
 10
161.0828140703793
 20
304.809323213457
 10
159.5921104879882
 20
305.5247188228159
 10
158.0915022560771
 20
306.2021107226032
 10
156.5823889446869
 20
306.8414989128187
 10
155.0660839964711
 20
307.4427972660755
 10
153.5439223859304
 20
308.0061780371478
 10
152.0173036831057
 20
308.5316842897291
 10
150.4875951602676
 20
309.0195098104405
 10
148.956002600836
 20
309.4697837903626
 10
147.4238932770817
 20
309.8828938027376
 10
145.8924837383478
 20
310.2593135481947
 10
144.3630120658244
 20
310.5991076222743
 10
142.8365871496207
 20
310.9029865759201
 10
141.3144147731566
 20
311.1713164505275
 10
139.7976145924649
 20
311.4047001378064
 10
138.2871986043442
 20
311.6036974657731
 10
136.7842864648274
 20
311.7688036669037
 10
135.2897825114792
 20
311.9008154195291
 10
133.8046987410985
 20
312.0001848924318
  0
LWPOLYLINE
  5
A3
330
70
100
AcDbEntity
  8
Livello 1
 62
   250
420
  2300182
370
     9
100
AcDbPolyline
 90
        6
 70
     0
 43
0.0
 10
133.8046987410985
 20
312.0001848924318
 10
133.7629915538802
 20
311.9997111918026
 10
130.3586881523604
 20
312.0714983689765
 10
127.3865073839248
 20
312.0398034905122
 10
125.9087121436801
 20
311.9997111918026
 10
125.8674032956273
 20
312.0001848924318
  0
LWPOLYLINE
  5
A4
330
70
100
AcDbEntity
  8
Livello 1
 62
   250
420
  2300182
370
     9
100
AcDbPolyline
 90
      129
 70
     0
 43
0.0
 10
77.59410631571161
 20
241.6119963995579
 10
77.60698236008773
 20
240.4524849184568
 10
77.6461057256921
 20
239.2830903196823
 10
77.71200394277089
 20
238.1046092815655
 10
77.80538756226795
 20
236.9179030779775
 10
77.92698866697389
 20
235.7237037917093
 10
78.07730787232639
 20
234.5230018877126
 10
78.25690500634181
 20
233.3168093627863
 10
78.46631298222805
 20
232.1059013634145
 10
78.70588707545699
 20
230.8915052048639
 10
78.97628939031723
 20
229.6744821610058
 10
79.27781060674033
 20
228.4559949515666
 10
79.6106929580026
 20
227.2371847644255
 10
79.97539399584816
 20
226.0192789148494
 10
80.37209135801299
 20
224.8032893996369
 10
80.80089270373099
 20
223.5904865977482
 10
81.26211562774221
 20
222.3821193562968
 10
81.75568476858289
 20
221.1792857994686
 10
82.28160550921476
 20
219.9835146883852
 10
82.83991014740797
 20
218.7958180198453
 10
83.43039413061809
 20
217.6175953638899
 10
84.05290135295595
 20
216.4500955676323
 10
84.70720034706864
 20
215.2945890100327
 10
85.39300043302459
 20
214.1524106655917
 10
86.10981176130946
 20
213.0247878495758
 10
86.85720369498763
 20
211.9129048135583
 10
87.63479942674038
 20
210.8179888728055
 10
88.44188302266221
 20
209.7413104062778
 10
89.27789465473674
 20
208.6840967292418
 10
90.14198919797776
 20
207.6472952429558
 10
91.03349378217327
 20
206.6323055174609
 10
91.95160096306896
 20
205.6399888266282
 10
92.89538487125316
 20
204.6714002309502
 10
93.86400576470132
 20
203.727616322766
 10
94.85630092368719
 20
202.8095199077937
 10
95.87131218102893
 20
201.9180153235982
 10
96.90809213546808
 20
201.0539207803572
 10
97.96529504658074
 20
200.2179037653209
 10
99.04200581087861
 20
199.4108040205141
 10
100.1368894538612
 20
198.6332890331867
 10
101.2487078943384
 20
197.8857894402746
 10
102.3763953058946
 20
197.1690157927216
 10
103.5186167140292
 20
196.4832264726891
 10
104.674101739782
 20
195.8288951808062
 10
105.8415907701162
 20
195.2064094903152
 10
107.0197918942249
 20
194.6158985922965
 10
108.2074885627647
 20
194.0575778052182
 10
109.4033027375417
 20
193.5317055112416
 10
110.6061039965998
 20
193.0380879237457
 10
111.8145035358213
 20
192.5769188293514
 10
113.0272848058632
 20
192.1481121006717
 10
114.2433066188458
 20
191.7514093555452
 10
115.4612017024986
 20
191.3867029347379
 10
116.6800118896397
 20
191.0537990516289
 10
117.8985098650024
 20
190.752310132976
 10
119.1154898451669
 20
190.4819132010774
 10
120.3298860037174
 20
190.2422852782315
 10
121.5407940030892
 20
190.0328880682687
 10
122.7470188257857
 20
189.8532909342532
 10
123.9476991979356
 20
189.7029986437092
 10
125.1418877182805
 20
189.5815159641606
 10
126.3285939218683
 20
189.487981621736
 10
127.5070857259086
 20
189.4220941705807
 10
128.6765018565299
 20
189.3829923368231
 10
129.8360133376311
 20
189.3700947606001
 10
130.995600180196
 20
189.3829923368231
 10
132.1649840130471
 20
189.4220941705807
 10
133.3435081148575
 20
189.487981621736
 10
134.5301820206752
 20
189.5815159641606
 10
135.7242951795563
 20
189.7029986437092
 10
136.9250186153998
 20
189.8532909342532
 10
138.1313080336366
 20
190.0328880682687
 10
139.3421083737745
 20
190.2422852782315
 10
140.556612191559
 20
190.4819132010774
 10
141.7735921717235
 20
190.752310132976
 10
142.9920147856224
 20
191.0537990516289
 10
144.2107926749933
 20
191.3867029347379
 10
145.42879541788
 20
191.7514093555452
 10
146.6447849330925
 20
192.1481121006717
 10
147.8575985009045
 20
192.5769188293514
 10
149.0659980401261
 20
193.0380879237457
 10
150.2686916399502
 20
193.5317055112416
 10
151.4646134739611
 20
194.0575778052182
 10
152.652202483267
 20
194.6158985922965
 10
153.8305112666096
 20
195.2064094903152
 10
154.9978926377099
 20
195.8288951808062
 10
156.1534099612329
 20
196.4832264726891
 10
157.2955990715973
 20
197.1690157927216
 10
158.4232972490769
 20
197.8857894402746
 10
159.5352125828647
 20
198.6332890331867
 10
160.6300962258472
 20
199.4108040205141
 10
161.7066993309112
 20
200.2179037653209
 10
162.7640099012578
 20
201.0539207803572
 10
163.800682196463
 20
201.9180153235982
 10
164.8158011130387
 20
202.8095199077937
 10
165.8080962720245
 20
203.727616322766
 10
166.7766095062388
 20
204.6714002309502
 10
167.720393414423
 20
205.6399888266282
 10
168.6385005953187
 20
206.6323055174609
 10
169.5301128387481
 20
207.6472952429558
 10
170.3942073819891
 20
208.6840967292418
 10
171.2301813333318
 20
209.7413104062778
 10
172.0371949507516
 20
210.8179888728055
 10
172.814796065466
 20
211.9129048135583
 10
173.5622956583781
 20
213.0247878495758
 10
174.2791016037013
 20
214.1524106655917
 10
174.9649016896572
 20
215.2945890100327
 10
175.6192006837699
 20
216.4500955676323
 10
176.2417079061077
 20
217.6175953638899
 10
176.8321865063562
 20
218.7958180198453
 10
177.3903888682772
 20
219.9835146883852
 10
177.9164118851813
 20
221.1792857994686
 10
178.4099218134433
 20
222.3821193562968
 10
178.8711016737609
 20
223.5904865977482
 10
179.3000160616746
 20
224.8032893996369
 10
179.6967080408777
 20
226.0192789148494
 10
180.061306802451
 20
227.2371847644255
 10
180.3942968129472
 20
228.4559949515666
 10
180.6958180293703
 20
229.6744821610058
 10
180.9661073020349
 20
230.8915052048639
 10
181.2057782885744
 20
232.1059013634145
 10
181.4150893711501
 20
233.3168093627863
 10
181.5946865051656
 20
234.5230018877126
 10
181.7450003275564
 20
235.7237037917093
 10
181.8666121981857
 20
236.9179030779775
 10
181.9601034769166
 20
238.1046092815655
 10
182.0259909280721
 20
239.2830903196823
 10
182.0650927618296
 20
240.4524849184568
 10
182.0778826788186
 20
241.6119963995579
  0
LWPOLYLINE
  5
A5
330
70
100
AcDbEntity
  8
Livello 1
 62
   250
420
  2300182
370
     9
100
AcDbPolyline
 90
      129
 70
     0
 43
0.0
 10
182.0360247686728
 20
241.6119963995579
 10
182.0232133198371
 20
240.4534107878684
 10
181.9840899542327
 20
239.284898994812
 10
181.9181809712305
 20
238.1073868898004
 10
181.8249050109674
 20
236.9216065556242
 10
181.7034223314188
 20
235.7283977343079
 10
181.5531946364151
 20
234.52870782711
 10
181.3738128208675
 20
233.3234842352889
 10
181.1645878656789
 20
232.113588232716
 10
180.9251106657605
 20
230.9001179435771
 10
180.6549936478701
 20
229.684085364671
 10
180.3536877499148
 20
228.4666101520305
 10
180.0210853126607
 20
227.2487904298415
 10
179.6567018695552
 20
226.031810449677
 10
179.2602898043602
 20
224.8168113994165
 10
178.8318060533823
 20
223.6049129350927
 10
178.3710030003834
 20
222.3974930948998
 10
177.8777837520529
 20
221.1956930667172
 10
177.352288265395
 20
220.0008047613518
 10
176.7945165404096
 20
218.8140770259172
 10
176.2044901089437
 20
217.6369094304541
 10
175.582402757618
 20
216.4702924399145
 10
174.9287066552153
 20
215.3156902198798
 10
174.2435094609693
 20
214.1745023403909
 10
173.5271879821987
 20
213.047676202706
 10
172.7802912809965
 20
211.9366759724065
 10
172.0034007172259
 20
210.8426859010654
 10
171.1969899915161
 20
209.7668902402558
 10
170.3617158251939
 20
208.7104947733975
 10
169.4981811099692
 20
207.6745976246764
 10
168.6073870767175
 20
206.6604045775124
 10
167.6899904467656
 20
205.6688199694704
 10
166.7470139828358
 20
204.7011141795105
 10
165.779200533642
 20
203.7579977585766
 10
164.7876805211403
 20
202.8406980219352
 10
163.7734874739763
 20
201.9497963294496
 10
162.7375903252552
 20
201.0864123371524
 10
161.681194858397
 20
200.25110587306
 10
160.6053991975873
 20
199.444716679197
 10
159.5113983603229
 20
198.6676969243456
 10
158.4003981300234
 20
197.9208863505306
 10
157.2735935241853
 20
197.2046079354536
 10
156.132287219539
 20
196.519421507131
 10
154.9777818928148
 20
195.8656069795709
 10
153.8112187318922
 20
195.243594989709
 10
152.6338896475783
 20
194.6536008560132
 10
151.4471834439904
 20
194.0957968332577
 10
150.2523920319356
 20
193.5701829214425
 10
149.050592003753
 20
193.0771036301161
 10
147.8430968020963
 20
192.6163221089639
 10
146.6313059970064
 20
192.1877952942925
 10
145.416306946746
 20
191.7914155268677
 10
144.1992946688113
 20
191.4269890200686
 10
142.9815072443924
 20
191.0942789235806
 10
141.7639997339817
 20
190.7930914507826
 10
140.5480102187692
 20
190.522995964739
 10
139.3344861000134
 20
190.2834972329738
 10
138.1246008633638
 20
190.074293809632
 10
136.919301910079
 20
189.8949119940844
 10
135.7196120028811
 20
189.7447058309275
 10
134.5264031815648
 20
189.6232016195321
 10
133.3406120814652
 20
189.5297964681883
 10
132.1631107423769
 20
189.4638874851861
 10
130.9947173744779
 20
189.4249148425092
 10
129.8360133376311
 20
189.4119957344395
 10
128.677384662248
 20
189.4249148425092
 10
127.5089159328851
 20
189.4638874851861
 10
126.3314145937969
 20
189.5297964681883
 10
125.1455911959271
 20
189.6232016195321
 10
123.9523931405342
 20
189.7447058309275
 10
122.7526924674129
 20
189.8949119940844
 10
121.5473935141281
 20
190.074293809632
 10
120.3376159367125
 20
190.2834972329738
 10
119.1240918179566
 20
190.522995964739
 10
117.9081023027441
 20
190.7930914507826
 10
116.6905947923334
 20
191.0942789235806
 10
115.4728073679145
 20
191.4269890200686
 10
114.2557950899799
 20
191.7914155268677
 10
113.0406883804855
 20
192.1877952942925
 10
111.8288975753956
 20
192.6163221089639
 10
110.6215207988962
 20
193.0771036301161
 10
109.4197100047902
 20
193.5701829214425
 10
108.2248109335015
 20
194.0957968332577
 10
107.0381047299136
 20
194.6536008560132
 10
105.8608833048336
 20
195.243594989709
 10
104.6942878461408
 20
195.8656069795709
 10
103.5397179238763
 20
196.519421507131
 10
102.3985085125405
 20
197.2046079354536
 10
101.2717039067025
 20
197.9208863505306
 10
100.1607036764029
 20
198.6676969243456
 10
99.0667028391385
 20
199.444716679197
 10
97.99090717832889
 20
200.25110587306
 10
96.9345117114706
 20
201.0864123371524
 10
95.89861456274952
 20
201.9497963294496
 10
94.88431385635163
 20
202.8406980219352
 10
93.89279384384995
 20
203.7579977585766
 10
92.92508805389003
 20
204.7011141795105
 10
91.9820039307263
 20
205.6688199694704
 10
91.06460730077444
 20
206.6604045775124
 10
90.17380788456105
 20
207.6745976246764
 10
89.310386211532
 20
208.7104947733975
 10
88.47511204520978
 20
209.7668902402558
 10
87.66870131949993
 20
210.8426859010654
 10
86.89170847945709
 20
211.9366759724065
 10
86.14491405452715
 20
213.047676202706
 10
85.42859795871827
 20
214.1745023403909
 10
84.74339538151054
 20
215.3156902198798
 10
84.08959161987388
 20
216.4702924399145
 10
83.46761192778219
 20
217.6369094304541
 10
82.87759087927788
 20
218.8140770259172
 10
82.31981377133086
 20
220.0008047613518
 10
81.79421062543903
 20
221.1956930667172
 10
81.30109365338078
 20
222.3974930948998
 10
80.84029598334353
 20
223.6049129350927
 10
80.41181223236558
 20
224.8168113994165
 10
80.01540016717063
 20
226.031810449677
 10
79.65101134110341
 20
227.2487904298415
 10
79.31830662757711
 20
228.4666101520305
 10
79.01710838885574
 20
229.684085364671
 10
78.74691600950164
 20
230.9001179435771
 10
78.50748187327678
 20
232.113588232716
 10
78.29828921585837
 20
233.3234842352889
 10
78.11879435811516
 20
234.52870782711
 10
77.96868508826879
 20
235.7283977343079
 10
77.84719164279677
 20
236.9216065556242
 10
77.75380802329973
 20
238.1073868898004
 10
77.68790980622092
 20
239.284898994812
 10
77.64889409985048
 20
240.4534107878684
 10
77.63601805547435
 20
241.6119963995579
  0
LWPOLYLINE
  5
A6
330
70
100
AcDbEntity
  8
Livello 1
 62
   250
420
  2300182
370
     9
100
AcDbPolyline
 90
      129
 70
     0
 43
0.0
 10
77.63601805547435
 20
241.6119963995579
 10
77.64889409985048
 20
242.7706896704814
 10
77.68790980622092
 20
243.9390938043039
 10
77.75380802329973
 20
245.1166920367026
 10
77.84719164279677
 20
246.3023862434917
 10
77.96868508826879
 20
247.495595064808
 10
78.11879435811516
 20
248.6953065038527
 10
78.29828921585837
 20
249.9006162230609
 10
78.50748187327678
 20
251.1105122256338
 10
78.74691600950164
 20
252.3239825147728
 10
79.01710838885574
 20
253.5400150936788
 10
79.31830662757711
 20
254.7574903063193
 10
79.65101134110341
 20
255.9753100285083
 10
80.01540016717063
 20
257.1922900086728
 10
80.41181223236558
 20
258.4072890589334
 10
80.84029598334353
 20
259.6191875232571
 10
81.30109365338078
 20
260.82660736345
 10
81.79421062543903
 20
262.0284073916327
 10
82.31981377133086
 20
263.2231880377641
 10
82.87759087927788
 20
264.4099157731988
 10
83.46761192778219
 20
265.5871910278957
 10
84.08959161987388
 20
266.7538080184353
 10
84.74339538151054
 20
267.908302579236
 10
85.42859795871827
 20
269.049598117959
 10
86.14491405452715
 20
270.1764027237971
 10
86.89170847945709
 20
271.2874244859433
 10
87.66870131949993
 20
272.3814145572844
 10
88.47511204520978
 20
273.457210218094
 10
89.310386211532
 20
274.5136056849523
 10
90.17380788456105
 20
275.5495028336734
 10
91.06460730077444
 20
276.5636958808374
 10
91.9820039307263
 20
277.5551943614923
 10
92.92508805389003
 20
278.5229862788393
 10
93.89279384384995
 20
279.4659950405393
 10
94.88431385635163
 20
280.3834024364146
 10
95.89861456274952
 20
281.2741964696662
 10
96.9345117114706
 20
282.1376881211973
 10
97.99090717832889
 20
282.9729945852898
 10
99.0667028391385
 20
283.7793837791528
 10
100.1607036764029
 20
284.5562958747702
 10
101.2717039067025
 20
285.3032141078192
 10
102.3985085125405
 20
286.0194925228962
 10
103.5397179238763
 20
286.7046789512188
 10
104.6942878461408
 20
287.358385819545
 10
105.8608833048336
 20
287.9805054686407
 10
107.0381047299136
 20
288.5704996023365
 10
108.2248109335015
 20
289.1283036250921
 10
109.4197100047902
 20
289.6538098776734
 10
110.6215207988962
 20
290.1469968282337
 10
111.8288975753956
 20
290.6077783493858
 10
113.0406883804855
 20
291.0363051640573
 10
114.2557950899799
 20
291.4326849314821
 10
115.4728073679145
 20
291.7971114382812
 10
116.6905947923334
 20
292.1297138755353
 10
117.9081023027441
 20
292.4310090075672
 10
119.1240918179566
 20
292.7011044936108
 10
120.3376159367125
 20
292.940603225376
 10
121.5473935141281
 20
293.1498066487177
 10
122.7526924674129
 20
293.3291884642654
 10
123.9523931405342
 20
293.4793946274222
 10
125.1455911959271
 20
293.6008988388177
 10
126.3314145937969
 20
293.6943039901615
 10
127.5089159328851
 20
293.7601053139298
 10
128.677384662248
 20
293.7991856158406
 10
129.8360133376311
 20
293.8119970646763
 10
130.9947173744779
 20
293.7991856158406
 10
132.1631107423769
 20
293.7601053139298
 10
133.3406120814652
 20
293.6943039901615
 10
134.5264031815648
 20
293.6008988388177
 10
135.7196120028811
 20
293.4793946274222
 10
136.919301910079
 20
293.3291884642654
 10
138.1246008633638
 20
293.1498066487177
 10
139.3344861000134
 20
292.940603225376
 10
140.5480102187692
 20
292.7011044936108
 10
141.7639997339817
 20
292.4310090075672
 10
142.9815072443924
 20
292.1297138755353
 10
144.1992946688113
 20
291.7971114382812
 10
145.416306946746
 20
291.4326849314821
 10
146.6313059970064
 20
291.0363051640573
 10
147.8430968020963
 20
290.6077783493858
 10
149.050592003753
 20
290.1469968282337
 10
150.2523920319356
 20
289.6538098776734
 10
151.4471834439904
 20
289.1283036250921
 10
152.6338896475783
 20
288.5704996023365
 10
153.8112187318922
 20
287.9805054686407
 10
154.9777818928148
 20
287.358385819545
 10
156.132287219539
 20
286.7046789512188
 10
157.2735935241853
 20
286.0194925228962
 10
158.4003981300234
 20
285.3032141078192
 10
159.5113983603229
 20
284.5562958747702
 10
160.6053991975873
 20
283.7793837791528
 10
161.681194858397
 20
282.9729945852898
 10
162.7375903252552
 20
282.1376881211973
 10
163.7734874739763
 20
281.2741964696662
 10
164.7876805211403
 20
280.3834024364146
 10
165.779200533642
 20
279.4659950405393
 10
166.7470139828358
 20
278.5229862788393
 10
167.6899904467656
 20
277.5551943614923
 10
168.6073870767175
 20
276.5636958808374
 10
169.4981811099692
 20
275.5495028336734
 10
170.3617158251939
 20
274.5136056849523
 10
171.1969899915161
 20
273.457210218094
 10
172.0034007172259
 20
272.3814145572844
 10
172.7802912809965
 20
271.2874244859433
 10
173.5271879821987
 20
270.1764027237971
 10
174.2435094609693
 20
269.049598117959
 10
174.9287066552153
 20
267.908302579236
 10
175.582402757618
 20
266.7538080184353
 10
176.2044901089437
 20
265.5871910278957
 10
176.7945165404096
 20
264.4099157731988
 10
177.352288265395
 20
263.2231880377641
 10
177.8777837520529
 20
262.0284073916327
 10
178.3710030003834
 20
260.82660736345
 10
178.8318060533823
 20
259.6191875232571
 10
179.2602898043602
 20
258.4072890589334
 10
179.6567018695552
 20
257.1922900086728
 10
180.0210853126607
 20
255.9753100285083
 10
180.3536877499148
 20
254.7574903063193
 10
180.6549936478701
 20
253.5400150936788
 10
180.9251106657605
 20
252.3239825147728
 10
181.1645878656789
 20
251.1105122256338
 10
181.3738128208675
 20
249.9006162230609
 10
181.5531946364151
 20
248.6953065038527
 10
181.7034223314188
 20
247.495595064808
 10
181.8249050109674
 20
246.3023862434917
 10
181.9181809712305
 20
245.1166920367026
 10
181.9840899542327
 20
243.9390938043039
 10
182.0232133198371
 20
242.7706896704814
 10
182.0360247686728
 20
241.6119963995579
  0
LWPOLYLINE
  5
A7
330
70
100
AcDbEntity
  8
Livello 1
 62
   250
420
  2300182
370
     9
100
AcDbPolyline
 90
      129
 70
     0
 43
0.0
 10
182.0778826788186
 20
241.6119963995579
 10
182.0650927618296
 20
242.771615539893
 10
182.0259909280721
 20
243.9410101386676
 10
181.9601034769166
 20
245.1194911767844
 10
181.8666121981857
 20
246.3061973803723
 10
181.7450003275564
 20
247.5003966666406
 10
181.5946865051656
 20
248.7009909114033
 10
181.4150893711501
 20
249.9072910955636
 10
181.2057782885744
 20
251.1180914357014
 10
180.9661073020349
 20
252.3325952534859
 10
180.6958180293703
 20
253.549618297344
 10
180.3942968129472
 20
254.7679978475493
 10
180.061306802451
 20
255.9868080346904
 10
179.6967080408777
 20
257.2048000116537
 10
179.3000160616746
 20
258.4207895268662
 10
178.8711016737609
 20
259.6336138606016
 10
178.4099218134433
 20
260.8419811020529
 10
177.9164118851813
 20
262.0447069996473
 10
177.3903888682772
 20
263.2405857699646
 10
176.8321865063562
 20
264.4282178429642
 10
176.2417079061077
 20
265.6065050944599
 10
175.6192006837699
 20
266.7738972314836
 10
174.9649016896572
 20
267.9294037890832
 10
174.2791016037013
 20
269.0715821335242
 10
173.5622956583781
 20
270.199312608774
 10
172.814796065466
 20
271.3111956447916
 10
172.0371949507516
 20
272.4061115855443
 10
171.2301813333318
 20
273.4827254565317
 10
170.3942073819891
 20
274.5399821972613
 10
169.5301128387481
 20
275.5766975561601
 10
168.6385005953187
 20
276.5917734090422
 10
167.720393414423
 20
277.5841116317216
 10
166.7766095062388
 20
278.5525925681657
 10
165.8080962720245
 20
279.4964195400435
 10
164.8158011130387
 20
280.4144728913222
 10
163.800682196463
 20
281.3060851347517
 10
162.7640099012578
 20
282.1701796779926
 10
161.7066993309112
 20
283.0061966930289
 10
160.6300962258472
 20
283.813274905989
 10
159.5352125828647
 20
284.590811425163
 10
158.4232972490769
 20
285.3383110180752
 10
157.2955990715973
 20
286.0551277293217
 10
156.1534099612329
 20
286.7409170493543
 10
154.9978926377099
 20
287.3952052775436
 10
153.8305112666096
 20
288.0176909680346
 10
152.652202483267
 20
288.6082018660533
 10
151.4646134739611
 20
289.1665011212848
 10
150.2686916399502
 20
289.6923949471081
 10
149.0659980401261
 20
290.1859048753702
 10
147.8575985009045
 20
290.6470739697645
 10
146.6447849330925
 20
291.0759883576781
 10
145.42879541788
 20
291.4726911028046
 10
144.2107926749933
 20
291.8372898643779
 10
142.9920147856224
 20
292.1703014067209
 10
141.7735921717235
 20
292.4717903253738
 10
140.556612191559
 20
292.7421011298852
 10
139.3421083737745
 20
292.9817936482715
 10
138.1313080336366
 20
293.1912123900811
 10
136.9250186153998
 20
293.3707018648626
 10
135.7242951795563
 20
293.5209941554067
 10
134.5301820206752
 20
293.6425844941892
 10
133.3435081148575
 20
293.7361188366137
 10
132.1649840130471
 20
293.8020062877691
 10
130.995600180196
 20
293.8411081215267
 10
129.8360133376311
 20
293.8538980385157
 10
128.6765018565299
 20
293.8411081215267
 10
127.5070857259086
 20
293.8020062877691
 10
126.3285939218683
 20
293.7361188366137
 10
125.1418877182805
 20
293.6425844941892
 10
123.9476991979356
 20
293.5209941554067
 10
122.7470188257857
 20
293.3707018648626
 10
121.5407940030892
 20
293.1912123900811
 10
120.3298860037174
 20
292.9817936482715
 10
119.1154898451669
 20
292.7421011298852
 10
117.8985098650024
 20
292.4717903253738
 10
116.6800118896397
 20
292.1703014067209
 10
115.4612017024986
 20
291.8372898643779
 10
114.2433066188458
 20
291.4726911028046
 10
113.0272848058632
 20
291.0759883576781
 10
111.8145035358213
 20
290.6470739697645
 10
110.6061039965998
 20
290.1859048753702
 10
109.4033027375417
 20
289.6923949471081
 10
108.2074885627647
 20
289.1665011212848
 10
107.0197918942249
 20
288.6082018660533
 10
105.8415907701162
 20
288.0176909680346
 10
104.674101739782
 20
287.3952052775436
 10
103.5186167140292
 20
286.7409170493543
 10
102.3763953058946
 20
286.0551277293217
 10
101.2487078943384
 20
285.3383110180752
 10
100.1368894538612
 20
284.590811425163
 10
99.04200581087861
 20
283.813274905989
 10
97.96529504658074
 20
283.0061966930289
 10
96.90809213546808
 20
282.1701796779926
 10
95.87131218102893
 20
281.3060851347517
 10
94.85630092368719
 20
280.4144728913222
 10
93.86400576470132
 20
279.4964195400435
 10
92.89538487125316
 20
278.5525925681657
 10
91.95160096306896
 20
277.5841116317216
 10
91.03349378217327
 20
276.5917734090422
 10
90.14198919797776
 20
275.5766975561601
 10
89.27789465473674
 20
274.5399821972613
 10
88.44188302266221
 20
273.4827254565317
 10
87.63479942674038
 20
272.4061115855443
 10
86.85720369498763
 20
271.3111956447916
 10
86.10981176130946
 20
270.199312608774
 10
85.39300043302459
 20
269.0715821335242
 10
84.70720034706864
 20
267.9294037890832
 10
84.05290135295595
 20
266.7738972314836
 10
83.43039413061809
 20
265.6065050944599
 10
82.83991014740797
 20
264.4282178429642
 10
82.28160550921476
 20
263.2405857699646
 10
81.75568476858289
 20
262.0447069996473
 10
81.26211562774221
 20
260.8419811020529
 10
80.80089270373099
 20
259.6336138606016
 10
80.37209135801299
 20
258.4207895268662
 10
79.97539399584816
 20
257.2048000116537
 10
79.6106929580026
 20
255.9868080346904
 10
79.27781060674033
 20
254.7679978475493
 10
78.97628939031723
 20
253.549618297344
 10
78.70588707545699
 20
252.3325952534859
 10
78.46631298222805
 20
251.1180914357014
 10
78.25690500634181
 20
249.9072910955636
 10
78.07730787232639
 20
248.7009909114033
 10
77.92698866697389
 20
247.5003966666406
 10
77.80538756226795
 20
246.3061973803723
 10
77.71200394277089
 20
245.1194911767844
 10
77.6461057256921
 20
243.9410101386676
 10
77.60698236008773
 20
242.771615539893
 10
77.59410631571161
 20
241.6119963995579
  0
LWPOLYLINE
  5
A8
330
70
100
AcDbEntity
  8
Livello 1
 62
   250
420
  2300182
370
     9
100
AcDbPolyline
 90
      129
 70
     0
 43
0.0
 10
79.03601335033106
 20
241.6119963995579
 10
79.0485018214651
 20
240.484481242776
 10
79.08650014807506
 20
239.3474059460225
 10
79.15070273221971
 20
238.201416464701
 10
79.24150791306452
 20
237.0473956045294
 10
79.35969083709368
 20
235.8862046393792
 10
79.50591360859575
 20
234.7186833112747
 10
79.68050458823417
 20
233.5458005533215
 10
79.88409358252735
 20
232.3683099801566
 10
80.11720812172146
 20
231.1874173752001
 10
80.38010120501621
 20
230.0039840123232
 10
80.67318732046214
 20
228.8191080157119
 10
80.99699938126715
 20
227.633995168786
 10
81.35161274889496
 20
226.4496144046506
 10
81.73730733735377
 20
225.2671930385726
 10
82.154287699188
 20
224.0878937902779
 10
82.60281221655905
 20
222.912793252106
 10
83.08269248580756
 20
221.7433125259444
 10
83.59411691059291
 20
220.5803990130515
 10
84.13700474648962
 20
219.425581474549
 10
84.71118912168517
 20
218.2799149709292
 10
85.31648163252016
 20
217.1446052856119
 10
85.95279076864581
 20
216.0210089249444
 10
86.61961053166271
 20
214.9103101404999
 10
87.31669868829452
 20
213.813822374932
 10
88.04349002756323
 20
212.7325791568863
 10
88.79959697622675
 20
211.6678939290166
 10
89.58438972776667
 20
210.6209940065896
 10
90.39729230528154
 20
209.5928913864038
 10
91.23761568967433
 20
208.5847918518794
 10
92.10448784115031
 20
207.5977935272021
 10
92.99730586799958
 20
206.6328007499369
 10
93.91498241195963
 20
205.6909977716567
 10
94.85679615616319
 20
204.7732889299265
 10
95.82171357196472
 20
203.8805139667708
 10
96.80878725810575
 20
203.0135987516012
 10
97.81691909040038
 20
202.173318430902
 10
98.84502171058606
 20
201.3604050874637
 10
99.89188933524296
 20
200.5756123359238
 10
100.9566068608828
 20
199.8195000042986
 10
102.0377962493115
 20
199.0927140479916
 10
103.1343055467262
 20
198.3955989765513
 10
104.2449827993239
 20
197.7288007453811
 10
105.3685791599914
 20
197.0924916092555
 10
106.5038888453087
 20
196.4872098643439
 10
107.6496091785455
 20
195.9129770424931
 10
108.8043944192778
 20
195.370094589558
 10
109.9672864003239
 20
194.8587132284663
 10
111.1367778924089
 20
194.3787898955242
 10
112.3118891965042
 20
193.930303058885
 10
113.4911884447988
 20
193.5132957822423
 10
114.6735882790302
 20
193.1275958108218
 10
115.858012106859
 20
192.7729878261557
 10
117.0430926560148
 20
192.4492134460826
 10
118.2280009503963
 20
192.156121947675
 10
119.411402015503
 20
191.89319656661
 10
120.5922838545361
 20
191.6601143251861
 10
121.769720598084
 20
191.456487650161
 10
122.9427002493479
 20
191.2818859045992
 10
124.1101892796821
 20
191.1358138560246
 10
125.2713910107557
 20
191.0174963579531
 10
126.4253903390805
 20
190.9266750282232
 10
127.5713905863254
 20
190.8625101248104
 10
128.7084981808491
 20
190.824484883392
 10
129.8360133376311
 20
190.8119964122579
 10
130.9636038558767
 20
190.824484883392
 10
132.1007114504004
 20
190.8625101248104
 10
133.2467116976453
 20
190.9266750282232
 10
134.4006033667362
 20
191.0174963579531
 10
135.5618158637332
 20
191.1358138560246
 10
136.729401787378
 20
191.2818859045992
 10
137.9023168431014
 20
191.456487650161
 10
139.0798181821897
 20
191.6601143251861
 10
140.2607000212228
 20
191.89319656661
 10
141.4441010863295
 20
192.156121947675
 10
142.6289017214771
 20
192.4492134460826
 10
143.8140899298668
 20
192.7729878261557
 10
144.9984060984617
 20
193.1275958108218
 10
146.180913591927
 20
193.5132957822423
 10
147.3602128402216
 20
193.930303058885
 10
148.535216485083
 20
194.3787898955242
 10
149.7048156364019
 20
194.8587132284663
 10
150.8675999582141
 20
195.370094589558
 10
152.0224928581803
 20
195.9129770424931
 10
153.1682131914171
 20
196.4872098643439
 10
154.3034798130409
 20
197.0924916092555
 10
155.427011578168
 20
197.7288007453811
 10
156.5376995966891
 20
198.3955989765513
 10
157.6343057874143
 20
199.0927140479916
 10
158.715495175843
 20
199.8195000042986
 10
159.7801158081724
 20
200.5756123359238
 10
160.8270803261398
 20
201.3604050874637
 10
161.8551829463255
 20
202.173318430902
 10
162.8632824808499
 20
203.0135987516012
 10
163.8502808055272
 20
203.8805139667708
 10
164.8151982213287
 20
204.7732889299265
 10
165.757087326996
 20
205.6909977716567
 10
166.6747961687262
 20
206.6328007499369
 10
167.5676141955755
 20
207.5977935272021
 10
168.4344863470515
 20
208.5847918518794
 10
169.2748097314443
 20
209.5928913864038
 10
170.0877123089592
 20
210.6209940065896
 10
170.8725050604991
 20
211.6678939290166
 10
171.6286066262009
 20
212.7325791568863
 10
172.3554033484313
 20
213.813822374932
 10
173.0523892287909
 20
214.9103101404999
 10
173.7193166510417
 20
216.0210089249444
 10
174.3555181279335
 20
217.1446052856119
 10
174.9609182980024
 20
218.2799149709292
 10
175.5349896310023
 20
219.425581474549
 10
176.0779151476309
 20
220.5803990130515
 10
176.5893072746461
 20
221.7433125259444
 10
177.0692952031285
 20
222.912793252106
 10
177.5177066783039
 20
224.0878937902779
 10
177.9346924230998
 20
225.2671930385726
 10
178.3204892878309
 20
226.4496144046506
 10
178.675097272497
 20
227.633995168786
 10
178.9988070570298
 20
228.8191080157119
 10
179.2920062146714
 20
230.0039840123232
 10
179.5548885320427
 20
231.1874173752001
 10
179.7879061779263
 20
232.3683099801566
 10
179.9914897892577
 20
233.5458005533215
 10
180.1661884281301
 20
234.7186833112747
 10
180.3123035403983
 20
235.8862046393792
 10
180.4304918473891
 20
237.0473956045294
 10
180.5213993045061
 20
238.201416464701
 10
180.5854996123786
 20
239.3474059460225
 10
180.6234925560268
 20
240.484481242776
 10
180.6360240908544
 20
241.6119963995579
  0
LWPOLYLINE
  5
A9
330
70
100
AcDbEntity
  8
Livello 1
 62
   250
420
  2300182
370
     9
100
AcDbPolyline
 90
      129
 70
     0
 43
0.0
 10
199.9359872953936
 20
241.6119963995579
 10
199.9188048816609
 20
240.056105151032
 10
199.8662887073576
 20
238.4869933485814
 10
199.777922008161
 20
236.9055868616178
 10
199.6524990006511
 20
235.3131776009482
 10
199.4893091338842
 20
233.710906754452
 10
199.2875987932228
 20
232.0998078507749
 10
199.0467220232635
 20
230.4811943325707
 10
198.7656883590542
 20
228.8564011743397
 10
198.4441963547401
 20
227.2268064142762
 10
198.0814062682965
 20
225.593809622421
 10
197.6768013354007
 20
223.9588964962021
 10
197.2300801101977
 20
222.3234235419669
 10
196.7407042965179
 20
220.6890917756112
 10
196.2085016395872
 20
219.0573868945629
 10
195.6329769069294
 20
217.4300960421052
 10
195.0142162259318
 20
215.8085972564319
 10
194.3519181507393
 20
214.1946992126731
 10
193.6462118724326
 20
212.5901029267244
 10
192.8970973910118
 20
210.996487882635
 10
192.1047254294044
 20
209.4154905007603
 10
191.269418965312
 20
207.8488979243833
 10
190.3914794445896
 20
206.2984111693998
 10
189.4712944404794
 20
204.7657958472461
 10
188.5094237809976
 20
203.2526022508904
 10
187.5065134215478
 20
201.760703651003
 10
186.4631016582996
 20
200.2914780857778
 10
185.3800928288177
 20
198.8467988258851
 10
184.2584128025139
 20
197.4280869732124
 10
183.0989013214128
 20
196.0369789481153
 10
181.9025919141598
 20
194.6749819798686
 10
180.6705827049409
 20
193.3434956385131
 10
179.4041871364098
 20
192.043790303009
 10
178.1045894601396
 20
190.777394734478
 10
176.7731031187841
 20
189.545493184493
 10
175.4109877253801
 20
188.3491837772399
 10
174.0199119980532
 20
187.1897153598323
 10
172.6012862727676
 20
186.0680138016818
 10
171.1565962469515
 20
184.9849834403531
 10
169.6874137454199
 20
183.9416147407984
 10
168.195418252222
 20
182.9385967221147
 10
166.6823107832535
 20
181.9767906581733
 10
165.1495985677892
 20
181.0566056540631
 10
163.5992087061162
 20
180.1786015378004
 10
162.0325945978924
 20
179.343295073708
 10
160.4515864500943
 20
178.5509984735643
 10
158.8579821719283
 20
177.8019055239903
 10
157.2534074178264
 20
177.0961023523731
 10
155.6394878422207
 20
176.4339011704911
 10
154.0180105883944
 20
175.8150974257999
 10
152.3906120767027
 20
175.2396049909123
 10
150.7589179615778
 20
174.707305440671
 10
149.1245969611455
 20
174.218004988455
 10
147.4891886024506
 20
173.7712084017883
 10
145.8542108806914
 20
173.3667111281264
 10
144.2212033229128
 20
173.0039102757594
 10
142.5916085628492
 20
172.6822890803646
 10
140.966890766082
 20
172.4014061390828
 10
139.3483203115713
 20
172.1603894121194
 10
137.7372106419709
 20
171.9587006033048
 10
136.1347890725472
 20
171.7956183957718
 10
134.542390577801
 20
171.6702061541853
 10
132.9611025159947
 20
171.5816887320612
 10
131.3920122453909
 20
171.5293017488386
 10
129.8360133376311
 20
171.5119793781018
 10
128.2800897913349
 20
171.5293017488386
 10
126.7109995207311
 20
171.5816887320612
 10
125.1296037996909
 20
171.6702061541853
 10
123.5372053049447
 20
171.7956183957718
 10
121.934891394755
 20
171.9587006033048
 10
120.3237817251545
 20
172.1603894121194
 10
118.7052112706438
 20
172.4014061390828
 10
117.0803858146426
 20
172.6822890803646
 10
115.4507910545791
 20
173.0039102757594
 10
113.8177834968005
 20
173.3667111281264
 10
112.1829134342752
 20
173.7712084017883
 10
110.5473974163464
 20
174.218004988455
 10
108.9130871818374
 20
174.707305440671
 10
107.2814145985594
 20
175.2396049909123
 10
105.6540914483315
 20
175.8150974257999
 10
104.0326141945051
 20
176.4339011704911
 10
102.4186946188994
 20
177.0961023523731
 10
100.8141198647975
 20
177.8019055239903
 10
99.22040792739759
 20
178.5509984735643
 10
97.63950743883341
 20
179.343295073708
 10
96.07289333060961
 20
180.1786015378004
 10
94.52239580970275
 20
181.0566056540631
 10
92.98979125347239
 20
181.9767906581733
 10
91.47658689119337
 20
182.9385967221147
 10
89.98468829130592
 20
183.9416147407984
 10
88.51550578977434
 20
184.9849834403531
 10
87.07081038099651
 20
186.0680138016818
 10
85.65211467720894
 20
187.1897153598323
 10
84.26100665211183
 20
188.3491837772399
 10
82.89900430090339
 20
189.545493184493
 10
81.56751257658621
 20
190.777394734478
 10
80.26781262404384
 20
192.043790303009
 10
79.00140628958938
 20
193.3434956385131
 10
77.76951012256609
 20
194.6749819798686
 10
76.57320609827478
 20
196.0369789481153
 10
75.4136946171736
 20
197.4280869732124
 10
74.29189616571251
 20
198.8467988258851
 10
73.20901114434966
 20
200.2914780857778
 10
72.1655993811014
 20
201.760703651003
 10
71.16261366018786
 20
203.2526022508904
 10
70.20080221328476
 20
204.7657958472461
 10
69.28061720917454
 20
206.2984111693998
 10
68.40258617810334
 20
207.8488979243833
 10
67.56731739474282
 20
209.4154905007603
 10
66.77501002867572
 20
210.996487882635
 10
66.02589016429323
 20
212.5901029267244
 10
65.32008699267605
 20
214.1946992126731
 10
64.65788581079408
 20
215.8085972564319
 10
64.03911436387303
 20
217.4300960421052
 10
63.46359501417697
 20
219.0573868945629
 10
62.9312846980123
 20
220.6890917756112
 10
62.4419842457963
 20
222.3234235419669
 10
61.99519304209126
 20
223.9588964962021
 10
61.59069576842937
 20
225.593809622421
 10
61.22790029902408
 20
227.2268064142762
 10
60.9063060184377
 20
228.8564011743397
 10
60.62539077938575
 20
230.4811943325707
 10
60.38440635019252
 20
232.0998078507749
 10
60.18269062656945
 20
233.710906754452
 10
60.01959765311305
 20
235.3131776009482
 10
59.89418541152656
 20
236.9055868616178
 10
59.80571105309599
 20
238.4869933485814
 10
59.75328638914154
 20
240.056105151032
 10
59.73600169913664
 20
241.6119963995579
  0
LWPOLYLINE
  5
AA
330
70
100
AcDbEntity
  8
Livello 1
 62
   250
420
  2300182
370
     9
100
AcDbPolyline
 90
      129
 70
     0
 43
0.0
 10
59.73600169913664
 20
241.6119963995579
 10
59.75328638914154
 20
243.1679953073178
 10
59.80571105309599
 20
244.7371071097684
 10
59.89418541152656
 20
246.3184059374981
 10
60.01959765311305
 20
247.9108151981677
 10
60.18269062656945
 20
249.5131937038977
 10
60.38440635019252
 20
251.1242926075748
 10
60.62539077938575
 20
252.7429061257791
 10
60.9063060184377
 20
254.3675916247762
 10
61.22790029902408
 20
255.9972079166865
 10
61.59069576842937
 20
257.6301831766949
 10
61.99519304209126
 20
259.2652039621476
 10
62.4419842457963
 20
260.9006123208426
 10
62.9312846980123
 20
262.5350086827386
 10
63.46359501417697
 20
264.166605904553
 10
64.03911436387303
 20
265.7940044162447
 10
64.65788581079408
 20
267.4155032019178
 10
65.32008699267605
 20
269.0294012456767
 10
66.02589016429323
 20
270.6339975316254
 10
66.77501002867572
 20
272.2276125757148
 10
67.56731739474282
 20
273.8086099575895
 10
68.40258617810334
 20
275.3752025339665
 10
69.28061720917454
 20
276.9256246934097
 10
70.20080221328476
 20
278.4583046111038
 10
71.16261366018786
 20
279.9713905482255
 10
72.1655993811014
 20
281.4633968073469
 10
73.20901114434966
 20
282.9326008407252
 10
74.29189616571251
 20
284.3773016324647
 10
75.4136946171736
 20
285.7959058259035
 10
76.57320609827478
 20
287.1870138510006
 10
77.76951012256609
 20
288.5491184784812
 10
79.00140628958938
 20
289.8806048198367
 10
80.26781262404384
 20
291.1802024961069
 10
81.56751257658621
 20
292.446598064638
 10
82.89900430090339
 20
293.6786072738568
 10
84.26100665211183
 20
294.8749166811098
 10
85.65211467720894
 20
296.0343850985175
 10
87.07081038099651
 20
297.1561081885148
 10
88.51550578977434
 20
298.2391170179966
 10
89.98468829130592
 20
299.2824857175514
 10
91.47658689119337
 20
300.2853960770011
 10
92.98979125347239
 20
301.2473098001765
 10
94.52239580970275
 20
302.1674948042867
 10
96.07289333060961
 20
303.0453912613155
 10
97.63950743883341
 20
303.8806977254079
 10
99.22040792739759
 20
304.6731127507089
 10
100.8141198647975
 20
305.4221841684362
 10
102.4186946188994
 20
306.1278904467428
 10
104.0326141945051
 20
306.7901885219353
 10
105.6540914483315
 20
307.4090137984733
 10
107.2814145985594
 20
307.9844954674375
 10
108.9130871818374
 20
308.5168057836022
 10
110.5473974163464
 20
309.0060954698948
 10
112.1829134342752
 20
309.452795163251
 10
113.8177834968005
 20
309.8573785643
 10
115.4507910545791
 20
310.2201901825904
 10
117.0803858146426
 20
310.5417037187513
 10
118.7052112706438
 20
310.822694319267
 10
120.3237817251545
 20
311.063700280307
 10
121.934891394755
 20
311.2652814298877
 10
123.5372053049447
 20
311.4284928285014
 10
125.1296037996909
 20
311.5538943041645
 10
126.7109995207311
 20
311.6423040670547
 10
128.2800897913349
 20
311.6947987095112
 10
129.8360133376311
 20
311.7120026550907
 10
131.3920122453909
 20
311.6947987095112
 10
132.9611025159947
 20
311.6423040670547
 10
134.542390577801
 20
311.5538943041645
 10
136.1347890725472
 20
311.4284928285014
 10
137.7372106419709
 20
311.2652814298877
 10
139.3483203115713
 20
311.063700280307
 10
140.966890766082
 20
310.822694319267
 10
142.5916085628492
 20
310.5417037187513
 10
144.2212033229128
 20
310.2201901825904
 10
145.8542108806914
 20
309.8573785643
 10
147.4891886024506
 20
309.452795163251
 10
149.1245969611455
 20
309.0060954698948
 10
150.7589179615778
 20
308.5168057836022
 10
152.3906120767027
 20
307.9844954674375
 10
154.0180105883944
 20
307.4090137984733
 10
155.6394878422207
 20
306.7901885219353
 10
157.2534074178264
 20
306.1278904467428
 10
158.8579821719283
 20
305.4221841684362
 10
160.4515864500943
 20
304.6731127507089
 10
162.0325945978924
 20
303.8806977254079
 10
163.5992087061162
 20
303.0453912613155
 10
165.1495985677892
 20
302.1674948042867
 10
166.6823107832535
 20
301.2473098001765
 10
168.195418252222
 20
300.2853960770011
 10
169.6874137454199
 20
299.2824857175514
 10
171.1565962469515
 20
298.2391170179966
 10
172.6012862727676
 20
297.1561081885148
 10
174.0199119980532
 20
296.0343850985175
 10
175.4109877253801
 20
294.8749166811098
 10
176.7731031187841
 20
293.6786072738568
 10
178.1045894601396
 20
292.446598064638
 10
179.4041871364098
 20
291.1802024961069
 10
180.6705827049409
 20
289.8806048198367
 10
181.9025919141598
 20
288.5491184784812
 10
183.0989013214128
 20
287.1870138510006
 10
184.2584128025139
 20
285.7959058259035
 10
185.3800928288177
 20
284.3773016324647
 10
186.4631016582996
 20
282.9326008407252
 10
187.5065134215478
 20
281.4633968073469
 10
188.5094237809976
 20
279.9713905482255
 10
189.4712944404794
 20
278.4583046111038
 10
190.3914794445896
 20
276.9256246934097
 10
191.269418965312
 20
275.3752025339665
 10
192.1047254294044
 20
273.8086099575895
 10
192.8970973910118
 20
272.2276125757148
 10
193.6462118724326
 20
270.6339975316254
 10
194.3519181507393
 20
269.0294012456767
 10
195.0142162259318
 20
267.4155032019178
 10
195.6329769069294
 20
265.7940044162447
 10
196.2085016395872
 20
264.166605904553
 10
196.7407042965179
 20
262.5350086827386
 10
197.2300801101977
 20
260.9006123208426
 10
197.6768013354007
 20
259.2652039621476
 10
198.0814062682965
 20
257.6301831766949
 10
198.4441963547401
 20
255.9972079166865
 10
198.7656883590542
 20
254.3675916247762
 10
199.0467220232635
 20
252.7429061257791
 10
199.2875987932228
 20
251.1242926075748
 10
199.4893091338842
 20
249.5131937038977
 10
199.6524990006511
 20
247.9108151981677
 10
199.777922008161
 20
246.3184059374981
 10
199.8662887073576
 20
244.7371071097684
 10
199.9188048816609
 20
243.1679953073178
 10
199.9359872953936
 20
241.6119963995579
  0
LINE
  5
AB
330
70
100
AcDbEntity
  8
Livello 1
 62
   144
420
  1404587
370
     9
100
AcDbLine
 10
131.7631028587693
 20
171.1186033033032
 30
0.0
 11
216.5725041165926
 21
171.1186033033032
 31
0.0
  0
LINE
  5
AC
330
70
100
AcDbEntity
  8
Livello 1
 62
   144
420
  1404587
370
     9
100
AcDbLine
 10
132.8586862867723
 20
312.0714983689765
 30
0.0
 11
216.5725041165926
 21
312.0714983689765
 31
0.0
  0
LINE
  5
AD
330
70
100
AcDbEntity
  8
Livello 1
 62
   144
420
  1404587
370
     9
100
AcDbLine
 10
214.0725059821807
 20
225.1223267734178
 30
0.0
 11
214.0725059821807
 21
171.1186033033032
 31
0.0
  0
LWPOLYLINE
  5
AE
330
70
100
AcDbEntity
  8
Livello 1
100
AcDbPolyline
 90
        3
 70
     1
 43
0.0
 10
213.0722009761916
 20
174.8516980051966
 10
214.0725059821807
 20
171.1186033033032
 10
215.0728109881697
 20
174.8516980051966
  0
HATCH
  5
AF
330
70
100
AcDbEntity
  8
Livello 1
 62
   144
420
  1404587
440
 33554687
100
AcDbHatch
 10
0.0
 20
0.0
 30
0.0
210
0.0
220
0.0
230
1.0
  2
SOLID
 70
     1
 71
     1
 91
        1
 92
        1
 93
        3
 72
     1
 10
213.0722009761916
 20
174.8516980051966
 11
214.0725059821807
 21
171.1186033033032
 72
     1
 10
214.0725059821807
 20
171.1186033033032
 11
215.0728109881697
 21
174.8516980051966
 72
     1
 10
215.0728109881697
 20
174.8516980051966
 11
213.0722009761916
 21
174.8516980051966
 97
        1
330
AE
 75
     0
 76
     1
 98
        1
 10
0.0
 20
0.0
450
        0
451
        0
460
0.0
461
0.0
452
        0
462
0.0
453
        0
470

  0
LINE
  5
B0
330
70
100
AcDbEntity
  8
Livello 1
 62
   144
420
  1404587
370
     9
100
AcDbLine
 10
214.0725059821807
 20
312.0714983689765
 30
0.0
 11
214.0725059821807
 21
259.5918205459962
 31
0.0
  0
LWPOLYLINE
  5
B1
330
70
100
AcDbEntity
  8
Livello 1
100
AcDbPolyline
 90
        3
 70
     1
 43
0.0
 10
213.0722009761916
 20
308.3383929011597
 10
214.0725059821807
 20
312.0714983689765
 10
215.0728109881697
 20
308.3383929011597
  0
HATCH
  5
B2
330
70
100
AcDbEntity
  8
Livello 1
 62
   144
420
  1404587
440
 33554687
100
AcDbHatch
 10
0.0
 20
0.0
 30
0.0
210
0.0
220
0.0
230
1.0
  2
SOLID
 70
     1
 71
     1
 91
        1
 92
        1
 93
        3
 72
     1
 10
213.0722009761916
 20
308.3383929011597
 11
214.0725059821807
 21
312.0714983689765
 72
     1
 10
214.0725059821807
 20
312.0714983689765
 11
215.0728109881697
 21
308.3383929011597
 72
     1
 10
215.0728109881697
 20
308.3383929011597
 11
213.0722009761916
 21
308.3383929011597
 97
        1
330
B1
 75
     0
 76
     1
 98
        1
 10
0.0
 20
0.0
450
        0
451
        0
460
0.0
461
0.0
452
        0
462
0.0
453
        0
470

  0
INSERT
  5
B4
330
70
100
AcDbEntity
  8
Livello 1
100
AcDbBlockReference
  2
Block_0
 10
0.0
 20
0.0
 30
0.0
  0
LINE
  5
CB
330
70
100
AcDbEntity
  8
Livello 1
 62
   144
420
  1404587
370
     9
100
AcDbLine
 10
200.5587098361993
 20
43.18038810074326
 30
0.0
 11
216.6782900798365
 21
43.18038810074326
 31
0.0
  0
LINE
  5
CC
330
70
100
AcDbEntity
  8
Livello 1
 62
   144
420
  1404587
370
     9
100
AcDbLine
 10
131.8059942975606
 20
143.4248049059569
 30
0.0
 11
216.6782900798365
 21
143.4248049059569
 31
0.0
  0
LINE
  5
CD
330
70
100
AcDbEntity
  8
Livello 1
 62
   144
420
  1404587
370
     9
100
AcDbLine
 10
214.1783134772714
 20
76.82988724377267
 30
0.0
 11
214.1783134772714
 21
43.18038810074326
 31
0.0
  0
LWPOLYLINE
  5
CE
330
70
100
AcDbEntity
  8
Livello 1
100
AcDbPolyline
 90
        3
 70
     1
 43
0.0
 10
213.1780084712823
 20
46.91348011115574
 10
214.1783134772714
 20
43.18038810074326
 10
215.1785969514137
 20
46.91348011115574
  0
HATCH
  5
CF
330
70
100
AcDbEntity
  8
Livello 1
 62
   144
420
  1404587
440
 33554687
100
AcDbHatch
 10
0.0
 20
0.0
 30
0.0
210
0.0
220
0.0
230
1.0
  2
SOLID
 70
     1
 71
     1
 91
        1
 92
        1
 93
        3
 72
     1
 10
213.1780084712823
 20
46.91348011115574
 11
214.1783134772714
 21
43.18038810074326
 72
     1
 10
214.1783134772714
 20
43.18038810074326
 11
215.1785969514137
 21
46.91348011115574
 72
     1
 10
215.1785969514137
 20
46.91348011115574
 11
213.1780084712823
 21
46.91348011115574
 97
        1
330
CE
 75
     0
 76
     1
 98
        1
 10
0.0
 20
0.0
450
        0
451
        0
460
0.0
461
0.0
452
        0
462
0.0
453
        0
470

  0
LINE
  5
D0
330
70
100
AcDbEntity
  8
Livello 1
 62
   144
420
  1404587
370
     9
100
AcDbLine
 10
214.1783134772714
 20
143.4248049059569
 30
0.0
 11
214.1783134772714
 21
111.2994079311595
 31
0.0
  0
LWPOLYLINE
  5
D1
330
70
100
AcDbEntity
  8
Livello 1
100
AcDbPolyline
 90
        3
 70
     1
 43
0.0
 10
213.1780084712823
 20
139.6917102040636
 10
214.1783134772714
 20
143.4248049059569
 10
215.1785969514137
 20
139.6917102040636
  0
HATCH
  5
D2
330
70
100
AcDbEntity
  8
Livello 1
 62
   144
420
  1404587
440
 33554687
100
AcDbHatch
 10
0.0
 20
0.0
 30
0.0
210
0.0
220
0.0
230
1.0
  2
SOLID
 70
     1
 71
     1
 91
        1
 92
        1
 93
        3
 72
     1
 10
213.1780084712823
 20
139.6917102040636
 11
214.1783134772714
 21
143.4248049059569
 72
     1
 10
214.1783134772714
 20
143.4248049059569
 11
215.1785969514137
 21
139.6917102040636
 72
     1
 10
215.1785969514137
 20
139.6917102040636
 11
213.1780084712823
 21
139.6917102040636
 97
        1
330
D1
 75
     0
 76
     1
 98
        1
 10
0.0
 20
0.0
450
        0
451
        0
460
0.0
461
0.0
452
        0
462
0.0
453
        0
470

  0
INSERT
  5
D4
330
70
100
AcDbEntity
  8
Livello 1
100
AcDbBlockReference
  2
Block_2
 10
0.0
 20
0.0
 30
0.0
  0
ENDSEC
  0
SECTION
  2
OBJECTS
  0
DICTIONARY
  5
C
330
0
100
AcDbDictionary
281
     1
  3
ACAD_COLOR
350
63
  3
ACAD_DETAILVIEWSTYLE
350
6A
  3
ACAD_GROUP
350
D
  3
ACAD_LAYOUT
350
62
  3
ACAD_MATERIAL
350
10
  3
ACAD_MLEADERSTYLE
350
66
  3
ACAD_MLINESTYLE
350
5F
  3
ACAD_PLOTSETTINGS
350
61
  3
ACAD_PLOTSTYLENAME
350
E
  3
ACAD_SCALELIST
350
42
  3
ACAD_SECTIONVIEWSTYLE
350
68
  3
ACAD_TABLESTYLE
350
64
  3
ACAD_VISUALSTYLE
350
29
  3
ACDB_RECOMPOSE_DATA
350
F3
  3
AcDbVariableDictionary
350
EB
  0
DICTIONARY
  5
63
102
{ACAD_REACTORS
330
C
102
}
330
C
100
AcDbDictionary
281
     1
  0
DICTIONARY
  5
6A
102
{ACAD_REACTORS
330
C
102
}
330
C
100
AcDbDictionary
281
     1
  3
Imperial24
350
6B
  0
DICTIONARY
  5
D
102
{ACAD_REACTORS
330
C
102
}
330
C
100
AcDbDictionary
281
     1
  0
DICTIONARY
  5
62
102
{ACAD_REACTORS
330
C
102
}
330
C
100
AcDbDictionary
281
     1
  3
Layout1
350
6F
  3
Layout2
350
77
  3
Model
350
73
  0
DICTIONARY
  5
10
102
{ACAD_REACTORS
330
C
102
}
330
C
100
AcDbDictionary
281
     1
  3
ByBlock
350
19
  3
ByLayer
350
11
  3
Global
350
21
  0
DICTIONARY
  5
66
102
{ACAD_REACTORS
330
C
102
}
330
C
100
AcDbDictionary
281
     1
  3
Standard
350
67
  0
DICTIONARY
  5
5F
102
{ACAD_REACTORS
330
C
102
}
330
C
100
AcDbDictionary
281
     1
  3
Standard
350
60
  0
DICTIONARY
  5
61
102
{ACAD_REACTORS
330
C
102
}
330
C
100
AcDbDictionary
281
     1
  0
ACDBDICTIONARYWDFLT
  5
E
102
{ACAD_REACTORS
330
C
102
}
330
C
100
AcDbDictionary
281
     1
  3
Normal
350
F
100
AcDbDictionaryWithDefault
340
F
  0
DICTIONARY
  5
42
102
{ACAD_REACTORS
330
C
102
}
330
C
100
AcDbDictionary
281
     1
  3
A0
350
43
  3
A1
350
44
  3
A2
350
45
  3
A3
350
46
  3
A4
350
47
  3
A5
350
48
  3
A6
350
49
  3
A7
350
4A
  3
A8
350
4B
  3
A9
350
4C
  3
B0
350
4D
  3
B1
350
4E
  3
B2
350
4F
  3
B3
350
50
  3
B4
350
51
  3
B5
350
52
  3
B6
350
53
  0
DICTIONARY
  5
68
102
{ACAD_REACTORS
330
C
102
}
330
C
100
AcDbDictionary
281
     1
  3
Imperial24
350
69
  0
DICTIONARY
  5
64
102
{ACAD_REACTORS
330
C
102
}
330
C
100
AcDbDictionary
281
     1
  3
Standard
350
65
  0
DICTIONARY
  5
29
102
{ACAD_REACTORS
330
C
102
}
330
C
100
AcDbDictionary
281
     1
  3
2dWireframe
350
2F
  3
Basic
350
2E
  3
Brighten
350
35
  3
ColorChange
350
39
  3
Conceptual
350
32
  3
Dim
350
34
  3
EdgeColorOff
350
41
  3
Facepattern
350
38
  3
Flat
350
2A
  3
FlatWithEdges
350
2B
  3
Gouraud
350
2C
  3
GouraudWithEdges
350
2D
  3
Hidden
350
31
  3
JitterOff
350
3F
  3
Linepattern
350
37
  3
OverhangOff
350
40
  3
Realistic
350
33
  3
Shaded
350
3E
  3
Shaded with edges
350
3D
  3
Shades of Gray
350
3A
  3
Sketchy
350
3B
  3
Thicken
350
36
  3
Wireframe
350
30
  3
X-Ray
350
3C
  0
XRECORD
  5
F3
102
{ACAD_REACTORS
330
C
102
}
330
C
100
AcDbXrecord
280
     1
 90
        1
330
65
  0
DICTIONARY
  5
EB
102
{ACAD_REACTORS
330
C
102
}
330
C
100
AcDbDictionary
281
     1
  3
CANNOSCALE
350
F0
  3
CMLEADERSTYLE
350
ED
  3
CTABLESTYLE
350
EC
  3
CVIEWDETAILSTYLE
350
EE
  3
CVIEWSECTIONSTYLE
350
EF
  0
ACDBDETAILVIEWSTYLE
  5
6B
102
{ACAD_REACTORS
330
6A
102
}
330
6A
100
AcDbModelDocViewStyle
 70
     0
  3
Imperial24
290
     1
300
Imperial24
 90
        0
100
AcDbDetailViewStyle
 70
     0
 71
     0
 90
        3
 71
     1
340
55
 62
   256
 40
0.24
340
0
 62
   256
 40
0.24
300

 40
0.36
280
     3
 71
     2
340
5D
 90
       25
 62
   256
 71
     3
340
55
 62
   256
 40
0.24
 90
        1
 40
0.75
 90
        1
300
%<\AcVar ViewType \f "%tc1">% %<\AcVar ViewDetailId>%\PSCALE %<\AcVar ViewScale \f "%sn">%
 71
     4
340
5D
 90
       25
 62
   256
340
5D
 90
       25
 62
   256
280
     0
  0
LAYOUT
  5
6F
102
{ACAD_REACTORS
330
62
102
}
330
62
100
AcDbPlotSettings
  1

  2

  4

  6

 40
0.0
 41
0.0
 42
0.0
 43
0.0
 44
0.0
 45
0.0
 46
0.0
 47
0.0
 48
0.0
 49
0.0
140
0.0
141
0.0
142
1.0
143
1.0
 70
   688
 72
     0
 73
     0
 74
     5
  7

 75
    16
147
1.0
 76
     0
 77
     2
 78
   300
148
0.0
149
0.0
100
AcDbLayout
  1
Layout1
 70
     1
 71
     1
 10
0.0
 20
0.0
 11
12.0
 21
9.0
 12
0.0
 22
0.0
 32
0.0
 14
0.0
 24
0.0
 34
0.0
 15
0.0
 25
0.0
 35
0.0
146
0.0
 13
0.0
 23
0.0
 33
0.0
 16
1.0
 26
0.0
 36
0.0
 17
0.0
 27
1.0
 37
0.0
 76
     0
330
6C
  0
LAYOUT
  5
77
102
{ACAD_REACTORS
330
62
102
}
330
62
100
AcDbPlotSettings
  1

  2

  4

  6

 40
0.0
 41
0.0
 42
0.0
 43
0.0
 44
0.0
 45
0.0
 46
0.0
 47
0.0
 48
0.0
 49
0.0
140
0.0
141
0.0
142
1.0
143
1.0
 70
   688
 72
     0
 73
     0
 74
     5
  7

 75
    16
147
1.0
 76
     0
 77
     2
 78
   300
148
0.0
149
0.0
100
AcDbLayout
  1
Layout2
 70
     1
 71
     2
 10
0.0
 20
0.0
 11
12.0
 21
9.0
 12
0.0
 22
0.0
 32
0.0
 14
0.0
 24
0.0
 34
0.0
 15
0.0
 25
0.0
 35
0.0
146
0.0
 13
0.0
 23
0.0
 33
0.0
 16
1.0
 26
0.0
 36
0.0
 17
0.0
 27
1.0
 37
0.0
 76
     0
330
74
  0
LAYOUT
  5
73
102
{ACAD_REACTORS
330
62
102
}
330
62
100
AcDbPlotSettings
  1

  2

  4

  6

 40
0.0
 41
0.0
 42
0.0
 43
0.0
 44
0.0
 45
0.0
 46
0.0
 47
0.0
 48
0.0
 49
0.0
140
0.0
141
0.0
142
1.0
143
1.0
 70
  1712
 72
     0
 73
     0
 74
     0
  7

 75
     0
147
1.0
 76
     0
 77
     2
 78
   300
148
0.0
149
0.0
100
AcDbLayout
  1
Model
 70
     1
 71
     0
 10
0.0
 20
0.0
 11
12.0
 21
9.0
 12
0.0
 22
0.0
 32
0.0
 14
0.0
 24
0.0
 34
0.0
 15
0.0
 25
0.0
 35
0.0
146
0.0
 13
0.0
 23
0.0
 33
0.0
 16
1.0
 26
0.0
 36
0.0
 17
0.0
 27
1.0
 37
0.0
 76
     0
330
70
  0
MATERIAL
  5
19
102
{ACAD_XDICTIONARY
360
1A
102
}
102
{ACAD_REACTORS
330
10
102
}
330
10
100
AcDbMaterial
  1
ByBlock
 72
     0
 43
0.0208333333333333
 43
0.0
 43
0.0
 43
0.0
 43
0.0
 43
0.0208333333333333
 43
0.0
 43
0.0
 43
0.0
 43
0.0
 43
1.0
 43
0.0
 43
0.0
 43
0.0
 43
0.0
 43
1.0
 77
     0
 47
0.0208333333333333
 47
0.0
 47
0.0
 47
0.0
 47
0.0
 47
0.0208333333333333
 47
0.0
 47
0.0
 47
0.0
 47
0.0
 47
1.0
 47
0.0
 47
0.0
 47
0.0
 47
0.0
 47
1.0
171
     0
 49
0.0208333333333333
 49
0.0
 49
0.0
 49
0.0
 49
0.0
 49
0.0208333333333333
 49
0.0
 49
0.0
 49
0.0
 49
0.0
 49
1.0
 49
0.0
 49
0.0
 49
0.0
 49
0.0
 49
1.0
175
     0
142
0.0208333333333333
142
0.0
142
0.0
142
0.0
142
0.0
142
0.0208333333333333
142
0.0
142
0.0
142
0.0
142
0.0
142
1.0
142
0.0
142
0.0
142
0.0
142
0.0
142
1.0
179
     0
144
0.0208333333333333
144
0.0
144
0.0
144
0.0
144
0.0
144
0.0208333333333333
144
0.0
144
0.0
144
0.0
144
0.0
144
1.0
144
0.0
144
0.0
144
0.0
144
0.0
144
1.0
147
0.0208333333333333
147
0.0
147
0.0
147
0.0
147
0.0
147
0.0208333333333333
147
0.0
147
0.0
147
0.0
147
0.0
147
1.0
147
0.0
147
0.0
147
0.0
147
0.0
147
1.0
  0
MATERIAL
  5
11
102
{ACAD_XDICTIONARY
360
12
102
}
102
{ACAD_REACTORS
330
10
102
}
330
10
100
AcDbMaterial
  1
ByLayer
 72
     0
 43
0.0208333333333333
 43
0.0
 43
0.0
 43
0.0
 43
0.0
 43
0.0208333333333333
 43
0.0
 43
0.0
 43
0.0
 43
0.0
 43
1.0
 43
0.0
 43
0.0
 43
0.0
 43
0.0
 43
1.0
 77
     0
 47
0.0208333333333333
 47
0.0
 47
0.0
 47
0.0
 47
0.0
 47
0.0208333333333333
 47
0.0
 47
0.0
 47
0.0
 47
0.0
 47
1.0
 47
0.0
 47
0.0
 47
0.0
 47
0.0
 47
1.0
171
     0
 49
0.0208333333333333
 49
0.0
 49
0.0
 49
0.0
 49
0.0
 49
0.0208333333333333
 49
0.0
 49
0.0
 49
0.0
 49
0.0
 49
1.0
 49
0.0
 49
0.0
 49
0.0
 49
0.0
 49
1.0
175
     0
142
0.0208333333333333
142
0.0
142
0.0
142
0.0
142
0.0
142
0.0208333333333333
142
0.0
142
0.0
142
0.0
142
0.0
142
1.0
142
0.0
142
0.0
142
0.0
142
0.0
142
1.0
179
     0
144
0.0208333333333333
144
0.0
144
0.0
144
0.0
144
0.0
144
0.0208333333333333
144
0.0
144
0.0
144
0.0
144
0.0
144
1.0
144
0.0
144
0.0
144
0.0
144
0.0
144
1.0
147
0.0208333333333333
147
0.0
147
0.0
147
0.0
147
0.0
147
0.0208333333333333
147
0.0
147
0.0
147
0.0
147
0.0
147
1.0
147
0.0
147
0.0
147
0.0
147
0.0
147
1.0
  0
MATERIAL
  5
21
102
{ACAD_XDICTIONARY
360
22
102
}
102
{ACAD_REACTORS
330
10
102
}
330
10
100
AcDbMaterial
  1
Global
 72
     0
 43
0.0208333333333333
 43
0.0
 43
0.0
 43
0.0
 43
0.0
 43
0.0208333333333333
 43
0.0
 43
0.0
 43
0.0
 43
0.0
 43
1.0
 43
0.0
 43
0.0
 43
0.0
 43
0.0
 43
1.0
 77
     0
 47
0.0208333333333333
 47
0.0
 47
0.0
 47
0.0
 47
0.0
 47
0.0208333333333333
 47
0.0
 47
0.0
 47
0.0
 47
0.0
 47
1.0
 47
0.0
 47
0.0
 47
0.0
 47
0.0
 47
1.0
171
     0
 49
0.0208333333333333
 49
0.0
 49
0.0
 49
0.0
 49
0.0
 49
0.0208333333333333
 49
0.0
 49
0.0
 49
0.0
 49
0.0
 49
1.0
 49
0.0
 49
0.0
 49
0.0
 49
0.0
 49
1.0
175
     0
142
0.0208333333333333
142
0.0
142
0.0
142
0.0
142
0.0
142
0.0208333333333333
142
0.0
142
0.0
142
0.0
142
0.0
142
1.0
142
0.0
142
0.0
142
0.0
142
0.0
142
1.0
179
     0
144
0.0208333333333333
144
0.0
144
0.0
144
0.0
144
0.0
144
0.0208333333333333
144
0.0
144
0.0
144
0.0
144
0.0
144
1.0
144
0.0
144
0.0
144
0.0
144
0.0
144
1.0
147
0.0208333333333333
147
0.0
147
0.0
147
0.0
147
0.0
147
0.0208333333333333
147
0.0
147
0.0
147
0.0
147
0.0
147
1.0
147
0.0
147
0.0
147
0.0
147
0.0
147
1.0
  0
MLEADERSTYLE
  5
67
102
{ACAD_REACTORS
330
66
102
}
330
66
100
AcDbMLeaderStyle
179
     2
170
     2
171
     1
172
     0
 90
        2
 40
0.0
 41
0.0
173
     1
 91
-1056964608
340
5B
 92
       -2
290
     1
 42
0.09
291
     1
 43
0.36
  3
Standard
 44
0.18
300

342
55
174
     1
178
     6
175
     1
176
     0
 93
-1056964608
 45
0.18
292
     0
297
     0
 46
0.18
 94
-1056964608
 47
1.0
 49
1.0
140
1.0
293
     1
141
0.0
294
     1
177
     0
142
1.0
295
     1
296
     0
143
0.125
271
     0
272
     9
273
     9
298
     1
  0
MLINESTYLE
  5
60
102
{ACAD_REACTORS
330
5F
102
}
330
5F
100
AcDbMlineStyle
  2
STANDARD
 70
     0
  3

 62
   256
 51
90.0
 52
90.0
 71
     2
 49
0.5
 62
   256
  6
BYLAYER
 49
-0.5
 62
   256
  6
BYLAYER
  0
ACDBPLACEHOLDER
  5
F
102
{ACAD_REACTORS
330
E
102
}
330
E
  0
SCALE
  5
43
102
{ACAD_REACTORS
330
42
102
}
330
42
100
AcDbScale
 70
     0
300
1:1
140
1.0
141
1.0
290
     1
  0
SCALE
  5
44
102
{ACAD_REACTORS
330
42
102
}
330
42
100
AcDbScale
 70
     0
300
1/128" = 1'-0"
140
0.0078125
141
12.0
290
     0
  0
SCALE
  5
45
102
{ACAD_REACTORS
330
42
102
}
330
42
100
AcDbScale
 70
     0
300
1/64" = 1'-0"
140
0.015625
141
12.0
290
     0
  0
SCALE
  5
46
102
{ACAD_REACTORS
330
42
102
}
330
42
100
AcDbScale
 70
     0
300
1/32" = 1'-0"
140
0.03125
141
12.0
290
     0
  0
SCALE
  5
47
102
{ACAD_REACTORS
330
42
102
}
330
42
100
AcDbScale
 70
     0
300
1/16" = 1'-0"
140
0.0625
141
12.0
290
     0
  0
SCALE
  5
48
102
{ACAD_REACTORS
330
42
102
}
330
42
100
AcDbScale
 70
     0
300
3/32" = 1'-0"
140
0.09375
141
12.0
290
     0
  0
SCALE
  5
49
102
{ACAD_REACTORS
330
42
102
}
330
42
100
AcDbScale
 70
     0
300
1/8" = 1'-0"
140
0.125
141
12.0
290
     0
  0
SCALE
  5
4A
102
{ACAD_REACTORS
330
42
102
}
330
42
100
AcDbScale
 70
     0
300
3/16" = 1'-0"
140
0.1875
141
12.0
290
     0
  0
SCALE
  5
4B
102
{ACAD_REACTORS
330
42
102
}
330
42
100
AcDbScale
 70
     0
300
1/4" = 1'-0"
140
0.25
141
12.0
290
     0
  0
SCALE
  5
4C
102
{ACAD_REACTORS
330
42
102
}
330
42
100
AcDbScale
 70
     0
300
3/8" = 1'-0"
140
0.375
141
12.0
290
     0
  0
SCALE
  5
4D
102
{ACAD_REACTORS
330
42
102
}
330
42
100
AcDbScale
 70
     0
300
1/2" = 1'-0"
140
0.5
141
12.0
290
     0
  0
SCALE
  5
4E
102
{ACAD_REACTORS
330
42
102
}
330
42
100
AcDbScale
 70
     0
300
3/4" = 1'-0"
140
0.75
141
12.0
290
     0
  0
SCALE
  5
4F
102
{ACAD_REACTORS
330
42
102
}
330
42
100
AcDbScale
 70
     0
300
1" = 1'-0"
140
1.0
141
12.0
290
     0
  0
SCALE
  5
50
102
{ACAD_REACTORS
330
42
102
}
330
42
100
AcDbScale
 70
     0
300
1-1/2" = 1'-0"
140
1.5
141
12.0
290
     0
  0
SCALE
  5
51
102
{ACAD_REACTORS
330
42
102
}
330
42
100
AcDbScale
 70
     0
300
3" = 1'-0"
140
3.0
141
12.0
290
     0
  0
SCALE
  5
52
102
{ACAD_REACTORS
330
42
102
}
330
42
100
AcDbScale
 70
     0
300
6" = 1'-0"
140
6.0
141
12.0
290
     0
  0
SCALE
  5
53
102
{ACAD_REACTORS
330
42
102
}
330
42
100
AcDbScale
 70
     0
300
1'-0" = 1'-0"
140
12.0
141
12.0
290
     0
  0
ACDBSECTIONVIEWSTYLE
  5
69
102
{ACAD_REACTORS
330
68
102
}
330
68
100
AcDbModelDocViewStyle
 70
     0
  3
Imperial24
290
     1
300
Imperial24
 90
        0
100
AcDbSectionViewStyle
 70
     0
 71
     0
 90
       78
 71
     1
340
55
 62
   256
 40
0.24
340
0
340
0
 62
   256
 40
0.24
300
I, O, Q, S, X, Z
 40
0.48
 90
        3
 40
0.18
 90
        1
 71
     2
340
5D
 90
       25
 62
   256
340
5D
 90
       50
 62
   256
 40
0.24
 40
0.0
 40
0.24
 71
     3
340
55
 62
   256
 40
0.24
 90
        1
 40
0.75
 90
        1
300
%<\AcVar ViewType \f "%tc1">% %<\AcVar ViewSectionStartId>%-%<\AcVar ViewSectionEndId>%\PSCALE %<\AcVar ViewScale \f "%sn">%
 71
     4
 62
   256
 62
   257
300
ANSI31
 40
1.0
 90
        0
290
     0
290
     0
 90
        6
 40
0.0
 40
1.570796326794896
 40
0.2617993877991494
 40
1.308996938995747
 40
-0.2617993877991494
 40
1.832595714594046
  0
TABLESTYLE
  5
65
102
{ACAD_XDICTIONARY
360
F1
102
}
102
{ACAD_REACTORS
330
64
102
}
330
64
100
AcDbTableStyle
280
     0
  3
Standard
 70
     0
 71
     0
 40
0.06
 41
0.06
280
     0
281
     0
  7
Standard
140
0.18
170
     2
 62
     0
 63
     7
283
     0
 90
      512
 91
        0
  1

274
    -2
284
     1
 64
     0
275
    -2
285
     1
 65
     0
276
    -2
286
     1
 66
     0
277
    -2
287
     1
 67
     0
278
    -2
288
     1
 68
     0
279
    -2
289
     1
 69
     0
  7
Standard
140
0.25
170
     5
 62
     0
 63
     7
283
     0
 90
      512
 91
        0
  1

274
    -2
284
     1
 64
     0
275
    -2
285
     1
 65
     0
276
    -2
286
     1
 66
     0
277
    -2
287
     1
 67
     0
278
    -2
288
     1
 68
     0
279
    -2
289
     1
 69
     0
  7
Standard
140
0.18
170
     5
 62
     0
 63
     7
283
     0
 90
      512
 91
        0
  1

274
    -2
284
     1
 64
     0
275
    -2
285
     1
 65
     0
276
    -2
286
     1
 66
     0
277
    -2
287
     1
 67
     0
278
    -2
288
     1
 68
     0
279
    -2
289
     1
 69
     0
  0
VISUALSTYLE
  5
2F
102
{ACAD_REACTORS
330
29
102
}
330
29
100
AcDbVisualStyle
  2
2dWireframe
 70
     4
177
     3
291
     0
 70
    58
 90
        0
176
     1
 90
        2
176
     1
 90
        0
176
     1
 90
        0
176
     1
 40
0.6
176
     1
 40
30.0
176
     1
 62
     7
420
 16777215
176
     1
 90
        1
176
     1
 90
        4
176
     1
 62
     7
176
     1
 62
   257
176
     1
 90
        1
176
     1
 90
        1
176
     1
 40
1.0
176
     1
 90
        0
176
     1
 62
   257
176
     1
 40
1.0
176
     1
 90
        1
176
     1
 90
        6
176
     1
 90
        2
176
     1
 62
     7
176
     1
 90
        5
176
     1
 90
        0
176
     1
 90
        0
176
     1
290
     0
176
     1
 90
        1
176
     1
 40
0.0
176
     1
 90
        0
176
     1
290
     1
176
     1
290
     1
176
     1
290
     0
176
     1
290
     0
176
     1
290
     0
176
     1
290
     0
176
     1
290
     0
176
     1
290
     0
176
     1
290
     0
176
     1
 90
       50
176
     1
 40
0.0
176
     1
 40
1.0
176
     1
 90
        0
176
     1
 62
    18
420
        0
176
     1
 90
       50
176
     1
 90
        3
176
     1
 62
     5
420
      255
176
     1
290
     0
176
     1
 90
       50
176
     1
 90
       50
176
     1
 90
       50
176
     1
290
     0
176
     1
 90
       50
176
     1
 62
   256
176
     0
 40
1.0
176
     0
 90
        2
176
     1
  1
strokes_ogs.tif
176
     1
290
     0
176
     1
 40
1.0
176
     1
 40
1.0
176
     1
  0
VISUALSTYLE
  5
2E
102
{ACAD_REACTORS
330
29
102
}
330
29
100
AcDbVisualStyle
  2
Basic
 70
     7
177
     3
291
     1
 70
    58
 90
        1
176
     1
 90
        0
176
     1
 90
        1
176
     1
 90
        0
176
     1
 40
0.6
176
     1
 40
30.0
176
     1
 62
     7
420
 16777215
176
     1
 90
        0
176
     1
 90
        4
176
     1
 62
     7
176
     1
 62
   257
176
     1
 90
        1
176
     1
 90
        1
176
     1
 40
1.0
176
     1
 90
        8
176
     1
 62
     7
176
     1
 40
1.0
176
     1
 90
        1
176
     1
 90
        6
176
     1
 90
        2
176
     1
 62
     7
176
     1
 90
        5
176
     1
 90
        0
176
     1
 90
        0
176
     1
290
     0
176
     1
 90
        1
176
     1
 40
0.0
176
     1
 90
        0
176
     1
290
     0
176
     1
290
     1
176
     1
290
     1
176
     1
290
     0
176
     1
290
     0
176
     1
290
     0
176
     1
290
     0
176
     1
290
     0
176
     1
290
     0
176
     1
 90
       50
176
     1
 40
0.0
176
     1
 40
1.0
176
     1
 90
        0
176
     1
 62
    18
420
        0
176
     1
 90
       50
176
     1
 90
        3
176
     1
 62
     5
420
      255
176
     1
290
     0
176
     1
 90
       50
176
     1
 90
       50
176
     1
 90
       50
176
     1
290
     0
176
     1
 90
       50
176
     1
 62
   256
176
     0
 40
1.0
176
     0
 90
        2
176
     1
  1
strokes_ogs.tif
176
     1
290
     0
176
     1
 40
1.0
176
     1
 40
1.0
176
     1
  0
VISUALSTYLE
  5
35
102
{ACAD_REACTORS
330
29
102
}
330
29
100
AcDbVisualStyle
  2
Brighten
 70
    12
177
     3
291
     1
 70
    58
 90
        2
176
     1
 90
        2
176
     1
 90
        0
176
     1
 90
        0
176
     1
 40
0.6
176
     1
 40
30.0
176
     1
 62
     7
420
 16777215
176
     1
 90
        1
176
     1
 90
        4
176
     1
 62
     7
176
     1
 62
   257
176
     1
 90
        1
176
     1
 90
        1
176
     1
 40
1.0
176
     1
 90
        8
176
     1
 62
     7
176
     1
 40
1.0
176
     1
 90
        1
176
     1
 90
        6
176
     1
 90
        2
176
     1
 62
     7
176
     1
 90
        5
176
     1
 90
        0
176
     1
 90
        0
176
     1
290
     0
176
     1
 90
        1
176
     1
 40
50.0
176
     1
 90
        0
176
     1
290
     0
176
     1
290
     1
176
     1
290
     1
176
     1
290
     0
176
     1
290
     0
176
     1
290
     0
176
     1
290
     0
176
     1
290
     0
176
     1
290
     0
176
     1
 90
       50
176
     1
 40
0.0
176
     1
 40
1.0
176
     1
 90
        0
176
     1
 62
    18
420
        0
176
     1
 90
       50
176
     1
 90
        3
176
     1
 62
     5
420
      255
176
     1
290
     0
176
     1
 90
       50
176
     1
 90
       50
176
     1
 90
       50
176
     1
290
     0
176
     1
 90
       50
176
     1
 62
   256
176
     0
 40
1.0
176
     0
 90
        2
176
     1
  1
strokes_ogs.tif
176
     1
290
     0
176
     1
 40
1.0
176
     1
 40
1.0
176
     1
  0
VISUALSTYLE
  5
39
102
{ACAD_REACTORS
330
29
102
}
330
29
100
AcDbVisualStyle
  2
ColorChange
 70
    16
177
     3
291
     1
 70
    58
 90
        2
176
     1
 90
        2
176
     1
 90
        3
176
     1
 90
        0
176
     1
 40
0.6
176
     1
 40
30.0
176
     1
 62
     8
420
  8421504
176
     1
 90
        1
176
     1
 90
        4
176
     1
 62
     7
176
     1
 62
   257
176
     1
 90
        1
176
     1
 90
        1
176
     1
 40
1.0
176
     1
 90
        8
176
     1
 62
     8
420
  8421504
176
     1
 40
1.0
176
     1
 90
        1
176
     1
 90
        6
176
     1
 90
        2
176
     1
 62
     7
176
     1
 90
        5
176
     1
 90
        0
176
     1
 90
        0
176
     1
290
     0
176
     1
 90
        1
176
     1
 40
0.0
176
     1
 90
        0
176
     1
290
     0
176
     1
290
     1
176
     1
290
     1
176
     1
290
     0
176
     1
290
     0
176
     1
290
     0
176
     1
290
     0
176
     1
290
     0
176
     1
290
     0
176
     1
 90
       50
176
     1
 40
0.0
176
     1
 40
1.0
176
     1
 90
        0
176
     1
 62
    18
420
        0
176
     1
 90
       50
176
     1
 90
        3
176
     1
 62
     5
420
      255
176
     1
290
     0
176
     1
 90
       50
176
     1
 90
       50
176
     1
 90
       50
176
     1
290
     0
176
     1
 90
       50
176
     1
 62
   256
176
     0
 40
1.0
176
     0
 90
        2
176
     1
  1
strokes_ogs.tif
176
     1
290
     0
176
     1
 40
1.0
176
     1
 40
1.0
176
     1
  0
VISUALSTYLE
  5
32
102
{ACAD_REACTORS
330
29
102
}
330
29
100
AcDbVisualStyle
  2
Conceptual
 70
     9
177
     3
291
     0
 70
    58
 90
        3
176
     1
 90
        2
176
     1
 90
        0
176
     1
 90
        0
176
     1
 40
0.6
176
     1
 40
30.0
176
     1
 62
     7
420
 16777215
176
     1
 90
        2
176
     1
 90
        2
176
     1
 62
     7
176
     1
 62
   257
176
     1
 90
        1
176
     1
 90
        1
176
     1
 40
179.0
176
     1
 90
        8
176
     1
 62
     7
176
     1
 40
1.0
176
     1
 90
        1
176
     1
 90
        6
176
     1
 90
        2
176
     1
 62
     7
176
     1
 90
        3
176
     1
 90
        0
176
     1
 90
        0
176
     1
290
     0
176
     1
 90
        1
176
     1
 40
0.0
176
     1
 90
        0
176
     1
290
     0
176
     1
290
     1
176
     1
290
     1
176
     1
290
     0
176
     1
290
     0
176
     1
290
     0
176
     1
290
     0
176
     1
290
     0
176
     1
290
     0
176
     1
 90
       50
176
     1
 40
0.0
176
     1
 40
1.0
176
     1
 90
        0
176
     1
 62
    18
420
        0
176
     1
 90
       50
176
     1
 90
        3
176
     1
 62
     5
420
      255
176
     1
290
     0
176
     1
 90
       50
176
     1
 90
       50
176
     1
 90
       50
176
     1
290
     0
176
     1
 90
       50
176
     1
 62
   256
176
     0
 40
1.0
176
     0
 90
        2
176
     1
  1
strokes_ogs.tif
176
     1
290
     0
176
     1
 40
1.0
176
     1
 40
1.0
176
     1
  0
VISUALSTYLE
  5
34
102
{ACAD_REACTORS
330
29
102
}
330
29
100
AcDbVisualStyle
  2
Dim
 70
    11
177
     3
291
     1
 70
    58
 90
        2
176
     1
 90
        2
176
     1
 90
        0
176
     1
 90
        0
176
     1
 40
0.6
176
     1
 40
30.0
176
     1
 62
     7
420
 16777215
176
     1
 90
        1
176
     1
 90
        4
176
     1
 62
     7
176
     1
 62
   257
176
     1
 90
        1
176
     1
 90
        1
176
     1
 40
1.0
176
     1
 90
        8
176
     1
 62
     7
176
     1
 40
1.0
176
     1
 90
        1
176
     1
 90
        6
176
     1
 90
        2
176
     1
 62
     7
176
     1
 90
        5
176
     1
 90
        0
176
     1
 90
        0
176
     1
290
     0
176
     1
 90
        1
176
     1
 40
-50.0
176
     1
 90
        0
176
     1
290
     0
176
     1
290
     1
176
     1
290
     1
176
     1
290
     0
176
     1
290
     0
176
     1
290
     0
176
     1
290
     0
176
     1
290
     0
176
     1
290
     0
176
     1
 90
       50
176
     1
 40
0.0
176
     1
 40
1.0
176
     1
 90
        0
176
     1
 62
    18
420
        0
176
     1
 90
       50
176
     1
 90
        3
176
     1
 62
     5
420
      255
176
     1
290
     0
176
     1
 90
       50
176
     1
 90
       50
176
     1
 90
       50
176
     1
290
     0
176
     1
 90
       50
176
     1
 62
   256
176
     0
 40
1.0
176
     0
 90
        2
176
     1
  1
strokes_ogs.tif
176
     1
290
     0
176
     1
 40
1.0
176
     1
 40
1.0
176
     1
  0
VISUALSTYLE
  5
41
102
{ACAD_REACTORS
330
29
102
}
330
29
100
AcDbVisualStyle
  2
EdgeColorOff
 70
    22
177
     3
291
     1
 70
    58
 90
        2
176
     0
 90
        2
176
     0
 90
        0
176
     0
 90
        0
176
     0
 40
0.6
176
     0
 40
30.0
176
     0
 62
     7
420
 16777215
176
     0
 90
        1
176
     0
 90
        4
176
     0
 62
     7
176
     0
 62
   257
176
     0
 90
        1
176
     0
 90
        1
176
     0
 40
1.0
176
     0
 90
        8
176
     2
 62
     7
176
     0
 40
1.0
176
     0
 90
        1
176
     0
 90
        6
176
     0
 90
        2
176
     0
 62
     7
176
     0
 90
        5
176
     0
 90
        0
176
     0
 90
        0
176
     0
290
     0
176
     0
 90
        1
176
     0
 40
0.0
176
     0
 90
        0
176
     0
290
     0
176
     0
290
     1
176
     0
290
     1
176
     0
290
     0
176
     0
290
     0
176
     0
290
     0
176
     0
290
     0
176
     0
290
     0
176
     0
290
     0
176
     0
 90
       50
176
     0
 40
0.0
176
     0
 40
1.0
176
     0
 90
        0
176
     0
 62
    18
420
        0
176
     0
 90
       50
176
     0
 90
        3
176
     0
 62
     5
420
      255
176
     0
290
     0
176
     0
 90
       50
176
     0
 90
       50
176
     0
 90
       50
176
     0
290
     0
176
     0
 90
       50
176
     0
 62
   256
176
     0
 40
1.0
176
     0
 90
        2
176
     0
  1
strokes_ogs.tif
176
     0
290
     0
176
     0
 40
1.0
176
     0
 40
1.0
176
     0
  0
VISUALSTYLE
  5
38
102
{ACAD_REACTORS
330
29
102
}
330
29
100
AcDbVisualStyle
  2
Facepattern
 70
    15
177
     3
291
     1
 70
    58
 90
        2
176
     1
 90
        2
176
     1
 90
        0
176
     1
 90
        0
176
     1
 40
0.6
176
     1
 40
30.0
176
     1
 62
     7
420
 16777215
176
     1
 90
        1
176
     1
 90
        4
176
     1
 62
     7
176
     1
 62
   257
176
     1
 90
        1
176
     1
 90
        1
176
     1
 40
1.0
176
     1
 90
        8
176
     1
 62
     7
176
     1
 40
1.0
176
     1
 90
        1
176
     1
 90
        6
176
     1
 90
        2
176
     1
 62
     7
176
     1
 90
        5
176
     1
 90
        0
176
     1
 90
        0
176
     1
290
     0
176
     1
 90
        1
176
     1
 40
0.0
176
     1
 90
        0
176
     1
290
     0
176
     1
290
     1
176
     1
290
     1
176
     1
290
     0
176
     1
290
     0
176
     1
290
     0
176
     1
290
     0
176
     1
290
     0
176
     1
290
     0
176
     1
 90
       50
176
     1
 40
0.0
176
     1
 40
1.0
176
     1
 90
        0
176
     1
 62
    18
420
        0
176
     1
 90
       50
176
     1
 90
        3
176
     1
 62
     5
420
      255
176
     1
290
     0
176
     1
 90
       50
176
     1
 90
       50
176
     1
 90
       50
176
     1
290
     0
176
     1
 90
       50
176
     1
 62
   256
176
     0
 40
1.0
176
     0
 90
        2
176
     1
  1
strokes_ogs.tif
176
     1
290
     0
176
     1
 40
1.0
176
     1
 40
1.0
176
     1
  0
VISUALSTYLE
  5
2A
102
{ACAD_REACTORS
330
29
102
}
330
29
100
AcDbVisualStyle
  2
Flat
 70
     0
177
     3
291
     1
 70
    58
 90
        2
176
     1
 90
        1
176
     1
 90
        1
176
     1
 90
        2
176
     1
 40
0.6
176
     1
 40
30.0
176
     1
 62
     7
420
 16777215
176
     1
 90
        0
176
     1
 90
        0
176
     1
 62
     7
176
     1
 62
   257
176
     1
 90
        1
176
     1
 90
        1
176
     1
 40
1.0
176
     1
 90
        8
176
     1
 62
     7
176
     1
 40
1.0
176
     1
 90
        1
176
     1
 90
        6
176
     1
 90
        2
176
     1
 62
     7
176
     1
 90
        5
176
     1
 90
        0
176
     1
 90
        0
176
     1
290
     0
176
     1
 90
       13
176
     1
 40
0.0
176
     1
 90
        0
176
     1
290
     0
176
     1
290
     1
176
     1
290
     1
176
     1
290
     0
176
     1
290
     0
176
     1
290
     0
176
     1
290
     0
176
     1
290
     0
176
     1
290
     0
176
     1
 90
       50
176
     1
 40
0.0
176
     1
 40
1.0
176
     1
 90
        0
176
     1
 62
    18
420
        0
176
     1
 90
       50
176
     1
 90
        3
176
     1
 62
     5
420
      255
176
     1
290
     0
176
     1
 90
       50
176
     1
 90
       50
176
     1
 90
       50
176
     1
290
     0
176
     1
 90
       50
176
     1
 62
   256
176
     0
 40
1.0
176
     0
 90
        2
176
     1
  1
strokes_ogs.tif
176
     1
290
     0
176
     1
 40
1.0
176
     1
 40
1.0
176
     1
  0
VISUALSTYLE
  5
2B
102
{ACAD_REACTORS
330
29
102
}
330
29
100
AcDbVisualStyle
  2
FlatWithEdges
 70
     1
177
     3
291
     1
 70
    58
 90
        2
176
     1
 90
        1
176
     1
 90
        1
176
     1
 90
        2
176
     1
 40
0.6
176
     1
 40
30.0
176
     1
 62
     7
420
 16777215
176
     1
 90
        1
176
     1
 90
        0
176
     1
 62
     7
176
     1
 62
   257
176
     1
 90
        1
176
     1
 90
        1
176
     1
 40
1.0
176
     1
 90
        0
176
     1
 62
   257
176
     1
 40
1.0
176
     1
 90
        1
176
     1
 90
        6
176
     1
 90
        2
176
     1
 62
     7
176
     1
 90
        5
176
     1
 90
        0
176
     1
 90
        0
176
     1
290
     0
176
     1
 90
       13
176
     1
 40
0.0
176
     1
 90
        0
176
     1
290
     0
176
     1
290
     1
176
     1
290
     1
176
     1
290
     0
176
     1
290
     0
176
     1
290
     0
176
     1
290
     0
176
     1
290
     0
176
     1
290
     0
176
     1
 90
       50
176
     1
 40
0.0
176
     1
 40
1.0
176
     1
 90
        0
176
     1
 62
    18
420
        0
176
     1
 90
       50
176
     1
 90
        3
176
     1
 62
     5
420
      255
176
     1
290
     0
176
     1
 90
       50
176
     1
 90
       50
176
     1
 90
       50
176
     1
290
     0
176
     1
 90
       50
176
     1
 62
   256
176
     0
 40
1.0
176
     0
 90
        2
176
     1
  1
strokes_ogs.tif
176
     1
290
     0
176
     1
 40
1.0
176
     1
 40
1.0
176
     1
  0
VISUALSTYLE
  5
2C
102
{ACAD_REACTORS
330
29
102
}
330
29
100
AcDbVisualStyle
  2
Gouraud
 70
     2
177
     3
291
     1
 70
    58
 90
        2
176
     1
 90
        2
176
     1
 90
        1
176
     1
 90
        2
176
     1
 40
0.6
176
     1
 40
30.0
176
     1
 62
     7
420
 16777215
176
     1
 90
        0
176
     1
 90
        0
176
     1
 62
     7
176
     1
 62
   257
176
     1
 90
        1
176
     1
 90
        1
176
     1
 40
1.0
176
     1
 90
        0
176
     1
 62
     7
176
     1
 40
1.0
176
     1
 90
        1
176
     1
 90
        6
176
     1
 90
        2
176
     1
 62
     7
176
     1
 90
        5
176
     1
 90
        0
176
     1
 90
        0
176
     1
290
     0
176
     1
 90
       13
176
     1
 40
0.0
176
     1
 90
        0
176
     1
290
     0
176
     1
290
     1
176
     1
290
     1
176
     1
290
     0
176
     1
290
     0
176
     1
290
     0
176
     1
290
     0
176
     1
290
     0
176
     1
290
     0
176
     1
 90
       50
176
     1
 40
0.0
176
     1
 40
1.0
176
     1
 90
        0
176
     1
 62
    18
420
        0
176
     1
 90
       50
176
     1
 90
        3
176
     1
 62
     5
420
      255
176
     1
290
     0
176
     1
 90
       50
176
     1
 90
       50
176
     1
 90
       50
176
     1
290
     0
176
     1
 90
       50
176
     1
 62
   256
176
     0
 40
1.0
176
     0
 90
        2
176
     1
  1
strokes_ogs.tif
176
     1
290
     0
176
     1
 40
1.0
176
     1
 40
1.0
176
     1
  0
VISUALSTYLE
  5
2D
102
{ACAD_REACTORS
330
29
102
}
330
29
100
AcDbVisualStyle
  2
GouraudWithEdges
 70
     3
177
     3
291
     1
 70
    58
 90
        2
176
     1
 90
        2
176
     1
 90
        1
176
     1
 90
        2
176
     1
 40
0.6
176
     1
 40
30.0
176
     1
 62
     7
420
 16777215
176
     1
 90
        1
176
     1
 90
        0
176
     1
 62
     7
176
     1
 62
   257
176
     1
 90
        1
176
     1
 90
        1
176
     1
 40
1.0
176
     1
 90
        0
176
     1
 62
   257
176
     1
 40
1.0
176
     1
 90
        1
176
     1
 90
        6
176
     1
 90
        2
176
     1
 62
     7
176
     1
 90
        5
176
     1
 90
        0
176
     1
 90
        0
176
     1
290
     0
176
     1
 90
       13
176
     1
 40
0.0
176
     1
 90
        0
176
     1
290
     0
176
     1
290
     1
176
     1
290
     1
176
     1
290
     0
176
     1
290
     0
176
     1
290
     0
176
     1
290
     0
176
     1
290
     0
176
     1
290
     0
176
     1
 90
       50
176
     1
 40
0.0
176
     1
 40
1.0
176
     1
 90
        0
176
     1
 62
    18
420
        0
176
     1
 90
       50
176
     1
 90
        3
176
     1
 62
     5
420
      255
176
     1
290
     0
176
     1
 90
       50
176
     1
 90
       50
176
     1
 90
       50
176
     1
290
     0
176
     1
 90
       50
176
     1
 62
   256
176
     0
 40
1.0
176
     0
 90
        2
176
     1
  1
strokes_ogs.tif
176
     1
290
     0
176
     1
 40
1.0
176
     1
 40
1.0
176
     1
  0
VISUALSTYLE
  5
31
102
{ACAD_REACTORS
330
29
102
}
330
29
100
AcDbVisualStyle
  2
Hidden
 70
     6
177
     3
291
     0
 70
    58
 90
        1
176
     1
 90
        2
176
     1
 90
        2
176
     1
 90
        0
176
     1
 40
0.6
176
     1
 40
30.0
176
     1
 62
     7
420
 16777215
176
     1
 90
        2
176
     1
 90
        2
176
     1
 62
     7
176
     1
 62
   257
176
     1
 90
        2
176
     1
 90
        1
176
     1
 40
40.0
176
     1
 90
        0
176
     1
 62
   257
176
     1
 40
1.0
176
     1
 90
        1
176
     1
 90
        6
176
     1
 90
        2
176
     1
 62
     7
176
     1
 90
        3
176
     1
 90
        0
176
     1
 90
        0
176
     1
290
     0
176
     1
 90
        1
176
     1
 40
0.0
176
     1
 90
        0
176
     1
290
     0
176
     1
290
     1
176
     1
290
     1
176
     1
290
     0
176
     1
290
     0
176
     1
290
     0
176
     1
290
     0
176
     1
290
     0
176
     1
290
     0
176
     1
 90
       50
176
     1
 40
0.0
176
     1
 40
1.0
176
     1
 90
        0
176
     1
 62
    18
420
        0
176
     1
 90
       50
176
     1
 90
        3
176
     1
 62
     5
420
      255
176
     1
290
     0
176
     1
 90
       50
176
     1
 90
       50
176
     1
 90
       50
176
     1
290
     0
176
     1
 90
       50
176
     1
 62
   256
176
     0
 40
1.0
176
     0
 90
        2
176
     1
  1
strokes_ogs.tif
176
     1
290
     0
176
     1
 40
1.0
176
     1
 40
1.0
176
     1
  0
VISUALSTYLE
  5
3F
102
{ACAD_REACTORS
330
29
102
}
330
29
100
AcDbVisualStyle
  2
JitterOff
 70
    20
177
     3
291
     1
 70
    58
 90
        2
176
     0
 90
        2
176
     0
 90
        0
176
     0
 90
        0
176
     0
 40
0.6
176
     0
 40
30.0
176
     0
 62
     7
420
 16777215
176
     0
 90
        1
176
     0
 90
        4
176
     0
 62
     7
176
     0
 62
   257
176
     0
 90
        1
176
     0
 90
        1
176
     0
 40
1.0
176
     0
 90
       10
176
     2
 62
     7
176
     0
 40
1.0
176
     0
 90
        1
176
     0
 90
        6
176
     0
 90
        2
176
     0
 62
     7
176
     0
 90
        5
176
     0
 90
        0
176
     0
 90
        0
176
     0
290
     0
176
     0
 90
        1
176
     0
 40
0.0
176
     0
 90
        0
176
     0
290
     0
176
     0
290
     1
176
     0
290
     1
176
     0
290
     0
176
     0
290
     0
176
     0
290
     0
176
     0
290
     0
176
     0
290
     0
176
     0
290
     0
176
     0
 90
       50
176
     0
 40
0.0
176
     0
 40
1.0
176
     0
 90
        0
176
     0
 62
    18
420
        0
176
     0
 90
       50
176
     0
 90
        3
176
     0
 62
     5
420
      255
176
     0
290
     0
176
     0
 90
       50
176
     0
 90
       50
176
     0
 90
       50
176
     0
290
     0
176
     0
 90
       50
176
     0
 62
   256
176
     0
 40
1.0
176
     0
 90
        2
176
     0
  1
strokes_ogs.tif
176
     0
290
     0
176
     0
 40
1.0
176
     0
 40
1.0
176
     0
  0
VISUALSTYLE
  5
37
102
{ACAD_REACTORS
330
29
102
}
330
29
100
AcDbVisualStyle
  2
Linepattern
 70
    14
177
     3
291
     1
 70
    58
 90
        2
176
     1
 90
        2
176
     1
 90
        0
176
     1
 90
        0
176
     1
 40
0.6
176
     1
 40
30.0
176
     1
 62
     7
420
 16777215
176
     1
 90
        1
176
     1
 90
        4
176
     1
 62
     7
176
     1
 62
   257
176
     1
 90
        7
176
     1
 90
        7
176
     1
 40
1.0
176
     1
 90
        8
176
     1
 62
     7
176
     1
 40
1.0
176
     1
 90
        1
176
     1
 90
        6
176
     1
 90
        2
176
     1
 62
     7
176
     1
 90
        5
176
     1
 90
        0
176
     1
 90
        0
176
     1
290
     0
176
     1
 90
        1
176
     1
 40
0.0
176
     1
 90
        0
176
     1
290
     0
176
     1
290
     1
176
     1
290
     1
176
     1
290
     0
176
     1
290
     0
176
     1
290
     0
176
     1
290
     0
176
     1
290
     0
176
     1
290
     0
176
     1
 90
       50
176
     1
 40
0.0
176
     1
 40
1.0
176
     1
 90
        0
176
     1
 62
    18
420
        0
176
     1
 90
       50
176
     1
 90
        3
176
     1
 62
     5
420
      255
176
     1
290
     0
176
     1
 90
       50
176
     1
 90
       50
176
     1
 90
       50
176
     1
290
     0
176
     1
 90
       50
176
     1
 62
   256
176
     0
 40
1.0
176
     0
 90
        2
176
     1
  1
strokes_ogs.tif
176
     1
290
     0
176
     1
 40
1.0
176
     1
 40
1.0
176
     1
  0
VISUALSTYLE
  5
40
102
{ACAD_REACTORS
330
29
102
}
330
29
100
AcDbVisualStyle
  2
OverhangOff
 70
    21
177
     3
291
     1
 70
    58
 90
        2
176
     0
 90
        2
176
     0
 90
        0
176
     0
 90
        0
176
     0
 40
0.6
176
     0
 40
30.0
176
     0
 62
     7
420
 16777215
176
     0
 90
        1
176
     0
 90
        4
176
     0
 62
     7
176
     0
 62
   257
176
     0
 90
        1
176
     0
 90
        1
176
     0
 40
1.0
176
     0
 90
        9
176
     2
 62
     7
176
     0
 40
1.0
176
     0
 90
        1
176
     0
 90
        6
176
     0
 90
        2
176
     0
 62
     7
176
     0
 90
        5
176
     0
 90
        0
176
     0
 90
        0
176
     0
290
     0
176
     0
 90
        1
176
     0
 40
0.0
176
     0
 90
        0
176
     0
290
     0
176
     0
290
     1
176
     0
290
     1
176
     0
290
     0
176
     0
290
     0
176
     0
290
     0
176
     0
290
     0
176
     0
290
     0
176
     0
290
     0
176
     0
 90
       50
176
     0
 40
0.0
176
     0
 40
1.0
176
     0
 90
        0
176
     0
 62
    18
420
        0
176
     0
 90
       50
176
     0
 90
        3
176
     0
 62
     5
420
      255
176
     0
290
     0
176
     0
 90
       50
176
     0
 90
       50
176
     0
 90
       50
176
     0
290
     0
176
     0
 90
       50
176
     0
 62
   256
176
     0
 40
1.0
176
     0
 90
        2
176
     0
  1
strokes_ogs.tif
176
     0
290
     0
176
     0
 40
1.0
176
     0
 40
1.0
176
     0
  0
VISUALSTYLE
  5
33
102
{ACAD_REACTORS
330
29
102
}
330
29
100
AcDbVisualStyle
  2
Realistic
 70
     8
177
     3
291
     0
 70
    58
 90
        2
176
     1
 90
        3
176
     1
 90
        0
176
     1
 90
        2
176
     1
 40
0.6
176
     1
 40
30.0
176
     1
 62
     7
420
 16777215
176
     1
 90
        0
176
     1
 90
        0
176
     1
 62
     7
176
     1
 62
   257
176
     1
 90
        1
176
     1
 90
        1
176
     1
 40
1.0
176
     1
 90
        8
176
     1
 62
   257
176
     1
 40
1.0
176
     1
 90
        1
176
     1
 90
        6
176
     1
 90
        2
176
     1
 62
     7
176
     1
 90
        3
176
     1
 90
        0
176
     1
 90
        0
176
     1
290
     0
176
     1
 90
       13
176
     1
 40
0.0
176
     1
 90
        0
176
     1
290
     0
176
     1
290
     1
176
     1
290
     1
176
     1
290
     0
176
     1
290
     0
176
     1
290
     0
176
     1
290
     0
176
     1
290
     0
176
     1
290
     0
176
     1
 90
       50
176
     1
 40
0.0
176
     1
 40
1.0
176
     1
 90
        0
176
     1
 62
    18
420
        0
176
     1
 90
       50
176
     1
 90
        3
176
     1
 62
     5
420
      255
176
     1
290
     0
176
     1
 90
       50
176
     1
 90
       50
176
     1
 90
       50
176
     1
290
     0
176
     1
 90
       50
176
     1
 62
   256
176
     0
 40
1.0
176
     0
 90
        2
176
     1
  1
strokes_ogs.tif
176
     1
290
     0
176
     1
 40
1.0
176
     1
 40
1.0
176
     1
  0
VISUALSTYLE
  5
3E
102
{ACAD_REACTORS
330
29
102
}
330
29
100
AcDbVisualStyle
  2
Shaded
 70
    27
177
     3
291
     0
 70
    58
 90
        2
176
     1
 90
        2
176
     1
 90
        1
176
     1
 90
        2
176
     1
 40
0.6
176
     1
 40
30.0
176
     1
 62
     7
420
 16777215
176
     1
 90
        0
176
     1
 90
        4
176
     1
 62
     7
176
     1
 62
   257
176
     1
 90
        1
176
     1
 90
        1
176
     1
 40
1.0
176
     1
 90
        8
176
     1
 62
   257
176
     1
 40
1.0
176
     1
 90
        1
176
     1
 90
        6
176
     1
 90
        2
176
     1
 62
     8
420
  7895160
176
     1
 90
        3
176
     1
 90
        0
176
     1
 90
        0
176
     1
290
     0
176
     1
 90
        5
176
     1
 40
0.0
176
     1
 90
        0
176
     1
290
     0
176
     1
290
     1
176
     1
290
     1
176
     1
290
     0
176
     1
290
     0
176
     1
290
     0
176
     1
290
     0
176
     1
290
     0
176
     1
290
     0
176
     1
 90
       50
176
     1
 40
0.0
176
     1
 40
1.0
176
     1
 90
        0
176
     1
 62
    18
420
        0
176
     1
 90
       50
176
     1
 90
        3
176
     1
 62
     5
420
      255
176
     1
290
     0
176
     1
 90
       50
176
     1
 90
       50
176
     1
 90
       50
176
     1
290
     0
176
     1
 90
       50
176
     1
 62
   256
176
     0
 40
1.0
176
     0
 90
        2
176
     1
  1
strokes_ogs.tif
176
     1
290
     0
176
     1
 40
1.0
176
     1
 40
1.0
176
     1
  0
VISUALSTYLE
  5
3D
102
{ACAD_REACTORS
330
29
102
}
330
29
100
AcDbVisualStyle
  2
Shaded with edges
 70
    26
177
     3
291
     0
 70
    58
 90
        2
176
     1
 90
        2
176
     1
 90
        1
176
     1
 90
        2
176
     1
 40
0.6
176
     1
 40
30.0
176
     1
 62
     7
420
 16777215
176
     1
 90
        1
176
     1
 90
        2
176
     1
 62
     7
176
     1
 62
   257
176
     1
 90
        2
176
     1
 90
        1
176
     1
 40
1.0
176
     1
 90
        8
176
     1
 62
   257
176
     1
 40
1.0
176
     1
 90
        1
176
     1
 90
        6
176
     1
 90
        2
176
     1
 62
     7
176
     1
 90
        3
176
     1
 90
        0
176
     1
 90
        0
176
     1
290
     0
176
     1
 90
        5
176
     1
 40
0.0
176
     1
 90
        0
176
     1
290
     0
176
     1
290
     1
176
     1
290
     1
176
     1
290
     0
176
     1
290
     0
176
     1
290
     0
176
     1
290
     0
176
     1
290
     0
176
     1
290
     0
176
     1
 90
       50
176
     1
 40
0.0
176
     1
 40
1.0
176
     1
 90
        0
176
     1
 62
    18
420
        0
176
     1
 90
       50
176
     1
 90
        3
176
     1
 62
     5
420
      255
176
     1
290
     0
176
     1
 90
       50
176
     1
 90
       50
176
     1
 90
       50
176
     1
290
     0
176
     1
 90
       50
176
     1
 62
   256
176
     0
 40
1.0
176
     0
 90
        2
176
     1
  1
strokes_ogs.tif
176
     1
290
     0
176
     1
 40
1.0
176
     1
 40
1.0
176
     1
  0
VISUALSTYLE
  5
3A
102
{ACAD_REACTORS
330
29
102
}
330
29
100
AcDbVisualStyle
  2
Shades of Gray
 70
    23
177
     3
291
     0
 70
    58
 90
        2
176
     1
 90
        2
176
     1
 90
        3
176
     1
 90
        0
176
     1
 40
0.6
176
     1
 40
30.0
176
     1
 62
     7
420
 16777215
176
     1
 90
        2
176
     1
 90
        2
176
     1
 62
     7
176
     1
 62
     7
176
     1
 90
        1
176
     1
 90
        1
176
     1
 40
40.0
176
     1
 90
        8
176
     1
 62
     7
176
     1
 40
1.0
176
     1
 90
        1
176
     1
 90
        6
176
     1
 90
        2
176
     1
 62
     7
176
     1
 90
        3
176
     1
 90
        0
176
     1
 90
        0
176
     1
290
     0
176
     1
 90
        1
176
     1
 40
0.0
176
     1
 90
        0
176
     1
290
     0
176
     1
290
     1
176
     1
290
     1
176
     1
290
     0
176
     1
290
     0
176
     1
290
     0
176
     1
290
     0
176
     1
290
     0
176
     1
290
     0
176
     1
 90
       50
176
     1
 40
0.0
176
     1
 40
1.0
176
     1
 90
        0
176
     1
 62
    18
420
        0
176
     1
 90
       50
176
     1
 90
        3
176
     1
 62
     5
420
      255
176
     1
290
     0
176
     1
 90
       50
176
     1
 90
       50
176
     1
 90
       50
176
     1
290
     0
176
     1
 90
       50
176
     1
 62
   256
176
     0
 40
1.0
176
     0
 90
        2
176
     1
  1
strokes_ogs.tif
176
     1
290
     0
176
     1
 40
1.0
176
     1
 40
1.0
176
     1
  0
VISUALSTYLE
  5
3B
102
{ACAD_REACTORS
330
29
102
}
330
29
100
AcDbVisualStyle
  2
Sketchy
 70
    24
177
     3
291
     0
 70
    58
 90
        1
176
     1
 90
        2
176
     1
 90
        2
176
     1
 90
        0
176
     1
 40
0.6
176
     1
 40
30.0
176
     1
 62
     7
420
 16777215
176
     1
 90
        2
176
     1
 90
        2
176
     1
 62
     7
176
     1
 62
     7
176
     1
 90
        1
176
     1
 90
        1
176
     1
 40
40.0
176
     1
 90
       11
176
     1
 62
     7
176
     1
 40
1.0
176
     1
 90
        1
176
     1
 90
        6
176
     1
 90
        2
176
     1
 62
     7
176
     1
 90
        6
176
     1
 90
        0
176
     1
 90
        0
176
     1
290
     0
176
     1
 90
        1
176
     1
 40
0.0
176
     1
 90
        0
176
     1
290
     0
176
     1
290
     1
176
     1
290
     1
176
     1
290
     0
176
     1
290
     0
176
     1
290
     0
176
     1
290
     0
176
     1
290
     0
176
     1
290
     0
176
     1
 90
       50
176
     1
 40
0.0
176
     1
 40
1.0
176
     1
 90
        0
176
     1
 62
    18
420
        0
176
     1
 90
       50
176
     1
 90
        3
176
     1
 62
     5
420
      255
176
     1
290
     0
176
     1
 90
       50
176
     1
 90
       50
176
     1
 90
       50
176
     1
290
     0
176
     1
 90
       50
176
     1
 62
   256
176
     0
 40
1.0
176
     0
 90
        2
176
     1
  1
strokes_ogs.tif
176
     1
290
     0
176
     1
 40
1.0
176
     1
 40
1.0
176
     1
  0
VISUALSTYLE
  5
36
102
{ACAD_REACTORS
330
29
102
}
330
29
100
AcDbVisualStyle
  2
Thicken
 70
    13
177
     3
291
     1
 70
    58
 90
        2
176
     1
 90
        2
176
     1
 90
        0
176
     1
 90
        0
176
     1
 40
0.6
176
     1
 40
30.0
176
     1
 62
     7
420
 16777215
176
     1
 90
        1
176
     1
 90
        4
176
     1
 62
     7
176
     1
 62
   257
176
     1
 90
        1
176
     1
 90
        1
176
     1
 40
1.0
176
     1
 90
       12
176
     1
 62
     7
176
     1
 40
1.0
176
     1
 90
        1
176
     1
 90
        6
176
     1
 90
        2
176
     1
 62
     7
176
     1
 90
        5
176
     1
 90
        0
176
     1
 90
        0
176
     1
290
     0
176
     1
 90
        1
176
     1
 40
0.0
176
     1
 90
        0
176
     1
290
     0
176
     1
290
     1
176
     1
290
     1
176
     1
290
     0
176
     1
290
     0
176
     1
290
     0
176
     1
290
     0
176
     1
290
     0
176
     1
290
     0
176
     1
 90
       50
176
     1
 40
0.0
176
     1
 40
1.0
176
     1
 90
        0
176
     1
 62
    18
420
        0
176
     1
 90
       50
176
     1
 90
        3
176
     1
 62
     5
420
      255
176
     1
290
     0
176
     1
 90
       50
176
     1
 90
       50
176
     1
 90
       50
176
     1
290
     0
176
     1
 90
       50
176
     1
 62
   256
176
     0
 40
1.0
176
     0
 90
        2
176
     1
  1
strokes_ogs.tif
176
     1
290
     0
176
     1
 40
1.0
176
     1
 40
1.0
176
     1
  0
VISUALSTYLE
  5
30
102
{ACAD_REACTORS
330
29
102
}
330
29
100
AcDbVisualStyle
  2
Wireframe
 70
     5
177
     3
291
     0
 70
    58
 90
        0
176
     1
 90
        2
176
     1
 90
        0
176
     1
 90
        0
176
     1
 40
0.6
176
     1
 40
30.0
176
     1
 62
     7
420
 16777215
176
     1
 90
        1
176
     1
 90
        4
176
     1
 62
     7
176
     1
 62
   257
176
     1
 90
        1
176
     1
 90
        1
176
     1
 40
1.0
176
     1
 90
        0
176
     1
 62
   257
176
     1
 40
1.0
176
     1
 90
        1
176
     1
 90
        6
176
     1
 90
        2
176
     1
 62
     7
176
     1
 90
        3
176
     1
 90
        0
176
     1
 90
        0
176
     1
290
     0
176
     1
 90
        1
176
     1
 40
0.0
176
     1
 90
        0
176
     1
290
     0
176
     1
290
     1
176
     1
290
     1
176
     1
290
     0
176
     1
290
     0
176
     1
290
     0
176
     1
290
     0
176
     1
290
     0
176
     1
290
     0
176
     1
 90
       50
176
     1
 40
0.0
176
     1
 40
1.0
176
     1
 90
        0
176
     1
 62
    18
420
        0
176
     1
 90
       50
176
     1
 90
        3
176
     1
 62
     5
420
      255
176
     1
290
     0
176
     1
 90
       50
176
     1
 90
       50
176
     1
 90
       50
176
     1
290
     0
176
     1
 90
       50
176
     1
 62
   256
176
     0
 40
1.0
176
     0
 90
        2
176
     1
  1
strokes_ogs.tif
176
     1
290
     0
176
     1
 40
1.0
176
     1
 40
1.0
176
     1
  0
VISUALSTYLE
  5
3C
102
{ACAD_REACTORS
330
29
102
}
330
29
100
AcDbVisualStyle
  2
X-Ray
 70
    25
177
     3
291
     0
 70
    58
 90
        2
176
     1
 90
        2
176
     1
 90
        1
176
     1
 90
        1
176
     1
 40
0.5
176
     1
 40
30.0
176
     1
 62
     7
420
 16777215
176
     1
 90
        1
176
     1
 90
        0
176
     1
 62
     7
176
     1
 62
   257
176
     1
 90
        1
176
     1
 90
        1
176
     1
 40
1.0
176
     1
 90
        8
176
     1
 62
     7
176
     1
 40
1.0
176
     1
 90
        1
176
     1
 90
        6
176
     1
 90
        2
176
     1
 62
     7
176
     1
 90
        3
176
     1
 90
        0
176
     1
 90
        0
176
     1
290
     0
176
     1
 90
       13
176
     1
 40
0.0
176
     1
 90
        0
176
     1
290
     0
176
     1
290
     1
176
     1
290
     1
176
     1
290
     0
176
     1
290
     0
176
     1
290
     0
176
     1
290
     0
176
     1
290
     0
176
     1
290
     0
176
     1
 90
       50
176
     1
 40
0.0
176
     1
 40
1.0
176
     1
 90
        0
176
     1
 62
    18
420
        0
176
     1
 90
       50
176
     1
 90
        3
176
     1
 62
     5
420
      255
176
     1
290
     0
176
     1
 90
       50
176
     1
 90
       50
176
     1
 90
       50
176
     1
290
     0
176
     1
 90
       50
176
     1
 62
   256
176
     0
 40
1.0
176
     0
 90
        2
176
     1
  1
strokes_ogs.tif
176
     1
290
     0
176
     1
 40
1.0
176
     1
 40
1.0
176
     1
  0
DICTIONARYVAR
  5
F0
102
{ACAD_REACTORS
330
EB
102
}
330
EB
100
DictionaryVariables
280
     0
  1
1:1
  0
DICTIONARYVAR
  5
ED
102
{ACAD_REACTORS
330
EB
102
}
330
EB
100
DictionaryVariables
280
     0
  1
STANDARD
  0
DICTIONARYVAR
  5
EC
102
{ACAD_REACTORS
330
EB
102
}
330
EB
100
DictionaryVariables
280
     0
  1
STANDARD
  0
DICTIONARYVAR
  5
EE
102
{ACAD_REACTORS
330
EB
102
}
330
EB
100
DictionaryVariables
280
     0
  1
Imperial24
  0
DICTIONARYVAR
  5
EF
102
{ACAD_REACTORS
330
EB
102
}
330
EB
100
DictionaryVariables
280
     0
  1
Imperial24
  0
DICTIONARY
  5
1A
330
19
100
AcDbDictionary
280
     1
281
     1
  3
BUMPTILE
360
1C
  3
DIFFUSETILE
360
1B
  3
OPACITYTILE
360
1F
  3
REFLECTIONTILE
360
1E
  3
REFRACTIONTILE
360
20
  3
SPECULARTILE
360
1D
  0
DICTIONARY
  5
12
330
11
100
AcDbDictionary
280
     1
281
     1
  3
BUMPTILE
360
14
  3
DIFFUSETILE
360
13
  3
OPACITYTILE
360
17
  3
REFLECTIONTILE
360
16
  3
REFRACTIONTILE
360
18
  3
SPECULARTILE
360
15
  0
DICTIONARY
  5
22
330
21
100
AcDbDictionary
280
     1
281
     1
  3
BUMPTILE
360
24
  3
DIFFUSETILE
360
23
  3
OPACITYTILE
360
27
  3
REFLECTIONTILE
360
26
  3
REFRACTIONTILE
360
28
  3
SPECULARTILE
360
25
  0
DICTIONARY
  5
F1
330
65
100
AcDbDictionary
280
     1
281
     1
  3
ACAD_ROUNDTRIP_2008_TABLESTYLE_CELLSTYLEMAP
360
F2
  0
XRECORD
  5
1C
102
{ACAD_REACTORS
330
1A
102
}
330
1A
100
AcDbXrecord
280
     1
270
     1
271
     1
  0
XRECORD
  5
1B
102
{ACAD_REACTORS
330
1A
102
}
330
1A
100
AcDbXrecord
280
     1
270
     1
271
     1
  0
XRECORD
  5
1F
102
{ACAD_REACTORS
330
1A
102
}
330
1A
100
AcDbXrecord
280
     1
270
     1
271
     1
  0
XRECORD
  5
1E
102
{ACAD_REACTORS
330
1A
102
}
330
1A
100
AcDbXrecord
280
     1
270
     1
271
     1
  0
XRECORD
  5
20
102
{ACAD_REACTORS
330
1A
102
}
330
1A
100
AcDbXrecord
280
     1
270
     1
271
     1
  0
XRECORD
  5
1D
102
{ACAD_REACTORS
330
1A
102
}
330
1A
100
AcDbXrecord
280
     1
270
     1
271
     1
  0
XRECORD
  5
14
102
{ACAD_REACTORS
330
12
102
}
330
12
100
AcDbXrecord
280
     1
270
     1
271
     1
  0
XRECORD
  5
13
102
{ACAD_REACTORS
330
12
102
}
330
12
100
AcDbXrecord
280
     1
270
     1
271
     1
  0
XRECORD
  5
17
102
{ACAD_REACTORS
330
12
102
}
330
12
100
AcDbXrecord
280
     1
270
     1
271
     1
  0
XRECORD
  5
16
102
{ACAD_REACTORS
330
12
102
}
330
12
100
AcDbXrecord
280
     1
270
     1
271
     1
  0
XRECORD
  5
18
102
{ACAD_REACTORS
330
12
102
}
330
12
100
AcDbXrecord
280
     1
270
     1
271
     1
  0
XRECORD
  5
15
102
{ACAD_REACTORS
330
12
102
}
330
12
100
AcDbXrecord
280
     1
270
     1
271
     1
  0
XRECORD
  5
24
102
{ACAD_REACTORS
330
22
102
}
330
22
100
AcDbXrecord
280
     1
270
     1
271
     1
  0
XRECORD
  5
23
102
{ACAD_REACTORS
330
22
102
}
330
22
100
AcDbXrecord
280
     1
270
     1
271
     1
  0
XRECORD
  5
27
102
{ACAD_REACTORS
330
22
102
}
330
22
100
AcDbXrecord
280
     1
270
     1
271
     1
  0
XRECORD
  5
26
102
{ACAD_REACTORS
330
22
102
}
330
22
100
AcDbXrecord
280
     1
270
     1
271
     1
  0
XRECORD
  5
28
102
{ACAD_REACTORS
330
22
102
}
330
22
100
AcDbXrecord
280
     1
270
     1
271
     1
  0
XRECORD
  5
25
102
{ACAD_REACTORS
330
22
102
}
330
22
100
AcDbXrecord
280
     1
270
     1
271
     1
  0
CELLSTYLEMAP
  5
F2
102
{ACAD_REACTORS
330
F1
102
}
330
F1
100
AcDbCellStyleMap
 90
        3
300
CELLSTYLE
  1
TABLEFORMAT_BEGIN
 90
        5
170
     1
 91
        0
 92
    32768
 62
   257
 93
        1
300
CONTENTFORMAT
  1
CONTENTFORMAT_BEGIN
 90
        0
 91
        0
 92
      512
 93
        0
300

 40
0.0
140
1.0
 94
        5
 62
     0
340
55
144
0.25
309
CONTENTFORMAT_END
171
     0
 94
        0
309
TABLEFORMAT_END
  1
CELLSTYLE_BEGIN
 90
        1
 91
        1
300
_TITLE
309
CELLSTYLE_END
300
CELLSTYLE
  1
TABLEFORMAT_BEGIN
 90
        5
170
     1
 91
        0
 92
        0
 62
   257
 93
        1
300
CONTENTFORMAT
  1
CONTENTFORMAT_BEGIN
 90
        0
 91
        0
 92
      512
 93
        0
300

 40
0.0
140
1.0
 94
        5
 62
     0
340
55
144
0.18
309
CONTENTFORMAT_END
171
     0
 94
        0
309
TABLEFORMAT_END
  1
CELLSTYLE_BEGIN
 90
        2
 91
        1
300
_HEADER
309
CELLSTYLE_END
300
CELLSTYLE
  1
TABLEFORMAT_BEGIN
 90
        5
170
     1
 91
        0
 92
        0
 62
   257
 93
        1
300
CONTENTFORMAT
  1
CONTENTFORMAT_BEGIN
 90
        0
 91
        0
 92
      512
 93
        0
300

 40
0.0
140
1.0
 94
        2
 62
     0
340
55
144
0.18
309
CONTENTFORMAT_END
171
     0
 94
        0
309
TABLEFORMAT_END
  1
CELLSTYLE_BEGIN
 90
        3
 91
        2
300
_DATA
309
CELLSTYLE_END
  0
ENDSEC
  0
EOF
