  0
SECTION
  2
HEADER
  9
$ACADVER
  1
AC1032
  9
$ACADMAINTVER
 90
      155
  9
$DWGCODEPAGE
  3
ANSI_1252
  9
$REQUIREDVERSIONS
160
                 0
  9
$INSBASE
 10
0.0
 20
0.0
 30
0.0
  9
$EXTMIN
 10
1.000000000000000E+20
 20
1.000000000000000E+20
 30
1.000000000000000E+20
  9
$EXTMAX
 10
-1.000000000000000E+20
 20
-1.000000000000000E+20
 30
-1.000000000000000E+20
  9
$LIMMIN
 10
0.0
 20
0.0
  9
$LIMMAX
 10
12.0
 20
9.0
  9
$ORTHOMODE
 70
     0
  9
$REGENMODE
 70
     1
  9
$FILLMODE
 70
     1
  9
$QTEXTMODE
 70
     0
  9
$MIRRTEXT
 70
     0
  9
$LTSCALE
 40
1.0
  9
$ATTMODE
 70
     1
  9
$TEXTSIZE
 40
0.2
  9
$TRACEWID
 40
0.05
  9
$TEXTSTYLE
  7
Standard
  9
$CLAYER
  8
0
  9
$CELTYPE
  6
ByLayer
  9
$CECOLOR
 62
   256
  9
$CELTSCALE
 40
1.0
  9
$DISPSILH
 70
     0
  9
$DIMSCALE
 40
1.0
  9
$DIMASZ
 40
0.18
  9
$DIMEXO
 40
0.0625
  9
$DIMDLI
 40
0.38
  9
$DIMRND
 40
0.0
  9
$DIMDLE
 40
0.0
  9
$DIMEXE
 40
0.18
  9
$DIMTP
 40
0.0
  9
$DIMTM
 40
0.0
  9
$DIMTXT
 40
0.18
  9
$DIMCEN
 40
0.09
  9
$DIMTSZ
 40
0.0
  9
$DIMTOL
 70
     0
  9
$DIMLIM
 70
     0
  9
$DIMTIH
 70
     1
  9
$DIMTOH
 70
     1
  9
$DIMSE1
 70
     0
  9
$DIMSE2
 70
     0
  9
$DIMTAD
 70
     0
  9
$DIMZIN
 70
     0
  9
$DIMBLK
  1

  9
$DIMASO
 70
     1
  9
$DIMSHO
 70
     1
  9
$DIMPOST
  1

  9
$DIMAPOST
  1

  9
$DIMALT
 70
     0
  9
$DIMALTD
 70
     2
  9
$DIMALTF
 40
25.4
  9
$DIMLFAC
 40
1.0
  9
$DIMTOFL
 70
     0
  9
$DIMTVP
 40
0.0
  9
$DIMTIX
 70
     0
  9
$DIMSOXD
 70
     0
  9
$DIMSAH
 70
     0
  9
$DIMBLK1
  1

  9
$DIMBLK2
  1

  9
$DIMSTYLE
  2
Standard
  9
$DIMCLRD
 70
     0
  9
$DIMCLRE
 70
     0
  9
$DIMCLRT
 70
     0
  9
$DIMTFAC
 40
1.0
  9
$DIMGAP
 40
0.09
  9
$DIMJUST
 70
     0
  9
$DIMSD1
 70
     0
  9
$DIMSD2
 70
     0
  9
$DIMTOLJ
 70
     1
  9
$DIMTZIN
 70
     0
  9
$DIMALTZ
 70
     0
  9
$DIMALTTZ
 70
     0
  9
$DIMUPT
 70
     0
  9
$DIMDEC
 70
     4
  9
$DIMTDEC
 70
     4
  9
$DIMALTU
 70
     2
  9
$DIMALTTD
 70
     2
  9
$DIMTXSTY
  7
Standard
  9
$DIMAUNIT
 70
     0
  9
$DIMADEC
 70
     0
  9
$DIMALTRND
 40
0.0
  9
$DIMAZIN
 70
     0
  9
$DIMDSEP
 70
    46
  9
$DIMATFIT
 70
     3
  9
$DIMFRAC
 70
     0
  9
$DIMLDRBLK
  1

  9
$DIMLUNIT
 70
     2
  9
$DIMLWD
 70
    -2
  9
$DIMLWE
 70
    -2
  9
$DIMTMOVE
 70
     0
  9
$DIMFXL
 40
1.0
  9
$DIMFXLON
 70
     0
  9
$DIMJOGANG
 40
0.7853981633974483
  9
$DIMTFILL
 70
     0
  9
$DIMTFILLCLR
 70
     0
  9
$DIMARCSYM
 70
     0
  9
$DIMLTYPE
  6

  9
$DIMLTEX1
  6

  9
$DIMLTEX2
  6

  9
$DIMTXTDIRECTION
 70
     0
  9
$LUNITS
 70
     2
  9
$LUPREC
 70
     4
  9
$SKETCHINC
 40
0.1
  9
$FILLETRAD
 40
0.0
  9
$AUNITS
 70
     0
  9
$AUPREC
 70
     0
  9
$MENU
  1
.
  9
$ELEVATION
 40
0.0
  9
$PELEVATION
 40
0.0
  9
$THICKNESS
 40
0.0
  9
$LIMCHECK
 70
     0
  9
$CHAMFERA
 40
0.0
  9
$CHAMFERB
 40
0.0
  9
$CHAMFERC
 40
0.0
  9
$CHAMFERD
 40
0.0
  9
$SKPOLY
 70
     0
  9
$TDCREATE
 40
2460186.367407408
  9
$TDUCREATE
 40
2460186.284074074
  9
$TDUPDATE
 40
2460186.367407408
  9
$TDUUPDATE
 40
2460186.284074074
  9
$TDINDWG
 40
0.0000000000
  9
$TDUSRTIMER
 40
0.0000000000
  9
$USRTIMER
 70
     1
  9
$ANGBASE
 50
0.0
  9
$ANGDIR
 70
     0
  9
$PDMODE
 70
     0
  9
$PDSIZE
 40
0.0
  9
$PLINEWID
 40
0.0
  9
$SPLFRAME
 70
     0
  9
$SPLINETYPE
 70
     6
  9
$SPLINESEGS
 70
     8
  9
$HANDSEED
  5
32B
  9
$SURFTAB1
 70
     6
  9
$SURFTAB2
 70
     6
  9
$SURFTYPE
 70
     6
  9
$SURFU
 70
     6
  9
$SURFV
 70
     6
  9
$UCSBASE
  2

  9
$UCSNAME
  2

  9
$UCSORG
 10
0.0
 20
0.0
 30
0.0
  9
$UCSXDIR
 10
1.0
 20
0.0
 30
0.0
  9
$UCSYDIR
 10
0.0
 20
1.0
 30
0.0
  9
$UCSORTHOREF
  2

  9
$UCSORTHOVIEW
 70
     0
  9
$UCSORGTOP
 10
0.0
 20
0.0
 30
0.0
  9
$UCSORGBOTTOM
 10
0.0
 20
0.0
 30
0.0
  9
$UCSORGLEFT
 10
0.0
 20
0.0
 30
0.0
  9
$UCSORGRIGHT
 10
0.0
 20
0.0
 30
0.0
  9
$UCSORGFRONT
 10
0.0
 20
0.0
 30
0.0
  9
$UCSORGBACK
 10
0.0
 20
0.0
 30
0.0
  9
$PUCSBASE
  2

  9
$PUCSNAME
  2

  9
$PUCSORG
 10
0.0
 20
0.0
 30
0.0
  9
$PUCSXDIR
 10
1.0
 20
0.0
 30
0.0
  9
$PUCSYDIR
 10
0.0
 20
1.0
 30
0.0
  9
$PUCSORTHOREF
  2

  9
$PUCSORTHOVIEW
 70
     0
  9
$PUCSORGTOP
 10
0.0
 20
0.0
 30
0.0
  9
$PUCSORGBOTTOM
 10
0.0
 20
0.0
 30
0.0
  9
$PUCSORGLEFT
 10
0.0
 20
0.0
 30
0.0
  9
$PUCSORGRIGHT
 10
0.0
 20
0.0
 30
0.0
  9
$PUCSORGFRONT
 10
0.0
 20
0.0
 30
0.0
  9
$PUCSORGBACK
 10
0.0
 20
0.0
 30
0.0
  9
$USERI1
 70
     0
  9
$USERI2
 70
     0
  9
$USERI3
 70
     0
  9
$USERI4
 70
     0
  9
$USERI5
 70
     0
  9
$USERR1
 40
0.0
  9
$USERR2
 40
0.0
  9
$USERR3
 40
0.0
  9
$USERR4
 40
0.0
  9
$USERR5
 40
0.0
  9
$WORLDVIEW
 70
     1
  9
$SHADEDGE
 70
     3
  9
$SHADEDIF
 70
    70
  9
$TILEMODE
 70
     1
  9
$MAXACTVP
 70
    64
  9
$PINSBASE
 10
0.0
 20
0.0
 30
0.0
  9
$PLIMCHECK
 70
     0
  9
$PEXTMIN
 10
1.000000000000000E+20
 20
1.000000000000000E+20
 30
1.000000000000000E+20
  9
$PEXTMAX
 10
-1.000000000000000E+20
 20
-1.000000000000000E+20
 30
-1.000000000000000E+20
  9
$PLIMMIN
 10
0.0
 20
0.0
  9
$PLIMMAX
 10
12.0
 20
9.0
  9
$UNITMODE
 70
     0
  9
$VISRETAIN
 70
     1
  9
$PLINEGEN
 70
     0
  9
$PSLTSCALE
 70
     1
  9
$TREEDEPTH
 70
  3020
  9
$CMLSTYLE
  2
Standard
  9
$CMLJUST
 70
     0
  9
$CMLSCALE
 40
1.0
  9
$PROXYGRAPHICS
 70
     1
  9
$MEASUREMENT
 70
     0
  9
$CELWEIGHT
370
    -1
  9
$ENDCAPS
280
     0
  9
$JOINSTYLE
280
     0
  9
$LWDISPLAY
290
     1
  9
$INSUNITS
 70
     4
  9
$HYPERLINKBASE
  1

  9
$STYLESHEET
  1

  9
$XEDIT
290
     1
  9
$CEPSNTYPE
380
     0
  9
$PSTYLEMODE
290
     1
  9
$FINGERPRINTGUID
  2
{AF7A734E-1565-D64B-96DD-C3D392CCC44A}
  9
$VERSIONGUID
  2
{B3159B96-DCA7-A347-97D2-6792E8471833}
  9
$EXTNAMES
290
     1
  9
$PSVPSCALE
 40
0.0
  9
$OLESTARTUP
290
     0
  9
$SORTENTS
280
   127
  9
$INDEXCTL
280
     0
  9
$HIDETEXT
280
     1
  9
$XCLIPFRAME
280
     2
  9
$HALOGAP
280
     0
  9
$OBSCOLOR
 70
   257
  9
$OBSLTYPE
280
     0
  9
$INTERSECTIONDISPLAY
280
     0
  9
$INTERSECTIONCOLOR
 70
   257
  9
$DIMASSOC
280
     2
  9
$PROJECTNAME
  1

  9
$CAMERADISPLAY
290
     0
  9
$LENSLENGTH
 40
50.0
  9
$CAMERAHEIGHT
 40
0.0
  9
$STEPSPERSEC
 40
2.0
  9
$STEPSIZE
 40
6.0
  9
$3DDWFPREC
 40
2.0
  9
$PSOLWIDTH
 40
0.25
  9
$PSOLHEIGHT
 40
4.0
  9
$LOFTANG1
 40
1.570796326794896
  9
$LOFTANG2
 40
1.570796326794896
  9
$LOFTMAG1
 40
0.0
  9
$LOFTMAG2
 40
0.0
  9
$LOFTPARAM
 70
     7
  9
$LOFTNORMALS
280
     1
  9
$LATITUDE
 40
37.795
  9
$LONGITUDE
 40
-122.394
  9
$NORTHDIRECTION
 40
0.0
  9
$TIMEZONE
 70
 -8000
  9
$LIGHTGLYPHDISPLAY
280
     1
  9
$TILEMODELIGHTSYNCH
280
     1
  9
$CMATERIAL
347
11
  9
$SOLIDHIST
280
     0
  9
$SHOWHIST
280
     1
  9
$DWFFRAME
280
     2
  9
$DGNFRAME
280
     0
  9
$REALWORLDSCALE
290
     1
  9
$INTERFERECOLOR
 62
     1
  9
$INTERFEREOBJVS
345
33
  9
$INTERFEREVPVS
346
30
  9
$CSHADOW
280
     0
  9
$SHADOWPLANELOCATION
 40
0.0
  0
ENDSEC
  0
SECTION
  2
CLASSES
  0
CLASS
  1
ACDBDICTIONARYWDFLT
  2
AcDbDictionaryWithDefault
  3
ObjectDBX Classes
 90
        0
 91
        1
280
     0
281
     0
  0
CLASS
  1
MATERIAL
  2
AcDbMaterial
  3
ObjectDBX Classes
 90
     1153
 91
        3
280
     0
281
     0
  0
CLASS
  1
VISUALSTYLE
  2
AcDbVisualStyle
  3
ObjectDBX Classes
 90
     4095
 91
       24
280
     0
281
     0
  0
CLASS
  1
SCALE
  2
AcDbScale
  3
ObjectDBX Classes
 90
     1153
 91
       17
280
     0
281
     0
  0
CLASS
  1
TABLESTYLE
  2
AcDbTableStyle
  3
ObjectDBX Classes
 90
     4095
 91
        1
280
     0
281
     0
  0
CLASS
  1
MLEADERSTYLE
  2
AcDbMLeaderStyle
  3
ACDB_MLEADERSTYLE_CLASS
 90
     4095
 91
        1
280
     0
281
     0
  0
CLASS
  1
ACDBSECTIONVIEWSTYLE
  2
AcDbSectionViewStyle
  3
ObjectDBX Classes
 90
     1025
 91
        1
280
     0
281
     0
  0
CLASS
  1
ACDBDETAILVIEWSTYLE
  2
AcDbDetailViewStyle
  3
ObjectDBX Classes
 90
     1025
 91
        1
280
     0
281
     0
  0
CLASS
  1
DICTIONARYVAR
  2
AcDbDictionaryVar
  3
ObjectDBX Classes
 90
        0
 91
        5
280
     0
281
     0
  0
CLASS
  1
CELLSTYLEMAP
  2
AcDbCellStyleMap
  3
ObjectDBX Classes
 90
     1152
 91
        1
280
     0
281
     0
  0
ENDSEC
  0
SECTION
  2
TABLES
  0
TABLE
  2
VPORT
  5
8
330
0
100
AcDbSymbolTable
 70
     1
  0
VPORT
  5
57
330
8
100
AcDbSymbolTableRecord
100
AcDbViewportTableRecord
  2
*Active
 70
     0
 10
0.0
 20
0.0
 11
1.0
 21
1.0
 12
0.0
 22
0.0
 13
0.0
 23
0.0
 14
1.0
 24
1.0
 15
0.0
 25
0.0
 16
0.0
 26
0.0
 36
1.0
 17
209.9999940135268
 27
148.5000011496697
 37
0.0
 40
302.9400023453262
 41
1.414141362880345
 42
50.0
 43
0.0
 44
0.0
 50
0.0
 51
0.0
 71
     0
 72
   100
 73
     1
 74
     0
 75
     1
 76
     0
 77
     0
 78
     0
281
     0
 65
     1
110
0.0
120
0.0
130
0.0
111
1.0
121
0.0
131
0.0
112
0.0
122
1.0
132
0.0
 79
     0
146
0.0
 60
     3
 61
     5
292
     1
282
     1
141
0.0
142
0.0
 63
   250
421
  3355443
  0
ENDTAB
  0
TABLE
  2
LTYPE
  5
5
330
0
100
AcDbSymbolTable
 70
     1
  0
LTYPE
  5
5B
330
5
100
AcDbSymbolTableRecord
100
AcDbLinetypeTableRecord
  2
ByBlock
 70
     0
  3

 72
    65
 73
     0
 40
0.0
  0
LTYPE
  5
5C
330
5
100
AcDbSymbolTableRecord
100
AcDbLinetypeTableRecord
  2
ByLayer
 70
     0
  3

 72
    65
 73
     0
 40
0.0
  0
LTYPE
  5
5D
330
5
100
AcDbSymbolTableRecord
100
AcDbLinetypeTableRecord
  2
Continuous
 70
     0
  3
Solid line
 72
    65
 73
     0
 40
0.0
  0
ENDTAB
  0
TABLE
  2
LAYER
  5
2
330
0
100
AcDbSymbolTable
 70
     2
  0
LAYER
  5
54
330
2
100
AcDbSymbolTableRecord
100
AcDbLayerTableRecord
  2
0
 70
     0
 62
     7
  6
Continuous
370
    -3
390
F
347
21
348
0
  0
LAYER
  5
78
330
2
100
AcDbSymbolTableRecord
100
AcDbLayerTableRecord
  2
Livello 1
 70
     0
 62
     7
  6
Continuous
370
     0
390
F
347
21
348
0
  0
ENDTAB
  0
TABLE
  2
STYLE
  5
3
330
0
100
AcDbSymbolTable
 70
     2
  0
STYLE
  5
55
330
3
100
AcDbSymbolTableRecord
100
AcDbTextStyleTableRecord
  2
Standard
 70
     0
 40
0.0
 41
1.0
 50
0.0
 71
     0
 42
0.2
  3
txt
  4

  0
STYLE
  5
5A
330
3
100
AcDbSymbolTableRecord
100
AcDbTextStyleTableRecord
  2
Annotative
 70
     0
 40
0.0
 41
1.0
 50
0.0
 71
     0
 42
0.2
  3
txt
  4

1001
AcadAnnotative
1000
AnnotativeData
1002
{
1070
     1
1070
     1
1002
}
  0
ENDTAB
  0
TABLE
  2
VIEW
  5
6
330
0
100
AcDbSymbolTable
 70
     0
  0
ENDTAB
  0
TABLE
  2
UCS
  5
7
330
0
100
AcDbSymbolTable
 70
     0
  0
ENDTAB
  0
TABLE
  2
APPID
  5
9
330
0
100
AcDbSymbolTable
 70
     2
  0
APPID
  5
56
330
9
100
AcDbSymbolTableRecord
100
AcDbRegAppTableRecord
  2
ACAD
 70
     0
  0
APPID
  5
5E
330
9
100
AcDbSymbolTableRecord
100
AcDbRegAppTableRecord
  2
AcadAnnotative
 70
     0
  0
ENDTAB
  0
TABLE
  2
DIMSTYLE
  5
A
330
0
100
AcDbSymbolTable
 70
     2
100
AcDbDimStyleTable
 71
     0
  0
DIMSTYLE
105
58
330
A
100
AcDbSymbolTableRecord
100
AcDbDimStyleTableRecord
  2
Standard
 70
     0
340
55
  0
DIMSTYLE
105
59
330
A
100
AcDbSymbolTableRecord
100
AcDbDimStyleTableRecord
  2
Annotative
 70
     0
340
55
1001
AcadAnnotative
1000
AnnotativeData
1002
{
1070
     1
1070
     1
1002
}
  0
ENDTAB
  0
TABLE
  2
BLOCK_RECORD
  5
1
330
0
100
AcDbSymbolTable
 70
     8
  0
BLOCK_RECORD
  5
70
330
1
100
AcDbSymbolTableRecord
100
AcDbBlockTableRecord
  2
*Model_Space
340
73
 70
     0
280
     1
281
     0
  0
BLOCK_RECORD
  5
6C
330
1
100
AcDbSymbolTableRecord
100
AcDbBlockTableRecord
  2
*Paper_Space
340
6F
 70
     0
280
     1
281
     0
  0
BLOCK_RECORD
  5
74
330
1
100
AcDbSymbolTableRecord
100
AcDbBlockTableRecord
  2
*Paper_Space0
340
77
 70
     0
280
     1
281
     0
  0
BLOCK_RECORD
  5
79
330
1
100
AcDbSymbolTableRecord
100
AcDbBlockTableRecord
  2
Block_0
340
0
102
{BLKREFS
331
7A
102
}
 70
     0
280
     1
281
     0
  0
BLOCK_RECORD
  5
86
330
1
100
AcDbSymbolTableRecord
100
AcDbBlockTableRecord
  2
Block_1
340
0
102
{BLKREFS
331
87
102
}
 70
     0
280
     1
281
     0
  0
BLOCK_RECORD
  5
8A
330
1
100
AcDbSymbolTableRecord
100
AcDbBlockTableRecord
  2
Block_2
340
0
102
{BLKREFS
331
8B
102
}
 70
     0
280
     1
281
     0
  0
BLOCK_RECORD
  5
A3
330
1
100
AcDbSymbolTableRecord
100
AcDbBlockTableRecord
  2
Block_3
340
0
102
{BLKREFS
331
A4
102
}
 70
     0
280
     1
281
     0
  0
BLOCK_RECORD
  5
A7
330
1
100
AcDbSymbolTableRecord
100
AcDbBlockTableRecord
  2
Block_4
340
0
102
{BLKREFS
331
A8
102
}
 70
     0
280
     1
281
     0
  0
BLOCK_RECORD
  5
BF
330
1
100
AcDbSymbolTableRecord
100
AcDbBlockTableRecord
  2
Block_5
340
0
102
{BLKREFS
331
C0
102
}
 70
     0
280
     1
281
     0
  0
BLOCK_RECORD
  5
C3
330
1
100
AcDbSymbolTableRecord
100
AcDbBlockTableRecord
  2
Block_6
340
0
102
{BLKREFS
331
C4
102
}
 70
     0
280
     1
281
     0
  0
ENDTAB
  0
ENDSEC
  0
SECTION
  2
BLOCKS
  0
BLOCK
  5
71
330
70
100
AcDbEntity
  8
0
100
AcDbBlockBegin
  2
*Model_Space
 70
     0
 10
0.0
 20
0.0
 30
0.0
  3
*Model_Space
  1

  0
ENDBLK
  5
72
330
70
100
AcDbEntity
  8
0
100
AcDbBlockEnd
  0
BLOCK
  5
6D
330
6C
100
AcDbEntity
 67
     1
  8
0
100
AcDbBlockBegin
  2
*Paper_Space
 70
     0
 10
0.0
 20
0.0
 30
0.0
  3
*Paper_Space
  1

  0
ENDBLK
  5
6E
330
6C
100
AcDbEntity
 67
     1
  8
0
100
AcDbBlockEnd
  0
BLOCK
  5
75
330
74
100
AcDbEntity
 67
     1
  8
0
100
AcDbBlockBegin
  2
*Paper_Space0
 70
     0
 10
0.0
 20
0.0
 30
0.0
  3
*Paper_Space0
  1

  0
ENDBLK
  5
76
330
74
100
AcDbEntity
 67
     1
  8
0
100
AcDbBlockEnd
  0
BLOCK
  5
7B
330
79
100
AcDbEntity
  8
0
100
AcDbBlockBegin
  2
Block_0
 70
     0
 10
0.0
 20
0.0
 30
0.0
  3
Block_0
  1

  0
LINE
  5
7D
330
79
100
AcDbEntity
  8
Livello 1
 62
    18
420
        0
370
     0
100
AcDbLine
 10
87.38234928913533
 20
205.1314927330053
 30
0.0
 11
87.38234928913533
 21
243.3869526572522
 31
0.0
  0
LINE
  5
7E
330
79
100
AcDbEntity
  8
Livello 1
 62
    18
420
        0
370
     0
100
AcDbLine
 10
144.7978907752968
 20
181.4323363804231
 30
0.0
 11
144.7978907752968
 21
243.3869526572522
 31
0.0
  0
LINE
  5
7F
330
79
100
AcDbEntity
  8
Livello 1
 62
    18
420
        0
370
     0
100
AcDbLine
 10
90.03862556749686
 20
242.2801726689221
 30
0.0
 11
142.1415714332417
 21
242.2801726689221
 31
0.0
  0
LWPOLYLINE
  5
80
330
79
100
AcDbEntity
  8
Livello 1
 62
    18
420
        0
370
     0
100
AcDbPolyline
 90
        4
 70
     0
 43
0.0
 10
87.38234928913533
 20
242.2801726689221
 10
90.03862556749686
 20
241.837434835374
 10
90.03862556749686
 20
242.7228889706235
 10
87.38234928913533
 20
242.2801726689221
  0
LWPOLYLINE
  5
81
330
79
100
AcDbEntity
  8
Livello 1
100
AcDbPolyline
 90
        4
 70
     0
 43
0.0
 10
87.38234928913533
 20
242.2801726689221
 10
90.03862556749686
 20
241.837434835374
 10
90.03862556749686
 20
242.7228889706235
 10
87.38234928913533
 20
242.2801726689221
  0
HATCH
  5
82
330
79
100
AcDbEntity
  8
Livello 1
 62
    18
420
        0
440
 33554687
100
AcDbHatch
 10
0.0
 20
0.0
 30
0.0
210
0.0
220
0.0
230
1.0
  2
SOLID
 70
     1
 71
     1
 91
        1
 92
        3
 72
     0
 73
     1
 93
        4
 10
87.38234928913533
 20
242.2801726689221
 10
90.03862556749686
 20
241.837434835374
 10
90.03862556749686
 20
242.7228889706235
 10
87.38234928913533
 20
242.2801726689221
 97
        0
 75
     2
 76
     1
 98
        1
 10
0.0
 20
0.0
450
        0
451
        0
460
0.0
461
0.0
452
        0
462
0.0
453
        0
470

  0
LWPOLYLINE
  5
83
330
79
100
AcDbEntity
  8
Livello 1
 62
    18
420
        0
370
     0
100
AcDbPolyline
 90
        4
 70
     0
 43
0.0
 10
144.7978907752968
 20
242.2801726689221
 10
142.1415714332417
 20
242.7228889706235
 10
142.1415714332417
 20
241.837434835374
 10
144.7978907752968
 20
242.2801726689221
  0
LWPOLYLINE
  5
84
330
79
100
AcDbEntity
  8
Livello 1
100
AcDbPolyline
 90
        4
 70
     0
 43
0.0
 10
144.7978907752968
 20
242.2801726689221
 10
142.1415714332417
 20
242.7228889706235
 10
142.1415714332417
 20
241.837434835374
 10
144.7978907752968
 20
242.2801726689221
  0
HATCH
  5
85
330
79
100
AcDbEntity
  8
Livello 1
 62
    18
420
        0
440
 33554687
100
AcDbHatch
 10
0.0
 20
0.0
 30
0.0
210
0.0
220
0.0
230
1.0
  2
SOLID
 70
     1
 71
     1
 91
        1
 92
        3
 72
     0
 73
     1
 93
        4
 10
144.7978907752968
 20
242.2801726689221
 10
142.1415714332417
 20
242.7228889706235
 10
142.1415714332417
 20
241.837434835374
 10
144.7978907752968
 20
242.2801726689221
 97
        0
 75
     2
 76
     1
 98
        1
 10
0.0
 20
0.0
450
        0
451
        0
460
0.0
461
0.0
452
        0
462
0.0
453
        0
470

  0
INSERT
  5
87
330
79
100
AcDbEntity
  8
Livello 1
100
AcDbBlockReference
  2
Block_1
 10
0.0
 20
0.0
 30
0.0
  0
LINE
  5
9A
330
79
100
AcDbEntity
  8
Livello 1
 62
    18
420
        0
370
     0
100
AcDbLine
 10
224.7314222704877
 20
134.1424042260401
 30
0.0
 11
255.0584901679081
 21
134.1424042260401
 31
0.0
  0
LINE
  5
9B
330
79
100
AcDbEntity
  8
Livello 1
 62
    18
420
        0
370
     0
100
AcDbLine
 10
215.8952906469915
 20
233.8249178831671
 30
0.0
 11
255.0584901679081
 21
233.8249178831671
 31
0.0
  0
LINE
  5
9C
330
79
100
AcDbEntity
  8
Livello 1
 62
    18
420
        0
370
     0
100
AcDbLine
 10
253.951710179578
 20
136.7986697384782
 30
0.0
 11
253.951710179578
 21
231.168598541112
 31
0.0
  0
LWPOLYLINE
  5
9D
330
79
100
AcDbEntity
  8
Livello 1
 62
    18
420
        0
370
     0
100
AcDbPolyline
 90
        4
 70
     0
 43
0.0
 10
253.951710179578
 20
134.1424042260401
 10
254.3944264812794
 20
136.7986697384782
 10
253.5089723460299
 20
136.7986697384782
 10
253.951710179578
 20
134.1424042260401
  0
LWPOLYLINE
  5
9E
330
79
100
AcDbEntity
  8
Livello 1
100
AcDbPolyline
 90
        4
 70
     0
 43
0.0
 10
253.951710179578
 20
134.1424042260401
 10
254.3944264812794
 20
136.7986697384782
 10
253.5089723460299
 20
136.7986697384782
 10
253.951710179578
 20
134.1424042260401
  0
HATCH
  5
9F
330
79
100
AcDbEntity
  8
Livello 1
 62
    18
420
        0
440
 33554687
100
AcDbHatch
 10
0.0
 20
0.0
 30
0.0
210
0.0
220
0.0
230
1.0
  2
SOLID
 70
     1
 71
     1
 91
        1
 92
        3
 72
     0
 73
     1
 93
        4
 10
253.951710179578
 20
134.1424042260401
 10
254.3944264812794
 20
136.7986697384782
 10
253.5089723460299
 20
136.7986697384782
 10
253.951710179578
 20
134.1424042260401
 97
        0
 75
     2
 76
     1
 98
        1
 10
0.0
 20
0.0
450
        0
451
        0
460
0.0
461
0.0
452
        0
462
0.0
453
        0
470

  0
LWPOLYLINE
  5
A0
330
79
100
AcDbEntity
  8
Livello 1
 62
    18
420
        0
370
     0
100
AcDbPolyline
 90
        4
 70
     0
 43
0.0
 10
253.951710179578
 20
233.8249178831671
 10
253.5089723460299
 20
231.168598541112
 10
254.3944264812794
 20
231.168598541112
 10
253.951710179578
 20
233.8249178831671
  0
LWPOLYLINE
  5
A1
330
79
100
AcDbEntity
  8
Livello 1
100
AcDbPolyline
 90
        4
 70
     0
 43
0.0
 10
253.951710179578
 20
233.8249178831671
 10
253.5089723460299
 20
231.168598541112
 10
254.3944264812794
 20
231.168598541112
 10
253.951710179578
 20
233.8249178831671
  0
HATCH
  5
A2
330
79
100
AcDbEntity
  8
Livello 1
 62
    18
420
        0
440
 33554687
100
AcDbHatch
 10
0.0
 20
0.0
 30
0.0
210
0.0
220
0.0
230
1.0
  2
SOLID
 70
     1
 71
     1
 91
        1
 92
        3
 72
     0
 73
     1
 93
        4
 10
253.951710179578
 20
233.8249178831671
 10
253.5089723460299
 20
231.168598541112
 10
254.3944264812794
 20
231.168598541112
 10
253.951710179578
 20
233.8249178831671
 97
        0
 75
     2
 76
     1
 98
        1
 10
0.0
 20
0.0
450
        0
451
        0
460
0.0
461
0.0
452
        0
462
0.0
453
        0
470

  0
INSERT
  5
A4
330
79
100
AcDbEntity
  8
Livello 1
100
AcDbBlockReference
  2
Block_3
 10
0.0
 20
0.0
 30
0.0
  0
LINE
  5
B6
330
79
100
AcDbEntity
  8
Livello 1
 62
    18
420
        0
370
     0
100
AcDbLine
 10
121.5645436300909
 20
52.69598675576046
 30
0.0
 11
157.2960297085329
 21
52.69609441499438
 31
0.0
  0
LINE
  5
B7
330
79
100
AcDbEntity
  8
Livello 1
 62
    18
420
        0
370
     0
100
AcDbLine
 10
121.123571407979
 20
105.6593344530231
 30
0.0
 11
157.2958466878353
 21
105.659442112257
 31
0.0
  0
LINE
  5
B8
330
79
100
AcDbEntity
  8
Livello 1
 62
    18
420
        0
370
     0
100
AcDbLine
 10
156.189217422433
 20
55.35237069335592
 30
0.0
 11
156.1890451676588
 21
103.0031658338955
 31
0.0
  0
LWPOLYLINE
  5
B9
330
79
100
AcDbEntity
  8
Livello 1
 62
    18
420
        0
370
     0
100
AcDbPolyline
 90
        4
 70
     0
 43
0.0
 10
156.189217422433
 20
52.69609441499438
 10
156.6319552559809
 20
55.35237069335592
 10
155.7465226525784
 20
55.35237069335592
 10
156.189217422433
 20
52.69609441499438
  0
LWPOLYLINE
  5
BA
330
79
100
AcDbEntity
  8
Livello 1
100
AcDbPolyline
 90
        4
 70
     0
 43
0.0
 10
156.189217422433
 20
52.69609441499438
 10
156.6319552559809
 20
55.35237069335592
 10
155.7465226525784
 20
55.35237069335592
 10
156.189217422433
 20
52.69609441499438
  0
HATCH
  5
BB
330
79
100
AcDbEntity
  8
Livello 1
 62
    18
420
        0
440
 33554687
100
AcDbHatch
 10
0.0
 20
0.0
 30
0.0
210
0.0
220
0.0
230
1.0
  2
SOLID
 70
     1
 71
     1
 91
        1
 92
        3
 72
     0
 73
     1
 93
        4
 10
156.189217422433
 20
52.69609441499438
 10
156.6319552559809
 20
55.35237069335592
 10
155.7465226525784
 20
55.35237069335592
 10
156.189217422433
 20
52.69609441499438
 97
        0
 75
     2
 76
     1
 98
        1
 10
0.0
 20
0.0
450
        0
451
        0
460
0.0
461
0.0
452
        0
462
0.0
453
        0
470

  0
LWPOLYLINE
  5
BC
330
79
100
AcDbEntity
  8
Livello 1
 62
    18
420
        0
370
     0
100
AcDbPolyline
 90
        4
 70
     0
 43
0.0
 10
156.1890451676588
 20
105.659442112257
 10
155.7463396318805
 20
103.0031658338955
 10
156.6317830012066
 20
103.0031658338955
 10
156.1890451676588
 20
105.659442112257
  0
LWPOLYLINE
  5
BD
330
79
100
AcDbEntity
  8
Livello 1
100
AcDbPolyline
 90
        4
 70
     0
 43
0.0
 10
156.1890451676588
 20
105.659442112257
 10
155.7463396318805
 20
103.0031658338955
 10
156.6317830012066
 20
103.0031658338955
 10
156.1890451676588
 20
105.659442112257
  0
HATCH
  5
BE
330
79
100
AcDbEntity
  8
Livello 1
 62
    18
420
        0
440
 33554687
100
AcDbHatch
 10
0.0
 20
0.0
 30
0.0
210
0.0
220
0.0
230
1.0
  2
SOLID
 70
     1
 71
     1
 91
        1
 92
        3
 72
     0
 73
     1
 93
        4
 10
156.1890451676588
 20
105.659442112257
 10
155.7463396318805
 20
103.0031658338955
 10
156.6317830012066
 20
103.0031658338955
 10
156.1890451676588
 20
105.659442112257
 97
        0
 75
     2
 76
     1
 98
        1
 10
0.0
 20
0.0
450
        0
451
        0
460
0.0
461
0.0
452
        0
462
0.0
453
        0
470

  0
INSERT
  5
C0
330
79
100
AcDbEntity
  8
Livello 1
100
AcDbBlockReference
  2
Block_5
 10
0.0
 20
0.0
 30
0.0
  0
LINE
  5
D2
330
79
100
AcDbEntity
  8
Livello 1
 62
    18
420
        0
370
     0
100
AcDbLine
 10
134.7361341351527
 20
134.1424042260401
 30
0.0
 11
97.6367513624452
 21
134.1424042260401
 31
0.0
  0
LINE
  5
D3
330
79
100
AcDbEntity
  8
Livello 1
 62
    18
420
        0
370
     0
100
AcDbLine
 10
136.1454150389346
 20
134.5938516916119
 30
0.0
 11
96.22743816089323
 21
134.5938516916119
 31
0.0
  0
LINE
  5
D4
330
79
100
AcDbEntity
  8
Livello 1
 62
    18
420
        0
370
     0
100
AcDbLine
 10
96.28822256436144
 20
135.8334724086686
 30
0.0
 11
136.0846306354667
 21
135.8334724086686
 31
0.0
  0
LINE
  5
D5
330
79
100
AcDbEntity
  8
Livello 1
 62
    18
420
        0
370
     0
100
AcDbLine
 10
87.38248924613941
 20
202.236169891661
 30
0.0
 11
87.38248924613941
 21
202.3384031001858
 31
0.0
  0
LINE
  5
D6
330
79
100
AcDbEntity
  8
Livello 1
 62
    18
420
        0
370
     0
100
AcDbLine
 10
87.38234928913533
 20
169.6037302228989
 30
0.0
 11
87.38234928913533
 21
205.0208190405417
 31
0.0
  0
LWPOLYLINE
  5
D7
330
79
100
AcDbEntity
  8
Livello 1
 62
    18
420
        0
370
     0
100
AcDbPolyline
 90
        3
 70
     0
 43
0.0
 10
87.38234928913533
 20
202.236169891661
 10
87.38248924613941
 20
202.3062560529391
 10
87.38234928913533
 20
202.3384031001858
  0
LINE
  5
D8
330
79
100
AcDbEntity
  8
Livello 1
 62
    18
420
        0
370
     0
100
AcDbLine
 10
87.38220933213122
 20
174.0159178404749
 30
0.0
 11
87.43121043244721
 21
174.016413072951
 31
0.0
  0
LINE
  5
D9
330
79
100
AcDbEntity
  8
Livello 1
 62
    18
420
        0
370
     0
100
AcDbLine
 10
87.57524772150082
 20
174.0179633659193
 30
0.0
 11
87.38220933213122
 21
174.0159178404749
 31
0.0
  0
LWPOLYLINE
  5
DA
330
79
100
AcDbEntity
  8
Livello 1
 62
    18
420
        0
370
     0
100
AcDbPolyline
 90
        6
 70
     0
 43
0.0
 10
87.57524772150082
 20
174.0179633659193
 10
87.54501700861776
 20
174.017898770379
 10
87.51756928693138
 20
174.0177480474515
 10
87.49206481441714
 20
174.0174358356731
 10
87.46987624630746
 20
174.0170805602012
 10
87.43121043244721
 20
174.016413072951
  0
LINE
  5
DB
330
79
100
AcDbEntity
  8
Livello 1
 62
    18
420
        0
370
     0
100
AcDbLine
 10
97.6367513624452
 20
134.5938516916119
 30
0.0
 11
97.6367513624452
 21
134.1424042260401
 31
0.0
  0
LINE
  5
DC
330
79
100
AcDbEntity
  8
Livello 1
 62
    18
420
        0
370
     0
100
AcDbLine
 10
96.22743816089323
 20
134.5938516916119
 30
0.0
 11
96.28822256436144
 21
135.8334724086686
 31
0.0
  0
LINE
  5
DD
330
79
100
AcDbEntity
  8
Livello 1
 62
    18
420
        0
370
     0
100
AcDbLine
 10
111.8740929217931
 20
200.4672210192191
 30
0.0
 11
111.9223134926628
 21
200.5359506741499
 31
0.0
  0
LINE
  5
DE
330
79
100
AcDbEntity
  8
Livello 1
 62
    18
420
        0
370
     0
100
AcDbLine
 10
90.65725705741382
 20
187.3122530998733
 30
0.0
 11
90.44802133630184
 21
187.3122530998733
 31
0.0
  0
LINE
  5
DF
330
79
100
AcDbEntity
  8
Livello 1
 62
    18
420
        0
370
     0
100
AcDbLine
 10
141.7155961424143
 20
187.3122530998733
 30
0.0
 11
141.9249287568365
 21
187.3122530998733
 31
0.0
  0
LINE
  5
E0
330
79
100
AcDbEntity
  8
Livello 1
 62
    18
420
        0
370
     0
100
AcDbLine
 10
112.5783780982117
 20
199.8906196942222
 30
0.0
 11
112.6273415177958
 21
199.9604259414921
 31
0.0
  0
LINE
  5
E1
330
79
100
AcDbEntity
  8
Livello 1
 62
    18
420
        0
370
     0
100
AcDbLine
 10
119.7455870434957
 20
210.1072441423517
 30
0.0
 11
119.7945504630798
 21
210.177007325928
 31
0.0
  0
LINE
  5
E2
330
79
100
AcDbEntity
  8
Livello 1
 62
    18
420
        0
370
     0
100
AcDbLine
 10
120.4506150686286
 20
209.5316763460003
 30
0.0
 11
120.4988033417289
 21
209.6004060009311
 31
0.0
  0
LINE
  5
E3
330
79
100
AcDbEntity
  8
Livello 1
 62
    18
420
        0
370
     0
100
AcDbLine
 10
136.1454150389346
 20
134.5938516916119
 30
0.0
 11
136.0846306354667
 21
135.8334724086686
 31
0.0
  0
LINE
  5
E4
330
79
100
AcDbEntity
  8
Livello 1
 62
    18
420
        0
370
     0
100
AcDbLine
 10
134.7361341351527
 20
134.5938516916119
 30
0.0
 11
134.7361341351527
 21
134.1424042260401
 31
0.0
  0
LINE
  5
E5
330
79
100
AcDbEntity
  8
Livello 1
 62
    18
420
        0
370
     0
100
AcDbLine
 10
145.0018619598704
 20
205.0211204863966
 30
0.0
 11
145.0077832177357
 21
204.8190225724932
 31
0.0
  0
LINE
  5
E6
330
79
100
AcDbEntity
  8
Livello 1
 62
    18
420
        0
370
     0
100
AcDbLine
 10
144.9906115699264
 20
205.0210989545498
 30
0.0
 11
144.9911391001726
 21
204.8190225724932
 31
0.0
  0
LINE
  5
E7
330
79
100
AcDbEntity
  8
Livello 1
 62
    18
420
        0
370
     0
100
AcDbLine
 10
144.9905362084626
 20
205.0208190405417
 30
0.0
 11
144.9905362084626
 21
169.6037302228989
 31
0.0
  0
LINE
  5
E8
330
79
100
AcDbEntity
  8
Livello 1
 62
    18
420
        0
370
     0
100
AcDbLine
 10
144.9903639536884
 20
202.1675048322706
 30
0.0
 11
144.9903639536884
 21
202.012217153273
 31
0.0
  0
LWPOLYLINE
  5
E9
330
79
100
AcDbEntity
  8
Livello 1
 62
    18
420
        0
370
     0
100
AcDbPolyline
 90
        3
 70
     0
 43
0.0
 10
144.9905362084626
 20
202.1675048322706
 10
144.9903639536884
 20
202.1444226925195
 10
144.9905362084626
 20
202.012217153273
  0
LINE
  5
EA
330
79
100
AcDbEntity
  8
Livello 1
 62
    18
420
        0
370
     0
100
AcDbLine
 10
144.9896857005147
 20
169.471083280793
 30
0.0
 11
144.9888782562604
 21
169.385677210529
 31
0.0
  0
LINE
  5
EB
330
79
100
AcDbEntity
  8
Livello 1
 62
    18
420
        0
370
     0
100
AcDbLine
 10
144.9896857005147
 20
169.471083280793
 30
0.0
 11
144.98633749834
 21
169.385677210529
 31
0.0
  0
LINE
  5
EC
330
79
100
AcDbEntity
  8
Livello 1
 62
    18
420
        0
370
     0
100
AcDbLine
 10
224.620748578024
 20
134.1424042260401
 30
0.0
 11
188.6512386993211
 21
134.1424042260401
 31
0.0
  0
LINE
  5
ED
330
79
100
AcDbEntity
  8
Livello 1
 62
    18
420
        0
370
     0
100
AcDbLine
 10
226.0300294818058
 20
134.5938516916119
 30
0.0
 11
186.7277988262126
 21
134.5938516916119
 31
0.0
  0
LINE
  5
EE
330
79
100
AcDbEntity
  8
Livello 1
 62
    18
420
        0
370
     0
100
AcDbLine
 10
186.8955319126507
 20
140.2605923619889
 30
0.0
 11
187.3157043707704
 21
140.2605923619889
 31
0.0
  0
LINE
  5
EF
330
79
100
AcDbEntity
  8
Livello 1
 62
    18
420
        0
370
     0
100
AcDbLine
 10
211.8612130248446
 20
146.0024361139443
 30
0.0
 11
212.6004874522856
 21
145.7949337064983
 31
0.0
  0
LWPOLYLINE
  5
F0
330
79
100
AcDbEntity
  8
Livello 1
 62
    18
420
        0
370
     0
100
AcDbPolyline
 90
        3
 70
     0
 43
0.0
 10
212.6004874522856
 20
145.7949337064983
 10
213.3314290550218
 20
145.5891861445651
 10
214.051454011439
 20
145.3854302784594
  0
LWPOLYLINE
  5
F1
330
79
100
AcDbEntity
  8
Livello 1
 62
    18
420
        0
370
     0
100
AcDbPolyline
 90
        4
 70
     0
 43
0.0
 10
221.0950593902662
 20
143.3495080377574
 10
220.5824076502142
 20
143.4938360067426
 10
220.0418291048849
 20
143.6458077813357
 10
219.4748094517064
 20
143.8054771911536
  0
LWPOLYLINE
  5
F2
330
79
100
AcDbEntity
  8
Livello 1
 62
    18
420
        0
370
     0
100
AcDbPolyline
 90
        3
 70
     0
 43
0.0
 10
222.4564965304966
 20
142.9659720169386
 10
221.5788153919356
 20
143.2130607246948
 10
221.0950593902662
 20
143.3495080377574
  0
LINE
  5
F3
330
79
100
AcDbEntity
  8
Livello 1
 62
    18
420
        0
370
     0
100
AcDbLine
 10
205.1634306371961
 20
147.8893041452922
 30
0.0
 11
205.8922405871007
 21
147.684051815835
 31
0.0
  0
LWPOLYLINE
  5
F4
330
79
100
AcDbEntity
  8
Livello 1
 62
    18
420
        0
370
     0
100
AcDbPolyline
 90
        3
 70
     0
 43
0.0
 10
195.8774772025601
 20
150.5051866790892
 10
196.697366864356
 20
150.2743652815774
 10
197.1507844939084
 20
150.1465199413048
  0
LINE
  5
F5
330
79
100
AcDbEntity
  8
Livello 1
 62
    18
420
        0
370
     0
100
AcDbLine
 10
194.1900263701912
 20
150.9806206219771
 30
0.0
 11
194.617627315451
 21
150.860225300691
 31
0.0
  0
LINE
  5
F6
330
79
100
AcDbEntity
  8
Livello 1
 62
    18
420
        0
370
     0
100
AcDbLine
 10
224.8483617303651
 20
142.2920575104068
 30
0.0
 11
221.0831738108421
 21
143.3527593466216
 31
0.0
  0
LINE
  5
F7
330
79
100
AcDbEntity
  8
Livello 1
 62
    18
420
        0
370
     0
100
AcDbLine
 10
221.0831738108421
 20
143.3527593466216
 30
0.0
 11
220.6926507057422
 21
143.4627870836818
 31
0.0
  0
LINE
  5
F8
330
79
100
AcDbEntity
  8
Livello 1
 62
    18
420
        0
370
     0
100
AcDbLine
 10
219.3720164151653
 20
143.8348573960888
 30
0.0
 11
218.882791324413
 21
143.9727258110391
 31
0.0
  0
LINE
  5
F9
330
79
100
AcDbEntity
  8
Livello 1
 62
    18
420
        0
370
     0
100
AcDbLine
 10
220.6926507057422
 20
143.4627870836818
 30
0.0
 11
219.3720164151653
 21
143.8348573960888
 31
0.0
  0
LWPOLYLINE
  5
FA
330
79
100
AcDbEntity
  8
Livello 1
 62
    18
420
        0
370
     0
100
AcDbPolyline
 90
        3
 70
     0
 43
0.0
 10
194.8825120945732
 20
150.7855420901248
 10
195.5130291639142
 20
150.6079474178602
 10
195.8774772025601
 20
150.5051866790892
  0
LINE
  5
FB
330
79
100
AcDbEntity
  8
Livello 1
 62
    18
420
        0
370
     0
100
AcDbLine
 10
193.7399677087369
 20
151.1074431995281
 30
0.0
 11
196.272758845799
 21
150.393920860839
 31
0.0
  0
LINE
  5
FC
330
79
100
AcDbEntity
  8
Livello 1
 62
    18
420
        0
370
     0
100
AcDbLine
 10
196.3039154280937
 20
150.3851358673516
 30
0.0
 11
214.051454011439
 21
145.3854302784594
 31
0.0
  0
LINE
  5
FD
330
79
100
AcDbEntity
  8
Livello 1
 62
    18
420
        0
370
     0
100
AcDbLine
 10
222.8482900145566
 20
142.8554813451726
 30
0.0
 11
222.4564965304966
 21
142.9659720169386
 31
0.0
  0
LWPOLYLINE
  5
FE
330
79
100
AcDbEntity
  8
Livello 1
 62
    18
420
        0
370
     0
100
AcDbPolyline
 90
        6
 70
     0
 43
0.0
 10
224.6311484600202
 20
142.3532294871167
 10
224.300139379428
 20
142.4465808088436
 10
224.0796963320656
 20
142.5085925275781
 10
223.823682673818
 20
142.5806703846836
 10
223.5326797645483
 20
142.662760550543
 10
223.2073550915067
 20
142.7543354949104
  0
LINE
  5
FF
330
79
100
AcDbEntity
  8
Livello 1
 62
    18
420
        0
370
     0
100
AcDbLine
 10
193.9023178334793
 20
151.0616880251143
 30
0.0
 11
194.1900263701912
 21
150.9806206219771
 31
0.0
  0
LWPOLYLINE
  5
100
330
79
100
AcDbEntity
  8
Livello 1
 62
    18
420
        0
370
     0
100
AcDbPolyline
 90
       12
 70
     0
 43
0.0
 10
198.1432949713621
 20
149.8669719745233
 10
198.6803207619722
 20
149.7155600279465
 10
199.2415052846727
 20
149.5575916340244
 10
199.824609227398
 20
149.3934005363821
 10
200.4290512302851
 20
149.2229759690965
 10
201.0548097614872
 20
149.0467270372555
 10
201.7013034611411
 20
148.8646645067834
 10
202.3660776987136
 20
148.677229780539
 10
203.0465486525908
 20
148.4856394078659
 10
203.7400463737716
 20
148.2903778553156
 10
204.4456665246911
 20
148.0913697614255
 10
205.1634306371961
 20
147.8893041452922
  0
LWPOLYLINE
  5
101
330
79
100
AcDbEntity
  8
Livello 1
 62
    18
420
        0
370
     0
100
AcDbPolyline
 90
        9
 70
     0
 43
0.0
 10
205.8922405871007
 20
147.684051815835
 10
206.6293402980167
 20
147.476161835147
 10
207.3725981171126
 20
147.2669368799584
 10
208.1192149043066
 20
147.0567106938944
 10
208.8678126214046
 20
146.845537106572
 10
209.6183482047131
 20
146.6342989237093
 10
210.3688837880215
 20
146.4229853793827
 10
211.1167278904821
 20
146.2119517490644
 10
211.8612130248446
 20
146.0024361139443
  0
LINE
  5
102
330
79
100
AcDbEntity
  8
Livello 1
 62
    18
420
        0
370
     0
100
AcDbLine
 10
219.4748094517064
 20
143.8054771911536
 30
0.0
 11
218.882791324413
 21
143.9727258110391
 31
0.0
  0
LINE
  5
103
330
79
100
AcDbEntity
  8
Livello 1
 62
    18
420
        0
370
     0
100
AcDbLine
 10
187.0082511305587
 20
181.4918934686244
 30
0.0
 11
187.0082511305587
 21
181.4925178921811
 31
0.0
  0
LINE
  5
104
330
79
100
AcDbEntity
  8
Livello 1
 62
    18
420
        0
370
     0
100
AcDbLine
 10
187.0082511305587
 20
169.6037302228989
 30
0.0
 11
187.0082511305587
 21
171.4652337387363
 31
0.0
  0
LINE
  5
105
330
79
100
AcDbEntity
  8
Livello 1
 62
    18
420
        0
370
     0
100
AcDbLine
 10
187.0082511305587
 20
171.7911613034877
 30
0.0
 11
187.0082511305587
 21
172.8220522978321
 31
0.0
  0
LINE
  5
106
330
79
100
AcDbEntity
  8
Livello 1
 62
    18
420
        0
370
     0
100
AcDbLine
 10
187.0082511305587
 20
173.7858715894474
 30
0.0
 11
187.0082511305587
 21
181.4925178921811
 31
0.0
  0
LINE
  5
107
330
79
100
AcDbEntity
  8
Livello 1
 62
    18
420
        0
370
     0
100
AcDbLine
 10
187.0082511305587
 20
182.5715217981614
 30
0.0
 11
187.0082511305587
 21
183.2100056508121
 31
0.0
  0
LINE
  5
108
330
79
100
AcDbEntity
  8
Livello 1
 62
    18
420
        0
370
     0
100
AcDbLine
 10
187.0082511305587
 20
184.2641618056049
 30
0.0
 11
187.0082511305587
 21
205.0208190405417
 31
0.0
  0
LINE
  5
109
330
79
100
AcDbEntity
  8
Livello 1
 62
    18
420
        0
370
     0
100
AcDbLine
 10
187.0082511305587
 20
181.4925178921811
 30
0.0
 11
187.0096937642932
 21
181.5939974860685
 31
0.0
  0
LINE
  5
10A
330
79
100
AcDbEntity
  8
Livello 1
 62
    18
420
        0
370
     0
100
AcDbLine
 10
187.0082511305587
 20
182.5715002663146
 30
0.0
 11
187.0082511305587
 21
182.5721246898713
 31
0.0
  0
LINE
  5
10B
330
79
100
AcDbEntity
  8
Livello 1
 62
    18
420
        0
370
     0
100
AcDbLine
 10
187.0092415955107
 20
181.5361844774567
 30
0.0
 11
187.0102320604627
 21
181.5908107727446
 31
0.0
  0
LINE
  5
10C
330
79
100
AcDbEntity
  8
Livello 1
 62
    18
420
        0
370
     0
100
AcDbLine
 10
187.0102320604627
 20
181.5908107727446
 30
0.0
 11
187.0082511305587
 21
181.4918934686244
 31
0.0
  0
LINE
  5
10D
330
79
100
AcDbEntity
  8
Livello 1
 62
    18
420
        0
370
     0
100
AcDbLine
 10
187.0082511305587
 20
181.4918934686244
 30
0.0
 11
187.0092415955107
 21
181.5361844774567
 31
0.0
  0
LINE
  5
10E
330
79
100
AcDbEntity
  8
Livello 1
 62
    18
420
        0
370
     0
100
AcDbLine
 10
188.6512386993211
 20
134.5938516916119
 30
0.0
 11
188.6512386993211
 21
134.1424042260401
 31
0.0
  0
LINE
  5
10F
330
79
100
AcDbEntity
  8
Livello 1
 62
    18
420
        0
370
     0
100
AcDbLine
 10
187.3442125359109
 20
177.7281589487591
 30
0.0
 11
187.3529975293983
 21
177.7311626413854
 31
0.0
  0
LINE
  5
110
330
79
100
AcDbEntity
  8
Livello 1
 62
    18
420
        0
370
     0
100
AcDbLine
 10
187.3355567335042
 20
176.6508560586747
 30
0.0
 11
187.3442125359109
 21
176.6538489853775
 31
0.0
  0
LINE
  5
111
330
79
100
AcDbEntity
  8
Livello 1
 62
    18
420
        0
370
     0
100
AcDbLine
 10
215.7846169545278
 20
144.874005853674
 30
0.0
 11
215.7846169545278
 21
233.8243149914571
 31
0.0
  0
LINE
  5
112
330
79
100
AcDbEntity
  8
Livello 1
 62
    18
420
        0
370
     0
100
AcDbLine
 10
215.7846169545278
 20
144.8234921411216
 30
0.0
 11
215.7846169545278
 21
233.8261451984337
 31
0.0
  0
LINE
  5
113
330
79
100
AcDbEntity
  8
Livello 1
 62
    18
420
        0
370
     0
100
AcDbLine
 10
228.9658537269486
 20
144.4870462692168
 30
0.0
 11
228.9497263737083
 21
144.5671985688658
 31
0.0
  0
LINE
  5
114
330
79
100
AcDbEntity
  8
Livello 1
 62
    18
420
        0
370
     0
100
AcDbLine
 10
228.9447740489483
 20
144.5671985688658
 30
0.0
 11
228.9497263737083
 21
144.5919278948958
 31
0.0
  0
LWPOLYLINE
  5
115
330
79
100
AcDbEntity
  8
Livello 1
 62
    18
420
        0
370
     0
100
AcDbPolyline
 90
       30
 70
     0
 43
0.0
 10
228.9447740489483
 20
144.5919278948958
 10
228.9397786604947
 20
144.6176799836481
 10
228.9372379025743
 20
144.6309758990365
 10
228.9346971446539
 20
144.6445947921266
 10
228.9321563867336
 20
144.6584613014547
 10
228.9295725651196
 20
144.6726723203314
 10
228.9270102753524
 20
144.6871740191396
 10
228.9244695174321
 20
144.7019879297262
 10
228.9219287595117
 20
144.7171571157847
 10
228.9193880015913
 20
144.7326492795449
 10
228.916847243671
 20
144.7484859528537
 10
228.914371081291
 20
144.7646456038642
 10
228.9118949189109
 20
144.7811497644232
 10
228.909504883918
 20
144.7980199663775
 10
228.9071363807719
 20
144.8152346778804
 10
228.9048540050129
 20
144.8328046648551
 10
228.9025931611007
 20
144.8507514591486
 10
228.9003969127289
 20
144.8690642948374
 10
228.8983298554377
 20
144.8877647037683
 10
228.8963058618401
 20
144.9068849837114
 10
228.8944110593233
 20
144.9264681983604
 10
228.8925808523467
 20
144.9464605180982
 10
228.8908367727573
 20
144.9669588362354
 10
228.8891788205551
 20
144.9879523868487
 10
228.8876285275867
 20
145.0094734677081
 10
228.8861428301586
 20
145.0314144195798
 10
228.8847863238114
 20
145.0538506039275
 10
228.8834728811576
 20
145.0767820207512
 10
228.8822670977378
 20
145.1002086700509
 10
228.881147441705
 20
145.1241197859032
  0
LINE
  5
116
330
79
100
AcDbEntity
  8
Livello 1
 62
    18
420
        0
370
     0
100
AcDbLine
 10
226.0300294818058
 20
134.5938516916119
 30
0.0
 11
225.969245078338
 21
135.8334724086686
 31
0.0
  0
LINE
  5
117
330
79
100
AcDbEntity
  8
Livello 1
 62
    18
420
        0
370
     0
100
AcDbLine
 10
224.620748578024
 20
134.5938516916119
 30
0.0
 11
224.620748578024
 21
134.1424042260401
 31
0.0
  0
LWPOLYLINE
  5
118
330
79
100
AcDbEntity
  8
Livello 1
 62
    18
420
        0
370
     0
100
AcDbPolyline
 90
       28
 70
     0
 43
0.0
 10
228.9910675195313
 20
230.2910250617849
 10
228.9917780704751
 20
230.2969247878034
 10
228.9924024940318
 20
230.3026737908944
 10
228.9930053857418
 20
230.3083797302918
 10
228.9935652137581
 20
230.314021074149
 10
228.9941035099277
 20
230.3195762906189
 10
228.9945987424037
 20
230.3250669115485
 10
228.9950509111861
 20
230.330471405091
 10
228.9955030799686
 20
230.3358328349399
 10
228.9958906532107
 20
230.3411296692485
 10
228.9962566946059
 20
230.3463403761699
 10
228.9966012041545
 20
230.3514649557043
 10
228.9968811181627
 20
230.3565034078514
 10
228.9971610321709
 20
230.3614772644583
 10
228.9974194143323
 20
230.3663434618312
 10
228.9976347328001
 20
230.371123531817
 10
228.9978069875743
 20
230.3757959425688
 10
228.9979577105018
 20
230.3803822259336
 10
228.9980869015825
 20
230.3849039137579
 10
228.9981945608164
 20
230.3893179423484
 10
228.9982591563568
 20
230.393624311705
 10
228.9983452837439
 20
230.3978445536744
 10
228.9983668155907
 20
230.4020217319503
 10
228.9983668155907
 20
230.4060481872987
 10
228.9983668155907
 20
230.4100100471067
 10
228.9983668155907
 20
230.4139073113744
 10
228.9983452837439
 20
230.4176753845614
 10
228.99823762451
 20
230.4249746806207
  0
LINE
  5
119
330
79
100
AcDbEntity
  8
Livello 1
 62
    18
420
        0
370
     0
100
AcDbLine
 10
228.9896248857969
 20
230.2790748868204
 30
0.0
 11
228.9910675195313
 21
230.2910250617849
 31
0.0
  0
LINE
  5
11A
330
79
100
AcDbEntity
  8
Livello 1
 62
    18
420
        0
370
     0
100
AcDbLine
 10
228.9880315291349
 20
230.2668017341542
 30
0.0
 11
228.9896248857969
 21
230.2790748868204
 31
0.0
  0
LINE
  5
11B
330
79
100
AcDbEntity
  8
Livello 1
 62
    18
420
        0
370
     0
100
AcDbLine
 10
228.9862659176987
 20
230.2541194763992
 30
0.0
 11
228.9880315291349
 21
230.2668017341542
 31
0.0
  0
LINE
  5
11C
330
79
100
AcDbEntity
  8
Livello 1
 62
    18
420
        0
370
     0
100
AcDbLine
 10
228.9843711151819
 20
230.2411573046359
 30
0.0
 11
228.9862659176987
 21
230.2541194763992
 31
0.0
  0
LINE
  5
11D
330
79
100
AcDbEntity
  8
Livello 1
 62
    18
420
        0
370
     0
100
AcDbLine
 10
228.9822825260439
 20
230.2277429640902
 30
0.0
 11
228.9843711151819
 21
230.2411573046359
 31
0.0
  0
LINE
  5
11E
330
79
100
AcDbEntity
  8
Livello 1
 62
    18
420
        0
370
     0
100
AcDbLine
 10
228.9800647458253
 20
230.213984113996
 30
0.0
 11
228.9822825260439
 21
230.2277429640902
 31
0.0
  0
LINE
  5
11F
330
79
100
AcDbEntity
  8
Livello 1
 62
    18
420
        0
370
     0
100
AcDbLine
 10
228.9209382945597
 20
229.9022029725809
 30
0.0
 11
228.9245341129724
 21
229.9235840964362
 31
0.0
  0
LINE
  5
120
330
79
100
AcDbEntity
  8
Livello 1
 62
    18
420
        0
370
     0
100
AcDbLine
 10
228.9776531789856
 20
230.1998376906597
 30
0.0
 11
228.9800647458253
 21
230.213984113996
 31
0.0
  0
LINE
  5
121
330
79
100
AcDbEntity
  8
Livello 1
 62
    18
420
        0
370
     0
100
AcDbLine
 10
228.9245341129724
 20
229.9235840964362
 30
0.0
 11
228.9281729950787
 21
229.9443623285816
 31
0.0
  0
LINE
  5
122
330
79
100
AcDbEntity
  8
Livello 1
 62
    18
420
        0
370
     0
100
AcDbLine
 10
228.9750478255249
 20
230.1852606303877
 30
0.0
 11
228.9776531789856
 21
230.1998376906597
 31
0.0
  0
LINE
  5
123
330
79
100
AcDbEntity
  8
Livello 1
 62
    18
420
        0
370
     0
100
AcDbLine
 10
228.9281729950787
 20
229.9443623285816
 30
0.0
 11
228.931811877185
 21
229.9645376690171
 31
0.0
  0
LINE
  5
124
330
79
100
AcDbEntity
  8
Livello 1
 62
    18
420
        0
370
     0
100
AcDbLine
 10
228.9723348128303
 20
230.1703821242608
 30
0.0
 11
228.9750478255249
 21
230.1852606303877
 31
0.0
  0
LINE
  5
125
330
79
100
AcDbEntity
  8
Livello 1
 62
    18
420
        0
370
     0
100
AcDbLine
 10
228.931811877185
 20
229.9645376690171
 30
0.0
 11
228.9354722911381
 21
229.9841962451298
 31
0.0
  0
LINE
  5
126
330
79
100
AcDbEntity
  8
Livello 1
 62
    18
420
        0
370
     0
100
AcDbLine
 10
228.9694495453614
 20
230.1552021722789
 30
0.0
 11
228.9723348128303
 21
230.1703821242608
 31
0.0
  0
LINE
  5
127
330
79
100
AcDbEntity
  8
Livello 1
 62
    18
420
        0
370
     0
100
AcDbLine
 10
228.9354722911381
 20
229.9841962451298
 30
0.0
 11
228.9391111732444
 21
230.0032734613794
 31
0.0
  0
LINE
  5
128
330
79
100
AcDbEntity
  8
Livello 1
 62
    18
420
        0
370
     0
100
AcDbLine
 10
228.9391111732444
 20
230.0032734613794
 30
0.0
 11
228.9427285235039
 21
230.0218339133062
 31
0.0
  0
LINE
  5
129
330
79
100
AcDbEntity
  8
Livello 1
 62
    18
420
        0
370
     0
100
AcDbLine
 10
228.9648847938434
 20
230.1319693096003
 30
0.0
 11
228.9694495453614
 21
230.1552021722789
 31
0.0
  0
LINE
  5
12A
330
79
100
AcDbEntity
  8
Livello 1
 62
    18
420
        0
370
     0
100
AcDbLine
 10
228.9427285235039
 20
230.0218339133062
 30
0.0
 11
228.9480899533528
 21
230.0488133173251
 31
0.0
  0
LWPOLYLINE
  5
12B
330
79
100
AcDbEntity
  8
Livello 1
 62
    18
420
        0
370
     0
100
AcDbPolyline
 90
        3
 70
     0
 43
0.0
 10
228.9480899533528
 20
230.0488133173251
 10
228.9550447398637
 20
230.0831996766372
 10
228.9648847938434
 20
230.1319693096003
  0
LINE
  5
12C
330
79
100
AcDbEntity
  8
Livello 1
 62
    18
420
        0
370
     0
100
AcDbLine
 10
228.9966873315417
 20
230.4562389221494
 30
0.0
 11
228.9969887773966
 21
230.4613850335305
 31
0.0
  0
LINE
  5
12D
330
79
100
AcDbEntity
  8
Livello 1
 62
    18
420
        0
370
     0
100
AcDbLine
 10
228.9969887773966
 20
230.450726769373
 30
0.0
 11
228.9973117550983
 21
230.4562389221494
 31
0.0
  0
LINE
  5
12E
330
79
100
AcDbEntity
  8
Livello 1
 62
    18
420
        0
370
     0
100
AcDbLine
 10
228.8330237641455
 20
146.6885484116786
 30
0.0
 11
228.8286527992486
 21
146.7813722031593
 31
0.0
  0
LINE
  5
12F
330
79
100
AcDbEntity
  8
Livello 1
 62
    18
420
        0
370
     0
100
AcDbLine
 10
228.8263919553364
 20
146.7813722031593
 30
0.0
 11
228.8286527992486
 21
146.8286453727709
 31
0.0
  0
LINE
  5
130
330
79
100
AcDbEntity
  8
Livello 1
 62
    18
420
        0
370
     0
100
AcDbLine
 10
228.8263919553364
 20
146.8286453727709
 30
0.0
 11
228.8219133312055
 21
146.9249896212006
 31
0.0
  0
LINE
  5
131
330
79
100
AcDbEntity
  8
Livello 1
 62
    18
420
        0
370
     0
100
AcDbLine
 10
228.8393110634061
 20
146.5535760301205
 30
0.0
 11
228.8330237641455
 21
146.6885484116786
 31
0.0
  0
LINE
  5
132
330
79
100
AcDbEntity
  8
Livello 1
 62
    18
420
        0
370
     0
100
AcDbLine
 10
228.9973117550983
 20
230.4448055115077
 30
0.0
 11
228.9975916691065
 21
230.450726769373
 31
0.0
  0
LINE
  5
133
330
79
100
AcDbEntity
  8
Livello 1
 62
    18
420
        0
370
     0
100
AcDbLine
 10
228.8219133312055
 20
146.9249896212006
 30
0.0
 11
228.8173270478408
 21
147.0237669683168
 31
0.0
  0
LINE
  5
134
330
79
100
AcDbEntity
  8
Livello 1
 62
    18
420
        0
370
     0
100
AcDbLine
 10
228.8432944550609
 20
146.4663397528799
 30
0.0
 11
228.8393110634061
 21
146.5535760301205
 31
0.0
  0
LWPOLYLINE
  5
135
330
79
100
AcDbEntity
  8
Livello 1
 62
    18
420
        0
370
     0
100
AcDbPolyline
 90
       77
 70
     0
 43
0.0
 10
228.8173270478408
 20
147.0237669683168
 10
228.8127838281696
 20
147.1250850733533
 10
228.8104799205639
 20
147.1767292078618
 10
228.8082190766517
 20
147.2290085318505
 10
228.8059582327395
 20
147.2819553430895
 10
228.8037404525208
 20
147.335580407502
 10
228.8015657359958
 20
147.3899483206286
 10
228.7993694876239
 20
147.4449837210055
 10
228.7972163029456
 20
147.5007189064028
 10
228.7951277138077
 20
147.5571969405141
 10
228.7930606565166
 20
147.6143855255692
 10
228.791036662919
 20
147.6723492571086
 10
228.7890772648617
 20
147.7310450714385
 10
228.7871609304981
 20
147.7905267981761
 10
228.7852661279812
 20
147.8507836713978
 10
228.7834143891579
 20
147.9118049251802
 10
228.7816487777217
 20
147.9736120913706
 10
228.779926229979
 20
148.0362374677381
 10
228.77824674593
 20
148.0996272246667
 10
228.7766103255745
 20
148.1638674895435
 10
228.7750600326062
 20
148.2289259645975
 10
228.7735743351781
 20
148.294781117983
 10
228.7721317014437
 20
148.3614975452393
 10
228.7707536632496
 20
148.4290537145207
 10
228.7694617524426
 20
148.4974603917493
 10
228.7682129053292
 20
148.5667068110028
 10
228.7670286537561
 20
148.6368360359745
 10
228.7659305295702
 20
148.7077834711238
 10
228.7648754690779
 20
148.7796029460679
 10
228.7638850041259
 20
148.8523159926534
 10
228.7629591347142
 20
148.9259010790337
 10
228.7621193926897
 20
149.0003366733622
 10
228.7613442462055
 20
149.075698137102
 10
228.7605906315681
 20
149.1518993428661
 10
228.7599662080114
 20
149.2290156521187
 10
228.7594063799951
 20
149.3070470648596
 10
228.7588680838255
 20
149.3859612833186
 10
228.7584374468898
 20
149.4657906052659
 10
228.7580498736478
 20
149.5465457966249
 10
228.7577484277928
 20
149.6281837937019
 10
228.7574900456314
 20
149.7107691920373
 10
228.7573177908571
 20
149.7942266301675
 10
228.7571670679296
 20
149.8786530014029
 10
228.7571024723893
 20
149.9640267738968
 10
228.7571024723893
 20
150.0502725861853
 10
228.7571670679296
 20
150.1374873315791
 10
228.7572747271636
 20
150.2256387123079
 10
228.7574685137846
 20
150.314759026142
 10
228.7576623004056
 20
150.4047836775409
 10
228.7579422144138
 20
150.495766496122
 10
228.7583082558091
 20
150.5876967159609
 10
228.7586958290512
 20
150.680585102982
 10
228.7591479978337
 20
150.774463954955
 10
228.7596862940032
 20
150.869247144493
 10
228.7602461220195
 20
150.9650315649063
 10
228.7608705455763
 20
151.0617956843486
 10
228.7615810965201
 20
151.1594856732019
 10
228.7623347111575
 20
151.2581876588543
 10
228.7631313894885
 20
151.3578478116885
 10
228.7639926633598
 20
151.4584984294751
 10
228.7649400646182
 20
151.5600964485195
 10
228.7658874658767
 20
151.6627172302863
 10
228.766942526369
 20
151.766296179235
 10
228.768040650555
 20
151.8708978909059
 10
228.7692033702812
 20
151.9764793016055
 10
228.7704306855478
 20
152.083051177257
 10
228.771701064508
 20
152.1906135178605
 10
228.7730575708553
 20
152.2991986211862
 10
228.7744571408962
 20
152.4088064872342
 10
228.7759428383242
 20
152.519404818234
 10
228.7774715994458
 20
152.6310259119562
 10
228.779043424261
 20
152.7436697684004
 10
228.7807013764632
 20
152.8572933238736
 10
228.7824023923591
 20
152.9719504079918
 10
228.7841680037953
 20
153.0876194889091
 10
228.7859982107718
 20
153.2043220984719
 10
228.7878930132887
 20
153.3220474707569
  0
LWPOLYLINE
  5
136
330
79
100
AcDbEntity
  8
Livello 1
 62
    18
420
        0
370
     0
100
AcDbPolyline
 90
       10
 70
     0
 43
0.0
 10
228.881147441705
 20
145.1241197859032
 10
228.8800923812127
 20
145.1485046023847
 10
228.8791234481075
 20
145.1733738854189
 10
228.8782191105426
 20
145.1987061031589
 10
228.8773578366713
 20
145.2245227874514
 10
228.8765611583404
 20
145.2508454701434
 10
228.8758506073965
 20
145.2776203216179
 10
228.8751400564527
 20
145.3048473418747
 10
228.874515632896
 20
145.332580360531
 10
228.8738696774925
 20
145.3607332501995
  0
LINE
  5
137
330
79
100
AcDbEntity
  8
Livello 1
 62
    18
420
        0
370
     0
100
AcDbLine
 10
228.9975916691065
 20
230.4385612759407
 30
0.0
 11
228.9978500512679
 21
230.4448055115077
 31
0.0
  0
LINE
  5
138
330
79
100
AcDbEntity
  8
Livello 1
 62
    18
420
        0
370
     0
100
AcDbLine
 10
228.9967088633884
 20
230.3870570984362
 30
0.0
 11
228.9928761946611
 21
230.5005514628284
 31
0.0
  0
LINE
  5
139
330
79
100
AcDbEntity
  8
Livello 1
 62
    18
420
        0
370
     0
100
AcDbLine
 10
228.9978500512679
 20
230.4319725308252
 30
0.0
 11
228.9980438378889
 21
230.4385612759407
 31
0.0
  0
LWPOLYLINE
  5
13A
330
79
100
AcDbEntity
  8
Livello 1
 62
    18
420
        0
370
     0
100
AcDbPolyline
 90
       14
 70
     0
 43
0.0
 10
228.8636420502706
 20
145.9110657221214
 10
228.8626946490122
 20
145.9476806275755
 10
228.8616395885199
 20
145.9847584677356
 10
228.8605414643339
 20
146.0222992426014
 10
228.8593141490673
 20
146.0602921862497
 10
228.8580437701071
 20
146.0987050009102
 10
228.8566872637598
 20
146.1376238139701
 10
228.8552446300253
 20
146.1769947958125
 10
228.8537374007505
 20
146.2168502442075
 10
228.8521871077822
 20
146.2571793932317
 10
228.8505291555799
 20
146.2979930088085
 10
228.8487850759905
 20
146.3393341546315
 10
228.8470194645543
 20
146.3811382351603
 10
228.8432944550609
 20
146.4663397528799
  0
LINE
  5
13B
330
79
100
AcDbEntity
  8
Livello 1
 62
    18
420
        0
370
     0
100
AcDbLine
 10
228.9980438378889
 20
230.4249746806207
 30
0.0
 11
228.99823762451
 21
230.4319725308252
 31
0.0
  0
LWPOLYLINE
  5
13C
330
79
100
AcDbEntity
  8
Livello 1
 62
    18
420
        0
370
     0
100
AcDbPolyline
 90
        5
 70
     0
 43
0.0
 10
228.8667856999009
 20
145.7693215747501
 10
228.8661182126507
 20
145.8040309117641
 10
228.8653430661665
 20
145.8392354812539
 10
228.8645248559887
 20
145.8749460491432
 10
228.8636420502706
 20
145.9110657221214
  0
LINE
  5
13D
330
79
100
AcDbEntity
  8
Livello 1
 62
    18
420
        0
370
     0
100
AcDbLine
 10
228.8727500214598
 20
145.3607332501995
 30
0.0
 11
228.8738696774925
 21
145.418481663271
 31
0.0
  0
LINE
  5
13E
330
79
100
AcDbEntity
  8
Livello 1
 62
    18
420
        0
370
     0
100
AcDbLine
 10
228.8667856999009
 20
145.7012701729931
 30
0.0
 11
228.8680130151675
 21
145.7693215747501
 31
0.0
  0
LINE
  5
13F
330
79
100
AcDbEntity
  8
Livello 1
 62
    18
420
        0
370
     0
100
AcDbLine
 10
228.8716949609674
 20
145.418481663271
 30
0.0
 11
228.8727500214598
 21
145.4780710492424
 31
0.0
  0
LINE
  5
140
330
79
100
AcDbEntity
  8
Livello 1
 62
    18
420
        0
370
     0
100
AcDbLine
 10
228.7911443221529
 20
221.1044195682048
 30
0.0
 11
228.7885389686922
 21
221.2631523426877
 31
0.0
  0
LWPOLYLINE
  5
141
330
79
100
AcDbEntity
  8
Livello 1
 62
    18
420
        0
370
     0
100
AcDbPolyline
 90
        4
 70
     0
 43
0.0
 10
228.8716949609674
 20
145.4780710492424
 10
228.8701661998458
 20
145.5709163725699
 10
228.8696709673698
 20
145.6028050376553
 10
228.8680130151675
 20
145.7012701729931
  0
LINE
  5
142
330
79
100
AcDbEntity
  8
Livello 1
 62
    18
420
        0
370
     0
100
AcDbLine
 10
228.7885389686922
 20
221.2631523426877
 30
0.0
 11
228.7858474878444
 21
221.4297873049399
 31
0.0
  0
LINE
  5
143
330
79
100
AcDbEntity
  8
Livello 1
 62
    18
420
        0
370
     0
100
AcDbLine
 10
228.7858474878444
 20
221.4297873049399
 30
0.0
 11
228.7832851980772
 21
221.5943552099009
 31
0.0
  0
LINE
  5
144
330
79
100
AcDbEntity
  8
Livello 1
 62
    18
420
        0
370
     0
100
AcDbLine
 10
228.7832851980772
 20
221.5943552099009
 30
0.0
 11
228.7808520993907
 21
221.756834525724
 31
0.0
  0
LINE
  5
145
330
79
100
AcDbEntity
  8
Livello 1
 62
    18
420
        0
370
     0
100
AcDbLine
 10
228.7808520993907
 20
221.756834525724
 30
0.0
 11
228.778548191785
 21
221.9172898479495
 31
0.0
  0
LINE
  5
146
330
79
100
AcDbEntity
  8
Livello 1
 62
    18
420
        0
370
     0
100
AcDbLine
 10
228.778548191785
 20
221.9172898479495
 30
0.0
 11
228.7763304115663
 21
222.0756781128839
 31
0.0
  0
LINE
  5
147
330
79
100
AcDbEntity
  8
Livello 1
 62
    18
420
        0
370
     0
100
AcDbLine
 10
228.7763304115663
 20
222.0756781128839
 30
0.0
 11
228.7742418224284
 21
222.2320423842206
 31
0.0
  0
LINE
  5
148
330
79
100
AcDbEntity
  8
Livello 1
 62
    18
420
        0
370
     0
100
AcDbLine
 10
228.7742418224284
 20
222.2320423842206
 30
0.0
 11
228.7723039562179
 21
222.3863395982663
 31
0.0
  0
LINE
  5
149
330
79
100
AcDbEntity
  8
Livello 1
 62
    18
420
        0
370
     0
100
AcDbLine
 10
228.7723039562179
 20
222.3863395982663
 30
0.0
 11
228.7704737492414
 21
222.5386343505611
 31
0.0
  0
LINE
  5
14A
330
79
100
AcDbEntity
  8
Livello 1
 62
    18
420
        0
370
     0
100
AcDbLine
 10
228.7704737492414
 20
222.5386343505611
 30
0.0
 11
228.7687512014988
 21
222.6889051092583
 31
0.0
  0
LINE
  5
14B
330
79
100
AcDbEntity
  8
Livello 1
 62
    18
420
        0
370
     0
100
AcDbLine
 10
228.7687512014988
 20
222.6889051092583
 30
0.0
 11
228.7671578448368
 21
222.8371949380516
 31
0.0
  0
LINE
  5
14C
330
79
100
AcDbEntity
  8
Livello 1
 62
    18
420
        0
370
     0
100
AcDbLine
 10
228.7671578448368
 20
222.8371949380516
 30
0.0
 11
228.7656721474089
 21
222.9834607732472
 31
0.0
  0
LINE
  5
14D
330
79
100
AcDbEntity
  8
Livello 1
 62
    18
420
        0
370
     0
100
AcDbLine
 10
228.7656721474089
 20
222.9834607732472
 30
0.0
 11
228.7643371729083
 21
223.1277672103856
 31
0.0
  0
LINE
  5
14E
330
79
100
AcDbEntity
  8
Livello 1
 62
    18
420
        0
370
     0
100
AcDbLine
 10
228.7643371729083
 20
223.1277672103856
 30
0.0
 11
228.7631098576417
 21
223.27009271762
 31
0.0
  0
LINE
  5
14F
330
79
100
AcDbEntity
  8
Livello 1
 62
    18
420
        0
370
     0
100
AcDbLine
 10
228.7631098576417
 20
223.27009271762
 30
0.0
 11
228.7620117334558
 21
223.4104588267971
 31
0.0
  0
LINE
  5
150
330
79
100
AcDbEntity
  8
Livello 1
 62
    18
420
        0
370
     0
100
AcDbLine
 10
228.7620117334558
 20
223.4104588267971
 30
0.0
 11
228.7609782048102
 21
223.5488870697638
 31
0.0
  0
LINE
  5
151
330
79
100
AcDbEntity
  8
Livello 1
 62
    18
420
        0
370
     0
100
AcDbLine
 10
228.7609782048102
 20
223.5488870697638
 30
0.0
 11
228.7600953990921
 21
223.6853774465201
 31
0.0
  0
LINE
  5
152
330
79
100
AcDbEntity
  8
Livello 1
 62
    18
420
        0
370
     0
100
AcDbLine
 10
228.7600953990921
 20
223.6853774465201
 30
0.0
 11
228.7593633163015
 21
223.8199514889126
 31
0.0
  0
LINE
  5
153
330
79
100
AcDbEntity
  8
Livello 1
 62
    18
420
        0
370
     0
100
AcDbLine
 10
228.7593633163015
 20
223.8199514889126
 30
0.0
 11
228.7586958290512
 21
223.9526091969416
 31
0.0
  0
LINE
  5
154
330
79
100
AcDbEntity
  8
Livello 1
 62
    18
420
        0
370
     0
100
AcDbLine
 10
228.7586958290512
 20
223.9526091969416
 30
0.0
 11
228.7581575328816
 21
224.0833721024535
 31
0.0
  0
LINE
  5
155
330
79
100
AcDbEntity
  8
Livello 1
 62
    18
420
        0
370
     0
100
AcDbLine
 10
228.7581575328816
 20
224.0833721024535
 30
0.0
 11
228.7577053640992
 21
224.2121971417551
 31
0.0
  0
LINE
  5
156
330
79
100
AcDbEntity
  8
Livello 1
 62
    18
420
        0
370
     0
100
AcDbLine
 10
228.7577053640992
 20
224.2121971417551
 30
0.0
 11
228.7573823863975
 21
224.3392135059269
 31
0.0
  0
LINE
  5
157
330
79
100
AcDbEntity
  8
Livello 1
 62
    18
420
        0
370
     0
100
AcDbLine
 10
228.7573823863975
 20
224.3392135059269
 30
0.0
 11
228.7571670679296
 21
224.4642920038883
 31
0.0
  0
LINE
  5
158
330
79
100
AcDbEntity
  8
Livello 1
 62
    18
420
        0
370
     0
100
AcDbLine
 10
228.7571670679296
 20
224.4642920038883
 30
0.0
 11
228.7571024723893
 21
224.5875618267199
 31
0.0
  0
LINE
  5
159
330
79
100
AcDbEntity
  8
Livello 1
 62
    18
420
        0
370
     0
100
AcDbLine
 10
228.7571024723893
 20
224.5875618267199
 30
0.0
 11
228.7571455360828
 21
224.7089583788814
 31
0.0
  0
LINE
  5
15A
330
79
100
AcDbEntity
  8
Livello 1
 62
    18
420
        0
370
     0
100
AcDbLine
 10
228.7571455360828
 20
224.7089583788814
 30
0.0
 11
228.7572747271636
 21
224.8285462559131
 31
0.0
  0
LINE
  5
15B
330
79
100
AcDbEntity
  8
Livello 1
 62
    18
420
        0
370
     0
100
AcDbLine
 10
228.7572747271636
 20
224.8285462559131
 30
0.0
 11
228.7575546411718
 21
224.9462608622747
 31
0.0
  0
LINE
  5
15C
330
79
100
AcDbEntity
  8
Livello 1
 62
    18
420
        0
370
     0
100
AcDbLine
 10
228.7575546411718
 20
224.9462608622747
 30
0.0
 11
228.7579422144138
 21
225.0621883253534
 31
0.0
  0
LINE
  5
15D
330
79
100
AcDbEntity
  8
Livello 1
 62
    18
420
        0
370
     0
100
AcDbLine
 10
228.7579422144138
 20
225.0621883253534
 30
0.0
 11
228.758523574277
 21
225.1763071133023
 31
0.0
  0
LINE
  5
15E
330
79
100
AcDbEntity
  8
Livello 1
 62
    18
420
        0
370
     0
100
AcDbLine
 10
228.758523574277
 20
225.1763071133023
 30
0.0
 11
228.7591910615272
 21
225.2886387579682
 31
0.0
  0
LWPOLYLINE
  5
15F
330
79
100
AcDbEntity
  8
Livello 1
 62
    18
420
        0
370
     0
100
AcDbPolyline
 90
       27
 70
     0
 43
0.0
 10
228.7591910615272
 20
225.2886387579682
 10
228.760009271705
 20
225.3991617275044
 10
228.7604614404874
 20
225.4537664909456
 10
228.7609136092698
 20
225.5079621492979
 10
228.7614519054394
 20
225.5616841070211
 10
228.7620117334558
 20
225.6149969596553
 10
228.7626146251657
 20
225.6678361116603
 10
228.7632175168756
 20
225.7202661585765
 10
228.7638850041259
 20
225.7723086322505
 10
228.7645524913762
 20
225.8238343416018
 10
228.7652845741667
 20
225.8749940095577
 10
228.7660381888041
 20
225.925723040578
 10
228.7668348671351
 20
225.9759999028159
 10
228.7676530773129
 20
226.0258676599649
 10
228.7684928193374
 20
226.0753478438718
 10
228.7693756250555
 20
226.1243758589963
 10
228.7703445581607
 20
226.1729732371851
 10
228.7712919594191
 20
226.221161510285
 10
228.7722824243711
 20
226.2689622101428
 10
228.77329442117
 20
226.3163107412182
 10
228.7743494816623
 20
226.3633147627451
 10
228.7754045421547
 20
226.4098450836428
 10
228.7765457300342
 20
226.4560308949919
 10
228.7777084497605
 20
226.5017645375586
 10
228.7788711694867
 20
226.5471106068832
 10
228.7800769529066
 20
226.5920906348125
 10
228.7813042681732
 20
226.6366400258061
  0
LINE
  5
160
330
79
100
AcDbEntity
  8
Livello 1
 62
    18
420
        0
370
     0
100
AcDbLine
 10
228.7878930132887
 20
153.3220474707569
 30
0.0
 11
228.7911443221529
 21
153.5199897382313
 31
0.0
  0
LINE
  5
161
330
79
100
AcDbEntity
  8
Livello 1
 62
    18
420
        0
370
     0
100
AcDbLine
 10
228.8684436521032
 20
228.9414735009786
 30
0.0
 11
228.8716949609674
 21
229.1436575422692
 31
0.0
  0
LINE
  5
162
330
79
100
AcDbEntity
  8
Livello 1
 62
    18
420
        0
370
     0
100
AcDbLine
 10
228.8716949609674
 20
229.1436575422692
 30
0.0
 11
228.8727500214598
 21
229.2067673851896
 31
0.0
  0
LINE
  5
163
330
79
100
AcDbEntity
  8
Livello 1
 62
    18
420
        0
370
     0
100
AcDbLine
 10
228.8727500214598
 20
229.2067673851896
 30
0.0
 11
228.8735251679439
 21
229.2476563622302
 31
0.0
  0
LINE
  5
164
330
79
100
AcDbEntity
  8
Livello 1
 62
    18
420
        0
370
     0
100
AcDbLine
 10
228.8671302094495
 20
228.8697939830386
 30
0.0
 11
228.8684436521032
 21
228.9414735009786
 31
0.0
  0
LINE
  5
165
330
79
100
AcDbEntity
  8
Livello 1
 62
    18
420
        0
370
     0
100
AcDbLine
 10
228.8661397444974
 20
228.820787499761
 30
0.0
 11
228.8671302094495
 21
228.8697939830386
 31
0.0
  0
LINE
  5
166
330
79
100
AcDbEntity
  8
Livello 1
 62
    18
420
        0
370
     0
100
AcDbLine
 10
228.8735251679439
 20
229.2476563622302
 30
0.0
 11
228.8743433781217
 21
229.2876194698591
 31
0.0
  0
LINE
  5
167
330
79
100
AcDbEntity
  8
Livello 1
 62
    18
420
        0
370
     0
100
AcDbLine
 10
228.8650631521583
 20
228.7708120833781
 30
0.0
 11
228.8661397444974
 21
228.820787499761
 31
0.0
  0
LINE
  5
168
330
79
100
AcDbEntity
  8
Livello 1
 62
    18
420
        0
370
     0
100
AcDbLine
 10
228.8743433781217
 20
229.2876194698591
 30
0.0
 11
228.8752261838398
 21
229.3266136443828
 31
0.0
  0
LINE
  5
169
330
79
100
AcDbEntity
  8
Livello 1
 62
    18
420
        0
370
     0
100
AcDbLine
 10
228.8637927731981
 20
228.7198892657367
 30
0.0
 11
228.8650631521583
 21
228.7708120833781
 31
0.0
  0
LINE
  5
16A
330
79
100
AcDbEntity
  8
Livello 1
 62
    18
420
        0
370
     0
100
AcDbLine
 10
228.8752261838398
 20
229.3266136443828
 30
0.0
 11
228.876195116945
 21
229.3646388858012
 31
0.0
  0
LINE
  5
16B
330
79
100
AcDbEntity
  8
Livello 1
 62
    18
420
        0
370
     0
100
AcDbLine
 10
228.8623716713105
 20
228.6680405786837
 30
0.0
 11
228.8637927731981
 21
228.7198892657367
 31
0.0
  0
LINE
  5
16C
330
79
100
AcDbEntity
  8
Livello 1
 62
    18
420
        0
370
     0
100
AcDbLine
 10
228.7813042681732
 20
226.6366400258061
 30
0.0
 11
228.7838450260935
 21
226.7245760880671
 31
0.0
  0
LINE
  5
16D
330
79
100
AcDbEntity
  8
Livello 1
 62
    18
420
        0
370
     0
100
AcDbLine
 10
228.8608213783421
 20
228.615266022219
 30
0.0
 11
228.8623716713105
 21
228.6680405786837
 31
0.0
  0
LWPOLYLINE
  5
16E
330
79
100
AcDbEntity
  8
Livello 1
 62
    18
420
        0
370
     0
100
AcDbPolyline
 90
       37
 70
     0
 43
0.0
 10
228.876195116945
 20
229.3646388858012
 10
228.8772932411309
 20
229.4016736622677
 10
228.8778961328409
 20
229.4198896046459
 10
228.8785420882443
 20
229.4378041011692
 10
228.879166511801
 20
229.4554817473779
 10
228.8798770627449
 20
229.4729440751188
 10
228.8806091455355
 20
229.4901264888514
 10
228.8813842920197
 20
229.5070505204227
 10
228.8822025021974
 20
229.5237377016794
 10
228.8830853079155
 20
229.5402095644683
 10
228.8839896454804
 20
229.556401513249
 10
228.884915514892
 20
229.5723781435618
 10
228.8859490435376
 20
229.5881609872536
 10
228.8869610403364
 20
229.603685448784
 10
228.8880591645223
 20
229.618951528153
 10
228.8891788205551
 20
229.6340453527478
 10
228.8903415402813
 20
229.6489023270279
 10
228.8915473237012
 20
229.6635439828402
 10
228.8927746389678
 20
229.6779272564911
 10
228.8940880816215
 20
229.6921598072145
 10
228.8954015242753
 20
229.7061339757766
 10
228.8967795624694
 20
229.719871294024
 10
228.8981360688167
 20
229.7333932938036
 10
228.8996002343979
 20
229.7467215069622
 10
228.9010428681324
 20
229.7598559334997
 10
228.9025500974072
 20
229.7727319778759
 10
228.9040788585288
 20
229.7853927037841
 10
228.9056291514971
 20
229.7978811749182
 10
228.9072440400058
 20
229.8101543275844
 10
228.9088804603613
 20
229.8222552254763
 10
228.9105384125636
 20
229.834183868594
 10
228.9121963647659
 20
229.8459187250906
 10
228.9139189125085
 20
229.8575459223533
 10
228.9156414602511
 20
229.8689362693014
 10
228.9173640079937
 20
229.8801974251689
 10
228.9191296194299
 20
229.8912647944152
 10
228.9209382945597
 20
229.9022029725809
  0
LINE
  5
16F
330
79
100
AcDbEntity
  8
Livello 1
 62
    18
420
        0
370
     0
100
AcDbLine
 10
228.7838450260935
 20
226.7245760880671
 30
0.0
 11
228.7864934432478
 21
226.8109833892065
 31
0.0
  0
LINE
  5
170
330
79
100
AcDbEntity
  8
Livello 1
 62
    18
420
        0
370
     0
100
AcDbLine
 10
228.8590988305994
 20
228.5615440644959
 30
0.0
 11
228.8608213783421
 21
228.615266022219
 31
0.0
  0
LINE
  5
171
330
79
100
AcDbEntity
  8
Livello 1
 62
    18
420
        0
370
     0
100
AcDbLine
 10
228.7864934432478
 20
226.8109833892065
 30
0.0
 11
228.789249519636
 21
226.8958619292244
 31
0.0
  0
LINE
  5
172
330
79
100
AcDbEntity
  8
Livello 1
 62
    18
420
        0
370
     0
100
AcDbLine
 10
228.789249519636
 20
226.8958619292244
 30
0.0
 11
228.7920701915646
 21
226.9792547718142
 31
0.0
  0
LINE
  5
173
330
79
100
AcDbEntity
  8
Livello 1
 62
    18
420
        0
370
     0
100
AcDbLine
 10
228.8572255599294
 20
228.5068962373611
 30
0.0
 11
228.8590988305994
 21
228.5615440644959
 31
0.0
  0
LINE
  5
174
330
79
100
AcDbEntity
  8
Livello 1
 62
    18
420
        0
370
     0
100
AcDbLine
 10
228.7920701915646
 20
226.9792547718142
 30
0.0
 11
228.7949985227271
 21
227.0611403851293
 31
0.0
  0
LINE
  5
175
330
79
100
AcDbEntity
  8
Livello 1
 62
    18
420
        0
370
     0
100
AcDbLine
 10
228.8552446300253
 20
228.4512148815808
 30
0.0
 11
228.8572255599294
 21
228.5068962373611
 31
0.0
  0
LINE
  5
176
330
79
100
AcDbEntity
  8
Livello 1
 62
    18
420
        0
370
     0
100
AcDbLine
 10
228.7949985227271
 20
227.0611403851293
 30
0.0
 11
228.7979914494298
 21
227.1415403010163
 31
0.0
  0
LINE
  5
177
330
79
100
AcDbEntity
  8
Livello 1
 62
    18
420
        0
370
     0
100
AcDbLine
 10
228.853091445347
 20
228.3946076563888
 30
0.0
 11
228.8552446300253
 21
228.4512148815808
 31
0.0
  0
LINE
  5
178
330
79
100
AcDbEntity
  8
Livello 1
 62
    18
420
        0
370
     0
100
AcDbLine
 10
228.7979914494298
 20
227.1415403010163
 30
0.0
 11
228.8010274398262
 21
227.2205191150156
 31
0.0
  0
LINE
  5
179
330
79
100
AcDbEntity
  8
Livello 1
 62
    18
420
        0
370
     0
100
AcDbLine
 10
228.8508090695881
 20
228.3369669025512
 30
0.0
 11
228.853091445347
 21
228.3946076563888
 31
0.0
  0
LINE
  5
17A
330
79
100
AcDbEntity
  8
Livello 1
 62
    18
420
        0
370
     0
100
AcDbLine
 10
228.8010274398262
 20
227.2205191150156
 30
0.0
 11
228.8041280257629
 21
227.2980552952805
 31
0.0
  0
LINE
  5
17B
330
79
100
AcDbEntity
  8
Livello 1
 62
    18
420
        0
370
     0
100
AcDbLine
 10
228.8483975027484
 20
228.2782495563744
 30
0.0
 11
228.8508090695881
 21
228.3369669025512
 31
0.0
  0
LINE
  5
17C
330
79
100
AcDbEntity
  8
Livello 1
 62
    18
420
        0
370
     0
100
AcDbLine
 10
228.8041280257629
 20
227.2980552952805
 30
0.0
 11
228.8073362709336
 21
227.374148841811
 31
0.0
  0
LINE
  5
17D
330
79
100
AcDbEntity
  8
Livello 1
 62
    18
420
        0
370
     0
100
AcDbLine
 10
228.845856744828
 20
228.2185417452457
 30
0.0
 11
228.8483975027484
 21
228.2782495563744
 31
0.0
  0
LINE
  5
17E
330
79
100
AcDbEntity
  8
Livello 1
 62
    18
420
        0
370
     0
100
AcDbLine
 10
228.8073362709336
 20
227.374148841811
 30
0.0
 11
228.8105445161042
 21
227.4489074138409
 31
0.0
  0
LINE
  5
17F
330
79
100
AcDbEntity
  8
Livello 1
 62
    18
420
        0
370
     0
100
AcDbLine
 10
228.8418518213264
 20
228.1268806734913
 30
0.0
 11
228.845856744828
 21
228.2185417452457
 31
0.0
  0
LINE
  5
180
330
79
100
AcDbEntity
  8
Livello 1
 62
    18
420
        0
370
     0
100
AcDbLine
 10
228.8105445161042
 20
227.4489074138409
 30
0.0
 11
228.8137958249684
 21
227.5223310113703
 31
0.0
  0
LINE
  5
181
330
79
100
AcDbEntity
  8
Livello 1
 62
    18
420
        0
370
     0
100
AcDbLine
 10
228.8137958249684
 20
227.5223310113703
 30
0.0
 11
228.8170686656794
 21
227.5944196343992
 31
0.0
  0
LINE
  5
182
330
79
100
AcDbEntity
  8
Livello 1
 62
    18
420
        0
370
     0
100
AcDbLine
 10
228.8375454519699
 20
228.0327649712036
 30
0.0
 11
228.8418518213264
 21
228.1268806734913
 31
0.0
  0
LINE
  5
183
330
79
100
AcDbEntity
  8
Livello 1
 62
    18
420
        0
370
     0
100
AcDbLine
 10
228.8170686656794
 20
227.5944196343992
 30
0.0
 11
228.8219563948991
 21
227.7001625339496
 31
0.0
  0
LWPOLYLINE
  5
184
330
79
100
AcDbEntity
  8
Livello 1
 62
    18
420
        0
370
     0
100
AcDbPolyline
 90
        5
 70
     0
 43
0.0
 10
228.8219563948991
 20
227.7001625339496
 10
228.8267795285785
 20
227.8031062934182
 10
228.8283728852404
 20
227.8367821017865
 10
228.8299447100555
 20
227.8701995279934
 10
228.8375454519699
 20
228.0327649712036
  0
LINE
  5
185
330
79
100
AcDbEntity
  8
Livello 1
 62
    18
420
        0
370
     0
100
AcDbLine
 10
228.994168105468
 20
230.4874170362909
 30
0.0
 11
228.9945341468634
 21
230.4905176222276
 31
0.0
  0
LINE
  5
186
330
79
100
AcDbEntity
  8
Livello 1
 62
    18
420
        0
370
     0
100
AcDbLine
 10
228.9945341468634
 20
230.4841441955799
 30
0.0
 11
228.9948355927183
 21
230.4874170362909
 31
0.0
  0
LINE
  5
187
330
79
100
AcDbEntity
  8
Livello 1
 62
    18
420
        0
370
     0
100
AcDbLine
 10
228.9948355927183
 20
230.4806129727075
 30
0.0
 11
228.9952016341136
 21
230.4841441955799
 31
0.0
  0
LINE
  5
188
330
79
100
AcDbEntity
  8
Livello 1
 62
    18
420
        0
370
     0
100
AcDbLine
 10
228.9952016341136
 20
230.476801835827
 30
0.0
 11
228.9955030799686
 21
230.4806129727075
 31
0.0
  0
LINE
  5
189
330
79
100
AcDbEntity
  8
Livello 1
 62
    18
420
        0
370
     0
100
AcDbLine
 10
228.9955030799686
 20
230.4727753804786
 30
0.0
 11
228.9958691213639
 21
230.476801835827
 31
0.0
  0
LINE
  5
18A
330
79
100
AcDbEntity
  8
Livello 1
 62
    18
420
        0
370
     0
100
AcDbLine
 10
228.9958691213639
 20
230.4684474792753
 30
0.0
 11
228.9961920990656
 21
230.4727753804786
 31
0.0
  0
LINE
  5
18B
330
79
100
AcDbEntity
  8
Livello 1
 62
    18
420
        0
370
     0
100
AcDbLine
 10
228.9961920990656
 20
230.4613850335305
 30
0.0
 11
228.9966873315417
 21
230.4684474792753
 31
0.0
  0
LWPOLYLINE
  5
18C
330
79
100
AcDbEntity
  8
Livello 1
 62
    18
420
        0
370
     0
100
AcDbPolyline
 90
       49
 70
     0
 43
0.0
 10
228.9954815481218
 20
144.1478873846173
 10
228.9957183984364
 20
144.1507726520862
 10
228.9959767805978
 20
144.1537763447124
 10
228.9962136309124
 20
144.1569845898831
 10
228.9964720130738
 20
144.1603327920578
 10
228.9967088633884
 20
144.1638640149301
 10
228.9969241818562
 20
144.1675351948066
 10
228.9971395003241
 20
144.1713786294573
 10
228.9973548187919
 20
144.1753943188824
 10
228.9975270735661
 20
144.179593029005
 10
228.9976993283404
 20
144.1839316961317
 10
228.9978715831147
 20
144.1884533839561
 10
228.9980223060422
 20
144.1931042628612
 10
228.9981299652761
 20
144.197938162464
 10
228.99823762451
 20
144.2029550827643
 10
228.9982591563568
 20
144.2081334919156
 10
228.9983022200503
 20
144.2134626239944
 10
228.9983452837439
 20
144.2190070745409
 10
228.9983022200503
 20
144.2246807161682
 10
228.99823762451
 20
144.2305696762633
 10
228.9981299652761
 20
144.236641657056
 10
228.9979577105018
 20
144.2429181903932
 10
228.9977639238808
 20
144.2493454466579
 10
228.9975270735661
 20
144.255977255467
 10
228.9972040958644
 20
144.2628136168206
 10
228.9968595863159
 20
144.2698007011016
 10
228.9964289493802
 20
144.2770031038504
 10
228.9959337169042
 20
144.2844100591437
 10
228.9953738888879
 20
144.2919569714411
 10
228.9947279334844
 20
144.2997514999765
 10
228.9940389143874
 20
144.3076859855159
 10
228.9932637679032
 20
144.3158788532168
 10
228.992380962185
 20
144.3242332097685
 10
228.9914120290799
 20
144.3327059914776
 10
228.9904000322811
 20
144.3413079642673
 10
228.9893019080951
 20
144.3500606599845
 10
228.9880961246753
 20
144.3589102490122
 10
228.9868257457151
 20
144.3679105609675
 10
228.9854907712145
 20
144.3770077662332
 10
228.9840912011737
 20
144.3862556944264
 10
228.9825624400521
 20
144.3956328137003
 10
228.9810121470837
 20
144.4051606559017
 10
228.9793541948815
 20
144.4148284551072
 10
228.9776531789856
 20
144.424668509087
 10
228.9758660357026
 20
144.4346592859942
 10
228.9739927650325
 20
144.4448115517523
 10
228.9720548988221
 20
144.455146838208
 10
228.9700524370713
 20
144.4656651453614
 10
228.9658537269486
 20
144.4870462692168
  0
LINE
  5
18D
330
79
100
AcDbEntity
  8
Livello 1
 62
    18
420
        0
370
     0
100
AcDbLine
 10
228.9950293793393
 20
144.1426659117725
 30
0.0
 11
228.9954815481218
 21
144.1478873846173
 31
0.0
  0
LINE
  5
18E
330
79
100
AcDbEntity
  8
Livello 1
 62
    18
420
        0
370
     0
100
AcDbLine
 10
228.9945341468634
 20
144.1379719691738
 30
0.0
 11
228.9950293793393
 21
144.1426659117725
 31
0.0
  0
LINE
  5
18F
330
79
100
AcDbEntity
  8
Livello 1
 62
    18
420
        0
370
     0
100
AcDbLine
 10
228.9940604462341
 20
144.1338378545915
 30
0.0
 11
228.9945341468634
 21
144.1379719691738
 31
0.0
  0
LINE
  5
190
330
79
100
AcDbEntity
  8
Livello 1
 62
    18
420
        0
370
     0
100
AcDbLine
 10
239.6912111190156
 20
199.101499041479
 30
0.0
 11
239.6024783784236
 21
199.012766300887
 31
0.0
  0
LWPOLYLINE
  5
191
330
79
100
AcDbEntity
  8
Livello 1
 62
    18
420
        0
370
     0
100
AcDbPolyline
 90
       16
 70
     0
 43
0.0
 10
228.9933714271371
 20
230.4975800679724
 10
228.9931561086692
 20
230.4989581061665
 10
228.992983853895
 20
230.500400739901
 10
228.9927685354272
 20
230.5018218417886
 10
228.9925532169593
 20
230.5033290710634
 10
228.9922302392576
 20
230.5053745965078
 10
228.9919503252494
 20
230.5069248894762
 10
228.9916058157009
 20
230.5090565423076
 10
228.9904000322811
 20
230.5150423957133
 10
228.9878162106671
 20
230.5255284050965
 10
228.983272990996
 20
230.5395887010456
 10
228.9750478255249
 20
230.5582998758999
 10
228.9605784244868
 20
230.5819633755143
 10
228.9385728770748
 20
230.6069833814758
 10
228.9103446259425
 20
230.6286444193394
 10
228.8978992185021
 20
230.6356638013906
  0
LINE
  5
192
330
79
100
AcDbEntity
  8
Livello 1
 62
    18
420
        0
370
     0
100
AcDbLine
 10
228.9933714271371
 20
230.4948239915842
 30
0.0
 11
228.993672872992
 21
230.4975800679724
 31
0.0
  0
LINE
  5
193
330
79
100
AcDbEntity
  8
Livello 1
 62
    18
420
        0
370
     0
100
AcDbLine
 10
228.993672872992
 20
230.4905176222276
 30
0.0
 11
228.994168105468
 21
230.4948239915842
 31
0.0
  0
LINE
  5
194
330
79
100
AcDbEntity
  8
Livello 1
 62
    18
420
        0
370
     0
100
AcDbLine
 10
239.6024783784236
 20
212.065996244184
 30
0.0
 11
239.6024783784236
 21
198.0016523078129
 31
0.0
  0
LINE
  5
195
330
79
100
AcDbEntity
  8
Livello 1
 62
    18
420
        0
370
     0
100
AcDbLine
 10
239.6911465234752
 20
210.9662141060584
 30
0.0
 11
239.6912111190156
 21
199.101499041479
 31
0.0
  0
LINE
  5
196
330
79
100
AcDbEntity
  8
Livello 1
 62
    18
420
        0
370
     0
100
AcDbLine
 10
238.891216883647
 20
195.9364036917928
 30
0.0
 11
238.8919920301312
 21
195.9382554306161
 31
0.0
  0
LINE
  5
197
330
79
100
AcDbEntity
  8
Livello 1
 62
    18
420
        0
370
     0
100
AcDbLine
 10
238.3042587403475
 20
194.5699065675684
 30
0.0
 11
238.3043233358879
 21
194.5700788223427
 31
0.0
  0
LINE
  5
198
330
79
100
AcDbEntity
  8
Livello 1
 62
    18
420
        0
370
     0
100
AcDbLine
 10
238.8840252468215
 20
195.9194796602215
 30
0.0
 11
238.8919920301312
 21
195.9382554306161
 31
0.0
  0
LINE
  5
199
330
79
100
AcDbEntity
  8
Livello 1
 62
    18
420
        0
370
     0
100
AcDbLine
 10
238.8294420152271
 20
195.7910206623153
 30
0.0
 11
238.8840252468215
 21
195.9194796602215
 31
0.0
  0
LINE
  5
19A
330
79
100
AcDbEntity
  8
Livello 1
 62
    18
420
        0
370
     0
100
AcDbLine
 10
238.8293774196867
 20
195.7908053438474
 30
0.0
 11
238.8840898423619
 21
195.9196519149958
 31
0.0
  0
LINE
  5
19B
330
79
100
AcDbEntity
  8
Livello 1
 62
    18
420
        0
370
     0
100
AcDbLine
 10
239.6911465234752
 20
210.9662141060584
 30
0.0
 11
239.6024783784236
 21
211.0548391874164
 31
0.0
  0
LINE
  5
19C
330
79
100
AcDbEntity
  8
Livello 1
 62
    18
420
        0
370
     0
100
AcDbLine
 10
238.3777469334173
 20
215.3292983470466
 30
0.0
 11
238.3093833198818
 21
215.4867822744161
 31
0.0
  0
LINE
  5
19D
330
79
100
AcDbEntity
  8
Livello 1
 62
    18
420
        0
370
     0
100
AcDbLine
 10
238.8205062988122
 20
214.2983750549324
 30
0.0
 11
238.8739698743739
 21
214.1725860060272
 31
0.0
  0
LINE
  5
19E
330
79
100
AcDbEntity
  8
Livello 1
 62
    18
420
        0
370
     0
100
AcDbLine
 10
238.8634408012972
 20
214.1402021084658
 30
0.0
 11
238.8877287244682
 21
214.197390693521
 31
0.0
  0
LINE
  5
19F
330
79
100
AcDbEntity
  8
Livello 1
 62
    18
420
        0
370
     0
100
AcDbLine
 10
238.8850372436203
 20
214.1402021084658
 30
0.0
 11
238.8877287244682
 21
214.1465109395732
 31
0.0
  0
LINE
  5
1A0
330
79
100
AcDbEntity
  8
Livello 1
 62
    18
420
        0
370
     0
100
AcDbLine
 10
214.051454011439
 20
233.7449486042157
 30
0.0
 11
214.5661512769353
 21
233.7717126897667
 31
0.0
  0
LINE
  5
1A1
330
79
100
AcDbEntity
  8
Livello 1
 62
    18
420
        0
370
     0
100
AcDbLine
 10
214.5661512769353
 20
233.7717126897667
 30
0.0
 11
215.7846169545278
 21
233.8249178831671
 31
0.0
  0
LWPOLYLINE
  5
1A2
330
79
100
AcDbEntity
  8
Livello 1
 62
    18
420
        0
370
     0
100
AcDbPolyline
 90
        7
 70
     0
 43
0.0
 10
218.8825760059452
 20
233.6313465805896
 10
218.4374481374041
 20
233.6746901881634
 10
217.8602654525441
 20
233.7180122638904
 10
217.2113601860504
 20
233.7571786931883
 10
216.5505693401328
 20
233.7913282021859
 10
215.9625346044942
 20
233.8183506698983
 10
215.7846169545278
 20
233.8261451984337
  0
LWPOLYLINE
  5
1A3
330
79
100
AcDbEntity
  8
Livello 1
 62
    18
420
        0
370
     0
100
AcDbPolyline
 90
       16
 70
     0
 43
0.0
 10
228.8978346229618
 20
143.9888101005859
 10
228.9327592784434
 20
144.0123444091195
 10
228.9607722111079
 20
144.0428550360107
 10
228.9791819401072
 20
144.0750666787979
 10
228.9882468476028
 20
144.1008618312436
 10
228.9911321150717
 20
144.1134471956882
 10
228.9917134749348
 20
144.1165908453185
 10
228.991993388943
 20
144.1183564567547
 10
228.9924024940318
 20
144.1210371716792
 10
228.9926178124997
 20
144.1223398484095
 10
228.9927900672739
 20
144.1236102273697
 10
228.9930053857418
 20
144.1252035840316
 10
228.9932207042096
 20
144.126753877
 10
228.9934360226774
 20
144.1284118292023
 10
228.9936513411452
 20
144.1301343769449
 10
228.9940604462341
 20
144.1338378545915
  0
LWPOLYLINE
  5
1A4
330
79
100
AcDbEntity
  8
Livello 1
 62
    18
420
        0
370
     0
100
AcDbPolyline
 90
        7
 70
     0
 43
0.0
 10
87.45628965098781
 20
75.09660049256483
 10
87.47065139279163
 20
74.85092212077295
 10
87.48751082882256
 20
74.57912561883351
 10
87.50635119475752
 20
74.29931926989088
 10
87.52677953439272
 20
74.02702753547545
 10
87.54924801651059
 20
73.7630255620714
 10
87.57419266100846
 20
73.50406204081453
  0
LINE
  5
1A5
330
79
100
AcDbEntity
  8
Livello 1
 62
    18
420
        0
370
     0
100
AcDbLine
 10
87.41424333718235
 20
75.91360488689183
 30
0.0
 11
87.4195670862994
 21
75.81199610192374
 31
0.0
  0
LINE
  5
1A6
330
79
100
AcDbEntity
  8
Livello 1
 62
    18
420
        0
370
     0
100
AcDbLine
 10
87.40989928709392
 20
75.99764368488514
 30
0.0
 11
87.41424333718235
 21
75.91360488689183
 31
0.0
  0
LWPOLYLINE
  5
1A7
330
79
100
AcDbEntity
  8
Livello 1
 62
    18
420
        0
370
     0
100
AcDbPolyline
 90
        6
 70
     0
 43
0.0
 10
87.40309522351056
 20
76.13415559348815
 10
87.41216013100611
 20
75.94155322401592
 10
87.42186022798177
 20
75.74384780685614
 10
87.43248081140739
 20
75.53479510644182
 10
87.44397881758942
 20
75.31846464181491
 10
87.45628965098781
 20
75.09660049256483
  0
LWPOLYLINE
  5
1A8
330
79
100
AcDbEntity
  8
Livello 1
 62
    18
420
        0
370
     0
100
AcDbPolyline
 90
        7
 70
     0
 43
0.0
 10
87.39233468308084
 20
76.3629745292491
 10
87.3949077387714
 20
76.30666874991205
 10
87.39748617742362
 20
76.25139649922058
 10
87.40005923311418
 20
76.19709318163433
 10
87.40263228880506
 20
76.14386645638721
 10
87.40514074895491
 20
76.09268525658447
 10
87.40989928709392
 20
75.99764368488514
  0
LWPOLYLINE
  5
1A9
330
79
100
AcDbEntity
  8
Livello 1
 62
    18
420
        0
370
     0
100
AcDbPolyline
 90
        6
 70
     0
 43
0.0
 10
87.38901877867631
 20
76.41882813980372
 10
87.39459014403136
 20
76.29650571823056
 10
87.40033914712235
 20
76.17504457052873
 10
87.40612583094524
 20
76.05679166799752
 10
87.41187483403626
 20
75.94349109022637
 10
87.41565367314663
 20
75.871553190125
  0
LINE
  5
1AA
330
79
100
AcDbEntity
  8
Livello 1
 62
    18
420
        0
370
     0
100
AcDbLine
 10
87.38725316724011
 20
76.47627510702026
 30
0.0
 11
87.39233468308084
 21
76.3629745292491
 31
0.0
  0
LINE
  5
1AB
330
79
100
AcDbEntity
  8
Livello 1
 62
    18
420
        0
370
     0
100
AcDbLine
 10
87.38093895317105
 20
76.60251632470788
 30
0.0
 11
87.38901877867631
 21
76.41882813980372
 31
0.0
  0
LINE
  5
1AC
330
79
100
AcDbEntity
  8
Livello 1
 62
    18
420
        0
370
     0
100
AcDbLine
 10
87.38168180188505
 20
76.60251632470788
 30
0.0
 11
87.38725316724011
 21
76.47627510702026
 31
0.0
  0
LINE
  5
1AD
330
79
100
AcDbEntity
  8
Livello 1
 62
    18
420
        0
370
     0
100
AcDbLine
 10
87.38234928913533
 20
76.60251632470788
 30
0.0
 11
87.43554909957394
 21
77.82096047045361
 31
0.0
  0
LINE
  5
1AE
330
79
100
AcDbEntity
  8
Livello 1
 62
    18
420
        0
370
     0
100
AcDbLine
 10
90.08261513047413
 20
64.17231036807151
 30
0.0
 11
90.44802133630184
 21
63.40508760350637
 31
0.0
  0
LINE
  5
1AF
330
79
100
AcDbEntity
  8
Livello 1
 62
    18
420
        0
370
     0
100
AcDbLine
 10
89.39205650637921
 20
65.81430747188193
 30
0.0
 11
90.08258283270397
 21
64.17231036807151
 31
0.0
  0
LINE
  5
1B0
330
79
100
AcDbEntity
  8
Livello 1
 62
    18
420
        0
370
     0
100
AcDbLine
 10
88.79956467845657
 20
67.51254575948905
 30
0.0
 11
89.39205650637921
 21
65.81430747188193
 31
0.0
  0
LINE
  5
1B1
330
79
100
AcDbEntity
  8
Livello 1
 62
    18
420
        0
370
     0
100
AcDbLine
 10
88.30620547312202
 20
69.2723866607418
 30
0.0
 11
88.79959697622675
 21
67.51252422764228
 31
0.0
  0
LINE
  5
1B2
330
79
100
AcDbEntity
  8
Livello 1
 62
    18
420
        0
370
     0
100
AcDbLine
 10
87.91610223903443
 20
71.09296890176885
 30
0.0
 11
88.30620547312202
 21
69.27234359704823
 31
0.0
  0
LINE
  5
1B3
330
79
100
AcDbEntity
  8
Livello 1
 62
    18
420
        0
370
     0
100
AcDbLine
 10
87.63412655652842
 20
72.9655505527764
 30
0.0
 11
87.91610223903443
 21
71.0929258380753
 31
0.0
  0
LINE
  5
1B4
330
79
100
AcDbEntity
  8
Livello 1
 62
    18
420
        0
370
     0
100
AcDbLine
 10
87.57376740703483
 20
73.51125367763998
 30
0.0
 11
87.63416423726029
 21
72.96550748908284
 31
0.0
  0
LINE
  5
1B5
330
79
100
AcDbEntity
  8
Livello 1
 62
    18
420
        0
370
     0
100
AcDbLine
 10
87.57415498027659
 20
73.50759326368692
 30
0.0
 11
87.63412655652842
 21
72.9655505527764
 31
0.0
  0
LINE
  5
1B6
330
79
100
AcDbEntity
  8
Livello 1
 62
    18
420
        0
370
     0
100
AcDbLine
 10
122.118794898127
 20
52.69596522391368
 30
0.0
 11
110.2540583017008
 21
52.69596522391368
 31
0.0
  0
LINE
  5
1B7
330
79
100
AcDbEntity
  8
Livello 1
 62
    18
420
        0
370
     0
100
AcDbLine
 10
123.2186093340228
 20
52.78465490081209
 30
0.0
 11
109.1542438658049
 21
52.78465490081209
 31
0.0
  0
LINE
  5
1B8
330
79
100
AcDbEntity
  8
Livello 1
 62
    18
420
        0
370
     0
100
AcDbLine
 10
110.2540583017008
 20
52.69596522391368
 30
0.0
 11
110.1653686248024
 21
52.78465490081209
 31
0.0
  0
LWPOLYLINE
  5
1B9
330
79
100
AcDbEntity
  8
Livello 1
 62
    18
420
        0
370
     0
100
AcDbPolyline
 90
       16
 70
     0
 43
0.0
 10
96.3219199045762
 20
63.59598895708277
 10
97.61660831977989
 20
63.61734854909133
 10
100.0164187711116
 20
63.62983702022535
 10
102.6694114428385
 20
63.60350357160998
 10
105.5151679728888
 20
63.54147032102869
 10
108.4920749816931
 20
63.51134726737954
 10
111.5745095715801
 20
63.43630878134145
 10
114.7177608627054
 20
63.38926169612101
 10
117.8637251665247
 20
63.38887412287891
 10
120.9992895883486
 20
63.44315590861838
 10
124.0636589587844
 20
63.51261764633973
 10
127.0172900412166
 20
63.54454937511864
 10
129.8386940525555
 20
63.60600126583678
 10
132.4687660733824
 20
63.63026765716101
 10
134.846797061693
 20
63.61678872107497
 10
136.0513639321872
 20
63.59661338063947
  0
LWPOLYLINE
  5
1BA
330
79
100
AcDbEntity
  8
Livello 1
 62
    18
420
        0
370
     0
100
AcDbPolyline
 90
        3
 70
     0
 43
0.0
 10
140.5441990818887
 20
63.45023988620993
 10
140.3852402230146
 20
63.45635493069624
 10
140.2055354297652
 20
63.46315899427961
  0
LINE
  5
1BB
330
79
100
AcDbEntity
  8
Livello 1
 62
    18
420
        0
370
     0
100
AcDbLine
 10
140.6850281257717
 20
63.44457701050604
 30
0.0
 11
139.8892971960661
 21
63.47571206095398
 31
0.0
  0
LWPOLYLINE
  5
1BC
330
79
100
AcDbEntity
  8
Livello 1
 62
    18
420
        0
370
     0
100
AcDbPolyline
 90
        4
 70
     0
 43
0.0
 10
140.2055354297652
 20
63.46315899427961
 10
140.1065427641812
 20
63.46703472670052
 10
140.0012735652601
 20
63.47123343682317
 10
139.8894802167637
 20
63.47569052910721
  0
LWPOLYLINE
  5
1BD
330
79
100
AcDbEntity
  8
Livello 1
 62
    18
420
        0
370
     0
100
AcDbPolyline
 90
        3
 70
     0
 43
0.0
 10
140.6850604235418
 20
63.44453394681248
 10
140.6167291077766
 20
63.44735461874103
 10
140.5441990818887
 20
63.45023988620993
  0
LINE
  5
1BE
330
79
100
AcDbEntity
  8
Livello 1
 62
    18
420
        0
370
     0
100
AcDbLine
 10
90.44798903853168
 20
63.40508760350637
 30
0.0
 11
90.44806439999542
 21
63.40513066719993
 31
0.0
  0
LINE
  5
1BF
330
79
100
AcDbEntity
  8
Livello 1
 62
    18
420
        0
370
     0
100
AcDbLine
 10
90.44802133630184
 20
63.40508760350637
 30
0.0
 11
90.44806439999542
 21
63.40513066719993
 31
0.0
  0
LINE
  5
1C0
330
79
100
AcDbEntity
  8
Livello 1
 62
    18
420
        0
370
     0
100
AcDbLine
 10
90.65803220389801
 20
63.31418014638934
 30
0.0
 11
90.65855973414418
 21
63.31433086931681
 31
0.0
  0
LINE
  5
1C1
330
79
100
AcDbEntity
  8
Livello 1
 62
    18
420
        0
370
     0
100
AcDbLine
 10
90.63513308484449
 20
63.30886178023398
 30
0.0
 11
90.65386579154553
 21
63.31295283112272
 31
0.0
  0
LINE
  5
1C2
330
79
100
AcDbEntity
  8
Livello 1
 62
    18
420
        0
370
     0
100
AcDbLine
 10
141.4573970017179
 20
63.38926169612101
 30
0.0
 11
141.5974186013465
 21
63.34906173817749
 31
0.0
  0
LINE
  5
1C3
330
79
100
AcDbEntity
  8
Livello 1
 62
    18
420
        0
370
     0
100
AcDbLine
 10
141.5030122191273
 20
63.37556744156714
 30
0.0
 11
141.6556191832004
 21
63.33175013336411
 31
0.0
  0
LINE
  5
1C4
330
79
100
AcDbEntity
  8
Livello 1
 62
    18
420
        0
370
     0
100
AcDbLine
 10
141.5291518811216
 20
63.36019370296421
 30
0.0
 11
141.5601577404888
 21
63.36938780154047
 31
0.0
  0
LINE
  5
1C5
330
79
100
AcDbEntity
  8
Livello 1
 62
    18
420
        0
370
     0
100
AcDbLine
 10
141.5696209871499
 20
63.34906173817749
 30
0.0
 11
141.5974186013465
 21
63.35739456288244
 31
0.0
  0
LINE
  5
1C6
330
79
100
AcDbEntity
  8
Livello 1
 62
    18
420
        0
370
     0
100
AcDbLine
 10
141.7163712888985
 20
63.31364185021977
 30
0.0
 11
141.5696532849201
 21
63.35735149918888
 31
0.0
  0
LINE
  5
1C7
330
79
100
AcDbEntity
  8
Livello 1
 62
    18
420
        0
370
     0
100
AcDbLine
 10
141.7150686121678
 20
63.31002449996026
 30
0.0
 11
141.7309375832467
 21
63.31400789161508
 31
0.0
  0
LINE
  5
1C8
330
79
100
AcDbEntity
  8
Livello 1
 62
    18
420
        0
370
     0
100
AcDbLine
 10
141.9248964590663
 20
63.40497994427245
 30
0.0
 11
141.9249287568365
 21
63.40502300796602
 31
0.0
  0
LINE
  5
1C9
330
79
100
AcDbEntity
  8
Livello 1
 62
    18
420
        0
370
     0
100
AcDbLine
 10
121.063949724237
 20
105.0943603252889
 30
0.0
 11
121.063949724237
 21
104.9749016393378
 31
0.0
  0
LINE
  5
1CA
330
79
100
AcDbEntity
  8
Livello 1
 62
    18
420
        0
370
     0
100
AcDbLine
 10
121.1057215069957
 20
105.5966121833447
 30
0.0
 11
121.1057215069957
 21
105.6593344530231
 31
0.0
  0
LINE
  5
1CB
330
79
100
AcDbEntity
  8
Livello 1
 62
    18
420
        0
370
     0
100
AcDbLine
 10
90.65725705741382
 20
63.31394329607473
 30
0.0
 11
90.7172663143975
 21
63.33179319705767
 31
0.0
  0
LINE
  5
1CC
330
79
100
AcDbEntity
  8
Livello 1
 62
    18
420
        0
370
     0
100
AcDbLine
 10
90.81279235264945
 20
63.36021523481099
 30
0.0
 11
90.7172663143975
 21
63.33179319705767
 31
0.0
  0
LINE
  5
1CD
330
79
100
AcDbEntity
  8
Livello 1
 62
    18
420
        0
370
     0
100
AcDbLine
 10
90.75081293168514
 20
63.34176244211812
 30
0.0
 11
90.77547766217483
 21
63.34910480187105
 31
0.0
  0
LINE
  5
1CE
330
79
100
AcDbEntity
  8
Livello 1
 62
    18
420
        0
370
     0
100
AcDbLine
 10
90.74622664832039
 20
63.34038440392402
 30
0.0
 11
90.75081293168514
 21
63.34176244211812
 31
0.0
  0
LINE
  5
1CF
330
79
100
AcDbEntity
  8
Livello 1
 62
    18
420
        0
370
     0
100
AcDbLine
 10
87.57419266100846
 20
73.50406204081453
 30
0.0
 11
87.5742949372807
 21
73.50406204081453
 31
0.0
  0
LINE
  5
1D0
330
79
100
AcDbEntity
  8
Livello 1
 62
    18
420
        0
370
     0
100
AcDbLine
 10
87.5742949372807
 20
73.50406204081453
 30
0.0
 11
87.57472019125465
 21
73.50406204081453
 31
0.0
  0
LINE
  5
1D1
330
79
100
AcDbEntity
  8
Livello 1
 62
    18
420
        0
370
     0
100
AcDbLine
 10
144.7979553708372
 20
73.50406204081453
 30
0.0
 11
144.7980953278416
 21
73.50406204081453
 31
0.0
  0
LINE
  5
1D2
330
79
100
AcDbEntity
  8
Livello 1
 62
    18
420
        0
370
     0
100
AcDbLine
 10
87.57472019125465
 20
73.50406204081453
 30
0.0
 11
87.57489782899062
 21
73.50406204081453
 31
0.0
  0
LINE
  5
1D3
330
79
100
AcDbEntity
  8
Livello 1
 62
    18
420
        0
370
     0
100
AcDbLine
 10
144.7980953278416
 20
73.50406204081453
 30
0.0
 11
144.7985259647772
 21
73.50406204081453
 31
0.0
  0
LINE
  5
1D4
330
79
100
AcDbEntity
  8
Livello 1
 62
    18
420
        0
370
     0
100
AcDbLine
 10
144.7986228580874
 20
73.50401897712096
 30
0.0
 11
144.7987628150915
 21
73.50406204081453
 31
0.0
  0
LINE
  5
1D5
330
79
100
AcDbEntity
  8
Livello 1
 62
    18
420
        0
370
     0
100
AcDbLine
 10
144.7985259647772
 20
73.50406204081453
 30
0.0
 11
144.7986228580874
 21
73.50406204081453
 31
0.0
  0
LINE
  5
1D6
330
79
100
AcDbEntity
  8
Livello 1
 62
    18
420
        0
370
     0
100
AcDbLine
 10
141.9248964590663
 20
63.40497994427245
 30
0.0
 11
141.9249287568365
 21
63.40502300796602
 31
0.0
  0
LINE
  5
1D7
330
79
100
AcDbEntity
  8
Livello 1
 62
    18
420
        0
370
     0
100
AcDbLine
 10
144.9905362084626
 20
76.60251632470788
 30
0.0
 11
87.38234928913533
 21
76.60251632470788
 31
0.0
  0
LINE
  5
1D8
330
79
100
AcDbEntity
  8
Livello 1
 62
    18
420
        0
370
     0
100
AcDbLine
 10
87.38168180188505
 20
76.60251632470788
 30
0.0
 11
145.0018619598704
 21
76.60251632470788
 31
0.0
  0
LINE
  5
1D9
330
79
100
AcDbEntity
  8
Livello 1
 62
    18
420
        0
370
     0
100
AcDbLine
 10
122.118794898127
 20
52.69596522391368
 30
0.0
 11
122.207473809102
 21
52.78465490081209
 31
0.0
  0
LINE
  5
1DA
330
79
100
AcDbEntity
  8
Livello 1
 62
    18
420
        0
370
     0
100
AcDbLine
 10
141.9249287568365
 20
63.40497994427245
 30
0.0
 11
142.3390615319337
 21
64.27910832811424
 31
0.0
  0
LINE
  5
1DB
330
79
100
AcDbEntity
  8
Livello 1
 62
    18
420
        0
370
     0
100
AcDbLine
 10
144.9905362084626
 20
76.60251632470788
 30
0.0
 11
144.9373417809857
 21
77.82096047045361
 31
0.0
  0
LINE
  5
1DC
330
79
100
AcDbEntity
  8
Livello 1
 62
    18
420
        0
370
     0
100
AcDbLine
 10
144.9855946496263
 20
76.4743372408098
 30
0.0
 11
144.9912467594065
 21
76.60251632470788
 31
0.0
  0
LINE
  5
1DD
330
79
100
AcDbEntity
  8
Livello 1
 62
    18
420
        0
370
     0
100
AcDbLine
 10
144.9544165354848
 20
75.80794811472857
 30
0.0
 11
144.9697579763172
 21
76.13277755529407
 31
0.0
  0
LWPOLYLINE
  5
1DE
330
79
100
AcDbEntity
  8
Livello 1
 62
    18
420
        0
370
     0
100
AcDbPolyline
 90
        7
 70
     0
 43
0.0
 10
144.9684230018167
 20
76.10551823726702
 10
144.9708883982733
 20
76.15596735427915
 10
144.97335379473
 20
76.20729927700939
 10
144.97582995711
 20
76.25953553730447
 10
144.9782953535666
 20
76.31267613516445
 10
144.9807284522531
 20
76.36611817887938
 10
144.9855946496263
 20
76.4743372408098
  0
LINE
  5
1DF
330
79
100
AcDbEntity
  8
Livello 1
 62
    18
420
        0
370
     0
100
AcDbLine
 10
144.9635460385207
 20
76.00847420381689
 30
0.0
 11
144.9684230018167
 21
76.10551823726702
 31
0.0
  0
LWPOLYLINE
  5
1E0
330
79
100
AcDbEntity
  8
Livello 1
 62
    18
420
        0
370
     0
100
AcDbPolyline
 90
        7
 70
     0
 43
0.0
 10
144.9623187232537
 20
75.96663782551789
 10
144.9672495161673
 20
76.06424168698437
 10
144.9721264794633
 20
76.1639341375888
 10
144.9769603790661
 20
76.26532760408905
 10
144.9817512149753
 20
76.36967093359856
 10
144.9865528168078
 20
76.47618897963312
 10
144.992086501431
 20
76.60251632470788
  0
LINE
  5
1E1
330
79
100
AcDbEntity
  8
Livello 1
 62
    18
420
        0
370
     0
100
AcDbLine
 10
144.9589597551556
 20
75.91928929444249
 30
0.0
 11
144.9635460385207
 21
76.00847420381689
 31
0.0
  0
LINE
  5
1E2
330
79
100
AcDbEntity
  8
Livello 1
 62
    18
420
        0
370
     0
100
AcDbLine
 10
144.9273510040785
 20
75.28668363596349
 30
0.0
 11
144.9544165354848
 21
75.80794811472857
 31
0.0
  0
LINE
  5
1E3
330
79
100
AcDbEntity
  8
Livello 1
 62
    18
420
        0
370
     0
100
AcDbLine
 10
144.955999126223
 20
75.84603795168736
 30
0.0
 11
144.9623187232537
 21
75.96663782551789
 31
0.0
  0
LINE
  5
1E4
330
79
100
AcDbEntity
  8
Livello 1
 62
    18
420
        0
370
     0
100
AcDbLine
 10
144.9513482473179
 20
75.77524123946549
 30
0.0
 11
144.9589597551556
 21
75.91928929444249
 31
0.0
  0
LINE
  5
1E5
330
79
100
AcDbEntity
  8
Livello 1
 62
    18
420
        0
370
     0
100
AcDbLine
 10
144.8976155236714
 20
74.7718141156929
 30
0.0
 11
144.9273510040785
 21
75.28668363596349
 31
0.0
  0
LINE
  5
1E6
330
79
100
AcDbEntity
  8
Livello 1
 62
    18
420
        0
370
     0
100
AcDbLine
 10
144.8657268585861
 20
74.28624943889372
 30
0.0
 11
144.8976155236714
 21
74.7718141156929
 31
0.0
  0
LINE
  5
1E7
330
79
100
AcDbEntity
  8
Livello 1
 62
    18
420
        0
370
     0
100
AcDbLine
 10
144.8303715661687
 20
73.83739656085923
 30
0.0
 11
144.8657268585861
 21
74.28624943889372
 31
0.0
  0
LINE
  5
1E8
330
79
100
AcDbEntity
  8
Livello 1
 62
    18
420
        0
370
     0
100
AcDbLine
 10
144.7987628150915
 20
73.50401897712096
 30
0.0
 11
144.8303715661687
 21
73.83739656085923
 31
0.0
  0
LWPOLYLINE
  5
1E9
330
79
100
AcDbEntity
  8
Livello 1
 62
    18
420
        0
370
     0
100
AcDbPolyline
 90
       12
 70
     0
 43
0.0
 10
144.7986228580874
 20
73.50406204081453
 10
144.8057498993725
 20
73.57496641227033
 10
144.8321048798347
 20
73.85927291719056
 10
144.8559191023765
 20
74.15468985505073
 10
144.8771925669979
 20
74.45525290429201
 10
144.8963451447112
 20
74.75448097903274
 10
144.9134521969802
 20
75.04244789790606
 10
144.9279538957884
 20
75.30166980132432
 10
144.9403777713824
 20
75.53462285166756
 10
144.9520803301085
 20
75.76505667593721
 10
144.9632661245122
 20
75.99572735052148
 10
144.9680677263448
 20
76.09852038706261
  0
LINE
  5
1EA
330
79
100
AcDbEntity
  8
Livello 1
 62
    18
420
        0
370
     0
100
AcDbLine
 10
144.7528030881336
 20
73.08548293935666
 30
0.0
 11
144.7986982195515
 21
73.50776551846117
 31
0.0
  0
LWPOLYLINE
  5
1EB
330
79
100
AcDbEntity
  8
Livello 1
 62
    18
420
        0
370
     0
100
AcDbPolyline
 90
        3
 70
     0
 43
0.0
 10
144.4778091069469
 20
71.21001602088021
 10
144.7527707903634
 20
73.08546140750988
 10
144.7990534950231
 20
73.51112448655928
  0
LINE
  5
1EC
330
79
100
AcDbEntity
  8
Livello 1
 62
    18
420
        0
370
     0
100
AcDbLine
 10
144.0946606593702
 20
69.38667770346497
 30
0.0
 11
144.4778091069469
 21
71.21005908457378
 31
0.0
  0
LINE
  5
1ED
330
79
100
AcDbEntity
  8
Livello 1
 62
    18
420
        0
370
     0
100
AcDbLine
 10
143.6082454746234
 20
67.62431757613862
 30
0.0
 11
144.0946929571407
 21
69.3867638308521
 31
0.0
  0
LINE
  5
1EE
330
79
100
AcDbEntity
  8
Livello 1
 62
    18
420
        0
370
     0
100
AcDbLine
 10
143.0227084332113
 20
65.92364618984504
 30
0.0
 11
143.6082885383167
 21
67.62433910798541
 31
0.0
  0
LINE
  5
1EF
330
79
100
AcDbEntity
  8
Livello 1
 62
    18
420
        0
370
     0
100
AcDbLine
 10
142.3390615319337
 20
64.27910832811424
 30
0.0
 11
143.0227407309815
 21
65.92368925353861
 31
0.0
  0
LWPOLYLINE
  5
1F0
330
79
100
AcDbEntity
  8
Livello 1
 62
    18
420
        0
370
     0
100
AcDbPolyline
 90
        3
 70
     0
 43
0.0
 10
144.9896857005147
 20
169.471083280793
 10
144.9901809329907
 20
169.5374013688841
 10
144.9906438676966
 20
169.6037302228989
  0
LWPOLYLINE
  5
1F1
330
79
100
AcDbEntity
  8
Livello 1
 62
    18
420
        0
370
     0
100
AcDbPolyline
 90
        5
 70
     0
 43
0.0
 10
99.67940230526711
 20
146.0116732762141
 10
98.31683474308031
 20
143.6651110819765
 10
97.28581455765555
 20
141.1551221706574
 10
96.60537590154852
 20
138.5283445223883
 10
96.28822256436144
 20
135.8334724086686
  0
LWPOLYLINE
  5
1F2
330
79
100
AcDbEntity
  8
Livello 1
 62
    18
420
        0
370
     0
100
AcDbPolyline
 90
        5
 70
     0
 43
0.0
 10
136.0846306354667
 20
135.8334724086686
 10
135.7675526597433
 20
138.5279569491462
 10
135.0873293221038
 20
141.1543900878668
 10
134.056545986994
 20
143.6640452555607
 10
132.6943229343557
 20
146.0103705994837
  0
LWPOLYLINE
  5
1F3
330
79
100
AcDbEntity
  8
Livello 1
 62
    18
420
        0
370
     0
100
AcDbPolyline
 90
        3
 70
     0
 43
0.0
 10
142.1490860477689
 20
157.6220541665949
 10
142.1680663707079
 20
157.6635029716518
 10
142.1869820981067
 20
157.7050271381725
  0
LWPOLYLINE
  5
1F4
330
79
100
AcDbEntity
  8
Livello 1
 62
    18
420
        0
370
     0
100
AcDbPolyline
 90
        3
 70
     0
 43
0.0
 10
91.76391862058657
 20
154.7108300564015
 10
92.16968627320866
 20
154.0614618552021
 10
92.59305621057569
 20
153.4234301713338
  0
LWPOLYLINE
  5
1F5
330
79
100
AcDbEntity
  8
Livello 1
 62
    18
420
        0
370
     0
100
AcDbPolyline
 90
        3
 70
     0
 43
0.0
 10
92.59294855134177
 20
153.4236131920314
 10
92.69482648439465
 20
153.2756140431701
 10
92.79766258462936
 20
153.1282608497116
  0
LWPOLYLINE
  5
1F6
330
79
100
AcDbEntity
  8
Livello 1
 62
    18
420
        0
370
     0
100
AcDbPolyline
 90
        3
 70
     0
 43
0.0
 10
101.6147492896462
 20
144.7700070337131
 10
101.7482036760061
 20
144.7053468978243
 10
101.8819702741443
 20
144.6413865469559
  0
LWPOLYLINE
  5
1F7
330
79
100
AcDbEntity
  8
Livello 1
 62
    18
420
        0
370
     0
100
AcDbPolyline
 90
        3
 70
     0
 43
0.0
 10
94.11846912998058
 20
151.0937274131271
 10
94.72735745922831
 20
150.3903250424263
 10
95.35883269575121
 20
149.7070980121612
  0
LWPOLYLINE
  5
1F8
330
79
100
AcDbEntity
  8
Livello 1
 62
    18
420
        0
370
     0
100
AcDbPolyline
 90
        3
 70
     0
 43
0.0
 10
95.45358358751899
 20
149.6083529628149
 10
95.72395898757076
 20
149.3317763908897
 10
95.99802709934577
 20
149.058870998841
  0
LWPOLYLINE
  5
1F9
330
79
100
AcDbEntity
  8
Livello 1
 62
    18
420
        0
370
     0
100
AcDbPolyline
 90
        3
 70
     0
 43
0.0
 10
95.35883269575121
 20
149.7070980121612
 10
95.40613816313307
 20
149.6576716578709
 10
95.45358358751899
 20
149.6083529628149
  0
LWPOLYLINE
  5
1FA
330
79
100
AcDbEntity
  8
Livello 1
 62
    18
420
        0
370
     0
100
AcDbPolyline
 90
        3
 70
     0
 43
0.0
 10
91.08838922554605
 20
155.8880407155581
 10
91.41911839213003
 20
155.2953766328612
 10
91.76391862058657
 20
154.7108300564015
  0
LWPOLYLINE
  5
1FB
330
79
100
AcDbEntity
  8
Livello 1
 62
    18
420
        0
370
     0
100
AcDbPolyline
 90
        3
 70
     0
 43
0.0
 10
89.84759502283976
 20
157.9459685036721
 10
90.20436157514586
 20
157.1719739732938
 10
90.58395188504173
 20
156.4089176210811
  0
LWPOLYLINE
  5
1FC
330
79
100
AcDbEntity
  8
Livello 1
 62
    18
420
        0
370
     0
100
AcDbPolyline
 90
        3
 70
     0
 43
0.0
 10
88.67711306580273
 20
161.064242852529
 10
88.88476081321448
 20
160.422227777006
 10
89.10747008745078
 20
159.78525115363
  0
LWPOLYLINE
  5
1FD
330
79
100
AcDbEntity
  8
Livello 1
 62
    18
420
        0
370
     0
100
AcDbPolyline
 90
        3
 70
     0
 43
0.0
 10
88.53039506182465
 20
161.5519930117767
 10
88.60267747147455
 20
161.3078003374128
 10
88.67711306580273
 20
161.064242852529
  0
LWPOLYLINE
  5
1FE
330
79
100
AcDbEntity
  8
Livello 1
 62
    18
420
        0
370
     0
100
AcDbPolyline
 90
        3
 70
     0
 43
0.0
 10
131.7759035416817
 20
145.3850750029875
 10
131.8681244414524
 20
145.4446966867291
 10
131.9601300227554
 20
145.5046628800192
  0
LWPOLYLINE
  5
1FF
330
79
100
AcDbEntity
  8
Livello 1
 62
    18
420
        0
370
     0
100
AcDbPolyline
 90
        3
 70
     0
 43
0.0
 10
130.9543559276835
 20
144.8753085304044
 10
131.3672829193609
 20
145.1267682030575
 10
131.7759035416817
 20
145.3850750029875
  0
LWPOLYLINE
  5
200
330
79
100
AcDbEntity
  8
Livello 1
 62
    18
420
        0
370
     0
100
AcDbPolyline
 90
        3
 70
     0
 43
0.0
 10
131.9601300227554
 20
145.5046628800192
 10
132.478961402834
 20
145.8523268440979
 10
132.990202806922
 20
146.2111012411165
  0
LWPOLYLINE
  5
201
330
79
100
AcDbEntity
  8
Livello 1
 62
    18
420
        0
370
     0
100
AcDbPolyline
 90
        3
 70
     0
 43
0.0
 10
130.8674318622213
 20
144.8235567366619
 10
130.9109261927225
 20
144.8493841868779
 10
130.9543559276835
 20
144.8753085304044
  0
LWPOLYLINE
  5
202
330
79
100
AcDbEntity
  8
Livello 1
 62
    18
420
        0
370
     0
100
AcDbPolyline
 90
        3
 70
     0
 43
0.0
 10
141.2491517455579
 20
155.8260289968236
 10
141.7147133366959
 20
156.7162309042891
 10
142.1490860477689
 20
157.6220541665949
  0
LWPOLYLINE
  5
203
330
79
100
AcDbEntity
  8
Livello 1
 62
    18
420
        0
370
     0
100
AcDbPolyline
 90
        3
 70
     0
 43
0.0
 10
87.41900187532136
 20
168.1373360955253
 10
87.67021931469811
 20
165.5406492031352
 10
88.15482582431547
 20
162.9772182481012
  0
LWPOLYLINE
  5
204
330
79
100
AcDbEntity
  8
Livello 1
 62
    18
420
        0
370
     0
100
AcDbPolyline
 90
       11
 70
     0
 43
0.0
 10
87.38234928913533
 20
169.6037302228989
 10
87.53570448488419
 20
166.6351775706462
 10
87.99420901323909
 20
163.6982659672406
 10
88.75296437905687
 20
160.8242165905177
 10
89.80385307610047
 20
158.0436584925258
 10
91.13569469292789
 20
155.3862517922084
 10
92.73433742324112
 20
152.880224740697
 10
94.58276034215835
 20
150.5523198916968
 10
96.66121874617976
 20
148.4272881030841
 10
98.94764249235294
 20
146.5277593458279
 10
101.4176467641964
 20
144.874005853674
  0
LWPOLYLINE
  5
205
330
79
100
AcDbEntity
  8
Livello 1
 62
    18
420
        0
370
     0
100
AcDbPolyline
 90
       11
 70
     0
 43
0.0
 10
130.9552387334016
 20
144.874005853674
 10
133.4252107074748
 20
146.5277593458279
 10
135.711634453648
 20
148.4272881030841
 10
137.7900928576694
 20
150.5523198916968
 10
139.6385157765867
 20
152.880224740697
 10
141.2371585069002
 20
155.3862517922084
 10
142.5690001237273
 20
158.0436584925258
 10
143.6199265015028
 20
160.8242165905177
 10
144.3786441865887
 20
163.6982659672406
 10
144.8371540979053
 20
166.6351775706462
 10
144.9905362084626
 20
169.6037302228989
  0
LWPOLYLINE
  5
206
330
79
100
AcDbEntity
  8
Livello 1
 62
    18
420
        0
370
     0
100
AcDbPolyline
 90
        3
 70
     0
 43
0.0
 10
88.15482582431547
 20
162.9772182481012
 10
88.17197055731627
 20
162.9051834546892
 10
88.18926063028287
 20
162.8332132568177
  0
LWPOLYLINE
  5
207
330
79
100
AcDbEntity
  8
Livello 1
 62
    18
420
        0
370
     0
100
AcDbPolyline
 90
        3
 70
     0
 43
0.0
 10
88.18926063028287
 20
162.8332132568177
 10
88.3524558800115
 20
162.1906275873549
 10
88.53039506182465
 20
161.5519930117767
  0
LWPOLYLINE
  5
208
330
79
100
AcDbEntity
  8
Livello 1
 62
    18
420
        0
370
     0
100
AcDbPolyline
 90
        3
 70
     0
 43
0.0
 10
89.28050539115915
 20
159.3208522822184
 10
89.51411516282927
 20
158.72977079026
 10
89.76074093587959
 20
158.1440184303804
  0
LWPOLYLINE
  5
209
330
79
100
AcDbEntity
  8
Livello 1
 62
    18
420
        0
370
     0
100
AcDbPolyline
 90
        3
 70
     0
 43
0.0
 10
89.10747008745078
 20
159.78525115363
 10
89.19298381694872
 20
159.5526641446824
 10
89.28050539115915
 20
159.3208522822184
  0
LWPOLYLINE
  5
20A
330
79
100
AcDbEntity
  8
Livello 1
 62
    18
420
        0
370
     0
100
AcDbPolyline
 90
        3
 70
     0
 43
0.0
 10
89.76074093587959
 20
158.1440184303804
 10
89.80395535237269
 20
158.0449288714859
 10
89.84759502283976
 20
157.9459685036721
  0
LWPOLYLINE
  5
20B
330
79
100
AcDbEntity
  8
Livello 1
 62
    18
420
        0
370
     0
100
AcDbPolyline
 90
        3
 70
     0
 43
0.0
 10
140.635774026256
 20
154.7570373995974
 10
140.9482334208447
 20
155.288217293806
 10
141.2491517455579
 20
155.8260289968236
  0
LWPOLYLINE
  5
20C
330
79
100
AcDbEntity
  8
Livello 1
 62
    18
420
        0
370
     0
100
AcDbPolyline
 90
        3
 70
     0
 43
0.0
 10
101.4184649743741
 20
144.8752439348641
 10
101.4618839434116
 20
144.8493088254142
 10
101.5053890398366
 20
144.8234921411216
  0
LWPOLYLINE
  5
20D
330
79
100
AcDbEntity
  8
Livello 1
 62
    18
420
        0
370
     0
100
AcDbPolyline
 90
        3
 70
     0
 43
0.0
 10
100.3145164238959
 20
145.5691184633636
 10
100.8625880519056
 20
145.2159854102021
 10
101.4184649743741
 20
144.8752439348641
  0
LWPOLYLINE
  5
20E
330
79
100
AcDbEntity
  8
Livello 1
 62
    18
420
        0
370
     0
100
AcDbPolyline
 90
        3
 70
     0
 43
0.0
 10
92.4337097784595
 20
153.3146405154636
 10
93.24932536866901
 20
152.1839171135111
 10
94.11846912998058
 20
151.0937274131271
  0
LWPOLYLINE
  5
20F
330
79
100
AcDbEntity
  8
Livello 1
 62
    18
420
        0
370
     0
100
AcDbPolyline
 90
        3
 70
     0
 43
0.0
 10
95.99802709934577
 20
149.058870998841
 10
98.07225449547434
 20
147.2101035703752
 10
100.3145164238959
 20
145.5691184633636
  0
LWPOLYLINE
  5
210
330
79
100
AcDbEntity
  8
Livello 1
 62
    18
420
        0
370
     0
100
AcDbPolyline
 90
        3
 70
     0
 43
0.0
 10
102.04121981295
 20
144.7363850549617
 10
102.7537624526102
 20
144.3443762524339
 10
103.4770925475085
 20
143.9727258110391
  0
LWPOLYLINE
  5
211
330
79
100
AcDbEntity
  8
Livello 1
 62
    18
420
        0
370
     0
100
AcDbPolyline
 90
        3
 70
     0
 43
0.0
 10
128.8957929500897
 20
143.9728011725029
 10
129.6872175104387
 20
144.3806789461097
 10
130.4656153034839
 20
144.812941536198
  0
LWPOLYLINE
  5
212
330
79
100
AcDbEntity
  8
Livello 1
 62
    18
420
        0
370
     0
100
AcDbPolyline
 90
        3
 70
     0
 43
0.0
 10
139.7796247344782
 20
153.4232902143297
 10
140.2170980314876
 20
154.0841456557878
 10
140.635774026256
 20
154.7570373995974
  0
LWPOLYLINE
  5
213
330
79
100
AcDbEntity
  8
Livello 1
 62
    18
420
        0
370
     0
100
AcDbPolyline
 90
        3
 70
     0
 43
0.0
 10
139.5362718021385
 20
153.0724933665441
 10
139.6587987762561
 20
153.2476764719691
 10
139.7799800099497
 20
153.4237854468057
  0
LWPOLYLINE
  5
214
330
79
100
AcDbEntity
  8
Livello 1
 62
    18
420
        0
370
     0
100
AcDbPolyline
 90
        3
 70
     0
 43
0.0
 10
90.58395188504173
 20
156.4089176210811
 10
91.46070715419103
 20
154.8330232868939
 10
92.4337097784595
 20
153.3146405154636
  0
LWPOLYLINE
  5
215
330
79
100
AcDbEntity
  8
Livello 1
 62
    18
420
        0
370
     0
100
AcDbPolyline
 90
        3
 70
     0
 43
0.0
 10
90.31100342929942
 20
157.4296455837437
 10
90.68812295977698
 20
156.6530026362111
 10
91.08838922554605
 20
155.8880407155581
  0
LWPOLYLINE
  5
216
330
79
100
AcDbEntity
  8
Livello 1
 62
    18
420
        0
370
     0
100
AcDbPolyline
 90
        3
 70
     0
 43
0.0
 10
130.4906353094455
 20
144.641278887722
 10
130.6793296487266
 20
144.731798771597
 10
130.8674318622213
 20
144.8235567366619
  0
LWPOLYLINE
  5
217
330
79
100
AcDbEntity
  8
Livello 1
 62
    18
420
        0
370
     0
100
AcDbPolyline
 90
        3
 70
     0
 43
0.0
 10
101.5053890398366
 20
144.8234921411216
 10
101.5600261010477
 20
144.7967065237238
 10
101.6147492896462
 20
144.7700070337131
  0
LWPOLYLINE
  5
218
330
79
100
AcDbEntity
  8
Livello 1
 62
    18
420
        0
370
     0
100
AcDbPolyline
 90
        3
 70
     0
 43
0.0
 10
116.1864481317607
 20
195.9382554306161
 10
116.1062204706482
 20
195.9335399561707
 10
116.0271339974146
 20
195.9194796602215
  0
LWPOLYLINE
  5
219
330
79
100
AcDbEntity
  8
Livello 1
 62
    18
420
        0
370
     0
100
AcDbPolyline
 90
        3
 70
     0
 43
0.0
 10
116.446057608421
 20
195.8870957626602
 10
116.3951778544736
 20
195.9056346827401
 10
116.3430061897185
 20
195.9201040837782
  0
LWPOLYLINE
  5
21A
330
79
100
AcDbEntity
  8
Livello 1
 62
    18
420
        0
370
     0
100
AcDbPolyline
 90
        3
 70
     0
 43
0.0
 10
116.0271339974146
 20
195.9194796602215
 10
115.9766418167089
 20
195.9053117050384
 10
115.9274307808868
 20
195.8873326129748
  0
LINE
  5
21B
330
79
100
AcDbEntity
  8
Livello 1
 62
    18
420
        0
370
     0
100
AcDbLine
 10
116.1864481317607
 20
195.9356285453086
 30
0.0
 11
116.2464143250508
 21
195.9382554306161
 31
0.0
  0
LWPOLYLINE
  5
21C
330
79
100
AcDbEntity
  8
Livello 1
 62
    18
420
        0
370
     0
100
AcDbPolyline
 90
        3
 70
     0
 43
0.0
 10
116.3430061897185
 20
195.9201040837782
 10
116.2949901713928
 20
195.9295996282094
 10
116.2464143250508
 20
195.9356285453086
  0
LWPOLYLINE
  5
21D
330
79
100
AcDbEntity
  8
Livello 1
 62
    18
420
        0
370
     0
100
AcDbPolyline
 90
        4
 70
     0
 43
0.0
 10
115.9274307808868
 20
195.8873326129748
 10
115.5261525183193
 20
195.4331183050913
 10
115.6430596804262
 20
194.8384086969501
 10
116.1864481317607
 20
194.5699065675684
  0
LWPOLYLINE
  5
21E
330
79
100
AcDbEntity
  8
Livello 1
 62
    18
420
        0
370
     0
100
AcDbPolyline
 90
        4
 70
     0
 43
0.0
 10
116.1864481317607
 20
194.5699065675684
 10
116.7296535623974
 20
194.8382364421758
 10
116.8468406385129
 20
195.4326661363089
 10
116.446057608421
 20
195.8870957626602
  0
LWPOLYLINE
  5
21F
330
79
100
AcDbEntity
  8
Livello 1
 62
    18
420
        0
370
     0
100
AcDbPolyline
 90
        3
 70
     0
 43
0.0
 10
116.1864481317607
 20
194.6958248075543
 10
116.2716388835568
 20
194.7019829157342
 10
116.3551070876104
 20
194.7203065173464
  0
LWPOLYLINE
  5
220
330
79
100
AcDbEntity
  8
Livello 1
 62
    18
420
        0
370
     0
100
AcDbPolyline
 90
        3
 70
     0
 43
0.0
 10
116.0357036724342
 20
194.715289597046
 10
116.1104514785407
 20
194.7007340686208
 10
116.1864481317607
 20
194.6958248075543
  0
LWPOLYLINE
  5
221
330
79
100
AcDbEntity
  8
Livello 1
 62
    18
420
        0
370
     0
100
AcDbPolyline
 90
        4
 70
     0
 43
0.0
 10
116.3551070876104
 20
194.7203065173464
 10
116.7126434034393
 20
195.0152712864241
 10
116.7489137993447
 20
195.4773447183832
 10
116.4417835368346
 20
195.8244380885222
  0
LWPOLYLINE
  5
222
330
79
100
AcDbEntity
  8
Livello 1
 62
    18
420
        0
370
     0
100
AcDbPolyline
 90
        4
 70
     0
 43
0.0
 10
115.9086011808753
 20
195.8131123371144
 10
115.6170922732062
 20
195.4553822346648
 10
115.6701575096027
 20
194.9969692166587
 10
116.0357036724342
 20
194.715289597046
  0
LINE
  5
223
330
79
100
AcDbEntity
  8
Livello 1
 62
    18
420
        0
370
     0
100
AcDbLine
 10
116.2484921482653
 20
194.7501496569874
 30
0.0
 11
116.3102993144554
 21
194.760894048532
 31
0.0
  0
LINE
  5
224
330
79
100
AcDbEntity
  8
Livello 1
 62
    18
420
        0
370
     0
100
AcDbLine
 10
116.0609282309403
 20
195.8194857637621
 30
0.0
 11
116.0781429424434
 21
195.8232753687959
 31
0.0
  0
LINE
  5
225
330
79
100
AcDbEntity
  8
Livello 1
 62
    18
420
        0
370
     0
100
AcDbLine
 10
116.0781429424434
 20
195.8232753687959
 30
0.0
 11
116.1234351821508
 21
195.8305316011617
 31
0.0
  0
LWPOLYLINE
  5
226
330
79
100
AcDbEntity
  8
Livello 1
 62
    18
420
        0
370
     0
100
AcDbPolyline
 90
        3
 70
     0
 43
0.0
 10
116.0269186789468
 20
194.7704757203503
 10
116.1058005996356
 20
194.7526258193674
 10
116.1864481317607
 20
194.7465538385746
  0
LWPOLYLINE
  5
227
330
79
100
AcDbEntity
  8
Livello 1
 62
    18
420
        0
370
     0
100
AcDbPolyline
 90
        3
 70
     0
 43
0.0
 10
116.2941073656747
 20
195.8234906872637
 10
116.2405253649557
 20
195.8315220661137
 10
116.1864481317607
 20
195.8342350788083
  0
LINE
  5
228
330
79
100
AcDbEntity
  8
Livello 1
 62
    18
420
        0
370
     0
100
AcDbLine
 10
116.2941073656747
 20
195.805619254434
 30
0.0
 11
116.3605008152295
 21
195.8234906872637
 31
0.0
  0
LINE
  5
229
330
79
100
AcDbEntity
  8
Livello 1
 62
    18
420
        0
370
     0
100
AcDbLine
 10
116.1864481317607
 20
194.7465538385746
 30
0.0
 11
116.2484921482653
 21
194.7501496569874
 31
0.0
  0
LINE
  5
22A
330
79
100
AcDbEntity
  8
Livello 1
 62
    18
420
        0
370
     0
100
AcDbLine
 10
116.1234351821508
 20
195.8305316011617
 30
0.0
 11
116.1864481317607
 21
195.8342350788083
 31
0.0
  0
LWPOLYLINE
  5
22B
330
79
100
AcDbEntity
  8
Livello 1
 62
    18
420
        0
370
     0
100
AcDbPolyline
 90
        3
 70
     0
 43
0.0
 10
116.0142579530385
 20
194.8030534045327
 10
116.0989857701292
 20
194.780229646943
 10
116.1864481317607
 20
194.7724781821012
  0
LWPOLYLINE
  5
22C
330
79
100
AcDbEntity
  8
Livello 1
 62
    18
420
        0
370
     0
100
AcDbPolyline
 90
        4
 70
     0
 43
0.0
 10
116.3563451688004
 20
194.802235194355
 10
116.6277002678808
 20
195.0369538561344
 10
116.672292722568
 20
195.3929398789946
 10
116.4671157545746
 20
195.6873017563625
  0
LWPOLYLINE
  5
22D
330
79
100
AcDbEntity
  8
Livello 1
 62
    18
420
        0
370
     0
100
AcDbPolyline
 90
        4
 70
     0
 43
0.0
 10
115.9083858624078
 20
195.6890673677986
 10
115.7013033259737
 20
195.39578208277
 10
115.7438825529871
 20
195.0393008274337
 10
116.0142579530385
 20
194.8030534045327
  0
LWPOLYLINE
  5
22E
330
79
100
AcDbEntity
  8
Livello 1
 62
    18
420
        0
370
     0
100
AcDbPolyline
 90
        4
 70
     0
 43
0.0
 10
135.0732797920783
 20
226.767812036407
 10
132.728300188579
 20
228.5978682900185
 10
130.2083743299699
 20
230.1784135031108
 10
127.5399648559459
 20
231.4929112173547
  0
LWPOLYLINE
  5
22F
330
79
100
AcDbEntity
  8
Livello 1
 62
    18
420
        0
370
     0
100
AcDbPolyline
 90
        3
 70
     0
 43
0.0
 10
139.9594371869611
 20
221.2804424156543
 10
139.5588910071838
 20
221.8514239286409
 10
139.1447259343165
 20
222.4125869194945
  0
LWPOLYLINE
  5
230
330
79
100
AcDbEntity
  8
Livello 1
 62
    18
420
        0
370
     0
100
AcDbPolyline
 90
        3
 70
     0
 43
0.0
 10
125.6421909442025
 20
232.2283099123748
 10
123.6119531110512
 20
232.850192711156
 10
121.5415799154967
 20
233.321589432772
  0
LWPOLYLINE
  5
231
330
79
100
AcDbEntity
  8
Livello 1
 62
    18
420
        0
370
     0
100
AcDbPolyline
 90
        3
 70
     0
 43
0.0
 10
139.1447259343165
 20
222.4125869194945
 10
138.6580308355612
 20
223.0377425589867
 10
138.1543794074644
 20
223.6492900713121
  0
LWPOLYLINE
  5
232
330
79
100
AcDbEntity
  8
Livello 1
 62
    18
420
        0
370
     0
100
AcDbPolyline
 90
        3
 70
     0
 43
0.0
 10
88.33082713991847
 20
212.3502381535639
 10
87.68778391871119
 20
209.2009902431099
 10
87.39847125941395
 20
205.9998075182158
  0
LWPOLYLINE
  5
233
330
79
100
AcDbEntity
  8
Livello 1
 62
    18
420
        0
370
     0
100
AcDbPolyline
 90
        3
 70
     0
 43
0.0
 10
92.02935246180169
 20
220.7041856002059
 10
90.6019094452586
 20
218.2501579586753
 10
89.42228721926227
 20
215.667822042166
  0
LWPOLYLINE
  5
234
330
79
100
AcDbEntity
  8
Livello 1
 62
    18
420
        0
370
     0
100
AcDbPolyline
 90
        3
 70
     0
 43
0.0
 10
89.21732556973669
 20
215.1374711240585
 10
88.73871029648666
 20
213.7551050287552
 10
88.33082713991847
 20
212.3502381535639
  0
LWPOLYLINE
  5
235
330
79
100
AcDbEntity
  8
Livello 1
 62
    18
420
        0
370
     0
100
AcDbPolyline
 90
       33
 70
     0
 43
0.0
 10
144.9905362084626
 20
205.0208190405417
 10
144.8518280514878
 20
207.8440963225507
 10
144.4370600869105
 20
210.6402219457666
 10
143.7502372382323
 20
213.382173442477
 10
142.797948250569
 20
216.0436388959131
 10
141.5893764565731
 20
218.5989523447101
 10
140.1361705853544
 20
221.0234813561482
 10
138.4522940395514
 20
223.2939284720086
 10
136.5540033634852
 20
225.3883742722662
 10
134.4595575632276
 20
227.2866649483324
 10
132.1891104473672
 20
228.9705414941354
 10
129.7645814359291
 20
230.4237473653541
 10
127.2092679871321
 20
231.6323299252733
 10
124.5478025336959
 20
232.5846189129368
 10
121.8058402710622
 20
233.2714417616149
 10
119.0097254137697
 20
233.6862097261922
 10
116.1864481317607
 20
233.8249178831671
 10
113.3631277860581
 20
233.6862097261922
 10
110.5670452265357
 20
233.2714417616149
 10
107.8250506661318
 20
232.5846189129368
 10
105.1635852126956
 20
231.6323299252733
 10
102.6082717638987
 20
230.4237473653541
 10
100.1837427524606
 20
228.9705414941354
 10
97.91329563660024
 20
227.2866649483324
 10
95.8188498363426
 20
225.3883742722662
 10
93.92055916027636
 20
223.2939284720086
 10
92.23671491224356
 20
221.0234813561482
 10
90.78347674325497
 20
218.5989523447101
 10
89.57493186406733
 20
216.0436388959131
 10
88.62264825936561
 20
213.382173442477
 10
87.93578772995562
 20
210.6402219457666
 10
87.52102514834001
 20
207.8440963225507
 10
87.38234928913533
 20
205.0208190405417
  0
LWPOLYLINE
  5
236
330
79
100
AcDbEntity
  8
Livello 1
 62
    18
420
        0
370
     0
100
AcDbPolyline
 90
        3
 70
     0
 43
0.0
 10
91.36034721633635
 20
219.2264334236548
 10
91.05490720379878
 20
218.6740338944417
 10
90.76167574838706
 20
218.1150240882664
  0
LWPOLYLINE
  5
237
330
79
100
AcDbEntity
  8
Livello 1
 62
    18
420
        0
370
     0
100
AcDbPolyline
 90
        3
 70
     0
 43
0.0
 10
126.092335733044
 20
232.0678330583025
 10
125.867586316325
 20
232.1490081206737
 10
125.6421909442025
 20
232.2283099123748
  0
LWPOLYLINE
  5
238
330
79
100
AcDbEntity
  8
Livello 1
 62
    18
420
        0
370
     0
100
AcDbPolyline
 90
        3
 70
     0
 43
0.0
 10
138.1543794074644
 20
223.6492900713121
 10
136.6735912405169
 20
225.2675806118146
 10
135.0732797920783
 20
226.767812036407
  0
LWPOLYLINE
  5
239
330
79
100
AcDbEntity
  8
Livello 1
 62
    18
420
        0
370
     0
100
AcDbPolyline
 90
        3
 70
     0
 43
0.0
 10
89.42228721926227
 20
215.667822042166
 10
89.31849833480743
 20
215.4031741133584
 10
89.21732556973669
 20
215.1374711240585
  0
LWPOLYLINE
  5
23A
330
79
100
AcDbEntity
  8
Livello 1
 62
    18
420
        0
370
     0
100
AcDbPolyline
 90
        3
 70
     0
 43
0.0
 10
127.5399648559459
 20
231.4929112173547
 10
126.8200798565328
 20
231.7902229577317
 10
126.092335733044
 20
232.0678330583025
  0
LWPOLYLINE
  5
23B
330
79
100
AcDbEntity
  8
Livello 1
 62
    18
420
        0
370
     0
100
AcDbPolyline
 90
        3
 70
     0
 43
0.0
 10
136.8493126421117
 20
224.8094690396635
 10
136.7387466088817
 20
224.924126123782
 10
136.6275130884017
 20
225.038137252497
  0
LWPOLYLINE
  5
23C
330
79
100
AcDbEntity
  8
Livello 1
 62
    18
420
        0
370
     0
100
AcDbPolyline
 90
        3
 70
     0
 43
0.0
 10
137.867564442394
 20
223.6898130069573
 10
137.365915476048
 20
224.2564178898533
 10
136.8493126421117
 20
224.8094690396635
  0
LWPOLYLINE
  5
23D
330
79
100
AcDbEntity
  8
Livello 1
 62
    18
420
        0
370
     0
100
AcDbPolyline
 90
        3
 70
     0
 43
0.0
 10
91.97177630350479
 20
220.2527704324043
 10
91.66063035156943
 20
219.7428747687405
 10
91.36034721633635
 20
219.2264334236548
  0
LWPOLYLINE
  5
23E
330
79
100
AcDbEntity
  8
Livello 1
 62
    18
420
        0
370
     0
100
AcDbPolyline
 90
        3
 70
     0
 43
0.0
 10
93.15023580977451
 20
221.9891416206638
 10
92.86758725705686
 20
221.5977357098458
 10
92.59178583161551
 20
221.201463601655
  0
LWPOLYLINE
  5
23F
330
79
100
AcDbEntity
  8
Livello 1
 62
    18
420
        0
370
     0
100
AcDbPolyline
 90
        3
 70
     0
 43
0.0
 10
92.59175353384533
 20
221.2014205379614
 10
92.27692563611077
 20
220.7302606666599
 10
91.97177630350479
 20
220.2527704324043
  0
LWPOLYLINE
  5
240
330
79
100
AcDbEntity
  8
Livello 1
 62
    18
420
        0
370
     0
100
AcDbPolyline
 90
       33
 70
     0
 43
0.0
 10
123.2186093340228
 20
205.0338242759985
 10
123.0834969954607
 20
206.4057474256121
 10
122.6833060911553
 20
207.7249175506078
 10
122.0334857211735
 20
208.9407132791993
 10
121.1589159344726
 20
210.0063459083274
 10
120.093315603115
 20
210.8808833972581
 10
118.8775414063703
 20
211.5307360650101
 10
117.558328217681
 20
211.9308839056219
 10
116.1864481317607
 20
212.065996244184
 10
114.814524982147
 20
211.9308839056219
 10
113.4953440912279
 20
211.5307360650101
 10
112.2795698944833
 20
210.8808833972581
 10
111.2139372653551
 20
210.0063459083274
 10
110.3393997764245
 20
208.9407132791993
 10
109.6895471086724
 20
207.7249175506078
 10
109.2893562043671
 20
206.4057474256121
 10
109.1542438658049
 20
205.0338242759985
 10
109.2893562043671
 20
203.6619011263849
 10
109.6895471086724
 20
202.3427310013892
 10
110.3393997764245
 20
201.1269568046445
 10
111.2139372653551
 20
200.0613241755164
 10
112.2795698944833
 20
199.1867866865857
 10
113.4953440912279
 20
198.5369340188336
 10
114.814524982147
 20
198.1367861782219
 10
116.1864481317607
 20
198.0016523078129
 10
117.558328217681
 20
198.1367861782219
 10
118.8775414063703
 20
198.5369340188336
 10
120.093315603115
 20
199.1867866865857
 10
121.1589159344726
 20
200.0613241755164
 10
122.0334857211735
 20
201.1269568046445
 10
122.6833060911553
 20
202.3427310013892
 10
123.0834969954607
 20
203.6619011263849
 10
123.2186093340228
 20
205.0338242759985
  0
LWPOLYLINE
  5
241
330
79
100
AcDbEntity
  8
Livello 1
 62
    18
420
        0
370
     0
100
AcDbPolyline
 90
       33
 70
     0
 43
0.0
 10
122.4714219528891
 20
205.0338242759985
 10
122.3506390583609
 20
206.2599768228924
 10
121.992984317375
 20
207.4389961571789
 10
121.4122165800256
 20
208.5256008050735
 10
120.6305997758862
 20
209.4779974519708
 10
119.6781708312187
 20
210.2596034901868
 10
118.5915769492475
 20
210.8404035253064
 10
117.4125576149611
 20
211.1980690322157
 10
116.1864481317607
 20
211.3188196289737
 10
114.960295584867
 20
211.1980690322157
 10
113.7812762505803
 20
210.8404035253064
 10
112.6946823686091
 20
210.2596034901868
 10
111.7422857217118
 20
209.4779974519708
 10
110.9606366198021
 20
208.5256008050735
 10
110.3798581165294
 20
207.4389961571789
 10
110.0222141414669
 20
206.2599768228924
 10
109.9014635447089
 20
205.0338242759985
 10
110.0222141414669
 20
203.8076717291045
 10
110.3798581165294
 20
202.6286739266649
 10
110.9606366198021
 20
201.5420908106171
 10
111.7422857217118
 20
200.5896941637198
 10
112.6946823686091
 20
199.8080665936569
 10
113.7812762505803
 20
199.2272450266906
 10
114.960295584867
 20
198.8696010516281
 10
116.1864481317607
 20
198.74885045487
 10
117.4125576149611
 20
198.8696010516281
 10
118.5915769492475
 20
199.2272450266906
 10
119.6781708312187
 20
199.8080665936569
 10
120.6305997758862
 20
200.5896941637198
 10
121.4122165800256
 20
201.5420908106171
 10
121.992984317375
 20
202.6286739266649
 10
122.3506390583609
 20
203.8076717291045
 10
122.4714219528891
 20
205.0338242759985
  0
LWPOLYLINE
  5
242
330
79
100
AcDbEntity
  8
Livello 1
 62
    18
420
        0
370
     0
100
AcDbPolyline
 90
       33
 70
     0
 43
0.0
 10
122.3844332918865
 20
205.0338242759985
 10
122.2653298814074
 20
206.2430097276276
 10
121.9126274651815
 20
207.4057079220527
 10
121.339858808912
 20
208.4772618090461
 10
120.5690725237043
 20
209.4165024975591
 10
119.6298318351913
 20
210.1872780168434
 10
118.5583102459681
 20
210.7600466731129
 10
117.3955905196962
 20
211.1127167915686
 10
116.1864481317607
 20
211.2318094361243
 10
114.9772626801318
 20
211.1127167915686
 10
113.8145752516299
 20
210.7600466731129
 10
112.7430105987131
 20
210.1872780168434
 10
111.8037806761235
 20
209.4165024975591
 10
111.0329943909158
 20
208.4772618090461
 10
110.4602257346465
 20
207.4057079220527
 10
110.1075233184204
 20
206.2430097276276
 10
109.9884522057114
 20
205.0338242759985
 10
110.1075233184204
 20
203.8246818880629
 10
110.4602257346465
 20
202.6619621617911
 10
111.0329943909158
 20
201.5904462458881
 10
111.8037806761235
 20
200.6512106499783
 10
112.7430105987131
 20
199.8803920670004
 10
113.8145752516299
 20
199.3076449425776
 10
114.9772626801318
 20
198.9549532922751
 10
116.1864481317607
 20
198.8358391158726
 10
117.3955905196962
 20
198.9549532922751
 10
118.5583102459681
 20
199.3076449425776
 10
119.6298318351913
 20
199.8803920670004
 10
120.5690725237043
 20
200.6512106499783
 10
121.339858808912
 20
201.5904462458881
 10
121.9126274651815
 20
202.6619621617911
 10
122.2653298814074
 20
203.8246818880629
 10
122.3844332918865
 20
205.0338242759985
  0
LWPOLYLINE
  5
243
330
79
100
AcDbEntity
  8
Livello 1
 62
    18
420
        0
370
     0
100
AcDbPolyline
 90
       33
 70
     0
 43
0.0
 10
122.118794898127
 20
205.0338242759985
 10
122.0048053012588
 20
206.1912041042682
 10
121.6672397733212
 20
207.304056073391
 10
121.1190174223841
 20
208.3297040630434
 10
120.3812502242178
 20
209.228637134379
 10
119.4822740891886
 20
209.9664043325453
 10
118.4566368654599
 20
210.5146266834825
 10
117.34376336449
 20
210.8522029773434
 10
116.1864481317607
 20
210.9662141060584
 10
115.0290898353378
 20
210.8522029773434
 10
113.9162163343681
 20
210.5146266834825
 10
112.8905791106391
 20
209.9664043325453
 10
111.9916352733801
 20
209.228637134379
 10
111.2538680752139
 20
208.3297040630434
 10
110.7056564902001
 20
207.304056073391
 10
110.368047898569
 20
206.1912041042682
 10
110.2540583017008
 20
205.0338242759985
 10
110.368047898569
 20
203.8765090432692
 10
110.7056564902001
 20
202.7636355422995
 10
111.2538680752139
 20
201.7380090844939
 10
111.9916352733801
 20
200.8390329494647
 10
112.8905791106391
 20
200.1012657512985
 10
113.9162163343681
 20
199.5530434003613
 10
115.0290898353378
 20
199.2154671065004
 10
116.1864481317607
 20
199.101499041479
 10
117.34376336449
 20
199.2154671065004
 10
118.4566368654599
 20
199.5530434003613
 10
119.4822740891886
 20
200.1012657512985
 10
120.3812502242178
 20
200.8390329494647
 10
121.1190174223841
 20
201.7380090844939
 10
121.6672397733212
 20
202.7636355422995
 10
122.0048053012588
 20
203.8765090432692
 10
122.118794898127
 20
205.0338242759985
  0
LWPOLYLINE
  5
244
330
79
100
AcDbEntity
  8
Livello 1
 62
    18
420
        0
370
     0
100
AcDbPolyline
 90
       25
 70
     0
 43
0.0
 10
119.8166636697257
 20
205.0338242759985
 10
119.6929847418052
 20
205.9734310059068
 10
119.3303238464423
 20
206.8489804916363
 10
118.7533995437437
 20
207.6008295175985
 10
118.0015612837049
 20
208.1777322884504
 10
117.126001032052
 20
208.54041471566
 10
116.1864481317607
 20
208.6640936435805
 10
115.2468521677757
 20
208.54041471566
 10
114.3712919161229
 20
208.1777322884504
 10
113.6194536560841
 20
207.6008295175985
 10
113.0425616511556
 20
206.8489804916363
 10
112.6798684580225
 20
205.9734310059068
 10
112.5561787641786
 20
205.0338242759985
 10
112.6798684580225
 20
204.0942821416305
 10
113.0425616511556
 20
203.218732655901
 10
113.6194536560841
 20
202.4668836299388
 10
114.3712919161229
 20
201.8899593272402
 10
115.2468521677757
 20
201.5272984318773
 10
116.1864481317607
 20
201.40359797211
 10
117.126001032052
 20
201.5272984318773
 10
118.0015612837049
 20
201.8899593272402
 10
118.7533995437437
 20
202.4668836299388
 10
119.3303238464423
 20
203.218732655901
 10
119.6929847418052
 20
204.0942821416305
 10
119.8166636697257
 20
205.0338242759985
  0
LWPOLYLINE
  5
245
330
79
100
AcDbEntity
  8
Livello 1
 62
    18
420
        0
370
     0
100
AcDbPolyline
 90
        3
 70
     0
 43
0.0
 10
116.8272251260937
 20
214.6069479511768
 10
116.8510824123291
 20
214.706468147007
 10
116.8596520873486
 20
214.8084214415236
  0
LWPOLYLINE
  5
246
330
79
100
AcDbEntity
  8
Livello 1
 62
    18
420
        0
370
     0
100
AcDbPolyline
 90
        3
 70
     0
 43
0.0
 10
115.5132011124791
 20
214.8084214415236
 10
115.5196929642844
 20
214.7203346563351
 10
115.5375751630373
 20
214.6338627596553
  0
LWPOLYLINE
  5
247
330
79
100
AcDbEntity
  8
Livello 1
 62
    18
420
        0
370
     0
100
AcDbPolyline
 90
        3
 70
     0
 43
0.0
 10
115.5264324323271
 20
214.9463544520143
 10
115.5162694006456
 20
214.8777539881642
 10
115.5132011124791
 20
214.8084214415236
  0
LWPOLYLINE
  5
248
330
79
100
AcDbEntity
  8
Livello 1
 62
    18
420
        0
370
     0
100
AcDbPolyline
 90
        3
 70
     0
 43
0.0
 10
116.8596520873486
 20
214.8084214415236
 10
116.8577788166786
 20
214.8640597336104
 10
116.8512869648735
 20
214.9193750479954
  0
LWPOLYLINE
  5
249
330
79
100
AcDbEntity
  8
Livello 1
 62
    18
420
        0
370
     0
100
AcDbPolyline
 90
        4
 70
     0
 43
0.0
 10
115.5375751630373
 20
214.6338627596553
 10
115.8951222447895
 20
214.2064771328633
 10
116.4521941847544
 20
214.1948714674474
 10
116.8272251260937
 20
214.6069479511768
  0
LWPOLYLINE
  5
24A
330
79
100
AcDbEntity
  8
Livello 1
 62
    18
420
        0
370
     0
100
AcDbPolyline
 90
        5
 70
     0
 43
0.0
 10
115.6041516332897
 20
214.7735398497355
 10
115.7764494712458
 20
214.3649945888784
 10
116.1864481317607
 20
214.1962064419479
 10
116.5964467922756
 20
214.3649945888784
 10
116.7687338643082
 20
214.7735398497355
  0
LWPOLYLINE
  5
24B
330
79
100
AcDbEntity
  8
Livello 1
 62
    18
420
        0
370
     0
100
AcDbPolyline
 90
        3
 70
     0
 43
0.0
 10
87.39847125941395
 20
205.9998075182158
 10
87.38820595146025
 20
205.6012099705724
 10
87.38330207335545
 20
205.202504763695
  0
LWPOLYLINE
  5
24C
330
79
100
AcDbEntity
  8
Livello 1
 62
    18
420
        0
370
     0
100
AcDbPolyline
 90
        3
 70
     0
 43
0.0
 10
90.76167574838706
 20
218.1150240882664
 10
90.58571749647793
 20
217.7646363455697
 10
90.41447471901422
 20
217.4118800997269
  0
LWPOLYLINE
  5
24D
330
79
100
AcDbEntity
  8
Livello 1
 62
    18
420
        0
370
     0
100
AcDbPolyline
 90
        3
 70
     0
 43
0.0
 10
92.96280108353014
 20
222.0563855781665
 10
92.48651663269434
 20
221.3869173979953
 10
92.02935246180169
 20
220.7041856002059
  0
LWPOLYLINE
  5
24E
330
79
100
AcDbEntity
  8
Livello 1
 62
    18
420
        0
370
     0
100
AcDbPolyline
 90
        3
 70
     0
 43
0.0
 10
138.0627936971737
 20
223.4608648801157
 10
137.9655020474856
 20
223.5755865597745
 10
137.867564442394
 20
223.6898130069573
  0
LWPOLYLINE
  5
24F
330
79
100
AcDbEntity
  8
Livello 1
 62
    18
420
        0
370
     0
100
AcDbPolyline
 90
        3
 70
     0
 43
0.0
 10
138.8531201333368
 20
222.4802399820861
 10
138.4634475361849
 20
222.9749772256148
 10
138.0627936971737
 20
223.4608648801157
  0
LWPOLYLINE
  5
250
330
79
100
AcDbEntity
  8
Livello 1
 62
    18
420
        0
370
     0
100
AcDbPolyline
 90
        3
 70
     0
 43
0.0
 10
139.7810673682123
 20
221.201463601655
 10
139.3261640412321
 20
221.847440536986
 10
138.8531201333368
 20
222.4802399820861
  0
LWPOLYLINE
  5
251
330
79
100
AcDbEntity
  8
Livello 1
 62
    18
420
        0
370
     0
100
AcDbPolyline
 90
        3
 70
     0
 43
0.0
 10
140.1350832270919
 20
220.6701868141359
 10
139.9595340802716
 20
220.9369233320813
 10
139.7809597089783
 20
221.2016143245824
  0
LWPOLYLINE
  5
252
330
79
100
AcDbEntity
  8
Livello 1
 62
    18
420
        0
370
     0
100
AcDbPolyline
 90
        3
 70
     0
 43
0.0
 10
92.13708705717948
 20
214.0269876580818
 10
91.711036404888
 20
212.8081990027876
 10
91.34418756532586
 20
211.5703115993969
  0
LWPOLYLINE
  5
253
330
79
100
AcDbEntity
  8
Livello 1
 62
    18
420
        0
370
     0
100
AcDbPolyline
 90
        3
 70
     0
 43
0.0
 10
87.38093895317105
 20
170.1357821569018
 10
87.38118656940937
 20
169.8690564048797
 10
87.38224162990141
 20
169.6022768232407
  0
LWPOLYLINE
  5
254
330
79
100
AcDbEntity
  8
Livello 1
 62
    18
420
        0
370
     0
100
AcDbPolyline
 90
        3
 70
     0
 43
0.0
 10
87.38330207335545
 20
205.202504763695
 10
87.38273686237773
 20
205.1116188384248
 10
87.38234928913533
 20
205.0207329131545
  0
LWPOLYLINE
  5
255
330
79
100
AcDbEntity
  8
Livello 1
 62
    18
420
        0
370
     0
100
AcDbPolyline
 90
        3
 70
     0
 43
0.0
 10
238.8205924261994
 20
214.2982458638517
 10
238.751130688478
 20
214.4612850076911
 10
238.6814751641356
 20
214.6242380241434
  0
LINE
  5
256
330
79
100
AcDbEntity
  8
Livello 1
 62
    18
420
        0
370
     0
100
AcDbLine
 10
187.0137632833351
 20
182.0320198451712
 30
0.0
 11
187.0137848151818
 21
182.0889931117586
 31
0.0
  0
LWPOLYLINE
  5
257
330
79
100
AcDbEntity
  8
Livello 1
 62
    18
420
        0
370
     0
100
AcDbPolyline
 90
        3
 70
     0
 43
0.0
 10
216.5002278823545
 20
144.6413865469559
 10
216.1427992257599
 20
144.7339196585051
 10
215.7846169545278
 20
144.8234921411216
  0
LWPOLYLINE
  5
258
330
79
100
AcDbEntity
  8
Livello 1
 62
    18
420
        0
370
     0
100
AcDbPolyline
 90
        3
 70
     0
 43
0.0
 10
215.7846169545278
 20
144.874005853674
 10
215.3819283559957
 20
144.9997733707325
 10
214.9779263148098
 20
145.1212345184343
  0
LWPOLYLINE
  5
259
330
79
100
AcDbEntity
  8
Livello 1
 62
    18
420
        0
370
     0
100
AcDbPolyline
 90
        3
 70
     0
 43
0.0
 10
214.9779263148098
 20
145.1212345184343
 10
214.7722110506468
 20
145.1812760731882
 10
214.5661512769353
 20
145.2401549082158
  0
LWPOLYLINE
  5
25A
330
79
100
AcDbEntity
  8
Livello 1
 62
    18
420
        0
370
     0
100
AcDbPolyline
 90
        3
 70
     0
 43
0.0
 10
224.8484047940587
 20
142.2920575104068
 10
226.9055143719949
 20
143.0630914118525
 10
228.8978346229618
 20
143.9888101005859
  0
LWPOLYLINE
  5
25B
330
79
100
AcDbEntity
  8
Livello 1
 62
    18
420
        0
370
     0
100
AcDbPolyline
 90
        8
 70
     0
 43
0.0
 10
187.0082511305587
 20
169.6037302228989
 10
187.1512441250433
 20
166.7386811581309
 10
187.5787374110693
 20
163.9020971948104
 10
188.2865538103606
 20
161.1221742862982
 10
189.2676308771727
 20
158.4265270260943
 10
190.5122146849127
 20
155.8419733293663
 10
192.0079674853743
 20
153.3941899234027
 10
193.7399677087369
 20
151.1074431995281
  0
LWPOLYLINE
  5
25C
330
79
100
AcDbEntity
  8
Livello 1
 62
    18
420
        0
370
     0
100
AcDbPolyline
 90
        3
 70
     0
 43
0.0
 10
187.016648550804
 20
171.7911613034877
 10
187.016153318328
 20
171.7002538463707
 10
187.0160456590941
 20
171.6093033255601
  0
LWPOLYLINE
  5
25D
330
79
100
AcDbEntity
  8
Livello 1
 62
    18
420
        0
370
     0
100
AcDbPolyline
 90
        6
 70
     0
 43
0.0
 10
194.3217366769617
 20
150.9464065174392
 10
192.2908528884068
 20
149.2452076008994
 10
190.5036880735867
 20
147.2895453190804
 10
188.9918079198848
 20
145.1140321156854
 10
187.7819765128522
 20
142.7571669327623
 10
186.8955319126507
 20
140.2605923619889
  0
LWPOLYLINE
  5
25E
330
79
100
AcDbEntity
  8
Livello 1
 62
    18
420
        0
370
     0
100
AcDbPolyline
 90
        3
 70
     0
 43
0.0
 10
225.969245078338
 20
135.8334724086686
 10
225.5204783276906
 20
139.1717806997991
 10
224.5156946975707
 20
142.3868191680979
  0
LINE
  5
25F
330
79
100
AcDbEntity
  8
Livello 1
 62
    18
420
        0
370
     0
100
AcDbLine
 10
187.1145107944319
 20
172.2847681250603
 30
0.0
 11
187.1148337721336
 21
172.3471351192667
 31
0.0
  0
LWPOLYLINE
  5
260
330
79
100
AcDbEntity
  8
Livello 1
 62
    18
420
        0
370
     0
100
AcDbPolyline
 90
        4
 70
     0
 43
0.0
 10
228.8979422821956
 20
230.6356638013906
 10
225.688189882282
 20
232.0392818294685
 10
222.3316548828498
 20
233.04251516662
 10
218.8780973818143
 20
233.6304207111779
  0
LWPOLYLINE
  5
261
330
79
100
AcDbEntity
  8
Livello 1
 62
    18
420
        0
370
     0
100
AcDbPolyline
 90
       16
 70
     0
 43
0.0
 10
214.051454011439
 20
233.7449486042157
 10
211.1725384373432
 20
233.4251791476441
 10
208.340346970766
 20
232.8176150269736
 10
205.5836030953159
 20
231.9284143503838
 10
202.9302120844233
 20
230.7665343661365
 10
200.4070672147199
 20
229.3438606536558
 10
198.0397267883368
 20
227.6746903592055
 10
195.8521772825903
 20
225.7760121098971
 10
193.8666180315134
 20
223.6669892493676
 10
192.1031167163075
 20
221.3690674970123
 10
190.5795663016494
 20
218.9054797155102
 10
189.3114051216821
 20
216.3012459108227
 10
188.3114446252416
 20
213.5826995315653
 10
187.5899124395496
 20
210.7773798097731
 10
187.1540217332783
 20
207.9137303150463
 10
187.0082511305587
 20
205.0208190405417
  0
LWPOLYLINE
  5
262
330
79
100
AcDbEntity
  8
Livello 1
 62
    18
420
        0
370
     0
100
AcDbPolyline
 90
        6
 70
     0
 43
0.0
 10
229.0762690372509
 20
184.0780620538611
 10
231.5563717452355
 20
185.868327454618
 10
233.7964589571321
 20
187.9511460576129
 10
235.7622089091688
 20
190.2945646022202
 10
237.4235846750838
 20
192.8628186909336
 10
238.7551356119796
 20
195.6165265759873
  0
LWPOLYLINE
  5
263
330
79
100
AcDbEntity
  8
Livello 1
 62
    18
420
        0
370
     0
100
AcDbPolyline
 90
        3
 70
     0
 43
0.0
 10
238.8919920301312
 20
195.9382554306161
 10
239.2699620685566
 20
196.9621378088324
 10
239.6024783784236
 20
198.0016523078129
  0
LWPOLYLINE
  5
264
330
79
100
AcDbEntity
  8
Livello 1
 62
    18
420
        0
370
     0
100
AcDbPolyline
 90
        3
 70
     0
 43
0.0
 10
239.6024783784236
 20
212.065996244184
 10
239.268045734193
 20
213.1110013640942
 10
238.8877287244682
 20
214.1402021084658
  0
LWPOLYLINE
  5
265
330
79
100
AcDbEntity
  8
Livello 1
 62
    18
420
        0
370
     0
100
AcDbPolyline
 90
        6
 70
     0
 43
0.0
 10
238.3093402561883
 20
215.4867822744161
 10
236.9320556767258
 20
218.0450455862223
 10
235.264909375873
 20
220.4246591652714
 10
233.3308327704537
 20
222.5928515407602
 10
231.1563530957044
 20
224.5198657004347
 10
228.7713565549595
 20
226.1793036001392
  0
LINE
  5
266
330
79
100
AcDbEntity
  8
Livello 1
 62
    18
420
        0
370
     0
100
AcDbLine
 10
238.8262983655968
 20
195.7734506753405
 30
0.0
 11
238.8294850789207
 21
195.7908053438474
 31
0.0
  0
LINE
  5
267
330
79
100
AcDbEntity
  8
Livello 1
 62
    18
420
        0
370
     0
100
AcDbLine
 10
90.81276005487961
 20
63.36019370296421
 30
0.0
 11
90.843669020936
 21
63.36938780154047
 31
0.0
  0
LINE
  5
268
330
79
100
AcDbEntity
  8
Livello 1
 62
    18
420
        0
370
     0
100
AcDbLine
 10
90.8697333214666
 20
63.37722539376941
 30
0.0
 11
90.8950332414364
 21
63.38418018028026
 31
0.0
  0
LINE
  5
269
330
79
100
AcDbEntity
  8
Livello 1
 62
    18
420
        0
370
     0
100
AcDbLine
 10
90.8950332414364
 20
63.38418018028026
 30
0.0
 11
90.90377517123021
 21
63.38639796049889
 31
0.0
  0
LWPOLYLINE
  5
26A
330
79
100
AcDbEntity
  8
Livello 1
 62
    18
420
        0
370
     0
100
AcDbPolyline
 90
        3
 70
     0
 43
0.0
 10
144.9373417809857
 20
77.82096047045361
 10
144.9250255646259
 20
78.07835216689534
 10
144.9105669295113
 20
78.33567926779672
  0
LINE
  5
26B
330
79
100
AcDbEntity
  8
Livello 1
 62
    18
420
        0
370
     0
100
AcDbLine
 10
141.4577522771898
 20
63.38603191910358
 30
0.0
 11
141.471263511046
 21
63.38917556873386
 31
0.0
  0
LWPOLYLINE
  5
26C
330
79
100
AcDbEntity
  8
Livello 1
 62
    18
420
        0
370
     0
100
AcDbPolyline
 90
       31
 70
     0
 43
0.0
 10
144.9105669295113
 20
78.33567926779672
 10
144.5908082388631
 20
81.21459484189253
 10
143.9832548841159
 20
84.04676477662286
 10
143.0940434416028
 20
86.80353018391977
 10
141.9322065210494
 20
89.45692119481241
 10
140.5094789789514
 20
91.98006606451583
 10
138.8403194504248
 20
94.34740649089883
 10
136.9416304351927
 20
96.53495599664536
 10
134.8326183405865
 20
98.5205152477223
 10
132.5346965882313
 20
100.2840165629281
 10
130.0711088067292
 20
101.8075669775863
 10
127.4668642361183
 20
103.0757281575535
 10
124.7483286227846
 20
104.0756455903005
 10
121.9429981350687
 20
104.7972208396861
 10
119.0793594062653
 20
105.2331115459573
 10
116.1864481317607
 20
105.378882148677
 10
113.2934937935625
 20
105.2331115459573
 10
110.4298550647591
 20
104.7972208396861
 10
107.6245676407374
 20
104.0756455903005
 10
104.9059889637095
 20
103.0757281575535
 10
102.3017443930986
 20
101.8075669775863
 10
99.83815661159646
 20
100.2840165629281
 10
97.54023485924125
 20
98.5205152477223
 10
95.43125506240553
 20
96.53495599664536
 10
93.53253374940333
 20
94.34740649089883
 10
91.86340651864657
 20
91.98006606451583
 10
90.44068974247261
 20
89.45692119481241
 10
89.27884743895686
 20
86.80353018391977
 10
88.38963599644371
 20
84.04676477662286
 10
87.78204496096465
 20
81.21459484189253
 10
87.4622916532782
 20
78.33567926779672
  0
LWPOLYLINE
  5
26D
330
79
100
AcDbEntity
  8
Livello 1
 62
    18
420
        0
370
     0
100
AcDbPolyline
 90
        7
 70
     0
 43
0.0
 10
95.07012292816423
 20
63.56825593842652
 10
96.80719390144382
 20
61.09594775897732
 10
98.8320703047462
 20
58.85334132100715
 10
101.1147582755025
 20
56.87372485964225
 10
103.62128055949
 20
55.18646781389436
 10
106.3144516573135
 20
53.81665478526546
 10
109.1542438658049
 20
52.78465490081209
  0
LWPOLYLINE
  5
26E
330
79
100
AcDbEntity
  8
Livello 1
 62
    18
420
        0
370
     0
100
AcDbPolyline
 90
        7
 70
     0
 43
0.0
 10
123.2186093340228
 20
52.78465490081209
 10
126.0585092017482
 20
53.81669784895902
 10
128.7517233632656
 20
55.1865324094347
 10
131.2583102427931
 20
56.87387558256973
 10
133.5410305113196
 20
58.85357817132176
 10
135.5659392123921
 20
61.09629226852584
 10
137.3029778879019
 20
63.56866504351539
  0
LWPOLYLINE
  5
26F
330
79
100
AcDbEntity
  8
Livello 1
 62
    18
420
        0
370
     0
100
AcDbPolyline
 90
        3
 70
     0
 43
0.0
 10
87.4622916532782
 20
78.33567926779672
 10
87.44785993297202
 20
78.07835216689534
 10
87.43554909957394
 20
77.82096047045361
  0
LWPOLYLINE
  5
270
330
79
100
AcDbEntity
  8
Livello 1
 62
    18
420
        0
370
     0
100
AcDbPolyline
 90
        3
 70
     0
 43
0.0
 10
126.2304194664621
 20
103.5636613374988
 10
123.7410688302847
 20
104.7900507347074
 10
121.1057215069957
 20
105.6593344530231
  0
LWPOLYLINE
  5
271
330
79
100
AcDbEntity
  8
Livello 1
 62
    18
420
        0
370
     0
100
AcDbPolyline
 90
        3
 70
     0
 43
0.0
 10
111.2671316928321
 20
105.6593344530231
 10
108.63177360362
 20
104.7900507347074
 10
106.1424767970592
 20
103.5636613374988
  0
LWPOLYLINE
  5
272
330
79
100
AcDbEntity
  8
Livello 1
 62
    18
420
        0
370
     0
100
AcDbPolyline
 90
        4
 70
     0
 43
0.0
 10
119.666242188101
 20
105.1732099482076
 10
117.3349137754626
 20
105.4571504117325
 10
114.9863598853973
 20
105.4539852302554
 10
112.6558066192427
 20
105.1637574674699
  0
LWPOLYLINE
  5
273
330
79
100
AcDbEntity
  8
Livello 1
 62
    18
420
        0
370
     0
100
AcDbPolyline
 90
        9
 70
     0
 43
0.0
 10
116.0609282309403
 20
195.8194857637621
 10
115.897867555254
 20
195.7513374686945
 10
115.7652959746123
 20
195.6344626043574
 10
115.6772091894238
 20
195.4812850463445
 10
115.6429197234221
 20
195.3079752115897
 10
115.6659587994798
 20
195.1328351698583
 10
115.7439148507569
 20
194.9743177138432
 10
115.868627307323
 20
194.8490884929544
 10
116.0269186789468
 20
194.7704757203503
  0
LWPOLYLINE
  5
274
330
79
100
AcDbEntity
  8
Livello 1
 62
    18
420
        0
370
     0
100
AcDbPolyline
 90
        9
 70
     0
 43
0.0
 10
116.3102993144554
 20
194.760894048532
 10
116.4721219089516
 20
194.8276858372523
 10
116.6043059163513
 20
194.9424075169111
 10
116.6932109117175
 20
195.0931950399311
 10
116.7296104987042
 20
195.2643086263141
 10
116.7097904337403
 20
195.4381567572385
 10
116.6357424126542
 20
195.5967603406407
 10
116.5151640706705
 20
195.7236044500383
 10
116.3605008152295
 20
195.805619254434
  0
LINE
  5
275
330
79
100
AcDbEntity
  8
Livello 1
 62
    18
420
        0
370
     0
100
AcDbLine
 10
116.1864481317607
 20
195.7734506753405
 30
0.0
 11
115.9083858624078
 21
195.6890673677986
 31
0.0
  0
LINE
  5
276
330
79
100
AcDbEntity
  8
Livello 1
 62
    18
420
        0
370
     0
100
AcDbLine
 10
116.1864481317607
 20
194.7724781821012
 30
0.0
 11
116.3563451688004
 21
194.802235194355
 31
0.0
  0
LINE
  5
277
330
79
100
AcDbEntity
  8
Livello 1
 62
    18
420
        0
370
     0
100
AcDbLine
 10
116.4671157545746
 20
195.6873017563625
 30
0.0
 11
116.1864481317607
 21
195.7734506753405
 31
0.0
  0
LINE
  5
278
330
79
100
AcDbEntity
  8
Livello 1
 62
    18
420
        0
370
     0
100
AcDbLine
 10
115.9086011808753
 20
195.8131123371144
 30
0.0
 11
116.1864481317607
 21
195.8822295652872
 31
0.0
  0
LINE
  5
279
330
79
100
AcDbEntity
  8
Livello 1
 62
    18
420
        0
370
     0
100
AcDbLine
 10
116.1864481317607
 20
195.8822295652872
 30
0.0
 11
116.4417835368346
 21
195.8244380885222
 31
0.0
  0
LWPOLYLINE
  5
27A
330
79
100
AcDbEntity
  8
Livello 1
 62
    18
420
        0
370
     0
100
AcDbPolyline
 90
        9
 70
     0
 43
0.0
 10
115.6041085695961
 20
214.7735398497355
 10
115.6469461787705
 20
214.9977940339784
 10
115.7727459935991
 20
215.1883939416999
 10
115.962258543058
 20
215.3160347294284
 10
116.1864481317607
 20
215.3609070981238
 10
116.4105946567701
 20
215.3160347294284
 10
116.6001072062286
 20
215.1883939416999
 10
116.7259070210575
 20
214.9977940339784
 10
116.7687338643082
 20
214.7735398497355
  0
LWPOLYLINE
  5
27B
330
79
100
AcDbEntity
  8
Livello 1
 62
    18
420
        0
370
     0
100
AcDbPolyline
 90
        9
 70
     0
 43
0.0
 10
115.5264324323271
 20
214.9463544520143
 10
115.611310972345
 20
215.163503126819
 10
115.7651560176085
 20
215.3386862322439
 10
115.9696224346581
 20
215.4509102176759
 10
116.2001639181613
 20
215.4866315514886
 10
116.4290474494626
 20
215.4415438643254
 10
116.6287553283735
 20
215.3210731815756
 10
116.7753764390407
 20
215.1397534998175
 10
116.8512869648735
 20
214.9193750479954
  0
LINE
  5
27C
330
79
100
AcDbEntity
  8
Livello 1
 62
    18
420
        0
370
     0
100
AcDbLine
 10
130.4906353094455
 20
144.641278887722
 30
0.0
 11
128.8957929500897
 21
143.9728011725029
 31
0.0
  0
LWPOLYLINE
  5
27D
330
79
100
AcDbEntity
  8
Livello 1
 62
    18
420
        0
370
     0
100
AcDbPolyline
 90
       15
 70
     0
 43
0.0
 10
128.8957929500897
 20
143.9728011725029
 10
127.355706077102
 20
143.5096726800514
 10
125.7869387842003
 20
143.1512535585047
 10
124.2032822192476
 20
142.8706182334609
 10
122.6097856003157
 20
142.6533726653458
 10
121.0096894703443
 20
142.4903873511232
 10
119.40466254746
 20
142.3780341746105
 10
116.1864481317607
 20
142.2920575104068
 10
112.9682337160613
 20
142.377991110917
 10
111.3631960272536
 20
142.4903873511232
 10
109.7630675995123
 20
142.6533726653458
 10
108.1696032783504
 20
142.8706182334609
 10
106.585946713398
 20
143.1512535585047
 10
105.0171794204959
 20
143.5096403822812
 10
103.4770925475085
 20
143.9727258110391
  0
LINE
  5
27E
330
79
100
AcDbEntity
  8
Livello 1
 62
    18
420
        0
370
     0
100
AcDbLine
 10
103.4770925475085
 20
143.9727258110391
 30
0.0
 11
101.8819702741443
 21
144.6413865469559
 31
0.0
  0
LINE
  5
27F
330
79
100
AcDbEntity
  8
Livello 1
 62
    18
420
        0
370
     0
100
AcDbLine
 10
87.38220933213122
 20
174.0159178404749
 30
0.0
 11
87.38234928913533
 21
187.2045508022657
 31
0.0
  0
LINE
  5
280
330
79
100
AcDbEntity
  8
Livello 1
 62
    18
420
        0
370
     0
100
AcDbLine
 10
87.38234928913533
 20
187.2045508022657
 30
0.0
 11
87.38238696986718
 21
195.3087503580738
 31
0.0
  0
LINE
  5
281
330
79
100
AcDbEntity
  8
Livello 1
 62
    18
420
        0
370
     0
100
AcDbLine
 10
87.38238696986718
 20
195.3087503580738
 30
0.0
 11
87.38248924613941
 21
202.236169891661
 31
0.0
  0
LINE
  5
282
330
79
100
AcDbEntity
  8
Livello 1
 62
    18
420
        0
370
     0
100
AcDbLine
 10
87.38248924613941
 20
202.3384031001858
 30
0.0
 11
87.38234928913533
 21
205.0207329131545
 31
0.0
  0
LWPOLYLINE
  5
283
330
79
100
AcDbEntity
  8
Livello 1
 62
    18
420
        0
370
     0
100
AcDbPolyline
 90
       17
 70
     0
 43
0.0
 10
92.96280108353014
 20
222.0563855781665
 10
94.21431814593427
 20
223.6426797943498
 10
95.5769503036611
 20
225.1400044196265
 10
97.04253698677995
 20
226.5397682471303
 10
98.60287456166656
 20
227.8334661973819
 10
100.2497378628502
 20
229.0131960826121
 10
101.9746541086209
 20
230.0736826003592
 10
103.7690536239601
 20
231.0103825309518
 10
105.6245282226986
 20
231.8186234636382
 10
107.5323144431961
 20
232.4941636246022
 10
109.4831751231826
 20
233.0341177463747
 10
111.4677546752309
 20
233.4360096665759
 10
113.4766113845269
 20
233.6972770954385
 10
115.5000128563246
 20
233.8159606349054
 10
117.5264718503655
 20
233.7923186671379
 10
119.5442535101533
 20
233.6272770615476
 10
121.5415799154967
 20
233.321589432772
  0
LWPOLYLINE
  5
284
330
79
100
AcDbEntity
  8
Livello 1
 62
    18
420
        0
370
     0
100
AcDbPolyline
 90
        9
 70
     0
 43
0.0
 10
139.9594371869611
 20
221.2804424156543
 10
141.034242382819
 20
219.5846156948868
 10
141.9904824643667
 20
217.8149993351947
 10
142.8224730240545
 20
215.981196540243
 10
143.5244973565613
 20
214.0927028544629
 10
144.091592371204
 20
212.1594444592215
 10
144.5217986699246
 20
210.1921872779099
 10
144.8139750648436
 20
208.2020632753149
 10
144.9668296451547
 20
206.2001182888363
  0
LINE
  5
285
330
79
100
AcDbEntity
  8
Livello 1
 62
    18
420
        0
370
     0
100
AcDbLine
 10
144.9668296451547
 20
206.2001182888363
 30
0.0
 11
144.9906115699264
 21
205.0210989545498
 31
0.0
  0
LINE
  5
286
330
79
100
AcDbEntity
  8
Livello 1
 62
    18
420
        0
370
     0
100
AcDbLine
 10
87.38220933213122
 20
174.0159178404749
 30
0.0
 11
87.38093895317105
 21
170.1357821569018
 31
0.0
  0
LINE
  5
287
330
79
100
AcDbEntity
  8
Livello 1
 62
    18
420
        0
370
     0
100
AcDbLine
 10
87.38224162990141
 20
169.6022768232407
 30
0.0
 11
87.41900187532136
 21
168.1373360955253
 31
0.0
  0
LWPOLYLINE
  5
288
330
79
100
AcDbEntity
  8
Livello 1
 62
    18
420
        0
370
     0
100
AcDbPolyline
 90
       62
 70
     0
 43
0.0
 10
130.7067073919113
 20
187.3122100361797
 10
131.5079397084696
 20
188.1051848894971
 10
132.2701132549642
 20
188.9397592707989
 10
132.9916454406562
 20
189.8127895304548
 10
133.6709967385006
 20
190.7210889551409
 10
134.3065199622187
 20
191.661513895227
 10
134.896610989225
 20
192.6309422329295
 10
135.4397518243218
 20
193.6261226593842
 10
135.9343060471525
 20
194.6439976523481
 10
136.379089406145
 20
195.6816604125054
 10
136.7743387516137
 20
196.7372161373391
 10
137.4179471837987
 20
198.8951808856061
 10
137.8671768691519
 20
201.1032287094898
 10
138.1189164558135
 20
203.34335898508
 10
138.1693009772852
 20
204.4696037629017
 10
138.1681382575586
 20
205.5968390056754
 10
138.1144808953759
 20
206.7227177421019
 10
138.0072630643208
 20
207.8449360645752
 10
137.8455911927521
 20
208.9609532151751
 10
137.6288085593428
 20
210.0676686079649
 10
137.3562907405361
 20
211.1617663385399
 10
137.027456376469
 20
212.2400166298827
 10
136.6422624034482
 20
213.2994265552906
 10
136.2026359217599
 20
214.3376491434642
 10
135.7107193501598
 20
215.3524450823381
 10
135.1688165962533
 20
216.3416396553873
 10
134.5788978240213
 20
217.3028858913123
 10
133.9420288598793
 20
218.2334492455718
 10
133.2590925095458
 20
219.130444450697
 10
132.5310254083549
 20
219.9910508347592
 10
131.758968744187
 20
220.8125984487574
 10
130.945183360954
 20
221.5931063627875
 10
130.0921992506529
 20
222.3308089654134
 10
129.2024279801234
 20
223.0238114541182
 10
128.2783995413625
 20
223.6704774085464
 10
127.3229992018389
 20
224.2696010452781
 10
126.3390691653282
 20
224.8200842401274
 10
125.3294193378354
 20
225.3208719326021
 10
124.2966335409744
 20
225.7702200431126
 10
123.2417883670848
 20
226.1639944570766
 10
122.166380279517
 20
226.4982763783798
 10
121.0739297352209
 20
226.7718600236022
 10
119.9683985940042
 20
226.9854344118409
 10
118.853554929054
 20
227.1450499920419
 10
117.732779240315
 20
227.2551207927956
 10
116.6081170532319
 20
227.3099193428579
 10
115.4815600636318
 20
227.3033521295891
 10
114.3559827730603
 20
227.2372062962723
 10
113.2345395970711
 20
227.1148623428524
 10
112.1203311216013
 20
226.9398084285081
 10
111.016662485131
 20
226.7133795277401
 10
109.9276678022435
 20
226.4286854495777
 10
108.8571366779726
 20
226.0797834043091
 10
107.8074053176933
 20
225.6711520160649
 10
106.7804008216935
 20
225.2089924567186
 10
105.7778026740221
 20
224.6965345032877
 10
104.8015595068128
 20
224.1358667449101
 10
103.8537599092036
 20
223.5272260319003
 10
102.9368477458044
 20
222.8706984916456
 10
102.0541281550963
 20
222.1678990126547
 10
101.2091215940282
 20
221.420851588525
 10
100.4053485195492
 20
220.6314725536203
  0
LWPOLYLINE
  5
289
330
79
100
AcDbEntity
  8
Livello 1
 62
    18
420
        0
370
     0
100
AcDbPolyline
 90
        9
 70
     0
 43
0.0
 10
101.635344501094
 20
187.3121239087926
 10
102.5426965245216
 20
186.5056270556956
 10
103.4941350042371
 20
185.7496008514576
 10
104.4860748877511
 20
185.045466397966
 10
105.5149526544209
 20
184.3947309244959
 10
106.5773447406086
 20
183.7994614883383
 10
107.6703874106912
 20
183.2641367136241
 10
108.7913784178976
 20
182.7939673072746
 10
109.9376155154572
 20
182.3940778488242
  0
LWPOLYLINE
  5
28A
330
79
100
AcDbEntity
  8
Livello 1
 62
    18
420
        0
370
     0
100
AcDbPolyline
 90
        9
 70
     0
 43
0.0
 10
109.9376155154572
 20
182.3940778488242
 10
111.512454789152
 20
181.9729149257524
 10
113.1173848187258
 20
181.6767013095613
 10
114.7393896027984
 20
181.4977931946429
 10
116.3688336399345
 20
181.44534161588
 10
117.9970072981103
 20
181.5283253533809
 10
119.6153732000766
 20
181.7377656270373
 10
121.2143712058618
 20
182.0645759975068
 10
122.7806731023072
 20
182.5164648659377
  0
LWPOLYLINE
  5
28B
330
79
100
AcDbEntity
  8
Livello 1
 62
    18
420
        0
370
     0
100
AcDbPolyline
 90
        9
 70
     0
 43
0.0
 10
122.7806731023072
 20
182.5164648659377
 10
123.8732636036074
 20
182.9202731205026
 10
124.9416092454302
 20
183.3879233007784
 10
125.98347071571
 20
183.9148291234006
 10
126.9966517660753
 20
184.4963181776172
 10
127.9786762341457
 20
185.1283209443863
 10
128.9265188954485
 20
185.8091148759653
 10
129.8369284411193
 20
186.5374511252406
 10
130.7067073919113
 20
187.3122100361797
  0
LINE
  5
28C
330
79
100
AcDbEntity
  8
Livello 1
 62
    18
420
        0
370
     0
100
AcDbLine
 10
144.9911391001726
 20
204.8190225724932
 30
0.0
 11
144.9903639536884
 21
202.1675048322706
 31
0.0
  0
LINE
  5
28D
330
79
100
AcDbEntity
  8
Livello 1
 62
    18
420
        0
370
     0
100
AcDbLine
 10
144.9903639536884
 20
202.012217153273
 30
0.0
 11
144.9905039106928
 21
195.2921708360511
 31
0.0
  0
LINE
  5
28E
330
79
100
AcDbEntity
  8
Livello 1
 62
    18
420
        0
370
     0
100
AcDbLine
 10
144.9905039106928
 20
195.2921708360511
 30
0.0
 11
144.9903962514586
 21
179.5299008238512
 31
0.0
  0
LINE
  5
28F
330
79
100
AcDbEntity
  8
Livello 1
 62
    18
420
        0
370
     0
100
AcDbLine
 10
144.9903962514586
 20
179.5299008238512
 30
0.0
 11
144.9907838247006
 21
174.4239463370092
 31
0.0
  0
LINE
  5
290
330
79
100
AcDbEntity
  8
Livello 1
 62
    18
420
        0
370
     0
100
AcDbLine
 10
144.9907838247006
 20
174.4239463370092
 30
0.0
 11
144.9903639536884
 21
173.2300377306728
 31
0.0
  0
LINE
  5
291
330
79
100
AcDbEntity
  8
Livello 1
 62
    18
420
        0
370
     0
100
AcDbLine
 10
144.9903639536884
 20
173.2300377306728
 30
0.0
 11
144.9906438676966
 21
169.6037302228989
 31
0.0
  0
LWPOLYLINE
  5
292
330
79
100
AcDbEntity
  8
Livello 1
 62
    18
420
        0
370
     0
100
AcDbPolyline
 90
       17
 70
     0
 43
0.0
 10
144.9888782562604
 20
169.385677210529
 10
144.9239382063634
 20
167.6967191488853
 10
144.7625031851093
 20
166.0119920951344
 10
144.5038088119372
 20
164.3384508357871
 10
144.1471553018267
 20
162.683039391431
 10
143.6923488681568
 20
161.0524326345687
 10
143.1416288229928
 20
159.4520135268959
 10
142.4977404767996
 20
157.8869497116404
 10
141.763429140042
 20
156.3623227046431
 10
140.9415262505719
 20
154.8831601921277
 10
140.0347125233138
 20
153.4544037329309
 10
139.0457009709623
 20
152.0810056518126
 10
137.9771723084419
 20
150.7678321461459
 10
136.832302483153
 20
149.5197386473803
 10
135.6159253946984
 20
148.3412145455698
 10
134.3334778343908
 20
147.236835358156
 10
132.990202806922
 20
146.2111012411165
  0
LWPOLYLINE
  5
293
330
79
100
AcDbEntity
  8
Livello 1
 62
    18
420
        0
370
     0
100
AcDbPolyline
 90
       33
 70
     0
 43
0.0
 10
100.4053485195492
 20
220.6314725536203
 10
99.62744595897987
 20
219.7816751566431
 10
98.89282241044391
 20
218.8892877667295
 10
98.2038463770875
 20
217.9577554793648
 10
97.56273563912962
 20
216.9904587944937
 10
96.97183716786859
 20
215.9909289349888
 10
96.43339027537082
 20
214.9625894644885
 10
95.94973116701192
 20
213.9089070103249
 10
95.52312068670408
 20
212.8333266679831
 10
95.15538904142415
 20
211.7391212781742
 10
94.84656852894136
 20
210.6290253854396
 10
94.59622851232101
 20
209.505536684006
 10
94.4039383546271
 20
208.3712174636407
 10
94.26910593007313
 20
207.228608482264
 10
94.19064388039656
 20
206.0801428385624
 10
94.16735718810096
 20
204.9283612904563
 10
94.19794317645594
 20
203.7757184684788
 10
94.28137908273933
 20
202.6247120668569
 10
94.41723427001548
 20
201.4778397798172
 10
94.60540107905048
 20
200.3376208334334
 10
94.8457503187636
 20
199.2066605811662
 10
95.13813126622741
 20
198.0873490580085
 10
95.48241473036149
 20
196.9823562129614
 10
95.8784715200842
 20
195.8941151447113
 10
96.32615091246904
 20
194.8251881430255
 10
96.82508686612035
 20
193.7781374976709
 10
97.37410589538846
 20
192.7559346035037
 10
97.97167923915184
 20
191.7615508553799
 10
98.61631043405903
 20
190.7979791800023
 10
99.30648148491188
 20
189.8682555677673
 10
100.0407174602057
 20
188.9753514135309
 10
100.8175003647424
 20
188.1223242395362
 10
101.635344501094
 20
187.3121239087926
  0
LWPOLYLINE
  5
294
330
79
100
AcDbEntity
  8
Livello 1
 62
    18
420
        0
370
     0
100
AcDbPolyline
 90
       13
 70
     0
 43
0.0
 10
90.65725705741382
 20
187.3122530998733
 10
90.65725705741382
 20
178.555390970308
 10
90.65947483763244
 20
174.176965288487
 10
90.72238012800843
 20
169.7989594776783
 10
90.82750936992551
 20
167.6122604798797
 10
91.05829846966706
 20
165.4352292812866
 10
91.2519343677849
 20
164.3575711157303
 10
91.50043341150533
 20
163.2902374707063
 10
92.14333129274651
 20
161.1934339332259
 10
92.95595395625353
 20
159.1581145842342
 10
93.93188491168414
 20
157.1969509155618
 10
95.06979995046215
 20
155.3234972247596
 10
96.36284117938695
 20
153.5553773284189
  0
LWPOLYLINE
  5
295
330
79
100
AcDbEntity
  8
Livello 1
 62
    18
420
        0
370
     0
100
AcDbPolyline
 90
       33
 70
     0
 43
0.0
 10
136.010539550687
 20
221.0689996802471
 10
135.094596320393
 20
222.1486710734776
 10
134.1167274987516
 20
223.1754387191628
 10
133.0810456684984
 20
224.1446517383975
 10
131.9915988168285
 20
225.0517238478169
 10
130.8522626761631
 20
225.8921979551372
 10
129.6661163005916
 20
226.662822751494
 10
128.4365078922886
 20
227.3617034343705
 10
127.1686266263296
 20
227.9917683349292
 10
125.8676939755589
 20
228.5555797429371
 10
124.537930181946
 20
229.049003543812
 10
123.183297105299
 20
229.4662046070757
 10
121.8077135417323
 20
229.8014123977905
 10
120.4153674354452
 20
230.0522799446571
 10
119.0113510682018
 20
230.2301329990831
 10
117.6005521692218
 20
230.3447685513548
 10
116.1865880887648
 20
230.386281951952
 10
114.7726132423843
 20
230.3448331468951
 10
113.3618251093277
 20
230.230240658317
 10
111.9577979761609
 20
230.0523660720442
 10
110.5654626357972
 20
229.8015200570244
 10
109.1898683063071
 20
229.4663337981564
 10
107.8352029318899
 20
229.0491542667395
 10
106.5054499042004
 20
228.5557519977113
 10
105.2045387852765
 20
227.9919405897034
 10
103.9366252215473
 20
227.3618326254512
 10
102.7070491110148
 20
226.6629519425747
 10
101.5209457991369
 20
225.8923271462179
 10
100.3816096584712
 20
225.0518099752041
 10
99.29216280680131
 20
224.1447163339378
 10
98.25648097654807
 20
223.1754602510095
 10
97.27864445267687
 20
222.1487141371712
 10
96.36273352015303
 20
221.0690212120939
  0
LWPOLYLINE
  5
296
330
79
100
AcDbEntity
  8
Livello 1
 62
    18
420
        0
370
     0
100
AcDbPolyline
 90
       13
 70
     0
 43
0.0
 10
96.36273352015303
 20
221.0690212120939
 10
95.06965999345807
 20
219.3009120816765
 10
93.93177725245054
 20
217.4274476249509
 10
92.95581399924911
 20
215.4663270199724
 10
92.14329899497633
 20
213.4309646072868
 10
91.50057336850974
 20
211.3341287720363
 10
91.25210662255915
 20
210.2667951270123
 10
91.05843842667116
 20
209.1891261955326
 10
90.82743400846176
 20
207.0121488265564
 10
90.72241242577893
 20
204.8254390628344
 10
90.65947483763244
 20
200.4474978475661
 10
90.65725705741382
 20
196.0690829316685
 10
90.65725705741382
 20
187.3122530998733
  0
LWPOLYLINE
  5
297
330
79
100
AcDbEntity
  8
Livello 1
 62
    18
420
        0
370
     0
100
AcDbPolyline
 90
       13
 70
     0
 43
0.0
 10
141.7155961424143
 20
187.3122530998733
 10
141.7155961424143
 20
196.0690398679749
 10
141.7133352985018
 20
200.4474547838725
 10
141.6504730718193
 20
204.8254175309877
 10
141.5454837869063
 20
207.0120842310161
 10
141.3145224323905
 20
209.1890615999922
 10
141.1208865342731
 20
210.266730531472
 10
140.8724520860926
 20
211.3340641764959
 10
140.2298018210894
 20
213.43094307544
 10
139.417351412357
 20
215.4662839562788
 10
138.44146352062
 20
217.4274476249509
 10
137.3035807796118
 20
219.300869017983
 10
136.010539550687
 20
221.0689996802471
  0
LWPOLYLINE
  5
298
330
79
100
AcDbEntity
  8
Livello 1
 62
    18
420
        0
370
     0
100
AcDbPolyline
 90
       33
 70
     0
 43
0.0
 10
96.19562485727163
 20
153.4233225121002
 10
97.11898580878234
 20
152.3328528977078
 10
98.10477835003979
 20
151.2956207744862
 10
99.14879300499798
 20
150.3161693621063
 10
100.2468848931511
 20
149.3990849439328
 10
101.3951459843086
 20
148.5487169530158
 10
102.5904541606859
 20
147.7683382300664
 10
103.8295581134198
 20
147.059778982061
 10
105.1074624540562
 20
146.4205522806963
 10
106.4190856667546
 20
145.8484834094472
 10
107.7600998503115
 20
145.3478249080532
 10
109.1265108471487
 20
144.9243150136821
 10
110.5142706700711
 20
144.5838103886587
 10
111.9191052474922
 20
144.3286149405888
 10
113.3358899998778
 20
144.1475644069156
 10
114.7595972410041
 20
144.0309694565866
 10
116.1866203865349
 20
143.9888101005859
 10
117.6136112342956
 20
144.0310017543568
 10
119.037350773192
 20
144.1475967046857
 10
120.4541032278078
 20
144.3286795361292
 10
121.8589701029988
 20
144.5838426864289
 10
123.2466868622276
 20
144.9243796092225
 10
124.6131086249885
 20
145.3478895035936
 10
125.9541228085451
 20
145.8485910686811
 10
127.2657137234733
 20
146.4206922377004
 10
128.5436180641101
 20
147.0599620027587
 10
129.7827112509202
 20
147.7684781870705
 10
130.9780624909914
 20
148.5488569100202
 10
132.1263558799187
 20
149.3992249009368
 10
133.2244800658421
 20
150.3162339576466
 10
134.2685270185704
 20
151.2956530722564
 10
135.2542980279811
 20
152.3328959614013
 10
136.1776912772623
 20
153.4233655757935
  0
LWPOLYLINE
  5
299
330
79
100
AcDbEntity
  8
Livello 1
 62
    18
420
        0
370
     0
100
AcDbPolyline
 90
       33
 70
     0
 43
0.0
 10
136.6275130884017
 20
225.038137252497
 10
135.5151778836017
 20
226.1121242381769
 10
134.3452234568108
 20
227.1257359254777
 10
133.1217839226115
 20
228.0757210055353
 10
131.8490364592795
 20
228.9588066376388
 10
130.5310182880866
 20
229.7719137676981
 10
129.1715620777603
 20
230.5126523607204
 10
127.7743497741002
 20
231.1786969772531
 10
126.3430956206766
 20
231.7677652415373
 10
124.8816753499102
 20
232.2778116281285
 10
123.3945029903916
 20
232.7077595446877
 10
121.8861325277153
 20
233.0566615899563
 10
120.3610748837823
 20
233.32367802191
 10
118.8238840441876
 20
233.5079475666773
 10
117.279070930831
 20
233.6090826510162
 10
115.7311141678445
 20
233.6267602972248
 10
114.1845354430522
 20
233.5606359957548
 10
112.643813380585
 20
233.4106451510657
 10
111.1133943068028
 20
233.1773906548676
 10
109.5977891436075
 20
232.8616476536444
 10
108.101487281053
 20
232.4643204849612
 10
106.6289135136531
 20
231.9863780819231
 10
105.1843634448411
 20
231.4294138011921
 10
103.7721219121266
 20
230.7953224452851
 10
102.3963553278623
 20
230.0858480937915
 10
101.0612408703239
 20
229.3029716766152
 10
99.77027746461365
 20
228.4490616969025
 10
98.52687790844662
 20
227.5267665718075
 10
97.3344980632318
 20
226.538605527404
 10
96.19657225853007
 20
225.4872485126929
 10
95.11718077930773
 20
224.376183686853
 10
94.10037161275964
 20
223.2089853364504
 10
93.15023580977451
 20
221.9891416206638
  0
LWPOLYLINE
  5
29A
330
79
100
AcDbEntity
  8
Livello 1
 62
    18
420
        0
370
     0
100
AcDbPolyline
 90
       33
 70
     0
 43
0.0
 10
136.1777235750322
 20
221.2011406239532
 10
135.2543303257513
 20
222.2916210042687
 10
134.2685270185704
 20
223.3288315956435
 10
133.2244800658421
 20
224.3082722421
 10
132.1263558799187
 20
225.22531359658
 10
130.9780624909914
 20
226.0756492897268
 10
129.7827112509202
 20
226.8560280126762
 10
128.5436180641101
 20
227.5645549629114
 10
127.2657137234733
 20
228.2038139620463
 10
125.9540797448515
 20
228.775872067372
 10
124.6130655612946
 20
229.2765736324595
 10
123.2466868622276
 20
229.7001050586774
 10
121.8589378052286
 20
230.0406527473944
 10
120.4541032278078
 20
230.2958912591578
 10
119.0373077094988
 20
230.4769740906013
 10
117.613568170602
 20
230.5935475090834
 10
116.1865450250712
 20
230.6356638013906
 10
114.7595326454641
 20
230.5935690409302
 10
113.3358254043375
 20
230.4770817498352
 10
111.9190298860285
 20
230.2959989183917
 10
110.5141953086073
 20
230.0407819384751
 10
109.1264462516083
 20
229.7002342497581
 10
107.7600244888477
 20
229.276724355387
 10
106.4190103052908
 20
228.7760227902995
 10
105.1074193903627
 20
228.2039646849737
 10
103.829482751956
 20
227.5647056858389
 10
102.5903895651456
 20
226.8561356719101
 10
101.3950706228446
 20
226.0757354171139
 10
100.2467772339172
 20
225.2253997239671
 10
99.14868534576436
 20
224.3083153057936
 10
98.10468145672926
 20
223.3288531274903
 10
97.11891044731858
 20
222.2915779405751
 10
96.19554949580821
 20
221.2010975602596
  0
LWPOLYLINE
  5
29B
330
79
100
AcDbEntity
  8
Livello 1
 62
    18
420
        0
370
     0
100
AcDbPolyline
 90
       13
 70
     0
 43
0.0
 10
136.1774759587942
 20
153.4235055327975
 10
137.4748235570755
 20
155.1993553621336
 10
138.6174325384522
 20
157.0801514126885
 10
139.5983696482601
 20
159.0486143774199
 10
140.4162460823818
 20
161.0912653202415
 10
141.0648283711737
 20
163.1955188767087
 10
141.316212682363
 20
164.2666528926898
 10
141.5127446138731
 20
165.348240620284
 10
141.7488628456934
 20
167.5335185161949
 10
141.8574156512489
 20
169.7288194867833
 10
141.92249565815
 20
174.1243306890264
 10
141.9249287568365
 20
178.520294060052
 10
141.9249287568365
 20
187.3122530998733
  0
LWPOLYLINE
  5
29C
330
79
100
AcDbEntity
  8
Livello 1
 62
    18
420
        0
370
     0
100
AcDbPolyline
 90
       13
 70
     0
 43
0.0
 10
141.9249287568365
 20
187.3122530998733
 10
141.9249287568365
 20
196.104222905618
 10
141.92249565815
 20
200.5001862766436
 10
141.8574156512489
 20
204.89567594704
 10
141.7489705049273
 20
207.0909769176283
 10
141.5125723590988
 20
209.2762440476159
 10
141.3160081298186
 20
210.3578102433632
 10
141.0646453504763
 20
211.4289550252678
 10
140.4162460823818
 20
213.5332408795052
 10
139.5984342438005
 20
215.5759241200969
 10
138.6174971339925
 20
217.5443440211347
 10
137.474855854846
 20
219.4251508376133
 10
136.177519022488
 20
221.2010114328725
  0
LWPOLYLINE
  5
29D
330
79
100
AcDbEntity
  8
Livello 1
 62
    18
420
        0
370
     0
100
AcDbPolyline
 90
       13
 70
     0
 43
0.0
 10
90.44802133630184
 20
187.3122530998733
 10
90.44802133630184
 20
178.5202509963584
 10
90.4504544349883
 20
174.1242876253329
 10
90.51554520781273
 20
169.7287548912429
 10
90.62409801336828
 20
167.5334539206546
 10
90.86028084072895
 20
165.3481652588203
 10
91.05684507000956
 20
164.2665559993793
 10
91.30827244489212
 20
163.195443515245
 10
91.95688703145414
 20
161.0912007247011
 10
92.77483882703959
 20
159.0485497818796
 10
93.75580823461769
 20
157.0801191149186
 10
94.89841721599438
 20
155.1993122984397
 10
96.19576481427571
 20
153.4234301713338
  0
LWPOLYLINE
  5
29E
330
79
100
AcDbEntity
  8
Livello 1
 62
    18
420
        0
370
     0
100
AcDbPolyline
 90
        5
 70
     0
 43
0.0
 10
96.19568945281198
 20
221.2010114328725
 10
94.97289587401612
 20
219.5363843580933
 10
93.88549454779058
 20
217.7756391192757
 10
92.93845933074216
 20
215.933611158853
 10
92.13708705717948
 20
214.0269876580818
  0
LWPOLYLINE
  5
29F
330
79
100
AcDbEntity
  8
Livello 1
 62
    18
420
        0
370
     0
100
AcDbPolyline
 90
        8
 70
     0
 43
0.0
 10
91.34418756532586
 20
211.5703115993969
 10
91.00315541005629
 20
210.0882961171828
 10
90.76591752220327
 20
208.5854593391297
 10
90.62059908826608
 20
207.0719858287659
 10
90.5387565386446
 20
205.5535815254888
 10
90.4661188535228
 20
202.5140814380868
 10
90.44826895254017
 20
199.4737416086602
 10
90.44802133630184
 20
187.3122530998733
  0
LWPOLYLINE
  5
2A0
330
79
100
AcDbEntity
  8
Livello 1
 62
    18
420
        0
370
     0
100
AcDbPolyline
 90
        9
 70
     0
 43
0.0
 10
102.04121981295
 20
144.7363850549617
 10
100.6976648714727
 20
145.5504934158964
 10
99.39940216970342
 20
146.4381545654412
 10
98.15071654515092
 20
147.3963002154296
 10
96.95600049455983
 20
148.4218513117715
 10
95.81948502582269
 20
149.5116534389133
 10
94.74506740320718
 20
150.6618846940511
 10
93.73651569990029
 20
151.8687447062277
 10
92.79766258462936
 20
153.1282608497116
  0
LWPOLYLINE
  5
2A1
330
79
100
AcDbEntity
  8
Livello 1
 62
    18
420
        0
370
     0
100
AcDbPolyline
 90
        8
 70
     0
 43
0.0
 10
90.31100342929942
 20
157.4296455837437
 10
89.48293166572605
 20
159.3845973146189
 10
88.79935474295043
 20
161.3960378455288
 10
88.26560179305133
 20
163.4521246607429
 10
87.88650671563145
 20
165.5413812859258
 10
87.66682804882982
 20
167.6522989489723
 10
87.59200488125955
 20
169.7733473459301
 10
87.57524772150082
 20
174.0179633659193
  0
LWPOLYLINE
  5
2A2
330
79
100
AcDbEntity
  8
Livello 1
 62
    18
420
        0
370
     0
100
AcDbPolyline
 90
       13
 70
     0
 43
0.0
 10
87.57524772150082
 20
174.0179633659193
 10
87.57465021275262
 20
195.9209438258027
 10
87.57648580269083
 20
201.3967077811396
 10
87.58675111064453
 20
204.1345251632676
 10
87.65987864528067
 20
206.8714597396775
 10
87.77865907805805
 20
208.2354807015219
 10
87.96404289589636
 20
209.5923530902343
 10
88.21356470233897
 20
210.938588746636
 10
88.52771434690051
 20
212.2715607854195
 10
88.90708933832824
 20
213.5886853849709
 10
89.34978949114455
 20
214.8867543001195
 10
89.85310179265445
 20
216.1622793716864
 10
90.41447471901422
 20
217.4118800997269
  0
LWPOLYLINE
  5
2A3
330
79
100
AcDbEntity
  8
Livello 1
 62
    18
420
        0
370
     0
100
AcDbPolyline
 90
       18
 70
     0
 43
0.0
 10
140.1350832270919
 20
220.6701868141359
 10
141.1676214077148
 20
218.9489094504711
 10
142.077794103071
 20
217.1584933267868
 10
142.8635342558694
 20
215.3106302358859
 10
143.5195988614182
 20
213.4132223655377
 10
144.0405080647114
 20
211.4738919895035
 10
144.422881365804
 20
209.5029743942389
 10
144.6641457090054
 20
207.5109340572803
 10
144.7705776276528
 20
205.5071158001315
 10
144.7982352848453
 20
189.4542196859806
 10
144.7965127371027
 20
173.4012697422128
 10
144.7754868887193
 20
169.3787977854819
 10
144.6770540511517
 20
167.3740644248452
 10
144.4631674511346
 20
165.3815719191038
 10
144.1003773646914
 20
163.4080705022255
 10
143.5932593092626
 20
161.4637985673543
 10
142.9540972034379
 20
159.559618931193
 10
142.1869820981067
 20
157.7050271381725
  0
LWPOLYLINE
  5
2A4
330
79
100
AcDbEntity
  8
Livello 1
 62
    18
420
        0
370
     0
100
AcDbPolyline
 90
        9
 70
     0
 43
0.0
 10
139.5362718021385
 20
153.0724933665441
 10
138.6121357041436
 20
151.8365330634406
 10
137.6201958206296
 20
150.6520123423012
 10
136.5644032454816
 20
149.5223762986111
 10
135.4487090725834
 20
148.450994666392
 10
134.27703209805
 20
147.4412371796653
 10
133.0533449476123
 20
146.4962582539847
 10
131.7815448855387
 20
145.61913694344
 10
130.4656153034839
 20
144.812941536198
  0
LWPOLYLINE
  5
2A5
330
79
100
AcDbEntity
  8
Livello 1
 62
    18
420
        0
370
     0
100
AcDbPolyline
 90
       33
 70
     0
 43
0.0
 10
96.36284117938695
 20
153.5553773284189
 10
97.27878440968098
 20
152.475695169265
 10
98.25662093355218
 20
151.4489382895035
 10
99.2923027638054
 20
150.4797145043451
 10
100.3817173177051
 20
149.5726208630788
 10
101.5210534583708
 20
148.7321252239118
 10
102.7071567702487
 20
147.9614788957082
 10
103.9367328807812
 20
147.2625874469083
 10
105.2046464445108
 20
146.632533312273
 10
106.5055898612045
 20
146.0687219042652
 10
107.835342888894
 20
145.5753626989306
 10
109.189975965541
 20
145.1581724015902
 10
110.5655702950311
 20
144.8230292064158
 10
111.9579056353948
 20
144.5722370210129
 10
113.3619327685616
 20
144.3944377962039
 10
114.7727209016182
 20
144.2797161165451
 10
116.1866526843051
 20
144.2381919500244
 10
117.6006275306855
 20
144.2797484143152
 10
119.0113833659723
 20
144.3944700939741
 10
120.4154427969089
 20
144.5723123824767
 10
121.8077781372726
 20
144.8230938019561
 10
123.1833294030692
 20
145.1582692949007
 10
124.5379624797162
 20
145.5754703581645
 10
125.8677262733294
 20
146.0688941590394
 10
127.1686266263296
 20
146.6327378648175
 10
128.4365509559822
 20
147.2628350631463
 10
129.6661163005916
 20
147.961694214176
 10
130.8522303783926
 20
148.732297478686
 10
131.9915988168285
 20
149.5727931178531
 10
133.0810456684984
 20
150.479822163579
 10
134.1167274987516
 20
151.4490459487371
 10
135.094596320393
 20
152.4758028284989
 10
136.0105072529169
 20
153.5554742217294
  0
LWPOLYLINE
  5
2A6
330
79
100
AcDbEntity
  8
Livello 1
 62
    18
420
        0
370
     0
100
AcDbPolyline
 90
       13
 70
     0
 43
0.0
 10
136.0105072529169
 20
153.5554742217294
 10
137.3035484818419
 20
155.3236048839935
 10
138.4413989250793
 20
157.1971016384893
 10
139.417286816817
 20
159.158254541238
 10
140.2298018210894
 20
161.19357389023
 10
140.8726351067903
 20
163.2904204914043
 10
141.1210910868171
 20
164.3577433705045
 10
141.3146623893946
 20
165.4354123019842
 10
141.545419191366
 20
167.6124327346539
 10
141.6505053695895
 20
169.7990994346824
 10
141.7133352985018
 20
174.1770729477209
 10
141.7155961424143
 20
178.555466331772
 10
141.7155961424143
 20
187.3122530998733
  0
LINE
  5
2A7
330
79
100
AcDbEntity
  8
Livello 1
 62
    18
420
        0
370
     0
100
AcDbLine
 10
186.7277988262126
 20
134.5938516916119
 30
0.0
 11
186.7877650195027
 21
135.8334724086686
 31
0.0
  0
LWPOLYLINE
  5
2A8
330
79
100
AcDbEntity
  8
Livello 1
 62
    18
420
        0
370
     0
100
AcDbPolyline
 90
        5
 70
     0
 43
0.0
 10
187.3157043707704
 20
140.2605923619889
 10
187.3764457105447
 20
140.1732807232846
 10
187.3869963154684
 20
140.0596141041181
 10
187.3739695481647
 20
139.8318609947729
 10
187.2927729539467
 20
139.3828789256577
  0
LWPOLYLINE
  5
2A9
330
79
100
AcDbEntity
  8
Livello 1
 62
    18
420
        0
370
     0
100
AcDbPolyline
 90
        3
 70
     0
 43
0.0
 10
187.2927729539467
 20
139.3828789256577
 10
186.9577804816998
 20
137.6202281183998
 10
186.7877650195027
 20
135.8334724086686
  0
LINE
  5
2AA
330
79
100
AcDbEntity
  8
Livello 1
 62
    18
420
        0
370
     0
100
AcDbLine
 10
238.6025394138298
 20
214.8084214415236
 30
0.0
 11
238.5283837335098
 21
214.9808700024071
 31
0.0
  0
LINE
  5
2AB
330
79
100
AcDbEntity
  8
Livello 1
 62
    18
420
        0
370
     0
100
AcDbLine
 10
238.5283837335098
 20
214.9808700024071
 30
0.0
 11
238.4678792440501
 21
215.1210853886568
 31
0.0
  0
LINE
  5
2AC
330
79
100
AcDbEntity
  8
Livello 1
 62
    18
420
        0
370
     0
100
AcDbLine
 10
238.4530653334635
 20
215.1210853886568
 30
0.0
 11
238.4678792440501
 21
215.1554286842754
 31
0.0
  0
LINE
  5
2AD
330
79
100
AcDbEntity
  8
Livello 1
 62
    18
420
        0
370
     0
100
AcDbLine
 10
238.4530653334635
 20
215.1554286842754
 30
0.0
 11
238.3948432197628
 21
215.2898950674341
 31
0.0
  0
LINE
  5
2AE
330
79
100
AcDbEntity
  8
Livello 1
 62
    18
420
        0
370
     0
100
AcDbLine
 10
238.3776823378769
 20
215.2898950674341
 30
0.0
 11
238.3948432197628
 21
215.3294706018209
 31
0.0
  0
LINE
  5
2AF
330
79
100
AcDbEntity
  8
Livello 1
 62
    18
420
        0
370
     0
100
AcDbLine
 10
238.7551356119796
 20
195.6165265759873
 30
0.0
 11
238.7856677707176
 21
195.6881199665402
 31
0.0
  0
LINE
  5
2B0
330
79
100
AcDbEntity
  8
Livello 1
 62
    18
420
        0
370
     0
100
AcDbLine
 10
238.7856677707176
 20
195.6881199665402
 30
0.0
 11
238.8294420152271
 21
195.7910206623153
 31
0.0
  0
LINE
  5
2B1
330
79
100
AcDbEntity
  8
Livello 1
 62
    18
420
        0
370
     0
100
AcDbLine
 10
238.6814751641356
 20
214.6242380241434
 30
0.0
 11
238.6025394138298
 21
214.8084214415236
 31
0.0
  0
LINE
  5
2B2
330
79
100
AcDbEntity
  8
Livello 1
 62
    18
420
        0
370
     0
100
AcDbLine
 10
218.882791324413
 20
143.9727258110391
 30
0.0
 11
216.5002278823545
 21
144.6413865469559
 31
0.0
  0
LWPOLYLINE
  5
2B3
330
79
100
AcDbEntity
  8
Livello 1
 62
    18
420
        0
370
     0
100
AcDbPolyline
 90
        3
 70
     0
 43
0.0
 10
229.0731899831609
 20
187.3122530998733
 10
229.0584837318083
 20
170.4326524944198
 10
228.782510051593
 20
153.5553773284189
  0
LWPOLYLINE
  5
2B4
330
79
100
AcDbEntity
  8
Livello 1
 62
    18
420
        0
370
     0
100
AcDbPolyline
 90
        3
 70
     0
 43
0.0
 10
228.782510051593
 20
221.0690212120939
 10
229.0584837318083
 20
204.1917998757099
 10
229.0731899831609
 20
187.3122530998733
  0
LINE
  5
2B5
330
79
100
AcDbEntity
  8
Livello 1
 62
    18
420
        0
370
     0
100
AcDbLine
 10
187.018629480708
 20
184.2640756782178
 30
0.0
 11
187.0332280728268
 21
183.4271327937699
 31
0.0
  0
LWPOLYLINE
  5
2B6
330
79
100
AcDbEntity
  8
Livello 1
 62
    18
420
        0
370
     0
100
AcDbPolyline
 90
        3
 70
     0
 43
0.0
 10
187.1275375617354
 20
183.7371698555956
 10
187.1805920322083
 20
183.2618758697119
 10
187.1576606153846
 20
182.7799070113254
  0
LWPOLYLINE
  5
2B7
330
79
100
AcDbEntity
  8
Livello 1
 62
    18
420
        0
370
     0
100
AcDbPolyline
 90
        4
 70
     0
 43
0.0
 10
187.3176422369809
 20
182.6674892392724
 10
187.3881590351946
 20
182.4185164949227
 10
187.401702566821
 20
182.1536101839538
 10
187.3424684563215
 20
181.6286637593888
  0
LINE
  5
2B8
330
79
100
AcDbEntity
  8
Livello 1
 62
    18
420
        0
370
     0
100
AcDbLine
 10
187.6506537793239
 20
179.3322061726148
 30
0.0
 11
187.6869349411529
 21
179.3579259635969
 31
0.0
  0
LINE
  5
2B9
330
79
100
AcDbEntity
  8
Livello 1
 62
    18
420
        0
370
     0
100
AcDbLine
 10
187.6651662440555
 20
177.4403642846601
 30
0.0
 11
187.7360060199709
 21
177.3385509471476
 31
0.0
  0
LINE
  5
2BA
330
79
100
AcDbEntity
  8
Livello 1
 62
    18
420
        0
370
     0
100
AcDbLine
 10
187.5553753573099
 20
175.5937177431027
 30
0.0
 11
187.6449478399264
 21
175.3735438438248
 31
0.0
  0
LWPOLYLINE
  5
2BB
330
79
100
AcDbEntity
  8
Livello 1
 62
    18
420
        0
370
     0
100
AcDbPolyline
 90
        3
 70
     0
 43
0.0
 10
187.364129494185
 20
173.9993706162224
 10
187.4299954134936
 20
173.8240044900997
 10
187.4495032666788
 20
173.6315313117082
  0
LINE
  5
2BC
330
79
100
AcDbEntity
  8
Livello 1
 62
    18
420
        0
370
     0
100
AcDbLine
 10
187.1650029751376
 20
172.8143223648368
 30
0.0
 11
187.2255935919844
 21
172.2847681250603
 31
0.0
  0
LINE
  5
2BD
330
79
100
AcDbEntity
  8
Livello 1
 62
    18
420
        0
370
     0
100
AcDbLine
 10
187.0331204135928
 20
172.1555770443634
 30
0.0
 11
187.0583772698691
 21
171.4652337387363
 31
0.0
  0
LINE
  5
2BE
330
79
100
AcDbEntity
  8
Livello 1
 62
    18
420
        0
370
     0
100
AcDbLine
 10
187.0082511305587
 20
182.5721246898713
 30
0.0
 11
187.0137632833351
 21
182.0889931117586
 31
0.0
  0
LINE
  5
2BF
330
79
100
AcDbEntity
  8
Livello 1
 62
    18
420
        0
370
     0
100
AcDbLine
 10
187.0651167379121
 20
182.1931857183406
 30
0.0
 11
187.1004289666359
 21
181.4333914409155
 31
0.0
  0
LWPOLYLINE
  5
2C0
330
79
100
AcDbEntity
  8
Livello 1
 62
    18
420
        0
370
     0
100
AcDbPolyline
 90
        3
 70
     0
 43
0.0
 10
187.1961164937387
 20
181.1219548090489
 10
187.262606836604
 20
180.6563716860642
 10
187.2399338019418
 20
180.1804640425471
  0
LWPOLYLINE
  5
2C1
330
79
100
AcDbEntity
  8
Livello 1
 62
    18
420
        0
370
     0
100
AcDbPolyline
 90
        4
 70
     0
 43
0.0
 10
187.3154890523026
 20
179.5436273761753
 10
187.3866733377666
 20
179.290897324562
 10
187.4003675923205
 20
179.0222552381763
 10
187.3406167174982
 20
178.4898480287011
  0
LINE
  5
2C2
330
79
100
AcDbEntity
  8
Livello 1
 62
    18
420
        0
370
     0
100
AcDbLine
 10
187.26310206908
 20
175.9254696724086
 30
0.0
 11
187.3005674824821
 21
175.9978274435225
 31
0.0
  0
LINE
  5
2C3
330
79
100
AcDbEntity
  8
Livello 1
 62
    18
420
        0
370
     0
100
AcDbLine
 10
187.1261164598478
 20
174.6434419831132
 30
0.0
 11
187.169115557873
 21
174.4208026873789
 31
0.0
  0
LINE
  5
2C4
330
79
100
AcDbEntity
  8
Livello 1
 62
    18
420
        0
370
     0
100
AcDbLine
 10
187.0234956780809
 20
173.9021435620746
 30
0.0
 11
187.0394077128534
 21
173.7228263420673
 31
0.0
  0
LINE
  5
2C5
330
79
100
AcDbEntity
  8
Livello 1
 62
    18
420
        0
370
     0
100
AcDbLine
 10
187.0394077128534
 20
173.7228263420673
 30
0.0
 11
187.0455873528801
 21
173.4743380642703
 31
0.0
  0
LWPOLYLINE
  5
2C6
330
79
100
AcDbEntity
  8
Livello 1
 62
    18
420
        0
370
     0
100
AcDbPolyline
 90
        7
 70
     0
 43
0.0
 10
187.5175223706657
 20
181.1588603944347
 10
187.5838835224504
 20
181.0413611065408
 10
187.6088174010249
 20
180.9032558412759
 10
187.6253753912008
 20
180.6231265146315
 10
187.6088174010249
 20
180.3429864220637
 10
187.5838835224504
 20
180.204913454569
 10
187.5175223706657
 20
180.0874034007518
  0
LWPOLYLINE
  5
2C7
330
79
100
AcDbEntity
  8
Livello 1
 62
    18
420
        0
370
     0
100
AcDbPolyline
 90
        6
 70
     0
 43
0.0
 10
187.6869349411529
 20
179.3322061726148
 10
187.7576885896812
 20
179.0703035542721
 10
187.7720933951789
 20
178.7978180332356
 10
187.7517242681224
 20
178.5256877876711
 10
187.7232376348287
 20
178.392201103541
 10
187.6506537793239
 20
178.2818503887791
  0
LWPOLYLINE
  5
2C8
330
79
100
AcDbEntity
  8
Livello 1
 62
    18
420
        0
370
     0
100
AcDbPolyline
 90
        5
 70
     0
 43
0.0
 10
187.7360060199709
 20
177.3385509471476
 10
187.7871872197737
 20
176.8377847865197
 10
187.7640189526354
 20
176.5864004753304
 10
187.7353385327207
 20
176.4634536302005
 10
187.6651662440555
 20
176.3637288818259
  0
LWPOLYLINE
  5
2C9
330
79
100
AcDbEntity
  8
Livello 1
 62
    18
420
        0
370
     0
100
AcDbPolyline
 90
        4
 70
     0
 43
0.0
 10
187.6449478399264
 20
175.3735438438248
 10
187.6642403746438
 20
174.9342295739151
 10
187.6406845342634
 20
174.7155090742953
 10
187.5553753573099
 20
174.5209580726892
  0
LWPOLYLINE
  5
2CA
330
79
100
AcDbEntity
  8
Livello 1
 62
    18
420
        0
370
     0
100
AcDbPolyline
 90
        4
 70
     0
 43
0.0
 10
187.4495032666788
 20
173.6315313117082
 10
187.4478453144766
 20
173.2731767857019
 10
187.4277130377346
 20
173.0950976468846
 10
187.364129494185
 20
172.9332750523884
  0
LINE
  5
2CB
330
79
100
AcDbEntity
  8
Livello 1
 62
    18
420
        0
370
     0
100
AcDbLine
 10
187.2255935919844
 20
172.2847681250603
 30
0.0
 11
187.1650029751376
 21
171.7551815875137
 31
0.0
  0
LINE
  5
2CC
330
79
100
AcDbEntity
  8
Livello 1
 62
    18
420
        0
370
     0
100
AcDbLine
 10
187.0583772698691
 20
171.4652337387363
 30
0.0
 11
187.0331204135928
 21
171.1010548481756
 31
0.0
  0
LINE
  5
2CD
330
79
100
AcDbEntity
  8
Livello 1
 62
    18
420
        0
370
     0
100
AcDbLine
 10
187.0332280728268
 20
183.4271327937699
 30
0.0
 11
187.018629480708
 21
183.2100487145056
 31
0.0
  0
LINE
  5
2CE
330
79
100
AcDbEntity
  8
Livello 1
 62
    18
420
        0
370
     0
100
AcDbLine
 10
187.1576606153846
 20
182.7799070113254
 30
0.0
 11
187.1275375617354
 21
182.6793317550029
 31
0.0
  0
LINE
  5
2CF
330
79
100
AcDbEntity
  8
Livello 1
 62
    18
420
        0
370
     0
100
AcDbLine
 10
187.3176422369809
 20
181.6029977980237
 30
0.0
 11
187.3424684563215
 21
181.6286637593888
 31
0.0
  0
LINE
  5
2D0
330
79
100
AcDbEntity
  8
Livello 1
 62
    18
420
        0
370
     0
100
AcDbLine
 10
187.0137848151818
 20
182.0320198451712
 30
0.0
 11
187.0102320604627
 21
181.5908107727446
 31
0.0
  0
LINE
  5
2D1
330
79
100
AcDbEntity
  8
Livello 1
 62
    18
420
        0
370
     0
100
AcDbLine
 10
187.1004289666359
 20
181.4333914409155
 30
0.0
 11
187.0651167379121
 21
181.1129975607873
 31
0.0
  0
LINE
  5
2D2
330
79
100
AcDbEntity
  8
Livello 1
 62
    18
420
        0
370
     0
100
AcDbLine
 10
187.2399338019418
 20
180.1804640425471
 30
0.0
 11
187.1961164937387
 21
180.0417558855722
 31
0.0
  0
LINE
  5
2D3
330
79
100
AcDbEntity
  8
Livello 1
 62
    18
420
        0
370
     0
100
AcDbLine
 10
187.3154890523026
 20
178.4634284526986
 30
0.0
 11
187.3406167174982
 21
178.4898480287011
 31
0.0
  0
LWPOLYLINE
  5
2D4
330
79
100
AcDbEntity
  8
Livello 1
 62
    18
420
        0
370
     0
100
AcDbPolyline
 90
        5
 70
     0
 43
0.0
 10
187.3529975293983
 20
177.7281589487591
 10
187.4201122958203
 20
177.4631234467095
 10
187.4327514898818
 20
177.1866114703246
 10
187.4192725537958
 20
176.9103148124076
 10
187.3442125359109
 20
176.6509206542151
  0
LWPOLYLINE
  5
2D5
330
79
100
AcDbEntity
  8
Livello 1
 62
    18
420
        0
370
     0
100
AcDbPolyline
 90
        4
 70
     0
 43
0.0
 10
187.3005674824821
 20
175.9254696724086
 10
187.3404229308771
 20
175.4156386042852
 10
187.3270947177186
 20
175.1598402645054
 10
187.26310206908
 20
174.917585456352
  0
LWPOLYLINE
  5
2D6
330
79
100
AcDbEntity
  8
Livello 1
 62
    18
420
        0
370
     0
100
AcDbPolyline
 90
        3
 70
     0
 43
0.0
 10
187.169115557873
 20
174.4208026873789
 10
187.178934080006
 20
173.9883355447462
 10
187.1261164598478
 20
173.5632322937131
  0
LINE
  5
2D7
330
79
100
AcDbEntity
  8
Livello 1
 62
    18
420
        0
370
     0
100
AcDbLine
 10
187.0455873528801
 20
173.4743380642703
 30
0.0
 11
187.0234956780809
 21
172.8219446385979
 31
0.0
  0
LINE
  5
2D8
330
79
100
AcDbEntity
  8
Livello 1
 62
    18
420
        0
370
     0
100
AcDbLine
 10
214.051454011439
 20
145.3854302784594
 30
0.0
 11
214.5661512769353
 21
145.2401549082158
 31
0.0
  0
LWPOLYLINE
  5
2D9
330
79
100
AcDbEntity
  8
Livello 1
 62
    18
420
        0
370
     0
100
AcDbPolyline
 90
        5
 70
     0
 43
0.0
 10
187.5175223706657
 20
180.0874034007518
 10
187.4344094420841
 20
180.3443644602578
 10
187.420930505998
 20
180.6231265146315
 10
187.4344094420841
 20
180.9018993349286
 10
187.5175223706657
 20
181.1588603944347
  0
LINE
  5
2DA
330
79
100
AcDbEntity
  8
Livello 1
 62
    18
420
        0
370
     0
100
AcDbLine
 10
187.615449209834
 20
178.3087328994875
 30
0.0
 11
187.5721056022602
 21
178.438656062975
 31
0.0
  0
LWPOLYLINE
  5
2DB
330
79
100
AcDbEntity
  8
Livello 1
 62
    18
420
        0
370
     0
100
AcDbPolyline
 90
        3
 70
     0
 43
0.0
 10
187.5721056022602
 20
178.438656062975
 10
187.5407767651912
 20
178.8057632846985
 10
187.5668733634919
 20
179.1732796115109
  0
LINE
  5
2DC
330
79
100
AcDbEntity
  8
Livello 1
 62
    18
420
        0
370
     0
100
AcDbLine
 10
187.5668733634919
 20
179.1732796115109
 30
0.0
 11
187.6506537793239
 21
179.3579259635969
 31
0.0
  0
LWPOLYLINE
  5
2DD
330
79
100
AcDbEntity
  8
Livello 1
 62
    18
420
        0
370
     0
100
AcDbPolyline
 90
        3
 70
     0
 43
0.0
 10
187.5983529234884
 20
176.4674800855492
 10
187.5549231885275
 20
176.8272772452897
 10
187.5704691819047
 20
177.1896797584912
  0
LWPOLYLINE
  5
2DE
330
79
100
AcDbEntity
  8
Livello 1
 62
    18
420
        0
370
     0
100
AcDbPolyline
 90
        3
 70
     0
 43
0.0
 10
187.5704691819047
 20
177.1896797584912
 10
187.5954891878663
 20
177.3264177514854
 10
187.6651662440555
 20
177.4403642846601
  0
LWPOLYLINE
  5
2DF
330
79
100
AcDbEntity
  8
Livello 1
 62
    18
420
        0
370
     0
100
AcDbPolyline
 90
        4
 70
     0
 43
0.0
 10
187.4731882981399
 20
174.7428868174796
 10
187.4572331996739
 20
175.1797679887029
 10
187.476848712093
 20
175.3975733848344
 10
187.5553753573099
 20
175.5937177431027
  0
LINE
  5
2E0
330
79
100
AcDbEntity
  8
Livello 1
 62
    18
420
        0
370
     0
100
AcDbLine
 10
187.2884665845902
 20
173.3019971626207
 30
0.0
 11
187.2848707661774
 21
173.484920966964
 31
0.0
  0
LWPOLYLINE
  5
2E1
330
79
100
AcDbEntity
  8
Livello 1
 62
    18
420
        0
370
     0
100
AcDbPolyline
 90
        3
 70
     0
 43
0.0
 10
187.2848707661774
 20
173.484920966964
 10
187.2962611131256
 20
173.7498488097797
 10
187.364129494185
 20
173.9993706162224
  0
LINE
  5
2E2
330
79
100
AcDbEntity
  8
Livello 1
 62
    18
420
        0
370
     0
100
AcDbLine
 10
187.1148337721336
 20
172.3471351192667
 30
0.0
 11
187.1650029751376
 21
172.8143223648368
 31
0.0
  0
LINE
  5
2E3
330
79
100
AcDbEntity
  8
Livello 1
 62
    18
420
        0
370
     0
100
AcDbLine
 10
187.016648550804
 20
171.7911613034877
 30
0.0
 11
187.0331204135928
 21
172.1555770443634
 31
0.0
  0
LINE
  5
2E4
330
79
100
AcDbEntity
  8
Livello 1
 62
    18
420
        0
370
     0
100
AcDbLine
 10
187.0103397196966
 20
184.0467762804857
 30
0.0
 11
187.018629480708
 21
184.2640756782178
 31
0.0
  0
LINE
  5
2E5
330
79
100
AcDbEntity
  8
Livello 1
 62
    18
420
        0
370
     0
100
AcDbLine
 10
187.1008596035715
 20
183.6357763890954
 30
0.0
 11
187.1275375617354
 21
183.7371698555956
 31
0.0
  0
LINE
  5
2E6
330
79
100
AcDbEntity
  8
Livello 1
 62
    18
420
        0
370
     0
100
AcDbLine
 10
187.2938280144391
 20
182.6410481314231
 30
0.0
 11
187.3176422369809
 21
182.6674892392724
 31
0.0
  0
LINE
  5
2E7
330
79
100
AcDbEntity
  8
Livello 1
 62
    18
420
        0
370
     0
100
AcDbLine
 10
187.0383095886675
 20
181.8727703063656
 30
0.0
 11
187.0651167379121
 21
182.1931857183406
 31
0.0
  0
LINE
  5
2E8
330
79
100
AcDbEntity
  8
Livello 1
 62
    18
420
        0
370
     0
100
AcDbLine
 10
187.1569070007472
 20
180.9832466520741
 30
0.0
 11
187.1961164937387
 21
181.1219548090489
 31
0.0
  0
LINE
  5
2E9
330
79
100
AcDbEntity
  8
Livello 1
 62
    18
420
        0
370
     0
100
AcDbLine
 10
187.2914379794462
 20
179.5172078001728
 30
0.0
 11
187.3154890523026
 21
179.5436273761753
 31
0.0
  0
LINE
  5
2EA
330
79
100
AcDbEntity
  8
Livello 1
 62
    18
420
        0
370
     0
100
AcDbLine
 10
187.3355567335042
 20
176.6538489853775
 30
0.0
 11
187.2910073425105
 21
176.7887137077017
 31
0.0
  0
LINE
  5
2EB
330
79
100
AcDbEntity
  8
Livello 1
 62
    18
420
        0
370
     0
100
AcDbLine
 10
187.2910073425105
 20
176.7887137077017
 30
0.0
 11
187.2904475144942
 21
177.5897307057924
 31
0.0
  0
LINE
  5
2EC
330
79
100
AcDbEntity
  8
Livello 1
 62
    18
420
        0
370
     0
100
AcDbLine
 10
187.2904475144942
 20
177.5897307057924
 30
0.0
 11
187.3442125359109
 21
177.7310872799216
 31
0.0
  0
LINE
  5
2ED
330
79
100
AcDbEntity
  8
Livello 1
 62
    18
420
        0
370
     0
100
AcDbLine
 10
187.217002385118
 20
174.9899755252358
 30
0.0
 11
187.2282204772919
 21
175.0562613155567
 31
0.0
  0
LINE
  5
2EE
330
79
100
AcDbEntity
  8
Livello 1
 62
    18
420
        0
370
     0
100
AcDbLine
 10
187.217002385118
 20
175.0562613155567
 30
0.0
 11
187.2076144999207
 21
175.7714093086776
 31
0.0
  0
LINE
  5
2EF
330
79
100
AcDbEntity
  8
Livello 1
 62
    18
420
        0
370
     0
100
AcDbLine
 10
187.2076144999207
 20
175.7714093086776
 30
0.0
 11
187.26310206908
 21
175.9978274435225
 31
0.0
  0
LINE
  5
2F0
330
79
100
AcDbEntity
  8
Livello 1
 62
    18
420
        0
370
     0
100
AcDbLine
 10
187.0897922343252
 20
173.7858715894474
 30
0.0
 11
187.0841293586213
 21
174.2722437105009
 31
0.0
  0
LINE
  5
2F1
330
79
100
AcDbEntity
  8
Livello 1
 62
    18
420
        0
370
     0
100
AcDbLine
 10
187.0841293586213
 20
174.2722437105009
 30
0.0
 11
187.1261164598478
 21
174.6434419831132
 31
0.0
  0
LINE
  5
2F2
330
79
100
AcDbEntity
  8
Livello 1
 62
    18
420
        0
370
     0
100
AcDbLine
 10
187.0110072069469
 20
173.2497609023259
 30
0.0
 11
187.0111579298743
 21
173.3055606832632
 31
0.0
  0
LINE
  5
2F3
330
79
100
AcDbEntity
  8
Livello 1
 62
    18
420
        0
370
     0
100
AcDbLine
 10
187.0110072069469
 20
173.3055606832632
 30
0.0
 11
187.0234956780809
 21
173.9021435620746
 31
0.0
  0
LINE
  5
2F4
330
79
100
AcDbEntity
  8
Livello 1
 62
    18
420
        0
370
     0
100
AcDbLine
 10
187.615449209834
 20
178.2818503887791
 30
0.0
 11
187.6506537793239
 21
178.3087328994875
 31
0.0
  0
LINE
  5
2F5
330
79
100
AcDbEntity
  8
Livello 1
 62
    18
420
        0
370
     0
100
AcDbLine
 10
187.0651167379121
 20
181.1129975607873
 30
0.0
 11
187.0363286587635
 21
181.5934807217457
 31
0.0
  0
LINE
  5
2F6
330
79
100
AcDbEntity
  8
Livello 1
 62
    18
420
        0
370
     0
100
AcDbLine
 10
187.0363286587635
 20
181.5934807217457
 30
0.0
 11
187.0383095886675
 21
181.8727703063656
 31
0.0
  0
LINE
  5
2F7
330
79
100
AcDbEntity
  8
Livello 1
 62
    18
420
        0
370
     0
100
AcDbLine
 10
187.1961164937387
 20
180.0417558855722
 30
0.0
 11
187.1460118862751
 21
180.3159962521218
 31
0.0
  0
LINE
  5
2F8
330
79
100
AcDbEntity
  8
Livello 1
 62
    18
420
        0
370
     0
100
AcDbLine
 10
187.1460118862751
 20
180.3159962521218
 30
0.0
 11
187.1569070007472
 21
180.9832466520741
 31
0.0
  0
LINE
  5
2F9
330
79
100
AcDbEntity
  8
Livello 1
 62
    18
420
        0
370
     0
100
AcDbLine
 10
187.6651662440555
 20
176.3637288818259
 30
0.0
 11
187.5983529234884
 21
176.4674800855492
 31
0.0
  0
LINE
  5
2FA
330
79
100
AcDbEntity
  8
Livello 1
 62
    18
420
        0
370
     0
100
AcDbLine
 10
187.3154890523026
 20
178.4634284526986
 30
0.0
 11
187.2592478685059
 21
178.6421427809959
 31
0.0
  0
LINE
  5
2FB
330
79
100
AcDbEntity
  8
Livello 1
 62
    18
420
        0
370
     0
100
AcDbLine
 10
187.2592478685059
 20
178.6421427809959
 30
0.0
 11
187.264695425742
 21
179.4054144516764
 31
0.0
  0
LINE
  5
2FC
330
79
100
AcDbEntity
  8
Livello 1
 62
    18
420
        0
370
     0
100
AcDbLine
 10
187.264695425742
 20
179.4054144516764
 30
0.0
 11
187.2914379794462
 21
179.5172078001728
 31
0.0
  0
LINE
  5
2FD
330
79
100
AcDbEntity
  8
Livello 1
 62
    18
420
        0
370
     0
100
AcDbLine
 10
187.5553753573099
 20
174.5209580726892
 30
0.0
 11
187.4731882981399
 21
174.7428868174796
 31
0.0
  0
LWPOLYLINE
  5
2FE
330
79
100
AcDbEntity
  8
Livello 1
 62
    18
420
        0
370
     0
100
AcDbPolyline
 90
        3
 70
     0
 43
0.0
 10
187.364129494185
 20
172.9332750523884
 10
187.3041633008949
 20
173.1100192167051
 10
187.2884665845902
 20
173.3019971626207
  0
LINE
  5
2FF
330
79
100
AcDbEntity
  8
Livello 1
 62
    18
420
        0
370
     0
100
AcDbLine
 10
187.2282204772919
 20
174.917585456352
 30
0.0
 11
187.26310206908
 21
174.9899755252358
 31
0.0
  0
LINE
  5
300
330
79
100
AcDbEntity
  8
Livello 1
 62
    18
420
        0
370
     0
100
AcDbLine
 10
187.1261164598478
 20
173.5632322937131
 30
0.0
 11
187.0897922343252
 21
173.7858715894474
 31
0.0
  0
LINE
  5
301
330
79
100
AcDbEntity
  8
Livello 1
 62
    18
420
        0
370
     0
100
AcDbLine
 10
187.0234956780809
 20
172.8219446385979
 30
0.0
 11
187.0111579298743
 21
173.2497609023259
 31
0.0
  0
LINE
  5
302
330
79
100
AcDbEntity
  8
Livello 1
 62
    18
420
        0
370
     0
100
AcDbLine
 10
187.1650029751376
 20
171.7551815875137
 30
0.0
 11
187.1145107944319
 21
172.2847681250603
 31
0.0
  0
LINE
  5
303
330
79
100
AcDbEntity
  8
Livello 1
 62
    18
420
        0
370
     0
100
AcDbLine
 10
187.0331204135928
 20
171.1010548481756
 30
0.0
 11
187.0160456590941
 21
171.6093033255601
 31
0.0
  0
LINE
  5
304
330
79
100
AcDbEntity
  8
Livello 1
 62
    18
420
        0
370
     0
100
AcDbLine
 10
187.018629480708
 20
183.2100487145056
 30
0.0
 11
187.0094999776721
 21
183.5805041384039
 31
0.0
  0
LINE
  5
305
330
79
100
AcDbEntity
  8
Livello 1
 62
    18
420
        0
370
     0
100
AcDbLine
 10
187.0094999776721
 20
183.5805041384039
 30
0.0
 11
187.0103397196966
 21
184.0467762804857
 31
0.0
  0
LINE
  5
306
330
79
100
AcDbEntity
  8
Livello 1
 62
    18
420
        0
370
     0
100
AcDbLine
 10
187.1275375617354
 20
182.6793317550029
 30
0.0
 11
187.0903735941883
 21
182.9230937924311
 31
0.0
  0
LINE
  5
307
330
79
100
AcDbEntity
  8
Livello 1
 62
    18
420
        0
370
     0
100
AcDbLine
 10
187.0903735941883
 20
182.9230937924311
 30
0.0
 11
187.1008596035715
 21
183.6357763890954
 31
0.0
  0
LINE
  5
308
330
79
100
AcDbEntity
  8
Livello 1
 62
    18
420
        0
370
     0
100
AcDbLine
 10
187.3176422369809
 20
181.6029977980237
 30
0.0
 11
187.2615087124181
 21
181.7844251390157
 31
0.0
  0
LINE
  5
309
330
79
100
AcDbEntity
  8
Livello 1
 62
    18
420
        0
370
     0
100
AcDbLine
 10
187.2615087124181
 20
181.7844251390157
 30
0.0
 11
187.2649107442098
 21
182.5131058978396
 31
0.0
  0
LINE
  5
30A
330
79
100
AcDbEntity
  8
Livello 1
 62
    18
420
        0
370
     0
100
AcDbLine
 10
187.2649107442098
 20
182.5131058978396
 30
0.0
 11
187.2938280144391
 21
182.6410481314231
 31
0.0
  0
LINE
  5
30B
330
79
100
AcDbEntity
  8
Livello 1
 62
    18
420
        0
370
     0
100
AcDbLine
 10
111.2671316928321
 20
105.5993682597329
 30
0.0
 11
111.2779622117638
 21
105.6593344530231
 31
0.0
  0
LINE
  5
30C
330
79
100
AcDbEntity
  8
Livello 1
 62
    18
420
        0
370
     0
100
AcDbLine
 10
121.063949724237
 20
105.0943603252889
 30
0.0
 11
120.9429838090112
 21
105.0142833871036
 31
0.0
  0
LINE
  5
30D
330
79
100
AcDbEntity
  8
Livello 1
 62
    18
420
        0
370
     0
100
AcDbLine
 10
120.9020625342005
 20
105.0076515782945
 30
0.0
 11
120.9429838090112
 21
105.0142833871036
 31
0.0
  0
LINE
  5
30E
330
79
100
AcDbEntity
  8
Livello 1
 62
    18
420
        0
370
     0
100
AcDbLine
 10
111.5422333332527
 20
105.0015150019614
 30
0.0
 11
111.4341434624029
 21
105.0134221132323
 31
0.0
  0
LINE
  5
30F
330
79
100
AcDbEntity
  8
Livello 1
 62
    18
420
        0
370
     0
100
AcDbLine
 10
111.4341434624029
 20
105.0134221132323
 30
0.0
 11
111.3417503078579
 21
105.0456337560194
 31
0.0
  0
LINE
  5
310
330
79
100
AcDbEntity
  8
Livello 1
 62
    18
420
        0
370
     0
100
AcDbLine
 10
111.3089357733609
 20
105.0456337560194
 30
0.0
 11
111.3417503078579
 21
105.0943603252889
 31
0.0
  0
LINE
  5
311
330
79
100
AcDbEntity
  8
Livello 1
 62
    18
420
        0
370
     0
100
AcDbLine
 10
121.1057215069957
 20
105.6194790046281
 30
0.0
 11
121.0870210980648
 21
105.5342990187553
 31
0.0
  0
LINE
  5
312
330
79
100
AcDbEntity
  8
Livello 1
 62
    18
420
        0
370
     0
100
AcDbLine
 10
121.0870210980648
 20
105.5342990187553
 30
0.0
 11
121.063949724237
 21
105.0943603252889
 31
0.0
  0
LINE
  5
313
330
79
100
AcDbEntity
  8
Livello 1
 62
    18
420
        0
370
     0
100
AcDbLine
 10
111.3089357733609
 20
105.0943603252889
 30
0.0
 11
111.2779622117638
 21
105.5993682597329
 31
0.0
  0
LINE
  5
314
330
79
100
AcDbEntity
  8
Livello 1
 62
    18
420
        0
370
     0
100
AcDbLine
 10
90.843669020936
 20
63.36938780154047
 30
0.0
 11
90.8697333214666
 21
63.37722539376941
 31
0.0
  0
LINE
  5
315
330
79
100
AcDbEntity
  8
Livello 1
 62
    18
420
        0
370
     0
100
AcDbLine
 10
141.471263511046
 20
63.37722539376941
 30
0.0
 11
141.5031521761314
 21
63.38603191910358
 31
0.0
  0
LINE
  5
316
330
79
100
AcDbEntity
  8
Livello 1
 62
    18
420
        0
370
     0
100
AcDbLine
 10
141.4577522771898
 20
63.38917556873386
 30
0.0
 11
140.7491284336441
 21
63.44184246596462
 31
0.0
  0
LINE
  5
317
330
79
100
AcDbEntity
  8
Livello 1
 62
    18
420
        0
370
     0
100
AcDbLine
 10
140.6850281257717
 20
63.44184246596462
 30
0.0
 11
140.7491284336441
 21
63.44457701050604
 31
0.0
  0
LINE
  5
318
330
79
100
AcDbEntity
  8
Livello 1
 62
    18
420
        0
370
     0
100
AcDbLine
 10
139.8892971960661
 20
63.47571206095398
 30
0.0
 11
139.7692894480224
 21
63.48062132202048
 31
0.0
  0
LINE
  5
319
330
79
100
AcDbEntity
  8
Livello 1
 62
    18
420
        0
370
     0
100
AcDbLine
 10
139.7692894480224
 20
63.48062132202048
 30
0.0
 11
137.3416060210303
 21
63.5704091231048
 31
0.0
  0
LINE
  5
31A
330
79
100
AcDbEntity
  8
Livello 1
 62
    18
420
        0
370
     0
100
AcDbLine
 10
137.3416060210303
 20
63.5704091231048
 30
0.0
 11
137.2061384069965
 21
63.57450017399353
 31
0.0
  0
LINE
  5
31B
330
79
100
AcDbEntity
  8
Livello 1
 62
    18
420
        0
370
     0
100
AcDbLine
 10
137.2061384069965
 20
63.57450017399353
 30
0.0
 11
136.010539550687
 21
63.60529071489295
 31
0.0
  0
LINE
  5
31C
330
79
100
AcDbEntity
  8
Livello 1
 62
    18
420
        0
370
     0
100
AcDbLine
 10
141.5031521761314
 20
63.36936626969368
 30
0.0
 11
141.5292272425853
 21
63.37722539376941
 31
0.0
  0
LINE
  5
31D
330
79
100
AcDbEntity
  8
Livello 1
 62
    18
420
        0
370
     0
100
AcDbLine
 10
141.5601577404888
 20
63.35739456288244
 30
0.0
 11
141.5696209871499
 21
63.36019370296421
 31
0.0
  0
LINE
  5
31E
330
79
100
AcDbEntity
  8
Livello 1
 62
    18
420
        0
370
     0
100
AcDbLine
 10
96.36273352015303
 20
63.60462322764268
 30
0.0
 11
93.38648323267552
 21
63.51188556354911
 31
0.0
  0
LINE
  5
31F
330
79
100
AcDbEntity
  8
Livello 1
 62
    18
420
        0
370
     0
100
AcDbLine
 10
93.38648323267552
 20
63.51188556354911
 30
0.0
 11
92.5837759846123
 21
63.47930787936672
 31
0.0
  0
LINE
  5
320
330
79
100
AcDbEntity
  8
Livello 1
 62
    18
420
        0
370
     0
100
AcDbLine
 10
92.5837759846123
 20
63.47930787936672
 30
0.0
 11
92.45466026537917
 21
63.47409717244528
 31
0.0
  0
LINE
  5
321
330
79
100
AcDbEntity
  8
Livello 1
 62
    18
420
        0
370
     0
100
AcDbLine
 10
92.45466026537917
 20
63.47409717244528
 30
0.0
 11
90.90377517123021
 21
63.38639796049889
 31
0.0
  0
ENDBLK
  5
7C
330
79
100
AcDbEntity
  8
0
100
AcDbBlockEnd
  0
BLOCK
  5
88
330
86
100
AcDbEntity
  8
0
100
AcDbBlockBegin
  2
Block_1
 70
     0
 10
0.0
 20
0.0
 30
0.0
  3
Block_1
  1

  0
INSERT
  5
8B
330
86
100
AcDbEntity
  8
Livello 1
100
AcDbBlockReference
  2
Block_2
 10
0.0
 20
0.0
 30
0.0
  0
ENDBLK
  5
89
330
86
100
AcDbEntity
  8
0
100
AcDbBlockEnd
  0
BLOCK
  5
8C
330
8A
100
AcDbEntity
  8
0
100
AcDbBlockBegin
  2
Block_2
 70
     0
 10
0.0
 20
0.0
 30
0.0
  3
Block_2
  1

  0
SPLINE
  5
8E
330
8A
100
AcDbEntity
  8
Livello 1
100
AcDbSpline
210
0.0
220
0.0
230
1.0
 70
    11
 71
     3
 72
    20
 73
    16
 74
     0
 42
0.0000000001
 43
0.0000000001
 40
0.0
 40
0.0
 40
0.0
 40
0.0
 40
1.0
 40
1.0
 40
1.0
 40
2.0
 40
2.0
 40
2.0
 40
3.0
 40
3.0
 40
3.0
 40
4.0
 40
4.0
 40
4.0
 40
5.0
 40
5.0
 40
5.0
 40
5.0
 10
114.2255859089436
 20
244.2224744398124
 30
0.0
 10
114.2255859089436
 20
244.5838649562152
 30
0.0
 10
114.0195691989256
 20
244.8015949908829
 30
0.0
 10
113.7048597263481
 20
244.8015949908829
 30
0.0
 10
113.4988430163301
 20
244.8015949908829
 30
0.0
 10
113.3083292359958
 20
244.6734374388316
 30
0.0
 10
113.2151394031198
 20
244.4905028685649
 30
0.0
 10
113.1917127538201
 20
244.4515732895816
 30
0.0
 10
113.1762098241365
 20
244.4012748954969
 30
0.0
 10
113.1762098241365
 20
244.3389186672139
 30
0.0
 10
113.1839612889783
 20
243.9230956421442
 30
0.0
 10
113.3744750693126
 20
243.6161376344085
 30
0.0
 10
113.7319037259073
 20
243.6161376344085
 30
0.0
 10
114.0273206637675
 20
243.6161376344085
 30
0.0
 10
114.2255859089436
 20
243.8610839234097
 30
0.0
 10
114.2255859089436
 20
244.2224744398124
 30
0.0
  0
SPLINE
  5
8F
330
8A
100
AcDbEntity
  8
Livello 1
100
AcDbSpline
210
0.0
220
0.0
230
1.0
 70
     9
 71
     3
 72
    38
 73
    34
 74
     0
 42
0.0000000001
 43
0.0000000001
 40
0.0
 40
0.0
 40
0.0
 40
0.0
 40
1.0
 40
1.0
 40
1.0
 40
2.0
 40
2.0
 40
2.0
 40
3.0
 40
3.0
 40
3.0
 40
4.0
 40
4.0
 40
4.0
 40
5.0
 40
5.0
 40
5.0
 40
6.0
 40
6.0
 40
6.0
 40
7.0
 40
7.0
 40
7.0
 40
8.0
 40
8.0
 40
8.0
 40
9.0
 40
9.0
 40
9.0
 40
10.0
 40
10.0
 40
10.0
 40
11.0
 40
11.0
 40
11.0
 40
11.0
 10
114.3227376016276
 20
245.6797498300731
 30
0.0
 10
114.2528021632771
 20
245.6838839446554
 30
0.0
 10
114.1634019354348
 20
245.6797498300731
 30
0.0
 10
114.0662502427508
 20
245.6642469003895
 30
0.0
 10
113.5298488756974
 20
245.5750189273215
 30
0.0
 10
113.2461452624871
 20
245.182278042003
 30
0.0
 10
113.1879231487863
 20
244.7664550169334
 30
0.0
 10
113.1879231487863
 20
244.7664550169334
 30
0.0
 10
113.1994642186619
 20
244.7664550169334
 30
0.0
 10
113.1994642186619
 20
244.7664550169334
 30
0.0
 10
113.3200425606457
 20
244.9259629379004
 30
0.0
 10
113.5298488756974
 20
245.0579100949855
 30
0.0
 10
113.8097628838739
 20
245.0579100949855
 30
0.0
 10
114.2565917683108
 20
245.0579100949855
 30
0.0
 10
114.5714734956627
 20
244.7354491575661
 30
0.0
 10
114.5714734956627
 20
244.2417669745299
 30
0.0
 10
114.5714734956627
 20
243.7794351604093
 30
0.0
 10
114.2565917683108
 20
243.3518988106898
 30
0.0
 10
113.7319037259073
 20
243.3518988106898
 30
0.0
 10
113.1917127538201
 20
243.3518988106898
 30
0.0
 10
112.8380737022592
 20
243.7715114407932
 30
0.0
 10
112.8380737022592
 20
244.4284911498304
 30
0.0
 10
112.8380737022592
 20
244.9259629379004
 30
0.0
 10
113.0168741579437
 20
245.3183593136704
 30
0.0
 10
113.2656100519787
 20
245.5670952077054
 30
0.0
 10
113.4754163670304
 20
245.7731119177234
 30
0.0
 10
113.755330375207
 20
245.9012694697747
 30
0.0
 10
114.0740017075926
 20
245.940199048758
 30
0.0
 10
114.1751152600847
 20
245.9557019784416
 30
0.0
 10
114.2605536281189
 20
245.959836093024
 30
0.0
 10
114.3227376016276
 20
245.959836093024
 30
0.0
 10
114.3227376016276
 20
245.959836093024
 30
0.0
 10
114.3227376016276
 20
245.6797498300731
 30
0.0
 10
114.3227376016276
 20
245.6797498300731
 30
0.0
  0
HATCH
  5
90
330
8A
100
AcDbEntity
  8
Livello 1
 62
    18
420
        0
440
 33554687
100
AcDbHatch
 10
0.0
 20
0.0
 30
0.0
210
0.0
220
0.0
230
1.0
  2
SOLID
 70
     1
 71
     1
 91
        2
 92
        1
 93
        1
 72
     4
 94
        3
 73
     0
 74
     0
 95
       20
 96
       16
 40
0.0
 40
0.0
 40
0.0
 40
0.0
 40
1.0
 40
1.0
 40
1.0
 40
2.0
 40
2.0
 40
2.0
 40
3.0
 40
3.0
 40
3.0
 40
4.0
 40
4.0
 40
4.0
 40
5.0
 40
5.0
 40
5.0
 40
5.0
 10
114.2255859089436
 20
244.2224744398124
 10
114.2255859089436
 20
244.5838649562152
 10
114.0195691989256
 20
244.8015949908829
 10
113.7048597263481
 20
244.8015949908829
 10
113.4988430163301
 20
244.8015949908829
 10
113.3083292359958
 20
244.6734374388316
 10
113.2151394031198
 20
244.4905028685649
 10
113.1917127538201
 20
244.4515732895816
 10
113.1762098241365
 20
244.4012748954969
 10
113.1762098241365
 20
244.3389186672139
 10
113.1839612889783
 20
243.9230956421442
 10
113.3744750693126
 20
243.6161376344085
 10
113.7319037259073
 20
243.6161376344085
 10
114.0273206637675
 20
243.6161376344085
 10
114.2255859089436
 20
243.8610839234097
 10
114.2255859089436
 20
244.2224744398124
 97
        0
 97
        1
330
8E
 92
        1
 93
        1
 72
     4
 94
        3
 73
     0
 74
     0
 95
       38
 96
       34
 40
0.0
 40
0.0
 40
0.0
 40
0.0
 40
1.0
 40
1.0
 40
1.0
 40
2.0
 40
2.0
 40
2.0
 40
3.0
 40
3.0
 40
3.0
 40
4.0
 40
4.0
 40
4.0
 40
5.0
 40
5.0
 40
5.0
 40
6.0
 40
6.0
 40
6.0
 40
7.0
 40
7.0
 40
7.0
 40
8.0
 40
8.0
 40
8.0
 40
9.0
 40
9.0
 40
9.0
 40
10.0
 40
10.0
 40
10.0
 40
11.0
 40
11.0
 40
11.0
 40
11.0
 10
114.3227376016276
 20
245.6797498300731
 10
114.2528021632771
 20
245.6838839446554
 10
114.1634019354348
 20
245.6797498300731
 10
114.0662502427508
 20
245.6642469003895
 10
113.5298488756974
 20
245.5750189273215
 10
113.2461452624871
 20
245.182278042003
 10
113.1879231487863
 20
244.7664550169334
 10
113.1879231487863
 20
244.7664550169334
 10
113.1994642186619
 20
244.7664550169334
 10
113.1994642186619
 20
244.7664550169334
 10
113.3200425606457
 20
244.9259629379004
 10
113.5298488756974
 20
245.0579100949855
 10
113.8097628838739
 20
245.0579100949855
 10
114.2565917683108
 20
245.0579100949855
 10
114.5714734956627
 20
244.7354491575661
 10
114.5714734956627
 20
244.2417669745299
 10
114.5714734956627
 20
243.7794351604093
 10
114.2565917683108
 20
243.3518988106898
 10
113.7319037259073
 20
243.3518988106898
 10
113.1917127538201
 20
243.3518988106898
 10
112.8380737022592
 20
243.7715114407932
 10
112.8380737022592
 20
244.4284911498304
 10
112.8380737022592
 20
244.9259629379004
 10
113.0168741579437
 20
245.3183593136704
 10
113.2656100519787
 20
245.5670952077054
 10
113.4754163670304
 20
245.7731119177234
 10
113.755330375207
 20
245.9012694697747
 10
114.0740017075926
 20
245.940199048758
 10
114.1751152600847
 20
245.9557019784416
 10
114.2605536281189
 20
245.959836093024
 10
114.3227376016276
 20
245.959836093024
 10
114.3227376016276
 20
245.959836093024
 10
114.3227376016276
 20
245.6797498300731
 10
114.3227376016276
 20
245.6797498300731
 97
        0
 97
        1
330
8F
 75
     2
 76
     1
 98
        1
 10
0.0
 20
0.0
450
        0
451
        0
460
0.0
461
0.0
452
        0
462
0.0
453
        0
470

  0
SPLINE
  5
91
330
8A
100
AcDbEntity
  8
Livello 1
100
AcDbSpline
210
0.0
220
0.0
230
1.0
 70
    11
 71
     3
 72
    26
 73
    22
 74
     0
 42
0.0000000001
 43
0.0000000001
 40
0.0
 40
0.0
 40
0.0
 40
0.0
 40
1.0
 40
1.0
 40
1.0
 40
2.0
 40
2.0
 40
2.0
 40
3.0
 40
3.0
 40
3.0
 40
4.0
 40
4.0
 40
4.0
 40
5.0
 40
5.0
 40
5.0
 40
6.0
 40
6.0
 40
6.0
 40
7.0
 40
7.0
 40
7.0
 40
7.0
 10
115.9271185691085
 20
244.3506319918637
 30
0.0
 10
115.9271185691085
 20
244.3506319918637
 30
0.0
 10
115.9271185691085
 20
245.1939913666529
 30
0.0
 10
115.9271185691085
 20
245.1939913666529
 30
0.0
 10
115.9271185691085
 20
245.3262830332865
 30
0.0
 10
115.9310804289165
 20
245.4582301903716
 30
0.0
 10
115.9388318937583
 20
245.5905218570052
 30
0.0
 10
115.9388318937583
 20
245.5905218570052
 30
0.0
 10
115.9271185691085
 20
245.5905218570052
 30
0.0
 10
115.9271185691085
 20
245.5905218570052
 30
0.0
 10
115.8494316659161
 20
245.442727260688
 30
0.0
 10
115.7872476924073
 20
245.3338622433541
 30
0.0
 10
115.7173122540568
 20
245.2174180159526
 30
0.0
 10
115.7173122540568
 20
245.2174180159526
 30
0.0
 10
115.0992621240029
 20
244.3585557114798
 30
0.0
 10
115.0992621240029
 20
244.3585557114798
 30
0.0
 10
115.0992621240029
 20
244.3585557114798
 30
0.0
 10
115.0992621240029
 20
244.3506319918637
 30
0.0
 10
115.0992621240029
 20
244.3506319918637
 30
0.0
 10
115.0992621240029
 20
244.3506319918637
 30
0.0
 10
115.9271185691085
 20
244.3506319918637
 30
0.0
 10
115.9271185691085
 20
244.3506319918637
 30
0.0
  0
SPLINE
  5
92
330
8A
100
AcDbEntity
  8
Livello 1
100
AcDbSpline
210
0.0
220
0.0
230
1.0
 70
    11
 71
     3
 72
    38
 73
    34
 74
     0
 42
0.0000000001
 43
0.0000000001
 40
0.0
 40
0.0
 40
0.0
 40
0.0
 40
1.0
 40
1.0
 40
1.0
 40
2.0
 40
2.0
 40
2.0
 40
3.0
 40
3.0
 40
3.0
 40
4.0
 40
4.0
 40
4.0
 40
5.0
 40
5.0
 40
5.0
 40
6.0
 40
6.0
 40
6.0
 40
7.0
 40
7.0
 40
7.0
 40
8.0
 40
8.0
 40
8.0
 40
9.0
 40
9.0
 40
9.0
 40
10.0
 40
10.0
 40
10.0
 40
11.0
 40
11.0
 40
11.0
 40
11.0
 10
115.9271185691085
 20
243.3946179947069
 30
0.0
 10
115.9271185691085
 20
243.3946179947069
 30
0.0
 10
115.9271185691085
 20
244.0826035631113
 30
0.0
 10
115.9271185691085
 20
244.0826035631113
 30
0.0
 10
115.9271185691085
 20
244.0826035631113
 30
0.0
 10
114.7533745372839
 20
244.0826035631113
 30
0.0
 10
114.7533745372839
 20
244.0826035631113
 30
0.0
 10
114.7533745372839
 20
244.0826035631113
 30
0.0
 10
114.7533745372839
 20
244.3079128078466
 30
0.0
 10
114.7533745372839
 20
244.3079128078466
 30
0.0
 10
114.7533745372839
 20
244.3079128078466
 30
0.0
 10
115.8806097800576
 20
245.9209065140406
 30
0.0
 10
115.8806097800576
 20
245.9209065140406
 30
0.0
 10
115.8806097800576
 20
245.9209065140406
 30
0.0
 10
116.2497517613021
 20
245.9209065140406
 30
0.0
 10
116.2497517613021
 20
245.9209065140406
 30
0.0
 10
116.2497517613021
 20
245.9209065140406
 30
0.0
 10
116.2497517613021
 20
244.3506319918637
 30
0.0
 10
116.2497517613021
 20
244.3506319918637
 30
0.0
 10
116.2497517613021
 20
244.3506319918637
 30
0.0
 10
116.603390812863
 20
244.3506319918637
 30
0.0
 10
116.603390812863
 20
244.3506319918637
 30
0.0
 10
116.603390812863
 20
244.3506319918637
 30
0.0
 10
116.603390812863
 20
244.0826035631113
 30
0.0
 10
116.603390812863
 20
244.0826035631113
 30
0.0
 10
116.603390812863
 20
244.0826035631113
 30
0.0
 10
116.2497517613021
 20
244.0826035631113
 30
0.0
 10
116.2497517613021
 20
244.0826035631113
 30
0.0
 10
116.2497517613021
 20
244.0826035631113
 30
0.0
 10
116.2497517613021
 20
243.3946179947069
 30
0.0
 10
116.2497517613021
 20
243.3946179947069
 30
0.0
 10
116.2497517613021
 20
243.3946179947069
 30
0.0
 10
115.9271185691085
 20
243.3946179947069
 30
0.0
 10
115.9271185691085
 20
243.3946179947069
 30
0.0
  0
HATCH
  5
93
330
8A
100
AcDbEntity
  8
Livello 1
 62
    18
420
        0
440
 33554687
100
AcDbHatch
 10
0.0
 20
0.0
 30
0.0
210
0.0
220
0.0
230
1.0
  2
SOLID
 70
     1
 71
     1
 91
        2
 92
        1
 93
        1
 72
     4
 94
        3
 73
     0
 74
     0
 95
       26
 96
       22
 40
0.0
 40
0.0
 40
0.0
 40
0.0
 40
1.0
 40
1.0
 40
1.0
 40
2.0
 40
2.0
 40
2.0
 40
3.0
 40
3.0
 40
3.0
 40
4.0
 40
4.0
 40
4.0
 40
5.0
 40
5.0
 40
5.0
 40
6.0
 40
6.0
 40
6.0
 40
7.0
 40
7.0
 40
7.0
 40
7.0
 10
115.9271185691085
 20
244.3506319918637
 10
115.9271185691085
 20
244.3506319918637
 10
115.9271185691085
 20
245.1939913666529
 10
115.9271185691085
 20
245.1939913666529
 10
115.9271185691085
 20
245.3262830332865
 10
115.9310804289165
 20
245.4582301903716
 10
115.9388318937583
 20
245.5905218570052
 10
115.9388318937583
 20
245.5905218570052
 10
115.9271185691085
 20
245.5905218570052
 10
115.9271185691085
 20
245.5905218570052
 10
115.8494316659161
 20
245.442727260688
 10
115.7872476924073
 20
245.3338622433541
 10
115.7173122540568
 20
245.2174180159526
 10
115.7173122540568
 20
245.2174180159526
 10
115.0992621240029
 20
244.3585557114798
 10
115.0992621240029
 20
244.3585557114798
 10
115.0992621240029
 20
244.3585557114798
 10
115.0992621240029
 20
244.3506319918637
 10
115.0992621240029
 20
244.3506319918637
 10
115.0992621240029
 20
244.3506319918637
 10
115.9271185691085
 20
244.3506319918637
 10
115.9271185691085
 20
244.3506319918637
 97
        0
 97
        1
330
91
 92
        1
 93
        1
 72
     4
 94
        3
 73
     0
 74
     0
 95
       38
 96
       34
 40
0.0
 40
0.0
 40
0.0
 40
0.0
 40
1.0
 40
1.0
 40
1.0
 40
2.0
 40
2.0
 40
2.0
 40
3.0
 40
3.0
 40
3.0
 40
4.0
 40
4.0
 40
4.0
 40
5.0
 40
5.0
 40
5.0
 40
6.0
 40
6.0
 40
6.0
 40
7.0
 40
7.0
 40
7.0
 40
8.0
 40
8.0
 40
8.0
 40
9.0
 40
9.0
 40
9.0
 40
10.0
 40
10.0
 40
10.0
 40
11.0
 40
11.0
 40
11.0
 40
11.0
 10
115.9271185691085
 20
243.3946179947069
 10
115.9271185691085
 20
243.3946179947069
 10
115.9271185691085
 20
244.0826035631113
 10
115.9271185691085
 20
244.0826035631113
 10
115.9271185691085
 20
244.0826035631113
 10
114.7533745372839
 20
244.0826035631113
 10
114.7533745372839
 20
244.0826035631113
 10
114.7533745372839
 20
244.0826035631113
 10
114.7533745372839
 20
244.3079128078466
 10
114.7533745372839
 20
244.3079128078466
 10
114.7533745372839
 20
244.3079128078466
 10
115.8806097800576
 20
245.9209065140406
 10
115.8806097800576
 20
245.9209065140406
 10
115.8806097800576
 20
245.9209065140406
 10
116.2497517613021
 20
245.9209065140406
 10
116.2497517613021
 20
245.9209065140406
 10
116.2497517613021
 20
245.9209065140406
 10
116.2497517613021
 20
244.3506319918637
 10
116.2497517613021
 20
244.3506319918637
 10
116.2497517613021
 20
244.3506319918637
 10
116.603390812863
 20
244.3506319918637
 10
116.603390812863
 20
244.3506319918637
 10
116.603390812863
 20
244.3506319918637
 10
116.603390812863
 20
244.0826035631113
 10
116.603390812863
 20
244.0826035631113
 10
116.603390812863
 20
244.0826035631113
 10
116.2497517613021
 20
244.0826035631113
 10
116.2497517613021
 20
244.0826035631113
 10
116.2497517613021
 20
244.0826035631113
 10
116.2497517613021
 20
243.3946179947069
 10
116.2497517613021
 20
243.3946179947069
 10
116.2497517613021
 20
243.3946179947069
 10
115.9271185691085
 20
243.3946179947069
 10
115.9271185691085
 20
243.3946179947069
 97
        0
 97
        1
330
92
 75
     2
 76
     1
 98
        1
 10
0.0
 20
0.0
450
        0
451
        0
460
0.0
461
0.0
452
        0
462
0.0
453
        0
470

  0
SPLINE
  5
94
330
8A
100
AcDbEntity
  8
Livello 1
100
AcDbSpline
210
0.0
220
0.0
230
1.0
 70
     9
 71
     3
 72
    17
 73
    13
 74
     0
 42
0.0000000001
 43
0.0000000001
 40
0.0
 40
0.0
 40
0.0
 40
0.0
 40
1.0
 40
1.0
 40
1.0
 40
2.0
 40
2.0
 40
2.0
 40
3.0
 40
3.0
 40
3.0
 40
4.0
 40
4.0
 40
4.0
 40
4.0
 10
116.8865776617506
 20
243.5968450996911
 30
0.0
 10
116.8865776617506
 20
243.740505581426
 30
0.0
 10
116.9837293544346
 20
243.8414468791438
 30
0.0
 10
117.119810626102
 20
243.8414468791438
 30
0.0
 10
117.2558918977693
 20
243.8414468791438
 30
0.0
 10
117.3490817306453
 20
243.740505581426
 30
0.0
 10
117.3490817306453
 20
243.5968450996911
 30
0.0
 10
117.3490817306453
 20
243.4566297134414
 30
0.0
 10
117.2596815028031
 20
243.3518988106898
 30
0.0
 10
117.1158487662939
 20
243.3518988106898
 30
0.0
 10
116.9799397494008
 20
243.3518988106898
 30
0.0
 10
116.8865776617506
 20
243.4566297134414
 30
0.0
 10
116.8865776617506
 20
243.5968450996911
 30
0.0
  0
HATCH
  5
95
330
8A
100
AcDbEntity
  8
Livello 1
 62
    18
420
        0
440
 33554687
100
AcDbHatch
 10
0.0
 20
0.0
 30
0.0
210
0.0
220
0.0
230
1.0
  2
SOLID
 70
     1
 71
     1
 91
        1
 92
        1
 93
        1
 72
     4
 94
        3
 73
     0
 74
     0
 95
       17
 96
       13
 40
0.0
 40
0.0
 40
0.0
 40
0.0
 40
1.0
 40
1.0
 40
1.0
 40
2.0
 40
2.0
 40
2.0
 40
3.0
 40
3.0
 40
3.0
 40
4.0
 40
4.0
 40
4.0
 40
4.0
 10
116.8865776617506
 20
243.5968450996911
 10
116.8865776617506
 20
243.740505581426
 10
116.9837293544346
 20
243.8414468791438
 10
117.119810626102
 20
243.8414468791438
 10
117.2558918977693
 20
243.8414468791438
 10
117.3490817306453
 20
243.740505581426
 10
117.3490817306453
 20
243.5968450996911
 10
117.3490817306453
 20
243.4566297134414
 10
117.2596815028031
 20
243.3518988106898
 10
117.1158487662939
 20
243.3518988106898
 10
116.9799397494008
 20
243.3518988106898
 10
116.8865776617506
 20
243.4566297134414
 10
116.8865776617506
 20
243.5968450996911
 97
        0
 97
        1
330
94
 75
     2
 76
     1
 98
        1
 10
0.0
 20
0.0
450
        0
451
        0
460
0.0
461
0.0
452
        0
462
0.0
453
        0
470

  0
SPLINE
  5
96
330
8A
100
AcDbEntity
  8
Livello 1
100
AcDbSpline
210
0.0
220
0.0
230
1.0
 70
     9
 71
     3
 72
    17
 73
    13
 74
     0
 42
0.0000000001
 43
0.0000000001
 40
0.0
 40
0.0
 40
0.0
 40
0.0
 40
1.0
 40
1.0
 40
1.0
 40
2.0
 40
2.0
 40
2.0
 40
3.0
 40
3.0
 40
3.0
 40
4.0
 40
4.0
 40
4.0
 40
4.0
 10
118.0484361141511
 20
245.3145697086366
 30
0.0
 10
118.0484361141511
 20
245.0620442095678
 30
0.0
 10
118.2387776397111
 20
244.9259629379004
 30
0.0
 10
118.5302327177633
 20
244.8481037799338
 30
0.0
 10
118.747962752431
 20
244.9221733328667
 30
0.0
 10
118.9150498834657
 20
245.0775471392514
 30
0.0
 10
118.9150498834657
 20
245.3066459890206
 30
0.0
 10
118.9150498834657
 20
245.5088730940047
 30
0.0
 10
118.7946437962562
 20
245.7186794090564
 30
0.0
 10
118.4875135337462
 20
245.7186794090564
 30
0.0
 10
118.2038099205358
 20
245.7186794090564
 30
0.0
 10
118.0484361141511
 20
245.5322997433044
 30
0.0
 10
118.0484361141511
 20
245.3145697086366
 30
0.0
  0
SPLINE
  5
97
330
8A
100
AcDbEntity
  8
Livello 1
100
AcDbSpline
210
0.0
220
0.0
230
1.0
 70
     9
 71
     3
 72
    17
 73
    13
 74
     0
 42
0.0000000001
 43
0.0000000001
 40
0.0
 40
0.0
 40
0.0
 40
0.0
 40
1.0
 40
1.0
 40
1.0
 40
2.0
 40
2.0
 40
2.0
 40
3.0
 40
3.0
 40
3.0
 40
4.0
 40
4.0
 40
4.0
 40
4.0
 10
118.9889471816243
 20
244.0515977037441
 30
0.0
 10
118.9889471816243
 20
244.3585557114798
 30
0.0
 10
118.7751790067645
 20
244.5060057982485
 30
0.0
 10
118.4330810250792
 20
244.6031574909325
 30
0.0
 10
118.1378363419933
 20
244.5177191228984
 30
0.0
 10
117.9783284210262
 20
244.3234157375303
 30
0.0
 10
117.9783284210262
 20
244.0826035631113
 30
0.0
 10
117.9667873511506
 20
243.8259439494602
 30
0.0
 10
118.1610907365187
 20
243.6006347047249
 30
0.0
 10
118.4837239287124
 20
243.6006347047249
 30
0.0
 10
118.7906819364481
 20
243.6006347047249
 30
0.0
 10
118.9889471816243
 20
243.7911484850592
 30
0.0
 10
118.9889471816243
 20
244.0515977037441
 30
0.0
  0
SPLINE
  5
98
330
8A
100
AcDbEntity
  8
Livello 1
100
AcDbSpline
210
0.0
220
0.0
230
1.0
 70
     9
 71
     3
 72
    35
 73
    31
 74
     0
 42
0.0000000001
 43
0.0000000001
 40
0.0
 40
0.0
 40
0.0
 40
0.0
 40
1.0
 40
1.0
 40
1.0
 40
2.0
 40
2.0
 40
2.0
 40
3.0
 40
3.0
 40
3.0
 40
4.0
 40
4.0
 40
4.0
 40
5.0
 40
5.0
 40
5.0
 40
6.0
 40
6.0
 40
6.0
 40
7.0
 40
7.0
 40
7.0
 40
8.0
 40
8.0
 40
8.0
 40
9.0
 40
9.0
 40
9.0
 40
10.0
 40
10.0
 40
10.0
 40
10.0
 10
117.6286512292734
 20
244.0357502645119
 30
0.0
 10
117.6286512292734
 20
244.3544215968975
 30
0.0
 10
117.8189927548334
 20
244.5800753511814
 30
0.0
 10
118.1299126223772
 20
244.7120225082664
 30
0.0
 10
118.1299126223772
 20
244.7120225082664
 30
0.0
 10
118.1261230173435
 20
244.7237358329163
 30
0.0
 10
118.1261230173435
 20
244.7237358329163
 30
0.0
 10
117.8462090091669
 20
244.8560274995499
 30
0.0
 10
117.7258029219574
 20
245.0737575342177
 30
0.0
 10
117.7258029219574
 20
245.291143059337
 30
0.0
 10
117.7258029219574
 20
245.691463154723
 30
0.0
 10
118.0639390438347
 20
245.9636256980577
 30
0.0
 10
118.5069783232378
 20
245.9636256980577
 30
0.0
 10
118.9966986464661
 20
245.9636256980577
 30
0.0
 10
119.2414726806931
 20
245.656667690322
 30
0.0
 10
119.2414726806931
 20
245.3417859629701
 30
0.0
 10
119.2414726806931
 20
245.1278455333361
 30
0.0
 10
119.1365695231672
 20
244.898746683567
 30
0.0
 10
118.8256496556234
 20
244.7509520872498
 30
0.0
 10
118.8256496556234
 20
244.7509520872498
 30
0.0
 10
118.8256496556234
 20
244.7392387625999
 30
0.0
 10
118.8256496556234
 20
244.7392387625999
 30
0.0
 10
119.1405313829753
 20
244.6148708155824
 30
0.0
 10
119.3348347683434
 20
244.3933511758809
 30
0.0
 10
119.3348347683434
 20
244.0863931681451
 30
0.0
 10
119.3348347683434
 20
243.6471434937757
 30
0.0
 10
118.9577690674828
 20
243.3518988106898
 30
0.0
 10
118.4758002090963
 20
243.3518988106898
 30
0.0
 10
117.947322561659
 20
243.3518988106898
 30
0.0
 10
117.6286512292734
 20
243.6667805380416
 30
0.0
 10
117.6286512292734
 20
244.0357502645119
 30
0.0
  0
HATCH
  5
99
330
8A
100
AcDbEntity
  8
Livello 1
 62
    18
420
        0
440
 33554687
100
AcDbHatch
 10
0.0
 20
0.0
 30
0.0
210
0.0
220
0.0
230
1.0
  2
SOLID
 70
     1
 71
     1
 91
        3
 92
        1
 93
        1
 72
     4
 94
        3
 73
     0
 74
     0
 95
       17
 96
       13
 40
0.0
 40
0.0
 40
0.0
 40
0.0
 40
1.0
 40
1.0
 40
1.0
 40
2.0
 40
2.0
 40
2.0
 40
3.0
 40
3.0
 40
3.0
 40
4.0
 40
4.0
 40
4.0
 40
4.0
 10
118.0484361141511
 20
245.3145697086366
 10
118.0484361141511
 20
245.0620442095678
 10
118.2387776397111
 20
244.9259629379004
 10
118.5302327177633
 20
244.8481037799338
 10
118.747962752431
 20
244.9221733328667
 10
118.9150498834657
 20
245.0775471392514
 10
118.9150498834657
 20
245.3066459890206
 10
118.9150498834657
 20
245.5088730940047
 10
118.7946437962562
 20
245.7186794090564
 10
118.4875135337462
 20
245.7186794090564
 10
118.2038099205358
 20
245.7186794090564
 10
118.0484361141511
 20
245.5322997433044
 10
118.0484361141511
 20
245.3145697086366
 97
        0
 97
        1
330
96
 92
        1
 93
        1
 72
     4
 94
        3
 73
     0
 74
     0
 95
       17
 96
       13
 40
0.0
 40
0.0
 40
0.0
 40
0.0
 40
1.0
 40
1.0
 40
1.0
 40
2.0
 40
2.0
 40
2.0
 40
3.0
 40
3.0
 40
3.0
 40
4.0
 40
4.0
 40
4.0
 40
4.0
 10
118.9889471816243
 20
244.0515977037441
 10
118.9889471816243
 20
244.3585557114798
 10
118.7751790067645
 20
244.5060057982485
 10
118.4330810250792
 20
244.6031574909325
 10
118.1378363419933
 20
244.5177191228984
 10
117.9783284210262
 20
244.3234157375303
 10
117.9783284210262
 20
244.0826035631113
 10
117.9667873511506
 20
243.8259439494602
 10
118.1610907365187
 20
243.6006347047249
 10
118.4837239287124
 20
243.6006347047249
 10
118.7906819364481
 20
243.6006347047249
 10
118.9889471816243
 20
243.7911484850592
 10
118.9889471816243
 20
244.0515977037441
 97
        0
 97
        1
330
97
 92
        1
 93
        1
 72
     4
 94
        3
 73
     0
 74
     0
 95
       35
 96
       31
 40
0.0
 40
0.0
 40
0.0
 40
0.0
 40
1.0
 40
1.0
 40
1.0
 40
2.0
 40
2.0
 40
2.0
 40
3.0
 40
3.0
 40
3.0
 40
4.0
 40
4.0
 40
4.0
 40
5.0
 40
5.0
 40
5.0
 40
6.0
 40
6.0
 40
6.0
 40
7.0
 40
7.0
 40
7.0
 40
8.0
 40
8.0
 40
8.0
 40
9.0
 40
9.0
 40
9.0
 40
10.0
 40
10.0
 40
10.0
 40
10.0
 10
117.6286512292734
 20
244.0357502645119
 10
117.6286512292734
 20
244.3544215968975
 10
117.8189927548334
 20
244.5800753511814
 10
118.1299126223772
 20
244.7120225082664
 10
118.1299126223772
 20
244.7120225082664
 10
118.1261230173435
 20
244.7237358329163
 10
118.1261230173435
 20
244.7237358329163
 10
117.8462090091669
 20
244.8560274995499
 10
117.7258029219574
 20
245.0737575342177
 10
117.7258029219574
 20
245.291143059337
 10
117.7258029219574
 20
245.691463154723
 10
118.0639390438347
 20
245.9636256980577
 10
118.5069783232378
 20
245.9636256980577
 10
118.9966986464661
 20
245.9636256980577
 10
119.2414726806931
 20
245.656667690322
 10
119.2414726806931
 20
245.3417859629701
 10
119.2414726806931
 20
245.1278455333361
 10
119.1365695231672
 20
244.898746683567
 10
118.8256496556234
 20
244.7509520872498
 10
118.8256496556234
 20
244.7509520872498
 10
118.8256496556234
 20
244.7392387625999
 10
118.8256496556234
 20
244.7392387625999
 10
119.1405313829753
 20
244.6148708155824
 10
119.3348347683434
 20
244.3933511758809
 10
119.3348347683434
 20
244.0863931681451
 10
119.3348347683434
 20
243.6471434937757
 10
118.9577690674828
 20
243.3518988106898
 10
118.4758002090963
 20
243.3518988106898
 10
117.947322561659
 20
243.3518988106898
 10
117.6286512292734
 20
243.6667805380416
 10
117.6286512292734
 20
244.0357502645119
 97
        0
 97
        1
330
98
 75
     2
 76
     1
 98
        1
 10
0.0
 20
0.0
450
        0
451
        0
460
0.0
461
0.0
452
        0
462
0.0
453
        0
470

  0
ENDBLK
  5
8D
330
8A
100
AcDbEntity
  8
0
100
AcDbBlockEnd
  0
BLOCK
  5
A5
330
A3
100
AcDbEntity
  8
0
100
AcDbBlockBegin
  2
Block_3
 70
     0
 10
0.0
 20
0.0
 30
0.0
  3
Block_3
  1

  0
INSERT
  5
A8
330
A3
100
AcDbEntity
  8
Livello 1
100
AcDbBlockReference
  2
Block_4
 10
0.0
 20
0.0
 30
0.0
  0
ENDBLK
  5
A6
330
A3
100
AcDbEntity
  8
0
100
AcDbBlockEnd
  0
BLOCK
  5
A9
330
A7
100
AcDbEntity
  8
0
100
AcDbBlockBegin
  2
Block_4
 70
     0
 10
0.0
 20
0.0
 30
0.0
  3
Block_4
  1

  0
SPLINE
  5
AB
330
A7
100
AcDbEntity
  8
Livello 1
100
AcDbSpline
210
0.0
220
0.0
230
1.0
 70
    11
 71
     3
 72
    29
 73
    25
 74
     0
 42
0.0000000001
 43
0.0000000001
 40
0.0
 40
0.0
 40
0.0
 40
0.0
 40
1.0
 40
1.0
 40
1.0
 40
2.0
 40
2.0
 40
2.0
 40
3.0
 40
3.0
 40
3.0
 40
4.0
 40
4.0
 40
4.0
 40
5.0
 40
5.0
 40
5.0
 40
6.0
 40
6.0
 40
6.0
 40
7.0
 40
7.0
 40
7.0
 40
8.0
 40
8.0
 40
8.0
 40
8.0
 10
250.6213947941155
 20
180.5211086245746
 30
0.0
 10
250.6213947941155
 20
180.5211086245746
 30
0.0
 10
250.6213947941155
 20
180.5133571597328
 30
0.0
 10
250.6213947941155
 20
180.5133571597328
 30
0.0
 10
250.6213947941155
 20
180.5133571597328
 30
0.0
 10
250.8587618730492
 20
180.0742797401376
 30
0.0
 10
250.8587618730492
 20
180.0742797401376
 30
0.0
 10
250.8587618730492
 20
180.0742797401376
 30
0.0
 10
250.5990016734614
 20
180.0079616520466
 30
0.0
 10
250.5990016734614
 20
180.0079616520466
 30
0.0
 10
250.5990016734614
 20
180.0079616520466
 30
0.0
 10
250.3027234617299
 20
180.5596936940094
 30
0.0
 10
250.3027234617299
 20
180.5596936940094
 30
0.0
 10
250.3027234617299
 20
180.5596936940094
 30
0.0
 10
250.3023789521813
 20
180.8513210268358
 30
0.0
 10
250.3023789521813
 20
180.8513210268358
 30
0.0
 10
250.3023789521813
 20
180.8513210268358
 30
0.0
 10
252.8286674715151
 20
180.8535603389012
 30
0.0
 10
252.8286674715151
 20
180.8535603389012
 30
0.0
 10
252.8286674715151
 20
180.8535603389012
 30
0.0
 10
252.8290119810636
 20
180.5231756818657
 30
0.0
 10
252.8290119810636
 20
180.5231756818657
 30
0.0
 10
252.8290119810636
 20
180.5231756818657
 30
0.0
 10
250.6213947941155
 20
180.5211086245746
 30
0.0
 10
250.6213947941155
 20
180.5211086245746
 30
0.0
  0
HATCH
  5
AC
330
A7
100
AcDbEntity
  8
Livello 1
 62
    18
420
        0
440
 33554687
100
AcDbHatch
 10
0.0
 20
0.0
 30
0.0
210
0.0
220
0.0
230
1.0
  2
SOLID
 70
     1
 71
     1
 91
        1
 92
        1
 93
        1
 72
     4
 94
        3
 73
     0
 74
     0
 95
       29
 96
       25
 40
0.0
 40
0.0
 40
0.0
 40
0.0
 40
1.0
 40
1.0
 40
1.0
 40
2.0
 40
2.0
 40
2.0
 40
3.0
 40
3.0
 40
3.0
 40
4.0
 40
4.0
 40
4.0
 40
5.0
 40
5.0
 40
5.0
 40
6.0
 40
6.0
 40
6.0
 40
7.0
 40
7.0
 40
7.0
 40
8.0
 40
8.0
 40
8.0
 40
8.0
 10
250.6213947941155
 20
180.5211086245746
 10
250.6213947941155
 20
180.5211086245746
 10
250.6213947941155
 20
180.5133571597328
 10
250.6213947941155
 20
180.5133571597328
 10
250.6213947941155
 20
180.5133571597328
 10
250.8587618730492
 20
180.0742797401376
 10
250.8587618730492
 20
180.0742797401376
 10
250.8587618730492
 20
180.0742797401376
 10
250.5990016734614
 20
180.0079616520466
 10
250.5990016734614
 20
180.0079616520466
 10
250.5990016734614
 20
180.0079616520466
 10
250.3027234617299
 20
180.5596936940094
 10
250.3027234617299
 20
180.5596936940094
 10
250.3027234617299
 20
180.5596936940094
 10
250.3023789521813
 20
180.8513210268358
 10
250.3023789521813
 20
180.8513210268358
 10
250.3023789521813
 20
180.8513210268358
 10
252.8286674715151
 20
180.8535603389012
 10
252.8286674715151
 20
180.8535603389012
 10
252.8286674715151
 20
180.8535603389012
 10
252.8290119810636
 20
180.5231756818657
 10
252.8290119810636
 20
180.5231756818657
 10
252.8290119810636
 20
180.5231756818657
 10
250.6213947941155
 20
180.5211086245746
 10
250.6213947941155
 20
180.5211086245746
 97
        0
 97
        1
330
AB
 75
     2
 76
     1
 98
        1
 10
0.0
 20
0.0
450
        0
451
        0
460
0.0
461
0.0
452
        0
462
0.0
453
        0
470

  0
SPLINE
  5
AD
330
A7
100
AcDbEntity
  8
Livello 1
100
AcDbSpline
210
0.0
220
0.0
230
1.0
 70
    11
 71
     3
 72
    29
 73
    25
 74
     0
 42
0.0000000001
 43
0.0000000001
 40
0.0
 40
0.0
 40
0.0
 40
0.0
 40
1.0
 40
1.0
 40
1.0
 40
2.0
 40
2.0
 40
2.0
 40
3.0
 40
3.0
 40
3.0
 40
4.0
 40
4.0
 40
4.0
 40
5.0
 40
5.0
 40
5.0
 40
6.0
 40
6.0
 40
6.0
 40
7.0
 40
7.0
 40
7.0
 40
8.0
 40
8.0
 40
8.0
 40
8.0
 10
250.6196722463728
 20
182.5103067577578
 30
0.0
 10
250.6196722463728
 20
182.5103067577578
 30
0.0
 10
250.6196722463728
 20
182.502555292916
 30
0.0
 10
250.6196722463728
 20
182.502555292916
 30
0.0
 10
250.6196722463728
 20
182.502555292916
 30
0.0
 10
250.8570393253066
 20
182.0634778733209
 30
0.0
 10
250.8570393253066
 20
182.0634778733209
 30
0.0
 10
250.8570393253066
 20
182.0634778733209
 30
0.0
 10
250.5969346161702
 20
181.9971597852299
 30
0.0
 10
250.5969346161702
 20
181.9971597852299
 30
0.0
 10
250.5969346161702
 20
181.9971597852299
 30
0.0
 10
250.3010009139873
 20
182.5488918271926
 30
0.0
 10
250.3010009139873
 20
182.5488918271926
 30
0.0
 10
250.3010009139873
 20
182.5488918271926
 30
0.0
 10
250.3006564044387
 20
182.840519160019
 30
0.0
 10
250.3006564044387
 20
182.840519160019
 30
0.0
 10
250.3006564044387
 20
182.840519160019
 30
0.0
 10
252.8269449237724
 20
182.8427584720844
 30
0.0
 10
252.8269449237724
 20
182.8427584720844
 30
0.0
 10
252.8269449237724
 20
182.8427584720844
 30
0.0
 10
252.827289433321
 20
182.512373815049
 30
0.0
 10
252.827289433321
 20
182.512373815049
 30
0.0
 10
252.827289433321
 20
182.512373815049
 30
0.0
 10
250.6196722463728
 20
182.5103067577578
 30
0.0
 10
250.6196722463728
 20
182.5103067577578
 30
0.0
  0
HATCH
  5
AE
330
A7
100
AcDbEntity
  8
Livello 1
 62
    18
420
        0
440
 33554687
100
AcDbHatch
 10
0.0
 20
0.0
 30
0.0
210
0.0
220
0.0
230
1.0
  2
SOLID
 70
     1
 71
     1
 91
        1
 92
        1
 93
        1
 72
     4
 94
        3
 73
     0
 74
     0
 95
       29
 96
       25
 40
0.0
 40
0.0
 40
0.0
 40
0.0
 40
1.0
 40
1.0
 40
1.0
 40
2.0
 40
2.0
 40
2.0
 40
3.0
 40
3.0
 40
3.0
 40
4.0
 40
4.0
 40
4.0
 40
5.0
 40
5.0
 40
5.0
 40
6.0
 40
6.0
 40
6.0
 40
7.0
 40
7.0
 40
7.0
 40
8.0
 40
8.0
 40
8.0
 40
8.0
 10
250.6196722463728
 20
182.5103067577578
 10
250.6196722463728
 20
182.5103067577578
 10
250.6196722463728
 20
182.502555292916
 10
250.6196722463728
 20
182.502555292916
 10
250.6196722463728
 20
182.502555292916
 10
250.8570393253066
 20
182.0634778733209
 10
250.8570393253066
 20
182.0634778733209
 10
250.8570393253066
 20
182.0634778733209
 10
250.5969346161702
 20
181.9971597852299
 10
250.5969346161702
 20
181.9971597852299
 10
250.5969346161702
 20
181.9971597852299
 10
250.3010009139873
 20
182.5488918271926
 10
250.3010009139873
 20
182.5488918271926
 10
250.3010009139873
 20
182.5488918271926
 10
250.3006564044387
 20
182.840519160019
 10
250.3006564044387
 20
182.840519160019
 10
250.3006564044387
 20
182.840519160019
 10
252.8269449237724
 20
182.8427584720844
 10
252.8269449237724
 20
182.8427584720844
 10
252.8269449237724
 20
182.8427584720844
 10
252.827289433321
 20
182.512373815049
 10
252.827289433321
 20
182.512373815049
 10
252.827289433321
 20
182.512373815049
 10
250.6196722463728
 20
182.5103067577578
 10
250.6196722463728
 20
182.5103067577578
 97
        0
 97
        1
330
AD
 75
     2
 76
     1
 98
        1
 10
0.0
 20
0.0
450
        0
451
        0
460
0.0
461
0.0
452
        0
462
0.0
453
        0
470

  0
SPLINE
  5
AF
330
A7
100
AcDbEntity
  8
Livello 1
100
AcDbSpline
210
0.0
220
0.0
230
1.0
 70
    11
 71
     3
 72
    47
 73
    43
 74
     0
 42
0.0000000001
 43
0.0000000001
 40
0.0
 40
0.0
 40
0.0
 40
0.0
 40
1.0
 40
1.0
 40
1.0
 40
2.0
 40
2.0
 40
2.0
 40
3.0
 40
3.0
 40
3.0
 40
4.0
 40
4.0
 40
4.0
 40
5.0
 40
5.0
 40
5.0
 40
6.0
 40
6.0
 40
6.0
 40
7.0
 40
7.0
 40
7.0
 40
8.0
 40
8.0
 40
8.0
 40
9.0
 40
9.0
 40
9.0
 40
10.0
 40
10.0
 40
10.0
 40
11.0
 40
11.0
 40
11.0
 40
12.0
 40
12.0
 40
12.0
 40
13.0
 40
13.0
 40
13.0
 40
14.0
 40
14.0
 40
14.0
 40
14.0
 10
252.8262559046754
 20
183.7593261259352
 30
0.0
 10
252.8262559046754
 20
183.7593261259352
 30
0.0
 10
252.6164495896237
 20
183.7591538711609
 30
0.0
 10
252.6164495896237
 20
183.7591538711609
 30
0.0
 10
252.6164495896237
 20
183.7591538711609
 30
0.0
 10
252.3556558613903
 20
184.0270100451391
 30
0.0
 10
252.3556558613903
 20
184.0270100451391
 30
0.0
 10
251.7410508268217
 20
184.6715874104293
 30
0.0
 10
251.41445577482
 20
184.9628702337072
 30
0.0
 10
251.0334282141513
 20
184.9663153291924
 30
0.0
 10
250.7771131100488
 20
184.9661430744182
 30
0.0
 10
250.5400905406636
 20
184.8416028726264
 30
0.0
 10
250.5404350502121
 20
184.4647094265401
 30
0.0
 10
250.5407795597606
 20
184.2354383219967
 30
0.0
 10
250.6572237871621
 20
184.0449245416624
 30
0.0
 10
250.7543754798462
 20
183.9284803142609
 30
0.0
 10
250.7543754798462
 20
183.9284803142609
 30
0.0
 10
250.5139078149757
 20
183.8194430421528
 30
0.0
 10
250.5139078149757
 20
183.8194430421528
 30
0.0
 10
250.36576870911
 20
183.9942816380292
 30
0.0
 10
250.2565591822275
 20
184.24284527729
 30
0.0
 10
250.2565591822275
 20
184.5343003553421
 30
0.0
 10
250.2558701631305
 20
185.0784531872373
 30
0.0
 10
250.6289740041831
 20
185.3080688013292
 30
0.0
 10
250.9903645205858
 20
185.3084133108777
 30
0.0
 10
251.4568304492886
 20
185.3089300752005
 30
0.0
 10
251.8340684049234
 20
184.9711384628718
 30
0.0
 10
252.3473876322257
 20
184.4390434651749
 30
0.0
 10
252.3473876322257
 20
184.4390434651749
 30
0.0
 10
252.5344563170747
 20
184.2371608697393
 30
0.0
 10
252.5344563170747
 20
184.2371608697393
 30
0.0
 10
252.5344563170747
 20
184.2371608697393
 30
0.0
 10
252.5420355271423
 20
184.2371608697393
 30
0.0
 10
252.5420355271423
 20
184.2371608697393
 30
0.0
 10
252.5420355271423
 20
184.2371608697393
 30
0.0
 10
252.5410019984967
 20
185.3719753225806
 30
0.0
 10
252.5410019984967
 20
185.3719753225806
 30
0.0
 10
252.5410019984967
 20
185.3719753225806
 30
0.0
 10
252.8248778664813
 20
185.3723198321291
 30
0.0
 10
252.8248778664813
 20
185.3723198321291
 30
0.0
 10
252.8248778664813
 20
185.3723198321291
 30
0.0
 10
252.8262559046754
 20
183.7593261259352
 30
0.0
 10
252.8262559046754
 20
183.7593261259352
 30
0.0
  0
HATCH
  5
B0
330
A7
100
AcDbEntity
  8
Livello 1
 62
    18
420
        0
440
 33554687
100
AcDbHatch
 10
0.0
 20
0.0
 30
0.0
210
0.0
220
0.0
230
1.0
  2
SOLID
 70
     1
 71
     1
 91
        1
 92
        1
 93
        1
 72
     4
 94
        3
 73
     0
 74
     0
 95
       47
 96
       43
 40
0.0
 40
0.0
 40
0.0
 40
0.0
 40
1.0
 40
1.0
 40
1.0
 40
2.0
 40
2.0
 40
2.0
 40
3.0
 40
3.0
 40
3.0
 40
4.0
 40
4.0
 40
4.0
 40
5.0
 40
5.0
 40
5.0
 40
6.0
 40
6.0
 40
6.0
 40
7.0
 40
7.0
 40
7.0
 40
8.0
 40
8.0
 40
8.0
 40
9.0
 40
9.0
 40
9.0
 40
10.0
 40
10.0
 40
10.0
 40
11.0
 40
11.0
 40
11.0
 40
12.0
 40
12.0
 40
12.0
 40
13.0
 40
13.0
 40
13.0
 40
14.0
 40
14.0
 40
14.0
 40
14.0
 10
252.8262559046754
 20
183.7593261259352
 10
252.8262559046754
 20
183.7593261259352
 10
252.6164495896237
 20
183.7591538711609
 10
252.6164495896237
 20
183.7591538711609
 10
252.6164495896237
 20
183.7591538711609
 10
252.3556558613903
 20
184.0270100451391
 10
252.3556558613903
 20
184.0270100451391
 10
251.7410508268217
 20
184.6715874104293
 10
251.41445577482
 20
184.9628702337072
 10
251.0334282141513
 20
184.9663153291924
 10
250.7771131100488
 20
184.9661430744182
 10
250.5400905406636
 20
184.8416028726264
 10
250.5404350502121
 20
184.4647094265401
 10
250.5407795597606
 20
184.2354383219967
 10
250.6572237871621
 20
184.0449245416624
 10
250.7543754798462
 20
183.9284803142609
 10
250.7543754798462
 20
183.9284803142609
 10
250.5139078149757
 20
183.8194430421528
 10
250.5139078149757
 20
183.8194430421528
 10
250.36576870911
 20
183.9942816380292
 10
250.2565591822275
 20
184.24284527729
 10
250.2565591822275
 20
184.5343003553421
 10
250.2558701631305
 20
185.0784531872373
 10
250.6289740041831
 20
185.3080688013292
 10
250.9903645205858
 20
185.3084133108777
 10
251.4568304492886
 20
185.3089300752005
 10
251.8340684049234
 20
184.9711384628718
 10
252.3473876322257
 20
184.4390434651749
 10
252.3473876322257
 20
184.4390434651749
 10
252.5344563170747
 20
184.2371608697393
 10
252.5344563170747
 20
184.2371608697393
 10
252.5344563170747
 20
184.2371608697393
 10
252.5420355271423
 20
184.2371608697393
 10
252.5420355271423
 20
184.2371608697393
 10
252.5420355271423
 20
184.2371608697393
 10
252.5410019984967
 20
185.3719753225806
 10
252.5410019984967
 20
185.3719753225806
 10
252.5410019984967
 20
185.3719753225806
 10
252.8248778664813
 20
185.3723198321291
 10
252.8248778664813
 20
185.3723198321291
 10
252.8248778664813
 20
185.3723198321291
 10
252.8262559046754
 20
183.7593261259352
 10
252.8262559046754
 20
183.7593261259352
 97
        0
 97
        1
330
AF
 75
     2
 76
     1
 98
        1
 10
0.0
 20
0.0
450
        0
451
        0
460
0.0
461
0.0
452
        0
462
0.0
453
        0
470

  0
SPLINE
  5
B1
330
A7
100
AcDbEntity
  8
Livello 1
100
AcDbSpline
210
0.0
220
0.0
230
1.0
 70
     9
 71
     3
 72
    17
 73
    13
 74
     0
 42
0.0000000001
 43
0.0000000001
 40
0.0
 40
0.0
 40
0.0
 40
0.0
 40
1.0
 40
1.0
 40
1.0
 40
2.0
 40
2.0
 40
2.0
 40
3.0
 40
3.0
 40
3.0
 40
4.0
 40
4.0
 40
4.0
 40
4.0
 10
252.6219617424001
 20
185.7755682586776
 30
0.0
 10
252.4783012606651
 20
185.7753960039033
 30
0.0
 10
252.3773599629473
 20
185.8723754418132
 30
0.0
 10
252.3773599629473
 20
186.0084567134805
 30
0.0
 10
252.3773599629473
 20
186.1445379851479
 30
0.0
 10
252.4779567511167
 20
186.2379000727981
 30
0.0
 10
252.6216172328516
 20
186.2380723275724
 30
0.0
 10
252.7618326191012
 20
186.2380723275724
 30
0.0
 10
252.8669080314013
 20
186.1488443545044
 30
0.0
 10
252.8669080314013
 20
186.0050116179952
 30
0.0
 10
252.8669080314013
 20
185.8691026011022
 30
0.0
 10
252.7621771286497
 20
185.7755682586776
 30
0.0
 10
252.6219617424001
 20
185.7755682586776
 30
0.0
  0
HATCH
  5
B2
330
A7
100
AcDbEntity
  8
Livello 1
 62
    18
420
        0
440
 33554687
100
AcDbHatch
 10
0.0
 20
0.0
 30
0.0
210
0.0
220
0.0
230
1.0
  2
SOLID
 70
     1
 71
     1
 91
        1
 92
        1
 93
        1
 72
     4
 94
        3
 73
     0
 74
     0
 95
       17
 96
       13
 40
0.0
 40
0.0
 40
0.0
 40
0.0
 40
1.0
 40
1.0
 40
1.0
 40
2.0
 40
2.0
 40
2.0
 40
3.0
 40
3.0
 40
3.0
 40
4.0
 40
4.0
 40
4.0
 40
4.0
 10
252.6219617424001
 20
185.7755682586776
 10
252.4783012606651
 20
185.7753960039033
 10
252.3773599629473
 20
185.8723754418132
 10
252.3773599629473
 20
186.0084567134805
 10
252.3773599629473
 20
186.1445379851479
 10
252.4779567511167
 20
186.2379000727981
 10
252.6216172328516
 20
186.2380723275724
 10
252.7618326191012
 20
186.2380723275724
 10
252.8669080314013
 20
186.1488443545044
 10
252.8669080314013
 20
186.0050116179952
 10
252.8669080314013
 20
185.8691026011022
 10
252.7621771286497
 20
185.7755682586776
 10
252.6219617424001
 20
185.7755682586776
 97
        0
 97
        1
330
B1
 75
     2
 76
     1
 98
        1
 10
0.0
 20
0.0
450
        0
451
        0
460
0.0
461
0.0
452
        0
462
0.0
453
        0
470

  0
SPLINE
  5
B3
330
A7
100
AcDbEntity
  8
Livello 1
100
AcDbSpline
210
0.0
220
0.0
230
1.0
 70
     9
 71
     3
 72
    20
 73
    16
 74
     0
 42
0.0000000001
 43
0.0000000001
 40
0.0
 40
0.0
 40
0.0
 40
0.0
 40
1.0
 40
1.0
 40
1.0
 40
2.0
 40
2.0
 40
2.0
 40
3.0
 40
3.0
 40
3.0
 40
4.0
 40
4.0
 40
4.0
 40
5.0
 40
5.0
 40
5.0
 40
5.0
 10
251.9946098545361
 20
187.8929239439122
 30
0.0
 10
251.6332193381334
 20
187.8927516891379
 30
0.0
 10
251.4154893034656
 20
187.6863904695714
 30
0.0
 10
251.4158338130141
 20
187.3716809969939
 30
0.0
 10
251.4161783225627
 20
187.1656642869759
 30
0.0
 10
251.5443358746139
 20
186.9753227614159
 30
0.0
 10
251.7276149544292
 20
186.8823051833141
 30
0.0
 10
251.7665445334126
 20
186.8588785340144
 30
0.0
 10
251.8168429274972
 20
186.8435478591051
 30
0.0
 10
251.8791991557802
 20
186.8435478591051
 30
0.0
 10
252.2950221808498
 20
186.8516438334954
 30
0.0
 10
252.6016356790371
 20
187.0425021233783
 30
0.0
 10
252.6012911694886
 20
187.3999307799729
 30
0.0
 10
252.6009466599401
 20
187.6953477178331
 30
0.0
 10
252.3560003709388
 20
187.8932684534607
 30
0.0
 10
251.9946098545361
 20
187.8929239439122
 30
0.0
  0
SPLINE
  5
B4
330
A7
100
AcDbEntity
  8
Livello 1
100
AcDbSpline
210
0.0
220
0.0
230
1.0
 70
     9
 71
     3
 72
    38
 73
    34
 74
     0
 42
0.0000000001
 43
0.0000000001
 40
0.0
 40
0.0
 40
0.0
 40
0.0
 40
1.0
 40
1.0
 40
1.0
 40
2.0
 40
2.0
 40
2.0
 40
3.0
 40
3.0
 40
3.0
 40
4.0
 40
4.0
 40
4.0
 40
5.0
 40
5.0
 40
5.0
 40
6.0
 40
6.0
 40
6.0
 40
7.0
 40
7.0
 40
7.0
 40
8.0
 40
8.0
 40
8.0
 40
9.0
 40
9.0
 40
9.0
 40
10.0
 40
10.0
 40
10.0
 40
11.0
 40
11.0
 40
11.0
 40
11.0
 10
250.5373344642754
 20
187.9888698531764
 30
0.0
 10
250.5332003496931
 20
187.9189344148258
 30
0.0
 10
250.5373344642754
 20
187.8295341869836
 30
0.0
 10
250.552837393959
 20
187.7323824942995
 30
0.0
 10
250.642754386124
 20
187.1959811272461
 30
0.0
 10
251.035839780991
 20
186.9126220235843
 30
0.0
 10
251.4516628060607
 20
186.8549166742064
 30
0.0
 10
251.4516628060607
 20
186.8549166742064
 30
0.0
 10
251.4516628060607
 20
186.866457744082
 30
0.0
 10
251.4516628060607
 20
186.866457744082
 30
0.0
 10
251.2918103755451
 20
186.9868638312915
 30
0.0
 10
251.15986321846
 20
187.1964978915689
 30
0.0
 10
251.1595187089115
 20
187.4764118997455
 30
0.0
 10
251.159174199363
 20
187.9232407841824
 30
0.0
 10
251.4812906272338
 20
188.2384670210827
 30
0.0
 10
251.9749728102702
 20
188.2388115306312
 30
0.0
 10
252.4373046243907
 20
188.2393282949541
 30
0.0
 10
252.8651854836587
 20
187.9247910771507
 30
0.0
 10
252.8655299932073
 20
187.4001030347472
 30
0.0
 10
252.8662190123043
 20
186.85991206266
 30
0.0
 10
252.4469508917494
 20
186.5059285015506
 30
0.0
 10
251.7899711827122
 20
186.5052394824535
 30
0.0
 10
251.2924993946421
 20
186.504894972905
 30
0.0
 10
250.8997585093237
 20
186.683350919041
 30
0.0
 10
250.6506781057401
 20
186.9317423035275
 30
0.0
 10
250.4446613957222
 20
187.1413763638049
 30
0.0
 10
250.3161593341224
 20
187.4212903719815
 30
0.0
 10
250.2768852455905
 20
187.7397894495928
 30
0.0
 10
250.2613823159069
 20
187.8409030020849
 30
0.0
 10
250.2572482013246
 20
187.9263413701191
 30
0.0
 10
250.2572482013246
 20
187.9885253436279
 30
0.0
 10
250.2572482013246
 20
187.9885253436279
 30
0.0
 10
250.5373344642754
 20
187.9888698531764
 30
0.0
 10
250.5373344642754
 20
187.9888698531764
 30
0.0
  0
HATCH
  5
B5
330
A7
100
AcDbEntity
  8
Livello 1
 62
    18
420
        0
440
 33554687
100
AcDbHatch
 10
0.0
 20
0.0
 30
0.0
210
0.0
220
0.0
230
1.0
  2
SOLID
 70
     1
 71
     1
 91
        2
 92
        1
 93
        1
 72
     4
 94
        3
 73
     0
 74
     0
 95
       20
 96
       16
 40
0.0
 40
0.0
 40
0.0
 40
0.0
 40
1.0
 40
1.0
 40
1.0
 40
2.0
 40
2.0
 40
2.0
 40
3.0
 40
3.0
 40
3.0
 40
4.0
 40
4.0
 40
4.0
 40
5.0
 40
5.0
 40
5.0
 40
5.0
 10
251.9946098545361
 20
187.8929239439122
 10
251.6332193381334
 20
187.8927516891379
 10
251.4154893034656
 20
187.6863904695714
 10
251.4158338130141
 20
187.3716809969939
 10
251.4161783225627
 20
187.1656642869759
 10
251.5443358746139
 20
186.9753227614159
 10
251.7276149544292
 20
186.8823051833141
 10
251.7665445334126
 20
186.8588785340144
 10
251.8168429274972
 20
186.8435478591051
 10
251.8791991557802
 20
186.8435478591051
 10
252.2950221808498
 20
186.8516438334954
 10
252.6016356790371
 20
187.0425021233783
 10
252.6012911694886
 20
187.3999307799729
 10
252.6009466599401
 20
187.6953477178331
 10
252.3560003709388
 20
187.8932684534607
 10
251.9946098545361
 20
187.8929239439122
 97
        0
 97
        1
330
B3
 92
        1
 93
        1
 72
     4
 94
        3
 73
     0
 74
     0
 95
       38
 96
       34
 40
0.0
 40
0.0
 40
0.0
 40
0.0
 40
1.0
 40
1.0
 40
1.0
 40
2.0
 40
2.0
 40
2.0
 40
3.0
 40
3.0
 40
3.0
 40
4.0
 40
4.0
 40
4.0
 40
5.0
 40
5.0
 40
5.0
 40
6.0
 40
6.0
 40
6.0
 40
7.0
 40
7.0
 40
7.0
 40
8.0
 40
8.0
 40
8.0
 40
9.0
 40
9.0
 40
9.0
 40
10.0
 40
10.0
 40
10.0
 40
11.0
 40
11.0
 40
11.0
 40
11.0
 10
250.5373344642754
 20
187.9888698531764
 10
250.5332003496931
 20
187.9189344148258
 10
250.5373344642754
 20
187.8295341869836
 10
250.552837393959
 20
187.7323824942995
 10
250.642754386124
 20
187.1959811272461
 10
251.035839780991
 20
186.9126220235843
 10
251.4516628060607
 20
186.8549166742064
 10
251.4516628060607
 20
186.8549166742064
 10
251.4516628060607
 20
186.866457744082
 10
251.4516628060607
 20
186.866457744082
 10
251.2918103755451
 20
186.9868638312915
 10
251.15986321846
 20
187.1964978915689
 10
251.1595187089115
 20
187.4764118997455
 10
251.159174199363
 20
187.9232407841824
 10
251.4812906272338
 20
188.2384670210827
 10
251.9749728102702
 20
188.2388115306312
 10
252.4373046243907
 20
188.2393282949541
 10
252.8651854836587
 20
187.9247910771507
 10
252.8655299932073
 20
187.4001030347472
 10
252.8662190123043
 20
186.85991206266
 10
252.4469508917494
 20
186.5059285015506
 10
251.7899711827122
 20
186.5052394824535
 10
251.2924993946421
 20
186.504894972905
 10
250.8997585093237
 20
186.683350919041
 10
250.6506781057401
 20
186.9317423035275
 10
250.4446613957222
 20
187.1413763638049
 10
250.3161593341224
 20
187.4212903719815
 10
250.2768852455905
 20
187.7397894495928
 10
250.2613823159069
 20
187.8409030020849
 10
250.2572482013246
 20
187.9263413701191
 10
250.2572482013246
 20
187.9885253436279
 10
250.2572482013246
 20
187.9885253436279
 10
250.5373344642754
 20
187.9888698531764
 10
250.5373344642754
 20
187.9888698531764
 97
        0
 97
        1
330
B4
 75
     2
 76
     1
 98
        1
 10
0.0
 20
0.0
450
        0
451
        0
460
0.0
461
0.0
452
        0
462
0.0
453
        0
470

  0
ENDBLK
  5
AA
330
A7
100
AcDbEntity
  8
0
100
AcDbBlockEnd
  0
BLOCK
  5
C1
330
BF
100
AcDbEntity
  8
0
100
AcDbBlockBegin
  2
Block_5
 70
     0
 10
0.0
 20
0.0
 30
0.0
  3
Block_5
  1

  0
INSERT
  5
C4
330
BF
100
AcDbEntity
  8
Livello 1
100
AcDbBlockReference
  2
Block_6
 10
0.0
 20
0.0
 30
0.0
  0
ENDBLK
  5
C2
330
BF
100
AcDbEntity
  8
0
100
AcDbBlockEnd
  0
BLOCK
  5
C5
330
C3
100
AcDbEntity
  8
0
100
AcDbBlockBegin
  2
Block_6
 70
     0
 10
0.0
 20
0.0
 30
0.0
  3
Block_6
  1

  0
SPLINE
  5
C7
330
C3
100
AcDbEntity
  8
Livello 1
100
AcDbSpline
210
0.0
220
0.0
230
1.0
 70
    11
 71
     3
 72
    50
 73
    46
 74
     0
 42
0.0000000001
 43
0.0000000001
 40
0.0
 40
0.0
 40
0.0
 40
0.0
 40
1.0
 40
1.0
 40
1.0
 40
2.0
 40
2.0
 40
2.0
 40
3.0
 40
3.0
 40
3.0
 40
4.0
 40
4.0
 40
4.0
 40
5.0
 40
5.0
 40
5.0
 40
6.0
 40
6.0
 40
6.0
 40
7.0
 40
7.0
 40
7.0
 40
8.0
 40
8.0
 40
8.0
 40
9.0
 40
9.0
 40
9.0
 40
10.0
 40
10.0
 40
10.0
 40
11.0
 40
11.0
 40
11.0
 40
12.0
 40
12.0
 40
12.0
 40
13.0
 40
13.0
 40
13.0
 40
14.0
 40
14.0
 40
14.0
 40
15.0
 40
15.0
 40
15.0
 40
15.0
 10
152.8345987573642
 20
77.47571883913803
 30
0.0
 10
152.8345987573642
 20
77.47571883913803
 30
0.0
 10
152.8356322860098
 20
76.51178112236511
 30
0.0
 10
152.8356322860098
 20
76.51178112236511
 30
0.0
 10
152.8356322860098
 20
76.51178112236511
 30
0.0
 10
153.4846882754309
 20
76.4149739392296
 30
0.0
 10
153.4846882754309
 20
76.4149739392296
 30
0.0
 10
153.4767645558148
 20
76.47354056247884
 30
0.0
 10
153.4691853457473
 20
76.52797307114579
 30
0.0
 10
153.4688408361988
 20
76.62099064924753
 30
0.0
 10
153.4688408361988
 20
76.81529403461562
 30
0.0
 10
153.5112155106673
 20
77.00994192953224
 30
0.0
 10
153.6045775983176
 20
77.16531573591701
 30
0.0
 10
153.7172322206853
 20
77.36375323586739
 30
0.0
 10
153.9346177458045
 20
77.52705076186824
 30
0.0
 10
154.2532890781901
 20
77.52773978096529
 30
0.0
 10
154.7466267516779
 20
77.52773978096529
 30
0.0
 10
155.1162854972452
 20
77.13568791474386
 30
0.0
 10
155.1169745163423
 20
76.58791773258913
 30
0.0
 10
155.1169745163423
 20
76.3116210746721
 30
0.0
 10
155.0394598679242
 20
76.07873261986921
 30
0.0
 10
154.961945219506
 20
75.95815427788547
 30
0.0
 10
154.961945219506
 20
75.95815427788547
 30
0.0
 10
154.7014960008211
 20
76.04324813637113
 30
0.0
 10
154.7014960008211
 20
76.04324813637113
 30
0.0
 10
154.7638522291042
 20
76.14832354867125
 30
0.0
 10
154.8410223679738
 20
76.35434025868919
 30
0.0
 10
154.8410223679738
 20
76.58378361800683
 30
0.0
 10
154.8406778584253
 20
76.90624455542622
 30
0.0
 10
154.630527033825
 20
77.1818521942462
 30
0.0
 10
154.2922186571735
 20
77.1818521942462
 30
0.0
 10
153.9659681147203
 20
77.17737357011538
 30
0.0
 10
153.7330796599174
 20
76.95964353544759
 30
0.0
 10
153.7334241694659
 20
76.45424802776144
 30
0.0
 10
153.7334241694659
 20
76.31058754602652
 30
0.0
 10
153.7492716086981
 20
76.19793292365885
 30
0.0
 10
153.7609849333479
 20
76.10457083600858
 30
0.0
 10
153.7609849333479
 20
76.10457083600858
 30
0.0
 10
152.5479668129915
 20
76.26683483336385
 30
0.0
 10
152.5479668129915
 20
76.26683483336385
 30
0.0
 10
152.5479668129915
 20
76.26683483336385
 30
0.0
 10
152.5469332843459
 20
77.47537432958949
 30
0.0
 10
152.5469332843459
 20
77.47537432958949
 30
0.0
 10
152.5469332843459
 20
77.47537432958949
 30
0.0
 10
152.8345987573642
 20
77.47571883913803
 30
0.0
 10
152.8345987573642
 20
77.47571883913803
 30
0.0
  0
HATCH
  5
C8
330
C3
100
AcDbEntity
  8
Livello 1
 62
    18
420
        0
440
 33554687
100
AcDbHatch
 10
0.0
 20
0.0
 30
0.0
210
0.0
220
0.0
230
1.0
  2
SOLID
 70
     1
 71
     1
 91
        1
 92
        1
 93
        1
 72
     4
 94
        3
 73
     0
 74
     0
 95
       50
 96
       46
 40
0.0
 40
0.0
 40
0.0
 40
0.0
 40
1.0
 40
1.0
 40
1.0
 40
2.0
 40
2.0
 40
2.0
 40
3.0
 40
3.0
 40
3.0
 40
4.0
 40
4.0
 40
4.0
 40
5.0
 40
5.0
 40
5.0
 40
6.0
 40
6.0
 40
6.0
 40
7.0
 40
7.0
 40
7.0
 40
8.0
 40
8.0
 40
8.0
 40
9.0
 40
9.0
 40
9.0
 40
10.0
 40
10.0
 40
10.0
 40
11.0
 40
11.0
 40
11.0
 40
12.0
 40
12.0
 40
12.0
 40
13.0
 40
13.0
 40
13.0
 40
14.0
 40
14.0
 40
14.0
 40
15.0
 40
15.0
 40
15.0
 40
15.0
 10
152.8345987573642
 20
77.47571883913803
 10
152.8345987573642
 20
77.47571883913803
 10
152.8356322860098
 20
76.51178112236511
 10
152.8356322860098
 20
76.51178112236511
 10
152.8356322860098
 20
76.51178112236511
 10
153.4846882754309
 20
76.4149739392296
 10
153.4846882754309
 20
76.4149739392296
 10
153.4767645558148
 20
76.47354056247884
 10
153.4691853457473
 20
76.52797307114579
 10
153.4688408361988
 20
76.62099064924753
 10
153.4688408361988
 20
76.81529403461562
 10
153.5112155106673
 20
77.00994192953224
 10
153.6045775983176
 20
77.16531573591701
 10
153.7172322206853
 20
77.36375323586739
 10
153.9346177458045
 20
77.52705076186824
 10
154.2532890781901
 20
77.52773978096529
 10
154.7466267516779
 20
77.52773978096529
 10
155.1162854972452
 20
77.13568791474386
 10
155.1169745163423
 20
76.58791773258913
 10
155.1169745163423
 20
76.3116210746721
 10
155.0394598679242
 20
76.07873261986921
 10
154.961945219506
 20
75.95815427788547
 10
154.961945219506
 20
75.95815427788547
 10
154.7014960008211
 20
76.04324813637113
 10
154.7014960008211
 20
76.04324813637113
 10
154.7638522291042
 20
76.14832354867125
 10
154.8410223679738
 20
76.35434025868919
 10
154.8410223679738
 20
76.58378361800683
 10
154.8406778584253
 20
76.90624455542622
 10
154.630527033825
 20
77.1818521942462
 10
154.2922186571735
 20
77.1818521942462
 10
153.9659681147203
 20
77.17737357011538
 10
153.7330796599174
 20
76.95964353544759
 10
153.7334241694659
 20
76.45424802776144
 10
153.7334241694659
 20
76.31058754602652
 10
153.7492716086981
 20
76.19793292365885
 10
153.7609849333479
 20
76.10457083600858
 10
153.7609849333479
 20
76.10457083600858
 10
152.5479668129915
 20
76.26683483336385
 10
152.5479668129915
 20
76.26683483336385
 10
152.5479668129915
 20
76.26683483336385
 10
152.5469332843459
 20
77.47537432958949
 10
152.5469332843459
 20
77.47537432958949
 10
152.5469332843459
 20
77.47537432958949
 10
152.8345987573642
 20
77.47571883913803
 10
152.8345987573642
 20
77.47571883913803
 97
        0
 97
        1
330
C7
 75
     2
 76
     1
 98
        1
 10
0.0
 20
0.0
450
        0
451
        0
460
0.0
461
0.0
452
        0
462
0.0
453
        0
470

  0
SPLINE
  5
C9
330
C3
100
AcDbEntity
  8
Livello 1
100
AcDbSpline
210
0.0
220
0.0
230
1.0
 70
     9
 71
     3
 72
    20
 73
    16
 74
     0
 42
0.0000000001
 43
0.0000000001
 40
0.0
 40
0.0
 40
0.0
 40
0.0
 40
1.0
 40
1.0
 40
1.0
 40
2.0
 40
2.0
 40
2.0
 40
3.0
 40
3.0
 40
3.0
 40
4.0
 40
4.0
 40
4.0
 40
5.0
 40
5.0
 40
5.0
 40
5.0
 10
153.3778903153882
 20
78.28014863494385
 30
0.0
 10
153.69277204274
 20
78.28014863494385
 30
0.0
 10
153.9142916824416
 20
78.47100692482669
 30
0.0
 10
153.913947172893
 20
78.7662516079126
 30
0.0
 10
153.9136026633445
 20
78.99569496723024
 30
0.0
 10
153.8009480409768
 20
79.17415091336619
 30
0.0
 10
153.6493638396258
 20
79.26337888643415
 30
0.0
 10
153.6180134707101
 20
79.28267142115156
 30
0.0
 10
153.5790838917267
 20
79.29438474580141
 30
0.0
 10
153.5246513830598
 20
79.29438474580141
 30
0.0
 10
153.0933254283065
 20
79.29404023625288
 30
0.0
 10
152.7632852808196
 20
79.13453231528581
 30
0.0
 10
152.7636297903681
 20
78.77693140391688
 30
0.0
 10
152.7639742999166
 20
78.48547632586475
 30
0.0
 10
153.0206339135677
 20
78.2794596158468
 30
0.0
 10
153.3778903153882
 20
78.28014863494385
 30
0.0
  0
SPLINE
  5
CA
330
C3
100
AcDbEntity
  8
Livello 1
100
AcDbSpline
210
0.0
220
0.0
230
1.0
 70
     9
 71
     3
 72
    41
 73
    37
 74
     0
 42
0.0000000001
 43
0.0000000001
 40
0.0
 40
0.0
 40
0.0
 40
0.0
 40
1.0
 40
1.0
 40
1.0
 40
2.0
 40
2.0
 40
2.0
 40
3.0
 40
3.0
 40
3.0
 40
4.0
 40
4.0
 40
4.0
 40
5.0
 40
5.0
 40
5.0
 40
6.0
 40
6.0
 40
6.0
 40
7.0
 40
7.0
 40
7.0
 40
8.0
 40
8.0
 40
8.0
 40
9.0
 40
9.0
 40
9.0
 40
10.0
 40
10.0
 40
10.0
 40
11.0
 40
11.0
 40
11.0
 40
12.0
 40
12.0
 40
12.0
 40
12.0
 10
154.8317206101636
 20
78.15681421657192
 30
0.0
 10
154.8392998202311
 20
78.23088376950479
 30
0.0
 10
154.8317206101636
 20
78.31632213753898
 30
0.0
 10
154.8200072855137
 20
78.43276636494042
 30
0.0
 10
154.7924465216317
 20
78.63085935534229
 30
0.0
 10
154.7107977586313
 20
78.81758353064284
 30
0.0
 10
154.5743719774154
 20
78.96089950282922
 30
0.0
 10
154.4227877760644
 20
79.12833114341236
 30
0.0
 10
154.2012681363629
 20
79.24822046629905
 30
0.0
 10
153.9015448291461
 20
79.29507376489846
 30
0.0
 10
153.9015448291461
 20
79.29507376489846
 30
0.0
 10
153.9015448291461
 20
79.28336044024861
 30
0.0
 10
153.9015448291461
 20
79.28336044024861
 30
0.0
 10
154.0731105843116
 20
79.14348956354746
 30
0.0
 10
154.1740518820294
 20
78.94160696811183
 30
0.0
 10
154.1743963915779
 20
78.68873695949449
 30
0.0
 10
154.1747409011264
 20
78.23398435544151
 30
0.0
 10
153.8329874289896
 20
77.94218476784084
 30
0.0
 10
153.4016614742364
 20
77.94184025829231
 30
0.0
 10
152.9234822208837
 20
77.94149574874379
 30
0.0
 10
152.5035250812317
 20
78.28703882591435
 30
0.0
 10
152.5031805716832
 20
78.80380314870183
 30
0.0
 10
152.5024915525861
 20
79.32056747148931
 30
0.0
 10
152.9221041826896
 20
79.63992782297196
 30
0.0
 10
153.5673705670769
 20
79.6402723325205
 30
0.0
 10
154.1230644688477
 20
79.64096135161753
 30
0.0
 10
154.5120157491324
 20
79.45492619541404
 30
0.0
 10
154.7531724330999
 20
79.20619030137901
 30
0.0
 10
154.9436862134342
 20
79.01188691601092
 30
0.0
 10
155.0604749503842
 20
78.74385848725848
 30
0.0
 10
155.0918253192999
 20
78.47204045347227
 30
0.0
 10
155.1114623635659
 20
78.34767250645476
 30
0.0
 10
155.1152519685996
 20
78.23880748912086
 30
0.0
 10
155.1114623635659
 20
78.15715872612044
 30
0.0
 10
155.1114623635659
 20
78.15715872612044
 30
0.0
 10
154.8317206101636
 20
78.15681421657192
 30
0.0
 10
154.8317206101636
 20
78.15681421657192
 30
0.0
  0
HATCH
  5
CB
330
C3
100
AcDbEntity
  8
Livello 1
 62
    18
420
        0
440
 33554687
100
AcDbHatch
 10
0.0
 20
0.0
 30
0.0
210
0.0
220
0.0
230
1.0
  2
SOLID
 70
     1
 71
     1
 91
        2
 92
        1
 93
        1
 72
     4
 94
        3
 73
     0
 74
     0
 95
       20
 96
       16
 40
0.0
 40
0.0
 40
0.0
 40
0.0
 40
1.0
 40
1.0
 40
1.0
 40
2.0
 40
2.0
 40
2.0
 40
3.0
 40
3.0
 40
3.0
 40
4.0
 40
4.0
 40
4.0
 40
5.0
 40
5.0
 40
5.0
 40
5.0
 10
153.3778903153882
 20
78.28014863494385
 10
153.69277204274
 20
78.28014863494385
 10
153.9142916824416
 20
78.47100692482669
 10
153.913947172893
 20
78.7662516079126
 10
153.9136026633445
 20
78.99569496723024
 10
153.8009480409768
 20
79.17415091336619
 10
153.6493638396258
 20
79.26337888643415
 10
153.6180134707101
 20
79.28267142115156
 10
153.5790838917267
 20
79.29438474580141
 10
153.5246513830598
 20
79.29438474580141
 10
153.0933254283065
 20
79.29404023625288
 10
152.7632852808196
 20
79.13453231528581
 10
152.7636297903681
 20
78.77693140391688
 10
152.7639742999166
 20
78.48547632586475
 10
153.0206339135677
 20
78.2794596158468
 10
153.3778903153882
 20
78.28014863494385
 97
        0
 97
        1
330
C9
 92
        1
 93
        1
 72
     4
 94
        3
 73
     0
 74
     0
 95
       41
 96
       37
 40
0.0
 40
0.0
 40
0.0
 40
0.0
 40
1.0
 40
1.0
 40
1.0
 40
2.0
 40
2.0
 40
2.0
 40
3.0
 40
3.0
 40
3.0
 40
4.0
 40
4.0
 40
4.0
 40
5.0
 40
5.0
 40
5.0
 40
6.0
 40
6.0
 40
6.0
 40
7.0
 40
7.0
 40
7.0
 40
8.0
 40
8.0
 40
8.0
 40
9.0
 40
9.0
 40
9.0
 40
10.0
 40
10.0
 40
10.0
 40
11.0
 40
11.0
 40
11.0
 40
12.0
 40
12.0
 40
12.0
 40
12.0
 10
154.8317206101636
 20
78.15681421657192
 10
154.8392998202311
 20
78.23088376950479
 10
154.8317206101636
 20
78.31632213753898
 10
154.8200072855137
 20
78.43276636494042
 10
154.7924465216317
 20
78.63085935534229
 10
154.7107977586313
 20
78.81758353064284
 10
154.5743719774154
 20
78.96089950282922
 10
154.4227877760644
 20
79.12833114341236
 10
154.2012681363629
 20
79.24822046629905
 10
153.9015448291461
 20
79.29507376489846
 10
153.9015448291461
 20
79.29507376489846
 10
153.9015448291461
 20
79.28336044024861
 10
153.9015448291461
 20
79.28336044024861
 10
154.0731105843116
 20
79.14348956354746
 10
154.1740518820294
 20
78.94160696811183
 10
154.1743963915779
 20
78.68873695949449
 10
154.1747409011264
 20
78.23398435544151
 10
153.8329874289896
 20
77.94218476784084
 10
153.4016614742364
 20
77.94184025829231
 10
152.9234822208837
 20
77.94149574874379
 10
152.5035250812317
 20
78.28703882591435
 10
152.5031805716832
 20
78.80380314870183
 10
152.5024915525861
 20
79.32056747148931
 10
152.9221041826896
 20
79.63992782297196
 10
153.5673705670769
 20
79.6402723325205
 10
154.1230644688477
 20
79.64096135161753
 10
154.5120157491324
 20
79.45492619541404
 10
154.7531724330999
 20
79.20619030137901
 10
154.9436862134342
 20
79.01188691601092
 10
155.0604749503842
 20
78.74385848725848
 10
155.0918253192999
 20
78.47204045347227
 10
155.1114623635659
 20
78.34767250645476
 10
155.1152519685996
 20
78.23880748912086
 10
155.1114623635659
 20
78.15715872612044
 10
155.1114623635659
 20
78.15715872612044
 10
154.8317206101636
 20
78.15681421657192
 10
154.8317206101636
 20
78.15681421657192
 97
        0
 97
        1
330
CA
 75
     2
 76
     1
 98
        1
 10
0.0
 20
0.0
450
        0
451
        0
460
0.0
461
0.0
452
        0
462
0.0
453
        0
470

  0
SPLINE
  5
CC
330
C3
100
AcDbEntity
  8
Livello 1
100
AcDbSpline
210
0.0
220
0.0
230
1.0
 70
     9
 71
     3
 72
    17
 73
    13
 74
     0
 42
0.0000000001
 43
0.0000000001
 40
0.0
 40
0.0
 40
0.0
 40
0.0
 40
1.0
 40
1.0
 40
1.0
 40
2.0
 40
2.0
 40
2.0
 40
3.0
 40
3.0
 40
3.0
 40
4.0
 40
4.0
 40
4.0
 40
4.0
 10
154.8689276414043
 20
79.97513561368677
 30
0.0
 10
154.7252671596694
 20
79.97513561368677
 30
0.0
 10
154.623981352403
 20
80.07228730637082
 30
0.0
 10
154.623981352403
 20
80.20802406848966
 30
0.0
 10
154.623981352403
 20
80.34444984970555
 30
0.0
 10
154.7245781405723
 20
80.43746742780731
 30
0.0
 10
154.8682386223072
 20
80.43781193735583
 30
0.0
 10
155.0084540085569
 20
80.43781193735583
 30
0.0
 10
155.113529420857
 20
80.34858396428786
 30
0.0
 10
155.113529420857
 20
80.20457897300442
 30
0.0
 10
155.113529420857
 20
80.06884221088558
 30
0.0
 10
155.009143027654
 20
79.97513561368677
 30
0.0
 10
154.8689276414043
 20
79.97513561368677
 30
0.0
  0
HATCH
  5
CD
330
C3
100
AcDbEntity
  8
Livello 1
 62
    18
420
        0
440
 33554687
100
AcDbHatch
 10
0.0
 20
0.0
 30
0.0
210
0.0
220
0.0
230
1.0
  2
SOLID
 70
     1
 71
     1
 91
        1
 92
        1
 93
        1
 72
     4
 94
        3
 73
     0
 74
     0
 95
       17
 96
       13
 40
0.0
 40
0.0
 40
0.0
 40
0.0
 40
1.0
 40
1.0
 40
1.0
 40
2.0
 40
2.0
 40
2.0
 40
3.0
 40
3.0
 40
3.0
 40
4.0
 40
4.0
 40
4.0
 40
4.0
 10
154.8689276414043
 20
79.97513561368677
 10
154.7252671596694
 20
79.97513561368677
 10
154.623981352403
 20
80.07228730637082
 10
154.623981352403
 20
80.20802406848966
 10
154.623981352403
 20
80.34444984970555
 10
154.7245781405723
 20
80.43746742780731
 10
154.8682386223072
 20
80.43781193735583
 10
155.0084540085569
 20
80.43781193735583
 10
155.113529420857
 20
80.34858396428786
 10
155.113529420857
 20
80.20457897300442
 10
155.113529420857
 20
80.06884221088558
 10
155.009143027654
 20
79.97513561368677
 10
154.8689276414043
 20
79.97513561368677
 97
        0
 97
        1
330
CC
 75
     2
 76
     1
 98
        1
 10
0.0
 20
0.0
450
        0
451
        0
460
0.0
461
0.0
452
        0
462
0.0
453
        0
470

  0
SPLINE
  5
CE
330
C3
100
AcDbEntity
  8
Livello 1
100
AcDbSpline
210
0.0
220
0.0
230
1.0
 70
     9
 71
     3
 72
    17
 73
    13
 74
     0
 42
0.0000000001
 43
0.0000000001
 40
0.0
 40
0.0
 40
0.0
 40
0.0
 40
1.0
 40
1.0
 40
1.0
 40
2.0
 40
2.0
 40
2.0
 40
3.0
 40
3.0
 40
3.0
 40
4.0
 40
4.0
 40
4.0
 40
4.0
 10
154.4121079800602
 20
82.07733287878623
 30
0.0
 10
154.1051499723244
 20
82.0769883692377
 30
0.0
 10
153.9580443951042
 20
81.86304793960369
 30
0.0
 10
153.8612372119687
 20
81.52060544836984
 30
0.0
 10
153.9466755800029
 20
81.22570527483246
 30
0.0
 10
154.1413234749195
 20
81.06654186341392
 30
0.0
 10
154.3821356493385
 20
81.06654186341392
 30
0.0
 10
154.6387952629896
 20
81.05551755786112
 30
0.0
 10
154.8637599981764
 20
81.24982094322922
 30
0.0
 10
154.8637599981764
 20
81.57228188064861
 30
0.0
 10
154.8634154886279
 20
81.87958439793289
 30
0.0
 10
154.672557198745
 20
82.07733287878623
 30
0.0
 10
154.4121079800602
 20
82.07733287878623
 30
0.0
  0
SPLINE
  5
CF
330
C3
100
AcDbEntity
  8
Livello 1
100
AcDbSpline
210
0.0
220
0.0
230
1.0
 70
     9
 71
     3
 72
    17
 73
    13
 74
     0
 42
0.0000000001
 43
0.0000000001
 40
0.0
 40
0.0
 40
0.0
 40
0.0
 40
1.0
 40
1.0
 40
1.0
 40
2.0
 40
2.0
 40
2.0
 40
3.0
 40
3.0
 40
3.0
 40
4.0
 40
4.0
 40
4.0
 40
4.0
 10
153.1501695038131
 20
81.13544377311892
 30
0.0
 10
153.402695002882
 20
81.13578828266744
 30
0.0
 10
153.5384317650008
 20
81.32630206300175
 30
0.0
 10
153.6159464134189
 20
81.6177571410539
 30
0.0
 10
153.5418768604861
 20
81.83548717572168
 30
0.0
 10
153.3861585445528
 20
82.00222979720777
 30
0.0
 10
153.1570596947837
 20
82.00222979720777
 30
0.0
 10
152.9548325897995
 20
82.00222979720777
 30
0.0
 10
152.7453707842963
 20
81.88165145522402
 30
0.0
 10
152.7457152938448
 20
81.57434893793974
 30
0.0
 10
152.7457152938448
 20
81.29047306995516
 30
0.0
 10
152.9324394691454
 20
81.13544377311892
 30
0.0
 10
153.1501695038131
 20
81.13544377311892
 30
0.0
  0
SPLINE
  5
D0
330
C3
100
AcDbEntity
  8
Livello 1
100
AcDbSpline
210
0.0
220
0.0
230
1.0
 70
     9
 71
     3
 72
    35
 73
    31
 74
     0
 42
0.0000000001
 43
0.0000000001
 40
0.0
 40
0.0
 40
0.0
 40
0.0
 40
1.0
 40
1.0
 40
1.0
 40
2.0
 40
2.0
 40
2.0
 40
3.0
 40
3.0
 40
3.0
 40
4.0
 40
4.0
 40
4.0
 40
5.0
 40
5.0
 40
5.0
 40
6.0
 40
6.0
 40
6.0
 40
7.0
 40
7.0
 40
7.0
 40
8.0
 40
8.0
 40
8.0
 40
9.0
 40
9.0
 40
9.0
 40
10.0
 40
10.0
 40
10.0
 40
10.0
 10
154.4293334574864
 20
80.71686467166108
 30
0.0
 10
154.1106621251008
 20
80.71652016211254
 30
0.0
 10
153.8846638612684
 20
80.90668943289832
 30
0.0
 10
153.7523721946348
 20
81.21743704566787
 30
0.0
 10
153.7523721946348
 20
81.21743704566787
 30
0.0
 10
153.740658869985
 20
81.21399195018261
 30
0.0
 10
153.740658869985
 20
81.21399195018261
 30
0.0
 10
153.6087117128999
 20
80.93356117768328
 30
0.0
 10
153.3909816782321
 20
80.81298283569953
 30
0.0
 10
153.1735961531128
 20
80.81298283569953
 30
0.0
 10
152.7732760577268
 20
80.81263832615102
 30
0.0
 10
152.5011135143921
 20
81.15060219325402
 30
0.0
 10
152.500424495295
 20
81.59364147265716
 30
0.0
 10
152.5000799857465
 20
82.08318954111115
 30
0.0
 10
152.8070379934822
 20
82.32813583011241
 30
0.0
 10
153.1219197208341
 20
82.32882484920947
 30
0.0
 10
153.3358601504681
 20
82.32882484920947
 30
0.0
 10
153.5649590002372
 20
82.22409394645787
 30
0.0
 10
153.713098106103
 20
81.91334633368834
 30
0.0
 10
153.713098106103
 20
81.91334633368834
 30
0.0
 10
153.7248114307528
 20
81.91334633368834
 30
0.0
 10
153.7248114307528
 20
81.91334633368834
 30
0.0
 10
153.8488348682218
 20
82.22822806104018
 30
0.0
 10
154.0700099983749
 20
82.42287595595678
 30
0.0
 10
154.3769680061106
 20
82.42322046550532
 30
0.0
 10
154.8162176804799
 20
82.42322046550532
 30
0.0
 10
155.1118068731144
 20
82.04667152896751
 30
0.0
 10
155.1124958922114
 20
81.56470267058105
 30
0.0
 10
155.11284040176
 20
81.03622502314372
 30
0.0
 10
154.7983031839567
 20
80.71720918120959
 30
0.0
 10
154.4293334574864
 20
80.71686467166108
 30
0.0
  0
HATCH
  5
D1
330
C3
100
AcDbEntity
  8
Livello 1
 62
    18
420
        0
440
 33554687
100
AcDbHatch
 10
0.0
 20
0.0
 30
0.0
210
0.0
220
0.0
230
1.0
  2
SOLID
 70
     1
 71
     1
 91
        3
 92
        1
 93
        1
 72
     4
 94
        3
 73
     0
 74
     0
 95
       17
 96
       13
 40
0.0
 40
0.0
 40
0.0
 40
0.0
 40
1.0
 40
1.0
 40
1.0
 40
2.0
 40
2.0
 40
2.0
 40
3.0
 40
3.0
 40
3.0
 40
4.0
 40
4.0
 40
4.0
 40
4.0
 10
154.4121079800602
 20
82.07733287878623
 10
154.1051499723244
 20
82.0769883692377
 10
153.9580443951042
 20
81.86304793960369
 10
153.8612372119687
 20
81.52060544836984
 10
153.9466755800029
 20
81.22570527483246
 10
154.1413234749195
 20
81.06654186341392
 10
154.3821356493385
 20
81.06654186341392
 10
154.6387952629896
 20
81.05551755786112
 10
154.8637599981764
 20
81.24982094322922
 10
154.8637599981764
 20
81.57228188064861
 10
154.8634154886279
 20
81.87958439793289
 10
154.672557198745
 20
82.07733287878623
 10
154.4121079800602
 20
82.07733287878623
 97
        0
 97
        1
330
CE
 92
        1
 93
        1
 72
     4
 94
        3
 73
     0
 74
     0
 95
       17
 96
       13
 40
0.0
 40
0.0
 40
0.0
 40
0.0
 40
1.0
 40
1.0
 40
1.0
 40
2.0
 40
2.0
 40
2.0
 40
3.0
 40
3.0
 40
3.0
 40
4.0
 40
4.0
 40
4.0
 40
4.0
 10
153.1501695038131
 20
81.13544377311892
 10
153.402695002882
 20
81.13578828266744
 10
153.5384317650008
 20
81.32630206300175
 10
153.6159464134189
 20
81.6177571410539
 10
153.5418768604861
 20
81.83548717572168
 10
153.3861585445528
 20
82.00222979720777
 10
153.1570596947837
 20
82.00222979720777
 10
152.9548325897995
 20
82.00222979720777
 10
152.7453707842963
 20
81.88165145522402
 10
152.7457152938448
 20
81.57434893793974
 10
152.7457152938448
 20
81.29047306995516
 10
152.9324394691454
 20
81.13544377311892
 10
153.1501695038131
 20
81.13544377311892
 97
        0
 97
        1
330
CF
 92
        1
 93
        1
 72
     4
 94
        3
 73
     0
 74
     0
 95
       35
 96
       31
 40
0.0
 40
0.0
 40
0.0
 40
0.0
 40
1.0
 40
1.0
 40
1.0
 40
2.0
 40
2.0
 40
2.0
 40
3.0
 40
3.0
 40
3.0
 40
4.0
 40
4.0
 40
4.0
 40
5.0
 40
5.0
 40
5.0
 40
6.0
 40
6.0
 40
6.0
 40
7.0
 40
7.0
 40
7.0
 40
8.0
 40
8.0
 40
8.0
 40
9.0
 40
9.0
 40
9.0
 40
10.0
 40
10.0
 40
10.0
 40
10.0
 10
154.4293334574864
 20
80.71686467166108
 10
154.1106621251008
 20
80.71652016211254
 10
153.8846638612684
 20
80.90668943289832
 10
153.7523721946348
 20
81.21743704566787
 10
153.7523721946348
 20
81.21743704566787
 10
153.740658869985
 20
81.21399195018261
 10
153.740658869985
 20
81.21399195018261
 10
153.6087117128999
 20
80.93356117768328
 10
153.3909816782321
 20
80.81298283569953
 10
153.1735961531128
 20
80.81298283569953
 10
152.7732760577268
 20
80.81263832615102
 10
152.5011135143921
 20
81.15060219325402
 10
152.500424495295
 20
81.59364147265716
 10
152.5000799857465
 20
82.08318954111115
 10
152.8070379934822
 20
82.32813583011241
 10
153.1219197208341
 20
82.32882484920947
 10
153.3358601504681
 20
82.32882484920947
 10
153.5649590002372
 20
82.22409394645787
 10
153.713098106103
 20
81.91334633368834
 10
153.713098106103
 20
81.91334633368834
 10
153.7248114307528
 20
81.91334633368834
 10
153.7248114307528
 20
81.91334633368834
 10
153.8488348682218
 20
82.22822806104018
 10
154.0700099983749
 20
82.42287595595678
 10
154.3769680061106
 20
82.42322046550532
 10
154.8162176804799
 20
82.42322046550532
 10
155.1118068731144
 20
82.04667152896751
 10
155.1124958922114
 20
81.56470267058105
 10
155.11284040176
 20
81.03622502314372
 10
154.7983031839567
 20
80.71720918120959
 10
154.4293334574864
 20
80.71686467166108
 97
        0
 97
        1
330
D0
 75
     2
 76
     1
 98
        1
 10
0.0
 20
0.0
450
        0
451
        0
460
0.0
461
0.0
452
        0
462
0.0
453
        0
470

  0
ENDBLK
  5
C6
330
C3
100
AcDbEntity
  8
0
100
AcDbBlockEnd
  0
ENDSEC
  0
SECTION
  2
ENTITIES
  0
INSERT
  5
7A
330
70
100
AcDbEntity
  8
Livello 1
100
AcDbBlockReference
  2
Block_0
 10
0.0
 20
0.0
 30
0.0
  0
ENDSEC
  0
SECTION
  2
OBJECTS
  0
DICTIONARY
  5
C
330
0
100
AcDbDictionary
281
     1
  3
ACAD_COLOR
350
63
  3
ACAD_DETAILVIEWSTYLE
350
6A
  3
ACAD_GROUP
350
D
  3
ACAD_LAYOUT
350
62
  3
ACAD_MATERIAL
350
10
  3
ACAD_MLEADERSTYLE
350
66
  3
ACAD_MLINESTYLE
350
5F
  3
ACAD_PLOTSETTINGS
350
61
  3
ACAD_PLOTSTYLENAME
350
E
  3
ACAD_SCALELIST
350
42
  3
ACAD_SECTIONVIEWSTYLE
350
68
  3
ACAD_TABLESTYLE
350
64
  3
ACAD_VISUALSTYLE
350
29
  3
ACDB_RECOMPOSE_DATA
350
32A
  3
AcDbVariableDictionary
350
322
  0
DICTIONARY
  5
63
102
{ACAD_REACTORS
330
C
102
}
330
C
100
AcDbDictionary
281
     1
  0
DICTIONARY
  5
6A
102
{ACAD_REACTORS
330
C
102
}
330
C
100
AcDbDictionary
281
     1
  3
Imperial24
350
6B
  0
DICTIONARY
  5
D
102
{ACAD_REACTORS
330
C
102
}
330
C
100
AcDbDictionary
281
     1
  0
DICTIONARY
  5
62
102
{ACAD_REACTORS
330
C
102
}
330
C
100
AcDbDictionary
281
     1
  3
Layout1
350
6F
  3
Layout2
350
77
  3
Model
350
73
  0
DICTIONARY
  5
10
102
{ACAD_REACTORS
330
C
102
}
330
C
100
AcDbDictionary
281
     1
  3
ByBlock
350
19
  3
ByLayer
350
11
  3
Global
350
21
  0
DICTIONARY
  5
66
102
{ACAD_REACTORS
330
C
102
}
330
C
100
AcDbDictionary
281
     1
  3
Standard
350
67
  0
DICTIONARY
  5
5F
102
{ACAD_REACTORS
330
C
102
}
330
C
100
AcDbDictionary
281
     1
  3
Standard
350
60
  0
DICTIONARY
  5
61
102
{ACAD_REACTORS
330
C
102
}
330
C
100
AcDbDictionary
281
     1
  0
ACDBDICTIONARYWDFLT
  5
E
102
{ACAD_REACTORS
330
C
102
}
330
C
100
AcDbDictionary
281
     1
  3
Normal
350
F
100
AcDbDictionaryWithDefault
340
F
  0
DICTIONARY
  5
42
102
{ACAD_REACTORS
330
C
102
}
330
C
100
AcDbDictionary
281
     1
  3
A0
350
43
  3
A1
350
44
  3
A2
350
45
  3
A3
350
46
  3
A4
350
47
  3
A5
350
48
  3
A6
350
49
  3
A7
350
4A
  3
A8
350
4B
  3
A9
350
4C
  3
B0
350
4D
  3
B1
350
4E
  3
B2
350
4F
  3
B3
350
50
  3
B4
350
51
  3
B5
350
52
  3
B6
350
53
  0
DICTIONARY
  5
68
102
{ACAD_REACTORS
330
C
102
}
330
C
100
AcDbDictionary
281
     1
  3
Imperial24
350
69
  0
DICTIONARY
  5
64
102
{ACAD_REACTORS
330
C
102
}
330
C
100
AcDbDictionary
281
     1
  3
Standard
350
65
  0
DICTIONARY
  5
29
102
{ACAD_REACTORS
330
C
102
}
330
C
100
AcDbDictionary
281
     1
  3
2dWireframe
350
2F
  3
Basic
350
2E
  3
Brighten
350
35
  3
ColorChange
350
39
  3
Conceptual
350
32
  3
Dim
350
34
  3
EdgeColorOff
350
41
  3
Facepattern
350
38
  3
Flat
350
2A
  3
FlatWithEdges
350
2B
  3
Gouraud
350
2C
  3
GouraudWithEdges
350
2D
  3
Hidden
350
31
  3
JitterOff
350
3F
  3
Linepattern
350
37
  3
OverhangOff
350
40
  3
Realistic
350
33
  3
Shaded
350
3E
  3
Shaded with edges
350
3D
  3
Shades of Gray
350
3A
  3
Sketchy
350
3B
  3
Thicken
350
36
  3
Wireframe
350
30
  3
X-Ray
350
3C
  0
XRECORD
  5
32A
102
{ACAD_REACTORS
330
C
102
}
330
C
100
AcDbXrecord
280
     1
 90
        1
330
65
  0
DICTIONARY
  5
322
102
{ACAD_REACTORS
330
C
102
}
330
C
100
AcDbDictionary
281
     1
  3
CANNOSCALE
350
327
  3
CMLEADERSTYLE
350
324
  3
CTABLESTYLE
350
323
  3
CVIEWDETAILSTYLE
350
325
  3
CVIEWSECTIONSTYLE
350
326
  0
ACDBDETAILVIEWSTYLE
  5
6B
102
{ACAD_REACTORS
330
6A
102
}
330
6A
100
AcDbModelDocViewStyle
 70
     0
  3
Imperial24
290
     1
300
Imperial24
 90
        0
100
AcDbDetailViewStyle
 70
     0
 71
     0
 90
        3
 71
     1
340
55
 62
   256
 40
0.24
340
0
 62
   256
 40
0.24
300

 40
0.36
280
     3
 71
     2
340
5D
 90
       25
 62
   256
 71
     3
340
55
 62
   256
 40
0.24
 90
        1
 40
0.75
 90
        1
300
%<\AcVar ViewType \f "%tc1">% %<\AcVar ViewDetailId>%\PSCALE %<\AcVar ViewScale \f "%sn">%
 71
     4
340
5D
 90
       25
 62
   256
340
5D
 90
       25
 62
   256
280
     0
  0
LAYOUT
  5
6F
102
{ACAD_REACTORS
330
62
102
}
330
62
100
AcDbPlotSettings
  1

  2

  4

  6

 40
0.0
 41
0.0
 42
0.0
 43
0.0
 44
0.0
 45
0.0
 46
0.0
 47
0.0
 48
0.0
 49
0.0
140
0.0
141
0.0
142
1.0
143
1.0
 70
   688
 72
     0
 73
     0
 74
     5
  7

 75
    16
147
1.0
 76
     0
 77
     2
 78
   300
148
0.0
149
0.0
100
AcDbLayout
  1
Layout1
 70
     1
 71
     1
 10
0.0
 20
0.0
 11
12.0
 21
9.0
 12
0.0
 22
0.0
 32
0.0
 14
0.0
 24
0.0
 34
0.0
 15
0.0
 25
0.0
 35
0.0
146
0.0
 13
0.0
 23
0.0
 33
0.0
 16
1.0
 26
0.0
 36
0.0
 17
0.0
 27
1.0
 37
0.0
 76
     0
330
6C
  0
LAYOUT
  5
77
102
{ACAD_REACTORS
330
62
102
}
330
62
100
AcDbPlotSettings
  1

  2

  4

  6

 40
0.0
 41
0.0
 42
0.0
 43
0.0
 44
0.0
 45
0.0
 46
0.0
 47
0.0
 48
0.0
 49
0.0
140
0.0
141
0.0
142
1.0
143
1.0
 70
   688
 72
     0
 73
     0
 74
     5
  7

 75
    16
147
1.0
 76
     0
 77
     2
 78
   300
148
0.0
149
0.0
100
AcDbLayout
  1
Layout2
 70
     1
 71
     2
 10
0.0
 20
0.0
 11
12.0
 21
9.0
 12
0.0
 22
0.0
 32
0.0
 14
0.0
 24
0.0
 34
0.0
 15
0.0
 25
0.0
 35
0.0
146
0.0
 13
0.0
 23
0.0
 33
0.0
 16
1.0
 26
0.0
 36
0.0
 17
0.0
 27
1.0
 37
0.0
 76
     0
330
74
  0
LAYOUT
  5
73
102
{ACAD_REACTORS
330
62
102
}
330
62
100
AcDbPlotSettings
  1

  2

  4

  6

 40
0.0
 41
0.0
 42
0.0
 43
0.0
 44
0.0
 45
0.0
 46
0.0
 47
0.0
 48
0.0
 49
0.0
140
0.0
141
0.0
142
1.0
143
1.0
 70
  1712
 72
     0
 73
     0
 74
     0
  7

 75
     0
147
1.0
 76
     0
 77
     2
 78
   300
148
0.0
149
0.0
100
AcDbLayout
  1
Model
 70
     1
 71
     0
 10
0.0
 20
0.0
 11
12.0
 21
9.0
 12
0.0
 22
0.0
 32
0.0
 14
0.0
 24
0.0
 34
0.0
 15
0.0
 25
0.0
 35
0.0
146
0.0
 13
0.0
 23
0.0
 33
0.0
 16
1.0
 26
0.0
 36
0.0
 17
0.0
 27
1.0
 37
0.0
 76
     0
330
70
  0
MATERIAL
  5
19
102
{ACAD_XDICTIONARY
360
1A
102
}
102
{ACAD_REACTORS
330
10
102
}
330
10
100
AcDbMaterial
  1
ByBlock
 72
     0
 43
0.0208333333333333
 43
0.0
 43
0.0
 43
0.0
 43
0.0
 43
0.0208333333333333
 43
0.0
 43
0.0
 43
0.0
 43
0.0
 43
1.0
 43
0.0
 43
0.0
 43
0.0
 43
0.0
 43
1.0
 77
     0
 47
0.0208333333333333
 47
0.0
 47
0.0
 47
0.0
 47
0.0
 47
0.0208333333333333
 47
0.0
 47
0.0
 47
0.0
 47
0.0
 47
1.0
 47
0.0
 47
0.0
 47
0.0
 47
0.0
 47
1.0
171
     0
 49
0.0208333333333333
 49
0.0
 49
0.0
 49
0.0
 49
0.0
 49
0.0208333333333333
 49
0.0
 49
0.0
 49
0.0
 49
0.0
 49
1.0
 49
0.0
 49
0.0
 49
0.0
 49
0.0
 49
1.0
175
     0
142
0.0208333333333333
142
0.0
142
0.0
142
0.0
142
0.0
142
0.0208333333333333
142
0.0
142
0.0
142
0.0
142
0.0
142
1.0
142
0.0
142
0.0
142
0.0
142
0.0
142
1.0
179
     0
144
0.0208333333333333
144
0.0
144
0.0
144
0.0
144
0.0
144
0.0208333333333333
144
0.0
144
0.0
144
0.0
144
0.0
144
1.0
144
0.0
144
0.0
144
0.0
144
0.0
144
1.0
147
0.0208333333333333
147
0.0
147
0.0
147
0.0
147
0.0
147
0.0208333333333333
147
0.0
147
0.0
147
0.0
147
0.0
147
1.0
147
0.0
147
0.0
147
0.0
147
0.0
147
1.0
  0
MATERIAL
  5
11
102
{ACAD_XDICTIONARY
360
12
102
}
102
{ACAD_REACTORS
330
10
102
}
330
10
100
AcDbMaterial
  1
ByLayer
 72
     0
 43
0.0208333333333333
 43
0.0
 43
0.0
 43
0.0
 43
0.0
 43
0.0208333333333333
 43
0.0
 43
0.0
 43
0.0
 43
0.0
 43
1.0
 43
0.0
 43
0.0
 43
0.0
 43
0.0
 43
1.0
 77
     0
 47
0.0208333333333333
 47
0.0
 47
0.0
 47
0.0
 47
0.0
 47
0.0208333333333333
 47
0.0
 47
0.0
 47
0.0
 47
0.0
 47
1.0
 47
0.0
 47
0.0
 47
0.0
 47
0.0
 47
1.0
171
     0
 49
0.0208333333333333
 49
0.0
 49
0.0
 49
0.0
 49
0.0
 49
0.0208333333333333
 49
0.0
 49
0.0
 49
0.0
 49
0.0
 49
1.0
 49
0.0
 49
0.0
 49
0.0
 49
0.0
 49
1.0
175
     0
142
0.0208333333333333
142
0.0
142
0.0
142
0.0
142
0.0
142
0.0208333333333333
142
0.0
142
0.0
142
0.0
142
0.0
142
1.0
142
0.0
142
0.0
142
0.0
142
0.0
142
1.0
179
     0
144
0.0208333333333333
144
0.0
144
0.0
144
0.0
144
0.0
144
0.0208333333333333
144
0.0
144
0.0
144
0.0
144
0.0
144
1.0
144
0.0
144
0.0
144
0.0
144
0.0
144
1.0
147
0.0208333333333333
147
0.0
147
0.0
147
0.0
147
0.0
147
0.0208333333333333
147
0.0
147
0.0
147
0.0
147
0.0
147
1.0
147
0.0
147
0.0
147
0.0
147
0.0
147
1.0
  0
MATERIAL
  5
21
102
{ACAD_XDICTIONARY
360
22
102
}
102
{ACAD_REACTORS
330
10
102
}
330
10
100
AcDbMaterial
  1
Global
 72
     0
 43
0.0208333333333333
 43
0.0
 43
0.0
 43
0.0
 43
0.0
 43
0.0208333333333333
 43
0.0
 43
0.0
 43
0.0
 43
0.0
 43
1.0
 43
0.0
 43
0.0
 43
0.0
 43
0.0
 43
1.0
 77
     0
 47
0.0208333333333333
 47
0.0
 47
0.0
 47
0.0
 47
0.0
 47
0.0208333333333333
 47
0.0
 47
0.0
 47
0.0
 47
0.0
 47
1.0
 47
0.0
 47
0.0
 47
0.0
 47
0.0
 47
1.0
171
     0
 49
0.0208333333333333
 49
0.0
 49
0.0
 49
0.0
 49
0.0
 49
0.0208333333333333
 49
0.0
 49
0.0
 49
0.0
 49
0.0
 49
1.0
 49
0.0
 49
0.0
 49
0.0
 49
0.0
 49
1.0
175
     0
142
0.0208333333333333
142
0.0
142
0.0
142
0.0
142
0.0
142
0.0208333333333333
142
0.0
142
0.0
142
0.0
142
0.0
142
1.0
142
0.0
142
0.0
142
0.0
142
0.0
142
1.0
179
     0
144
0.0208333333333333
144
0.0
144
0.0
144
0.0
144
0.0
144
0.0208333333333333
144
0.0
144
0.0
144
0.0
144
0.0
144
1.0
144
0.0
144
0.0
144
0.0
144
0.0
144
1.0
147
0.0208333333333333
147
0.0
147
0.0
147
0.0
147
0.0
147
0.0208333333333333
147
0.0
147
0.0
147
0.0
147
0.0
147
1.0
147
0.0
147
0.0
147
0.0
147
0.0
147
1.0
  0
MLEADERSTYLE
  5
67
102
{ACAD_REACTORS
330
66
102
}
330
66
100
AcDbMLeaderStyle
179
     2
170
     2
171
     1
172
     0
 90
        2
 40
0.0
 41
0.0
173
     1
 91
-1056964608
340
5B
 92
       -2
290
     1
 42
0.09
291
     1
 43
0.36
  3
Standard
 44
0.18
300

342
55
174
     1
178
     6
175
     1
176
     0
 93
-1056964608
 45
0.18
292
     0
297
     0
 46
0.18
 94
-1056964608
 47
1.0
 49
1.0
140
1.0
293
     1
141
0.0
294
     1
177
     0
142
1.0
295
     1
296
     0
143
0.125
271
     0
272
     9
273
     9
298
     1
  0
MLINESTYLE
  5
60
102
{ACAD_REACTORS
330
5F
102
}
330
5F
100
AcDbMlineStyle
  2
STANDARD
 70
     0
  3

 62
   256
 51
90.0
 52
90.0
 71
     2
 49
0.5
 62
   256
  6
BYLAYER
 49
-0.5
 62
   256
  6
BYLAYER
  0
ACDBPLACEHOLDER
  5
F
102
{ACAD_REACTORS
330
E
102
}
330
E
  0
SCALE
  5
43
102
{ACAD_REACTORS
330
42
102
}
330
42
100
AcDbScale
 70
     0
300
1:1
140
1.0
141
1.0
290
     1
  0
SCALE
  5
44
102
{ACAD_REACTORS
330
42
102
}
330
42
100
AcDbScale
 70
     0
300
1/128" = 1'-0"
140
0.0078125
141
12.0
290
     0
  0
SCALE
  5
45
102
{ACAD_REACTORS
330
42
102
}
330
42
100
AcDbScale
 70
     0
300
1/64" = 1'-0"
140
0.015625
141
12.0
290
     0
  0
SCALE
  5
46
102
{ACAD_REACTORS
330
42
102
}
330
42
100
AcDbScale
 70
     0
300
1/32" = 1'-0"
140
0.03125
141
12.0
290
     0
  0
SCALE
  5
47
102
{ACAD_REACTORS
330
42
102
}
330
42
100
AcDbScale
 70
     0
300
1/16" = 1'-0"
140
0.0625
141
12.0
290
     0
  0
SCALE
  5
48
102
{ACAD_REACTORS
330
42
102
}
330
42
100
AcDbScale
 70
     0
300
3/32" = 1'-0"
140
0.09375
141
12.0
290
     0
  0
SCALE
  5
49
102
{ACAD_REACTORS
330
42
102
}
330
42
100
AcDbScale
 70
     0
300
1/8" = 1'-0"
140
0.125
141
12.0
290
     0
  0
SCALE
  5
4A
102
{ACAD_REACTORS
330
42
102
}
330
42
100
AcDbScale
 70
     0
300
3/16" = 1'-0"
140
0.1875
141
12.0
290
     0
  0
SCALE
  5
4B
102
{ACAD_REACTORS
330
42
102
}
330
42
100
AcDbScale
 70
     0
300
1/4" = 1'-0"
140
0.25
141
12.0
290
     0
  0
SCALE
  5
4C
102
{ACAD_REACTORS
330
42
102
}
330
42
100
AcDbScale
 70
     0
300
3/8" = 1'-0"
140
0.375
141
12.0
290
     0
  0
SCALE
  5
4D
102
{ACAD_REACTORS
330
42
102
}
330
42
100
AcDbScale
 70
     0
300
1/2" = 1'-0"
140
0.5
141
12.0
290
     0
  0
SCALE
  5
4E
102
{ACAD_REACTORS
330
42
102
}
330
42
100
AcDbScale
 70
     0
300
3/4" = 1'-0"
140
0.75
141
12.0
290
     0
  0
SCALE
  5
4F
102
{ACAD_REACTORS
330
42
102
}
330
42
100
AcDbScale
 70
     0
300
1" = 1'-0"
140
1.0
141
12.0
290
     0
  0
SCALE
  5
50
102
{ACAD_REACTORS
330
42
102
}
330
42
100
AcDbScale
 70
     0
300
1-1/2" = 1'-0"
140
1.5
141
12.0
290
     0
  0
SCALE
  5
51
102
{ACAD_REACTORS
330
42
102
}
330
42
100
AcDbScale
 70
     0
300
3" = 1'-0"
140
3.0
141
12.0
290
     0
  0
SCALE
  5
52
102
{ACAD_REACTORS
330
42
102
}
330
42
100
AcDbScale
 70
     0
300
6" = 1'-0"
140
6.0
141
12.0
290
     0
  0
SCALE
  5
53
102
{ACAD_REACTORS
330
42
102
}
330
42
100
AcDbScale
 70
     0
300
1'-0" = 1'-0"
140
12.0
141
12.0
290
     0
  0
ACDBSECTIONVIEWSTYLE
  5
69
102
{ACAD_REACTORS
330
68
102
}
330
68
100
AcDbModelDocViewStyle
 70
     0
  3
Imperial24
290
     1
300
Imperial24
 90
        0
100
AcDbSectionViewStyle
 70
     0
 71
     0
 90
       78
 71
     1
340
55
 62
   256
 40
0.24
340
0
340
0
 62
   256
 40
0.24
300
I, O, Q, S, X, Z
 40
0.48
 90
        3
 40
0.18
 90
        1
 71
     2
340
5D
 90
       25
 62
   256
340
5D
 90
       50
 62
   256
 40
0.24
 40
0.0
 40
0.24
 71
     3
340
55
 62
   256
 40
0.24
 90
        1
 40
0.75
 90
        1
300
%<\AcVar ViewType \f "%tc1">% %<\AcVar ViewSectionStartId>%-%<\AcVar ViewSectionEndId>%\PSCALE %<\AcVar ViewScale \f "%sn">%
 71
     4
 62
   256
 62
   257
300
ANSI31
 40
1.0
 90
        0
290
     0
290
     0
 90
        6
 40
0.0
 40
1.570796326794896
 40
0.2617993877991494
 40
1.308996938995747
 40
-0.2617993877991494
 40
1.832595714594046
  0
TABLESTYLE
  5
65
102
{ACAD_XDICTIONARY
360
328
102
}
102
{ACAD_REACTORS
330
64
102
}
330
64
100
AcDbTableStyle
280
     0
  3
Standard
 70
     0
 71
     0
 40
0.06
 41
0.06
280
     0
281
     0
  7
Standard
140
0.18
170
     2
 62
     0
 63
     7
283
     0
 90
      512
 91
        0
  1

274
    -2
284
     1
 64
     0
275
    -2
285
     1
 65
     0
276
    -2
286
     1
 66
     0
277
    -2
287
     1
 67
     0
278
    -2
288
     1
 68
     0
279
    -2
289
     1
 69
     0
  7
Standard
140
0.25
170
     5
 62
     0
 63
     7
283
     0
 90
      512
 91
        0
  1

274
    -2
284
     1
 64
     0
275
    -2
285
     1
 65
     0
276
    -2
286
     1
 66
     0
277
    -2
287
     1
 67
     0
278
    -2
288
     1
 68
     0
279
    -2
289
     1
 69
     0
  7
Standard
140
0.18
170
     5
 62
     0
 63
     7
283
     0
 90
      512
 91
        0
  1

274
    -2
284
     1
 64
     0
275
    -2
285
     1
 65
     0
276
    -2
286
     1
 66
     0
277
    -2
287
     1
 67
     0
278
    -2
288
     1
 68
     0
279
    -2
289
     1
 69
     0
  0
VISUALSTYLE
  5
2F
102
{ACAD_REACTORS
330
29
102
}
330
29
100
AcDbVisualStyle
  2
2dWireframe
 70
     4
177
     3
291
     0
 70
    58
 90
        0
176
     1
 90
        2
176
     1
 90
        0
176
     1
 90
        0
176
     1
 40
0.6
176
     1
 40
30.0
176
     1
 62
     7
420
 16777215
176
     1
 90
        1
176
     1
 90
        4
176
     1
 62
     7
176
     1
 62
   257
176
     1
 90
        1
176
     1
 90
        1
176
     1
 40
1.0
176
     1
 90
        0
176
     1
 62
   257
176
     1
 40
1.0
176
     1
 90
        1
176
     1
 90
        6
176
     1
 90
        2
176
     1
 62
     7
176
     1
 90
        5
176
     1
 90
        0
176
     1
 90
        0
176
     1
290
     0
176
     1
 90
        1
176
     1
 40
0.0
176
     1
 90
        0
176
     1
290
     1
176
     1
290
     1
176
     1
290
     0
176
     1
290
     0
176
     1
290
     0
176
     1
290
     0
176
     1
290
     0
176
     1
290
     0
176
     1
290
     0
176
     1
 90
       50
176
     1
 40
0.0
176
     1
 40
1.0
176
     1
 90
        0
176
     1
 62
    18
420
        0
176
     1
 90
       50
176
     1
 90
        3
176
     1
 62
     5
420
      255
176
     1
290
     0
176
     1
 90
       50
176
     1
 90
       50
176
     1
 90
       50
176
     1
290
     0
176
     1
 90
       50
176
     1
 62
   256
176
     0
 40
1.0
176
     0
 90
        2
176
     1
  1
strokes_ogs.tif
176
     1
290
     0
176
     1
 40
1.0
176
     1
 40
1.0
176
     1
  0
VISUALSTYLE
  5
2E
102
{ACAD_REACTORS
330
29
102
}
330
29
100
AcDbVisualStyle
  2
Basic
 70
     7
177
     3
291
     1
 70
    58
 90
        1
176
     1
 90
        0
176
     1
 90
        1
176
     1
 90
        0
176
     1
 40
0.6
176
     1
 40
30.0
176
     1
 62
     7
420
 16777215
176
     1
 90
        0
176
     1
 90
        4
176
     1
 62
     7
176
     1
 62
   257
176
     1
 90
        1
176
     1
 90
        1
176
     1
 40
1.0
176
     1
 90
        8
176
     1
 62
     7
176
     1
 40
1.0
176
     1
 90
        1
176
     1
 90
        6
176
     1
 90
        2
176
     1
 62
     7
176
     1
 90
        5
176
     1
 90
        0
176
     1
 90
        0
176
     1
290
     0
176
     1
 90
        1
176
     1
 40
0.0
176
     1
 90
        0
176
     1
290
     0
176
     1
290
     1
176
     1
290
     1
176
     1
290
     0
176
     1
290
     0
176
     1
290
     0
176
     1
290
     0
176
     1
290
     0
176
     1
290
     0
176
     1
 90
       50
176
     1
 40
0.0
176
     1
 40
1.0
176
     1
 90
        0
176
     1
 62
    18
420
        0
176
     1
 90
       50
176
     1
 90
        3
176
     1
 62
     5
420
      255
176
     1
290
     0
176
     1
 90
       50
176
     1
 90
       50
176
     1
 90
       50
176
     1
290
     0
176
     1
 90
       50
176
     1
 62
   256
176
     0
 40
1.0
176
     0
 90
        2
176
     1
  1
strokes_ogs.tif
176
     1
290
     0
176
     1
 40
1.0
176
     1
 40
1.0
176
     1
  0
VISUALSTYLE
  5
35
102
{ACAD_REACTORS
330
29
102
}
330
29
100
AcDbVisualStyle
  2
Brighten
 70
    12
177
     3
291
     1
 70
    58
 90
        2
176
     1
 90
        2
176
     1
 90
        0
176
     1
 90
        0
176
     1
 40
0.6
176
     1
 40
30.0
176
     1
 62
     7
420
 16777215
176
     1
 90
        1
176
     1
 90
        4
176
     1
 62
     7
176
     1
 62
   257
176
     1
 90
        1
176
     1
 90
        1
176
     1
 40
1.0
176
     1
 90
        8
176
     1
 62
     7
176
     1
 40
1.0
176
     1
 90
        1
176
     1
 90
        6
176
     1
 90
        2
176
     1
 62
     7
176
     1
 90
        5
176
     1
 90
        0
176
     1
 90
        0
176
     1
290
     0
176
     1
 90
        1
176
     1
 40
50.0
176
     1
 90
        0
176
     1
290
     0
176
     1
290
     1
176
     1
290
     1
176
     1
290
     0
176
     1
290
     0
176
     1
290
     0
176
     1
290
     0
176
     1
290
     0
176
     1
290
     0
176
     1
 90
       50
176
     1
 40
0.0
176
     1
 40
1.0
176
     1
 90
        0
176
     1
 62
    18
420
        0
176
     1
 90
       50
176
     1
 90
        3
176
     1
 62
     5
420
      255
176
     1
290
     0
176
     1
 90
       50
176
     1
 90
       50
176
     1
 90
       50
176
     1
290
     0
176
     1
 90
       50
176
     1
 62
   256
176
     0
 40
1.0
176
     0
 90
        2
176
     1
  1
strokes_ogs.tif
176
     1
290
     0
176
     1
 40
1.0
176
     1
 40
1.0
176
     1
  0
VISUALSTYLE
  5
39
102
{ACAD_REACTORS
330
29
102
}
330
29
100
AcDbVisualStyle
  2
ColorChange
 70
    16
177
     3
291
     1
 70
    58
 90
        2
176
     1
 90
        2
176
     1
 90
        3
176
     1
 90
        0
176
     1
 40
0.6
176
     1
 40
30.0
176
     1
 62
     8
420
  8421504
176
     1
 90
        1
176
     1
 90
        4
176
     1
 62
     7
176
     1
 62
   257
176
     1
 90
        1
176
     1
 90
        1
176
     1
 40
1.0
176
     1
 90
        8
176
     1
 62
     8
420
  8421504
176
     1
 40
1.0
176
     1
 90
        1
176
     1
 90
        6
176
     1
 90
        2
176
     1
 62
     7
176
     1
 90
        5
176
     1
 90
        0
176
     1
 90
        0
176
     1
290
     0
176
     1
 90
        1
176
     1
 40
0.0
176
     1
 90
        0
176
     1
290
     0
176
     1
290
     1
176
     1
290
     1
176
     1
290
     0
176
     1
290
     0
176
     1
290
     0
176
     1
290
     0
176
     1
290
     0
176
     1
290
     0
176
     1
 90
       50
176
     1
 40
0.0
176
     1
 40
1.0
176
     1
 90
        0
176
     1
 62
    18
420
        0
176
     1
 90
       50
176
     1
 90
        3
176
     1
 62
     5
420
      255
176
     1
290
     0
176
     1
 90
       50
176
     1
 90
       50
176
     1
 90
       50
176
     1
290
     0
176
     1
 90
       50
176
     1
 62
   256
176
     0
 40
1.0
176
     0
 90
        2
176
     1
  1
strokes_ogs.tif
176
     1
290
     0
176
     1
 40
1.0
176
     1
 40
1.0
176
     1
  0
VISUALSTYLE
  5
32
102
{ACAD_REACTORS
330
29
102
}
330
29
100
AcDbVisualStyle
  2
Conceptual
 70
     9
177
     3
291
     0
 70
    58
 90
        3
176
     1
 90
        2
176
     1
 90
        0
176
     1
 90
        0
176
     1
 40
0.6
176
     1
 40
30.0
176
     1
 62
     7
420
 16777215
176
     1
 90
        2
176
     1
 90
        2
176
     1
 62
     7
176
     1
 62
   257
176
     1
 90
        1
176
     1
 90
        1
176
     1
 40
179.0
176
     1
 90
        8
176
     1
 62
     7
176
     1
 40
1.0
176
     1
 90
        1
176
     1
 90
        6
176
     1
 90
        2
176
     1
 62
     7
176
     1
 90
        3
176
     1
 90
        0
176
     1
 90
        0
176
     1
290
     0
176
     1
 90
        1
176
     1
 40
0.0
176
     1
 90
        0
176
     1
290
     0
176
     1
290
     1
176
     1
290
     1
176
     1
290
     0
176
     1
290
     0
176
     1
290
     0
176
     1
290
     0
176
     1
290
     0
176
     1
290
     0
176
     1
 90
       50
176
     1
 40
0.0
176
     1
 40
1.0
176
     1
 90
        0
176
     1
 62
    18
420
        0
176
     1
 90
       50
176
     1
 90
        3
176
     1
 62
     5
420
      255
176
     1
290
     0
176
     1
 90
       50
176
     1
 90
       50
176
     1
 90
       50
176
     1
290
     0
176
     1
 90
       50
176
     1
 62
   256
176
     0
 40
1.0
176
     0
 90
        2
176
     1
  1
strokes_ogs.tif
176
     1
290
     0
176
     1
 40
1.0
176
     1
 40
1.0
176
     1
  0
VISUALSTYLE
  5
34
102
{ACAD_REACTORS
330
29
102
}
330
29
100
AcDbVisualStyle
  2
Dim
 70
    11
177
     3
291
     1
 70
    58
 90
        2
176
     1
 90
        2
176
     1
 90
        0
176
     1
 90
        0
176
     1
 40
0.6
176
     1
 40
30.0
176
     1
 62
     7
420
 16777215
176
     1
 90
        1
176
     1
 90
        4
176
     1
 62
     7
176
     1
 62
   257
176
     1
 90
        1
176
     1
 90
        1
176
     1
 40
1.0
176
     1
 90
        8
176
     1
 62
     7
176
     1
 40
1.0
176
     1
 90
        1
176
     1
 90
        6
176
     1
 90
        2
176
     1
 62
     7
176
     1
 90
        5
176
     1
 90
        0
176
     1
 90
        0
176
     1
290
     0
176
     1
 90
        1
176
     1
 40
-50.0
176
     1
 90
        0
176
     1
290
     0
176
     1
290
     1
176
     1
290
     1
176
     1
290
     0
176
     1
290
     0
176
     1
290
     0
176
     1
290
     0
176
     1
290
     0
176
     1
290
     0
176
     1
 90
       50
176
     1
 40
0.0
176
     1
 40
1.0
176
     1
 90
        0
176
     1
 62
    18
420
        0
176
     1
 90
       50
176
     1
 90
        3
176
     1
 62
     5
420
      255
176
     1
290
     0
176
     1
 90
       50
176
     1
 90
       50
176
     1
 90
       50
176
     1
290
     0
176
     1
 90
       50
176
     1
 62
   256
176
     0
 40
1.0
176
     0
 90
        2
176
     1
  1
strokes_ogs.tif
176
     1
290
     0
176
     1
 40
1.0
176
     1
 40
1.0
176
     1
  0
VISUALSTYLE
  5
41
102
{ACAD_REACTORS
330
29
102
}
330
29
100
AcDbVisualStyle
  2
EdgeColorOff
 70
    22
177
     3
291
     1
 70
    58
 90
        2
176
     0
 90
        2
176
     0
 90
        0
176
     0
 90
        0
176
     0
 40
0.6
176
     0
 40
30.0
176
     0
 62
     7
420
 16777215
176
     0
 90
        1
176
     0
 90
        4
176
     0
 62
     7
176
     0
 62
   257
176
     0
 90
        1
176
     0
 90
        1
176
     0
 40
1.0
176
     0
 90
        8
176
     2
 62
     7
176
     0
 40
1.0
176
     0
 90
        1
176
     0
 90
        6
176
     0
 90
        2
176
     0
 62
     7
176
     0
 90
        5
176
     0
 90
        0
176
     0
 90
        0
176
     0
290
     0
176
     0
 90
        1
176
     0
 40
0.0
176
     0
 90
        0
176
     0
290
     0
176
     0
290
     1
176
     0
290
     1
176
     0
290
     0
176
     0
290
     0
176
     0
290
     0
176
     0
290
     0
176
     0
290
     0
176
     0
290
     0
176
     0
 90
       50
176
     0
 40
0.0
176
     0
 40
1.0
176
     0
 90
        0
176
     0
 62
    18
420
        0
176
     0
 90
       50
176
     0
 90
        3
176
     0
 62
     5
420
      255
176
     0
290
     0
176
     0
 90
       50
176
     0
 90
       50
176
     0
 90
       50
176
     0
290
     0
176
     0
 90
       50
176
     0
 62
   256
176
     0
 40
1.0
176
     0
 90
        2
176
     0
  1
strokes_ogs.tif
176
     0
290
     0
176
     0
 40
1.0
176
     0
 40
1.0
176
     0
  0
VISUALSTYLE
  5
38
102
{ACAD_REACTORS
330
29
102
}
330
29
100
AcDbVisualStyle
  2
Facepattern
 70
    15
177
     3
291
     1
 70
    58
 90
        2
176
     1
 90
        2
176
     1
 90
        0
176
     1
 90
        0
176
     1
 40
0.6
176
     1
 40
30.0
176
     1
 62
     7
420
 16777215
176
     1
 90
        1
176
     1
 90
        4
176
     1
 62
     7
176
     1
 62
   257
176
     1
 90
        1
176
     1
 90
        1
176
     1
 40
1.0
176
     1
 90
        8
176
     1
 62
     7
176
     1
 40
1.0
176
     1
 90
        1
176
     1
 90
        6
176
     1
 90
        2
176
     1
 62
     7
176
     1
 90
        5
176
     1
 90
        0
176
     1
 90
        0
176
     1
290
     0
176
     1
 90
        1
176
     1
 40
0.0
176
     1
 90
        0
176
     1
290
     0
176
     1
290
     1
176
     1
290
     1
176
     1
290
     0
176
     1
290
     0
176
     1
290
     0
176
     1
290
     0
176
     1
290
     0
176
     1
290
     0
176
     1
 90
       50
176
     1
 40
0.0
176
     1
 40
1.0
176
     1
 90
        0
176
     1
 62
    18
420
        0
176
     1
 90
       50
176
     1
 90
        3
176
     1
 62
     5
420
      255
176
     1
290
     0
176
     1
 90
       50
176
     1
 90
       50
176
     1
 90
       50
176
     1
290
     0
176
     1
 90
       50
176
     1
 62
   256
176
     0
 40
1.0
176
     0
 90
        2
176
     1
  1
strokes_ogs.tif
176
     1
290
     0
176
     1
 40
1.0
176
     1
 40
1.0
176
     1
  0
VISUALSTYLE
  5
2A
102
{ACAD_REACTORS
330
29
102
}
330
29
100
AcDbVisualStyle
  2
Flat
 70
     0
177
     3
291
     1
 70
    58
 90
        2
176
     1
 90
        1
176
     1
 90
        1
176
     1
 90
        2
176
     1
 40
0.6
176
     1
 40
30.0
176
     1
 62
     7
420
 16777215
176
     1
 90
        0
176
     1
 90
        0
176
     1
 62
     7
176
     1
 62
   257
176
     1
 90
        1
176
     1
 90
        1
176
     1
 40
1.0
176
     1
 90
        8
176
     1
 62
     7
176
     1
 40
1.0
176
     1
 90
        1
176
     1
 90
        6
176
     1
 90
        2
176
     1
 62
     7
176
     1
 90
        5
176
     1
 90
        0
176
     1
 90
        0
176
     1
290
     0
176
     1
 90
       13
176
     1
 40
0.0
176
     1
 90
        0
176
     1
290
     0
176
     1
290
     1
176
     1
290
     1
176
     1
290
     0
176
     1
290
     0
176
     1
290
     0
176
     1
290
     0
176
     1
290
     0
176
     1
290
     0
176
     1
 90
       50
176
     1
 40
0.0
176
     1
 40
1.0
176
     1
 90
        0
176
     1
 62
    18
420
        0
176
     1
 90
       50
176
     1
 90
        3
176
     1
 62
     5
420
      255
176
     1
290
     0
176
     1
 90
       50
176
     1
 90
       50
176
     1
 90
       50
176
     1
290
     0
176
     1
 90
       50
176
     1
 62
   256
176
     0
 40
1.0
176
     0
 90
        2
176
     1
  1
strokes_ogs.tif
176
     1
290
     0
176
     1
 40
1.0
176
     1
 40
1.0
176
     1
  0
VISUALSTYLE
  5
2B
102
{ACAD_REACTORS
330
29
102
}
330
29
100
AcDbVisualStyle
  2
FlatWithEdges
 70
     1
177
     3
291
     1
 70
    58
 90
        2
176
     1
 90
        1
176
     1
 90
        1
176
     1
 90
        2
176
     1
 40
0.6
176
     1
 40
30.0
176
     1
 62
     7
420
 16777215
176
     1
 90
        1
176
     1
 90
        0
176
     1
 62
     7
176
     1
 62
   257
176
     1
 90
        1
176
     1
 90
        1
176
     1
 40
1.0
176
     1
 90
        0
176
     1
 62
   257
176
     1
 40
1.0
176
     1
 90
        1
176
     1
 90
        6
176
     1
 90
        2
176
     1
 62
     7
176
     1
 90
        5
176
     1
 90
        0
176
     1
 90
        0
176
     1
290
     0
176
     1
 90
       13
176
     1
 40
0.0
176
     1
 90
        0
176
     1
290
     0
176
     1
290
     1
176
     1
290
     1
176
     1
290
     0
176
     1
290
     0
176
     1
290
     0
176
     1
290
     0
176
     1
290
     0
176
     1
290
     0
176
     1
 90
       50
176
     1
 40
0.0
176
     1
 40
1.0
176
     1
 90
        0
176
     1
 62
    18
420
        0
176
     1
 90
       50
176
     1
 90
        3
176
     1
 62
     5
420
      255
176
     1
290
     0
176
     1
 90
       50
176
     1
 90
       50
176
     1
 90
       50
176
     1
290
     0
176
     1
 90
       50
176
     1
 62
   256
176
     0
 40
1.0
176
     0
 90
        2
176
     1
  1
strokes_ogs.tif
176
     1
290
     0
176
     1
 40
1.0
176
     1
 40
1.0
176
     1
  0
VISUALSTYLE
  5
2C
102
{ACAD_REACTORS
330
29
102
}
330
29
100
AcDbVisualStyle
  2
Gouraud
 70
     2
177
     3
291
     1
 70
    58
 90
        2
176
     1
 90
        2
176
     1
 90
        1
176
     1
 90
        2
176
     1
 40
0.6
176
     1
 40
30.0
176
     1
 62
     7
420
 16777215
176
     1
 90
        0
176
     1
 90
        0
176
     1
 62
     7
176
     1
 62
   257
176
     1
 90
        1
176
     1
 90
        1
176
     1
 40
1.0
176
     1
 90
        0
176
     1
 62
     7
176
     1
 40
1.0
176
     1
 90
        1
176
     1
 90
        6
176
     1
 90
        2
176
     1
 62
     7
176
     1
 90
        5
176
     1
 90
        0
176
     1
 90
        0
176
     1
290
     0
176
     1
 90
       13
176
     1
 40
0.0
176
     1
 90
        0
176
     1
290
     0
176
     1
290
     1
176
     1
290
     1
176
     1
290
     0
176
     1
290
     0
176
     1
290
     0
176
     1
290
     0
176
     1
290
     0
176
     1
290
     0
176
     1
 90
       50
176
     1
 40
0.0
176
     1
 40
1.0
176
     1
 90
        0
176
     1
 62
    18
420
        0
176
     1
 90
       50
176
     1
 90
        3
176
     1
 62
     5
420
      255
176
     1
290
     0
176
     1
 90
       50
176
     1
 90
       50
176
     1
 90
       50
176
     1
290
     0
176
     1
 90
       50
176
     1
 62
   256
176
     0
 40
1.0
176
     0
 90
        2
176
     1
  1
strokes_ogs.tif
176
     1
290
     0
176
     1
 40
1.0
176
     1
 40
1.0
176
     1
  0
VISUALSTYLE
  5
2D
102
{ACAD_REACTORS
330
29
102
}
330
29
100
AcDbVisualStyle
  2
GouraudWithEdges
 70
     3
177
     3
291
     1
 70
    58
 90
        2
176
     1
 90
        2
176
     1
 90
        1
176
     1
 90
        2
176
     1
 40
0.6
176
     1
 40
30.0
176
     1
 62
     7
420
 16777215
176
     1
 90
        1
176
     1
 90
        0
176
     1
 62
     7
176
     1
 62
   257
176
     1
 90
        1
176
     1
 90
        1
176
     1
 40
1.0
176
     1
 90
        0
176
     1
 62
   257
176
     1
 40
1.0
176
     1
 90
        1
176
     1
 90
        6
176
     1
 90
        2
176
     1
 62
     7
176
     1
 90
        5
176
     1
 90
        0
176
     1
 90
        0
176
     1
290
     0
176
     1
 90
       13
176
     1
 40
0.0
176
     1
 90
        0
176
     1
290
     0
176
     1
290
     1
176
     1
290
     1
176
     1
290
     0
176
     1
290
     0
176
     1
290
     0
176
     1
290
     0
176
     1
290
     0
176
     1
290
     0
176
     1
 90
       50
176
     1
 40
0.0
176
     1
 40
1.0
176
     1
 90
        0
176
     1
 62
    18
420
        0
176
     1
 90
       50
176
     1
 90
        3
176
     1
 62
     5
420
      255
176
     1
290
     0
176
     1
 90
       50
176
     1
 90
       50
176
     1
 90
       50
176
     1
290
     0
176
     1
 90
       50
176
     1
 62
   256
176
     0
 40
1.0
176
     0
 90
        2
176
     1
  1
strokes_ogs.tif
176
     1
290
     0
176
     1
 40
1.0
176
     1
 40
1.0
176
     1
  0
VISUALSTYLE
  5
31
102
{ACAD_REACTORS
330
29
102
}
330
29
100
AcDbVisualStyle
  2
Hidden
 70
     6
177
     3
291
     0
 70
    58
 90
        1
176
     1
 90
        2
176
     1
 90
        2
176
     1
 90
        0
176
     1
 40
0.6
176
     1
 40
30.0
176
     1
 62
     7
420
 16777215
176
     1
 90
        2
176
     1
 90
        2
176
     1
 62
     7
176
     1
 62
   257
176
     1
 90
        2
176
     1
 90
        1
176
     1
 40
40.0
176
     1
 90
        0
176
     1
 62
   257
176
     1
 40
1.0
176
     1
 90
        1
176
     1
 90
        6
176
     1
 90
        2
176
     1
 62
     7
176
     1
 90
        3
176
     1
 90
        0
176
     1
 90
        0
176
     1
290
     0
176
     1
 90
        1
176
     1
 40
0.0
176
     1
 90
        0
176
     1
290
     0
176
     1
290
     1
176
     1
290
     1
176
     1
290
     0
176
     1
290
     0
176
     1
290
     0
176
     1
290
     0
176
     1
290
     0
176
     1
290
     0
176
     1
 90
       50
176
     1
 40
0.0
176
     1
 40
1.0
176
     1
 90
        0
176
     1
 62
    18
420
        0
176
     1
 90
       50
176
     1
 90
        3
176
     1
 62
     5
420
      255
176
     1
290
     0
176
     1
 90
       50
176
     1
 90
       50
176
     1
 90
       50
176
     1
290
     0
176
     1
 90
       50
176
     1
 62
   256
176
     0
 40
1.0
176
     0
 90
        2
176
     1
  1
strokes_ogs.tif
176
     1
290
     0
176
     1
 40
1.0
176
     1
 40
1.0
176
     1
  0
VISUALSTYLE
  5
3F
102
{ACAD_REACTORS
330
29
102
}
330
29
100
AcDbVisualStyle
  2
JitterOff
 70
    20
177
     3
291
     1
 70
    58
 90
        2
176
     0
 90
        2
176
     0
 90
        0
176
     0
 90
        0
176
     0
 40
0.6
176
     0
 40
30.0
176
     0
 62
     7
420
 16777215
176
     0
 90
        1
176
     0
 90
        4
176
     0
 62
     7
176
     0
 62
   257
176
     0
 90
        1
176
     0
 90
        1
176
     0
 40
1.0
176
     0
 90
       10
176
     2
 62
     7
176
     0
 40
1.0
176
     0
 90
        1
176
     0
 90
        6
176
     0
 90
        2
176
     0
 62
     7
176
     0
 90
        5
176
     0
 90
        0
176
     0
 90
        0
176
     0
290
     0
176
     0
 90
        1
176
     0
 40
0.0
176
     0
 90
        0
176
     0
290
     0
176
     0
290
     1
176
     0
290
     1
176
     0
290
     0
176
     0
290
     0
176
     0
290
     0
176
     0
290
     0
176
     0
290
     0
176
     0
290
     0
176
     0
 90
       50
176
     0
 40
0.0
176
     0
 40
1.0
176
     0
 90
        0
176
     0
 62
    18
420
        0
176
     0
 90
       50
176
     0
 90
        3
176
     0
 62
     5
420
      255
176
     0
290
     0
176
     0
 90
       50
176
     0
 90
       50
176
     0
 90
       50
176
     0
290
     0
176
     0
 90
       50
176
     0
 62
   256
176
     0
 40
1.0
176
     0
 90
        2
176
     0
  1
strokes_ogs.tif
176
     0
290
     0
176
     0
 40
1.0
176
     0
 40
1.0
176
     0
  0
VISUALSTYLE
  5
37
102
{ACAD_REACTORS
330
29
102
}
330
29
100
AcDbVisualStyle
  2
Linepattern
 70
    14
177
     3
291
     1
 70
    58
 90
        2
176
     1
 90
        2
176
     1
 90
        0
176
     1
 90
        0
176
     1
 40
0.6
176
     1
 40
30.0
176
     1
 62
     7
420
 16777215
176
     1
 90
        1
176
     1
 90
        4
176
     1
 62
     7
176
     1
 62
   257
176
     1
 90
        7
176
     1
 90
        7
176
     1
 40
1.0
176
     1
 90
        8
176
     1
 62
     7
176
     1
 40
1.0
176
     1
 90
        1
176
     1
 90
        6
176
     1
 90
        2
176
     1
 62
     7
176
     1
 90
        5
176
     1
 90
        0
176
     1
 90
        0
176
     1
290
     0
176
     1
 90
        1
176
     1
 40
0.0
176
     1
 90
        0
176
     1
290
     0
176
     1
290
     1
176
     1
290
     1
176
     1
290
     0
176
     1
290
     0
176
     1
290
     0
176
     1
290
     0
176
     1
290
     0
176
     1
290
     0
176
     1
 90
       50
176
     1
 40
0.0
176
     1
 40
1.0
176
     1
 90
        0
176
     1
 62
    18
420
        0
176
     1
 90
       50
176
     1
 90
        3
176
     1
 62
     5
420
      255
176
     1
290
     0
176
     1
 90
       50
176
     1
 90
       50
176
     1
 90
       50
176
     1
290
     0
176
     1
 90
       50
176
     1
 62
   256
176
     0
 40
1.0
176
     0
 90
        2
176
     1
  1
strokes_ogs.tif
176
     1
290
     0
176
     1
 40
1.0
176
     1
 40
1.0
176
     1
  0
VISUALSTYLE
  5
40
102
{ACAD_REACTORS
330
29
102
}
330
29
100
AcDbVisualStyle
  2
OverhangOff
 70
    21
177
     3
291
     1
 70
    58
 90
        2
176
     0
 90
        2
176
     0
 90
        0
176
     0
 90
        0
176
     0
 40
0.6
176
     0
 40
30.0
176
     0
 62
     7
420
 16777215
176
     0
 90
        1
176
     0
 90
        4
176
     0
 62
     7
176
     0
 62
   257
176
     0
 90
        1
176
     0
 90
        1
176
     0
 40
1.0
176
     0
 90
        9
176
     2
 62
     7
176
     0
 40
1.0
176
     0
 90
        1
176
     0
 90
        6
176
     0
 90
        2
176
     0
 62
     7
176
     0
 90
        5
176
     0
 90
        0
176
     0
 90
        0
176
     0
290
     0
176
     0
 90
        1
176
     0
 40
0.0
176
     0
 90
        0
176
     0
290
     0
176
     0
290
     1
176
     0
290
     1
176
     0
290
     0
176
     0
290
     0
176
     0
290
     0
176
     0
290
     0
176
     0
290
     0
176
     0
290
     0
176
     0
 90
       50
176
     0
 40
0.0
176
     0
 40
1.0
176
     0
 90
        0
176
     0
 62
    18
420
        0
176
     0
 90
       50
176
     0
 90
        3
176
     0
 62
     5
420
      255
176
     0
290
     0
176
     0
 90
       50
176
     0
 90
       50
176
     0
 90
       50
176
     0
290
     0
176
     0
 90
       50
176
     0
 62
   256
176
     0
 40
1.0
176
     0
 90
        2
176
     0
  1
strokes_ogs.tif
176
     0
290
     0
176
     0
 40
1.0
176
     0
 40
1.0
176
     0
  0
VISUALSTYLE
  5
33
102
{ACAD_REACTORS
330
29
102
}
330
29
100
AcDbVisualStyle
  2
Realistic
 70
     8
177
     3
291
     0
 70
    58
 90
        2
176
     1
 90
        3
176
     1
 90
        0
176
     1
 90
        2
176
     1
 40
0.6
176
     1
 40
30.0
176
     1
 62
     7
420
 16777215
176
     1
 90
        0
176
     1
 90
        0
176
     1
 62
     7
176
     1
 62
   257
176
     1
 90
        1
176
     1
 90
        1
176
     1
 40
1.0
176
     1
 90
        8
176
     1
 62
   257
176
     1
 40
1.0
176
     1
 90
        1
176
     1
 90
        6
176
     1
 90
        2
176
     1
 62
     7
176
     1
 90
        3
176
     1
 90
        0
176
     1
 90
        0
176
     1
290
     0
176
     1
 90
       13
176
     1
 40
0.0
176
     1
 90
        0
176
     1
290
     0
176
     1
290
     1
176
     1
290
     1
176
     1
290
     0
176
     1
290
     0
176
     1
290
     0
176
     1
290
     0
176
     1
290
     0
176
     1
290
     0
176
     1
 90
       50
176
     1
 40
0.0
176
     1
 40
1.0
176
     1
 90
        0
176
     1
 62
    18
420
        0
176
     1
 90
       50
176
     1
 90
        3
176
     1
 62
     5
420
      255
176
     1
290
     0
176
     1
 90
       50
176
     1
 90
       50
176
     1
 90
       50
176
     1
290
     0
176
     1
 90
       50
176
     1
 62
   256
176
     0
 40
1.0
176
     0
 90
        2
176
     1
  1
strokes_ogs.tif
176
     1
290
     0
176
     1
 40
1.0
176
     1
 40
1.0
176
     1
  0
VISUALSTYLE
  5
3E
102
{ACAD_REACTORS
330
29
102
}
330
29
100
AcDbVisualStyle
  2
Shaded
 70
    27
177
     3
291
     0
 70
    58
 90
        2
176
     1
 90
        2
176
     1
 90
        1
176
     1
 90
        2
176
     1
 40
0.6
176
     1
 40
30.0
176
     1
 62
     7
420
 16777215
176
     1
 90
        0
176
     1
 90
        4
176
     1
 62
     7
176
     1
 62
   257
176
     1
 90
        1
176
     1
 90
        1
176
     1
 40
1.0
176
     1
 90
        8
176
     1
 62
   257
176
     1
 40
1.0
176
     1
 90
        1
176
     1
 90
        6
176
     1
 90
        2
176
     1
 62
     8
420
  7895160
176
     1
 90
        3
176
     1
 90
        0
176
     1
 90
        0
176
     1
290
     0
176
     1
 90
        5
176
     1
 40
0.0
176
     1
 90
        0
176
     1
290
     0
176
     1
290
     1
176
     1
290
     1
176
     1
290
     0
176
     1
290
     0
176
     1
290
     0
176
     1
290
     0
176
     1
290
     0
176
     1
290
     0
176
     1
 90
       50
176
     1
 40
0.0
176
     1
 40
1.0
176
     1
 90
        0
176
     1
 62
    18
420
        0
176
     1
 90
       50
176
     1
 90
        3
176
     1
 62
     5
420
      255
176
     1
290
     0
176
     1
 90
       50
176
     1
 90
       50
176
     1
 90
       50
176
     1
290
     0
176
     1
 90
       50
176
     1
 62
   256
176
     0
 40
1.0
176
     0
 90
        2
176
     1
  1
strokes_ogs.tif
176
     1
290
     0
176
     1
 40
1.0
176
     1
 40
1.0
176
     1
  0
VISUALSTYLE
  5
3D
102
{ACAD_REACTORS
330
29
102
}
330
29
100
AcDbVisualStyle
  2
Shaded with edges
 70
    26
177
     3
291
     0
 70
    58
 90
        2
176
     1
 90
        2
176
     1
 90
        1
176
     1
 90
        2
176
     1
 40
0.6
176
     1
 40
30.0
176
     1
 62
     7
420
 16777215
176
     1
 90
        1
176
     1
 90
        2
176
     1
 62
     7
176
     1
 62
   257
176
     1
 90
        2
176
     1
 90
        1
176
     1
 40
1.0
176
     1
 90
        8
176
     1
 62
   257
176
     1
 40
1.0
176
     1
 90
        1
176
     1
 90
        6
176
     1
 90
        2
176
     1
 62
     7
176
     1
 90
        3
176
     1
 90
        0
176
     1
 90
        0
176
     1
290
     0
176
     1
 90
        5
176
     1
 40
0.0
176
     1
 90
        0
176
     1
290
     0
176
     1
290
     1
176
     1
290
     1
176
     1
290
     0
176
     1
290
     0
176
     1
290
     0
176
     1
290
     0
176
     1
290
     0
176
     1
290
     0
176
     1
 90
       50
176
     1
 40
0.0
176
     1
 40
1.0
176
     1
 90
        0
176
     1
 62
    18
420
        0
176
     1
 90
       50
176
     1
 90
        3
176
     1
 62
     5
420
      255
176
     1
290
     0
176
     1
 90
       50
176
     1
 90
       50
176
     1
 90
       50
176
     1
290
     0
176
     1
 90
       50
176
     1
 62
   256
176
     0
 40
1.0
176
     0
 90
        2
176
     1
  1
strokes_ogs.tif
176
     1
290
     0
176
     1
 40
1.0
176
     1
 40
1.0
176
     1
  0
VISUALSTYLE
  5
3A
102
{ACAD_REACTORS
330
29
102
}
330
29
100
AcDbVisualStyle
  2
Shades of Gray
 70
    23
177
     3
291
     0
 70
    58
 90
        2
176
     1
 90
        2
176
     1
 90
        3
176
     1
 90
        0
176
     1
 40
0.6
176
     1
 40
30.0
176
     1
 62
     7
420
 16777215
176
     1
 90
        2
176
     1
 90
        2
176
     1
 62
     7
176
     1
 62
     7
176
     1
 90
        1
176
     1
 90
        1
176
     1
 40
40.0
176
     1
 90
        8
176
     1
 62
     7
176
     1
 40
1.0
176
     1
 90
        1
176
     1
 90
        6
176
     1
 90
        2
176
     1
 62
     7
176
     1
 90
        3
176
     1
 90
        0
176
     1
 90
        0
176
     1
290
     0
176
     1
 90
        1
176
     1
 40
0.0
176
     1
 90
        0
176
     1
290
     0
176
     1
290
     1
176
     1
290
     1
176
     1
290
     0
176
     1
290
     0
176
     1
290
     0
176
     1
290
     0
176
     1
290
     0
176
     1
290
     0
176
     1
 90
       50
176
     1
 40
0.0
176
     1
 40
1.0
176
     1
 90
        0
176
     1
 62
    18
420
        0
176
     1
 90
       50
176
     1
 90
        3
176
     1
 62
     5
420
      255
176
     1
290
     0
176
     1
 90
       50
176
     1
 90
       50
176
     1
 90
       50
176
     1
290
     0
176
     1
 90
       50
176
     1
 62
   256
176
     0
 40
1.0
176
     0
 90
        2
176
     1
  1
strokes_ogs.tif
176
     1
290
     0
176
     1
 40
1.0
176
     1
 40
1.0
176
     1
  0
VISUALSTYLE
  5
3B
102
{ACAD_REACTORS
330
29
102
}
330
29
100
AcDbVisualStyle
  2
Sketchy
 70
    24
177
     3
291
     0
 70
    58
 90
        1
176
     1
 90
        2
176
     1
 90
        2
176
     1
 90
        0
176
     1
 40
0.6
176
     1
 40
30.0
176
     1
 62
     7
420
 16777215
176
     1
 90
        2
176
     1
 90
        2
176
     1
 62
     7
176
     1
 62
     7
176
     1
 90
        1
176
     1
 90
        1
176
     1
 40
40.0
176
     1
 90
       11
176
     1
 62
     7
176
     1
 40
1.0
176
     1
 90
        1
176
     1
 90
        6
176
     1
 90
        2
176
     1
 62
     7
176
     1
 90
        6
176
     1
 90
        0
176
     1
 90
        0
176
     1
290
     0
176
     1
 90
        1
176
     1
 40
0.0
176
     1
 90
        0
176
     1
290
     0
176
     1
290
     1
176
     1
290
     1
176
     1
290
     0
176
     1
290
     0
176
     1
290
     0
176
     1
290
     0
176
     1
290
     0
176
     1
290
     0
176
     1
 90
       50
176
     1
 40
0.0
176
     1
 40
1.0
176
     1
 90
        0
176
     1
 62
    18
420
        0
176
     1
 90
       50
176
     1
 90
        3
176
     1
 62
     5
420
      255
176
     1
290
     0
176
     1
 90
       50
176
     1
 90
       50
176
     1
 90
       50
176
     1
290
     0
176
     1
 90
       50
176
     1
 62
   256
176
     0
 40
1.0
176
     0
 90
        2
176
     1
  1
strokes_ogs.tif
176
     1
290
     0
176
     1
 40
1.0
176
     1
 40
1.0
176
     1
  0
VISUALSTYLE
  5
36
102
{ACAD_REACTORS
330
29
102
}
330
29
100
AcDbVisualStyle
  2
Thicken
 70
    13
177
     3
291
     1
 70
    58
 90
        2
176
     1
 90
        2
176
     1
 90
        0
176
     1
 90
        0
176
     1
 40
0.6
176
     1
 40
30.0
176
     1
 62
     7
420
 16777215
176
     1
 90
        1
176
     1
 90
        4
176
     1
 62
     7
176
     1
 62
   257
176
     1
 90
        1
176
     1
 90
        1
176
     1
 40
1.0
176
     1
 90
       12
176
     1
 62
     7
176
     1
 40
1.0
176
     1
 90
        1
176
     1
 90
        6
176
     1
 90
        2
176
     1
 62
     7
176
     1
 90
        5
176
     1
 90
        0
176
     1
 90
        0
176
     1
290
     0
176
     1
 90
        1
176
     1
 40
0.0
176
     1
 90
        0
176
     1
290
     0
176
     1
290
     1
176
     1
290
     1
176
     1
290
     0
176
     1
290
     0
176
     1
290
     0
176
     1
290
     0
176
     1
290
     0
176
     1
290
     0
176
     1
 90
       50
176
     1
 40
0.0
176
     1
 40
1.0
176
     1
 90
        0
176
     1
 62
    18
420
        0
176
     1
 90
       50
176
     1
 90
        3
176
     1
 62
     5
420
      255
176
     1
290
     0
176
     1
 90
       50
176
     1
 90
       50
176
     1
 90
       50
176
     1
290
     0
176
     1
 90
       50
176
     1
 62
   256
176
     0
 40
1.0
176
     0
 90
        2
176
     1
  1
strokes_ogs.tif
176
     1
290
     0
176
     1
 40
1.0
176
     1
 40
1.0
176
     1
  0
VISUALSTYLE
  5
30
102
{ACAD_REACTORS
330
29
102
}
330
29
100
AcDbVisualStyle
  2
Wireframe
 70
     5
177
     3
291
     0
 70
    58
 90
        0
176
     1
 90
        2
176
     1
 90
        0
176
     1
 90
        0
176
     1
 40
0.6
176
     1
 40
30.0
176
     1
 62
     7
420
 16777215
176
     1
 90
        1
176
     1
 90
        4
176
     1
 62
     7
176
     1
 62
   257
176
     1
 90
        1
176
     1
 90
        1
176
     1
 40
1.0
176
     1
 90
        0
176
     1
 62
   257
176
     1
 40
1.0
176
     1
 90
        1
176
     1
 90
        6
176
     1
 90
        2
176
     1
 62
     7
176
     1
 90
        3
176
     1
 90
        0
176
     1
 90
        0
176
     1
290
     0
176
     1
 90
        1
176
     1
 40
0.0
176
     1
 90
        0
176
     1
290
     0
176
     1
290
     1
176
     1
290
     1
176
     1
290
     0
176
     1
290
     0
176
     1
290
     0
176
     1
290
     0
176
     1
290
     0
176
     1
290
     0
176
     1
 90
       50
176
     1
 40
0.0
176
     1
 40
1.0
176
     1
 90
        0
176
     1
 62
    18
420
        0
176
     1
 90
       50
176
     1
 90
        3
176
     1
 62
     5
420
      255
176
     1
290
     0
176
     1
 90
       50
176
     1
 90
       50
176
     1
 90
       50
176
     1
290
     0
176
     1
 90
       50
176
     1
 62
   256
176
     0
 40
1.0
176
     0
 90
        2
176
     1
  1
strokes_ogs.tif
176
     1
290
     0
176
     1
 40
1.0
176
     1
 40
1.0
176
     1
  0
VISUALSTYLE
  5
3C
102
{ACAD_REACTORS
330
29
102
}
330
29
100
AcDbVisualStyle
  2
X-Ray
 70
    25
177
     3
291
     0
 70
    58
 90
        2
176
     1
 90
        2
176
     1
 90
        1
176
     1
 90
        1
176
     1
 40
0.5
176
     1
 40
30.0
176
     1
 62
     7
420
 16777215
176
     1
 90
        1
176
     1
 90
        0
176
     1
 62
     7
176
     1
 62
   257
176
     1
 90
        1
176
     1
 90
        1
176
     1
 40
1.0
176
     1
 90
        8
176
     1
 62
     7
176
     1
 40
1.0
176
     1
 90
        1
176
     1
 90
        6
176
     1
 90
        2
176
     1
 62
     7
176
     1
 90
        3
176
     1
 90
        0
176
     1
 90
        0
176
     1
290
     0
176
     1
 90
       13
176
     1
 40
0.0
176
     1
 90
        0
176
     1
290
     0
176
     1
290
     1
176
     1
290
     1
176
     1
290
     0
176
     1
290
     0
176
     1
290
     0
176
     1
290
     0
176
     1
290
     0
176
     1
290
     0
176
     1
 90
       50
176
     1
 40
0.0
176
     1
 40
1.0
176
     1
 90
        0
176
     1
 62
    18
420
        0
176
     1
 90
       50
176
     1
 90
        3
176
     1
 62
     5
420
      255
176
     1
290
     0
176
     1
 90
       50
176
     1
 90
       50
176
     1
 90
       50
176
     1
290
     0
176
     1
 90
       50
176
     1
 62
   256
176
     0
 40
1.0
176
     0
 90
        2
176
     1
  1
strokes_ogs.tif
176
     1
290
     0
176
     1
 40
1.0
176
     1
 40
1.0
176
     1
  0
DICTIONARYVAR
  5
327
102
{ACAD_REACTORS
330
322
102
}
330
322
100
DictionaryVariables
280
     0
  1
1:1
  0
DICTIONARYVAR
  5
324
102
{ACAD_REACTORS
330
322
102
}
330
322
100
DictionaryVariables
280
     0
  1
STANDARD
  0
DICTIONARYVAR
  5
323
102
{ACAD_REACTORS
330
322
102
}
330
322
100
DictionaryVariables
280
     0
  1
STANDARD
  0
DICTIONARYVAR
  5
325
102
{ACAD_REACTORS
330
322
102
}
330
322
100
DictionaryVariables
280
     0
  1
Imperial24
  0
DICTIONARYVAR
  5
326
102
{ACAD_REACTORS
330
322
102
}
330
322
100
DictionaryVariables
280
     0
  1
Imperial24
  0
DICTIONARY
  5
1A
330
19
100
AcDbDictionary
280
     1
281
     1
  3
BUMPTILE
360
1C
  3
DIFFUSETILE
360
1B
  3
OPACITYTILE
360
1F
  3
REFLECTIONTILE
360
1E
  3
REFRACTIONTILE
360
20
  3
SPECULARTILE
360
1D
  0
DICTIONARY
  5
12
330
11
100
AcDbDictionary
280
     1
281
     1
  3
BUMPTILE
360
14
  3
DIFFUSETILE
360
13
  3
OPACITYTILE
360
17
  3
REFLECTIONTILE
360
16
  3
REFRACTIONTILE
360
18
  3
SPECULARTILE
360
15
  0
DICTIONARY
  5
22
330
21
100
AcDbDictionary
280
     1
281
     1
  3
BUMPTILE
360
24
  3
DIFFUSETILE
360
23
  3
OPACITYTILE
360
27
  3
REFLECTIONTILE
360
26
  3
REFRACTIONTILE
360
28
  3
SPECULARTILE
360
25
  0
DICTIONARY
  5
328
330
65
100
AcDbDictionary
280
     1
281
     1
  3
ACAD_ROUNDTRIP_2008_TABLESTYLE_CELLSTYLEMAP
360
329
  0
XRECORD
  5
1C
102
{ACAD_REACTORS
330
1A
102
}
330
1A
100
AcDbXrecord
280
     1
270
     1
271
     1
  0
XRECORD
  5
1B
102
{ACAD_REACTORS
330
1A
102
}
330
1A
100
AcDbXrecord
280
     1
270
     1
271
     1
  0
XRECORD
  5
1F
102
{ACAD_REACTORS
330
1A
102
}
330
1A
100
AcDbXrecord
280
     1
270
     1
271
     1
  0
XRECORD
  5
1E
102
{ACAD_REACTORS
330
1A
102
}
330
1A
100
AcDbXrecord
280
     1
270
     1
271
     1
  0
XRECORD
  5
20
102
{ACAD_REACTORS
330
1A
102
}
330
1A
100
AcDbXrecord
280
     1
270
     1
271
     1
  0
XRECORD
  5
1D
102
{ACAD_REACTORS
330
1A
102
}
330
1A
100
AcDbXrecord
280
     1
270
     1
271
     1
  0
XRECORD
  5
14
102
{ACAD_REACTORS
330
12
102
}
330
12
100
AcDbXrecord
280
     1
270
     1
271
     1
  0
XRECORD
  5
13
102
{ACAD_REACTORS
330
12
102
}
330
12
100
AcDbXrecord
280
     1
270
     1
271
     1
  0
XRECORD
  5
17
102
{ACAD_REACTORS
330
12
102
}
330
12
100
AcDbXrecord
280
     1
270
     1
271
     1
  0
XRECORD
  5
16
102
{ACAD_REACTORS
330
12
102
}
330
12
100
AcDbXrecord
280
     1
270
     1
271
     1
  0
XRECORD
  5
18
102
{ACAD_REACTORS
330
12
102
}
330
12
100
AcDbXrecord
280
     1
270
     1
271
     1
  0
XRECORD
  5
15
102
{ACAD_REACTORS
330
12
102
}
330
12
100
AcDbXrecord
280
     1
270
     1
271
     1
  0
XRECORD
  5
24
102
{ACAD_REACTORS
330
22
102
}
330
22
100
AcDbXrecord
280
     1
270
     1
271
     1
  0
XRECORD
  5
23
102
{ACAD_REACTORS
330
22
102
}
330
22
100
AcDbXrecord
280
     1
270
     1
271
     1
  0
XRECORD
  5
27
102
{ACAD_REACTORS
330
22
102
}
330
22
100
AcDbXrecord
280
     1
270
     1
271
     1
  0
XRECORD
  5
26
102
{ACAD_REACTORS
330
22
102
}
330
22
100
AcDbXrecord
280
     1
270
     1
271
     1
  0
XRECORD
  5
28
102
{ACAD_REACTORS
330
22
102
}
330
22
100
AcDbXrecord
280
     1
270
     1
271
     1
  0
XRECORD
  5
25
102
{ACAD_REACTORS
330
22
102
}
330
22
100
AcDbXrecord
280
     1
270
     1
271
     1
  0
CELLSTYLEMAP
  5
329
102
{ACAD_REACTORS
330
328
102
}
330
328
100
AcDbCellStyleMap
 90
        3
300
CELLSTYLE
  1
TABLEFORMAT_BEGIN
 90
        5
170
     1
 91
        0
 92
    32768
 62
   257
 93
        1
300
CONTENTFORMAT
  1
CONTENTFORMAT_BEGIN
 90
        0
 91
        0
 92
      512
 93
        0
300

 40
0.0
140
1.0
 94
        5
 62
     0
340
55
144
0.25
309
CONTENTFORMAT_END
171
     0
 94
        0
309
TABLEFORMAT_END
  1
CELLSTYLE_BEGIN
 90
        1
 91
        1
300
_TITLE
309
CELLSTYLE_END
300
CELLSTYLE
  1
TABLEFORMAT_BEGIN
 90
        5
170
     1
 91
        0
 92
        0
 62
   257
 93
        1
300
CONTENTFORMAT
  1
CONTENTFORMAT_BEGIN
 90
        0
 91
        0
 92
      512
 93
        0
300

 40
0.0
140
1.0
 94
        5
 62
     0
340
55
144
0.18
309
CONTENTFORMAT_END
171
     0
 94
        0
309
TABLEFORMAT_END
  1
CELLSTYLE_BEGIN
 90
        2
 91
        1
300
_HEADER
309
CELLSTYLE_END
300
CELLSTYLE
  1
TABLEFORMAT_BEGIN
 90
        5
170
     1
 91
        0
 92
        0
 62
   257
 93
        1
300
CONTENTFORMAT
  1
CONTENTFORMAT_BEGIN
 90
        0
 91
        0
 92
      512
 93
        0
300

 40
0.0
140
1.0
 94
        2
 62
     0
340
55
144
0.18
309
CONTENTFORMAT_END
171
     0
 94
        0
309
TABLEFORMAT_END
  1
CELLSTYLE_BEGIN
 90
        3
 91
        2
300
_DATA
309
CELLSTYLE_END
  0
ENDSEC
  0
EOF
