  0
SECTION
  2
HEADER
  9
$ACADVER
  1
AC1032
  9
$ACADMAINTVER
 90
      155
  9
$DWGCODEPAGE
  3
ANSI_1252
  9
$REQUIREDVERSIONS
160
                 0
  9
$INSBASE
 10
0.0
 20
0.0
 30
0.0
  9
$EXTMIN
 10
1.000000000000000E+20
 20
1.000000000000000E+20
 30
1.000000000000000E+20
  9
$EXTMAX
 10
-1.000000000000000E+20
 20
-1.000000000000000E+20
 30
-1.000000000000000E+20
  9
$LIMMIN
 10
0.0
 20
0.0
  9
$LIMMAX
 10
12.0
 20
9.0
  9
$ORTHOMODE
 70
     0
  9
$REGENMODE
 70
     1
  9
$FILLMODE
 70
     1
  9
$QTEXTMODE
 70
     0
  9
$MIRRTEXT
 70
     0
  9
$LTSCALE
 40
1.0
  9
$ATTMODE
 70
     1
  9
$TEXTSIZE
 40
0.2
  9
$TRACEWID
 40
0.05
  9
$TEXTSTYLE
  7
Standard
  9
$CLAYER
  8
0
  9
$CELTYPE
  6
ByLayer
  9
$CECOLOR
 62
   256
  9
$CELTSCALE
 40
1.0
  9
$DISPSILH
 70
     0
  9
$DIMSCALE
 40
1.0
  9
$DIMASZ
 40
0.18
  9
$DIMEXO
 40
0.0625
  9
$DIMDLI
 40
0.38
  9
$DIMRND
 40
0.0
  9
$DIMDLE
 40
0.0
  9
$DIMEXE
 40
0.18
  9
$DIMTP
 40
0.0
  9
$DIMTM
 40
0.0
  9
$DIMTXT
 40
0.18
  9
$DIMCEN
 40
0.09
  9
$DIMTSZ
 40
0.0
  9
$DIMTOL
 70
     0
  9
$DIMLIM
 70
     0
  9
$DIMTIH
 70
     1
  9
$DIMTOH
 70
     1
  9
$DIMSE1
 70
     0
  9
$DIMSE2
 70
     0
  9
$DIMTAD
 70
     0
  9
$DIMZIN
 70
     0
  9
$DIMBLK
  1

  9
$DIMASO
 70
     1
  9
$DIMSHO
 70
     1
  9
$DIMPOST
  1

  9
$DIMAPOST
  1

  9
$DIMALT
 70
     0
  9
$DIMALTD
 70
     2
  9
$DIMALTF
 40
25.4
  9
$DIMLFAC
 40
1.0
  9
$DIMTOFL
 70
     0
  9
$DIMTVP
 40
0.0
  9
$DIMTIX
 70
     0
  9
$DIMSOXD
 70
     0
  9
$DIMSAH
 70
     0
  9
$DIMBLK1
  1

  9
$DIMBLK2
  1

  9
$DIMSTYLE
  2
Standard
  9
$DIMCLRD
 70
     0
  9
$DIMCLRE
 70
     0
  9
$DIMCLRT
 70
     0
  9
$DIMTFAC
 40
1.0
  9
$DIMGAP
 40
0.09
  9
$DIMJUST
 70
     0
  9
$DIMSD1
 70
     0
  9
$DIMSD2
 70
     0
  9
$DIMTOLJ
 70
     1
  9
$DIMTZIN
 70
     0
  9
$DIMALTZ
 70
     0
  9
$DIMALTTZ
 70
     0
  9
$DIMUPT
 70
     0
  9
$DIMDEC
 70
     4
  9
$DIMTDEC
 70
     4
  9
$DIMALTU
 70
     2
  9
$DIMALTTD
 70
     2
  9
$DIMTXSTY
  7
Standard
  9
$DIMAUNIT
 70
     0
  9
$DIMADEC
 70
     0
  9
$DIMALTRND
 40
0.0
  9
$DIMAZIN
 70
     0
  9
$DIMDSEP
 70
    46
  9
$DIMATFIT
 70
     3
  9
$DIMFRAC
 70
     0
  9
$DIMLDRBLK
  1

  9
$DIMLUNIT
 70
     2
  9
$DIMLWD
 70
    -2
  9
$DIMLWE
 70
    -2
  9
$DIMTMOVE
 70
     0
  9
$DIMFXL
 40
1.0
  9
$DIMFXLON
 70
     0
  9
$DIMJOGANG
 40
0.7853981633974483
  9
$DIMTFILL
 70
     0
  9
$DIMTFILLCLR
 70
     0
  9
$DIMARCSYM
 70
     0
  9
$DIMLTYPE
  6

  9
$DIMLTEX1
  6

  9
$DIMLTEX2
  6

  9
$DIMTXTDIRECTION
 70
     0
  9
$LUNITS
 70
     2
  9
$LUPREC
 70
     4
  9
$SKETCHINC
 40
0.1
  9
$FILLETRAD
 40
0.0
  9
$AUNITS
 70
     0
  9
$AUPREC
 70
     0
  9
$MENU
  1
.
  9
$ELEVATION
 40
0.0
  9
$PELEVATION
 40
0.0
  9
$THICKNESS
 40
0.0
  9
$LIMCHECK
 70
     0
  9
$CHAMFERA
 40
0.0
  9
$CHAMFERB
 40
0.0
  9
$CHAMFERC
 40
0.0
  9
$CHAMFERD
 40
0.0
  9
$SKPOLY
 70
     0
  9
$TDCREATE
 40
2460336.398576389
  9
$TDUCREATE
 40
2460336.356909722
  9
$TDUPDATE
 40
2460336.398576389
  9
$TDUUPDATE
 40
2460336.356909722
  9
$TDINDWG
 40
0.0000000000
  9
$TDUSRTIMER
 40
0.0000000000
  9
$USRTIMER
 70
     1
  9
$ANGBASE
 50
0.0
  9
$ANGDIR
 70
     0
  9
$PDMODE
 70
     0
  9
$PDSIZE
 40
0.0
  9
$PLINEWID
 40
0.0
  9
$SPLFRAME
 70
     0
  9
$SPLINETYPE
 70
     6
  9
$SPLINESEGS
 70
     8
  9
$HANDSEED
  5
215
  9
$SURFTAB1
 70
     6
  9
$SURFTAB2
 70
     6
  9
$SURFTYPE
 70
     6
  9
$SURFU
 70
     6
  9
$SURFV
 70
     6
  9
$UCSBASE
  2

  9
$UCSNAME
  2

  9
$UCSORG
 10
0.0
 20
0.0
 30
0.0
  9
$UCSXDIR
 10
1.0
 20
0.0
 30
0.0
  9
$UCSYDIR
 10
0.0
 20
1.0
 30
0.0
  9
$UCSORTHOREF
  2

  9
$UCSORTHOVIEW
 70
     0
  9
$UCSORGTOP
 10
0.0
 20
0.0
 30
0.0
  9
$UCSORGBOTTOM
 10
0.0
 20
0.0
 30
0.0
  9
$UCSORGLEFT
 10
0.0
 20
0.0
 30
0.0
  9
$UCSORGRIGHT
 10
0.0
 20
0.0
 30
0.0
  9
$UCSORGFRONT
 10
0.0
 20
0.0
 30
0.0
  9
$UCSORGBACK
 10
0.0
 20
0.0
 30
0.0
  9
$PUCSBASE
  2

  9
$PUCSNAME
  2

  9
$PUCSORG
 10
0.0
 20
0.0
 30
0.0
  9
$PUCSXDIR
 10
1.0
 20
0.0
 30
0.0
  9
$PUCSYDIR
 10
0.0
 20
1.0
 30
0.0
  9
$PUCSORTHOREF
  2

  9
$PUCSORTHOVIEW
 70
     0
  9
$PUCSORGTOP
 10
0.0
 20
0.0
 30
0.0
  9
$PUCSORGBOTTOM
 10
0.0
 20
0.0
 30
0.0
  9
$PUCSORGLEFT
 10
0.0
 20
0.0
 30
0.0
  9
$PUCSORGRIGHT
 10
0.0
 20
0.0
 30
0.0
  9
$PUCSORGFRONT
 10
0.0
 20
0.0
 30
0.0
  9
$PUCSORGBACK
 10
0.0
 20
0.0
 30
0.0
  9
$USERI1
 70
     0
  9
$USERI2
 70
     0
  9
$USERI3
 70
     0
  9
$USERI4
 70
     0
  9
$USERI5
 70
     0
  9
$USERR1
 40
0.0
  9
$USERR2
 40
0.0
  9
$USERR3
 40
0.0
  9
$USERR4
 40
0.0
  9
$USERR5
 40
0.0
  9
$WORLDVIEW
 70
     1
  9
$SHADEDGE
 70
     3
  9
$SHADEDIF
 70
    70
  9
$TILEMODE
 70
     1
  9
$MAXACTVP
 70
    64
  9
$PINSBASE
 10
0.0
 20
0.0
 30
0.0
  9
$PLIMCHECK
 70
     0
  9
$PEXTMIN
 10
1.000000000000000E+20
 20
1.000000000000000E+20
 30
1.000000000000000E+20
  9
$PEXTMAX
 10
-1.000000000000000E+20
 20
-1.000000000000000E+20
 30
-1.000000000000000E+20
  9
$PLIMMIN
 10
0.0
 20
0.0
  9
$PLIMMAX
 10
12.0
 20
9.0
  9
$UNITMODE
 70
     0
  9
$VISRETAIN
 70
     1
  9
$PLINEGEN
 70
     0
  9
$PSLTSCALE
 70
     1
  9
$TREEDEPTH
 70
  3020
  9
$CMLSTYLE
  2
Standard
  9
$CMLJUST
 70
     0
  9
$CMLSCALE
 40
1.0
  9
$PROXYGRAPHICS
 70
     1
  9
$MEASUREMENT
 70
     0
  9
$CELWEIGHT
370
    -1
  9
$ENDCAPS
280
     0
  9
$JOINSTYLE
280
     0
  9
$LWDISPLAY
290
     1
  9
$INSUNITS
 70
     4
  9
$HYPERLINKBASE
  1

  9
$STYLESHEET
  1

  9
$XEDIT
290
     1
  9
$CEPSNTYPE
380
     0
  9
$PSTYLEMODE
290
     1
  9
$FINGERPRINTGUID
  2
{86BC9E9F-201E-3C4D-8BBE-D50FAFFBC3BE}
  9
$VERSIONGUID
  2
{5E31FC8A-079C-8F46-B3F5-8EEC4A101FF7}
  9
$EXTNAMES
290
     1
  9
$PSVPSCALE
 40
0.0
  9
$OLESTARTUP
290
     0
  9
$SORTENTS
280
   127
  9
$INDEXCTL
280
     0
  9
$HIDETEXT
280
     1
  9
$XCLIPFRAME
280
     2
  9
$HALOGAP
280
     0
  9
$OBSCOLOR
 70
   257
  9
$OBSLTYPE
280
     0
  9
$INTERSECTIONDISPLAY
280
     0
  9
$INTERSECTIONCOLOR
 70
   257
  9
$DIMASSOC
280
     2
  9
$PROJECTNAME
  1

  9
$CAMERADISPLAY
290
     0
  9
$LENSLENGTH
 40
50.0
  9
$CAMERAHEIGHT
 40
0.0
  9
$STEPSPERSEC
 40
2.0
  9
$STEPSIZE
 40
6.0
  9
$3DDWFPREC
 40
2.0
  9
$PSOLWIDTH
 40
0.25
  9
$PSOLHEIGHT
 40
4.0
  9
$LOFTANG1
 40
1.570796326794896
  9
$LOFTANG2
 40
1.570796326794896
  9
$LOFTMAG1
 40
0.0
  9
$LOFTMAG2
 40
0.0
  9
$LOFTPARAM
 70
     7
  9
$LOFTNORMALS
280
     1
  9
$LATITUDE
 40
37.795
  9
$LONGITUDE
 40
-122.394
  9
$NORTHDIRECTION
 40
0.0
  9
$TIMEZONE
 70
 -8000
  9
$LIGHTGLYPHDISPLAY
280
     1
  9
$TILEMODELIGHTSYNCH
280
     1
  9
$CMATERIAL
347
11
  9
$SOLIDHIST
280
     0
  9
$SHOWHIST
280
     1
  9
$DWFFRAME
280
     2
  9
$DGNFRAME
280
     0
  9
$REALWORLDSCALE
290
     1
  9
$INTERFERECOLOR
 62
     1
  9
$INTERFEREOBJVS
345
33
  9
$INTERFEREVPVS
346
30
  9
$CSHADOW
280
     0
  9
$SHADOWPLANELOCATION
 40
0.0
  0
ENDSEC
  0
SECTION
  2
CLASSES
  0
CLASS
  1
ACDBDICTIONARYWDFLT
  2
AcDbDictionaryWithDefault
  3
ObjectDBX Classes
 90
        0
 91
        1
280
     0
281
     0
  0
CLASS
  1
MATERIAL
  2
AcDbMaterial
  3
ObjectDBX Classes
 90
     1153
 91
        3
280
     0
281
     0
  0
CLASS
  1
VISUALSTYLE
  2
AcDbVisualStyle
  3
ObjectDBX Classes
 90
     4095
 91
       24
280
     0
281
     0
  0
CLASS
  1
SCALE
  2
AcDbScale
  3
ObjectDBX Classes
 90
     1153
 91
       17
280
     0
281
     0
  0
CLASS
  1
TABLESTYLE
  2
AcDbTableStyle
  3
ObjectDBX Classes
 90
     4095
 91
        1
280
     0
281
     0
  0
CLASS
  1
MLEADERSTYLE
  2
AcDbMLeaderStyle
  3
ACDB_MLEADERSTYLE_CLASS
 90
     4095
 91
        1
280
     0
281
     0
  0
CLASS
  1
ACDBSECTIONVIEWSTYLE
  2
AcDbSectionViewStyle
  3
ObjectDBX Classes
 90
     1025
 91
        1
280
     0
281
     0
  0
CLASS
  1
ACDBDETAILVIEWSTYLE
  2
AcDbDetailViewStyle
  3
ObjectDBX Classes
 90
     1025
 91
        1
280
     0
281
     0
  0
CLASS
  1
DICTIONARYVAR
  2
AcDbDictionaryVar
  3
ObjectDBX Classes
 90
        0
 91
        5
280
     0
281
     0
  0
CLASS
  1
CELLSTYLEMAP
  2
AcDbCellStyleMap
  3
ObjectDBX Classes
 90
     1152
 91
        1
280
     0
281
     0
  0
ENDSEC
  0
SECTION
  2
TABLES
  0
TABLE
  2
VPORT
  5
8
330
0
100
AcDbSymbolTable
 70
     1
  0
VPORT
  5
57
330
8
100
AcDbSymbolTableRecord
100
AcDbViewportTableRecord
  2
*Active
 70
     0
 10
0.0
 20
0.0
 11
1.0
 21
1.0
 12
0.0
 22
0.0
 13
0.0
 23
0.0
 14
1.0
 24
1.0
 15
0.0
 25
0.0
 16
0.0
 26
0.0
 36
1.0
 17
171.0681411772707
 27
148.5000011496697
 37
0.0
 40
302.9400023453262
 41
1.859044727142896
 42
50.0
 43
0.0
 44
0.0
 50
0.0
 51
0.0
 71
     0
 72
   100
 73
     1
 74
     0
 75
     1
 76
     0
 77
     0
 78
     0
281
     0
 65
     1
110
0.0
120
0.0
130
0.0
111
1.0
121
0.0
131
0.0
112
0.0
122
1.0
132
0.0
 79
     0
146
0.0
 60
     3
 61
     5
292
     1
282
     1
141
0.0
142
0.0
 63
   250
421
  3355443
  0
ENDTAB
  0
TABLE
  2
LTYPE
  5
5
330
0
100
AcDbSymbolTable
 70
     1
  0
LTYPE
  5
5B
330
5
100
AcDbSymbolTableRecord
100
AcDbLinetypeTableRecord
  2
ByBlock
 70
     0
  3

 72
    65
 73
     0
 40
0.0
  0
LTYPE
  5
5C
330
5
100
AcDbSymbolTableRecord
100
AcDbLinetypeTableRecord
  2
ByLayer
 70
     0
  3

 72
    65
 73
     0
 40
0.0
  0
LTYPE
  5
5D
330
5
100
AcDbSymbolTableRecord
100
AcDbLinetypeTableRecord
  2
Continuous
 70
     0
  3
Solid line
 72
    65
 73
     0
 40
0.0
  0
ENDTAB
  0
TABLE
  2
LAYER
  5
2
330
0
100
AcDbSymbolTable
 70
     2
  0
LAYER
  5
54
330
2
100
AcDbSymbolTableRecord
100
AcDbLayerTableRecord
  2
0
 70
     0
 62
     7
  6
Continuous
370
    -3
390
F
347
21
348
0
  0
LAYER
  5
78
330
2
100
AcDbSymbolTableRecord
100
AcDbLayerTableRecord
  2
Livello 1
 70
     0
 62
     7
  6
Continuous
370
     0
390
F
347
21
348
0
  0
ENDTAB
  0
TABLE
  2
STYLE
  5
3
330
0
100
AcDbSymbolTable
 70
     2
  0
STYLE
  5
55
330
3
100
AcDbSymbolTableRecord
100
AcDbTextStyleTableRecord
  2
Standard
 70
     0
 40
0.0
 41
1.0
 50
0.0
 71
     0
 42
0.2
  3
txt
  4

  0
STYLE
  5
5A
330
3
100
AcDbSymbolTableRecord
100
AcDbTextStyleTableRecord
  2
Annotative
 70
     0
 40
0.0
 41
1.0
 50
0.0
 71
     0
 42
0.2
  3
txt
  4

1001
AcadAnnotative
1000
AnnotativeData
1002
{
1070
     1
1070
     1
1002
}
  0
ENDTAB
  0
TABLE
  2
VIEW
  5
6
330
0
100
AcDbSymbolTable
 70
     0
  0
ENDTAB
  0
TABLE
  2
UCS
  5
7
330
0
100
AcDbSymbolTable
 70
     0
  0
ENDTAB
  0
TABLE
  2
APPID
  5
9
330
0
100
AcDbSymbolTable
 70
     2
  0
APPID
  5
56
330
9
100
AcDbSymbolTableRecord
100
AcDbRegAppTableRecord
  2
ACAD
 70
     0
  0
APPID
  5
5E
330
9
100
AcDbSymbolTableRecord
100
AcDbRegAppTableRecord
  2
AcadAnnotative
 70
     0
  0
ENDTAB
  0
TABLE
  2
DIMSTYLE
  5
A
330
0
100
AcDbSymbolTable
 70
     2
100
AcDbDimStyleTable
 71
     0
  0
DIMSTYLE
105
58
330
A
100
AcDbSymbolTableRecord
100
AcDbDimStyleTableRecord
  2
Standard
 70
     0
340
55
  0
DIMSTYLE
105
59
330
A
100
AcDbSymbolTableRecord
100
AcDbDimStyleTableRecord
  2
Annotative
 70
     0
340
55
1001
AcadAnnotative
1000
AnnotativeData
1002
{
1070
     1
1070
     1
1002
}
  0
ENDTAB
  0
TABLE
  2
BLOCK_RECORD
  5
1
330
0
100
AcDbSymbolTable
 70
     1
  0
BLOCK_RECORD
  5
70
330
1
100
AcDbSymbolTableRecord
100
AcDbBlockTableRecord
  2
*Model_Space
340
73
 70
     0
280
     1
281
     0
  0
BLOCK_RECORD
  5
6C
330
1
100
AcDbSymbolTableRecord
100
AcDbBlockTableRecord
  2
*Paper_Space
340
6F
 70
     0
280
     1
281
     0
  0
BLOCK_RECORD
  5
74
330
1
100
AcDbSymbolTableRecord
100
AcDbBlockTableRecord
  2
*Paper_Space0
340
77
 70
     0
280
     1
281
     0
  0
ENDTAB
  0
ENDSEC
  0
SECTION
  2
BLOCKS
  0
BLOCK
  5
71
330
70
100
AcDbEntity
  8
0
100
AcDbBlockBegin
  2
*Model_Space
 70
     0
 10
0.0
 20
0.0
 30
0.0
  3
*Model_Space
  1

  0
ENDBLK
  5
72
330
70
100
AcDbEntity
  8
0
100
AcDbBlockEnd
  0
BLOCK
  5
6D
330
6C
100
AcDbEntity
 67
     1
  8
0
100
AcDbBlockBegin
  2
*Paper_Space
 70
     0
 10
0.0
 20
0.0
 30
0.0
  3
*Paper_Space
  1

  0
ENDBLK
  5
6E
330
6C
100
AcDbEntity
 67
     1
  8
0
100
AcDbBlockEnd
  0
BLOCK
  5
75
330
74
100
AcDbEntity
 67
     1
  8
0
100
AcDbBlockBegin
  2
*Paper_Space0
 70
     0
 10
0.0
 20
0.0
 30
0.0
  3
*Paper_Space0
  1

  0
ENDBLK
  5
76
330
74
100
AcDbEntity
 67
     1
  8
0
100
AcDbBlockEnd
  0
ENDSEC
  0
SECTION
  2
ENTITIES
  0
LWPOLYLINE
  5
79
330
70
100
AcDbEntity
  8
Livello 1
 62
   250
420
  1907995
370
    25
100
AcDbPolyline
 90
       20
 70
     1
 43
0.0
 10
31.57853891983714
 20
205.9882434070722
 10
31.49387569828713
 20
206.5385758789941
 10
31.23987526771369
 20
207.046576740141
 10
30.85886923889184
 20
207.427561237116
 10
30.35086837774497
 20
207.6815724336129
 10
29.8428675165981
 20
207.7662356551629
 10
29.29253504467622
 20
207.6815724336129
 10
28.78453418352935
 20
207.427561237116
 10
28.40353892063089
 20
207.046576740141
 10
28.14953849005746
 20
206.5385758789941
 10
28.06487526850744
 20
205.9882434070722
 10
28.14953849005746
 20
205.4379109351504
 10
28.40353892063089
 20
204.9722416847785
 10
28.78453418352935
 20
204.5912356559566
 10
29.29253504467622
 20
204.3372352253832
 10
29.8428675165981
 20
204.2525720038332
 10
30.35086837774497
 20
204.3372352253832
 10
30.85886923889184
 20
204.5912356559566
 10
31.23987526771369
 20
204.9722416847785
 10
31.49387569828713
 20
205.4379109351504
  0
LWPOLYLINE
  5
7A
330
70
100
AcDbEntity
  8
Livello 1
 62
   250
420
  1907995
370
    25
100
AcDbPolyline
 90
       20
 70
     1
 43
0.0
 10
31.57853891983714
 20
191.3832347979847
 10
31.49387569828713
 20
191.93357803583
 10
31.23987526771369
 20
192.4415681310535
 10
30.85886923889184
 20
192.8225741598753
 10
30.35086837774497
 20
193.0765745904488
 10
29.8428675165981
 20
193.1612378119988
 10
29.29253504467622
 20
193.0765745904488
 10
28.78453418352935
 20
192.8225741598753
 10
28.40353892063089
 20
192.4415681310535
 10
28.14953849005746
 20
191.93357803583
 10
28.06487526850744
 20
191.3832347979847
 10
28.14953849005746
 20
190.8329023260629
 10
28.40353892063089
 20
190.3672438416144
 10
28.78453418352935
 20
189.9862378127926
 10
29.29253504467622
 20
189.7322373822191
 10
29.8428675165981
 20
189.6475741606691
 10
30.35086837774497
 20
189.7322373822191
 10
30.85886923889184
 20
189.9862378127926
 10
31.23987526771369
 20
190.3672438416144
 10
31.49387569828713
 20
190.8329023260629
  0
LWPOLYLINE
  5
7B
330
70
100
AcDbEntity
  8
Livello 1
 62
   250
420
  1907995
370
    25
100
AcDbPolyline
 90
       20
 70
     1
 43
0.0
 10
52.32186794161528
 20
189.4782369516457
 10
52.23720472006527
 20
189.9862378127926
 10
52.02553590026684
 20
190.4942386739394
 10
51.60220902659338
 20
190.8752447027613
 10
51.13653977622151
 20
191.1292451333347
 10
50.58620730429963
 20
191.2139083548847
 10
50.03587483237776
 20
191.1292451333347
 10
49.52787397123088
 20
190.8752447027613
 10
49.14686794240903
 20
190.4942386739394
 10
48.8928675118356
 20
189.9862378127926
 10
48.80820429028559
 20
189.4782369516457
 10
48.8928675118356
 20
188.9279044797238
 10
49.14686794240903
 20
188.4199036185769
 10
49.52787397123088
 20
188.0389083556785
 10
50.03587483237776
 20
187.784907925105
 10
50.58620730429963
 20
187.700244703555
 10
51.13653977622151
 20
187.784907925105
 10
51.60220902659338
 20
188.0389083556785
 10
52.02553590026684
 20
188.4199036185769
 10
52.23720472006527
 20
188.9279044797238
  0
LWPOLYLINE
  5
7C
330
70
100
AcDbEntity
  8
Livello 1
 62
   250
420
  1907995
370
    25
100
AcDbPolyline
 90
       20
 70
     1
 43
0.0
 10
53.97287612330431
 20
177.2015745944175
 10
53.88820213583091
 20
177.7519070663394
 10
53.63420170525746
 20
178.2175763167113
 10
53.25320644235901
 20
178.5985715796097
 10
52.74520558121214
 20
178.8525720101832
 10
52.19487310929026
 20
178.9372352317332
 10
51.68687224814339
 20
178.8525720101832
 10
51.17887138699652
 20
178.5985715796097
 10
50.79787612409806
 20
178.2175763167113
 10
50.54387569352463
 20
177.7519070663394
 10
50.45920170605121
 20
177.2015745944175
 10
50.54387569352463
 20
176.6512421224957
 10
50.79787612409806
 20
176.1432412613488
 10
51.17887138699652
 20
175.7622352325269
 10
51.68687224814339
 20
175.5082455678769
 10
52.19487310929026
 20
175.4235715804035
 10
52.74520558121214
 20
175.5082455678769
 10
53.25320644235901
 20
175.7622352325269
 10
53.63420170525746
 20
176.1432412613488
 10
53.88820213583091
 20
176.6512421224957
  0
LWPOLYLINE
  5
7D
330
70
100
AcDbEntity
  8
Livello 1
 62
   250
420
  1907995
370
    25
100
AcDbPolyline
 90
       24
 70
     1
 43
0.0
 10
61.50820428711059
 20
203.1942386707644
 10
61.42354106556057
 20
203.8292451301597
 10
61.16954063498713
 20
204.4219092128566
 10
60.74620299539027
 20
204.9299100740035
 10
60.23820213424341
 20
205.3109053369019
 10
59.64553805154652
 20
205.5649057674754
 10
59.01054235807463
 20
205.6495689890254
 10
58.37553589867934
 20
205.5649057674754
 10
57.78287181598245
 20
205.3109053369019
 10
57.27487095483558
 20
204.9299100740035
 10
56.89387569193712
 20
204.4219092128566
 10
56.63987526136369
 20
203.8292451301597
 10
56.55520127389028
 20
203.1942386707644
 10
56.63987526136369
 20
202.5592429772925
 10
56.89387569193712
 20
201.9665681286723
 10
57.27487095483558
 20
201.4585780334488
 10
57.78287181598245
 20
201.0352403938519
 10
58.37553589867934
 20
200.7812399632785
 10
59.01054235807463
 20
200.7389083525035
 10
59.64553805154652
 20
200.7812399632785
 10
60.23820213424341
 20
201.0352403938519
 10
60.74620299539027
 20
201.4585780334488
 10
61.16954063498713
 20
201.9665681286723
 10
61.42354106556057
 20
202.5592429772925
  0
LWPOLYLINE
  5
7E
330
70
100
AcDbEntity
  8
Livello 1
 62
   250
420
  1907995
370
    25
100
AcDbPolyline
 90
       20
 70
     1
 43
0.0
 10
75.90153331047623
 20
129.1955793434253
 10
75.81687008892621
 20
129.7459118153472
 10
75.56286965835278
 20
130.2539126764941
 10
75.18187439545432
 20
130.6348971734691
 10
74.71620514508245
 20
130.888908369966
 10
74.16587267316057
 20
130.973571591516
 10
73.6155402012387
 20
130.888908369966
 10
73.10753934009183
 20
130.6348971734691
 10
72.72653331126997
 20
130.2539126764941
 10
72.47253288069654
 20
129.7459118153472
 10
72.38786965914653
 20
129.1955793434253
 10
72.47253288069654
 20
128.6452468715034
 10
72.72653331126997
 20
128.1795776211316
 10
73.10753934009183
 20
127.7985715923097
 10
73.6155402012387
 20
127.5445603958129
 10
74.16587267316057
 20
127.4598971742629
 10
74.71620514508245
 20
127.5445603958129
 10
75.18187439545432
 20
127.7985715923097
 10
75.56286965835278
 20
128.1795776211316
 10
75.81687008892621
 20
128.6452468715034
  0
LWPOLYLINE
  5
7F
330
70
100
AcDbEntity
  8
Livello 1
 62
   250
420
  1907995
370
    25
100
AcDbPolyline
 90
       20
 70
     1
 43
0.0
 10
63.28620730112463
 20
136.5192279215098
 10
63.20153331365123
 20
137.0695603934317
 10
62.94753288307779
 20
137.5352296438035
 10
62.52420600940433
 20
137.9162356726254
 10
62.05853675903246
 20
138.1702253372754
 10
61.50820428711059
 20
138.2549100906722
 10
60.9578718151887
 20
138.1702253372754
 10
60.49220256481684
 20
137.9162356726254
 10
60.06887569114337
 20
137.5352296438035
 10
59.81487526056994
 20
137.0695603934317
 10
59.73020127309653
 20
136.5192279215098
 10
59.81487526056994
 20
135.9688954495879
 10
60.06887569114337
 20
135.460894588441
 10
60.49220256481684
 20
135.079910091466
 10
60.9578718151887
 20
134.8258988949691
 10
61.50820428711059
 20
134.7412356734191
 10
62.05853675903246
 20
134.8258988949691
 10
62.52420600940433
 20
135.079910091466
 10
62.94753288307779
 20
135.460894588441
 10
63.20153331365123
 20
135.9688954495879
  0
LWPOLYLINE
  5
80
330
70
100
AcDbEntity
  8
Livello 1
 62
   250
420
  1907995
370
    25
100
AcDbPolyline
 90
       20
 70
     1
 43
0.0
 10
50.24754365217618
 20
120.1362270643317
 10
50.16286966470278
 20
120.6865595362535
 10
49.90886923412934
 20
121.1945603974004
 10
49.48554236045588
 20
121.5755664262223
 10
49.01987311008401
 20
121.8295776227191
 10
48.46954063816213
 20
121.9142408442691
 10
47.91920816624025
 20
121.8295776227191
 10
47.45353891586839
 20
121.5755664262223
 10
47.03020127627153
 20
121.1945603974004
 10
46.8185432223965
 20
120.6865595362535
 10
46.69153762414808
 20
120.1362270643317
 10
46.8185432223965
 20
119.5858945924098
 10
47.03020127627153
 20
119.1202468738847
 10
47.45353891586839
 20
118.7392408450628
 10
47.91920816624025
 20
118.485229648566
 10
48.46954063816213
 20
118.400566427016
 10
49.01987311008401
 20
118.485229648566
 10
49.48554236045588
 20
118.7392408450628
 10
49.90886923412934
 20
119.1202468738847
 10
50.16286966470278
 20
119.5858945924098
  0
LWPOLYLINE
  5
81
330
70
100
AcDbEntity
  8
Livello 1
 62
   250
420
  1907995
370
    25
100
AcDbPolyline
 90
       20
 70
     1
 43
0.0
 10
53.97287612330431
 20
132.4129109534066
 10
53.88820213583091
 20
132.9632434253285
 10
53.63420170525746
 20
133.4289126757003
 10
53.25320644235901
 20
133.8522287834504
 10
52.74520558121214
 20
134.1062399799472
 10
52.19487310929026
 20
134.1909032014972
 10
51.68687224814339
 20
134.1062399799472
 10
51.17887138699652
 20
133.8522287834504
 10
50.79787612409806
 20
133.4289126757003
 10
50.54387569352463
 20
132.9632434253285
 10
50.45920170605121
 20
132.4129109534066
 10
50.54387569352463
 20
131.8625784814847
 10
50.79787612409806
 20
131.3969092311128
 10
51.17887138699652
 20
130.973571591516
 10
51.68687224814339
 20
130.7618920057942
 10
52.19487310929026
 20
130.6348971734691
 10
52.74520558121214
 20
130.7618920057942
 10
53.25320644235901
 20
130.973571591516
 10
53.63420170525746
 20
131.3969092311128
 10
53.88820213583091
 20
131.8625784814847
  0
LWPOLYLINE
  5
82
330
70
100
AcDbEntity
  8
Livello 1
 62
   250
420
  1907995
370
    25
100
AcDbPolyline
 90
       56
 70
     1
 43
0.0
 10
43.17787397281838
 20
154.8072373909503
 10
43.09319998534498
 20
156.288908363616
 10
42.83921032069493
 20
157.7705793362816
 10
42.45820429187308
 20
159.2099079322488
 10
41.86554020917619
 20
160.606904917441
 10
41.1458705282309
 20
161.9192386810832
 10
40.25687440418557
 20
163.1469092231753
 10
39.28320429266683
 20
164.2475741670191
 10
38.14020773804807
 20
165.2635758893129
 10
36.95486880673091
 20
166.1102404025831
 10
35.64253504308872
 20
166.8299100835285
 10
34.24553805789652
 20
167.4225741662253
 10
32.80620946192931
 20
167.8459118058222
 10
31.32453848926371
 20
168.0999122363956
 10
29.8428675165981
 20
168.1845754579456
 10
28.31887569908088
 20
168.0999122363956
 10
26.83720472641527
 20
167.8459118058222
 10
25.39787613044806
 20
167.4225741662253
 10
24.04321075603087
 20
166.8299100835285
 10
22.73087699238868
 20
166.1102404025831
 10
21.50320645029651
 20
165.2635758893129
 10
20.36020989567775
 20
164.2475741670191
 10
19.38653978415901
 20
163.1469092231753
 10
18.49754366011368
 20
161.9192386810832
 10
17.77787397916838
 20
160.606904917441
 10
17.2275415072465
 20
159.2099079322488
 10
16.80420386764964
 20
157.7705793362816
 10
16.55020343707621
 20
156.288908363616
 10
16.4655402155262
 20
154.8072373909503
 10
16.55020343707621
 20
153.3255771842081
 10
16.80420386764964
 20
151.8439062115425
 10
17.2275415072465
 20
150.4045776155753
 10
17.77787397916838
 20
149.0075698644597
 10
18.49754366011368
 20
147.6952361008175
 10
19.38653978415901
 20
146.4675763246488
 10
20.36020989567775
 20
145.366911380805
 10
21.50320645029651
 20
144.3509096585113
 10
22.73087699238868
 20
143.504245145241
 10
24.04321075603087
 20
142.7422438535207
 10
25.39787613044806
 20
142.1919113815988
 10
26.83720472641527
 20
141.7685737420019
 10
28.31887569908088
 20
141.5145733114285
 10
29.8428675165981
 20
141.4299100898785
 10
31.32453848926371
 20
141.5145733114285
 10
32.80620946192931
 20
141.7685737420019
 10
34.24553805789652
 20
142.1919113815988
 10
35.64253504308872
 20
142.7422438535207
 10
36.95486880673091
 20
143.504245145241
 10
38.14020773804807
 20
144.3509096585113
 10
39.28320429266683
 20
145.366911380805
 10
40.25687440418557
 20
146.4675763246488
 10
41.1458705282309
 20
147.6952361008175
 10
41.86554020917619
 20
149.0075698644597
 10
42.45820429187308
 20
150.4045776155753
 10
42.83921032069493
 20
151.8439062115425
 10
43.09319998534498
 20
153.3255771842081
  0
LWPOLYLINE
  5
83
330
70
100
AcDbEntity
  8
Livello 1
 62
   250
420
  1907995
370
    25
100
AcDbPolyline
 90
       20
 70
     1
 43
0.0
 10
10.83520989805899
 20
189.4782369516457
 10
10.75053591058559
 20
189.9862378127926
 10
10.49653548001215
 20
190.4942386739394
 10
10.11554021711369
 20
190.8752447027613
 10
9.607539355966824
 20
191.1292451333347
 10
9.057206884044946
 20
191.2139083548847
 10
8.506874412123067
 20
191.1292451333347
 10
8.0412105447129
 20
190.8752447027613
 10
7.660209898852746
 20
190.4942386739394
 10
7.40620946827931
 20
189.9862378127926
 10
7.3215408637676
 20
189.4782369516457
 10
7.40620946827931
 20
188.9279044797238
 10
7.660209898852746
 20
188.4199036185769
 10
8.0412105447129
 20
188.0389083556785
 10
8.506874412123067
 20
187.784907925105
 10
9.057206884044946
 20
187.700244703555
 10
9.607539355966824
 20
187.784907925105
 10
10.11554021711369
 20
188.0389083556785
 10
10.49653548001215
 20
188.4199036185769
 10
10.75053591058559
 20
188.9279044797238
  0
LWPOLYLINE
  5
84
330
70
100
AcDbEntity
  8
Livello 1
 62
   250
420
  1907995
370
    25
100
AcDbPolyline
 90
       20
 70
     1
 43
0.0
 10
9.184207099331665
 20
177.2015745944175
 10
9.099543877781648
 20
177.7519070663394
 10
8.845543447208214
 20
178.2175763167113
 10
8.464542801348059
 20
178.5985715796097
 10
7.998873550976196
 20
178.8525720101832
 10
7.448541079054318
 20
178.9372352317332
 10
6.898208607132438
 20
178.8525720101832
 10
6.390207745985567
 20
178.5985715796097
 10
6.009207100125414
 20
178.2175763167113
 10
5.755206669551978
 20
177.7519070663394
 10
5.670543448001963
 20
177.2015745944175
 10
5.755206669551978
 20
176.6512421224957
 10
6.009207100125414
 20
176.1432412613488
 10
6.390207745985567
 20
175.7622352325269
 10
6.898208607132438
 20
175.5082455678769
 10
7.448541079054318
 20
175.4235715804035
 10
7.998873550976196
 20
175.5082455678769
 10
8.464542801348059
 20
175.7622352325269
 10
8.845543447208214
 20
176.1432412613488
 10
9.099543877781648
 20
176.6512421224957
  0
LWPOLYLINE
  5
85
330
70
100
AcDbEntity
  8
Livello 1
 62
   250
420
  1907995
370
    25
100
AcDbPolyline
 90
       24
 70
     1
 43
0.0
 10
3.088207531492599
 20
203.1942386707644
 10
3.003544309942585
 20
203.8292451301597
 10
2.749543879369149
 20
204.4219092128566
 10
2.368543233508995
 20
204.9299100740035
 10
1.860542372362124
 20
205.3109053369019
 10
1.267872906703542
 20
205.5649057674754
 10
0.6328772132316494
 20
205.6495689890254
 10
-0.0021238632019398
 20
205.5649057674754
 10
-0.5947933288605216
 20
205.3109053369019
 10
-1.102788807045697
 20
204.9299100740035
 10
-1.48378945290585
 20
204.4219092128566
 10
-1.737789883479286
 20
203.8292451301597
 10
-1.822458487990996
 20
203.1942386707644
 10
-1.737789883479286
 20
202.5592429772925
 10
-1.48378945290585
 20
201.9665681286723
 10
-1.102788807045697
 20
201.4585780334488
 10
-0.5947933288605216
 20
201.0352403938519
 10
-0.0021238632019398
 20
200.7812399632785
 10
0.6328772132316494
 20
200.7389083525035
 10
1.267872906703542
 20
200.7812399632785
 10
1.860542372362124
 20
201.0352403938519
 10
2.368543233508995
 20
201.4585780334488
 10
2.749543879369149
 20
201.9665681286723
 10
3.003544309942585
 20
202.5592429772925
  0
LWPOLYLINE
  5
86
330
70
100
AcDbEntity
  8
Livello 1
 62
   250
420
  1907995
370
    25
100
AcDbPolyline
 90
       20
 70
     1
 43
0.0
 10
-12.74445547080194
 20
129.1955793434253
 10
-12.82912407531366
 20
129.7459118153472
 10
-13.08312450588709
 20
130.2539126764941
 10
-13.46412515174725
 20
130.6348971734691
 10
-13.97212601289412
 20
130.888908369966
 10
-14.48012149107929
 20
130.973571591516
 10
-15.03045934596287
 20
130.888908369966
 10
-15.53845482414804
 20
130.6348971734691
 10
-15.9194554700082
 20
130.2539126764941
 10
-16.17345590058163
 20
129.7459118153472
 10
-16.25812450509334
 20
129.1955793434253
 10
-16.17345590058163
 20
128.6452468715034
 10
-15.9194554700082
 20
128.1795776211316
 10
-15.53845482414804
 20
127.7985715923097
 10
-15.03045934596287
 20
127.5445603958129
 10
-14.48012149107929
 20
127.4598971742629
 10
-13.97212601289412
 20
127.5445603958129
 10
-13.46412515174725
 20
127.7985715923097
 10
-13.08312450588709
 20
128.1795776211316
 10
-12.82912407531366
 20
128.6452468715034
  0
LWPOLYLINE
  5
87
330
70
100
AcDbEntity
  8
Livello 1
 62
   250
420
  1907995
370
    25
100
AcDbPolyline
 90
       20
 70
     1
 43
0.0
 10
-0.0867924677136503
 20
136.5192279215098
 10
-0.171455689263665
 20
137.0695603934317
 10
-0.4254561198371008
 20
137.5352296438035
 10
-0.8064567656972542
 20
137.9162356726254
 10
-1.314457626844125
 20
138.1702253372754
 10
-1.864790098766004
 20
138.2549100906722
 10
-2.415122570687882
 20
138.1702253372754
 10
-2.880791821059746
 20
137.9162356726254
 10
-3.2617924669199
 20
137.5352296438035
 10
-3.515792897493335
 20
137.0695603934317
 10
-3.600456119043351
 20
136.5192279215098
 10
-3.515792897493335
 20
135.9688954495879
 10
-3.2617924669199
 20
135.460894588441
 10
-2.880791821059746
 20
135.079910091466
 10
-2.415122570687882
 20
134.8258988949691
 10
-1.864790098766004
 20
134.7412356734191
 10
-1.314457626844125
 20
134.8258988949691
 10
-0.8064567656972542
 20
135.079910091466
 10
-0.4254561198371008
 20
135.460894588441
 10
-0.171455689263665
 20
135.9688954495879
  0
LWPOLYLINE
  5
88
330
70
100
AcDbEntity
  8
Livello 1
 62
   250
420
  1907995
370
    25
100
AcDbPolyline
 90
       20
 70
     1
 43
0.0
 10
12.95187656419649
 20
120.1362270643317
 10
12.86720257672309
 20
120.6865595362535
 10
12.61320214614965
 20
121.1945603974004
 10
12.23220688325119
 20
121.5755664262223
 10
11.72420602210432
 20
121.8295776227191
 10
11.17387355018244
 20
121.9142408442691
 10
10.62354107826056
 20
121.8295776227191
 10
10.1578718278887
 20
121.5755664262223
 10
9.776876564990246
 20
121.1945603974004
 10
9.52287613441681
 20
120.6865595362535
 10
9.438207529905099
 20
120.1362270643317
 10
9.52287613441681
 20
119.5858945924098
 10
9.776876564990246
 20
119.1202468738847
 10
10.1578718278887
 20
118.7392408450628
 10
10.62354107826056
 20
118.485229648566
 10
11.17387355018244
 20
118.400566427016
 10
11.72420602210432
 20
118.485229648566
 10
12.23220688325119
 20
118.7392408450628
 10
12.61320214614965
 20
119.1202468738847
 10
12.86720257672309
 20
119.5858945924098
  0
LWPOLYLINE
  5
89
330
70
100
AcDbEntity
  8
Livello 1
 62
   250
420
  1907995
370
    25
100
AcDbPolyline
 90
       20
 70
     1
 43
0.0
 10
9.184207099331665
 20
132.4129109534066
 10
9.099543877781648
 20
132.9632434253285
 10
8.845543447208214
 20
133.4289126757003
 10
8.464542801348059
 20
133.8522287834504
 10
7.998873550976196
 20
134.1062399799472
 10
7.448541079054318
 20
134.1909032014972
 10
6.898208607132438
 20
134.1062399799472
 10
6.390207745985567
 20
133.8522287834504
 10
6.009207100125414
 20
133.4289126757003
 10
5.755206669551978
 20
132.9632434253285
 10
5.670543448001963
 20
132.4129109534066
 10
5.755206669551978
 20
131.8625784814847
 10
6.009207100125414
 20
131.3969092311128
 10
6.390207745985567
 20
130.973571591516
 10
6.898208607132438
 20
130.7618920057942
 10
7.448541079054318
 20
130.6348971734691
 10
7.998873550976196
 20
130.7618920057942
 10
8.464542801348059
 20
130.973571591516
 10
8.845543447208214
 20
131.3969092311128
 10
9.099543877781648
 20
131.8625784814847
  0
LWPOLYLINE
  5
8A
330
70
100
AcDbEntity
  8
Livello 1
 62
   250
420
  1907995
370
    25
100
AcDbPolyline
 90
        5
 70
     0
 43
0.0
 10
252.1223197508486
 20
145.6354218074836
 10
252.2069829723986
 20
146.1010910578555
 10
252.0799881400736
 20
146.6090919190023
 10
251.8259877095001
 20
147.0324295585992
 10
251.4449816806783
 20
147.3287508340242
  0
LWPOLYLINE
  5
8B
330
70
100
AcDbEntity
  8
Livello 1
 62
   250
420
  1907995
370
    25
100
AcDbPolyline
 90
        5
 70
     0
 43
0.0
 10
245.6029825434127
 20
129.0407628964304
 10
246.0263201830096
 20
129.0830945072054
 10
246.407315445908
 20
129.2947525610805
 10
246.7036582531799
 20
129.5910953683523
 10
246.9153163070548
 20
129.9721013971742
  0
LWPOLYLINE
  5
8C
330
70
100
AcDbEntity
  8
Livello 1
 62
   250
420
  1907995
370
    25
100
AcDbPolyline
 90
        5
 70
     0
 43
0.0
 10
141.5476576335134
 20
129.9721013971742
 10
141.7593264533119
 20
129.5910953683523
 10
142.0556584946603
 20
129.2947525610805
 10
142.4366591405204
 20
129.0830945072054
 10
142.9023230079306
 20
129.0407628964304
  0
LWPOLYLINE
  5
8D
330
70
100
AcDbEntity
  8
Livello 1
 62
   250
420
  1907995
370
    25
100
AcDbPolyline
 90
        5
 70
     0
 43
0.0
 10
137.0179922598899
 20
147.3287508340242
 10
136.6369916140298
 20
147.0324295585992
 10
136.3829911834564
 20
146.6090919190023
 10
136.2983279619063
 20
146.1010910578555
 10
136.3406595726814
 20
145.6354218074836
  0
LWPOLYLINE
  5
8E
330
70
100
AcDbEntity
  8
Livello 1
 62
   250
420
  1907995
370
    25
100
AcDbPolyline
 90
        3
 70
     0
 43
0.0
 10
-28.11145460568633
 20
230.4569048999785
 10
87.79720040480592
 20
230.4569048999785
 10
87.79720040480592
 20
79.15756988192225
  0
SPLINE
  5
8F
330
70
100
AcDbEntity
  8
Livello 1
 62
   250
420
  1907995
370
    25
100
AcDbSpline
210
0.0
220
0.0
230
1.0
 70
    24
 71
     3
 72
     8
 73
     4
 74
     0
 42
0.0000000001
 43
0.0000000001
 40
0.0
 40
0.0
 40
0.0
 40
0.0
 40
1.0
 40
1.0
 40
1.0
 40
1.0
 10
87.7125371832559
 20
79.15756988192225
 30
0.0
 10
87.7125371832559
 20
79.15756988192225
 30
0.0
 10
87.7125371832559
 20
230.4569048999785
 30
0.0
 10
87.7125371832559
 20
230.4569048999785
 30
0.0
  0
SPLINE
  5
90
330
70
100
AcDbEntity
  8
Livello 1
 62
   250
420
  1907995
370
    25
100
AcDbSpline
210
0.0
220
0.0
230
1.0
 70
    24
 71
     3
 72
     8
 73
     4
 74
     0
 42
0.0000000001
 43
0.0000000001
 40
0.0
 40
0.0
 40
0.0
 40
0.0
 40
1.0
 40
1.0
 40
1.0
 40
1.0
 10
82.50553373946216
 20
79.15756988192225
 30
0.0
 10
82.50553373946216
 20
79.15756988192225
 30
0.0
 10
82.50553373946216
 20
230.4569048999785
 30
0.0
 10
82.50553373946216
 20
230.4569048999785
 30
0.0
  0
SPLINE
  5
91
330
70
100
AcDbEntity
  8
Livello 1
 62
   250
420
  1907995
370
    25
100
AcDbSpline
210
0.0
220
0.0
230
1.0
 70
    24
 71
     3
 72
     8
 73
     4
 74
     0
 42
0.0000000001
 43
0.0000000001
 40
0.0
 40
0.0
 40
0.0
 40
0.0
 40
1.0
 40
1.0
 40
1.0
 40
1.0
 10
81.19319997581998
 20
79.15756988192225
 30
0.0
 10
81.19319997581998
 20
79.15756988192225
 30
0.0
 10
81.19319997581998
 20
230.4569048999785
 30
0.0
 10
81.19319997581998
 20
230.4569048999785
 30
0.0
  0
SPLINE
  5
92
330
70
100
AcDbEntity
  8
Livello 1
 62
   250
420
  1907995
370
    25
100
AcDbSpline
210
0.0
220
0.0
230
1.0
 70
    24
 71
     3
 72
     8
 73
     4
 74
     0
 42
0.0000000001
 43
0.0000000001
 40
0.0
 40
0.0
 40
0.0
 40
0.0
 40
1.0
 40
1.0
 40
1.0
 40
1.0
 10
-21.50745955966209
 20
79.15756988192225
 30
0.0
 10
-21.50745955966209
 20
79.15756988192225
 30
0.0
 10
-21.50745955966209
 20
230.4569048999785
 30
0.0
 10
-21.50745955966209
 20
230.4569048999785
 30
0.0
  0
SPLINE
  5
93
330
70
100
AcDbEntity
  8
Livello 1
 62
   250
420
  1907995
370
    25
100
AcDbSpline
210
0.0
220
0.0
230
1.0
 70
    24
 71
     3
 72
     8
 73
     4
 74
     0
 42
0.0000000001
 43
0.0000000001
 40
0.0
 40
0.0
 40
0.0
 40
0.0
 40
1.0
 40
1.0
 40
1.0
 40
1.0
 10
-22.86212493407928
 20
79.15756988192225
 30
0.0
 10
-22.86212493407928
 20
79.15756988192225
 30
0.0
 10
-22.86212493407928
 20
230.4569048999785
 30
0.0
 10
-22.86212493407928
 20
230.4569048999785
 30
0.0
  0
SPLINE
  5
94
330
70
100
AcDbEntity
  8
Livello 1
 62
   250
420
  1907995
370
    25
100
AcDbSpline
210
0.0
220
0.0
230
1.0
 70
    24
 71
     3
 72
     8
 73
     4
 74
     0
 42
0.0000000001
 43
0.0000000001
 40
0.0
 40
0.0
 40
0.0
 40
0.0
 40
1.0
 40
1.0
 40
1.0
 40
1.0
 10
-28.06912299491132
 20
79.15756988192225
 30
0.0
 10
-28.06912299491132
 20
79.15756988192225
 30
0.0
 10
-28.06912299491132
 20
230.4569048999785
 30
0.0
 10
-28.06912299491132
 20
230.4569048999785
 30
0.0
  0
LWPOLYLINE
  5
95
330
70
100
AcDbEntity
  8
Livello 1
 62
   250
420
  1907995
370
    25
100
AcDbPolyline
 90
        3
 70
     0
 43
0.0
 10
-28.11145460568633
 20
230.4569048999785
 10
-28.11145460568633
 20
79.15756988192225
 10
87.79720040480592
 20
79.15756988192225
  0
SPLINE
  5
96
330
70
100
AcDbEntity
  8
Livello 1
 62
   250
420
  1907995
370
    25
100
AcDbSpline
210
0.0
220
0.0
230
1.0
 70
    24
 71
     3
 72
     8
 73
     4
 74
     0
 42
0.0000000001
 43
0.0000000001
 40
0.0
 40
0.0
 40
0.0
 40
0.0
 40
1.0
 40
1.0
 40
1.0
 40
1.0
 10
252.1223197508486
 20
145.6354218074836
 30
0.0
 10
252.1223197508486
 20
145.6354218074836
 30
0.0
 10
246.9153163070548
 20
129.9721013971742
 30
0.0
 10
246.9153163070548
 20
129.9721013971742
 30
0.0
  0
SPLINE
  5
97
330
70
100
AcDbEntity
  8
Livello 1
 62
   250
420
  1907995
370
    25
100
AcDbSpline
210
0.0
220
0.0
230
1.0
 70
    24
 71
     3
 72
     8
 73
     4
 74
     0
 42
0.0000000001
 43
0.0000000001
 40
0.0
 40
0.0
 40
0.0
 40
0.0
 40
1.0
 40
1.0
 40
1.0
 40
1.0
 10
245.6029825434127
 20
130.4377491156992
 30
0.0
 10
245.6029825434127
 20
130.4377491156992
 30
0.0
 10
250.7676543764314
 20
146.0587594470804
 30
0.0
 10
250.7676543764314
 20
146.0587594470804
 30
0.0
  0
SPLINE
  5
98
330
70
100
AcDbEntity
  8
Livello 1
 62
   250
420
  1907995
370
    25
100
AcDbSpline
210
0.0
220
0.0
230
1.0
 70
    24
 71
     3
 72
     8
 73
     4
 74
     0
 42
0.0000000001
 43
0.0000000001
 40
0.0
 40
0.0
 40
0.0
 40
0.0
 40
1.0
 40
1.0
 40
1.0
 40
1.0
 10
213.7259877190252
 20
167.3947525515555
 30
0.0
 10
213.7259877190252
 20
167.3947525515555
 30
0.0
 10
251.4449816806783
 20
147.3287508340242
 30
0.0
 10
251.4449816806783
 20
147.3287508340242
 30
0.0
  0
LWPOLYLINE
  5
99
330
70
100
AcDbEntity
  8
Livello 1
 62
   250
420
  1907995
370
    25
100
AcDbPolyline
 90
        3
 70
     0
 43
0.0
 10
250.7676543764314
 20
146.0587594470804
 10
213.0486496488549
 20
166.1247611646117
 10
213.7259877190252
 20
167.3947525515555
  0
LINE
  5
9A
330
70
100
AcDbEntity
  8
Livello 1
 62
   250
420
  1907995
370
    25
100
AcDbLine
 10
174.7369916045048
 20
167.3947525515555
 30
0.0
 11
175.4143189087517
 21
166.1247611646117
 31
0.0
  0
SPLINE
  5
9B
330
70
100
AcDbEntity
  8
Livello 1
 62
   250
420
  1907995
370
    25
100
AcDbSpline
210
0.0
220
0.0
230
1.0
 70
    24
 71
     3
 72
     8
 73
     4
 74
     0
 42
0.0000000001
 43
0.0000000001
 40
0.0
 40
0.0
 40
0.0
 40
0.0
 40
1.0
 40
1.0
 40
1.0
 40
1.0
 10
142.9023230079306
 20
130.4377491156992
 30
0.0
 10
142.9023230079306
 20
130.4377491156992
 30
0.0
 10
245.6029825434127
 20
130.4377491156992
 30
0.0
 10
245.6029825434127
 20
130.4377491156992
 30
0.0
  0
SPLINE
  5
9C
330
70
100
AcDbEntity
  8
Livello 1
 62
   250
420
  1907995
370
    25
100
AcDbSpline
210
0.0
220
0.0
230
1.0
 70
    24
 71
     3
 72
     8
 73
     4
 74
     0
 42
0.0000000001
 43
0.0000000001
 40
0.0
 40
0.0
 40
0.0
 40
0.0
 40
1.0
 40
1.0
 40
1.0
 40
1.0
 10
245.6029825434127
 20
129.0407628964304
 30
0.0
 10
245.6029825434127
 20
129.0407628964304
 30
0.0
 10
142.9023230079306
 20
129.0407628964304
 30
0.0
 10
142.9023230079306
 20
129.0407628964304
 30
0.0
  0
SPLINE
  5
9D
330
70
100
AcDbEntity
  8
Livello 1
 62
   250
420
  1907995
370
    25
100
AcDbSpline
210
0.0
220
0.0
230
1.0
 70
    24
 71
     3
 72
     8
 73
     4
 74
     0
 42
0.0000000001
 43
0.0000000001
 40
0.0
 40
0.0
 40
0.0
 40
0.0
 40
1.0
 40
1.0
 40
1.0
 40
1.0
 10
175.4143189087517
 20
166.1247611646117
 30
0.0
 10
175.4143189087517
 20
166.1247611646117
 30
0.0
 10
137.6953249470986
 20
146.0587594470804
 30
0.0
 10
137.6953249470986
 20
146.0587594470804
 30
0.0
  0
SPLINE
  5
9E
330
70
100
AcDbEntity
  8
Livello 1
 62
   250
420
  1907995
370
    25
100
AcDbSpline
210
0.0
220
0.0
230
1.0
 70
    24
 71
     3
 72
     8
 73
     4
 74
     0
 42
0.0000000001
 43
0.0000000001
 40
0.0
 40
0.0
 40
0.0
 40
0.0
 40
1.0
 40
1.0
 40
1.0
 40
1.0
 10
137.0179922598899
 20
147.3287508340242
 30
0.0
 10
137.0179922598899
 20
147.3287508340242
 30
0.0
 10
174.7369916045048
 20
167.3947525515555
 30
0.0
 10
174.7369916045048
 20
167.3947525515555
 30
0.0
  0
SPLINE
  5
9F
330
70
100
AcDbEntity
  8
Livello 1
 62
   250
420
  1907995
370
    25
100
AcDbSpline
210
0.0
220
0.0
230
1.0
 70
    24
 71
     3
 72
     8
 73
     4
 74
     0
 42
0.0000000001
 43
0.0000000001
 40
0.0
 40
0.0
 40
0.0
 40
0.0
 40
1.0
 40
1.0
 40
1.0
 40
1.0
 10
137.6953249470986
 20
146.0587594470804
 30
0.0
 10
137.6953249470986
 20
146.0587594470804
 30
0.0
 10
142.9023230079306
 20
130.4377491156992
 30
0.0
 10
142.9023230079306
 20
130.4377491156992
 30
0.0
  0
SPLINE
  5
A0
330
70
100
AcDbEntity
  8
Livello 1
 62
   250
420
  1907995
370
    25
100
AcDbSpline
210
0.0
220
0.0
230
1.0
 70
    24
 71
     3
 72
     8
 73
     4
 74
     0
 42
0.0000000001
 43
0.0000000001
 40
0.0
 40
0.0
 40
0.0
 40
0.0
 40
1.0
 40
1.0
 40
1.0
 40
1.0
 10
141.5476576335134
 20
129.9721013971742
 30
0.0
 10
141.5476576335134
 20
129.9721013971742
 30
0.0
 10
136.3406595726814
 20
145.6354218074836
 30
0.0
 10
136.3406595726814
 20
145.6354218074836
 30
0.0
  0
SPLINE
  5
A1
330
70
100
AcDbEntity
  8
Livello 1
 62
   250
420
  1907995
370
     9
100
AcDbSpline
210
0.0
220
0.0
230
1.0
 70
    24
 71
     3
 72
     8
 73
     4
 74
     0
 42
0.0000000001
 43
0.0000000001
 40
0.0
 40
0.0
 40
0.0
 40
0.0
 40
1.0
 40
1.0
 40
1.0
 40
1.0
 10
-28.53479224528319
 20
230.4569048999785
 30
0.0
 10
-28.53479224528319
 20
230.4569048999785
 30
0.0
 10
-37.63498793725242
 20
230.4569048999785
 30
0.0
 10
-37.63498793725242
 20
230.4569048999785
 30
0.0
  0
SPLINE
  5
A2
330
70
100
AcDbEntity
  8
Livello 1
 62
   250
420
  1907995
370
     9
100
AcDbSpline
210
0.0
220
0.0
230
1.0
 70
    24
 71
     3
 72
     8
 73
     4
 74
     0
 42
0.0000000001
 43
0.0000000001
 40
0.0
 40
0.0
 40
0.0
 40
0.0
 40
1.0
 40
1.0
 40
1.0
 40
1.0
 10
-28.53479224528319
 20
79.15756988192225
 30
0.0
 10
-28.53479224528319
 20
79.15756988192225
 30
0.0
 10
-37.63498793725242
 20
79.15756988192225
 30
0.0
 10
-37.63498793725242
 20
79.15756988192225
 30
0.0
  0
SPLINE
  5
A3
330
70
100
AcDbEntity
  8
Livello 1
 62
   250
420
  1907995
370
     9
100
AcDbSpline
210
0.0
220
0.0
230
1.0
 70
    24
 71
     3
 72
     8
 73
     4
 74
     0
 42
0.0000000001
 43
0.0000000001
 40
0.0
 40
0.0
 40
0.0
 40
0.0
 40
1.0
 40
1.0
 40
1.0
 40
1.0
 10
-36.32265417361023
 20
226.9432304827254
 30
0.0
 10
-36.32265417361023
 20
226.9432304827254
 30
0.0
 10
-36.32265417361023
 20
82.67124429917535
 30
0.0
 10
-36.32265417361023
 20
82.67124429917535
 30
0.0
  0
LWPOLYLINE
  5
A4
330
70
100
AcDbEntity
  8
Livello 1
100
AcDbPolyline
 90
        3
 70
     1
 43
0.0
 10
-36.91531960204754
 20
226.9432304827254
 10
-35.72998605369207
 20
226.9432304827254
 10
-36.32265282786981
 20
230.4569048999785
  0
HATCH
  5
A5
330
70
100
AcDbEntity
  8
Livello 1
 62
    18
420
    65793
440
 33554687
100
AcDbHatch
 10
0.0
 20
0.0
 30
0.0
210
0.0
220
0.0
230
1.0
  2
SOLID
 70
     1
 71
     1
 91
        1
 92
        1
 93
        3
 72
     1
 10
-36.91531960204754
 20
226.9432304827254
 11
-35.72998605369207
 21
226.9432304827254
 72
     1
 10
-35.72998605369207
 20
226.9432304827254
 11
-36.32265282786981
 21
230.4569048999785
 72
     1
 10
-36.32265282786981
 20
230.4569048999785
 11
-36.91531960204754
 21
226.9432304827254
 97
        1
330
A4
 75
     0
 76
     1
 98
        1
 10
0.0
 20
0.0
450
        0
451
        0
460
0.0
461
0.0
452
        0
462
0.0
453
        0
470

  0
LWPOLYLINE
  5
A6
330
70
100
AcDbEntity
  8
Livello 1
100
AcDbPolyline
 90
        3
 70
     1
 43
0.0
 10
-36.91531960204754
 20
82.67123891621364
 10
-35.72998605369207
 20
82.67123891621364
 10
-36.32265282786981
 20
79.15756988192225
  0
HATCH
  5
A7
330
70
100
AcDbEntity
  8
Livello 1
 62
    18
420
    65793
440
 33554687
100
AcDbHatch
 10
0.0
 20
0.0
 30
0.0
210
0.0
220
0.0
230
1.0
  2
SOLID
 70
     1
 71
     1
 91
        1
 92
        1
 93
        3
 72
     1
 10
-36.91531960204754
 20
82.67123891621364
 11
-35.72998605369207
 21
82.67123891621364
 72
     1
 10
-35.72998605369207
 20
82.67123891621364
 11
-36.32265282786981
 21
79.15756988192225
 72
     1
 10
-36.32265282786981
 20
79.15756988192225
 11
-36.91531960204754
 21
82.67123891621364
 97
        1
330
A6
 75
     0
 76
     1
 98
        1
 10
0.0
 20
0.0
450
        0
451
        0
460
0.0
461
0.0
452
        0
462
0.0
453
        0
470

  0
LWPOLYLINE
  5
A8
330
70
100
AcDbEntity
  8
Livello 1
 62
   250
420
  1907995
370
     9
100
AcDbPolyline
 90
       10
 70
     0
 43
0.0
 10
-41.65665379546942
 20
143.3772395469925
 10
-42.50332100022058
 20
144.2662464369612
 10
-42.50332100022058
 20
146.0019070742769
 10
-41.65665379546942
 20
146.8909031983223
 10
-40.76765497994323
 20
146.8909031983223
 10
-39.87865481867664
 20
146.0019070742769
 10
-39.87865481867664
 20
144.2662464369612
 10
-38.98965465741003
 20
143.3772395469925
 10
-37.25398729139226
 20
143.3772395469925
 10
-37.25398729139226
 20
146.8909031983223
  0
LWPOLYLINE
  5
A9
330
70
100
AcDbEntity
  8
Livello 1
 62
   250
420
  1907995
370
     9
100
AcDbPolyline
 90
        3
 70
     0
 43
0.0
 10
-41.65665379546942
 20
148.6265746015613
 10
-42.50332100022058
 20
149.5155707256066
 10
-37.25398729139226
 20
149.5155707256066
  0
LINE
  5
AA
330
70
100
AcDbEntity
  8
Livello 1
 62
   250
420
  1907995
370
     9
100
AcDbLine
 10
-37.25398729139226
 20
148.6265746015613
 30
0.0
 11
-37.25398729139226
 21
150.4045776155753
 31
0.0
  0
LWPOLYLINE
  5
AB
330
70
100
AcDbEntity
  8
Livello 1
 62
   250
420
  1907995
370
     9
100
AcDbPolyline
 90
        9
 70
     0
 43
0.0
 10
-38.10065449614344
 20
152.182569863666
 10
-37.25398729139226
 20
153.0292451428597
 10
-37.25398729139226
 20
154.8072373909503
 10
-38.10065449614344
 20
155.6962442809191
 10
-39.87865481867664
 20
155.6962442809191
 10
-40.76765497994323
 20
154.8072373909503
 10
-40.76765497994323
 20
152.182569863666
 10
-42.50332100022058
 20
152.182569863666
 10
-42.50332100022058
 20
155.6962442809191
  0
LINE
  5
AC
330
70
100
AcDbEntity
  8
Livello 1
 62
   250
420
  1907995
370
     9
100
AcDbLine
 10
-37.25398729139226
 20
157.4319049182347
 30
0.0
 11
-40.76765497994323
 21
157.4319049182347
 31
0.0
  0
LWPOLYLINE
  5
AD
330
70
100
AcDbEntity
  8
Livello 1
 62
   250
420
  1907995
370
     9
100
AcDbPolyline
 90
        4
 70
     0
 43
0.0
 10
-39.87865481867664
 20
157.4319049182347
 10
-40.76765497994323
 20
158.3209118082035
 10
-39.87865481867664
 20
159.2099079322488
 10
-38.98965465741003
 20
159.2099079322488
  0
LWPOLYLINE
  5
AE
330
70
100
AcDbEntity
  8
Livello 1
 62
   250
420
  1907995
370
     9
100
AcDbPolyline
 90
        4
 70
     0
 43
0.0
 10
-39.87865481867664
 20
159.2099079322488
 10
-40.76765497994323
 20
160.0989040562941
 10
-39.87865481867664
 20
160.9455793354878
 10
-37.25398729139226
 20
160.9455793354878
  0
LINE
  5
AF
330
70
100
AcDbEntity
  8
Livello 1
 62
   250
420
  1907995
370
     9
100
AcDbLine
 10
-37.25398729139226
 20
162.7235715835785
 30
0.0
 11
-40.76765497994323
 21
162.7235715835785
 31
0.0
  0
LWPOLYLINE
  5
B0
330
70
100
AcDbEntity
  8
Livello 1
 62
   250
420
  1907995
370
     9
100
AcDbPolyline
 90
        4
 70
     0
 43
0.0
 10
-39.87865481867664
 20
162.7235715835785
 10
-40.76765497994323
 20
163.6125784735472
 10
-39.87865481867664
 20
164.4592429868175
 10
-38.98965465741003
 20
164.4592429868175
  0
LWPOLYLINE
  5
B1
330
70
100
AcDbEntity
  8
Livello 1
 62
   250
420
  1907995
370
     9
100
AcDbPolyline
 90
        4
 70
     0
 43
0.0
 10
-39.87865481867664
 20
164.4592429868175
 10
-40.76765497994323
 20
165.3482391108628
 10
-39.87865481867664
 20
166.2372460008316
 10
-37.25398729139226
 20
166.2372460008316
  0
SPLINE
  5
B2
330
70
100
AcDbEntity
  8
Livello 1
 62
   250
420
  1907995
370
     9
100
AcDbSpline
210
0.0
220
0.0
230
1.0
 70
    24
 71
     3
 72
     8
 73
     4
 74
     0
 42
0.0000000001
 43
0.0000000001
 40
0.0
 40
0.0
 40
0.0
 40
0.0
 40
1.0
 40
1.0
 40
1.0
 40
1.0
 10
87.28919954365904
 20
78.22623138117854
 30
0.0
 10
87.28919954365904
 20
78.22623138117854
 30
0.0
 10
87.28919954365904
 20
66.54309977295047
 30
0.0
 10
87.28919954365904
 20
66.54309977295047
 30
0.0
  0
SPLINE
  5
B3
330
70
100
AcDbEntity
  8
Livello 1
 62
   250
420
  1907995
370
     9
100
AcDbSpline
210
0.0
220
0.0
230
1.0
 70
    24
 71
     3
 72
     8
 73
     4
 74
     0
 42
0.0000000001
 43
0.0000000001
 40
0.0
 40
0.0
 40
0.0
 40
0.0
 40
1.0
 40
1.0
 40
1.0
 40
1.0
 10
-27.60345912750115
 20
78.22623138117854
 30
0.0
 10
-27.60345912750115
 20
78.22623138117854
 30
0.0
 10
-27.60345912750115
 20
66.54309977295047
 30
0.0
 10
-27.60345912750115
 20
66.54309977295047
 30
0.0
  0
SPLINE
  5
B4
330
70
100
AcDbEntity
  8
Livello 1
 62
   250
420
  1907995
370
     9
100
AcDbSpline
210
0.0
220
0.0
230
1.0
 70
    24
 71
     3
 72
     8
 73
     4
 74
     0
 42
0.0000000001
 43
0.0000000001
 40
0.0
 40
0.0
 40
0.0
 40
0.0
 40
1.0
 40
1.0
 40
1.0
 40
1.0
 10
83.77553589232935
 20
67.85544430251604
 30
0.0
 10
83.77553589232935
 20
67.85544430251604
 30
0.0
 10
-24.08979009320976
 20
67.85544430251604
 30
0.0
 10
-24.08979009320976
 20
67.85544430251604
 30
0.0
  0
LWPOLYLINE
  5
B5
330
70
100
AcDbEntity
  8
Livello 1
100
AcDbPolyline
 90
        3
 70
     1
 43
0.0
 10
83.77554665825273
 20
68.44810300225124
 10
83.77554665825273
 20
67.30510375615162
 10
87.28921030958243
 20
67.85543622807352
  0
HATCH
  5
B6
330
70
100
AcDbEntity
  8
Livello 1
 62
    18
420
    65793
440
 33554687
100
AcDbHatch
 10
0.0
 20
0.0
 30
0.0
210
0.0
220
0.0
230
1.0
  2
SOLID
 70
     1
 71
     1
 91
        1
 92
        1
 93
        3
 72
     1
 10
83.77554665825273
 20
68.44810300225124
 11
83.77554665825273
 21
67.30510375615162
 72
     1
 10
83.77554665825273
 20
67.30510375615162
 11
87.28921030958243
 21
67.85543622807352
 72
     1
 10
87.28921030958243
 20
67.85543622807352
 11
83.77554665825273
 21
68.44810300225124
 97
        1
330
B5
 75
     0
 76
     1
 98
        1
 10
0.0
 20
0.0
450
        0
451
        0
460
0.0
461
0.0
452
        0
462
0.0
453
        0
470

  0
LWPOLYLINE
  5
B7
330
70
100
AcDbEntity
  8
Livello 1
100
AcDbPolyline
 90
        3
 70
     1
 43
0.0
 10
-24.08978471024806
 20
68.44810300225124
 10
-24.08978471024806
 20
67.30510375615162
 10
-27.60345374453946
 20
67.85543622807352
  0
HATCH
  5
B8
330
70
100
AcDbEntity
  8
Livello 1
 62
    18
420
    65793
440
 33554687
100
AcDbHatch
 10
0.0
 20
0.0
 30
0.0
210
0.0
220
0.0
230
1.0
  2
SOLID
 70
     1
 71
     1
 91
        1
 92
        1
 93
        3
 72
     1
 10
-24.08978471024806
 20
68.44810300225124
 11
-24.08978471024806
 21
67.30510375615162
 72
     1
 10
-24.08978471024806
 20
67.30510375615162
 11
-27.60345374453946
 21
67.85543622807352
 72
     1
 10
-27.60345374453946
 20
67.85543622807352
 11
-24.08978471024806
 21
68.44810300225124
 97
        1
330
B7
 75
     0
 76
     1
 98
        1
 10
0.0
 20
0.0
450
        0
451
        0
460
0.0
461
0.0
452
        0
462
0.0
453
        0
470

  0
LWPOLYLINE
  5
B9
330
70
100
AcDbEntity
  8
Livello 1
 62
   250
420
  1907995
370
     9
100
AcDbPolyline
 90
        3
 70
     0
 43
0.0
 10
14.85687441053556
 20
73.18944257863481
 10
15.74587053458089
 20
74.07842793675675
 10
15.74587053458089
 20
68.786761271413
  0
LINE
  5
BA
330
70
100
AcDbEntity
  8
Livello 1
 62
   250
420
  1907995
370
     9
100
AcDbLine
 10
14.85687441053556
 20
68.786761271413
 30
0.0
 11
16.63487742454962
 21
68.786761271413
 31
0.0
  0
LWPOLYLINE
  5
BB
330
70
100
AcDbEntity
  8
Livello 1
 62
   250
420
  1907995
370
     9
100
AcDbPolyline
 90
       10
 70
     0
 43
0.0
 10
18.41286967264028
 20
71.45376040947238
 10
21.03753719992464
 20
71.45376040947238
 10
21.92654408989337
 20
70.56477505135044
 10
21.92654408989337
 20
69.67576816138171
 10
21.03753719992464
 20
68.786761271413
 10
19.2595341859106
 20
68.786761271413
 10
18.41286967264028
 20
69.67576816138171
 10
18.41286967264028
 20
72.30043568866609
 10
20.14854107587932
 20
74.07842793675675
 10
21.03753719992464
 20
74.07842793675675
  0
LWPOLYLINE
  5
BC
330
70
100
AcDbEntity
  8
Livello 1
 62
   250
420
  1907995
370
     9
100
AcDbPolyline
 90
        7
 70
     0
 43
0.0
 10
23.66220472720902
 20
73.18944257863481
 10
24.55120085125435
 20
74.07842793675675
 10
26.3292038652684
 20
74.07842793675675
 10
27.17586837853872
 20
73.18944257863481
 10
27.17586837853872
 20
72.30043568866609
 10
26.3292038652684
 20
71.45376040947238
 10
25.44020774122307
 20
71.45376040947238
  0
LWPOLYLINE
  5
BD
330
70
100
AcDbEntity
  8
Livello 1
 62
   250
420
  1907995
370
     9
100
AcDbPolyline
 90
        6
 70
     0
 43
0.0
 10
26.3292038652684
 20
71.45376040947238
 10
27.17586837853872
 20
70.56477505135044
 10
27.17586837853872
 20
69.67576816138171
 10
26.3292038652684
 20
68.786761271413
 10
24.55120085125435
 20
68.786761271413
 10
23.66220472720902
 20
69.67576816138171
  0
LINE
  5
BE
330
70
100
AcDbEntity
  8
Livello 1
 62
   250
420
  1907995
370
     9
100
AcDbLine
 10
28.95387139255277
 20
68.786761271413
 30
0.0
 11
28.95387139255277
 21
69.67576816138171
 31
0.0
  0
LWPOLYLINE
  5
BF
330
70
100
AcDbEntity
  8
Livello 1
 62
   250
420
  1907995
370
     9
100
AcDbPolyline
 90
        7
 70
     0
 43
0.0
 10
30.68954279579181
 20
73.18944257863481
 10
31.57853891983714
 20
74.07842793675675
 10
33.35654193385119
 20
74.07842793675675
 10
34.20320644712151
 20
73.18944257863481
 10
34.20320644712151
 20
72.30043568866609
 10
33.35654193385119
 20
71.45376040947238
 10
32.46753504388247
 20
71.45376040947238
  0
LWPOLYLINE
  5
C0
330
70
100
AcDbEntity
  8
Livello 1
 62
   250
420
  1907995
370
     9
100
AcDbPolyline
 90
        6
 70
     0
 43
0.0
 10
33.35654193385119
 20
71.45376040947238
 10
34.20320644712151
 20
70.56477505135044
 10
34.20320644712151
 20
69.67576816138171
 10
33.35654193385119
 20
68.786761271413
 10
31.57853891983714
 20
68.786761271413
 10
30.68954279579181
 20
69.67576816138171
  0
LINE
  5
C1
330
70
100
AcDbEntity
  8
Livello 1
 62
   250
420
  1907995
370
     9
100
AcDbLine
 10
35.98120946113557
 20
68.786761271413
 30
0.0
 11
35.98120946113557
 21
72.30043568866609
 31
0.0
  0
LWPOLYLINE
  5
C2
330
70
100
AcDbEntity
  8
Livello 1
 62
   250
420
  1907995
370
     9
100
AcDbPolyline
 90
        4
 70
     0
 43
0.0
 10
35.98120946113557
 20
71.45376040947238
 10
36.87020558518089
 20
72.30043568866609
 10
37.75920170922622
 20
71.45376040947238
 10
37.75920170922622
 20
70.56477505135044
  0
LWPOLYLINE
  5
C3
330
70
100
AcDbEntity
  8
Livello 1
 62
   250
420
  1907995
370
     9
100
AcDbPolyline
 90
        4
 70
     0
 43
0.0
 10
37.75920170922622
 20
71.45376040947238
 10
38.60587698841994
 20
72.30043568866609
 10
39.49487311246527
 20
71.45376040947238
 10
39.49487311246527
 20
68.786761271413
  0
LINE
  5
C4
330
70
100
AcDbEntity
  8
Livello 1
 62
   250
420
  1907995
370
     9
100
AcDbLine
 10
41.27287612647931
 20
68.786761271413
 30
0.0
 11
41.27287612647931
 21
72.30043568866609
 31
0.0
  0
LWPOLYLINE
  5
C5
330
70
100
AcDbEntity
  8
Livello 1
 62
   250
420
  1907995
370
     9
100
AcDbPolyline
 90
        4
 70
     0
 43
0.0
 10
41.27287612647931
 20
71.45376040947238
 10
42.11954063974963
 20
72.30043568866609
 10
43.00853676379496
 20
71.45376040947238
 10
43.00853676379496
 20
70.56477505135044
  0
LWPOLYLINE
  5
C6
330
70
100
AcDbEntity
  8
Livello 1
 62
   250
420
  1907995
370
     9
100
AcDbPolyline
 90
        4
 70
     0
 43
0.0
 10
43.00853676379496
 20
71.45376040947238
 10
43.89754365376368
 20
72.30043568866609
 10
44.78653977780901
 20
71.45376040947238
 10
44.78653977780901
 20
68.786761271413
  0
SPLINE
  5
C7
330
70
100
AcDbEntity
  8
Livello 1
 62
   250
420
  1907995
370
     9
100
AcDbSpline
210
0.0
220
0.0
230
1.0
 70
    24
 71
     3
 72
     8
 73
     4
 74
     0
 42
0.0000000001
 43
0.0000000001
 40
0.0
 40
0.0
 40
0.0
 40
0.0
 40
1.0
 40
1.0
 40
1.0
 40
1.0
 10
55.92020558041839
 20
203.1942386707644
 30
0.0
 10
55.92020558041839
 20
203.1942386707644
 30
0.0
 10
56.97853891348714
 20
203.1942386707644
 30
0.0
 10
56.97853891348714
 20
203.1942386707644
 30
0.0
  0
SPLINE
  5
C8
330
70
100
AcDbEntity
  8
Livello 1
 62
   250
420
  1907995
370
     9
100
AcDbSpline
210
0.0
220
0.0
230
1.0
 70
    24
 71
     3
 72
     8
 73
     4
 74
     0
 42
0.0000000001
 43
0.0000000001
 40
0.0
 40
0.0
 40
0.0
 40
0.0
 40
1.0
 40
1.0
 40
1.0
 40
1.0
 10
57.19020773328557
 20
203.1942386707644
 30
0.0
 10
57.19020773328557
 20
203.1942386707644
 30
0.0
 10
57.401876553084
 20
203.1942386707644
 30
0.0
 10
57.401876553084
 20
203.1942386707644
 30
0.0
  0
SPLINE
  5
C9
330
70
100
AcDbEntity
  8
Livello 1
 62
   250
420
  1907995
370
     9
100
AcDbSpline
210
0.0
220
0.0
230
1.0
 70
    24
 71
     3
 72
     8
 73
     4
 74
     0
 42
0.0000000001
 43
0.0000000001
 40
0.0
 40
0.0
 40
0.0
 40
0.0
 40
1.0
 40
1.0
 40
1.0
 40
1.0
 10
57.61353460695904
 20
203.1942386707644
 30
0.0
 10
57.61353460695904
 20
203.1942386707644
 30
0.0
 10
58.7141995508028
 20
203.1942386707644
 30
0.0
 10
58.7141995508028
 20
203.1942386707644
 30
0.0
  0
SPLINE
  5
CA
330
70
100
AcDbEntity
  8
Livello 1
 62
   250
420
  1907995
370
     9
100
AcDbSpline
210
0.0
220
0.0
230
1.0
 70
    24
 71
     3
 72
     8
 73
     4
 74
     0
 42
0.0000000001
 43
0.0000000001
 40
0.0
 40
0.0
 40
0.0
 40
0.0
 40
1.0
 40
1.0
 40
1.0
 40
1.0
 10
58.92586837060122
 20
203.1942386707644
 30
0.0
 10
58.92586837060122
 20
203.1942386707644
 30
0.0
 10
59.13753719039965
 20
203.1942386707644
 30
0.0
 10
59.13753719039965
 20
203.1942386707644
 30
0.0
  0
SPLINE
  5
CB
330
70
100
AcDbEntity
  8
Livello 1
 62
   250
420
  1907995
370
     9
100
AcDbSpline
210
0.0
220
0.0
230
1.0
 70
    24
 71
     3
 72
     8
 73
     4
 74
     0
 42
0.0000000001
 43
0.0000000001
 40
0.0
 40
0.0
 40
0.0
 40
0.0
 40
1.0
 40
1.0
 40
1.0
 40
1.0
 10
59.34920601019808
 20
203.1942386707644
 30
0.0
 10
59.34920601019808
 20
203.1942386707644
 30
0.0
 10
60.40753934326683
 20
203.1942386707644
 30
0.0
 10
60.40753934326683
 20
203.1942386707644
 30
0.0
  0
SPLINE
  5
CC
330
70
100
AcDbEntity
  8
Livello 1
 62
   250
420
  1907995
370
     9
100
AcDbSpline
210
0.0
220
0.0
230
1.0
 70
    24
 71
     3
 72
     8
 73
     4
 74
     0
 42
0.0000000001
 43
0.0000000001
 40
0.0
 40
0.0
 40
0.0
 40
0.0
 40
1.0
 40
1.0
 40
1.0
 40
1.0
 10
60.61920816306526
 20
203.1942386707644
 30
0.0
 10
60.61920816306526
 20
203.1942386707644
 30
0.0
 10
60.83086621694029
 20
203.1942386707644
 30
0.0
 10
60.83086621694029
 20
203.1942386707644
 30
0.0
  0
LINE
  5
CD
330
70
100
AcDbEntity
  8
Livello 1
 62
   250
420
  1907995
370
     9
100
AcDbLine
 10
61.04253503673872
 20
203.1942386707644
 30
0.0
 11
62.10086836980747
 21
203.1942386707644
 31
0.0
  0
SPLINE
  5
CE
330
70
100
AcDbEntity
  8
Livello 1
 62
   250
420
  1907995
370
     9
100
AcDbSpline
210
0.0
220
0.0
230
1.0
 70
    24
 71
     3
 72
     8
 73
     4
 74
     0
 42
0.0000000001
 43
0.0000000001
 40
0.0
 40
0.0
 40
0.0
 40
0.0
 40
1.0
 40
1.0
 40
1.0
 40
1.0
 10
59.01054235807463
 20
200.1039018931082
 30
0.0
 10
59.01054235807463
 20
200.1039018931082
 30
0.0
 10
59.01054235807463
 20
201.1622352261769
 30
0.0
 10
59.01054235807463
 20
201.1622352261769
 30
0.0
  0
SPLINE
  5
CF
330
70
100
AcDbEntity
  8
Livello 1
 62
   250
420
  1907995
370
     9
100
AcDbSpline
210
0.0
220
0.0
230
1.0
 70
    24
 71
     3
 72
     8
 73
     4
 74
     0
 42
0.0000000001
 43
0.0000000001
 40
0.0
 40
0.0
 40
0.0
 40
0.0
 40
1.0
 40
1.0
 40
1.0
 40
1.0
 10
59.01054235807463
 20
201.3739040459754
 30
0.0
 10
59.01054235807463
 20
201.3739040459754
 30
0.0
 10
59.01054235807463
 20
201.5855728657738
 30
0.0
 10
59.01054235807463
 20
201.5855728657738
 30
0.0
  0
SPLINE
  5
D0
330
70
100
AcDbEntity
  8
Livello 1
 62
   250
420
  1907995
370
     9
100
AcDbSpline
210
0.0
220
0.0
230
1.0
 70
    24
 71
     3
 72
     8
 73
     4
 74
     0
 42
0.0000000001
 43
0.0000000001
 40
0.0
 40
0.0
 40
0.0
 40
0.0
 40
1.0
 40
1.0
 40
1.0
 40
1.0
 10
59.01054235807463
 20
201.7972416855722
 30
0.0
 10
59.01054235807463
 20
201.7972416855722
 30
0.0
 10
59.01054235807463
 20
202.855575018641
 30
0.0
 10
59.01054235807463
 20
202.855575018641
 30
0.0
  0
SPLINE
  5
D1
330
70
100
AcDbEntity
  8
Livello 1
 62
   250
420
  1907995
370
     9
100
AcDbSpline
210
0.0
220
0.0
230
1.0
 70
    24
 71
     3
 72
     8
 73
     4
 74
     0
 42
0.0000000001
 43
0.0000000001
 40
0.0
 40
0.0
 40
0.0
 40
0.0
 40
1.0
 40
1.0
 40
1.0
 40
1.0
 10
59.01054235807463
 20
203.0672438384394
 30
0.0
 10
59.01054235807463
 20
203.0672438384394
 30
0.0
 10
59.01054235807463
 20
203.2789018923145
 30
0.0
 10
59.01054235807463
 20
203.2789018923145
 30
0.0
  0
SPLINE
  5
D2
330
70
100
AcDbEntity
  8
Livello 1
 62
   250
420
  1907995
370
     9
100
AcDbSpline
210
0.0
220
0.0
230
1.0
 70
    24
 71
     3
 72
     8
 73
     4
 74
     0
 42
0.0000000001
 43
0.0000000001
 40
0.0
 40
0.0
 40
0.0
 40
0.0
 40
1.0
 40
1.0
 40
1.0
 40
1.0
 10
59.01054235807463
 20
203.4905707121129
 30
0.0
 10
59.01054235807463
 20
203.4905707121129
 30
0.0
 10
59.01054235807463
 20
204.5912356559566
 30
0.0
 10
59.01054235807463
 20
204.5912356559566
 30
0.0
  0
SPLINE
  5
D3
330
70
100
AcDbEntity
  8
Livello 1
 62
   250
420
  1907995
370
     9
100
AcDbSpline
210
0.0
220
0.0
230
1.0
 70
    24
 71
     3
 72
     8
 73
     4
 74
     0
 42
0.0000000001
 43
0.0000000001
 40
0.0
 40
0.0
 40
0.0
 40
0.0
 40
1.0
 40
1.0
 40
1.0
 40
1.0
 10
59.01054235807463
 20
204.8029044757551
 30
0.0
 10
59.01054235807463
 20
204.8029044757551
 30
0.0
 10
59.01054235807463
 20
205.0145732955535
 30
0.0
 10
59.01054235807463
 20
205.0145732955535
 30
0.0
  0
LINE
  5
D4
330
70
100
AcDbEntity
  8
Livello 1
 62
   250
420
  1907995
370
     9
100
AcDbLine
 10
59.01054235807463
 20
205.2262421153519
 30
0.0
 11
59.01054235807463
 21
206.2845646824973
 31
0.0
  0
SPLINE
  5
D5
330
70
100
AcDbEntity
  8
Livello 1
 62
   250
420
  1907995
370
     9
100
AcDbSpline
210
0.0
220
0.0
230
1.0
 70
    24
 71
     3
 72
     8
 73
     4
 74
     0
 42
0.0000000001
 43
0.0000000001
 40
0.0
 40
0.0
 40
0.0
 40
0.0
 40
1.0
 40
1.0
 40
1.0
 40
1.0
 10
-2.457459564424586
 20
203.1942386707644
 30
0.0
 10
-2.457459564424586
 20
203.1942386707644
 30
0.0
 10
-1.399126231355835
 20
203.1942386707644
 30
0.0
 10
-1.399126231355835
 20
203.1942386707644
 30
0.0
  0
SPLINE
  5
D6
330
70
100
AcDbEntity
  8
Livello 1
 62
   250
420
  1907995
370
     9
100
AcDbSpline
210
0.0
220
0.0
230
1.0
 70
    24
 71
     3
 72
     8
 73
     4
 74
     0
 42
0.0000000001
 43
0.0000000001
 40
0.0
 40
0.0
 40
0.0
 40
0.0
 40
1.0
 40
1.0
 40
1.0
 40
1.0
 10
-1.187457411557407
 20
203.1942386707644
 30
0.0
 10
-1.187457411557407
 20
203.1942386707644
 30
0.0
 10
-0.9757885917589794
 20
203.1942386707644
 30
0.0
 10
-0.9757885917589794
 20
203.1942386707644
 30
0.0
  0
SPLINE
  5
D7
330
70
100
AcDbEntity
  8
Livello 1
 62
   250
420
  1907995
370
     9
100
AcDbSpline
210
0.0
220
0.0
230
1.0
 70
    24
 71
     3
 72
     8
 73
     4
 74
     0
 42
0.0000000001
 43
0.0000000001
 40
0.0
 40
0.0
 40
0.0
 40
0.0
 40
1.0
 40
1.0
 40
1.0
 40
1.0
 10
-0.7641251549222469
 20
203.1942386707644
 30
0.0
 10
-0.7641251549222469
 20
203.1942386707644
 30
0.0
 10
0.2942081781465032
 20
203.1942386707644
 30
0.0
 10
0.2942081781465032
 20
203.1942386707644
 30
0.0
  0
SPLINE
  5
D8
330
70
100
AcDbEntity
  8
Livello 1
 62
   250
420
  1907995
370
     9
100
AcDbSpline
210
0.0
220
0.0
230
1.0
 70
    24
 71
     3
 72
     8
 73
     4
 74
     0
 42
0.0000000001
 43
0.0000000001
 40
0.0
 40
0.0
 40
0.0
 40
0.0
 40
1.0
 40
1.0
 40
1.0
 40
1.0
 10
0.5058769979449315
 20
203.1942386707644
 30
0.0
 10
0.5058769979449315
 20
203.1942386707644
 30
0.0
 10
0.7175404347816641
 20
203.1942386707644
 30
0.0
 10
0.7175404347816641
 20
203.1942386707644
 30
0.0
  0
SPLINE
  5
D9
330
70
100
AcDbEntity
  8
Livello 1
 62
   250
420
  1907995
370
     9
100
AcDbSpline
210
0.0
220
0.0
230
1.0
 70
    24
 71
     3
 72
     8
 73
     4
 74
     0
 42
0.0000000001
 43
0.0000000001
 40
0.0
 40
0.0
 40
0.0
 40
0.0
 40
1.0
 40
1.0
 40
1.0
 40
1.0
 10
0.9292092545800924
 20
203.1942386707644
 30
0.0
 10
0.9292092545800924
 20
203.1942386707644
 30
0.0
 10
2.029874198423849
 20
203.1942386707644
 30
0.0
 10
2.029874198423849
 20
203.1942386707644
 30
0.0
  0
SPLINE
  5
DA
330
70
100
AcDbEntity
  8
Livello 1
 62
   250
420
  1907995
370
     9
100
AcDbSpline
210
0.0
220
0.0
230
1.0
 70
    24
 71
     3
 72
     8
 73
     4
 74
     0
 42
0.0000000001
 43
0.0000000001
 40
0.0
 40
0.0
 40
0.0
 40
0.0
 40
1.0
 40
1.0
 40
1.0
 40
1.0
 10
2.241543018222277
 20
203.1942386707644
 30
0.0
 10
2.241543018222277
 20
203.1942386707644
 30
0.0
 10
2.45320645505901
 20
203.1942386707644
 30
0.0
 10
2.45320645505901
 20
203.1942386707644
 30
0.0
  0
LINE
  5
DB
330
70
100
AcDbEntity
  8
Livello 1
 62
   250
420
  1907995
370
     9
100
AcDbLine
 10
2.664875274857438
 20
203.1942386707644
 30
0.0
 11
3.723208607926189
 21
203.1942386707644
 31
0.0
  0
SPLINE
  5
DC
330
70
100
AcDbEntity
  8
Livello 1
 62
   250
420
  1907995
370
     9
100
AcDbSpline
210
0.0
220
0.0
230
1.0
 70
    24
 71
     3
 72
     8
 73
     4
 74
     0
 42
0.0000000001
 43
0.0000000001
 40
0.0
 40
0.0
 40
0.0
 40
0.0
 40
1.0
 40
1.0
 40
1.0
 40
1.0
 10
0.6328772132316494
 20
200.1039018931082
 30
0.0
 10
0.6328772132316494
 20
200.1039018931082
 30
0.0
 10
0.6328772132316494
 20
201.1622352261769
 30
0.0
 10
0.6328772132316494
 20
201.1622352261769
 30
0.0
  0
SPLINE
  5
DD
330
70
100
AcDbEntity
  8
Livello 1
 62
   250
420
  1907995
370
     9
100
AcDbSpline
210
0.0
220
0.0
230
1.0
 70
    24
 71
     3
 72
     8
 73
     4
 74
     0
 42
0.0000000001
 43
0.0000000001
 40
0.0
 40
0.0
 40
0.0
 40
0.0
 40
1.0
 40
1.0
 40
1.0
 40
1.0
 10
0.6328772132316494
 20
201.3739040459754
 30
0.0
 10
0.6328772132316494
 20
201.3739040459754
 30
0.0
 10
0.6328772132316494
 20
201.5855728657738
 30
0.0
 10
0.6328772132316494
 20
201.5855728657738
 30
0.0
  0
SPLINE
  5
DE
330
70
100
AcDbEntity
  8
Livello 1
 62
   250
420
  1907995
370
     9
100
AcDbSpline
210
0.0
220
0.0
230
1.0
 70
    24
 71
     3
 72
     8
 73
     4
 74
     0
 42
0.0000000001
 43
0.0000000001
 40
0.0
 40
0.0
 40
0.0
 40
0.0
 40
1.0
 40
1.0
 40
1.0
 40
1.0
 10
0.6328772132316494
 20
201.7972416855722
 30
0.0
 10
0.6328772132316494
 20
201.7972416855722
 30
0.0
 10
0.6328772132316494
 20
202.855575018641
 30
0.0
 10
0.6328772132316494
 20
202.855575018641
 30
0.0
  0
SPLINE
  5
DF
330
70
100
AcDbEntity
  8
Livello 1
 62
   250
420
  1907995
370
     9
100
AcDbSpline
210
0.0
220
0.0
230
1.0
 70
    24
 71
     3
 72
     8
 73
     4
 74
     0
 42
0.0000000001
 43
0.0000000001
 40
0.0
 40
0.0
 40
0.0
 40
0.0
 40
1.0
 40
1.0
 40
1.0
 40
1.0
 10
0.6328772132316494
 20
203.0672438384394
 30
0.0
 10
0.6328772132316494
 20
203.0672438384394
 30
0.0
 10
0.6328772132316494
 20
203.2789018923145
 30
0.0
 10
0.6328772132316494
 20
203.2789018923145
 30
0.0
  0
SPLINE
  5
E0
330
70
100
AcDbEntity
  8
Livello 1
 62
   250
420
  1907995
370
     9
100
AcDbSpline
210
0.0
220
0.0
230
1.0
 70
    24
 71
     3
 72
     8
 73
     4
 74
     0
 42
0.0000000001
 43
0.0000000001
 40
0.0
 40
0.0
 40
0.0
 40
0.0
 40
1.0
 40
1.0
 40
1.0
 40
1.0
 10
0.6328772132316494
 20
203.4905707121129
 30
0.0
 10
0.6328772132316494
 20
203.4905707121129
 30
0.0
 10
0.6328772132316494
 20
204.5912356559566
 30
0.0
 10
0.6328772132316494
 20
204.5912356559566
 30
0.0
  0
SPLINE
  5
E1
330
70
100
AcDbEntity
  8
Livello 1
 62
   250
420
  1907995
370
     9
100
AcDbSpline
210
0.0
220
0.0
230
1.0
 70
    24
 71
     3
 72
     8
 73
     4
 74
     0
 42
0.0000000001
 43
0.0000000001
 40
0.0
 40
0.0
 40
0.0
 40
0.0
 40
1.0
 40
1.0
 40
1.0
 40
1.0
 10
0.6328772132316494
 20
204.8029044757551
 30
0.0
 10
0.6328772132316494
 20
204.8029044757551
 30
0.0
 10
0.6328772132316494
 20
205.0145732955535
 30
0.0
 10
0.6328772132316494
 20
205.0145732955535
 30
0.0
  0
LINE
  5
E2
330
70
100
AcDbEntity
  8
Livello 1
 62
   250
420
  1907995
370
     9
100
AcDbLine
 10
0.6328772132316494
 20
205.2262421153519
 30
0.0
 11
0.6328772132316494
 21
206.2845646824973
 31
0.0
  0
SPLINE
  5
E3
330
70
100
AcDbEntity
  8
Livello 1
 62
   250
420
  1907995
370
     9
100
AcDbSpline
210
0.0
220
0.0
230
1.0
 70
    24
 71
     3
 72
     8
 73
     4
 74
     0
 42
0.0000000001
 43
0.0000000001
 40
0.0
 40
0.0
 40
0.0
 40
0.0
 40
1.0
 40
1.0
 40
1.0
 40
1.0
 10
5.966875489350407
 20
189.4782369516457
 30
0.0
 10
5.966875489350407
 20
189.4782369516457
 30
0.0
 10
7.025208822419156
 20
189.4782369516457
 30
0.0
 10
7.025208822419156
 20
189.4782369516457
 30
0.0
  0
SPLINE
  5
E4
330
70
100
AcDbEntity
  8
Livello 1
 62
   250
420
  1907995
370
     9
100
AcDbSpline
210
0.0
220
0.0
230
1.0
 70
    24
 71
     3
 72
     8
 73
     4
 74
     0
 42
0.0000000001
 43
0.0000000001
 40
0.0
 40
0.0
 40
0.0
 40
0.0
 40
1.0
 40
1.0
 40
1.0
 40
1.0
 10
7.236877642217585
 20
189.4782369516457
 30
0.0
 10
7.236877642217585
 20
189.4782369516457
 30
0.0
 10
7.448541079054318
 20
189.4782369516457
 30
0.0
 10
7.448541079054318
 20
189.4782369516457
 30
0.0
  0
SPLINE
  5
E5
330
70
100
AcDbEntity
  8
Livello 1
 62
   250
420
  1907995
370
     9
100
AcDbSpline
210
0.0
220
0.0
230
1.0
 70
    24
 71
     3
 72
     8
 73
     4
 74
     0
 42
0.0000000001
 43
0.0000000001
 40
0.0
 40
0.0
 40
0.0
 40
0.0
 40
1.0
 40
1.0
 40
1.0
 40
1.0
 10
7.660209898852746
 20
189.4782369516457
 30
0.0
 10
7.660209898852746
 20
189.4782369516457
 30
0.0
 10
8.760874842696503
 20
189.4782369516457
 30
0.0
 10
8.760874842696503
 20
189.4782369516457
 30
0.0
  0
SPLINE
  5
E6
330
70
100
AcDbEntity
  8
Livello 1
 62
   250
420
  1907995
370
     9
100
AcDbSpline
210
0.0
220
0.0
230
1.0
 70
    24
 71
     3
 72
     8
 73
     4
 74
     0
 42
0.0000000001
 43
0.0000000001
 40
0.0
 40
0.0
 40
0.0
 40
0.0
 40
1.0
 40
1.0
 40
1.0
 40
1.0
 10
8.972543662494931
 20
189.4782369516457
 30
0.0
 10
8.972543662494931
 20
189.4782369516457
 30
0.0
 10
9.184207099331665
 20
189.4782369516457
 30
0.0
 10
9.184207099331665
 20
189.4782369516457
 30
0.0
  0
SPLINE
  5
E7
330
70
100
AcDbEntity
  8
Livello 1
 62
   250
420
  1907995
370
     9
100
AcDbSpline
210
0.0
220
0.0
230
1.0
 70
    24
 71
     3
 72
     8
 73
     4
 74
     0
 42
0.0000000001
 43
0.0000000001
 40
0.0
 40
0.0
 40
0.0
 40
0.0
 40
1.0
 40
1.0
 40
1.0
 40
1.0
 10
9.395875919130093
 20
189.4782369516457
 30
0.0
 10
9.395875919130093
 20
189.4782369516457
 30
0.0
 10
10.45420386923715
 20
189.4782369516457
 30
0.0
 10
10.45420386923715
 20
189.4782369516457
 30
0.0
  0
SPLINE
  5
E8
330
70
100
AcDbEntity
  8
Livello 1
 62
   250
420
  1907995
370
     9
100
AcDbSpline
210
0.0
220
0.0
230
1.0
 70
    24
 71
     3
 72
     8
 73
     4
 74
     0
 42
0.0000000001
 43
0.0000000001
 40
0.0
 40
0.0
 40
0.0
 40
0.0
 40
1.0
 40
1.0
 40
1.0
 40
1.0
 10
10.66587268903557
 20
189.4782369516457
 30
0.0
 10
10.66587268903557
 20
189.4782369516457
 30
0.0
 10
10.877541508834
 20
189.4782369516457
 30
0.0
 10
10.877541508834
 20
189.4782369516457
 30
0.0
  0
LINE
  5
E9
330
70
100
AcDbEntity
  8
Livello 1
 62
   250
420
  1907995
370
     9
100
AcDbLine
 10
11.08921032863243
 20
189.4782369516457
 30
0.0
 11
12.14754366170118
 21
189.4782369516457
 31
0.0
  0
SPLINE
  5
EA
330
70
100
AcDbEntity
  8
Livello 1
 62
   250
420
  1907995
370
     9
100
AcDbSpline
210
0.0
220
0.0
230
1.0
 70
    24
 71
     3
 72
     8
 73
     4
 74
     0
 42
0.0000000001
 43
0.0000000001
 40
0.0
 40
0.0
 40
0.0
 40
0.0
 40
1.0
 40
1.0
 40
1.0
 40
1.0
 10
9.057206884044946
 20
186.3455685632144
 30
0.0
 10
9.057206884044946
 20
186.3455685632144
 30
0.0
 10
9.057206884044946
 20
187.4039018962832
 30
0.0
 10
9.057206884044946
 20
187.4039018962832
 30
0.0
  0
SPLINE
  5
EB
330
70
100
AcDbEntity
  8
Livello 1
 62
   250
420
  1907995
370
     9
100
AcDbSpline
210
0.0
220
0.0
230
1.0
 70
    24
 71
     3
 72
     8
 73
     4
 74
     0
 42
0.0000000001
 43
0.0000000001
 40
0.0
 40
0.0
 40
0.0
 40
0.0
 40
1.0
 40
1.0
 40
1.0
 40
1.0
 10
9.057206884044946
 20
187.6155707160816
 30
0.0
 10
9.057206884044946
 20
187.6155707160816
 30
0.0
 10
9.057206884044946
 20
187.869571146655
 30
0.0
 10
9.057206884044946
 20
187.869571146655
 30
0.0
  0
SPLINE
  5
EC
330
70
100
AcDbEntity
  8
Livello 1
 62
   250
420
  1907995
370
     9
100
AcDbSpline
210
0.0
220
0.0
230
1.0
 70
    24
 71
     3
 72
     8
 73
     4
 74
     0
 42
0.0000000001
 43
0.0000000001
 40
0.0
 40
0.0
 40
0.0
 40
0.0
 40
1.0
 40
1.0
 40
1.0
 40
1.0
 10
9.057206884044946
 20
188.0812399664535
 30
0.0
 10
9.057206884044946
 20
188.0812399664535
 30
0.0
 10
9.057206884044946
 20
189.1395732995222
 30
0.0
 10
9.057206884044946
 20
189.1395732995222
 30
0.0
  0
SPLINE
  5
ED
330
70
100
AcDbEntity
  8
Livello 1
 62
   250
420
  1907995
370
     9
100
AcDbSpline
210
0.0
220
0.0
230
1.0
 70
    24
 71
     3
 72
     8
 73
     4
 74
     0
 42
0.0000000001
 43
0.0000000001
 40
0.0
 40
0.0
 40
0.0
 40
0.0
 40
1.0
 40
1.0
 40
1.0
 40
1.0
 10
9.057206884044946
 20
189.3512421193207
 30
0.0
 10
9.057206884044946
 20
189.3512421193207
 30
0.0
 10
9.057206884044946
 20
189.5629109391191
 30
0.0
 10
9.057206884044946
 20
189.5629109391191
 30
0.0
  0
SPLINE
  5
EE
330
70
100
AcDbEntity
  8
Livello 1
 62
   250
420
  1907995
370
     9
100
AcDbSpline
210
0.0
220
0.0
230
1.0
 70
    24
 71
     3
 72
     8
 73
     4
 74
     0
 42
0.0000000001
 43
0.0000000001
 40
0.0
 40
0.0
 40
0.0
 40
0.0
 40
1.0
 40
1.0
 40
1.0
 40
1.0
 10
9.057206884044946
 20
189.7745689929941
 30
0.0
 10
9.057206884044946
 20
189.7745689929941
 30
0.0
 10
9.057206884044946
 20
190.8329023260629
 30
0.0
 10
9.057206884044946
 20
190.8329023260629
 30
0.0
  0
SPLINE
  5
EF
330
70
100
AcDbEntity
  8
Livello 1
 62
   250
420
  1907995
370
     9
100
AcDbSpline
210
0.0
220
0.0
230
1.0
 70
    24
 71
     3
 72
     8
 73
     4
 74
     0
 42
0.0000000001
 43
0.0000000001
 40
0.0
 40
0.0
 40
0.0
 40
0.0
 40
1.0
 40
1.0
 40
1.0
 40
1.0
 10
9.057206884044946
 20
191.0869027566363
 30
0.0
 10
9.057206884044946
 20
191.0869027566363
 30
0.0
 10
9.057206884044946
 20
191.2985715764347
 30
0.0
 10
9.057206884044946
 20
191.2985715764347
 30
0.0
  0
LINE
  5
F0
330
70
100
AcDbEntity
  8
Livello 1
 62
   250
420
  1907995
370
     9
100
AcDbLine
 10
9.057206884044946
 20
191.5102403962331
 30
0.0
 11
9.057206884044946
 21
192.5685737293019
 31
0.0
  0
SPLINE
  5
F1
330
70
100
AcDbEntity
  8
Livello 1
 62
   250
420
  1907995
370
     9
100
AcDbSpline
210
0.0
220
0.0
230
1.0
 70
    24
 71
     3
 72
     8
 73
     4
 74
     0
 42
0.0000000001
 43
0.0000000001
 40
0.0
 40
0.0
 40
0.0
 40
0.0
 40
1.0
 40
1.0
 40
1.0
 40
1.0
 10
4.358209684359778
 20
177.2015745944175
 30
0.0
 10
4.358209684359778
 20
177.2015745944175
 30
0.0
 10
5.416543017428527
 20
177.2015745944175
 30
0.0
 10
5.416543017428527
 20
177.2015745944175
 30
0.0
  0
SPLINE
  5
F2
330
70
100
AcDbEntity
  8
Livello 1
 62
   250
420
  1907995
370
     9
100
AcDbSpline
210
0.0
220
0.0
230
1.0
 70
    24
 71
     3
 72
     8
 73
     4
 74
     0
 42
0.0000000001
 43
0.0000000001
 40
0.0
 40
0.0
 40
0.0
 40
0.0
 40
1.0
 40
1.0
 40
1.0
 40
1.0
 10
5.62820645426526
 20
177.2015745944175
 30
0.0
 10
5.62820645426526
 20
177.2015745944175
 30
0.0
 10
5.839875274063689
 20
177.2015745944175
 30
0.0
 10
5.839875274063689
 20
177.2015745944175
 30
0.0
  0
SPLINE
  5
F3
330
70
100
AcDbEntity
  8
Livello 1
 62
   250
420
  1907995
370
     9
100
AcDbSpline
210
0.0
220
0.0
230
1.0
 70
    24
 71
     3
 72
     8
 73
     4
 74
     0
 42
0.0000000001
 43
0.0000000001
 40
0.0
 40
0.0
 40
0.0
 40
0.0
 40
1.0
 40
1.0
 40
1.0
 40
1.0
 10
6.051544093862117
 20
177.2015745944175
 30
0.0
 10
6.051544093862117
 20
177.2015745944175
 30
0.0
 10
7.109877426930867
 20
177.2015745944175
 30
0.0
 10
7.109877426930867
 20
177.2015745944175
 30
0.0
  0
SPLINE
  5
F4
330
70
100
AcDbEntity
  8
Livello 1
 62
   250
420
  1907995
370
     9
100
AcDbSpline
210
0.0
220
0.0
230
1.0
 70
    24
 71
     3
 72
     8
 73
     4
 74
     0
 42
0.0000000001
 43
0.0000000001
 40
0.0
 40
0.0
 40
0.0
 40
0.0
 40
1.0
 40
1.0
 40
1.0
 40
1.0
 10
7.3215408637676
 20
177.2015745944175
 30
0.0
 10
7.3215408637676
 20
177.2015745944175
 30
0.0
 10
7.533209683566028
 20
177.2015745944175
 30
0.0
 10
7.533209683566028
 20
177.2015745944175
 30
0.0
  0
SPLINE
  5
F5
330
70
100
AcDbEntity
  8
Livello 1
 62
   250
420
  1907995
370
     9
100
AcDbSpline
210
0.0
220
0.0
230
1.0
 70
    24
 71
     3
 72
     8
 73
     4
 74
     0
 42
0.0000000001
 43
0.0000000001
 40
0.0
 40
0.0
 40
0.0
 40
0.0
 40
1.0
 40
1.0
 40
1.0
 40
1.0
 10
7.74487312040276
 20
177.2015745944175
 30
0.0
 10
7.74487312040276
 20
177.2015745944175
 30
0.0
 10
8.845543447208214
 20
177.2015745944175
 30
0.0
 10
8.845543447208214
 20
177.2015745944175
 30
0.0
  0
SPLINE
  5
F6
330
70
100
AcDbEntity
  8
Livello 1
 62
   250
420
  1907995
370
     9
100
AcDbSpline
210
0.0
220
0.0
230
1.0
 70
    24
 71
     3
 72
     8
 73
     4
 74
     0
 42
0.0000000001
 43
0.0000000001
 40
0.0
 40
0.0
 40
0.0
 40
0.0
 40
1.0
 40
1.0
 40
1.0
 40
1.0
 10
9.057206884044946
 20
177.2015745944175
 30
0.0
 10
9.057206884044946
 20
177.2015745944175
 30
0.0
 10
9.268875703843374
 20
177.2015745944175
 30
0.0
 10
9.268875703843374
 20
177.2015745944175
 30
0.0
  0
LINE
  5
F7
330
70
100
AcDbEntity
  8
Livello 1
 62
   250
420
  1907995
370
     9
100
AcDbLine
 10
9.480544523641803
 20
177.2015745944175
 30
0.0
 11
10.53887785671055
 21
177.2015745944175
 31
0.0
  0
SPLINE
  5
F8
330
70
100
AcDbEntity
  8
Livello 1
 62
   250
420
  1907995
370
     9
100
AcDbSpline
210
0.0
220
0.0
230
1.0
 70
    24
 71
     3
 72
     8
 73
     4
 74
     0
 42
0.0000000001
 43
0.0000000001
 40
0.0
 40
0.0
 40
0.0
 40
0.0
 40
1.0
 40
1.0
 40
1.0
 40
1.0
 10
7.448541079054318
 20
174.1112378167613
 30
0.0
 10
7.448541079054318
 20
174.1112378167613
 30
0.0
 10
7.448541079054318
 20
175.16957114983
 30
0.0
 10
7.448541079054318
 20
175.16957114983
 30
0.0
  0
SPLINE
  5
F9
330
70
100
AcDbEntity
  8
Livello 1
 62
   250
420
  1907995
370
     9
100
AcDbSpline
210
0.0
220
0.0
230
1.0
 70
    24
 71
     3
 72
     8
 73
     4
 74
     0
 42
0.0000000001
 43
0.0000000001
 40
0.0
 40
0.0
 40
0.0
 40
0.0
 40
1.0
 40
1.0
 40
1.0
 40
1.0
 10
7.448541079054318
 20
175.3812399696285
 30
0.0
 10
7.448541079054318
 20
175.3812399696285
 30
0.0
 10
7.448541079054318
 20
175.5929087894269
 30
0.0
 10
7.448541079054318
 20
175.5929087894269
 30
0.0
  0
SPLINE
  5
FA
330
70
100
AcDbEntity
  8
Livello 1
 62
   250
420
  1907995
370
     9
100
AcDbSpline
210
0.0
220
0.0
230
1.0
 70
    24
 71
     3
 72
     8
 73
     4
 74
     0
 42
0.0000000001
 43
0.0000000001
 40
0.0
 40
0.0
 40
0.0
 40
0.0
 40
1.0
 40
1.0
 40
1.0
 40
1.0
 10
7.448541079054318
 20
175.8045776092253
 30
0.0
 10
7.448541079054318
 20
175.8045776092253
 30
0.0
 10
7.448541079054318
 20
176.8629109422941
 30
0.0
 10
7.448541079054318
 20
176.8629109422941
 30
0.0
  0
SPLINE
  5
FB
330
70
100
AcDbEntity
  8
Livello 1
 62
   250
420
  1907995
370
     9
100
AcDbSpline
210
0.0
220
0.0
230
1.0
 70
    24
 71
     3
 72
     8
 73
     4
 74
     0
 42
0.0000000001
 43
0.0000000001
 40
0.0
 40
0.0
 40
0.0
 40
0.0
 40
1.0
 40
1.0
 40
1.0
 40
1.0
 10
7.448541079054318
 20
177.0745689961691
 30
0.0
 10
7.448541079054318
 20
177.0745689961691
 30
0.0
 10
7.448541079054318
 20
177.2862378159676
 30
0.0
 10
7.448541079054318
 20
177.2862378159676
 30
0.0
  0
SPLINE
  5
FC
330
70
100
AcDbEntity
  8
Livello 1
 62
   250
420
  1907995
370
     9
100
AcDbSpline
210
0.0
220
0.0
230
1.0
 70
    24
 71
     3
 72
     8
 73
     4
 74
     0
 42
0.0000000001
 43
0.0000000001
 40
0.0
 40
0.0
 40
0.0
 40
0.0
 40
1.0
 40
1.0
 40
1.0
 40
1.0
 10
7.448541079054318
 20
177.497906635766
 30
0.0
 10
7.448541079054318
 20
177.497906635766
 30
0.0
 10
7.448541079054318
 20
178.5985715796097
 30
0.0
 10
7.448541079054318
 20
178.5985715796097
 30
0.0
  0
SPLINE
  5
FD
330
70
100
AcDbEntity
  8
Livello 1
 62
   250
420
  1907995
370
     9
100
AcDbSpline
210
0.0
220
0.0
230
1.0
 70
    24
 71
     3
 72
     8
 73
     4
 74
     0
 42
0.0000000001
 43
0.0000000001
 40
0.0
 40
0.0
 40
0.0
 40
0.0
 40
1.0
 40
1.0
 40
1.0
 40
1.0
 10
7.448541079054318
 20
178.8102403994082
 30
0.0
 10
7.448541079054318
 20
178.8102403994082
 30
0.0
 10
7.448541079054318
 20
179.0219092192066
 30
0.0
 10
7.448541079054318
 20
179.0219092192066
 30
0.0
  0
LINE
  5
FE
330
70
100
AcDbEntity
  8
Livello 1
 62
   250
420
  1907995
370
     9
100
AcDbLine
 10
7.448541079054318
 20
179.233578039005
 30
0.0
 11
7.448541079054318
 21
180.2919113720738
 31
0.0
  0
SPLINE
  5
FF
330
70
100
AcDbEntity
  8
Livello 1
 62
   250
420
  1907995
370
     9
100
AcDbSpline
210
0.0
220
0.0
230
1.0
 70
    24
 71
     3
 72
     8
 73
     4
 74
     0
 42
0.0000000001
 43
0.0000000001
 40
0.0
 40
0.0
 40
0.0
 40
0.0
 40
1.0
 40
1.0
 40
1.0
 40
1.0
 10
47.4958705266434
 20
189.4782369516457
 30
0.0
 10
47.4958705266434
 20
189.4782369516457
 30
0.0
 10
48.55420385971214
 20
189.4782369516457
 30
0.0
 10
48.55420385971214
 20
189.4782369516457
 30
0.0
  0
SPLINE
  5
100
330
70
100
AcDbEntity
  8
Livello 1
 62
   250
420
  1907995
370
     9
100
AcDbSpline
210
0.0
220
0.0
230
1.0
 70
    24
 71
     3
 72
     8
 73
     4
 74
     0
 42
0.0000000001
 43
0.0000000001
 40
0.0
 40
0.0
 40
0.0
 40
0.0
 40
1.0
 40
1.0
 40
1.0
 40
1.0
 10
48.76587267951058
 20
189.4782369516457
 30
0.0
 10
48.76587267951058
 20
189.4782369516457
 30
0.0
 10
48.977541499309
 20
189.4782369516457
 30
0.0
 10
48.977541499309
 20
189.4782369516457
 30
0.0
  0
SPLINE
  5
101
330
70
100
AcDbEntity
  8
Livello 1
 62
   250
420
  1907995
370
     9
100
AcDbSpline
210
0.0
220
0.0
230
1.0
 70
    24
 71
     3
 72
     8
 73
     4
 74
     0
 42
0.0000000001
 43
0.0000000001
 40
0.0
 40
0.0
 40
0.0
 40
0.0
 40
1.0
 40
1.0
 40
1.0
 40
1.0
 10
49.18921031910743
 20
189.4782369516457
 30
0.0
 10
49.18921031910743
 20
189.4782369516457
 30
0.0
 10
50.24754365217618
 20
189.4782369516457
 30
0.0
 10
50.24754365217618
 20
189.4782369516457
 30
0.0
  0
SPLINE
  5
102
330
70
100
AcDbEntity
  8
Livello 1
 62
   250
420
  1907995
370
     9
100
AcDbSpline
210
0.0
220
0.0
230
1.0
 70
    24
 71
     3
 72
     8
 73
     4
 74
     0
 42
0.0000000001
 43
0.0000000001
 40
0.0
 40
0.0
 40
0.0
 40
0.0
 40
1.0
 40
1.0
 40
1.0
 40
1.0
 10
50.45920170605121
 20
189.4782369516457
 30
0.0
 10
50.45920170605121
 20
189.4782369516457
 30
0.0
 10
50.67087052584965
 20
189.4782369516457
 30
0.0
 10
50.67087052584965
 20
189.4782369516457
 30
0.0
  0
SPLINE
  5
103
330
70
100
AcDbEntity
  8
Livello 1
 62
   250
420
  1907995
370
     9
100
AcDbSpline
210
0.0
220
0.0
230
1.0
 70
    24
 71
     3
 72
     8
 73
     4
 74
     0
 42
0.0000000001
 43
0.0000000001
 40
0.0
 40
0.0
 40
0.0
 40
0.0
 40
1.0
 40
1.0
 40
1.0
 40
1.0
 10
50.88253934564807
 20
189.4782369516457
 30
0.0
 10
50.88253934564807
 20
189.4782369516457
 30
0.0
 10
51.98320428949184
 20
189.4782369516457
 30
0.0
 10
51.98320428949184
 20
189.4782369516457
 30
0.0
  0
SPLINE
  5
104
330
70
100
AcDbEntity
  8
Livello 1
 62
   250
420
  1907995
370
     9
100
AcDbSpline
210
0.0
220
0.0
230
1.0
 70
    24
 71
     3
 72
     8
 73
     4
 74
     0
 42
0.0000000001
 43
0.0000000001
 40
0.0
 40
0.0
 40
0.0
 40
0.0
 40
1.0
 40
1.0
 40
1.0
 40
1.0
 10
52.19487310929026
 20
189.4782369516457
 30
0.0
 10
52.19487310929026
 20
189.4782369516457
 30
0.0
 10
52.40654192908869
 20
189.4782369516457
 30
0.0
 10
52.40654192908869
 20
189.4782369516457
 30
0.0
  0
LINE
  5
105
330
70
100
AcDbEntity
  8
Livello 1
 62
   250
420
  1907995
370
     9
100
AcDbLine
 10
52.61819998296373
 20
189.4782369516457
 30
0.0
 11
53.67653331603247
 21
189.4782369516457
 31
0.0
  0
SPLINE
  5
106
330
70
100
AcDbEntity
  8
Livello 1
 62
   250
420
  1907995
370
     9
100
AcDbSpline
210
0.0
220
0.0
230
1.0
 70
    24
 71
     3
 72
     8
 73
     4
 74
     0
 42
0.0000000001
 43
0.0000000001
 40
0.0
 40
0.0
 40
0.0
 40
0.0
 40
1.0
 40
1.0
 40
1.0
 40
1.0
 10
50.58620730429963
 20
186.3455685632144
 30
0.0
 10
50.58620730429963
 20
186.3455685632144
 30
0.0
 10
50.58620730429963
 20
187.4039018962832
 30
0.0
 10
50.58620730429963
 20
187.4039018962832
 30
0.0
  0
SPLINE
  5
107
330
70
100
AcDbEntity
  8
Livello 1
 62
   250
420
  1907995
370
     9
100
AcDbSpline
210
0.0
220
0.0
230
1.0
 70
    24
 71
     3
 72
     8
 73
     4
 74
     0
 42
0.0000000001
 43
0.0000000001
 40
0.0
 40
0.0
 40
0.0
 40
0.0
 40
1.0
 40
1.0
 40
1.0
 40
1.0
 10
50.58620730429963
 20
187.6155707160816
 30
0.0
 10
50.58620730429963
 20
187.6155707160816
 30
0.0
 10
50.58620730429963
 20
187.869571146655
 30
0.0
 10
50.58620730429963
 20
187.869571146655
 30
0.0
  0
SPLINE
  5
108
330
70
100
AcDbEntity
  8
Livello 1
 62
   250
420
  1907995
370
     9
100
AcDbSpline
210
0.0
220
0.0
230
1.0
 70
    24
 71
     3
 72
     8
 73
     4
 74
     0
 42
0.0000000001
 43
0.0000000001
 40
0.0
 40
0.0
 40
0.0
 40
0.0
 40
1.0
 40
1.0
 40
1.0
 40
1.0
 10
50.58620730429963
 20
188.0812399664535
 30
0.0
 10
50.58620730429963
 20
188.0812399664535
 30
0.0
 10
50.58620730429963
 20
189.1395732995222
 30
0.0
 10
50.58620730429963
 20
189.1395732995222
 30
0.0
  0
SPLINE
  5
109
330
70
100
AcDbEntity
  8
Livello 1
 62
   250
420
  1907995
370
     9
100
AcDbSpline
210
0.0
220
0.0
230
1.0
 70
    24
 71
     3
 72
     8
 73
     4
 74
     0
 42
0.0000000001
 43
0.0000000001
 40
0.0
 40
0.0
 40
0.0
 40
0.0
 40
1.0
 40
1.0
 40
1.0
 40
1.0
 10
50.58620730429963
 20
189.3512421193207
 30
0.0
 10
50.58620730429963
 20
189.3512421193207
 30
0.0
 10
50.58620730429963
 20
189.5629109391191
 30
0.0
 10
50.58620730429963
 20
189.5629109391191
 30
0.0
  0
SPLINE
  5
10A
330
70
100
AcDbEntity
  8
Livello 1
 62
   250
420
  1907995
370
     9
100
AcDbSpline
210
0.0
220
0.0
230
1.0
 70
    24
 71
     3
 72
     8
 73
     4
 74
     0
 42
0.0000000001
 43
0.0000000001
 40
0.0
 40
0.0
 40
0.0
 40
0.0
 40
1.0
 40
1.0
 40
1.0
 40
1.0
 10
50.58620730429963
 20
189.7745689929941
 30
0.0
 10
50.58620730429963
 20
189.7745689929941
 30
0.0
 10
50.58620730429963
 20
190.8329023260629
 30
0.0
 10
50.58620730429963
 20
190.8329023260629
 30
0.0
  0
SPLINE
  5
10B
330
70
100
AcDbEntity
  8
Livello 1
 62
   250
420
  1907995
370
     9
100
AcDbSpline
210
0.0
220
0.0
230
1.0
 70
    24
 71
     3
 72
     8
 73
     4
 74
     0
 42
0.0000000001
 43
0.0000000001
 40
0.0
 40
0.0
 40
0.0
 40
0.0
 40
1.0
 40
1.0
 40
1.0
 40
1.0
 10
50.58620730429963
 20
191.0869027566363
 30
0.0
 10
50.58620730429963
 20
191.0869027566363
 30
0.0
 10
50.58620730429963
 20
191.2985715764347
 30
0.0
 10
50.58620730429963
 20
191.2985715764347
 30
0.0
  0
LINE
  5
10C
330
70
100
AcDbEntity
  8
Livello 1
 62
   250
420
  1907995
370
     9
100
AcDbLine
 10
50.58620730429963
 20
191.5102403962331
 30
0.0
 11
50.58620730429963
 21
192.5685737293019
 31
0.0
  0
SPLINE
  5
10D
330
70
100
AcDbEntity
  8
Livello 1
 62
   250
420
  1907995
370
     9
100
AcDbSpline
210
0.0
220
0.0
230
1.0
 70
    24
 71
     3
 72
     8
 73
     4
 74
     0
 42
0.0000000001
 43
0.0000000001
 40
0.0
 40
0.0
 40
0.0
 40
0.0
 40
1.0
 40
1.0
 40
1.0
 40
1.0
 10
49.10453633163402
 20
177.2015745944175
 30
0.0
 10
49.10453633163402
 20
177.2015745944175
 30
0.0
 10
50.16286966470278
 20
177.2015745944175
 30
0.0
 10
50.16286966470278
 20
177.2015745944175
 30
0.0
  0
SPLINE
  5
10E
330
70
100
AcDbEntity
  8
Livello 1
 62
   250
420
  1907995
370
     9
100
AcDbSpline
210
0.0
220
0.0
230
1.0
 70
    24
 71
     3
 72
     8
 73
     4
 74
     0
 42
0.0000000001
 43
0.0000000001
 40
0.0
 40
0.0
 40
0.0
 40
0.0
 40
1.0
 40
1.0
 40
1.0
 40
1.0
 10
50.37453848450121
 20
177.2015745944175
 30
0.0
 10
50.37453848450121
 20
177.2015745944175
 30
0.0
 10
50.58620730429963
 20
177.2015745944175
 30
0.0
 10
50.58620730429963
 20
177.2015745944175
 30
0.0
  0
SPLINE
  5
10F
330
70
100
AcDbEntity
  8
Livello 1
 62
   250
420
  1907995
370
     9
100
AcDbSpline
210
0.0
220
0.0
230
1.0
 70
    24
 71
     3
 72
     8
 73
     4
 74
     0
 42
0.0000000001
 43
0.0000000001
 40
0.0
 40
0.0
 40
0.0
 40
0.0
 40
1.0
 40
1.0
 40
1.0
 40
1.0
 10
50.84020773487306
 20
177.2015745944175
 30
0.0
 10
50.84020773487306
 20
177.2015745944175
 30
0.0
 10
51.89854106794182
 20
177.2015745944175
 30
0.0
 10
51.89854106794182
 20
177.2015745944175
 30
0.0
  0
SPLINE
  5
110
330
70
100
AcDbEntity
  8
Livello 1
 62
   250
420
  1907995
370
     9
100
AcDbSpline
210
0.0
220
0.0
230
1.0
 70
    24
 71
     3
 72
     8
 73
     4
 74
     0
 42
0.0000000001
 43
0.0000000001
 40
0.0
 40
0.0
 40
0.0
 40
0.0
 40
1.0
 40
1.0
 40
1.0
 40
1.0
 10
52.11020988774024
 20
177.2015745944175
 30
0.0
 10
52.11020988774024
 20
177.2015745944175
 30
0.0
 10
52.32186794161528
 20
177.2015745944175
 30
0.0
 10
52.32186794161528
 20
177.2015745944175
 30
0.0
  0
SPLINE
  5
111
330
70
100
AcDbEntity
  8
Livello 1
 62
   250
420
  1907995
370
     9
100
AcDbSpline
210
0.0
220
0.0
230
1.0
 70
    24
 71
     3
 72
     8
 73
     4
 74
     0
 42
0.0000000001
 43
0.0000000001
 40
0.0
 40
0.0
 40
0.0
 40
0.0
 40
1.0
 40
1.0
 40
1.0
 40
1.0
 10
52.53353676141371
 20
177.2015745944175
 30
0.0
 10
52.53353676141371
 20
177.2015745944175
 30
0.0
 10
53.59187009448246
 20
177.2015745944175
 30
0.0
 10
53.59187009448246
 20
177.2015745944175
 30
0.0
  0
SPLINE
  5
112
330
70
100
AcDbEntity
  8
Livello 1
 62
   250
420
  1907995
370
     9
100
AcDbSpline
210
0.0
220
0.0
230
1.0
 70
    24
 71
     3
 72
     8
 73
     4
 74
     0
 42
0.0000000001
 43
0.0000000001
 40
0.0
 40
0.0
 40
0.0
 40
0.0
 40
1.0
 40
1.0
 40
1.0
 40
1.0
 10
53.80353891428089
 20
177.2015745944175
 30
0.0
 10
53.80353891428089
 20
177.2015745944175
 30
0.0
 10
54.05753934485432
 20
177.2015745944175
 30
0.0
 10
54.05753934485432
 20
177.2015745944175
 30
0.0
  0
LINE
  5
113
330
70
100
AcDbEntity
  8
Livello 1
 62
   250
420
  1907995
370
     9
100
AcDbLine
 10
54.26920816465275
 20
177.2015745944175
 30
0.0
 11
55.3275414977215
 21
177.2015745944175
 31
0.0
  0
SPLINE
  5
114
330
70
100
AcDbEntity
  8
Livello 1
 62
   250
420
  1907995
370
     9
100
AcDbSpline
210
0.0
220
0.0
230
1.0
 70
    24
 71
     3
 72
     8
 73
     4
 74
     0
 42
0.0000000001
 43
0.0000000001
 40
0.0
 40
0.0
 40
0.0
 40
0.0
 40
1.0
 40
1.0
 40
1.0
 40
1.0
 10
52.19487310929026
 20
174.1112378167613
 30
0.0
 10
52.19487310929026
 20
174.1112378167613
 30
0.0
 10
52.19487310929026
 20
175.16957114983
 30
0.0
 10
52.19487310929026
 20
175.16957114983
 30
0.0
  0
SPLINE
  5
115
330
70
100
AcDbEntity
  8
Livello 1
 62
   250
420
  1907995
370
     9
100
AcDbSpline
210
0.0
220
0.0
230
1.0
 70
    24
 71
     3
 72
     8
 73
     4
 74
     0
 42
0.0000000001
 43
0.0000000001
 40
0.0
 40
0.0
 40
0.0
 40
0.0
 40
1.0
 40
1.0
 40
1.0
 40
1.0
 10
52.19487310929026
 20
175.3812399696285
 30
0.0
 10
52.19487310929026
 20
175.3812399696285
 30
0.0
 10
52.19487310929026
 20
175.5929087894269
 30
0.0
 10
52.19487310929026
 20
175.5929087894269
 30
0.0
  0
SPLINE
  5
116
330
70
100
AcDbEntity
  8
Livello 1
 62
   250
420
  1907995
370
     9
100
AcDbSpline
210
0.0
220
0.0
230
1.0
 70
    24
 71
     3
 72
     8
 73
     4
 74
     0
 42
0.0000000001
 43
0.0000000001
 40
0.0
 40
0.0
 40
0.0
 40
0.0
 40
1.0
 40
1.0
 40
1.0
 40
1.0
 10
52.19487310929026
 20
175.8045776092253
 30
0.0
 10
52.19487310929026
 20
175.8045776092253
 30
0.0
 10
52.19487310929026
 20
176.8629109422941
 30
0.0
 10
52.19487310929026
 20
176.8629109422941
 30
0.0
  0
SPLINE
  5
117
330
70
100
AcDbEntity
  8
Livello 1
 62
   250
420
  1907995
370
     9
100
AcDbSpline
210
0.0
220
0.0
230
1.0
 70
    24
 71
     3
 72
     8
 73
     4
 74
     0
 42
0.0000000001
 43
0.0000000001
 40
0.0
 40
0.0
 40
0.0
 40
0.0
 40
1.0
 40
1.0
 40
1.0
 40
1.0
 10
52.19487310929026
 20
177.0745689961691
 30
0.0
 10
52.19487310929026
 20
177.0745689961691
 30
0.0
 10
52.19487310929026
 20
177.2862378159676
 30
0.0
 10
52.19487310929026
 20
177.2862378159676
 30
0.0
  0
SPLINE
  5
118
330
70
100
AcDbEntity
  8
Livello 1
 62
   250
420
  1907995
370
     9
100
AcDbSpline
210
0.0
220
0.0
230
1.0
 70
    24
 71
     3
 72
     8
 73
     4
 74
     0
 42
0.0000000001
 43
0.0000000001
 40
0.0
 40
0.0
 40
0.0
 40
0.0
 40
1.0
 40
1.0
 40
1.0
 40
1.0
 10
52.19487310929026
 20
177.497906635766
 30
0.0
 10
52.19487310929026
 20
177.497906635766
 30
0.0
 10
52.19487310929026
 20
178.5985715796097
 30
0.0
 10
52.19487310929026
 20
178.5985715796097
 30
0.0
  0
SPLINE
  5
119
330
70
100
AcDbEntity
  8
Livello 1
 62
   250
420
  1907995
370
     9
100
AcDbSpline
210
0.0
220
0.0
230
1.0
 70
    24
 71
     3
 72
     8
 73
     4
 74
     0
 42
0.0000000001
 43
0.0000000001
 40
0.0
 40
0.0
 40
0.0
 40
0.0
 40
1.0
 40
1.0
 40
1.0
 40
1.0
 10
52.19487310929026
 20
178.8102403994082
 30
0.0
 10
52.19487310929026
 20
178.8102403994082
 30
0.0
 10
52.19487310929026
 20
179.0219092192066
 30
0.0
 10
52.19487310929026
 20
179.0219092192066
 30
0.0
  0
LINE
  5
11A
330
70
100
AcDbEntity
  8
Livello 1
 62
   250
420
  1907995
370
     9
100
AcDbLine
 10
52.19487310929026
 20
179.233578039005
 30
0.0
 11
52.19487310929026
 21
180.2919113720738
 31
0.0
  0
SPLINE
  5
11B
330
70
100
AcDbEntity
  8
Livello 1
 62
   250
420
  1907995
370
     9
100
AcDbSpline
210
0.0
220
0.0
230
1.0
 70
    24
 71
     3
 72
     8
 73
     4
 74
     0
 42
0.0000000001
 43
0.0000000001
 40
0.0
 40
0.0
 40
0.0
 40
0.0
 40
1.0
 40
1.0
 40
1.0
 40
1.0
 10
-4.955126876422239
 20
136.5192279215098
 30
0.0
 10
-4.955126876422239
 20
136.5192279215098
 30
0.0
 10
-3.896793543353489
 20
136.5192279215098
 30
0.0
 10
-3.896793543353489
 20
136.5192279215098
 30
0.0
  0
SPLINE
  5
11C
330
70
100
AcDbEntity
  8
Livello 1
 62
   250
420
  1907995
370
     9
100
AcDbSpline
210
0.0
220
0.0
230
1.0
 70
    24
 71
     3
 72
     8
 73
     4
 74
     0
 42
0.0000000001
 43
0.0000000001
 40
0.0
 40
0.0
 40
0.0
 40
0.0
 40
1.0
 40
1.0
 40
1.0
 40
1.0
 10
-3.685124723555061
 20
136.5192279215098
 30
0.0
 10
-3.685124723555061
 20
136.5192279215098
 30
0.0
 10
-3.473455903756633
 20
136.5192279215098
 30
0.0
 10
-3.473455903756633
 20
136.5192279215098
 30
0.0
  0
SPLINE
  5
11D
330
70
100
AcDbEntity
  8
Livello 1
 62
   250
420
  1907995
370
     9
100
AcDbSpline
210
0.0
220
0.0
230
1.0
 70
    24
 71
     3
 72
     8
 73
     4
 74
     0
 42
0.0000000001
 43
0.0000000001
 40
0.0
 40
0.0
 40
0.0
 40
0.0
 40
1.0
 40
1.0
 40
1.0
 40
1.0
 10
-3.2617924669199
 20
136.5192279215098
 30
0.0
 10
-3.2617924669199
 20
136.5192279215098
 30
0.0
 10
-2.161122140114447
 20
136.5192279215098
 30
0.0
 10
-2.161122140114447
 20
136.5192279215098
 30
0.0
  0
SPLINE
  5
11E
330
70
100
AcDbEntity
  8
Livello 1
 62
   250
420
  1907995
370
     9
100
AcDbSpline
210
0.0
220
0.0
230
1.0
 70
    24
 71
     3
 72
     8
 73
     4
 74
     0
 42
0.0000000001
 43
0.0000000001
 40
0.0
 40
0.0
 40
0.0
 40
0.0
 40
1.0
 40
1.0
 40
1.0
 40
1.0
 10
-1.949458703277714
 20
136.5192279215098
 30
0.0
 10
-1.949458703277714
 20
136.5192279215098
 30
0.0
 10
-1.737789883479286
 20
136.5192279215098
 30
0.0
 10
-1.737789883479286
 20
136.5192279215098
 30
0.0
  0
SPLINE
  5
11F
330
70
100
AcDbEntity
  8
Livello 1
 62
   250
420
  1907995
370
     9
100
AcDbSpline
210
0.0
220
0.0
230
1.0
 70
    24
 71
     3
 72
     8
 73
     4
 74
     0
 42
0.0000000001
 43
0.0000000001
 40
0.0
 40
0.0
 40
0.0
 40
0.0
 40
1.0
 40
1.0
 40
1.0
 40
1.0
 10
-1.526126446642553
 20
136.5192279215098
 30
0.0
 10
-1.526126446642553
 20
136.5192279215098
 30
0.0
 10
-0.4677931135738039
 20
136.5192279215098
 30
0.0
 10
-0.4677931135738039
 20
136.5192279215098
 30
0.0
  0
SPLINE
  5
120
330
70
100
AcDbEntity
  8
Livello 1
 62
   250
420
  1907995
370
     9
100
AcDbSpline
210
0.0
220
0.0
230
1.0
 70
    24
 71
     3
 72
     8
 73
     4
 74
     0
 42
0.0000000001
 43
0.0000000001
 40
0.0
 40
0.0
 40
0.0
 40
0.0
 40
1.0
 40
1.0
 40
1.0
 40
1.0
 10
-0.2561242937753755
 20
136.5192279215098
 30
0.0
 10
-0.2561242937753755
 20
136.5192279215098
 30
0.0
 10
-0.0444554739769472
 20
136.5192279215098
 30
0.0
 10
-0.0444554739769472
 20
136.5192279215098
 30
0.0
  0
LINE
  5
121
330
70
100
AcDbEntity
  8
Livello 1
 62
   250
420
  1907995
370
     9
100
AcDbLine
 10
0.1672079628597854
 20
136.5192279215098
 30
0.0
 11
1.225541295928535
 21
136.5192279215098
 31
0.0
  0
SPLINE
  5
122
330
70
100
AcDbEntity
  8
Livello 1
 62
   250
420
  1907995
370
     9
100
AcDbSpline
210
0.0
220
0.0
230
1.0
 70
    24
 71
     3
 72
     8
 73
     4
 74
     0
 42
0.0000000001
 43
0.0000000001
 40
0.0
 40
0.0
 40
0.0
 40
0.0
 40
1.0
 40
1.0
 40
1.0
 40
1.0
 10
-1.864790098766004
 20
133.4289126757003
 30
0.0
 10
-1.864790098766004
 20
133.4289126757003
 30
0.0
 10
-1.864790098766004
 20
134.4872460087691
 30
0.0
 10
-1.864790098766004
 20
134.4872460087691
 30
0.0
  0
SPLINE
  5
123
330
70
100
AcDbEntity
  8
Livello 1
 62
   250
420
  1907995
370
     9
100
AcDbSpline
210
0.0
220
0.0
230
1.0
 70
    24
 71
     3
 72
     8
 73
     4
 74
     0
 42
0.0000000001
 43
0.0000000001
 40
0.0
 40
0.0
 40
0.0
 40
0.0
 40
1.0
 40
1.0
 40
1.0
 40
1.0
 10
-1.864790098766004
 20
134.6989040626441
 30
0.0
 10
-1.864790098766004
 20
134.6989040626441
 30
0.0
 10
-1.864790098766004
 20
134.9105621165191
 30
0.0
 10
-1.864790098766004
 20
134.9105621165191
 30
0.0
  0
SPLINE
  5
124
330
70
100
AcDbEntity
  8
Livello 1
 62
   250
420
  1907995
370
     9
100
AcDbSpline
210
0.0
220
0.0
230
1.0
 70
    24
 71
     3
 72
     8
 73
     4
 74
     0
 42
0.0000000001
 43
0.0000000001
 40
0.0
 40
0.0
 40
0.0
 40
0.0
 40
1.0
 40
1.0
 40
1.0
 40
1.0
 10
-1.864790098766004
 20
135.122241702241
 30
0.0
 10
-1.864790098766004
 20
135.122241702241
 30
0.0
 10
-1.864790098766004
 20
136.1805750353097
 30
0.0
 10
-1.864790098766004
 20
136.1805750353097
 30
0.0
  0
SPLINE
  5
125
330
70
100
AcDbEntity
  8
Livello 1
 62
   250
420
  1907995
370
     9
100
AcDbSpline
210
0.0
220
0.0
230
1.0
 70
    24
 71
     3
 72
     8
 73
     4
 74
     0
 42
0.0000000001
 43
0.0000000001
 40
0.0
 40
0.0
 40
0.0
 40
0.0
 40
1.0
 40
1.0
 40
1.0
 40
1.0
 10
-1.864790098766004
 20
136.3922330891848
 30
0.0
 10
-1.864790098766004
 20
136.3922330891848
 30
0.0
 10
-1.864790098766004
 20
136.6039126749066
 30
0.0
 10
-1.864790098766004
 20
136.6039126749066
 30
0.0
  0
SPLINE
  5
126
330
70
100
AcDbEntity
  8
Livello 1
 62
   250
420
  1907995
370
     9
100
AcDbSpline
210
0.0
220
0.0
230
1.0
 70
    24
 71
     3
 72
     8
 73
     4
 74
     0
 42
0.0000000001
 43
0.0000000001
 40
0.0
 40
0.0
 40
0.0
 40
0.0
 40
1.0
 40
1.0
 40
1.0
 40
1.0
 10
-1.864790098766004
 20
136.8155707287816
 30
0.0
 10
-1.864790098766004
 20
136.8155707287816
 30
0.0
 10
-1.864790098766004
 20
137.9162356726254
 30
0.0
 10
-1.864790098766004
 20
137.9162356726254
 30
0.0
  0
SPLINE
  5
127
330
70
100
AcDbEntity
  8
Livello 1
 62
   250
420
  1907995
370
     9
100
AcDbSpline
210
0.0
220
0.0
230
1.0
 70
    24
 71
     3
 72
     8
 73
     4
 74
     0
 42
0.0000000001
 43
0.0000000001
 40
0.0
 40
0.0
 40
0.0
 40
0.0
 40
1.0
 40
1.0
 40
1.0
 40
1.0
 10
-1.864790098766004
 20
138.1278937265004
 30
0.0
 10
-1.864790098766004
 20
138.1278937265004
 30
0.0
 10
-1.864790098766004
 20
138.3395733122222
 30
0.0
 10
-1.864790098766004
 20
138.3395733122222
 30
0.0
  0
LINE
  5
128
330
70
100
AcDbEntity
  8
Livello 1
 62
   250
420
  1907995
370
     9
100
AcDbLine
 10
-1.864790098766004
 20
138.5512313660973
 30
0.0
 11
-1.864790098766004
 21
139.609564699166
 31
0.0
  0
SPLINE
  5
129
330
70
100
AcDbEntity
  8
Livello 1
 62
   250
420
  1907995
370
     9
100
AcDbSpline
210
0.0
220
0.0
230
1.0
 70
    24
 71
     3
 72
     8
 73
     4
 74
     0
 42
0.0000000001
 43
0.0000000001
 40
0.0
 40
0.0
 40
0.0
 40
0.0
 40
1.0
 40
1.0
 40
1.0
 40
1.0
 10
-17.61278987951054
 20
129.1955793434253
 30
0.0
 10
-17.61278987951054
 20
129.1955793434253
 30
0.0
 10
-16.55445654644179
 20
129.1955793434253
 30
0.0
 10
-16.55445654644179
 20
129.1955793434253
 30
0.0
  0
SPLINE
  5
12A
330
70
100
AcDbEntity
  8
Livello 1
 62
   250
420
  1907995
370
     9
100
AcDbSpline
210
0.0
220
0.0
230
1.0
 70
    24
 71
     3
 72
     8
 73
     4
 74
     0
 42
0.0000000001
 43
0.0000000001
 40
0.0
 40
0.0
 40
0.0
 40
0.0
 40
1.0
 40
1.0
 40
1.0
 40
1.0
 10
-16.34279310960505
 20
129.1955793434253
 30
0.0
 10
-16.34279310960505
 20
129.1955793434253
 30
0.0
 10
-16.08879267903162
 20
129.1955793434253
 30
0.0
 10
-16.08879267903162
 20
129.1955793434253
 30
0.0
  0
SPLINE
  5
12B
330
70
100
AcDbEntity
  8
Livello 1
 62
   250
420
  1907995
370
     9
100
AcDbSpline
210
0.0
220
0.0
230
1.0
 70
    24
 71
     3
 72
     8
 73
     4
 74
     0
 42
0.0000000001
 43
0.0000000001
 40
0.0
 40
0.0
 40
0.0
 40
0.0
 40
1.0
 40
1.0
 40
1.0
 40
1.0
 10
-15.87712385923319
 20
129.1955793434253
 30
0.0
 10
-15.87712385923319
 20
129.1955793434253
 30
0.0
 10
-14.81879052616444
 20
129.1955793434253
 30
0.0
 10
-14.81879052616444
 20
129.1955793434253
 30
0.0
  0
SPLINE
  5
12C
330
70
100
AcDbEntity
  8
Livello 1
 62
   250
420
  1907995
370
     9
100
AcDbSpline
210
0.0
220
0.0
230
1.0
 70
    24
 71
     3
 72
     8
 73
     4
 74
     0
 42
0.0000000001
 43
0.0000000001
 40
0.0
 40
0.0
 40
0.0
 40
0.0
 40
1.0
 40
1.0
 40
1.0
 40
1.0
 10
-14.60712170636601
 20
129.1955793434253
 30
0.0
 10
-14.60712170636601
 20
129.1955793434253
 30
0.0
 10
-14.39545826952928
 20
129.1955793434253
 30
0.0
 10
-14.39545826952928
 20
129.1955793434253
 30
0.0
  0
SPLINE
  5
12D
330
70
100
AcDbEntity
  8
Livello 1
 62
   250
420
  1907995
370
     9
100
AcDbSpline
210
0.0
220
0.0
230
1.0
 70
    24
 71
     3
 72
     8
 73
     4
 74
     0
 42
0.0000000001
 43
0.0000000001
 40
0.0
 40
0.0
 40
0.0
 40
0.0
 40
1.0
 40
1.0
 40
1.0
 40
1.0
 10
-14.18378944973085
 20
129.1955793434253
 30
0.0
 10
-14.18378944973085
 20
129.1955793434253
 30
0.0
 10
-13.1254561166621
 20
129.1955793434253
 30
0.0
 10
-13.1254561166621
 20
129.1955793434253
 30
0.0
  0
SPLINE
  5
12E
330
70
100
AcDbEntity
  8
Livello 1
 62
   250
420
  1907995
370
     9
100
AcDbSpline
210
0.0
220
0.0
230
1.0
 70
    24
 71
     3
 72
     8
 73
     4
 74
     0
 42
0.0000000001
 43
0.0000000001
 40
0.0
 40
0.0
 40
0.0
 40
0.0
 40
1.0
 40
1.0
 40
1.0
 40
1.0
 10
-12.87145568608866
 20
129.1955793434253
 30
0.0
 10
-12.87145568608866
 20
129.1955793434253
 30
0.0
 10
-12.65979224925193
 20
129.1955793434253
 30
0.0
 10
-12.65979224925193
 20
129.1955793434253
 30
0.0
  0
LINE
  5
12F
330
70
100
AcDbEntity
  8
Livello 1
 62
   250
420
  1907995
370
     9
100
AcDbLine
 10
-12.4481234294535
 20
129.1955793434253
 30
0.0
 11
-11.38979009638475
 21
129.1955793434253
 31
0.0
  0
SPLINE
  5
130
330
70
100
AcDbEntity
  8
Livello 1
 62
   250
420
  1907995
370
     9
100
AcDbSpline
210
0.0
220
0.0
230
1.0
 70
    24
 71
     3
 72
     8
 73
     4
 74
     0
 42
0.0000000001
 43
0.0000000001
 40
0.0
 40
0.0
 40
0.0
 40
0.0
 40
1.0
 40
1.0
 40
1.0
 40
1.0
 10
-14.48012149107929
 20
126.1052425657691
 30
0.0
 10
-14.48012149107929
 20
126.1052425657691
 30
0.0
 10
-14.48012149107929
 20
127.1635758988378
 30
0.0
 10
-14.48012149107929
 20
127.1635758988378
 30
0.0
  0
SPLINE
  5
131
330
70
100
AcDbEntity
  8
Livello 1
 62
   250
420
  1907995
370
     9
100
AcDbSpline
210
0.0
220
0.0
230
1.0
 70
    24
 71
     3
 72
     8
 73
     4
 74
     0
 42
0.0000000001
 43
0.0000000001
 40
0.0
 40
0.0
 40
0.0
 40
0.0
 40
1.0
 40
1.0
 40
1.0
 40
1.0
 10
-14.48012149107929
 20
127.3752339527129
 30
0.0
 10
-14.48012149107929
 20
127.3752339527129
 30
0.0
 10
-14.48012149107929
 20
127.5869135384347
 30
0.0
 10
-14.48012149107929
 20
127.5869135384347
 30
0.0
  0
SPLINE
  5
132
330
70
100
AcDbEntity
  8
Livello 1
 62
   250
420
  1907995
370
     9
100
AcDbSpline
210
0.0
220
0.0
230
1.0
 70
    24
 71
     3
 72
     8
 73
     4
 74
     0
 42
0.0000000001
 43
0.0000000001
 40
0.0
 40
0.0
 40
0.0
 40
0.0
 40
1.0
 40
1.0
 40
1.0
 40
1.0
 10
-14.48012149107929
 20
127.7985715923097
 30
0.0
 10
-14.48012149107929
 20
127.7985715923097
 30
0.0
 10
-14.48012149107929
 20
128.8992365361535
 30
0.0
 10
-14.48012149107929
 20
128.8992365361535
 30
0.0
  0
SPLINE
  5
133
330
70
100
AcDbEntity
  8
Livello 1
 62
   250
420
  1907995
370
     9
100
AcDbSpline
210
0.0
220
0.0
230
1.0
 70
    24
 71
     3
 72
     8
 73
     4
 74
     0
 42
0.0000000001
 43
0.0000000001
 40
0.0
 40
0.0
 40
0.0
 40
0.0
 40
1.0
 40
1.0
 40
1.0
 40
1.0
 10
-14.48012149107929
 20
129.1108945900285
 30
0.0
 10
-14.48012149107929
 20
129.1108945900285
 30
0.0
 10
-14.48012149107929
 20
129.3225741757503
 30
0.0
 10
-14.48012149107929
 20
129.3225741757503
 30
0.0
  0
SPLINE
  5
134
330
70
100
AcDbEntity
  8
Livello 1
 62
   250
420
  1907995
370
     9
100
AcDbSpline
210
0.0
220
0.0
230
1.0
 70
    24
 71
     3
 72
     8
 73
     4
 74
     0
 42
0.0000000001
 43
0.0000000001
 40
0.0
 40
0.0
 40
0.0
 40
0.0
 40
1.0
 40
1.0
 40
1.0
 40
1.0
 10
-14.48012149107929
 20
129.5342322296254
 30
0.0
 10
-14.48012149107929
 20
129.5342322296254
 30
0.0
 10
-14.48012149107929
 20
130.5925655626941
 30
0.0
 10
-14.48012149107929
 20
130.5925655626941
 30
0.0
  0
SPLINE
  5
135
330
70
100
AcDbEntity
  8
Livello 1
 62
   250
420
  1907995
370
     9
100
AcDbSpline
210
0.0
220
0.0
230
1.0
 70
    24
 71
     3
 72
     8
 73
     4
 74
     0
 42
0.0000000001
 43
0.0000000001
 40
0.0
 40
0.0
 40
0.0
 40
0.0
 40
1.0
 40
1.0
 40
1.0
 40
1.0
 10
-14.48012149107929
 20
130.804245148416
 30
0.0
 10
-14.48012149107929
 20
130.804245148416
 30
0.0
 10
-14.48012149107929
 20
131.015903202291
 30
0.0
 10
-14.48012149107929
 20
131.015903202291
 30
0.0
  0
LINE
  5
136
330
70
100
AcDbEntity
  8
Livello 1
 62
   250
420
  1907995
370
     9
100
AcDbLine
 10
-14.48012149107929
 20
131.227561256166
 30
0.0
 11
-14.48012149107929
 21
132.2858945892348
 31
0.0
  0
SPLINE
  5
137
330
70
100
AcDbEntity
  8
Livello 1
 62
   250
420
  1907995
370
     9
100
AcDbSpline
210
0.0
220
0.0
230
1.0
 70
    24
 71
     3
 72
     8
 73
     4
 74
     0
 42
0.0000000001
 43
0.0000000001
 40
0.0
 40
0.0
 40
0.0
 40
0.0
 40
1.0
 40
1.0
 40
1.0
 40
1.0
 10
4.358209684359778
 20
132.4129109534066
 30
0.0
 10
4.358209684359778
 20
132.4129109534066
 30
0.0
 10
5.416543017428527
 20
132.4129109534066
 30
0.0
 10
5.416543017428527
 20
132.4129109534066
 30
0.0
  0
SPLINE
  5
138
330
70
100
AcDbEntity
  8
Livello 1
 62
   250
420
  1907995
370
     9
100
AcDbSpline
210
0.0
220
0.0
230
1.0
 70
    24
 71
     3
 72
     8
 73
     4
 74
     0
 42
0.0000000001
 43
0.0000000001
 40
0.0
 40
0.0
 40
0.0
 40
0.0
 40
1.0
 40
1.0
 40
1.0
 40
1.0
 10
5.62820645426526
 20
132.4129109534066
 30
0.0
 10
5.62820645426526
 20
132.4129109534066
 30
0.0
 10
5.839875274063689
 20
132.4129109534066
 30
0.0
 10
5.839875274063689
 20
132.4129109534066
 30
0.0
  0
SPLINE
  5
139
330
70
100
AcDbEntity
  8
Livello 1
 62
   250
420
  1907995
370
     9
100
AcDbSpline
210
0.0
220
0.0
230
1.0
 70
    24
 71
     3
 72
     8
 73
     4
 74
     0
 42
0.0000000001
 43
0.0000000001
 40
0.0
 40
0.0
 40
0.0
 40
0.0
 40
1.0
 40
1.0
 40
1.0
 40
1.0
 10
6.051544093862117
 20
132.4129109534066
 30
0.0
 10
6.051544093862117
 20
132.4129109534066
 30
0.0
 10
7.109877426930867
 20
132.4129109534066
 30
0.0
 10
7.109877426930867
 20
132.4129109534066
 30
0.0
  0
SPLINE
  5
13A
330
70
100
AcDbEntity
  8
Livello 1
 62
   250
420
  1907995
370
     9
100
AcDbSpline
210
0.0
220
0.0
230
1.0
 70
    24
 71
     3
 72
     8
 73
     4
 74
     0
 42
0.0000000001
 43
0.0000000001
 40
0.0
 40
0.0
 40
0.0
 40
0.0
 40
1.0
 40
1.0
 40
1.0
 40
1.0
 10
7.3215408637676
 20
132.4129109534066
 30
0.0
 10
7.3215408637676
 20
132.4129109534066
 30
0.0
 10
7.533209683566028
 20
132.4129109534066
 30
0.0
 10
7.533209683566028
 20
132.4129109534066
 30
0.0
  0
SPLINE
  5
13B
330
70
100
AcDbEntity
  8
Livello 1
 62
   250
420
  1907995
370
     9
100
AcDbSpline
210
0.0
220
0.0
230
1.0
 70
    24
 71
     3
 72
     8
 73
     4
 74
     0
 42
0.0000000001
 43
0.0000000001
 40
0.0
 40
0.0
 40
0.0
 40
0.0
 40
1.0
 40
1.0
 40
1.0
 40
1.0
 10
7.74487312040276
 20
132.4129109534066
 30
0.0
 10
7.74487312040276
 20
132.4129109534066
 30
0.0
 10
8.845543447208214
 20
132.4129109534066
 30
0.0
 10
8.845543447208214
 20
132.4129109534066
 30
0.0
  0
SPLINE
  5
13C
330
70
100
AcDbEntity
  8
Livello 1
 62
   250
420
  1907995
370
     9
100
AcDbSpline
210
0.0
220
0.0
230
1.0
 70
    24
 71
     3
 72
     8
 73
     4
 74
     0
 42
0.0000000001
 43
0.0000000001
 40
0.0
 40
0.0
 40
0.0
 40
0.0
 40
1.0
 40
1.0
 40
1.0
 40
1.0
 10
9.057206884044946
 20
132.4129109534066
 30
0.0
 10
9.057206884044946
 20
132.4129109534066
 30
0.0
 10
9.268875703843374
 20
132.4129109534066
 30
0.0
 10
9.268875703843374
 20
132.4129109534066
 30
0.0
  0
LINE
  5
13D
330
70
100
AcDbEntity
  8
Livello 1
 62
   250
420
  1907995
370
     9
100
AcDbLine
 10
9.480544523641803
 20
132.4129109534066
 30
0.0
 11
10.53887785671055
 21
132.4129109534066
 31
0.0
  0
SPLINE
  5
13E
330
70
100
AcDbEntity
  8
Livello 1
 62
   250
420
  1907995
370
     9
100
AcDbSpline
210
0.0
220
0.0
230
1.0
 70
    24
 71
     3
 72
     8
 73
     4
 74
     0
 42
0.0000000001
 43
0.0000000001
 40
0.0
 40
0.0
 40
0.0
 40
0.0
 40
1.0
 40
1.0
 40
1.0
 40
1.0
 10
7.448541079054318
 20
129.3225741757503
 30
0.0
 10
7.448541079054318
 20
129.3225741757503
 30
0.0
 10
7.448541079054318
 20
130.3809075088191
 30
0.0
 10
7.448541079054318
 20
130.3809075088191
 30
0.0
  0
SPLINE
  5
13F
330
70
100
AcDbEntity
  8
Livello 1
 62
   250
420
  1907995
370
     9
100
AcDbSpline
210
0.0
220
0.0
230
1.0
 70
    24
 71
     3
 72
     8
 73
     4
 74
     0
 42
0.0000000001
 43
0.0000000001
 40
0.0
 40
0.0
 40
0.0
 40
0.0
 40
1.0
 40
1.0
 40
1.0
 40
1.0
 10
7.448541079054318
 20
130.5925655626941
 30
0.0
 10
7.448541079054318
 20
130.5925655626941
 30
0.0
 10
7.448541079054318
 20
130.804245148416
 30
0.0
 10
7.448541079054318
 20
130.804245148416
 30
0.0
  0
SPLINE
  5
140
330
70
100
AcDbEntity
  8
Livello 1
 62
   250
420
  1907995
370
     9
100
AcDbSpline
210
0.0
220
0.0
230
1.0
 70
    24
 71
     3
 72
     8
 73
     4
 74
     0
 42
0.0000000001
 43
0.0000000001
 40
0.0
 40
0.0
 40
0.0
 40
0.0
 40
1.0
 40
1.0
 40
1.0
 40
1.0
 10
7.448541079054318
 20
131.015903202291
 30
0.0
 10
7.448541079054318
 20
131.015903202291
 30
0.0
 10
7.448541079054318
 20
132.0742365353597
 30
0.0
 10
7.448541079054318
 20
132.0742365353597
 30
0.0
  0
SPLINE
  5
141
330
70
100
AcDbEntity
  8
Livello 1
 62
   250
420
  1907995
370
     9
100
AcDbSpline
210
0.0
220
0.0
230
1.0
 70
    24
 71
     3
 72
     8
 73
     4
 74
     0
 42
0.0000000001
 43
0.0000000001
 40
0.0
 40
0.0
 40
0.0
 40
0.0
 40
1.0
 40
1.0
 40
1.0
 40
1.0
 10
7.448541079054318
 20
132.2858945892348
 30
0.0
 10
7.448541079054318
 20
132.2858945892348
 30
0.0
 10
7.448541079054318
 20
132.5399057857316
 30
0.0
 10
7.448541079054318
 20
132.5399057857316
 30
0.0
  0
SPLINE
  5
142
330
70
100
AcDbEntity
  8
Livello 1
 62
   250
420
  1907995
370
     9
100
AcDbSpline
210
0.0
220
0.0
230
1.0
 70
    24
 71
     3
 72
     8
 73
     4
 74
     0
 42
0.0000000001
 43
0.0000000001
 40
0.0
 40
0.0
 40
0.0
 40
0.0
 40
1.0
 40
1.0
 40
1.0
 40
1.0
 10
7.448541079054318
 20
132.7515638396066
 30
0.0
 10
7.448541079054318
 20
132.7515638396066
 30
0.0
 10
7.448541079054318
 20
133.8098971726754
 30
0.0
 10
7.448541079054318
 20
133.8098971726754
 30
0.0
  0
SPLINE
  5
143
330
70
100
AcDbEntity
  8
Livello 1
 62
   250
420
  1907995
370
     9
100
AcDbSpline
210
0.0
220
0.0
230
1.0
 70
    24
 71
     3
 72
     8
 73
     4
 74
     0
 42
0.0000000001
 43
0.0000000001
 40
0.0
 40
0.0
 40
0.0
 40
0.0
 40
1.0
 40
1.0
 40
1.0
 40
1.0
 10
7.448541079054318
 20
134.0215767583972
 30
0.0
 10
7.448541079054318
 20
134.0215767583972
 30
0.0
 10
7.448541079054318
 20
134.2332348122722
 30
0.0
 10
7.448541079054318
 20
134.2332348122722
 30
0.0
  0
LINE
  5
144
330
70
100
AcDbEntity
  8
Livello 1
 62
   250
420
  1907995
370
     9
100
AcDbLine
 10
7.448541079054318
 20
134.4448928661473
 30
0.0
 11
7.448541079054318
 21
135.503226199216
 31
0.0
  0
SPLINE
  5
145
330
70
100
AcDbEntity
  8
Livello 1
 62
   250
420
  1907995
370
     9
100
AcDbSpline
210
0.0
220
0.0
230
1.0
 70
    24
 71
     3
 72
     8
 73
     4
 74
     0
 42
0.0000000001
 43
0.0000000001
 40
0.0
 40
0.0
 40
0.0
 40
0.0
 40
1.0
 40
1.0
 40
1.0
 40
1.0
 10
8.083542155487906
 20
120.1362270643317
 30
0.0
 10
8.083542155487906
 20
120.1362270643317
 30
0.0
 10
9.141875488556657
 20
120.1362270643317
 30
0.0
 10
9.141875488556657
 20
120.1362270643317
 30
0.0
  0
SPLINE
  5
146
330
70
100
AcDbEntity
  8
Livello 1
 62
   250
420
  1907995
370
     9
100
AcDbSpline
210
0.0
220
0.0
230
1.0
 70
    24
 71
     3
 72
     8
 73
     4
 74
     0
 42
0.0000000001
 43
0.0000000001
 40
0.0
 40
0.0
 40
0.0
 40
0.0
 40
1.0
 40
1.0
 40
1.0
 40
1.0
 10
9.353544308355084
 20
120.1362270643317
 30
0.0
 10
9.353544308355084
 20
120.1362270643317
 30
0.0
 10
9.565207745191818
 20
120.1362270643317
 30
0.0
 10
9.565207745191818
 20
120.1362270643317
 30
0.0
  0
SPLINE
  5
147
330
70
100
AcDbEntity
  8
Livello 1
 62
   250
420
  1907995
370
     9
100
AcDbSpline
210
0.0
220
0.0
230
1.0
 70
    24
 71
     3
 72
     8
 73
     4
 74
     0
 42
0.0000000001
 43
0.0000000001
 40
0.0
 40
0.0
 40
0.0
 40
0.0
 40
1.0
 40
1.0
 40
1.0
 40
1.0
 10
9.776876564990246
 20
120.1362270643317
 30
0.0
 10
9.776876564990246
 20
120.1362270643317
 30
0.0
 10
10.877541508834
 20
120.1362270643317
 30
0.0
 10
10.877541508834
 20
120.1362270643317
 30
0.0
  0
SPLINE
  5
148
330
70
100
AcDbEntity
  8
Livello 1
 62
   250
420
  1907995
370
     9
100
AcDbSpline
210
0.0
220
0.0
230
1.0
 70
    24
 71
     3
 72
     8
 73
     4
 74
     0
 42
0.0000000001
 43
0.0000000001
 40
0.0
 40
0.0
 40
0.0
 40
0.0
 40
1.0
 40
1.0
 40
1.0
 40
1.0
 10
11.08921032863243
 20
120.1362270643317
 30
0.0
 10
11.08921032863243
 20
120.1362270643317
 30
0.0
 10
11.30086838250747
 20
120.1362270643317
 30
0.0
 10
11.30086838250747
 20
120.1362270643317
 30
0.0
  0
SPLINE
  5
149
330
70
100
AcDbEntity
  8
Livello 1
 62
   250
420
  1907995
370
     9
100
AcDbSpline
210
0.0
220
0.0
230
1.0
 70
    24
 71
     3
 72
     8
 73
     4
 74
     0
 42
0.0000000001
 43
0.0000000001
 40
0.0
 40
0.0
 40
0.0
 40
0.0
 40
1.0
 40
1.0
 40
1.0
 40
1.0
 10
11.51253720230589
 20
120.1362270643317
 30
0.0
 10
11.51253720230589
 20
120.1362270643317
 30
0.0
 10
12.57087053537464
 20
120.1362270643317
 30
0.0
 10
12.57087053537464
 20
120.1362270643317
 30
0.0
  0
SPLINE
  5
14A
330
70
100
AcDbEntity
  8
Livello 1
 62
   250
420
  1907995
370
     9
100
AcDbSpline
210
0.0
220
0.0
230
1.0
 70
    24
 71
     3
 72
     8
 73
     4
 74
     0
 42
0.0000000001
 43
0.0000000001
 40
0.0
 40
0.0
 40
0.0
 40
0.0
 40
1.0
 40
1.0
 40
1.0
 40
1.0
 10
12.78253935517307
 20
120.1362270643317
 30
0.0
 10
12.78253935517307
 20
120.1362270643317
 30
0.0
 10
12.9942081749715
 20
120.1362270643317
 30
0.0
 10
12.9942081749715
 20
120.1362270643317
 30
0.0
  0
LINE
  5
14B
330
70
100
AcDbEntity
  8
Livello 1
 62
   250
420
  1907995
370
     9
100
AcDbLine
 10
13.20587699476993
 20
120.1362270643317
 30
0.0
 11
14.26421032783868
 21
120.1362270643317
 31
0.0
  0
SPLINE
  5
14C
330
70
100
AcDbEntity
  8
Livello 1
 62
   250
420
  1907995
370
     9
100
AcDbSpline
210
0.0
220
0.0
230
1.0
 70
    24
 71
     3
 72
     8
 73
     4
 74
     0
 42
0.0000000001
 43
0.0000000001
 40
0.0
 40
0.0
 40
0.0
 40
0.0
 40
1.0
 40
1.0
 40
1.0
 40
1.0
 10
11.17387355018244
 20
117.0459118185222
 30
0.0
 10
11.17387355018244
 20
117.0459118185222
 30
0.0
 10
11.17387355018244
 20
118.1042451515909
 30
0.0
 10
11.17387355018244
 20
118.1042451515909
 30
0.0
  0
SPLINE
  5
14D
330
70
100
AcDbEntity
  8
Livello 1
 62
   250
420
  1907995
370
     9
100
AcDbSpline
210
0.0
220
0.0
230
1.0
 70
    24
 71
     3
 72
     8
 73
     4
 74
     0
 42
0.0000000001
 43
0.0000000001
 40
0.0
 40
0.0
 40
0.0
 40
0.0
 40
1.0
 40
1.0
 40
1.0
 40
1.0
 10
11.17387355018244
 20
118.315903205466
 30
0.0
 10
11.17387355018244
 20
118.315903205466
 30
0.0
 10
11.17387355018244
 20
118.527561259341
 30
0.0
 10
11.17387355018244
 20
118.527561259341
 30
0.0
  0
SPLINE
  5
14E
330
70
100
AcDbEntity
  8
Livello 1
 62
   250
420
  1907995
370
     9
100
AcDbSpline
210
0.0
220
0.0
230
1.0
 70
    24
 71
     3
 72
     8
 73
     4
 74
     0
 42
0.0000000001
 43
0.0000000001
 40
0.0
 40
0.0
 40
0.0
 40
0.0
 40
1.0
 40
1.0
 40
1.0
 40
1.0
 10
11.17387355018244
 20
118.7392408450628
 30
0.0
 10
11.17387355018244
 20
118.7392408450628
 30
0.0
 10
11.17387355018244
 20
119.8399057889066
 30
0.0
 10
11.17387355018244
 20
119.8399057889066
 30
0.0
  0
SPLINE
  5
14F
330
70
100
AcDbEntity
  8
Livello 1
 62
   250
420
  1907995
370
     9
100
AcDbSpline
210
0.0
220
0.0
230
1.0
 70
    24
 71
     3
 72
     8
 73
     4
 74
     0
 42
0.0000000001
 43
0.0000000001
 40
0.0
 40
0.0
 40
0.0
 40
0.0
 40
1.0
 40
1.0
 40
1.0
 40
1.0
 10
11.17387355018244
 20
120.0515638427816
 30
0.0
 10
11.17387355018244
 20
120.0515638427816
 30
0.0
 10
11.17387355018244
 20
120.2632434285035
 30
0.0
 10
11.17387355018244
 20
120.2632434285035
 30
0.0
  0
SPLINE
  5
150
330
70
100
AcDbEntity
  8
Livello 1
 62
   250
420
  1907995
370
     9
100
AcDbSpline
210
0.0
220
0.0
230
1.0
 70
    24
 71
     3
 72
     8
 73
     4
 74
     0
 42
0.0000000001
 43
0.0000000001
 40
0.0
 40
0.0
 40
0.0
 40
0.0
 40
1.0
 40
1.0
 40
1.0
 40
1.0
 10
11.17387355018244
 20
120.4749014823785
 30
0.0
 10
11.17387355018244
 20
120.4749014823785
 30
0.0
 10
11.17387355018244
 20
121.5332348154472
 30
0.0
 10
11.17387355018244
 20
121.5332348154472
 30
0.0
  0
SPLINE
  5
151
330
70
100
AcDbEntity
  8
Livello 1
 62
   250
420
  1907995
370
     9
100
AcDbSpline
210
0.0
220
0.0
230
1.0
 70
    24
 71
     3
 72
     8
 73
     4
 74
     0
 42
0.0000000001
 43
0.0000000001
 40
0.0
 40
0.0
 40
0.0
 40
0.0
 40
1.0
 40
1.0
 40
1.0
 40
1.0
 10
11.17387355018244
 20
121.7448928693223
 30
0.0
 10
11.17387355018244
 20
121.7448928693223
 30
0.0
 10
11.17387355018244
 20
121.9565724550441
 30
0.0
 10
11.17387355018244
 20
121.9565724550441
 30
0.0
  0
LINE
  5
152
330
70
100
AcDbEntity
  8
Livello 1
 62
   250
420
  1907995
370
     9
100
AcDbLine
 10
11.17387355018244
 20
122.1682305089191
 30
0.0
 11
11.17387355018244
 21
123.2265638419879
 31
0.0
  0
SPLINE
  5
153
330
70
100
AcDbEntity
  8
Livello 1
 62
   250
420
  1907995
370
     9
100
AcDbSpline
210
0.0
220
0.0
230
1.0
 70
    24
 71
     3
 72
     8
 73
     4
 74
     0
 42
0.0000000001
 43
0.0000000001
 40
0.0
 40
0.0
 40
0.0
 40
0.0
 40
1.0
 40
1.0
 40
1.0
 40
1.0
 10
49.10453633163402
 20
132.4129109534066
 30
0.0
 10
49.10453633163402
 20
132.4129109534066
 30
0.0
 10
50.16286966470278
 20
132.4129109534066
 30
0.0
 10
50.16286966470278
 20
132.4129109534066
 30
0.0
  0
SPLINE
  5
154
330
70
100
AcDbEntity
  8
Livello 1
 62
   250
420
  1907995
370
     9
100
AcDbSpline
210
0.0
220
0.0
230
1.0
 70
    24
 71
     3
 72
     8
 73
     4
 74
     0
 42
0.0000000001
 43
0.0000000001
 40
0.0
 40
0.0
 40
0.0
 40
0.0
 40
1.0
 40
1.0
 40
1.0
 40
1.0
 10
50.37453848450121
 20
132.4129109534066
 30
0.0
 10
50.37453848450121
 20
132.4129109534066
 30
0.0
 10
50.58620730429963
 20
132.4129109534066
 30
0.0
 10
50.58620730429963
 20
132.4129109534066
 30
0.0
  0
SPLINE
  5
155
330
70
100
AcDbEntity
  8
Livello 1
 62
   250
420
  1907995
370
     9
100
AcDbSpline
210
0.0
220
0.0
230
1.0
 70
    24
 71
     3
 72
     8
 73
     4
 74
     0
 42
0.0000000001
 43
0.0000000001
 40
0.0
 40
0.0
 40
0.0
 40
0.0
 40
1.0
 40
1.0
 40
1.0
 40
1.0
 10
50.84020773487306
 20
132.4129109534066
 30
0.0
 10
50.84020773487306
 20
132.4129109534066
 30
0.0
 10
51.89854106794182
 20
132.4129109534066
 30
0.0
 10
51.89854106794182
 20
132.4129109534066
 30
0.0
  0
SPLINE
  5
156
330
70
100
AcDbEntity
  8
Livello 1
 62
   250
420
  1907995
370
     9
100
AcDbSpline
210
0.0
220
0.0
230
1.0
 70
    24
 71
     3
 72
     8
 73
     4
 74
     0
 42
0.0000000001
 43
0.0000000001
 40
0.0
 40
0.0
 40
0.0
 40
0.0
 40
1.0
 40
1.0
 40
1.0
 40
1.0
 10
52.11020988774024
 20
132.4129109534066
 30
0.0
 10
52.11020988774024
 20
132.4129109534066
 30
0.0
 10
52.32186794161528
 20
132.4129109534066
 30
0.0
 10
52.32186794161528
 20
132.4129109534066
 30
0.0
  0
SPLINE
  5
157
330
70
100
AcDbEntity
  8
Livello 1
 62
   250
420
  1907995
370
     9
100
AcDbSpline
210
0.0
220
0.0
230
1.0
 70
    24
 71
     3
 72
     8
 73
     4
 74
     0
 42
0.0000000001
 43
0.0000000001
 40
0.0
 40
0.0
 40
0.0
 40
0.0
 40
1.0
 40
1.0
 40
1.0
 40
1.0
 10
52.53353676141371
 20
132.4129109534066
 30
0.0
 10
52.53353676141371
 20
132.4129109534066
 30
0.0
 10
53.59187009448246
 20
132.4129109534066
 30
0.0
 10
53.59187009448246
 20
132.4129109534066
 30
0.0
  0
SPLINE
  5
158
330
70
100
AcDbEntity
  8
Livello 1
 62
   250
420
  1907995
370
     9
100
AcDbSpline
210
0.0
220
0.0
230
1.0
 70
    24
 71
     3
 72
     8
 73
     4
 74
     0
 42
0.0000000001
 43
0.0000000001
 40
0.0
 40
0.0
 40
0.0
 40
0.0
 40
1.0
 40
1.0
 40
1.0
 40
1.0
 10
53.80353891428089
 20
132.4129109534066
 30
0.0
 10
53.80353891428089
 20
132.4129109534066
 30
0.0
 10
54.05753934485432
 20
132.4129109534066
 30
0.0
 10
54.05753934485432
 20
132.4129109534066
 30
0.0
  0
LINE
  5
159
330
70
100
AcDbEntity
  8
Livello 1
 62
   250
420
  1907995
370
     9
100
AcDbLine
 10
54.26920816465275
 20
132.4129109534066
 30
0.0
 11
55.3275414977215
 21
132.4129109534066
 31
0.0
  0
SPLINE
  5
15A
330
70
100
AcDbEntity
  8
Livello 1
 62
   250
420
  1907995
370
     9
100
AcDbSpline
210
0.0
220
0.0
230
1.0
 70
    24
 71
     3
 72
     8
 73
     4
 74
     0
 42
0.0000000001
 43
0.0000000001
 40
0.0
 40
0.0
 40
0.0
 40
0.0
 40
1.0
 40
1.0
 40
1.0
 40
1.0
 10
52.19487310929026
 20
129.3225741757503
 30
0.0
 10
52.19487310929026
 20
129.3225741757503
 30
0.0
 10
52.19487310929026
 20
130.3809075088191
 30
0.0
 10
52.19487310929026
 20
130.3809075088191
 30
0.0
  0
SPLINE
  5
15B
330
70
100
AcDbEntity
  8
Livello 1
 62
   250
420
  1907995
370
     9
100
AcDbSpline
210
0.0
220
0.0
230
1.0
 70
    24
 71
     3
 72
     8
 73
     4
 74
     0
 42
0.0000000001
 43
0.0000000001
 40
0.0
 40
0.0
 40
0.0
 40
0.0
 40
1.0
 40
1.0
 40
1.0
 40
1.0
 10
52.19487310929026
 20
130.5925655626941
 30
0.0
 10
52.19487310929026
 20
130.5925655626941
 30
0.0
 10
52.19487310929026
 20
130.804245148416
 30
0.0
 10
52.19487310929026
 20
130.804245148416
 30
0.0
  0
SPLINE
  5
15C
330
70
100
AcDbEntity
  8
Livello 1
 62
   250
420
  1907995
370
     9
100
AcDbSpline
210
0.0
220
0.0
230
1.0
 70
    24
 71
     3
 72
     8
 73
     4
 74
     0
 42
0.0000000001
 43
0.0000000001
 40
0.0
 40
0.0
 40
0.0
 40
0.0
 40
1.0
 40
1.0
 40
1.0
 40
1.0
 10
52.19487310929026
 20
131.015903202291
 30
0.0
 10
52.19487310929026
 20
131.015903202291
 30
0.0
 10
52.19487310929026
 20
132.0742365353597
 30
0.0
 10
52.19487310929026
 20
132.0742365353597
 30
0.0
  0
SPLINE
  5
15D
330
70
100
AcDbEntity
  8
Livello 1
 62
   250
420
  1907995
370
     9
100
AcDbSpline
210
0.0
220
0.0
230
1.0
 70
    24
 71
     3
 72
     8
 73
     4
 74
     0
 42
0.0000000001
 43
0.0000000001
 40
0.0
 40
0.0
 40
0.0
 40
0.0
 40
1.0
 40
1.0
 40
1.0
 40
1.0
 10
52.19487310929026
 20
132.2858945892348
 30
0.0
 10
52.19487310929026
 20
132.2858945892348
 30
0.0
 10
52.19487310929026
 20
132.5399057857316
 30
0.0
 10
52.19487310929026
 20
132.5399057857316
 30
0.0
  0
SPLINE
  5
15E
330
70
100
AcDbEntity
  8
Livello 1
 62
   250
420
  1907995
370
     9
100
AcDbSpline
210
0.0
220
0.0
230
1.0
 70
    24
 71
     3
 72
     8
 73
     4
 74
     0
 42
0.0000000001
 43
0.0000000001
 40
0.0
 40
0.0
 40
0.0
 40
0.0
 40
1.0
 40
1.0
 40
1.0
 40
1.0
 10
52.19487310929026
 20
132.7515638396066
 30
0.0
 10
52.19487310929026
 20
132.7515638396066
 30
0.0
 10
52.19487310929026
 20
133.8098971726754
 30
0.0
 10
52.19487310929026
 20
133.8098971726754
 30
0.0
  0
SPLINE
  5
15F
330
70
100
AcDbEntity
  8
Livello 1
 62
   250
420
  1907995
370
     9
100
AcDbSpline
210
0.0
220
0.0
230
1.0
 70
    24
 71
     3
 72
     8
 73
     4
 74
     0
 42
0.0000000001
 43
0.0000000001
 40
0.0
 40
0.0
 40
0.0
 40
0.0
 40
1.0
 40
1.0
 40
1.0
 40
1.0
 10
52.19487310929026
 20
134.0215767583972
 30
0.0
 10
52.19487310929026
 20
134.0215767583972
 30
0.0
 10
52.19487310929026
 20
134.2332348122722
 30
0.0
 10
52.19487310929026
 20
134.2332348122722
 30
0.0
  0
LINE
  5
160
330
70
100
AcDbEntity
  8
Livello 1
 62
   250
420
  1907995
370
     9
100
AcDbLine
 10
52.19487310929026
 20
134.4448928661473
 30
0.0
 11
52.19487310929026
 21
135.503226199216
 31
0.0
  0
SPLINE
  5
161
330
70
100
AcDbEntity
  8
Livello 1
 62
   250
420
  1907995
370
     9
100
AcDbSpline
210
0.0
220
0.0
230
1.0
 70
    24
 71
     3
 72
     8
 73
     4
 74
     0
 42
0.0000000001
 43
0.0000000001
 40
0.0
 40
0.0
 40
0.0
 40
0.0
 40
1.0
 40
1.0
 40
1.0
 40
1.0
 10
45.37920386050589
 20
120.1362270643317
 30
0.0
 10
45.37920386050589
 20
120.1362270643317
 30
0.0
 10
46.43753719357465
 20
120.1362270643317
 30
0.0
 10
46.43753719357465
 20
120.1362270643317
 30
0.0
  0
SPLINE
  5
162
330
70
100
AcDbEntity
  8
Livello 1
 62
   250
420
  1907995
370
     9
100
AcDbSpline
210
0.0
220
0.0
230
1.0
 70
    24
 71
     3
 72
     8
 73
     4
 74
     0
 42
0.0000000001
 43
0.0000000001
 40
0.0
 40
0.0
 40
0.0
 40
0.0
 40
1.0
 40
1.0
 40
1.0
 40
1.0
 10
46.64920601337307
 20
120.1362270643317
 30
0.0
 10
46.64920601337307
 20
120.1362270643317
 30
0.0
 10
46.86087483317151
 20
120.1362270643317
 30
0.0
 10
46.86087483317151
 20
120.1362270643317
 30
0.0
  0
SPLINE
  5
163
330
70
100
AcDbEntity
  8
Livello 1
 62
   250
420
  1907995
370
     9
100
AcDbSpline
210
0.0
220
0.0
230
1.0
 70
    24
 71
     3
 72
     8
 73
     4
 74
     0
 42
0.0000000001
 43
0.0000000001
 40
0.0
 40
0.0
 40
0.0
 40
0.0
 40
1.0
 40
1.0
 40
1.0
 40
1.0
 10
47.07254365296993
 20
120.1362270643317
 30
0.0
 10
47.07254365296993
 20
120.1362270643317
 30
0.0
 10
48.13087698603869
 20
120.1362270643317
 30
0.0
 10
48.13087698603869
 20
120.1362270643317
 30
0.0
  0
SPLINE
  5
164
330
70
100
AcDbEntity
  8
Livello 1
 62
   250
420
  1907995
370
     9
100
AcDbSpline
210
0.0
220
0.0
230
1.0
 70
    24
 71
     3
 72
     8
 73
     4
 74
     0
 42
0.0000000001
 43
0.0000000001
 40
0.0
 40
0.0
 40
0.0
 40
0.0
 40
1.0
 40
1.0
 40
1.0
 40
1.0
 10
48.38486665068873
 20
120.1362270643317
 30
0.0
 10
48.38486665068873
 20
120.1362270643317
 30
0.0
 10
48.59653547048715
 20
120.1362270643317
 30
0.0
 10
48.59653547048715
 20
120.1362270643317
 30
0.0
  0
SPLINE
  5
165
330
70
100
AcDbEntity
  8
Livello 1
 62
   250
420
  1907995
370
     9
100
AcDbSpline
210
0.0
220
0.0
230
1.0
 70
    24
 71
     3
 72
     8
 73
     4
 74
     0
 42
0.0000000001
 43
0.0000000001
 40
0.0
 40
0.0
 40
0.0
 40
0.0
 40
1.0
 40
1.0
 40
1.0
 40
1.0
 10
48.80820429028559
 20
120.1362270643317
 30
0.0
 10
48.80820429028559
 20
120.1362270643317
 30
0.0
 10
49.86653762335433
 20
120.1362270643317
 30
0.0
 10
49.86653762335433
 20
120.1362270643317
 30
0.0
  0
SPLINE
  5
166
330
70
100
AcDbEntity
  8
Livello 1
 62
   250
420
  1907995
370
     9
100
AcDbSpline
210
0.0
220
0.0
230
1.0
 70
    24
 71
     3
 72
     8
 73
     4
 74
     0
 42
0.0000000001
 43
0.0000000001
 40
0.0
 40
0.0
 40
0.0
 40
0.0
 40
1.0
 40
1.0
 40
1.0
 40
1.0
 10
50.07820644315277
 20
120.1362270643317
 30
0.0
 10
50.07820644315277
 20
120.1362270643317
 30
0.0
 10
50.28987526295119
 20
120.1362270643317
 30
0.0
 10
50.28987526295119
 20
120.1362270643317
 30
0.0
  0
LINE
  5
167
330
70
100
AcDbEntity
  8
Livello 1
 62
   250
420
  1907995
370
     9
100
AcDbLine
 10
50.50153331682622
 20
120.1362270643317
 30
0.0
 11
51.55986664989498
 21
120.1362270643317
 31
0.0
  0
SPLINE
  5
168
330
70
100
AcDbEntity
  8
Livello 1
 62
   250
420
  1907995
370
     9
100
AcDbSpline
210
0.0
220
0.0
230
1.0
 70
    24
 71
     3
 72
     8
 73
     4
 74
     0
 42
0.0000000001
 43
0.0000000001
 40
0.0
 40
0.0
 40
0.0
 40
0.0
 40
1.0
 40
1.0
 40
1.0
 40
1.0
 10
48.46954063816213
 20
117.0459118185222
 30
0.0
 10
48.46954063816213
 20
117.0459118185222
 30
0.0
 10
48.46954063816213
 20
118.1042451515909
 30
0.0
 10
48.46954063816213
 20
118.1042451515909
 30
0.0
  0
SPLINE
  5
169
330
70
100
AcDbEntity
  8
Livello 1
 62
   250
420
  1907995
370
     9
100
AcDbSpline
210
0.0
220
0.0
230
1.0
 70
    24
 71
     3
 72
     8
 73
     4
 74
     0
 42
0.0000000001
 43
0.0000000001
 40
0.0
 40
0.0
 40
0.0
 40
0.0
 40
1.0
 40
1.0
 40
1.0
 40
1.0
 10
48.46954063816213
 20
118.315903205466
 30
0.0
 10
48.46954063816213
 20
118.315903205466
 30
0.0
 10
48.46954063816213
 20
118.527561259341
 30
0.0
 10
48.46954063816213
 20
118.527561259341
 30
0.0
  0
SPLINE
  5
16A
330
70
100
AcDbEntity
  8
Livello 1
 62
   250
420
  1907995
370
     9
100
AcDbSpline
210
0.0
220
0.0
230
1.0
 70
    24
 71
     3
 72
     8
 73
     4
 74
     0
 42
0.0000000001
 43
0.0000000001
 40
0.0
 40
0.0
 40
0.0
 40
0.0
 40
1.0
 40
1.0
 40
1.0
 40
1.0
 10
48.46954063816213
 20
118.7392408450628
 30
0.0
 10
48.46954063816213
 20
118.7392408450628
 30
0.0
 10
48.46954063816213
 20
119.8399057889066
 30
0.0
 10
48.46954063816213
 20
119.8399057889066
 30
0.0
  0
SPLINE
  5
16B
330
70
100
AcDbEntity
  8
Livello 1
 62
   250
420
  1907995
370
     9
100
AcDbSpline
210
0.0
220
0.0
230
1.0
 70
    24
 71
     3
 72
     8
 73
     4
 74
     0
 42
0.0000000001
 43
0.0000000001
 40
0.0
 40
0.0
 40
0.0
 40
0.0
 40
1.0
 40
1.0
 40
1.0
 40
1.0
 10
48.46954063816213
 20
120.0515638427816
 30
0.0
 10
48.46954063816213
 20
120.0515638427816
 30
0.0
 10
48.46954063816213
 20
120.2632434285035
 30
0.0
 10
48.46954063816213
 20
120.2632434285035
 30
0.0
  0
SPLINE
  5
16C
330
70
100
AcDbEntity
  8
Livello 1
 62
   250
420
  1907995
370
     9
100
AcDbSpline
210
0.0
220
0.0
230
1.0
 70
    24
 71
     3
 72
     8
 73
     4
 74
     0
 42
0.0000000001
 43
0.0000000001
 40
0.0
 40
0.0
 40
0.0
 40
0.0
 40
1.0
 40
1.0
 40
1.0
 40
1.0
 10
48.46954063816213
 20
120.4749014823785
 30
0.0
 10
48.46954063816213
 20
120.4749014823785
 30
0.0
 10
48.46954063816213
 20
121.5332348154472
 30
0.0
 10
48.46954063816213
 20
121.5332348154472
 30
0.0
  0
SPLINE
  5
16D
330
70
100
AcDbEntity
  8
Livello 1
 62
   250
420
  1907995
370
     9
100
AcDbSpline
210
0.0
220
0.0
230
1.0
 70
    24
 71
     3
 72
     8
 73
     4
 74
     0
 42
0.0000000001
 43
0.0000000001
 40
0.0
 40
0.0
 40
0.0
 40
0.0
 40
1.0
 40
1.0
 40
1.0
 40
1.0
 10
48.46954063816213
 20
121.7448928693223
 30
0.0
 10
48.46954063816213
 20
121.7448928693223
 30
0.0
 10
48.46954063816213
 20
121.9565724550441
 30
0.0
 10
48.46954063816213
 20
121.9565724550441
 30
0.0
  0
LINE
  5
16E
330
70
100
AcDbEntity
  8
Livello 1
 62
   250
420
  1907995
370
     9
100
AcDbLine
 10
48.46954063816213
 20
122.1682305089191
 30
0.0
 11
48.46954063816213
 21
123.2265638419879
 31
0.0
  0
SPLINE
  5
16F
330
70
100
AcDbEntity
  8
Livello 1
 62
   250
420
  1907995
370
     9
100
AcDbSpline
210
0.0
220
0.0
230
1.0
 70
    24
 71
     3
 72
     8
 73
     4
 74
     0
 42
0.0000000001
 43
0.0000000001
 40
0.0
 40
0.0
 40
0.0
 40
0.0
 40
1.0
 40
1.0
 40
1.0
 40
1.0
 10
173.8056584867228
 20
167.3947525515555
 30
0.0
 10
173.8056584867228
 20
167.3947525515555
 30
0.0
 10
127.5353265645271
 20
167.3947525515555
 30
0.0
 10
127.5353265645271
 20
167.3947525515555
 30
0.0
  0
SPLINE
  5
170
330
70
100
AcDbEntity
  8
Livello 1
 62
   250
420
  1907995
370
     9
100
AcDbSpline
210
0.0
220
0.0
230
1.0
 70
    24
 71
     3
 72
     8
 73
     4
 74
     0
 42
0.0000000001
 43
0.0000000001
 40
0.0
 40
0.0
 40
0.0
 40
0.0
 40
1.0
 40
1.0
 40
1.0
 40
1.0
 10
141.9709898901485
 20
129.0407628964304
 30
0.0
 10
141.9709898901485
 20
129.0407628964304
 30
0.0
 10
127.5353265645271
 20
129.0407628964304
 30
0.0
 10
127.5353265645271
 20
129.0407628964304
 30
0.0
  0
SPLINE
  5
171
330
70
100
AcDbEntity
  8
Livello 1
 62
   250
420
  1907995
370
     9
100
AcDbSpline
210
0.0
220
0.0
230
1.0
 70
    24
 71
     3
 72
     8
 73
     4
 74
     0
 42
0.0000000001
 43
0.0000000001
 40
0.0
 40
0.0
 40
0.0
 40
0.0
 40
1.0
 40
1.0
 40
1.0
 40
1.0
 10
128.8476603281693
 20
163.8387465235274
 30
0.0
 10
128.8476603281693
 20
163.8387465235274
 30
0.0
 10
128.8476603281693
 20
132.5544157818367
 30
0.0
 10
128.8476603281693
 20
132.5544157818367
 30
0.0
  0
LWPOLYLINE
  5
172
330
70
100
AcDbEntity
  8
Livello 1
100
AcDbPolyline
 90
        3
 70
     1
 43
0.0
 10
128.2549962454724
 20
163.8387680553742
 10
129.440327102347
 20
163.8387680553742
 10
128.8476630196501
 20
167.3947525515555
  0
HATCH
  5
173
330
70
100
AcDbEntity
  8
Livello 1
 62
    18
420
    65793
440
 33554687
100
AcDbHatch
 10
0.0
 20
0.0
 30
0.0
210
0.0
220
0.0
230
1.0
  2
SOLID
 70
     1
 71
     1
 91
        1
 92
        1
 93
        3
 72
     1
 10
128.2549962454724
 20
163.8387680553742
 11
129.440327102347
 21
163.8387680553742
 72
     1
 10
129.440327102347
 20
163.8387680553742
 11
128.8476630196501
 21
167.3947525515555
 72
     1
 10
128.8476630196501
 20
167.3947525515555
 11
128.2549962454724
 21
163.8387680553742
 97
        1
330
172
 75
     0
 76
     1
 98
        1
 10
0.0
 20
0.0
450
        0
451
        0
460
0.0
461
0.0
452
        0
462
0.0
453
        0
470

  0
LWPOLYLINE
  5
174
330
70
100
AcDbEntity
  8
Livello 1
100
AcDbPolyline
 90
        3
 70
     1
 43
0.0
 10
128.2549962454724
 20
132.5544373136835
 10
129.440327102347
 20
132.5544373136835
 10
128.8476630196501
 20
129.0407628964304
  0
HATCH
  5
175
330
70
100
AcDbEntity
  8
Livello 1
 62
    18
420
    65793
440
 33554687
100
AcDbHatch
 10
0.0
 20
0.0
 30
0.0
210
0.0
220
0.0
230
1.0
  2
SOLID
 70
     1
 71
     1
 91
        1
 92
        1
 93
        3
 72
     1
 10
128.2549962454724
 20
132.5544373136835
 11
129.440327102347
 21
132.5544373136835
 72
     1
 10
129.440327102347
 20
132.5544373136835
 11
128.8476630196501
 21
129.0407628964304
 72
     1
 10
128.8476630196501
 20
129.0407628964304
 11
128.2549962454724
 21
132.5544373136835
 97
        1
330
174
 75
     0
 76
     1
 98
        1
 10
0.0
 20
0.0
450
        0
451
        0
460
0.0
461
0.0
452
        0
462
0.0
453
        0
470

  0
LWPOLYLINE
  5
176
330
70
100
AcDbEntity
  8
Livello 1
 62
   250
420
  1907995
370
     9
100
AcDbPolyline
 90
        9
 70
     0
 43
0.0
 10
127.0273257033802
 20
135.0097568660211
 10
127.9163272103872
 20
135.8987637559898
 10
127.9163272103872
 20
137.6344243933055
 10
127.0273257033802
 20
138.5234312832742
 10
125.2916596831028
 20
138.5234312832742
 10
124.4026608675767
 20
137.6344243933055
 10
124.4026608675767
 20
135.0097568660211
 10
122.6246605450435
 20
135.0097568660211
 10
122.6246605450435
 20
138.5234312832742
  0
LWPOLYLINE
  5
177
330
70
100
AcDbEntity
  8
Livello 1
 62
   250
420
  1907995
370
     9
100
AcDbPolyline
 90
        4
 70
     0
 43
0.0
 10
126.138326887854
 20
143.8150979486179
 10
126.138326887854
 20
140.3014235313648
 10
122.6246605450435
 20
142.9260910586492
 10
127.9163272103872
 20
142.9260910586492
  0
LINE
  5
178
330
70
100
AcDbEntity
  8
Livello 1
 62
   250
420
  1907995
370
     9
100
AcDbLine
 10
127.9163272103872
 20
145.5507585859336
 30
0.0
 11
127.0273257033802
 21
145.5507585859336
 31
0.0
  0
LWPOLYLINE
  5
179
330
70
100
AcDbEntity
  8
Livello 1
 62
   250
420
  1907995
370
     9
100
AcDbPolyline
 90
        9
 70
     0
 43
0.0
 10
127.0273257033802
 20
147.3287508340242
 10
127.9163272103872
 20
148.2177577239929
 10
127.9163272103872
 20
149.9534183613086
 10
127.0273257033802
 20
150.8424252512773
 10
125.2916596831028
 20
150.8424252512773
 10
124.4026608675767
 20
149.9534183613086
 10
124.4026608675767
 20
147.3287508340242
 10
122.6246605450435
 20
147.3287508340242
 10
122.6246605450435
 20
150.8424252512773
  0
LINE
  5
17A
330
70
100
AcDbEntity
  8
Livello 1
 62
   250
420
  1907995
370
     9
100
AcDbLine
 10
127.9163272103872
 20
152.620417499368
 30
0.0
 11
124.4026608675767
 21
152.620417499368
 31
0.0
  0
LWPOLYLINE
  5
17B
330
70
100
AcDbEntity
  8
Livello 1
 62
   250
420
  1907995
370
     9
100
AcDbPolyline
 90
        4
 70
     0
 43
0.0
 10
125.2916596831028
 20
152.620417499368
 10
124.4026608675767
 20
153.4670927785617
 10
125.2916596831028
 20
154.3560996685304
 10
126.138326887854
 20
154.3560996685304
  0
LWPOLYLINE
  5
17C
330
70
100
AcDbEntity
  8
Livello 1
 62
   250
420
  1907995
370
     9
100
AcDbPolyline
 90
        4
 70
     0
 43
0.0
 10
125.2916596831028
 20
154.3560996685304
 10
124.4026608675767
 20
155.2450850266524
 10
125.2916596831028
 20
156.1340919166211
 10
127.9163272103872
 20
156.1340919166211
  0
LINE
  5
17D
330
70
100
AcDbEntity
  8
Livello 1
 62
   250
420
  1907995
370
     9
100
AcDbLine
 10
127.9163272103872
 20
157.8697525539367
 30
0.0
 11
124.4026608675767
 21
157.8697525539367
 31
0.0
  0
LWPOLYLINE
  5
17E
330
70
100
AcDbEntity
  8
Livello 1
 62
   250
420
  1907995
370
     9
100
AcDbPolyline
 90
        4
 70
     0
 43
0.0
 10
125.2916596831028
 20
157.8697525539367
 10
124.4026608675767
 20
158.7587594439054
 10
125.2916596831028
 20
159.6477663338742
 10
126.138326887854
 20
159.6477663338742
  0
LWPOLYLINE
  5
17F
330
70
100
AcDbEntity
  8
Livello 1
 62
   250
420
  1907995
370
     9
100
AcDbPolyline
 90
        4
 70
     0
 43
0.0
 10
125.2916596831028
 20
159.6477663338742
 10
124.4026608675767
 20
160.5367516919961
 10
125.2916596831028
 20
161.3834269711898
 10
127.9163272103872
 20
161.3834269711898
  0
SPLINE
  5
180
330
70
100
AcDbEntity
  8
Livello 1
 62
   250
420
  1907995
370
     9
100
AcDbSpline
210
0.0
220
0.0
230
1.0
 70
    24
 71
     3
 72
     8
 73
     4
 74
     0
 42
0.0000000001
 43
0.0000000001
 40
0.0
 40
0.0
 40
0.0
 40
0.0
 40
1.0
 40
1.0
 40
1.0
 40
1.0
 10
246.195657392033
 20
129.0407628964304
 30
0.0
 10
246.195657392033
 20
129.0407628964304
 30
0.0
 10
246.322652224358
 20
129.0407628964304
 30
0.0
 10
246.322652224358
 20
129.0407628964304
 30
0.0
  0
SPLINE
  5
181
330
70
100
AcDbEntity
  8
Livello 1
 62
   250
420
  1907995
370
     9
100
AcDbSpline
210
0.0
220
0.0
230
1.0
 70
    24
 71
     3
 72
     8
 73
     4
 74
     0
 42
0.0000000001
 43
0.0000000001
 40
0.0
 40
0.0
 40
0.0
 40
0.0
 40
1.0
 40
1.0
 40
1.0
 40
1.0
 10
246.364983835133
 20
129.0407628964304
 30
0.0
 10
246.364983835133
 20
129.0407628964304
 30
0.0
 10
246.407315445908
 20
129.0407628964304
 30
0.0
 10
246.407315445908
 20
129.0407628964304
 30
0.0
  0
SPLINE
  5
182
330
70
100
AcDbEntity
  8
Livello 1
 62
   250
420
  1907995
370
     9
100
AcDbSpline
210
0.0
220
0.0
230
1.0
 70
    24
 71
     3
 72
     8
 73
     4
 74
     0
 42
0.0000000001
 43
0.0000000001
 40
0.0
 40
0.0
 40
0.0
 40
0.0
 40
1.0
 40
1.0
 40
1.0
 40
1.0
 10
246.407315445908
 20
129.0407628964304
 30
0.0
 10
246.407315445908
 20
129.0407628964304
 30
0.0
 10
246.4496578226064
 20
129.0407628964304
 30
0.0
 10
246.4496578226064
 20
129.0407628964304
 30
0.0
  0
LWPOLYLINE
  5
183
330
70
100
AcDbEntity
  8
Livello 1
 62
   250
420
  1907995
370
     9
100
AcDbPolyline
 90
        3
 70
     0
 43
0.0
 10
246.4919894333814
 20
129.0407628964304
 10
246.6189842657064
 20
129.0407628964304
 10
246.6613158764814
 20
129.1677577287555
  0
SPLINE
  5
184
330
70
100
AcDbEntity
  8
Livello 1
 62
   250
420
  1907995
370
     9
100
AcDbSpline
210
0.0
220
0.0
230
1.0
 70
    24
 71
     3
 72
     8
 73
     4
 74
     0
 42
0.0000000001
 43
0.0000000001
 40
0.0
 40
0.0
 40
0.0
 40
0.0
 40
1.0
 40
1.0
 40
1.0
 40
1.0
 10
246.6613158764814
 20
129.2100893395305
 30
0.0
 10
246.6613158764814
 20
129.2100893395305
 30
0.0
 10
246.7036582531799
 20
129.2100893395305
 30
0.0
 10
246.7036582531799
 20
129.2100893395305
 30
0.0
  0
SPLINE
  5
185
330
70
100
AcDbEntity
  8
Livello 1
 62
   250
420
  1907995
370
     9
100
AcDbSpline
210
0.0
220
0.0
230
1.0
 70
    24
 71
     3
 72
     8
 73
     4
 74
     0
 42
0.0000000001
 43
0.0000000001
 40
0.0
 40
0.0
 40
0.0
 40
0.0
 40
1.0
 40
1.0
 40
1.0
 40
1.0
 10
246.6613158764814
 20
129.2524209503055
 30
0.0
 10
246.6613158764814
 20
129.2524209503055
 30
0.0
 10
246.7036582531799
 20
129.2524209503055
 30
0.0
 10
246.7036582531799
 20
129.2524209503055
 30
0.0
  0
LINE
  5
186
330
70
100
AcDbEntity
  8
Livello 1
 62
   250
420
  1907995
370
     9
100
AcDbLine
 10
246.7036582531799
 20
129.2947525610805
 30
0.0
 11
246.7459898639549
 21
129.4217473934055
 31
0.0
  0
SPLINE
  5
187
330
70
100
AcDbEntity
  8
Livello 1
 62
   250
420
  1907995
370
     9
100
AcDbSpline
210
0.0
220
0.0
230
1.0
 70
    24
 71
     3
 72
     8
 73
     4
 74
     0
 42
0.0000000001
 43
0.0000000001
 40
0.0
 40
0.0
 40
0.0
 40
0.0
 40
1.0
 40
1.0
 40
1.0
 40
1.0
 10
252.0799881400736
 20
146.9900979478242
 30
0.0
 10
252.0799881400736
 20
146.9900979478242
 30
0.0
 10
252.1223197508486
 20
146.9477663370492
 30
0.0
 10
252.1223197508486
 20
146.9477663370492
 30
0.0
  0
SPLINE
  5
188
330
70
100
AcDbEntity
  8
Livello 1
 62
   250
420
  1907995
370
     9
100
AcDbSpline
210
0.0
220
0.0
230
1.0
 70
    24
 71
     3
 72
     8
 73
     4
 74
     0
 42
0.0000000001
 43
0.0000000001
 40
0.0
 40
0.0
 40
0.0
 40
0.0
 40
1.0
 40
1.0
 40
1.0
 40
1.0
 10
252.1646513616236
 20
146.9477663370492
 30
0.0
 10
252.1646513616236
 20
146.9477663370492
 30
0.0
 10
252.2069829723986
 20
146.9477663370492
 30
0.0
 10
252.2069829723986
 20
146.9477663370492
 30
0.0
  0
SPLINE
  5
189
330
70
100
AcDbEntity
  8
Livello 1
 62
   250
420
  1907995
370
     9
100
AcDbSpline
210
0.0
220
0.0
230
1.0
 70
    24
 71
     3
 72
     8
 73
     4
 74
     0
 42
0.0000000001
 43
0.0000000001
 40
0.0
 40
0.0
 40
0.0
 40
0.0
 40
1.0
 40
1.0
 40
1.0
 40
1.0
 10
252.2069829723986
 20
146.9054347262742
 30
0.0
 10
252.2069829723986
 20
146.9054347262742
 30
0.0
 10
252.249325349097
 20
146.9054347262742
 30
0.0
 10
252.249325349097
 20
146.9054347262742
 30
0.0
  0
SPLINE
  5
18A
330
70
100
AcDbEntity
  8
Livello 1
 62
   250
420
  1907995
370
     9
100
AcDbSpline
210
0.0
220
0.0
230
1.0
 70
    24
 71
     3
 72
     8
 73
     4
 74
     0
 42
0.0000000001
 43
0.0000000001
 40
0.0
 40
0.0
 40
0.0
 40
0.0
 40
1.0
 40
1.0
 40
1.0
 40
1.0
 10
252.249325349097
 20
146.9054347262742
 30
0.0
 10
252.249325349097
 20
146.9054347262742
 30
0.0
 10
252.333988570647
 20
146.8630815836524
 30
0.0
 10
252.333988570647
 20
146.8630815836524
 30
0.0
  0
SPLINE
  5
18B
330
70
100
AcDbEntity
  8
Livello 1
 62
   250
420
  1907995
370
     9
100
AcDbSpline
210
0.0
220
0.0
230
1.0
 70
    24
 71
     3
 72
     8
 73
     4
 74
     0
 42
0.0000000001
 43
0.0000000001
 40
0.0
 40
0.0
 40
0.0
 40
0.0
 40
1.0
 40
1.0
 40
1.0
 40
1.0
 10
252.3763201814221
 20
146.8207499728774
 30
0.0
 10
252.3763201814221
 20
146.8207499728774
 30
0.0
 10
252.4186517921971
 20
146.8207499728774
 30
0.0
 10
252.4186517921971
 20
146.8207499728774
 30
0.0
  0
SPLINE
  5
18C
330
70
100
AcDbEntity
  8
Livello 1
 62
   250
420
  1907995
370
     9
100
AcDbSpline
210
0.0
220
0.0
230
1.0
 70
    24
 71
     3
 72
     8
 73
     4
 74
     0
 42
0.0000000001
 43
0.0000000001
 40
0.0
 40
0.0
 40
0.0
 40
0.0
 40
1.0
 40
1.0
 40
1.0
 40
1.0
 10
252.4186517921971
 20
146.8207499728774
 30
0.0
 10
252.4186517921971
 20
146.8207499728774
 30
0.0
 10
252.4609834029721
 20
146.8207499728774
 30
0.0
 10
252.4609834029721
 20
146.8207499728774
 30
0.0
  0
LWPOLYLINE
  5
18D
330
70
100
AcDbEntity
  8
Livello 1
 62
   250
420
  1907995
370
     9
100
AcDbPolyline
 90
        3
 70
     0
 43
0.0
 10
252.4609834029721
 20
146.7784183621023
 10
252.5033150137471
 20
146.7784183621023
 10
252.4609834029721
 20
146.6937551405523
  0
SPLINE
  5
18E
330
70
100
AcDbEntity
  8
Livello 1
 62
   250
420
  1907995
370
     9
100
AcDbSpline
210
0.0
220
0.0
230
1.0
 70
    24
 71
     3
 72
     8
 73
     4
 74
     0
 42
0.0000000001
 43
0.0000000001
 40
0.0
 40
0.0
 40
0.0
 40
0.0
 40
1.0
 40
1.0
 40
1.0
 40
1.0
 10
252.4609834029721
 20
146.6514235297773
 30
0.0
 10
252.4609834029721
 20
146.6514235297773
 30
0.0
 10
252.5033150137471
 20
146.6514235297773
 30
0.0
 10
252.5033150137471
 20
146.6514235297773
 30
0.0
  0
SPLINE
  5
18F
330
70
100
AcDbEntity
  8
Livello 1
 62
   250
420
  1907995
370
     9
100
AcDbSpline
210
0.0
220
0.0
230
1.0
 70
    24
 71
     3
 72
     8
 73
     4
 74
     0
 42
0.0000000001
 43
0.0000000001
 40
0.0
 40
0.0
 40
0.0
 40
0.0
 40
1.0
 40
1.0
 40
1.0
 40
1.0
 10
252.4609834029721
 20
146.6090919190023
 30
0.0
 10
252.4609834029721
 20
146.6090919190023
 30
0.0
 10
252.5033150137471
 20
146.6090919190023
 30
0.0
 10
252.5033150137471
 20
146.6090919190023
 30
0.0
  0
SPLINE
  5
190
330
70
100
AcDbEntity
  8
Livello 1
 62
   250
420
  1907995
370
     9
100
AcDbSpline
210
0.0
220
0.0
230
1.0
 70
    24
 71
     3
 72
     8
 73
     4
 74
     0
 42
0.0000000001
 43
0.0000000001
 40
0.0
 40
0.0
 40
0.0
 40
0.0
 40
1.0
 40
1.0
 40
1.0
 40
1.0
 10
252.4186517921971
 20
146.5667603082273
 30
0.0
 10
252.4186517921971
 20
146.5667603082273
 30
0.0
 10
252.4186517921971
 20
146.4820970866773
 30
0.0
 10
252.4186517921971
 20
146.4820970866773
 30
0.0
  0
SPLINE
  5
191
330
70
100
AcDbEntity
  8
Livello 1
 62
   250
420
  1907995
370
     9
100
AcDbSpline
210
0.0
220
0.0
230
1.0
 70
    24
 71
     3
 72
     8
 73
     4
 74
     0
 42
0.0000000001
 43
0.0000000001
 40
0.0
 40
0.0
 40
0.0
 40
0.0
 40
1.0
 40
1.0
 40
1.0
 40
1.0
 10
252.3763201814221
 20
146.4397654759023
 30
0.0
 10
252.3763201814221
 20
146.4397654759023
 30
0.0
 10
252.4186517921971
 20
146.4397654759023
 30
0.0
 10
252.4186517921971
 20
146.4397654759023
 30
0.0
  0
SPLINE
  5
192
330
70
100
AcDbEntity
  8
Livello 1
 62
   250
420
  1907995
370
     9
100
AcDbSpline
210
0.0
220
0.0
230
1.0
 70
    24
 71
     3
 72
     8
 73
     4
 74
     0
 42
0.0000000001
 43
0.0000000001
 40
0.0
 40
0.0
 40
0.0
 40
0.0
 40
1.0
 40
1.0
 40
1.0
 40
1.0
 10
252.3763201814221
 20
146.3974338651273
 30
0.0
 10
252.3763201814221
 20
146.3974338651273
 30
0.0
 10
252.4186517921971
 20
146.3974338651273
 30
0.0
 10
252.4186517921971
 20
146.3974338651273
 30
0.0
  0
LINE
  5
193
330
70
100
AcDbEntity
  8
Livello 1
 62
   250
420
  1907995
370
     9
100
AcDbLine
 10
252.3763201814221
 20
146.3550807225055
 30
0.0
 11
252.333988570647
 21
146.3127491117305
 31
0.0
  0
LWPOLYLINE
  5
194
330
70
100
AcDbEntity
  8
Livello 1
 62
   250
420
  1907995
370
    25
100
AcDbPolyline
 90
       13
 70
     0
 43
0.0
 10
56.55520127389028
 20
105.742898040966
 10
56.63987526136369
 20
105.0655707367191
 10
56.89387569193712
 20
104.4729066540222
 10
57.27487095483558
 20
103.9649057928753
 10
57.78287181598245
 20
103.5838997640535
 10
58.37553589867934
 20
103.3299100994035
 10
59.01054235807463
 20
103.2452468778534
 10
59.64553805154652
 20
103.3299100994035
 10
60.23820213424341
 20
103.5838997640535
 10
60.74620299539027
 20
103.9649057928753
 10
61.16954063498713
 20
104.4729066540222
 10
61.42354106556057
 20
105.0655707367191
 10
61.50820428711059
 20
105.742898040966
  0
LWPOLYLINE
  5
195
330
70
100
AcDbEntity
  8
Livello 1
 62
   250
420
  1907995
370
    25
100
AcDbPolyline
 90
       13
 70
     0
 43
0.0
 10
-1.822458487990996
 20
105.742898040966
 10
-1.737789883479286
 20
105.0655707367191
 10
-1.48378945290585
 20
104.4729066540222
 10
-1.102788807045697
 20
103.9649057928753
 10
-0.5947933288605216
 20
103.5838997640535
 10
-0.0021238632019398
 20
103.3299100994035
 10
0.6328772132316494
 20
103.2452468778534
 10
1.267872906703542
 20
103.3299100994035
 10
1.860542372362124
 20
103.5838997640535
 10
2.368543233508995
 20
103.9649057928753
 10
2.749543879369149
 20
104.4729066540222
 10
3.003544309942585
 20
105.0655707367191
 10
3.088207531492599
 20
105.742898040966
  0
SPLINE
  5
196
330
70
100
AcDbEntity
  8
Livello 1
 62
   250
420
  1907995
370
     9
100
AcDbSpline
210
0.0
220
0.0
230
1.0
 70
    24
 71
     3
 72
     8
 73
     4
 74
     0
 42
0.0000000001
 43
0.0000000001
 40
0.0
 40
0.0
 40
0.0
 40
0.0
 40
1.0
 40
1.0
 40
1.0
 40
1.0
 10
55.92020558041839
 20
105.742898040966
 30
0.0
 10
55.92020558041839
 20
105.742898040966
 30
0.0
 10
56.97853891348714
 20
105.742898040966
 30
0.0
 10
56.97853891348714
 20
105.742898040966
 30
0.0
  0
SPLINE
  5
197
330
70
100
AcDbEntity
  8
Livello 1
 62
   250
420
  1907995
370
     9
100
AcDbSpline
210
0.0
220
0.0
230
1.0
 70
    24
 71
     3
 72
     8
 73
     4
 74
     0
 42
0.0000000001
 43
0.0000000001
 40
0.0
 40
0.0
 40
0.0
 40
0.0
 40
1.0
 40
1.0
 40
1.0
 40
1.0
 10
57.19020773328557
 20
105.742898040966
 30
0.0
 10
57.19020773328557
 20
105.742898040966
 30
0.0
 10
57.401876553084
 20
105.742898040966
 30
0.0
 10
57.401876553084
 20
105.742898040966
 30
0.0
  0
SPLINE
  5
198
330
70
100
AcDbEntity
  8
Livello 1
 62
   250
420
  1907995
370
     9
100
AcDbSpline
210
0.0
220
0.0
230
1.0
 70
    24
 71
     3
 72
     8
 73
     4
 74
     0
 42
0.0000000001
 43
0.0000000001
 40
0.0
 40
0.0
 40
0.0
 40
0.0
 40
1.0
 40
1.0
 40
1.0
 40
1.0
 10
57.61353460695904
 20
105.742898040966
 30
0.0
 10
57.61353460695904
 20
105.742898040966
 30
0.0
 10
58.7141995508028
 20
105.742898040966
 30
0.0
 10
58.7141995508028
 20
105.742898040966
 30
0.0
  0
SPLINE
  5
199
330
70
100
AcDbEntity
  8
Livello 1
 62
   250
420
  1907995
370
     9
100
AcDbSpline
210
0.0
220
0.0
230
1.0
 70
    24
 71
     3
 72
     8
 73
     4
 74
     0
 42
0.0000000001
 43
0.0000000001
 40
0.0
 40
0.0
 40
0.0
 40
0.0
 40
1.0
 40
1.0
 40
1.0
 40
1.0
 10
58.92586837060122
 20
105.742898040966
 30
0.0
 10
58.92586837060122
 20
105.742898040966
 30
0.0
 10
59.13753719039965
 20
105.742898040966
 30
0.0
 10
59.13753719039965
 20
105.742898040966
 30
0.0
  0
SPLINE
  5
19A
330
70
100
AcDbEntity
  8
Livello 1
 62
   250
420
  1907995
370
     9
100
AcDbSpline
210
0.0
220
0.0
230
1.0
 70
    24
 71
     3
 72
     8
 73
     4
 74
     0
 42
0.0000000001
 43
0.0000000001
 40
0.0
 40
0.0
 40
0.0
 40
0.0
 40
1.0
 40
1.0
 40
1.0
 40
1.0
 10
59.34920601019808
 20
105.742898040966
 30
0.0
 10
59.34920601019808
 20
105.742898040966
 30
0.0
 10
60.40753934326683
 20
105.742898040966
 30
0.0
 10
60.40753934326683
 20
105.742898040966
 30
0.0
  0
SPLINE
  5
19B
330
70
100
AcDbEntity
  8
Livello 1
 62
   250
420
  1907995
370
     9
100
AcDbSpline
210
0.0
220
0.0
230
1.0
 70
    24
 71
     3
 72
     8
 73
     4
 74
     0
 42
0.0000000001
 43
0.0000000001
 40
0.0
 40
0.0
 40
0.0
 40
0.0
 40
1.0
 40
1.0
 40
1.0
 40
1.0
 10
60.61920816306526
 20
105.742898040966
 30
0.0
 10
60.61920816306526
 20
105.742898040966
 30
0.0
 10
60.83086621694029
 20
105.742898040966
 30
0.0
 10
60.83086621694029
 20
105.742898040966
 30
0.0
  0
LINE
  5
19C
330
70
100
AcDbEntity
  8
Livello 1
 62
   250
420
  1907995
370
     9
100
AcDbLine
 10
61.04253503673872
 20
105.742898040966
 30
0.0
 11
62.10086836980747
 21
105.742898040966
 31
0.0
  0
SPLINE
  5
19D
330
70
100
AcDbEntity
  8
Livello 1
 62
   250
420
  1907995
370
     9
100
AcDbSpline
210
0.0
220
0.0
230
1.0
 70
    24
 71
     3
 72
     8
 73
     4
 74
     0
 42
0.0000000001
 43
0.0000000001
 40
0.0
 40
0.0
 40
0.0
 40
0.0
 40
1.0
 40
1.0
 40
1.0
 40
1.0
 10
59.01054235807463
 20
102.6102296525348
 30
0.0
 10
59.01054235807463
 20
102.6102296525348
 30
0.0
 10
59.01054235807463
 20
103.6685629856035
 30
0.0
 10
59.01054235807463
 20
103.6685629856035
 30
0.0
  0
SPLINE
  5
19E
330
70
100
AcDbEntity
  8
Livello 1
 62
   250
420
  1907995
370
     9
100
AcDbSpline
210
0.0
220
0.0
230
1.0
 70
    24
 71
     3
 72
     8
 73
     4
 74
     0
 42
0.0000000001
 43
0.0000000001
 40
0.0
 40
0.0
 40
0.0
 40
0.0
 40
1.0
 40
1.0
 40
1.0
 40
1.0
 10
59.01054235807463
 20
103.8802425713253
 30
0.0
 10
59.01054235807463
 20
103.8802425713253
 30
0.0
 10
59.01054235807463
 20
104.1342322359754
 30
0.0
 10
59.01054235807463
 20
104.1342322359754
 30
0.0
  0
SPLINE
  5
19F
330
70
100
AcDbEntity
  8
Livello 1
 62
   250
420
  1907995
370
     9
100
AcDbSpline
210
0.0
220
0.0
230
1.0
 70
    24
 71
     3
 72
     8
 73
     4
 74
     0
 42
0.0000000001
 43
0.0000000001
 40
0.0
 40
0.0
 40
0.0
 40
0.0
 40
1.0
 40
1.0
 40
1.0
 40
1.0
 10
59.01054235807463
 20
104.3459118216972
 30
0.0
 10
59.01054235807463
 20
104.3459118216972
 30
0.0
 10
59.01054235807463
 20
105.404245154766
 30
0.0
 10
59.01054235807463
 20
105.404245154766
 30
0.0
  0
SPLINE
  5
1A0
330
70
100
AcDbEntity
  8
Livello 1
 62
   250
420
  1907995
370
     9
100
AcDbSpline
210
0.0
220
0.0
230
1.0
 70
    24
 71
     3
 72
     8
 73
     4
 74
     0
 42
0.0000000001
 43
0.0000000001
 40
0.0
 40
0.0
 40
0.0
 40
0.0
 40
1.0
 40
1.0
 40
1.0
 40
1.0
 10
59.01054235807463
 20
105.615903208641
 30
0.0
 10
59.01054235807463
 20
105.615903208641
 30
0.0
 10
59.01054235807463
 20
105.827561262516
 30
0.0
 10
59.01054235807463
 20
105.827561262516
 30
0.0
  0
SPLINE
  5
1A1
330
70
100
AcDbEntity
  8
Livello 1
 62
   250
420
  1907995
370
     9
100
AcDbSpline
210
0.0
220
0.0
230
1.0
 70
    24
 71
     3
 72
     8
 73
     4
 74
     0
 42
0.0000000001
 43
0.0000000001
 40
0.0
 40
0.0
 40
0.0
 40
0.0
 40
1.0
 40
1.0
 40
1.0
 40
1.0
 10
59.01054235807463
 20
106.0392408482378
 30
0.0
 10
59.01054235807463
 20
106.0392408482378
 30
0.0
 10
59.01054235807463
 20
107.0975741813066
 30
0.0
 10
59.01054235807463
 20
107.0975741813066
 30
0.0
  0
SPLINE
  5
1A2
330
70
100
AcDbEntity
  8
Livello 1
 62
   250
420
  1907995
370
     9
100
AcDbSpline
210
0.0
220
0.0
230
1.0
 70
    24
 71
     3
 72
     8
 73
     4
 74
     0
 42
0.0000000001
 43
0.0000000001
 40
0.0
 40
0.0
 40
0.0
 40
0.0
 40
1.0
 40
1.0
 40
1.0
 40
1.0
 10
59.01054235807463
 20
107.3515638459566
 30
0.0
 10
59.01054235807463
 20
107.3515638459566
 30
0.0
 10
59.01054235807463
 20
107.5632434316785
 30
0.0
 10
59.01054235807463
 20
107.5632434316785
 30
0.0
  0
LINE
  5
1A3
330
70
100
AcDbEntity
  8
Livello 1
 62
   250
420
  1907995
370
     9
100
AcDbLine
 10
59.01054235807463
 20
107.7749014855535
 30
0.0
 11
59.01054235807463
 21
108.8332348186223
 31
0.0
  0
SPLINE
  5
1A4
330
70
100
AcDbEntity
  8
Livello 1
 62
   250
420
  1907995
370
     9
100
AcDbSpline
210
0.0
220
0.0
230
1.0
 70
    24
 71
     3
 72
     8
 73
     4
 74
     0
 42
0.0000000001
 43
0.0000000001
 40
0.0
 40
0.0
 40
0.0
 40
0.0
 40
1.0
 40
1.0
 40
1.0
 40
1.0
 10
-2.457459564424586
 20
105.742898040966
 30
0.0
 10
-2.457459564424586
 20
105.742898040966
 30
0.0
 10
-1.399126231355835
 20
105.742898040966
 30
0.0
 10
-1.399126231355835
 20
105.742898040966
 30
0.0
  0
SPLINE
  5
1A5
330
70
100
AcDbEntity
  8
Livello 1
 62
   250
420
  1907995
370
     9
100
AcDbSpline
210
0.0
220
0.0
230
1.0
 70
    24
 71
     3
 72
     8
 73
     4
 74
     0
 42
0.0000000001
 43
0.0000000001
 40
0.0
 40
0.0
 40
0.0
 40
0.0
 40
1.0
 40
1.0
 40
1.0
 40
1.0
 10
-1.187457411557407
 20
105.742898040966
 30
0.0
 10
-1.187457411557407
 20
105.742898040966
 30
0.0
 10
-0.9757885917589794
 20
105.742898040966
 30
0.0
 10
-0.9757885917589794
 20
105.742898040966
 30
0.0
  0
SPLINE
  5
1A6
330
70
100
AcDbEntity
  8
Livello 1
 62
   250
420
  1907995
370
     9
100
AcDbSpline
210
0.0
220
0.0
230
1.0
 70
    24
 71
     3
 72
     8
 73
     4
 74
     0
 42
0.0000000001
 43
0.0000000001
 40
0.0
 40
0.0
 40
0.0
 40
0.0
 40
1.0
 40
1.0
 40
1.0
 40
1.0
 10
-0.7641251549222469
 20
105.742898040966
 30
0.0
 10
-0.7641251549222469
 20
105.742898040966
 30
0.0
 10
0.2942081781465032
 20
105.742898040966
 30
0.0
 10
0.2942081781465032
 20
105.742898040966
 30
0.0
  0
SPLINE
  5
1A7
330
70
100
AcDbEntity
  8
Livello 1
 62
   250
420
  1907995
370
     9
100
AcDbSpline
210
0.0
220
0.0
230
1.0
 70
    24
 71
     3
 72
     8
 73
     4
 74
     0
 42
0.0000000001
 43
0.0000000001
 40
0.0
 40
0.0
 40
0.0
 40
0.0
 40
1.0
 40
1.0
 40
1.0
 40
1.0
 10
0.5058769979449315
 20
105.742898040966
 30
0.0
 10
0.5058769979449315
 20
105.742898040966
 30
0.0
 10
0.7175404347816641
 20
105.742898040966
 30
0.0
 10
0.7175404347816641
 20
105.742898040966
 30
0.0
  0
SPLINE
  5
1A8
330
70
100
AcDbEntity
  8
Livello 1
 62
   250
420
  1907995
370
     9
100
AcDbSpline
210
0.0
220
0.0
230
1.0
 70
    24
 71
     3
 72
     8
 73
     4
 74
     0
 42
0.0000000001
 43
0.0000000001
 40
0.0
 40
0.0
 40
0.0
 40
0.0
 40
1.0
 40
1.0
 40
1.0
 40
1.0
 10
0.9292092545800924
 20
105.742898040966
 30
0.0
 10
0.9292092545800924
 20
105.742898040966
 30
0.0
 10
2.029874198423849
 20
105.742898040966
 30
0.0
 10
2.029874198423849
 20
105.742898040966
 30
0.0
  0
SPLINE
  5
1A9
330
70
100
AcDbEntity
  8
Livello 1
 62
   250
420
  1907995
370
     9
100
AcDbSpline
210
0.0
220
0.0
230
1.0
 70
    24
 71
     3
 72
     8
 73
     4
 74
     0
 42
0.0000000001
 43
0.0000000001
 40
0.0
 40
0.0
 40
0.0
 40
0.0
 40
1.0
 40
1.0
 40
1.0
 40
1.0
 10
2.241543018222277
 20
105.742898040966
 30
0.0
 10
2.241543018222277
 20
105.742898040966
 30
0.0
 10
2.45320645505901
 20
105.742898040966
 30
0.0
 10
2.45320645505901
 20
105.742898040966
 30
0.0
  0
LINE
  5
1AA
330
70
100
AcDbEntity
  8
Livello 1
 62
   250
420
  1907995
370
     9
100
AcDbLine
 10
2.664875274857438
 20
105.742898040966
 30
0.0
 11
3.723208607926189
 21
105.742898040966
 31
0.0
  0
SPLINE
  5
1AB
330
70
100
AcDbEntity
  8
Livello 1
 62
   250
420
  1907995
370
     9
100
AcDbSpline
210
0.0
220
0.0
230
1.0
 70
    24
 71
     3
 72
     8
 73
     4
 74
     0
 42
0.0000000001
 43
0.0000000001
 40
0.0
 40
0.0
 40
0.0
 40
0.0
 40
1.0
 40
1.0
 40
1.0
 40
1.0
 10
0.6328772132316494
 20
102.6102296525348
 30
0.0
 10
0.6328772132316494
 20
102.6102296525348
 30
0.0
 10
0.6328772132316494
 20
103.6685629856035
 30
0.0
 10
0.6328772132316494
 20
103.6685629856035
 30
0.0
  0
SPLINE
  5
1AC
330
70
100
AcDbEntity
  8
Livello 1
 62
   250
420
  1907995
370
     9
100
AcDbSpline
210
0.0
220
0.0
230
1.0
 70
    24
 71
     3
 72
     8
 73
     4
 74
     0
 42
0.0000000001
 43
0.0000000001
 40
0.0
 40
0.0
 40
0.0
 40
0.0
 40
1.0
 40
1.0
 40
1.0
 40
1.0
 10
0.6328772132316494
 20
103.8802425713253
 30
0.0
 10
0.6328772132316494
 20
103.8802425713253
 30
0.0
 10
0.6328772132316494
 20
104.1342322359754
 30
0.0
 10
0.6328772132316494
 20
104.1342322359754
 30
0.0
  0
SPLINE
  5
1AD
330
70
100
AcDbEntity
  8
Livello 1
 62
   250
420
  1907995
370
     9
100
AcDbSpline
210
0.0
220
0.0
230
1.0
 70
    24
 71
     3
 72
     8
 73
     4
 74
     0
 42
0.0000000001
 43
0.0000000001
 40
0.0
 40
0.0
 40
0.0
 40
0.0
 40
1.0
 40
1.0
 40
1.0
 40
1.0
 10
0.6328772132316494
 20
104.3459118216972
 30
0.0
 10
0.6328772132316494
 20
104.3459118216972
 30
0.0
 10
0.6328772132316494
 20
105.404245154766
 30
0.0
 10
0.6328772132316494
 20
105.404245154766
 30
0.0
  0
SPLINE
  5
1AE
330
70
100
AcDbEntity
  8
Livello 1
 62
   250
420
  1907995
370
     9
100
AcDbSpline
210
0.0
220
0.0
230
1.0
 70
    24
 71
     3
 72
     8
 73
     4
 74
     0
 42
0.0000000001
 43
0.0000000001
 40
0.0
 40
0.0
 40
0.0
 40
0.0
 40
1.0
 40
1.0
 40
1.0
 40
1.0
 10
0.6328772132316494
 20
105.615903208641
 30
0.0
 10
0.6328772132316494
 20
105.615903208641
 30
0.0
 10
0.6328772132316494
 20
105.827561262516
 30
0.0
 10
0.6328772132316494
 20
105.827561262516
 30
0.0
  0
SPLINE
  5
1AF
330
70
100
AcDbEntity
  8
Livello 1
 62
   250
420
  1907995
370
     9
100
AcDbSpline
210
0.0
220
0.0
230
1.0
 70
    24
 71
     3
 72
     8
 73
     4
 74
     0
 42
0.0000000001
 43
0.0000000001
 40
0.0
 40
0.0
 40
0.0
 40
0.0
 40
1.0
 40
1.0
 40
1.0
 40
1.0
 10
0.6328772132316494
 20
106.0392408482378
 30
0.0
 10
0.6328772132316494
 20
106.0392408482378
 30
0.0
 10
0.6328772132316494
 20
107.0975741813066
 30
0.0
 10
0.6328772132316494
 20
107.0975741813066
 30
0.0
  0
SPLINE
  5
1B0
330
70
100
AcDbEntity
  8
Livello 1
 62
   250
420
  1907995
370
     9
100
AcDbSpline
210
0.0
220
0.0
230
1.0
 70
    24
 71
     3
 72
     8
 73
     4
 74
     0
 42
0.0000000001
 43
0.0000000001
 40
0.0
 40
0.0
 40
0.0
 40
0.0
 40
1.0
 40
1.0
 40
1.0
 40
1.0
 10
0.6328772132316494
 20
107.3515638459566
 30
0.0
 10
0.6328772132316494
 20
107.3515638459566
 30
0.0
 10
0.6328772132316494
 20
107.5632434316785
 30
0.0
 10
0.6328772132316494
 20
107.5632434316785
 30
0.0
  0
LINE
  5
1B1
330
70
100
AcDbEntity
  8
Livello 1
 62
   250
420
  1907995
370
     9
100
AcDbLine
 10
0.6328772132316494
 20
107.7749014855535
 30
0.0
 11
0.6328772132316494
 21
108.8332348186223
 31
0.0
  0
LWPOLYLINE
  5
1B2
330
70
100
AcDbEntity
  8
Livello 1
 62
   250
420
  1907995
370
    25
100
AcDbPolyline
 90
       13
 70
     0
 43
0.0
 10
61.50820428711059
 20
116.2838997608785
 10
61.42354106556057
 20
116.9188954543504
 10
61.16954063498713
 20
117.5115595370473
 10
60.74620299539027
 20
118.0195603981941
 10
60.23820213424341
 20
118.400566427016
 10
59.64553805154652
 20
118.6545776235128
 10
59.01054235807463
 20
118.7392408450628
 10
58.37553589867934
 20
118.6545776235128
 10
57.78287181598245
 20
118.400566427016
 10
57.27487095483558
 20
118.0195603981941
 10
56.89387569193712
 20
117.5115595370473
 10
56.63987526136369
 20
116.9188954543504
 10
56.55520127389028
 20
116.2838997608785
  0
LWPOLYLINE
  5
1B3
330
70
100
AcDbEntity
  8
Livello 1
 62
   250
420
  1907995
370
    25
100
AcDbPolyline
 90
       13
 70
     0
 43
0.0
 10
3.088207531492599
 20
116.2838997608785
 10
3.003544309942585
 20
116.9188954543504
 10
2.749543879369149
 20
117.5115595370473
 10
2.368543233508995
 20
118.0195603981941
 10
1.860542372362124
 20
118.400566427016
 10
1.267872906703542
 20
118.6545776235128
 10
0.6328772132316494
 20
118.7392408450628
 10
-0.0021238632019398
 20
118.6545776235128
 10
-0.5947933288605216
 20
118.400566427016
 10
-1.102788807045697
 20
118.0195603981941
 10
-1.48378945290585
 20
117.5115595370473
 10
-1.737789883479286
 20
116.9188954543504
 10
-1.822458487990996
 20
116.2838997608785
  0
SPLINE
  5
1B4
330
70
100
AcDbEntity
  8
Livello 1
 62
   250
420
  1907995
370
     9
100
AcDbSpline
210
0.0
220
0.0
230
1.0
 70
    24
 71
     3
 72
     8
 73
     4
 74
     0
 42
0.0000000001
 43
0.0000000001
 40
0.0
 40
0.0
 40
0.0
 40
0.0
 40
1.0
 40
1.0
 40
1.0
 40
1.0
 10
55.92020558041839
 20
116.2838997608785
 30
0.0
 10
55.92020558041839
 20
116.2838997608785
 30
0.0
 10
56.97853891348714
 20
116.2838997608785
 30
0.0
 10
56.97853891348714
 20
116.2838997608785
 30
0.0
  0
SPLINE
  5
1B5
330
70
100
AcDbEntity
  8
Livello 1
 62
   250
420
  1907995
370
     9
100
AcDbSpline
210
0.0
220
0.0
230
1.0
 70
    24
 71
     3
 72
     8
 73
     4
 74
     0
 42
0.0000000001
 43
0.0000000001
 40
0.0
 40
0.0
 40
0.0
 40
0.0
 40
1.0
 40
1.0
 40
1.0
 40
1.0
 10
57.19020773328557
 20
116.2838997608785
 30
0.0
 10
57.19020773328557
 20
116.2838997608785
 30
0.0
 10
57.401876553084
 20
116.2838997608785
 30
0.0
 10
57.401876553084
 20
116.2838997608785
 30
0.0
  0
SPLINE
  5
1B6
330
70
100
AcDbEntity
  8
Livello 1
 62
   250
420
  1907995
370
     9
100
AcDbSpline
210
0.0
220
0.0
230
1.0
 70
    24
 71
     3
 72
     8
 73
     4
 74
     0
 42
0.0000000001
 43
0.0000000001
 40
0.0
 40
0.0
 40
0.0
 40
0.0
 40
1.0
 40
1.0
 40
1.0
 40
1.0
 10
57.61353460695904
 20
116.2838997608785
 30
0.0
 10
57.61353460695904
 20
116.2838997608785
 30
0.0
 10
58.7141995508028
 20
116.2838997608785
 30
0.0
 10
58.7141995508028
 20
116.2838997608785
 30
0.0
  0
SPLINE
  5
1B7
330
70
100
AcDbEntity
  8
Livello 1
 62
   250
420
  1907995
370
     9
100
AcDbSpline
210
0.0
220
0.0
230
1.0
 70
    24
 71
     3
 72
     8
 73
     4
 74
     0
 42
0.0000000001
 43
0.0000000001
 40
0.0
 40
0.0
 40
0.0
 40
0.0
 40
1.0
 40
1.0
 40
1.0
 40
1.0
 10
58.92586837060122
 20
116.2838997608785
 30
0.0
 10
58.92586837060122
 20
116.2838997608785
 30
0.0
 10
59.13753719039965
 20
116.2838997608785
 30
0.0
 10
59.13753719039965
 20
116.2838997608785
 30
0.0
  0
SPLINE
  5
1B8
330
70
100
AcDbEntity
  8
Livello 1
 62
   250
420
  1907995
370
     9
100
AcDbSpline
210
0.0
220
0.0
230
1.0
 70
    24
 71
     3
 72
     8
 73
     4
 74
     0
 42
0.0000000001
 43
0.0000000001
 40
0.0
 40
0.0
 40
0.0
 40
0.0
 40
1.0
 40
1.0
 40
1.0
 40
1.0
 10
59.34920601019808
 20
116.2838997608785
 30
0.0
 10
59.34920601019808
 20
116.2838997608785
 30
0.0
 10
60.40753934326683
 20
116.2838997608785
 30
0.0
 10
60.40753934326683
 20
116.2838997608785
 30
0.0
  0
SPLINE
  5
1B9
330
70
100
AcDbEntity
  8
Livello 1
 62
   250
420
  1907995
370
     9
100
AcDbSpline
210
0.0
220
0.0
230
1.0
 70
    24
 71
     3
 72
     8
 73
     4
 74
     0
 42
0.0000000001
 43
0.0000000001
 40
0.0
 40
0.0
 40
0.0
 40
0.0
 40
1.0
 40
1.0
 40
1.0
 40
1.0
 10
60.61920816306526
 20
116.2838997608785
 30
0.0
 10
60.61920816306526
 20
116.2838997608785
 30
0.0
 10
60.83086621694029
 20
116.2838997608785
 30
0.0
 10
60.83086621694029
 20
116.2838997608785
 30
0.0
  0
LINE
  5
1BA
330
70
100
AcDbEntity
  8
Livello 1
 62
   250
420
  1907995
370
     9
100
AcDbLine
 10
61.04253503673872
 20
116.2838997608785
 30
0.0
 11
62.10086836980747
 21
116.2838997608785
 31
0.0
  0
SPLINE
  5
1BB
330
70
100
AcDbEntity
  8
Livello 1
 62
   250
420
  1907995
370
     9
100
AcDbSpline
210
0.0
220
0.0
230
1.0
 70
    24
 71
     3
 72
     8
 73
     4
 74
     0
 42
0.0000000001
 43
0.0000000001
 40
0.0
 40
0.0
 40
0.0
 40
0.0
 40
1.0
 40
1.0
 40
1.0
 40
1.0
 10
59.01054235807463
 20
113.1935629832223
 30
0.0
 10
59.01054235807463
 20
113.1935629832223
 30
0.0
 10
59.01054235807463
 20
114.251896316291
 30
0.0
 10
59.01054235807463
 20
114.251896316291
 30
0.0
  0
SPLINE
  5
1BC
330
70
100
AcDbEntity
  8
Livello 1
 62
   250
420
  1907995
370
     9
100
AcDbSpline
210
0.0
220
0.0
230
1.0
 70
    24
 71
     3
 72
     8
 73
     4
 74
     0
 42
0.0000000001
 43
0.0000000001
 40
0.0
 40
0.0
 40
0.0
 40
0.0
 40
1.0
 40
1.0
 40
1.0
 40
1.0
 10
59.01054235807463
 20
114.4635759020128
 30
0.0
 10
59.01054235807463
 20
114.4635759020128
 30
0.0
 10
59.01054235807463
 20
114.6752339558879
 30
0.0
 10
59.01054235807463
 20
114.6752339558879
 30
0.0
  0
SPLINE
  5
1BD
330
70
100
AcDbEntity
  8
Livello 1
 62
   250
420
  1907995
370
     9
100
AcDbSpline
210
0.0
220
0.0
230
1.0
 70
    24
 71
     3
 72
     8
 73
     4
 74
     0
 42
0.0000000001
 43
0.0000000001
 40
0.0
 40
0.0
 40
0.0
 40
0.0
 40
1.0
 40
1.0
 40
1.0
 40
1.0
 10
59.01054235807463
 20
114.8869135416097
 30
0.0
 10
59.01054235807463
 20
114.8869135416097
 30
0.0
 10
59.01054235807463
 20
115.9452468746784
 30
0.0
 10
59.01054235807463
 20
115.9452468746784
 30
0.0
  0
SPLINE
  5
1BE
330
70
100
AcDbEntity
  8
Livello 1
 62
   250
420
  1907995
370
     9
100
AcDbSpline
210
0.0
220
0.0
230
1.0
 70
    24
 71
     3
 72
     8
 73
     4
 74
     0
 42
0.0000000001
 43
0.0000000001
 40
0.0
 40
0.0
 40
0.0
 40
0.0
 40
1.0
 40
1.0
 40
1.0
 40
1.0
 10
59.01054235807463
 20
116.1569049285535
 30
0.0
 10
59.01054235807463
 20
116.1569049285535
 30
0.0
 10
59.01054235807463
 20
116.3685629824285
 30
0.0
 10
59.01054235807463
 20
116.3685629824285
 30
0.0
  0
SPLINE
  5
1BF
330
70
100
AcDbEntity
  8
Livello 1
 62
   250
420
  1907995
370
     9
100
AcDbSpline
210
0.0
220
0.0
230
1.0
 70
    24
 71
     3
 72
     8
 73
     4
 74
     0
 42
0.0000000001
 43
0.0000000001
 40
0.0
 40
0.0
 40
0.0
 40
0.0
 40
1.0
 40
1.0
 40
1.0
 40
1.0
 10
59.01054235807463
 20
116.5802425681503
 30
0.0
 10
59.01054235807463
 20
116.5802425681503
 30
0.0
 10
59.01054235807463
 20
117.6809075119941
 30
0.0
 10
59.01054235807463
 20
117.6809075119941
 30
0.0
  0
SPLINE
  5
1C0
330
70
100
AcDbEntity
  8
Livello 1
 62
   250
420
  1907995
370
     9
100
AcDbSpline
210
0.0
220
0.0
230
1.0
 70
    24
 71
     3
 72
     8
 73
     4
 74
     0
 42
0.0000000001
 43
0.0000000001
 40
0.0
 40
0.0
 40
0.0
 40
0.0
 40
1.0
 40
1.0
 40
1.0
 40
1.0
 10
59.01054235807463
 20
117.8925655658691
 30
0.0
 10
59.01054235807463
 20
117.8925655658691
 30
0.0
 10
59.01054235807463
 20
118.1042451515909
 30
0.0
 10
59.01054235807463
 20
118.1042451515909
 30
0.0
  0
LINE
  5
1C1
330
70
100
AcDbEntity
  8
Livello 1
 62
   250
420
  1907995
370
     9
100
AcDbLine
 10
59.01054235807463
 20
118.315903205466
 30
0.0
 11
59.01054235807463
 21
119.3742365385347
 31
0.0
  0
SPLINE
  5
1C2
330
70
100
AcDbEntity
  8
Livello 1
 62
   250
420
  1907995
370
     9
100
AcDbSpline
210
0.0
220
0.0
230
1.0
 70
    24
 71
     3
 72
     8
 73
     4
 74
     0
 42
0.0000000001
 43
0.0000000001
 40
0.0
 40
0.0
 40
0.0
 40
0.0
 40
1.0
 40
1.0
 40
1.0
 40
1.0
 10
-2.457459564424586
 20
116.2838997608785
 30
0.0
 10
-2.457459564424586
 20
116.2838997608785
 30
0.0
 10
-1.399126231355835
 20
116.2838997608785
 30
0.0
 10
-1.399126231355835
 20
116.2838997608785
 30
0.0
  0
SPLINE
  5
1C3
330
70
100
AcDbEntity
  8
Livello 1
 62
   250
420
  1907995
370
     9
100
AcDbSpline
210
0.0
220
0.0
230
1.0
 70
    24
 71
     3
 72
     8
 73
     4
 74
     0
 42
0.0000000001
 43
0.0000000001
 40
0.0
 40
0.0
 40
0.0
 40
0.0
 40
1.0
 40
1.0
 40
1.0
 40
1.0
 10
-1.187457411557407
 20
116.2838997608785
 30
0.0
 10
-1.187457411557407
 20
116.2838997608785
 30
0.0
 10
-0.9757885917589794
 20
116.2838997608785
 30
0.0
 10
-0.9757885917589794
 20
116.2838997608785
 30
0.0
  0
SPLINE
  5
1C4
330
70
100
AcDbEntity
  8
Livello 1
 62
   250
420
  1907995
370
     9
100
AcDbSpline
210
0.0
220
0.0
230
1.0
 70
    24
 71
     3
 72
     8
 73
     4
 74
     0
 42
0.0000000001
 43
0.0000000001
 40
0.0
 40
0.0
 40
0.0
 40
0.0
 40
1.0
 40
1.0
 40
1.0
 40
1.0
 10
-0.7641251549222469
 20
116.2838997608785
 30
0.0
 10
-0.7641251549222469
 20
116.2838997608785
 30
0.0
 10
0.2942081781465032
 20
116.2838997608785
 30
0.0
 10
0.2942081781465032
 20
116.2838997608785
 30
0.0
  0
SPLINE
  5
1C5
330
70
100
AcDbEntity
  8
Livello 1
 62
   250
420
  1907995
370
     9
100
AcDbSpline
210
0.0
220
0.0
230
1.0
 70
    24
 71
     3
 72
     8
 73
     4
 74
     0
 42
0.0000000001
 43
0.0000000001
 40
0.0
 40
0.0
 40
0.0
 40
0.0
 40
1.0
 40
1.0
 40
1.0
 40
1.0
 10
0.5058769979449315
 20
116.2838997608785
 30
0.0
 10
0.5058769979449315
 20
116.2838997608785
 30
0.0
 10
0.7175404347816641
 20
116.2838997608785
 30
0.0
 10
0.7175404347816641
 20
116.2838997608785
 30
0.0
  0
SPLINE
  5
1C6
330
70
100
AcDbEntity
  8
Livello 1
 62
   250
420
  1907995
370
     9
100
AcDbSpline
210
0.0
220
0.0
230
1.0
 70
    24
 71
     3
 72
     8
 73
     4
 74
     0
 42
0.0000000001
 43
0.0000000001
 40
0.0
 40
0.0
 40
0.0
 40
0.0
 40
1.0
 40
1.0
 40
1.0
 40
1.0
 10
0.9292092545800924
 20
116.2838997608785
 30
0.0
 10
0.9292092545800924
 20
116.2838997608785
 30
0.0
 10
2.029874198423849
 20
116.2838997608785
 30
0.0
 10
2.029874198423849
 20
116.2838997608785
 30
0.0
  0
SPLINE
  5
1C7
330
70
100
AcDbEntity
  8
Livello 1
 62
   250
420
  1907995
370
     9
100
AcDbSpline
210
0.0
220
0.0
230
1.0
 70
    24
 71
     3
 72
     8
 73
     4
 74
     0
 42
0.0000000001
 43
0.0000000001
 40
0.0
 40
0.0
 40
0.0
 40
0.0
 40
1.0
 40
1.0
 40
1.0
 40
1.0
 10
2.241543018222277
 20
116.2838997608785
 30
0.0
 10
2.241543018222277
 20
116.2838997608785
 30
0.0
 10
2.45320645505901
 20
116.2838997608785
 30
0.0
 10
2.45320645505901
 20
116.2838997608785
 30
0.0
  0
LINE
  5
1C8
330
70
100
AcDbEntity
  8
Livello 1
 62
   250
420
  1907995
370
     9
100
AcDbLine
 10
2.664875274857438
 20
116.2838997608785
 30
0.0
 11
3.723208607926189
 21
116.2838997608785
 31
0.0
  0
SPLINE
  5
1C9
330
70
100
AcDbEntity
  8
Livello 1
 62
   250
420
  1907995
370
     9
100
AcDbSpline
210
0.0
220
0.0
230
1.0
 70
    24
 71
     3
 72
     8
 73
     4
 74
     0
 42
0.0000000001
 43
0.0000000001
 40
0.0
 40
0.0
 40
0.0
 40
0.0
 40
1.0
 40
1.0
 40
1.0
 40
1.0
 10
0.6328772132316494
 20
113.1935629832223
 30
0.0
 10
0.6328772132316494
 20
113.1935629832223
 30
0.0
 10
0.6328772132316494
 20
114.251896316291
 30
0.0
 10
0.6328772132316494
 20
114.251896316291
 30
0.0
  0
SPLINE
  5
1CA
330
70
100
AcDbEntity
  8
Livello 1
 62
   250
420
  1907995
370
     9
100
AcDbSpline
210
0.0
220
0.0
230
1.0
 70
    24
 71
     3
 72
     8
 73
     4
 74
     0
 42
0.0000000001
 43
0.0000000001
 40
0.0
 40
0.0
 40
0.0
 40
0.0
 40
1.0
 40
1.0
 40
1.0
 40
1.0
 10
0.6328772132316494
 20
114.4635759020128
 30
0.0
 10
0.6328772132316494
 20
114.4635759020128
 30
0.0
 10
0.6328772132316494
 20
114.6752339558879
 30
0.0
 10
0.6328772132316494
 20
114.6752339558879
 30
0.0
  0
SPLINE
  5
1CB
330
70
100
AcDbEntity
  8
Livello 1
 62
   250
420
  1907995
370
     9
100
AcDbSpline
210
0.0
220
0.0
230
1.0
 70
    24
 71
     3
 72
     8
 73
     4
 74
     0
 42
0.0000000001
 43
0.0000000001
 40
0.0
 40
0.0
 40
0.0
 40
0.0
 40
1.0
 40
1.0
 40
1.0
 40
1.0
 10
0.6328772132316494
 20
114.8869135416097
 30
0.0
 10
0.6328772132316494
 20
114.8869135416097
 30
0.0
 10
0.6328772132316494
 20
115.9452468746784
 30
0.0
 10
0.6328772132316494
 20
115.9452468746784
 30
0.0
  0
SPLINE
  5
1CC
330
70
100
AcDbEntity
  8
Livello 1
 62
   250
420
  1907995
370
     9
100
AcDbSpline
210
0.0
220
0.0
230
1.0
 70
    24
 71
     3
 72
     8
 73
     4
 74
     0
 42
0.0000000001
 43
0.0000000001
 40
0.0
 40
0.0
 40
0.0
 40
0.0
 40
1.0
 40
1.0
 40
1.0
 40
1.0
 10
0.6328772132316494
 20
116.1569049285535
 30
0.0
 10
0.6328772132316494
 20
116.1569049285535
 30
0.0
 10
0.6328772132316494
 20
116.3685629824285
 30
0.0
 10
0.6328772132316494
 20
116.3685629824285
 30
0.0
  0
SPLINE
  5
1CD
330
70
100
AcDbEntity
  8
Livello 1
 62
   250
420
  1907995
370
     9
100
AcDbSpline
210
0.0
220
0.0
230
1.0
 70
    24
 71
     3
 72
     8
 73
     4
 74
     0
 42
0.0000000001
 43
0.0000000001
 40
0.0
 40
0.0
 40
0.0
 40
0.0
 40
1.0
 40
1.0
 40
1.0
 40
1.0
 10
0.6328772132316494
 20
116.5802425681503
 30
0.0
 10
0.6328772132316494
 20
116.5802425681503
 30
0.0
 10
0.6328772132316494
 20
117.6809075119941
 30
0.0
 10
0.6328772132316494
 20
117.6809075119941
 30
0.0
  0
SPLINE
  5
1CE
330
70
100
AcDbEntity
  8
Livello 1
 62
   250
420
  1907995
370
     9
100
AcDbSpline
210
0.0
220
0.0
230
1.0
 70
    24
 71
     3
 72
     8
 73
     4
 74
     0
 42
0.0000000001
 43
0.0000000001
 40
0.0
 40
0.0
 40
0.0
 40
0.0
 40
1.0
 40
1.0
 40
1.0
 40
1.0
 10
0.6328772132316494
 20
117.8925655658691
 30
0.0
 10
0.6328772132316494
 20
117.8925655658691
 30
0.0
 10
0.6328772132316494
 20
118.1042451515909
 30
0.0
 10
0.6328772132316494
 20
118.1042451515909
 30
0.0
  0
LINE
  5
1CF
330
70
100
AcDbEntity
  8
Livello 1
 62
   250
420
  1907995
370
     9
100
AcDbLine
 10
0.6328772132316494
 20
118.315903205466
 30
0.0
 11
0.6328772132316494
 21
119.3742365385347
 31
0.0
  0
SPLINE
  5
1D0
330
70
100
AcDbEntity
  8
Livello 1
 62
   250
420
  1907995
370
    25
100
AcDbSpline
210
0.0
220
0.0
230
1.0
 70
    24
 71
     3
 72
     8
 73
     4
 74
     0
 42
0.0000000001
 43
0.0000000001
 40
0.0
 40
0.0
 40
0.0
 40
0.0
 40
1.0
 40
1.0
 40
1.0
 40
1.0
 10
61.50820428711059
 20
116.2838997608785
 30
0.0
 10
61.50820428711059
 20
116.2838997608785
 30
0.0
 10
61.50820428711059
 20
105.742898040966
 30
0.0
 10
61.50820428711059
 20
105.742898040966
 30
0.0
  0
SPLINE
  5
1D1
330
70
100
AcDbEntity
  8
Livello 1
 62
   250
420
  1907995
370
    25
100
AcDbSpline
210
0.0
220
0.0
230
1.0
 70
    24
 71
     3
 72
     8
 73
     4
 74
     0
 42
0.0000000001
 43
0.0000000001
 40
0.0
 40
0.0
 40
0.0
 40
0.0
 40
1.0
 40
1.0
 40
1.0
 40
1.0
 10
56.55520127389028
 20
116.2838997608785
 30
0.0
 10
56.55520127389028
 20
116.2838997608785
 30
0.0
 10
56.55520127389028
 20
105.742898040966
 30
0.0
 10
56.55520127389028
 20
105.742898040966
 30
0.0
  0
SPLINE
  5
1D2
330
70
100
AcDbEntity
  8
Livello 1
 62
   250
420
  1907995
370
    25
100
AcDbSpline
210
0.0
220
0.0
230
1.0
 70
    24
 71
     3
 72
     8
 73
     4
 74
     0
 42
0.0000000001
 43
0.0000000001
 40
0.0
 40
0.0
 40
0.0
 40
0.0
 40
1.0
 40
1.0
 40
1.0
 40
1.0
 10
3.088207531492599
 20
116.2838997608785
 30
0.0
 10
3.088207531492599
 20
116.2838997608785
 30
0.0
 10
3.088207531492599
 20
105.742898040966
 30
0.0
 10
3.088207531492599
 20
105.742898040966
 30
0.0
  0
SPLINE
  5
1D3
330
70
100
AcDbEntity
  8
Livello 1
 62
   250
420
  1907995
370
    25
100
AcDbSpline
210
0.0
220
0.0
230
1.0
 70
    24
 71
     3
 72
     8
 73
     4
 74
     0
 42
0.0000000001
 43
0.0000000001
 40
0.0
 40
0.0
 40
0.0
 40
0.0
 40
1.0
 40
1.0
 40
1.0
 40
1.0
 10
-1.822458487990996
 20
116.2838997608785
 30
0.0
 10
-1.822458487990996
 20
116.2838997608785
 30
0.0
 10
-1.822458487990996
 20
105.742898040966
 30
0.0
 10
-1.822458487990996
 20
105.742898040966
 30
0.0
  0
SPLINE
  5
1D4
330
70
100
AcDbEntity
  8
Livello 1
 62
   250
420
  1907995
370
     9
100
AcDbSpline
210
0.0
220
0.0
230
1.0
 70
    24
 71
     3
 72
     8
 73
     4
 74
     0
 42
0.0000000001
 43
0.0000000001
 40
0.0
 40
0.0
 40
0.0
 40
0.0
 40
1.0
 40
1.0
 40
1.0
 40
1.0
 10
58.41786750945434
 20
136.5192279215098
 30
0.0
 10
58.41786750945434
 20
136.5192279215098
 30
0.0
 10
59.4762008425231
 20
136.5192279215098
 30
0.0
 10
59.4762008425231
 20
136.5192279215098
 30
0.0
  0
SPLINE
  5
1D5
330
70
100
AcDbEntity
  8
Livello 1
 62
   250
420
  1907995
370
     9
100
AcDbSpline
210
0.0
220
0.0
230
1.0
 70
    24
 71
     3
 72
     8
 73
     4
 74
     0
 42
0.0000000001
 43
0.0000000001
 40
0.0
 40
0.0
 40
0.0
 40
0.0
 40
1.0
 40
1.0
 40
1.0
 40
1.0
 10
59.68786966232152
 20
136.5192279215098
 30
0.0
 10
59.68786966232152
 20
136.5192279215098
 30
0.0
 10
59.89953848211996
 20
136.5192279215098
 30
0.0
 10
59.89953848211996
 20
136.5192279215098
 30
0.0
  0
SPLINE
  5
1D6
330
70
100
AcDbEntity
  8
Livello 1
 62
   250
420
  1907995
370
     9
100
AcDbSpline
210
0.0
220
0.0
230
1.0
 70
    24
 71
     3
 72
     8
 73
     4
 74
     0
 42
0.0000000001
 43
0.0000000001
 40
0.0
 40
0.0
 40
0.0
 40
0.0
 40
1.0
 40
1.0
 40
1.0
 40
1.0
 10
60.11120730191838
 20
136.5192279215098
 30
0.0
 10
60.11120730191838
 20
136.5192279215098
 30
0.0
 10
61.16954063498713
 20
136.5192279215098
 30
0.0
 10
61.16954063498713
 20
136.5192279215098
 30
0.0
  0
SPLINE
  5
1D7
330
70
100
AcDbEntity
  8
Livello 1
 62
   250
420
  1907995
370
     9
100
AcDbSpline
210
0.0
220
0.0
230
1.0
 70
    24
 71
     3
 72
     8
 73
     4
 74
     0
 42
0.0000000001
 43
0.0000000001
 40
0.0
 40
0.0
 40
0.0
 40
0.0
 40
1.0
 40
1.0
 40
1.0
 40
1.0
 10
61.38120945478556
 20
136.5192279215098
 30
0.0
 10
61.38120945478556
 20
136.5192279215098
 30
0.0
 10
61.635209885359
 20
136.5192279215098
 30
0.0
 10
61.635209885359
 20
136.5192279215098
 30
0.0
  0
SPLINE
  5
1D8
330
70
100
AcDbEntity
  8
Livello 1
 62
   250
420
  1907995
370
     9
100
AcDbSpline
210
0.0
220
0.0
230
1.0
 70
    24
 71
     3
 72
     8
 73
     4
 74
     0
 42
0.0000000001
 43
0.0000000001
 40
0.0
 40
0.0
 40
0.0
 40
0.0
 40
1.0
 40
1.0
 40
1.0
 40
1.0
 10
61.84686793923404
 20
136.5192279215098
 30
0.0
 10
61.84686793923404
 20
136.5192279215098
 30
0.0
 10
62.90520127230278
 20
136.5192279215098
 30
0.0
 10
62.90520127230278
 20
136.5192279215098
 30
0.0
  0
SPLINE
  5
1D9
330
70
100
AcDbEntity
  8
Livello 1
 62
   250
420
  1907995
370
     9
100
AcDbSpline
210
0.0
220
0.0
230
1.0
 70
    24
 71
     3
 72
     8
 73
     4
 74
     0
 42
0.0000000001
 43
0.0000000001
 40
0.0
 40
0.0
 40
0.0
 40
0.0
 40
1.0
 40
1.0
 40
1.0
 40
1.0
 10
63.11687009210121
 20
136.5192279215098
 30
0.0
 10
63.11687009210121
 20
136.5192279215098
 30
0.0
 10
63.32853891189964
 20
136.5192279215098
 30
0.0
 10
63.32853891189964
 20
136.5192279215098
 30
0.0
  0
LINE
  5
1DA
330
70
100
AcDbEntity
  8
Livello 1
 62
   250
420
  1907995
370
     9
100
AcDbLine
 10
63.54020773169807
 20
136.5192279215098
 30
0.0
 11
64.59854106476682
 21
136.5192279215098
 31
0.0
  0
SPLINE
  5
1DB
330
70
100
AcDbEntity
  8
Livello 1
 62
   250
420
  1907995
370
     9
100
AcDbSpline
210
0.0
220
0.0
230
1.0
 70
    24
 71
     3
 72
     8
 73
     4
 74
     0
 42
0.0000000001
 43
0.0000000001
 40
0.0
 40
0.0
 40
0.0
 40
0.0
 40
1.0
 40
1.0
 40
1.0
 40
1.0
 10
61.50820428711059
 20
133.4289126757003
 30
0.0
 10
61.50820428711059
 20
133.4289126757003
 30
0.0
 10
61.50820428711059
 20
134.4872460087691
 30
0.0
 10
61.50820428711059
 20
134.4872460087691
 30
0.0
  0
SPLINE
  5
1DC
330
70
100
AcDbEntity
  8
Livello 1
 62
   250
420
  1907995
370
     9
100
AcDbSpline
210
0.0
220
0.0
230
1.0
 70
    24
 71
     3
 72
     8
 73
     4
 74
     0
 42
0.0000000001
 43
0.0000000001
 40
0.0
 40
0.0
 40
0.0
 40
0.0
 40
1.0
 40
1.0
 40
1.0
 40
1.0
 10
61.50820428711059
 20
134.6989040626441
 30
0.0
 10
61.50820428711059
 20
134.6989040626441
 30
0.0
 10
61.50820428711059
 20
134.9105621165191
 30
0.0
 10
61.50820428711059
 20
134.9105621165191
 30
0.0
  0
SPLINE
  5
1DD
330
70
100
AcDbEntity
  8
Livello 1
 62
   250
420
  1907995
370
     9
100
AcDbSpline
210
0.0
220
0.0
230
1.0
 70
    24
 71
     3
 72
     8
 73
     4
 74
     0
 42
0.0000000001
 43
0.0000000001
 40
0.0
 40
0.0
 40
0.0
 40
0.0
 40
1.0
 40
1.0
 40
1.0
 40
1.0
 10
61.50820428711059
 20
135.122241702241
 30
0.0
 10
61.50820428711059
 20
135.122241702241
 30
0.0
 10
61.50820428711059
 20
136.1805750353097
 30
0.0
 10
61.50820428711059
 20
136.1805750353097
 30
0.0
  0
SPLINE
  5
1DE
330
70
100
AcDbEntity
  8
Livello 1
 62
   250
420
  1907995
370
     9
100
AcDbSpline
210
0.0
220
0.0
230
1.0
 70
    24
 71
     3
 72
     8
 73
     4
 74
     0
 42
0.0000000001
 43
0.0000000001
 40
0.0
 40
0.0
 40
0.0
 40
0.0
 40
1.0
 40
1.0
 40
1.0
 40
1.0
 10
61.50820428711059
 20
136.3922330891848
 30
0.0
 10
61.50820428711059
 20
136.3922330891848
 30
0.0
 10
61.50820428711059
 20
136.6039126749066
 30
0.0
 10
61.50820428711059
 20
136.6039126749066
 30
0.0
  0
SPLINE
  5
1DF
330
70
100
AcDbEntity
  8
Livello 1
 62
   250
420
  1907995
370
     9
100
AcDbSpline
210
0.0
220
0.0
230
1.0
 70
    24
 71
     3
 72
     8
 73
     4
 74
     0
 42
0.0000000001
 43
0.0000000001
 40
0.0
 40
0.0
 40
0.0
 40
0.0
 40
1.0
 40
1.0
 40
1.0
 40
1.0
 10
61.50820428711059
 20
136.8155707287816
 30
0.0
 10
61.50820428711059
 20
136.8155707287816
 30
0.0
 10
61.50820428711059
 20
137.9162356726254
 30
0.0
 10
61.50820428711059
 20
137.9162356726254
 30
0.0
  0
SPLINE
  5
1E0
330
70
100
AcDbEntity
  8
Livello 1
 62
   250
420
  1907995
370
     9
100
AcDbSpline
210
0.0
220
0.0
230
1.0
 70
    24
 71
     3
 72
     8
 73
     4
 74
     0
 42
0.0000000001
 43
0.0000000001
 40
0.0
 40
0.0
 40
0.0
 40
0.0
 40
1.0
 40
1.0
 40
1.0
 40
1.0
 10
61.50820428711059
 20
138.1278937265004
 30
0.0
 10
61.50820428711059
 20
138.1278937265004
 30
0.0
 10
61.50820428711059
 20
138.3395733122222
 30
0.0
 10
61.50820428711059
 20
138.3395733122222
 30
0.0
  0
LINE
  5
1E1
330
70
100
AcDbEntity
  8
Livello 1
 62
   250
420
  1907995
370
     9
100
AcDbLine
 10
61.50820428711059
 20
138.5512313660973
 30
0.0
 11
61.50820428711059
 21
139.609564699166
 31
0.0
  0
SPLINE
  5
1E2
330
70
100
AcDbEntity
  8
Livello 1
 62
   250
420
  1907995
370
     9
100
AcDbSpline
210
0.0
220
0.0
230
1.0
 70
    24
 71
     3
 72
     8
 73
     4
 74
     0
 42
0.0000000001
 43
0.0000000001
 40
0.0
 40
0.0
 40
0.0
 40
0.0
 40
1.0
 40
1.0
 40
1.0
 40
1.0
 10
71.07553589550434
 20
129.1955793434253
 30
0.0
 10
71.07553589550434
 20
129.1955793434253
 30
0.0
 10
72.13386922857309
 20
129.1955793434253
 30
0.0
 10
72.13386922857309
 20
129.1955793434253
 30
0.0
  0
SPLINE
  5
1E3
330
70
100
AcDbEntity
  8
Livello 1
 62
   250
420
  1907995
370
     9
100
AcDbSpline
210
0.0
220
0.0
230
1.0
 70
    24
 71
     3
 72
     8
 73
     4
 74
     0
 42
0.0000000001
 43
0.0000000001
 40
0.0
 40
0.0
 40
0.0
 40
0.0
 40
1.0
 40
1.0
 40
1.0
 40
1.0
 10
72.34553804837152
 20
129.1955793434253
 30
0.0
 10
72.34553804837152
 20
129.1955793434253
 30
0.0
 10
72.55720686816996
 20
129.1955793434253
 30
0.0
 10
72.55720686816996
 20
129.1955793434253
 30
0.0
  0
SPLINE
  5
1E4
330
70
100
AcDbEntity
  8
Livello 1
 62
   250
420
  1907995
370
     9
100
AcDbSpline
210
0.0
220
0.0
230
1.0
 70
    24
 71
     3
 72
     8
 73
     4
 74
     0
 42
0.0000000001
 43
0.0000000001
 40
0.0
 40
0.0
 40
0.0
 40
0.0
 40
1.0
 40
1.0
 40
1.0
 40
1.0
 10
72.76887568796837
 20
129.1955793434253
 30
0.0
 10
72.76887568796837
 20
129.1955793434253
 30
0.0
 10
73.82720902103713
 20
129.1955793434253
 30
0.0
 10
73.82720902103713
 20
129.1955793434253
 30
0.0
  0
SPLINE
  5
1E5
330
70
100
AcDbEntity
  8
Livello 1
 62
   250
420
  1907995
370
     9
100
AcDbSpline
210
0.0
220
0.0
230
1.0
 70
    24
 71
     3
 72
     8
 73
     4
 74
     0
 42
0.0000000001
 43
0.0000000001
 40
0.0
 40
0.0
 40
0.0
 40
0.0
 40
1.0
 40
1.0
 40
1.0
 40
1.0
 10
74.03886707491216
 20
129.1955793434253
 30
0.0
 10
74.03886707491216
 20
129.1955793434253
 30
0.0
 10
74.25053589471059
 20
129.1955793434253
 30
0.0
 10
74.25053589471059
 20
129.1955793434253
 30
0.0
  0
SPLINE
  5
1E6
330
70
100
AcDbEntity
  8
Livello 1
 62
   250
420
  1907995
370
     9
100
AcDbSpline
210
0.0
220
0.0
230
1.0
 70
    24
 71
     3
 72
     8
 73
     4
 74
     0
 42
0.0000000001
 43
0.0000000001
 40
0.0
 40
0.0
 40
0.0
 40
0.0
 40
1.0
 40
1.0
 40
1.0
 40
1.0
 10
74.46220471450903
 20
129.1955793434253
 30
0.0
 10
74.46220471450903
 20
129.1955793434253
 30
0.0
 10
75.56286965835278
 20
129.1955793434253
 30
0.0
 10
75.56286965835278
 20
129.1955793434253
 30
0.0
  0
SPLINE
  5
1E7
330
70
100
AcDbEntity
  8
Livello 1
 62
   250
420
  1907995
370
     9
100
AcDbSpline
210
0.0
220
0.0
230
1.0
 70
    24
 71
     3
 72
     8
 73
     4
 74
     0
 42
0.0000000001
 43
0.0000000001
 40
0.0
 40
0.0
 40
0.0
 40
0.0
 40
1.0
 40
1.0
 40
1.0
 40
1.0
 10
75.7745384781512
 20
129.1955793434253
 30
0.0
 10
75.7745384781512
 20
129.1955793434253
 30
0.0
 10
75.98620729794963
 20
129.1955793434253
 30
0.0
 10
75.98620729794963
 20
129.1955793434253
 30
0.0
  0
LINE
  5
1E8
330
70
100
AcDbEntity
  8
Livello 1
 62
   250
420
  1907995
370
     9
100
AcDbLine
 10
76.19787611774807
 20
129.1955793434253
 30
0.0
 11
77.25620945081681
 21
129.1955793434253
 31
0.0
  0
SPLINE
  5
1E9
330
70
100
AcDbEntity
  8
Livello 1
 62
   250
420
  1907995
370
     9
100
AcDbSpline
210
0.0
220
0.0
230
1.0
 70
    24
 71
     3
 72
     8
 73
     4
 74
     0
 42
0.0000000001
 43
0.0000000001
 40
0.0
 40
0.0
 40
0.0
 40
0.0
 40
1.0
 40
1.0
 40
1.0
 40
1.0
 10
74.16587267316057
 20
126.1052425657691
 30
0.0
 10
74.16587267316057
 20
126.1052425657691
 30
0.0
 10
74.16587267316057
 20
127.1635758988378
 30
0.0
 10
74.16587267316057
 20
127.1635758988378
 30
0.0
  0
SPLINE
  5
1EA
330
70
100
AcDbEntity
  8
Livello 1
 62
   250
420
  1907995
370
     9
100
AcDbSpline
210
0.0
220
0.0
230
1.0
 70
    24
 71
     3
 72
     8
 73
     4
 74
     0
 42
0.0000000001
 43
0.0000000001
 40
0.0
 40
0.0
 40
0.0
 40
0.0
 40
1.0
 40
1.0
 40
1.0
 40
1.0
 10
74.16587267316057
 20
127.3752339527129
 30
0.0
 10
74.16587267316057
 20
127.3752339527129
 30
0.0
 10
74.16587267316057
 20
127.5869135384347
 30
0.0
 10
74.16587267316057
 20
127.5869135384347
 30
0.0
  0
SPLINE
  5
1EB
330
70
100
AcDbEntity
  8
Livello 1
 62
   250
420
  1907995
370
     9
100
AcDbSpline
210
0.0
220
0.0
230
1.0
 70
    24
 71
     3
 72
     8
 73
     4
 74
     0
 42
0.0000000001
 43
0.0000000001
 40
0.0
 40
0.0
 40
0.0
 40
0.0
 40
1.0
 40
1.0
 40
1.0
 40
1.0
 10
74.16587267316057
 20
127.7985715923097
 30
0.0
 10
74.16587267316057
 20
127.7985715923097
 30
0.0
 10
74.16587267316057
 20
128.8992365361535
 30
0.0
 10
74.16587267316057
 20
128.8992365361535
 30
0.0
  0
SPLINE
  5
1EC
330
70
100
AcDbEntity
  8
Livello 1
 62
   250
420
  1907995
370
     9
100
AcDbSpline
210
0.0
220
0.0
230
1.0
 70
    24
 71
     3
 72
     8
 73
     4
 74
     0
 42
0.0000000001
 43
0.0000000001
 40
0.0
 40
0.0
 40
0.0
 40
0.0
 40
1.0
 40
1.0
 40
1.0
 40
1.0
 10
74.16587267316057
 20
129.1108945900285
 30
0.0
 10
74.16587267316057
 20
129.1108945900285
 30
0.0
 10
74.16587267316057
 20
129.3225741757503
 30
0.0
 10
74.16587267316057
 20
129.3225741757503
 30
0.0
  0
SPLINE
  5
1ED
330
70
100
AcDbEntity
  8
Livello 1
 62
   250
420
  1907995
370
     9
100
AcDbSpline
210
0.0
220
0.0
230
1.0
 70
    24
 71
     3
 72
     8
 73
     4
 74
     0
 42
0.0000000001
 43
0.0000000001
 40
0.0
 40
0.0
 40
0.0
 40
0.0
 40
1.0
 40
1.0
 40
1.0
 40
1.0
 10
74.16587267316057
 20
129.5342322296254
 30
0.0
 10
74.16587267316057
 20
129.5342322296254
 30
0.0
 10
74.16587267316057
 20
130.5925655626941
 30
0.0
 10
74.16587267316057
 20
130.5925655626941
 30
0.0
  0
SPLINE
  5
1EE
330
70
100
AcDbEntity
  8
Livello 1
 62
   250
420
  1907995
370
     9
100
AcDbSpline
210
0.0
220
0.0
230
1.0
 70
    24
 71
     3
 72
     8
 73
     4
 74
     0
 42
0.0000000001
 43
0.0000000001
 40
0.0
 40
0.0
 40
0.0
 40
0.0
 40
1.0
 40
1.0
 40
1.0
 40
1.0
 10
74.16587267316057
 20
130.804245148416
 30
0.0
 10
74.16587267316057
 20
130.804245148416
 30
0.0
 10
74.16587267316057
 20
131.015903202291
 30
0.0
 10
74.16587267316057
 20
131.015903202291
 30
0.0
  0
LINE
  5
1EF
330
70
100
AcDbEntity
  8
Livello 1
 62
   250
420
  1907995
370
     9
100
AcDbLine
 10
74.16587267316057
 20
131.227561256166
 30
0.0
 11
74.16587267316057
 21
132.2858945892348
 31
0.0
  0
SPLINE
  5
1F0
330
70
100
AcDbEntity
  8
Livello 1
 62
   250
420
  1907995
370
     9
100
AcDbSpline
210
0.0
220
0.0
230
1.0
 70
    24
 71
     3
 72
     8
 73
     4
 74
     0
 42
0.0000000001
 43
0.0000000001
 40
0.0
 40
0.0
 40
0.0
 40
0.0
 40
1.0
 40
1.0
 40
1.0
 40
1.0
 10
26.71020989409025
 20
205.9882434070722
 30
0.0
 10
26.71020989409025
 20
205.9882434070722
 30
0.0
 10
27.768543227159
 20
205.9882434070722
 30
0.0
 10
27.768543227159
 20
205.9882434070722
 30
0.0
  0
SPLINE
  5
1F1
330
70
100
AcDbEntity
  8
Livello 1
 62
   250
420
  1907995
370
     9
100
AcDbSpline
210
0.0
220
0.0
230
1.0
 70
    24
 71
     3
 72
     8
 73
     4
 74
     0
 42
0.0000000001
 43
0.0000000001
 40
0.0
 40
0.0
 40
0.0
 40
0.0
 40
1.0
 40
1.0
 40
1.0
 40
1.0
 10
28.02254365773244
 20
205.9882434070722
 30
0.0
 10
28.02254365773244
 20
205.9882434070722
 30
0.0
 10
28.23420171160747
 20
205.9882434070722
 30
0.0
 10
28.23420171160747
 20
205.9882434070722
 30
0.0
  0
SPLINE
  5
1F2
330
70
100
AcDbEntity
  8
Livello 1
 62
   250
420
  1907995
370
     9
100
AcDbSpline
210
0.0
220
0.0
230
1.0
 70
    24
 71
     3
 72
     8
 73
     4
 74
     0
 42
0.0000000001
 43
0.0000000001
 40
0.0
 40
0.0
 40
0.0
 40
0.0
 40
1.0
 40
1.0
 40
1.0
 40
1.0
 10
28.4458705314059
 20
205.9882434070722
 30
0.0
 10
28.4458705314059
 20
205.9882434070722
 30
0.0
 10
29.50420386447465
 20
205.9882434070722
 30
0.0
 10
29.50420386447465
 20
205.9882434070722
 30
0.0
  0
SPLINE
  5
1F3
330
70
100
AcDbEntity
  8
Livello 1
 62
   250
420
  1907995
370
     9
100
AcDbSpline
210
0.0
220
0.0
230
1.0
 70
    24
 71
     3
 72
     8
 73
     4
 74
     0
 42
0.0000000001
 43
0.0000000001
 40
0.0
 40
0.0
 40
0.0
 40
0.0
 40
1.0
 40
1.0
 40
1.0
 40
1.0
 10
29.71587268427308
 20
205.9882434070722
 30
0.0
 10
29.71587268427308
 20
205.9882434070722
 30
0.0
 10
29.92754150407151
 20
205.9882434070722
 30
0.0
 10
29.92754150407151
 20
205.9882434070722
 30
0.0
  0
SPLINE
  5
1F4
330
70
100
AcDbEntity
  8
Livello 1
 62
   250
420
  1907995
370
     9
100
AcDbSpline
210
0.0
220
0.0
230
1.0
 70
    24
 71
     3
 72
     8
 73
     4
 74
     0
 42
0.0000000001
 43
0.0000000001
 40
0.0
 40
0.0
 40
0.0
 40
0.0
 40
1.0
 40
1.0
 40
1.0
 40
1.0
 10
30.13921032386993
 20
205.9882434070722
 30
0.0
 10
30.13921032386993
 20
205.9882434070722
 30
0.0
 10
31.23987526771369
 20
205.9882434070722
 30
0.0
 10
31.23987526771369
 20
205.9882434070722
 30
0.0
  0
SPLINE
  5
1F5
330
70
100
AcDbEntity
  8
Livello 1
 62
   250
420
  1907995
370
     9
100
AcDbSpline
210
0.0
220
0.0
230
1.0
 70
    24
 71
     3
 72
     8
 73
     4
 74
     0
 42
0.0000000001
 43
0.0000000001
 40
0.0
 40
0.0
 40
0.0
 40
0.0
 40
1.0
 40
1.0
 40
1.0
 40
1.0
 10
31.45154408751212
 20
205.9882434070722
 30
0.0
 10
31.45154408751212
 20
205.9882434070722
 30
0.0
 10
31.66320214138716
 20
205.9882434070722
 30
0.0
 10
31.66320214138716
 20
205.9882434070722
 30
0.0
  0
LINE
  5
1F6
330
70
100
AcDbEntity
  8
Livello 1
 62
   250
420
  1907995
370
     9
100
AcDbLine
 10
31.87487096118558
 20
205.9882434070722
 30
0.0
 11
32.93320429425433
 21
205.9882434070722
 31
0.0
  0
SPLINE
  5
1F7
330
70
100
AcDbEntity
  8
Livello 1
 62
   250
420
  1907995
370
     9
100
AcDbSpline
210
0.0
220
0.0
230
1.0
 70
    24
 71
     3
 72
     8
 73
     4
 74
     0
 42
0.0000000001
 43
0.0000000001
 40
0.0
 40
0.0
 40
0.0
 40
0.0
 40
1.0
 40
1.0
 40
1.0
 40
1.0
 10
29.8428675165981
 20
202.897906629416
 30
0.0
 10
29.8428675165981
 20
202.897906629416
 30
0.0
 10
29.8428675165981
 20
203.9562399624847
 30
0.0
 10
29.8428675165981
 20
203.9562399624847
 30
0.0
  0
SPLINE
  5
1F8
330
70
100
AcDbEntity
  8
Livello 1
 62
   250
420
  1907995
370
     9
100
AcDbSpline
210
0.0
220
0.0
230
1.0
 70
    24
 71
     3
 72
     8
 73
     4
 74
     0
 42
0.0000000001
 43
0.0000000001
 40
0.0
 40
0.0
 40
0.0
 40
0.0
 40
1.0
 40
1.0
 40
1.0
 40
1.0
 10
29.8428675165981
 20
204.1679087822832
 30
0.0
 10
29.8428675165981
 20
204.1679087822832
 30
0.0
 10
29.8428675165981
 20
204.3795776020816
 30
0.0
 10
29.8428675165981
 20
204.3795776020816
 30
0.0
  0
SPLINE
  5
1F9
330
70
100
AcDbEntity
  8
Livello 1
 62
   250
420
  1907995
370
     9
100
AcDbSpline
210
0.0
220
0.0
230
1.0
 70
    24
 71
     3
 72
     8
 73
     4
 74
     0
 42
0.0000000001
 43
0.0000000001
 40
0.0
 40
0.0
 40
0.0
 40
0.0
 40
1.0
 40
1.0
 40
1.0
 40
1.0
 10
29.8428675165981
 20
204.5912356559566
 30
0.0
 10
29.8428675165981
 20
204.5912356559566
 30
0.0
 10
29.8428675165981
 20
205.6919005998004
 30
0.0
 10
29.8428675165981
 20
205.6919005998004
 30
0.0
  0
SPLINE
  5
1FA
330
70
100
AcDbEntity
  8
Livello 1
 62
   250
420
  1907995
370
     9
100
AcDbSpline
210
0.0
220
0.0
230
1.0
 70
    24
 71
     3
 72
     8
 73
     4
 74
     0
 42
0.0000000001
 43
0.0000000001
 40
0.0
 40
0.0
 40
0.0
 40
0.0
 40
1.0
 40
1.0
 40
1.0
 40
1.0
 10
29.8428675165981
 20
205.9035586536754
 30
0.0
 10
29.8428675165981
 20
205.9035586536754
 30
0.0
 10
29.8428675165981
 20
206.1152382393973
 30
0.0
 10
29.8428675165981
 20
206.1152382393973
 30
0.0
  0
SPLINE
  5
1FB
330
70
100
AcDbEntity
  8
Livello 1
 62
   250
420
  1907995
370
     9
100
AcDbSpline
210
0.0
220
0.0
230
1.0
 70
    24
 71
     3
 72
     8
 73
     4
 74
     0
 42
0.0000000001
 43
0.0000000001
 40
0.0
 40
0.0
 40
0.0
 40
0.0
 40
1.0
 40
1.0
 40
1.0
 40
1.0
 10
29.8428675165981
 20
206.3268962932723
 30
0.0
 10
29.8428675165981
 20
206.3268962932723
 30
0.0
 10
29.8428675165981
 20
207.385229626341
 30
0.0
 10
29.8428675165981
 20
207.385229626341
 30
0.0
  0
SPLINE
  5
1FC
330
70
100
AcDbEntity
  8
Livello 1
 62
   250
420
  1907995
370
     9
100
AcDbSpline
210
0.0
220
0.0
230
1.0
 70
    24
 71
     3
 72
     8
 73
     4
 74
     0
 42
0.0000000001
 43
0.0000000001
 40
0.0
 40
0.0
 40
0.0
 40
0.0
 40
1.0
 40
1.0
 40
1.0
 40
1.0
 10
29.8428675165981
 20
207.5969092120629
 30
0.0
 10
29.8428675165981
 20
207.5969092120629
 30
0.0
 10
29.8428675165981
 20
207.8085672659379
 30
0.0
 10
29.8428675165981
 20
207.8085672659379
 30
0.0
  0
LINE
  5
1FD
330
70
100
AcDbEntity
  8
Livello 1
 62
   250
420
  1907995
370
     9
100
AcDbLine
 10
29.8428675165981
 20
208.0202253198129
 30
0.0
 11
29.8428675165981
 21
209.0785586528817
 31
0.0
  0
SPLINE
  5
1FE
330
70
100
AcDbEntity
  8
Livello 1
 62
   250
420
  1907995
370
     9
100
AcDbSpline
210
0.0
220
0.0
230
1.0
 70
    24
 71
     3
 72
     8
 73
     4
 74
     0
 42
0.0000000001
 43
0.0000000001
 40
0.0
 40
0.0
 40
0.0
 40
0.0
 40
1.0
 40
1.0
 40
1.0
 40
1.0
 10
26.71020989409025
 20
191.3832347979847
 30
0.0
 10
26.71020989409025
 20
191.3832347979847
 30
0.0
 10
27.768543227159
 20
191.3832347979847
 30
0.0
 10
27.768543227159
 20
191.3832347979847
 30
0.0
  0
SPLINE
  5
1FF
330
70
100
AcDbEntity
  8
Livello 1
 62
   250
420
  1907995
370
     9
100
AcDbSpline
210
0.0
220
0.0
230
1.0
 70
    24
 71
     3
 72
     8
 73
     4
 74
     0
 42
0.0000000001
 43
0.0000000001
 40
0.0
 40
0.0
 40
0.0
 40
0.0
 40
1.0
 40
1.0
 40
1.0
 40
1.0
 10
28.02254365773244
 20
191.3832347979847
 30
0.0
 10
28.02254365773244
 20
191.3832347979847
 30
0.0
 10
28.23420171160747
 20
191.3832347979847
 30
0.0
 10
28.23420171160747
 20
191.3832347979847
 30
0.0
  0
SPLINE
  5
200
330
70
100
AcDbEntity
  8
Livello 1
 62
   250
420
  1907995
370
     9
100
AcDbSpline
210
0.0
220
0.0
230
1.0
 70
    24
 71
     3
 72
     8
 73
     4
 74
     0
 42
0.0000000001
 43
0.0000000001
 40
0.0
 40
0.0
 40
0.0
 40
0.0
 40
1.0
 40
1.0
 40
1.0
 40
1.0
 10
28.4458705314059
 20
191.3832347979847
 30
0.0
 10
28.4458705314059
 20
191.3832347979847
 30
0.0
 10
29.50420386447465
 20
191.3832347979847
 30
0.0
 10
29.50420386447465
 20
191.3832347979847
 30
0.0
  0
SPLINE
  5
201
330
70
100
AcDbEntity
  8
Livello 1
 62
   250
420
  1907995
370
     9
100
AcDbSpline
210
0.0
220
0.0
230
1.0
 70
    24
 71
     3
 72
     8
 73
     4
 74
     0
 42
0.0000000001
 43
0.0000000001
 40
0.0
 40
0.0
 40
0.0
 40
0.0
 40
1.0
 40
1.0
 40
1.0
 40
1.0
 10
29.71587268427308
 20
191.3832347979847
 30
0.0
 10
29.71587268427308
 20
191.3832347979847
 30
0.0
 10
29.92754150407151
 20
191.3832347979847
 30
0.0
 10
29.92754150407151
 20
191.3832347979847
 30
0.0
  0
SPLINE
  5
202
330
70
100
AcDbEntity
  8
Livello 1
 62
   250
420
  1907995
370
     9
100
AcDbSpline
210
0.0
220
0.0
230
1.0
 70
    24
 71
     3
 72
     8
 73
     4
 74
     0
 42
0.0000000001
 43
0.0000000001
 40
0.0
 40
0.0
 40
0.0
 40
0.0
 40
1.0
 40
1.0
 40
1.0
 40
1.0
 10
30.13921032386993
 20
191.3832347979847
 30
0.0
 10
30.13921032386993
 20
191.3832347979847
 30
0.0
 10
31.23987526771369
 20
191.3832347979847
 30
0.0
 10
31.23987526771369
 20
191.3832347979847
 30
0.0
  0
SPLINE
  5
203
330
70
100
AcDbEntity
  8
Livello 1
 62
   250
420
  1907995
370
     9
100
AcDbSpline
210
0.0
220
0.0
230
1.0
 70
    24
 71
     3
 72
     8
 73
     4
 74
     0
 42
0.0000000001
 43
0.0000000001
 40
0.0
 40
0.0
 40
0.0
 40
0.0
 40
1.0
 40
1.0
 40
1.0
 40
1.0
 10
31.45154408751212
 20
191.3832347979847
 30
0.0
 10
31.45154408751212
 20
191.3832347979847
 30
0.0
 10
31.66320214138716
 20
191.3832347979847
 30
0.0
 10
31.66320214138716
 20
191.3832347979847
 30
0.0
  0
LINE
  5
204
330
70
100
AcDbEntity
  8
Livello 1
 62
   250
420
  1907995
370
     9
100
AcDbLine
 10
31.87487096118558
 20
191.3832347979847
 30
0.0
 11
32.93320429425433
 21
191.3832347979847
 31
0.0
  0
SPLINE
  5
205
330
70
100
AcDbEntity
  8
Livello 1
 62
   250
420
  1907995
370
     9
100
AcDbSpline
210
0.0
220
0.0
230
1.0
 70
    24
 71
     3
 72
     8
 73
     4
 74
     0
 42
0.0000000001
 43
0.0000000001
 40
0.0
 40
0.0
 40
0.0
 40
0.0
 40
1.0
 40
1.0
 40
1.0
 40
1.0
 10
29.8428675165981
 20
188.2929087862519
 30
0.0
 10
29.8428675165981
 20
188.2929087862519
 30
0.0
 10
29.8428675165981
 20
189.3512421193207
 30
0.0
 10
29.8428675165981
 20
189.3512421193207
 30
0.0
  0
SPLINE
  5
206
330
70
100
AcDbEntity
  8
Livello 1
 62
   250
420
  1907995
370
     9
100
AcDbSpline
210
0.0
220
0.0
230
1.0
 70
    24
 71
     3
 72
     8
 73
     4
 74
     0
 42
0.0000000001
 43
0.0000000001
 40
0.0
 40
0.0
 40
0.0
 40
0.0
 40
1.0
 40
1.0
 40
1.0
 40
1.0
 10
29.8428675165981
 20
189.5629109391191
 30
0.0
 10
29.8428675165981
 20
189.5629109391191
 30
0.0
 10
29.8428675165981
 20
189.7745689929941
 30
0.0
 10
29.8428675165981
 20
189.7745689929941
 30
0.0
  0
SPLINE
  5
207
330
70
100
AcDbEntity
  8
Livello 1
 62
   250
420
  1907995
370
     9
100
AcDbSpline
210
0.0
220
0.0
230
1.0
 70
    24
 71
     3
 72
     8
 73
     4
 74
     0
 42
0.0000000001
 43
0.0000000001
 40
0.0
 40
0.0
 40
0.0
 40
0.0
 40
1.0
 40
1.0
 40
1.0
 40
1.0
 10
29.8428675165981
 20
189.9862378127926
 30
0.0
 10
29.8428675165981
 20
189.9862378127926
 30
0.0
 10
29.8428675165981
 20
191.0869027566363
 30
0.0
 10
29.8428675165981
 20
191.0869027566363
 30
0.0
  0
SPLINE
  5
208
330
70
100
AcDbEntity
  8
Livello 1
 62
   250
420
  1907995
370
     9
100
AcDbSpline
210
0.0
220
0.0
230
1.0
 70
    24
 71
     3
 72
     8
 73
     4
 74
     0
 42
0.0000000001
 43
0.0000000001
 40
0.0
 40
0.0
 40
0.0
 40
0.0
 40
1.0
 40
1.0
 40
1.0
 40
1.0
 10
29.8428675165981
 20
191.2985715764347
 30
0.0
 10
29.8428675165981
 20
191.2985715764347
 30
0.0
 10
29.8428675165981
 20
191.5102403962331
 30
0.0
 10
29.8428675165981
 20
191.5102403962331
 30
0.0
  0
SPLINE
  5
209
330
70
100
AcDbEntity
  8
Livello 1
 62
   250
420
  1907995
370
     9
100
AcDbSpline
210
0.0
220
0.0
230
1.0
 70
    24
 71
     3
 72
     8
 73
     4
 74
     0
 42
0.0000000001
 43
0.0000000001
 40
0.0
 40
0.0
 40
0.0
 40
0.0
 40
1.0
 40
1.0
 40
1.0
 40
1.0
 10
29.8428675165981
 20
191.7219092160316
 30
0.0
 10
29.8428675165981
 20
191.7219092160316
 30
0.0
 10
29.8428675165981
 20
192.7802425491004
 30
0.0
 10
29.8428675165981
 20
192.7802425491004
 30
0.0
  0
SPLINE
  5
20A
330
70
100
AcDbEntity
  8
Livello 1
 62
   250
420
  1907995
370
     9
100
AcDbSpline
210
0.0
220
0.0
230
1.0
 70
    24
 71
     3
 72
     8
 73
     4
 74
     0
 42
0.0000000001
 43
0.0000000001
 40
0.0
 40
0.0
 40
0.0
 40
0.0
 40
1.0
 40
1.0
 40
1.0
 40
1.0
 10
29.8428675165981
 20
192.9919113688988
 30
0.0
 10
29.8428675165981
 20
192.9919113688988
 30
0.0
 10
29.8428675165981
 20
193.2035694227738
 30
0.0
 10
29.8428675165981
 20
193.2035694227738
 30
0.0
  0
LINE
  5
20B
330
70
100
AcDbEntity
  8
Livello 1
 62
   250
420
  1907995
370
     9
100
AcDbLine
 10
29.8428675165981
 20
193.4152382425722
 30
0.0
 11
29.8428675165981
 21
194.473571575641
 31
0.0
  0
ENDSEC
  0
SECTION
  2
OBJECTS
  0
DICTIONARY
  5
C
330
0
100
AcDbDictionary
281
     1
  3
ACAD_COLOR
350
63
  3
ACAD_DETAILVIEWSTYLE
350
6A
  3
ACAD_GROUP
350
D
  3
ACAD_LAYOUT
350
62
  3
ACAD_MATERIAL
350
10
  3
ACAD_MLEADERSTYLE
350
66
  3
ACAD_MLINESTYLE
350
5F
  3
ACAD_PLOTSETTINGS
350
61
  3
ACAD_PLOTSTYLENAME
350
E
  3
ACAD_SCALELIST
350
42
  3
ACAD_SECTIONVIEWSTYLE
350
68
  3
ACAD_TABLESTYLE
350
64
  3
ACAD_VISUALSTYLE
350
29
  3
ACDB_RECOMPOSE_DATA
350
214
  3
AcDbVariableDictionary
350
20C
  0
DICTIONARY
  5
63
102
{ACAD_REACTORS
330
C
102
}
330
C
100
AcDbDictionary
281
     1
  0
DICTIONARY
  5
6A
102
{ACAD_REACTORS
330
C
102
}
330
C
100
AcDbDictionary
281
     1
  3
Imperial24
350
6B
  0
DICTIONARY
  5
D
102
{ACAD_REACTORS
330
C
102
}
330
C
100
AcDbDictionary
281
     1
  0
DICTIONARY
  5
62
102
{ACAD_REACTORS
330
C
102
}
330
C
100
AcDbDictionary
281
     1
  3
Layout1
350
6F
  3
Layout2
350
77
  3
Model
350
73
  0
DICTIONARY
  5
10
102
{ACAD_REACTORS
330
C
102
}
330
C
100
AcDbDictionary
281
     1
  3
ByBlock
350
19
  3
ByLayer
350
11
  3
Global
350
21
  0
DICTIONARY
  5
66
102
{ACAD_REACTORS
330
C
102
}
330
C
100
AcDbDictionary
281
     1
  3
Standard
350
67
  0
DICTIONARY
  5
5F
102
{ACAD_REACTORS
330
C
102
}
330
C
100
AcDbDictionary
281
     1
  3
Standard
350
60
  0
DICTIONARY
  5
61
102
{ACAD_REACTORS
330
C
102
}
330
C
100
AcDbDictionary
281
     1
  0
ACDBDICTIONARYWDFLT
  5
E
102
{ACAD_REACTORS
330
C
102
}
330
C
100
AcDbDictionary
281
     1
  3
Normal
350
F
100
AcDbDictionaryWithDefault
340
F
  0
DICTIONARY
  5
42
102
{ACAD_REACTORS
330
C
102
}
330
C
100
AcDbDictionary
281
     1
  3
A0
350
43
  3
A1
350
44
  3
A2
350
45
  3
A3
350
46
  3
A4
350
47
  3
A5
350
48
  3
A6
350
49
  3
A7
350
4A
  3
A8
350
4B
  3
A9
350
4C
  3
B0
350
4D
  3
B1
350
4E
  3
B2
350
4F
  3
B3
350
50
  3
B4
350
51
  3
B5
350
52
  3
B6
350
53
  0
DICTIONARY
  5
68
102
{ACAD_REACTORS
330
C
102
}
330
C
100
AcDbDictionary
281
     1
  3
Imperial24
350
69
  0
DICTIONARY
  5
64
102
{ACAD_REACTORS
330
C
102
}
330
C
100
AcDbDictionary
281
     1
  3
Standard
350
65
  0
DICTIONARY
  5
29
102
{ACAD_REACTORS
330
C
102
}
330
C
100
AcDbDictionary
281
     1
  3
2dWireframe
350
2F
  3
Basic
350
2E
  3
Brighten
350
35
  3
ColorChange
350
39
  3
Conceptual
350
32
  3
Dim
350
34
  3
EdgeColorOff
350
41
  3
Facepattern
350
38
  3
Flat
350
2A
  3
FlatWithEdges
350
2B
  3
Gouraud
350
2C
  3
GouraudWithEdges
350
2D
  3
Hidden
350
31
  3
JitterOff
350
3F
  3
Linepattern
350
37
  3
OverhangOff
350
40
  3
Realistic
350
33
  3
Shaded
350
3E
  3
Shaded with edges
350
3D
  3
Shades of Gray
350
3A
  3
Sketchy
350
3B
  3
Thicken
350
36
  3
Wireframe
350
30
  3
X-Ray
350
3C
  0
XRECORD
  5
214
102
{ACAD_REACTORS
330
C
102
}
330
C
100
AcDbXrecord
280
     1
 90
        1
330
65
  0
DICTIONARY
  5
20C
102
{ACAD_REACTORS
330
C
102
}
330
C
100
AcDbDictionary
281
     1
  3
CANNOSCALE
350
211
  3
CMLEADERSTYLE
350
20E
  3
CTABLESTYLE
350
20D
  3
CVIEWDETAILSTYLE
350
20F
  3
CVIEWSECTIONSTYLE
350
210
  0
ACDBDETAILVIEWSTYLE
  5
6B
102
{ACAD_REACTORS
330
6A
102
}
330
6A
100
AcDbModelDocViewStyle
 70
     0
  3
Imperial24
290
     1
300
Imperial24
 90
        0
100
AcDbDetailViewStyle
 70
     0
 71
     0
 90
        3
 71
     1
340
55
 62
   256
 40
0.24
340
0
 62
   256
 40
0.24
300

 40
0.36
280
     3
 71
     2
340
5D
 90
       25
 62
   256
 71
     3
340
55
 62
   256
 40
0.24
 90
        1
 40
0.75
 90
        1
300
%<\AcVar ViewType \f "%tc1">% %<\AcVar ViewDetailId>%\PSCALE %<\AcVar ViewScale \f "%sn">%
 71
     4
340
5D
 90
       25
 62
   256
340
5D
 90
       25
 62
   256
280
     0
  0
LAYOUT
  5
6F
102
{ACAD_REACTORS
330
62
102
}
330
62
100
AcDbPlotSettings
  1

  2

  4

  6

 40
0.0
 41
0.0
 42
0.0
 43
0.0
 44
0.0
 45
0.0
 46
0.0
 47
0.0
 48
0.0
 49
0.0
140
0.0
141
0.0
142
1.0
143
1.0
 70
   688
 72
     0
 73
     0
 74
     5
  7

 75
    16
147
1.0
 76
     0
 77
     2
 78
   300
148
0.0
149
0.0
100
AcDbLayout
  1
Layout1
 70
     1
 71
     1
 10
0.0
 20
0.0
 11
12.0
 21
9.0
 12
0.0
 22
0.0
 32
0.0
 14
0.0
 24
0.0
 34
0.0
 15
0.0
 25
0.0
 35
0.0
146
0.0
 13
0.0
 23
0.0
 33
0.0
 16
1.0
 26
0.0
 36
0.0
 17
0.0
 27
1.0
 37
0.0
 76
     0
330
6C
  0
LAYOUT
  5
77
102
{ACAD_REACTORS
330
62
102
}
330
62
100
AcDbPlotSettings
  1

  2

  4

  6

 40
0.0
 41
0.0
 42
0.0
 43
0.0
 44
0.0
 45
0.0
 46
0.0
 47
0.0
 48
0.0
 49
0.0
140
0.0
141
0.0
142
1.0
143
1.0
 70
   688
 72
     0
 73
     0
 74
     5
  7

 75
    16
147
1.0
 76
     0
 77
     2
 78
   300
148
0.0
149
0.0
100
AcDbLayout
  1
Layout2
 70
     1
 71
     2
 10
0.0
 20
0.0
 11
12.0
 21
9.0
 12
0.0
 22
0.0
 32
0.0
 14
0.0
 24
0.0
 34
0.0
 15
0.0
 25
0.0
 35
0.0
146
0.0
 13
0.0
 23
0.0
 33
0.0
 16
1.0
 26
0.0
 36
0.0
 17
0.0
 27
1.0
 37
0.0
 76
     0
330
74
  0
LAYOUT
  5
73
102
{ACAD_REACTORS
330
62
102
}
330
62
100
AcDbPlotSettings
  1

  2

  4

  6

 40
0.0
 41
0.0
 42
0.0
 43
0.0
 44
0.0
 45
0.0
 46
0.0
 47
0.0
 48
0.0
 49
0.0
140
0.0
141
0.0
142
1.0
143
1.0
 70
  1712
 72
     0
 73
     0
 74
     0
  7

 75
     0
147
1.0
 76
     0
 77
     2
 78
   300
148
0.0
149
0.0
100
AcDbLayout
  1
Model
 70
     1
 71
     0
 10
0.0
 20
0.0
 11
12.0
 21
9.0
 12
0.0
 22
0.0
 32
0.0
 14
0.0
 24
0.0
 34
0.0
 15
0.0
 25
0.0
 35
0.0
146
0.0
 13
0.0
 23
0.0
 33
0.0
 16
1.0
 26
0.0
 36
0.0
 17
0.0
 27
1.0
 37
0.0
 76
     0
330
70
  0
MATERIAL
  5
19
102
{ACAD_XDICTIONARY
360
1A
102
}
102
{ACAD_REACTORS
330
10
102
}
330
10
100
AcDbMaterial
  1
ByBlock
 72
     0
 43
0.0208333333333333
 43
0.0
 43
0.0
 43
0.0
 43
0.0
 43
0.0208333333333333
 43
0.0
 43
0.0
 43
0.0
 43
0.0
 43
1.0
 43
0.0
 43
0.0
 43
0.0
 43
0.0
 43
1.0
 77
     0
 47
0.0208333333333333
 47
0.0
 47
0.0
 47
0.0
 47
0.0
 47
0.0208333333333333
 47
0.0
 47
0.0
 47
0.0
 47
0.0
 47
1.0
 47
0.0
 47
0.0
 47
0.0
 47
0.0
 47
1.0
171
     0
 49
0.0208333333333333
 49
0.0
 49
0.0
 49
0.0
 49
0.0
 49
0.0208333333333333
 49
0.0
 49
0.0
 49
0.0
 49
0.0
 49
1.0
 49
0.0
 49
0.0
 49
0.0
 49
0.0
 49
1.0
175
     0
142
0.0208333333333333
142
0.0
142
0.0
142
0.0
142
0.0
142
0.0208333333333333
142
0.0
142
0.0
142
0.0
142
0.0
142
1.0
142
0.0
142
0.0
142
0.0
142
0.0
142
1.0
179
     0
144
0.0208333333333333
144
0.0
144
0.0
144
0.0
144
0.0
144
0.0208333333333333
144
0.0
144
0.0
144
0.0
144
0.0
144
1.0
144
0.0
144
0.0
144
0.0
144
0.0
144
1.0
147
0.0208333333333333
147
0.0
147
0.0
147
0.0
147
0.0
147
0.0208333333333333
147
0.0
147
0.0
147
0.0
147
0.0
147
1.0
147
0.0
147
0.0
147
0.0
147
0.0
147
1.0
  0
MATERIAL
  5
11
102
{ACAD_XDICTIONARY
360
12
102
}
102
{ACAD_REACTORS
330
10
102
}
330
10
100
AcDbMaterial
  1
ByLayer
 72
     0
 43
0.0208333333333333
 43
0.0
 43
0.0
 43
0.0
 43
0.0
 43
0.0208333333333333
 43
0.0
 43
0.0
 43
0.0
 43
0.0
 43
1.0
 43
0.0
 43
0.0
 43
0.0
 43
0.0
 43
1.0
 77
     0
 47
0.0208333333333333
 47
0.0
 47
0.0
 47
0.0
 47
0.0
 47
0.0208333333333333
 47
0.0
 47
0.0
 47
0.0
 47
0.0
 47
1.0
 47
0.0
 47
0.0
 47
0.0
 47
0.0
 47
1.0
171
     0
 49
0.0208333333333333
 49
0.0
 49
0.0
 49
0.0
 49
0.0
 49
0.0208333333333333
 49
0.0
 49
0.0
 49
0.0
 49
0.0
 49
1.0
 49
0.0
 49
0.0
 49
0.0
 49
0.0
 49
1.0
175
     0
142
0.0208333333333333
142
0.0
142
0.0
142
0.0
142
0.0
142
0.0208333333333333
142
0.0
142
0.0
142
0.0
142
0.0
142
1.0
142
0.0
142
0.0
142
0.0
142
0.0
142
1.0
179
     0
144
0.0208333333333333
144
0.0
144
0.0
144
0.0
144
0.0
144
0.0208333333333333
144
0.0
144
0.0
144
0.0
144
0.0
144
1.0
144
0.0
144
0.0
144
0.0
144
0.0
144
1.0
147
0.0208333333333333
147
0.0
147
0.0
147
0.0
147
0.0
147
0.0208333333333333
147
0.0
147
0.0
147
0.0
147
0.0
147
1.0
147
0.0
147
0.0
147
0.0
147
0.0
147
1.0
  0
MATERIAL
  5
21
102
{ACAD_XDICTIONARY
360
22
102
}
102
{ACAD_REACTORS
330
10
102
}
330
10
100
AcDbMaterial
  1
Global
 72
     0
 43
0.0208333333333333
 43
0.0
 43
0.0
 43
0.0
 43
0.0
 43
0.0208333333333333
 43
0.0
 43
0.0
 43
0.0
 43
0.0
 43
1.0
 43
0.0
 43
0.0
 43
0.0
 43
0.0
 43
1.0
 77
     0
 47
0.0208333333333333
 47
0.0
 47
0.0
 47
0.0
 47
0.0
 47
0.0208333333333333
 47
0.0
 47
0.0
 47
0.0
 47
0.0
 47
1.0
 47
0.0
 47
0.0
 47
0.0
 47
0.0
 47
1.0
171
     0
 49
0.0208333333333333
 49
0.0
 49
0.0
 49
0.0
 49
0.0
 49
0.0208333333333333
 49
0.0
 49
0.0
 49
0.0
 49
0.0
 49
1.0
 49
0.0
 49
0.0
 49
0.0
 49
0.0
 49
1.0
175
     0
142
0.0208333333333333
142
0.0
142
0.0
142
0.0
142
0.0
142
0.0208333333333333
142
0.0
142
0.0
142
0.0
142
0.0
142
1.0
142
0.0
142
0.0
142
0.0
142
0.0
142
1.0
179
     0
144
0.0208333333333333
144
0.0
144
0.0
144
0.0
144
0.0
144
0.0208333333333333
144
0.0
144
0.0
144
0.0
144
0.0
144
1.0
144
0.0
144
0.0
144
0.0
144
0.0
144
1.0
147
0.0208333333333333
147
0.0
147
0.0
147
0.0
147
0.0
147
0.0208333333333333
147
0.0
147
0.0
147
0.0
147
0.0
147
1.0
147
0.0
147
0.0
147
0.0
147
0.0
147
1.0
  0
MLEADERSTYLE
  5
67
102
{ACAD_REACTORS
330
66
102
}
330
66
100
AcDbMLeaderStyle
179
     2
170
     2
171
     1
172
     0
 90
        2
 40
0.0
 41
0.0
173
     1
 91
-1056964608
340
5B
 92
       -2
290
     1
 42
0.09
291
     1
 43
0.36
  3
Standard
 44
0.18
300

342
55
174
     1
178
     6
175
     1
176
     0
 93
-1056964608
 45
0.18
292
     0
297
     0
 46
0.18
 94
-1056964608
 47
1.0
 49
1.0
140
1.0
293
     1
141
0.0
294
     1
177
     0
142
1.0
295
     1
296
     0
143
0.125
271
     0
272
     9
273
     9
298
     1
  0
MLINESTYLE
  5
60
102
{ACAD_REACTORS
330
5F
102
}
330
5F
100
AcDbMlineStyle
  2
STANDARD
 70
     0
  3

 62
   256
 51
90.0
 52
90.0
 71
     2
 49
0.5
 62
   256
  6
BYLAYER
 49
-0.5
 62
   256
  6
BYLAYER
  0
ACDBPLACEHOLDER
  5
F
102
{ACAD_REACTORS
330
E
102
}
330
E
  0
SCALE
  5
43
102
{ACAD_REACTORS
330
42
102
}
330
42
100
AcDbScale
 70
     0
300
1:1
140
1.0
141
1.0
290
     1
  0
SCALE
  5
44
102
{ACAD_REACTORS
330
42
102
}
330
42
100
AcDbScale
 70
     0
300
1/128" = 1'-0"
140
0.0078125
141
12.0
290
     0
  0
SCALE
  5
45
102
{ACAD_REACTORS
330
42
102
}
330
42
100
AcDbScale
 70
     0
300
1/64" = 1'-0"
140
0.015625
141
12.0
290
     0
  0
SCALE
  5
46
102
{ACAD_REACTORS
330
42
102
}
330
42
100
AcDbScale
 70
     0
300
1/32" = 1'-0"
140
0.03125
141
12.0
290
     0
  0
SCALE
  5
47
102
{ACAD_REACTORS
330
42
102
}
330
42
100
AcDbScale
 70
     0
300
1/16" = 1'-0"
140
0.0625
141
12.0
290
     0
  0
SCALE
  5
48
102
{ACAD_REACTORS
330
42
102
}
330
42
100
AcDbScale
 70
     0
300
3/32" = 1'-0"
140
0.09375
141
12.0
290
     0
  0
SCALE
  5
49
102
{ACAD_REACTORS
330
42
102
}
330
42
100
AcDbScale
 70
     0
300
1/8" = 1'-0"
140
0.125
141
12.0
290
     0
  0
SCALE
  5
4A
102
{ACAD_REACTORS
330
42
102
}
330
42
100
AcDbScale
 70
     0
300
3/16" = 1'-0"
140
0.1875
141
12.0
290
     0
  0
SCALE
  5
4B
102
{ACAD_REACTORS
330
42
102
}
330
42
100
AcDbScale
 70
     0
300
1/4" = 1'-0"
140
0.25
141
12.0
290
     0
  0
SCALE
  5
4C
102
{ACAD_REACTORS
330
42
102
}
330
42
100
AcDbScale
 70
     0
300
3/8" = 1'-0"
140
0.375
141
12.0
290
     0
  0
SCALE
  5
4D
102
{ACAD_REACTORS
330
42
102
}
330
42
100
AcDbScale
 70
     0
300
1/2" = 1'-0"
140
0.5
141
12.0
290
     0
  0
SCALE
  5
4E
102
{ACAD_REACTORS
330
42
102
}
330
42
100
AcDbScale
 70
     0
300
3/4" = 1'-0"
140
0.75
141
12.0
290
     0
  0
SCALE
  5
4F
102
{ACAD_REACTORS
330
42
102
}
330
42
100
AcDbScale
 70
     0
300
1" = 1'-0"
140
1.0
141
12.0
290
     0
  0
SCALE
  5
50
102
{ACAD_REACTORS
330
42
102
}
330
42
100
AcDbScale
 70
     0
300
1-1/2" = 1'-0"
140
1.5
141
12.0
290
     0
  0
SCALE
  5
51
102
{ACAD_REACTORS
330
42
102
}
330
42
100
AcDbScale
 70
     0
300
3" = 1'-0"
140
3.0
141
12.0
290
     0
  0
SCALE
  5
52
102
{ACAD_REACTORS
330
42
102
}
330
42
100
AcDbScale
 70
     0
300
6" = 1'-0"
140
6.0
141
12.0
290
     0
  0
SCALE
  5
53
102
{ACAD_REACTORS
330
42
102
}
330
42
100
AcDbScale
 70
     0
300
1'-0" = 1'-0"
140
12.0
141
12.0
290
     0
  0
ACDBSECTIONVIEWSTYLE
  5
69
102
{ACAD_REACTORS
330
68
102
}
330
68
100
AcDbModelDocViewStyle
 70
     0
  3
Imperial24
290
     1
300
Imperial24
 90
        0
100
AcDbSectionViewStyle
 70
     0
 71
     0
 90
       78
 71
     1
340
55
 62
   256
 40
0.24
340
0
340
0
 62
   256
 40
0.24
300
I, O, Q, S, X, Z
 40
0.48
 90
        3
 40
0.18
 90
        1
 71
     2
340
5D
 90
       25
 62
   256
340
5D
 90
       50
 62
   256
 40
0.24
 40
0.0
 40
0.24
 71
     3
340
55
 62
   256
 40
0.24
 90
        1
 40
0.75
 90
        1
300
%<\AcVar ViewType \f "%tc1">% %<\AcVar ViewSectionStartId>%-%<\AcVar ViewSectionEndId>%\PSCALE %<\AcVar ViewScale \f "%sn">%
 71
     4
 62
   256
 62
   257
300
ANSI31
 40
1.0
 90
        0
290
     0
290
     0
 90
        6
 40
0.0
 40
1.570796326794896
 40
0.2617993877991494
 40
1.308996938995747
 40
-0.2617993877991494
 40
1.832595714594046
  0
TABLESTYLE
  5
65
102
{ACAD_XDICTIONARY
360
212
102
}
102
{ACAD_REACTORS
330
64
102
}
330
64
100
AcDbTableStyle
280
     0
  3
Standard
 70
     0
 71
     0
 40
0.06
 41
0.06
280
     0
281
     0
  7
Standard
140
0.18
170
     2
 62
     0
 63
     7
283
     0
 90
      512
 91
        0
  1

274
    -2
284
     1
 64
     0
275
    -2
285
     1
 65
     0
276
    -2
286
     1
 66
     0
277
    -2
287
     1
 67
     0
278
    -2
288
     1
 68
     0
279
    -2
289
     1
 69
     0
  7
Standard
140
0.25
170
     5
 62
     0
 63
     7
283
     0
 90
      512
 91
        0
  1

274
    -2
284
     1
 64
     0
275
    -2
285
     1
 65
     0
276
    -2
286
     1
 66
     0
277
    -2
287
     1
 67
     0
278
    -2
288
     1
 68
     0
279
    -2
289
     1
 69
     0
  7
Standard
140
0.18
170
     5
 62
     0
 63
     7
283
     0
 90
      512
 91
        0
  1

274
    -2
284
     1
 64
     0
275
    -2
285
     1
 65
     0
276
    -2
286
     1
 66
     0
277
    -2
287
     1
 67
     0
278
    -2
288
     1
 68
     0
279
    -2
289
     1
 69
     0
  0
VISUALSTYLE
  5
2F
102
{ACAD_REACTORS
330
29
102
}
330
29
100
AcDbVisualStyle
  2
2dWireframe
 70
     4
177
     3
291
     0
 70
    58
 90
        0
176
     1
 90
        2
176
     1
 90
        0
176
     1
 90
        0
176
     1
 40
0.6
176
     1
 40
30.0
176
     1
 62
     7
420
 16777215
176
     1
 90
        1
176
     1
 90
        4
176
     1
 62
     7
176
     1
 62
   257
176
     1
 90
        1
176
     1
 90
        1
176
     1
 40
1.0
176
     1
 90
        0
176
     1
 62
   257
176
     1
 40
1.0
176
     1
 90
        1
176
     1
 90
        6
176
     1
 90
        2
176
     1
 62
     7
176
     1
 90
        5
176
     1
 90
        0
176
     1
 90
        0
176
     1
290
     0
176
     1
 90
        1
176
     1
 40
0.0
176
     1
 90
        0
176
     1
290
     1
176
     1
290
     1
176
     1
290
     0
176
     1
290
     0
176
     1
290
     0
176
     1
290
     0
176
     1
290
     0
176
     1
290
     0
176
     1
290
     0
176
     1
 90
       50
176
     1
 40
0.0
176
     1
 40
1.0
176
     1
 90
        0
176
     1
 62
    18
420
        0
176
     1
 90
       50
176
     1
 90
        3
176
     1
 62
     5
420
      255
176
     1
290
     0
176
     1
 90
       50
176
     1
 90
       50
176
     1
 90
       50
176
     1
290
     0
176
     1
 90
       50
176
     1
 62
   256
176
     0
 40
1.0
176
     0
 90
        2
176
     1
  1
strokes_ogs.tif
176
     1
290
     0
176
     1
 40
1.0
176
     1
 40
1.0
176
     1
  0
VISUALSTYLE
  5
2E
102
{ACAD_REACTORS
330
29
102
}
330
29
100
AcDbVisualStyle
  2
Basic
 70
     7
177
     3
291
     1
 70
    58
 90
        1
176
     1
 90
        0
176
     1
 90
        1
176
     1
 90
        0
176
     1
 40
0.6
176
     1
 40
30.0
176
     1
 62
     7
420
 16777215
176
     1
 90
        0
176
     1
 90
        4
176
     1
 62
     7
176
     1
 62
   257
176
     1
 90
        1
176
     1
 90
        1
176
     1
 40
1.0
176
     1
 90
        8
176
     1
 62
     7
176
     1
 40
1.0
176
     1
 90
        1
176
     1
 90
        6
176
     1
 90
        2
176
     1
 62
     7
176
     1
 90
        5
176
     1
 90
        0
176
     1
 90
        0
176
     1
290
     0
176
     1
 90
        1
176
     1
 40
0.0
176
     1
 90
        0
176
     1
290
     0
176
     1
290
     1
176
     1
290
     1
176
     1
290
     0
176
     1
290
     0
176
     1
290
     0
176
     1
290
     0
176
     1
290
     0
176
     1
290
     0
176
     1
 90
       50
176
     1
 40
0.0
176
     1
 40
1.0
176
     1
 90
        0
176
     1
 62
    18
420
        0
176
     1
 90
       50
176
     1
 90
        3
176
     1
 62
     5
420
      255
176
     1
290
     0
176
     1
 90
       50
176
     1
 90
       50
176
     1
 90
       50
176
     1
290
     0
176
     1
 90
       50
176
     1
 62
   256
176
     0
 40
1.0
176
     0
 90
        2
176
     1
  1
strokes_ogs.tif
176
     1
290
     0
176
     1
 40
1.0
176
     1
 40
1.0
176
     1
  0
VISUALSTYLE
  5
35
102
{ACAD_REACTORS
330
29
102
}
330
29
100
AcDbVisualStyle
  2
Brighten
 70
    12
177
     3
291
     1
 70
    58
 90
        2
176
     1
 90
        2
176
     1
 90
        0
176
     1
 90
        0
176
     1
 40
0.6
176
     1
 40
30.0
176
     1
 62
     7
420
 16777215
176
     1
 90
        1
176
     1
 90
        4
176
     1
 62
     7
176
     1
 62
   257
176
     1
 90
        1
176
     1
 90
        1
176
     1
 40
1.0
176
     1
 90
        8
176
     1
 62
     7
176
     1
 40
1.0
176
     1
 90
        1
176
     1
 90
        6
176
     1
 90
        2
176
     1
 62
     7
176
     1
 90
        5
176
     1
 90
        0
176
     1
 90
        0
176
     1
290
     0
176
     1
 90
        1
176
     1
 40
50.0
176
     1
 90
        0
176
     1
290
     0
176
     1
290
     1
176
     1
290
     1
176
     1
290
     0
176
     1
290
     0
176
     1
290
     0
176
     1
290
     0
176
     1
290
     0
176
     1
290
     0
176
     1
 90
       50
176
     1
 40
0.0
176
     1
 40
1.0
176
     1
 90
        0
176
     1
 62
    18
420
        0
176
     1
 90
       50
176
     1
 90
        3
176
     1
 62
     5
420
      255
176
     1
290
     0
176
     1
 90
       50
176
     1
 90
       50
176
     1
 90
       50
176
     1
290
     0
176
     1
 90
       50
176
     1
 62
   256
176
     0
 40
1.0
176
     0
 90
        2
176
     1
  1
strokes_ogs.tif
176
     1
290
     0
176
     1
 40
1.0
176
     1
 40
1.0
176
     1
  0
VISUALSTYLE
  5
39
102
{ACAD_REACTORS
330
29
102
}
330
29
100
AcDbVisualStyle
  2
ColorChange
 70
    16
177
     3
291
     1
 70
    58
 90
        2
176
     1
 90
        2
176
     1
 90
        3
176
     1
 90
        0
176
     1
 40
0.6
176
     1
 40
30.0
176
     1
 62
     8
420
  8421504
176
     1
 90
        1
176
     1
 90
        4
176
     1
 62
     7
176
     1
 62
   257
176
     1
 90
        1
176
     1
 90
        1
176
     1
 40
1.0
176
     1
 90
        8
176
     1
 62
     8
420
  8421504
176
     1
 40
1.0
176
     1
 90
        1
176
     1
 90
        6
176
     1
 90
        2
176
     1
 62
     7
176
     1
 90
        5
176
     1
 90
        0
176
     1
 90
        0
176
     1
290
     0
176
     1
 90
        1
176
     1
 40
0.0
176
     1
 90
        0
176
     1
290
     0
176
     1
290
     1
176
     1
290
     1
176
     1
290
     0
176
     1
290
     0
176
     1
290
     0
176
     1
290
     0
176
     1
290
     0
176
     1
290
     0
176
     1
 90
       50
176
     1
 40
0.0
176
     1
 40
1.0
176
     1
 90
        0
176
     1
 62
    18
420
        0
176
     1
 90
       50
176
     1
 90
        3
176
     1
 62
     5
420
      255
176
     1
290
     0
176
     1
 90
       50
176
     1
 90
       50
176
     1
 90
       50
176
     1
290
     0
176
     1
 90
       50
176
     1
 62
   256
176
     0
 40
1.0
176
     0
 90
        2
176
     1
  1
strokes_ogs.tif
176
     1
290
     0
176
     1
 40
1.0
176
     1
 40
1.0
176
     1
  0
VISUALSTYLE
  5
32
102
{ACAD_REACTORS
330
29
102
}
330
29
100
AcDbVisualStyle
  2
Conceptual
 70
     9
177
     3
291
     0
 70
    58
 90
        3
176
     1
 90
        2
176
     1
 90
        0
176
     1
 90
        0
176
     1
 40
0.6
176
     1
 40
30.0
176
     1
 62
     7
420
 16777215
176
     1
 90
        2
176
     1
 90
        2
176
     1
 62
     7
176
     1
 62
   257
176
     1
 90
        1
176
     1
 90
        1
176
     1
 40
179.0
176
     1
 90
        8
176
     1
 62
     7
176
     1
 40
1.0
176
     1
 90
        1
176
     1
 90
        6
176
     1
 90
        2
176
     1
 62
     7
176
     1
 90
        3
176
     1
 90
        0
176
     1
 90
        0
176
     1
290
     0
176
     1
 90
        1
176
     1
 40
0.0
176
     1
 90
        0
176
     1
290
     0
176
     1
290
     1
176
     1
290
     1
176
     1
290
     0
176
     1
290
     0
176
     1
290
     0
176
     1
290
     0
176
     1
290
     0
176
     1
290
     0
176
     1
 90
       50
176
     1
 40
0.0
176
     1
 40
1.0
176
     1
 90
        0
176
     1
 62
    18
420
        0
176
     1
 90
       50
176
     1
 90
        3
176
     1
 62
     5
420
      255
176
     1
290
     0
176
     1
 90
       50
176
     1
 90
       50
176
     1
 90
       50
176
     1
290
     0
176
     1
 90
       50
176
     1
 62
   256
176
     0
 40
1.0
176
     0
 90
        2
176
     1
  1
strokes_ogs.tif
176
     1
290
     0
176
     1
 40
1.0
176
     1
 40
1.0
176
     1
  0
VISUALSTYLE
  5
34
102
{ACAD_REACTORS
330
29
102
}
330
29
100
AcDbVisualStyle
  2
Dim
 70
    11
177
     3
291
     1
 70
    58
 90
        2
176
     1
 90
        2
176
     1
 90
        0
176
     1
 90
        0
176
     1
 40
0.6
176
     1
 40
30.0
176
     1
 62
     7
420
 16777215
176
     1
 90
        1
176
     1
 90
        4
176
     1
 62
     7
176
     1
 62
   257
176
     1
 90
        1
176
     1
 90
        1
176
     1
 40
1.0
176
     1
 90
        8
176
     1
 62
     7
176
     1
 40
1.0
176
     1
 90
        1
176
     1
 90
        6
176
     1
 90
        2
176
     1
 62
     7
176
     1
 90
        5
176
     1
 90
        0
176
     1
 90
        0
176
     1
290
     0
176
     1
 90
        1
176
     1
 40
-50.0
176
     1
 90
        0
176
     1
290
     0
176
     1
290
     1
176
     1
290
     1
176
     1
290
     0
176
     1
290
     0
176
     1
290
     0
176
     1
290
     0
176
     1
290
     0
176
     1
290
     0
176
     1
 90
       50
176
     1
 40
0.0
176
     1
 40
1.0
176
     1
 90
        0
176
     1
 62
    18
420
        0
176
     1
 90
       50
176
     1
 90
        3
176
     1
 62
     5
420
      255
176
     1
290
     0
176
     1
 90
       50
176
     1
 90
       50
176
     1
 90
       50
176
     1
290
     0
176
     1
 90
       50
176
     1
 62
   256
176
     0
 40
1.0
176
     0
 90
        2
176
     1
  1
strokes_ogs.tif
176
     1
290
     0
176
     1
 40
1.0
176
     1
 40
1.0
176
     1
  0
VISUALSTYLE
  5
41
102
{ACAD_REACTORS
330
29
102
}
330
29
100
AcDbVisualStyle
  2
EdgeColorOff
 70
    22
177
     3
291
     1
 70
    58
 90
        2
176
     0
 90
        2
176
     0
 90
        0
176
     0
 90
        0
176
     0
 40
0.6
176
     0
 40
30.0
176
     0
 62
     7
420
 16777215
176
     0
 90
        1
176
     0
 90
        4
176
     0
 62
     7
176
     0
 62
   257
176
     0
 90
        1
176
     0
 90
        1
176
     0
 40
1.0
176
     0
 90
        8
176
     2
 62
     7
176
     0
 40
1.0
176
     0
 90
        1
176
     0
 90
        6
176
     0
 90
        2
176
     0
 62
     7
176
     0
 90
        5
176
     0
 90
        0
176
     0
 90
        0
176
     0
290
     0
176
     0
 90
        1
176
     0
 40
0.0
176
     0
 90
        0
176
     0
290
     0
176
     0
290
     1
176
     0
290
     1
176
     0
290
     0
176
     0
290
     0
176
     0
290
     0
176
     0
290
     0
176
     0
290
     0
176
     0
290
     0
176
     0
 90
       50
176
     0
 40
0.0
176
     0
 40
1.0
176
     0
 90
        0
176
     0
 62
    18
420
        0
176
     0
 90
       50
176
     0
 90
        3
176
     0
 62
     5
420
      255
176
     0
290
     0
176
     0
 90
       50
176
     0
 90
       50
176
     0
 90
       50
176
     0
290
     0
176
     0
 90
       50
176
     0
 62
   256
176
     0
 40
1.0
176
     0
 90
        2
176
     0
  1
strokes_ogs.tif
176
     0
290
     0
176
     0
 40
1.0
176
     0
 40
1.0
176
     0
  0
VISUALSTYLE
  5
38
102
{ACAD_REACTORS
330
29
102
}
330
29
100
AcDbVisualStyle
  2
Facepattern
 70
    15
177
     3
291
     1
 70
    58
 90
        2
176
     1
 90
        2
176
     1
 90
        0
176
     1
 90
        0
176
     1
 40
0.6
176
     1
 40
30.0
176
     1
 62
     7
420
 16777215
176
     1
 90
        1
176
     1
 90
        4
176
     1
 62
     7
176
     1
 62
   257
176
     1
 90
        1
176
     1
 90
        1
176
     1
 40
1.0
176
     1
 90
        8
176
     1
 62
     7
176
     1
 40
1.0
176
     1
 90
        1
176
     1
 90
        6
176
     1
 90
        2
176
     1
 62
     7
176
     1
 90
        5
176
     1
 90
        0
176
     1
 90
        0
176
     1
290
     0
176
     1
 90
        1
176
     1
 40
0.0
176
     1
 90
        0
176
     1
290
     0
176
     1
290
     1
176
     1
290
     1
176
     1
290
     0
176
     1
290
     0
176
     1
290
     0
176
     1
290
     0
176
     1
290
     0
176
     1
290
     0
176
     1
 90
       50
176
     1
 40
0.0
176
     1
 40
1.0
176
     1
 90
        0
176
     1
 62
    18
420
        0
176
     1
 90
       50
176
     1
 90
        3
176
     1
 62
     5
420
      255
176
     1
290
     0
176
     1
 90
       50
176
     1
 90
       50
176
     1
 90
       50
176
     1
290
     0
176
     1
 90
       50
176
     1
 62
   256
176
     0
 40
1.0
176
     0
 90
        2
176
     1
  1
strokes_ogs.tif
176
     1
290
     0
176
     1
 40
1.0
176
     1
 40
1.0
176
     1
  0
VISUALSTYLE
  5
2A
102
{ACAD_REACTORS
330
29
102
}
330
29
100
AcDbVisualStyle
  2
Flat
 70
     0
177
     3
291
     1
 70
    58
 90
        2
176
     1
 90
        1
176
     1
 90
        1
176
     1
 90
        2
176
     1
 40
0.6
176
     1
 40
30.0
176
     1
 62
     7
420
 16777215
176
     1
 90
        0
176
     1
 90
        0
176
     1
 62
     7
176
     1
 62
   257
176
     1
 90
        1
176
     1
 90
        1
176
     1
 40
1.0
176
     1
 90
        8
176
     1
 62
     7
176
     1
 40
1.0
176
     1
 90
        1
176
     1
 90
        6
176
     1
 90
        2
176
     1
 62
     7
176
     1
 90
        5
176
     1
 90
        0
176
     1
 90
        0
176
     1
290
     0
176
     1
 90
       13
176
     1
 40
0.0
176
     1
 90
        0
176
     1
290
     0
176
     1
290
     1
176
     1
290
     1
176
     1
290
     0
176
     1
290
     0
176
     1
290
     0
176
     1
290
     0
176
     1
290
     0
176
     1
290
     0
176
     1
 90
       50
176
     1
 40
0.0
176
     1
 40
1.0
176
     1
 90
        0
176
     1
 62
    18
420
        0
176
     1
 90
       50
176
     1
 90
        3
176
     1
 62
     5
420
      255
176
     1
290
     0
176
     1
 90
       50
176
     1
 90
       50
176
     1
 90
       50
176
     1
290
     0
176
     1
 90
       50
176
     1
 62
   256
176
     0
 40
1.0
176
     0
 90
        2
176
     1
  1
strokes_ogs.tif
176
     1
290
     0
176
     1
 40
1.0
176
     1
 40
1.0
176
     1
  0
VISUALSTYLE
  5
2B
102
{ACAD_REACTORS
330
29
102
}
330
29
100
AcDbVisualStyle
  2
FlatWithEdges
 70
     1
177
     3
291
     1
 70
    58
 90
        2
176
     1
 90
        1
176
     1
 90
        1
176
     1
 90
        2
176
     1
 40
0.6
176
     1
 40
30.0
176
     1
 62
     7
420
 16777215
176
     1
 90
        1
176
     1
 90
        0
176
     1
 62
     7
176
     1
 62
   257
176
     1
 90
        1
176
     1
 90
        1
176
     1
 40
1.0
176
     1
 90
        0
176
     1
 62
   257
176
     1
 40
1.0
176
     1
 90
        1
176
     1
 90
        6
176
     1
 90
        2
176
     1
 62
     7
176
     1
 90
        5
176
     1
 90
        0
176
     1
 90
        0
176
     1
290
     0
176
     1
 90
       13
176
     1
 40
0.0
176
     1
 90
        0
176
     1
290
     0
176
     1
290
     1
176
     1
290
     1
176
     1
290
     0
176
     1
290
     0
176
     1
290
     0
176
     1
290
     0
176
     1
290
     0
176
     1
290
     0
176
     1
 90
       50
176
     1
 40
0.0
176
     1
 40
1.0
176
     1
 90
        0
176
     1
 62
    18
420
        0
176
     1
 90
       50
176
     1
 90
        3
176
     1
 62
     5
420
      255
176
     1
290
     0
176
     1
 90
       50
176
     1
 90
       50
176
     1
 90
       50
176
     1
290
     0
176
     1
 90
       50
176
     1
 62
   256
176
     0
 40
1.0
176
     0
 90
        2
176
     1
  1
strokes_ogs.tif
176
     1
290
     0
176
     1
 40
1.0
176
     1
 40
1.0
176
     1
  0
VISUALSTYLE
  5
2C
102
{ACAD_REACTORS
330
29
102
}
330
29
100
AcDbVisualStyle
  2
Gouraud
 70
     2
177
     3
291
     1
 70
    58
 90
        2
176
     1
 90
        2
176
     1
 90
        1
176
     1
 90
        2
176
     1
 40
0.6
176
     1
 40
30.0
176
     1
 62
     7
420
 16777215
176
     1
 90
        0
176
     1
 90
        0
176
     1
 62
     7
176
     1
 62
   257
176
     1
 90
        1
176
     1
 90
        1
176
     1
 40
1.0
176
     1
 90
        0
176
     1
 62
     7
176
     1
 40
1.0
176
     1
 90
        1
176
     1
 90
        6
176
     1
 90
        2
176
     1
 62
     7
176
     1
 90
        5
176
     1
 90
        0
176
     1
 90
        0
176
     1
290
     0
176
     1
 90
       13
176
     1
 40
0.0
176
     1
 90
        0
176
     1
290
     0
176
     1
290
     1
176
     1
290
     1
176
     1
290
     0
176
     1
290
     0
176
     1
290
     0
176
     1
290
     0
176
     1
290
     0
176
     1
290
     0
176
     1
 90
       50
176
     1
 40
0.0
176
     1
 40
1.0
176
     1
 90
        0
176
     1
 62
    18
420
        0
176
     1
 90
       50
176
     1
 90
        3
176
     1
 62
     5
420
      255
176
     1
290
     0
176
     1
 90
       50
176
     1
 90
       50
176
     1
 90
       50
176
     1
290
     0
176
     1
 90
       50
176
     1
 62
   256
176
     0
 40
1.0
176
     0
 90
        2
176
     1
  1
strokes_ogs.tif
176
     1
290
     0
176
     1
 40
1.0
176
     1
 40
1.0
176
     1
  0
VISUALSTYLE
  5
2D
102
{ACAD_REACTORS
330
29
102
}
330
29
100
AcDbVisualStyle
  2
GouraudWithEdges
 70
     3
177
     3
291
     1
 70
    58
 90
        2
176
     1
 90
        2
176
     1
 90
        1
176
     1
 90
        2
176
     1
 40
0.6
176
     1
 40
30.0
176
     1
 62
     7
420
 16777215
176
     1
 90
        1
176
     1
 90
        0
176
     1
 62
     7
176
     1
 62
   257
176
     1
 90
        1
176
     1
 90
        1
176
     1
 40
1.0
176
     1
 90
        0
176
     1
 62
   257
176
     1
 40
1.0
176
     1
 90
        1
176
     1
 90
        6
176
     1
 90
        2
176
     1
 62
     7
176
     1
 90
        5
176
     1
 90
        0
176
     1
 90
        0
176
     1
290
     0
176
     1
 90
       13
176
     1
 40
0.0
176
     1
 90
        0
176
     1
290
     0
176
     1
290
     1
176
     1
290
     1
176
     1
290
     0
176
     1
290
     0
176
     1
290
     0
176
     1
290
     0
176
     1
290
     0
176
     1
290
     0
176
     1
 90
       50
176
     1
 40
0.0
176
     1
 40
1.0
176
     1
 90
        0
176
     1
 62
    18
420
        0
176
     1
 90
       50
176
     1
 90
        3
176
     1
 62
     5
420
      255
176
     1
290
     0
176
     1
 90
       50
176
     1
 90
       50
176
     1
 90
       50
176
     1
290
     0
176
     1
 90
       50
176
     1
 62
   256
176
     0
 40
1.0
176
     0
 90
        2
176
     1
  1
strokes_ogs.tif
176
     1
290
     0
176
     1
 40
1.0
176
     1
 40
1.0
176
     1
  0
VISUALSTYLE
  5
31
102
{ACAD_REACTORS
330
29
102
}
330
29
100
AcDbVisualStyle
  2
Hidden
 70
     6
177
     3
291
     0
 70
    58
 90
        1
176
     1
 90
        2
176
     1
 90
        2
176
     1
 90
        0
176
     1
 40
0.6
176
     1
 40
30.0
176
     1
 62
     7
420
 16777215
176
     1
 90
        2
176
     1
 90
        2
176
     1
 62
     7
176
     1
 62
   257
176
     1
 90
        2
176
     1
 90
        1
176
     1
 40
40.0
176
     1
 90
        0
176
     1
 62
   257
176
     1
 40
1.0
176
     1
 90
        1
176
     1
 90
        6
176
     1
 90
        2
176
     1
 62
     7
176
     1
 90
        3
176
     1
 90
        0
176
     1
 90
        0
176
     1
290
     0
176
     1
 90
        1
176
     1
 40
0.0
176
     1
 90
        0
176
     1
290
     0
176
     1
290
     1
176
     1
290
     1
176
     1
290
     0
176
     1
290
     0
176
     1
290
     0
176
     1
290
     0
176
     1
290
     0
176
     1
290
     0
176
     1
 90
       50
176
     1
 40
0.0
176
     1
 40
1.0
176
     1
 90
        0
176
     1
 62
    18
420
        0
176
     1
 90
       50
176
     1
 90
        3
176
     1
 62
     5
420
      255
176
     1
290
     0
176
     1
 90
       50
176
     1
 90
       50
176
     1
 90
       50
176
     1
290
     0
176
     1
 90
       50
176
     1
 62
   256
176
     0
 40
1.0
176
     0
 90
        2
176
     1
  1
strokes_ogs.tif
176
     1
290
     0
176
     1
 40
1.0
176
     1
 40
1.0
176
     1
  0
VISUALSTYLE
  5
3F
102
{ACAD_REACTORS
330
29
102
}
330
29
100
AcDbVisualStyle
  2
JitterOff
 70
    20
177
     3
291
     1
 70
    58
 90
        2
176
     0
 90
        2
176
     0
 90
        0
176
     0
 90
        0
176
     0
 40
0.6
176
     0
 40
30.0
176
     0
 62
     7
420
 16777215
176
     0
 90
        1
176
     0
 90
        4
176
     0
 62
     7
176
     0
 62
   257
176
     0
 90
        1
176
     0
 90
        1
176
     0
 40
1.0
176
     0
 90
       10
176
     2
 62
     7
176
     0
 40
1.0
176
     0
 90
        1
176
     0
 90
        6
176
     0
 90
        2
176
     0
 62
     7
176
     0
 90
        5
176
     0
 90
        0
176
     0
 90
        0
176
     0
290
     0
176
     0
 90
        1
176
     0
 40
0.0
176
     0
 90
        0
176
     0
290
     0
176
     0
290
     1
176
     0
290
     1
176
     0
290
     0
176
     0
290
     0
176
     0
290
     0
176
     0
290
     0
176
     0
290
     0
176
     0
290
     0
176
     0
 90
       50
176
     0
 40
0.0
176
     0
 40
1.0
176
     0
 90
        0
176
     0
 62
    18
420
        0
176
     0
 90
       50
176
     0
 90
        3
176
     0
 62
     5
420
      255
176
     0
290
     0
176
     0
 90
       50
176
     0
 90
       50
176
     0
 90
       50
176
     0
290
     0
176
     0
 90
       50
176
     0
 62
   256
176
     0
 40
1.0
176
     0
 90
        2
176
     0
  1
strokes_ogs.tif
176
     0
290
     0
176
     0
 40
1.0
176
     0
 40
1.0
176
     0
  0
VISUALSTYLE
  5
37
102
{ACAD_REACTORS
330
29
102
}
330
29
100
AcDbVisualStyle
  2
Linepattern
 70
    14
177
     3
291
     1
 70
    58
 90
        2
176
     1
 90
        2
176
     1
 90
        0
176
     1
 90
        0
176
     1
 40
0.6
176
     1
 40
30.0
176
     1
 62
     7
420
 16777215
176
     1
 90
        1
176
     1
 90
        4
176
     1
 62
     7
176
     1
 62
   257
176
     1
 90
        7
176
     1
 90
        7
176
     1
 40
1.0
176
     1
 90
        8
176
     1
 62
     7
176
     1
 40
1.0
176
     1
 90
        1
176
     1
 90
        6
176
     1
 90
        2
176
     1
 62
     7
176
     1
 90
        5
176
     1
 90
        0
176
     1
 90
        0
176
     1
290
     0
176
     1
 90
        1
176
     1
 40
0.0
176
     1
 90
        0
176
     1
290
     0
176
     1
290
     1
176
     1
290
     1
176
     1
290
     0
176
     1
290
     0
176
     1
290
     0
176
     1
290
     0
176
     1
290
     0
176
     1
290
     0
176
     1
 90
       50
176
     1
 40
0.0
176
     1
 40
1.0
176
     1
 90
        0
176
     1
 62
    18
420
        0
176
     1
 90
       50
176
     1
 90
        3
176
     1
 62
     5
420
      255
176
     1
290
     0
176
     1
 90
       50
176
     1
 90
       50
176
     1
 90
       50
176
     1
290
     0
176
     1
 90
       50
176
     1
 62
   256
176
     0
 40
1.0
176
     0
 90
        2
176
     1
  1
strokes_ogs.tif
176
     1
290
     0
176
     1
 40
1.0
176
     1
 40
1.0
176
     1
  0
VISUALSTYLE
  5
40
102
{ACAD_REACTORS
330
29
102
}
330
29
100
AcDbVisualStyle
  2
OverhangOff
 70
    21
177
     3
291
     1
 70
    58
 90
        2
176
     0
 90
        2
176
     0
 90
        0
176
     0
 90
        0
176
     0
 40
0.6
176
     0
 40
30.0
176
     0
 62
     7
420
 16777215
176
     0
 90
        1
176
     0
 90
        4
176
     0
 62
     7
176
     0
 62
   257
176
     0
 90
        1
176
     0
 90
        1
176
     0
 40
1.0
176
     0
 90
        9
176
     2
 62
     7
176
     0
 40
1.0
176
     0
 90
        1
176
     0
 90
        6
176
     0
 90
        2
176
     0
 62
     7
176
     0
 90
        5
176
     0
 90
        0
176
     0
 90
        0
176
     0
290
     0
176
     0
 90
        1
176
     0
 40
0.0
176
     0
 90
        0
176
     0
290
     0
176
     0
290
     1
176
     0
290
     1
176
     0
290
     0
176
     0
290
     0
176
     0
290
     0
176
     0
290
     0
176
     0
290
     0
176
     0
290
     0
176
     0
 90
       50
176
     0
 40
0.0
176
     0
 40
1.0
176
     0
 90
        0
176
     0
 62
    18
420
        0
176
     0
 90
       50
176
     0
 90
        3
176
     0
 62
     5
420
      255
176
     0
290
     0
176
     0
 90
       50
176
     0
 90
       50
176
     0
 90
       50
176
     0
290
     0
176
     0
 90
       50
176
     0
 62
   256
176
     0
 40
1.0
176
     0
 90
        2
176
     0
  1
strokes_ogs.tif
176
     0
290
     0
176
     0
 40
1.0
176
     0
 40
1.0
176
     0
  0
VISUALSTYLE
  5
33
102
{ACAD_REACTORS
330
29
102
}
330
29
100
AcDbVisualStyle
  2
Realistic
 70
     8
177
     3
291
     0
 70
    58
 90
        2
176
     1
 90
        3
176
     1
 90
        0
176
     1
 90
        2
176
     1
 40
0.6
176
     1
 40
30.0
176
     1
 62
     7
420
 16777215
176
     1
 90
        0
176
     1
 90
        0
176
     1
 62
     7
176
     1
 62
   257
176
     1
 90
        1
176
     1
 90
        1
176
     1
 40
1.0
176
     1
 90
        8
176
     1
 62
   257
176
     1
 40
1.0
176
     1
 90
        1
176
     1
 90
        6
176
     1
 90
        2
176
     1
 62
     7
176
     1
 90
        3
176
     1
 90
        0
176
     1
 90
        0
176
     1
290
     0
176
     1
 90
       13
176
     1
 40
0.0
176
     1
 90
        0
176
     1
290
     0
176
     1
290
     1
176
     1
290
     1
176
     1
290
     0
176
     1
290
     0
176
     1
290
     0
176
     1
290
     0
176
     1
290
     0
176
     1
290
     0
176
     1
 90
       50
176
     1
 40
0.0
176
     1
 40
1.0
176
     1
 90
        0
176
     1
 62
    18
420
        0
176
     1
 90
       50
176
     1
 90
        3
176
     1
 62
     5
420
      255
176
     1
290
     0
176
     1
 90
       50
176
     1
 90
       50
176
     1
 90
       50
176
     1
290
     0
176
     1
 90
       50
176
     1
 62
   256
176
     0
 40
1.0
176
     0
 90
        2
176
     1
  1
strokes_ogs.tif
176
     1
290
     0
176
     1
 40
1.0
176
     1
 40
1.0
176
     1
  0
VISUALSTYLE
  5
3E
102
{ACAD_REACTORS
330
29
102
}
330
29
100
AcDbVisualStyle
  2
Shaded
 70
    27
177
     3
291
     0
 70
    58
 90
        2
176
     1
 90
        2
176
     1
 90
        1
176
     1
 90
        2
176
     1
 40
0.6
176
     1
 40
30.0
176
     1
 62
     7
420
 16777215
176
     1
 90
        0
176
     1
 90
        4
176
     1
 62
     7
176
     1
 62
   257
176
     1
 90
        1
176
     1
 90
        1
176
     1
 40
1.0
176
     1
 90
        8
176
     1
 62
   257
176
     1
 40
1.0
176
     1
 90
        1
176
     1
 90
        6
176
     1
 90
        2
176
     1
 62
     8
420
  7895160
176
     1
 90
        3
176
     1
 90
        0
176
     1
 90
        0
176
     1
290
     0
176
     1
 90
        5
176
     1
 40
0.0
176
     1
 90
        0
176
     1
290
     0
176
     1
290
     1
176
     1
290
     1
176
     1
290
     0
176
     1
290
     0
176
     1
290
     0
176
     1
290
     0
176
     1
290
     0
176
     1
290
     0
176
     1
 90
       50
176
     1
 40
0.0
176
     1
 40
1.0
176
     1
 90
        0
176
     1
 62
    18
420
        0
176
     1
 90
       50
176
     1
 90
        3
176
     1
 62
     5
420
      255
176
     1
290
     0
176
     1
 90
       50
176
     1
 90
       50
176
     1
 90
       50
176
     1
290
     0
176
     1
 90
       50
176
     1
 62
   256
176
     0
 40
1.0
176
     0
 90
        2
176
     1
  1
strokes_ogs.tif
176
     1
290
     0
176
     1
 40
1.0
176
     1
 40
1.0
176
     1
  0
VISUALSTYLE
  5
3D
102
{ACAD_REACTORS
330
29
102
}
330
29
100
AcDbVisualStyle
  2
Shaded with edges
 70
    26
177
     3
291
     0
 70
    58
 90
        2
176
     1
 90
        2
176
     1
 90
        1
176
     1
 90
        2
176
     1
 40
0.6
176
     1
 40
30.0
176
     1
 62
     7
420
 16777215
176
     1
 90
        1
176
     1
 90
        2
176
     1
 62
     7
176
     1
 62
   257
176
     1
 90
        2
176
     1
 90
        1
176
     1
 40
1.0
176
     1
 90
        8
176
     1
 62
   257
176
     1
 40
1.0
176
     1
 90
        1
176
     1
 90
        6
176
     1
 90
        2
176
     1
 62
     7
176
     1
 90
        3
176
     1
 90
        0
176
     1
 90
        0
176
     1
290
     0
176
     1
 90
        5
176
     1
 40
0.0
176
     1
 90
        0
176
     1
290
     0
176
     1
290
     1
176
     1
290
     1
176
     1
290
     0
176
     1
290
     0
176
     1
290
     0
176
     1
290
     0
176
     1
290
     0
176
     1
290
     0
176
     1
 90
       50
176
     1
 40
0.0
176
     1
 40
1.0
176
     1
 90
        0
176
     1
 62
    18
420
        0
176
     1
 90
       50
176
     1
 90
        3
176
     1
 62
     5
420
      255
176
     1
290
     0
176
     1
 90
       50
176
     1
 90
       50
176
     1
 90
       50
176
     1
290
     0
176
     1
 90
       50
176
     1
 62
   256
176
     0
 40
1.0
176
     0
 90
        2
176
     1
  1
strokes_ogs.tif
176
     1
290
     0
176
     1
 40
1.0
176
     1
 40
1.0
176
     1
  0
VISUALSTYLE
  5
3A
102
{ACAD_REACTORS
330
29
102
}
330
29
100
AcDbVisualStyle
  2
Shades of Gray
 70
    23
177
     3
291
     0
 70
    58
 90
        2
176
     1
 90
        2
176
     1
 90
        3
176
     1
 90
        0
176
     1
 40
0.6
176
     1
 40
30.0
176
     1
 62
     7
420
 16777215
176
     1
 90
        2
176
     1
 90
        2
176
     1
 62
     7
176
     1
 62
     7
176
     1
 90
        1
176
     1
 90
        1
176
     1
 40
40.0
176
     1
 90
        8
176
     1
 62
     7
176
     1
 40
1.0
176
     1
 90
        1
176
     1
 90
        6
176
     1
 90
        2
176
     1
 62
     7
176
     1
 90
        3
176
     1
 90
        0
176
     1
 90
        0
176
     1
290
     0
176
     1
 90
        1
176
     1
 40
0.0
176
     1
 90
        0
176
     1
290
     0
176
     1
290
     1
176
     1
290
     1
176
     1
290
     0
176
     1
290
     0
176
     1
290
     0
176
     1
290
     0
176
     1
290
     0
176
     1
290
     0
176
     1
 90
       50
176
     1
 40
0.0
176
     1
 40
1.0
176
     1
 90
        0
176
     1
 62
    18
420
        0
176
     1
 90
       50
176
     1
 90
        3
176
     1
 62
     5
420
      255
176
     1
290
     0
176
     1
 90
       50
176
     1
 90
       50
176
     1
 90
       50
176
     1
290
     0
176
     1
 90
       50
176
     1
 62
   256
176
     0
 40
1.0
176
     0
 90
        2
176
     1
  1
strokes_ogs.tif
176
     1
290
     0
176
     1
 40
1.0
176
     1
 40
1.0
176
     1
  0
VISUALSTYLE
  5
3B
102
{ACAD_REACTORS
330
29
102
}
330
29
100
AcDbVisualStyle
  2
Sketchy
 70
    24
177
     3
291
     0
 70
    58
 90
        1
176
     1
 90
        2
176
     1
 90
        2
176
     1
 90
        0
176
     1
 40
0.6
176
     1
 40
30.0
176
     1
 62
     7
420
 16777215
176
     1
 90
        2
176
     1
 90
        2
176
     1
 62
     7
176
     1
 62
     7
176
     1
 90
        1
176
     1
 90
        1
176
     1
 40
40.0
176
     1
 90
       11
176
     1
 62
     7
176
     1
 40
1.0
176
     1
 90
        1
176
     1
 90
        6
176
     1
 90
        2
176
     1
 62
     7
176
     1
 90
        6
176
     1
 90
        0
176
     1
 90
        0
176
     1
290
     0
176
     1
 90
        1
176
     1
 40
0.0
176
     1
 90
        0
176
     1
290
     0
176
     1
290
     1
176
     1
290
     1
176
     1
290
     0
176
     1
290
     0
176
     1
290
     0
176
     1
290
     0
176
     1
290
     0
176
     1
290
     0
176
     1
 90
       50
176
     1
 40
0.0
176
     1
 40
1.0
176
     1
 90
        0
176
     1
 62
    18
420
        0
176
     1
 90
       50
176
     1
 90
        3
176
     1
 62
     5
420
      255
176
     1
290
     0
176
     1
 90
       50
176
     1
 90
       50
176
     1
 90
       50
176
     1
290
     0
176
     1
 90
       50
176
     1
 62
   256
176
     0
 40
1.0
176
     0
 90
        2
176
     1
  1
strokes_ogs.tif
176
     1
290
     0
176
     1
 40
1.0
176
     1
 40
1.0
176
     1
  0
VISUALSTYLE
  5
36
102
{ACAD_REACTORS
330
29
102
}
330
29
100
AcDbVisualStyle
  2
Thicken
 70
    13
177
     3
291
     1
 70
    58
 90
        2
176
     1
 90
        2
176
     1
 90
        0
176
     1
 90
        0
176
     1
 40
0.6
176
     1
 40
30.0
176
     1
 62
     7
420
 16777215
176
     1
 90
        1
176
     1
 90
        4
176
     1
 62
     7
176
     1
 62
   257
176
     1
 90
        1
176
     1
 90
        1
176
     1
 40
1.0
176
     1
 90
       12
176
     1
 62
     7
176
     1
 40
1.0
176
     1
 90
        1
176
     1
 90
        6
176
     1
 90
        2
176
     1
 62
     7
176
     1
 90
        5
176
     1
 90
        0
176
     1
 90
        0
176
     1
290
     0
176
     1
 90
        1
176
     1
 40
0.0
176
     1
 90
        0
176
     1
290
     0
176
     1
290
     1
176
     1
290
     1
176
     1
290
     0
176
     1
290
     0
176
     1
290
     0
176
     1
290
     0
176
     1
290
     0
176
     1
290
     0
176
     1
 90
       50
176
     1
 40
0.0
176
     1
 40
1.0
176
     1
 90
        0
176
     1
 62
    18
420
        0
176
     1
 90
       50
176
     1
 90
        3
176
     1
 62
     5
420
      255
176
     1
290
     0
176
     1
 90
       50
176
     1
 90
       50
176
     1
 90
       50
176
     1
290
     0
176
     1
 90
       50
176
     1
 62
   256
176
     0
 40
1.0
176
     0
 90
        2
176
     1
  1
strokes_ogs.tif
176
     1
290
     0
176
     1
 40
1.0
176
     1
 40
1.0
176
     1
  0
VISUALSTYLE
  5
30
102
{ACAD_REACTORS
330
29
102
}
330
29
100
AcDbVisualStyle
  2
Wireframe
 70
     5
177
     3
291
     0
 70
    58
 90
        0
176
     1
 90
        2
176
     1
 90
        0
176
     1
 90
        0
176
     1
 40
0.6
176
     1
 40
30.0
176
     1
 62
     7
420
 16777215
176
     1
 90
        1
176
     1
 90
        4
176
     1
 62
     7
176
     1
 62
   257
176
     1
 90
        1
176
     1
 90
        1
176
     1
 40
1.0
176
     1
 90
        0
176
     1
 62
   257
176
     1
 40
1.0
176
     1
 90
        1
176
     1
 90
        6
176
     1
 90
        2
176
     1
 62
     7
176
     1
 90
        3
176
     1
 90
        0
176
     1
 90
        0
176
     1
290
     0
176
     1
 90
        1
176
     1
 40
0.0
176
     1
 90
        0
176
     1
290
     0
176
     1
290
     1
176
     1
290
     1
176
     1
290
     0
176
     1
290
     0
176
     1
290
     0
176
     1
290
     0
176
     1
290
     0
176
     1
290
     0
176
     1
 90
       50
176
     1
 40
0.0
176
     1
 40
1.0
176
     1
 90
        0
176
     1
 62
    18
420
        0
176
     1
 90
       50
176
     1
 90
        3
176
     1
 62
     5
420
      255
176
     1
290
     0
176
     1
 90
       50
176
     1
 90
       50
176
     1
 90
       50
176
     1
290
     0
176
     1
 90
       50
176
     1
 62
   256
176
     0
 40
1.0
176
     0
 90
        2
176
     1
  1
strokes_ogs.tif
176
     1
290
     0
176
     1
 40
1.0
176
     1
 40
1.0
176
     1
  0
VISUALSTYLE
  5
3C
102
{ACAD_REACTORS
330
29
102
}
330
29
100
AcDbVisualStyle
  2
X-Ray
 70
    25
177
     3
291
     0
 70
    58
 90
        2
176
     1
 90
        2
176
     1
 90
        1
176
     1
 90
        1
176
     1
 40
0.5
176
     1
 40
30.0
176
     1
 62
     7
420
 16777215
176
     1
 90
        1
176
     1
 90
        0
176
     1
 62
     7
176
     1
 62
   257
176
     1
 90
        1
176
     1
 90
        1
176
     1
 40
1.0
176
     1
 90
        8
176
     1
 62
     7
176
     1
 40
1.0
176
     1
 90
        1
176
     1
 90
        6
176
     1
 90
        2
176
     1
 62
     7
176
     1
 90
        3
176
     1
 90
        0
176
     1
 90
        0
176
     1
290
     0
176
     1
 90
       13
176
     1
 40
0.0
176
     1
 90
        0
176
     1
290
     0
176
     1
290
     1
176
     1
290
     1
176
     1
290
     0
176
     1
290
     0
176
     1
290
     0
176
     1
290
     0
176
     1
290
     0
176
     1
290
     0
176
     1
 90
       50
176
     1
 40
0.0
176
     1
 40
1.0
176
     1
 90
        0
176
     1
 62
    18
420
        0
176
     1
 90
       50
176
     1
 90
        3
176
     1
 62
     5
420
      255
176
     1
290
     0
176
     1
 90
       50
176
     1
 90
       50
176
     1
 90
       50
176
     1
290
     0
176
     1
 90
       50
176
     1
 62
   256
176
     0
 40
1.0
176
     0
 90
        2
176
     1
  1
strokes_ogs.tif
176
     1
290
     0
176
     1
 40
1.0
176
     1
 40
1.0
176
     1
  0
DICTIONARYVAR
  5
211
102
{ACAD_REACTORS
330
20C
102
}
330
20C
100
DictionaryVariables
280
     0
  1
1:1
  0
DICTIONARYVAR
  5
20E
102
{ACAD_REACTORS
330
20C
102
}
330
20C
100
DictionaryVariables
280
     0
  1
STANDARD
  0
DICTIONARYVAR
  5
20D
102
{ACAD_REACTORS
330
20C
102
}
330
20C
100
DictionaryVariables
280
     0
  1
STANDARD
  0
DICTIONARYVAR
  5
20F
102
{ACAD_REACTORS
330
20C
102
}
330
20C
100
DictionaryVariables
280
     0
  1
Imperial24
  0
DICTIONARYVAR
  5
210
102
{ACAD_REACTORS
330
20C
102
}
330
20C
100
DictionaryVariables
280
     0
  1
Imperial24
  0
DICTIONARY
  5
1A
330
19
100
AcDbDictionary
280
     1
281
     1
  3
BUMPTILE
360
1C
  3
DIFFUSETILE
360
1B
  3
OPACITYTILE
360
1F
  3
REFLECTIONTILE
360
1E
  3
REFRACTIONTILE
360
20
  3
SPECULARTILE
360
1D
  0
DICTIONARY
  5
12
330
11
100
AcDbDictionary
280
     1
281
     1
  3
BUMPTILE
360
14
  3
DIFFUSETILE
360
13
  3
OPACITYTILE
360
17
  3
REFLECTIONTILE
360
16
  3
REFRACTIONTILE
360
18
  3
SPECULARTILE
360
15
  0
DICTIONARY
  5
22
330
21
100
AcDbDictionary
280
     1
281
     1
  3
BUMPTILE
360
24
  3
DIFFUSETILE
360
23
  3
OPACITYTILE
360
27
  3
REFLECTIONTILE
360
26
  3
REFRACTIONTILE
360
28
  3
SPECULARTILE
360
25
  0
DICTIONARY
  5
212
330
65
100
AcDbDictionary
280
     1
281
     1
  3
ACAD_ROUNDTRIP_2008_TABLESTYLE_CELLSTYLEMAP
360
213
  0
XRECORD
  5
1C
102
{ACAD_REACTORS
330
1A
102
}
330
1A
100
AcDbXrecord
280
     1
270
     1
271
     1
  0
XRECORD
  5
1B
102
{ACAD_REACTORS
330
1A
102
}
330
1A
100
AcDbXrecord
280
     1
270
     1
271
     1
  0
XRECORD
  5
1F
102
{ACAD_REACTORS
330
1A
102
}
330
1A
100
AcDbXrecord
280
     1
270
     1
271
     1
  0
XRECORD
  5
1E
102
{ACAD_REACTORS
330
1A
102
}
330
1A
100
AcDbXrecord
280
     1
270
     1
271
     1
  0
XRECORD
  5
20
102
{ACAD_REACTORS
330
1A
102
}
330
1A
100
AcDbXrecord
280
     1
270
     1
271
     1
  0
XRECORD
  5
1D
102
{ACAD_REACTORS
330
1A
102
}
330
1A
100
AcDbXrecord
280
     1
270
     1
271
     1
  0
XRECORD
  5
14
102
{ACAD_REACTORS
330
12
102
}
330
12
100
AcDbXrecord
280
     1
270
     1
271
     1
  0
XRECORD
  5
13
102
{ACAD_REACTORS
330
12
102
}
330
12
100
AcDbXrecord
280
     1
270
     1
271
     1
  0
XRECORD
  5
17
102
{ACAD_REACTORS
330
12
102
}
330
12
100
AcDbXrecord
280
     1
270
     1
271
     1
  0
XRECORD
  5
16
102
{ACAD_REACTORS
330
12
102
}
330
12
100
AcDbXrecord
280
     1
270
     1
271
     1
  0
XRECORD
  5
18
102
{ACAD_REACTORS
330
12
102
}
330
12
100
AcDbXrecord
280
     1
270
     1
271
     1
  0
XRECORD
  5
15
102
{ACAD_REACTORS
330
12
102
}
330
12
100
AcDbXrecord
280
     1
270
     1
271
     1
  0
XRECORD
  5
24
102
{ACAD_REACTORS
330
22
102
}
330
22
100
AcDbXrecord
280
     1
270
     1
271
     1
  0
XRECORD
  5
23
102
{ACAD_REACTORS
330
22
102
}
330
22
100
AcDbXrecord
280
     1
270
     1
271
     1
  0
XRECORD
  5
27
102
{ACAD_REACTORS
330
22
102
}
330
22
100
AcDbXrecord
280
     1
270
     1
271
     1
  0
XRECORD
  5
26
102
{ACAD_REACTORS
330
22
102
}
330
22
100
AcDbXrecord
280
     1
270
     1
271
     1
  0
XRECORD
  5
28
102
{ACAD_REACTORS
330
22
102
}
330
22
100
AcDbXrecord
280
     1
270
     1
271
     1
  0
XRECORD
  5
25
102
{ACAD_REACTORS
330
22
102
}
330
22
100
AcDbXrecord
280
     1
270
     1
271
     1
  0
CELLSTYLEMAP
  5
213
102
{ACAD_REACTORS
330
212
102
}
330
212
100
AcDbCellStyleMap
 90
        3
300
CELLSTYLE
  1
TABLEFORMAT_BEGIN
 90
        5
170
     1
 91
        0
 92
    32768
 62
   257
 93
        1
300
CONTENTFORMAT
  1
CONTENTFORMAT_BEGIN
 90
        0
 91
        0
 92
      512
 93
        0
300

 40
0.0
140
1.0
 94
        5
 62
     0
340
55
144
0.25
309
CONTENTFORMAT_END
171
     0
 94
        0
309
TABLEFORMAT_END
  1
CELLSTYLE_BEGIN
 90
        1
 91
        1
300
_TITLE
309
CELLSTYLE_END
300
CELLSTYLE
  1
TABLEFORMAT_BEGIN
 90
        5
170
     1
 91
        0
 92
        0
 62
   257
 93
        1
300
CONTENTFORMAT
  1
CONTENTFORMAT_BEGIN
 90
        0
 91
        0
 92
      512
 93
        0
300

 40
0.0
140
1.0
 94
        5
 62
     0
340
55
144
0.18
309
CONTENTFORMAT_END
171
     0
 94
        0
309
TABLEFORMAT_END
  1
CELLSTYLE_BEGIN
 90
        2
 91
        1
300
_HEADER
309
CELLSTYLE_END
300
CELLSTYLE
  1
TABLEFORMAT_BEGIN
 90
        5
170
     1
 91
        0
 92
        0
 62
   257
 93
        1
300
CONTENTFORMAT
  1
CONTENTFORMAT_BEGIN
 90
        0
 91
        0
 92
      512
 93
        0
300

 40
0.0
140
1.0
 94
        2
 62
     0
340
55
144
0.18
309
CONTENTFORMAT_END
171
     0
 94
        0
309
TABLEFORMAT_END
  1
CELLSTYLE_BEGIN
 90
        3
 91
        2
300
_DATA
309
CELLSTYLE_END
  0
ENDSEC
  0
EOF
