  0
SECTION
  2
HEADER
  9
$ACADVER
  1
AC1006
  9
$EXTMIN
 10
0.000000
 20
0.000000
 30
0.000000
  9
$EXTMAX
 10
614.000000
 20
770.000000
 30
0.000000
  0
ENDSEC
  0
SECTION
  2
ENTITIES
  0
POLYLINE
  8
0
 66
1
 70
1
  0
VERTEX
  8
0
 10
438.970858
 20
762.500000
 42
0.012102
  0
VERTEX
  8
0
 10
438.847991
 20
760.665652
 42
0.006887
  0
VERTEX
  8
0
 10
438.783736
 20
758.443187
 42
0.006874
  0
VERTEX
  8
0
 10
438.780640
 20
756.202271
 42
0.011283
  0
VERTEX
  8
0
 10
438.846888
 20
754.306594
 42
0.000000
  0
VERTEX
  8
0
 10
439.088266
 20
750.113187
 42
0.000000
  0
VERTEX
  8
0
 10
434.294133
 20
749.736842
 42
0.000000
  0
VERTEX
  8
0
 10
429.500000
 20
749.360496
 42
0.000000
  0
VERTEX
  8
0
 10
434.195209
 20
749.180248
 42
0.000000
  0
VERTEX
  8
0
 10
438.890418
 20
749.000000
 42
0.000000
  0
VERTEX
  8
0
 10
439.264961
 20
744.250000
 42
0.000000
  0
VERTEX
  8
0
 10
439.639504
 20
739.500000
 42
0.000000
  0
VERTEX
  8
0
 10
439.819752
 20
744.250000
 42
0.000000
  0
VERTEX
  8
0
 10
440.000000
 20
749.000000
 42
0.000000
  0
VERTEX
  8
0
 10
452.458166
 20
749.000000
 42
0.000000
  0
VERTEX
  8
0
 10
464.916331
 20
749.000000
 42
0.000000
  0
VERTEX
  8
0
 10
464.307043
 20
738.750000
 42
-0.007541
  0
VERTEX
  8
0
 10
464.012187
 20
734.797094
 42
-0.011846
  0
VERTEX
  8
0
 10
463.627375
 20
731.413021
 42
-0.005976
  0
VERTEX
  8
0
 10
463.207107
 20
728.610819
 42
-0.264898
  0
VERTEX
  8
0
 10
462.848877
 20
728.166667
 42
0.306185
  0
VERTEX
  8
0
 10
462.010237
 20
726.947061
 42
0.003738
  0
VERTEX
  8
0
 10
462.003623
 20
716.902784
 42
0.003525
  0
VERTEX
  8
0
 10
462.143193
 20
706.839069
 42
0.408100
  0
VERTEX
  8
0
 10
463.000000
 20
706.000000
 42
-0.389281
  0
VERTEX
  8
0
 10
463.449107
 20
705.587891
 42
-0.005881
  0
VERTEX
  8
0
 10
463.734394
 20
701.745237
 42
-0.010954
  0
VERTEX
  8
0
 10
463.937517
 20
696.724803
 42
-0.004632
  0
VERTEX
  8
0
 10
464.000000
 20
689.980948
 42
0.000000
  0
VERTEX
  8
0
 10
464.000000
 20
673.961896
 42
0.000000
  0
VERTEX
  8
0
 10
461.750000
 20
674.486193
 42
0.053720
  0
VERTEX
  8
0
 10
460.482155
 20
674.641124
 42
0.011368
  0
VERTEX
  8
0
 10
458.251562
 20
674.622219
 42
0.011779
  0
VERTEX
  8
0
 10
455.653514
 20
674.479791
 42
0.010939
  0
VERTEX
  8
0
 10
453.000000
 20
674.213014
 42
0.000000
  0
VERTEX
  8
0
 10
446.500000
 20
673.415539
 42
0.000000
  0
VERTEX
  8
0
 10
454.274436
 20
672.663855
 42
0.008255
  0
VERTEX
  8
0
 10
457.323687
 20
672.419769
 42
0.011593
  0
VERTEX
  8
0
 10
460.051703
 20
672.310089
 42
0.007995
  0
VERTEX
  8
0
 10
462.314981
 20
672.307805
 42
0.135468
  0
VERTEX
  8
0
 10
463.024436
 20
672.515102
 42
-0.582358
  0
VERTEX
  8
0
 10
463.491040
 20
672.259517
 42
-0.000380
  0
VERTEX
  8
0
 10
463.748725
 20
654.145002
 42
-0.002445
  0
VERTEX
  8
0
 10
463.941923
 20
631.608596
 42
-0.000920
  0
VERTEX
  8
0
 10
464.000000
 20
600.059017
 42
-0.000909
  0
VERTEX
  8
0
 10
463.941797
 20
568.052094
 42
-0.002512
  0
VERTEX
  8
0
 10
463.746578
 20
545.514754
 42
-0.000354
  0
VERTEX
  8
0
 10
463.486946
 20
527.479646
 42
-0.409797
  0
VERTEX
  8
0
 10
463.000000
 20
527.000000
 42
0.411408
  0
VERTEX
  8
0
 10
462.508693
 20
526.513382
 42
0.000155
  0
VERTEX
  8
0
 10
462.252242
 20
498.875000
 42
0.001653
  0
VERTEX
  8
0
 10
462.057788
 20
464.535731
 42
0.000589
  0
VERTEX
  8
0
 10
462.000000
 20
415.500000
 42
0.000589
  0
VERTEX
  8
0
 10
462.057788
 20
366.464269
 42
0.001653
  0
VERTEX
  8
0
 10
462.252242
 20
332.125000
 42
0.000155
  0
VERTEX
  8
0
 10
462.508693
 20
304.486618
 42
0.411408
  0
VERTEX
  8
0
 10
463.000000
 20
304.000000
 42
-0.337811
  0
VERTEX
  8
0
 10
463.393340
 20
303.700018
 42
-0.024677
  0
VERTEX
  8
0
 10
463.707341
 20
302.284893
 42
-0.026350
  0
VERTEX
  8
0
 10
463.928236
 20
300.394432
 42
-0.015909
  0
VERTEX
  8
0
 10
464.000000
 20
298.139571
 42
0.008942
  0
VERTEX
  8
0
 10
464.046185
 20
295.557249
 42
0.006181
  0
VERTEX
  8
0
 10
464.186803
 20
292.637769
 42
0.006234
  0
VERTEX
  8
0
 10
464.391717
 20
289.834137
 42
0.012698
  0
VERTEX
  8
0
 10
464.635924
 20
287.639571
 42
0.000000
  0
VERTEX
  8
0
 10
465.271848
 20
283.000000
 42
0.000000
  0
VERTEX
  8
0
 10
516.135924
 20
283.000000
 42
0.000000
  0
VERTEX
  8
0
 10
567.000000
 20
283.000000
 42
0.000000
  0
VERTEX
  8
0
 10
567.000000
 20
516.500000
 42
0.000000
  0
VERTEX
  8
0
 10
567.000000
 20
750.000000
 42
0.000000
  0
VERTEX
  8
0
 10
503.869948
 20
750.000000
 42
0.000000
  0
VERTEX
  8
0
 10
440.739895
 20
750.000000
 42
0.000000
  0
VERTEX
  8
0
 10
441.247110
 20
754.500000
 42
0.016880
  0
VERTEX
  8
0
 10
441.382802
 20
756.225338
 42
0.028362
  0
VERTEX
  8
0
 10
441.365397
 20
757.678125
 42
0.028415
  0
VERTEX
  8
0
 10
441.229262
 20
758.757135
 42
0.361768
  0
VERTEX
  8
0
 10
440.937528
 20
759.000000
 42
-0.289556
  0
VERTEX
  8
0
 10
440.597037
 20
759.215228
 42
-0.032890
  0
VERTEX
  8
0
 10
440.245438
 20
760.101562
 42
-0.031664
  0
VERTEX
  8
0
 10
439.937951
 20
761.312925
 42
-0.020266
  0
VERTEX
  8
0
 10
439.728468
 20
762.750000
 42
0.000000
  0
VERTEX
  8
0
 10
439.336206
 20
766.500000
 42
0.000000
  0
SEQEND
  0
POLYLINE
  8
0
 66
1
 70
1
  0
VERTEX
  8
0
 10
496.998296
 20
578.250000
 42
0.000000
  0
VERTEX
  8
0
 10
496.996592
 20
407.500000
 42
0.000000
  0
VERTEX
  8
0
 10
491.550642
 20
407.309881
 42
0.000000
  0
VERTEX
  8
0
 10
486.104691
 20
407.119762
 42
0.000000
  0
VERTEX
  8
0
 10
485.732594
 20
411.809881
 42
0.083065
  0
VERTEX
  8
0
 10
485.596792
 20
412.353223
 42
0.781153
  0
VERTEX
  8
0
 10
485.468172
 20
412.331653
 42
0.016143
  0
VERTEX
  8
0
 10
485.379435
 20
410.406862
 42
0.003301
  0
VERTEX
  8
0
 10
485.354955
 20
407.000000
 42
0.003447
  0
VERTEX
  8
0
 10
485.376524
 20
403.582541
 42
0.014428
  0
VERTEX
  8
0
 10
485.462968
 20
401.528445
 42
0.595430
  0
VERTEX
  8
0
 10
485.594533
 20
401.468777
 42
0.211130
  0
VERTEX
  8
0
 10
485.730439
 20
401.713854
 42
-0.012590
  0
VERTEX
  8
0
 10
486.041288
 20
404.396590
 42
-0.159503
  0
VERTEX
  8
0
 10
486.483895
 20
405.296993
 42
-0.219217
  0
VERTEX
  8
0
 10
487.311192
 20
405.614042
 42
-0.026254
  0
VERTEX
  8
0
 10
489.305732
 20
405.377319
 42
-0.004515
  0
VERTEX
  8
0
 10
490.620334
 20
405.138564
 42
-0.004531
  0
VERTEX
  8
0
 10
491.928871
 20
404.876372
 42
-0.004431
  0
VERTEX
  8
0
 10
493.065929
 20
404.627261
 42
-0.018029
  0
VERTEX
  8
0
 10
493.750000
 20
404.444851
 42
0.071986
  0
VERTEX
  8
0
 10
494.227848
 20
404.371202
 42
0.112452
  0
VERTEX
  8
0
 10
494.632812
 20
404.459537
 42
0.140687
  0
VERTEX
  8
0
 10
494.900444
 20
404.693448
 42
0.144235
  0
VERTEX
  8
0
 10
495.000000
 20
405.031385
 42
-0.102345
  0
VERTEX
  8
0
 10
495.076457
 20
405.401000
 42
-0.098664
  0
VERTEX
  8
0
 10
495.293750
 20
405.715469
 42
-0.097132
  0
VERTEX
  8
0
 10
495.618313
 20
405.926170
 42
-0.095827
  0
VERTEX
  8
0
 10
496.000000
 20
406.000000
 42
-0.408834
  0
VERTEX
  8
0
 10
496.484508
 20
405.524326
 42
-0.000502
  0
VERTEX
  8
0
 10
496.745902
 20
390.500000
 42
-0.003002
  0
VERTEX
  8
0
 10
496.941559
 20
371.665095
 42
-0.001096
  0
VERTEX
  8
0
 10
497.000000
 20
345.000000
 42
0.000000
  0
VERTEX
  8
0
 10
497.000000
 20
284.000000
 42
0.000000
  0
VERTEX
  8
0
 10
481.500000
 20
284.000000
 42
0.000000
  0
VERTEX
  8
0
 10
466.000000
 20
284.000000
 42
0.000000
  0
VERTEX
  8
0
 10
466.000000
 20
478.500000
 42
0.000000
  0
VERTEX
  8
0
 10
466.000000
 20
673.000000
 42
0.000000
  0
VERTEX
  8
0
 10
469.500000
 20
673.000000
 42
0.000000
  0
VERTEX
  8
0
 10
473.000000
 20
673.000000
 42
0.000000
  0
VERTEX
  8
0
 10
473.015313
 20
664.750000
 42
0.008386
  0
VERTEX
  8
0
 10
473.072855
 20
661.661150
 42
0.017406
  0
VERTEX
  8
0
 10
473.241942
 20
659.256643
 42
0.022602
  0
VERTEX
  8
0
 10
473.479166
 20
657.689252
 42
0.673704
  0
VERTEX
  8
0
 10
473.765313
 20
657.634318
 42
-0.078969
  0
VERTEX
  8
0
 10
474.188656
 20
658.105129
 42
-0.035575
  0
VERTEX
  8
0
 10
474.871686
 20
658.582211
 42
-0.034086
  0
VERTEX
  8
0
 10
475.680441
 20
658.993480
 42
-0.039387
  0
VERTEX
  8
0
 10
476.500000
 20
659.268316
 42
0.002800
  0
VERTEX
  8
0
 10
477.764163
 20
659.591688
 42
0.452728
  0
VERTEX
  8
0
 10
477.821833
 20
659.706774
 42
0.288921
  0
VERTEX
  8
0
 10
477.686675
 20
659.803788
 42
0.002131
  0
VERTEX
  8
0
 10
476.250000
 20
659.883999
 42
-0.103575
  0
VERTEX
  8
0
 10
475.005281
 20
660.212357
 42
-0.198436
  0
VERTEX
  8
0
 10
474.339507
 20
660.979653
 42
-0.073957
  0
VERTEX
  8
0
 10
474.055556
 20
662.583317
 42
-0.006901
  0
VERTEX
  8
0
 10
474.000000
 20
666.608408
 42
-0.004955
  0
VERTEX
  8
0
 10
474.043009
 20
670.948314
 42
-0.092911
  0
VERTEX
  8
0
 10
474.319845
 20
672.279036
 42
-0.295376
  0
VERTEX
  8
0
 10
475.006764
 20
672.755038
 42
-0.069478
  0
VERTEX
  8
0
 10
476.464905
 20
672.598164
 42
0.053231
  0
VERTEX
  8
0
 10
477.861880
 20
672.401950
 42
0.011034
  0
VERTEX
  8
0
 10
480.345741
 20
672.374341
 42
0.011476
  0
VERTEX
  8
0
 10
483.245061
 20
672.472678
 42
0.010600
  0
VERTEX
  8
0
 10
486.214905
 20
672.704957
 42
0.000000
  0
VERTEX
  8
0
 10
493.500000
 20
673.430402
 42
0.000000
  0
VERTEX
  8
0
 10
487.500000
 20
674.184475
 42
0.014462
  0
VERTEX
  8
0
 10
484.928017
 20
674.432410
 42
0.011747
  0
VERTEX
  8
0
 10
482.160937
 20
674.553369
 42
0.011921
  0
VERTEX
  8
0
 10
479.604416
 20
674.544042
 42
0.030012
  0
VERTEX
  8
0
 10
477.750000
 20
674.381376
 42
0.000000
  0
VERTEX
  8
0
 10
474.000000
 20
673.824204
 42
0.000000
  0
VERTEX
  8
0
 10
473.819752
 20
678.662102
 42
0.000000
  0
VERTEX
  8
0
 10
473.639504
 20
683.500000
 42
0.000000
  0
VERTEX
  8
0
 10
473.264961
 20
678.750000
 42
-0.011975
  0
VERTEX
  8
0
 10
472.952126
 20
675.712771
 42
-0.138547
  0
VERTEX
  8
0
 10
472.488412
 20
674.621860
 42
-0.197161
  0
VERTEX
  8
0
 10
471.584272
 20
674.122989
 42
-0.028725
  0
VERTEX
  8
0
 10
469.445209
 20
674.000000
 42
0.000000
  0
VERTEX
  8
0
 10
466.000000
 20
674.000000
 42
0.000000
  0
VERTEX
  8
0
 10
466.000000
 20
711.500000
 42
0.000000
  0
VERTEX
  8
0
 10
466.000000
 20
749.000000
 42
0.000000
  0
VERTEX
  8
0
 10
481.500000
 20
749.000000
 42
0.000000
  0
VERTEX
  8
0
 10
497.000000
 20
749.000000
 42
0.000000
  0
SEQEND
  0
POLYLINE
  8
0
 66
1
 70
1
  0
VERTEX
  8
0
 10
563.000000
 20
725.000000
 42
0.000000
  0
VERTEX
  8
0
 10
563.000000
 20
701.000000
 42
0.000000
  0
VERTEX
  8
0
 10
558.000000
 20
701.000000
 42
0.000000
  0
VERTEX
  8
0
 10
553.000000
 20
701.000000
 42
0.000000
  0
VERTEX
  8
0
 10
553.000000
 20
516.500000
 42
0.000000
  0
VERTEX
  8
0
 10
553.000000
 20
332.000000
 42
0.000000
  0
VERTEX
  8
0
 10
558.000000
 20
332.000000
 42
0.000000
  0
VERTEX
  8
0
 10
563.000000
 20
332.000000
 42
0.000000
  0
VERTEX
  8
0
 10
563.000000
 20
308.000000
 42
0.000000
  0
VERTEX
  8
0
 10
563.000000
 20
284.000000
 42
0.000000
  0
VERTEX
  8
0
 10
530.500000
 20
284.000000
 42
0.000000
  0
VERTEX
  8
0
 10
498.000000
 20
284.000000
 42
0.000000
  0
VERTEX
  8
0
 10
498.000000
 20
345.000000
 42
-0.000521
  0
VERTEX
  8
0
 10
498.039441
 20
382.827309
 42
-0.006635
  0
VERTEX
  8
0
 10
498.257648
 20
397.036221
 42
-0.009024
  0
VERTEX
  8
0
 10
498.629316
 20
404.993668
 42
-0.376371
  0
VERTEX
  8
0
 10
499.750000
 20
406.116001
 42
0.002113
  0
VERTEX
  8
0
 10
500.923939
 20
406.198801
 42
0.392517
  0
VERTEX
  8
0
 10
501.000000
 20
406.280763
 42
0.339035
  0
VERTEX
  8
0
 10
500.926177
 20
406.377121
 42
0.001923
  0
VERTEX
  8
0
 10
499.750000
 20
406.689326
 42
-0.336900
  0
VERTEX
  8
0
 10
498.554940
 20
408.212502
 42
-0.001286
  0
VERTEX
  8
0
 10
498.253228
 20
431.813901
 42
-0.002374
  0
VERTEX
  8
0
 10
498.038171
 20
471.183834
 42
-0.000179
  0
VERTEX
  8
0
 10
498.000000
 20
578.073324
 42
0.000000
  0
VERTEX
  8
0
 10
498.000000
 20
749.000000
 42
0.000000
  0
VERTEX
  8
0
 10
530.500000
 20
749.000000
 42
0.000000
  0
VERTEX
  8
0
 10
563.000000
 20
749.000000
 42
0.000000
  0
SEQEND
  0
POLYLINE
  8
0
 66
1
 70
1
  0
VERTEX
  8
0
 10
566.000000
 20
725.000000
 42
-0.002951
  0
VERTEX
  8
0
 10
565.939338
 20
714.722954
 42
-0.007459
  0
VERTEX
  8
0
 10
565.739583
 20
707.250000
 42
-0.002895
  0
VERTEX
  8
0
 10
565.463776
 20
701.439727
 42
-0.398709
  0
VERTEX
  8
0
 10
565.000000
 20
701.000000
 42
-0.398709
  0
VERTEX
  8
0
 10
564.536224
 20
701.439727
 42
-0.002895
  0
VERTEX
  8
0
 10
564.260417
 20
707.250000
 42
-0.007459
  0
VERTEX
  8
0
 10
564.060662
 20
714.722954
 42
-0.002951
  0
VERTEX
  8
0
 10
564.000000
 20
725.000000
 42
-0.002951
  0
VERTEX
  8
0
 10
564.060662
 20
735.277046
 42
-0.007459
  0
VERTEX
  8
0
 10
564.260417
 20
742.750000
 42
-0.002895
  0
VERTEX
  8
0
 10
564.536224
 20
748.560273
 42
-0.398709
  0
VERTEX
  8
0
 10
565.000000
 20
749.000000
 42
-0.398709
  0
VERTEX
  8
0
 10
565.463776
 20
748.560273
 42
-0.002895
  0
VERTEX
  8
0
 10
565.739583
 20
742.750000
 42
-0.007459
  0
VERTEX
  8
0
 10
565.939338
 20
735.277046
 42
-0.002951
  0
SEQEND
  0
POLYLINE
  8
0
 66
1
 70
1
  0
VERTEX
  8
0
 10
465.000000
 20
717.000000
 42
-0.008055
  0
VERTEX
  8
0
 10
464.934243
 20
712.918453
 42
-0.016864
  0
VERTEX
  8
0
 10
464.725000
 20
709.750000
 42
-0.012451
  0
VERTEX
  8
0
 10
464.426633
 20
707.367196
 42
-0.371083
  0
VERTEX
  8
0
 10
464.000000
 20
707.000000
 42
-0.371083
  0
VERTEX
  8
0
 10
463.573367
 20
707.367196
 42
-0.012451
  0
VERTEX
  8
0
 10
463.275000
 20
709.750000
 42
-0.016864
  0
VERTEX
  8
0
 10
463.065757
 20
712.918453
 42
-0.008055
  0
VERTEX
  8
0
 10
463.000000
 20
717.000000
 42
-0.008055
  0
VERTEX
  8
0
 10
463.065757
 20
721.081547
 42
-0.016864
  0
VERTEX
  8
0
 10
463.275000
 20
724.250000
 42
-0.012451
  0
VERTEX
  8
0
 10
463.573367
 20
726.632804
 42
-0.371083
  0
VERTEX
  8
0
 10
464.000000
 20
727.000000
 42
-0.371083
  0
VERTEX
  8
0
 10
464.426633
 20
726.632804
 42
-0.012451
  0
VERTEX
  8
0
 10
464.725000
 20
724.250000
 42
-0.016864
  0
VERTEX
  8
0
 10
464.934243
 20
721.081547
 42
-0.008055
  0
SEQEND
  0
POLYLINE
  8
0
 66
1
 70
1
  0
VERTEX
  8
0
 10
566.000000
 20
516.500000
 42
0.000000
  0
VERTEX
  8
0
 10
566.000000
 20
333.000000
 42
0.000000
  0
VERTEX
  8
0
 10
560.000000
 20
333.000000
 42
0.000000
  0
VERTEX
  8
0
 10
554.000000
 20
333.000000
 42
0.000000
  0
VERTEX
  8
0
 10
554.000000
 20
516.500000
 42
0.000000
  0
VERTEX
  8
0
 10
554.000000
 20
700.000000
 42
0.000000
  0
VERTEX
  8
0
 10
560.000000
 20
700.000000
 42
0.000000
  0
VERTEX
  8
0
 10
566.000000
 20
700.000000
 42
0.000000
  0
SEQEND
  0
POLYLINE
  8
0
 66
1
 70
1
  0
VERTEX
  8
0
 10
465.000000
 20
516.000000
 42
-0.008055
  0
VERTEX
  8
0
 10
464.934243
 20
511.918453
 42
-0.016864
  0
VERTEX
  8
0
 10
464.725000
 20
508.750000
 42
-0.012451
  0
VERTEX
  8
0
 10
464.426633
 20
506.367196
 42
-0.371083
  0
VERTEX
  8
0
 10
464.000000
 20
506.000000
 42
-0.371083
  0
VERTEX
  8
0
 10
463.573367
 20
506.367196
 42
-0.012451
  0
VERTEX
  8
0
 10
463.275000
 20
508.750000
 42
-0.016864
  0
VERTEX
  8
0
 10
463.065757
 20
511.918453
 42
-0.008055
  0
VERTEX
  8
0
 10
463.000000
 20
516.000000
 42
-0.008055
  0
VERTEX
  8
0
 10
463.065757
 20
520.081547
 42
-0.016864
  0
VERTEX
  8
0
 10
463.275000
 20
523.250000
 42
-0.012451
  0
VERTEX
  8
0
 10
463.573367
 20
525.632804
 42
-0.371083
  0
VERTEX
  8
0
 10
464.000000
 20
526.000000
 42
-0.371083
  0
VERTEX
  8
0
 10
464.426633
 20
525.632804
 42
-0.012451
  0
VERTEX
  8
0
 10
464.725000
 20
523.250000
 42
-0.016864
  0
VERTEX
  8
0
 10
464.934243
 20
520.081547
 42
-0.008055
  0
SEQEND
  0
POLYLINE
  8
0
 66
1
 70
1
  0
VERTEX
  8
0
 10
463.749794
 20
370.825422
 42
-0.005840
  0
VERTEX
  8
0
 10
463.651377
 20
365.250763
 42
-0.982458
  0
VERTEX
  8
0
 10
463.558587
 20
365.251843
 42
-0.001266
  0
VERTEX
  8
0
 10
463.495123
 20
383.230525
 42
-0.000249
  0
VERTEX
  8
0
 10
463.478994
 20
415.500000
 42
-0.000251
  0
VERTEX
  8
0
 10
463.495141
 20
447.779039
 42
-0.001243
  0
VERTEX
  8
0
 10
463.558464
 20
465.939343
 42
-0.981029
  0
VERTEX
  8
0
 10
463.651480
 20
465.940569
 42
-0.006568
  0
VERTEX
  8
0
 10
463.749684
 20
460.825422
 42
-0.000959
  0
VERTEX
  8
0
 10
463.834149
 20
440.443462
 42
-0.000556
  0
VERTEX
  8
0
 10
463.861421
 20
415.959658
 42
-0.000556
  0
VERTEX
  8
0
 10
463.834156
 20
391.414036
 42
-0.000937
  0
SEQEND
  0
POLYLINE
  8
0
 66
1
 70
1
  0
VERTEX
  8
0
 10
566.000000
 20
308.000000
 42
-0.002951
  0
VERTEX
  8
0
 10
565.939338
 20
297.722954
 42
-0.007459
  0
VERTEX
  8
0
 10
565.739583
 20
290.250000
 42
-0.002895
  0
VERTEX
  8
0
 10
565.463776
 20
284.439727
 42
-0.398709
  0
VERTEX
  8
0
 10
565.000000
 20
284.000000
 42
-0.398709
  0
VERTEX
  8
0
 10
564.536224
 20
284.439727
 42
-0.002895
  0
VERTEX
  8
0
 10
564.260417
 20
290.250000
 42
-0.007459
  0
VERTEX
  8
0
 10
564.060662
 20
297.722954
 42
-0.002951
  0
VERTEX
  8
0
 10
564.000000
 20
308.000000
 42
-0.002951
  0
VERTEX
  8
0
 10
564.060662
 20
318.277046
 42
-0.007459
  0
VERTEX
  8
0
 10
564.260417
 20
325.750000
 42
-0.002895
  0
VERTEX
  8
0
 10
564.536224
 20
331.560273
 42
-0.398709
  0
VERTEX
  8
0
 10
565.000000
 20
332.000000
 42
-0.398709
  0
VERTEX
  8
0
 10
565.463776
 20
331.560273
 42
-0.002895
  0
VERTEX
  8
0
 10
565.739583
 20
325.750000
 42
-0.007459
  0
VERTEX
  8
0
 10
565.939338
 20
318.277046
 42
-0.002951
  0
SEQEND
  0
POLYLINE
  8
0
 66
1
 70
1
  0
VERTEX
  8
0
 10
465.000000
 20
315.000000
 42
-0.008055
  0
VERTEX
  8
0
 10
464.934243
 20
310.918453
 42
-0.016864
  0
VERTEX
  8
0
 10
464.725000
 20
307.750000
 42
-0.012451
  0
VERTEX
  8
0
 10
464.426633
 20
305.367196
 42
-0.371083
  0
VERTEX
  8
0
 10
464.000000
 20
305.000000
 42
-0.371083
  0
VERTEX
  8
0
 10
463.573367
 20
305.367196
 42
-0.012451
  0
VERTEX
  8
0
 10
463.275000
 20
307.750000
 42
-0.016864
  0
VERTEX
  8
0
 10
463.065757
 20
310.918453
 42
-0.008055
  0
VERTEX
  8
0
 10
463.000000
 20
315.000000
 42
-0.008055
  0
VERTEX
  8
0
 10
463.065757
 20
319.081547
 42
-0.016864
  0
VERTEX
  8
0
 10
463.275000
 20
322.250000
 42
-0.012451
  0
VERTEX
  8
0
 10
463.573367
 20
324.632804
 42
-0.371083
  0
VERTEX
  8
0
 10
464.000000
 20
325.000000
 42
-0.371083
  0
VERTEX
  8
0
 10
464.426633
 20
324.632804
 42
-0.012451
  0
VERTEX
  8
0
 10
464.725000
 20
322.250000
 42
-0.016864
  0
VERTEX
  8
0
 10
464.934243
 20
319.081547
 42
-0.008055
  0
SEQEND
  0
POLYLINE
  8
0
 66
1
 70
1
  0
VERTEX
  8
0
 10
21.209358
 20
749.266620
 42
0.000000
  0
VERTEX
  8
0
 10
25.918715
 20
748.893737
 42
0.000000
  0
VERTEX
  8
0
 10
25.978495
 20
637.261065
 42
0.000403
  0
VERTEX
  8
0
 10
26.035989
 20
594.422635
 42
0.000668
  0
VERTEX
  8
0
 10
26.161967
 20
558.279237
 42
0.000026
  0
VERTEX
  8
0
 10
26.321115
 20
525.622288
 42
0.197633
  0
VERTEX
  8
0
 10
26.519137
 20
525.147530
 42
0.666508
  0
VERTEX
  8
0
 10
26.716986
 20
525.228946
 42
0.000028
  0
VERTEX
  8
0
 10
26.858746
 20
556.263649
 42
0.000707
  0
VERTEX
  8
0
 10
26.965466
 20
590.721525
 42
0.000421
  0
VERTEX
  8
0
 10
27.000000
 20
631.750000
 42
-0.000606
  0
VERTEX
  8
0
 10
27.057682
 20
679.311558
 42
-0.001757
  0
VERTEX
  8
0
 10
27.253161
 20
712.223052
 42
-0.000190
  0
VERTEX
  8
0
 10
27.511348
 20
738.479802
 42
-0.320006
  0
VERTEX
  8
0
 10
28.015534
 20
739.171845
 42
0.256834
  0
VERTEX
  8
0
 10
28.407146
 20
739.595388
 42
0.054363
  0
VERTEX
  8
0
 10
28.547269
 20
740.628363
 42
0.037704
  0
VERTEX
  8
0
 10
28.471960
 20
742.158924
 42
0.015040
  0
VERTEX
  8
0
 10
28.148283
 20
744.235677
 42
0.000000
  0
VERTEX
  8
0
 10
27.265497
 20
748.960997
 42
0.000000
  0
VERTEX
  8
0
 10
48.382749
 20
749.251476
 42
0.000149
  0
VERTEX
  8
0
 10
61.693789
 20
749.438548
 42
0.962081
  0
VERTEX
  8
0
 10
61.695339
 20
749.502339
 42
0.015202
  0
VERTEX
  8
0
 10
60.019973
 20
749.556875
 42
0.000074
  0
VERTEX
  8
0
 10
43.000000
 20
749.590730
 42
0.001285
  0
VERTEX
  8
0
 10
33.141327
 20
749.583544
 42
0.002894
  0
VERTEX
  8
0
 10
25.667749
 20
749.515642
 42
0.004780
  0
VERTEX
  8
0
 10
21.212513
 20
749.406767
 42
0.945035
  0
SEQEND
  0
POLYLINE
  8
0
 66
1
 70
1
  0
VERTEX
  8
0
 10
78.000000
 20
516.500000
 42
0.000000
  0
VERTEX
  8
0
 10
78.000000
 20
283.000000
 42
0.000000
  0
VERTEX
  8
0
 10
210.500000
 20
283.000000
 42
0.000000
  0
VERTEX
  8
0
 10
343.000000
 20
283.000000
 42
0.000000
  0
VERTEX
  8
0
 10
343.000000
 20
516.500000
 42
0.000000
  0
VERTEX
  8
0
 10
343.000000
 20
750.000000
 42
0.000000
  0
VERTEX
  8
0
 10
210.500000
 20
750.000000
 42
0.000000
  0
VERTEX
  8
0
 10
78.000000
 20
750.000000
 42
0.000000
  0
SEQEND
  0
POLYLINE
  8
0
 66
1
 70
1
  0
VERTEX
  8
0
 10
342.000000
 20
725.000000
 42
0.000000
  0
VERTEX
  8
0
 10
342.000000
 20
701.000000
 42
0.000000
  0
VERTEX
  8
0
 10
210.500000
 20
701.000000
 42
0.000000
  0
VERTEX
  8
0
 10
79.000000
 20
701.000000
 42
0.000000
  0
VERTEX
  8
0
 10
79.000000
 20
725.000000
 42
0.000000
  0
VERTEX
  8
0
 10
79.000000
 20
749.000000
 42
0.000000
  0
VERTEX
  8
0
 10
210.500000
 20
749.000000
 42
0.000000
  0
VERTEX
  8
0
 10
342.000000
 20
749.000000
 42
0.000000
  0
SEQEND
  0
POLYLINE
  8
0
 66
1
 70
1
  0
VERTEX
  8
0
 10
87.000000
 20
645.500000
 42
0.000000
  0
VERTEX
  8
0
 10
87.000000
 20
591.000000
 42
0.000000
  0
VERTEX
  8
0
 10
210.500000
 20
591.000000
 42
0.000000
  0
VERTEX
  8
0
 10
334.000000
 20
591.000000
 42
0.000000
  0
VERTEX
  8
0
 10
334.000000
 20
645.500000
 42
0.000000
  0
VERTEX
  8
0
 10
334.000000
 20
700.000000
 42
0.000000
  0
VERTEX
  8
0
 10
338.000000
 20
700.000000
 42
0.000000
  0
VERTEX
  8
0
 10
342.000000
 20
700.000000
 42
0.000000
  0
VERTEX
  8
0
 10
342.000000
 20
516.500000
 42
0.000000
  0
VERTEX
  8
0
 10
342.000000
 20
333.000000
 42
0.000000
  0
VERTEX
  8
0
 10
338.000000
 20
333.000000
 42
0.000000
  0
VERTEX
  8
0
 10
334.000000
 20
333.000000
 42
0.000000
  0
VERTEX
  8
0
 10
334.000000
 20
387.500000
 42
0.000000
  0
VERTEX
  8
0
 10
334.000000
 20
442.000000
 42
0.000000
  0
VERTEX
  8
0
 10
210.500000
 20
442.000000
 42
0.000000
  0
VERTEX
  8
0
 10
87.000000
 20
442.000000
 42
0.000000
  0
VERTEX
  8
0
 10
87.000000
 20
387.500000
 42
0.000000
  0
VERTEX
  8
0
 10
87.000000
 20
333.000000
 42
0.000000
  0
VERTEX
  8
0
 10
83.000000
 20
333.000000
 42
0.000000
  0
VERTEX
  8
0
 10
79.000000
 20
333.000000
 42
0.000000
  0
VERTEX
  8
0
 10
79.000000
 20
516.500000
 42
0.000000
  0
VERTEX
  8
0
 10
79.000000
 20
700.000000
 42
0.000000
  0
VERTEX
  8
0
 10
83.000000
 20
700.000000
 42
0.000000
  0
VERTEX
  8
0
 10
87.000000
 20
700.000000
 42
0.000000
  0
SEQEND
  0
POLYLINE
  8
0
 66
1
 70
1
  0
VERTEX
  8
0
 10
333.000000
 20
695.500000
 42
-0.019731
  0
VERTEX
  8
0
 10
332.923550
 20
693.563453
 42
-0.046930
  0
VERTEX
  8
0
 10
332.676170
 20
692.145337
 42
-0.071645
  0
VERTEX
  8
0
 10
332.283835
 20
691.241516
 42
-0.243429
  0
VERTEX
  8
0
 10
331.750000
 20
690.921053
 42
0.011437
  0
VERTEX
  8
0
 10
331.096611
 20
690.864758
 42
0.382689
  0
VERTEX
  8
0
 10
331.000000
 20
690.757018
 42
0.295955
  0
VERTEX
  8
0
 10
331.090194
 20
690.617987
 42
0.009076
  0
VERTEX
  8
0
 10
331.750000
 20
690.337719
 42
-0.226065
  0
VERTEX
  8
0
 10
332.773412
 20
689.222761
 42
-0.111060
  0
VERTEX
  8
0
 10
332.924536
 20
687.257408
 42
-0.091776
  0
VERTEX
  8
0
 10
332.187833
 20
685.089003
 42
-0.107336
  0
VERTEX
  8
0
 10
330.750000
 20
683.464119
 42
0.000000
  0
VERTEX
  8
0
 10
328.500000
 20
681.814829
 42
0.000000
  0
VERTEX
  8
0
 10
330.750000
 20
682.474802
 42
0.000000
  0
VERTEX
  8
0
 10
333.000000
 20
683.134775
 42
0.000000
  0
VERTEX
  8
0
 10
333.000000
 20
649.067388
 42
0.000000
  0
VERTEX
  8
0
 10
333.000000
 20
615.000000
 42
0.000000
  0
VERTEX
  8
0
 10
210.500000
 20
615.000000
 42
0.000000
  0
VERTEX
  8
0
 10
88.000000
 20
615.000000
 42
0.000000
  0
VERTEX
  8
0
 10
88.000000
 20
649.067388
 42
-0.000757
  0
VERTEX
  8
0
 10
88.034272
 20
671.689441
 42
-0.014546
  0
VERTEX
  8
0
 10
88.260259
 20
678.722878
 42
-0.058710
  0
VERTEX
  8
0
 10
88.822797
 20
681.840925
 42
-0.417601
  0
VERTEX
  8
0
 10
90.047988
 20
682.484769
 42
0.059627
  0
VERTEX
  8
0
 10
90.928850
 20
682.316989
 42
0.049912
  0
VERTEX
  8
0
 10
91.880498
 20
682.346152
 42
0.052054
  0
VERTEX
  8
0
 10
92.757230
 20
682.555500
 42
0.088811
  0
VERTEX
  8
0
 10
93.410422
 20
682.925657
 42
-0.172754
  0
VERTEX
  8
0
 10
94.970581
 20
683.496206
 42
-0.000349
  0
VERTEX
  8
0
 10
121.546467
 20
683.702503
 42
-0.001809
  0
VERTEX
  8
0
 10
156.632068
 20
683.823456
 42
-0.000512
  0
VERTEX
  8
0
 10
211.267011
 20
683.758275
 42
0.000602
  0
VERTEX
  8
0
 10
255.923643
 20
683.713101
 42
0.001011
  0
VERTEX
  8
0
 10
293.438719
 20
683.796181
 42
0.000049
  0
VERTEX
  8
0
 10
327.174948
 20
683.942365
 42
0.585919
  0
VERTEX
  8
0
 10
327.345560
 20
684.250000
 42
0.258138
  0
VERTEX
  8
0
 10
326.796617
 20
684.558434
 42
0.000048
  0
VERTEX
  8
0
 10
293.107358
 20
684.779688
 42
0.001009
  0
VERTEX
  8
0
 10
255.738525
 20
684.946078
 42
0.000609
  0
VERTEX
  8
0
 10
211.440983
 20
685.000000
 42
-0.000255
  0
VERTEX
  8
0
 10
138.356303
 20
685.037325
 42
-0.003642
  0
VERTEX
  8
0
 10
112.283470
 20
685.253898
 42
-0.003108
  0
VERTEX
  8
0
 10
97.183135
 20
685.583238
 42
-0.406030
  0
VERTEX
  8
0
 10
96.000000
 20
686.800000
 42
0.096838
  0
VERTEX
  8
0
 10
95.718007
 20
688.242347
 42
0.073405
  0
VERTEX
  8
0
 10
94.897359
 20
689.634351
 42
0.077953
  0
VERTEX
  8
0
 10
93.773528
 20
690.652217
 42
0.146119
  0
VERTEX
  8
0
 10
92.608870
 20
691.000000
 42
0.304977
  0
VERTEX
  8
0
 10
92.416424
 20
690.870579
 42
0.238827
  0
VERTEX
  8
0
 10
92.437597
 20
690.613396
 42
0.072818
  0
VERTEX
  8
0
 10
92.790775
 20
690.191005
 42
0.024418
  0
VERTEX
  8
0
 10
93.417611
 20
689.683903
 42
-0.126428
  0
VERTEX
  8
0
 10
94.520714
 20
688.341629
 42
-0.134063
  0
VERTEX
  8
0
 10
94.808365
 20
686.664329
 42
-0.125513
  0
VERTEX
  8
0
 10
94.203598
 20
684.988935
 42
-0.103540
  0
VERTEX
  8
0
 10
92.833823
 20
683.665172
 42
-0.058414
  0
VERTEX
  8
0
 10
91.969027
 20
683.252454
 42
-0.102865
  0
VERTEX
  8
0
 10
91.186435
 20
683.155253
 42
-0.100091
  0
VERTEX
  8
0
 10
90.415309
 20
683.377793
 42
-0.053112
  0
VERTEX
  8
0
 10
89.583823
 20
683.930433
 42
-0.105805
  0
VERTEX
  8
0
 10
88.439661
 20
685.382817
 42
-0.121512
  0
VERTEX
  8
0
 10
88.064489
 20
687.104283
 42
-0.125833
  0
VERTEX
  8
0
 10
88.535576
 20
688.757430
 42
-0.118405
  0
VERTEX
  8
0
 10
89.750000
 20
690.025815
 42
0.001298
  0
VERTEX
  8
0
 10
90.934464
 20
690.791741
 42
0.253795
  0
VERTEX
  8
0
 10
91.000000
 20
690.912537
 42
0.503132
  0
VERTEX
  8
0
 10
90.925853
 20
690.967569
 42
0.001911
  0
VERTEX
  8
0
 10
89.750000
 20
690.606890
 42
-0.133747
  0
VERTEX
  8
0
 10
88.850940
 20
690.574929
 42
-0.245716
  0
VERTEX
  8
0
 10
88.310675
 20
691.041437
 42
-0.084499
  0
VERTEX
  8
0
 10
88.054795
 20
692.253564
 42
-0.009862
  0
VERTEX
  8
0
 10
88.000000
 20
695.031385
 42
0.000000
  0
VERTEX
  8
0
 10
88.000000
 20
700.000000
 42
0.000000
  0
VERTEX
  8
0
 10
210.500000
 20
700.000000
 42
0.000000
  0
VERTEX
  8
0
 10
333.000000
 20
700.000000
 42
0.000000
  0
SEQEND
  0
POLYLINE
  8
0
 66
1
 70
1
  0
VERTEX
  8
0
 10
333.000000
 20
603.000000
 42
0.000000
  0
VERTEX
  8
0
 10
333.000000
 20
592.000000
 42
0.000000
  0
VERTEX
  8
0
 10
210.500000
 20
592.000000
 42
0.000000
  0
VERTEX
  8
0
 10
88.000000
 20
592.000000
 42
0.000000
  0
VERTEX
  8
0
 10
88.000000
 20
603.000000
 42
0.000000
  0
VERTEX
  8
0
 10
88.000000
 20
614.000000
 42
0.000000
  0
VERTEX
  8
0
 10
210.500000
 20
614.000000
 42
0.000000
  0
VERTEX
  8
0
 10
333.000000
 20
614.000000
 42
0.000000
  0
SEQEND
  0
POLYLINE
  8
0
 66
1
 70
1
  0
VERTEX
  8
0
 10
333.000000
 20
433.500000
 42
0.000000
  0
VERTEX
  8
0
 10
333.000000
 20
426.000000
 42
0.000000
  0
VERTEX
  8
0
 10
210.500000
 20
426.000000
 42
0.000000
  0
VERTEX
  8
0
 10
88.000000
 20
426.000000
 42
0.000000
  0
VERTEX
  8
0
 10
88.000000
 20
433.500000
 42
0.000000
  0
VERTEX
  8
0
 10
88.000000
 20
441.000000
 42
0.000000
  0
VERTEX
  8
0
 10
210.500000
 20
441.000000
 42
0.000000
  0
VERTEX
  8
0
 10
333.000000
 20
441.000000
 42
0.000000
  0
SEQEND
  0
POLYLINE
  8
0
 66
1
 70
1
  0
VERTEX
  8
0
 10
333.000000
 20
391.000000
 42
0.000000
  0
VERTEX
  8
0
 10
333.000000
 20
357.000000
 42
0.000000
  0
VERTEX
  8
0
 10
210.500000
 20
357.000000
 42
0.000000
  0
VERTEX
  8
0
 10
88.000000
 20
357.000000
 42
0.000000
  0
VERTEX
  8
0
 10
88.000000
 20
391.000000
 42
0.000000
  0
VERTEX
  8
0
 10
88.000000
 20
425.000000
 42
0.000000
  0
VERTEX
  8
0
 10
210.500000
 20
425.000000
 42
0.000000
  0
VERTEX
  8
0
 10
333.000000
 20
425.000000
 42
0.000000
  0
SEQEND
  0
POLYLINE
  8
0
 66
1
 70
1
  0
VERTEX
  8
0
 10
97.000000
 20
344.500000
 42
0.000000
  0
VERTEX
  8
0
 10
97.000000
 20
333.000000
 42
0.000000
  0
VERTEX
  8
0
 10
92.500000
 20
333.000000
 42
0.000000
  0
VERTEX
  8
0
 10
88.000000
 20
333.000000
 42
0.000000
  0
VERTEX
  8
0
 10
88.000000
 20
336.861328
 42
-0.013773
  0
VERTEX
  8
0
 10
88.063974
 20
339.183277
 42
-0.146668
  0
VERTEX
  8
0
 10
88.381221
 20
340.062325
 42
-0.242449
  0
VERTEX
  8
0
 10
89.055696
 20
340.394368
 42
-0.042684
  0
VERTEX
  8
0
 10
90.505746
 20
340.243652
 42
0.136707
  0
VERTEX
  8
0
 10
93.462126
 20
340.489139
 42
0.181058
  0
VERTEX
  8
0
 10
95.488114
 20
342.240457
 42
0.183809
  0
VERTEX
  8
0
 10
95.848298
 20
344.868747
 42
0.140420
  0
VERTEX
  8
0
 10
94.428571
 20
347.428571
 42
0.046960
  0
VERTEX
  8
0
 10
93.703490
 20
348.028896
 42
0.037769
  0
VERTEX
  8
0
 10
92.825670
 20
348.534062
 42
0.039082
  0
VERTEX
  8
0
 10
91.935136
 20
348.878001
 42
0.074946
  0
VERTEX
  8
0
 10
91.178571
 20
348.985258
 42
0.071967
  0
VERTEX
  8
0
 10
90.600575
 20
348.896443
 42
0.497118
  0
VERTEX
  8
0
 10
90.516139
 20
348.666531
 42
0.120340
  0
VERTEX
  8
0
 10
90.905287
 20
348.296254
 42
0.013165
  0
VERTEX
  8
0
 10
92.000000
 20
347.705725
 42
-0.054351
  0
VERTEX
  8
0
 10
93.084959
 20
346.999593
 42
-0.073989
  0
VERTEX
  8
0
 10
93.869020
 20
346.136631
 42
-0.078152
  0
VERTEX
  8
0
 10
94.338954
 20
345.122247
 42
-0.069573
  0
VERTEX
  8
0
 10
94.500000
 20
343.970467
 42
-0.049063
  0
VERTEX
  8
0
 10
94.371800
 20
342.667143
 42
-0.173150
  0
VERTEX
  8
0
 10
93.946414
 20
341.955872
 42
-0.143102
  0
VERTEX
  8
0
 10
93.108181
 20
341.596892
 42
-0.030098
  0
VERTEX
  8
0
 10
91.500000
 20
341.500000
 42
0.000000
  0
VERTEX
  8
0
 10
88.500000
 20
341.500000
 42
0.000000
  0
VERTEX
  8
0
 10
88.236811
 20
348.750000
 42
0.000000
  0
VERTEX
  8
0
 10
87.973622
 20
356.000000
 42
0.000000
  0
VERTEX
  8
0
 10
92.486811
 20
356.000000
 42
0.000000
  0
VERTEX
  8
0
 10
97.000000
 20
356.000000
 42
0.000000
  0
SEQEND
  0
POLYLINE
  8
0
 66
1
 70
1
  0
VERTEX
  8
0
 10
323.000000
 20
344.500000
 42
0.000000
  0
VERTEX
  8
0
 10
323.000000
 20
333.000000
 42
0.000000
  0
VERTEX
  8
0
 10
210.500000
 20
333.000000
 42
0.000000
  0
VERTEX
  8
0
 10
98.000000
 20
333.000000
 42
0.000000
  0
VERTEX
  8
0
 10
98.000000
 20
344.500000
 42
0.000000
  0
VERTEX
  8
0
 10
98.000000
 20
356.000000
 42
0.000000
  0
VERTEX
  8
0
 10
210.500000
 20
356.000000
 42
0.000000
  0
VERTEX
  8
0
 10
323.000000
 20
356.000000
 42
0.000000
  0
SEQEND
  0
POLYLINE
  8
0
 66
1
 70
1
  0
VERTEX
  8
0
 10
333.000000
 20
352.093620
 42
-0.013693
  0
VERTEX
  8
0
 10
332.939083
 20
349.869645
 42
-0.122456
  0
VERTEX
  8
0
 10
332.653922
 20
348.942764
 42
-0.254299
  0
VERTEX
  8
0
 10
332.062940
 20
348.596029
 42
-0.072207
  0
VERTEX
  8
0
 10
330.967118
 20
348.718850
 42
0.149196
  0
VERTEX
  8
0
 10
329.195433
 20
348.647183
 42
0.072139
  0
VERTEX
  8
0
 10
327.163617
 20
347.587679
 42
0.072971
  0
VERTEX
  8
0
 10
325.542786
 20
346.014820
 42
0.165161
  0
VERTEX
  8
0
 10
325.000000
 20
344.416441
 42
0.149073
  0
VERTEX
  8
0
 10
325.493484
 20
342.798046
 42
0.086964
  0
VERTEX
  8
0
 10
326.910961
 20
341.322784
 42
0.083941
  0
VERTEX
  8
0
 10
328.802567
 20
340.375223
 42
0.122047
  0
VERTEX
  8
0
 10
330.657834
 20
340.274923
 42
-0.051913
  0
VERTEX
  8
0
 10
331.976645
 20
340.387492
 42
-0.242296
  0
VERTEX
  8
0
 10
332.627346
 20
340.037056
 42
-0.137051
  0
VERTEX
  8
0
 10
332.935738
 20
339.133614
 42
-0.014137
  0
VERTEX
  8
0
 10
333.000000
 20
336.861328
 42
0.000000
  0
VERTEX
  8
0
 10
333.000000
 20
333.000000
 42
0.000000
  0
VERTEX
  8
0
 10
328.500000
 20
333.000000
 42
0.000000
  0
VERTEX
  8
0
 10
324.000000
 20
333.000000
 42
0.000000
  0
VERTEX
  8
0
 10
324.000000
 20
344.500000
 42
0.000000
  0
VERTEX
  8
0
 10
324.000000
 20
356.000000
 42
0.000000
  0
VERTEX
  8
0
 10
328.500000
 20
356.000000
 42
0.000000
  0
VERTEX
  8
0
 10
333.000000
 20
356.000000
 42
0.000000
  0
SEQEND
  0
POLYLINE
  8
0
 66
1
 70
1
  0
VERTEX
  8
0
 10
332.500000
 20
344.500000
 42
-0.030106
  0
VERTEX
  8
0
 10
332.404000
 20
342.907062
 42
-0.139017
  0
VERTEX
  8
0
 10
332.050749
 20
342.063675
 42
-0.173128
  0
VERTEX
  8
0
 10
331.355777
 20
341.632763
 42
-0.053092
  0
VERTEX
  8
0
 10
330.108986
 20
341.500000
 42
-0.106206
  0
VERTEX
  8
0
 10
328.065176
 20
341.939081
 42
-0.146996
  0
VERTEX
  8
0
 10
326.657985
 20
343.161228
 42
-0.169446
  0
VERTEX
  8
0
 10
326.273659
 20
344.817143
 42
-0.147321
  0
VERTEX
  8
0
 10
326.970483
 20
346.464435
 42
-0.074008
  0
VERTEX
  8
0
 10
327.643135
 20
347.066796
 42
-0.053271
  0
VERTEX
  8
0
 10
328.540308
 20
347.529478
 42
-0.053332
  0
VERTEX
  8
0
 10
329.513636
 20
347.791671
 42
-0.074760
  0
VERTEX
  8
0
 10
330.412495
 20
347.798257
 42
-0.078310
  0
VERTEX
  8
0
 10
331.413226
 20
347.490648
 42
-0.138885
  0
VERTEX
  8
0
 10
332.051186
 20
346.919125
 42
-0.106526
  0
VERTEX
  8
0
 10
332.396467
 20
345.979116
 42
-0.034956
  0
SEQEND
  0
POLYLINE
  8
0
 66
1
 70
1
  0
VERTEX
  8
0
 10
342.000000
 20
308.000000
 42
0.000000
  0
VERTEX
  8
0
 10
342.000000
 20
284.000000
 42
0.000000
  0
VERTEX
  8
0
 10
210.500000
 20
284.000000
 42
0.000000
  0
VERTEX
  8
0
 10
79.000000
 20
284.000000
 42
0.000000
  0
VERTEX
  8
0
 10
79.000000
 20
308.000000
 42
0.000000
  0
VERTEX
  8
0
 10
79.000000
 20
332.000000
 42
0.000000
  0
VERTEX
  8
0
 10
210.500000
 20
332.000000
 42
0.000000
  0
VERTEX
  8
0
 10
342.000000
 20
332.000000
 42
0.000000
  0
SEQEND
  0
POLYLINE
  8
0
 66
1
 70
1
  0
VERTEX
  8
0
 10
434.591857
 20
733.148627
 42
0.199350
  0
VERTEX
  8
0
 10
434.539597
 20
732.824866
 42
0.264676
  0
VERTEX
  8
0
 10
434.739170
 20
732.611065
 42
0.106695
  0
VERTEX
  8
0
 10
435.245233
 20
732.565533
 42
0.033243
  0
VERTEX
  8
0
 10
435.998620
 20
732.709890
 42
-0.103936
  0
VERTEX
  8
0
 10
437.274945
 20
732.772033
 42
-0.271549
  0
VERTEX
  8
0
 10
437.957664
 20
732.209952
 42
-0.284590
  0
VERTEX
  8
0
 10
437.784457
 20
731.367703
 42
-0.107898
  0
VERTEX
  8
0
 10
436.750000
 20
730.662281
 42
0.009076
  0
VERTEX
  8
0
 10
436.090194
 20
730.382013
 42
0.295955
  0
VERTEX
  8
0
 10
436.000000
 20
730.242982
 42
0.382689
  0
VERTEX
  8
0
 10
436.096611
 20
730.135242
 42
0.011437
  0
VERTEX
  8
0
 10
436.750000
 20
730.078947
 42
-0.125130
  0
VERTEX
  8
0
 10
437.226950
 20
729.925094
 42
-0.093906
  0
VERTEX
  8
0
 10
437.632812
 20
729.548305
 42
-0.084174
  0
VERTEX
  8
0
 10
437.905951
 20
729.006998
 42
-0.074980
  0
VERTEX
  8
0
 10
438.000000
 20
728.383369
 42
-0.089569
  0
VERTEX
  8
0
 10
437.872075
 20
727.674986
 42
-0.191242
  0
VERTEX
  8
0
 10
437.505144
 20
727.269271
 42
-0.138658
  0
VERTEX
  8
0
 10
436.859399
 20
727.150381
 42
-0.040595
  0
VERTEX
  8
0
 10
435.855950
 20
727.327419
 42
0.014405
  0
VERTEX
  8
0
 10
434.856441
 20
727.558255
 42
0.163596
  0
VERTEX
  8
0
 10
434.459667
 20
727.507932
 42
0.456411
  0
VERTEX
  8
0
 10
434.399219
 20
727.284286
 42
0.048294
  0
VERTEX
  8
0
 10
434.788732
 20
726.811268
 42
0.155462
  0
VERTEX
  8
0
 10
436.240733
 20
726.060973
 42
0.223972
  0
VERTEX
  8
0
 10
437.611668
 20
726.443615
 42
0.156089
  0
VERTEX
  8
0
 10
438.538359
 20
727.960992
 42
0.080046
  0
VERTEX
  8
0
 10
438.715720
 20
730.206161
 42
0.084292
  0
VERTEX
  8
0
 10
438.189978
 20
732.272850
 42
0.134238
  0
VERTEX
  8
0
 10
437.044396
 20
733.677467
 42
0.212530
  0
VERTEX
  8
0
 10
435.717061
 20
733.947796
 42
0.202530
  0
SEQEND
  0
POLYLINE
  8
0
 66
1
 70
1
  0
VERTEX
  8
0
 10
442.000000
 20
733.000000
 42
0.027792
  0
VERTEX
  8
0
 10
441.450916
 20
732.600240
 42
0.145470
  0
VERTEX
  8
0
 10
441.243091
 20
732.294507
 42
0.377219
  0
VERTEX
  8
0
 10
441.329813
 20
732.096783
 42
0.106179
  0
VERTEX
  8
0
 10
441.686642
 20
732.015313
 42
-0.220225
  0
VERTEX
  8
0
 10
442.170822
 20
731.783553
 42
-0.059495
  0
VERTEX
  8
0
 10
442.643183
 20
731.049811
 42
-0.048532
  0
VERTEX
  8
0
 10
443.035349
 20
729.995627
 42
-0.033936
  0
VERTEX
  8
0
 10
443.276604
 20
728.750000
 42
0.002653
  0
VERTEX
  8
0
 10
443.524759
 20
726.833587
 42
0.719386
  0
VERTEX
  8
0
 10
443.637368
 20
726.811991
 42
0.118219
  0
VERTEX
  8
0
 10
443.736282
 20
727.158986
 42
0.001178
  0
VERTEX
  8
0
 10
443.839963
 20
729.750000
 42
0.005495
  0
VERTEX
  8
0
 10
443.883372
 20
731.378606
 42
0.009225
  0
VERTEX
  8
0
 10
443.879552
 20
732.747064
 42
0.003401
  0
VERTEX
  8
0
 10
443.847315
 20
733.896295
 42
0.421946
  0
VERTEX
  8
0
 10
443.750000
 20
733.984687
 42
0.107356
  0
VERTEX
  8
0
 10
443.590788
 20
733.939754
 42
0.005891
  0
VERTEX
  8
0
 10
443.132812
 20
733.689119
 42
0.008918
  0
VERTEX
  8
0
 10
442.592814
 20
733.372463
 42
0.006384
  0
SEQEND
  0
POLYLINE
  8
0
 66
1
 70
1
  0
VERTEX
  8
0
 10
439.149832
 20
720.804791
 42
-0.056773
  0
VERTEX
  8
0
 10
438.889414
 20
719.278178
 42
-0.184226
  0
VERTEX
  8
0
 10
438.280930
 20
718.472335
 42
-0.107244
  0
VERTEX
  8
0
 10
437.061789
 20
718.032822
 42
-0.013413
  0
VERTEX
  8
0
 10
434.250000
 20
717.735039
 42
0.000000
  0
VERTEX
  8
0
 10
429.500000
 20
717.360496
 42
0.000000
  0
VERTEX
  8
0
 10
434.125850
 20
717.180248
 42
0.000000
  0
VERTEX
  8
0
 10
438.751700
 20
717.000000
 42
0.000000
  0
VERTEX
  8
0
 10
438.929576
 20
671.279607
 42
0.000911
  0
VERTEX
  8
0
 10
439.029885
 20
653.717632
 42
0.001496
  0
VERTEX
  8
0
 10
439.186294
 20
638.858487
 42
0.000128
  0
VERTEX
  8
0
 10
439.369652
 20
625.548662
 42
0.195268
  0
VERTEX
  8
0
 10
439.553726
 20
625.112940
 42
0.663979
  0
VERTEX
  8
0
 10
439.736686
 20
625.187480
 42
0.000169
  0
VERTEX
  8
0
 10
439.868907
 20
636.890468
 42
0.001723
  0
VERTEX
  8
0
 10
439.967977
 20
650.078274
 42
0.001016
  0
VERTEX
  8
0
 10
440.000000
 20
665.833333
 42
-0.001583
  0
VERTEX
  8
0
 10
440.058150
 20
684.203749
 42
-0.004698
  0
VERTEX
  8
0
 10
440.256282
 20
696.801004
 42
-0.001301
  0
VERTEX
  8
0
 10
440.525424
 20
706.506188
 42
-0.405359
  0
VERTEX
  8
0
 10
441.034443
 20
707.000000
 42
0.327736
  0
VERTEX
  8
0
 10
441.438735
 20
707.296891
 42
0.056910
  0
VERTEX
  8
0
 10
441.629166
 20
708.285563
 42
0.037522
  0
VERTEX
  8
0
 10
441.631592
 20
709.823627
 42
0.014615
  0
VERTEX
  8
0
 10
441.413535
 20
711.940271
 42
0.000000
  0
VERTEX
  8
0
 10
440.758185
 20
716.880542
 42
0.000000
  0
VERTEX
  8
0
 10
445.629093
 20
717.260023
 42
0.000000
  0
VERTEX
  8
0
 10
450.500000
 20
717.639504
 42
0.000000
  0
VERTEX
  8
0
 10
445.316422
 20
717.819752
 42
-0.011537
  0
VERTEX
  8
0
 10
442.182145
 20
718.001215
 42
-0.100629
  0
VERTEX
  8
0
 10
440.849789
 20
718.386485
 42
-0.180472
  0
VERTEX
  8
0
 10
440.138294
 20
719.178926
 42
-0.056105
  0
VERTEX
  8
0
 10
439.716254
 20
720.750000
 42
0.000000
  0
VERTEX
  8
0
 10
439.299664
 20
723.500000
 42
0.000000
  0
SEQEND
  0
POLYLINE
  8
0
 66
1
 70
1
  0
VERTEX
  8
0
 10
47.187066
 20
700.267531
 42
0.000000
  0
VERTEX
  8
0
 10
51.874132
 20
699.895558
 42
0.000000
  0
VERTEX
  8
0
 10
51.966759
 20
599.251419
 42
0.000437
  0
VERTEX
  8
0
 10
52.036091
 20
560.627270
 42
0.000724
  0
VERTEX
  8
0
 10
52.170329
 20
528.033344
 42
0.000030
  0
VERTEX
  8
0
 10
52.335953
 20
498.600966
 42
0.197435
  0
VERTEX
  8
0
 10
52.529693
 20
498.136974
 42
0.666353
  0
VERTEX
  8
0
 10
52.723154
 20
498.216536
 42
0.000034
  0
VERTEX
  8
0
 10
52.861847
 20
526.036441
 42
0.000771
  0
VERTEX
  8
0
 10
52.966226
 20
556.953757
 42
0.000459
  0
VERTEX
  8
0
 10
53.000000
 20
593.774316
 42
-0.000738
  0
VERTEX
  8
0
 10
53.059803
 20
634.265746
 42
-0.001734
  0
VERTEX
  8
0
 10
53.254025
 20
664.510269
 42
-0.000178
  0
VERTEX
  8
0
 10
53.511950
 20
689.685812
 42
-0.257106
  0
VERTEX
  8
0
 10
53.956326
 20
690.473008
 42
0.100911
  0
VERTEX
  8
0
 10
54.293900
 20
690.790476
 42
0.075495
  0
VERTEX
  8
0
 10
54.523105
 20
691.248212
 42
0.072548
  0
VERTEX
  8
0
 10
54.612346
 20
691.772200
 42
0.079823
  0
VERTEX
  8
0
 10
54.542860
 20
692.282025
 42
-0.018044
  0
VERTEX
  8
0
 10
54.365131
 20
692.953685
 42
-0.004260
  0
VERTEX
  8
0
 10
54.118593
 20
694.087665
 42
-0.004380
  0
VERTEX
  8
0
 10
53.857538
 20
695.396995
 42
-0.004302
  0
VERTEX
  8
0
 10
53.617827
 20
696.718535
 42
0.000000
  0
VERTEX
  8
0
 10
53.062586
 20
699.937071
 42
0.000000
  0
VERTEX
  8
0
 10
64.781293
 20
700.253503
 42
0.002237
  0
VERTEX
  8
0
 10
69.510450
 20
700.402376
 42
0.950092
  0
VERTEX
  8
0
 10
69.511958
 20
700.501402
 42
0.015456
  0
VERTEX
  8
0
 10
67.333732
 20
700.578749
 42
0.000635
  0
VERTEX
  8
0
 10
59.500000
 20
700.604719
 42
0.001964
  0
VERTEX
  8
0
 10
53.268189
 20
700.592996
 42
0.005392
  0
VERTEX
  8
0
 10
48.870576
 20
700.520019
 42
0.021249
  0
VERTEX
  8
0
 10
47.184835
 20
700.402045
 42
0.908532
  0
SEQEND
  0
POLYLINE
  8
0
 66
1
 70
1
  0
VERTEX
  8
0
 10
454.717824
 20
665.305368
 42
0.092603
  0
VERTEX
  8
0
 10
454.543114
 20
664.815105
 42
0.016925
  0
VERTEX
  8
0
 10
454.423681
 20
663.855327
 42
0.017685
  0
VERTEX
  8
0
 10
454.360967
 20
662.707604
 42
0.015252
  0
VERTEX
  8
0
 10
454.374588
 20
661.500000
 42
0.032508
  0
VERTEX
  8
0
 10
454.532705
 20
660.024766
 42
0.111616
  0
VERTEX
  8
0
 10
454.900335
 20
659.140677
 42
0.155579
  0
VERTEX
  8
0
 10
455.532070
 20
658.664677
 42
0.084460
  0
VERTEX
  8
0
 10
456.500000
 20
658.500000
 42
0.087556
  0
VERTEX
  8
0
 10
457.501842
 20
658.676789
 42
0.176971
  0
VERTEX
  8
0
 10
458.106582
 20
659.185788
 42
0.107941
  0
VERTEX
  8
0
 10
458.417581
 20
660.170932
 42
0.022689
  0
VERTEX
  8
0
 10
458.500000
 20
661.986305
 42
0.028300
  0
VERTEX
  8
0
 10
458.408330
 20
663.604595
 42
0.074501
  0
VERTEX
  8
0
 10
458.108315
 20
664.723824
 42
0.112219
  0
VERTEX
  8
0
 10
457.589091
 20
665.429812
 42
0.131477
  0
VERTEX
  8
0
 10
456.843237
 20
665.791673
 42
0.048670
  0
VERTEX
  8
0
 10
456.174731
 20
665.854017
 42
0.055221
  0
VERTEX
  8
0
 10
455.535482
 20
665.780435
 42
0.063202
  0
VERTEX
  8
0
 10
455.017731
 20
665.590755
 42
0.142550
  0
SEQEND
  0
POLYLINE
  8
0
 66
1
 70
1
  0
VERTEX
  8
0
 10
458.000000
 20
664.000000
 42
-0.148195
  0
VERTEX
  8
0
 10
457.884432
 20
663.618646
 42
-0.098894
  0
VERTEX
  8
0
 10
457.559375
 20
663.293750
 42
-0.082425
  0
VERTEX
  8
0
 10
457.073457
 20
663.074694
 42
-0.064853
  0
VERTEX
  8
0
 10
456.500000
 20
663.000000
 42
-0.064853
  0
VERTEX
  8
0
 10
455.926543
 20
663.074694
 42
-0.082425
  0
VERTEX
  8
0
 10
455.440625
 20
663.293750
 42
-0.098894
  0
VERTEX
  8
0
 10
455.115568
 20
663.618646
 42
-0.148195
  0
VERTEX
  8
0
 10
455.000000
 20
664.000000
 42
-0.148195
  0
VERTEX
  8
0
 10
455.115568
 20
664.381354
 42
-0.098894
  0
VERTEX
  8
0
 10
455.440625
 20
664.706250
 42
-0.082425
  0
VERTEX
  8
0
 10
455.926543
 20
664.925306
 42
-0.064853
  0
VERTEX
  8
0
 10
456.500000
 20
665.000000
 42
-0.064853
  0
VERTEX
  8
0
 10
457.073457
 20
664.925306
 42
-0.082425
  0
VERTEX
  8
0
 10
457.559375
 20
664.706250
 42
-0.098894
  0
VERTEX
  8
0
 10
457.884432
 20
664.381354
 42
-0.148195
  0
SEQEND
  0
POLYLINE
  8
0
 66
1
 70
1
  0
VERTEX
  8
0
 10
458.000000
 20
660.500000
 42
-0.099038
  0
VERTEX
  8
0
 10
457.885486
 20
659.927543
 42
-0.097945
  0
VERTEX
  8
0
 10
457.559375
 20
659.440625
 42
-0.097945
  0
VERTEX
  8
0
 10
457.072457
 20
659.114514
 42
-0.099038
  0
VERTEX
  8
0
 10
456.500000
 20
659.000000
 42
-0.099038
  0
VERTEX
  8
0
 10
455.927543
 20
659.114514
 42
-0.097945
  0
VERTEX
  8
0
 10
455.440625
 20
659.440625
 42
-0.097945
  0
VERTEX
  8
0
 10
455.114514
 20
659.927543
 42
-0.099038
  0
VERTEX
  8
0
 10
455.000000
 20
660.500000
 42
-0.099038
  0
VERTEX
  8
0
 10
455.114514
 20
661.072457
 42
-0.097945
  0
VERTEX
  8
0
 10
455.440625
 20
661.559375
 42
-0.097945
  0
VERTEX
  8
0
 10
455.927543
 20
661.885486
 42
-0.099038
  0
VERTEX
  8
0
 10
456.500000
 20
662.000000
 42
-0.099038
  0
VERTEX
  8
0
 10
457.072457
 20
661.885486
 42
-0.097945
  0
VERTEX
  8
0
 10
457.559375
 20
661.559375
 42
-0.097945
  0
VERTEX
  8
0
 10
457.885486
 20
661.072457
 42
-0.099038
  0
SEQEND
  0
POLYLINE
  8
0
 66
1
 70
1
  0
VERTEX
  8
0
 10
427.000000
 20
621.000000
 42
0.027792
  0
VERTEX
  8
0
 10
426.450916
 20
620.600240
 42
0.145470
  0
VERTEX
  8
0
 10
426.243091
 20
620.294507
 42
0.377219
  0
VERTEX
  8
0
 10
426.329813
 20
620.096783
 42
0.106179
  0
VERTEX
  8
0
 10
426.686642
 20
620.015313
 42
-0.220225
  0
VERTEX
  8
0
 10
427.170822
 20
619.783553
 42
-0.059495
  0
VERTEX
  8
0
 10
427.643183
 20
619.049811
 42
-0.048532
  0
VERTEX
  8
0
 10
428.035349
 20
617.995627
 42
-0.033936
  0
VERTEX
  8
0
 10
428.276604
 20
616.750000
 42
0.002653
  0
VERTEX
  8
0
 10
428.524759
 20
614.833587
 42
0.719386
  0
VERTEX
  8
0
 10
428.637368
 20
614.811991
 42
0.118219
  0
VERTEX
  8
0
 10
428.736282
 20
615.158986
 42
0.001178
  0
VERTEX
  8
0
 10
428.839963
 20
617.750000
 42
0.005495
  0
VERTEX
  8
0
 10
428.883372
 20
619.378606
 42
0.009225
  0
VERTEX
  8
0
 10
428.879552
 20
620.747064
 42
0.003401
  0
VERTEX
  8
0
 10
428.847315
 20
621.896295
 42
0.421946
  0
VERTEX
  8
0
 10
428.750000
 20
621.984687
 42
0.107356
  0
VERTEX
  8
0
 10
428.590788
 20
621.939754
 42
0.005891
  0
VERTEX
  8
0
 10
428.132812
 20
621.689119
 42
0.008918
  0
VERTEX
  8
0
 10
427.592814
 20
621.372463
 42
0.006384
  0
SEQEND
  0
POLYLINE
  8
0
 66
1
 70
1
  0
VERTEX
  8
0
 10
431.380002
 20
620.547887
 42
0.100112
  0
VERTEX
  8
0
 10
431.159436
 20
619.238216
 42
0.130245
  0
VERTEX
  8
0
 10
431.507881
 20
618.077940
 42
0.137944
  0
VERTEX
  8
0
 10
432.363680
 20
617.287269
 42
0.118476
  0
VERTEX
  8
0
 10
433.559017
 20
617.000000
 42
-0.072426
  0
VERTEX
  8
0
 10
434.109663
 20
616.919818
 42
-0.087308
  0
VERTEX
  8
0
 10
434.576711
 20
616.686455
 42
-0.100468
  0
VERTEX
  8
0
 10
434.888941
 20
616.339653
 42
-0.133974
  0
VERTEX
  8
0
 10
435.000000
 20
615.932612
 42
-0.210954
  0
VERTEX
  8
0
 10
434.835379
 20
615.559794
 42
-0.139999
  0
VERTEX
  8
0
 10
434.410220
 20
615.348628
 42
-0.084065
  0
VERTEX
  8
0
 10
433.734463
 20
615.338451
 42
-0.038683
  0
VERTEX
  8
0
 10
432.874771
 20
615.539746
 42
0.021768
  0
VERTEX
  8
0
 10
431.944965
 20
615.790883
 42
0.128686
  0
VERTEX
  8
0
 10
431.445308
 20
615.773041
 42
0.359143
  0
VERTEX
  8
0
 10
431.287857
 20
615.537651
 42
0.113869
  0
VERTEX
  8
0
 10
431.433788
 20
615.107134
 42
0.152342
  0
VERTEX
  8
0
 10
432.483198
 20
614.196224
 42
0.174966
  0
VERTEX
  8
0
 10
433.801325
 20
614.108997
 42
0.135205
  0
VERTEX
  8
0
 10
435.132165
 20
614.923345
 42
0.081520
  0
VERTEX
  8
0
 10
436.168461
 20
616.470386
 42
0.032867
  0
VERTEX
  8
0
 10
436.654273
 20
617.753986
 42
0.083206
  0
VERTEX
  8
0
 10
436.783275
 20
618.740143
 42
0.100504
  0
VERTEX
  8
0
 10
436.576402
 20
619.599288
 42
0.064112
  0
VERTEX
  8
0
 10
436.024577
 20
620.470386
 42
0.085896
  0
VERTEX
  8
0
 10
434.758370
 20
621.551483
 42
0.130392
  0
VERTEX
  8
0
 10
433.373384
 20
621.943760
 42
0.160162
  0
VERTEX
  8
0
 10
432.173108
 20
621.571233
 42
0.147511
  0
SEQEND
  0
POLYLINE
  8
0
 66
1
 70
1
  0
VERTEX
  8
0
 10
435.457295
 20
620.069098
 42
-0.221146
  0
VERTEX
  8
0
 10
435.555025
 20
619.246757
 42
-0.174599
  0
VERTEX
  8
0
 10
434.997313
 20
618.532160
 42
-0.137965
  0
VERTEX
  8
0
 10
433.986908
 20
618.232649
 42
-0.142848
  0
VERTEX
  8
0
 10
432.983688
 20
618.510081
 42
-0.189436
  0
VERTEX
  8
0
 10
432.496365
 20
619.160814
 42
-0.165456
  0
VERTEX
  8
0
 10
432.547280
 20
620.014234
 42
-0.147302
  0
VERTEX
  8
0
 10
433.126679
 20
620.730681
 42
-0.150691
  0
VERTEX
  8
0
 10
434.000000
 20
621.000000
 42
-0.089140
  0
VERTEX
  8
0
 10
434.379855
 20
620.931737
 42
-0.053258
  0
VERTEX
  8
0
 10
434.791891
 20
620.726548
 42
-0.051122
  0
VERTEX
  8
0
 10
435.171806
 20
620.425183
 42
-0.061191
  0
SEQEND
  0
POLYLINE
  8
0
 66
1
 70
1
  0
VERTEX
  8
0
 10
439.748258
 20
619.738545
 42
0.010043
  0
VERTEX
  8
0
 10
438.408971
 20
617.602131
 42
0.113333
  0
VERTEX
  8
0
 10
438.102058
 20
616.657570
 42
0.342877
  0
VERTEX
  8
0
 10
438.415539
 20
616.170820
 42
0.084702
  0
VERTEX
  8
0
 10
439.416667
 20
616.000000
 42
-0.078134
  0
VERTEX
  8
0
 10
439.988092
 20
615.910156
 42
-0.068026
  0
VERTEX
  8
0
 10
440.534633
 20
615.647665
 42
-0.070303
  0
VERTEX
  8
0
 10
440.974229
 20
615.259016
 42
-0.096475
  0
VERTEX
  8
0
 10
441.233146
 20
614.800562
 42
0.439003
  0
VERTEX
  8
0
 10
441.710701
 20
614.586322
 42
0.252408
  0
VERTEX
  8
0
 10
442.146763
 20
615.135973
 42
0.050674
  0
VERTEX
  8
0
 10
442.303064
 20
617.218296
 42
0.040689
  0
VERTEX
  8
0
 10
442.061470
 20
619.453362
 42
0.000000
  0
VERTEX
  8
0
 10
441.496515
 20
622.406724
 42
0.000000
  0
SEQEND
  0
POLYLINE
  8
0
 66
1
 70
1
  0
VERTEX
  8
0
 10
441.000000
 20
618.000000
 42
-0.105053
  0
VERTEX
  8
0
 10
440.918938
 20
617.618444
 42
-0.099167
  0
VERTEX
  8
0
 10
440.688914
 20
617.293750
 42
-0.096420
  0
VERTEX
  8
0
 10
440.345238
 20
617.076123
 42
-0.093332
  0
VERTEX
  8
0
 10
439.940983
 20
617.000000
 42
-0.108972
  0
VERTEX
  8
0
 10
439.586039
 20
617.078288
 42
-0.182303
  0
VERTEX
  8
0
 10
439.374600
 20
617.293750
 42
-0.161196
  0
VERTEX
  8
0
 10
439.343488
 20
617.617900
 42
-0.082592
  0
VERTEX
  8
0
 10
439.500000
 20
618.000000
 42
-0.029505
  0
VERTEX
  8
0
 10
439.768994
 20
618.382774
 42
-0.035638
  0
VERTEX
  8
0
 10
440.066025
 20
618.706250
 42
-0.038439
  0
VERTEX
  8
0
 10
440.348290
 20
618.934461
 42
-0.151918
  0
VERTEX
  8
0
 10
440.559017
 20
619.000000
 42
-0.210953
  0
VERTEX
  8
0
 10
440.727648
 20
618.925540
 42
-0.081139
  0
VERTEX
  8
0
 10
440.870461
 20
618.706250
 42
-0.061769
  0
VERTEX
  8
0
 10
440.967655
 20
618.382849
 42
-0.042167
  0
SEQEND
  0
POLYLINE
  8
0
 66
1
 70
1
  0
VERTEX
  8
0
 10
448.000000
 20
620.116631
 42
0.098652
  0
VERTEX
  8
0
 10
448.154751
 20
619.339936
 42
0.079905
  0
VERTEX
  8
0
 10
448.601755
 20
618.615422
 42
0.075897
  0
VERTEX
  8
0
 10
449.279049
 20
618.036772
 42
0.075074
  0
VERTEX
  8
0
 10
450.100616
 20
617.683939
 42
-0.050531
  0
VERTEX
  8
0
 10
450.909910
 20
617.382314
 42
-0.107851
  0
VERTEX
  8
0
 10
451.429289
 20
616.968628
 42
-0.158005
  0
VERTEX
  8
0
 10
451.616247
 20
616.486468
 42
-0.153708
  0
VERTEX
  8
0
 10
451.487757
 20
615.980190
 42
-0.121842
  0
VERTEX
  8
0
 10
451.074334
 20
615.575494
 42
-0.071026
  0
VERTEX
  8
0
 10
450.429112
 20
615.309948
 42
-0.064140
  0
VERTEX
  8
0
 10
449.661048
 20
615.216935
 42
-0.062126
  0
VERTEX
  8
0
 10
448.885761
 20
615.319623
 42
0.035946
  0
VERTEX
  8
0
 10
448.197256
 20
615.447698
 42
0.103734
  0
VERTEX
  8
0
 10
447.716610
 20
615.402056
 42
0.249166
  0
VERTEX
  8
0
 10
447.518823
 20
615.202524
 42
0.214761
  0
VERTEX
  8
0
 10
447.557637
 20
614.906741
 42
0.237538
  0
VERTEX
  8
0
 10
448.941764
 20
614.056622
 42
0.151897
  0
VERTEX
  8
0
 10
450.823222
 20
614.471691
 42
0.142880
  0
VERTEX
  8
0
 10
452.213702
 20
615.910455
 42
0.215993
  0
VERTEX
  8
0
 10
452.314866
 20
617.621855
 42
0.080290
  0
VERTEX
  8
0
 10
452.008556
 20
618.148688
 42
0.065546
  0
VERTEX
  8
0
 10
451.532173
 20
618.595170
 42
0.066580
  0
VERTEX
  8
0
 10
450.965066
 20
618.897033
 42
0.089280
  0
VERTEX
  8
0
 10
450.393011
 20
619.000000
 42
-0.131291
  0
VERTEX
  8
0
 10
449.369023
 20
619.273597
 42
-0.309858
  0
VERTEX
  8
0
 10
449.043474
 20
619.951565
 42
-0.206657
  0
VERTEX
  8
0
 10
449.553398
 20
620.763356
 42
-0.086905
  0
VERTEX
  8
0
 10
450.750000
 20
621.310674
 42
0.011590
  0
VERTEX
  8
0
 10
451.588300
 20
621.550633
 42
0.541772
  0
VERTEX
  8
0
 10
451.628780
 20
621.693656
 42
0.197309
  0
VERTEX
  8
0
 10
451.392295
 20
621.812001
 42
0.005718
  0
VERTEX
  8
0
 10
450.250000
 20
621.883999
 42
0.052778
  0
VERTEX
  8
0
 10
449.224250
 20
621.828609
 42
0.127288
  0
VERTEX
  8
0
 10
448.533269
 20
621.526133
 42
0.147291
  0
VERTEX
  8
0
 10
448.136287
 20
620.961132
 42
0.080172
  0
SEQEND
  0
POLYLINE
  8
0
 66
1
 70
1
  0
VERTEX
  8
0
 10
439.024460
 20
567.000000
 42
0.000648
  0
VERTEX
  8
0
 10
438.868453
 20
550.759588
 42
0.000919
  0
VERTEX
  8
0
 10
438.774971
 20
536.311702
 42
0.000515
  0
VERTEX
  8
0
 10
438.731009
 20
524.104481
 42
0.013337
  0
VERTEX
  8
0
 10
438.810524
 20
520.805793
 42
0.000000
  0
VERTEX
  8
0
 10
439.049061
 20
516.111586
 42
0.000000
  0
VERTEX
  8
0
 10
434.274530
 20
515.736041
 42
0.000000
  0
VERTEX
  8
0
 10
429.500000
 20
515.360496
 42
0.000000
  0
VERTEX
  8
0
 10
434.141756
 20
515.180248
 42
0.000000
  0
VERTEX
  8
0
 10
438.783512
 20
515.000000
 42
0.000000
  0
VERTEX
  8
0
 10
438.939069
 20
469.786021
 42
0.000934
  0
VERTEX
  8
0
 10
439.031282
 20
452.417791
 42
0.001535
  0
VERTEX
  8
0
 10
439.181907
 20
437.720671
 42
0.000135
  0
VERTEX
  8
0
 10
439.360734
 20
424.561111
 42
0.195313
  0
VERTEX
  8
0
 10
439.547313
 20
424.119354
 42
0.663914
  0
VERTEX
  8
0
 10
439.732885
 20
424.194940
 42
0.000174
  0
VERTEX
  8
0
 10
439.867023
 20
435.892352
 42
0.001749
  0
VERTEX
  8
0
 10
439.967517
 20
449.078709
 42
0.001031
  0
VERTEX
  8
0
 10
440.000000
 20
464.833333
 42
-0.001695
  0
VERTEX
  8
0
 10
440.059671
 20
482.431150
 42
-0.004260
  0
VERTEX
  8
0
 10
440.255957
 20
495.257610
 42
-0.000948
  0
VERTEX
  8
0
 10
440.520787
 20
505.552451
 42
-0.406148
  0
VERTEX
  8
0
 10
440.980870
 20
506.000000
 42
0.333620
  0
VERTEX
  8
0
 10
441.345343
 20
506.273649
 42
0.050092
  0
VERTEX
  8
0
 10
441.522266
 20
507.231424
 42
0.037108
  0
VERTEX
  8
0
 10
441.534128
 20
508.646773
 42
0.017605
  0
VERTEX
  8
0
 10
441.350125
 20
510.462211
 42
0.000000
  0
VERTEX
  8
0
 10
440.738511
 20
514.924422
 42
0.000000
  0
VERTEX
  8
0
 10
450.619256
 20
515.252921
 42
0.000000
  0
VERTEX
  8
0
 10
460.500000
 20
515.581420
 42
0.000000
  0
VERTEX
  8
0
 10
450.379105
 20
515.790710
 42
0.000000
  0
VERTEX
  8
0
 10
440.258211
 20
516.000000
 42
0.000000
  0
VERTEX
  8
0
 10
441.134014
 20
520.687949
 42
0.016477
  0
VERTEX
  8
0
 10
441.445541
 20
522.725183
 42
0.035262
  0
VERTEX
  8
0
 10
441.522306
 20
524.313441
 42
0.045702
  0
VERTEX
  8
0
 10
441.392353
 20
525.453075
 42
0.205924
  0
VERTEX
  8
0
 10
441.016293
 20
525.989930
 42
-0.250716
  0
VERTEX
  8
0
 10
440.554227
 20
526.785984
 42
-0.001038
  0
VERTEX
  8
0
 10
440.213206
 20
537.263169
 42
-0.004176
  0
VERTEX
  8
0
 10
439.927003
 20
550.205257
 42
-0.001774
  0
VERTEX
  8
0
 10
439.749851
 20
567.551981
 42
0.000000
  0
VERTEX
  8
0
 10
439.476934
 20
608.500000
 42
0.000000
  0
SEQEND
  0
POLYLINE
  8
0
 66
1
 70
1
  0
VERTEX
  8
0
 10
21.127555
 20
519.656335
 42
0.026705
  0
VERTEX
  8
0
 10
20.590107
 20
518.932286
 42
0.109267
  0
VERTEX
  8
0
 10
20.394665
 20
518.424594
 42
0.269570
  0
VERTEX
  8
0
 10
20.512630
 20
518.126498
 42
0.168404
  0
VERTEX
  8
0
 10
20.877555
 20
518.000000
 42
-0.097630
  0
VERTEX
  8
0
 10
21.305946
 20
517.915547
 42
-0.097603
  0
VERTEX
  8
0
 10
21.670282
 20
517.674822
 42
-0.098269
  0
VERTEX
  8
0
 10
21.914253
 20
517.315458
 42
-0.100464
  0
VERTEX
  8
0
 10
22.000000
 20
516.893011
 42
-0.154099
  0
VERTEX
  8
0
 10
21.881585
 20
516.517917
 42
-0.152290
  0
VERTEX
  8
0
 10
21.568782
 20
516.276674
 42
-0.114223
  0
VERTEX
  8
0
 10
21.093585
 20
516.215885
 42
-0.066643
  0
VERTEX
  8
0
 10
20.532025
 20
516.349337
 42
0.066719
  0
VERTEX
  8
0
 10
19.926665
 20
516.493102
 42
0.072258
  0
VERTEX
  8
0
 10
19.321649
 20
516.466258
 42
0.081026
  0
VERTEX
  8
0
 10
18.809536
 20
516.279146
 42
0.126981
  0
VERTEX
  8
0
 10
18.473008
 20
515.956326
 42
0.203496
  0
VERTEX
  8
0
 10
18.417594
 20
515.594728
 42
0.181174
  0
VERTEX
  8
0
 10
18.635942
 20
515.280921
 42
0.103827
  0
VERTEX
  8
0
 10
19.142084
 20
515.068404
 42
0.047688
  0
VERTEX
  8
0
 10
19.857650
 20
515.000000
 42
-0.056656
  0
VERTEX
  8
0
 10
20.642933
 20
514.910731
 42
-0.060372
  0
VERTEX
  8
0
 10
21.370421
 20
514.647665
 42
-0.067749
  0
VERTEX
  8
0
 10
21.934282
 20
514.259529
 42
-0.128421
  0
VERTEX
  8
0
 10
22.233146
 20
513.800562
 42
0.437680
  0
VERTEX
  8
0
 10
22.709991
 20
513.585368
 42
0.253023
  0
VERTEX
  8
0
 10
23.146255
 20
514.131579
 42
0.051067
  0
VERTEX
  8
0
 10
23.304083
 20
516.197058
 42
0.041432
  0
VERTEX
  8
0
 10
23.063212
 20
518.406335
 42
0.011037
  0
VERTEX
  8
0
 10
22.692009
 20
520.118581
 42
0.192795
  0
VERTEX
  8
0
 10
22.369051
 20
520.574346
 42
0.347686
  0
VERTEX
  8
0
 10
21.942703
 20
520.533366
 42
0.028460
  0
SEQEND
  0
POLYLINE
  8
0
 66
1
 70
1
  0
VERTEX
  8
0
 10
25.666667
 20
520.333333
 42
0.126831
  0
VERTEX
  8
0
 10
25.038601
 20
519.268934
 42
0.166841
  0
VERTEX
  8
0
 10
25.094426
 20
518.150455
 42
0.169225
  0
VERTEX
  8
0
 10
25.822676
 20
517.313030
 42
0.130671
  0
VERTEX
  8
0
 10
27.000000
 20
517.000000
 42
-0.071826
  0
VERTEX
  8
0
 10
27.799197
 20
516.884599
 42
-0.098562
  0
VERTEX
  8
0
 10
28.440715
 20
516.547921
 42
-0.111008
  0
VERTEX
  8
0
 10
28.853008
 20
516.027405
 42
-0.112670
  0
VERTEX
  8
0
 10
29.000000
 20
515.383369
 42
-0.089569
  0
VERTEX
  8
0
 10
28.872075
 20
514.674986
 42
-0.191242
  0
VERTEX
  8
0
 10
28.505144
 20
514.269271
 42
-0.138658
  0
VERTEX
  8
0
 10
27.859399
 20
514.150381
 42
-0.040595
  0
VERTEX
  8
0
 10
26.855950
 20
514.327419
 42
0.014405
  0
VERTEX
  8
0
 10
25.856441
 20
514.558255
 42
0.163596
  0
VERTEX
  8
0
 10
25.459667
 20
514.507932
 42
0.456411
  0
VERTEX
  8
0
 10
25.399219
 20
514.284286
 42
0.048294
  0
VERTEX
  8
0
 10
25.788732
 20
513.811268
 42
0.161708
  0
VERTEX
  8
0
 10
27.000181
 20
513.203862
 42
0.135356
  0
VERTEX
  8
0
 10
28.433663
 20
513.383928
 42
0.135187
  0
VERTEX
  8
0
 10
29.573501
 20
514.273654
 42
0.161192
  0
VERTEX
  8
0
 10
30.000000
 20
515.562235
 42
0.112343
  0
VERTEX
  8
0
 10
29.849754
 20
516.222490
 42
0.075703
  0
VERTEX
  8
0
 10
29.412500
 20
516.863529
 42
0.070183
  0
VERTEX
  8
0
 10
28.764425
 20
517.388601
 42
0.071375
  0
VERTEX
  8
0
 10
28.000000
 20
517.710251
 42
-0.059083
  0
VERTEX
  8
0
 10
26.483927
 20
518.304928
 42
-0.302613
  0
VERTEX
  8
0
 10
26.078580
 20
519.062582
 42
-0.274516
  0
VERTEX
  8
0
 10
26.615019
 20
519.794807
 42
-0.053151
  0
VERTEX
  8
0
 10
28.250000
 20
520.294267
 42
0.001413
  0
VERTEX
  8
0
 10
29.733227
 20
520.584298
 42
0.279502
  0
VERTEX
  8
0
 10
29.840449
 20
520.682403
 42
0.477729
  0
VERTEX
  8
0
 10
29.779966
 20
520.769559
 42
0.001878
  0
VERTEX
  8
0
 10
28.416667
 20
520.863818
 42
0.030888
  0
VERTEX
  8
0
 10
27.570230
 20
520.866795
 42
0.033093
  0
VERTEX
  8
0
 10
26.749479
 20
520.764163
 42
0.035120
  0
VERTEX
  8
0
 10
26.063447
 20
520.581096
 42
0.114095
  0
SEQEND
  0
POLYLINE
  8
0
 66
1
 70
1
  0
VERTEX
  8
0
 10
33.000000
 20
520.000000
 42
0.027792
  0
VERTEX
  8
0
 10
32.450916
 20
519.600240
 42
0.145470
  0
VERTEX
  8
0
 10
32.243091
 20
519.294507
 42
0.377219
  0
VERTEX
  8
0
 10
32.329813
 20
519.096783
 42
0.106179
  0
VERTEX
  8
0
 10
32.686642
 20
519.015313
 42
-0.220225
  0
VERTEX
  8
0
 10
33.170822
 20
518.783553
 42
-0.059495
  0
VERTEX
  8
0
 10
33.643183
 20
518.049811
 42
-0.048532
  0
VERTEX
  8
0
 10
34.035349
 20
516.995627
 42
-0.033936
  0
VERTEX
  8
0
 10
34.276604
 20
515.750000
 42
0.002653
  0
VERTEX
  8
0
 10
34.524759
 20
513.833587
 42
0.719386
  0
VERTEX
  8
0
 10
34.637368
 20
513.811991
 42
0.118219
  0
VERTEX
  8
0
 10
34.736282
 20
514.158986
 42
0.001178
  0
VERTEX
  8
0
 10
34.839963
 20
516.750000
 42
0.005495
  0
VERTEX
  8
0
 10
34.883372
 20
518.378606
 42
0.009225
  0
VERTEX
  8
0
 10
34.879552
 20
519.747064
 42
0.003401
  0
VERTEX
  8
0
 10
34.847315
 20
520.896295
 42
0.421946
  0
VERTEX
  8
0
 10
34.750000
 20
520.984687
 42
0.107356
  0
VERTEX
  8
0
 10
34.590788
 20
520.939754
 42
0.005891
  0
VERTEX
  8
0
 10
34.132812
 20
520.689119
 42
0.008918
  0
VERTEX
  8
0
 10
33.592814
 20
520.372463
 42
0.006384
  0
SEQEND
  0
POLYLINE
  8
0
 66
1
 70
1
  0
VERTEX
  8
0
 10
26.048204
 20
400.000000
 42
0.000225
  0
VERTEX
  8
0
 10
25.895938
 20
358.490831
 42
0.000354
  0
VERTEX
  8
0
 10
25.806456
 20
322.846312
 42
0.000082
  0
VERTEX
  8
0
 10
25.755197
 20
291.579143
 42
0.014745
  0
VERTEX
  8
0
 10
25.846888
 20
288.306594
 42
0.000000
  0
VERTEX
  8
0
 10
26.088266
 20
284.113187
 42
0.000000
  0
VERTEX
  8
0
 10
21.294133
 20
283.736842
 42
0.944841
  0
VERTEX
  8
0
 10
21.297190
 20
283.595561
 42
0.004991
  0
VERTEX
  8
0
 10
25.692651
 20
283.485243
 42
0.002937
  0
VERTEX
  8
0
 10
33.146354
 20
283.416397
 42
0.001296
  0
VERTEX
  8
0
 10
43.000000
 20
283.408820
 42
0.000087
  0
VERTEX
  8
0
 10
59.630457
 20
283.442033
 42
0.014593
  0
VERTEX
  8
0
 10
61.435253
 20
283.498639
 42
0.963067
  0
VERTEX
  8
0
 10
61.433725
 20
283.565342
 42
0.000181
  0
VERTEX
  8
0
 10
48.616912
 20
283.749265
 42
0.000000
  0
VERTEX
  8
0
 10
27.733825
 20
284.041387
 42
0.000000
  0
VERTEX
  8
0
 10
28.347782
 20
288.520693
 42
0.017574
  0
VERTEX
  8
0
 10
28.532116
 20
290.338283
 42
0.036681
  0
VERTEX
  8
0
 10
28.521589
 20
291.760272
 42
0.048936
  0
VERTEX
  8
0
 10
28.347240
 20
292.726480
 42
0.335411
  0
VERTEX
  8
0
 10
27.985373
 20
293.000000
 42
-0.410676
  0
VERTEX
  8
0
 10
27.517274
 20
293.462472
 42
-0.000143
  0
VERTEX
  8
0
 10
27.194791
 20
320.777850
 42
-0.001639
  0
VERTEX
  8
0
 10
26.920130
 20
354.110248
 42
-0.000636
  0
VERTEX
  8
0
 10
26.749952
 20
400.250000
 42
0.000000
  0
VERTEX
  8
0
 10
26.490898
 20
507.500000
 42
0.000000
  0
SEQEND
  0
POLYLINE
  8
0
 66
1
 70
1
  0
VERTEX
  8
0
 10
45.591857
 20
494.148627
 42
0.199350
  0
VERTEX
  8
0
 10
45.539597
 20
493.824866
 42
0.264676
  0
VERTEX
  8
0
 10
45.739170
 20
493.611065
 42
0.106695
  0
VERTEX
  8
0
 10
46.245233
 20
493.565533
 42
0.033243
  0
VERTEX
  8
0
 10
46.998620
 20
493.709890
 42
-0.103936
  0
VERTEX
  8
0
 10
48.274945
 20
493.772033
 42
-0.271549
  0
VERTEX
  8
0
 10
48.957664
 20
493.209952
 42
-0.284590
  0
VERTEX
  8
0
 10
48.784457
 20
492.367703
 42
-0.107898
  0
VERTEX
  8
0
 10
47.750000
 20
491.662281
 42
0.009076
  0
VERTEX
  8
0
 10
47.090194
 20
491.382013
 42
0.295955
  0
VERTEX
  8
0
 10
47.000000
 20
491.242982
 42
0.382689
  0
VERTEX
  8
0
 10
47.096611
 20
491.135242
 42
0.011437
  0
VERTEX
  8
0
 10
47.750000
 20
491.078947
 42
-0.125130
  0
VERTEX
  8
0
 10
48.226950
 20
490.925094
 42
-0.093906
  0
VERTEX
  8
0
 10
48.632812
 20
490.548305
 42
-0.084174
  0
VERTEX
  8
0
 10
48.905951
 20
490.006998
 42
-0.074980
  0
VERTEX
  8
0
 10
49.000000
 20
489.383369
 42
-0.089569
  0
VERTEX
  8
0
 10
48.872075
 20
488.674986
 42
-0.191242
  0
VERTEX
  8
0
 10
48.505144
 20
488.269271
 42
-0.138658
  0
VERTEX
  8
0
 10
47.859399
 20
488.150381
 42
-0.040595
  0
VERTEX
  8
0
 10
46.855950
 20
488.327419
 42
0.014405
  0
VERTEX
  8
0
 10
45.856441
 20
488.558255
 42
0.163596
  0
VERTEX
  8
0
 10
45.459667
 20
488.507932
 42
0.456411
  0
VERTEX
  8
0
 10
45.399219
 20
488.284286
 42
0.048294
  0
VERTEX
  8
0
 10
45.788732
 20
487.811268
 42
0.155462
  0
VERTEX
  8
0
 10
47.240733
 20
487.060973
 42
0.223972
  0
VERTEX
  8
0
 10
48.611668
 20
487.443615
 42
0.156089
  0
VERTEX
  8
0
 10
49.538359
 20
488.960992
 42
0.080046
  0
VERTEX
  8
0
 10
49.715720
 20
491.206161
 42
0.084292
  0
VERTEX
  8
0
 10
49.189978
 20
493.272850
 42
0.134238
  0
VERTEX
  8
0
 10
48.044396
 20
494.677467
 42
0.212530
  0
VERTEX
  8
0
 10
46.717061
 20
494.947796
 42
0.202530
  0
SEQEND
  0
POLYLINE
  8
0
 66
1
 70
1
  0
VERTEX
  8
0
 10
51.666667
 20
494.333333
 42
0.126831
  0
VERTEX
  8
0
 10
51.038601
 20
493.268934
 42
0.166841
  0
VERTEX
  8
0
 10
51.094426
 20
492.150455
 42
0.169225
  0
VERTEX
  8
0
 10
51.822676
 20
491.313030
 42
0.130671
  0
VERTEX
  8
0
 10
53.000000
 20
491.000000
 42
-0.071826
  0
VERTEX
  8
0
 10
53.799197
 20
490.884599
 42
-0.098562
  0
VERTEX
  8
0
 10
54.440715
 20
490.547921
 42
-0.111008
  0
VERTEX
  8
0
 10
54.853008
 20
490.027405
 42
-0.112670
  0
VERTEX
  8
0
 10
55.000000
 20
489.383369
 42
-0.089569
  0
VERTEX
  8
0
 10
54.872075
 20
488.674986
 42
-0.191242
  0
VERTEX
  8
0
 10
54.505144
 20
488.269271
 42
-0.138658
  0
VERTEX
  8
0
 10
53.859399
 20
488.150381
 42
-0.040595
  0
VERTEX
  8
0
 10
52.855950
 20
488.327419
 42
0.014405
  0
VERTEX
  8
0
 10
51.856441
 20
488.558255
 42
0.163596
  0
VERTEX
  8
0
 10
51.459667
 20
488.507932
 42
0.456411
  0
VERTEX
  8
0
 10
51.399219
 20
488.284286
 42
0.048294
  0
VERTEX
  8
0
 10
51.788732
 20
487.811268
 42
0.161708
  0
VERTEX
  8
0
 10
53.000181
 20
487.203862
 42
0.135356
  0
VERTEX
  8
0
 10
54.433663
 20
487.383928
 42
0.135187
  0
VERTEX
  8
0
 10
55.573501
 20
488.273654
 42
0.161192
  0
VERTEX
  8
0
 10
56.000000
 20
489.562235
 42
0.112343
  0
VERTEX
  8
0
 10
55.849754
 20
490.222490
 42
0.075703
  0
VERTEX
  8
0
 10
55.412500
 20
490.863529
 42
0.070183
  0
VERTEX
  8
0
 10
54.764425
 20
491.388601
 42
0.071375
  0
VERTEX
  8
0
 10
54.000000
 20
491.710251
 42
-0.059083
  0
VERTEX
  8
0
 10
52.483927
 20
492.304928
 42
-0.302613
  0
VERTEX
  8
0
 10
52.078580
 20
493.062582
 42
-0.274516
  0
VERTEX
  8
0
 10
52.615019
 20
493.794807
 42
-0.053151
  0
VERTEX
  8
0
 10
54.250000
 20
494.294267
 42
0.001413
  0
VERTEX
  8
0
 10
55.733227
 20
494.584298
 42
0.279502
  0
VERTEX
  8
0
 10
55.840449
 20
494.682403
 42
0.477729
  0
VERTEX
  8
0
 10
55.779966
 20
494.769559
 42
0.001878
  0
VERTEX
  8
0
 10
54.416667
 20
494.863818
 42
0.030888
  0
VERTEX
  8
0
 10
53.570230
 20
494.866795
 42
0.033093
  0
VERTEX
  8
0
 10
52.749479
 20
494.764163
 42
0.035120
  0
VERTEX
  8
0
 10
52.063447
 20
494.581096
 42
0.114095
  0
SEQEND
  0
POLYLINE
  8
0
 66
1
 70
1
  0
VERTEX
  8
0
 10
58.010777
 20
493.512986
 42
0.145513
  0
VERTEX
  8
0
 10
57.238723
 20
491.705708
 42
0.100021
  0
VERTEX
  8
0
 10
57.428345
 20
489.471015
 42
0.111482
  0
VERTEX
  8
0
 10
58.429601
 20
487.664406
 42
0.213841
  0
VERTEX
  8
0
 10
59.912063
 20
487.000000
 42
0.143817
  0
VERTEX
  8
0
 10
61.226076
 20
487.385938
 42
0.111741
  0
VERTEX
  8
0
 10
62.275641
 20
488.453524
 42
0.115911
  0
VERTEX
  8
0
 10
62.738762
 20
489.834669
 42
0.163000
  0
VERTEX
  8
0
 10
62.444227
 20
491.090242
 42
0.121768
  0
VERTEX
  8
0
 10
62.087428
 20
491.439612
 42
0.047876
  0
VERTEX
  8
0
 10
61.459630
 20
491.732759
 42
0.043719
  0
VERTEX
  8
0
 10
60.688754
 20
491.932715
 42
0.041627
  0
VERTEX
  8
0
 10
59.881966
 20
492.000000
 42
-0.047757
  0
VERTEX
  8
0
 10
59.127908
 20
492.072187
 42
-0.121131
  0
VERTEX
  8
0
 10
58.631575
 20
492.301001
 42
-0.204154
  0
VERTEX
  8
0
 10
58.443696
 20
492.649065
 42
-0.162858
  0
VERTEX
  8
0
 10
58.542134
 20
493.068174
 42
-0.109884
  0
VERTEX
  8
0
 10
58.900093
 20
493.435515
 42
-0.081902
  0
VERTEX
  8
0
 10
59.419289
 20
493.664890
 42
-0.076891
  0
VERTEX
  8
0
 10
60.017004
 20
493.724310
 42
-0.078162
  0
VERTEX
  8
0
 10
60.601151
 20
493.599558
 42
0.060487
  0
VERTEX
  8
0
 10
61.136572
 20
493.465361
 42
0.106442
  0
VERTEX
  8
0
 10
61.589088
 20
493.504982
 42
0.150241
  0
VERTEX
  8
0
 10
61.886291
 20
493.707295
 42
0.170338
  0
VERTEX
  8
0
 10
62.000000
 20
494.031385
 42
0.275121
  0
VERTEX
  8
0
 10
61.565165
 20
494.761830
 42
0.157818
  0
VERTEX
  8
0
 10
60.524341
 20
494.955347
 42
0.100350
  0
VERTEX
  8
0
 10
59.161873
 20
494.489801
 42
0.087419
  0
SEQEND
  0
POLYLINE
  8
0
 66
1
 70
1
  0
VERTEX
  8
0
 10
61.457295
 20
490.069098
 42
-0.221146
  0
VERTEX
  8
0
 10
61.555025
 20
489.246757
 42
-0.174599
  0
VERTEX
  8
0
 10
60.997313
 20
488.532160
 42
-0.137965
  0
VERTEX
  8
0
 10
59.986908
 20
488.232649
 42
-0.142848
  0
VERTEX
  8
0
 10
58.983688
 20
488.510081
 42
-0.189436
  0
VERTEX
  8
0
 10
58.496365
 20
489.160814
 42
-0.165456
  0
VERTEX
  8
0
 10
58.547280
 20
490.014234
 42
-0.147302
  0
VERTEX
  8
0
 10
59.126679
 20
490.730681
 42
-0.150691
  0
VERTEX
  8
0
 10
60.000000
 20
491.000000
 42
-0.089140
  0
VERTEX
  8
0
 10
60.379855
 20
490.931737
 42
-0.053258
  0
VERTEX
  8
0
 10
60.791891
 20
490.726548
 42
-0.051122
  0
VERTEX
  8
0
 10
61.171806
 20
490.425183
 42
-0.061191
  0
SEQEND
  0
POLYLINE
  8
0
 66
1
 70
1
  0
VERTEX
  8
0
 10
52.027207
 20
411.500000
 42
0.000307
  0
VERTEX
  8
0
 10
51.865985
 20
384.368827
 42
0.000469
  0
VERTEX
  8
0
 10
51.762660
 20
360.830002
 42
0.000159
  0
VERTEX
  8
0
 10
51.698881
 20
340.479487
 42
0.012786
  0
VERTEX
  8
0
 10
51.771139
 20
337.304261
 42
0.000000
  0
VERTEX
  8
0
 10
51.974046
 20
333.108522
 42
0.000000
  0
VERTEX
  8
0
 10
47.237023
 20
332.734509
 42
0.907022
  0
VERTEX
  8
0
 10
47.234504
 20
332.599417
 42
0.022109
  0
VERTEX
  8
0
 10
48.885250
 20
332.480581
 42
0.005453
  0
VERTEX
  8
0
 10
53.270740
 20
332.407114
 42
0.001973
  0
VERTEX
  8
0
 10
59.500000
 20
332.395281
 42
0.000635
  0
VERTEX
  8
0
 10
67.333732
 20
332.421251
 42
0.015456
  0
VERTEX
  8
0
 10
69.511958
 20
332.498598
 42
0.950092
  0
VERTEX
  8
0
 10
69.510450
 20
332.597624
 42
0.002237
  0
VERTEX
  8
0
 10
64.781293
 20
332.746497
 42
0.000000
  0
VERTEX
  8
0
 10
53.062586
 20
333.062929
 42
0.000000
  0
VERTEX
  8
0
 10
53.617827
 20
336.281465
 42
-0.004476
  0
VERTEX
  8
0
 10
53.858440
 20
337.605357
 42
-0.004507
  0
VERTEX
  8
0
 10
54.122203
 20
338.921743
 42
-0.004402
  0
VERTEX
  8
0
 10
54.372484
 20
340.064744
 42
-0.018071
  0
VERTEX
  8
0
 10
54.555149
 20
340.750000
 42
0.071413
  0
VERTEX
  8
0
 10
54.629360
 20
341.227872
 42
0.111899
  0
VERTEX
  8
0
 10
54.542461
 20
341.632812
 42
0.140660
  0
VERTEX
  8
0
 10
54.310727
 20
341.900383
 42
0.145403
  0
VERTEX
  8
0
 10
53.975414
 20
342.000000
 42
-0.408726
  0
VERTEX
  8
0
 10
53.525468
 20
342.441578
 42
-0.000301
  0
VERTEX
  8
0
 10
53.198241
 20
360.448303
 42
-0.002434
  0
VERTEX
  8
0
 10
52.921012
 20
382.276611
 42
-0.001013
  0
VERTEX
  8
0
 10
52.749889
 20
411.750000
 42
0.000000
  0
VERTEX
  8
0
 10
52.486181
 20
481.500000
 42
0.000000
  0
SEQEND
  0
POLYLINE
  8
0
 66
1
 70
1
  0
VERTEX
  8
0
 10
427.000000
 20
421.000000
 42
0.027792
  0
VERTEX
  8
0
 10
426.450916
 20
420.600240
 42
0.145470
  0
VERTEX
  8
0
 10
426.243091
 20
420.294507
 42
0.377219
  0
VERTEX
  8
0
 10
426.329813
 20
420.096783
 42
0.106179
  0
VERTEX
  8
0
 10
426.686642
 20
420.015313
 42
-0.220225
  0
VERTEX
  8
0
 10
427.170822
 20
419.783553
 42
-0.059495
  0
VERTEX
  8
0
 10
427.643183
 20
419.049811
 42
-0.048532
  0
VERTEX
  8
0
 10
428.035349
 20
417.995627
 42
-0.033936
  0
VERTEX
  8
0
 10
428.276604
 20
416.750000
 42
0.002653
  0
VERTEX
  8
0
 10
428.524759
 20
414.833587
 42
0.719386
  0
VERTEX
  8
0
 10
428.637368
 20
414.811991
 42
0.118219
  0
VERTEX
  8
0
 10
428.736282
 20
415.158986
 42
0.001178
  0
VERTEX
  8
0
 10
428.839963
 20
417.750000
 42
0.005495
  0
VERTEX
  8
0
 10
428.883372
 20
419.378606
 42
0.009225
  0
VERTEX
  8
0
 10
428.879552
 20
420.747064
 42
0.003401
  0
VERTEX
  8
0
 10
428.847315
 20
421.896295
 42
0.421946
  0
VERTEX
  8
0
 10
428.750000
 20
421.984687
 42
0.107356
  0
VERTEX
  8
0
 10
428.590788
 20
421.939754
 42
0.005891
  0
VERTEX
  8
0
 10
428.132812
 20
421.689119
 42
0.008918
  0
VERTEX
  8
0
 10
427.592814
 20
421.372463
 42
0.006384
  0
SEQEND
  0
POLYLINE
  8
0
 66
1
 70
1
  0
VERTEX
  8
0
 10
431.380002
 20
420.547887
 42
0.100112
  0
VERTEX
  8
0
 10
431.159436
 20
419.238216
 42
0.130245
  0
VERTEX
  8
0
 10
431.507881
 20
418.077940
 42
0.137944
  0
VERTEX
  8
0
 10
432.363680
 20
417.287269
 42
0.118476
  0
VERTEX
  8
0
 10
433.559017
 20
417.000000
 42
-0.072426
  0
VERTEX
  8
0
 10
434.109663
 20
416.919818
 42
-0.087308
  0
VERTEX
  8
0
 10
434.576711
 20
416.686455
 42
-0.100468
  0
VERTEX
  8
0
 10
434.888941
 20
416.339653
 42
-0.133974
  0
VERTEX
  8
0
 10
435.000000
 20
415.932612
 42
-0.210954
  0
VERTEX
  8
0
 10
434.835379
 20
415.559794
 42
-0.139999
  0
VERTEX
  8
0
 10
434.410220
 20
415.348628
 42
-0.084065
  0
VERTEX
  8
0
 10
433.734463
 20
415.338451
 42
-0.038683
  0
VERTEX
  8
0
 10
432.874771
 20
415.539746
 42
0.021768
  0
VERTEX
  8
0
 10
431.944965
 20
415.790883
 42
0.128686
  0
VERTEX
  8
0
 10
431.445308
 20
415.773041
 42
0.359143
  0
VERTEX
  8
0
 10
431.287857
 20
415.537651
 42
0.113869
  0
VERTEX
  8
0
 10
431.433788
 20
415.107134
 42
0.152342
  0
VERTEX
  8
0
 10
432.483198
 20
414.196224
 42
0.174966
  0
VERTEX
  8
0
 10
433.801325
 20
414.108997
 42
0.135205
  0
VERTEX
  8
0
 10
435.132165
 20
414.923345
 42
0.081520
  0
VERTEX
  8
0
 10
436.168461
 20
416.470386
 42
0.032867
  0
VERTEX
  8
0
 10
436.654273
 20
417.753986
 42
0.083206
  0
VERTEX
  8
0
 10
436.783275
 20
418.740143
 42
0.100504
  0
VERTEX
  8
0
 10
436.576402
 20
419.599288
 42
0.064112
  0
VERTEX
  8
0
 10
436.024577
 20
420.470386
 42
0.085896
  0
VERTEX
  8
0
 10
434.758370
 20
421.551483
 42
0.130392
  0
VERTEX
  8
0
 10
433.373384
 20
421.943760
 42
0.160162
  0
VERTEX
  8
0
 10
432.173108
 20
421.571233
 42
0.147511
  0
SEQEND
  0
POLYLINE
  8
0
 66
1
 70
1
  0
VERTEX
  8
0
 10
435.457295
 20
420.069098
 42
-0.221146
  0
VERTEX
  8
0
 10
435.555025
 20
419.246757
 42
-0.174599
  0
VERTEX
  8
0
 10
434.997313
 20
418.532160
 42
-0.137965
  0
VERTEX
  8
0
 10
433.986908
 20
418.232649
 42
-0.142848
  0
VERTEX
  8
0
 10
432.983688
 20
418.510081
 42
-0.189436
  0
VERTEX
  8
0
 10
432.496365
 20
419.160814
 42
-0.165456
  0
VERTEX
  8
0
 10
432.547280
 20
420.014234
 42
-0.147302
  0
VERTEX
  8
0
 10
433.126679
 20
420.730681
 42
-0.150691
  0
VERTEX
  8
0
 10
434.000000
 20
421.000000
 42
-0.089140
  0
VERTEX
  8
0
 10
434.379855
 20
420.931737
 42
-0.053258
  0
VERTEX
  8
0
 10
434.791891
 20
420.726548
 42
-0.051122
  0
VERTEX
  8
0
 10
435.171806
 20
420.425183
 42
-0.061191
  0
SEQEND
  0
POLYLINE
  8
0
 66
1
 70
1
  0
VERTEX
  8
0
 10
439.748258
 20
419.738545
 42
0.010043
  0
VERTEX
  8
0
 10
438.408971
 20
417.602131
 42
0.113333
  0
VERTEX
  8
0
 10
438.102058
 20
416.657570
 42
0.342877
  0
VERTEX
  8
0
 10
438.415539
 20
416.170820
 42
0.084702
  0
VERTEX
  8
0
 10
439.416667
 20
416.000000
 42
-0.078134
  0
VERTEX
  8
0
 10
439.988092
 20
415.910156
 42
-0.068026
  0
VERTEX
  8
0
 10
440.534633
 20
415.647665
 42
-0.070303
  0
VERTEX
  8
0
 10
440.974229
 20
415.259016
 42
-0.096475
  0
VERTEX
  8
0
 10
441.233146
 20
414.800562
 42
0.439003
  0
VERTEX
  8
0
 10
441.710701
 20
414.586322
 42
0.252408
  0
VERTEX
  8
0
 10
442.146763
 20
415.135973
 42
0.050674
  0
VERTEX
  8
0
 10
442.303064
 20
417.218296
 42
0.040689
  0
VERTEX
  8
0
 10
442.061470
 20
419.453362
 42
0.000000
  0
VERTEX
  8
0
 10
441.496515
 20
422.406724
 42
0.000000
  0
SEQEND
  0
POLYLINE
  8
0
 66
1
 70
1
  0
VERTEX
  8
0
 10
441.000000
 20
418.000000
 42
-0.105053
  0
VERTEX
  8
0
 10
440.918938
 20
417.618444
 42
-0.099167
  0
VERTEX
  8
0
 10
440.688914
 20
417.293750
 42
-0.096420
  0
VERTEX
  8
0
 10
440.345238
 20
417.076123
 42
-0.093332
  0
VERTEX
  8
0
 10
439.940983
 20
417.000000
 42
-0.108972
  0
VERTEX
  8
0
 10
439.586039
 20
417.078288
 42
-0.182303
  0
VERTEX
  8
0
 10
439.374600
 20
417.293750
 42
-0.161196
  0
VERTEX
  8
0
 10
439.343488
 20
417.617900
 42
-0.082592
  0
VERTEX
  8
0
 10
439.500000
 20
418.000000
 42
-0.029505
  0
VERTEX
  8
0
 10
439.768994
 20
418.382774
 42
-0.035638
  0
VERTEX
  8
0
 10
440.066025
 20
418.706250
 42
-0.038439
  0
VERTEX
  8
0
 10
440.348290
 20
418.934461
 42
-0.151918
  0
VERTEX
  8
0
 10
440.559017
 20
419.000000
 42
-0.210953
  0
VERTEX
  8
0
 10
440.727648
 20
418.925540
 42
-0.081139
  0
VERTEX
  8
0
 10
440.870461
 20
418.706250
 42
-0.061769
  0
VERTEX
  8
0
 10
440.967655
 20
418.382849
 42
-0.042167
  0
SEQEND
  0
POLYLINE
  8
0
 66
1
 70
1
  0
VERTEX
  8
0
 10
448.000000
 20
420.116631
 42
0.098652
  0
VERTEX
  8
0
 10
448.154751
 20
419.339936
 42
0.079905
  0
VERTEX
  8
0
 10
448.601755
 20
418.615422
 42
0.075897
  0
VERTEX
  8
0
 10
449.279049
 20
418.036772
 42
0.075074
  0
VERTEX
  8
0
 10
450.100616
 20
417.683939
 42
-0.050531
  0
VERTEX
  8
0
 10
450.909910
 20
417.382314
 42
-0.107851
  0
VERTEX
  8
0
 10
451.429289
 20
416.968628
 42
-0.158005
  0
VERTEX
  8
0
 10
451.616247
 20
416.486468
 42
-0.153708
  0
VERTEX
  8
0
 10
451.487757
 20
415.980190
 42
-0.121842
  0
VERTEX
  8
0
 10
451.074334
 20
415.575494
 42
-0.071026
  0
VERTEX
  8
0
 10
450.429112
 20
415.309948
 42
-0.064140
  0
VERTEX
  8
0
 10
449.661048
 20
415.216935
 42
-0.062126
  0
VERTEX
  8
0
 10
448.885761
 20
415.319623
 42
0.035946
  0
VERTEX
  8
0
 10
448.197256
 20
415.447698
 42
0.103734
  0
VERTEX
  8
0
 10
447.716610
 20
415.402056
 42
0.249166
  0
VERTEX
  8
0
 10
447.518823
 20
415.202524
 42
0.214761
  0
VERTEX
  8
0
 10
447.557637
 20
414.906741
 42
0.237538
  0
VERTEX
  8
0
 10
448.941764
 20
414.056622
 42
0.151897
  0
VERTEX
  8
0
 10
450.823222
 20
414.471691
 42
0.142880
  0
VERTEX
  8
0
 10
452.213702
 20
415.910455
 42
0.215993
  0
VERTEX
  8
0
 10
452.314866
 20
417.621855
 42
0.080290
  0
VERTEX
  8
0
 10
452.008556
 20
418.148688
 42
0.065546
  0
VERTEX
  8
0
 10
451.532173
 20
418.595170
 42
0.066580
  0
VERTEX
  8
0
 10
450.965066
 20
418.897033
 42
0.089280
  0
VERTEX
  8
0
 10
450.393011
 20
419.000000
 42
-0.131291
  0
VERTEX
  8
0
 10
449.369023
 20
419.273597
 42
-0.309858
  0
VERTEX
  8
0
 10
449.043474
 20
419.951565
 42
-0.206657
  0
VERTEX
  8
0
 10
449.553398
 20
420.763356
 42
-0.086905
  0
VERTEX
  8
0
 10
450.750000
 20
421.310674
 42
0.011590
  0
VERTEX
  8
0
 10
451.588300
 20
421.550633
 42
0.541772
  0
VERTEX
  8
0
 10
451.628780
 20
421.693656
 42
0.197309
  0
VERTEX
  8
0
 10
451.392295
 20
421.812001
 42
0.005718
  0
VERTEX
  8
0
 10
450.250000
 20
421.883999
 42
0.052778
  0
VERTEX
  8
0
 10
449.224250
 20
421.828609
 42
0.127288
  0
VERTEX
  8
0
 10
448.533269
 20
421.526133
 42
0.147291
  0
VERTEX
  8
0
 10
448.136287
 20
420.961132
 42
0.080172
  0
SEQEND
  0
POLYLINE
  8
0
 66
1
 70
1
  0
VERTEX
  8
0
 10
439.011256
 20
366.000000
 42
0.000544
  0
VERTEX
  8
0
 10
438.846592
 20
349.759409
 42
0.000772
  0
VERTEX
  8
0
 10
438.738128
 20
335.310965
 42
0.000432
  0
VERTEX
  8
0
 10
438.675878
 20
323.102959
 42
0.011191
  0
VERTEX
  8
0
 10
438.735760
 20
319.803284
 42
0.000000
  0
VERTEX
  8
0
 10
438.926205
 20
315.106569
 42
0.000000
  0
VERTEX
  8
0
 10
434.213103
 20
314.733533
 42
0.000000
  0
VERTEX
  8
0
 10
429.500000
 20
314.360496
 42
0.000000
  0
VERTEX
  8
0
 10
434.192502
 20
314.180248
 42
0.000000
  0
VERTEX
  8
0
 10
438.885004
 20
314.000000
 42
0.000000
  0
VERTEX
  8
0
 10
439.267795
 20
309.750000
 42
0.000000
  0
VERTEX
  8
0
 10
439.650586
 20
305.500000
 42
0.000000
  0
VERTEX
  8
0
 10
439.825293
 20
309.750000
 42
0.000000
  0
VERTEX
  8
0
 10
440.000000
 20
314.000000
 42
0.000000
  0
VERTEX
  8
0
 10
450.250000
 20
314.209290
 42
0.000000
  0
VERTEX
  8
0
 10
460.500000
 20
314.418580
 42
0.000000
  0
VERTEX
  8
0
 10
450.626171
 20
314.746995
 42
0.000000
  0
VERTEX
  8
0
 10
440.752342
 20
315.075411
 42
0.000000
  0
VERTEX
  8
0
 10
441.410614
 20
320.037706
 42
0.014659
  0
VERTEX
  8
0
 10
441.627993
 20
322.149637
 42
0.036689
  0
VERTEX
  8
0
 10
441.627849
 20
323.698545
 42
0.054201
  0
VERTEX
  8
0
 10
441.443134
 20
324.703734
 42
0.331602
  0
VERTEX
  8
0
 10
441.045536
 20
325.000000
 42
-0.403666
  0
VERTEX
  8
0
 10
440.546285
 20
325.481524
 42
-0.001185
  0
VERTEX
  8
0
 10
440.211379
 20
335.393771
 42
-0.004574
  0
VERTEX
  8
0
 10
439.928682
 20
348.093257
 42
-0.001626
  0
VERTEX
  8
0
 10
439.749692
 20
366.250000
 42
0.000000
  0
VERTEX
  8
0
 10
439.477198
 20
407.500000
 42
0.000000
  0
SEQEND
  0
POLYLINE
  8
0
 66
1
 70
1
  0
VERTEX
  8
0
 10
434.591857
 20
302.148627
 42
0.199350
  0
VERTEX
  8
0
 10
434.539597
 20
301.824866
 42
0.264676
  0
VERTEX
  8
0
 10
434.739170
 20
301.611065
 42
0.106695
  0
VERTEX
  8
0
 10
435.245233
 20
301.565533
 42
0.033243
  0
VERTEX
  8
0
 10
435.998620
 20
301.709890
 42
-0.103936
  0
VERTEX
  8
0
 10
437.274945
 20
301.772033
 42
-0.271549
  0
VERTEX
  8
0
 10
437.957664
 20
301.209952
 42
-0.284590
  0
VERTEX
  8
0
 10
437.784457
 20
300.367703
 42
-0.107898
  0
VERTEX
  8
0
 10
436.750000
 20
299.662281
 42
0.009076
  0
VERTEX
  8
0
 10
436.090194
 20
299.382013
 42
0.295955
  0
VERTEX
  8
0
 10
436.000000
 20
299.242982
 42
0.382689
  0
VERTEX
  8
0
 10
436.096611
 20
299.135242
 42
0.011437
  0
VERTEX
  8
0
 10
436.750000
 20
299.078947
 42
-0.125130
  0
VERTEX
  8
0
 10
437.226950
 20
298.925094
 42
-0.093906
  0
VERTEX
  8
0
 10
437.632812
 20
298.548305
 42
-0.084174
  0
VERTEX
  8
0
 10
437.905951
 20
298.006998
 42
-0.074980
  0
VERTEX
  8
0
 10
438.000000
 20
297.383369
 42
-0.089569
  0
VERTEX
  8
0
 10
437.872075
 20
296.674986
 42
-0.191242
  0
VERTEX
  8
0
 10
437.505144
 20
296.269271
 42
-0.138658
  0
VERTEX
  8
0
 10
436.859399
 20
296.150381
 42
-0.040595
  0
VERTEX
  8
0
 10
435.855950
 20
296.327419
 42
0.014405
  0
VERTEX
  8
0
 10
434.856441
 20
296.558255
 42
0.163596
  0
VERTEX
  8
0
 10
434.459667
 20
296.507932
 42
0.456411
  0
VERTEX
  8
0
 10
434.399219
 20
296.284286
 42
0.048294
  0
VERTEX
  8
0
 10
434.788732
 20
295.811268
 42
0.155462
  0
VERTEX
  8
0
 10
436.240733
 20
295.060973
 42
0.223972
  0
VERTEX
  8
0
 10
437.611668
 20
295.443615
 42
0.156089
  0
VERTEX
  8
0
 10
438.538359
 20
296.960992
 42
0.080046
  0
VERTEX
  8
0
 10
438.715720
 20
299.206161
 42
0.084292
  0
VERTEX
  8
0
 10
438.189978
 20
301.272850
 42
0.134238
  0
VERTEX
  8
0
 10
437.044396
 20
302.677467
 42
0.212530
  0
VERTEX
  8
0
 10
435.717061
 20
302.947796
 42
0.202530
  0
SEQEND
  0
POLYLINE
  8
0
 66
1
 70
1
  0
VERTEX
  8
0
 10
442.000000
 20
302.000000
 42
0.027792
  0
VERTEX
  8
0
 10
441.450916
 20
301.600240
 42
0.145470
  0
VERTEX
  8
0
 10
441.243091
 20
301.294507
 42
0.377219
  0
VERTEX
  8
0
 10
441.329813
 20
301.096783
 42
0.106179
  0
VERTEX
  8
0
 10
441.686642
 20
301.015313
 42
-0.220225
  0
VERTEX
  8
0
 10
442.170822
 20
300.783553
 42
-0.059495
  0
VERTEX
  8
0
 10
442.643183
 20
300.049811
 42
-0.048532
  0
VERTEX
  8
0
 10
443.035349
 20
298.995627
 42
-0.033936
  0
VERTEX
  8
0
 10
443.276604
 20
297.750000
 42
0.002653
  0
VERTEX
  8
0
 10
443.524759
 20
295.833587
 42
0.719386
  0
VERTEX
  8
0
 10
443.637368
 20
295.811991
 42
0.118219
  0
VERTEX
  8
0
 10
443.736282
 20
296.158986
 42
0.001178
  0
VERTEX
  8
0
 10
443.839963
 20
298.750000
 42
0.005495
  0
VERTEX
  8
0
 10
443.883372
 20
300.378606
 42
0.009225
  0
VERTEX
  8
0
 10
443.879552
 20
301.747064
 42
0.003401
  0
VERTEX
  8
0
 10
443.847315
 20
302.896295
 42
0.421946
  0
VERTEX
  8
0
 10
443.750000
 20
302.984687
 42
0.107356
  0
VERTEX
  8
0
 10
443.590788
 20
302.939754
 42
0.005891
  0
VERTEX
  8
0
 10
443.132812
 20
302.689119
 42
0.008918
  0
VERTEX
  8
0
 10
442.592814
 20
302.372463
 42
0.006384
  0
SEQEND
  0
POLYLINE
  8
0
 66
1
 70
1
  0
VERTEX
  8
0
 10
462.229454
 20
292.250000
 42
0.000000
  0
VERTEX
  8
0
 10
462.000000
 20
283.000000
 42
0.000000
  0
VERTEX
  8
0
 10
451.052260
 20
283.000000
 42
0.000000
  0
VERTEX
  8
0
 10
440.104519
 20
283.000000
 42
0.000000
  0
VERTEX
  8
0
 10
439.737242
 20
288.250000
 42
0.000000
  0
VERTEX
  8
0
 10
439.369965
 20
293.500000
 42
0.000000
  0
VERTEX
  8
0
 10
439.184982
 20
288.304791
 42
0.000000
  0
VERTEX
  8
0
 10
439.000000
 20
283.109582
 42
0.000000
  0
VERTEX
  8
0
 10
434.250000
 20
282.735039
 42
0.000000
  0
VERTEX
  8
0
 10
429.500000
 20
282.360496
 42
0.000000
  0
VERTEX
  8
0
 10
434.377808
 20
282.180248
 42
0.000000
  0
VERTEX
  8
0
 10
439.255616
 20
282.000000
 42
0.000000
  0
VERTEX
  8
0
 10
438.679287
 20
278.250000
 42
0.029147
  0
VERTEX
  8
0
 10
438.519561
 20
276.559703
 42
0.018287
  0
VERTEX
  8
0
 10
438.520814
 20
274.573438
 42
0.018345
  0
VERTEX
  8
0
 10
438.666041
 20
272.611469
 42
0.031670
  0
VERTEX
  8
0
 10
438.949118
 20
271.000000
 42
0.001813
  0
VERTEX
  8
0
 10
439.497370
 20
268.767714
 42
0.165817
  0
VERTEX
  8
0
 10
439.677655
 20
268.488357
 42
0.608303
  0
VERTEX
  8
0
 10
439.820327
 20
268.552748
 42
0.004157
  0
VERTEX
  8
0
 10
439.897639
 20
270.250000
 42
-0.033801
  0
VERTEX
  8
0
 10
440.008407
 20
271.303266
 42
-0.050764
  0
VERTEX
  8
0
 10
440.258062
 20
272.192187
 42
-0.064811
  0
VERTEX
  8
0
 10
440.597031
 20
272.805825
 42
-0.238545
  0
VERTEX
  8
0
 10
440.980870
 20
273.000000
 42
0.334498
  0
VERTEX
  8
0
 10
441.345858
 20
273.274939
 42
0.049759
  0
VERTEX
  8
0
 10
441.521588
 20
274.239736
 42
0.036869
  0
VERTEX
  8
0
 10
441.531610
 20
275.666326
 42
0.017386
  0
VERTEX
  8
0
 10
441.344946
 20
277.500000
 42
0.000000
  0
VERTEX
  8
0
 10
440.728152
 20
282.000000
 42
0.000000
  0
VERTEX
  8
0
 10
451.364076
 20
282.000000
 42
0.000000
  0
VERTEX
  8
0
 10
462.000000
 20
282.000000
 42
0.000000
  0
VERTEX
  8
0
 10
462.000000
 20
269.980948
 42
0.000000
  0
VERTEX
  8
0
 10
462.000000
 20
257.961896
 42
0.000000
  0
VERTEX
  8
0
 10
459.250000
 20
258.573893
 42
-0.002503
  0
VERTEX
  8
0
 10
458.068966
 20
258.842938
 42
-0.001977
  0
VERTEX
  8
0
 10
456.793750
 20
259.145483
 42
-0.001998
  0
VERTEX
  8
0
 10
455.611996
 20
259.435799
 42
-0.004964
  0
VERTEX
  8
0
 10
454.750000
 20
259.660333
 42
0.056096
  0
VERTEX
  8
0
 10
454.080174
 20
259.763398
 42
0.092080
  0
VERTEX
  8
0
 10
453.514063
 20
259.681863
 42
0.129303
  0
VERTEX
  8
0
 10
453.140418
 20
259.434993
 42
0.184489
  0
VERTEX
  8
0
 10
453.000000
 20
259.067388
 42
-0.195063
  0
VERTEX
  8
0
 10
452.831904
 20
258.652906
 42
-0.081819
  0
VERTEX
  8
0
 10
452.339063
 20
258.288297
 42
-0.063691
  0
VERTEX
  8
0
 10
451.611175
 20
258.025511
 42
-0.045298
  0
VERTEX
  8
0
 10
450.750000
 20
257.914047
 42
0.011653
  0
VERTEX
  8
0
 10
449.564419
 20
257.841056
 42
0.586922
  0
VERTEX
  8
0
 10
449.487029
 20
257.669835
 42
0.155633
  0
VERTEX
  8
0
 10
449.806726
 20
257.439169
 42
0.004079
  0
VERTEX
  8
0
 10
451.500000
 20
256.900360
 42
0.041323
  0
VERTEX
  8
0
 10
452.918185
 20
256.587219
 42
0.021613
  0
VERTEX
  8
0
 10
454.720312
 20
256.421864
 42
0.021345
  0
VERTEX
  8
0
 10
456.594998
 20
256.411371
 42
0.030505
  0
VERTEX
  8
0
 10
458.250000
 20
256.574211
 42
0.000000
  0
VERTEX
  8
0
 10
462.000000
 20
257.175796
 42
0.000000
  0
VERTEX
  8
0
 10
462.180248
 20
239.337898
 42
0.002147
  0
VERTEX
  8
0
 10
462.274649
 20
232.781630
 42
0.005659
  0
VERTEX
  8
0
 10
462.415582
 20
228.086514
 42
0.018648
  0
VERTEX
  8
0
 10
462.573536
 20
226.081504
 42
0.906523
  0
VERTEX
  8
0
 10
462.728271
 20
226.084278
 42
0.000000
  0
VERTEX
  8
0
 10
463.096046
 20
230.668557
 42
0.000000
  0
VERTEX
  8
0
 10
481.261888
 20
230.881476
 42
0.002305
  0
VERTEX
  8
0
 10
488.258568
 20
230.995741
 42
0.003700
  0
VERTEX
  8
0
 10
494.224524
 20
231.164861
 42
0.000786
  0
VERTEX
  8
0
 10
499.452373
 20
231.360016
 42
0.188826
  0
VERTEX
  8
0
 10
499.880531
 20
231.547198
 42
0.653967
  0
VERTEX
  8
0
 10
499.808755
 20
231.730661
 42
0.001588
  0
VERTEX
  8
0
 10
496.063344
 20
231.866989
 42
0.005285
  0
VERTEX
  8
0
 10
491.619612
 20
231.967601
 42
0.003017
  0
VERTEX
  8
0
 10
486.250000
 20
232.000000
 42
-0.006114
  0
VERTEX
  8
0
 10
480.827090
 20
232.066315
 42
-0.009814
  0
VERTEX
  8
0
 10
476.205729
 20
232.270173
 42
-0.004029
  0
VERTEX
  8
0
 10
472.318725
 20
232.549618
 42
-0.293864
  0
VERTEX
  8
0
 10
471.833333
 20
232.919736
 42
0.265997
  0
VERTEX
  8
0
 10
471.450252
 20
233.244465
 42
0.038495
  0
VERTEX
  8
0
 10
470.392434
 20
233.357272
 42
0.033752
  0
VERTEX
  8
0
 10
468.961935
 20
233.302615
 42
0.019274
  0
VERTEX
  8
0
 10
467.250000
 20
233.054010
 42
0.000000
  0
VERTEX
  8
0
 10
463.000000
 20
232.268548
 42
0.000000
  0
VERTEX
  8
0
 10
463.000000
 20
244.634274
 42
-0.006822
  0
VERTEX
  8
0
 10
463.065514
 20
249.436004
 42
-0.011879
  0
VERTEX
  8
0
 10
463.268735
 20
253.413956
 42
-0.005694
  0
VERTEX
  8
0
 10
463.548977
 20
256.657467
 42
-0.385915
  0
VERTEX
  8
0
 10
463.926676
 20
257.000000
 42
-0.159836
  0
VERTEX
  8
0
 10
464.314950
 20
256.872626
 42
-0.067019
  0
VERTEX
  8
0
 10
464.715479
 20
256.485937
 42
-0.056820
  0
VERTEX
  8
0
 10
465.067143
 20
255.919531
 42
-0.046657
  0
VERTEX
  8
0
 10
465.310674
 20
255.250000
 42
0.002213
  0
VERTEX
  8
0
 10
465.615296
 20
254.105065
 42
0.326612
  0
VERTEX
  8
0
 10
465.716524
 20
254.024047
 42
0.404368
  0
VERTEX
  8
0
 10
465.802624
 20
254.100320
 42
0.002541
  0
VERTEX
  8
0
 10
465.883999
 20
255.225000
 42
-0.102286
  0
VERTEX
  8
0
 10
466.112868
 20
256.048729
 42
-0.193131
  0
VERTEX
  8
0
 10
466.625744
 20
256.493464
 42
-0.105606
  0
VERTEX
  8
0
 10
467.561311
 20
256.608518
 42
-0.020759
  0
VERTEX
  8
0
 10
469.250000
 20
256.388466
 42
-0.004254
  0
VERTEX
  8
0
 10
470.583585
 20
256.146346
 42
-0.004349
  0
VERTEX
  8
0
 10
471.903093
 20
255.883256
 42
-0.004222
  0
VERTEX
  8
0
 10
473.044812
 20
255.635192
 42
-0.018096
  0
VERTEX
  8
0
 10
473.717975
 20
255.457140
 42
0.080034
  0
VERTEX
  8
0
 10
474.227922
 20
255.387855
 42
0.072600
  0
VERTEX
  8
0
 10
474.752263
 20
255.477663
 42
0.075484
  0
VERTEX
  8
0
 10
475.210521
 20
255.707716
 42
0.100657
  0
VERTEX
  8
0
 10
475.528607
 20
256.046287
 42
-0.233864
  0
VERTEX
  8
0
 10
476.137749
 20
256.426283
 42
-0.008409
  0
VERTEX
  8
0
 10
478.955497
 20
256.656337
 42
-0.013676
  0
VERTEX
  8
0
 10
482.428441
 20
256.785924
 42
-0.008442
  0
VERTEX
  8
0
 10
486.515849
 20
256.757564
 42
0.000000
  0
VERTEX
  8
0
 10
496.910434
 20
256.509902
 42
0.000000
  0
VERTEX
  8
0
 10
497.274969
 20
252.004951
 42
0.000000
  0
VERTEX
  8
0
 10
497.639504
 20
247.500000
 42
0.000000
  0
VERTEX
  8
0
 10
497.819752
 20
252.178162
 42
0.000000
  0
VERTEX
  8
0
 10
498.000000
 20
256.856324
 42
0.000000
  0
VERTEX
  8
0
 10
532.000000
 20
256.821932
 42
0.000000
  0
VERTEX
  8
0
 10
566.000000
 20
256.787539
 42
0.000000
  0
VERTEX
  8
0
 10
566.000000
 20
244.757846
 42
0.000000
  0
VERTEX
  8
0
 10
566.000000
 20
232.728152
 42
0.000000
  0
VERTEX
  8
0
 10
561.500000
 20
233.344946
 42
0.017386
  0
VERTEX
  8
0
 10
559.666326
 20
233.531610
 42
0.036869
  0
VERTEX
  8
0
 10
558.239736
 20
233.521588
 42
0.049759
  0
VERTEX
  8
0
 10
557.274939
 20
233.345858
 42
0.334498
  0
VERTEX
  8
0
 10
557.000000
 20
232.980870
 42
-0.386681
  0
VERTEX
  8
0
 10
556.610624
 20
232.552666
 42
-0.006446
  0
VERTEX
  8
0
 10
553.139259
 20
232.267309
 42
-0.011826
  0
VERTEX
  8
0
 10
548.663387
 20
232.063623
 42
-0.005456
  0
VERTEX
  8
0
 10
542.833333
 20
232.000000
 42
0.002899
  0
VERTEX
  8
0
 10
537.430750
 20
231.968678
 42
0.005069
  0
VERTEX
  8
0
 10
532.956693
 20
231.871432
 42
0.001460
  0
VERTEX
  8
0
 10
529.173959
 20
231.739779
 42
0.654627
  0
VERTEX
  8
0
 10
529.104344
 20
231.562323
 42
0.188357
  0
VERTEX
  8
0
 10
529.518934
 20
231.380625
 42
0.000733
  0
VERTEX
  8
0
 10
534.754566
 20
231.175122
 42
0.003567
  0
VERTEX
  8
0
 10
540.722502
 20
230.992264
 42
0.002219
  0
VERTEX
  8
0
 10
547.724531
 20
230.858804
 42
0.000000
  0
VERTEX
  8
0
 10
565.907041
 20
230.592963
 42
0.000000
  0
VERTEX
  8
0
 10
566.273272
 20
226.046481
 42
0.948358
  0
VERTEX
  8
0
 10
566.413551
 20
226.050323
 42
0.003149
  0
VERTEX
  8
0
 10
566.521705
 20
231.648029
 42
0.002418
  0
VERTEX
  8
0
 10
566.592453
 20
240.291921
 42
0.001127
  0
VERTEX
  8
0
 10
566.604719
 20
251.500000
 42
0.000975
  0
VERTEX
  8
0
 10
566.570986
 20
262.348440
 42
0.003496
  0
VERTEX
  8
0
 10
566.487477
 20
269.277020
 42
0.081212
  0
VERTEX
  8
0
 10
566.371828
 20
269.908560
 42
0.830072
  0
VERTEX
  8
0
 10
566.254442
 20
269.889856
 42
0.000000
  0
VERTEX
  8
0
 10
565.938949
 20
258.279712
 42
0.000000
  0
VERTEX
  8
0
 10
561.719475
 20
259.059592
 42
0.019497
  0
VERTEX
  8
0
 10
560.022601
 20
259.305258
 42
0.033887
  0
VERTEX
  8
0
 10
558.601026
 20
259.357935
 42
0.038600
  0
VERTEX
  8
0
 10
557.548423
 20
259.243947
 42
0.265503
  0
VERTEX
  8
0
 10
557.166667
 20
258.919736
 42
-0.315098
  0
VERTEX
  8
0
 10
555.870549
 20
258.008836
 42
-0.000768
  0
VERTEX
  8
0
 10
531.911434
 20
257.995396
 42
-0.000723
  0
VERTEX
  8
0
 10
507.911578
 20
258.053504
 42
-0.413081
  0
VERTEX
  8
0
 10
507.000000
 20
258.968615
 42
0.144235
  0
VERTEX
  8
0
 10
506.900444
 20
259.306552
 42
0.140687
  0
VERTEX
  8
0
 10
506.632812
 20
259.540463
 42
0.112452
  0
VERTEX
  8
0
 10
506.227848
 20
259.628798
 42
0.071986
  0
VERTEX
  8
0
 10
505.750000
 20
259.555149
 42
-0.018071
  0
VERTEX
  8
0
 10
505.064744
 20
259.372484
 42
-0.004402
  0
VERTEX
  8
0
 10
503.921743
 20
259.122203
 42
-0.004507
  0
VERTEX
  8
0
 10
502.605357
 20
258.858440
 42
-0.004476
  0
VERTEX
  8
0
 10
501.281465
 20
258.617827
 42
0.000000
  0
VERTEX
  8
0
 10
498.062929
 20
258.062586
 42
0.000000
  0
VERTEX
  8
0
 10
497.746497
 20
269.781293
 42
0.000000
  0
VERTEX
  8
0
 10
497.430065
 20
281.500000
 42
0.000000
  0
VERTEX
  8
0
 10
497.215033
 20
269.884274
 42
0.000000
  0
VERTEX
  8
0
 10
497.000000
 20
258.268548
 42
0.000000
  0
VERTEX
  8
0
 10
492.750000
 20
259.054010
 42
0.019274
  0
VERTEX
  8
0
 10
491.038065
 20
259.302615
 42
0.033752
  0
VERTEX
  8
0
 10
489.607566
 20
259.357272
 42
0.038495
  0
VERTEX
  8
0
 10
488.549748
 20
259.244465
 42
0.265997
  0
VERTEX
  8
0
 10
488.166667
 20
258.919736
 42
-0.303969
  0
VERTEX
  8
0
 10
487.046715
 20
258.098163
 42
-0.013038
  0
VERTEX
  8
0
 10
481.908861
 20
258.012631
 42
-0.012692
  0
VERTEX
  8
0
 10
476.794395
 20
258.190734
 42
-0.396692
  0
VERTEX
  8
0
 10
476.000000
 20
259.034443
 42
0.328311
  0
VERTEX
  8
0
 10
475.702237
 20
259.439042
 42
0.056661
  0
VERTEX
  8
0
 10
474.709026
 20
259.628720
 42
0.037362
  0
VERTEX
  8
0
 10
473.163459
 20
259.629977
 42
0.014503
  0
VERTEX
  8
0
 10
471.033914
 20
259.410111
 42
0.000000
  0
VERTEX
  8
0
 10
466.067828
 20
258.751336
 42
0.000000
  0
VERTEX
  8
0
 10
465.747670
 20
270.125668
 42
0.000000
  0
VERTEX
  8
0
 10
465.427512
 20
281.500000
 42
0.000000
  0
VERTEX
  8
0
 10
465.213756
 20
269.750000
 42
-0.007055
  0
VERTEX
  8
0
 10
465.061788
 20
265.046599
 42
-0.013722
  0
VERTEX
  8
0
 10
464.784632
 20
261.300430
 42
-0.008039
  0
VERTEX
  8
0
 10
464.438712
 20
258.366693
 42
-0.375646
  0
VERTEX
  8
0
 10
464.019502
 20
258.000000
 42
-0.393867
  0
VERTEX
  8
0
 10
463.575853
 20
258.413647
 42
-0.002904
  0
VERTEX
  8
0
 10
463.225334
 20
263.869608
 42
-0.007784
  0
VERTEX
  8
0
 10
462.932062
 20
270.720338
 42
-0.003470
  0
VERTEX
  8
0
 10
462.748956
 20
279.750000
 42
0.001416
  0
VERTEX
  8
0
 10
462.622252
 20
287.586637
 42
0.005634
  0
VERTEX
  8
0
 10
462.476708
 20
292.393750
 42
0.569810
  0
VERTEX
  8
0
 10
462.352006
 20
292.460812
 42
0.256289
  0
SEQEND
  0
POLYLINE
  8
0
 66
1
 70
1
  0
VERTEX
  8
0
 10
78.391146
 20
263.000000
 42
0.002137
  0
VERTEX
  8
0
 10
78.404152
 20
257.337446
 42
0.006204
  0
VERTEX
  8
0
 10
78.478462
 20
253.422493
 42
0.031523
  0
VERTEX
  8
0
 10
78.598344
 20
252.156483
 42
0.888076
  0
VERTEX
  8
0
 10
78.731432
 20
252.161678
 42
0.000000
  0
VERTEX
  8
0
 10
79.102368
 20
256.823356
 42
0.000000
  0
VERTEX
  8
0
 10
136.757822
 20
256.951650
 42
0.000746
  0
VERTEX
  8
0
 10
158.897238
 20
257.033931
 42
0.001229
  0
VERTEX
  8
0
 10
177.612120
 20
257.177390
 42
0.000086
  0
VERTEX
  8
0
 10
194.422501
 20
257.350472
 42
0.196193
  0
VERTEX
  8
0
 10
194.873305
 20
257.539972
 42
0.664905
  0
VERTEX
  8
0
 10
194.796086
 20
257.728811
 42
0.000105
  0
VERTEX
  8
0
 10
179.433617
 20
257.864867
 42
0.001358
  0
VERTEX
  8
0
 10
162.213914
 20
257.966980
 42
0.000804
  0
VERTEX
  8
0
 10
141.666667
 20
258.000000
 42
-0.001305
  0
VERTEX
  8
0
 10
118.860538
 20
258.059532
 42
-0.003207
  0
VERTEX
  8
0
 10
102.101390
 20
258.254512
 42
-0.000530
  0
VERTEX
  8
0
 10
88.444086
 20
258.515483
 42
-0.408319
  0
VERTEX
  8
0
 10
88.000000
 20
258.968615
 42
0.144235
  0
VERTEX
  8
0
 10
87.900444
 20
259.306552
 42
0.140687
  0
VERTEX
  8
0
 10
87.632812
 20
259.540463
 42
0.112452
  0
VERTEX
  8
0
 10
87.227848
 20
259.628798
 42
0.071986
  0
VERTEX
  8
0
 10
86.750000
 20
259.555149
 42
-0.018066
  0
VERTEX
  8
0
 10
86.064898
 20
259.372517
 42
-0.004406
  0
VERTEX
  8
0
 10
84.922673
 20
259.122389
 42
-0.004510
  0
VERTEX
  8
0
 10
83.607311
 20
258.858831
 42
-0.004481
  0
VERTEX
  8
0
 10
82.284631
 20
258.618460
 42
0.000000
  0
VERTEX
  8
0
 10
79.069261
 20
258.063852
 42
0.000000
  0
VERTEX
  8
0
 10
78.745528
 20
268.281926
 42
0.004528
  0
VERTEX
  8
0
 10
78.606182
 20
271.701392
 42
0.943252
  0
VERTEX
  8
0
 10
78.499262
 20
271.702312
 42
0.015237
  0
VERTEX
  8
0
 10
78.417042
 20
269.452055
 42
0.001018
  0
SEQEND
  0
POLYLINE
  8
0
 66
1
 70
1
  0
VERTEX
  8
0
 10
342.000000
 20
268.134274
 42
0.000000
  0
VERTEX
  8
0
 10
342.000000
 20
258.268548
 42
0.000000
  0
VERTEX
  8
0
 10
337.750000
 20
259.054010
 42
0.019274
  0
VERTEX
  8
0
 10
336.038065
 20
259.302615
 42
0.033752
  0
VERTEX
  8
0
 10
334.607566
 20
259.357272
 42
0.038495
  0
VERTEX
  8
0
 10
333.549748
 20
259.244465
 42
0.265997
  0
VERTEX
  8
0
 10
333.166667
 20
258.919736
 42
-0.310513
  0
VERTEX
  8
0
 10
332.602420
 20
258.516105
 42
-0.000397
  0
VERTEX
  8
0
 10
318.156518
 20
258.255901
 42
-0.002872
  0
VERTEX
  8
0
 10
301.208966
 20
258.061463
 42
-0.001432
  0
VERTEX
  8
0
 10
279.750000
 20
258.000000
 42
0.000812
  0
VERTEX
  8
0
 10
259.426414
 20
257.966999
 42
0.001372
  0
VERTEX
  8
0
 10
242.394954
 20
257.864941
 42
0.000107
  0
VERTEX
  8
0
 10
227.203602
 20
257.728952
 42
0.664869
  0
VERTEX
  8
0
 10
227.126441
 20
257.540226
 42
0.196166
  0
VERTEX
  8
0
 10
227.576935
 20
257.350829
 42
0.000088
  0
VERTEX
  8
0
 10
244.240653
 20
257.177558
 42
0.001239
  0
VERTEX
  8
0
 10
262.794169
 20
257.033863
 42
0.000752
  0
VERTEX
  8
0
 10
284.741950
 20
256.951253
 42
0.000000
  0
VERTEX
  8
0
 10
341.897685
 20
256.822053
 42
0.000000
  0
VERTEX
  8
0
 10
342.268594
 20
252.161027
 42
0.864368
  0
VERTEX
  8
0
 10
342.424977
 20
252.150716
 42
0.039790
  0
VERTEX
  8
0
 10
342.583497
 20
253.348864
 42
0.007491
  0
VERTEX
  8
0
 10
342.725490
 20
257.182550
 42
0.002555
  0
VERTEX
  8
0
 10
342.819752
 20
262.750000
 42
0.003072
  0
VERTEX
  8
0
 10
342.852936
 20
268.597589
 42
0.005124
  0
VERTEX
  8
0
 10
342.800177
 20
273.520312
 42
0.001055
  0
VERTEX
  8
0
 10
342.701327
 20
277.803680
 42
0.406857
  0
VERTEX
  8
0
 10
342.500000
 20
278.000000
 42
0.396568
  0
VERTEX
  8
0
 10
342.297652
 20
277.809561
 42
0.002496
  0
VERTEX
  8
0
 10
342.146875
 20
275.101943
 42
0.007909
  0
VERTEX
  8
0
 10
342.035941
 20
271.917204
 42
0.004750
  0
SEQEND
  0
POLYLINE
  8
0
 66
1
 70
1
  0
VERTEX
  8
0
 10
476.591857
 20
271.148627
 42
0.199350
  0
VERTEX
  8
0
 10
476.539597
 20
270.824866
 42
0.264676
  0
VERTEX
  8
0
 10
476.739170
 20
270.611065
 42
0.106695
  0
VERTEX
  8
0
 10
477.245233
 20
270.565533
 42
0.033243
  0
VERTEX
  8
0
 10
477.998620
 20
270.709890
 42
-0.103936
  0
VERTEX
  8
0
 10
479.274945
 20
270.772033
 42
-0.271549
  0
VERTEX
  8
0
 10
479.957664
 20
270.209952
 42
-0.284590
  0
VERTEX
  8
0
 10
479.784457
 20
269.367703
 42
-0.107898
  0
VERTEX
  8
0
 10
478.750000
 20
268.662281
 42
0.009076
  0
VERTEX
  8
0
 10
478.090194
 20
268.382013
 42
0.295955
  0
VERTEX
  8
0
 10
478.000000
 20
268.242982
 42
0.382689
  0
VERTEX
  8
0
 10
478.096611
 20
268.135242
 42
0.011437
  0
VERTEX
  8
0
 10
478.750000
 20
268.078947
 42
-0.125130
  0
VERTEX
  8
0
 10
479.226950
 20
267.925094
 42
-0.093906
  0
VERTEX
  8
0
 10
479.632812
 20
267.548305
 42
-0.084174
  0
VERTEX
  8
0
 10
479.905951
 20
267.006998
 42
-0.074980
  0
VERTEX
  8
0
 10
480.000000
 20
266.383369
 42
-0.089569
  0
VERTEX
  8
0
 10
479.872075
 20
265.674986
 42
-0.191242
  0
VERTEX
  8
0
 10
479.505144
 20
265.269271
 42
-0.138658
  0
VERTEX
  8
0
 10
478.859399
 20
265.150381
 42
-0.040595
  0
VERTEX
  8
0
 10
477.855950
 20
265.327419
 42
0.014405
  0
VERTEX
  8
0
 10
476.856441
 20
265.558255
 42
0.163596
  0
VERTEX
  8
0
 10
476.459667
 20
265.507932
 42
0.456411
  0
VERTEX
  8
0
 10
476.399219
 20
265.284286
 42
0.048294
  0
VERTEX
  8
0
 10
476.788732
 20
264.811268
 42
0.155462
  0
VERTEX
  8
0
 10
478.240733
 20
264.060973
 42
0.223972
  0
VERTEX
  8
0
 10
479.611668
 20
264.443615
 42
0.156089
  0
VERTEX
  8
0
 10
480.538359
 20
265.960992
 42
0.080046
  0
VERTEX
  8
0
 10
480.715720
 20
268.206161
 42
0.084292
  0
VERTEX
  8
0
 10
480.189978
 20
270.272850
 42
0.134238
  0
VERTEX
  8
0
 10
479.044396
 20
271.677467
 42
0.212530
  0
VERTEX
  8
0
 10
477.717061
 20
271.947796
 42
0.202530
  0
SEQEND
  0
POLYLINE
  8
0
 66
1
 70
1
  0
VERTEX
  8
0
 10
484.000000
 20
271.000000
 42
0.027792
  0
VERTEX
  8
0
 10
483.450916
 20
270.600240
 42
0.145470
  0
VERTEX
  8
0
 10
483.243091
 20
270.294507
 42
0.377219
  0
VERTEX
  8
0
 10
483.329813
 20
270.096783
 42
0.106179
  0
VERTEX
  8
0
 10
483.686642
 20
270.015313
 42
-0.220225
  0
VERTEX
  8
0
 10
484.170822
 20
269.783553
 42
-0.059495
  0
VERTEX
  8
0
 10
484.643183
 20
269.049811
 42
-0.048532
  0
VERTEX
  8
0
 10
485.035349
 20
267.995627
 42
-0.033936
  0
VERTEX
  8
0
 10
485.276604
 20
266.750000
 42
0.002653
  0
VERTEX
  8
0
 10
485.524759
 20
264.833587
 42
0.719386
  0
VERTEX
  8
0
 10
485.637368
 20
264.811991
 42
0.118219
  0
VERTEX
  8
0
 10
485.736282
 20
265.158986
 42
0.001178
  0
VERTEX
  8
0
 10
485.839963
 20
267.750000
 42
0.005495
  0
VERTEX
  8
0
 10
485.883372
 20
269.378606
 42
0.009225
  0
VERTEX
  8
0
 10
485.879552
 20
270.747064
 42
0.003401
  0
VERTEX
  8
0
 10
485.847315
 20
271.896295
 42
0.421946
  0
VERTEX
  8
0
 10
485.750000
 20
271.984687
 42
0.107356
  0
VERTEX
  8
0
 10
485.590788
 20
271.939754
 42
0.005891
  0
VERTEX
  8
0
 10
485.132812
 20
271.689119
 42
0.008918
  0
VERTEX
  8
0
 10
484.592814
 20
271.372463
 42
0.006384
  0
SEQEND
  0
POLYLINE
  8
0
 66
1
 70
1
  0
VERTEX
  8
0
 10
525.389534
 20
270.572726
 42
0.082189
  0
VERTEX
  8
0
 10
524.962653
 20
268.492478
 42
0.092978
  0
VERTEX
  8
0
 10
525.260917
 20
266.478620
 42
0.116610
  0
VERTEX
  8
0
 10
526.175947
 20
265.034035
 42
0.195950
  0
VERTEX
  8
0
 10
527.486305
 20
264.500000
 42
0.161141
  0
VERTEX
  8
0
 10
529.056459
 20
265.019521
 42
0.199915
  0
VERTEX
  8
0
 10
529.837183
 20
266.330575
 42
0.203631
  0
VERTEX
  8
0
 10
529.450333
 20
267.788902
 42
0.164960
  0
VERTEX
  8
0
 10
528.086974
 20
268.687507
 42
-0.042202
  0
VERTEX
  8
0
 10
527.288340
 20
268.970131
 42
-0.053305
  0
VERTEX
  8
0
 10
526.613048
 20
269.366697
 42
-0.063285
  0
VERTEX
  8
0
 10
526.149622
 20
269.810618
 42
-0.171783
  0
VERTEX
  8
0
 10
526.000000
 20
270.233263
 42
-0.223392
  0
VERTEX
  8
0
 10
526.159265
 20
270.571944
 42
-0.114970
  0
VERTEX
  8
0
 10
526.587905
 20
270.785772
 42
-0.077138
  0
VERTEX
  8
0
 10
527.234753
 20
270.837515
 42
-0.045439
  0
VERTEX
  8
0
 10
528.001380
 20
270.709890
 42
0.033809
  0
VERTEX
  8
0
 10
528.733252
 20
270.570513
 42
0.095442
  0
VERTEX
  8
0
 10
529.250238
 20
270.606613
 42
0.238295
  0
VERTEX
  8
0
 10
529.468510
 20
270.801120
 42
0.236417
  0
VERTEX
  8
0
 10
529.442363
 20
271.093259
 42
0.165968
  0
VERTEX
  8
0
 10
528.570653
 20
271.810203
 42
0.122377
  0
VERTEX
  8
0
 10
527.320067
 20
271.955679
 42
0.118920
  0
VERTEX
  8
0
 10
526.119232
 20
271.497549
 42
0.151953
  0
SEQEND
  0
POLYLINE
  8
0
 66
1
 70
1
  0
VERTEX
  8
0
 10
529.000000
 20
266.500000
 42
-0.099038
  0
VERTEX
  8
0
 10
528.885486
 20
265.927543
 42
-0.097945
  0
VERTEX
  8
0
 10
528.559375
 20
265.440625
 42
-0.097945
  0
VERTEX
  8
0
 10
528.072457
 20
265.114514
 42
-0.099038
  0
VERTEX
  8
0
 10
527.500000
 20
265.000000
 42
-0.099038
  0
VERTEX
  8
0
 10
526.927543
 20
265.114514
 42
-0.097945
  0
VERTEX
  8
0
 10
526.440625
 20
265.440625
 42
-0.097945
  0
VERTEX
  8
0
 10
526.114514
 20
265.927543
 42
-0.099038
  0
VERTEX
  8
0
 10
526.000000
 20
266.500000
 42
-0.099038
  0
VERTEX
  8
0
 10
526.114514
 20
267.072457
 42
-0.097945
  0
VERTEX
  8
0
 10
526.440625
 20
267.559375
 42
-0.097945
  0
VERTEX
  8
0
 10
526.927543
 20
267.885486
 42
-0.099038
  0
VERTEX
  8
0
 10
527.500000
 20
268.000000
 42
-0.099038
  0
VERTEX
  8
0
 10
528.072457
 20
267.885486
 42
-0.097945
  0
VERTEX
  8
0
 10
528.559375
 20
267.559375
 42
-0.097945
  0
VERTEX
  8
0
 10
528.885486
 20
267.072457
 42
-0.099038
  0
SEQEND
  0
POLYLINE
  8
0
 66
1
 70
1
  0
VERTEX
  8
0
 10
532.808374
 20
271.286617
 42
-0.033419
  0
VERTEX
  8
0
 10
533.819763
 20
271.022336
 42
-0.136760
  0
VERTEX
  8
0
 10
534.340451
 20
270.670501
 42
-0.238310
  0
VERTEX
  8
0
 10
534.448345
 20
270.223482
 42
-0.111081
  0
VERTEX
  8
0
 10
534.180763
 20
269.672800
 42
0.048136
  0
VERTEX
  8
0
 10
533.775702
 20
269.050985
 42
0.018000
  0
VERTEX
  8
0
 10
533.326805
 20
268.110135
 42
0.017639
  0
VERTEX
  8
0
 10
532.908162
 20
267.043154
 42
0.020437
  0
VERTEX
  8
0
 10
532.588033
 20
266.000000
 42
0.019659
  0
VERTEX
  8
0
 10
532.346168
 20
264.905989
 42
0.681101
  0
VERTEX
  8
0
 10
532.507961
 20
264.806077
 42
0.098407
  0
VERTEX
  8
0
 10
532.905191
 20
265.248200
 42
0.004566
  0
VERTEX
  8
0
 10
533.923729
 20
267.000000
 42
0.009868
  0
VERTEX
  8
0
 10
535.588762
 20
270.063960
 42
0.155149
  0
VERTEX
  8
0
 10
535.787808
 20
271.222116
 42
0.342017
  0
VERTEX
  8
0
 10
535.196621
 20
271.800051
 42
0.041136
  0
VERTEX
  8
0
 10
533.250000
 20
271.863818
 42
0.001637
  0
VERTEX
  8
0
 10
531.524879
 20
271.772725
 42
0.218810
  0
VERTEX
  8
0
 10
531.343659
 20
271.676794
 42
0.554268
  0
VERTEX
  8
0
 10
531.385095
 20
271.566415
 42
0.002667
  0
SEQEND
  0
POLYLINE
  8
0
 66
1
 70
1
  0
VERTEX
  8
0
 10
438.591857
 20
263.148627
 42
0.199350
  0
VERTEX
  8
0
 10
438.539597
 20
262.824866
 42
0.264676
  0
VERTEX
  8
0
 10
438.739170
 20
262.611065
 42
0.106695
  0
VERTEX
  8
0
 10
439.245233
 20
262.565533
 42
0.033243
  0
VERTEX
  8
0
 10
439.998620
 20
262.709890
 42
-0.103936
  0
VERTEX
  8
0
 10
441.274945
 20
262.772033
 42
-0.271549
  0
VERTEX
  8
0
 10
441.957664
 20
262.209952
 42
-0.284590
  0
VERTEX
  8
0
 10
441.784457
 20
261.367703
 42
-0.107898
  0
VERTEX
  8
0
 10
440.750000
 20
260.662281
 42
0.009076
  0
VERTEX
  8
0
 10
440.090194
 20
260.382013
 42
0.295955
  0
VERTEX
  8
0
 10
440.000000
 20
260.242982
 42
0.382689
  0
VERTEX
  8
0
 10
440.096611
 20
260.135242
 42
0.011437
  0
VERTEX
  8
0
 10
440.750000
 20
260.078947
 42
-0.222945
  0
VERTEX
  8
0
 10
441.651054
 20
259.584605
 42
-0.172782
  0
VERTEX
  8
0
 10
441.972986
 20
258.498292
 42
-0.168228
  0
VERTEX
  8
0
 10
441.537926
 20
257.432060
 42
-0.215770
  0
VERTEX
  8
0
 10
440.583333
 20
257.000000
 42
-0.065529
  0
VERTEX
  8
0
 10
440.003749
 20
257.076287
 42
-0.056947
  0
VERTEX
  8
0
 10
439.433490
 20
257.301094
 42
-0.059737
  0
VERTEX
  8
0
 10
438.957492
 20
257.632797
 42
-0.095907
  0
VERTEX
  8
0
 10
438.658333
 20
258.025000
 42
0.021854
  0
VERTEX
  8
0
 10
438.471980
 20
258.362824
 42
0.485648
  0
VERTEX
  8
0
 10
438.375208
 20
258.374375
 42
0.236791
  0
VERTEX
  8
0
 10
438.328524
 20
258.233682
 42
0.013819
  0
VERTEX
  8
0
 10
438.408333
 20
257.775000
 42
0.131976
  0
VERTEX
  8
0
 10
438.651135
 20
257.287811
 42
0.079114
  0
VERTEX
  8
0
 10
439.153802
 20
256.874531
 42
0.069696
  0
VERTEX
  8
0
 10
439.831280
 20
256.595219
 42
0.063054
  0
VERTEX
  8
0
 10
440.583333
 20
256.500000
 42
0.096759
  0
VERTEX
  8
0
 10
441.527660
 20
256.684471
 42
0.172248
  0
VERTEX
  8
0
 10
442.112557
 20
257.204735
 42
0.103017
  0
VERTEX
  8
0
 10
442.417764
 20
258.200704
 42
0.023015
  0
VERTEX
  8
0
 10
442.500000
 20
259.986305
 42
0.028300
  0
VERTEX
  8
0
 10
442.408330
 20
261.604595
 42
0.074501
  0
VERTEX
  8
0
 10
442.108315
 20
262.723824
 42
0.112219
  0
VERTEX
  8
0
 10
441.589091
 20
263.429812
 42
0.131477
  0
VERTEX
  8
0
 10
440.843237
 20
263.791673
 42
0.058097
  0
VERTEX
  8
0
 10
440.165416
 20
263.842053
 42
0.059154
  0
VERTEX
  8
0
 10
439.498479
 20
263.734392
 42
0.065279
  0
VERTEX
  8
0
 10
438.941589
 20
263.493285
 42
0.120139
  0
SEQEND
  0
POLYLINE
  8
0
 66
1
 70
1
  0
VERTEX
  8
0
 10
201.458881
 20
261.933469
 42
0.062174
  0
VERTEX
  8
0
 10
201.251666
 20
261.480911
 42
0.067553
  0
VERTEX
  8
0
 10
201.169645
 20
261.003941
 42
0.076232
  0
VERTEX
  8
0
 10
201.219839
 20
260.576059
 42
0.129836
  0
VERTEX
  8
0
 10
201.399864
 20
260.266802
 42
0.132256
  0
VERTEX
  8
0
 10
201.627352
 20
260.135822
 42
0.259615
  0
VERTEX
  8
0
 10
201.823710
 20
260.185665
 42
0.153621
  0
VERTEX
  8
0
 10
201.958272
 20
260.426605
 42
0.051163
  0
VERTEX
  8
0
 10
202.000000
 20
260.833333
 42
-0.127718
  0
VERTEX
  8
0
 10
202.115534
 20
261.278257
 42
-0.100747
  0
VERTEX
  8
0
 10
202.440625
 20
261.657292
 42
-0.089419
  0
VERTEX
  8
0
 10
202.926925
 20
261.912123
 42
-0.076226
  0
VERTEX
  8
0
 10
203.500000
 20
262.000000
 42
-0.178624
  0
VERTEX
  8
0
 10
204.579916
 20
261.601488
 42
-0.254194
  0
VERTEX
  8
0
 10
204.938358
 20
260.666024
 42
-0.147652
  0
VERTEX
  8
0
 10
204.361196
 20
259.391149
 42
-0.073695
  0
VERTEX
  8
0
 10
203.000000
 20
258.232073
 42
0.051376
  0
VERTEX
  8
0
 10
201.402781
 20
256.990134
 42
0.267334
  0
VERTEX
  8
0
 10
201.101206
 20
255.959916
 42
0.296015
  0
VERTEX
  8
0
 10
201.838115
 20
255.262983
 42
0.057918
  0
VERTEX
  8
0
 10
203.750000
 20
255.136182
 42
0.000965
  0
VERTEX
  8
0
 10
205.641088
 20
255.233489
 42
0.268561
  0
VERTEX
  8
0
 10
205.770223
 20
255.317740
 42
0.497970
  0
VERTEX
  8
0
 10
205.723216
 20
255.413564
 42
0.001308
  0
VERTEX
  8
0
 10
204.051041
 20
255.731805
 42
0.000000
  0
VERTEX
  8
0
 10
201.602081
 20
256.191247
 42
0.000000
  0
VERTEX
  8
0
 10
203.957132
 20
257.967665
 42
0.041675
  0
VERTEX
  8
0
 10
204.920462
 20
258.828985
 42
0.072050
  0
VERTEX
  8
0
 10
205.538454
 20
259.705533
 42
0.091093
  0
VERTEX
  8
0
 10
205.793035
 20
260.563162
 42
0.118876
  0
VERTEX
  8
0
 10
205.687476
 20
261.372041
 42
0.135709
  0
VERTEX
  8
0
 10
204.903703
 20
262.433173
 42
0.134006
  0
VERTEX
  8
0
 10
203.682371
 20
262.947276
 42
0.139146
  0
VERTEX
  8
0
 10
202.404391
 20
262.761287
 42
0.150160
  0
SEQEND
  0
POLYLINE
  8
0
 66
1
 70
1
  0
VERTEX
  8
0
 10
208.000000
 20
261.000000
 42
0.072656
  0
VERTEX
  8
0
 10
208.129380
 20
260.114344
 42
0.129641
  0
VERTEX
  8
0
 10
208.510417
 20
259.490000
 42
0.125767
  0
VERTEX
  8
0
 10
209.159348
 20
259.122938
 42
0.066234
  0
VERTEX
  8
0
 10
210.083333
 20
259.000000
 42
-0.052338
  0
VERTEX
  8
0
 10
210.894358
 20
258.914873
 42
-0.110801
  0
VERTEX
  8
0
 10
211.465752
 20
258.652915
 42
-0.162528
  0
VERTEX
  8
0
 10
211.741497
 20
258.248119
 42
-0.154946
  0
VERTEX
  8
0
 10
211.725705
 20
257.750000
 42
-0.110135
  0
VERTEX
  8
0
 10
211.433752
 20
257.282800
 42
-0.075877
  0
VERTEX
  8
0
 10
210.931829
 20
256.907986
 42
-0.070813
  0
VERTEX
  8
0
 10
210.303134
 20
256.679515
 42
-0.073015
  0
VERTEX
  8
0
 10
209.642371
 20
256.638889
 42
0.056436
  0
VERTEX
  8
0
 10
209.014059
 20
256.621048
 42
0.080601
  0
VERTEX
  8
0
 10
208.482447
 20
256.455437
 42
0.104474
  0
VERTEX
  8
0
 10
208.127686
 20
256.173774
 42
0.174633
  0
VERTEX
  8
0
 10
208.000000
 20
255.819338
 42
0.236204
  0
VERTEX
  8
0
 10
208.170827
 20
255.477904
 42
0.091534
  0
VERTEX
  8
0
 10
208.657937
 20
255.236308
 42
0.064709
  0
VERTEX
  8
0
 10
209.381872
 20
255.127912
 42
0.040298
  0
VERTEX
  8
0
 10
210.239784
 20
255.180449
 42
0.130683
  0
VERTEX
  8
0
 10
211.959237
 20
255.910683
 42
0.182872
  0
VERTEX
  8
0
 10
212.819899
 20
257.322214
 42
0.214851
  0
VERTEX
  8
0
 10
212.467775
 20
258.777075
 42
0.165046
  0
VERTEX
  8
0
 10
211.086974
 20
259.687507
 42
-0.055652
  0
VERTEX
  8
0
 10
209.512223
 20
260.292806
 42
-0.297079
  0
VERTEX
  8
0
 10
209.080147
 20
261.056109
 42
-0.283854
  0
VERTEX
  8
0
 10
209.599759
 20
261.790739
 42
-0.052986
  0
VERTEX
  8
0
 10
211.250000
 20
262.294267
 42
0.003620
  0
VERTEX
  8
0
 10
212.568679
 20
262.558172
 42
0.574721
  0
VERTEX
  8
0
 10
212.607621
 20
262.674595
 42
0.200802
  0
VERTEX
  8
0
 10
212.401331
 20
262.775265
 42
0.002047
  0
VERTEX
  8
0
 10
210.750000
 20
262.863818
 42
0.034212
  0
VERTEX
  8
0
 10
209.381227
 20
262.837921
 42
0.127769
  0
VERTEX
  8
0
 10
208.576727
 20
262.552002
 42
0.171080
  0
VERTEX
  8
0
 10
208.144944
 20
261.967545
 42
0.074487
  0
SEQEND
  0
POLYLINE
  8
0
 66
1
 70
1
  0
VERTEX
  8
0
 10
214.411205
 20
260.502236
 42
0.056095
  0
VERTEX
  8
0
 10
214.104589
 20
258.224874
 42
0.108936
  0
VERTEX
  8
0
 10
214.458962
 20
256.433092
 42
0.164119
  0
VERTEX
  8
0
 10
215.395821
 20
255.402121
 42
0.176320
  0
VERTEX
  8
0
 10
216.735492
 20
255.187577
 42
0.152052
  0
VERTEX
  8
0
 10
218.181978
 20
255.962920
 42
0.175899
  0
VERTEX
  8
0
 10
218.828826
 20
257.378109
 42
0.186017
  0
VERTEX
  8
0
 10
218.402996
 20
258.819049
 42
0.166474
  0
VERTEX
  8
0
 10
217.098221
 20
259.684566
 42
-0.048917
  0
VERTEX
  8
0
 10
216.346210
 20
259.962088
 42
-0.084690
  0
VERTEX
  8
0
 10
215.805523
 20
260.348308
 42
-0.126907
  0
VERTEX
  8
0
 10
215.555761
 20
260.775477
 42
-0.210582
  0
VERTEX
  8
0
 10
215.612398
 20
261.181864
 42
-0.125874
  0
VERTEX
  8
0
 10
215.947223
 20
261.504455
 42
-0.081142
  0
VERTEX
  8
0
 10
216.455186
 20
261.692431
 42
-0.072575
  0
VERTEX
  8
0
 10
217.054383
 20
261.720979
 42
-0.067381
  0
VERTEX
  8
0
 10
217.653088
 20
261.579628
 42
0.041869
  0
VERTEX
  8
0
 10
218.179308
 20
261.426762
 42
0.170102
  0
VERTEX
  8
0
 10
218.504758
 20
261.471944
 42
0.316285
  0
VERTEX
  8
0
 10
218.612021
 20
261.676374
 42
0.106430
  0
VERTEX
  8
0
 10
218.492921
 20
262.011454
 42
0.157169
  0
VERTEX
  8
0
 10
217.489502
 20
262.865986
 42
0.189161
  0
VERTEX
  8
0
 10
216.259068
 20
262.890281
 42
0.148997
  0
VERTEX
  8
0
 10
215.119022
 20
262.023650
 42
0.095058
  0
SEQEND
  0
POLYLINE
  8
0
 66
1
 70
1
  0
VERTEX
  8
0
 10
218.000000
 20
257.500000
 42
-0.099038
  0
VERTEX
  8
0
 10
217.885486
 20
256.927543
 42
-0.097945
  0
VERTEX
  8
0
 10
217.559375
 20
256.440625
 42
-0.097945
  0
VERTEX
  8
0
 10
217.072457
 20
256.114514
 42
-0.099038
  0
VERTEX
  8
0
 10
216.500000
 20
256.000000
 42
-0.099038
  0
VERTEX
  8
0
 10
215.927543
 20
256.114514
 42
-0.097945
  0
VERTEX
  8
0
 10
215.440625
 20
256.440625
 42
-0.097945
  0
VERTEX
  8
0
 10
215.114514
 20
256.927543
 42
-0.099038
  0
VERTEX
  8
0
 10
215.000000
 20
257.500000
 42
-0.099038
  0
VERTEX
  8
0
 10
215.114514
 20
258.072457
 42
-0.097945
  0
VERTEX
  8
0
 10
215.440625
 20
258.559375
 42
-0.097945
  0
VERTEX
  8
0
 10
215.927543
 20
258.885486
 42
-0.099038
  0
VERTEX
  8
0
 10
216.500000
 20
259.000000
 42
-0.099038
  0
VERTEX
  8
0
 10
217.072457
 20
258.885486
 42
-0.097945
  0
VERTEX
  8
0
 10
217.559375
 20
258.559375
 42
-0.097945
  0
VERTEX
  8
0
 10
217.885486
 20
258.072457
 42
-0.099038
  0
SEQEND
  0
POLYLINE
  8
0
 66
1
 70
1
  0
VERTEX
  8
0
 10
507.000000
 20
234.000000
 42
0.027792
  0
VERTEX
  8
0
 10
506.450916
 20
233.600240
 42
0.145470
  0
VERTEX
  8
0
 10
506.243091
 20
233.294507
 42
0.377219
  0
VERTEX
  8
0
 10
506.329813
 20
233.096783
 42
0.106179
  0
VERTEX
  8
0
 10
506.686642
 20
233.015313
 42
-0.220225
  0
VERTEX
  8
0
 10
507.170822
 20
232.783553
 42
-0.059495
  0
VERTEX
  8
0
 10
507.643183
 20
232.049811
 42
-0.048532
  0
VERTEX
  8
0
 10
508.035349
 20
230.995627
 42
-0.033936
  0
VERTEX
  8
0
 10
508.276604
 20
229.750000
 42
0.002653
  0
VERTEX
  8
0
 10
508.524759
 20
227.833587
 42
0.719386
  0
VERTEX
  8
0
 10
508.637368
 20
227.811991
 42
0.118219
  0
VERTEX
  8
0
 10
508.736282
 20
228.158986
 42
0.001178
  0
VERTEX
  8
0
 10
508.839963
 20
230.750000
 42
0.005495
  0
VERTEX
  8
0
 10
508.883372
 20
232.378606
 42
0.009225
  0
VERTEX
  8
0
 10
508.879552
 20
233.747064
 42
0.003401
  0
VERTEX
  8
0
 10
508.847315
 20
234.896295
 42
0.421946
  0
VERTEX
  8
0
 10
508.750000
 20
234.984687
 42
0.107356
  0
VERTEX
  8
0
 10
508.590788
 20
234.939754
 42
0.005891
  0
VERTEX
  8
0
 10
508.132812
 20
234.689119
 42
0.008918
  0
VERTEX
  8
0
 10
507.592814
 20
234.372463
 42
0.006384
  0
SEQEND
  0
POLYLINE
  8
0
 66
1
 70
1
  0
VERTEX
  8
0
 10
512.417895
 20
233.646633
 42
0.079877
  0
VERTEX
  8
0
 10
511.971714
 20
231.521953
 42
0.093820
  0
VERTEX
  8
0
 10
512.257454
 20
229.487182
 42
0.119017
  0
VERTEX
  8
0
 10
513.173206
 20
228.037917
 42
0.195005
  0
VERTEX
  8
0
 10
514.500000
 20
227.500000
 42
0.087556
  0
VERTEX
  8
0
 10
515.501842
 20
227.676789
 42
0.176971
  0
VERTEX
  8
0
 10
516.106582
 20
228.185788
 42
0.107941
  0
VERTEX
  8
0
 10
516.417581
 20
229.170932
 42
0.022689
  0
VERTEX
  8
0
 10
516.500000
 20
230.986305
 42
0.027822
  0
VERTEX
  8
0
 10
516.407604
 20
232.645529
 42
0.079817
  0
VERTEX
  8
0
 10
516.100083
 20
233.754297
 42
0.120499
  0
VERTEX
  8
0
 10
515.553734
 20
234.444349
 42
0.118300
  0
VERTEX
  8
0
 10
514.746976
 20
234.810212
 42
0.084276
  0
VERTEX
  8
0
 10
514.033854
 20
234.825973
 42
0.079482
  0
VERTEX
  8
0
 10
513.339686
 20
234.607671
 42
0.082601
  0
VERTEX
  8
0
 10
512.770610
 20
234.194364
 42
0.103218
  0
SEQEND
  0
POLYLINE
  8
0
 66
1
 70
1
  0
VERTEX
  8
0
 10
516.000000
 20
231.000000
 42
-0.033607
  0
VERTEX
  8
0
 10
515.911037
 20
229.677925
 42
-0.082504
  0
VERTEX
  8
0
 10
515.625000
 20
228.750000
 42
-0.126510
  0
VERTEX
  8
0
 10
515.148955
 20
228.202091
 42
-0.152103
  0
VERTEX
  8
0
 10
514.500000
 20
228.000000
 42
-0.152103
  0
VERTEX
  8
0
 10
513.851045
 20
228.202091
 42
-0.126510
  0
VERTEX
  8
0
 10
513.375000
 20
228.750000
 42
-0.082504
  0
VERTEX
  8
0
 10
513.088963
 20
229.677925
 42
-0.033607
  0
VERTEX
  8
0
 10
513.000000
 20
231.000000
 42
-0.033607
  0
VERTEX
  8
0
 10
513.088963
 20
232.322075
 42
-0.082504
  0
VERTEX
  8
0
 10
513.375000
 20
233.250000
 42
-0.126510
  0
VERTEX
  8
0
 10
513.851045
 20
233.797909
 42
-0.152103
  0
VERTEX
  8
0
 10
514.500000
 20
234.000000
 42
-0.152103
  0
VERTEX
  8
0
 10
515.148955
 20
233.797909
 42
-0.126510
  0
VERTEX
  8
0
 10
515.625000
 20
233.250000
 42
-0.082504
  0
VERTEX
  8
0
 10
515.911037
 20
232.322075
 42
-0.033607
  0
SEQEND
  0
POLYLINE
  8
0
 66
1
 70
1
  0
VERTEX
  8
0
 10
520.000000
 20
234.000000
 42
0.027792
  0
VERTEX
  8
0
 10
519.450916
 20
233.600240
 42
0.145470
  0
VERTEX
  8
0
 10
519.243091
 20
233.294507
 42
0.377219
  0
VERTEX
  8
0
 10
519.329813
 20
233.096783
 42
0.106179
  0
VERTEX
  8
0
 10
519.686642
 20
233.015313
 42
-0.220225
  0
VERTEX
  8
0
 10
520.170822
 20
232.783553
 42
-0.059495
  0
VERTEX
  8
0
 10
520.643183
 20
232.049811
 42
-0.048532
  0
VERTEX
  8
0
 10
521.035349
 20
230.995627
 42
-0.033936
  0
VERTEX
  8
0
 10
521.276604
 20
229.750000
 42
0.002653
  0
VERTEX
  8
0
 10
521.524759
 20
227.833587
 42
0.719386
  0
VERTEX
  8
0
 10
521.637368
 20
227.811991
 42
0.118219
  0
VERTEX
  8
0
 10
521.736282
 20
228.158986
 42
0.001178
  0
VERTEX
  8
0
 10
521.839963
 20
230.750000
 42
0.005495
  0
VERTEX
  8
0
 10
521.883372
 20
232.378606
 42
0.009225
  0
VERTEX
  8
0
 10
521.879552
 20
233.747064
 42
0.003401
  0
VERTEX
  8
0
 10
521.847315
 20
234.896295
 42
0.421946
  0
VERTEX
  8
0
 10
521.750000
 20
234.984687
 42
0.107356
  0
VERTEX
  8
0
 10
521.590788
 20
234.939754
 42
0.005891
  0
VERTEX
  8
0
 10
521.132812
 20
234.689119
 42
0.008918
  0
VERTEX
  8
0
 10
520.592814
 20
234.372463
 42
0.006384
  0
SEQEND
  0
POLYLINE
  8
0
 66
1
 70
1
  0
VERTEX
  8
0
 10
78.394004
 20
187.000000
 42
0.000812
  0
VERTEX
  8
0
 10
78.420202
 20
179.831401
 42
0.014948
  0
VERTEX
  8
0
 10
78.500165
 20
177.558807
 42
0.948089
  0
VERTEX
  8
0
 10
78.603215
 20
177.560021
 42
0.003228
  0
VERTEX
  8
0
 10
78.745198
 20
181.609976
 42
0.000000
  0
VERTEX
  8
0
 10
79.062883
 20
192.719953
 42
0.000000
  0
VERTEX
  8
0
 10
83.281441
 20
191.940240
 42
0.019504
  0
VERTEX
  8
0
 10
84.977863
 20
191.694663
 42
0.033891
  0
VERTEX
  8
0
 10
86.399170
 20
191.642045
 42
0.038603
  0
VERTEX
  8
0
 10
87.451617
 20
191.756068
 42
0.265489
  0
VERTEX
  8
0
 10
87.833333
 20
192.080264
 42
-0.179690
  0
VERTEX
  8
0
 10
88.139780
 20
192.441676
 42
-0.045923
  0
VERTEX
  8
0
 10
88.852083
 20
192.759896
 42
-0.040833
  0
VERTEX
  8
0
 10
89.788018
 20
192.995637
 42
-0.031700
  0
VERTEX
  8
0
 10
90.833333
 20
193.102361
 42
0.005791
  0
VERTEX
  8
0
 10
92.386388
 20
193.179998
 42
0.623511
  0
VERTEX
  8
0
 10
92.449388
 20
193.331443
 42
0.152063
  0
VERTEX
  8
0
 10
92.132195
 20
193.525105
 42
0.002279
  0
VERTEX
  8
0
 10
90.000000
 20
194.050882
 42
0.031266
  0
VERTEX
  8
0
 10
88.392637
 20
194.334574
 42
0.018340
  0
VERTEX
  8
0
 10
86.444076
 20
194.481986
 42
0.018299
  0
VERTEX
  8
0
 10
84.476937
 20
194.486389
 42
0.029518
  0
VERTEX
  8
0
 10
82.809622
 20
194.330247
 42
0.000000
  0
VERTEX
  8
0
 10
79.119243
 20
193.763451
 42
0.000000
  0
VERTEX
  8
0
 10
78.739870
 20
198.631726
 42
0.895583
  0
VERTEX
  8
0
 10
78.603654
 20
198.636125
 42
0.028162
  0
VERTEX
  8
0
 10
78.481780
 20
197.223069
 42
0.005886
  0
VERTEX
  8
0
 10
78.406531
 20
193.032494
 42
0.002054
  0
SEQEND
  0
POLYLINE
  8
0
 66
1
 70
1
  0
VERTEX
  8
0
 10
128.180248
 20
198.636456
 42
0.000000
  0
VERTEX
  8
0
 10
128.000000
 20
193.772912
 42
0.000000
  0
VERTEX
  8
0
 10
123.750000
 20
194.389044
 42
0.026387
  0
VERTEX
  8
0
 10
121.903139
 20
194.557960
 42
0.019970
  0
VERTEX
  8
0
 10
119.867188
 20
194.554926
 42
0.020334
  0
VERTEX
  8
0
 10
117.951046
 20
194.397280
 42
0.043474
  0
VERTEX
  8
0
 10
116.500000
 20
194.088541
 42
0.005211
  0
VERTEX
  8
0
 10
114.916814
 20
193.586708
 42
0.140909
  0
VERTEX
  8
0
 10
114.556819
 20
193.341818
 42
0.598213
  0
VERTEX
  8
0
 10
114.629393
 20
193.162589
 42
0.017051
  0
VERTEX
  8
0
 10
115.666667
 20
193.085953
 42
-0.043075
  0
VERTEX
  8
0
 10
116.520691
 20
192.977993
 42
-0.050643
  0
VERTEX
  8
0
 10
117.296313
 20
192.726935
 42
-0.058141
  0
VERTEX
  8
0
 10
117.887504
 20
192.380235
 42
-0.151775
  0
VERTEX
  8
0
 10
118.171845
 20
191.984466
 42
0.257161
  0
VERTEX
  8
0
 10
118.596201
 20
191.592586
 42
0.054259
  0
VERTEX
  8
0
 10
119.632130
 20
191.453140
 42
0.037600
  0
VERTEX
  8
0
 10
121.168133
 20
191.529652
 42
0.014940
  0
VERTEX
  8
0
 10
123.255178
 20
191.855361
 42
0.000000
  0
VERTEX
  8
0
 10
128.000000
 20
192.741789
 42
0.000000
  0
VERTEX
  8
0
 10
128.198697
 20
185.120895
 42
0.000000
  0
VERTEX
  8
0
 10
128.397394
 20
177.500000
 42
0.000000
  0
VERTEX
  8
0
 10
128.745122
 20
184.879561
 42
0.000000
  0
VERTEX
  8
0
 10
129.092849
 20
192.259122
 42
0.000000
  0
VERTEX
  8
0
 10
133.546425
 20
191.648691
 42
0.017656
  0
VERTEX
  8
0
 10
135.357695
 20
191.465297
 42
0.037164
  0
VERTEX
  8
0
 10
136.770475
 20
191.477580
 42
0.050168
  0
VERTEX
  8
0
 10
137.726647
 20
191.654775
 42
0.333418
  0
VERTEX
  8
0
 10
138.000000
 20
192.019130
 42
-0.373871
  0
VERTEX
  8
0
 10
138.358668
 20
192.431751
 42
-0.010874
  0
VERTEX
  8
0
 10
140.841238
 20
192.725880
 42
-0.015980
  0
VERTEX
  8
0
 10
144.077859
 20
192.934032
 42
-0.008066
  0
VERTEX
  8
0
 10
148.166667
 20
193.000000
 42
0.003804
  0
VERTEX
  8
0
 10
157.455155
 20
193.070661
 42
0.881722
  0
VERTEX
  8
0
 10
157.499263
 20
193.468812
 42
0.051565
  0
VERTEX
  8
0
 10
154.211282
 20
193.908183
 42
0.002543
  0
VERTEX
  8
0
 10
143.261807
 20
194.178905
 42
0.000000
  0
VERTEX
  8
0
 10
129.090911
 20
194.457182
 42
0.000000
  0
VERTEX
  8
0
 10
128.725704
 20
198.978591
 42
0.000000
  0
VERTEX
  8
0
 10
128.360496
 20
203.500000
 42
0.000000
  0
SEQEND
  0
POLYLINE
  8
0
 66
1
 70
1
  0
VERTEX
  8
0
 10
210.180248
 20
198.934973
 42
0.000000
  0
VERTEX
  8
0
 10
210.000000
 20
194.369946
 42
0.000000
  0
VERTEX
  8
0
 10
195.799609
 20
194.151249
 42
0.003023
  0
VERTEX
  8
0
 10
190.322519
 20
194.033771
 42
0.004794
  0
VERTEX
  8
0
 10
185.633614
 20
193.859825
 42
0.001317
  0
VERTEX
  8
0
 10
181.566356
 20
193.659134
 42
0.185448
  0
VERTEX
  8
0
 10
181.132942
 20
193.466276
 42
0.646167
  0
VERTEX
  8
0
 10
181.203953
 20
193.278731
 42
0.003365
  0
VERTEX
  8
0
 10
183.790093
 20
193.136968
 42
0.007702
  0
VERTEX
  8
0
 10
186.966399
 20
193.033300
 42
0.004306
  0
VERTEX
  8
0
 10
190.833333
 20
193.000000
 42
-0.008066
  0
VERTEX
  8
0
 10
194.922141
 20
192.934032
 42
-0.015980
  0
VERTEX
  8
0
 10
198.158762
 20
192.725880
 42
-0.010874
  0
VERTEX
  8
0
 10
200.641332
 20
192.431751
 42
-0.373871
  0
VERTEX
  8
0
 10
201.000000
 20
192.019130
 42
0.333418
  0
VERTEX
  8
0
 10
201.273353
 20
191.654775
 42
0.050168
  0
VERTEX
  8
0
 10
202.229525
 20
191.477580
 42
0.037164
  0
VERTEX
  8
0
 10
203.642305
 20
191.465297
 42
0.017656
  0
VERTEX
  8
0
 10
205.453575
 20
191.648691
 42
0.000000
  0
VERTEX
  8
0
 10
209.907151
 20
192.259122
 42
0.000000
  0
VERTEX
  8
0
 10
210.254878
 20
184.879561
 42
0.000000
  0
VERTEX
  8
0
 10
210.602606
 20
177.500000
 42
0.000000
  0
VERTEX
  8
0
 10
210.801303
 20
185.115726
 42
0.000000
  0
VERTEX
  8
0
 10
211.000000
 20
192.731452
 42
0.000000
  0
VERTEX
  8
0
 10
215.250000
 20
191.945990
 42
0.019274
  0
VERTEX
  8
0
 10
216.961935
 20
191.697385
 42
0.033752
  0
VERTEX
  8
0
 10
218.392434
 20
191.642728
 42
0.038495
  0
VERTEX
  8
0
 10
219.450252
 20
191.755535
 42
0.265997
  0
VERTEX
  8
0
 10
219.833333
 20
192.080264
 42
-0.283599
  0
VERTEX
  8
0
 10
220.296457
 20
192.447485
 42
-0.007415
  0
VERTEX
  8
0
 10
223.030729
 20
192.729827
 42
-0.013480
  0
VERTEX
  8
0
 10
226.360906
 20
192.933584
 42
-0.008538
  0
VERTEX
  8
0
 10
230.250000
 20
193.000000
 42
0.004341
  0
VERTEX
  8
0
 10
234.084982
 20
193.033298
 42
0.007770
  0
VERTEX
  8
0
 10
237.234386
 20
193.136968
 42
0.003425
  0
VERTEX
  8
0
 10
239.796131
 20
193.278768
 42
0.645935
  0
VERTEX
  8
0
 10
239.867058
 20
193.466276
 42
0.185414
  0
VERTEX
  8
0
 10
239.433747
 20
193.659123
 42
0.001325
  0
VERTEX
  8
0
 10
235.380270
 20
193.859612
 42
0.004809
  0
VERTEX
  8
0
 10
230.706623
 20
194.033322
 42
0.003033
  0
VERTEX
  8
0
 10
225.247657
 20
194.150521
 42
0.000000
  0
VERTEX
  8
0
 10
211.094533
 20
194.368491
 42
0.000000
  0
VERTEX
  8
0
 10
210.727515
 20
198.934245
 42
0.000000
  0
VERTEX
  8
0
 10
210.360496
 20
203.500000
 42
0.000000
  0
SEQEND
  0
POLYLINE
  8
0
 66
1
 70
1
  0
VERTEX
  8
0
 10
293.180248
 20
198.934973
 42
0.000000
  0
VERTEX
  8
0
 10
293.000000
 20
194.369946
 42
0.000000
  0
VERTEX
  8
0
 10
278.799609
 20
194.151249
 42
0.003023
  0
VERTEX
  8
0
 10
273.322519
 20
194.033771
 42
0.004794
  0
VERTEX
  8
0
 10
268.633614
 20
193.859825
 42
0.001317
  0
VERTEX
  8
0
 10
264.566356
 20
193.659134
 42
0.185448
  0
VERTEX
  8
0
 10
264.132942
 20
193.466276
 42
0.645935
  0
VERTEX
  8
0
 10
264.203869
 20
193.278768
 42
0.003425
  0
VERTEX
  8
0
 10
266.765614
 20
193.136968
 42
0.007770
  0
VERTEX
  8
0
 10
269.915018
 20
193.033298
 42
0.004341
  0
VERTEX
  8
0
 10
273.750000
 20
193.000000
 42
-0.008538
  0
VERTEX
  8
0
 10
277.639094
 20
192.933584
 42
-0.013480
  0
VERTEX
  8
0
 10
280.969271
 20
192.729827
 42
-0.007415
  0
VERTEX
  8
0
 10
283.703543
 20
192.447485
 42
-0.283599
  0
VERTEX
  8
0
 10
284.166667
 20
192.080264
 42
0.265997
  0
VERTEX
  8
0
 10
284.549748
 20
191.755535
 42
0.038495
  0
VERTEX
  8
0
 10
285.607566
 20
191.642728
 42
0.033752
  0
VERTEX
  8
0
 10
287.038065
 20
191.697385
 42
0.019274
  0
VERTEX
  8
0
 10
288.750000
 20
191.945990
 42
0.000000
  0
VERTEX
  8
0
 10
293.000000
 20
192.731452
 42
0.000000
  0
VERTEX
  8
0
 10
293.198697
 20
185.115726
 42
0.000000
  0
VERTEX
  8
0
 10
293.397394
 20
177.500000
 42
0.000000
  0
VERTEX
  8
0
 10
293.745122
 20
184.879561
 42
0.000000
  0
VERTEX
  8
0
 10
294.092849
 20
192.259122
 42
0.000000
  0
VERTEX
  8
0
 10
298.546425
 20
191.648691
 42
0.017656
  0
VERTEX
  8
0
 10
300.357695
 20
191.465297
 42
0.037164
  0
VERTEX
  8
0
 10
301.770475
 20
191.477580
 42
0.050168
  0
VERTEX
  8
0
 10
302.726647
 20
191.654775
 42
0.333418
  0
VERTEX
  8
0
 10
303.000000
 20
192.019130
 42
-0.238545
  0
VERTEX
  8
0
 10
303.194175
 20
192.402969
 42
-0.064811
  0
VERTEX
  8
0
 10
303.807813
 20
192.741938
 42
-0.050764
  0
VERTEX
  8
0
 10
304.696734
 20
192.991593
 42
-0.033801
  0
VERTEX
  8
0
 10
305.750000
 20
193.102361
 42
0.004220
  0
VERTEX
  8
0
 10
307.459591
 20
193.180452
 42
0.601869
  0
VERTEX
  8
0
 10
307.527029
 20
193.326292
 42
0.168010
  0
VERTEX
  8
0
 10
307.248358
 20
193.511840
 42
0.001828
  0
VERTEX
  8
0
 10
305.000000
 20
194.087995
 42
0.031929
  0
VERTEX
  8
0
 10
303.392457
 20
194.386112
 42
0.018785
  0
VERTEX
  8
0
 10
301.443594
 20
194.546209
 42
0.018745
  0
VERTEX
  8
0
 10
299.475939
 20
194.559813
 42
0.030246
  0
VERTEX
  8
0
 10
297.807981
 20
194.407532
 42
0.000000
  0
VERTEX
  8
0
 10
294.115962
 20
193.843796
 42
0.000000
  0
VERTEX
  8
0
 10
293.738229
 20
198.671898
 42
0.000000
  0
VERTEX
  8
0
 10
293.360496
 20
203.500000
 42
0.000000
  0
SEQEND
  0
POLYLINE
  8
0
 66
1
 70
1
  0
VERTEX
  8
0
 10
342.000000
 20
198.372192
 42
0.000000
  0
VERTEX
  8
0
 10
342.000000
 20
193.744384
 42
0.000000
  0
VERTEX
  8
0
 10
338.250000
 20
194.320713
 42
0.029147
  0
VERTEX
  8
0
 10
336.559703
 20
194.480439
 42
0.018287
  0
VERTEX
  8
0
 10
334.573438
 20
194.479186
 42
0.018345
  0
VERTEX
  8
0
 10
332.611469
 20
194.333959
 42
0.031670
  0
VERTEX
  8
0
 10
331.000000
 20
194.050882
 42
0.001813
  0
VERTEX
  8
0
 10
328.767714
 20
193.502630
 42
0.165817
  0
VERTEX
  8
0
 10
328.488357
 20
193.322345
 42
0.608303
  0
VERTEX
  8
0
 10
328.552748
 20
193.179673
 42
0.004157
  0
VERTEX
  8
0
 10
330.250000
 20
193.102361
 42
-0.033801
  0
VERTEX
  8
0
 10
331.303266
 20
192.991593
 42
-0.050764
  0
VERTEX
  8
0
 10
332.192187
 20
192.741938
 42
-0.064811
  0
VERTEX
  8
0
 10
332.805825
 20
192.402969
 42
-0.238545
  0
VERTEX
  8
0
 10
333.000000
 20
192.019130
 42
0.333735
  0
VERTEX
  8
0
 10
333.273817
 20
191.654589
 42
0.050048
  0
VERTEX
  8
0
 10
334.232506
 20
191.477822
 42
0.037077
  0
VERTEX
  8
0
 10
335.649317
 20
191.466200
 42
0.017576
  0
VERTEX
  8
0
 10
337.467128
 20
191.650549
 42
0.000000
  0
VERTEX
  8
0
 10
341.934255
 20
192.262837
 42
0.000000
  0
VERTEX
  8
0
 10
342.252095
 20
180.381418
 42
0.001105
  0
VERTEX
  8
0
 10
342.441232
 20
173.851002
 42
0.936979
  0
VERTEX
  8
0
 10
342.551064
 20
173.847279
 42
0.021279
  0
VERTEX
  8
0
 10
342.651968
 20
175.635038
 42
0.000341
  0
VERTEX
  8
0
 10
342.784967
 20
185.750000
 42
0.002716
  0
VERTEX
  8
0
 10
342.831490
 20
192.364499
 42
0.004530
  0
VERTEX
  8
0
 10
342.789959
 20
197.932813
 42
0.000825
  0
VERTEX
  8
0
 10
342.701473
 20
202.802481
 42
0.408420
  0
VERTEX
  8
0
 10
342.500000
 20
203.000000
 42
0.370749
  0
VERTEX
  8
0
 10
342.301214
 20
202.829111
 42
0.010755
  0
VERTEX
  8
0
 10
342.146875
 20
201.640581
 42
0.016770
  0
VERTEX
  8
0
 10
342.035981
 20
200.146535
 42
0.010138
  0
SEQEND
  0
POLYLINE
  8
0
 66
1
 70
1
  0
VERTEX
  8
0
 10
99.127555
 20
195.656335
 42
0.026705
  0
VERTEX
  8
0
 10
98.590107
 20
194.932286
 42
0.109267
  0
VERTEX
  8
0
 10
98.394665
 20
194.424594
 42
0.269570
  0
VERTEX
  8
0
 10
98.512630
 20
194.126498
 42
0.168404
  0
VERTEX
  8
0
 10
98.877555
 20
194.000000
 42
-0.097630
  0
VERTEX
  8
0
 10
99.305946
 20
193.915547
 42
-0.097603
  0
VERTEX
  8
0
 10
99.670282
 20
193.674822
 42
-0.098269
  0
VERTEX
  8
0
 10
99.914253
 20
193.315458
 42
-0.100464
  0
VERTEX
  8
0
 10
100.000000
 20
192.893011
 42
-0.154099
  0
VERTEX
  8
0
 10
99.881585
 20
192.517917
 42
-0.152290
  0
VERTEX
  8
0
 10
99.568782
 20
192.276674
 42
-0.114223
  0
VERTEX
  8
0
 10
99.093585
 20
192.215885
 42
-0.066643
  0
VERTEX
  8
0
 10
98.532025
 20
192.349337
 42
0.066719
  0
VERTEX
  8
0
 10
97.926665
 20
192.493102
 42
0.072258
  0
VERTEX
  8
0
 10
97.321649
 20
192.466258
 42
0.081026
  0
VERTEX
  8
0
 10
96.809536
 20
192.279146
 42
0.126981
  0
VERTEX
  8
0
 10
96.473008
 20
191.956326
 42
0.203496
  0
VERTEX
  8
0
 10
96.417594
 20
191.594728
 42
0.181174
  0
VERTEX
  8
0
 10
96.635942
 20
191.280921
 42
0.103827
  0
VERTEX
  8
0
 10
97.142084
 20
191.068404
 42
0.047688
  0
VERTEX
  8
0
 10
97.857650
 20
191.000000
 42
-0.056656
  0
VERTEX
  8
0
 10
98.642933
 20
190.910731
 42
-0.060372
  0
VERTEX
  8
0
 10
99.370421
 20
190.647665
 42
-0.067749
  0
VERTEX
  8
0
 10
99.934282
 20
190.259529
 42
-0.128421
  0
VERTEX
  8
0
 10
100.233146
 20
189.800562
 42
0.437680
  0
VERTEX
  8
0
 10
100.709991
 20
189.585368
 42
0.253023
  0
VERTEX
  8
0
 10
101.146255
 20
190.131579
 42
0.051067
  0
VERTEX
  8
0
 10
101.304083
 20
192.197058
 42
0.041432
  0
VERTEX
  8
0
 10
101.063212
 20
194.406335
 42
0.011037
  0
VERTEX
  8
0
 10
100.692009
 20
196.118581
 42
0.192795
  0
VERTEX
  8
0
 10
100.369051
 20
196.574346
 42
0.347686
  0
VERTEX
  8
0
 10
99.942703
 20
196.533366
 42
0.028460
  0
SEQEND
  0
POLYLINE
  8
0
 66
1
 70
1
  0
VERTEX
  8
0
 10
103.717824
 20
196.305368
 42
0.092603
  0
VERTEX
  8
0
 10
103.543114
 20
195.815105
 42
0.016925
  0
VERTEX
  8
0
 10
103.423681
 20
194.855327
 42
0.017685
  0
VERTEX
  8
0
 10
103.360967
 20
193.707604
 42
0.015252
  0
VERTEX
  8
0
 10
103.374588
 20
192.500000
 42
0.032508
  0
VERTEX
  8
0
 10
103.532705
 20
191.024766
 42
0.111616
  0
VERTEX
  8
0
 10
103.900335
 20
190.140677
 42
0.155579
  0
VERTEX
  8
0
 10
104.532070
 20
189.664677
 42
0.084460
  0
VERTEX
  8
0
 10
105.500000
 20
189.500000
 42
0.087556
  0
VERTEX
  8
0
 10
106.501842
 20
189.676789
 42
0.176971
  0
VERTEX
  8
0
 10
107.106582
 20
190.185788
 42
0.107941
  0
VERTEX
  8
0
 10
107.417581
 20
191.170932
 42
0.022689
  0
VERTEX
  8
0
 10
107.500000
 20
192.986305
 42
0.028300
  0
VERTEX
  8
0
 10
107.408330
 20
194.604595
 42
0.074501
  0
VERTEX
  8
0
 10
107.108315
 20
195.723824
 42
0.112219
  0
VERTEX
  8
0
 10
106.589091
 20
196.429812
 42
0.131477
  0
VERTEX
  8
0
 10
105.843237
 20
196.791673
 42
0.048670
  0
VERTEX
  8
0
 10
105.174731
 20
196.854017
 42
0.055221
  0
VERTEX
  8
0
 10
104.535482
 20
196.780435
 42
0.063202
  0
VERTEX
  8
0
 10
104.017731
 20
196.590755
 42
0.142550
  0
SEQEND
  0
POLYLINE
  8
0
 66
1
 70
1
  0
VERTEX
  8
0
 10
107.000000
 20
195.000000
 42
-0.148195
  0
VERTEX
  8
0
 10
106.884432
 20
194.618646
 42
-0.098894
  0
VERTEX
  8
0
 10
106.559375
 20
194.293750
 42
-0.082425
  0
VERTEX
  8
0
 10
106.073457
 20
194.074694
 42
-0.064853
  0
VERTEX
  8
0
 10
105.500000
 20
194.000000
 42
-0.064853
  0
VERTEX
  8
0
 10
104.926543
 20
194.074694
 42
-0.082425
  0
VERTEX
  8
0
 10
104.440625
 20
194.293750
 42
-0.098894
  0
VERTEX
  8
0
 10
104.115568
 20
194.618646
 42
-0.148195
  0
VERTEX
  8
0
 10
104.000000
 20
195.000000
 42
-0.148195
  0
VERTEX
  8
0
 10
104.115568
 20
195.381354
 42
-0.098894
  0
VERTEX
  8
0
 10
104.440625
 20
195.706250
 42
-0.082425
  0
VERTEX
  8
0
 10
104.926543
 20
195.925306
 42
-0.064853
  0
VERTEX
  8
0
 10
105.500000
 20
196.000000
 42
-0.064853
  0
VERTEX
  8
0
 10
106.073457
 20
195.925306
 42
-0.082425
  0
VERTEX
  8
0
 10
106.559375
 20
195.706250
 42
-0.098894
  0
VERTEX
  8
0
 10
106.884432
 20
195.381354
 42
-0.148195
  0
SEQEND
  0
POLYLINE
  8
0
 66
1
 70
1
  0
VERTEX
  8
0
 10
107.000000
 20
191.500000
 42
-0.099038
  0
VERTEX
  8
0
 10
106.885486
 20
190.927543
 42
-0.097945
  0
VERTEX
  8
0
 10
106.559375
 20
190.440625
 42
-0.097945
  0
VERTEX
  8
0
 10
106.072457
 20
190.114514
 42
-0.099038
  0
VERTEX
  8
0
 10
105.500000
 20
190.000000
 42
-0.099038
  0
VERTEX
  8
0
 10
104.927543
 20
190.114514
 42
-0.097945
  0
VERTEX
  8
0
 10
104.440625
 20
190.440625
 42
-0.097945
  0
VERTEX
  8
0
 10
104.114514
 20
190.927543
 42
-0.099038
  0
VERTEX
  8
0
 10
104.000000
 20
191.500000
 42
-0.099038
  0
VERTEX
  8
0
 10
104.114514
 20
192.072457
 42
-0.097945
  0
VERTEX
  8
0
 10
104.440625
 20
192.559375
 42
-0.097945
  0
VERTEX
  8
0
 10
104.927543
 20
192.885486
 42
-0.099038
  0
VERTEX
  8
0
 10
105.500000
 20
193.000000
 42
-0.099038
  0
VERTEX
  8
0
 10
106.072457
 20
192.885486
 42
-0.097945
  0
VERTEX
  8
0
 10
106.559375
 20
192.559375
 42
-0.097945
  0
VERTEX
  8
0
 10
106.885486
 20
192.072457
 42
-0.099038
  0
SEQEND
  0
POLYLINE
  8
0
 66
1
 70
1
  0
VERTEX
  8
0
 10
163.417895
 20
195.646633
 42
0.079877
  0
VERTEX
  8
0
 10
162.971714
 20
193.521953
 42
0.093820
  0
VERTEX
  8
0
 10
163.257454
 20
191.487182
 42
0.119017
  0
VERTEX
  8
0
 10
164.173206
 20
190.037917
 42
0.195005
  0
VERTEX
  8
0
 10
165.500000
 20
189.500000
 42
0.087565
  0
VERTEX
  8
0
 10
166.501871
 20
189.676813
 42
0.176982
  0
VERTEX
  8
0
 10
167.106609
 20
190.185870
 42
0.107929
  0
VERTEX
  8
0
 10
167.417592
 20
191.171160
 42
0.022680
  0
VERTEX
  8
0
 10
167.500000
 20
192.986958
 42
0.027804
  0
VERTEX
  8
0
 10
167.407635
 20
194.646681
 42
0.079834
  0
VERTEX
  8
0
 10
167.100158
 20
195.755440
 42
0.120571
  0
VERTEX
  8
0
 10
166.553818
 20
196.445277
 42
0.118319
  0
VERTEX
  8
0
 10
165.746976
 20
196.810865
 42
0.084270
  0
VERTEX
  8
0
 10
165.033854
 20
196.826378
 42
0.079454
  0
VERTEX
  8
0
 10
164.339686
 20
196.607863
 42
0.082568
  0
VERTEX
  8
0
 10
163.770607
 20
196.194415
 42
0.103194
  0
SEQEND
  0
POLYLINE
  8
0
 66
1
 70
1
  0
VERTEX
  8
0
 10
167.000000
 20
195.000000
 42
-0.148195
  0
VERTEX
  8
0
 10
166.884432
 20
194.618646
 42
-0.098894
  0
VERTEX
  8
0
 10
166.559375
 20
194.293750
 42
-0.082425
  0
VERTEX
  8
0
 10
166.073457
 20
194.074694
 42
-0.064853
  0
VERTEX
  8
0
 10
165.500000
 20
194.000000
 42
-0.064853
  0
VERTEX
  8
0
 10
164.926543
 20
194.074694
 42
-0.082425
  0
VERTEX
  8
0
 10
164.440625
 20
194.293750
 42
-0.098894
  0
VERTEX
  8
0
 10
164.115568
 20
194.618646
 42
-0.148195
  0
VERTEX
  8
0
 10
164.000000
 20
195.000000
 42
-0.148195
  0
VERTEX
  8
0
 10
164.115568
 20
195.381354
 42
-0.098894
  0
VERTEX
  8
0
 10
164.440625
 20
195.706250
 42
-0.082425
  0
VERTEX
  8
0
 10
164.926543
 20
195.925306
 42
-0.064853
  0
VERTEX
  8
0
 10
165.500000
 20
196.000000
 42
-0.064853
  0
VERTEX
  8
0
 10
166.073457
 20
195.925306
 42
-0.082425
  0
VERTEX
  8
0
 10
166.559375
 20
195.706250
 42
-0.098894
  0
VERTEX
  8
0
 10
166.884432
 20
195.381354
 42
-0.148195
  0
SEQEND
  0
POLYLINE
  8
0
 66
1
 70
1
  0
VERTEX
  8
0
 10
167.000000
 20
191.500000
 42
-0.099038
  0
VERTEX
  8
0
 10
166.885486
 20
190.927543
 42
-0.097945
  0
VERTEX
  8
0
 10
166.559375
 20
190.440625
 42
-0.097945
  0
VERTEX
  8
0
 10
166.072457
 20
190.114514
 42
-0.099038
  0
VERTEX
  8
0
 10
165.500000
 20
190.000000
 42
-0.099038
  0
VERTEX
  8
0
 10
164.927543
 20
190.114514
 42
-0.097945
  0
VERTEX
  8
0
 10
164.440625
 20
190.440625
 42
-0.097945
  0
VERTEX
  8
0
 10
164.114514
 20
190.927543
 42
-0.099038
  0
VERTEX
  8
0
 10
164.000000
 20
191.500000
 42
-0.099038
  0
VERTEX
  8
0
 10
164.114514
 20
192.072457
 42
-0.097945
  0
VERTEX
  8
0
 10
164.440625
 20
192.559375
 42
-0.097945
  0
VERTEX
  8
0
 10
164.927543
 20
192.885486
 42
-0.099038
  0
VERTEX
  8
0
 10
165.500000
 20
193.000000
 42
-0.099038
  0
VERTEX
  8
0
 10
166.072457
 20
192.885486
 42
-0.097945
  0
VERTEX
  8
0
 10
166.559375
 20
192.559375
 42
-0.097945
  0
VERTEX
  8
0
 10
166.885486
 20
192.072457
 42
-0.099038
  0
SEQEND
  0
POLYLINE
  8
0
 66
1
 70
1
  0
VERTEX
  8
0
 10
170.200000
 20
195.800000
 42
0.172173
  0
VERTEX
  8
0
 10
169.097906
 20
193.485465
 42
0.156428
  0
VERTEX
  8
0
 10
169.643448
 20
190.887056
 42
0.205208
  0
VERTEX
  8
0
 10
171.435076
 20
189.528686
 42
0.238536
  0
VERTEX
  8
0
 10
173.500000
 20
190.000000
 42
0.057488
  0
VERTEX
  8
0
 10
174.074047
 20
190.600088
 42
0.043569
  0
VERTEX
  8
0
 10
174.559375
 20
191.371985
 42
0.044560
  0
VERTEX
  8
0
 10
174.890640
 20
192.189135
 42
0.074156
  0
VERTEX
  8
0
 10
175.000000
 20
192.922445
 42
0.101572
  0
VERTEX
  8
0
 10
174.738098
 20
194.198389
 42
0.057416
  0
VERTEX
  8
0
 10
173.951043
 20
195.574273
 42
0.059034
  0
VERTEX
  8
0
 10
172.937369
 20
196.657502
 42
0.176970
  0
VERTEX
  8
0
 10
172.000000
 20
197.000000
 42
0.120635
  0
VERTEX
  8
0
 10
171.692415
 20
196.924693
 42
0.026952
  0
VERTEX
  8
0
 10
171.223750
 20
196.647500
 42
0.026473
  0
VERTEX
  8
0
 10
170.703443
 20
196.259351
 42
0.022886
  0
SEQEND
  0
POLYLINE
  8
0
 66
1
 70
1
  0
VERTEX
  8
0
 10
173.500000
 20
193.000000
 42
-0.093904
  0
VERTEX
  8
0
 10
173.181218
 20
191.317577
 42
-0.183250
  0
VERTEX
  8
0
 10
172.276661
 20
190.320922
 42
-0.271668
  0
VERTEX
  8
0
 10
171.218381
 20
190.383653
 42
-0.154883
  0
VERTEX
  8
0
 10
170.393537
 20
191.416842
 42
-0.094621
  0
VERTEX
  8
0
 10
170.106155
 20
193.016771
 42
-0.098804
  0
VERTEX
  8
0
 10
170.436755
 20
194.583803
 42
-0.134073
  0
VERTEX
  8
0
 10
171.237026
 20
195.590922
 42
-0.243271
  0
VERTEX
  8
0
 10
172.250526
 20
195.749825
 42
-0.141756
  0
VERTEX
  8
0
 10
172.729077
 20
195.420046
 42
-0.064911
  0
VERTEX
  8
0
 10
173.132967
 20
194.770261
 42
-0.056662
  0
VERTEX
  8
0
 10
173.407308
 20
193.923422
 42
-0.050064
  0
SEQEND
  0
POLYLINE
  8
0
 66
1
 70
1
  0
VERTEX
  8
0
 10
247.717824
 20
196.305368
 42
0.092603
  0
VERTEX
  8
0
 10
247.543114
 20
195.815105
 42
0.016925
  0
VERTEX
  8
0
 10
247.423681
 20
194.855327
 42
0.017685
  0
VERTEX
  8
0
 10
247.360967
 20
193.707604
 42
0.015252
  0
VERTEX
  8
0
 10
247.374588
 20
192.500000
 42
0.032508
  0
VERTEX
  8
0
 10
247.532705
 20
191.024766
 42
0.111616
  0
VERTEX
  8
0
 10
247.900335
 20
190.140677
 42
0.155579
  0
VERTEX
  8
0
 10
248.532070
 20
189.664677
 42
0.084460
  0
VERTEX
  8
0
 10
249.500000
 20
189.500000
 42
0.087556
  0
VERTEX
  8
0
 10
250.501842
 20
189.676789
 42
0.176971
  0
VERTEX
  8
0
 10
251.106582
 20
190.185788
 42
0.107941
  0
VERTEX
  8
0
 10
251.417581
 20
191.170932
 42
0.022689
  0
VERTEX
  8
0
 10
251.500000
 20
192.986305
 42
0.028300
  0
VERTEX
  8
0
 10
251.408330
 20
194.604595
 42
0.074501
  0
VERTEX
  8
0
 10
251.108315
 20
195.723824
 42
0.112219
  0
VERTEX
  8
0
 10
250.589091
 20
196.429812
 42
0.131477
  0
VERTEX
  8
0
 10
249.843237
 20
196.791673
 42
0.048670
  0
VERTEX
  8
0
 10
249.174731
 20
196.854017
 42
0.055221
  0
VERTEX
  8
0
 10
248.535482
 20
196.780435
 42
0.063202
  0
VERTEX
  8
0
 10
248.017731
 20
196.590755
 42
0.142550
  0
SEQEND
  0
POLYLINE
  8
0
 66
1
 70
1
  0
VERTEX
  8
0
 10
251.000000
 20
195.000000
 42
-0.148195
  0
VERTEX
  8
0
 10
250.884432
 20
194.618646
 42
-0.098894
  0
VERTEX
  8
0
 10
250.559375
 20
194.293750
 42
-0.082425
  0
VERTEX
  8
0
 10
250.073457
 20
194.074694
 42
-0.064853
  0
VERTEX
  8
0
 10
249.500000
 20
194.000000
 42
-0.064853
  0
VERTEX
  8
0
 10
248.926543
 20
194.074694
 42
-0.082425
  0
VERTEX
  8
0
 10
248.440625
 20
194.293750
 42
-0.098894
  0
VERTEX
  8
0
 10
248.115568
 20
194.618646
 42
-0.148195
  0
VERTEX
  8
0
 10
248.000000
 20
195.000000
 42
-0.148195
  0
VERTEX
  8
0
 10
248.115568
 20
195.381354
 42
-0.098894
  0
VERTEX
  8
0
 10
248.440625
 20
195.706250
 42
-0.082425
  0
VERTEX
  8
0
 10
248.926543
 20
195.925306
 42
-0.064853
  0
VERTEX
  8
0
 10
249.500000
 20
196.000000
 42
-0.064853
  0
VERTEX
  8
0
 10
250.073457
 20
195.925306
 42
-0.082425
  0
VERTEX
  8
0
 10
250.559375
 20
195.706250
 42
-0.098894
  0
VERTEX
  8
0
 10
250.884432
 20
195.381354
 42
-0.148195
  0
SEQEND
  0
POLYLINE
  8
0
 66
1
 70
1
  0
VERTEX
  8
0
 10
251.000000
 20
191.500000
 42
-0.099038
  0
VERTEX
  8
0
 10
250.885486
 20
190.927543
 42
-0.097945
  0
VERTEX
  8
0
 10
250.559375
 20
190.440625
 42
-0.097945
  0
VERTEX
  8
0
 10
250.072457
 20
190.114514
 42
-0.099038
  0
VERTEX
  8
0
 10
249.500000
 20
190.000000
 42
-0.099038
  0
VERTEX
  8
0
 10
248.927543
 20
190.114514
 42
-0.097945
  0
VERTEX
  8
0
 10
248.440625
 20
190.440625
 42
-0.097945
  0
VERTEX
  8
0
 10
248.114514
 20
190.927543
 42
-0.099038
  0
VERTEX
  8
0
 10
248.000000
 20
191.500000
 42
-0.099038
  0
VERTEX
  8
0
 10
248.114514
 20
192.072457
 42
-0.097945
  0
VERTEX
  8
0
 10
248.440625
 20
192.559375
 42
-0.097945
  0
VERTEX
  8
0
 10
248.927543
 20
192.885486
 42
-0.099038
  0
VERTEX
  8
0
 10
249.500000
 20
193.000000
 42
-0.099038
  0
VERTEX
  8
0
 10
250.072457
 20
192.885486
 42
-0.097945
  0
VERTEX
  8
0
 10
250.559375
 20
192.559375
 42
-0.097945
  0
VERTEX
  8
0
 10
250.885486
 20
192.072457
 42
-0.099038
  0
SEQEND
  0
POLYLINE
  8
0
 66
1
 70
1
  0
VERTEX
  8
0
 10
254.417895
 20
195.646633
 42
0.079877
  0
VERTEX
  8
0
 10
253.971714
 20
193.521953
 42
0.093820
  0
VERTEX
  8
0
 10
254.257454
 20
191.487182
 42
0.119017
  0
VERTEX
  8
0
 10
255.173206
 20
190.037917
 42
0.195005
  0
VERTEX
  8
0
 10
256.500000
 20
189.500000
 42
0.087556
  0
VERTEX
  8
0
 10
257.501842
 20
189.676789
 42
0.176971
  0
VERTEX
  8
0
 10
258.106582
 20
190.185788
 42
0.107941
  0
VERTEX
  8
0
 10
258.417581
 20
191.170932
 42
0.022689
  0
VERTEX
  8
0
 10
258.500000
 20
192.986305
 42
0.027822
  0
VERTEX
  8
0
 10
258.407604
 20
194.645529
 42
0.079817
  0
VERTEX
  8
0
 10
258.100083
 20
195.754297
 42
0.120499
  0
VERTEX
  8
0
 10
257.553734
 20
196.444349
 42
0.118300
  0
VERTEX
  8
0
 10
256.746976
 20
196.810212
 42
0.084276
  0
VERTEX
  8
0
 10
256.033854
 20
196.825973
 42
0.079482
  0
VERTEX
  8
0
 10
255.339686
 20
196.607671
 42
0.082601
  0
VERTEX
  8
0
 10
254.770610
 20
196.194364
 42
0.103218
  0
SEQEND
  0
POLYLINE
  8
0
 66
1
 70
1
  0
VERTEX
  8
0
 10
257.500000
 20
193.000000
 42
-0.050084
  0
VERTEX
  8
0
 10
257.407268
 20
192.076566
 42
-0.056675
  0
VERTEX
  8
0
 10
257.132812
 20
191.229688
 42
-0.064922
  0
VERTEX
  8
0
 10
256.728750
 20
190.579854
 42
-0.141711
  0
VERTEX
  8
0
 10
256.250000
 20
190.250000
 42
-0.211461
  0
VERTEX
  8
0
 10
255.717867
 20
190.300722
 42
-0.159419
  0
VERTEX
  8
0
 10
255.315789
 20
190.738596
 42
-0.080465
  0
VERTEX
  8
0
 10
255.072170
 20
191.632602
 42
-0.026371
  0
VERTEX
  8
0
 10
255.000000
 20
193.000000
 42
-0.026371
  0
VERTEX
  8
0
 10
255.072170
 20
194.367398
 42
-0.080465
  0
VERTEX
  8
0
 10
255.315789
 20
195.261404
 42
-0.159419
  0
VERTEX
  8
0
 10
255.717867
 20
195.699278
 42
-0.211461
  0
VERTEX
  8
0
 10
256.250000
 20
195.750000
 42
-0.141711
  0
VERTEX
  8
0
 10
256.728750
 20
195.420146
 42
-0.064922
  0
VERTEX
  8
0
 10
257.132812
 20
194.770312
 42
-0.056675
  0
VERTEX
  8
0
 10
257.407268
 20
193.923434
 42
-0.050084
  0
SEQEND
  0
POLYLINE
  8
0
 66
1
 70
1
  0
VERTEX
  8
0
 10
312.750000
 20
194.530467
 42
0.012715
  0
VERTEX
  8
0
 10
311.348409
 20
192.496122
 42
0.163572
  0
VERTEX
  8
0
 10
311.119912
 20
191.614428
 42
0.341840
  0
VERTEX
  8
0
 10
311.550584
 20
191.132669
 42
0.045671
  0
VERTEX
  8
0
 10
313.000000
 20
191.000000
 42
-0.060533
  0
VERTEX
  8
0
 10
313.765941
 20
190.906930
 42
-0.078496
  0
VERTEX
  8
0
 10
314.416998
 20
190.632812
 42
-0.095937
  0
VERTEX
  8
0
 10
314.855898
 20
190.226823
 42
-0.156456
  0
VERTEX
  8
0
 10
315.015313
 20
189.750000
 42
0.024068
  0
VERTEX
  8
0
 10
315.052058
 20
189.142130
 42
0.390897
  0
VERTEX
  8
0
 10
315.193602
 20
189.018729
 42
0.235076
  0
VERTEX
  8
0
 10
315.407957
 20
189.133067
 42
0.013377
  0
VERTEX
  8
0
 10
315.838706
 20
189.773261
 42
0.135245
  0
VERTEX
  8
0
 10
316.294675
 20
191.264958
 42
0.031279
  0
VERTEX
  8
0
 10
316.202589
 20
193.914204
 42
0.026964
  0
VERTEX
  8
0
 10
315.817437
 20
196.442085
 42
0.369288
  0
VERTEX
  8
0
 10
315.136501
 20
196.968575
 42
0.169752
  0
VERTEX
  8
0
 10
314.795784
 20
196.830259
 42
0.018544
  0
VERTEX
  8
0
 10
314.172910
 20
196.239418
 42
0.021014
  0
VERTEX
  8
0
 10
313.466698
 20
195.454525
 42
0.015488
  0
SEQEND
  0
POLYLINE
  8
0
 66
1
 70
1
  0
VERTEX
  8
0
 10
315.000000
 20
193.000000
 42
-0.153634
  0
VERTEX
  8
0
 10
314.879982
 20
192.618621
 42
-0.097988
  0
VERTEX
  8
0
 10
314.542039
 20
192.293750
 42
-0.080552
  0
VERTEX
  8
0
 10
314.037096
 20
192.074545
 42
-0.062283
  0
VERTEX
  8
0
 10
313.440983
 20
192.000000
 42
-0.066118
  0
VERTEX
  8
0
 10
312.889346
 20
192.073267
 42
-0.138808
  0
VERTEX
  8
0
 10
312.521475
 20
192.293750
 42
-0.191142
  0
VERTEX
  8
0
 10
312.392057
 20
192.620352
 42
-0.139169
  0
VERTEX
  8
0
 10
312.500000
 20
193.000000
 42
-0.060810
  0
VERTEX
  8
0
 10
312.806203
 20
193.382515
 42
-0.051032
  0
VERTEX
  8
0
 10
313.212900
 20
193.706250
 42
-0.053229
  0
VERTEX
  8
0
 10
313.653442
 20
193.926698
 42
-0.089642
  0
VERTEX
  8
0
 10
314.059017
 20
194.000000
 42
-0.105429
  0
VERTEX
  8
0
 10
314.418051
 20
193.923444
 42
-0.099231
  0
VERTEX
  8
0
 10
314.723586
 20
193.706250
 42
-0.096318
  0
VERTEX
  8
0
 10
314.928382
 20
193.381732
 42
-0.092995
  0
SEQEND
  0
POLYLINE
  8
0
 66
1
 70
1
  0
VERTEX
  8
0
 10
318.717824
 20
196.305368
 42
0.092603
  0
VERTEX
  8
0
 10
318.543114
 20
195.815105
 42
0.016925
  0
VERTEX
  8
0
 10
318.423681
 20
194.855327
 42
0.017685
  0
VERTEX
  8
0
 10
318.360967
 20
193.707604
 42
0.015252
  0
VERTEX
  8
0
 10
318.374588
 20
192.500000
 42
0.032508
  0
VERTEX
  8
0
 10
318.532705
 20
191.024766
 42
0.111616
  0
VERTEX
  8
0
 10
318.900335
 20
190.140677
 42
0.155579
  0
VERTEX
  8
0
 10
319.532070
 20
189.664677
 42
0.084460
  0
VERTEX
  8
0
 10
320.500000
 20
189.500000
 42
0.087556
  0
VERTEX
  8
0
 10
321.501842
 20
189.676789
 42
0.176971
  0
VERTEX
  8
0
 10
322.106582
 20
190.185788
 42
0.107941
  0
VERTEX
  8
0
 10
322.417581
 20
191.170932
 42
0.022689
  0
VERTEX
  8
0
 10
322.500000
 20
192.986305
 42
0.028300
  0
VERTEX
  8
0
 10
322.408330
 20
194.604595
 42
0.074501
  0
VERTEX
  8
0
 10
322.108315
 20
195.723824
 42
0.112219
  0
VERTEX
  8
0
 10
321.589091
 20
196.429812
 42
0.131477
  0
VERTEX
  8
0
 10
320.843237
 20
196.791673
 42
0.048670
  0
VERTEX
  8
0
 10
320.174731
 20
196.854017
 42
0.055221
  0
VERTEX
  8
0
 10
319.535482
 20
196.780435
 42
0.063202
  0
VERTEX
  8
0
 10
319.017731
 20
196.590755
 42
0.142550
  0
SEQEND
  0
POLYLINE
  8
0
 66
1
 70
1
  0
VERTEX
  8
0
 10
322.000000
 20
195.000000
 42
-0.148195
  0
VERTEX
  8
0
 10
321.884432
 20
194.618646
 42
-0.098894
  0
VERTEX
  8
0
 10
321.559375
 20
194.293750
 42
-0.082425
  0
VERTEX
  8
0
 10
321.073457
 20
194.074694
 42
-0.064853
  0
VERTEX
  8
0
 10
320.500000
 20
194.000000
 42
-0.064853
  0
VERTEX
  8
0
 10
319.926543
 20
194.074694
 42
-0.082425
  0
VERTEX
  8
0
 10
319.440625
 20
194.293750
 42
-0.098894
  0
VERTEX
  8
0
 10
319.115568
 20
194.618646
 42
-0.148195
  0
VERTEX
  8
0
 10
319.000000
 20
195.000000
 42
-0.148195
  0
VERTEX
  8
0
 10
319.115568
 20
195.381354
 42
-0.098894
  0
VERTEX
  8
0
 10
319.440625
 20
195.706250
 42
-0.082425
  0
VERTEX
  8
0
 10
319.926543
 20
195.925306
 42
-0.064853
  0
VERTEX
  8
0
 10
320.500000
 20
196.000000
 42
-0.064853
  0
VERTEX
  8
0
 10
321.073457
 20
195.925306
 42
-0.082425
  0
VERTEX
  8
0
 10
321.559375
 20
195.706250
 42
-0.098894
  0
VERTEX
  8
0
 10
321.884432
 20
195.381354
 42
-0.148195
  0
SEQEND
  0
POLYLINE
  8
0
 66
1
 70
1
  0
VERTEX
  8
0
 10
322.000000
 20
191.500000
 42
-0.099038
  0
VERTEX
  8
0
 10
321.885486
 20
190.927543
 42
-0.097945
  0
VERTEX
  8
0
 10
321.559375
 20
190.440625
 42
-0.097945
  0
VERTEX
  8
0
 10
321.072457
 20
190.114514
 42
-0.099038
  0
VERTEX
  8
0
 10
320.500000
 20
190.000000
 42
-0.099038
  0
VERTEX
  8
0
 10
319.927543
 20
190.114514
 42
-0.097945
  0
VERTEX
  8
0
 10
319.440625
 20
190.440625
 42
-0.097945
  0
VERTEX
  8
0
 10
319.114514
 20
190.927543
 42
-0.099038
  0
VERTEX
  8
0
 10
319.000000
 20
191.500000
 42
-0.099038
  0
VERTEX
  8
0
 10
319.114514
 20
192.072457
 42
-0.097945
  0
VERTEX
  8
0
 10
319.440625
 20
192.559375
 42
-0.097945
  0
VERTEX
  8
0
 10
319.927543
 20
192.885486
 42
-0.099038
  0
VERTEX
  8
0
 10
320.500000
 20
193.000000
 42
-0.099038
  0
VERTEX
  8
0
 10
321.072457
 20
192.885486
 42
-0.097945
  0
VERTEX
  8
0
 10
321.559375
 20
192.559375
 42
-0.097945
  0
VERTEX
  8
0
 10
321.885486
 20
192.072457
 42
-0.099038
  0
SEQEND
  0
POLYLINE
  8
0
 66
1
 70
1
  0
VERTEX
  8
0
 10
21.097559
 20
167.271186
 42
0.000000
  0
VERTEX
  8
0
 10
25.695117
 20
166.902869
 42
0.000000
  0
VERTEX
  8
0
 10
25.897366
 20
145.734960
 42
0.001971
  0
VERTEX
  8
0
 10
26.007340
 20
137.587331
 42
0.003183
  0
VERTEX
  8
0
 10
26.172448
 20
130.652881
 42
0.000582
  0
VERTEX
  8
0
 10
26.363868
 20
124.545903
 42
0.190480
  0
VERTEX
  8
0
 10
26.549808
 20
124.116859
 42
0.656999
  0
VERTEX
  8
0
 10
26.732803
 20
124.189348
 42
0.001038
  0
VERTEX
  8
0
 10
26.867756
 20
128.841619
 42
0.004271
  0
VERTEX
  8
0
 10
26.967762
 20
134.281272
 42
0.002460
  0
VERTEX
  8
0
 10
27.000000
 20
140.833333
 42
-0.004789
  0
VERTEX
  8
0
 10
27.063052
 20
147.415745
 42
-0.007974
  0
VERTEX
  8
0
 10
27.257667
 20
152.957292
 42
-0.002536
  0
VERTEX
  8
0
 10
27.522229
 20
157.666149
 42
-0.396401
  0
VERTEX
  8
0
 10
27.877163
 20
158.000000
 42
0.353636
  0
VERTEX
  8
0
 10
28.190445
 20
158.253247
 42
0.032179
  0
VERTEX
  8
0
 10
28.348016
 20
159.318760
 42
0.030509
  0
VERTEX
  8
0
 10
28.379160
 20
160.768181
 42
0.018183
  0
VERTEX
  8
0
 10
28.248306
 20
162.489394
 42
0.000000
  0
VERTEX
  8
0
 10
27.742286
 20
166.978789
 42
0.000000
  0
VERTEX
  8
0
 10
71.621143
 20
167.250180
 42
0.000000
  0
VERTEX
  8
0
 10
115.500000
 20
167.521572
 42
0.000000
  0
VERTEX
  8
0
 10
66.000000
 20
167.580538
 42
0.000688
  0
VERTEX
  8
0
 10
47.324270
 20
167.577085
 42
0.001332
  0
VERTEX
  8
0
 10
32.391158
 20
167.513989
 42
0.000921
  0
VERTEX
  8
0
 10
21.102563
 20
167.415421
 42
0.955737
  0
SEQEND
  0
POLYLINE
  8
0
 66
1
 70
1
  0
VERTEX
  8
0
 10
117.000000
 20
167.000000
 42
-0.386979
  0
VERTEX
  8
0
 10
116.594084
 20
166.554073
 42
-0.006670
  0
VERTEX
  8
0
 10
113.034893
 20
166.266823
 42
-0.011751
  0
VERTEX
  8
0
 10
108.370703
 20
166.062909
 42
-0.005048
  0
VERTEX
  8
0
 10
102.139571
 20
166.000000
 42
0.003877
  0
VERTEX
  8
0
 10
96.109332
 20
165.953241
 42
0.004286
  0
VERTEX
  8
0
 10
90.278775
 20
165.812821
 42
0.003988
  0
VERTEX
  8
0
 10
85.304512
 20
165.610628
 42
0.021907
  0
VERTEX
  8
0
 10
82.630228
 20
165.362795
 42
0.000000
  0
VERTEX
  8
0
 10
77.981314
 20
164.725591
 42
0.000000
  0
VERTEX
  8
0
 10
78.240657
 20
115.612795
 42
0.000000
  0
VERTEX
  8
0
 10
78.500000
 20
66.500000
 42
0.000000
  0
VERTEX
  8
0
 10
86.500000
 20
66.406893
 42
0.000000
  0
VERTEX
  8
0
 10
94.500000
 20
66.313785
 42
0.000000
  0
VERTEX
  8
0
 10
87.000000
 20
66.906893
 42
0.000000
  0
VERTEX
  8
0
 10
79.500000
 20
67.500000
 42
0.000000
  0
VERTEX
  8
0
 10
79.235953
 20
99.250000
 42
-0.001711
  0
VERTEX
  8
0
 10
79.176367
 20
111.424546
 42
-0.002854
  0
VERTEX
  8
0
 10
79.219783
 20
121.673438
 42
-0.000328
  0
VERTEX
  8
0
 10
79.316187
 20
130.767129
 42
-0.410920
  0
VERTEX
  8
0
 10
79.551694
 20
131.000000
 42
-0.081119
  0
VERTEX
  8
0
 10
79.894232
 20
130.944059
 42
-0.010227
  0
VERTEX
  8
0
 10
80.602796
 20
130.690045
 42
-0.011794
  0
VERTEX
  8
0
 10
81.436929
 20
130.348867
 42
-0.009544
  0
VERTEX
  8
0
 10
82.315741
 20
129.944834
 42
0.000946
  0
VERTEX
  8
0
 10
83.833779
 20
129.215043
 42
0.412352
  0
VERTEX
  8
0
 10
83.931719
 20
129.249246
 42
0.349364
  0
VERTEX
  8
0
 10
83.906758
 20
129.361067
 42
0.000877
  0
VERTEX
  8
0
 10
82.558870
 20
130.444834
 42
0.018586
  0
VERTEX
  8
0
 10
81.756381
 20
131.040184
 42
0.021613
  0
VERTEX
  8
0
 10
80.950342
 20
131.543170
 42
0.021235
  0
VERTEX
  8
0
 10
80.240245
 20
131.905855
 42
0.107853
  0
VERTEX
  8
0
 10
79.808870
 20
132.000000
 42
-0.396618
  0
VERTEX
  8
0
 10
79.481509
 20
132.308149
 42
-0.002484
  0
VERTEX
  8
0
 10
79.237606
 20
136.700000
 42
-0.007890
  0
VERTEX
  8
0
 10
79.058143
 20
141.864933
 42
-0.004738
  0
VERTEX
  8
0
 10
79.000000
 20
148.000000
 42
0.000000
  0
VERTEX
  8
0
 10
79.000000
 20
164.000000
 42
0.000000
  0
VERTEX
  8
0
 10
210.507911
 20
164.000000
 42
0.000000
  0
VERTEX
  8
0
 10
342.015821
 20
164.000000
 42
0.000000
  0
VERTEX
  8
0
 10
341.757911
 20
115.095139
 42
0.001433
  0
VERTEX
  8
0
 10
341.712833
 20
96.374078
 42
0.002425
  0
VERTEX
  8
0
 10
341.796074
 20
80.692345
 42
0.000280
  0
VERTEX
  8
0
 10
341.944731
 20
66.822038
 42
0.583714
  0
VERTEX
  8
0
 10
342.250000
 20
66.654156
 42
0.255501
  0
VERTEX
  8
0
 10
342.557196
 20
67.194962
 42
0.000265
  0
VERTEX
  8
0
 10
342.779688
 20
81.318256
 42
0.002366
  0
VERTEX
  8
0
 10
342.946040
 20
97.177118
 42
0.001439
  0
VERTEX
  8
0
 10
343.000000
 20
115.923093
 42
0.000000
  0
VERTEX
  8
0
 10
343.000000
 20
164.728152
 42
0.000000
  0
VERTEX
  8
0
 10
338.360429
 20
165.364076
 42
0.021927
  0
VERTEX
  8
0
 10
335.690288
 20
165.611421
 42
0.003981
  0
VERTEX
  8
0
 10
330.718481
 20
165.813197
 42
0.004280
  0
VERTEX
  8
0
 10
324.889984
 20
165.953336
 42
0.003870
  0
VERTEX
  8
0
 10
318.860429
 20
166.000000
 42
-0.005048
  0
VERTEX
  8
0
 10
312.629297
 20
166.062909
 42
-0.011751
  0
VERTEX
  8
0
 10
307.965107
 20
166.266823
 42
-0.006670
  0
VERTEX
  8
0
 10
304.405916
 20
166.554073
 42
-0.386979
  0
VERTEX
  8
0
 10
304.000000
 20
167.000000
 42
0.375539
  0
VERTEX
  8
0
 10
303.622551
 20
167.431670
 42
0.010792
  0
VERTEX
  8
0
 10
301.000000
 20
167.727273
 42
0.015486
  0
VERTEX
  8
0
 10
297.523566
 20
167.935032
 42
0.007181
  0
VERTEX
  8
0
 10
293.000000
 20
168.000000
 42
0.007181
  0
VERTEX
  8
0
 10
288.476434
 20
167.935032
 42
0.015486
  0
VERTEX
  8
0
 10
285.000000
 20
167.727273
 42
0.010792
  0
VERTEX
  8
0
 10
282.377449
 20
167.431670
 42
0.375539
  0
VERTEX
  8
0
 10
282.000000
 20
167.000000
 42
-0.402248
  0
VERTEX
  8
0
 10
281.548675
 20
166.529770
 42
-0.001926
  0
VERTEX
  8
0
 10
274.250000
 20
166.258333
 42
-0.006014
  0
VERTEX
  8
0
 10
264.934079
 20
166.059930
 42
-0.002317
  0
VERTEX
  8
0
 10
252.000000
 20
166.000000
 42
-0.002317
  0
VERTEX
  8
0
 10
239.065921
 20
166.059930
 42
-0.006014
  0
VERTEX
  8
0
 10
229.750000
 20
166.258333
 42
-0.001926
  0
VERTEX
  8
0
 10
222.451325
 20
166.529770
 42
-0.402248
  0
VERTEX
  8
0
 10
222.000000
 20
167.000000
 42
0.375539
  0
VERTEX
  8
0
 10
221.622551
 20
167.431670
 42
0.010792
  0
VERTEX
  8
0
 10
219.000000
 20
167.727273
 42
0.015486
  0
VERTEX
  8
0
 10
215.523566
 20
167.935032
 42
0.007181
  0
VERTEX
  8
0
 10
211.000000
 20
168.000000
 42
0.007181
  0
VERTEX
  8
0
 10
206.476434
 20
167.935032
 42
0.015486
  0
VERTEX
  8
0
 10
203.000000
 20
167.727273
 42
0.010792
  0
VERTEX
  8
0
 10
200.377449
 20
167.431670
 42
0.375539
  0
VERTEX
  8
0
 10
200.000000
 20
167.000000
 42
-0.402474
  0
VERTEX
  8
0
 10
199.547905
 20
166.529334
 42
-0.001868
  0
VERTEX
  8
0
 10
192.125000
 20
166.258197
 42
-0.005918
  0
VERTEX
  8
0
 10
182.655516
 20
166.059882
 42
-0.002276
  0
VERTEX
  8
0
 10
169.500000
 20
166.000000
 42
-0.002276
  0
VERTEX
  8
0
 10
156.344484
 20
166.059882
 42
-0.005918
  0
VERTEX
  8
0
 10
146.875000
 20
166.258197
 42
-0.001868
  0
VERTEX
  8
0
 10
139.452095
 20
166.529334
 42
-0.402474
  0
VERTEX
  8
0
 10
139.000000
 20
167.000000
 42
0.375539
  0
VERTEX
  8
0
 10
138.622551
 20
167.431670
 42
0.010792
  0
VERTEX
  8
0
 10
136.000000
 20
167.727273
 42
0.015486
  0
VERTEX
  8
0
 10
132.523566
 20
167.935032
 42
0.007181
  0
VERTEX
  8
0
 10
128.000000
 20
168.000000
 42
0.007181
  0
VERTEX
  8
0
 10
123.476434
 20
167.935032
 42
0.015486
  0
VERTEX
  8
0
 10
120.000000
 20
167.727273
 42
0.010792
  0
VERTEX
  8
0
 10
117.377449
 20
167.431670
 42
0.375539
  0
SEQEND
  0
POLYLINE
  8
0
 66
1
 70
1
  0
VERTEX
  8
0
 10
138.000000
 20
166.000000
 42
-0.371083
  0
VERTEX
  8
0
 10
137.632804
 20
165.573367
 42
-0.012451
  0
VERTEX
  8
0
 10
135.250000
 20
165.275000
 42
-0.016864
  0
VERTEX
  8
0
 10
132.081547
 20
165.065757
 42
-0.008055
  0
VERTEX
  8
0
 10
128.000000
 20
165.000000
 42
-0.008055
  0
VERTEX
  8
0
 10
123.918453
 20
165.065757
 42
-0.016864
  0
VERTEX
  8
0
 10
120.750000
 20
165.275000
 42
-0.012451
  0
VERTEX
  8
0
 10
118.367196
 20
165.573367
 42
-0.371083
  0
VERTEX
  8
0
 10
118.000000
 20
166.000000
 42
-0.371083
  0
VERTEX
  8
0
 10
118.367196
 20
166.426633
 42
-0.012451
  0
VERTEX
  8
0
 10
120.750000
 20
166.725000
 42
-0.016864
  0
VERTEX
  8
0
 10
123.918453
 20
166.934243
 42
-0.008055
  0
VERTEX
  8
0
 10
128.000000
 20
167.000000
 42
-0.008055
  0
VERTEX
  8
0
 10
132.081547
 20
166.934243
 42
-0.016864
  0
VERTEX
  8
0
 10
135.250000
 20
166.725000
 42
-0.012451
  0
VERTEX
  8
0
 10
137.632804
 20
166.426633
 42
-0.371083
  0
SEQEND
  0
POLYLINE
  8
0
 66
1
 70
1
  0
VERTEX
  8
0
 10
221.000000
 20
166.000000
 42
-0.371083
  0
VERTEX
  8
0
 10
220.632804
 20
165.573367
 42
-0.012451
  0
VERTEX
  8
0
 10
218.250000
 20
165.275000
 42
-0.016864
  0
VERTEX
  8
0
 10
215.081547
 20
165.065757
 42
-0.008055
  0
VERTEX
  8
0
 10
211.000000
 20
165.000000
 42
-0.008055
  0
VERTEX
  8
0
 10
206.918453
 20
165.065757
 42
-0.016864
  0
VERTEX
  8
0
 10
203.750000
 20
165.275000
 42
-0.012451
  0
VERTEX
  8
0
 10
201.367196
 20
165.573367
 42
-0.371083
  0
VERTEX
  8
0
 10
201.000000
 20
166.000000
 42
-0.371083
  0
VERTEX
  8
0
 10
201.367196
 20
166.426633
 42
-0.012451
  0
VERTEX
  8
0
 10
203.750000
 20
166.725000
 42
-0.016864
  0
VERTEX
  8
0
 10
206.918453
 20
166.934243
 42
-0.008055
  0
VERTEX
  8
0
 10
211.000000
 20
167.000000
 42
-0.008055
  0
VERTEX
  8
0
 10
215.081547
 20
166.934243
 42
-0.016864
  0
VERTEX
  8
0
 10
218.250000
 20
166.725000
 42
-0.012451
  0
VERTEX
  8
0
 10
220.632804
 20
166.426633
 42
-0.371083
  0
SEQEND
  0
POLYLINE
  8
0
 66
1
 70
1
  0
VERTEX
  8
0
 10
303.000000
 20
166.000000
 42
-0.371083
  0
VERTEX
  8
0
 10
302.632804
 20
165.573367
 42
-0.012451
  0
VERTEX
  8
0
 10
300.250000
 20
165.275000
 42
-0.016864
  0
VERTEX
  8
0
 10
297.081547
 20
165.065757
 42
-0.008055
  0
VERTEX
  8
0
 10
293.000000
 20
165.000000
 42
-0.008055
  0
VERTEX
  8
0
 10
288.918453
 20
165.065757
 42
-0.016864
  0
VERTEX
  8
0
 10
285.750000
 20
165.275000
 42
-0.012451
  0
VERTEX
  8
0
 10
283.367196
 20
165.573367
 42
-0.371083
  0
VERTEX
  8
0
 10
283.000000
 20
166.000000
 42
-0.371083
  0
VERTEX
  8
0
 10
283.367196
 20
166.426633
 42
-0.012451
  0
VERTEX
  8
0
 10
285.750000
 20
166.725000
 42
-0.016864
  0
VERTEX
  8
0
 10
288.918453
 20
166.934243
 42
-0.008055
  0
VERTEX
  8
0
 10
293.000000
 20
167.000000
 42
-0.008055
  0
VERTEX
  8
0
 10
297.081547
 20
166.934243
 42
-0.016864
  0
VERTEX
  8
0
 10
300.250000
 20
166.725000
 42
-0.012451
  0
VERTEX
  8
0
 10
302.632804
 20
166.426633
 42
-0.371083
  0
SEQEND
  0
POLYLINE
  8
0
 66
1
 70
1
  0
VERTEX
  8
0
 10
332.000000
 20
127.000000
 42
0.006154
  0
VERTEX
  8
0
 10
329.943778
 20
125.881116
 42
0.012174
  0
VERTEX
  8
0
 10
328.345703
 20
124.934030
 42
0.011577
  0
VERTEX
  8
0
 10
327.239082
 20
124.205059
 42
0.712320
  0
VERTEX
  8
0
 10
327.283244
 20
124.047178
 42
0.128945
  0
VERTEX
  8
0
 10
328.571138
 20
124.303308
 42
0.004783
  0
VERTEX
  8
0
 10
333.040153
 20
126.530597
 42
0.002906
  0
VERTEX
  8
0
 10
337.632005
 20
128.907953
 42
0.278710
  0
VERTEX
  8
0
 10
338.000000
 20
129.516846
 42
0.359377
  0
VERTEX
  8
0
 10
337.786696
 20
129.775287
 42
0.148059
  0
VERTEX
  8
0
 10
337.302012
 20
129.725090
 42
0.021364
  0
VERTEX
  8
0
 10
336.140539
 20
129.178430
 42
0.000852
  0
SEQEND
  0
POLYLINE
  8
0
 66
1
 70
1
  0
VERTEX
  8
0
 10
99.500000
 20
121.452839
 42
0.005476
  0
VERTEX
  8
0
 10
102.254429
 20
120.161689
 42
0.007736
  0
VERTEX
  8
0
 10
104.737500
 20
119.076807
 42
0.004815
  0
VERTEX
  8
0
 10
106.837626
 20
118.221350
 42
0.101239
  0
VERTEX
  8
0
 10
107.500000
 20
118.103968
 42
0.752281
  0
VERTEX
  8
0
 10
107.544894
 20
118.276560
 42
0.009572
  0
VERTEX
  8
0
 10
106.038344
 20
119.131593
 42
0.010225
  0
VERTEX
  8
0
 10
103.882801
 20
120.244546
 42
0.005143
  0
VERTEX
  8
0
 10
101.119895
 20
121.565186
 42
0.003892
  0
VERTEX
  8
0
 10
98.246717
 20
122.875298
 42
0.005897
  0
VERTEX
  8
0
 10
95.725602
 20
123.965777
 42
0.002499
  0
VERTEX
  8
0
 10
93.561997
 20
124.858799
 42
0.131809
  0
VERTEX
  8
0
 10
93.119895
 20
124.914056
 42
0.717413
  0
VERTEX
  8
0
 10
93.093034
 20
124.773170
 42
0.004373
  0
VERTEX
  8
0
 10
94.738344
 20
123.861872
 42
0.007755
  0
VERTEX
  8
0
 10
96.858029
 20
122.754141
 42
0.004189
  0
SEQEND
  0
POLYLINE
  8
0
 66
1
 70
1
  0
VERTEX
  8
0
 10
316.500000
 20
120.000000
 42
0.006406
  0
VERTEX
  8
0
 10
314.265867
 20
118.904689
 42
0.013268
  0
VERTEX
  8
0
 10
312.556250
 20
117.981405
 42
0.015997
  0
VERTEX
  8
0
 10
311.450669
 20
117.297927
 42
0.732396
  0
VERTEX
  8
0
 10
311.500000
 20
117.125836
 42
0.097415
  0
VERTEX
  8
0
 10
312.146242
 20
117.234687
 42
0.006010
  0
VERTEX
  8
0
 10
313.968750
 20
117.948093
 42
0.008736
  0
VERTEX
  8
0
 10
316.128830
 20
118.867983
 42
0.006352
  0
VERTEX
  8
0
 10
318.500000
 20
119.963421
 42
0.006198
  0
VERTEX
  8
0
 10
320.734190
 20
121.064439
 42
0.012860
  0
VERTEX
  8
0
 10
322.443750
 20
121.989494
 42
0.015537
  0
VERTEX
  8
0
 10
323.549099
 20
122.671424
 42
0.740091
  0
VERTEX
  8
0
 10
323.500000
 20
122.837585
 42
0.093102
  0
VERTEX
  8
0
 10
322.853884
 20
122.722384
 42
0.005753
  0
VERTEX
  8
0
 10
321.031250
 20
122.007850
 42
0.008373
  0
VERTEX
  8
0
 10
318.871162
 20
121.089808
 42
0.006099
  0
SEQEND
  0
POLYLINE
  8
0
 66
1
 70
1
  0
VERTEX
  8
0
 10
20.000000
 20
119.000000
 42
0.027792
  0
VERTEX
  8
0
 10
19.450916
 20
118.600240
 42
0.145470
  0
VERTEX
  8
0
 10
19.243091
 20
118.294507
 42
0.377219
  0
VERTEX
  8
0
 10
19.329813
 20
118.096783
 42
0.106179
  0
VERTEX
  8
0
 10
19.686642
 20
118.015313
 42
-0.220225
  0
VERTEX
  8
0
 10
20.170822
 20
117.783553
 42
-0.059495
  0
VERTEX
  8
0
 10
20.643183
 20
117.049811
 42
-0.048532
  0
VERTEX
  8
0
 10
21.035349
 20
115.995627
 42
-0.033936
  0
VERTEX
  8
0
 10
21.276604
 20
114.750000
 42
0.002653
  0
VERTEX
  8
0
 10
21.524759
 20
112.833587
 42
0.719386
  0
VERTEX
  8
0
 10
21.637368
 20
112.811991
 42
0.118219
  0
VERTEX
  8
0
 10
21.736282
 20
113.158986
 42
0.001178
  0
VERTEX
  8
0
 10
21.839963
 20
115.750000
 42
0.005495
  0
VERTEX
  8
0
 10
21.883372
 20
117.378606
 42
0.009225
  0
VERTEX
  8
0
 10
21.879552
 20
118.747064
 42
0.003401
  0
VERTEX
  8
0
 10
21.847315
 20
119.896295
 42
0.421946
  0
VERTEX
  8
0
 10
21.750000
 20
119.984687
 42
0.107356
  0
VERTEX
  8
0
 10
21.590788
 20
119.939754
 42
0.005891
  0
VERTEX
  8
0
 10
21.132812
 20
119.689119
 42
0.008918
  0
VERTEX
  8
0
 10
20.592814
 20
119.372463
 42
0.006384
  0
SEQEND
  0
POLYLINE
  8
0
 66
1
 70
1
  0
VERTEX
  8
0
 10
25.200000
 20
118.800000
 42
0.172173
  0
VERTEX
  8
0
 10
24.097906
 20
116.485465
 42
0.156428
  0
VERTEX
  8
0
 10
24.643448
 20
113.887056
 42
0.205208
  0
VERTEX
  8
0
 10
26.435076
 20
112.528686
 42
0.238536
  0
VERTEX
  8
0
 10
28.500000
 20
113.000000
 42
0.057488
  0
VERTEX
  8
0
 10
29.074047
 20
113.600088
 42
0.043569
  0
VERTEX
  8
0
 10
29.559375
 20
114.371985
 42
0.044560
  0
VERTEX
  8
0
 10
29.890640
 20
115.189135
 42
0.074156
  0
VERTEX
  8
0
 10
30.000000
 20
115.922445
 42
0.101572
  0
VERTEX
  8
0
 10
29.738098
 20
117.198389
 42
0.057416
  0
VERTEX
  8
0
 10
28.951043
 20
118.574273
 42
0.059034
  0
VERTEX
  8
0
 10
27.937369
 20
119.657502
 42
0.176970
  0
VERTEX
  8
0
 10
27.000000
 20
120.000000
 42
0.120635
  0
VERTEX
  8
0
 10
26.692415
 20
119.924693
 42
0.026952
  0
VERTEX
  8
0
 10
26.223750
 20
119.647500
 42
0.026473
  0
VERTEX
  8
0
 10
25.703443
 20
119.259351
 42
0.022886
  0
SEQEND
  0
POLYLINE
  8
0
 66
1
 70
1
  0
VERTEX
  8
0
 10
28.500000
 20
116.000000
 42
-0.050064
  0
VERTEX
  8
0
 10
28.407308
 20
115.076578
 42
-0.056662
  0
VERTEX
  8
0
 10
28.132967
 20
114.229739
 42
-0.064911
  0
VERTEX
  8
0
 10
27.729077
 20
113.579954
 42
-0.141756
  0
VERTEX
  8
0
 10
27.250526
 20
113.250175
 42
-0.243271
  0
VERTEX
  8
0
 10
26.237026
 20
113.409078
 42
-0.134073
  0
VERTEX
  8
0
 10
25.436755
 20
114.416197
 42
-0.098804
  0
VERTEX
  8
0
 10
25.106155
 20
115.983229
 42
-0.094621
  0
VERTEX
  8
0
 10
25.393537
 20
117.583158
 42
-0.154883
  0
VERTEX
  8
0
 10
26.218381
 20
118.616347
 42
-0.271668
  0
VERTEX
  8
0
 10
27.276661
 20
118.679078
 42
-0.183250
  0
VERTEX
  8
0
 10
28.181218
 20
117.682423
 42
-0.093904
  0
SEQEND
  0
POLYLINE
  8
0
 66
1
 70
1
  0
VERTEX
  8
0
 10
33.000000
 20
119.000000
 42
0.027792
  0
VERTEX
  8
0
 10
32.450916
 20
118.600240
 42
0.145470
  0
VERTEX
  8
0
 10
32.243091
 20
118.294507
 42
0.377219
  0
VERTEX
  8
0
 10
32.329813
 20
118.096783
 42
0.106179
  0
VERTEX
  8
0
 10
32.686642
 20
118.015313
 42
-0.220225
  0
VERTEX
  8
0
 10
33.170822
 20
117.783553
 42
-0.059495
  0
VERTEX
  8
0
 10
33.643183
 20
117.049811
 42
-0.048532
  0
VERTEX
  8
0
 10
34.035349
 20
115.995627
 42
-0.033936
  0
VERTEX
  8
0
 10
34.276604
 20
114.750000
 42
0.002653
  0
VERTEX
  8
0
 10
34.524759
 20
112.833587
 42
0.719386
  0
VERTEX
  8
0
 10
34.637368
 20
112.811991
 42
0.118219
  0
VERTEX
  8
0
 10
34.736282
 20
113.158986
 42
0.001178
  0
VERTEX
  8
0
 10
34.839963
 20
115.750000
 42
0.005495
  0
VERTEX
  8
0
 10
34.883372
 20
117.378606
 42
0.009225
  0
VERTEX
  8
0
 10
34.879552
 20
118.747064
 42
0.003401
  0
VERTEX
  8
0
 10
34.847315
 20
119.896295
 42
0.421946
  0
VERTEX
  8
0
 10
34.750000
 20
119.984687
 42
0.107356
  0
VERTEX
  8
0
 10
34.590788
 20
119.939754
 42
0.005891
  0
VERTEX
  8
0
 10
34.132812
 20
119.689119
 42
0.008918
  0
VERTEX
  8
0
 10
33.592814
 20
119.372463
 42
0.006384
  0
SEQEND
  0
POLYLINE
  8
0
 66
1
 70
1
  0
VERTEX
  8
0
 10
110.000000
 20
117.000000
 42
0.026766
  0
VERTEX
  8
0
 10
110.647707
 20
116.628962
 42
0.024204
  0
VERTEX
  8
0
 10
111.353125
 20
116.315379
 42
0.024967
  0
VERTEX
  8
0
 10
112.012663
 20
116.096832
 42
0.067616
  0
VERTEX
  8
0
 10
112.500000
 20
116.030626
 42
0.190341
  0
VERTEX
  8
0
 10
112.732273
 20
116.122372
 42
0.335455
  0
VERTEX
  8
0
 10
112.765625
 20
116.315379
 42
0.102785
  0
VERTEX
  8
0
 10
112.514186
 20
116.625641
 42
0.027796
  0
VERTEX
  8
0
 10
112.000000
 20
117.000000
 42
0.026766
  0
VERTEX
  8
0
 10
111.352293
 20
117.371038
 42
0.024204
  0
VERTEX
  8
0
 10
110.646875
 20
117.684621
 42
0.024967
  0
VERTEX
  8
0
 10
109.987337
 20
117.903168
 42
0.067616
  0
VERTEX
  8
0
 10
109.500000
 20
117.969374
 42
0.190341
  0
VERTEX
  8
0
 10
109.267727
 20
117.877628
 42
0.335455
  0
VERTEX
  8
0
 10
109.234375
 20
117.684621
 42
0.102785
  0
VERTEX
  8
0
 10
109.485814
 20
117.374359
 42
0.027796
  0
SEQEND
  0
POLYLINE
  8
0
 66
1
 70
1
  0
VERTEX
  8
0
 10
114.094016
 20
115.613545
 42
0.121893
  0
VERTEX
  8
0
 10
115.346148
 20
114.800199
 42
0.001883
  0
VERTEX
  8
0
 10
123.537090
 20
111.997192
 42
0.002262
  0
VERTEX
  8
0
 10
131.647061
 20
109.296782
 42
0.097216
  0
VERTEX
  8
0
 10
133.437588
 20
109.075283
 42
0.780656
  0
VERTEX
  8
0
 10
133.466539
 20
109.239614
 42
0.008234
  0
VERTEX
  8
0
 10
131.742110
 20
109.974891
 42
0.008891
  0
VERTEX
  8
0
 10
129.295689
 20
110.920385
 42
0.004460
  0
VERTEX
  8
0
 10
126.173851
 20
112.032064
 42
0.001167
  0
VERTEX
  8
0
 10
118.975532
 20
114.504446
 42
0.010070
  0
VERTEX
  8
0
 10
115.740084
 20
115.535032
 42
0.031621
  0
VERTEX
  8
0
 10
114.235856
 20
115.879323
 42
0.715690
  0
SEQEND
  0
POLYLINE
  8
0
 66
1
 70
1
  0
VERTEX
  8
0
 10
302.500000
 20
114.464812
 42
0.002037
  0
VERTEX
  8
0
 10
300.764415
 20
113.620123
 42
0.144411
  0
VERTEX
  8
0
 10
300.530826
 20
113.405178
 42
0.659589
  0
VERTEX
  8
0
 10
300.604514
 20
113.303275
 42
0.004567
  0
VERTEX
  8
0
 10
302.000000
 20
113.630879
 42
0.026704
  0
VERTEX
  8
0
 10
304.032941
 20
114.244434
 42
0.031226
  0
VERTEX
  8
0
 10
305.881999
 20
115.045761
 42
0.092215
  0
VERTEX
  8
0
 10
306.636092
 20
115.625335
 42
0.654132
  0
VERTEX
  8
0
 10
306.500000
 20
115.924487
 42
0.071548
  0
VERTEX
  8
0
 10
305.937143
 20
115.835070
 42
0.012376
  0
VERTEX
  8
0
 10
304.912500
 20
115.489646
 42
0.013240
  0
VERTEX
  8
0
 10
303.721891
 20
115.019091
 42
0.011503
  0
SEQEND
  0
POLYLINE
  8
0
 66
1
 70
1
  0
VERTEX
  8
0
 10
287.812500
 20
109.316886
 42
0.051402
  0
VERTEX
  8
0
 10
288.359369
 20
109.160852
 42
0.054150
  0
VERTEX
  8
0
 10
288.916927
 20
109.123424
 42
0.060344
  0
VERTEX
  8
0
 10
289.402231
 20
109.202593
 42
0.126455
  0
VERTEX
  8
0
 10
289.729167
 20
109.395833
 42
0.296942
  0
VERTEX
  8
0
 10
289.775380
 20
109.614691
 42
0.208169
  0
VERTEX
  8
0
 10
289.592839
 20
109.799335
 42
0.077125
  0
VERTEX
  8
0
 10
289.112848
 20
109.910055
 42
0.028489
  0
VERTEX
  8
0
 10
288.416667
 20
109.921053
 42
0.018894
  0
VERTEX
  8
0
 10
287.670344
 20
109.862007
 42
0.168741
  0
VERTEX
  8
0
 10
287.378580
 20
109.720685
 42
0.470617
  0
VERTEX
  8
0
 10
287.395823
 20
109.538436
 42
0.054073
  0
SEQEND
  0
POLYLINE
  8
0
 66
1
 70
1
  0
VERTEX
  8
0
 10
136.500000
 20
108.000000
 42
0.023180
  0
VERTEX
  8
0
 10
137.375609
 20
107.670913
 42
0.018093
  0
VERTEX
  8
0
 10
138.353125
 20
107.393028
 42
0.018434
  0
VERTEX
  8
0
 10
139.284048
 20
107.200514
 42
0.041790
  0
VERTEX
  8
0
 10
140.000000
 20
107.140571
 42
0.055166
  0
VERTEX
  8
0
 10
140.502647
 20
107.196198
 42
0.507108
  0
VERTEX
  8
0
 10
140.577294
 20
107.367142
 42
0.145150
  0
VERTEX
  8
0
 10
140.303516
 20
107.625069
 42
0.015364
  0
VERTEX
  8
0
 10
139.500000
 20
108.000000
 42
0.023180
  0
VERTEX
  8
0
 10
138.624391
 20
108.329087
 42
0.018093
  0
VERTEX
  8
0
 10
137.646875
 20
108.606972
 42
0.018434
  0
VERTEX
  8
0
 10
136.715952
 20
108.799486
 42
0.041790
  0
VERTEX
  8
0
 10
136.000000
 20
108.859429
 42
0.055166
  0
VERTEX
  8
0
 10
135.497353
 20
108.803802
 42
0.507108
  0
VERTEX
  8
0
 10
135.422706
 20
108.632858
 42
0.145150
  0
VERTEX
  8
0
 10
135.696484
 20
108.374931
 42
0.015364
  0
SEQEND
  0
POLYLINE
  8
0
 66
1
 70
1
  0
VERTEX
  8
0
 10
280.812500
 20
107.316886
 42
0.051402
  0
VERTEX
  8
0
 10
281.359369
 20
107.160852
 42
0.054150
  0
VERTEX
  8
0
 10
281.916927
 20
107.123424
 42
0.060344
  0
VERTEX
  8
0
 10
282.402231
 20
107.202593
 42
0.126455
  0
VERTEX
  8
0
 10
282.729167
 20
107.395833
 42
0.296942
  0
VERTEX
  8
0
 10
282.775380
 20
107.614691
 42
0.208169
  0
VERTEX
  8
0
 10
282.592839
 20
107.799335
 42
0.077125
  0
VERTEX
  8
0
 10
282.112848
 20
107.910055
 42
0.028489
  0
VERTEX
  8
0
 10
281.416667
 20
107.921053
 42
0.018894
  0
VERTEX
  8
0
 10
280.670344
 20
107.862007
 42
0.168741
  0
VERTEX
  8
0
 10
280.378580
 20
107.720685
 42
0.470617
  0
VERTEX
  8
0
 10
280.395823
 20
107.538436
 42
0.054073
  0
SEQEND
  0
POLYLINE
  8
0
 66
1
 70
1
  0
VERTEX
  8
0
 10
142.812500
 20
106.316886
 42
0.051402
  0
VERTEX
  8
0
 10
143.359369
 20
106.160852
 42
0.054150
  0
VERTEX
  8
0
 10
143.916927
 20
106.123424
 42
0.060344
  0
VERTEX
  8
0
 10
144.402231
 20
106.202593
 42
0.126455
  0
VERTEX
  8
0
 10
144.729167
 20
106.395833
 42
0.296942
  0
VERTEX
  8
0
 10
144.775380
 20
106.614691
 42
0.208169
  0
VERTEX
  8
0
 10
144.592839
 20
106.799335
 42
0.077125
  0
VERTEX
  8
0
 10
144.112848
 20
106.910055
 42
0.028489
  0
VERTEX
  8
0
 10
143.416667
 20
106.921053
 42
0.018894
  0
VERTEX
  8
0
 10
142.670344
 20
106.862007
 42
0.168741
  0
VERTEX
  8
0
 10
142.378580
 20
106.720685
 42
0.470617
  0
VERTEX
  8
0
 10
142.395823
 20
106.538436
 42
0.054073
  0
SEQEND
  0
POLYLINE
  8
0
 66
1
 70
1
  0
VERTEX
  8
0
 10
276.812500
 20
106.316886
 42
0.051402
  0
VERTEX
  8
0
 10
277.359369
 20
106.160852
 42
0.054150
  0
VERTEX
  8
0
 10
277.916927
 20
106.123424
 42
0.060344
  0
VERTEX
  8
0
 10
278.402231
 20
106.202593
 42
0.126455
  0
VERTEX
  8
0
 10
278.729167
 20
106.395833
 42
0.296942
  0
VERTEX
  8
0
 10
278.775380
 20
106.614691
 42
0.208169
  0
VERTEX
  8
0
 10
278.592839
 20
106.799335
 42
0.077125
  0
VERTEX
  8
0
 10
278.112848
 20
106.910055
 42
0.028489
  0
VERTEX
  8
0
 10
277.416667
 20
106.921053
 42
0.018894
  0
VERTEX
  8
0
 10
276.670344
 20
106.862007
 42
0.168741
  0
VERTEX
  8
0
 10
276.378580
 20
106.720685
 42
0.470617
  0
VERTEX
  8
0
 10
276.395823
 20
106.538436
 42
0.054073
  0
SEQEND
  0
POLYLINE
  8
0
 66
1
 70
1
  0
VERTEX
  8
0
 10
26.030644
 20
89.500000
 42
0.001998
  0
VERTEX
  8
0
 10
25.890255
 20
82.647307
 42
0.002307
  0
VERTEX
  8
0
 10
25.812690
 20
76.115324
 42
0.002063
  0
VERTEX
  8
0
 10
25.795352
 20
70.581849
 42
0.013523
  0
VERTEX
  8
0
 10
25.873161
 20
67.807485
 42
0.000000
  0
VERTEX
  8
0
 10
26.131904
 20
63.114969
 42
0.000000
  0
VERTEX
  8
0
 10
21.315952
 20
62.737733
 42
0.951195
  0
VERTEX
  8
0
 10
21.320008
 20
62.593694
 42
0.002644
  0
VERTEX
  8
0
 10
27.755311
 20
62.487038
 42
0.002187
  0
VERTEX
  8
0
 10
37.468295
 20
62.419916
 42
0.001034
  0
VERTEX
  8
0
 10
50.000000
 20
62.414038
 42
0.000024
  0
VERTEX
  8
0
 10
74.081312
 20
62.453704
 42
0.015123
  0
VERTEX
  8
0
 10
75.448165
 20
62.497376
 42
0.964458
  0
VERTEX
  8
0
 10
75.446887
 20
62.546552
 42
0.000042
  0
VERTEX
  8
0
 10
55.381973
 20
62.749139
 42
0.000000
  0
VERTEX
  8
0
 10
27.263946
 20
63.030698
 42
0.000000
  0
VERTEX
  8
0
 10
28.136882
 20
67.703298
 42
0.016697
  0
VERTEX
  8
0
 10
28.443652
 20
69.715374
 42
0.034521
  0
VERTEX
  8
0
 10
28.521344
 20
71.303135
 42
0.043646
  0
VERTEX
  8
0
 10
28.397587
 20
72.451466
 42
0.208607
  0
VERTEX
  8
0
 10
28.030672
 20
72.981044
 42
-0.235966
  0
VERTEX
  8
0
 10
27.619331
 20
73.646321
 42
-0.003837
  0
VERTEX
  8
0
 10
27.246357
 20
78.149329
 42
-0.008895
  0
VERTEX
  8
0
 10
26.936266
 20
83.566868
 42
-0.005254
  0
VERTEX
  8
0
 10
26.749198
 20
90.043095
 42
0.000000
  0
VERTEX
  8
0
 10
26.446869
 20
106.500000
 42
0.000000
  0
SEQEND
  0
POLYLINE
  8
0
 66
1
 70
1
  0
VERTEX
  8
0
 10
146.812500
 20
105.316886
 42
0.051402
  0
VERTEX
  8
0
 10
147.359369
 20
105.160852
 42
0.054150
  0
VERTEX
  8
0
 10
147.916927
 20
105.123424
 42
0.060344
  0
VERTEX
  8
0
 10
148.402231
 20
105.202593
 42
0.126455
  0
VERTEX
  8
0
 10
148.729167
 20
105.395833
 42
0.296942
  0
VERTEX
  8
0
 10
148.775380
 20
105.614691
 42
0.208169
  0
VERTEX
  8
0
 10
148.592839
 20
105.799335
 42
0.077125
  0
VERTEX
  8
0
 10
148.112848
 20
105.910055
 42
0.028489
  0
VERTEX
  8
0
 10
147.416667
 20
105.921053
 42
0.018894
  0
VERTEX
  8
0
 10
146.670344
 20
105.862007
 42
0.168741
  0
VERTEX
  8
0
 10
146.378580
 20
105.720685
 42
0.470617
  0
VERTEX
  8
0
 10
146.395823
 20
105.538436
 42
0.054073
  0
SEQEND
  0
POLYLINE
  8
0
 66
1
 70
1
  0
VERTEX
  8
0
 10
272.812500
 20
105.316886
 42
0.051402
  0
VERTEX
  8
0
 10
273.359369
 20
105.160852
 42
0.054150
  0
VERTEX
  8
0
 10
273.916927
 20
105.123424
 42
0.060344
  0
VERTEX
  8
0
 10
274.402231
 20
105.202593
 42
0.126455
  0
VERTEX
  8
0
 10
274.729167
 20
105.395833
 42
0.296942
  0
VERTEX
  8
0
 10
274.775380
 20
105.614691
 42
0.208169
  0
VERTEX
  8
0
 10
274.592839
 20
105.799335
 42
0.077125
  0
VERTEX
  8
0
 10
274.112848
 20
105.910055
 42
0.028489
  0
VERTEX
  8
0
 10
273.416667
 20
105.921053
 42
0.018894
  0
VERTEX
  8
0
 10
272.670344
 20
105.862007
 42
0.168741
  0
VERTEX
  8
0
 10
272.378580
 20
105.720685
 42
0.470617
  0
VERTEX
  8
0
 10
272.395823
 20
105.538436
 42
0.054073
  0
SEQEND
  0
POLYLINE
  8
0
 66
1
 70
1
  0
VERTEX
  8
0
 10
150.750000
 20
104.337719
 42
0.057986
  0
VERTEX
  8
0
 10
151.320008
 20
104.181385
 42
0.037979
  0
VERTEX
  8
0
 10
152.000000
 20
104.129660
 42
0.037979
  0
VERTEX
  8
0
 10
152.679992
 20
104.181385
 42
0.057986
  0
VERTEX
  8
0
 10
153.250000
 20
104.337719
 42
0.174857
  0
VERTEX
  8
0
 10
153.459382
 20
104.525001
 42
0.447206
  0
VERTEX
  8
0
 10
153.398438
 20
104.693942
 42
0.078554
  0
VERTEX
  8
0
 10
152.891440
 20
104.810911
 42
0.017491
  0
VERTEX
  8
0
 10
152.000000
 20
104.842105
 42
0.017491
  0
VERTEX
  8
0
 10
151.108560
 20
104.810911
 42
0.078554
  0
VERTEX
  8
0
 10
150.601562
 20
104.693942
 42
0.447206
  0
VERTEX
  8
0
 10
150.540618
 20
104.525001
 42
0.174857
  0
SEQEND
  0
POLYLINE
  8
0
 66
1
 70
1
  0
VERTEX
  8
0
 10
267.750000
 20
104.337719
 42
0.057986
  0
VERTEX
  8
0
 10
268.320008
 20
104.181385
 42
0.037979
  0
VERTEX
  8
0
 10
269.000000
 20
104.129660
 42
0.037979
  0
VERTEX
  8
0
 10
269.679992
 20
104.181385
 42
0.057986
  0
VERTEX
  8
0
 10
270.250000
 20
104.337719
 42
0.174857
  0
VERTEX
  8
0
 10
270.459382
 20
104.525001
 42
0.447206
  0
VERTEX
  8
0
 10
270.398438
 20
104.693942
 42
0.078554
  0
VERTEX
  8
0
 10
269.891440
 20
104.810911
 42
0.017491
  0
VERTEX
  8
0
 10
269.000000
 20
104.842105
 42
0.017491
  0
VERTEX
  8
0
 10
268.108560
 20
104.810911
 42
0.078554
  0
VERTEX
  8
0
 10
267.601562
 20
104.693942
 42
0.447206
  0
VERTEX
  8
0
 10
267.540618
 20
104.525001
 42
0.174857
  0
SEQEND
  0
POLYLINE
  8
0
 66
1
 70
1
  0
VERTEX
  8
0
 10
155.750000
 20
103.337719
 42
0.057986
  0
VERTEX
  8
0
 10
156.320008
 20
103.181385
 42
0.037979
  0
VERTEX
  8
0
 10
157.000000
 20
103.129660
 42
0.037979
  0
VERTEX
  8
0
 10
157.679992
 20
103.181385
 42
0.057986
  0
VERTEX
  8
0
 10
158.250000
 20
103.337719
 42
0.174857
  0
VERTEX
  8
0
 10
158.459382
 20
103.525001
 42
0.447206
  0
VERTEX
  8
0
 10
158.398438
 20
103.693942
 42
0.078554
  0
VERTEX
  8
0
 10
157.891440
 20
103.810911
 42
0.017491
  0
VERTEX
  8
0
 10
157.000000
 20
103.842105
 42
0.017491
  0
VERTEX
  8
0
 10
156.108560
 20
103.810911
 42
0.078554
  0
VERTEX
  8
0
 10
155.601562
 20
103.693942
 42
0.447206
  0
VERTEX
  8
0
 10
155.540618
 20
103.525001
 42
0.174857
  0
SEQEND
  0
POLYLINE
  8
0
 66
1
 70
1
  0
VERTEX
  8
0
 10
263.812500
 20
103.316886
 42
0.051402
  0
VERTEX
  8
0
 10
264.359369
 20
103.160852
 42
0.054150
  0
VERTEX
  8
0
 10
264.916927
 20
103.123424
 42
0.060344
  0
VERTEX
  8
0
 10
265.402231
 20
103.202593
 42
0.126455
  0
VERTEX
  8
0
 10
265.729167
 20
103.395833
 42
0.296942
  0
VERTEX
  8
0
 10
265.775380
 20
103.614691
 42
0.208169
  0
VERTEX
  8
0
 10
265.592839
 20
103.799335
 42
0.077125
  0
VERTEX
  8
0
 10
265.112848
 20
103.910055
 42
0.028489
  0
VERTEX
  8
0
 10
264.416667
 20
103.921053
 42
0.018894
  0
VERTEX
  8
0
 10
263.670344
 20
103.862007
 42
0.168741
  0
VERTEX
  8
0
 10
263.378580
 20
103.720685
 42
0.470617
  0
VERTEX
  8
0
 10
263.395823
 20
103.538436
 42
0.054073
  0
SEQEND
  0
POLYLINE
  8
0
 66
1
 70
1
  0
VERTEX
  8
0
 10
161.269032
 20
102.307009
 42
0.037336
  0
VERTEX
  8
0
 10
162.036634
 20
102.167106
 42
0.029507
  0
VERTEX
  8
0
 10
162.880008
 20
102.127736
 42
0.030339
  0
VERTEX
  8
0
 10
163.671085
 20
102.185595
 42
0.062780
  0
VERTEX
  8
0
 10
164.269032
 20
102.344063
 42
0.313180
  0
VERTEX
  8
0
 10
164.386009
 20
102.522870
 42
0.333666
  0
VERTEX
  8
0
 10
164.257153
 20
102.684921
 42
0.052471
  0
VERTEX
  8
0
 10
163.580113
 20
102.787295
 42
0.014395
  0
VERTEX
  8
0
 10
162.500000
 20
102.805051
 42
0.012823
  0
VERTEX
  8
0
 10
161.431793
 20
102.764444
 42
0.080377
  0
VERTEX
  8
0
 10
160.900903
 20
102.643467
 42
0.597527
  0
VERTEX
  8
0
 10
160.883358
 20
102.483340
 42
0.087174
  0
SEQEND
  0
POLYLINE
  8
0
 66
1
 70
1
  0
VERTEX
  8
0
 10
257.750000
 20
102.337719
 42
0.057986
  0
VERTEX
  8
0
 10
258.320008
 20
102.181385
 42
0.037979
  0
VERTEX
  8
0
 10
259.000000
 20
102.129660
 42
0.037979
  0
VERTEX
  8
0
 10
259.679992
 20
102.181385
 42
0.057986
  0
VERTEX
  8
0
 10
260.250000
 20
102.337719
 42
0.174857
  0
VERTEX
  8
0
 10
260.459382
 20
102.525001
 42
0.447206
  0
VERTEX
  8
0
 10
260.398438
 20
102.693942
 42
0.078554
  0
VERTEX
  8
0
 10
259.891440
 20
102.810911
 42
0.017491
  0
VERTEX
  8
0
 10
259.000000
 20
102.842105
 42
0.017491
  0
VERTEX
  8
0
 10
258.108560
 20
102.810911
 42
0.078554
  0
VERTEX
  8
0
 10
257.601562
 20
102.693942
 42
0.447206
  0
VERTEX
  8
0
 10
257.540618
 20
102.525001
 42
0.174857
  0
SEQEND
  0
POLYLINE
  8
0
 66
1
 70
1
  0
VERTEX
  8
0
 10
167.269032
 20
101.307009
 42
0.037336
  0
VERTEX
  8
0
 10
168.036634
 20
101.167106
 42
0.029507
  0
VERTEX
  8
0
 10
168.880008
 20
101.127736
 42
0.030339
  0
VERTEX
  8
0
 10
169.671085
 20
101.185595
 42
0.062780
  0
VERTEX
  8
0
 10
170.269032
 20
101.344063
 42
0.313180
  0
VERTEX
  8
0
 10
170.386009
 20
101.522870
 42
0.333666
  0
VERTEX
  8
0
 10
170.257153
 20
101.684921
 42
0.052471
  0
VERTEX
  8
0
 10
169.580113
 20
101.787295
 42
0.014395
  0
VERTEX
  8
0
 10
168.500000
 20
101.805051
 42
0.012823
  0
VERTEX
  8
0
 10
167.431793
 20
101.764444
 42
0.080377
  0
VERTEX
  8
0
 10
166.900903
 20
101.643467
 42
0.597527
  0
VERTEX
  8
0
 10
166.883358
 20
101.483340
 42
0.087174
  0
SEQEND
  0
POLYLINE
  8
0
 66
1
 70
1
  0
VERTEX
  8
0
 10
252.269032
 20
101.307009
 42
0.037336
  0
VERTEX
  8
0
 10
253.036634
 20
101.167106
 42
0.029507
  0
VERTEX
  8
0
 10
253.880008
 20
101.127736
 42
0.030339
  0
VERTEX
  8
0
 10
254.671085
 20
101.185595
 42
0.062780
  0
VERTEX
  8
0
 10
255.269032
 20
101.344063
 42
0.313180
  0
VERTEX
  8
0
 10
255.386009
 20
101.522870
 42
0.333666
  0
VERTEX
  8
0
 10
255.257153
 20
101.684921
 42
0.052471
  0
VERTEX
  8
0
 10
254.580113
 20
101.787295
 42
0.014395
  0
VERTEX
  8
0
 10
253.500000
 20
101.805051
 42
0.012823
  0
VERTEX
  8
0
 10
252.431793
 20
101.764444
 42
0.080377
  0
VERTEX
  8
0
 10
251.900903
 20
101.643467
 42
0.597527
  0
VERTEX
  8
0
 10
251.883358
 20
101.483340
 42
0.087174
  0
SEQEND
  0
POLYLINE
  8
0
 66
1
 70
1
  0
VERTEX
  8
0
 10
173.250000
 20
100.310674
 42
0.039571
  0
VERTEX
  8
0
 10
174.047266
 20
100.168469
 42
0.024357
  0
VERTEX
  8
0
 10
175.000000
 20
100.122029
 42
0.024357
  0
VERTEX
  8
0
 10
175.952734
 20
100.168469
 42
0.039571
  0
VERTEX
  8
0
 10
176.750000
 20
100.310674
 42
0.161593
  0
VERTEX
  8
0
 10
177.009140
 20
100.478988
 42
0.542911
  0
VERTEX
  8
0
 10
176.957813
 20
100.633659
 42
0.052887
  0
VERTEX
  8
0
 10
176.251983
 20
100.740287
 42
0.011065
  0
VERTEX
  8
0
 10
175.000000
 20
100.767997
 42
0.011065
  0
VERTEX
  8
0
 10
173.748017
 20
100.740287
 42
0.052887
  0
VERTEX
  8
0
 10
173.042187
 20
100.633659
 42
0.542911
  0
VERTEX
  8
0
 10
172.990860
 20
100.478988
 42
0.161593
  0
SEQEND
  0
POLYLINE
  8
0
 66
1
 70
1
  0
VERTEX
  8
0
 10
245.269032
 20
100.307009
 42
0.037336
  0
VERTEX
  8
0
 10
246.036634
 20
100.167106
 42
0.029507
  0
VERTEX
  8
0
 10
246.880008
 20
100.127736
 42
0.030339
  0
VERTEX
  8
0
 10
247.671085
 20
100.185595
 42
0.062780
  0
VERTEX
  8
0
 10
248.269032
 20
100.344063
 42
0.313180
  0
VERTEX
  8
0
 10
248.386009
 20
100.522870
 42
0.333666
  0
VERTEX
  8
0
 10
248.257153
 20
100.684921
 42
0.052471
  0
VERTEX
  8
0
 10
247.580113
 20
100.787295
 42
0.014395
  0
VERTEX
  8
0
 10
246.500000
 20
100.805051
 42
0.012823
  0
VERTEX
  8
0
 10
245.431793
 20
100.764444
 42
0.080377
  0
VERTEX
  8
0
 10
244.900903
 20
100.643467
 42
0.597527
  0
VERTEX
  8
0
 10
244.883358
 20
100.483340
 42
0.087174
  0
SEQEND
  0
POLYLINE
  8
0
 66
1
 70
1
  0
VERTEX
  8
0
 10
181.750000
 20
99.294267
 42
0.029693
  0
VERTEX
  8
0
 10
182.774707
 20
99.159351
 42
0.017887
  0
VERTEX
  8
0
 10
184.000000
 20
99.115502
 42
0.017887
  0
VERTEX
  8
0
 10
185.225293
 20
99.159351
 42
0.029693
  0
VERTEX
  8
0
 10
186.250000
 20
99.294267
 42
0.142433
  0
VERTEX
  8
0
 10
186.560023
 20
99.453014
 42
0.611425
  0
VERTEX
  8
0
 10
186.517188
 20
99.600334
 42
0.039503
  0
VERTEX
  8
0
 10
185.611490
 20
99.701569
 42
0.008087
  0
VERTEX
  8
0
 10
184.000000
 20
99.727636
 42
0.008087
  0
VERTEX
  8
0
 10
182.388510
 20
99.701569
 42
0.039503
  0
VERTEX
  8
0
 10
181.482812
 20
99.600334
 42
0.611425
  0
VERTEX
  8
0
 10
181.439977
 20
99.453014
 42
0.142433
  0
SEQEND
  0
POLYLINE
  8
0
 66
1
 70
1
  0
VERTEX
  8
0
 10
234.750000
 20
99.294267
 42
0.029693
  0
VERTEX
  8
0
 10
235.774707
 20
99.159351
 42
0.017887
  0
VERTEX
  8
0
 10
237.000000
 20
99.115502
 42
0.017887
  0
VERTEX
  8
0
 10
238.225293
 20
99.159351
 42
0.029693
  0
VERTEX
  8
0
 10
239.250000
 20
99.294267
 42
0.142433
  0
VERTEX
  8
0
 10
239.560023
 20
99.453014
 42
0.611425
  0
VERTEX
  8
0
 10
239.517188
 20
99.600334
 42
0.039503
  0
VERTEX
  8
0
 10
238.611490
 20
99.701569
 42
0.008087
  0
VERTEX
  8
0
 10
237.000000
 20
99.727636
 42
0.008087
  0
VERTEX
  8
0
 10
235.388510
 20
99.701569
 42
0.039503
  0
VERTEX
  8
0
 10
234.482812
 20
99.600334
 42
0.611425
  0
VERTEX
  8
0
 10
234.439977
 20
99.453014
 42
0.142433
  0
SEQEND
  0
POLYLINE
  8
0
 66
1
 70
1
  0
VERTEX
  8
0
 10
200.803194
 20
98.253532
 42
0.004891
  0
VERTEX
  8
0
 10
205.451594
 20
98.152551
 42
0.003005
  0
VERTEX
  8
0
 10
210.928261
 20
98.120077
 42
0.003012
  0
VERTEX
  8
0
 10
216.347332
 20
98.153161
 42
0.005377
  0
VERTEX
  8
0
 10
220.803194
 20
98.255140
 42
0.042812
  0
VERTEX
  8
0
 10
221.786309
 20
98.372892
 42
0.888327
  0
VERTEX
  8
0
 10
221.776563
 20
98.485103
 42
0.006527
  0
VERTEX
  8
0
 10
217.676781
 20
98.560744
 42
0.001369
  0
VERTEX
  8
0
 10
210.500000
 20
98.579813
 42
0.001336
  0
VERTEX
  8
0
 10
203.332159
 20
98.560081
 42
0.007053
  0
VERTEX
  8
0
 10
199.401563
 20
98.483305
 42
0.918240
  0
VERTEX
  8
0
 10
199.395830
 20
98.372209
 42
0.026319
  0
SEQEND
  0
POLYLINE
  8
0
 66
1
 70
1
  0
VERTEX
  8
0
 10
331.767909
 20
66.275269
 42
0.018638
  0
VERTEX
  8
0
 10
333.218327
 20
66.150328
 42
0.012590
  0
VERTEX
  8
0
 10
334.878422
 20
66.111345
 42
0.012695
  0
VERTEX
  8
0
 10
336.487453
 20
66.154945
 42
0.024559
  0
VERTEX
  8
0
 10
337.767909
 20
66.285474
 42
0.212532
  0
VERTEX
  8
0
 10
338.000181
 20
66.434198
 42
0.556092
  0
VERTEX
  8
0
 10
337.934948
 20
66.575472
 42
0.025342
  0
VERTEX
  8
0
 10
336.655786
 20
66.668409
 42
0.005888
  0
VERTEX
  8
0
 10
334.500000
 20
66.690131
 42
0.005499
  0
VERTEX
  8
0
 10
332.352754
 20
66.662864
 42
0.031761
  0
VERTEX
  8
0
 10
331.222448
 20
66.564056
 42
0.756877
  0
VERTEX
  8
0
 10
331.205163
 20
66.425738
 42
0.069146
  0
SEQEND
  0
POLYLINE
  8
0
 66
1
 70
1
  0
VERTEX
  8
0
 10
101.750000
 20
65.267795
 42
0.014123
  0
VERTEX
  8
0
 10
103.684912
 20
65.148488
 42
0.008335
  0
VERTEX
  8
0
 10
106.000000
 20
65.109894
 42
0.008335
  0
VERTEX
  8
0
 10
108.315088
 20
65.148488
 42
0.014123
  0
VERTEX
  8
0
 10
110.250000
 20
65.267795
 42
0.084525
  0
VERTEX
  8
0
 10
110.776995
 20
65.407127
 42
0.769970
  0
VERTEX
  8
0
 10
110.754687
 20
65.538141
 42
0.018707
  0
VERTEX
  8
0
 10
109.047184
 20
65.627723
 42
0.003751
  0
VERTEX
  8
0
 10
106.000000
 20
65.650586
 42
0.003751
  0
VERTEX
  8
0
 10
102.952816
 20
65.627723
 42
0.018707
  0
VERTEX
  8
0
 10
101.245312
 20
65.538141
 42
0.769970
  0
VERTEX
  8
0
 10
101.223005
 20
65.407127
 42
0.084525
  0
SEQEND
  0
POLYLINE
  8
0
 66
1
 70
1
  0
VERTEX
  8
0
 10
310.750000
 20
65.267795
 42
0.014123
  0
VERTEX
  8
0
 10
312.684912
 20
65.148488
 42
0.008335
  0
VERTEX
  8
0
 10
315.000000
 20
65.109894
 42
0.008335
  0
VERTEX
  8
0
 10
317.315088
 20
65.148488
 42
0.014123
  0
VERTEX
  8
0
 10
319.250000
 20
65.267795
 42
0.084525
  0
VERTEX
  8
0
 10
319.776995
 20
65.407127
 42
0.769970
  0
VERTEX
  8
0
 10
319.754687
 20
65.538141
 42
0.018707
  0
VERTEX
  8
0
 10
318.047184
 20
65.627723
 42
0.003751
  0
VERTEX
  8
0
 10
315.000000
 20
65.650586
 42
0.003751
  0
VERTEX
  8
0
 10
311.952816
 20
65.627723
 42
0.018707
  0
VERTEX
  8
0
 10
310.245313
 20
65.538141
 42
0.769970
  0
VERTEX
  8
0
 10
310.223005
 20
65.407127
 42
0.084525
  0
SEQEND
  0
POLYLINE
  8
0
 66
1
 70
1
  0
VERTEX
  8
0
 10
124.750000
 20
64.262758
 42
0.010990
  0
VERTEX
  8
0
 10
127.140095
 20
64.148271
 42
0.006471
  0
VERTEX
  8
0
 10
130.000000
 20
64.111256
 42
0.006471
  0
VERTEX
  8
0
 10
132.859905
 20
64.148271
 42
0.010990
  0
VERTEX
  8
0
 10
135.250000
 20
64.262758
 42
0.067956
  0
VERTEX
  8
0
 10
135.890618
 20
64.396322
 42
0.813012
  0
VERTEX
  8
0
 10
135.873437
 20
64.522148
 42
0.014551
  0
VERTEX
  8
0
 10
133.764623
 20
64.608117
 42
0.002911
  0
VERTEX
  8
0
 10
130.000000
 20
64.630035
 42
0.002911
  0
VERTEX
  8
0
 10
126.235377
 20
64.608117
 42
0.014551
  0
VERTEX
  8
0
 10
124.126562
 20
64.522148
 42
0.813012
  0
VERTEX
  8
0
 10
124.109382
 20
64.396322
 42
0.067956
  0
SEQEND
  0
POLYLINE
  8
0
 66
1
 70
1
  0
VERTEX
  8
0
 10
285.750000
 20
64.262758
 42
0.010990
  0
VERTEX
  8
0
 10
288.140095
 20
64.148271
 42
0.006471
  0
VERTEX
  8
0
 10
291.000000
 20
64.111256
 42
0.006471
  0
VERTEX
  8
0
 10
293.859905
 20
64.148271
 42
0.010990
  0
VERTEX
  8
0
 10
296.250000
 20
64.262758
 42
0.067956
  0
VERTEX
  8
0
 10
296.890618
 20
64.396322
 42
0.813012
  0
VERTEX
  8
0
 10
296.873437
 20
64.522148
 42
0.014551
  0
VERTEX
  8
0
 10
294.764623
 20
64.608117
 42
0.002911
  0
VERTEX
  8
0
 10
291.000000
 20
64.630035
 42
0.002911
  0
VERTEX
  8
0
 10
287.235377
 20
64.608117
 42
0.014551
  0
VERTEX
  8
0
 10
285.126563
 20
64.522148
 42
0.813012
  0
VERTEX
  8
0
 10
285.109382
 20
64.396322
 42
0.067956
  0
SEQEND
  0
POLYLINE
  8
0
 66
1
 70
1
  0
VERTEX
  8
0
 10
158.250000
 20
63.254498
 42
0.005279
  0
VERTEX
  8
0
 10
162.688549
 20
63.152575
 42
0.003100
  0
VERTEX
  8
0
 10
168.000000
 20
63.119643
 42
0.003100
  0
VERTEX
  8
0
 10
173.311451
 20
63.152575
 42
0.005279
  0
VERTEX
  8
0
 10
177.750000
 20
63.254498
 42
0.034025
  0
VERTEX
  8
0
 10
178.915452
 20
63.373249
 42
0.903285
  0
VERTEX
  8
0
 10
178.907813
 20
63.485387
 42
0.006986
  0
VERTEX
  8
0
 10
174.992437
 20
63.561929
 42
0.001394
  0
VERTEX
  8
0
 10
168.000000
 20
63.581420
 42
0.001394
  0
VERTEX
  8
0
 10
161.007563
 20
63.561929
 42
0.006986
  0
VERTEX
  8
0
 10
157.092187
 20
63.485387
 42
0.903285
  0
VERTEX
  8
0
 10
157.084548
 20
63.373249
 42
0.034025
  0
SEQEND
  0
POLYLINE
  8
0
 66
1
 70
1
  0
VERTEX
  8
0
 10
243.250000
 20
63.254498
 42
0.005279
  0
VERTEX
  8
0
 10
247.688549
 20
63.152575
 42
0.003100
  0
VERTEX
  8
0
 10
253.000000
 20
63.119643
 42
0.003100
  0
VERTEX
  8
0
 10
258.311451
 20
63.152575
 42
0.005279
  0
VERTEX
  8
0
 10
262.750000
 20
63.254498
 42
0.034025
  0
VERTEX
  8
0
 10
263.915452
 20
63.373249
 42
0.903285
  0
VERTEX
  8
0
 10
263.907813
 20
63.485387
 42
0.006986
  0
VERTEX
  8
0
 10
259.992437
 20
63.561929
 42
0.001394
  0
VERTEX
  8
0
 10
253.000000
 20
63.581420
 42
0.001394
  0
VERTEX
  8
0
 10
246.007563
 20
63.561929
 42
0.006986
  0
VERTEX
  8
0
 10
242.092187
 20
63.485387
 42
0.903285
  0
VERTEX
  8
0
 10
242.084548
 20
63.373249
 42
0.034025
  0
SEQEND
  0
POLYLINE
  8
0
 66
1
 70
1
  0
VERTEX
  8
0
 10
342.000000
 20
49.089089
 42
0.000000
  0
VERTEX
  8
0
 10
342.000000
 20
39.178178
 42
0.000000
  0
VERTEX
  8
0
 10
284.793107
 20
39.048863
 42
0.000751
  0
VERTEX
  8
0
 10
262.825710
 20
38.966208
 42
0.001238
  0
VERTEX
  8
0
 10
244.255681
 20
38.822476
 42
0.000088
  0
VERTEX
  8
0
 10
227.576942
 20
38.649172
 42
0.196168
  0
VERTEX
  8
0
 10
227.126441
 20
38.459774
 42
0.664869
  0
VERTEX
  8
0
 10
227.203602
 20
38.271048
 42
0.000107
  0
VERTEX
  8
0
 10
242.394954
 20
38.135059
 42
0.001372
  0
VERTEX
  8
0
 10
259.426414
 20
38.033001
 42
0.000812
  0
VERTEX
  8
0
 10
279.750000
 20
38.000000
 42
-0.001432
  0
VERTEX
  8
0
 10
301.208966
 20
37.938537
 42
-0.002872
  0
VERTEX
  8
0
 10
318.156518
 20
37.744099
 42
-0.000397
  0
VERTEX
  8
0
 10
332.602420
 20
37.483895
 42
-0.310513
  0
VERTEX
  8
0
 10
333.166667
 20
37.080264
 42
0.265231
  0
VERTEX
  8
0
 10
333.547691
 20
36.756341
 42
0.038657
  0
VERTEX
  8
0
 10
334.597431
 20
36.641703
 42
0.033961
  0
VERTEX
  8
0
 10
336.014100
 20
36.693290
 42
0.019622
  0
VERTEX
  8
0
 10
337.702697
 20
36.937340
 42
0.000000
  0
VERTEX
  8
0
 10
341.905394
 20
37.714152
 42
0.000000
  0
VERTEX
  8
0
 10
342.267715
 20
32.607076
 42
0.851749
  0
VERTEX
  8
0
 10
342.421697
 20
32.593342
 42
0.049379
  0
VERTEX
  8
0
 10
342.577942
 20
33.626766
 42
0.007469
  0
VERTEX
  8
0
 10
342.719651
 20
37.513760
 42
0.002440
  0
VERTEX
  8
0
 10
342.815018
 20
43.250000
 42
0.002975
  0
VERTEX
  8
0
 10
342.850017
 20
49.289316
 42
0.004961
  0
VERTEX
  8
0
 10
342.798786
 20
54.373438
 42
0.000989
  0
VERTEX
  8
0
 10
342.701417
 20
58.803351
 42
0.407215
  0
VERTEX
  8
0
 10
342.500000
 20
59.000000
 42
0.396660
  0
VERTEX
  8
0
 10
342.297635
 20
58.809484
 42
0.002473
  0
VERTEX
  8
0
 10
342.146875
 20
56.088670
 42
0.007873
  0
VERTEX
  8
0
 10
342.035941
 20
52.889346
 42
0.004729
  0
SEQEND
  0
POLYLINE
  8
0
 66
1
 70
1
  0
VERTEX
  8
0
 10
78.392525
 20
42.500000
 42
0.002140
  0
VERTEX
  8
0
 10
78.407663
 20
37.047652
 42
0.006818
  0
VERTEX
  8
0
 10
78.483023
 20
33.406454
 42
0.056621
  0
VERTEX
  8
0
 10
78.603574
 20
32.594828
 42
0.846654
  0
VERTEX
  8
0
 10
78.732285
 20
32.607076
 42
0.000000
  0
VERTEX
  8
0
 10
79.094606
 20
37.714152
 42
0.000000
  0
VERTEX
  8
0
 10
83.297303
 20
36.937340
 42
0.019622
  0
VERTEX
  8
0
 10
84.985900
 20
36.693290
 42
0.033961
  0
VERTEX
  8
0
 10
86.402569
 20
36.641703
 42
0.038657
  0
VERTEX
  8
0
 10
87.452309
 20
36.756341
 42
0.265231
  0
VERTEX
  8
0
 10
87.833333
 20
37.080264
 42
-0.310564
  0
VERTEX
  8
0
 10
88.397890
 20
37.484037
 42
-0.000390
  0
VERTEX
  8
0
 10
102.979410
 20
37.744154
 42
-0.002846
  0
VERTEX
  8
0
 10
120.084815
 20
37.938556
 42
-0.001418
  0
VERTEX
  8
0
 10
141.750000
 20
38.000000
 42
0.000805
  0
VERTEX
  8
0
 10
162.265293
 20
38.033020
 42
0.001360
  0
VERTEX
  8
0
 10
179.458096
 20
38.135133
 42
0.000105
  0
VERTEX
  8
0
 10
194.796088
 20
38.271190
 42
0.664900
  0
VERTEX
  8
0
 10
194.873305
 20
38.460028
 42
0.196194
  0
VERTEX
  8
0
 10
194.422499
 20
38.649528
 42
0.000086
  0
VERTEX
  8
0
 10
177.607765
 20
38.822619
 42
0.001228
  0
VERTEX
  8
0
 10
158.888096
 20
38.966090
 42
0.000745
  0
VERTEX
  8
0
 10
136.742995
 20
39.048383
 42
0.000000
  0
VERTEX
  8
0
 10
79.072713
 20
39.176710
 42
0.000000
  0
VERTEX
  8
0
 10
78.743899
 20
48.338355
 42
0.012410
  0
VERTEX
  8
0
 10
78.618374
 20
50.403956
 42
0.929715
  0
VERTEX
  8
0
 10
78.505047
 20
50.402517
 42
0.012964
  0
VERTEX
  8
0
 10
78.418784
 20
47.880070
 42
0.001688
  0
SEQEND
  0
POLYLINE
  8
0
 66
1
 70
1
  0
VERTEX
  8
0
 10
201.458881
 20
41.933469
 42
0.062174
  0
VERTEX
  8
0
 10
201.251666
 20
41.480911
 42
0.067553
  0
VERTEX
  8
0
 10
201.169645
 20
41.003941
 42
0.076232
  0
VERTEX
  8
0
 10
201.219839
 20
40.576059
 42
0.129836
  0
VERTEX
  8
0
 10
201.399864
 20
40.266802
 42
0.132256
  0
VERTEX
  8
0
 10
201.627352
 20
40.135822
 42
0.259615
  0
VERTEX
  8
0
 10
201.823710
 20
40.185665
 42
0.153621
  0
VERTEX
  8
0
 10
201.958272
 20
40.426605
 42
0.051163
  0
VERTEX
  8
0
 10
202.000000
 20
40.833333
 42
-0.127718
  0
VERTEX
  8
0
 10
202.115534
 20
41.278257
 42
-0.100747
  0
VERTEX
  8
0
 10
202.440625
 20
41.657292
 42
-0.089419
  0
VERTEX
  8
0
 10
202.926925
 20
41.912123
 42
-0.076226
  0
VERTEX
  8
0
 10
203.500000
 20
42.000000
 42
-0.178624
  0
VERTEX
  8
0
 10
204.579916
 20
41.601488
 42
-0.254194
  0
VERTEX
  8
0
 10
204.938358
 20
40.666024
 42
-0.147652
  0
VERTEX
  8
0
 10
204.361196
 20
39.391149
 42
-0.073695
  0
VERTEX
  8
0
 10
203.000000
 20
38.232073
 42
0.051376
  0
VERTEX
  8
0
 10
201.402781
 20
36.990134
 42
0.267334
  0
VERTEX
  8
0
 10
201.101206
 20
35.959916
 42
0.296015
  0
VERTEX
  8
0
 10
201.838115
 20
35.262983
 42
0.057918
  0
VERTEX
  8
0
 10
203.750000
 20
35.136182
 42
0.000965
  0
VERTEX
  8
0
 10
205.641088
 20
35.233489
 42
0.268561
  0
VERTEX
  8
0
 10
205.770223
 20
35.317740
 42
0.497970
  0
VERTEX
  8
0
 10
205.723216
 20
35.413564
 42
0.001308
  0
VERTEX
  8
0
 10
204.051041
 20
35.731805
 42
0.000000
  0
VERTEX
  8
0
 10
201.602081
 20
36.191247
 42
0.000000
  0
VERTEX
  8
0
 10
203.957132
 20
37.967665
 42
0.041675
  0
VERTEX
  8
0
 10
204.920462
 20
38.828985
 42
0.072050
  0
VERTEX
  8
0
 10
205.538454
 20
39.705533
 42
0.091093
  0
VERTEX
  8
0
 10
205.793035
 20
40.563162
 42
0.118876
  0
VERTEX
  8
0
 10
205.687476
 20
41.372041
 42
0.135709
  0
VERTEX
  8
0
 10
204.903703
 20
42.433173
 42
0.134006
  0
VERTEX
  8
0
 10
203.682371
 20
42.947276
 42
0.139146
  0
VERTEX
  8
0
 10
202.404391
 20
42.761287
 42
0.150160
  0
SEQEND
  0
POLYLINE
  8
0
 66
1
 70
1
  0
VERTEX
  8
0
 10
208.000000
 20
41.000000
 42
0.072656
  0
VERTEX
  8
0
 10
208.129380
 20
40.114344
 42
0.129641
  0
VERTEX
  8
0
 10
208.510417
 20
39.490000
 42
0.125767
  0
VERTEX
  8
0
 10
209.159348
 20
39.122938
 42
0.066234
  0
VERTEX
  8
0
 10
210.083333
 20
39.000000
 42
-0.052338
  0
VERTEX
  8
0
 10
210.894358
 20
38.914873
 42
-0.110801
  0
VERTEX
  8
0
 10
211.465752
 20
38.652915
 42
-0.162528
  0
VERTEX
  8
0
 10
211.741497
 20
38.248119
 42
-0.154946
  0
VERTEX
  8
0
 10
211.725705
 20
37.750000
 42
-0.110135
  0
VERTEX
  8
0
 10
211.433752
 20
37.282800
 42
-0.075877
  0
VERTEX
  8
0
 10
210.931829
 20
36.907986
 42
-0.070813
  0
VERTEX
  8
0
 10
210.303134
 20
36.679515
 42
-0.073015
  0
VERTEX
  8
0
 10
209.642371
 20
36.638889
 42
0.056436
  0
VERTEX
  8
0
 10
209.014059
 20
36.621048
 42
0.080601
  0
VERTEX
  8
0
 10
208.482447
 20
36.455437
 42
0.104474
  0
VERTEX
  8
0
 10
208.127686
 20
36.173774
 42
0.174633
  0
VERTEX
  8
0
 10
208.000000
 20
35.819338
 42
0.236204
  0
VERTEX
  8
0
 10
208.170827
 20
35.477904
 42
0.091534
  0
VERTEX
  8
0
 10
208.657937
 20
35.236308
 42
0.064709
  0
VERTEX
  8
0
 10
209.381872
 20
35.127912
 42
0.040298
  0
VERTEX
  8
0
 10
210.239784
 20
35.180449
 42
0.130683
  0
VERTEX
  8
0
 10
211.959237
 20
35.910683
 42
0.182872
  0
VERTEX
  8
0
 10
212.819899
 20
37.322214
 42
0.214851
  0
VERTEX
  8
0
 10
212.467775
 20
38.777075
 42
0.165046
  0
VERTEX
  8
0
 10
211.086974
 20
39.687507
 42
-0.055652
  0
VERTEX
  8
0
 10
209.512223
 20
40.292806
 42
-0.297079
  0
VERTEX
  8
0
 10
209.080147
 20
41.056109
 42
-0.283854
  0
VERTEX
  8
0
 10
209.599759
 20
41.790739
 42
-0.052986
  0
VERTEX
  8
0
 10
211.250000
 20
42.294267
 42
0.003620
  0
VERTEX
  8
0
 10
212.568679
 20
42.558172
 42
0.574721
  0
VERTEX
  8
0
 10
212.607621
 20
42.674595
 42
0.200802
  0
VERTEX
  8
0
 10
212.401331
 20
42.775265
 42
0.002047
  0
VERTEX
  8
0
 10
210.750000
 20
42.863818
 42
0.034212
  0
VERTEX
  8
0
 10
209.381227
 20
42.837921
 42
0.127769
  0
VERTEX
  8
0
 10
208.576727
 20
42.552002
 42
0.171080
  0
VERTEX
  8
0
 10
208.144944
 20
41.967545
 42
0.074487
  0
SEQEND
  0
POLYLINE
  8
0
 66
1
 70
1
  0
VERTEX
  8
0
 10
214.411205
 20
40.502236
 42
0.056095
  0
VERTEX
  8
0
 10
214.104589
 20
38.224874
 42
0.108936
  0
VERTEX
  8
0
 10
214.458962
 20
36.433092
 42
0.164119
  0
VERTEX
  8
0
 10
215.395821
 20
35.402121
 42
0.176320
  0
VERTEX
  8
0
 10
216.735492
 20
35.187577
 42
0.152052
  0
VERTEX
  8
0
 10
218.181978
 20
35.962920
 42
0.175899
  0
VERTEX
  8
0
 10
218.828826
 20
37.378109
 42
0.186017
  0
VERTEX
  8
0
 10
218.402996
 20
38.819049
 42
0.166474
  0
VERTEX
  8
0
 10
217.098221
 20
39.684566
 42
-0.048917
  0
VERTEX
  8
0
 10
216.346210
 20
39.962088
 42
-0.084690
  0
VERTEX
  8
0
 10
215.805523
 20
40.348308
 42
-0.126907
  0
VERTEX
  8
0
 10
215.555761
 20
40.775477
 42
-0.210582
  0
VERTEX
  8
0
 10
215.612398
 20
41.181864
 42
-0.125874
  0
VERTEX
  8
0
 10
215.947223
 20
41.504455
 42
-0.081142
  0
VERTEX
  8
0
 10
216.455186
 20
41.692431
 42
-0.072575
  0
VERTEX
  8
0
 10
217.054383
 20
41.720979
 42
-0.067381
  0
VERTEX
  8
0
 10
217.653088
 20
41.579628
 42
0.041869
  0
VERTEX
  8
0
 10
218.179308
 20
41.426762
 42
0.170102
  0
VERTEX
  8
0
 10
218.504758
 20
41.471944
 42
0.316285
  0
VERTEX
  8
0
 10
218.612021
 20
41.676374
 42
0.106430
  0
VERTEX
  8
0
 10
218.492921
 20
42.011454
 42
0.157169
  0
VERTEX
  8
0
 10
217.489502
 20
42.865986
 42
0.189161
  0
VERTEX
  8
0
 10
216.259068
 20
42.890281
 42
0.148997
  0
VERTEX
  8
0
 10
215.119022
 20
42.023650
 42
0.095058
  0
SEQEND
  0
POLYLINE
  8
0
 66
1
 70
1
  0
VERTEX
  8
0
 10
218.000000
 20
37.500000
 42
-0.099038
  0
VERTEX
  8
0
 10
217.885486
 20
36.927543
 42
-0.097945
  0
VERTEX
  8
0
 10
217.559375
 20
36.440625
 42
-0.097945
  0
VERTEX
  8
0
 10
217.072457
 20
36.114514
 42
-0.099038
  0
VERTEX
  8
0
 10
216.500000
 20
36.000000
 42
-0.099038
  0
VERTEX
  8
0
 10
215.927543
 20
36.114514
 42
-0.097945
  0
VERTEX
  8
0
 10
215.440625
 20
36.440625
 42
-0.097945
  0
VERTEX
  8
0
 10
215.114514
 20
36.927543
 42
-0.099038
  0
VERTEX
  8
0
 10
215.000000
 20
37.500000
 42
-0.099038
  0
VERTEX
  8
0
 10
215.114514
 20
38.072457
 42
-0.097945
  0
VERTEX
  8
0
 10
215.440625
 20
38.559375
 42
-0.097945
  0
VERTEX
  8
0
 10
215.927543
 20
38.885486
 42
-0.099038
  0
VERTEX
  8
0
 10
216.500000
 20
39.000000
 42
-0.099038
  0
VERTEX
  8
0
 10
217.072457
 20
38.885486
 42
-0.097945
  0
VERTEX
  8
0
 10
217.559375
 20
38.559375
 42
-0.097945
  0
VERTEX
  8
0
 10
217.885486
 20
38.072457
 42
-0.099038
  0
SEQEND
  0
POLYLINE
  8
0
 66
1
 70
1
  0
VERTEX
  8
0
 10
485.157895
 20
666.000000
 42
0.017491
  0
VERTEX
  8
0
 10
485.189089
 20
665.108560
 42
0.078554
  0
VERTEX
  8
0
 10
485.306058
 20
664.601562
 42
0.447206
  0
VERTEX
  8
0
 10
485.474999
 20
664.540618
 42
0.174857
  0
VERTEX
  8
0
 10
485.662281
 20
664.750000
 42
0.057986
  0
VERTEX
  8
0
 10
485.818615
 20
665.320008
 42
0.037979
  0
VERTEX
  8
0
 10
485.870340
 20
666.000000
 42
0.037979
  0
VERTEX
  8
0
 10
485.818615
 20
666.679992
 42
0.057986
  0
VERTEX
  8
0
 10
485.662281
 20
667.250000
 42
0.174857
  0
VERTEX
  8
0
 10
485.474999
 20
667.459382
 42
0.447206
  0
VERTEX
  8
0
 10
485.306058
 20
667.398438
 42
0.078554
  0
VERTEX
  8
0
 10
485.189089
 20
666.891440
 42
0.017491
  0
SEQEND
  0
POLYLINE
  8
0
 66
1
 70
1
  0
VERTEX
  8
0
 10
485.078947
 20
660.416667
 42
0.018894
  0
VERTEX
  8
0
 10
485.137993
 20
659.670344
 42
0.168741
  0
VERTEX
  8
0
 10
485.279315
 20
659.378580
 42
0.470617
  0
VERTEX
  8
0
 10
485.461564
 20
659.395823
 42
0.054073
  0
VERTEX
  8
0
 10
485.683114
 20
659.812500
 42
0.051402
  0
VERTEX
  8
0
 10
485.839148
 20
660.359369
 42
0.054150
  0
VERTEX
  8
0
 10
485.876576
 20
660.916927
 42
0.060344
  0
VERTEX
  8
0
 10
485.797407
 20
661.402231
 42
0.126455
  0
VERTEX
  8
0
 10
485.604167
 20
661.729167
 42
0.296942
  0
VERTEX
  8
0
 10
485.385309
 20
661.775380
 42
0.208169
  0
VERTEX
  8
0
 10
485.200665
 20
661.592839
 42
0.077125
  0
VERTEX
  8
0
 10
485.089945
 20
661.112848
 42
0.028489
  0
SEQEND
  0
POLYLINE
  8
0
 66
1
 70
1
  0
VERTEX
  8
0
 10
479.750000
 20
659.337719
 42
0.057986
  0
VERTEX
  8
0
 10
480.320008
 20
659.181385
 42
0.037979
  0
VERTEX
  8
0
 10
481.000000
 20
659.129660
 42
0.037979
  0
VERTEX
  8
0
 10
481.679992
 20
659.181385
 42
0.057986
  0
VERTEX
  8
0
 10
482.250000
 20
659.337719
 42
0.174857
  0
VERTEX
  8
0
 10
482.459382
 20
659.525001
 42
0.447206
  0
VERTEX
  8
0
 10
482.398438
 20
659.693942
 42
0.078554
  0
VERTEX
  8
0
 10
481.891440
 20
659.810911
 42
0.017491
  0
VERTEX
  8
0
 10
481.000000
 20
659.842105
 42
0.017491
  0
VERTEX
  8
0
 10
480.108560
 20
659.810911
 42
0.078554
  0
VERTEX
  8
0
 10
479.601562
 20
659.693942
 42
0.447206
  0
VERTEX
  8
0
 10
479.540618
 20
659.525001
 42
0.174857
  0
SEQEND
  0
POLYLINE
  8
0
 66
1
 70
1
  0
VERTEX
  8
0
 10
473.157895
 20
653.000000
 42
0.017491
  0
VERTEX
  8
0
 10
473.189089
 20
652.108560
 42
0.078554
  0
VERTEX
  8
0
 10
473.306058
 20
651.601562
 42
0.447206
  0
VERTEX
  8
0
 10
473.474999
 20
651.540618
 42
0.174857
  0
VERTEX
  8
0
 10
473.662281
 20
651.750000
 42
0.057986
  0
VERTEX
  8
0
 10
473.818615
 20
652.320008
 42
0.037979
  0
VERTEX
  8
0
 10
473.870340
 20
653.000000
 42
0.037979
  0
VERTEX
  8
0
 10
473.818615
 20
653.679992
 42
0.057986
  0
VERTEX
  8
0
 10
473.662281
 20
654.250000
 42
0.174857
  0
VERTEX
  8
0
 10
473.474999
 20
654.459382
 42
0.447206
  0
VERTEX
  8
0
 10
473.306058
 20
654.398438
 42
0.078554
  0
VERTEX
  8
0
 10
473.189089
 20
653.891440
 42
0.017491
  0
SEQEND
  0
POLYLINE
  8
0
 66
1
 70
1
  0
VERTEX
  8
0
 10
473.157895
 20
648.000000
 42
0.017491
  0
VERTEX
  8
0
 10
473.189089
 20
647.108560
 42
0.078554
  0
VERTEX
  8
0
 10
473.306058
 20
646.601562
 42
0.447206
  0
VERTEX
  8
0
 10
473.474999
 20
646.540618
 42
0.174857
  0
VERTEX
  8
0
 10
473.662281
 20
646.750000
 42
0.057986
  0
VERTEX
  8
0
 10
473.818615
 20
647.320008
 42
0.037979
  0
VERTEX
  8
0
 10
473.870340
 20
648.000000
 42
0.037979
  0
VERTEX
  8
0
 10
473.818615
 20
648.679992
 42
0.057986
  0
VERTEX
  8
0
 10
473.662281
 20
649.250000
 42
0.174857
  0
VERTEX
  8
0
 10
473.474999
 20
649.459382
 42
0.447206
  0
VERTEX
  8
0
 10
473.306058
 20
649.398438
 42
0.078554
  0
VERTEX
  8
0
 10
473.189089
 20
648.891440
 42
0.017491
  0
SEQEND
  0
POLYLINE
  8
0
 66
1
 70
1
  0
VERTEX
  8
0
 10
473.078947
 20
642.416667
 42
0.018894
  0
VERTEX
  8
0
 10
473.137993
 20
641.670344
 42
0.168741
  0
VERTEX
  8
0
 10
473.279315
 20
641.378580
 42
0.470617
  0
VERTEX
  8
0
 10
473.461564
 20
641.395823
 42
0.054073
  0
VERTEX
  8
0
 10
473.683114
 20
641.812500
 42
0.051402
  0
VERTEX
  8
0
 10
473.839148
 20
642.359369
 42
0.054150
  0
VERTEX
  8
0
 10
473.876576
 20
642.916927
 42
0.060344
  0
VERTEX
  8
0
 10
473.797407
 20
643.402231
 42
0.126455
  0
VERTEX
  8
0
 10
473.604167
 20
643.729167
 42
0.296942
  0
VERTEX
  8
0
 10
473.385309
 20
643.775380
 42
0.208169
  0
VERTEX
  8
0
 10
473.200665
 20
643.592839
 42
0.077125
  0
VERTEX
  8
0
 10
473.089945
 20
643.112848
 42
0.028489
  0
SEQEND
  0
POLYLINE
  8
0
 66
1
 70
1
  0
VERTEX
  8
0
 10
474.269032
 20
638.307009
 42
0.037336
  0
VERTEX
  8
0
 10
475.036634
 20
638.167106
 42
0.029507
  0
VERTEX
  8
0
 10
475.880008
 20
638.127736
 42
0.030339
  0
VERTEX
  8
0
 10
476.671085
 20
638.185595
 42
0.062780
  0
VERTEX
  8
0
 10
477.269032
 20
638.344063
 42
0.313180
  0
VERTEX
  8
0
 10
477.386009
 20
638.522870
 42
0.333666
  0
VERTEX
  8
0
 10
477.257153
 20
638.684921
 42
0.052471
  0
VERTEX
  8
0
 10
476.580113
 20
638.787295
 42
0.014395
  0
VERTEX
  8
0
 10
475.500000
 20
638.805051
 42
0.012823
  0
VERTEX
  8
0
 10
474.431793
 20
638.764444
 42
0.080377
  0
VERTEX
  8
0
 10
473.900903
 20
638.643467
 42
0.597527
  0
VERTEX
  8
0
 10
473.883358
 20
638.483340
 42
0.087174
  0
SEQEND
  0
POLYLINE
  8
0
 66
1
 70
1
  0
VERTEX
  8
0
 10
479.750000
 20
638.337719
 42
0.057986
  0
VERTEX
  8
0
 10
480.320008
 20
638.181385
 42
0.037979
  0
VERTEX
  8
0
 10
481.000000
 20
638.129660
 42
0.037979
  0
VERTEX
  8
0
 10
481.679992
 20
638.181385
 42
0.057986
  0
VERTEX
  8
0
 10
482.250000
 20
638.337719
 42
0.174857
  0
VERTEX
  8
0
 10
482.459382
 20
638.525001
 42
0.447206
  0
VERTEX
  8
0
 10
482.398438
 20
638.693942
 42
0.078554
  0
VERTEX
  8
0
 10
481.891440
 20
638.810911
 42
0.017491
  0
VERTEX
  8
0
 10
481.000000
 20
638.842105
 42
0.017491
  0
VERTEX
  8
0
 10
480.108560
 20
638.810911
 42
0.078554
  0
VERTEX
  8
0
 10
479.601562
 20
638.693942
 42
0.447206
  0
VERTEX
  8
0
 10
479.540618
 20
638.525001
 42
0.174857
  0
SEQEND
  0
POLYLINE
  8
0
 66
1
 70
1
  0
VERTEX
  8
0
 10
485.078947
 20
637.416667
 42
0.018894
  0
VERTEX
  8
0
 10
485.137993
 20
636.670344
 42
0.168741
  0
VERTEX
  8
0
 10
485.279315
 20
636.378580
 42
0.470617
  0
VERTEX
  8
0
 10
485.461564
 20
636.395823
 42
0.054073
  0
VERTEX
  8
0
 10
485.683114
 20
636.812500
 42
0.051402
  0
VERTEX
  8
0
 10
485.839148
 20
637.359369
 42
0.054150
  0
VERTEX
  8
0
 10
485.876576
 20
637.916927
 42
0.060344
  0
VERTEX
  8
0
 10
485.797407
 20
638.402231
 42
0.126455
  0
VERTEX
  8
0
 10
485.604167
 20
638.729167
 42
0.296942
  0
VERTEX
  8
0
 10
485.385309
 20
638.775380
 42
0.208169
  0
VERTEX
  8
0
 10
485.200665
 20
638.592839
 42
0.077125
  0
VERTEX
  8
0
 10
485.089945
 20
638.112848
 42
0.028489
  0
SEQEND
  0
POLYLINE
  8
0
 66
1
 70
1
  0
VERTEX
  8
0
 10
485.078947
 20
632.416667
 42
0.018894
  0
VERTEX
  8
0
 10
485.137993
 20
631.670344
 42
0.168741
  0
VERTEX
  8
0
 10
485.279315
 20
631.378580
 42
0.470617
  0
VERTEX
  8
0
 10
485.461564
 20
631.395823
 42
0.054073
  0
VERTEX
  8
0
 10
485.683114
 20
631.812500
 42
0.051402
  0
VERTEX
  8
0
 10
485.839148
 20
632.359369
 42
0.054150
  0
VERTEX
  8
0
 10
485.876576
 20
632.916927
 42
0.060344
  0
VERTEX
  8
0
 10
485.797407
 20
633.402231
 42
0.126455
  0
VERTEX
  8
0
 10
485.604167
 20
633.729167
 42
0.296942
  0
VERTEX
  8
0
 10
485.385309
 20
633.775380
 42
0.208169
  0
VERTEX
  8
0
 10
485.200665
 20
633.592839
 42
0.077125
  0
VERTEX
  8
0
 10
485.089945
 20
633.112848
 42
0.028489
  0
SEQEND
  0
POLYLINE
  8
0
 66
1
 70
1
  0
VERTEX
  8
0
 10
485.157895
 20
532.000000
 42
0.017491
  0
VERTEX
  8
0
 10
485.189089
 20
531.108560
 42
0.078554
  0
VERTEX
  8
0
 10
485.306058
 20
530.601562
 42
0.447206
  0
VERTEX
  8
0
 10
485.474999
 20
530.540618
 42
0.174857
  0
VERTEX
  8
0
 10
485.662281
 20
530.750000
 42
0.057986
  0
VERTEX
  8
0
 10
485.818615
 20
531.320008
 42
0.037979
  0
VERTEX
  8
0
 10
485.870340
 20
532.000000
 42
0.037979
  0
VERTEX
  8
0
 10
485.818615
 20
532.679992
 42
0.057986
  0
VERTEX
  8
0
 10
485.662281
 20
533.250000
 42
0.174857
  0
VERTEX
  8
0
 10
485.474999
 20
533.459382
 42
0.447206
  0
VERTEX
  8
0
 10
485.306058
 20
533.398438
 42
0.078554
  0
VERTEX
  8
0
 10
485.189089
 20
532.891440
 42
0.017491
  0
SEQEND
  0
POLYLINE
  8
0
 66
1
 70
1
  0
VERTEX
  8
0
 10
484.638374
 20
527.500000
 42
0.055937
  0
VERTEX
  8
0
 10
484.488865
 20
526.925634
 42
0.100118
  0
VERTEX
  8
0
 10
484.516384
 20
526.440625
 42
0.147206
  0
VERTEX
  8
0
 10
484.710807
 20
526.122486
 42
0.184534
  0
VERTEX
  8
0
 10
485.031385
 20
526.000000
 42
0.152681
  0
VERTEX
  8
0
 10
485.400789
 20
526.115494
 42
0.098158
  0
VERTEX
  8
0
 10
485.715469
 20
526.440625
 42
0.080880
  0
VERTEX
  8
0
 10
485.927770
 20
526.926468
 42
0.062722
  0
VERTEX
  8
0
 10
486.000000
 20
527.500000
 42
0.024748
  0
VERTEX
  8
0
 10
485.971531
 20
528.074824
 42
0.039339
  0
VERTEX
  8
0
 10
485.884553
 20
528.559375
 42
0.046727
  0
VERTEX
  8
0
 10
485.758929
 20
528.903916
 42
0.289661
  0
VERTEX
  8
0
 10
485.606989
 20
529.000000
 42
0.222225
  0
VERTEX
  8
0
 10
485.420671
 20
528.912889
 42
0.030693
  0
VERTEX
  8
0
 10
485.160341
 20
528.559375
 42
0.030395
  0
VERTEX
  8
0
 10
484.887494
 20
528.074558
 42
0.021360
  0
SEQEND
  0
POLYLINE
  8
0
 66
1
 70
1
  0
VERTEX
  8
0
 10
473.116001
 20
524.750000
 42
0.007367
  0
VERTEX
  8
0
 10
473.186440
 20
523.688238
 42
0.177948
  0
VERTEX
  8
0
 10
473.309201
 20
523.422802
 42
0.556128
  0
VERTEX
  8
0
 10
473.457756
 20
523.457534
 42
0.017026
  0
VERTEX
  8
0
 10
473.677485
 20
524.188516
 42
-0.076457
  0
VERTEX
  8
0
 10
473.973034
 20
524.867458
 42
-0.055610
  0
VERTEX
  8
0
 10
474.488108
 20
525.511892
 42
-0.055610
  0
VERTEX
  8
0
 10
475.132542
 20
526.026966
 42
-0.076457
  0
VERTEX
  8
0
 10
475.811484
 20
526.322515
 42
0.017026
  0
VERTEX
  8
0
 10
476.542466
 20
526.542244
 42
0.556128
  0
VERTEX
  8
0
 10
476.577198
 20
526.690799
 42
0.177948
  0
VERTEX
  8
0
 10
476.311762
 20
526.813560
 42
0.007367
  0
VERTEX
  8
0
 10
475.250000
 20
526.883999
 42
0.050746
  0
VERTEX
  8
0
 10
474.150526
 20
526.829095
 42
0.159866
  0
VERTEX
  8
0
 10
473.500000
 20
526.500000
 42
0.159866
  0
VERTEX
  8
0
 10
473.170905
 20
525.849474
 42
0.050746
  0
SEQEND
  0
POLYLINE
  8
0
 66
1
 70
1
  0
VERTEX
  8
0
 10
479.750000
 20
526.337719
 42
0.057986
  0
VERTEX
  8
0
 10
480.320008
 20
526.181385
 42
0.037979
  0
VERTEX
  8
0
 10
481.000000
 20
526.129660
 42
0.037979
  0
VERTEX
  8
0
 10
481.679992
 20
526.181385
 42
0.057986
  0
VERTEX
  8
0
 10
482.250000
 20
526.337719
 42
0.174857
  0
VERTEX
  8
0
 10
482.459382
 20
526.525001
 42
0.447206
  0
VERTEX
  8
0
 10
482.398438
 20
526.693942
 42
0.078554
  0
VERTEX
  8
0
 10
481.891440
 20
526.810911
 42
0.017491
  0
VERTEX
  8
0
 10
481.000000
 20
526.842105
 42
0.017491
  0
VERTEX
  8
0
 10
480.108560
 20
526.810911
 42
0.078554
  0
VERTEX
  8
0
 10
479.601562
 20
526.693942
 42
0.447206
  0
VERTEX
  8
0
 10
479.540618
 20
526.525001
 42
0.174857
  0
SEQEND
  0
POLYLINE
  8
0
 66
1
 70
1
  0
VERTEX
  8
0
 10
473.157895
 20
520.000000
 42
0.017491
  0
VERTEX
  8
0
 10
473.189089
 20
519.108560
 42
0.078554
  0
VERTEX
  8
0
 10
473.306058
 20
518.601562
 42
0.447206
  0
VERTEX
  8
0
 10
473.474999
 20
518.540618
 42
0.174857
  0
VERTEX
  8
0
 10
473.662281
 20
518.750000
 42
0.057986
  0
VERTEX
  8
0
 10
473.818615
 20
519.320008
 42
0.037979
  0
VERTEX
  8
0
 10
473.870340
 20
520.000000
 42
0.037979
  0
VERTEX
  8
0
 10
473.818615
 20
520.679992
 42
0.057986
  0
VERTEX
  8
0
 10
473.662281
 20
521.250000
 42
0.174857
  0
VERTEX
  8
0
 10
473.474999
 20
521.459382
 42
0.447206
  0
VERTEX
  8
0
 10
473.306058
 20
521.398438
 42
0.078554
  0
VERTEX
  8
0
 10
473.189089
 20
520.891440
 42
0.017491
  0
SEQEND
  0
POLYLINE
  8
0
 66
1
 70
1
  0
VERTEX
  8
0
 10
473.157895
 20
514.000000
 42
0.017491
  0
VERTEX
  8
0
 10
473.189089
 20
513.108560
 42
0.078554
  0
VERTEX
  8
0
 10
473.306058
 20
512.601562
 42
0.447206
  0
VERTEX
  8
0
 10
473.474999
 20
512.540618
 42
0.174857
  0
VERTEX
  8
0
 10
473.662281
 20
512.750000
 42
0.057986
  0
VERTEX
  8
0
 10
473.818615
 20
513.320008
 42
0.037979
  0
VERTEX
  8
0
 10
473.870340
 20
514.000000
 42
0.037979
  0
VERTEX
  8
0
 10
473.818615
 20
514.679992
 42
0.057986
  0
VERTEX
  8
0
 10
473.662281
 20
515.250000
 42
0.174857
  0
VERTEX
  8
0
 10
473.474999
 20
515.459382
 42
0.447206
  0
VERTEX
  8
0
 10
473.306058
 20
515.398438
 42
0.078554
  0
VERTEX
  8
0
 10
473.189089
 20
514.891440
 42
0.017491
  0
SEQEND
  0
POLYLINE
  8
0
 66
1
 70
1
  0
VERTEX
  8
0
 10
473.157895
 20
509.000000
 42
0.017491
  0
VERTEX
  8
0
 10
473.189089
 20
508.108560
 42
0.078554
  0
VERTEX
  8
0
 10
473.306058
 20
507.601562
 42
0.447206
  0
VERTEX
  8
0
 10
473.474999
 20
507.540618
 42
0.174857
  0
VERTEX
  8
0
 10
473.662281
 20
507.750000
 42
0.057986
  0
VERTEX
  8
0
 10
473.818615
 20
508.320008
 42
0.037979
  0
VERTEX
  8
0
 10
473.870340
 20
509.000000
 42
0.037979
  0
VERTEX
  8
0
 10
473.818615
 20
509.679992
 42
0.057986
  0
VERTEX
  8
0
 10
473.662281
 20
510.250000
 42
0.174857
  0
VERTEX
  8
0
 10
473.474999
 20
510.459382
 42
0.447206
  0
VERTEX
  8
0
 10
473.306058
 20
510.398438
 42
0.078554
  0
VERTEX
  8
0
 10
473.189089
 20
509.891440
 42
0.017491
  0
SEQEND
  0
POLYLINE
  8
0
 66
1
 70
1
  0
VERTEX
  8
0
 10
473.750000
 20
504.337719
 42
0.057986
  0
VERTEX
  8
0
 10
474.320008
 20
504.181385
 42
0.037979
  0
VERTEX
  8
0
 10
475.000000
 20
504.129660
 42
0.037979
  0
VERTEX
  8
0
 10
475.679992
 20
504.181385
 42
0.057986
  0
VERTEX
  8
0
 10
476.250000
 20
504.337719
 42
0.174857
  0
VERTEX
  8
0
 10
476.459382
 20
504.525001
 42
0.447206
  0
VERTEX
  8
0
 10
476.398438
 20
504.693942
 42
0.078554
  0
VERTEX
  8
0
 10
475.891440
 20
504.810911
 42
0.017491
  0
VERTEX
  8
0
 10
475.000000
 20
504.842105
 42
0.017491
  0
VERTEX
  8
0
 10
474.108560
 20
504.810911
 42
0.078554
  0
VERTEX
  8
0
 10
473.601562
 20
504.693942
 42
0.447206
  0
VERTEX
  8
0
 10
473.540618
 20
504.525001
 42
0.174857
  0
SEQEND
  0
POLYLINE
  8
0
 66
1
 70
1
  0
VERTEX
  8
0
 10
479.750000
 20
504.337719
 42
0.057986
  0
VERTEX
  8
0
 10
480.320008
 20
504.181385
 42
0.037979
  0
VERTEX
  8
0
 10
481.000000
 20
504.129660
 42
0.037979
  0
VERTEX
  8
0
 10
481.679992
 20
504.181385
 42
0.057986
  0
VERTEX
  8
0
 10
482.250000
 20
504.337719
 42
0.174857
  0
VERTEX
  8
0
 10
482.459382
 20
504.525001
 42
0.447206
  0
VERTEX
  8
0
 10
482.398438
 20
504.693942
 42
0.078554
  0
VERTEX
  8
0
 10
481.891440
 20
504.810911
 42
0.017491
  0
VERTEX
  8
0
 10
481.000000
 20
504.842105
 42
0.017491
  0
VERTEX
  8
0
 10
480.108560
 20
504.810911
 42
0.078554
  0
VERTEX
  8
0
 10
479.601562
 20
504.693942
 42
0.447206
  0
VERTEX
  8
0
 10
479.540618
 20
504.525001
 42
0.174857
  0
SEQEND
  0
POLYLINE
  8
0
 66
1
 70
1
  0
VERTEX
  8
0
 10
484.638374
 20
503.500000
 42
0.021360
  0
VERTEX
  8
0
 10
484.887494
 20
502.925442
 42
0.030395
  0
VERTEX
  8
0
 10
485.160341
 20
502.440625
 42
0.030693
  0
VERTEX
  8
0
 10
485.420671
 20
502.087111
 42
0.222225
  0
VERTEX
  8
0
 10
485.606989
 20
502.000000
 42
0.289661
  0
VERTEX
  8
0
 10
485.758929
 20
502.096084
 42
0.046727
  0
VERTEX
  8
0
 10
485.884553
 20
502.440625
 42
0.039339
  0
VERTEX
  8
0
 10
485.971531
 20
502.925176
 42
0.024748
  0
VERTEX
  8
0
 10
486.000000
 20
503.500000
 42
0.062722
  0
VERTEX
  8
0
 10
485.927770
 20
504.073532
 42
0.080880
  0
VERTEX
  8
0
 10
485.715469
 20
504.559375
 42
0.098158
  0
VERTEX
  8
0
 10
485.400789
 20
504.884506
 42
0.152681
  0
VERTEX
  8
0
 10
485.031385
 20
505.000000
 42
0.184534
  0
VERTEX
  8
0
 10
484.710807
 20
504.877514
 42
0.147206
  0
VERTEX
  8
0
 10
484.516384
 20
504.559375
 42
0.100118
  0
VERTEX
  8
0
 10
484.488865
 20
504.074366
 42
0.055937
  0
SEQEND
  0
POLYLINE
  8
0
 66
1
 70
1
  0
VERTEX
  8
0
 10
485.078947
 20
498.416667
 42
0.018894
  0
VERTEX
  8
0
 10
485.137993
 20
497.670344
 42
0.168741
  0
VERTEX
  8
0
 10
485.279315
 20
497.378580
 42
0.470617
  0
VERTEX
  8
0
 10
485.461564
 20
497.395823
 42
0.054073
  0
VERTEX
  8
0
 10
485.683114
 20
497.812500
 42
0.051402
  0
VERTEX
  8
0
 10
485.839148
 20
498.359369
 42
0.054150
  0
VERTEX
  8
0
 10
485.876576
 20
498.916927
 42
0.060344
  0
VERTEX
  8
0
 10
485.797407
 20
499.402231
 42
0.126455
  0
VERTEX
  8
0
 10
485.604167
 20
499.729167
 42
0.296942
  0
VERTEX
  8
0
 10
485.385309
 20
499.775380
 42
0.208169
  0
VERTEX
  8
0
 10
485.200665
 20
499.592839
 42
0.077125
  0
VERTEX
  8
0
 10
485.089945
 20
499.112848
 42
0.028489
  0
SEQEND
  0
POLYLINE
  8
0
 66
1
 70
1
  0
VERTEX
  8
0
 10
484.500000
 20
395.000000
 42
0.082592
  0
VERTEX
  8
0
 10
484.343488
 20
394.617900
 42
0.161196
  0
VERTEX
  8
0
 10
484.374600
 20
394.293750
 42
0.182303
  0
VERTEX
  8
0
 10
484.586039
 20
394.078288
 42
0.108972
  0
VERTEX
  8
0
 10
484.940983
 20
394.000000
 42
0.093332
  0
VERTEX
  8
0
 10
485.345238
 20
394.076123
 42
0.096420
  0
VERTEX
  8
0
 10
485.688914
 20
394.293750
 42
0.099167
  0
VERTEX
  8
0
 10
485.918938
 20
394.618444
 42
0.105053
  0
VERTEX
  8
0
 10
486.000000
 20
395.000000
 42
0.042167
  0
VERTEX
  8
0
 10
485.967655
 20
395.382849
 42
0.061769
  0
VERTEX
  8
0
 10
485.870461
 20
395.706250
 42
0.081139
  0
VERTEX
  8
0
 10
485.727648
 20
395.925540
 42
0.210953
  0
VERTEX
  8
0
 10
485.559017
 20
396.000000
 42
0.151918
  0
VERTEX
  8
0
 10
485.348290
 20
395.934461
 42
0.038439
  0
VERTEX
  8
0
 10
485.066025
 20
395.706250
 42
0.035638
  0
VERTEX
  8
0
 10
484.768994
 20
395.382774
 42
0.029505
  0
SEQEND
  0
POLYLINE
  8
0
 66
1
 70
1
  0
VERTEX
  8
0
 10
473.838999
 20
392.250000
 42
0.005565
  0
VERTEX
  8
0
 10
474.168354
 20
390.724211
 42
0.174842
  0
VERTEX
  8
0
 10
474.372773
 20
390.405227
 42
0.533419
  0
VERTEX
  8
0
 10
474.569710
 20
390.471660
 42
0.015159
  0
VERTEX
  8
0
 10
474.816009
 20
391.500000
 42
-0.041551
  0
VERTEX
  8
0
 10
475.058631
 20
392.319554
 42
-0.036186
  0
VERTEX
  8
0
 10
475.442560
 20
393.128314
 42
-0.037884
  0
VERTEX
  8
0
 10
475.900839
 20
393.810870
 42
-0.082444
  0
VERTEX
  8
0
 10
476.365682
 20
394.234687
 42
0.113058
  0
VERTEX
  8
0
 10
476.651940
 20
394.529376
 42
0.382644
  0
VERTEX
  8
0
 10
476.606609
 20
394.771361
 42
0.136566
  0
VERTEX
  8
0
 10
476.196977
 20
394.936517
 42
0.026141
  0
VERTEX
  8
0
 10
475.388672
 20
394.984687
 42
0.053746
  0
VERTEX
  8
0
 10
474.299204
 20
394.875227
 42
0.215161
  0
VERTEX
  8
0
 10
473.771174
 20
394.489112
 42
0.155131
  0
VERTEX
  8
0
 10
473.612904
 20
393.738256
 42
0.025356
  0
SEQEND
  0
POLYLINE
  8
0
 66
1
 70
1
  0
VERTEX
  8
0
 10
479.750000
 20
394.337719
 42
0.057986
  0
VERTEX
  8
0
 10
480.320008
 20
394.181385
 42
0.037979
  0
VERTEX
  8
0
 10
481.000000
 20
394.129660
 42
0.037979
  0
VERTEX
  8
0
 10
481.679992
 20
394.181385
 42
0.057986
  0
VERTEX
  8
0
 10
482.250000
 20
394.337719
 42
0.174857
  0
VERTEX
  8
0
 10
482.459382
 20
394.525001
 42
0.447206
  0
VERTEX
  8
0
 10
482.398438
 20
394.693942
 42
0.078554
  0
VERTEX
  8
0
 10
481.891440
 20
394.810911
 42
0.017491
  0
VERTEX
  8
0
 10
481.000000
 20
394.842105
 42
0.017491
  0
VERTEX
  8
0
 10
480.108560
 20
394.810911
 42
0.078554
  0
VERTEX
  8
0
 10
479.601562
 20
394.693942
 42
0.447206
  0
VERTEX
  8
0
 10
479.540618
 20
394.525001
 42
0.174857
  0
SEQEND
  0
POLYLINE
  8
0
 66
1
 70
1
  0
VERTEX
  8
0
 10
474.157895
 20
387.000000
 42
0.017491
  0
VERTEX
  8
0
 10
474.189089
 20
386.108560
 42
0.078554
  0
VERTEX
  8
0
 10
474.306058
 20
385.601562
 42
0.447206
  0
VERTEX
  8
0
 10
474.474999
 20
385.540618
 42
0.174857
  0
VERTEX
  8
0
 10
474.662281
 20
385.750000
 42
0.057986
  0
VERTEX
  8
0
 10
474.818615
 20
386.320008
 42
0.037979
  0
VERTEX
  8
0
 10
474.870340
 20
387.000000
 42
0.037979
  0
VERTEX
  8
0
 10
474.818615
 20
387.679992
 42
0.057986
  0
VERTEX
  8
0
 10
474.662281
 20
388.250000
 42
0.174857
  0
VERTEX
  8
0
 10
474.474999
 20
388.459382
 42
0.447206
  0
VERTEX
  8
0
 10
474.306058
 20
388.398438
 42
0.078554
  0
VERTEX
  8
0
 10
474.189089
 20
387.891440
 42
0.017491
  0
SEQEND
  0
POLYLINE
  8
0
 66
1
 70
1
  0
VERTEX
  8
0
 10
474.157895
 20
381.000000
 42
0.017491
  0
VERTEX
  8
0
 10
474.189089
 20
380.108560
 42
0.078554
  0
VERTEX
  8
0
 10
474.306058
 20
379.601562
 42
0.447206
  0
VERTEX
  8
0
 10
474.474999
 20
379.540618
 42
0.174857
  0
VERTEX
  8
0
 10
474.662281
 20
379.750000
 42
0.057986
  0
VERTEX
  8
0
 10
474.818615
 20
380.320008
 42
0.037979
  0
VERTEX
  8
0
 10
474.870340
 20
381.000000
 42
0.037979
  0
VERTEX
  8
0
 10
474.818615
 20
381.679992
 42
0.057986
  0
VERTEX
  8
0
 10
474.662281
 20
382.250000
 42
0.174857
  0
VERTEX
  8
0
 10
474.474999
 20
382.459382
 42
0.447206
  0
VERTEX
  8
0
 10
474.306058
 20
382.398438
 42
0.078554
  0
VERTEX
  8
0
 10
474.189089
 20
381.891440
 42
0.017491
  0
SEQEND
  0
POLYLINE
  8
0
 66
1
 70
1
  0
VERTEX
  8
0
 10
474.157895
 20
376.000000
 42
0.017491
  0
VERTEX
  8
0
 10
474.189089
 20
375.108560
 42
0.078554
  0
VERTEX
  8
0
 10
474.306058
 20
374.601562
 42
0.447206
  0
VERTEX
  8
0
 10
474.474999
 20
374.540618
 42
0.174857
  0
VERTEX
  8
0
 10
474.662281
 20
374.750000
 42
0.057986
  0
VERTEX
  8
0
 10
474.818615
 20
375.320008
 42
0.037979
  0
VERTEX
  8
0
 10
474.870340
 20
376.000000
 42
0.037979
  0
VERTEX
  8
0
 10
474.818615
 20
376.679992
 42
0.057986
  0
VERTEX
  8
0
 10
474.662281
 20
377.250000
 42
0.174857
  0
VERTEX
  8
0
 10
474.474999
 20
377.459382
 42
0.447206
  0
VERTEX
  8
0
 10
474.306058
 20
377.398438
 42
0.078554
  0
VERTEX
  8
0
 10
474.189089
 20
376.891440
 42
0.017491
  0
SEQEND
  0
POLYLINE
  8
0
 66
1
 70
1
  0
VERTEX
  8
0
 10
473.750000
 20
372.337719
 42
0.057986
  0
VERTEX
  8
0
 10
474.320008
 20
372.181385
 42
0.037979
  0
VERTEX
  8
0
 10
475.000000
 20
372.129660
 42
0.037979
  0
VERTEX
  8
0
 10
475.679992
 20
372.181385
 42
0.057986
  0
VERTEX
  8
0
 10
476.250000
 20
372.337719
 42
0.174857
  0
VERTEX
  8
0
 10
476.459382
 20
372.525001
 42
0.447206
  0
VERTEX
  8
0
 10
476.398438
 20
372.693942
 42
0.078554
  0
VERTEX
  8
0
 10
475.891440
 20
372.810911
 42
0.017491
  0
VERTEX
  8
0
 10
475.000000
 20
372.842105
 42
0.017491
  0
VERTEX
  8
0
 10
474.108560
 20
372.810911
 42
0.078554
  0
VERTEX
  8
0
 10
473.601562
 20
372.693942
 42
0.447206
  0
VERTEX
  8
0
 10
473.540618
 20
372.525001
 42
0.174857
  0
SEQEND
  0
POLYLINE
  8
0
 66
1
 70
1
  0
VERTEX
  8
0
 10
479.750000
 20
372.337719
 42
0.057986
  0
VERTEX
  8
0
 10
480.320008
 20
372.181385
 42
0.037979
  0
VERTEX
  8
0
 10
481.000000
 20
372.129660
 42
0.037979
  0
VERTEX
  8
0
 10
481.679992
 20
372.181385
 42
0.057986
  0
VERTEX
  8
0
 10
482.250000
 20
372.337719
 42
0.174857
  0
VERTEX
  8
0
 10
482.459382
 20
372.525001
 42
0.447206
  0
VERTEX
  8
0
 10
482.398438
 20
372.693942
 42
0.078554
  0
VERTEX
  8
0
 10
481.891440
 20
372.810911
 42
0.017491
  0
VERTEX
  8
0
 10
481.000000
 20
372.842105
 42
0.017491
  0
VERTEX
  8
0
 10
480.108560
 20
372.810911
 42
0.078554
  0
VERTEX
  8
0
 10
479.601562
 20
372.693942
 42
0.447206
  0
VERTEX
  8
0
 10
479.540618
 20
372.525001
 42
0.174857
  0
SEQEND
  0
POLYLINE
  8
0
 66
1
 70
1
  0
VERTEX
  8
0
 10
484.710251
 20
371.000000
 42
0.016817
  0
VERTEX
  8
0
 10
484.938458
 20
370.233613
 42
0.025621
  0
VERTEX
  8
0
 10
485.192243
 20
369.587500
 42
0.023188
  0
VERTEX
  8
0
 10
485.439563
 20
369.102864
 42
0.269386
  0
VERTEX
  8
0
 10
485.616631
 20
369.000000
 42
0.326917
  0
VERTEX
  8
0
 10
485.766282
 20
369.109555
 42
0.029396
  0
VERTEX
  8
0
 10
485.887385
 20
369.587500
 42
0.029316
  0
VERTEX
  8
0
 10
485.972329
 20
370.233356
 42
0.018041
  0
VERTEX
  8
0
 10
486.000000
 20
371.000000
 42
0.043375
  0
VERTEX
  8
0
 10
485.933456
 20
371.765641
 42
0.063112
  0
VERTEX
  8
0
 10
485.733751
 20
372.412500
 42
0.082769
  0
VERTEX
  8
0
 10
485.440102
 20
372.850443
 42
0.206609
  0
VERTEX
  8
0
 10
485.093620
 20
373.000000
 42
0.243840
  0
VERTEX
  8
0
 10
484.789795
 20
372.842465
 42
0.106581
  0
VERTEX
  8
0
 10
484.607123
 20
372.412500
 42
0.070464
  0
VERTEX
  8
0
 10
484.575635
 20
371.766322
 42
0.040966
  0
SEQEND
  0
POLYLINE
  8
0
 66
1
 70
1
  0
VERTEX
  8
0
 10
485.078947
 20
366.416667
 42
0.018894
  0
VERTEX
  8
0
 10
485.137993
 20
365.670344
 42
0.168741
  0
VERTEX
  8
0
 10
485.279315
 20
365.378580
 42
0.470617
  0
VERTEX
  8
0
 10
485.461564
 20
365.395823
 42
0.054073
  0
VERTEX
  8
0
 10
485.683114
 20
365.812500
 42
0.051402
  0
VERTEX
  8
0
 10
485.839148
 20
366.359369
 42
0.054150
  0
VERTEX
  8
0
 10
485.876576
 20
366.916927
 42
0.060344
  0
VERTEX
  8
0
 10
485.797407
 20
367.402231
 42
0.126455
  0
VERTEX
  8
0
 10
485.604167
 20
367.729167
 42
0.296942
  0
VERTEX
  8
0
 10
485.385309
 20
367.775380
 42
0.208169
  0
VERTEX
  8
0
 10
485.200665
 20
367.592839
 42
0.077125
  0
VERTEX
  8
0
 10
485.089945
 20
367.112848
 42
0.028489
  0
SEQEND
  0
POLYLINE
  8
0
 66
1
 70
1
  0
VERTEX
  8
0
 10
550.000000
 20
596.059017
 42
0.088797
  0
VERTEX
  8
0
 10
550.072509
 20
595.653950
 42
0.053277
  0
VERTEX
  8
0
 10
550.290385
 20
595.214980
 42
0.051183
  0
VERTEX
  8
0
 10
550.610411
 20
594.810572
 42
0.061454
  0
VERTEX
  8
0
 10
550.988546
 20
594.507079
 42
0.114400
  0
VERTEX
  8
0
 10
551.325929
 20
594.393111
 42
0.329480
  0
VERTEX
  8
0
 10
551.525685
 20
594.512472
 42
0.155351
  0
VERTEX
  8
0
 10
551.556862
 20
594.868281
 42
0.036408
  0
VERTEX
  8
0
 10
551.381557
 20
595.448062
 42
0.029964
  0
VERTEX
  8
0
 10
550.894727
 20
596.519970
 42
0.168622
  0
VERTEX
  8
0
 10
550.441482
 20
596.942608
 42
0.444011
  0
VERTEX
  8
0
 10
550.117673
 20
596.798253
 42
0.079093
  0
SEQEND
  0
POLYLINE
  8
0
 66
1
 70
1
  0
VERTEX
  8
0
 10
550.458881
 20
569.933469
 42
0.049364
  0
VERTEX
  8
0
 10
550.242038
 20
569.490157
 42
0.059701
  0
VERTEX
  8
0
 10
550.133355
 20
569.040231
 42
0.070517
  0
VERTEX
  8
0
 10
550.142323
 20
568.651151
 42
0.156651
  0
VERTEX
  8
0
 10
550.276326
 20
568.390341
 42
0.281567
  0
VERTEX
  8
0
 10
550.505460
 20
568.335123
 42
0.118528
  0
VERTEX
  8
0
 10
550.786868
 20
568.507038
 42
0.069269
  0
VERTEX
  8
0
 10
551.083816
 20
568.899181
 42
0.035865
  0
VERTEX
  8
0
 10
551.345077
 20
569.456872
 42
0.029555
  0
VERTEX
  8
0
 10
551.696703
 20
570.564815
 42
0.344086
  0
VERTEX
  8
0
 10
551.525317
 20
570.954259
 42
0.361950
  0
VERTEX
  8
0
 10
551.120758
 20
570.871774
 42
0.030391
  0
SEQEND
  0
POLYLINE
  8
0
 66
1
 70
1
  0
VERTEX
  8
0
 10
544.458881
 20
560.933469
 42
0.049364
  0
VERTEX
  8
0
 10
544.242038
 20
560.490157
 42
0.059701
  0
VERTEX
  8
0
 10
544.133355
 20
560.040231
 42
0.070517
  0
VERTEX
  8
0
 10
544.142323
 20
559.651151
 42
0.156651
  0
VERTEX
  8
0
 10
544.276326
 20
559.390341
 42
0.281567
  0
VERTEX
  8
0
 10
544.505460
 20
559.335123
 42
0.118528
  0
VERTEX
  8
0
 10
544.786868
 20
559.507038
 42
0.069269
  0
VERTEX
  8
0
 10
545.083816
 20
559.899181
 42
0.035865
  0
VERTEX
  8
0
 10
545.345077
 20
560.456872
 42
0.029555
  0
VERTEX
  8
0
 10
545.696703
 20
561.564815
 42
0.344086
  0
VERTEX
  8
0
 10
545.525317
 20
561.954259
 42
0.361950
  0
VERTEX
  8
0
 10
545.120758
 20
561.871774
 42
0.030391
  0
SEQEND
  0
POLYLINE
  8
0
 66
1
 70
1
  0
VERTEX
  8
0
 10
541.000000
 20
555.940983
 42
0.108972
  0
VERTEX
  8
0
 10
541.078288
 20
555.586039
 42
0.182303
  0
VERTEX
  8
0
 10
541.293750
 20
555.374600
 42
0.161196
  0
VERTEX
  8
0
 10
541.617900
 20
555.343488
 42
0.082592
  0
VERTEX
  8
0
 10
542.000000
 20
555.500000
 42
0.029505
  0
VERTEX
  8
0
 10
542.382774
 20
555.768994
 42
0.035638
  0
VERTEX
  8
0
 10
542.706250
 20
556.066025
 42
0.038439
  0
VERTEX
  8
0
 10
542.934461
 20
556.348290
 42
0.151918
  0
VERTEX
  8
0
 10
543.000000
 20
556.559017
 42
0.210953
  0
VERTEX
  8
0
 10
542.925540
 20
556.727648
 42
0.081139
  0
VERTEX
  8
0
 10
542.706250
 20
556.870461
 42
0.061769
  0
VERTEX
  8
0
 10
542.382849
 20
556.967655
 42
0.042167
  0
VERTEX
  8
0
 10
542.000000
 20
557.000000
 42
0.105053
  0
VERTEX
  8
0
 10
541.618444
 20
556.918938
 42
0.099167
  0
VERTEX
  8
0
 10
541.293750
 20
556.688914
 42
0.096420
  0
VERTEX
  8
0
 10
541.076123
 20
556.345238
 42
0.093332
  0
SEQEND
  0
POLYLINE
  8
0
 66
1
 70
1
  0
VERTEX
  8
0
 10
504.000000
 20
407.000000
 42
0.072656
  0
VERTEX
  8
0
 10
504.129380
 20
406.114344
 42
0.129641
  0
VERTEX
  8
0
 10
504.510417
 20
405.490000
 42
0.125767
  0
VERTEX
  8
0
 10
505.159348
 20
405.122938
 42
0.066234
  0
VERTEX
  8
0
 10
506.083333
 20
405.000000
 42
-0.052338
  0
VERTEX
  8
0
 10
506.894358
 20
404.914873
 42
-0.110801
  0
VERTEX
  8
0
 10
507.465752
 20
404.652915
 42
-0.162528
  0
VERTEX
  8
0
 10
507.741497
 20
404.248119
 42
-0.154946
  0
VERTEX
  8
0
 10
507.725705
 20
403.750000
 42
-0.110135
  0
VERTEX
  8
0
 10
507.433752
 20
403.282800
 42
-0.075877
  0
VERTEX
  8
0
 10
506.931829
 20
402.907986
 42
-0.070813
  0
VERTEX
  8
0
 10
506.303134
 20
402.679515
 42
-0.073015
  0
VERTEX
  8
0
 10
505.642371
 20
402.638889
 42
0.056436
  0
VERTEX
  8
0
 10
505.014059
 20
402.621048
 42
0.080601
  0
VERTEX
  8
0
 10
504.482447
 20
402.455437
 42
0.104474
  0
VERTEX
  8
0
 10
504.127686
 20
402.173774
 42
0.174633
  0
VERTEX
  8
0
 10
504.000000
 20
401.819338
 42
0.236204
  0
VERTEX
  8
0
 10
504.170827
 20
401.477904
 42
0.091534
  0
VERTEX
  8
0
 10
504.657937
 20
401.236308
 42
0.064709
  0
VERTEX
  8
0
 10
505.381872
 20
401.127912
 42
0.040298
  0
VERTEX
  8
0
 10
506.239784
 20
401.180449
 42
0.130683
  0
VERTEX
  8
0
 10
507.959237
 20
401.910683
 42
0.182872
  0
VERTEX
  8
0
 10
508.819899
 20
403.322214
 42
0.214851
  0
VERTEX
  8
0
 10
508.467775
 20
404.777075
 42
0.165046
  0
VERTEX
  8
0
 10
507.086974
 20
405.687507
 42
-0.055652
  0
VERTEX
  8
0
 10
505.512223
 20
406.292806
 42
-0.297079
  0
VERTEX
  8
0
 10
505.080147
 20
407.056109
 42
-0.283854
  0
VERTEX
  8
0
 10
505.599759
 20
407.790739
 42
-0.052986
  0
VERTEX
  8
0
 10
507.250000
 20
408.294267
 42
0.003620
  0
VERTEX
  8
0
 10
508.568679
 20
408.558172
 42
0.574721
  0
VERTEX
  8
0
 10
508.607621
 20
408.674595
 42
0.200802
  0
VERTEX
  8
0
 10
508.401331
 20
408.775265
 42
0.002047
  0
VERTEX
  8
0
 10
506.750000
 20
408.863818
 42
0.034212
  0
VERTEX
  8
0
 10
505.381227
 20
408.837921
 42
0.127769
  0
VERTEX
  8
0
 10
504.576727
 20
408.552002
 42
0.171080
  0
VERTEX
  8
0
 10
504.144944
 20
407.967545
 42
0.074487
  0
SEQEND
  0
POLYLINE
  8
0
 66
1
 70
1
  0
VERTEX
  8
0
 10
512.000000
 20
408.000000
 42
0.027792
  0
VERTEX
  8
0
 10
511.450916
 20
407.600240
 42
0.145470
  0
VERTEX
  8
0
 10
511.243091
 20
407.294507
 42
0.377219
  0
VERTEX
  8
0
 10
511.329813
 20
407.096783
 42
0.106179
  0
VERTEX
  8
0
 10
511.686642
 20
407.015313
 42
-0.220225
  0
VERTEX
  8
0
 10
512.170822
 20
406.783553
 42
-0.059495
  0
VERTEX
  8
0
 10
512.643183
 20
406.049811
 42
-0.048532
  0
VERTEX
  8
0
 10
513.035349
 20
404.995627
 42
-0.033936
  0
VERTEX
  8
0
 10
513.276604
 20
403.750000
 42
0.002653
  0
VERTEX
  8
0
 10
513.524759
 20
401.833587
 42
0.719386
  0
VERTEX
  8
0
 10
513.637368
 20
401.811991
 42
0.118219
  0
VERTEX
  8
0
 10
513.736282
 20
402.158986
 42
0.001178
  0
VERTEX
  8
0
 10
513.839963
 20
404.750000
 42
0.005495
  0
VERTEX
  8
0
 10
513.883372
 20
406.378606
 42
0.009225
  0
VERTEX
  8
0
 10
513.879552
 20
407.747064
 42
0.003401
  0
VERTEX
  8
0
 10
513.847315
 20
408.896295
 42
0.421946
  0
VERTEX
  8
0
 10
513.750000
 20
408.984687
 42
0.107356
  0
VERTEX
  8
0
 10
513.590788
 20
408.939754
 42
0.005891
  0
VERTEX
  8
0
 10
513.132812
 20
408.689119
 42
0.008918
  0
VERTEX
  8
0
 10
512.592814
 20
408.372463
 42
0.006384
  0
SEQEND
  0
POLYLINE
  8
0
 66
1
 70
1
  0
VERTEX
  8
0
 10
525.000000
 20
407.000000
 42
0.000000
  0
VERTEX
  8
0
 10
521.500000
 20
406.263282
 42
0.000000
  0
VERTEX
  8
0
 10
524.750000
 20
406.131641
 42
-0.029626
  0
VERTEX
  8
0
 10
525.995044
 20
406.007075
 42
-0.045365
  0
VERTEX
  8
0
 10
527.045313
 20
405.739323
 42
-0.056292
  0
VERTEX
  8
0
 10
527.779300
 20
405.382271
 42
-0.256828
  0
VERTEX
  8
0
 10
528.000000
 20
404.980948
 42
0.342773
  0
VERTEX
  8
0
 10
528.390419
 20
404.478360
 42
0.084599
  0
VERTEX
  8
0
 10
529.503473
 20
404.387878
 42
0.032134
  0
VERTEX
  8
0
 10
531.624766
 20
404.712667
 42
0.005035
  0
VERTEX
  8
0
 10
535.750000
 20
405.662237
 42
0.000000
  0
VERTEX
  8
0
 10
538.500000
 20
406.324474
 42
0.000000
  0
VERTEX
  8
0
 10
535.500000
 20
407.043922
 42
0.023614
  0
VERTEX
  8
0
 10
532.842518
 20
407.549917
 42
0.036295
  0
VERTEX
  8
0
 10
530.507127
 20
407.709849
 42
0.033699
  0
VERTEX
  8
0
 10
528.051277
 20
407.533817
 42
0.017135
  0
SEQEND
  0
POLYLINE
  8
0
 66
1
 70
1
  0
VERTEX
  8
0
 10
538.000000
 20
348.059017
 42
0.088797
  0
VERTEX
  8
0
 10
538.072509
 20
347.653950
 42
0.053277
  0
VERTEX
  8
0
 10
538.290385
 20
347.214980
 42
0.051183
  0
VERTEX
  8
0
 10
538.610411
 20
346.810572
 42
0.061454
  0
VERTEX
  8
0
 10
538.988546
 20
346.507079
 42
0.114400
  0
VERTEX
  8
0
 10
539.325929
 20
346.393111
 42
0.329480
  0
VERTEX
  8
0
 10
539.525685
 20
346.512472
 42
0.155351
  0
VERTEX
  8
0
 10
539.556862
 20
346.868281
 42
0.036408
  0
VERTEX
  8
0
 10
539.381557
 20
347.448062
 42
0.029964
  0
VERTEX
  8
0
 10
538.894727
 20
348.519970
 42
0.168622
  0
VERTEX
  8
0
 10
538.441482
 20
348.942608
 42
0.444011
  0
VERTEX
  8
0
 10
538.117673
 20
348.798253
 42
0.079093
  0
SEQEND
  0
POLYLINE
  8
0
 66
1
 70
1
  0
VERTEX
  8
0
 10
87.000000
 20
516.000000
 42
0.000000
  0
VERTEX
  8
0
 10
87.000000
 20
461.000000
 42
0.000000
  0
VERTEX
  8
0
 10
210.500000
 20
461.000000
 42
0.000000
  0
VERTEX
  8
0
 10
334.000000
 20
461.000000
 42
0.000000
  0
VERTEX
  8
0
 10
334.000000
 20
516.000000
 42
0.000000
  0
VERTEX
  8
0
 10
334.000000
 20
571.000000
 42
0.000000
  0
VERTEX
  8
0
 10
210.500000
 20
571.000000
 42
0.000000
  0
VERTEX
  8
0
 10
87.000000
 20
571.000000
 42
0.000000
  0
SEQEND
  0
POLYLINE
  8
0
 66
1
 70
1
  0
VERTEX
  8
0
 10
333.000000
 20
563.000000
 42
0.000000
  0
VERTEX
  8
0
 10
333.000000
 20
556.000000
 42
0.000000
  0
VERTEX
  8
0
 10
210.500000
 20
556.000000
 42
0.000000
  0
VERTEX
  8
0
 10
88.000000
 20
556.000000
 42
0.000000
  0
VERTEX
  8
0
 10
88.000000
 20
563.000000
 42
0.000000
  0
VERTEX
  8
0
 10
88.000000
 20
570.000000
 42
0.000000
  0
VERTEX
  8
0
 10
210.500000
 20
570.000000
 42
0.000000
  0
VERTEX
  8
0
 10
333.000000
 20
570.000000
 42
0.000000
  0
SEQEND
  0
POLYLINE
  8
0
 66
1
 70
1
  0
VERTEX
  8
0
 10
333.000000
 20
520.500000
 42
0.000000
  0
VERTEX
  8
0
 10
333.000000
 20
486.000000
 42
0.000000
  0
VERTEX
  8
0
 10
210.500000
 20
486.000000
 42
0.000000
  0
VERTEX
  8
0
 10
88.000000
 20
486.000000
 42
0.000000
  0
VERTEX
  8
0
 10
88.000000
 20
520.500000
 42
0.000000
  0
VERTEX
  8
0
 10
88.000000
 20
555.000000
 42
0.000000
  0
VERTEX
  8
0
 10
210.500000
 20
555.000000
 42
0.000000
  0
VERTEX
  8
0
 10
333.000000
 20
555.000000
 42
0.000000
  0
SEQEND
  0
POLYLINE
  8
0
 66
1
 70
1
  0
VERTEX
  8
0
 10
333.000000
 20
473.500000
 42
0.000000
  0
VERTEX
  8
0
 10
333.000000
 20
462.000000
 42
0.000000
  0
VERTEX
  8
0
 10
210.500000
 20
462.000000
 42
0.000000
  0
VERTEX
  8
0
 10
88.000000
 20
462.000000
 42
0.000000
  0
VERTEX
  8
0
 10
88.000000
 20
473.500000
 42
0.000000
  0
VERTEX
  8
0
 10
88.000000
 20
485.000000
 42
0.000000
  0
VERTEX
  8
0
 10
210.500000
 20
485.000000
 42
0.000000
  0
VERTEX
  8
0
 10
333.000000
 20
485.000000
 42
0.000000
  0
SEQEND
  0
POLYLINE
  8
0
 66
1
 70
1
  0
VERTEX
  8
0
 10
325.954163
 20
688.914354
 42
0.031181
  0
VERTEX
  8
0
 10
325.569369
 20
688.073231
 42
0.042187
  0
VERTEX
  8
0
 10
325.336519
 20
687.270691
 42
0.048443
  0
VERTEX
  8
0
 10
325.269483
 20
686.610882
 42
0.200067
  0
VERTEX
  8
0
 10
325.418980
 20
686.247687
 42
0.125439
  0
VERTEX
  8
0
 10
325.639444
 20
686.116783
 42
0.258201
  0
VERTEX
  8
0
 10
325.829325
 20
686.159068
 42
0.159841
  0
VERTEX
  8
0
 10
325.959469
 20
686.381536
 42
0.053128
  0
VERTEX
  8
0
 10
326.000000
 20
686.761905
 42
-0.099923
  0
VERTEX
  8
0
 10
326.106663
 20
687.290301
 42
-0.033546
  0
VERTEX
  8
0
 10
326.461607
 20
687.997024
 42
-0.031818
  0
VERTEX
  8
0
 10
326.970052
 20
688.746442
 42
-0.031427
  0
VERTEX
  8
0
 10
327.571429
 20
689.428571
 42
0.031321
  0
VERTEX
  8
0
 10
328.104578
 20
690.033055
 42
0.083167
  0
VERTEX
  8
0
 10
328.376853
 20
690.538393
 42
0.209066
  0
VERTEX
  8
0
 10
328.350225
 20
690.854854
 42
0.275320
  0
VERTEX
  8
0
 10
328.106612
 20
691.000000
 42
0.147120
  0
VERTEX
  8
0
 10
327.631376
 20
690.857073
 42
0.046370
  0
VERTEX
  8
0
 10
327.046879
 20
690.387341
 42
0.041745
  0
VERTEX
  8
0
 10
326.457732
 20
689.712517
 42
0.035735
  0
SEQEND
  0
POLYLINE
  8
0
 66
1
 70
1
  0
VERTEX
  8
0
 10
97.000000
 20
645.000000
 42
0.000000
  0
VERTEX
  8
0
 10
97.000000
 20
621.000000
 42
0.000000
  0
VERTEX
  8
0
 10
210.500000
 20
621.000000
 42
0.000000
  0
VERTEX
  8
0
 10
324.000000
 20
621.000000
 42
0.000000
  0
VERTEX
  8
0
 10
324.000000
 20
645.000000
 42
0.000000
  0
VERTEX
  8
0
 10
324.000000
 20
669.000000
 42
0.000000
  0
VERTEX
  8
0
 10
210.500000
 20
669.000000
 42
0.000000
  0
VERTEX
  8
0
 10
97.000000
 20
669.000000
 42
0.000000
  0
SEQEND
  0
POLYLINE
  8
0
 66
1
 70
1
  0
VERTEX
  8
0
 10
323.000000
 20
645.000000
 42
0.000000
  0
VERTEX
  8
0
 10
323.000000
 20
622.000000
 42
0.000000
  0
VERTEX
  8
0
 10
210.500000
 20
622.000000
 42
0.000000
  0
VERTEX
  8
0
 10
98.000000
 20
622.000000
 42
0.000000
  0
VERTEX
  8
0
 10
98.000000
 20
645.000000
 42
0.000000
  0
VERTEX
  8
0
 10
98.000000
 20
668.000000
 42
0.000000
  0
VERTEX
  8
0
 10
210.500000
 20
668.000000
 42
0.000000
  0
VERTEX
  8
0
 10
323.000000
 20
668.000000
 42
0.000000
  0
SEQEND
  0
POLYLINE
  8
0
 66
1
 70
1
  0
VERTEX
  8
0
 10
97.000000
 20
386.500000
 42
0.000000
  0
VERTEX
  8
0
 10
97.000000
 20
363.000000
 42
0.000000
  0
VERTEX
  8
0
 10
210.500000
 20
363.000000
 42
0.000000
  0
VERTEX
  8
0
 10
324.000000
 20
363.000000
 42
0.000000
  0
VERTEX
  8
0
 10
324.000000
 20
386.500000
 42
0.000000
  0
VERTEX
  8
0
 10
324.000000
 20
410.000000
 42
0.000000
  0
VERTEX
  8
0
 10
210.500000
 20
410.000000
 42
0.000000
  0
VERTEX
  8
0
 10
97.000000
 20
410.000000
 42
0.000000
  0
SEQEND
  0
POLYLINE
  8
0
 66
1
 70
1
  0
VERTEX
  8
0
 10
323.000000
 20
386.500000
 42
0.000000
  0
VERTEX
  8
0
 10
323.000000
 20
364.000000
 42
0.000000
  0
VERTEX
  8
0
 10
210.500000
 20
364.000000
 42
0.000000
  0
VERTEX
  8
0
 10
98.000000
 20
364.000000
 42
0.000000
  0
VERTEX
  8
0
 10
98.000000
 20
386.500000
 42
0.000000
  0
VERTEX
  8
0
 10
98.000000
 20
409.000000
 42
0.000000
  0
VERTEX
  8
0
 10
210.500000
 20
409.000000
 42
0.000000
  0
VERTEX
  8
0
 10
323.000000
 20
409.000000
 42
0.000000
  0
SEQEND
  0
POLYLINE
  8
0
 66
1
 70
1
  0
VERTEX
  8
0
 10
303.000000
 20
301.000000
 42
0.000000
  0
VERTEX
  8
0
 10
303.000000
 20
295.000000
 42
0.000000
  0
VERTEX
  8
0
 10
318.500000
 20
295.000000
 42
0.000000
  0
VERTEX
  8
0
 10
334.000000
 20
295.000000
 42
0.000000
  0
VERTEX
  8
0
 10
334.000000
 20
301.000000
 42
0.000000
  0
VERTEX
  8
0
 10
334.000000
 20
307.000000
 42
0.000000
  0
VERTEX
  8
0
 10
318.500000
 20
307.000000
 42
0.000000
  0
VERTEX
  8
0
 10
303.000000
 20
307.000000
 42
0.000000
  0
SEQEND
  0
POLYLINE
  8
0
 66
1
 70
1
  0
VERTEX
  8
0
 10
333.000000
 20
301.000000
 42
0.000000
  0
VERTEX
  8
0
 10
333.000000
 20
296.000000
 42
0.000000
  0
VERTEX
  8
0
 10
318.500000
 20
296.000000
 42
0.000000
  0
VERTEX
  8
0
 10
304.000000
 20
296.000000
 42
0.000000
  0
VERTEX
  8
0
 10
304.000000
 20
301.000000
 42
0.000000
  0
VERTEX
  8
0
 10
304.000000
 20
306.000000
 42
0.000000
  0
VERTEX
  8
0
 10
318.500000
 20
306.000000
 42
0.000000
  0
VERTEX
  8
0
 10
333.000000
 20
306.000000
 42
0.000000
  0
SEQEND
  0
POLYLINE
  8
0
 66
1
 70
1
  0
VERTEX
  8
0
 10
97.000000
 20
515.500000
 42
0.000000
  0
VERTEX
  8
0
 10
97.000000
 20
492.000000
 42
0.000000
  0
VERTEX
  8
0
 10
210.500000
 20
492.000000
 42
0.000000
  0
VERTEX
  8
0
 10
324.000000
 20
492.000000
 42
0.000000
  0
VERTEX
  8
0
 10
324.000000
 20
515.500000
 42
0.000000
  0
VERTEX
  8
0
 10
324.000000
 20
539.000000
 42
0.000000
  0
VERTEX
  8
0
 10
210.500000
 20
539.000000
 42
0.000000
  0
VERTEX
  8
0
 10
97.000000
 20
539.000000
 42
0.000000
  0
SEQEND
  0
POLYLINE
  8
0
 66
1
 70
1
  0
VERTEX
  8
0
 10
323.000000
 20
515.500000
 42
0.000000
  0
VERTEX
  8
0
 10
323.000000
 20
493.000000
 42
0.000000
  0
VERTEX
  8
0
 10
210.500000
 20
493.000000
 42
0.000000
  0
VERTEX
  8
0
 10
98.000000
 20
493.000000
 42
0.000000
  0
VERTEX
  8
0
 10
98.000000
 20
515.500000
 42
0.000000
  0
VERTEX
  8
0
 10
98.000000
 20
538.000000
 42
0.000000
  0
VERTEX
  8
0
 10
210.500000
 20
538.000000
 42
0.000000
  0
VERTEX
  8
0
 10
323.000000
 20
538.000000
 42
0.000000
  0
SEQEND
  0
ENDSEC
  0
EOF
