999
DXF file: zdi_di14531.dxf
999
Pro/ENGINEER 2004090 by Parametric Technology Corporation
0
SECTION
2
HEADER
9
$ACADVER
1
AC1014
9
$HANDSEED
5
       285
9
$EXTMAX
10
279.4000000000
20
215.9000000000
9
$EXTMIN
10
0.0000000000
20
0.0000000000
9
$LIMMIN
10
0.0000000000
20
0.0000000000
9
$LIMMAX
10
279.4000000000
20
215.9000000000
9
$VIEWCTR
10
139.7000000000
20
107.9500000000
9
$VIEWSIZE
40
215.9000000000
9
$CLAYER
8
0
9
$LTSCALE
40
15.3670000000
9
$CELTYPE
6
BYLAYER
9
$DIMSCALE
40
1
9
$DIMASZ
40
3.0000000000
9
$DIMEXO
40
1.7462500000
9
$DIMDLI
40
10.6172000000
9
$DIMEXE
40
5.0292000000
9
$DIMCEN
40
2.5146000000
9
$DIMLFAC
40
1.0000000000
9
$DIMTXT
40
3.0000000000
9
$DIMTOL
70
1
9
$DIMLIM
70
0
9
$DIMTFAC
40
1.0000000000
9
$DIMTP
40
0.0100000000
9
$DIMTM
40
0.0100000000
9
$MEASUREMENT
70
1
0
ENDSEC
0
SECTION
2
CLASSES
0
ENDSEC
0
SECTION
2
TABLES
0
TABLE
2
VPORT
5
8
100
AcDbSymbolTable
70
2
0
VPORT
5
1F4
100
AcDbSymbolTableRecord
100
AcDbViewportTableRecord
2
*ACTIVE
70
0
10
0.0
20
0.0
11
1.0
21
1.0
12
139.7000000000
22
107.9500000000
13
0.0
23
0.0
14
1.0
24
1.0
15
0.0
25
0.0
16
0.0
26
0.0
36
1.0
17
0.0
27
0.0
37
0.0
40
215.9000000000
41
1.2941176471
42
50.0
43
0.0
44
0.0
50
0.0
51
0.0
71
0
72
100
73
1
74
1
75
0
76
0
77
0
78
0
0
ENDTAB
0
TABLE
2
LTYPE
5
5
100
AcDbSymbolTable
70
6
0
LTYPE
5
14
100
AcDbSymbolTableRecord
100
AcDbLinetypeTableRecord
2
BYBLOCK
70
0
3

72
65
73
0
40
0.0
0
LTYPE
5
15
100
AcDbSymbolTableRecord
100
AcDbLinetypeTableRecord
2
BYLAYER
70
0
3

72
65
73
0
40
0.0
0
LTYPE
5
16
100
AcDbSymbolTableRecord
100
AcDbLinetypeTableRecord
2
CONTINUOUS
70
64
3
Solid line
72
65
73
0
40
0
0
LTYPE
5
1F5
100
AcDbSymbolTableRecord
100
AcDbLinetypeTableRecord
2
CENTER
70
64
3
____ _ ____ _ ____ _ ____ _ ____ _ ____ _ ____
72
65
73
4
40
0.6
49
0.375
74
0
49
-0.075
74
0
49
0.075
74
0
49
-0.075
74
0
0
LTYPE
5
1F6
100
AcDbSymbolTableRecord
100
AcDbLinetypeTableRecord
2
HIDDEN
70
64
3
- - - - - - - - - - - - - - - - - - - -
72
65
73
2
40
0.2
49
0.1
74
0
49
-0.1
74
0
0
LTYPE
5
1F7
100
AcDbSymbolTableRecord
100
AcDbLinetypeTableRecord
2
PHANTOM
70
64
3
_____ _ _ _____ _ _ _____ _ _ _____
72
65
73
6
40
0.8
49
0.45
74
0
49
-0.05
74
0
49
0.1
74
0
49
-0.05
74
0
49
0.1
74
0
49
-0.05
74
0
0
LTYPE
5
1F8
100
AcDbSymbolTableRecord
100
AcDbLinetypeTableRecord
2
DOT
70
64
3
. . . . . . . . . . . . . . . . . . . .
72
65
73
2
40
0.2
49
0.1
74
0
49
-0.1
74
0
0
LTYPE
5
1F9
100
AcDbSymbolTableRecord
100
AcDbLinetypeTableRecord
2
DASHED
70
64
3
- - - - - - - - - - - - - - - - - - - -
72
65
73
2
40
0.2
49
0.1
74
0
49
-0.1
74
0
0
ENDTAB
0
TABLE
2
LAYER
5
2
100
AcDbSymbolTable
70
36
0
LAYER
5
10
100
AcDbSymbolTableRecord
100
AcDbLayerTableRecord
2
0
70
0
62
7
6
CONTINUOUS
0
LAYER
5
1FA
100
AcDbSymbolTableRecord
100
AcDbLayerTableRecord
2
DEFAULT_1
70
0
62
7
6
CENTER
0
LAYER
5
1FB
100
AcDbSymbolTableRecord
100
AcDbLayerTableRecord
2
DEFAULT_2
70
0
62
8
6
HIDDEN
0
LAYER
5
1FC
100
AcDbSymbolTableRecord
100
AcDbLayerTableRecord
2
DEFAULT_3
70
0
62
7
6
PHANTOM
0
LAYER
5
1FD
100
AcDbSymbolTableRecord
100
AcDbLayerTableRecord
2
0
70
0
62
7
6
CONTINUOUS
0
LAYER
5
1FE
100
AcDbSymbolTableRecord
100
AcDbLayerTableRecord
2
ASSI
70
0
62
7
6
CONTINUOUS
0
LAYER
5
1FF
100
AcDbSymbolTableRecord
100
AcDbLayerTableRecord
2
COORDINATE
70
0
62
7
6
CONTINUOUS
0
LAYER
5
200
100
AcDbSymbolTableRecord
100
AcDbLayerTableRecord
2
COORD_ORIGINE
70
0
62
7
6
CONTINUOUS
0
LAYER
5
201
100
AcDbSymbolTableRecord
100
AcDbLayerTableRecord
2
CURVE
70
0
62
7
6
CONTINUOUS
0
LAYER
5
202
100
AcDbSymbolTableRecord
100
AcDbLayerTableRecord
2
CURVE_LED_TASTO
70
0
62
7
6
CONTINUOUS
0
LAYER
5
203
100
AcDbSymbolTableRecord
100
AcDbLayerTableRecord
2
DEFAULT_1
70
0
62
7
6
CONTINUOUS
0
LAYER
5
204
100
AcDbSymbolTableRecord
100
AcDbLayerTableRecord
2
DEFAULT_2
70
0
62
7
6
CONTINUOUS
0
LAYER
5
205
100
AcDbSymbolTableRecord
100
AcDbLayerTableRecord
2
DEFAULT_3
70
0
62
7
6
CONTINUOUS
0
LAYER
5
206
100
AcDbSymbolTableRecord
100
AcDbLayerTableRecord
2
DRAFT
70
0
62
7
6
CONTINUOUS
0
LAYER
5
207
100
AcDbSymbolTableRecord
100
AcDbLayerTableRecord
2
IGES_SCRITTE
70
0
62
7
6
CONTINUOUS
0
LAYER
5
208
100
AcDbSymbolTableRecord
100
AcDbLayerTableRecord
2
NOTE
70
0
62
7
6
CONTINUOUS
0
LAYER
5
209
100
AcDbSymbolTableRecord
100
AcDbLayerTableRecord
2
PIANI
70
0
62
7
6
CONTINUOUS
0
LAYER
5
20A
100
AcDbSymbolTableRecord
100
AcDbLayerTableRecord
2
PIANI_ORIGINE
70
0
62
7
6
CONTINUOUS
0
LAYER
5
20B
100
AcDbSymbolTableRecord
100
AcDbLayerTableRecord
2
PIANI_RIFERIMENTO
70
0
62
7
6
CONTINUOUS
0
LAYER
5
20C
100
AcDbSymbolTableRecord
100
AcDbLayerTableRecord
2
PUNTI
70
0
62
7
6
CONTINUOUS
0
LAYER
5
20D
100
AcDbSymbolTableRecord
100
AcDbLayerTableRecord
2
RACCORDO
70
0
62
7
6
CONTINUOUS
0
LAYER
5
20E
100
AcDbSymbolTableRecord
100
AcDbLayerTableRecord
2
SMUSSO
70
0
62
7
6
CONTINUOUS
0
LAYER
5
20F
100
AcDbSymbolTableRecord
100
AcDbLayerTableRecord
2
SNAPLINE
70
0
62
7
6
CONTINUOUS
0
LAYER
5
210
100
AcDbSymbolTableRecord
100
AcDbLayerTableRecord
2
SUPERFICI
70
0
62
7
6
CONTINUOUS
0
LAYER
5
211
100
AcDbSymbolTableRecord
100
AcDbLayerTableRecord
2
TRASH
70
0
62
7
6
CONTINUOUS
0
ENDTAB
0
TABLE
2
STYLE
5
3
100
AcDbSymbolTable
70
1
0
STYLE
5
11
100
AcDbSymbolTableRecord
100
AcDbTextStyleTableRecord
2
STANDARD
70
0
40
0.0
41
0.8000000000
50
0.0
71
0
42
0.2
3
txt
4

0
ENDTAB
0
TABLE
2
VIEW
5
6
100
AcDbSymbolTable
70
0
0
ENDTAB
0
TABLE
2
UCS
5
7
100
AcDbSymbolTable
70
0
0
ENDTAB
0
TABLE
2
APPID
5
9
100
AcDbSymbolTable
70
1
0
APPID
5
212
100
AcDbSymbolTableRecord
100
AcDbRegAppTableRecord
2
ACAD
70
0
0
ENDTAB
0
TABLE
2
DIMSTYLE
5
A
100
AcDbSymbolTable
70
1
0
DIMSTYLE
105
213
100
AcDbSymbolTableRecord
100
AcDbDimStyleTableRecord
2
STANDARD
70
0
3

4

5

6

7

40
1.0
41
3.0000000000
42
0.0625
43
0.38
44
0.18
45
0.0
46
0.0
47
0.0100000000
48
0.0100000000
140
3.0000000000
141
0.09
142
0.0
143
25.4
144
1.0000000000
145
0.0
146
1.0000000000
147
0.09
71
1
72
0
73
0
74
0
75
0
76
0
77
1
78
8
170
0
171
2
172
0
173
0
174
0
175
0
176
0
177
0
178
0
270
2
271
2
272
2
273
2
274
2
340
11
275
0
280
0
281
0
282
0
283
1
284
8
285
0
286
0
287
3
288
0
0
ENDTAB
0
TABLE
2
BLOCK_RECORD
5
1
100
AcDbSymbolTable
70
0
0
BLOCK_RECORD
5
1B
100
AcDbSymbolTableRecord
100
AcDbBlockTableRecord
2
*MODEL_SPACE
0
BLOCK_RECORD
5
1C
100
AcDbSymbolTableRecord
100
AcDbBlockTableRecord
2
*PAPER_SPACE
0
ENDTAB
0
ENDSEC
0
SECTION
2
BLOCKS
0
BLOCK
5
1E
100
AcDbEntity
8
0
100
AcDbBlockBegin
2
*MODEL_SPACE
70
0
10
0.0
20
0.0
30
0.0
3
*MODEL_SPACE
1

0
ENDBLK
5
1F
100
AcDbEntity
8
0
100
AcDbBlockEnd
0
BLOCK
5
20
100
AcDbEntity
8
0
100
AcDbBlockBegin
2
*PAPER_SPACE
70
0
10
0.0
20
0.0
30
0.0
3
*PAPER_SPACE
1

0
ENDBLK
5
21
100
AcDbEntity
8
0
100
AcDbBlockEnd
0
ENDSEC
0
SECTION
2
ENTITIES
0
LINE
5
214
100
AcDbEntity
8
0
100
AcDbLine
62
7
6
CONTINUOUS
10
-8.1000000000
20
28.9000000000
11
-8.1000000000
21
30.8000000000
0
LINE
5
215
100
AcDbEntity
8
0
100
AcDbLine
62
7
6
CONTINUOUS
10
-11.1000000000
20
29.8500000000
11
-8.1000000000
21
28.9000000000
0
LINE
5
216
100
AcDbEntity
8
0
100
AcDbLine
62
7
6
CONTINUOUS
10
-8.1000000000
20
30.8000000000
11
-11.1000000000
21
29.8500000000
0
HATCH
5
217
100
AcDbEntity
8
0
100
AcDbHatch
62
7
6
CONTINUOUS
10
0.0
20
0.0
30
0.0
210
0.0
220
0.0
230
1.0
2

70
1
71
1
91
1
92
1
93
3
72
1
10
-8.1000000000
20
30.8000000000
11
-11.1000000000
21
29.8500000000
72
1
10
-11.1000000000
20
29.8500000000
11
-8.1000000000
21
28.9000000000
72
1
10
-8.1000000000
20
28.9000000000
11
-8.1000000000
21
30.8000000000
97
3
330
214
330
215
330
216
75
0
76
1
98
1
10
0.0
20
0.0
0
LINE
5
218
100
AcDbEntity
8
0
100
AcDbLine
62
7
6
CONTINUOUS
10
8.1000000000
20
30.8000000000
11
8.1000000000
21
28.9000000000
0
LINE
5
219
100
AcDbEntity
8
0
100
AcDbLine
62
7
6
CONTINUOUS
10
11.1000000000
20
29.8500000000
11
8.1000000000
21
30.8000000000
0
LINE
5
21A
100
AcDbEntity
8
0
100
AcDbLine
62
7
6
CONTINUOUS
10
8.1000000000
20
28.9000000000
11
11.1000000000
21
29.8500000000
0
HATCH
5
21B
100
AcDbEntity
8
0
100
AcDbHatch
62
7
6
CONTINUOUS
10
0.0
20
0.0
30
0.0
210
0.0
220
0.0
230
1.0
2

70
1
71
1
91
1
92
1
93
3
72
1
10
8.1000000000
20
28.9000000000
11
11.1000000000
21
29.8500000000
72
1
10
11.1000000000
20
29.8500000000
11
8.1000000000
21
30.8000000000
72
1
10
8.1000000000
20
30.8000000000
11
8.1000000000
21
28.9000000000
97
3
330
218
330
219
330
21A
75
0
76
1
98
1
10
0.0
20
0.0
0
LINE
5
21C
100
AcDbEntity
8
0
100
AcDbLine
62
7
6
CONTINUOUS
10
20.0500000000
20
18.8500000000
11
19.1000000000
21
21.8500000000
0
LINE
5
21D
100
AcDbEntity
8
0
100
AcDbLine
62
7
6
CONTINUOUS
10
19.1000000000
20
21.8500000000
11
18.1500000000
21
18.8500000000
0
LINE
5
21E
100
AcDbEntity
8
0
100
AcDbLine
62
7
6
CONTINUOUS
10
18.1500000000
20
18.8500000000
11
20.0500000000
21
18.8500000000
0
HATCH
5
21F
100
AcDbEntity
8
0
100
AcDbHatch
62
7
6
CONTINUOUS
10
0.0
20
0.0
30
0.0
210
0.0
220
0.0
230
1.0
2

70
1
71
1
91
1
92
1
93
3
72
1
10
19.1000000000
20
21.8500000000
11
18.1500000000
21
18.8500000000
72
1
10
18.1500000000
20
18.8500000000
11
20.0500000000
21
18.8500000000
72
1
10
20.0500000000
20
18.8500000000
11
19.1000000000
21
21.8500000000
97
3
330
21C
330
21D
330
21E
75
0
76
1
98
1
10
0.0
20
0.0
0
LINE
5
220
100
AcDbEntity
8
0
100
AcDbLine
62
7
6
CONTINUOUS
10
18.1500000000
20
-18.8500000000
11
19.1000000000
21
-21.8500000000
0
LINE
5
221
100
AcDbEntity
8
0
100
AcDbLine
62
7
6
CONTINUOUS
10
20.0500000000
20
-18.8500000000
11
18.1500000000
21
-18.8500000000
0
LINE
5
222
100
AcDbEntity
8
0
100
AcDbLine
62
7
6
CONTINUOUS
10
19.1000000000
20
-21.8500000000
11
20.0500000000
21
-18.8500000000
0
HATCH
5
223
100
AcDbEntity
8
0
100
AcDbHatch
62
7
6
CONTINUOUS
10
0.0
20
0.0
30
0.0
210
0.0
220
0.0
230
1.0
2

70
1
71
1
91
1
92
1
93
3
72
1
10
19.1000000000
20
-21.8500000000
11
20.0500000000
21
-18.8500000000
72
1
10
20.0500000000
20
-18.8500000000
11
18.1500000000
21
-18.8500000000
72
1
10
18.1500000000
20
-18.8500000000
11
19.1000000000
21
-21.8500000000
97
3
330
220
330
221
330
222
75
0
76
1
98
1
10
0.0
20
0.0
0
LINE
5
224
100
AcDbEntity
8
0
100
AcDbLine
62
7
6
CONTINUOUS
10
-28.1989213704
20
30.7143428695
11
-28.1989213704
21
28.8143428695
0
LINE
5
225
100
AcDbEntity
8
0
100
AcDbLine
62
7
6
CONTINUOUS
10
-25.1989213704
20
29.7643428695
11
-28.1989213704
21
30.7143428695
0
LINE
5
226
100
AcDbEntity
8
0
100
AcDbLine
62
7
6
CONTINUOUS
10
-28.1989213704
20
28.8143428695
11
-25.1989213704
21
29.7643428695
0
HATCH
5
227
100
AcDbEntity
8
0
100
AcDbHatch
62
7
6
CONTINUOUS
10
0.0
20
0.0
30
0.0
210
0.0
220
0.0
230
1.0
2

70
1
71
1
91
1
92
1
93
3
72
1
10
-28.1989213704
20
28.8143428695
11
-25.1989213704
21
29.7643428695
72
1
10
-25.1989213704
20
29.7643428695
11
-28.1989213704
21
30.7143428695
72
1
10
-28.1989213704
20
30.7143428695
11
-28.1989213704
21
28.8143428695
97
3
330
224
330
225
330
226
75
0
76
1
98
1
10
0.0
20
0.0
0
LINE
5
228
100
AcDbEntity
8
0
100
AcDbLine
62
7
6
CONTINUOUS
10
-33.7989213704
20
28.8143428695
11
-33.7989213704
21
30.7143428695
0
LINE
5
229
100
AcDbEntity
8
0
100
AcDbLine
62
7
6
CONTINUOUS
10
-36.7989213704
20
29.7643428695
11
-33.7989213704
21
28.8143428695
0
LINE
5
22A
100
AcDbEntity
8
0
100
AcDbLine
62
7
6
CONTINUOUS
10
-33.7989213704
20
30.7143428695
11
-36.7989213704
21
29.7643428695
0
HATCH
5
22B
100
AcDbEntity
8
0
100
AcDbHatch
62
7
6
CONTINUOUS
10
0.0
20
0.0
30
0.0
210
0.0
220
0.0
230
1.0
2

70
1
71
1
91
1
92
1
93
3
72
1
10
-33.7989213704
20
30.7143428695
11
-36.7989213704
21
29.7643428695
72
1
10
-36.7989213704
20
29.7643428695
11
-33.7989213704
21
28.8143428695
72
1
10
-33.7989213704
20
28.8143428695
11
-33.7989213704
21
30.7143428695
97
3
330
228
330
229
330
22A
75
0
76
1
98
1
10
0.0
20
0.0
0
TEXT
5
22C
100
AcDbEntity
8
0
100
AcDbText
62
7
6
CONTINUOUS
10
-34.4921881456
20
30.5143428695
7
STANDARD
40
3.0000000000
1
11,6
41
0.6250000000
72
0
100
AcDbText
0
TEXT
5
22D
100
AcDbEntity
8
0
100
AcDbText
62
7
6
CONTINUOUS
10
-3.8509341276
20
30.6000000000
7
STANDARD
40
3.0000000000
1
22,2
41
0.7321428571
72
0
100
AcDbText
0
TEXT
5
22E
100
AcDbEntity
8
0
100
AcDbText
62
7
6
CONTINUOUS
10
18.3500000000
20
-3.8890416336
7
STANDARD
40
3.0000000000
1
43,7
50
90.0000000000
41
0.7142857143
72
0
100
AcDbText
0
LINE
5
22F
100
AcDbEntity
8
0
100
AcDbLine
62
7
6
CONTINUOUS
10
-36.7989213704
20
0.5000000000
11
-36.7989213704
21
31.2643428695
0
LINE
5
230
100
AcDbEntity
8
0
100
AcDbLine
62
7
6
CONTINUOUS
10
-30.1989213704
20
-21.8500000000
11
-30.1989213704
21
21.8500000000
0
LINE
5
231
100
AcDbEntity
8
0
100
AcDbLine
62
7
6
CONTINUOUS
10
-25.1989213704
20
1.2500000000
11
-25.1989213704
21
-1.2500000000
0
LINE
5
232
100
AcDbEntity
8
0
100
AcDbLine
62
7
6
CONTINUOUS
10
-25.1989213704
20
1.7500000000
11
-25.1989213704
21
31.2643428695
0
LINE
5
233
100
AcDbEntity
8
0
100
AcDbLine
62
7
6
CONTINUOUS
10
-11.1000000000
20
-21.0501218439
11
-11.1000000000
21
21.0501218439
0
LINE
5
234
100
AcDbEntity
8
0
100
AcDbLine
62
7
6
CONTINUOUS
10
-11.1000000000
20
21.5501218439
11
-11.1000000000
21
31.3500000000
0
LINE
5
235
100
AcDbEntity
8
0
100
AcDbLine
62
7
6
CONTINUOUS
10
-8.1000000000
20
28.9000000000
11
-8.1000000000
21
30.8000000000
0
LINE
5
236
100
AcDbEntity
8
0
100
AcDbLine
62
9
6
CONTINUOUS
10
10.2235481273
20
-21.7734262834
11
10.3001218439
21
-21.8500000000
0
LINE
5
237
100
AcDbEntity
8
0
100
AcDbLine
62
9
6
CONTINUOUS
10
11.0234262834
20
-20.9735481273
11
11.1000000000
21
-21.0501218439
0
LINE
5
238
100
AcDbEntity
8
0
100
AcDbLine
62
9
6
CONTINUOUS
10
-11.0234262834
20
20.9735481273
11
-11.1000000000
21
21.0501218439
0
LINE
5
239
100
AcDbEntity
8
0
100
AcDbLine
62
9
6
CONTINUOUS
10
-10.2235481273
20
21.7734262834
11
-10.3001218439
21
21.8500000000
0
LINE
5
23A
100
AcDbEntity
8
0
100
AcDbLine
62
7
6
CONTINUOUS
10
18.1500000000
20
-18.8500000000
11
19.1000000000
21
-21.8500000000
0
LINE
5
23B
100
AcDbEntity
8
0
100
AcDbLine
62
7
6
CONTINUOUS
10
20.0500000000
20
18.8500000000
11
19.1000000000
21
21.8500000000
0
LINE
5
23C
100
AcDbEntity
8
0
100
AcDbLine
62
7
6
CONTINUOUS
10
8.1000000000
20
30.8000000000
11
8.1000000000
21
28.9000000000
0
LINE
5
23D
100
AcDbEntity
8
0
100
AcDbLine
62
7
6
CONTINUOUS
10
11.1000000000
20
-21.0501218439
11
11.1000000000
21
21.0501218439
0
LINE
5
23E
100
AcDbEntity
8
0
100
AcDbLine
62
7
6
CONTINUOUS
10
11.1000000000
20
21.5501218439
11
11.1000000000
21
31.3500000000
0
LINE
5
23F
100
AcDbEntity
8
0
100
AcDbLine
62
7
6
CONTINUOUS
10
-10.3001218439
20
-21.8500000000
11
10.3001218439
21
-21.8500000000
0
LINE
5
240
100
AcDbEntity
8
0
100
AcDbLine
62
7
6
CONTINUOUS
10
10.8001218439
20
-21.8500000000
11
20.6000000000
21
-21.8500000000
0
LINE
5
241
100
AcDbEntity
8
0
100
AcDbLine
62
9
6
CONTINUOUS
10
10.2235481273
20
-21.7734262834
11
-10.2235481273
21
-21.7734262834
0
LINE
5
242
100
AcDbEntity
8
0
100
AcDbLine
62
9
6
CONTINUOUS
10
10.2115710390
20
-20.3755324027
11
-10.2115710390
21
-20.3755324027
0
LINE
5
243
100
AcDbEntity
8
0
100
AcDbLine
62
7
6
CONTINUOUS
10
20.0500000000
20
-18.8500000000
11
18.1500000000
21
-18.8500000000
0
LINE
5
244
100
AcDbEntity
8
0
100
AcDbLine
62
7
6
CONTINUOUS
10
-34.5858266564
20
-21.7734262834
11
-30.1989213704
21
-21.8500000000
0
LINE
5
245
100
AcDbEntity
8
0
100
AcDbLine
62
9
6
CONTINUOUS
10
-34.5858266564
20
-20.9735481273
11
-30.1989213704
21
-21.0501218439
0
LINE
5
246
100
AcDbEntity
8
0
100
AcDbLine
62
7
6
CONTINUOUS
10
19.1000000000
20
-21.8500000000
11
19.1000000000
21
21.8500000000
0
LINE
5
247
100
AcDbEntity
8
0
100
AcDbLine
62
9
6
CONTINUOUS
10
-35.2719935855
20
-20.3211976496
11
-36.0561843400
21
-20.3755324012
0
LINE
5
248
100
AcDbEntity
8
0
100
AcDbLine
62
7
6
CONTINUOUS
10
-11.1000000000
20
29.8500000000
11
-8.1000000000
21
28.9000000000
0
LINE
5
249
100
AcDbEntity
8
0
100
AcDbLine
62
7
6
CONTINUOUS
10
-30.1989213704
20
-1.2500000000
11
-25.1989213704
21
-1.2500000000
0
LINE
5
24A
100
AcDbEntity
8
0
100
AcDbLine
62
7
6
CONTINUOUS
10
-30.1989213704
20
1.2500000000
11
-25.1989213704
21
1.2500000000
0
LINE
5
24B
100
AcDbEntity
8
0
100
AcDbLine
62
7
6
CONTINUOUS
10
11.1000000000
20
29.8500000000
11
8.1000000000
21
30.8000000000
0
LINE
5
24C
100
AcDbEntity
8
0
100
AcDbLine
62
9
6
CONTINUOUS
10
-35.2719935855
20
20.3211976496
11
-36.0561843616
21
20.3755324027
0
LINE
5
24D
100
AcDbEntity
8
0
100
AcDbLine
62
7
6
CONTINUOUS
10
19.1000000000
20
21.8500000000
11
18.1500000000
21
18.8500000000
0
LINE
5
24E
100
AcDbEntity
8
0
100
AcDbLine
62
7
6
CONTINUOUS
10
18.1500000000
20
18.8500000000
11
20.0500000000
21
18.8500000000
0
LINE
5
24F
100
AcDbEntity
8
0
100
AcDbLine
62
9
6
CONTINUOUS
10
10.2115710390
20
20.3755324027
11
-10.2115710390
21
20.3755324027
0
LINE
5
250
100
AcDbEntity
8
0
100
AcDbLine
62
9
6
CONTINUOUS
10
-30.1989213704
20
21.0501218439
11
-34.5858266564
21
20.9735481273
0
LINE
5
251
100
AcDbEntity
8
0
100
AcDbLine
62
7
6
CONTINUOUS
10
-30.1989213704
20
21.8500000000
11
-34.5858266564
21
21.7734262834
0
LINE
5
252
100
AcDbEntity
8
0
100
AcDbLine
62
9
6
CONTINUOUS
10
10.2235481273
20
21.7734262834
11
-10.2235481273
21
21.7734262834
0
LINE
5
253
100
AcDbEntity
8
0
100
AcDbLine
62
7
6
CONTINUOUS
10
-10.3001218439
20
21.8500000000
11
10.3001218439
21
21.8500000000
0
LINE
5
254
100
AcDbEntity
8
0
100
AcDbLine
62
7
6
CONTINUOUS
10
10.8001218439
20
21.8500000000
11
20.6000000000
21
21.8500000000
0
LINE
5
255
100
AcDbEntity
8
0
100
AcDbLine
62
7
6
CONTINUOUS
10
-25.1989213704
20
29.7643428695
11
-36.7989213704
21
29.7643428695
0
LINE
5
256
100
AcDbEntity
8
0
100
AcDbLine
62
7
6
CONTINUOUS
10
11.1000000000
20
29.8500000000
11
-11.1000000000
21
29.8500000000
0
LINE
5
257
100
AcDbEntity
8
0
100
AcDbLine
62
7
6
CONTINUOUS
10
19.1000000000
20
-21.8500000000
11
20.0500000000
21
-18.8500000000
0
LINE
5
258
100
AcDbEntity
8
0
100
AcDbLine
62
9
6
CONTINUOUS
10
10.3001218439
20
21.8500000000
11
10.2235481273
21
21.7734262834
0
LINE
5
259
100
AcDbEntity
8
0
100
AcDbLine
62
9
6
CONTINUOUS
10
11.1000000000
20
21.0501218439
11
11.0234262834
21
20.9735481273
0
LINE
5
25A
100
AcDbEntity
8
0
100
AcDbLine
62
9
6
CONTINUOUS
10
-11.1000000000
20
-21.0501218439
11
-11.0234262834
21
-20.9735481273
0
LINE
5
25B
100
AcDbEntity
8
0
100
AcDbLine
62
9
6
CONTINUOUS
10
-10.3001218439
20
-21.8500000000
11
-10.2235481273
21
-21.7734262834
0
LINE
5
25C
100
AcDbEntity
8
0
100
AcDbLine
62
7
6
CONTINUOUS
10
-8.1000000000
20
30.8000000000
11
-11.1000000000
21
29.8500000000
0
LINE
5
25D
100
AcDbEntity
8
0
100
AcDbLine
62
7
6
CONTINUOUS
10
8.1000000000
20
28.9000000000
11
11.1000000000
21
29.8500000000
0
CIRCLE
5
25E
100
AcDbEntity
8
0
100
AcDbCircle
62
9
6
CONTINUOUS
10
0.0000000000
20
0.0000000000
40
1.1616160628
0
CIRCLE
5
25F
100
AcDbEntity
8
0
100
AcDbCircle
62
7
6
CONTINUOUS
10
0.0000000000
20
0.0000000000
40
1.2500000000
0
ARC
5
260
100
AcDbEntity
8
0
100
AcDbCircle
62
7
6
CONTINUOUS
10
-26.7989213704
20
0.0000000000
40
10.0000000000
100
AcDbArc
50
174.1641607508
51
185.8358392492
0
ARC
5
261
100
AcDbEntity
8
0
100
AcDbCircle
62
7
6
CONTINUOUS
10
-34.5596480467
20
20.2736547407
40
1.5000000000
100
AcDbArc
50
91.0000000000
51
176.1055619190
0
ARC
5
262
100
AcDbEntity
8
0
100
AcDbCircle
62
7
6
CONTINUOUS
10
263.2510786296
20
0.0000000000
40
300.0000000000
100
AcDbArc
50
176.1055619190
51
183.8944380810
0
ARC
5
263
100
AcDbEntity
8
0
100
AcDbCircle
62
7
6
CONTINUOUS
10
-34.5596480467
20
-20.2736547407
40
1.5000000000
100
AcDbArc
50
183.8944380810
51
269.0000000000
0
SPLINE
5
264
100
AcDbEntity
8
0
100
AcDbSpline
62
9
6
CONTINUOUS
70
0
71
3
72
25
73
21
74
19
42
0.0000001000
43
0.0000001000
44
0.0000000001
12
-0.0003825356
22
-1.2559255455
32
0.0000000000
13
-1.2559255455
23
-0.0003825356
33
0.0000000000
40
0.0000000000
40
0.0000000000
40
0.0000000000
40
0.0000000000
40
0.0555509020
40
0.1111032559
40
0.1666569950
40
0.2222120107
40
0.2777681556
40
0.3333252480
40
0.3888830773
40
0.4444414107
40
0.5000000000
40
0.5555585893
40
0.6111169227
40
0.6666747520
40
0.7222318444
40
0.7777879893
40
0.8333430050
40
0.8888967441
40
0.9444490980
40
1.0000000000
40
1.0000000000
40
1.0000000000
40
1.0000000000
10
11.0234262834
20
-20.9735481273
30
0.0000000000
10
11.0234192000
20
-20.9968040596
30
0.0000000000
10
11.0213739710
20
-21.0433414421
30
0.0000000000
10
11.0122365982
20
-21.1125951051
30
0.0000000000
10
10.9970991684
20
-21.1807964151
30
0.0000000000
10
10.9760768500
20
-21.2474195599
30
0.0000000000
10
10.9493295774
20
-21.3119595659
30
0.0000000000
10
10.9170608375
20
-21.3739249415
30
0.0000000000
10
10.8795161207
20
-21.4328444170
30
0.0000000000
10
10.8369810533
20
-21.4882697248
30
0.0000000000
10
10.7897792246
20
-21.5397792246
30
0.0000000000
10
10.7382697248
20
-21.5869810533
30
0.0000000000
10
10.6828444171
20
-21.6295161207
30
0.0000000000
10
10.6239249415
20
-21.6670608375
30
0.0000000000
10
10.5619595659
20
-21.6993295774
30
0.0000000000
10
10.4974195599
20
-21.7260768500
30
0.0000000000
10
10.4307964151
20
-21.7470991684
30
0.0000000000
10
10.3625951051
20
-21.7622365982
30
0.0000000000
10
10.2933414421
20
-21.7713739710
30
0.0000000000
10
10.2468040596
20
-21.7734192000
30
0.0000000000
10
10.2235481273
20
-21.7734262834
30
0.0000000000
11
11.0234262834
21
-20.9735481273
31
0.0000000000
11
11.0203624552
21
-21.0432486217
31
0.0000000000
11
11.0112367390
21
-21.1124188589
31
0.0000000000
11
10.9961185599
21
-21.1805326154
31
0.0000000000
11
10.9751229319
21
-21.2470717055
31
0.0000000000
11
10.9484095825
21
-21.3115299228
31
0.0000000000
11
10.9161817376
21
-21.3734168913
31
0.0000000000
11
10.8786845754
21
-21.4322617964
31
0.0000000000
11
10.8362033616
21
-21.4876169664
31
0.0000000000
11
10.7890612783
21
-21.5390612783
31
0.0000000000
11
10.7376169664
21
-21.5862033616
31
0.0000000000
11
10.6822617964
21
-21.6286845754
31
0.0000000000
11
10.6234168913
21
-21.6661817376
31
0.0000000000
11
10.5615299228
21
-21.6984095825
31
0.0000000000
11
10.4970717055
21
-21.7251229319
31
0.0000000000
11
10.4305326154
21
-21.7461185599
31
0.0000000000
11
10.3624188589
21
-21.7612367390
31
0.0000000000
11
10.2932486217
21
-21.7703624552
31
0.0000000000
11
10.2235481273
21
-21.7734262834
31
0.0000000000
0
SPLINE
5
265
100
AcDbEntity
8
0
100
AcDbSpline
62
9
6
CONTINUOUS
70
0
71
3
72
25
73
21
74
19
42
0.0000001000
43
0.0000001000
44
0.0000000001
12
-0.2000156381
22
-0.7803078360
32
0.0000000000
13
-0.8055344073
23
-0.0009527722
33
0.0000000000
40
0.0000000000
40
0.0000000000
40
0.0000000000
40
0.0000000000
40
0.0077912128
40
0.0215936220
40
0.0421903481
40
0.0696660399
40
0.1039114080
40
0.1447195384
40
0.1918146708
40
0.2448643321
40
0.3034862433
40
0.3672533662
40
0.4356982796
40
0.5083173596
40
0.5845749637
40
0.6639077015
40
0.7457288238
40
0.8294327301
40
0.9143995816
40
1.0000000000
40
1.0000000000
40
1.0000000000
40
1.0000000000
10
11.0114491951
20
-20.3211976496
30
0.0000000000
10
11.0109297403
20
-20.3232241644
30
0.0000000000
10
11.0059047661
20
-20.3272604081
30
0.0000000000
10
10.9956102463
20
-20.3313160909
30
0.0000000000
10
10.9794414378
20
-20.3357856997
30
0.0000000000
10
10.9578032699
20
-20.3400666352
30
0.0000000000
10
10.9305783310
20
-20.3443234052
30
0.0000000000
10
10.8980396207
20
-20.3484141342
30
0.0000000000
10
10.8603908242
20
-20.3523306168
30
0.0000000000
10
10.8179197418
20
-20.3560265405
30
0.0000000000
10
10.7709373416
20
-20.3594743659
30
0.0000000000
10
10.7197935179
20
-20.3626449271
30
0.0000000000
10
10.6648680505
20
-20.3655134114
30
0.0000000000
10
10.6065695112
20
-20.3680572819
30
0.0000000000
10
10.5453315580
20
-20.3702568770
30
0.0000000000
10
10.4816098344
20
-20.3720952755
30
0.0000000000
10
10.4158785042
20
-20.3735584125
30
0.0000000000
10
10.3486267080
20
-20.3746351292
30
0.0000000000
10
10.2803549580
20
-20.3753172353
30
0.0000000000
10
10.2345557331
20
-20.3755052153
30
0.0000000000
10
10.2115710390
20
-20.3755324012
30
0.0000000000
11
11.0114491951
21
-20.3211976496
31
0.0000000000
11
11.0072718570
21
-20.3258815803
31
0.0000000000
11
10.9971721900
21
-20.3305306491
31
0.0000000000
11
10.9812253652
21
-20.3351102532
31
0.0000000000
11
10.9595500733
21
-20.3395863069
31
0.0000000000
11
10.9323076412
21
-20.3439254956
31
0.0000000000
11
10.8997008323
21
-20.3480955229
31
0.0000000000
11
10.8619723359
21
-20.3520653519
31
0.0000000000
11
10.8194029618
21
-20.3558054353
31
0.0000000000
11
10.7723095500
21
-20.3592879361
31
0.0000000000
11
10.7210426124
21
-20.3624869343
31
0.0000000000
11
10.6659837241
21
-20.3653786202
31
0.0000000000
11
10.6075426837
21
-20.3679414711
31
0.0000000000
11
10.5461544623
21
-20.3701564120
31
0.0000000000
11
10.4822759668
21
-20.3720069573
31
0.0000000000
11
10.4163826394
21
-20.3734793335
31
0.0000000000
11
10.3489649176
21
-20.3745625818
31
0.0000000000
11
10.2805245858
21
-20.3752486398
31
0.0000000000
11
10.2115710390
21
-20.3755324012
31
0.0000000000
0
SPLINE
5
266
100
AcDbEntity
8
0
100
AcDbSpline
62
9
6
CONTINUOUS
70
0
71
3
72
28
73
24
74
22
42
0.0000001000
43
0.0000001000
44
0.0000000001
12
0.0007751809
22
-1.3980641852
32
0.0000000000
13
0.5910385437
23
-1.2669875994
33
0.0000000000
40
0.0000000000
40
0.0000000000
40
0.0000000000
40
0.0000000000
40
0.0754674171
40
0.1501925090
40
0.2238027285
40
0.2959294630
40
0.3662120962
40
0.4342994649
40
0.4998508810
40
0.5625386064
40
0.6220491218
40
0.6780850016
40
0.7303659194
40
0.7786305512
40
0.8226374816
40
0.8621668367
40
0.8970210200
40
0.9270259617
40
0.9520318990
40
0.9719145828
40
0.9865760375
40
0.9959468552
40
1.0000000000
40
1.0000000000
40
1.0000000000
40
1.0000000000
10
10.2115710390
20
-20.3755324027
30
0.0000000000
10
10.2115905393
20
-20.4107018337
30
0.0000000000
10
10.2116495227
20
-20.4806947470
30
0.0000000000
10
10.2117985216
20
-20.5849915224
30
0.0000000000
10
10.2120070359
20
-20.6877313635
30
0.0000000000
10
10.2122739758
20
-20.7884007814
30
0.0000000000
10
10.2125980015
20
-20.8864962517
30
0.0000000000
10
10.2129774499
20
-20.9815272606
30
0.0000000000
10
10.2134103850
20
-21.0730186139
30
0.0000000000
10
10.2138945835
20
-21.1605126545
30
0.0000000000
10
10.2144275414
20
-21.2435718848
30
0.0000000000
10
10.2150065122
20
-21.3217808809
30
0.0000000000
10
10.2156283779
20
-21.3947485759
30
0.0000000000
10
10.2162900878
20
-21.4621098416
30
0.0000000000
10
10.2169871730
20
-21.5235281831
30
0.0000000000
10
10.2177184644
20
-21.5786952075
30
0.0000000000
10
10.2184709212
20
-21.6273387700
30
0.0000000000
10
10.2192658273
20
-21.6692042898
30
0.0000000000
10
10.2200205742
20
-21.7041153688
30
0.0000000000
10
10.2209363364
20
-21.7318078537
30
0.0000000000
10
10.2214708872
20
-21.7523711764
30
0.0000000000
10
10.2227311695
20
-21.7652219600
30
0.0000000000
10
10.2227496057
20
-21.7717145220
30
0.0000000000
10
10.2235481273
20
-21.7734262834
30
0.0000000000
11
10.2115710390
21
-20.3755324027
31
0.0000000000
11
10.2116601680
21
-20.4810406744
31
0.0000000000
11
10.2118098057
21
-20.5855110583
31
0.0000000000
11
10.2120192180
21
-20.6884226728
31
0.0000000000
11
10.2122873459
21
-20.7892601364
31
0.0000000000
11
10.2126128551
21
-20.8875192449
31
0.0000000000
11
10.2129941166
21
-20.9827090078
31
0.0000000000
11
10.2134292244
21
-21.0743530763
31
0.0000000000
11
10.2139160028
21
-21.1619932018
31
0.0000000000
11
10.2144520177
21
-21.2451910084
31
0.0000000000
11
10.2150345902
21
-21.3235306111
31
0.0000000000
11
10.2156608060
21
-21.3966200186
31
0.0000000000
11
10.2163275349
21
-21.4640937883
31
0.0000000000
11
10.2170314414
21
-21.5256142844
31
0.0000000000
11
10.2177690069
21
-21.5808739466
31
0.0000000000
11
10.2185365427
21
-21.6295962944
31
0.0000000000
11
10.2193302096
21
-21.6715376265
31
0.0000000000
11
10.2201460390
21
-21.7064880168
31
0.0000000000
11
10.2209799437
21
-21.7342727781
31
0.0000000000
11
10.2218277813
21
-21.7547528941
31
0.0000000000
11
10.2226852385
21
-21.7678258105
31
0.0000000000
11
10.2235481273
21
-21.7734262834
31
0.0000000000
0
SPLINE
5
267
100
AcDbEntity
8
0
100
AcDbSpline
62
9
6
CONTINUOUS
70
0
71
3
72
28
73
24
74
22
42
0.0000001000
43
0.0000001000
44
0.0000000001
12
0.0007756522
22
-0.6527122448
32
0.0000000000
13
0.4614786278
23
-0.4615965382
33
0.0000000000
40
0.0000000000
40
0.0000000000
40
0.0000000000
40
0.0000000000
40
0.0754223315
40
0.1501165116
40
0.2236966219
40
0.2957942783
40
0.3660491092
40
0.4341101913
40
0.4996370827
40
0.5623022969
40
0.6217925769
40
0.6778107753
40
0.7300768684
40
0.7783298738
40
0.8223287732
40
0.8618541795
40
0.8967091598
40
0.9267205884
40
0.9517401679
40
0.9716462114
40
0.9863459729
40
0.9957840884
40
1.0000000000
40
1.0000000000
40
1.0000000000
40
1.0000000000
10
11.0114491951
20
-20.3211976496
30
0.0000000000
10
11.0114686956
20
-20.3376073427
30
0.0000000000
10
11.0115276631
20
-20.3702682843
30
0.0000000000
10
11.0116766582
20
-20.4189379445
30
0.0000000000
10
11.0118851593
20
-20.4668840283
30
0.0000000000
10
11.0121521011
20
-20.5138639344
30
0.0000000000
10
11.0124761232
20
-20.5596426736
30
0.0000000000
10
11.0128555734
20
-20.6039913303
30
0.0000000000
10
11.0132885109
20
-20.6466881380
30
0.0000000000
10
11.0137727136
20
-20.6875195144
30
0.0000000000
10
11.0143056803
20
-20.7262812893
30
0.0000000000
10
11.0148846532
20
-20.7627795856
30
0.0000000000
10
11.0155065541
20
-20.7968319300
30
0.0000000000
10
11.0161682014
20
-20.8282678456
30
0.0000000000
10
11.0168655579
20
-20.8569305951
30
0.0000000000
10
11.0175960757
20
-20.8826753793
30
0.0000000000
10
11.0183510413
20
-20.9053781106
30
0.0000000000
10
11.0191386489
20
-20.9249114830
30
0.0000000000
10
11.0199144070
20
-20.9412186376
30
0.0000000000
10
11.0207751724
20
-20.9541080761
30
0.0000000000
10
11.0214411602
20
-20.9637983413
30
0.0000000000
10
11.0224567548
20
-20.9696524316
30
0.0000000000
10
11.0227777657
20
-20.9728994439
30
0.0000000000
10
11.0234262834
20
-20.9735481273
30
0.0000000000
11
11.0114491951
21
-20.3211976496
31
0.0000000000
11
11.0115383036
21
-20.3704266830
31
0.0000000000
11
11.0116879388
21
-20.4191802938
31
0.0000000000
11
11.0118973431
21
-20.4672065102
31
0.0000000000
11
11.0121654691
21
-20.5142648028
31
0.0000000000
11
11.0124909760
21
-20.5601198683
31
0.0000000000
11
11.0128722377
21
-20.6045425653
31
0.0000000000
11
11.0133073472
21
-20.6473105867
31
0.0000000000
11
11.0137941290
21
-20.6882100715
31
0.0000000000
11
11.0143301487
21
-20.7270364333
31
0.0000000000
11
11.0149127276
21
-20.7635955817
31
0.0000000000
11
11.0155389513
21
-20.7977045767
31
0.0000000000
11
11.0162056893
21
-20.8291928684
31
0.0000000000
11
11.0169096060
21
-20.8579028811
31
0.0000000000
11
11.0176471827
21
-20.8836910702
31
0.0000000000
11
11.0184147299
21
-20.9064284074
31
0.0000000000
11
11.0192084096
21
-20.9260011628
31
0.0000000000
11
11.0200242495
21
-20.9423113688
31
0.0000000000
11
11.0208581723
21
-20.9552775069
31
0.0000000000
11
11.0217060076
21
-20.9648346952
31
0.0000000000
11
11.0225635085
21
-20.9709351008
31
0.0000000000
11
11.0234262834
21
-20.9735481273
31
0.0000000000
0
SPLINE
5
268
100
AcDbEntity
8
0
100
AcDbSpline
62
9
6
CONTINUOUS
70
0
71
3
72
25
73
21
74
19
42
0.0000001000
43
0.0000001000
44
0.0000000001
12
-0.2000154328
22
0.7803078977
32
0.0000000000
13
-0.8055344084
23
0.0009527722
33
0.0000000000
40
0.0000000000
40
0.0000000000
40
0.0000000000
40
0.0000000000
40
0.0077912118
40
0.0215936197
40
0.0421903447
40
0.0696660356
40
0.1039114029
40
0.1447195327
40
0.1918146647
40
0.2448643258
40
0.3034862371
40
0.3672533602
40
0.4356982739
40
0.5083173545
40
0.5845749592
40
0.6639076977
40
0.7457288209
40
0.8294327281
40
0.9143995806
40
1.0000000000
40
1.0000000000
40
1.0000000000
40
1.0000000000
10
11.0114491951
20
20.3211976496
30
0.0000000000
10
11.0109297409
20
20.3232241643
30
0.0000000000
10
11.0059047676
20
20.3272604085
30
0.0000000000
10
10.9956102487
20
20.3313160910
30
0.0000000000
10
10.9794414411
20
20.3357857000
30
0.0000000000
10
10.9578032740
20
20.3400666356
30
0.0000000000
10
10.9305783358
20
20.3443234057
30
0.0000000000
10
10.8980396259
20
20.3484141348
30
0.0000000000
10
10.8603908297
20
20.3523306175
30
0.0000000000
10
10.8179197474
20
20.3560265413
30
0.0000000000
10
10.7709373471
20
20.3594743668
30
0.0000000000
10
10.7197935232
20
20.3626449281
30
0.0000000000
10
10.6648680555
20
20.3655134125
30
0.0000000000
10
10.6065695157
20
20.3680572831
30
0.0000000000
10
10.5453315619
20
20.3702568783
30
0.0000000000
10
10.4816098377
20
20.3720952768
30
0.0000000000
10
10.4158785067
20
20.3735584138
30
0.0000000000
10
10.3486267097
20
20.3746351306
30
0.0000000000
10
10.2803549589
20
20.3753172368
30
0.0000000000
10
10.2345557334
20
20.3755052168
30
0.0000000000
10
10.2115710390
20
20.3755324027
30
0.0000000000
11
11.0114491951
21
20.3211976496
31
0.0000000000
11
11.0072718583
21
20.3258815805
31
0.0000000000
11
10.9971721925
21
20.3305306492
31
0.0000000000
11
10.9812253686
21
20.3351102534
31
0.0000000000
11
10.9595500774
21
20.3395863073
31
0.0000000000
11
10.9323076461
21
20.3439254961
31
0.0000000000
11
10.8997008376
21
20.3480955235
31
0.0000000000
11
10.8619723414
21
20.3520653526
31
0.0000000000
11
10.8194029674
21
20.3558054360
31
0.0000000000
11
10.7723095555
21
20.3592879370
31
0.0000000000
11
10.7210426177
21
20.3624869353
31
0.0000000000
11
10.6659837292
21
20.3653786213
31
0.0000000000
11
10.6075426882
21
20.3679414723
31
0.0000000000
11
10.5461544662
21
20.3701564133
31
0.0000000000
11
10.4822759702
21
20.3720069586
31
0.0000000000
11
10.4163826419
21
20.3734793348
31
0.0000000000
11
10.3489649194
21
20.3745625832
31
0.0000000000
11
10.2805245866
21
20.3752486413
31
0.0000000000
11
10.2115710390
21
20.3755324027
31
0.0000000000
0
SPLINE
5
269
100
AcDbEntity
8
0
100
AcDbSpline
62
9
6
CONTINUOUS
70
0
71
3
72
20
73
16
74
14
42
0.0000001000
43
0.0000001000
44
0.0000000001
12
-0.0482938946
22
-40.7510456588
32
0.0000000000
13
0.0482938946
23
-40.7510456588
33
0.0000000000
40
0.0000000000
40
0.0000000000
40
0.0000000000
40
0.0000000000
40
0.0768305566
40
0.1537073661
40
0.2306220259
40
0.3075661282
40
0.3845312631
40
0.4615090186
40
0.5384909814
40
0.6154687369
40
0.6924338718
40
0.7693779741
40
0.8462926339
40
0.9231694434
40
1.0000000000
40
1.0000000000
40
1.0000000000
40
1.0000000000
10
10.2115710390
20
20.3755324027
30
0.0000000000
10
10.2103342234
20
19.3318905627
30
0.0000000000
10
10.2080508302
20
17.2439783668
30
0.0000000000
10
10.2051969798
20
14.1112812152
30
0.0000000000
10
10.2029135249
20
10.9770412248
30
0.0000000000
10
10.2012007153
20
7.8416010856
30
0.0000000000
10
10.2000587382
20
4.7053036128
30
0.0000000000
10
10.1994877184
20
1.5684916999
30
0.0000000000
10
10.1994877184
20
-1.5684916998
30
0.0000000000
10
10.2000587382
20
-4.7053036127
30
0.0000000000
10
10.2012007153
20
-7.8416010855
30
0.0000000000
10
10.2029135249
20
-10.9770412247
30
0.0000000000
10
10.2051969798
20
-14.1112812152
30
0.0000000000
10
10.2080508302
20
-17.2439783667
30
0.0000000000
10
10.2103342234
20
-19.3318905627
30
0.0000000000
10
10.2115710390
20
-20.3755324027
30
0.0000000000
11
10.2115710390
21
20.3755324027
31
0.0000000000
11
10.2081467923
21
17.2446065568
31
0.0000000000
11
10.2052926814
21
14.1117952836
31
0.0000000000
11
10.2030090183
21
10.9774411019
31
0.0000000000
11
10.2012960526
21
7.8418867424
31
0.0000000000
11
10.2001539714
21
4.7054750213
31
0.0000000000
11
10.1995828996
21
1.5685488418
31
0.0000000000
11
10.1995828996
21
-1.5685488417
31
0.0000000000
11
10.2001539714
21
-4.7054750212
31
0.0000000000
11
10.2012960526
21
-7.8418867423
31
0.0000000000
11
10.2030090183
21
-10.9774411018
31
0.0000000000
11
10.2052926814
21
-14.1117952835
31
0.0000000000
11
10.2081467923
21
-17.2446065568
31
0.0000000000
11
10.2115710390
21
-20.3755324027
31
0.0000000000
0
SPLINE
5
26A
100
AcDbEntity
8
0
100
AcDbSpline
62
9
6
CONTINUOUS
70
0
71
3
72
20
73
16
74
14
42
0.0000001000
43
0.0000001000
44
0.0000000001
12
-0.0482938949
22
-40.6423760817
32
0.0000000000
13
0.0482938932
23
-40.6423761157
33
0.0000000000
40
0.0000000000
40
0.0000000000
40
0.0000000000
40
0.0000000000
40
0.0768305499
40
0.1537073610
40
0.2306220224
40
0.3075661262
40
0.3845312626
40
0.4615090197
40
0.5384909839
40
0.6154687409
40
0.6924338773
40
0.7693779812
40
0.8462926425
40
0.9231694537
40
1.0000000000
40
1.0000000000
40
1.0000000000
40
1.0000000000
10
11.0114491951
20
20.3211976496
30
0.0000000000
10
11.0102123796
20
19.2803389484
30
0.0000000000
10
11.0079289865
20
17.1979945914
30
0.0000000000
10
11.0050751361
20
14.0736513493
30
0.0000000000
10
11.0027916811
20
10.9477692680
30
0.0000000000
10
11.0010788715
20
7.8206902382
30
0.0000000000
10
10.9999368943
20
4.6927561609
30
0.0000000000
10
10.9993658746
20
1.5643090153
30
0.0000000000
10
10.9993658746
20
-1.5643091598
30
0.0000000000
10
10.9999368944
20
-4.6927563053
30
0.0000000000
10
11.0010788715
20
-7.8206903825
30
0.0000000000
10
11.0027916812
20
-10.9477694121
30
0.0000000000
10
11.0050751362
20
-14.0736514933
30
0.0000000000
10
11.0079289866
20
-17.1979946873
30
0.0000000000
10
11.0102123797
20
-19.2803389963
30
0.0000000000
10
11.0114491951
20
-20.3211976496
30
0.0000000000
11
11.0114491951
21
20.3211976496
31
0.0000000000
11
11.0080249487
21
17.1986212182
31
0.0000000000
11
11.0051708377
21
14.0741640462
31
0.0000000000
11
11.0028871745
21
10.9481680771
31
0.0000000000
11
11.0011742088
21
7.8209751332
31
0.0000000000
11
11.0000321276
21
4.6929271135
31
0.0000000000
11
10.9994610558
21
1.5643660021
31
0.0000000000
11
10.9994610558
21
-1.5643661482
31
0.0000000000
11
11.0000321276
21
-4.6929272563
31
0.0000000000
11
11.0011742088
21
-7.8209752761
31
0.0000000000
11
11.0028871746
21
-10.9481682237
31
0.0000000000
11
11.0051708378
21
-14.0741641879
31
0.0000000000
11
11.0080249488
21
-17.1986213640
31
0.0000000000
11
11.0114491951
21
-20.3211976496
31
0.0000000000
0
SPLINE
5
26B
100
AcDbEntity
8
0
100
AcDbSpline
62
9
6
CONTINUOUS
70
0
71
3
72
25
73
21
74
19
42
0.0000001000
43
0.0000001000
44
0.0000000001
12
-0.0003825356
22
1.2559255497
32
0.0000000000
13
-1.2559255482
23
0.0003825356
33
0.0000000000
40
0.0000000000
40
0.0000000000
40
0.0000000000
40
0.0000000000
40
0.0555509011
40
0.1111032543
40
0.1666569928
40
0.2222120080
40
0.2777681525
40
0.3333252446
40
0.3888830737
40
0.4444414071
40
0.4999999964
40
0.5555585859
40
0.6111169195
40
0.6666747491
40
0.7222318418
40
0.7777879871
40
0.8333430033
40
0.8888967430
40
0.9444490974
40
1.0000000000
40
1.0000000000
40
1.0000000000
40
1.0000000000
10
11.0234262834
20
20.9735481273
30
0.0000000000
10
11.0234192000
20
20.9968040593
30
0.0000000000
10
11.0213739711
20
21.0433414411
30
0.0000000000
10
11.0122365985
20
21.1125951032
30
0.0000000000
10
10.9970991691
20
21.1807964124
30
0.0000000000
10
10.9760768511
20
21.2474195568
30
0.0000000000
10
10.9493295790
20
21.3119595624
30
0.0000000000
10
10.9170608396
20
21.3739249379
30
0.0000000000
10
10.8795161232
20
21.4328444134
30
0.0000000000
10
10.8369810561
20
21.4882697214
30
0.0000000000
10
10.7897792278
20
21.5397792215
30
0.0000000000
10
10.7382697281
20
21.5869810505
30
0.0000000000
10
10.6828444204
20
21.6295161184
30
0.0000000000
10
10.6239249447
20
21.6670608357
30
0.0000000000
10
10.5619595688
20
21.6993295760
30
0.0000000000
10
10.4974195625
20
21.7260768491
30
0.0000000000
10
10.4307964171
20
21.7470991679
30
0.0000000000
10
10.3625951065
20
21.7622365980
30
0.0000000000
10
10.2933414428
20
21.7713739710
30
0.0000000000
10
10.2468040599
20
21.7734192000
30
0.0000000000
10
10.2235481273
20
21.7734262834
30
0.0000000000
11
11.0234262834
21
20.9735481273
31
0.0000000000
11
11.0203624554
21
21.0432486206
31
0.0000000000
11
11.0112367393
21
21.1124188569
31
0.0000000000
11
10.9961185606
21
21.1805326127
31
0.0000000000
11
10.9751229331
21
21.2470717024
31
0.0000000000
11
10.9484095842
21
21.3115299193
31
0.0000000000
11
10.9161817397
21
21.3734168877
31
0.0000000000
11
10.8786845780
21
21.4322617927
31
0.0000000000
11
10.8362033644
21
21.4876169630
31
0.0000000000
11
10.7890612815
21
21.5390612751
31
0.0000000000
11
10.7376169697
21
21.5862033588
31
0.0000000000
11
10.6822617998
21
21.6286845731
31
0.0000000000
11
10.6234168945
21
21.6661817357
31
0.0000000000
11
10.5615299257
21
21.6984095811
31
0.0000000000
11
10.4970717081
21
21.7251229310
31
0.0000000000
11
10.4305326175
21
21.7461185594
31
0.0000000000
11
10.3624188602
21
21.7612367388
31
0.0000000000
11
10.2932486224
21
21.7703624552
31
0.0000000000
11
10.2235481273
21
21.7734262834
31
0.0000000000
0
SPLINE
5
26C
100
AcDbEntity
8
0
100
AcDbSpline
62
9
6
CONTINUOUS
70
0
71
3
72
28
73
24
74
22
42
0.0000001000
43
0.0000001000
44
0.0000000001
12
-0.5910541265
22
-1.2669803245
32
0.0000000000
13
-0.0007751171
23
-1.3980641886
33
0.0000000000
40
0.0000000000
40
0.0000000000
40
0.0000000000
40
0.0000000000
40
0.0040531425
40
0.0134239590
40
0.0280854129
40
0.0479680948
40
0.0729740315
40
0.1029789728
40
0.1378331548
40
0.1773625083
40
0.2213694381
40
0.2696340694
40
0.3219149864
40
0.3779508653
40
0.4374613796
40
0.5001491055
40
0.5657005217
40
0.6337878888
40
0.7040705197
40
0.7761972566
40
0.8498074732
40
0.9245325642
40
1.0000000000
40
1.0000000000
40
1.0000000000
40
1.0000000000
10
10.2235481273
20
21.7734262834
30
0.0000000000
10
10.2227495851
20
21.7717145328
30
0.0000000000
10
10.2227312025
20
21.7652219505
30
0.0000000000
10
10.2214708732
20
21.7523711872
30
0.0000000000
10
10.2209363489
20
21.7318078568
30
0.0000000000
10
10.2200205750
20
21.7041153774
30
0.0000000000
10
10.2192658329
20
21.6692042982
30
0.0000000000
10
10.2184709251
20
21.6273387799
30
0.0000000000
10
10.2177184689
20
21.5786952189
30
0.0000000000
10
10.2169871773
20
21.5235281962
30
0.0000000000
10
10.2162900922
20
21.4621098560
30
0.0000000000
10
10.2156283821
20
21.3947485912
30
0.0000000000
10
10.2150065160
20
21.3217808973
30
0.0000000000
10
10.2144275449
20
21.2435719026
30
0.0000000000
10
10.2138945865
20
21.1605126730
30
0.0000000000
10
10.2134103876
20
21.0730186326
30
0.0000000000
10
10.2129774521
20
20.9815272799
30
0.0000000000
10
10.2125980034
20
20.8864962727
30
0.0000000000
10
10.2122739770
20
20.7884008032
30
0.0000000000
10
10.2120070375
20
20.6877313867
30
0.0000000000
10
10.2117985214
20
20.5849915463
30
0.0000000000
10
10.2116495247
20
20.4806947640
30
0.0000000000
10
10.2115905377
20
20.4107018425
30
0.0000000000
10
10.2115710390
20
20.3755324027
30
0.0000000000
11
10.2235481273
21
21.7734262834
31
0.0000000000
11
10.2226852433
21
21.7678258130
31
0.0000000000
11
10.2218277845
21
21.7547528985
31
0.0000000000
11
10.2209799481
21
21.7342727836
31
0.0000000000
11
10.2201460431
21
21.7064880249
31
0.0000000000
11
10.2193302139
21
21.6715376354
31
0.0000000000
11
10.2185365470
21
21.6295963038
31
0.0000000000
11
10.2177690113
21
21.5808739579
31
0.0000000000
11
10.2170314458
21
21.5256142979
31
0.0000000000
11
10.2163275393
21
21.4640938028
31
0.0000000000
11
10.2156608102
21
21.3966200338
31
0.0000000000
11
10.2150345940
21
21.3235306274
31
0.0000000000
11
10.2144520212
21
21.2451910260
31
0.0000000000
11
10.2139160059
21
21.1619932211
31
0.0000000000
11
10.2134292270
21
21.0743530949
31
0.0000000000
11
10.2129941188
21
20.9827090263
31
0.0000000000
11
10.2126128569
21
20.8875192656
31
0.0000000000
11
10.2122873472
21
20.7892601603
31
0.0000000000
11
10.2120192192
21
20.6884226935
31
0.0000000000
11
10.2118098062
21
20.5855110831
31
0.0000000000
11
10.2116601688
21
20.4810407006
31
0.0000000000
11
10.2115710390
21
20.3755324027
31
0.0000000000
0
SPLINE
5
26D
100
AcDbEntity
8
0
100
AcDbSpline
62
9
6
CONTINUOUS
70
0
71
3
72
28
73
24
74
22
42
0.0000001000
43
0.0000001000
44
0.0000000001
12
-0.4614703189
22
-0.4616048196
32
0.0000000000
13
-0.0007756475
23
-0.6527122492
33
0.0000000000
40
0.0000000000
40
0.0000000000
40
0.0000000000
40
0.0000000000
40
0.0042155890
40
0.0136534542
40
0.0283529467
40
0.0482587206
40
0.0732780271
40
0.1032891817
40
0.1381438870
40
0.1776690194
40
0.2216676500
40
0.2699204100
40
0.3221862924
40
0.3782043212
40
0.4376944720
40
0.5003595809
40
0.5658863869
40
0.6339474026
40
0.7042021863
40
0.7762998203
40
0.8498799210
40
0.9245741143
40
1.0000000000
40
1.0000000000
40
1.0000000000
40
1.0000000000
10
11.0234262834
20
20.9735481273
30
0.0000000000
10
11.0227778270
20
20.9728994819
30
0.0000000000
10
11.0224567558
20
20.9696526489
30
0.0000000000
10
11.0214412144
20
20.9637987078
30
0.0000000000
10
11.0207752051
20
20.9541086304
30
0.0000000000
10
11.0199144496
20
20.9412193624
30
0.0000000000
10
11.0191386879
20
20.9249123880
30
0.0000000000
10
11.0183510811
20
20.9053791938
30
0.0000000000
10
11.0175961144
20
20.8826766418
30
0.0000000000
10
11.0168655958
20
20.8569320355
30
0.0000000000
10
11.0161682379
20
20.8282694575
30
0.0000000000
10
11.0155065888
20
20.7968336996
30
0.0000000000
10
11.0148846856
20
20.7627814913
30
0.0000000000
10
11.0143057101
20
20.7262833058
30
0.0000000000
10
11.0137727405
20
20.6875216188
30
0.0000000000
10
11.0132885347
20
20.6466903119
30
0.0000000000
10
11.0128555941
20
20.6039935602
30
0.0000000000
10
11.0124761409
20
20.5596449467
30
0.0000000000
10
11.0121521157
20
20.5138662370
30
0.0000000000
10
11.0118851709
20
20.4668863480
30
0.0000000000
10
11.0116766667
20
20.4189402683
30
0.0000000000
10
11.0115276666
20
20.3702698339
30
0.0000000000
10
11.0114686964
20
20.3376081161
30
0.0000000000
10
11.0114491951
20
20.3211976496
30
0.0000000000
11
11.0234262834
21
20.9735481273
31
0.0000000000
11
11.0225635493
21
20.9709353091
31
0.0000000000
11
11.0217060486
21
20.9648350684
31
0.0000000000
11
11.0208582134
21
20.9552780563
31
0.0000000000
11
11.0200242905
21
20.9423120945
31
0.0000000000
11
11.0192084502
21
20.9260020670
31
0.0000000000
11
11.0184147699
21
20.9064294905
31
0.0000000000
11
11.0176472218
21
20.8836923329
31
0.0000000000
11
11.0169096441
21
20.8579043226
31
0.0000000000
11
11.0162057261
21
20.8291944854
31
0.0000000000
11
11.0155389863
21
20.7977063538
31
0.0000000000
11
11.0149127604
21
20.7635974964
31
0.0000000000
11
11.0143301788
21
20.7270384586
31
0.0000000000
11
11.0137941560
21
20.6882121811
31
0.0000000000
11
11.0133073711
21
20.6473127650
31
0.0000000000
11
11.0128722586
21
20.6045447993
31
0.0000000000
11
11.0124909937
21
20.5601221456
31
0.0000000000
11
11.0121654838
21
20.5142671108
31
0.0000000000
11
11.0118973547
21
20.4672088328
31
0.0000000000
11
11.0116879474
21
20.4191826226
31
0.0000000000
11
11.0115383093
21
20.3704290031
31
0.0000000000
11
11.0114491951
21
20.3211976496
31
0.0000000000
0
SPLINE
5
26E
100
AcDbEntity
8
0
100
AcDbSpline
62
9
6
CONTINUOUS
70
0
71
3
72
25
73
21
74
19
42
0.0000001000
43
0.0000001000
44
0.0000000001
12
0.0003825356
22
-1.2559255461
32
0.0000000000
13
1.2559255496
23
-0.0003825356
33
0.0000000000
40
0.0000000000
40
0.0000000000
40
0.0000000000
40
0.0000000000
40
0.0555509015
40
0.1111032549
40
0.1666569937
40
0.2222120092
40
0.2777681538
40
0.3333252460
40
0.3888830752
40
0.4444414086
40
0.4999999980
40
0.5555585874
40
0.6111169209
40
0.6666747504
40
0.7222318429
40
0.7777879881
40
0.8333430041
40
0.8888967435
40
0.9444490977
40
1.0000000000
40
1.0000000000
40
1.0000000000
40
1.0000000000
10
-11.0234262834
20
-20.9735481273
30
0.0000000000
10
-11.0234192000
20
-20.9968040594
30
0.0000000000
10
-11.0213739711
20
-21.0433414415
30
0.0000000000
10
-11.0122365984
20
-21.1125951040
30
0.0000000000
10
-10.9970991688
20
-21.1807964136
30
0.0000000000
10
-10.9760768507
20
-21.2474195581
30
0.0000000000
10
-10.9493295783
20
-21.3119595639
30
0.0000000000
10
-10.9170608387
20
-21.3739249394
30
0.0000000000
10
-10.8795161221
20
-21.4328444150
30
0.0000000000
10
-10.8369810549
20
-21.4882697228
30
0.0000000000
10
-10.7897792264
20
-21.5397792228
30
0.0000000000
10
-10.7382697267
20
-21.5869810517
30
0.0000000000
10
-10.6828444189
20
-21.6295161194
30
0.0000000000
10
-10.6239249433
20
-21.6670608364
30
0.0000000000
10
-10.5619595675
20
-21.6993295766
30
0.0000000000
10
-10.4974195614
20
-21.7260768495
30
0.0000000000
10
-10.4307964162
20
-21.7470991681
30
0.0000000000
10
-10.3625951059
20
-21.7622365981
30
0.0000000000
10
-10.2933414425
20
-21.7713739710
30
0.0000000000
10
-10.2468040598
20
-21.7734192000
30
0.0000000000
10
-10.2235481273
20
-21.7734262834
30
0.0000000000
11
-11.0234262834
21
-20.9735481273
31
0.0000000000
11
-11.0203624553
21
-21.0432486211
31
0.0000000000
11
-11.0112367392
21
-21.1124188577
31
0.0000000000
11
-10.9961185603
21
-21.1805326139
31
0.0000000000
11
-10.9751229326
21
-21.2470717038
31
0.0000000000
11
-10.9484095835
21
-21.3115299208
31
0.0000000000
11
-10.9161817388
21
-21.3734168892
31
0.0000000000
11
-10.8786845769
21
-21.4322617943
31
0.0000000000
11
-10.8362033632
21
-21.4876169644
31
0.0000000000
11
-10.7890612801
21
-21.5390612765
31
0.0000000000
11
-10.7376169683
21
-21.5862033600
31
0.0000000000
11
-10.6822617983
21
-21.6286845741
31
0.0000000000
11
-10.6234168931
21
-21.6661817365
31
0.0000000000
11
-10.5615299245
21
-21.6984095817
31
0.0000000000
11
-10.4970717070
21
-21.7251229314
31
0.0000000000
11
-10.4305326166
21
-21.7461185596
31
0.0000000000
11
-10.3624188597
21
-21.7612367389
31
0.0000000000
11
-10.2932486221
21
-21.7703624552
31
0.0000000000
11
-10.2235481273
21
-21.7734262834
31
0.0000000000
0
SPLINE
5
26F
100
AcDbEntity
8
0
100
AcDbSpline
62
9
6
CONTINUOUS
70
0
71
3
72
28
73
24
74
22
42
0.0000001000
43
0.0000001000
44
0.0000000001
12
0.5910385437
22
1.2669875994
32
0.0000000000
13
0.0007751809
23
1.3980641852
33
0.0000000000
40
0.0000000000
40
0.0000000000
40
0.0000000000
40
0.0000000000
40
0.0040531448
40
0.0134239625
40
0.0280854172
40
0.0479681010
40
0.0729740383
40
0.1029789800
40
0.1378331633
40
0.1773625184
40
0.2213694488
40
0.2696340806
40
0.3219149984
40
0.3779508782
40
0.4374613936
40
0.5001491190
40
0.5657005351
40
0.6337879038
40
0.7040705370
40
0.7761972715
40
0.8498074910
40
0.9245325829
40
1.0000000000
40
1.0000000000
40
1.0000000000
40
1.0000000000
10
-10.2235481273
20
-21.7734262834
30
0.0000000000
10
-10.2227496057
20
-21.7717145220
30
0.0000000000
10
-10.2227311695
20
-21.7652219600
30
0.0000000000
10
-10.2214708872
20
-21.7523711764
30
0.0000000000
10
-10.2209363364
20
-21.7318078537
30
0.0000000000
10
-10.2200205742
20
-21.7041153688
30
0.0000000000
10
-10.2192658273
20
-21.6692042898
30
0.0000000000
10
-10.2184709212
20
-21.6273387700
30
0.0000000000
10
-10.2177184644
20
-21.5786952075
30
0.0000000000
10
-10.2169871730
20
-21.5235281831
30
0.0000000000
10
-10.2162900878
20
-21.4621098416
30
0.0000000000
10
-10.2156283779
20
-21.3947485759
30
0.0000000000
10
-10.2150065122
20
-21.3217808809
30
0.0000000000
10
-10.2144275414
20
-21.2435718848
30
0.0000000000
10
-10.2138945835
20
-21.1605126545
30
0.0000000000
10
-10.2134103850
20
-21.0730186139
30
0.0000000000
10
-10.2129774499
20
-20.9815272606
30
0.0000000000
10
-10.2125980015
20
-20.8864962517
30
0.0000000000
10
-10.2122739758
20
-20.7884007814
30
0.0000000000
10
-10.2120070359
20
-20.6877313635
30
0.0000000000
10
-10.2117985216
20
-20.5849915224
30
0.0000000000
10
-10.2116495227
20
-20.4806947470
30
0.0000000000
10
-10.2115905393
20
-20.4107018337
30
0.0000000000
10
-10.2115710390
20
-20.3755324027
30
0.0000000000
11
-10.2235481273
21
-21.7734262834
31
0.0000000000
11
-10.2226852385
21
-21.7678258105
31
0.0000000000
11
-10.2218277813
21
-21.7547528941
31
0.0000000000
11
-10.2209799437
21
-21.7342727781
31
0.0000000000
11
-10.2201460390
21
-21.7064880168
31
0.0000000000
11
-10.2193302096
21
-21.6715376265
31
0.0000000000
11
-10.2185365427
21
-21.6295962944
31
0.0000000000
11
-10.2177690069
21
-21.5808739466
31
0.0000000000
11
-10.2170314414
21
-21.5256142844
31
0.0000000000
11
-10.2163275349
21
-21.4640937883
31
0.0000000000
11
-10.2156608060
21
-21.3966200186
31
0.0000000000
11
-10.2150345902
21
-21.3235306111
31
0.0000000000
11
-10.2144520177
21
-21.2451910084
31
0.0000000000
11
-10.2139160028
21
-21.1619932018
31
0.0000000000
11
-10.2134292244
21
-21.0743530763
31
0.0000000000
11
-10.2129941166
21
-20.9827090078
31
0.0000000000
11
-10.2126128551
21
-20.8875192449
31
0.0000000000
11
-10.2122873459
21
-20.7892601364
31
0.0000000000
11
-10.2120192180
21
-20.6884226728
31
0.0000000000
11
-10.2118098057
21
-20.5855110583
31
0.0000000000
11
-10.2116601680
21
-20.4810406744
31
0.0000000000
11
-10.2115710390
21
-20.3755324027
31
0.0000000000
0
SPLINE
5
270
100
AcDbEntity
8
0
100
AcDbSpline
62
9
6
CONTINUOUS
70
0
71
3
72
28
73
24
74
22
42
0.0000001000
43
0.0000001000
44
0.0000000001
12
0.4614786278
22
0.4615966094
32
0.0000000000
13
0.0007756522
23
0.6527122448
33
0.0000000000
40
0.0000000000
40
0.0000000000
40
0.0000000000
40
0.0000000000
40
0.0042159116
40
0.0136540271
40
0.0283537886
40
0.0482598321
40
0.0732794116
40
0.1032908402
40
0.1381458205
40
0.1776712268
40
0.2216701262
40
0.2699231316
40
0.3221892247
40
0.3782074231
40
0.4376977031
40
0.5003629173
40
0.5658898087
40
0.6339508908
40
0.7042057217
40
0.7763033781
40
0.8498834884
40
0.9245776685
40
1.0000000000
40
1.0000000000
40
1.0000000000
40
1.0000000000
10
-11.0234262834
20
-20.9735481273
30
0.0000000000
10
-11.0227777657
20
-20.9728994438
30
0.0000000000
10
-11.0224567548
20
-20.9696524316
30
0.0000000000
10
-11.0214411602
20
-20.9637983413
30
0.0000000000
10
-11.0207751724
20
-20.9541080761
30
0.0000000000
10
-11.0199144070
20
-20.9412186376
30
0.0000000000
10
-11.0191386489
20
-20.9249114830
30
0.0000000000
10
-11.0183510413
20
-20.9053781106
30
0.0000000000
10
-11.0175960757
20
-20.8826753793
30
0.0000000000
10
-11.0168655579
20
-20.8569305951
30
0.0000000000
10
-11.0161682014
20
-20.8282678456
30
0.0000000000
10
-11.0155065541
20
-20.7968319300
30
0.0000000000
10
-11.0148846532
20
-20.7627795856
30
0.0000000000
10
-11.0143056803
20
-20.7262812893
30
0.0000000000
10
-11.0137727136
20
-20.6875195144
30
0.0000000000
10
-11.0132885109
20
-20.6466881380
30
0.0000000000
10
-11.0128555734
20
-20.6039913303
30
0.0000000000
10
-11.0124761232
20
-20.5596426736
30
0.0000000000
10
-11.0121521011
20
-20.5138639344
30
0.0000000000
10
-11.0118851593
20
-20.4668840283
30
0.0000000000
10
-11.0116766582
20
-20.4189379445
30
0.0000000000
10
-11.0115276631
20
-20.3702682843
30
0.0000000000
10
-11.0114686956
20
-20.3376073427
30
0.0000000000
10
-11.0114491951
20
-20.3211976496
30
0.0000000000
11
-11.0234262834
21
-20.9735481273
31
0.0000000000
11
-11.0225635085
21
-20.9709351008
31
0.0000000000
11
-11.0217060076
21
-20.9648346952
31
0.0000000000
11
-11.0208581723
21
-20.9552775069
31
0.0000000000
11
-11.0200242495
21
-20.9423113688
31
0.0000000000
11
-11.0192084096
21
-20.9260011628
31
0.0000000000
11
-11.0184147299
21
-20.9064284074
31
0.0000000000
11
-11.0176471827
21
-20.8836910702
31
0.0000000000
11
-11.0169096060
21
-20.8579028811
31
0.0000000000
11
-11.0162056893
21
-20.8291928684
31
0.0000000000
11
-11.0155389513
21
-20.7977045767
31
0.0000000000
11
-11.0149127276
21
-20.7635955817
31
0.0000000000
11
-11.0143301487
21
-20.7270364333
31
0.0000000000
11
-11.0137941290
21
-20.6882100715
31
0.0000000000
11
-11.0133073472
21
-20.6473105867
31
0.0000000000
11
-11.0128722377
21
-20.6045425653
31
0.0000000000
11
-11.0124909760
21
-20.5601198683
31
0.0000000000
11
-11.0121654691
21
-20.5142648028
31
0.0000000000
11
-11.0118973431
21
-20.4672065102
31
0.0000000000
11
-11.0116879388
21
-20.4191802938
31
0.0000000000
11
-11.0115383036
21
-20.3704266830
31
0.0000000000
11
-11.0114491951
21
-20.3211976496
31
0.0000000000
0
SPLINE
5
271
100
AcDbEntity
8
0
100
AcDbSpline
62
9
6
CONTINUOUS
70
0
71
3
72
25
73
21
74
19
42
0.0000001000
43
0.0000001000
44
0.0000000001
12
0.2000154328
22
-0.7803078977
32
0.0000000000
13
0.8055344084
23
-0.0009527722
33
0.0000000000
40
0.0000000000
40
0.0000000000
40
0.0000000000
40
0.0000000000
40
0.0077912118
40
0.0215936197
40
0.0421903447
40
0.0696660356
40
0.1039114029
40
0.1447195327
40
0.1918146647
40
0.2448643259
40
0.3034862371
40
0.3672533602
40
0.4356982739
40
0.5083173545
40
0.5845749592
40
0.6639076977
40
0.7457288209
40
0.8294327281
40
0.9143995806
40
1.0000000000
40
1.0000000000
40
1.0000000000
40
1.0000000000
10
-11.0114491951
20
-20.3211976496
30
0.0000000000
10
-11.0109297409
20
-20.3232241643
30
0.0000000000
10
-11.0059047676
20
-20.3272604085
30
0.0000000000
10
-10.9956102487
20
-20.3313160910
30
0.0000000000
10
-10.9794414411
20
-20.3357857000
30
0.0000000000
10
-10.9578032740
20
-20.3400666356
30
0.0000000000
10
-10.9305783358
20
-20.3443234057
30
0.0000000000
10
-10.8980396259
20
-20.3484141348
30
0.0000000000
10
-10.8603908297
20
-20.3523306175
30
0.0000000000
10
-10.8179197474
20
-20.3560265413
30
0.0000000000
10
-10.7709373471
20
-20.3594743668
30
0.0000000000
10
-10.7197935232
20
-20.3626449281
30
0.0000000000
10
-10.6648680555
20
-20.3655134125
30
0.0000000000
10
-10.6065695157
20
-20.3680572831
30
0.0000000000
10
-10.5453315619
20
-20.3702568782
30
0.0000000000
10
-10.4816098377
20
-20.3720952768
30
0.0000000000
10
-10.4158785067
20
-20.3735584138
30
0.0000000000
10
-10.3486267097
20
-20.3746351306
30
0.0000000000
10
-10.2803549589
20
-20.3753172368
30
0.0000000000
10
-10.2345557334
20
-20.3755052168
30
0.0000000000
10
-10.2115710390
20
-20.3755324027
30
0.0000000000
11
-11.0114491951
21
-20.3211976496
31
0.0000000000
11
-11.0072718583
21
-20.3258815805
31
0.0000000000
11
-10.9971721925
21
-20.3305306492
31
0.0000000000
11
-10.9812253686
21
-20.3351102534
31
0.0000000000
11
-10.9595500774
21
-20.3395863073
31
0.0000000000
11
-10.9323076461
21
-20.3439254961
31
0.0000000000
11
-10.8997008376
21
-20.3480955235
31
0.0000000000
11
-10.8619723414
21
-20.3520653526
31
0.0000000000
11
-10.8194029674
21
-20.3558054360
31
0.0000000000
11
-10.7723095556
21
-20.3592879370
31
0.0000000000
11
-10.7210426177
21
-20.3624869353
31
0.0000000000
11
-10.6659837292
21
-20.3653786213
31
0.0000000000
11
-10.6075426882
21
-20.3679414723
31
0.0000000000
11
-10.5461544662
21
-20.3701564132
31
0.0000000000
11
-10.4822759702
21
-20.3720069585
31
0.0000000000
11
-10.4163826419
21
-20.3734793348
31
0.0000000000
11
-10.3489649194
21
-20.3745625832
31
0.0000000000
11
-10.2805245866
21
-20.3752486413
31
0.0000000000
11
-10.2115710390
21
-20.3755324027
31
0.0000000000
0
SPLINE
5
272
100
AcDbEntity
8
0
100
AcDbSpline
62
9
6
CONTINUOUS
70
0
71
3
72
20
73
16
74
14
42
0.0000001000
43
0.0000001000
44
0.0000000001
12
0.0482938946
22
40.7510456588
32
0.0000000000
13
-0.0482938946
23
40.7510456588
33
0.0000000000
40
0.0000000000
40
0.0000000000
40
0.0000000000
40
0.0000000000
40
0.0768305566
40
0.1537073661
40
0.2306220259
40
0.3075661282
40
0.3845312631
40
0.4615090186
40
0.5384909814
40
0.6154687369
40
0.6924338718
40
0.7693779741
40
0.8462926339
40
0.9231694434
40
1.0000000000
40
1.0000000000
40
1.0000000000
40
1.0000000000
10
-10.2115710390
20
-20.3755324027
30
0.0000000000
10
-10.2103342234
20
-19.3318905627
30
0.0000000000
10
-10.2080508302
20
-17.2439783667
30
0.0000000000
10
-10.2051969798
20
-14.1112812152
30
0.0000000000
10
-10.2029135249
20
-10.9770412247
30
0.0000000000
10
-10.2012007153
20
-7.8416010855
30
0.0000000000
10
-10.2000587382
20
-4.7053036127
30
0.0000000000
10
-10.1994877184
20
-1.5684916998
30
0.0000000000
10
-10.1994877184
20
1.5684916999
30
0.0000000000
10
-10.2000587382
20
4.7053036128
30
0.0000000000
10
-10.2012007153
20
7.8416010856
30
0.0000000000
10
-10.2029135249
20
10.9770412248
30
0.0000000000
10
-10.2051969798
20
14.1112812152
30
0.0000000000
10
-10.2080508302
20
17.2439783668
30
0.0000000000
10
-10.2103342234
20
19.3318905627
30
0.0000000000
10
-10.2115710390
20
20.3755324027
30
0.0000000000
11
-10.2115710390
21
-20.3755324027
31
0.0000000000
11
-10.2081467923
21
-17.2446065568
31
0.0000000000
11
-10.2052926814
21
-14.1117952835
31
0.0000000000
11
-10.2030090183
21
-10.9774411018
31
0.0000000000
11
-10.2012960526
21
-7.8418867423
31
0.0000000000
11
-10.2001539714
21
-4.7054750212
31
0.0000000000
11
-10.1995828996
21
-1.5685488417
31
0.0000000000
11
-10.1995828996
21
1.5685488418
31
0.0000000000
11
-10.2001539714
21
4.7054750213
31
0.0000000000
11
-10.2012960526
21
7.8418867424
31
0.0000000000
11
-10.2030090183
21
10.9774411019
31
0.0000000000
11
-10.2052926814
21
14.1117952836
31
0.0000000000
11
-10.2081467923
21
17.2446065568
31
0.0000000000
11
-10.2115710390
21
20.3755324027
31
0.0000000000
0
SPLINE
5
273
100
AcDbEntity
8
0
100
AcDbSpline
62
9
6
CONTINUOUS
70
0
71
3
72
25
73
21
74
19
42
0.0000001000
43
0.0000001000
44
0.0000000001
12
0.0003825356
22
1.2559255455
32
0.0000000000
13
1.2559255455
23
0.0003825356
33
0.0000000000
40
0.0000000000
40
0.0000000000
40
0.0000000000
40
0.0000000000
40
0.0555509020
40
0.1111032559
40
0.1666569950
40
0.2222120107
40
0.2777681556
40
0.3333252480
40
0.3888830773
40
0.4444414107
40
0.5000000000
40
0.5555585893
40
0.6111169227
40
0.6666747520
40
0.7222318444
40
0.7777879893
40
0.8333430050
40
0.8888967441
40
0.9444490980
40
1.0000000000
40
1.0000000000
40
1.0000000000
40
1.0000000000
10
-11.0234262834
20
20.9735481273
30
0.0000000000
10
-11.0234192000
20
20.9968040596
30
0.0000000000
10
-11.0213739710
20
21.0433414421
30
0.0000000000
10
-11.0122365982
20
21.1125951051
30
0.0000000000
10
-10.9970991684
20
21.1807964151
30
0.0000000000
10
-10.9760768500
20
21.2474195599
30
0.0000000000
10
-10.9493295774
20
21.3119595659
30
0.0000000000
10
-10.9170608375
20
21.3739249415
30
0.0000000000
10
-10.8795161207
20
21.4328444171
30
0.0000000000
10
-10.8369810533
20
21.4882697248
30
0.0000000000
10
-10.7897792246
20
21.5397792246
30
0.0000000000
10
-10.7382697248
20
21.5869810533
30
0.0000000000
10
-10.6828444171
20
21.6295161207
30
0.0000000000
10
-10.6239249415
20
21.6670608375
30
0.0000000000
10
-10.5619595659
20
21.6993295774
30
0.0000000000
10
-10.4974195599
20
21.7260768500
30
0.0000000000
10
-10.4307964151
20
21.7470991684
30
0.0000000000
10
-10.3625951051
20
21.7622365982
30
0.0000000000
10
-10.2933414421
20
21.7713739710
30
0.0000000000
10
-10.2468040596
20
21.7734192000
30
0.0000000000
10
-10.2235481273
20
21.7734262834
30
0.0000000000
11
-11.0234262834
21
20.9735481273
31
0.0000000000
11
-11.0203624552
21
21.0432486217
31
0.0000000000
11
-11.0112367390
21
21.1124188589
31
0.0000000000
11
-10.9961185599
21
21.1805326154
31
0.0000000000
11
-10.9751229319
21
21.2470717055
31
0.0000000000
11
-10.9484095825
21
21.3115299228
31
0.0000000000
11
-10.9161817376
21
21.3734168913
31
0.0000000000
11
-10.8786845754
21
21.4322617964
31
0.0000000000
11
-10.8362033616
21
21.4876169664
31
0.0000000000
11
-10.7890612783
21
21.5390612783
31
0.0000000000
11
-10.7376169664
21
21.5862033616
31
0.0000000000
11
-10.6822617964
21
21.6286845754
31
0.0000000000
11
-10.6234168913
21
21.6661817376
31
0.0000000000
11
-10.5615299228
21
21.6984095825
31
0.0000000000
11
-10.4970717055
21
21.7251229319
31
0.0000000000
11
-10.4305326154
21
21.7461185599
31
0.0000000000
11
-10.3624188589
21
21.7612367390
31
0.0000000000
11
-10.2932486217
21
21.7703624552
31
0.0000000000
11
-10.2235481273
21
21.7734262834
31
0.0000000000
0
SPLINE
5
274
100
AcDbEntity
8
0
100
AcDbSpline
62
9
6
CONTINUOUS
70
0
71
3
72
28
73
24
74
22
42
0.0000001000
43
0.0000001000
44
0.0000000001
12
-0.0007756475
22
0.6527122492
32
0.0000000000
13
-0.4614703189
23
0.4616048196
33
0.0000000000
40
0.0000000000
40
0.0000000000
40
0.0000000000
40
0.0000000000
40
0.0754258857
40
0.1501200790
40
0.2237001797
40
0.2957978137
40
0.3660525974
40
0.4341136131
40
0.4996404191
40
0.5623055280
40
0.6217956789
40
0.6778137076
40
0.7300795900
40
0.7783323500
40
0.8223309806
40
0.8618561130
40
0.8967108183
40
0.9267219729
40
0.9517412794
40
0.9716470533
40
0.9863465458
40
0.9957844110
40
1.0000000000
40
1.0000000000
40
1.0000000000
40
1.0000000000
10
-11.0114491951
20
20.3211976496
30
0.0000000000
10
-11.0114686964
20
20.3376081161
30
0.0000000000
10
-11.0115276666
20
20.3702698339
30
0.0000000000
10
-11.0116766667
20
20.4189402683
30
0.0000000000
10
-11.0118851709
20
20.4668863480
30
0.0000000000
10
-11.0121521157
20
20.5138662370
30
0.0000000000
10
-11.0124761409
20
20.5596449467
30
0.0000000000
10
-11.0128555941
20
20.6039935602
30
0.0000000000
10
-11.0132885347
20
20.6466903119
30
0.0000000000
10
-11.0137727405
20
20.6875216188
30
0.0000000000
10
-11.0143057101
20
20.7262833058
30
0.0000000000
10
-11.0148846856
20
20.7627814913
30
0.0000000000
10
-11.0155065888
20
20.7968336996
30
0.0000000000
10
-11.0161682379
20
20.8282694575
30
0.0000000000
10
-11.0168655958
20
20.8569320355
30
0.0000000000
10
-11.0175961144
20
20.8826766418
30
0.0000000000
10
-11.0183510811
20
20.9053791938
30
0.0000000000
10
-11.0191386879
20
20.9249123880
30
0.0000000000
10
-11.0199144496
20
20.9412193624
30
0.0000000000
10
-11.0207752051
20
20.9541086304
30
0.0000000000
10
-11.0214412144
20
20.9637987078
30
0.0000000000
10
-11.0224567558
20
20.9696526489
30
0.0000000000
10
-11.0227778270
20
20.9728994819
30
0.0000000000
10
-11.0234262834
20
20.9735481273
30
0.0000000000
11
-11.0114491951
21
20.3211976496
31
0.0000000000
11
-11.0115383093
21
20.3704290031
31
0.0000000000
11
-11.0116879474
21
20.4191826226
31
0.0000000000
11
-11.0118973547
21
20.4672088328
31
0.0000000000
11
-11.0121654838
21
20.5142671108
31
0.0000000000
11
-11.0124909937
21
20.5601221456
31
0.0000000000
11
-11.0128722586
21
20.6045447993
31
0.0000000000
11
-11.0133073711
21
20.6473127650
31
0.0000000000
11
-11.0137941560
21
20.6882121811
31
0.0000000000
11
-11.0143301788
21
20.7270384587
31
0.0000000000
11
-11.0149127604
21
20.7635974963
31
0.0000000000
11
-11.0155389863
21
20.7977063538
31
0.0000000000
11
-11.0162057261
21
20.8291944854
31
0.0000000000
11
-11.0169096441
21
20.8579043226
31
0.0000000000
11
-11.0176472218
21
20.8836923329
31
0.0000000000
11
-11.0184147699
21
20.9064294905
31
0.0000000000
11
-11.0192084502
21
20.9260020670
31
0.0000000000
11
-11.0200242905
21
20.9423120945
31
0.0000000000
11
-11.0208582134
21
20.9552780563
31
0.0000000000
11
-11.0217060486
21
20.9648350684
31
0.0000000000
11
-11.0225635493
21
20.9709353091
31
0.0000000000
11
-11.0234262834
21
20.9735481273
31
0.0000000000
0
SPLINE
5
275
100
AcDbEntity
8
0
100
AcDbSpline
62
9
6
CONTINUOUS
70
0
71
3
72
28
73
24
74
22
42
0.0000001000
43
0.0000001000
44
0.0000000001
12
-0.0007751171
22
1.3980641886
32
0.0000000000
13
-0.5910541265
23
1.2669803245
33
0.0000000000
40
0.0000000000
40
0.0000000000
40
0.0000000000
40
0.0000000000
40
0.0754674358
40
0.1501925268
40
0.2238027434
40
0.2959294803
40
0.3662121112
40
0.4342994783
40
0.4998508945
40
0.5625386204
40
0.6220491347
40
0.6780850136
40
0.7303659306
40
0.7786305619
40
0.8226374917
40
0.8621668452
40
0.8970210272
40
0.9270259685
40
0.9520319052
40
0.9719145871
40
0.9865760410
40
0.9959468575
40
1.0000000000
40
1.0000000000
40
1.0000000000
40
1.0000000000
10
-10.2115710390
20
20.3755324027
30
0.0000000000
10
-10.2115905377
20
20.4107018425
30
0.0000000000
10
-10.2116495247
20
20.4806947640
30
0.0000000000
10
-10.2117985214
20
20.5849915463
30
0.0000000000
10
-10.2120070375
20
20.6877313867
30
0.0000000000
10
-10.2122739770
20
20.7884008032
30
0.0000000000
10
-10.2125980034
20
20.8864962727
30
0.0000000000
10
-10.2129774521
20
20.9815272799
30
0.0000000000
10
-10.2134103876
20
21.0730186326
30
0.0000000000
10
-10.2138945865
20
21.1605126730
30
0.0000000000
10
-10.2144275449
20
21.2435719026
30
0.0000000000
10
-10.2150065160
20
21.3217808973
30
0.0000000000
10
-10.2156283821
20
21.3947485912
30
0.0000000000
10
-10.2162900922
20
21.4621098560
30
0.0000000000
10
-10.2169871773
20
21.5235281962
30
0.0000000000
10
-10.2177184689
20
21.5786952189
30
0.0000000000
10
-10.2184709251
20
21.6273387799
30
0.0000000000
10
-10.2192658329
20
21.6692042982
30
0.0000000000
10
-10.2200205750
20
21.7041153774
30
0.0000000000
10
-10.2209363489
20
21.7318078568
30
0.0000000000
10
-10.2214708732
20
21.7523711872
30
0.0000000000
10
-10.2227312025
20
21.7652219505
30
0.0000000000
10
-10.2227495851
20
21.7717145328
30
0.0000000000
10
-10.2235481273
20
21.7734262834
30
0.0000000000
11
-10.2115710390
21
20.3755324027
31
0.0000000000
11
-10.2116601688
21
20.4810407006
31
0.0000000000
11
-10.2118098062
21
20.5855110831
31
0.0000000000
11
-10.2120192192
21
20.6884226935
31
0.0000000000
11
-10.2122873472
21
20.7892601603
31
0.0000000000
11
-10.2126128569
21
20.8875192656
31
0.0000000000
11
-10.2129941188
21
20.9827090263
31
0.0000000000
11
-10.2134292270
21
21.0743530949
31
0.0000000000
11
-10.2139160059
21
21.1619932211
31
0.0000000000
11
-10.2144520212
21
21.2451910260
31
0.0000000000
11
-10.2150345940
21
21.3235306274
31
0.0000000000
11
-10.2156608102
21
21.3966200338
31
0.0000000000
11
-10.2163275393
21
21.4640938028
31
0.0000000000
11
-10.2170314458
21
21.5256142979
31
0.0000000000
11
-10.2177690113
21
21.5808739579
31
0.0000000000
11
-10.2185365470
21
21.6295963038
31
0.0000000000
11
-10.2193302139
21
21.6715376354
31
0.0000000000
11
-10.2201460431
21
21.7064880249
31
0.0000000000
11
-10.2209799481
21
21.7342727836
31
0.0000000000
11
-10.2218277845
21
21.7547528985
31
0.0000000000
11
-10.2226852433
21
21.7678258130
31
0.0000000000
11
-10.2235481273
21
21.7734262834
31
0.0000000000
0
SPLINE
5
276
100
AcDbEntity
8
0
100
AcDbSpline
62
9
6
CONTINUOUS
70
0
71
3
72
25
73
21
74
19
42
0.0000001000
43
0.0000001000
44
0.0000000001
12
0.2000155688
22
0.7803078661
32
0.0000000000
13
0.8055344070
23
0.0009527722
33
0.0000000000
40
0.0000000000
40
0.0000000000
40
0.0000000000
40
0.0000000000
40
0.0077912125
40
0.0215936212
40
0.0421903468
40
0.0696660384
40
0.1039114061
40
0.1447195364
40
0.1918146686
40
0.2448643298
40
0.3034862411
40
0.3672533640
40
0.4356982775
40
0.5083173578
40
0.5845749620
40
0.6639077001
40
0.7457288228
40
0.8294327294
40
0.9143995812
40
1.0000000000
40
1.0000000000
40
1.0000000000
40
1.0000000000
10
-11.0114491951
20
20.3211976496
30
0.0000000000
10
-11.0109297405
20
20.3232241644
30
0.0000000000
10
-11.0059047667
20
20.3272604083
30
0.0000000000
10
-10.9956102472
20
20.3313160910
30
0.0000000000
10
-10.9794414390
20
20.3357856998
30
0.0000000000
10
-10.9578032714
20
20.3400666353
30
0.0000000000
10
-10.9305783328
20
20.3443234054
30
0.0000000000
10
-10.8980396226
20
20.3484141345
30
0.0000000000
10
-10.8603908262
20
20.3523306171
30
0.0000000000
10
-10.8179197439
20
20.3560265409
30
0.0000000000
10
-10.7709373436
20
20.3594743663
30
0.0000000000
10
-10.7197935198
20
20.3626449276
30
0.0000000000
10
-10.6648680524
20
20.3655134119
30
0.0000000000
10
-10.6065695129
20
20.3680572824
30
0.0000000000
10
-10.5453315594
20
20.3702568776
30
0.0000000000
10
-10.4816098356
20
20.3720952761
30
0.0000000000
10
-10.4158785051
20
20.3735584131
30
0.0000000000
10
-10.3486267086
20
20.3746351298
30
0.0000000000
10
-10.2803549583
20
20.3753172359
30
0.0000000000
10
-10.2345557332
20
20.3755052159
30
0.0000000000
10
-10.2115710390
20
20.3755324018
30
0.0000000000
11
-11.0114491951
21
20.3211976496
31
0.0000000000
11
-11.0072718575
21
20.3258815804
31
0.0000000000
11
-10.9971721910
21
20.3305306492
31
0.0000000000
11
-10.9812253665
21
20.3351102532
31
0.0000000000
11
-10.9595500747
21
20.3395863070
31
0.0000000000
11
-10.9323076431
21
20.3439254958
31
0.0000000000
11
-10.8997008342
21
20.3480955232
31
0.0000000000
11
-10.8619723379
21
20.3520653522
31
0.0000000000
11
-10.8194029639
21
20.3558054356
31
0.0000000000
11
-10.7723095520
21
20.3592879365
31
0.0000000000
11
-10.7210426143
21
20.3624869348
31
0.0000000000
11
-10.6659837261
21
20.3653786207
31
0.0000000000
11
-10.6075426854
21
20.3679414716
31
0.0000000000
11
-10.5461544637
21
20.3701564126
31
0.0000000000
11
-10.4822759681
21
20.3720069579
31
0.0000000000
11
-10.4163826402
21
20.3734793341
31
0.0000000000
11
-10.3489649182
21
20.3745625824
31
0.0000000000
11
-10.2805245861
21
20.3752486404
31
0.0000000000
11
-10.2115710390
21
20.3755324018
31
0.0000000000
0
SPLINE
5
277
100
AcDbEntity
8
0
100
AcDbSpline
62
9
6
CONTINUOUS
70
0
71
3
72
20
73
16
74
14
42
0.0000001000
43
0.0000001000
44
0.0000000001
12
0.0482938932
22
40.6423761157
32
0.0000000000
13
-0.0482938949
23
40.6423760817
33
0.0000000000
40
0.0000000000
40
0.0000000000
40
0.0000000000
40
0.0000000000
40
0.0768305463
40
0.1537073575
40
0.2306220188
40
0.3075661227
40
0.3845312591
40
0.4615090161
40
0.5384909803
40
0.6154687374
40
0.6924338738
40
0.7693779776
40
0.8462926390
40
0.9231694501
40
1.0000000000
40
1.0000000000
40
1.0000000000
40
1.0000000000
10
-11.0114491951
20
-20.3211976496
30
0.0000000000
10
-11.0102123797
20
-19.2803389963
30
0.0000000000
10
-11.0079289866
20
-17.1979946873
30
0.0000000000
10
-11.0050751362
20
-14.0736514933
30
0.0000000000
10
-11.0027916812
20
-10.9477694121
30
0.0000000000
10
-11.0010788715
20
-7.8206903825
30
0.0000000000
10
-10.9999368944
20
-4.6927563053
30
0.0000000000
10
-10.9993658746
20
-1.5643091598
30
0.0000000000
10
-10.9993658746
20
1.5643090153
30
0.0000000000
10
-10.9999368943
20
4.6927561609
30
0.0000000000
10
-11.0010788715
20
7.8206902382
30
0.0000000000
10
-11.0027916811
20
10.9477692680
30
0.0000000000
10
-11.0050751361
20
14.0736513493
30
0.0000000000
10
-11.0079289865
20
17.1979945914
30
0.0000000000
10
-11.0102123796
20
19.2803389484
30
0.0000000000
10
-11.0114491951
20
20.3211976496
30
0.0000000000
11
-11.0114491951
21
-20.3211976496
31
0.0000000000
11
-11.0080249488
21
-17.1986213640
31
0.0000000000
11
-11.0051708378
21
-14.0741641879
31
0.0000000000
11
-11.0028871746
21
-10.9481682237
31
0.0000000000
11
-11.0011742088
21
-7.8209752761
31
0.0000000000
11
-11.0000321276
21
-4.6929272563
31
0.0000000000
11
-10.9994610558
21
-1.5643661482
31
0.0000000000
11
-10.9994610558
21
1.5643660021
31
0.0000000000
11
-11.0000321276
21
4.6929271135
31
0.0000000000
11
-11.0011742088
21
7.8209751332
31
0.0000000000
11
-11.0028871745
21
10.9481680771
31
0.0000000000
11
-11.0051708377
21
14.0741640462
31
0.0000000000
11
-11.0080249487
21
17.1986212182
31
0.0000000000
11
-11.0114491951
21
20.3211976496
31
0.0000000000
0
SPLINE
5
278
100
AcDbEntity
8
0
100
AcDbSpline
62
9
6
CONTINUOUS
70
0
71
3
72
28
73
24
74
22
42
0.0000001000
43
0.0000001000
44
0.0000000001
12
-1.0393854285
22
-0.0181478324
32
0.0000000000
13
-0.0706088258
23
-1.0371431046
33
0.0000000000
40
0.0000000000
40
0.0000000000
40
0.0000000000
40
0.0000000000
40
0.0476122483
40
0.0952326314
40
0.1428532556
40
0.1904737569
40
0.2380941380
40
0.2857145652
40
0.3333348636
40
0.3809550500
40
0.4285750698
40
0.4761950378
40
0.5238148416
40
0.5714345595
40
0.6190540803
40
0.6666735143
40
0.7142928183
40
0.7619120291
40
0.8095310013
40
0.8571499351
40
0.9047688534
40
0.9523874238
40
1.0000000000
40
1.0000000000
40
1.0000000000
40
1.0000000000
10
-34.5858266564
20
20.9735481273
30
0.0000000000
10
-34.6023224821
20
20.9732601076
30
0.0000000000
10
-34.6353084833
20
20.9715166773
30
0.0000000000
10
-34.6844709014
20
20.9654116483
30
0.0000000000
10
-34.7330842890
20
20.9558467081
30
0.0000000000
10
-34.7808994131
20
20.9428699201
30
0.0000000000
10
-34.8276779572
20
20.9265462709
30
0.0000000000
10
-34.8731857361
20
20.9069573890
30
0.0000000000
10
-34.9171952275
20
20.8842012612
30
0.0000000000
10
-34.9594862593
20
20.8583917476
30
0.0000000000
10
-34.9998473692
20
20.8296579371
30
0.0000000000
10
-35.0380767045
20
20.7981435624
30
0.0000000000
10
-35.0739831130
20
20.7640062323
30
0.0000000000
10
-35.1073870061
20
20.7274167253
30
0.0000000000
10
-35.1381213691
20
20.6885580286
30
0.0000000000
10
-35.1660325121
20
20.6476245075
30
0.0000000000
10
-35.1909808926
20
20.6048208511
30
0.0000000000
10
-35.2128417417
20
20.5603611964
30
0.0000000000
10
-35.2315057757
20
20.5144678064
30
0.0000000000
10
-35.2468796939
20
20.4673704121
30
0.0000000000
10
-35.2588866273
20
20.4193037077
30
0.0000000000
10
-35.2674661206
20
20.3705133706
30
0.0000000000
10
-35.2708729628
20
20.3376580013
30
0.0000000000
10
-35.2719935855
20
20.3211976496
30
0.0000000000
11
-34.5858266564
21
20.9735481273
31
0.0000000000
11
-34.6352526636
21
20.9709353090
31
0.0000000000
11
-34.6843788404
21
20.9648350684
31
0.0000000000
11
-34.7329512865
21
20.9552780564
31
0.0000000000
11
-34.7807267005
21
20.9423120945
31
0.0000000000
11
-34.8274661590
21
20.9260020670
31
0.0000000000
11
-34.8729360719
21
20.9064294905
31
0.0000000000
11
-34.9169088719
21
20.8836923329
31
0.0000000000
11
-34.9591646698
21
20.8579043226
31
0.0000000000
11
-34.9994921052
21
20.8291944854
31
0.0000000000
11
-35.0376896056
21
20.7977063538
31
0.0000000000
11
-35.0735660660
21
20.7635974964
31
0.0000000000
11
-35.1069421425
21
20.7270384587
31
0.0000000000
11
-35.1376508645
21
20.6882121811
31
0.0000000000
11
-35.1655387519
21
20.6473127650
31
0.0000000000
11
-35.1904663317
21
20.6045447993
31
0.0000000000
11
-35.2123089819
21
20.5601221456
31
0.0000000000
11
-35.2309574339
21
20.5142671108
31
0.0000000000
11
-35.2463185371
21
20.4672088328
31
0.0000000000
11
-35.2583154767
21
20.4191826226
31
0.0000000000
11
-35.2668882363
21
20.3704290030
31
0.0000000000
11
-35.2719935855
21
20.3211976496
31
0.0000000000
0
SPLINE
5
279
100
AcDbEntity
8
0
100
AcDbSpline
62
9
6
CONTINUOUS
70
0
71
3
72
25
73
21
74
19
42
0.0000001000
43
0.0000001000
44
0.0000000001
12
-0.0139619566
22
0.8001236985
32
0.0000000000
13
0.8001236122
23
0.0139661852
33
0.0000000000
40
0.0000000000
40
0.0000000000
40
0.0000000000
40
0.0000000000
40
0.0871110145
40
0.1735572058
40
0.2586811291
40
0.3418354083
40
0.4223876681
40
0.4997253516
40
0.5732603912
40
0.6424336959
40
0.7067194265
40
0.7656290275
40
0.8187149972
40
0.8655743844
40
0.9058520280
40
0.9392436222
40
0.9654989062
40
0.9844261644
40
0.9959047729
40
1.0000000000
40
1.0000000000
40
1.0000000000
40
1.0000000000
10
-34.5858266564
20
20.9735481273
30
0.0000000000
10
-34.5862320698
20
20.9967813230
30
0.0000000000
10
-34.5870046774
20
21.0430710216
30
0.0000000000
10
-34.5880507136
20
21.1120659224
30
0.0000000000
10
-34.5889744549
20
21.1800070221
30
0.0000000000
10
-34.5897689246
20
21.2463774524
30
0.0000000000
10
-34.5904281516
20
21.3106722871
30
0.0000000000
10
-34.5909472407
20
21.3724024273
30
0.0000000000
10
-34.5913223624
20
21.4310981617
30
0.0000000000
10
-34.5915510054
20
21.4863133020
30
0.0000000000
10
-34.5916313371
20
21.5376266773
30
0.0000000000
10
-34.5915645730
20
21.5846516848
30
0.0000000000
10
-34.5913475645
20
21.6270185632
30
0.0000000000
10
-34.5909968661
20
21.6644429738
30
0.0000000000
10
-34.5904755305
20
21.6965257182
30
0.0000000000
10
-34.5899116506
20
21.7233549967
30
0.0000000000
10
-34.5889912173
20
21.7438291450
30
0.0000000000
10
-34.5885412110
20
21.7600044474
30
0.0000000000
10
-34.5869665445
20
21.7672354147
30
0.0000000000
10
-34.5869188857
20
21.7734072185
30
0.0000000000
10
-34.5858266564
20
21.7734262834
30
0.0000000000
11
-34.5858266564
21
20.9735481273
31
0.0000000000
11
-34.5869898037
21
21.0432486207
31
0.0000000000
11
-34.5880378848
21
21.1124188568
31
0.0000000000
11
-34.5889629260
21
21.1805326128
31
0.0000000000
11
-34.5897578901
21
21.2470717023
31
0.0000000000
11
-34.5904167292
21
21.3115299193
31
0.0000000000
11
-34.5909344312
21
21.3734168876
31
0.0000000000
11
-34.5913070574
21
21.4322617928
31
0.0000000000
11
-34.5915317731
21
21.4876169629
31
0.0000000000
11
-34.5916068688
21
21.5390612752
31
0.0000000000
11
-34.5915317732
21
21.5862033588
31
0.0000000000
11
-34.5913070574
21
21.6286845731
31
0.0000000000
11
-34.5909344312
21
21.6661817357
31
0.0000000000
11
-34.5904167292
21
21.6984095811
31
0.0000000000
11
-34.5897578901
21
21.7251229310
31
0.0000000000
11
-34.5889629260
21
21.7461185594
31
0.0000000000
11
-34.5880378848
21
21.7612367387
31
0.0000000000
11
-34.5869898038
21
21.7703624552
31
0.0000000000
11
-34.5858266564
21
21.7734262834
31
0.0000000000
0
SPLINE
5
27A
100
AcDbEntity
8
0
100
AcDbSpline
62
9
6
CONTINUOUS
70
0
71
3
72
20
73
16
74
14
42
0.0000001000
43
0.0000001000
44
0.0000000001
12
-2.7624818870
22
-40.5796015035
32
0.0000000000
13
2.7624818836
23
-40.5796015345
33
0.0000000000
40
0.0000000000
40
0.0000000000
40
0.0000000000
40
0.0000000000
40
0.0769230829
40
0.1538461681
40
0.2307692485
40
0.3076923242
40
0.3846153964
40
0.4615384668
40
0.5384615367
40
0.6153846071
40
0.6923076794
40
0.7692307551
40
0.8461538354
40
0.9230769207
40
1.0000000000
40
1.0000000000
40
1.0000000000
40
1.0000000000
10
-35.2719935855
20
20.3211976496
30
0.0000000000
10
-35.3428264599
20
19.2806949661
30
0.0000000000
10
-35.4736126274
20
17.1989324341
30
0.0000000000
10
-35.6371273152
20
14.0744212043
30
0.0000000000
10
-35.7679607275
20
10.9483675151
30
0.0000000000
10
-35.8660982461
20
7.8211177595
30
0.0000000000
10
-35.9315292299
20
4.6930126554
30
0.0000000000
10
-35.9642465064
20
1.5643945243
30
0.0000000000
10
-35.9642465056
20
-1.5643946688
30
0.0000000000
10
-35.9315292277
20
-4.6930127998
30
0.0000000000
10
-35.8660982423
20
-7.8211179038
30
0.0000000000
10
-35.7679607223
20
-10.9483676593
30
0.0000000000
10
-35.6371273084
20
-14.0744213483
30
0.0000000000
10
-35.4736126217
20
-17.1989325300
30
0.0000000000
10
-35.3428264565
20
-19.2806950140
30
0.0000000000
10
-35.2719935855
20
-20.3211976496
30
0.0000000000
11
-35.2719935855
21
20.3211976496
31
0.0000000000
11
-35.4681685321
21
17.1986212184
31
0.0000000000
11
-35.6316804397
21
14.0741640465
31
0.0000000000
11
-35.7625114153
21
10.9481680777
31
0.0000000000
11
-35.8606471588
21
7.8209751314
31
0.0000000000
11
-35.9260769460
21
4.6929271134
31
0.0000000000
11
-35.9587936269
21
1.5643660031
31
0.0000000000
11
-35.9587936262
21
-1.5643661474
31
0.0000000000
11
-35.9260769438
21
-4.6929272564
31
0.0000000000
11
-35.8606471550
21
-7.8209752773
31
0.0000000000
11
-35.7625114100
21
-10.9481682232
31
0.0000000000
11
-35.6316804330
21
-14.0741641879
31
0.0000000000
11
-35.4681685237
21
-17.1986213641
31
0.0000000000
11
-35.2719935855
21
-20.3211976496
31
0.0000000000
0
SPLINE
5
27B
100
AcDbEntity
8
0
100
AcDbSpline
62
9
6
CONTINUOUS
70
0
71
3
72
28
73
24
74
22
42
0.0000001000
43
0.0000001000
44
0.0000000001
12
0.0706094752
22
-1.0371430595
32
0.0000000000
13
1.0393854403
23
-0.0181471815
33
0.0000000000
40
0.0000000000
40
0.0000000000
40
0.0000000000
40
0.0000000000
40
0.0476103241
40
0.0952288586
40
0.1428477417
40
0.1904666363
40
0.2380855717
40
0.2857047447
40
0.3333240092
40
0.3809434027
40
0.4285628847
40
0.4761825807
40
0.5238023844
40
0.5714223742
40
0.6190424325
40
0.6666626594
40
0.7142829972
40
0.7619034620
40
0.8095238796
40
0.8571444201
40
0.9047650795
40
0.9523854986
40
1.0000000000
40
1.0000000000
40
1.0000000000
40
1.0000000000
10
-35.2719935855
20
-20.3211976496
30
0.0000000000
10
-35.2708730055
20
-20.3376572220
30
0.0000000000
10
-35.2674663208
20
-20.3705118060
30
0.0000000000
10
-35.2588871134
20
-20.4193013764
30
0.0000000000
10
-35.2468803635
20
-20.4673680865
30
0.0000000000
10
-35.2315066173
20
-20.5144654967
30
0.0000000000
10
-35.2128427624
20
-20.5603589166
30
0.0000000000
10
-35.1909820901
20
-20.6048186143
30
0.0000000000
10
-35.1660338868
20
-20.6476223265
30
0.0000000000
10
-35.1381229189
20
-20.6885559171
30
0.0000000000
10
-35.1073887245
20
-20.7274147022
30
0.0000000000
10
-35.0739849853
20
-20.7640043212
30
0.0000000000
10
-35.0380787077
20
-20.7981417890
30
0.0000000000
10
-34.9998494766
20
-20.8296563229
30
0.0000000000
10
-34.9594884467
20
-20.8583903061
30
0.0000000000
10
-34.9171974756
20
-20.8841999981
30
0.0000000000
10
-34.8731880312
20
-20.9069563057
30
0.0000000000
10
-34.8276802864
20
-20.9265453663
30
0.0000000000
10
-34.7809017633
20
-20.9428691958
30
0.0000000000
10
-34.7330866465
20
-20.9558461565
30
0.0000000000
10
-34.6844732553
20
-20.9654112803
30
0.0000000000
10
-34.6353100567
20
-20.9715165564
30
0.0000000000
10
-34.6023232629
20
-20.9732601043
30
0.0000000000
10
-34.5858266564
20
-20.9735481273
30
0.0000000000
11
-35.2719935855
21
-20.3211976496
31
0.0000000000
11
-35.2668885621
21
-20.3704266831
31
0.0000000000
11
-35.2583159680
21
-20.4191802938
31
0.0000000000
11
-35.2463192044
21
-20.4672065103
31
0.0000000000
11
-35.2309582769
21
-20.5142648028
31
0.0000000000
11
-35.2123100020
21
-20.5601198683
31
0.0000000000
11
-35.1904675289
21
-20.6045425653
31
0.0000000000
11
-35.1655401261
21
-20.6473105867
31
0.0000000000
11
-35.1376524142
21
-20.6882100715
31
0.0000000000
11
-35.1069438638
21
-20.7270364333
31
0.0000000000
11
-35.0735679422
21
-20.7635955817
31
0.0000000000
11
-35.0376916127
21
-20.7977045767
31
0.0000000000
11
-34.9994942150
21
-20.8291928684
31
0.0000000000
11
-34.9591668554
21
-20.8579028810
31
0.0000000000
11
-34.9169111173
21
-20.8836910703
31
0.0000000000
11
-34.8729383641
21
-20.9064284074
31
0.0000000000
11
-34.8274684857
21
-20.9260011628
31
0.0000000000
11
-34.7807290492
21
-20.9423113687
31
0.0000000000
11
-34.7329536408
21
-20.9552775069
31
0.0000000000
11
-34.6843811921
21
-20.9648346952
31
0.0000000000
11
-34.6352549980
21
-20.9709351008
31
0.0000000000
11
-34.5858266564
21
-20.9735481273
31
0.0000000000
0
SPLINE
5
27C
100
AcDbEntity
8
0
100
AcDbSpline
62
9
6
CONTINUOUS
70
0
71
3
72
25
73
21
74
19
42
0.0000001000
43
0.0000001000
44
0.0000000001
12
-0.0139619563
22
-0.8001236969
32
0.0000000000
13
0.8001236317
23
-0.0139661855
33
0.0000000000
40
0.0000000000
40
0.0000000000
40
0.0000000000
40
0.0000000000
40
0.0871110158
40
0.1735572083
40
0.2586811324
40
0.3418354123
40
0.4223876725
40
0.4997253562
40
0.5732603957
40
0.6424337003
40
0.7067194305
40
0.7656290310
40
0.8187150001
40
0.8655743867
40
0.9058520297
40
0.9392436234
40
0.9654989068
40
0.9844261647
40
0.9959047730
40
1.0000000000
40
1.0000000000
40
1.0000000000
40
1.0000000000
10
-34.5858266564
20
-20.9735481273
30
0.0000000000
10
-34.5862320698
20
-20.9967813233
30
0.0000000000
10
-34.5870046774
20
-21.0430710226
30
0.0000000000
10
-34.5880507136
20
-21.1120659243
30
0.0000000000
10
-34.5889744549
20
-21.1800070247
30
0.0000000000
10
-34.5897689246
20
-21.2463774555
30
0.0000000000
10
-34.5904281516
20
-21.3106722905
30
0.0000000000
10
-34.5909472406
20
-21.3724024309
30
0.0000000000
10
-34.5913223624
20
-21.4310981653
30
0.0000000000
10
-34.5915510054
20
-21.4863133054
30
0.0000000000
10
-34.5916313370
20
-21.5376266804
30
0.0000000000
10
-34.5915645730
20
-21.5846516875
30
0.0000000000
10
-34.5913475644
20
-21.6270185655
30
0.0000000000
10
-34.5909968660
20
-21.6644429757
30
0.0000000000
10
-34.5904755305
20
-21.6965257196
30
0.0000000000
10
-34.5899116506
20
-21.7233549977
30
0.0000000000
10
-34.5889912172
20
-21.7438291456
30
0.0000000000
10
-34.5885412110
20
-21.7600044477
30
0.0000000000
10
-34.5869665444
20
-21.7672354148
30
0.0000000000
10
-34.5869188857
20
-21.7734072185
30
0.0000000000
10
-34.5858266564
20
-21.7734262834
30
0.0000000000
11
-34.5858266564
21
-20.9735481273
31
0.0000000000
11
-34.5869898037
21
-21.0432486217
31
0.0000000000
11
-34.5880378848
21
-21.1124188588
31
0.0000000000
11
-34.5889629260
21
-21.1805326154
31
0.0000000000
11
-34.5897578901
21
-21.2470717055
31
0.0000000000
11
-34.5904167292
21
-21.3115299228
31
0.0000000000
11
-34.5909344311
21
-21.3734168913
31
0.0000000000
11
-34.5913070574
21
-21.4322617964
31
0.0000000000
11
-34.5915317731
21
-21.4876169664
31
0.0000000000
11
-34.5916068688
21
-21.5390612783
31
0.0000000000
11
-34.5915317731
21
-21.5862033615
31
0.0000000000
11
-34.5913070574
21
-21.6286845754
31
0.0000000000
11
-34.5909344311
21
-21.6661817376
31
0.0000000000
11
-34.5904167292
21
-21.6984095825
31
0.0000000000
11
-34.5897578901
21
-21.7251229320
31
0.0000000000
11
-34.5889629260
21
-21.7461185599
31
0.0000000000
11
-34.5880378847
21
-21.7612367390
31
0.0000000000
11
-34.5869898037
21
-21.7703624553
31
0.0000000000
11
-34.5858266564
21
-21.7734262834
31
0.0000000000
0
SPLINE
5
27D
100
AcDbEntity
8
0
100
AcDbSpline
62
7
6
CONTINUOUS
70
0
71
3
72
26
73
22
74
20
42
0.0000001000
43
0.0000001000
44
0.0000000001
12
0.0000000000
22
-1.2561051148
32
0.0000000000
13
-1.2561051147
23
0.0000000000
33
0.0000000000
40
0.0000000000
40
0.0000000000
40
0.0000000000
40
0.0000000000
40
0.0525433977
40
0.1052619171
40
0.1579537660
40
0.2104691993
40
0.2630825541
40
0.3158194650
40
0.3684931638
40
0.4209854985
40
0.4736299366
40
0.5263657599
40
0.5790092527
40
0.6315016187
40
0.6841764472
40
0.7369131777
40
0.7895255701
40
0.8420413369
40
0.8947352403
40
0.9474549596
40
1.0000000000
40
1.0000000000
40
1.0000000000
40
1.0000000000
10
11.1000000000
20
-21.0501218439
30
0.0000000000
10
11.1000000000
20
-21.0721218541
30
0.0000000000
10
11.0981801928
20
-21.1162167994
30
0.0000000000
10
11.0899969462
20
-21.1819166309
30
0.0000000000
10
11.0764115657
20
-21.2467079906
30
0.0000000000
10
11.0575381577
20
-21.3101130715
30
0.0000000000
10
11.0334928187
20
-21.3717638585
30
0.0000000000
10
11.0044049284
20
-21.4312761839
30
0.0000000000
10
10.9705209095
20
-21.4881352924
30
0.0000000000
10
10.9320836666
20
-21.5419725514
30
0.0000000000
10
10.8893190712
20
-21.5924758039
30
0.0000000000
10
10.8424800691
20
-21.6393151229
30
0.0000000000
10
10.7919774323
20
-21.6820798478
30
0.0000000000
10
10.7381404160
20
-21.7205175862
30
0.0000000000
10
10.6812811991
20
-21.7544022333
30
0.0000000000
10
10.6217690701
20
-21.7834905116
30
0.0000000000
10
10.5601187815
20
-21.8075361865
30
0.0000000000
10
10.4967132773
20
-21.8264102699
30
0.0000000000
10
10.4319205218
20
-21.8399963544
30
0.0000000000
10
10.3662186795
20
-21.8481800866
30
0.0000000000
10
10.3221225419
20
-21.8500000000
30
0.0000000000
10
10.3001218439
20
-21.8500000000
30
0.0000000000
11
11.1000000000
21
-21.0501218439
31
0.0000000000
11
11.0972778435
21
-21.1160657134
31
0.0000000000
11
11.0890934289
21
-21.1817779956
31
0.0000000000
11
11.0755106353
21
-21.2465557745
31
0.0000000000
11
11.0566913202
21
-21.3097792038
31
0.0000000000
11
11.0326771838
21
-21.3713497515
31
0.0000000000
11
11.0035881774
21
-21.4308642748
31
0.0000000000
11
10.9697174797
21
-21.4877009828
31
0.0000000000
11
10.9314048483
21
-21.5413636693
31
0.0000000000
11
10.8886725495
21
-21.5918287454
31
0.0000000000
11
10.8418327262
21
-21.6386688857
31
0.0000000000
11
10.7913688770
21
-21.6814007960
31
0.0000000000
11
10.7377064738
21
-21.7197138916
31
0.0000000000
11
10.6808687945
21
-21.7535857314
31
0.0000000000
11
10.6213546657
21
-21.7826750292
31
0.0000000000
11
10.5597854235
21
-21.8066891859
31
0.0000000000
11
10.4965617425
21
-21.8255091237
31
0.0000000000
11
10.4317815205
21
-21.8390928409
31
0.0000000000
11
10.3660677715
21
-21.8472776733
31
0.0000000000
11
10.3001218439
21
-21.8500000000
31
0.0000000000
0
SPLINE
5
27E
100
AcDbEntity
8
0
100
AcDbSpline
62
7
6
CONTINUOUS
70
0
71
3
72
26
73
22
74
20
42
0.0000001000
43
0.0000001000
44
0.0000000001
12
1.2561051147
22
0.0000000000
32
0.0000000000
13
0.0000000000
23
-1.2561051148
33
0.0000000000
40
0.0000000000
40
0.0000000000
40
0.0000000000
40
0.0000000000
40
0.0525450404
40
0.1052647597
40
0.1579586631
40
0.2104744299
40
0.2630868223
40
0.3158235528
40
0.3684983813
40
0.4209907473
40
0.4736342401
40
0.5263700634
40
0.5790145015
40
0.6315068362
40
0.6841805350
40
0.7369174459
40
0.7895308007
40
0.8420462340
40
0.8947380829
40
0.9474566023
40
1.0000000000
40
1.0000000000
40
1.0000000000
40
1.0000000000
10
10.3001218439
20
21.8500000000
30
0.0000000000
10
10.3221225419
20
21.8500000000
30
0.0000000000
10
10.3662186795
20
21.8481800866
30
0.0000000000
10
10.4319205218
20
21.8399963544
30
0.0000000000
10
10.4967132773
20
21.8264102699
30
0.0000000000
10
10.5601187815
20
21.8075361865
30
0.0000000000
10
10.6217690701
20
21.7834905116
30
0.0000000000
10
10.6812811991
20
21.7544022333
30
0.0000000000
10
10.7381404160
20
21.7205175862
30
0.0000000000
10
10.7919774323
20
21.6820798478
30
0.0000000000
10
10.8424800691
20
21.6393151229
30
0.0000000000
10
10.8893190712
20
21.5924758039
30
0.0000000000
10
10.9320836666
20
21.5419725514
30
0.0000000000
10
10.9705209095
20
21.4881352924
30
0.0000000000
10
11.0044049284
20
21.4312761839
30
0.0000000000
10
11.0334928187
20
21.3717638585
30
0.0000000000
10
11.0575381577
20
21.3101130715
30
0.0000000000
10
11.0764115657
20
21.2467079906
30
0.0000000000
10
11.0899969462
20
21.1819166309
30
0.0000000000
10
11.0981801928
20
21.1162167994
30
0.0000000000
10
11.1000000000
20
21.0721218541
30
0.0000000000
10
11.1000000000
20
21.0501218439
30
0.0000000000
11
10.3001218439
21
21.8500000000
31
0.0000000000
11
10.3660677715
21
21.8472776733
31
0.0000000000
11
10.4317815205
21
21.8390928409
31
0.0000000000
11
10.4965617425
21
21.8255091237
31
0.0000000000
11
10.5597854235
21
21.8066891859
31
0.0000000000
11
10.6213546657
21
21.7826750292
31
0.0000000000
11
10.6808687945
21
21.7535857314
31
0.0000000000
11
10.7377064738
21
21.7197138916
31
0.0000000000
11
10.7913688770
21
21.6814007960
31
0.0000000000
11
10.8418327262
21
21.6386688857
31
0.0000000000
11
10.8886725495
21
21.5918287454
31
0.0000000000
11
10.9314048483
21
21.5413636693
31
0.0000000000
11
10.9697174797
21
21.4877009828
31
0.0000000000
11
11.0035881774
21
21.4308642748
31
0.0000000000
11
11.0326771838
21
21.3713497515
31
0.0000000000
11
11.0566913202
21
21.3097792038
31
0.0000000000
11
11.0755106353
21
21.2465557745
31
0.0000000000
11
11.0890934289
21
21.1817779956
31
0.0000000000
11
11.0972778435
21
21.1160657134
31
0.0000000000
11
11.1000000000
21
21.0501218439
31
0.0000000000
0
SPLINE
5
27F
100
AcDbEntity
8
0
100
AcDbSpline
62
7
6
CONTINUOUS
70
0
71
3
72
26
73
22
74
20
42
0.0000001000
43
0.0000001000
44
0.0000000001
12
-1.2561051147
22
0.0000000000
32
0.0000000000
13
-0.0000000000
23
1.2561051148
33
0.0000000000
40
0.0000000000
40
0.0000000000
40
0.0000000000
40
0.0000000000
40
0.0525450404
40
0.1052647597
40
0.1579586631
40
0.2104744299
40
0.2630868223
40
0.3158235528
40
0.3684983813
40
0.4209907473
40
0.4736342401
40
0.5263700634
40
0.5790145015
40
0.6315068362
40
0.6841805350
40
0.7369174459
40
0.7895308007
40
0.8420462340
40
0.8947380829
40
0.9474566023
40
1.0000000000
40
1.0000000000
40
1.0000000000
40
1.0000000000
10
-10.3001218439
20
-21.8500000000
30
0.0000000000
10
-10.3221225419
20
-21.8500000000
30
0.0000000000
10
-10.3662186795
20
-21.8481800866
30
0.0000000000
10
-10.4319205218
20
-21.8399963544
30
0.0000000000
10
-10.4967132773
20
-21.8264102699
30
0.0000000000
10
-10.5601187815
20
-21.8075361865
30
0.0000000000
10
-10.6217690701
20
-21.7834905116
30
0.0000000000
10
-10.6812811991
20
-21.7544022333
30
0.0000000000
10
-10.7381404160
20
-21.7205175862
30
0.0000000000
10
-10.7919774323
20
-21.6820798478
30
0.0000000000
10
-10.8424800691
20
-21.6393151229
30
0.0000000000
10
-10.8893190712
20
-21.5924758039
30
0.0000000000
10
-10.9320836666
20
-21.5419725514
30
0.0000000000
10
-10.9705209095
20
-21.4881352924
30
0.0000000000
10
-11.0044049284
20
-21.4312761839
30
0.0000000000
10
-11.0334928187
20
-21.3717638585
30
0.0000000000
10
-11.0575381577
20
-21.3101130715
30
0.0000000000
10
-11.0764115657
20
-21.2467079906
30
0.0000000000
10
-11.0899969462
20
-21.1819166309
30
0.0000000000
10
-11.0981801928
20
-21.1162167994
30
0.0000000000
10
-11.1000000000
20
-21.0721218541
30
0.0000000000
10
-11.1000000000
20
-21.0501218439
30
0.0000000000
11
-10.3001218439
21
-21.8500000000
31
0.0000000000
11
-10.3660677715
21
-21.8472776733
31
0.0000000000
11
-10.4317815205
21
-21.8390928409
31
0.0000000000
11
-10.4965617425
21
-21.8255091237
31
0.0000000000
11
-10.5597854235
21
-21.8066891859
31
0.0000000000
11
-10.6213546657
21
-21.7826750292
31
0.0000000000
11
-10.6808687945
21
-21.7535857314
31
0.0000000000
11
-10.7377064738
21
-21.7197138916
31
0.0000000000
11
-10.7913688770
21
-21.6814007960
31
0.0000000000
11
-10.8418327262
21
-21.6386688857
31
0.0000000000
11
-10.8886725495
21
-21.5918287454
31
0.0000000000
11
-10.9314048483
21
-21.5413636693
31
0.0000000000
11
-10.9697174797
21
-21.4877009828
31
0.0000000000
11
-11.0035881774
21
-21.4308642748
31
0.0000000000
11
-11.0326771838
21
-21.3713497515
31
0.0000000000
11
-11.0566913202
21
-21.3097792038
31
0.0000000000
11
-11.0755106353
21
-21.2465557745
31
0.0000000000
11
-11.0890934289
21
-21.1817779956
31
0.0000000000
11
-11.0972778435
21
-21.1160657134
31
0.0000000000
11
-11.1000000000
21
-21.0501218439
31
0.0000000000
0
SPLINE
5
280
100
AcDbEntity
8
0
100
AcDbSpline
62
7
6
CONTINUOUS
70
0
71
3
72
26
73
22
74
20
42
0.0000001000
43
0.0000001000
44
0.0000000001
12
0.0000000000
22
1.2561051148
32
0.0000000000
13
1.2561051147
23
-0.0000000000
33
0.0000000000
40
0.0000000000
40
0.0000000000
40
0.0000000000
40
0.0000000000
40
0.0525433977
40
0.1052619171
40
0.1579537660
40
0.2104691993
40
0.2630825541
40
0.3158194650
40
0.3684931638
40
0.4209854985
40
0.4736299366
40
0.5263657599
40
0.5790092527
40
0.6315016187
40
0.6841764472
40
0.7369131777
40
0.7895255701
40
0.8420413369
40
0.8947352403
40
0.9474549596
40
1.0000000000
40
1.0000000000
40
1.0000000000
40
1.0000000000
10
-11.1000000000
20
21.0501218439
30
0.0000000000
10
-11.1000000000
20
21.0721218541
30
0.0000000000
10
-11.0981801928
20
21.1162167994
30
0.0000000000
10
-11.0899969462
20
21.1819166309
30
0.0000000000
10
-11.0764115657
20
21.2467079906
30
0.0000000000
10
-11.0575381577
20
21.3101130715
30
0.0000000000
10
-11.0334928187
20
21.3717638585
30
0.0000000000
10
-11.0044049284
20
21.4312761839
30
0.0000000000
10
-10.9705209095
20
21.4881352924
30
0.0000000000
10
-10.9320836666
20
21.5419725514
30
0.0000000000
10
-10.8893190712
20
21.5924758039
30
0.0000000000
10
-10.8424800691
20
21.6393151229
30
0.0000000000
10
-10.7919774323
20
21.6820798478
30
0.0000000000
10
-10.7381404160
20
21.7205175862
30
0.0000000000
10
-10.6812811991
20
21.7544022333
30
0.0000000000
10
-10.6217690701
20
21.7834905116
30
0.0000000000
10
-10.5601187815
20
21.8075361865
30
0.0000000000
10
-10.4967132773
20
21.8264102699
30
0.0000000000
10
-10.4319205218
20
21.8399963544
30
0.0000000000
10
-10.3662186795
20
21.8481800866
30
0.0000000000
10
-10.3221225419
20
21.8500000000
30
0.0000000000
10
-10.3001218439
20
21.8500000000
30
0.0000000000
11
-11.1000000000
21
21.0501218439
31
0.0000000000
11
-11.0972778435
21
21.1160657134
31
0.0000000000
11
-11.0890934289
21
21.1817779956
31
0.0000000000
11
-11.0755106353
21
21.2465557745
31
0.0000000000
11
-11.0566913202
21
21.3097792038
31
0.0000000000
11
-11.0326771838
21
21.3713497515
31
0.0000000000
11
-11.0035881774
21
21.4308642748
31
0.0000000000
11
-10.9697174797
21
21.4877009828
31
0.0000000000
11
-10.9314048483
21
21.5413636693
31
0.0000000000
11
-10.8886725495
21
21.5918287454
31
0.0000000000
11
-10.8418327262
21
21.6386688857
31
0.0000000000
11
-10.7913688770
21
21.6814007960
31
0.0000000000
11
-10.7377064738
21
21.7197138916
31
0.0000000000
11
-10.6808687945
21
21.7535857314
31
0.0000000000
11
-10.6213546657
21
21.7826750292
31
0.0000000000
11
-10.5597854235
21
21.8066891859
31
0.0000000000
11
-10.4965617425
21
21.8255091237
31
0.0000000000
11
-10.4317815205
21
21.8390928409
31
0.0000000000
11
-10.3660677715
21
21.8472776733
31
0.0000000000
11
-10.3001218439
21
21.8500000000
31
0.0000000000
0
ENDSEC
0
SECTION
2
OBJECTS
0
DICTIONARY
5
281
100
AcDbDictionary
3
ACAD_GROUP
350
282
3
ACAD_MLINESTYLE
350
283
0
DICTIONARY
5
282
102
{ACAD_REACTORS
330
281
102
}
100
AcDbDictionary
0
DICTIONARY
5
283
102
{ACAD_REACTORS
330
281
102
}
100
AcDbDictionary
3
STANDARD
350
284
0
MLINESTYLE
5
284
102
{ACAD_REACTORS
330
283
102
}
100
AcDbMlineStyle
2
STANDARD
70
0
3

62
256
51
90.0
52
90.0
71
2
49
0.5
62
256
6
BYLAYER
49
-0.5
62
256
6
BYLAYER
0
ENDSEC
0
EOF
