  0
SECTION
  2
HEADER
  9
$ACADVER
  1
AC1024
  9
$DWGCODEPAGE
  3
ANSI_1252
  9
$EXTMAX
 10
420.0
 20
297.0
 30
0.0
  9
$EXTMIN
 10
0.0
 20
-0.0
 30
0.0
  9
$LIMMIN
 10
0.0
 20
-0.0
  9
$LIMMAX
 10
420.0
 20
297.0
  9
$VIEWCTR
 10
210.0
 20
148.5
  9
$VIEWSIZE
 40
297.0
  9
$CLAYER
  8
0
  9
$LTSCALE
 40
23.1
  9
$CELTYPE
  6
BYLAYER
  9
$DIMSCALE
 40
1.0
  9
$DIMASZ
 40
3.0
  9
$DIMEXO
 40
0.5
  9
$DIMDLI
 40
15.96
  9
$DIMEXE
 40
1.5
  9
$DIMCEN
 40
3.78
  9
$DIMLFAC
 40
1.0
  9
$DIMBLK
  1
_FILLED
  9
$DIMALT
 70
0
  9
$DIMALTF
 40
0.0393700787
  9
$DIMTXT
 40
3.0
  9
$DIMTOL
 70
1
  9
$DIMLIM
 70
0
  9
$DIMTFAC
 40
1.0
  9
$DIMTP
 40
0.01
  9
$DIMTM
 40
0.01
  9
$DIMGAP
 40
0.625
  9
$DIMDSEP
 70
44
  9
$AUNITS
 70
0
  9
$PDMODE
 70
3
  9
$PDSIZE
 40
3.0
  9
$HANDSEED
  5
2AA
  9
$TILEMODE
 70
1
  9
$MEASUREMENT
 70
1
  9
$INSUNITS
 70
4
  0
ENDSEC
  0
SECTION
  2
CLASSES
  0
CLASS
  1
ACDBDICTIONARYWDFLT
  2
AcDbDictionaryWithDefault
  3
AutoCAD 2000
 90
0
 91
1
280
0
281
0
  0
CLASS
  1
ACDBPLACEHOLDER
  2
AcDbPlaceHolder
  3
AutoCAD 2000
 90
0
 91
1
280
0
281
0
  0
CLASS
  1
LAYOUT
  2
AcDbLayout
  3
AutoCAD 2000
 90
0
 91
0
280
0
281
0
  0
ENDSEC
  0
SECTION
  2
TABLES
  0
TABLE
  2
VPORT
  5
8
100
AcDbSymbolTable
 70
2
  0
VPORT
  5
1F4
100
AcDbSymbolTableRecord
100
AcDbViewportTableRecord
  2
*ACTIVE
 70
0
 10
0.0
 20
0.0
 11
1.0
 21
1.0
 12
210.0
 22
148.5
 13
0.0
 23
0.0
 14
1.0
 24
1.0
 15
0.0
 25
0.0
 16
0.0
 26
0.0
 36
1.0
 17
0.0
 27
0.0
 37
0.0
 40
297.0
 41
1.4141414141
 42
50.0
 43
0.0
 44
0.0
 50
0.0
 51
0.0
 71
0
 72
100
 73
1
 74
1
 75
0
 76
0
 77
0
 78
0
  0
ENDTAB
  0
TABLE
  2
LTYPE
  5
5
100
AcDbSymbolTable
 70
6
  0
LTYPE
  5
14
100
AcDbSymbolTableRecord
100
AcDbLinetypeTableRecord
  2
BYBLOCK
 70
0
  3

 72
65
 73
0
 40
0.0
  0
LTYPE
  5
15
100
AcDbSymbolTableRecord
100
AcDbLinetypeTableRecord
  2
BYLAYER
 70
0
  3

 72
65
 73
0
 40
0.0
  0
LTYPE
  5
16
100
AcDbSymbolTableRecord
100
AcDbLinetypeTableRecord
  2
CONTINUOUS
 70
64
  3
Solid line
 72
65
 73
0
 40
0.0
  0
LTYPE
  5
1F5
100
AcDbSymbolTableRecord
100
AcDbLinetypeTableRecord
  2
CENTER
 70
64
  3
____ _ ____ _ ____ _ ____ _ ____ _ ____ _ ____
 72
65
 73
4
 40
0.6
 49
0.375
 74
0
 49
-0.075
 74
0
 49
0.075
 74
0
 49
-0.075
 74
0
  0
LTYPE
  5
1F6
100
AcDbSymbolTableRecord
100
AcDbLinetypeTableRecord
  2
HIDDEN
 70
64
  3
- - - - - - - - - - - - - - - - - - - -
 72
65
 73
2
 40
0.2
 49
0.1
 74
0
 49
-0.1
 74
0
  0
LTYPE
  5
1F7
100
AcDbSymbolTableRecord
100
AcDbLinetypeTableRecord
  2
PHANTOM
 70
64
  3
_____ _ _ _____ _ _ _____ _ _ _____
 72
65
 73
6
 40
0.8
 49
0.45
 74
0
 49
-0.05
 74
0
 49
0.1
 74
0
 49
-0.05
 74
0
 49
0.1
 74
0
 49
-0.05
 74
0
  0
LTYPE
  5
1F8
100
AcDbSymbolTableRecord
100
AcDbLinetypeTableRecord
  2
DOT
 70
64
  3
. . . . . . . . . . . . . . . . . . . .
 72
65
 73
2
 40
0.2
 49
0.1
 74
0
 49
-0.1
 74
0
  0
LTYPE
  5
1F9
100
AcDbSymbolTableRecord
100
AcDbLinetypeTableRecord
  2
DASHED
 70
64
  3
- - - - - - - - - - - - - - - - - - - -
 72
65
 73
2
 40
0.2
 49
0.1
 74
0
 49
-0.1
 74
0
  0
ENDTAB
  0
TABLE
  2
LAYER
  5
2
100
AcDbSymbolTable
 70
36
  0
LAYER
  5
10
100
AcDbSymbolTableRecord
100
AcDbLayerTableRecord
  2
0
 70
0
 62
7
  6
CONTINUOUS
370
-3
390
F
  0
LAYER
  5
1FA
100
AcDbSymbolTableRecord
100
AcDbLayerTableRecord
  2
DEFAULT_1
 70
0
 62
7
  6
CENTER
370
-3
390
F
  0
LAYER
  5
1FB
100
AcDbSymbolTableRecord
100
AcDbLayerTableRecord
  2
DEFAULT_2
 70
0
 62
7
  6
HIDDEN
370
-3
390
F
  0
LAYER
  5
1FC
100
AcDbSymbolTableRecord
100
AcDbLayerTableRecord
  2
DEFAULT_3
 70
0
 62
7
  6
PHANTOM
370
-3
390
F
  0
LAYER
  5
1FD
100
AcDbSymbolTableRecord
100
AcDbLayerTableRecord
  2
ASSI
 70
0
 62
7
  6
CONTINUOUS
370
-3
390
F
  0
LAYER
  5
1FE
100
AcDbSymbolTableRecord
100
AcDbLayerTableRecord
  2
COLOR5
 70
0
 62
7
  6
CONTINUOUS
370
-3
390
F
  0
LAYER
  5
1FF
100
AcDbSymbolTableRecord
100
AcDbLayerTableRecord
  2
COORDINATE
 70
0
 62
7
  6
CONTINUOUS
370
-3
390
F
  0
LAYER
  5
200
100
AcDbSymbolTableRecord
100
AcDbLayerTableRecord
  2
COORD_ORIGINE
 70
0
 62
7
  6
CONTINUOUS
370
-3
390
F
  0
LAYER
  5
201
100
AcDbSymbolTableRecord
100
AcDbLayerTableRecord
  2
COSMETICHE
 70
0
 62
7
  6
CONTINUOUS
370
-3
390
F
  0
LAYER
  5
202
100
AcDbSymbolTableRecord
100
AcDbLayerTableRecord
  2
CURVE
 70
0
 62
7
  6
CONTINUOUS
370
-3
390
F
  0
LAYER
  5
203
100
AcDbSymbolTableRecord
100
AcDbLayerTableRecord
  2
DRAFT
 70
0
 62
7
  6
CONTINUOUS
370
-3
390
F
  0
LAYER
  5
204
100
AcDbSymbolTableRecord
100
AcDbLayerTableRecord
  2
IMPORT_FEATURES
 70
0
 62
7
  6
CONTINUOUS
370
-3
390
F
  0
LAYER
  5
205
100
AcDbSymbolTableRecord
100
AcDbLayerTableRecord
  2
INTF_1
 70
0
 62
7
  6
CONTINUOUS
370
-3
390
F
  0
LAYER
  5
206
100
AcDbSymbolTableRecord
100
AcDbLayerTableRecord
  2
INTF_2
 70
0
 62
7
  6
CONTINUOUS
370
-3
390
F
  0
LAYER
  5
207
100
AcDbSymbolTableRecord
100
AcDbLayerTableRecord
  2
INTF_3
 70
0
 62
7
  6
CONTINUOUS
370
-3
390
F
  0
LAYER
  5
208
100
AcDbSymbolTableRecord
100
AcDbLayerTableRecord
  2
NOTE
 70
0
 62
7
  6
CONTINUOUS
370
-3
390
F
  0
LAYER
  5
209
100
AcDbSymbolTableRecord
100
AcDbLayerTableRecord
  2
PIANI
 70
0
 62
7
  6
CONTINUOUS
370
-3
390
F
  0
LAYER
  5
20A
100
AcDbSymbolTableRecord
100
AcDbLayerTableRecord
  2
PIANI_ORIGINE
 70
0
 62
7
  6
CONTINUOUS
370
-3
390
F
  0
LAYER
  5
20B
100
AcDbSymbolTableRecord
100
AcDbLayerTableRecord
  2
PUNTI
 70
0
 62
7
  6
CONTINUOUS
370
-3
390
F
  0
LAYER
  5
20C
100
AcDbSymbolTableRecord
100
AcDbLayerTableRecord
  2
RACCORDO
 70
0
 62
7
  6
CONTINUOUS
370
-3
390
F
  0
LAYER
  5
20D
100
AcDbSymbolTableRecord
100
AcDbLayerTableRecord
  2
RGB____0____0____0__
 70
0
 62
7
  6
CONTINUOUS
370
-3
390
F
  0
LAYER
  5
20E
100
AcDbSymbolTableRecord
100
AcDbLayerTableRecord
  2
SMUSSO
 70
0
 62
7
  6
CONTINUOUS
370
-3
390
F
  0
LAYER
  5
20F
100
AcDbSymbolTableRecord
100
AcDbLayerTableRecord
  2
SUPERFICI
 70
0
 62
7
  6
CONTINUOUS
370
-3
390
F
  0
LAYER
  5
210
100
AcDbSymbolTableRecord
100
AcDbLayerTableRecord
  2
TRASH
 70
0
 62
7
  6
CONTINUOUS
370
-3
390
F
  0
LAYER
  5
211
100
AcDbSymbolTableRecord
100
AcDbLayerTableRecord
  2
XSEC_DATUMS
 70
0
 62
7
  6
CONTINUOUS
370
-3
390
F
  0
ENDTAB
  0
TABLE
  2
STYLE
  5
3
100
AcDbSymbolTable
 70
1
  0
STYLE
  5
11
100
AcDbSymbolTableRecord
100
AcDbTextStyleTableRecord
  2
STANDARD
 70
0
 40
0.0
 41
0.8
 50
0.0
 71
0
 42
0.2
  3
txt
  4

  0
STYLE
  5
212
100
AcDbSymbolTableRecord
100
AcDbTextStyleTableRecord
  2
TEXTSTYLE_1
 70
0
 40
0.0
 41
0.8
 50
0.0
 71
0
 42
0.2
  3
gdt
  4

  0
ENDTAB
  0
TABLE
  2
VIEW
  5
6
100
AcDbSymbolTable
 70
0
  0
ENDTAB
  0
TABLE
  2
UCS
  5
7
100
AcDbSymbolTable
 70
0
  0
ENDTAB
  0
TABLE
  2
APPID
  5
9
100
AcDbSymbolTable
 70
1
  0
APPID
  5
213
100
AcDbSymbolTableRecord
100
AcDbRegAppTableRecord
  2
ACAD
 70
0
  0
ENDTAB
  0
TABLE
  2
BLOCK_RECORD
  5
1
100
AcDbSymbolTable
 70
0
  0
BLOCK_RECORD
  5
214
100
AcDbSymbolTableRecord
100
AcDbBlockTableRecord
  2
*Model_Space
  0
BLOCK_RECORD
  5
215
100
AcDbSymbolTableRecord
100
AcDbBlockTableRecord
  2
*Paper_Space
  0
BLOCK_RECORD
  5
216
100
AcDbSymbolTableRecord
100
AcDbBlockTableRecord
  2
_FILLED
  0
ENDTAB
  0
TABLE
  2
DIMSTYLE
  5
A
100
AcDbSymbolTable
 70
1
100
AcDbDimStyleTable
 71
0
  0
DIMSTYLE
105
217
100
AcDbSymbolTableRecord
100
AcDbDimStyleTableRecord
  2
STANDARD
 70
0
  3

  4

 40
1.0
 41
3.0
 42
0.5
 43
0.38
 44
1.5
 45
0.0
 46
0.0
 47
0.01
 48
0.01
140
3.0
141
0.09
142
0.0
143
25.4
144
1.0
145
0.0
146
1.0
147
0.625
 71
1.0
 72
0.0
 73
0
 74
0
 75
0
 76
0
 77
1
 78
8
 79
2
170
0
171
1
172
0
173
0
174
0
175
0
176
0
177
0
178
0
270
2
179
2
271
2
272
2
273
2
274
2
275
0
280
0
281
0
282
0
283
1
284
8
285
0
286
0
287
3
288
0
340
11
278
44
341
216
342
216
343
216
344
216
  0
ENDTAB
  0
ENDSEC
  0
SECTION
  2
BLOCKS
  0
BLOCK
  5
20
100
AcDbEntity
  8
0
100
AcDbBlockBegin
  2
*Model_Space
 70
0
 10
0.0
 20
0.0
 30
0.0
  3
*Model_Space
  1

  0
ENDBLK
  5
21
100
AcDbEntity
  8
0
100
AcDbBlockEnd
  0
BLOCK
  5
1C
100
AcDbEntity
  8
0
100
AcDbBlockBegin
  2
*Paper_Space
 70
0
 10
0.0
 20
0.0
 30
0.0
  3
*Paper_Space
  1

  0
ENDBLK
  5
1D
100
AcDbEntity
  8
0
100
AcDbBlockEnd
  0
BLOCK
  5
218
100
AcDbEntity
  8
0
100
AcDbBlockBegin
  2
_FILLED
 70
64
 10
0.0
 20
0.0
  3
_FILLED
  1

  0
SOLID
  5
219
100
AcDbEntity
  8
0
  6
BYBLOCK
 62
0
100
AcDbTrace
 10
0.0
 20
0.0
 11
-1.0
 21
0.3166666667
 12
-1.0
 22
-0.3166666667
 13
-1.0
 23
-0.3166666667
  0
ENDBLK
  5
21A
100
AcDbEntity
  8
0
  6
BYBLOCK
 62
0
100
AcDbBlockEnd
  0
ENDSEC
  0
SECTION
  2
ENTITIES
  0
LWPOLYLINE
  5
21B
100
AcDbEntity
  8
SUPERFICI
100
AcDbPolyline
 62
7
  6
CONTINUOUS
 90
19
 70
0
 10
-4.9060495964
 20
26.3960874411
 10
-5.2101294321
 20
26.2028207598
 10
-5.6520593181
 20
25.89678778
 10
-6.0886960457
 20
25.5642649631
 10
-6.5183046611
 20
25.2066263092
 10
-6.9409565369
 20
24.8238183401
 10
-7.3582487583
 20
24.413977132
 10
-7.7688454368
 20
23.977703353
 10
-8.1719988576
 20
23.5150463276
 10
-8.5696176999
 20
23.0226045539
 10
-8.9600325283
 20
22.5008475408
 10
-9.3422591725
 20
21.9495623294
 10
-9.7183872542
 20
21.3636009468
 10
-10.0850042401
 20
20.7457703197
 10
-10.4420326028
 20
20.0937016855
 10
-10.7952912023
 20
19.39321358
 10
-11.1457093989
 20
18.6397309872
 10
-11.4902041336
 20
17.8392949177
 10
-11.7410544189
 20
17.2187175029
  0
LINE
  5
21C
100
AcDbEntity
  8
0
100
AcDbLine
 62
7
  6
CONTINUOUS
 10
-5.0472630613
 20
26.3048273883
 11
-4.7976351365
 21
26.4598102302
  0
LINE
  5
21D
100
AcDbEntity
  8
0
100
AcDbLine
 62
7
  6
CONTINUOUS
 10
-4.9060495964
 20
26.3960874411
 11
-4.7976351365
 21
26.4598102302
  0
LINE
  5
21E
100
AcDbEntity
  8
0
100
AcDbLine
 62
7
  6
CONTINUOUS
 10
-4.7976351365
 20
26.4598102302
 11
-4.5365238341
 21
26.5926974101
  0
LWPOLYLINE
  5
21F
100
AcDbEntity
  8
0
100
AcDbPolyline
 62
7
  6
CONTINUOUS
 90
25
 70
0
 10
-2.1229937195
 20
26.832433448
 10
-2.01615394
 20
26.8803911736
 10
-1.9029003489
 20
26.9250712941
 10
-1.7836932899
 20
26.9662640591
 10
-1.6589825161
 20
27.0037693931
 10
-1.5293183911
 20
27.0374107095
 10
-1.3953636485
 20
27.0670486585
 10
-1.2576041873
 20
27.0925896673
 10
-1.1167080656
 20
27.1138749696
 10
-0.973671273
 20
27.1307448875
 10
-0.8293929561
 20
27.1431592387
 10
-0.6842290677
 20
27.1511246772
 10
-0.5383735751
 20
27.1545794707
 10
-0.3925610733
 20
27.1535115793
 10
-0.2472835514
 20
27.1479291487
 10
-0.1023794197
 20
27.1377132333
 10
0.0416748949
 20
27.1228117287
 10
0.1840505723
 20
27.1032248791
 10
0.3243306769
 20
27.0788428804
 10
0.4630200394
 20
27.0493992416
 10
0.5981192804
 20
27.0151299674
 10
0.725784048
 20
26.9770282326
 10
0.8447337182
 20
26.9358389701
 10
0.9558457554
 20
26.8916816934
 10
1.0589867958
 20
26.844940163
  0
LINE
  5
220
100
AcDbEntity
  8
0
100
AcDbLine
 62
7
  6
CONTINUOUS
 10
-4.5365238341
 20
26.5926974101
 11
-4.4157143824
 21
26.6451084681
  0
LINE
  5
221
100
AcDbEntity
  8
0
100
AcDbLine
 62
7
  6
CONTINUOUS
 10
-4.5365238341
 20
26.5926974101
 11
-4.2646196166
 21
26.7032042376
  0
LINE
  5
222
100
AcDbEntity
  8
0
100
AcDbLine
 62
7
  6
CONTINUOUS
 10
-4.4157143824
 20
26.6451084681
 11
-4.2646196166
 21
26.7032042376
  0
LWPOLYLINE
  5
223
100
AcDbEntity
  8
0
100
AcDbPolyline
 62
7
  6
CONTINUOUS
 90
3
 70
0
 10
-2.200212858
 20
26.1128410128
 10
-2.3594167289
 20
26.059251687
 10
-2.3855808807
 20
26.0492641556
  0
LWPOLYLINE
  5
224
100
AcDbEntity
  8
0
100
AcDbPolyline
 62
7
  6
CONTINUOUS
 90
8
 70
0
 10
-4.2646196166
 20
26.7032042376
 10
-3.9826313803
 20
26.791026271
 10
-3.6913010521
 20
26.8558881645
 10
-3.3914367623
 20
26.8976591717
 10
-3.083843127
 20
26.9162436106
 10
-2.7693333411
 20
26.9115455159
 10
-2.4487573093
 20
26.8835683377
 10
-2.1229937195
 20
26.832433448
  0
LINE
  5
225
100
AcDbEntity
  8
0
100
AcDbLine
 62
7
  6
CONTINUOUS
 10
-2.0336517475
 20
26.1620381759
 11
-2.200212858
 21
26.1128410128
  0
LWPOLYLINE
  5
226
100
AcDbEntity
  8
SUPERFICI
100
AcDbPolyline
 62
7
  6
CONTINUOUS
 90
16
 70
0
 10
-4.7638412349
 20
-26.713580475
 10
-4.3919665577
 20
-26.8735302175
 10
-3.8528820573
 20
-27.0760011976
 10
-3.3143367534
 20
-27.2440756833
 10
-2.7795253441
 20
-27.3777161202
 10
-2.2468357964
 20
-27.4784555838
 10
-1.7099459923
 20
-27.548072685
 10
-1.1697849982
 20
-27.586591578
 10
-0.6264999506
 20
-27.594150174
 10
-0.0727464235
 20
-27.5702901938
 10
0.4908258383
 20
-27.5139551469
 10
1.063694424
 20
-27.4241035488
 10
1.6531663667
 20
-27.2977010072
 10
2.2610695506
 20
-27.131432691
 10
2.883905328
 20
-26.9232482394
 10
3.3516936996
 20
-26.7416453197
  0
LWPOLYLINE
  5
227
100
AcDbEntity
  8
0
100
AcDbPolyline
 62
7
  6
CONTINUOUS
 90
3
 70
0
 10
-5.0177912446
 20
-26.5865832233
 10
-4.9629397333
 20
-26.6161252358
 10
-4.7638412349
 20
-26.713580475
  0
LWPOLYLINE
  5
228
100
AcDbEntity
  8
0
100
AcDbPolyline
 62
7
  6
CONTINUOUS
 90
25
 70
0
 10
1.0589867958
 20
25.2414431904
 10
0.953987071
 20
25.190122004
 10
0.8412836118
 20
25.1418765822
 10
0.7210982287
 20
25.0970559544
 10
0.5928047027
 20
25.0557220197
 10
0.457597763
 20
25.0185770518
 10
0.3188312251
 20
24.9866458223
 10
0.1783017789
 20
24.9601864763
 10
0.0356962488
 20
24.9389219656
 10
-0.1085237464
 20
24.9227739015
 10
-0.2535573082
 20
24.9117466523
 10
-0.3988961758
 20
24.9057760997
 10
-0.5445639359
 20
24.9047329602
 10
-0.6899603613
 20
24.908602703
 10
-0.834467143
 20
24.9173524931
 10
-0.9780891412
 20
24.9309183627
 10
-1.1205465673
 20
24.9493340996
 10
-1.260875854
 20
24.972538956
 10
-1.398065981
 20
25.0003161484
 10
-1.5314317009
 20
25.0325242092
 10
-1.6605209582
 20
25.0690505732
 10
-1.7847284667
 20
25.109648056
 10
-1.9035205808
 20
25.1541101447
 10
-2.016429731
 20
25.2022789165
 10
-2.1229937195
 20
25.2539499054
  0
LINE
  5
229
100
AcDbEntity
  8
DRAFT
100
AcDbLine
 62
7
  6
CONTINUOUS
 10
0.9529207786
 20
25.845349239
 11
-0.9539104794
 21
24.9286345581
  0
LWPOLYLINE
  5
22A
100
AcDbEntity
  8
0
100
AcDbPolyline
 62
250
  6
CONTINUOUS
 90
9
 70
0
 10
-8.6070658515
 20
-23.6347650845
 10
-8.3351090142
 20
-23.9260091847
 10
-8.0555986241
 20
-24.2032124543
 10
-7.7696303529
 20
-24.4653265633
 10
-7.4783687894
 20
-24.7114073442
 10
-7.1761303398
 20
-24.9455902012
 10
-6.8616313335
 20
-25.1675243215
 10
-6.5382483631
 20
-25.3739542955
 10
-6.2072615326
 20
-25.563486899
  0
LWPOLYLINE
  5
22B
100
AcDbEntity
  8
SUPERFICI
100
AcDbPolyline
 62
250
  6
CONTINUOUS
 90
16
 70
0
 10
-0.6465912264
 20
-21.8193010941
 10
-0.1635331258
 20
-22.0405196613
 10
0.3113785774
 20
-22.2337230903
 10
0.776313997
 20
-22.3978233525
 10
1.2280251911
 20
-22.5315847447
 10
1.6678039008
 20
-22.635997513
 10
2.1013280289
 20
-22.7132159982
 10
2.5296609441
 20
-22.7638525338
 10
2.9530477165
 20
-22.7884253507
 10
3.3757927805
 20
-22.7876164706
 10
3.7988704255
 20
-22.7616314721
 10
4.222280074
 20
-22.7107081867
 10
4.6488240806
 20
-22.6346169153
 10
5.0797913117
 20
-22.5329998184
 10
5.5149398602
 20
-22.4058231687
 10
5.9548119759
 20
-22.2529417702
  0
LINE
  5
22C
100
AcDbEntity
  8
0
100
AcDbLine
 62
250
  6
CONTINUOUS
 10
-8.7995122668
 20
-23.4151301348
 11
-8.6070658515
 21
-23.6347650845
  0
LWPOLYLINE
  5
22D
100
AcDbEntity
  8
SUPERFICI
100
AcDbPolyline
 62
7
  6
CONTINUOUS
 90
13
 70
0
 10
-8.8006486342
 20
-23.4137987446
 10
-8.7028209687
 20
-23.5274461333
 10
-8.3799412976
 20
-23.8889159914
 10
-8.0495802873
 20
-24.2377162902
 10
-7.712347437
 20
-24.5727373561
 10
-7.3690434898
 20
-24.893096606
 10
-7.0204982536
 20
-25.1979606793
 10
-6.6673135623
 20
-25.4867215778
 10
-6.3103463725
 20
-25.7586329627
 10
-5.9506911882
 20
-26.0130975773
 10
-5.589081561
 20
-26.249929894
 10
-5.2259338781
 20
-26.4691571357
 10
-5.0177912446
 20
-26.5865832233
  0
LINE
  5
22E
100
AcDbEntity
  8
0
100
AcDbLine
 62
7
  6
CONTINUOUS
 10
-8.8006486342
 20
-23.4137987446
 11
-8.7995122668
 21
-23.4151301348
  0
LWPOLYLINE
  5
22F
100
AcDbEntity
  8
0
100
AcDbPolyline
 62
7
  6
CONTINUOUS
 90
6
 70
0
 10
-6.2072615326
 20
-25.563486899
 10
-5.9889849323
 20
-25.8204261562
 10
-5.7547883888
 20
-26.0547897829
 10
-5.5053499295
 20
-26.2659200821
 10
-5.2410937273
 20
-26.4533225753
 10
-5.0177912446
 20
-26.5865832233
  0
LWPOLYLINE
  5
230
100
AcDbEntity
  8
0
100
AcDbPolyline
 62
250
  6
CONTINUOUS
 90
13
 70
0
 10
-11.7162097144
 20
17.2809566778
 10
-11.5334752488
 20
17.6967132812
 10
-11.334737932
 20
18.0814567734
 10
-11.1223856208
 20
18.4334148806
 10
-10.8983089841
 20
18.7522320021
 10
-10.6639980979
 20
19.0384528463
 10
-10.4215876127
 20
19.2918800424
 10
-10.1737146982
 20
19.5123587917
 10
-9.9213988529
 20
19.7016142744
 10
-9.6642268211
 20
19.8618908626
 10
-9.4045446384
 20
19.9933767867
 10
-9.1431687874
 20
20.0974031762
 10
-8.8767602845
 20
20.1765647623
  0
LWPOLYLINE
  5
231
100
AcDbEntity
  8
0
100
AcDbPolyline
 62
7
  6
CONTINUOUS
 90
6
 70
0
 10
-2.6189580008
 20
25.833144014
 10
-2.5441742003
 20
25.9161284274
 10
-2.45695225
 20
25.9953484774
 10
-2.3577725999
 20
26.0702712111
 10
-2.2461547999
 20
26.1414295813
 10
-2.12209885
 20
26.2088235881
  0
LWPOLYLINE
  5
232
100
AcDbEntity
  8
RACCORDO
100
AcDbPolyline
 62
250
  6
CONTINUOUS
 90
11
 70
0
 10
-14.5207456371
 20
-12.0009989271
 10
-14.5790995378
 20
-11.9697902497
 10
-14.631836468
 20
-11.9373417201
 10
-14.6785639284
 20
-11.9038948354
 10
-14.7189341447
 20
-11.8696985232
 10
-14.7526466555
 20
-11.8350072894
 10
-14.7794505487
 20
-11.8000793245
 10
-14.7991463307
 20
-11.76517458
 10
-14.8115874096
 20
-11.7305528355
 10
-14.8166811867
 20
-11.6964717658
 10
-14.815483003
 20
-11.6700930418
  0
LWPOLYLINE
  5
233
100
AcDbEntity
  8
0
100
AcDbPolyline
 62
7
  6
CONTINUOUS
 90
7
 70
0
 10
-6.6851589971
 20
-24.8167944542
 10
-6.6131571113
 20
-24.9504860756
 10
-6.5380401835
 20
-25.0805639578
 10
-6.4598499607
 20
-25.2069652376
 10
-6.3786286545
 20
-25.3296276426
 10
-6.2944184554
 20
-25.4484889325
 10
-6.2072615326
 20
-25.563486899
  0
LWPOLYLINE
  5
234
100
AcDbEntity
  8
0
100
AcDbPolyline
 62
7
  6
CONTINUOUS
 90
17
 70
0
 10
-10.7327602222
 20
-18.5711063455
 10
-10.5695293298
 20
-18.9093130358
 10
-10.3845637748
 20
-19.2621597486
 10
-10.1937057239
 20
-19.5971366605
 10
-9.9998642253
 20
-19.9105480409
 10
-9.8052304541
 20
-20.2008388149
 10
-9.6086536059
 20
-20.4712323078
 10
-9.4084795021
 20
-20.7251364477
 10
-9.2068674083
 20
-20.960978903
 10
-9.0036085965
 20
-21.1801178609
 10
-8.7927970855
 20
-21.3890880742
 10
-8.5746545911
 20
-21.5870412356
 10
-8.3519769803
 20
-21.7713383943
 10
-8.1211908384
 20
-21.9445068151
 10
-7.8806129123
 20
-22.1070358759
 10
-7.6315944304
 20
-22.2572811649
 10
-7.3735434014
 20
-22.3949916314
  0
LWPOLYLINE
  5
235
100
AcDbEntity
  8
SUPERFICI
100
AcDbPolyline
 62
7
  6
CONTINUOUS
 90
13
 70
0
 10
-12.4290185046
 20
15.0464283499
 10
-12.6324213944
 20
14.1652387381
 10
-12.8533264007
 20
13.0665422292
 10
-13.0485651562
 20
11.9121449534
 10
-13.2168155714
 20
10.7020547711
 10
-13.3582642075
 20
9.4379240346
 10
-13.4728579835
 20
8.1220569675
 10
-13.5615824431
 20
6.7538691923
 10
-13.6260863728
 20
5.3348356674
 10
-13.6684052746
 20
3.8705216679
 10
-13.6918514321
 20
2.3629144606
 10
-13.702885093
 20
0.8114311949
 10
-13.71075854
 20
-0.6320541867
  0
LWPOLYLINE
  5
236
100
AcDbEntity
  8
SUPERFICI
100
AcDbPolyline
 62
7
  6
CONTINUOUS
 90
9
 70
0
 10
-11.7405025814
 20
17.2201167729
 10
-11.8232169432
 20
17.0059706103
 10
-11.9249061958
 20
16.7296006069
 10
-12.024658273
 20
16.4424572806
 10
-12.1219695195
 20
16.144512724
 10
-12.2163643345
 20
15.83567976
 10
-12.3073540399
 20
15.5159561905
 10
-12.3944435781
 20
15.1854513571
 10
-12.4293741081
 20
15.0449742306
  0
LINE
  5
237
100
AcDbEntity
  8
0
100
AcDbLine
 62
7
  6
CONTINUOUS
 10
-11.7410544189
 20
17.2187175029
 11
-11.7405025814
 21
17.2201167729
  0
LINE
  5
238
100
AcDbEntity
  8
0
100
AcDbLine
 62
250
  6
CONTINUOUS
 10
-11.7405025814
 20
17.2201167729
 11
-11.7162097144
 21
17.2809566778
  0
LWPOLYLINE
  5
239
100
AcDbEntity
  8
RACCORDO
100
AcDbPolyline
 62
250
  6
CONTINUOUS
 90
20
 70
0
 10
-9.339760041
 20
-18.5319093605
 10
-9.2227267557
 20
-18.4987056794
 10
-9.0300979036
 20
-18.4305324439
 10
-8.842683844
 20
-18.3469327815
 10
-8.6610555425
 20
-18.2481615379
 10
-8.4857642258
 20
-18.1345188614
 10
-8.3173423811
 20
-18.0063503677
 10
-8.1563035604
 20
-17.8640477471
 10
-8.0031400336
 20
-17.7080481255
 10
-7.8583122545
 20
-17.5388227198
 10
-7.7222514449
 20
-17.3568748106
 10
-7.5953651142
 20
-17.1627444797
 10
-7.4780474589
 20
-16.9570296244
 10
-7.3706666143
 20
-16.7403769094
 10
-7.2735546884
 20
-16.513466514
 10
-7.186994752
 20
-16.2769710109
 10
-7.1112365417
 20
-16.03157124
 10
-7.046509981
 20
-15.7779966279
 10
-6.993018898
 20
-15.5170277546
 10
-6.9509288584
 20
-15.249455483
  0
LINE
  5
23A
100
AcDbEntity
  8
DRAFT
100
AcDbLine
 62
7
  6
CONTINUOUS
 10
-9.3397600405
 20
-18.5319093603
 11
-4.3319963978
 21
-17.2391022647
  0
LWPOLYLINE
  5
23B
100
AcDbEntity
  8
RACCORDO
100
AcDbPolyline
 62
7
  6
CONTINUOUS
 90
40
 70
0
 10
-9.3397600377
 20
-18.5319093596
 10
-9.542182911
 20
-18.5769644697
 10
-9.7489532052
 20
-18.6085721361
 10
-9.9594492073
 20
-18.6263696684
 10
-10.172884801
 20
-18.6300524594
 10
-10.3887360893
 20
-18.6193881916
 10
-10.6067844468
 20
-18.5941190601
 10
-10.8267471728
 20
-18.5539372122
 10
-11.0476006307
 20
-18.4986941119
 10
-11.2680868532
 20
-18.428471086
 10
-11.487494963
 20
-18.3433337272
 10
-11.7053368192
 20
-18.2433052323
 10
-11.9207800073
 20
-18.1286096538
 10
-12.1334664085
 20
-17.9992728531
 10
-12.3426505934
 20
-17.8555661607
 10
-12.5470147836
 20
-17.6983120437
 10
-12.7461738259
 20
-17.5277891526
 10
-12.9395600347
 20
-17.3444418992
 10
-13.1257376626
 20
-17.1497195664
 10
-13.3040635125
 20
-16.9445518845
 10
-13.474499387
 20
-16.7292182794
 10
-13.6366209284
 20
-16.5044346713
 10
-13.790158212
 20
-16.2707364362
 10
-13.9347360085
 20
-16.0288308677
 10
-14.0698179909
 20
-15.7797971864
 10
-14.1950834673
 20
-15.5244688284
 10
-14.3103729538
 20
-15.2633921747
 10
-14.4154458849
 20
-14.997291641
 10
-14.5100860915
 20
-14.7268754263
 10
-14.5940988846
 20
-14.4528303983
 10
-14.6672949003
 20
-14.1758681302
 10
-14.7295131322
 20
-13.8966350847
 10
-14.7805790211
 20
-13.6158877482
 10
-14.8203254888
 20
-13.3345021212
 10
-14.8486308094
 20
-13.0533012262
 10
-14.8654159463
 20
-12.7728573558
 10
-14.8705937795
 20
-12.4936475341
 10
-14.8640586427
 20
-12.2162830819
 10
-14.8457152516
 20
-11.9415303214
 10
-14.815483003
 20
-11.670093042
  0
LWPOLYLINE
  5
23C
100
AcDbEntity
  8
RACCORDO
100
AcDbPolyline
 62
250
  6
CONTINUOUS
 90
19
 70
0
 10
-8.3421389524
 20
-15.0903022694
 10
-8.2786022321
 20
-15.1200388933
 10
-8.2103556782
 20
-15.1480820825
 10
-8.1379072174
 20
-15.174223125
 10
-8.061796049
 20
-15.1982674656
 10
-7.982588632
 20
-15.2200361535
 10
-7.9008744697
 20
-15.2393671749
 10
-7.8172617214
 20
-15.2561166582
 10
-7.7323726772
 20
-15.270159945
 10
-7.6468391255
 20
-15.2813925177
 10
-7.5612976519
 20
-15.2897307777
 10
-7.4763849008
 20
-15.2951126673
 10
-7.3927328373
 20
-15.2974981316
 10
-7.3109640439
 20
-15.2968694169
 10
-7.2316870866
 20
-15.2932312022
 10
-7.1554919862
 20
-15.2866105651
 10
-7.0829458263
 20
-15.2770567799
 10
-7.0145885334
 20
-15.2646409508
 10
-6.9509288584
 20
-15.249455483
  0
LWPOLYLINE
  5
23D
100
AcDbEntity
  8
SUPERFICI
100
AcDbPolyline
 62
7
  6
CONTINUOUS
 90
15
 70
0
 10
-11.8432685335
 20
-18.1698744689
 10
-11.713007132
 20
-18.5193460549
 10
-11.5128403105
 20
-19.0117930126
 10
-11.3047105299
 20
-19.4840867175
 10
-11.0913465099
 20
-19.9330579176
 10
-10.8711026346
 20
-20.3646688727
 10
-10.6450484099
 20
-20.7785835151
 10
-10.414519674
 20
-21.1742942249
 10
-10.1768887946
 20
-21.557765267
 10
-9.9329352144
 20
-21.9286658958
 10
-9.6835010921
 20
-22.2867259544
 10
-9.4248701462
 20
-22.6378475901
 10
-9.1558474068
 20
-22.9837113919
 10
-8.8785677866
 20
-23.3218550525
 10
-8.7995122668
 20
-23.4151301348
  0
LINE
  5
23E
100
AcDbEntity
  8
0
100
AcDbLine
 62
250
  6
CONTINUOUS
 10
-13.7077396709
 20
-0.7046858052
 11
-13.7107541769
 21
-0.6430502437
  0
LWPOLYLINE
  5
23F
100
AcDbEntity
  8
SUPERFICI
100
AcDbPolyline
 62
7
  6
CONTINUOUS
 90
3
 70
0
 10
-13.7107541769
 20
-0.6430502437
 10
-13.7011096749
 20
-2.4163918011
 10
-13.692766456
 20
-3.3104878552
  0
LINE
  5
240
100
AcDbEntity
  8
0
100
AcDbLine
 62
7
  6
CONTINUOUS
 10
-13.7107541769
 20
-0.6430502437
 11
-13.71075854
 21
-0.6320541867
  0
LWPOLYLINE
  5
241
100
AcDbEntity
  8
0
100
AcDbPolyline
 62
7
  6
CONTINUOUS
 90
10
 70
0
 10
-12.8178436891
 20
3.2040762337
 10
-12.8145844905
 20
3.4119350848
 10
-12.7782571662
 20
4.6122833371
 10
-12.7230876563
 20
5.7580513957
 10
-12.6485227228
 20
6.8493947258
 10
-12.5543511664
 20
7.8875364406
 10
-12.437900674
 20
8.8780617266
 10
-12.2971008766
 20
9.8241694978
 10
-12.1326788911
 20
10.7175121522
 10
-11.9481142674
 20
11.5364105883
  0
LWPOLYLINE
  5
242
100
AcDbEntity
  8
DRAFT
100
AcDbPolyline
 62
7
  6
CONTINUOUS
 90
15
 70
0
 10
-12.136546427
 20
7.8972639947
 10
-12.1307260048
 20
7.9714788897
 10
-12.0872567365
 20
8.2905557595
 10
-12.0262206208
 20
8.5984395449
 10
-11.9476866477
 20
8.8938996899
 10
-11.8520163695
 20
9.175649836
 10
-11.7398637423
 20
9.4423554672
 10
-11.6116110947
 20
9.6929091074
 10
-11.4677372654
 20
9.9262729541
 10
-11.3091404889
 20
10.1413180055
 10
-11.1363695161
 20
10.3371882043
 10
-10.9501183012
 20
10.5130277998
 10
-10.7516072193
 20
10.6678503408
 10
-10.5416833396
 20
10.8010059123
 10
-10.3775459176
 20
10.8862105622
  0
LWPOLYLINE
  5
243
100
AcDbEntity
  8
RACCORDO
100
AcDbPolyline
 62
250
  6
CONTINUOUS
 90
58
 70
0
 10
-14.5207456371
 20
-12.0009989271
 10
-14.5456276343
 20
-12.2242998249
 10
-14.5610147677
 20
-12.4502830218
 10
-14.5669070373
 20
-12.6789485179
 10
-14.5632681889
 20
-12.9110190276
 10
-14.5501344766
 20
-13.1457718364
 10
-14.5276146631
 20
-13.3810388008
 10
-14.4956190935
 20
-13.6168193062
 10
-14.4542374228
 20
-13.8531139672
 10
-14.4038473785
 20
-14.0877564843
 10
-14.344368999
 20
-14.3207191208
 10
-14.2758822461
 20
-14.5520296134
 10
-14.1990047323
 20
-14.7796048724
 10
-14.1136589739
 20
-15.0034169267
 10
-14.0199224546
 20
-15.2234937474
 10
-13.9186452386
 20
-15.4378361574
 10
-13.8097584898
 20
-15.6463914591
 10
-13.6933310444
 20
-15.8492123502
 10
-13.5704194742
 20
-16.044457747
 10
-13.4409643803
 20
-16.2320586223
 10
-13.3050251616
 20
-16.4120840032
 10
-13.1638365881
 20
-16.5828998885
 10
-13.0173532965
 20
-16.7444203472
 10
-12.8656206501
 20
-16.8967313103
 10
-12.7100095072
 20
-17.0384565685
 10
-12.550481611
 20
-17.16950261
 10
-12.3870752185
 20
-17.2899629467
 10
-12.2212759586
 20
-17.3987419045
 10
-12.0530644819
 20
-17.4957315771
 10
-11.882460138
 20
-17.5810398707
 10
-11.7110066047
 20
-17.6538948306
 10
-11.5386936045
 20
-17.7141840029
 10
-11.3655314149
 20
-17.7620198414
 10
-11.193094546
 20
-17.796967753
 10
-11.0213928848
 20
-17.8189101261
 10
-10.8504165443
 20
-17.8279645722
 10
-10.6817103742
 20
-17.8240493334
 10
-10.5152923864
 20
-17.8070467545
 10
-10.3511445689
 20
-17.7770744907
 10
-10.190757735
 20
-17.7344037492
 10
-10.0341664761
 20
-17.6789185166
 10
-9.8813362008
 20
-17.6107348065
 10
-9.7336539475
 20
-17.5304718665
 10
-9.5911666388
 20
-17.4380191728
 10
-9.4538273521
 20
-17.3334872493
 10
-9.3228823581
 20
-17.217826916
 10
-9.1983923209
 20
-17.0909410346
 10
-9.0802965764
 20
-16.9529267433
 10
-8.9696594029
 20
-16.8050262774
 10
-8.8665436602
 20
-16.6471405265
 10
-8.7708864884
 20
-16.4793686009
 10
-8.6835635868
 20
-16.3032500662
 10
-8.6046541991
 20
-16.1187068858
 10
-8.5340790814
 20
-15.9258170963
 10
-8.4724762012
 20
-15.7263543724
 10
-8.4200582142
 20
-15.5209099391
 10
-8.3766124646
 20
-15.3088925714
 10
-8.3421389524
 20
-15.0903022694
  0
LINE
  5
244
100
AcDbEntity
  8
RACCORDO
100
AcDbLine
 62
7
  6
CONTINUOUS
 10
-12.2860542406
 20
7.163713102
 11
-14.815483003
 21
-11.6700930418
  0
LINE
  5
245
100
AcDbEntity
  8
RACCORDO
100
AcDbLine
 62
250
  6
CONTINUOUS
 10
-11.9913168753
 20
6.832807212
 11
-14.5207456371
 21
-12.0009989271
  0
LWPOLYLINE
  5
246
100
AcDbEntity
  8
RACCORDO
100
AcDbPolyline
 62
7
  6
CONTINUOUS
 90
19
 70
0
 10
-12.2860542406
 20
7.163713102
 10
-12.2402027901
 20
7.451079079
 10
-12.1808418211
 20
7.7313052031
 10
-12.1081461466
 20
8.0036695547
 10
-12.0221705875
 20
8.2678277567
 10
-11.9232120375
 20
8.5226730999
 10
-11.8119948738
 20
8.7664758843
 10
-11.6889544098
 20
8.9986129575
 10
-11.5544774741
 20
9.2186143239
 10
-11.4095449638
 20
9.4252336832
 10
-11.2549393012
 20
9.6178657844
 10
-11.0911244848
 20
9.7963960793
 10
-10.9188168981
 20
9.9604429918
 10
-10.7389485403
 20
10.1095478501
 10
-10.5520765674
 20
10.2436635992
 10
-10.3583993943
 20
10.3629311086
 10
-10.1584932392
 20
10.4671704274
 10
-9.9533530041
 20
10.556050597
 10
-9.7438115863
 20
10.6294369543
  0
LINE
  5
247
100
AcDbEntity
  8
SUPERFICI
100
AcDbLine
 62
250
  6
CONTINUOUS
 10
-12.5065073667
 20
14.6501292161
 11
-12.4515844769
 21
14.9495259068
  0
LWPOLYLINE
  5
248
100
AcDbEntity
  8
0
100
AcDbPolyline
 62
7
  6
CONTINUOUS
 90
23
 70
0
 10
-11.9481142674
 20
11.5364105883
 10
-11.8249350991
 20
12.0023012422
 10
-11.6933195893
 20
12.4441832964
 10
-11.554046342
 20
12.858785383
 10
-11.4072193146
 20
13.2456882919
 10
-11.2530026489
 20
13.6052367102
 10
-11.0920122461
 20
13.9367939362
 10
-10.9239139897
 20
14.2414704473
 10
-10.7490829243
 20
14.5188416453
 10
-10.5695293298
 20
14.7667241777
 10
-10.3845637748
 20
14.9867349677
 10
-10.1937057239
 20
15.1796946852
 10
-9.9998642253
 20
15.3441331798
 10
-9.8052304541
 20
15.4803630873
 10
-9.6086536059
 20
15.5908196463
 10
-9.4084795021
 20
15.6776581574
 10
-9.2068674083
 20
15.741238777
 10
-9.0036085965
 20
15.7828811536
 10
-8.7927970855
 20
15.8039198291
 10
-8.5746545911
 20
15.803499119
 10
-8.3519769803
 20
15.7814327044
 10
-8.1211908384
 20
15.7367853425
 10
-7.8806129123
 20
15.6682537073
  0
LWPOLYLINE
  5
249
100
AcDbEntity
  8
0
100
AcDbPolyline
 62
7
  6
CONTINUOUS
 90
16
 70
0
 10
-6.2072615326
 20
19.7916976377
 10
-6.0092426316
 20
20.2245001512
 10
-5.7979425244
 20
20.6519679747
 10
-5.5738651905
 20
21.0730903431
 10
-5.3372918253
 20
21.4872326788
 10
-5.0889368222
 20
21.8929746262
 10
-4.830076576
 20
22.288207395
 10
-4.5618715145
 20
22.6714070083
 10
-4.2846090804
 20
23.0423694245
 10
-3.998349062
 20
23.4010131581
 10
-3.7037186379
 20
23.7464140347
 10
-3.4014018149
 20
24.0776792588
 10
-3.0915037913
 20
24.3947634181
 10
-2.774535111
 20
24.6971210233
 10
-2.4514475663
 20
24.9837721008
 10
-2.1229937195
 20
25.2539499054
  0
LWPOLYLINE
  5
24A
100
AcDbEntity
  8
0
100
AcDbPolyline
 62
7
  6
CONTINUOUS
 90
3
 70
0
 10
-2.6928162175
 20
25.723791162
 10
-2.6798623008
 20
25.7479940957
 10
-2.6189580008
 20
25.833144014
  0
LWPOLYLINE
  5
24B
100
AcDbEntity
  8
DRAFT
100
AcDbPolyline
 62
7
  6
CONTINUOUS
 90
12
 70
0
 10
-10.3775459176
 20
10.8862105622
 10
-10.3211280887
 20
10.9120186315
 10
-10.0911392045
 20
11.0002944338
 10
-9.8525824221
 20
11.0654726366
 10
-9.6064585215
 20
11.107263787
 10
-9.3542236384
 20
11.1253198548
 10
-9.0969331948
 20
11.1195685985
 10
-8.8356328267
 20
11.0900760666
 10
-8.5718233222
 20
11.0369209766
 10
-8.3067547905
 20
10.9603742225
 10
-8.0414113928
 20
10.8608456765
 10
-7.7769184672
 20
10.7388098483
  0
LINE
  5
24C
100
AcDbEntity
  8
DRAFT
100
AcDbLine
 62
7
  6
CONTINUOUS
 10
-9.7438115894
 20
10.6294369533
 11
-8.4986540784
 21
11.0157910896
  0
LINE
  5
24D
100
AcDbEntity
  8
RACCORDO
100
AcDbLine
 62
250
  6
CONTINUOUS
 10
-6.9509288584
 20
-15.249455483
 11
-4.0705167661
 21
-14.4706214733
  0
LWPOLYLINE
  5
24E
100
AcDbEntity
  8
0
100
AcDbPolyline
 62
7
  6
CONTINUOUS
 90
7
 70
0
 10
-6.6851589971
 20
18.5671077283
 10
-6.6131571113
 20
18.7728012357
 10
-6.5380401835
 20
18.9779960456
 10
-6.4598499607
 20
19.1825875482
 10
-6.3786286545
 20
19.3864712594
 10
-6.2944184554
 20
19.5895427484
 10
-6.2072615326
 20
19.7916976377
  0
LWPOLYLINE
  5
24F
100
AcDbEntity
  8
0
100
AcDbPolyline
 62
250
  6
CONTINUOUS
 90
7
 70
0
 10
-13.420101435
 20
-1.2802586496
 10
-13.4946142562
 20
-1.1958118913
 10
-13.5634133395
 20
-1.100981019
 10
-13.6193366764
 20
-1.004085895
 10
-13.6622022157
 20
-0.9054703286
 10
-13.6917680107
 20
-0.8054959715
 10
-13.7077396709
 20
-0.7046858052
  0
LWPOLYLINE
  5
250
100
AcDbEntity
  8
SUPERFICI
100
AcDbPolyline
 62
250
  6
CONTINUOUS
 90
16
 70
0
 10
-3.7829660864
 20
-18.9664796973
 10
-3.6549453373
 20
-19.2333912455
 10
-3.5098362534
 20
-19.4905947844
 10
-3.3490071979
 20
-19.7363950572
 10
-3.1757385385
 20
-19.9671988439
 10
-2.9911629424
 20
-20.1842626711
 10
-2.7923459369
 20
-20.3930417365
 10
-2.5797691494
 20
-20.5934206544
 10
-2.356596361
 20
-20.782693808
 10
-2.1228885025
 20
-20.9620412411
 10
-1.8825576758
 20
-21.1302701755
 10
-1.6383795706
 20
-21.2871004134
 10
-1.3892005613
 20
-21.4344461545
 10
-1.1372245539
 20
-21.5725678966
 10
-0.8881361627
 20
-21.7007268484
 10
-0.6465912264
 20
-21.8193010941
  0
LWPOLYLINE
  5
251
100
AcDbEntity
  8
DRAFT
100
AcDbPolyline
 62
250
  6
CONTINUOUS
 90
10
 70
0
 10
-7.7730654121
 20
-18.1274505886
 10
-7.7374890418
 20
-18.5632114396
 10
-7.696710604
 20
-19.0452956882
 10
-7.6545837114
 20
-19.5265036364
 10
-7.6111086841
 20
-20.0068327128
 10
-7.5662863022
 20
-20.4862751784
 10
-7.5201178786
 20
-20.9648181721
 10
-7.4726042949
 20
-21.442454024
 10
-7.4237459285
 20
-21.9191802097
 10
-7.3735434014
 20
-22.3949916314
  0
LWPOLYLINE
  5
252
100
AcDbEntity
  8
DRAFT
100
AcDbPolyline
 62
250
  6
CONTINUOUS
 90
10
 70
0
 10
-7.7769184672
 20
10.7388098483
 10
-7.7374890418
 20
11.2611946691
 10
-7.696710604
 20
11.7840573556
 10
-7.6545837114
 20
12.3073921963
 10
-7.6111086841
 20
12.8311963001
 10
-7.5662863022
 20
13.3554611475
 10
-7.5201178786
 20
13.8801725647
 10
-7.4726042949
 20
14.4053220004
 10
-7.4237459285
 20
14.9309065525
 10
-7.3735434014
 20
15.4569205013
  0
LWPOLYLINE
  5
253
100
AcDbEntity
  8
0
100
AcDbPolyline
 62
7
  6
CONTINUOUS
 90
10
 70
0
 10
-7.3735434014
 20
15.4569205013
 10
-7.3360205166
 20
15.7950773155
 10
-7.2885540208
 20
16.1362722532
 10
-7.2312091621
 20
16.4800077655
 10
-7.164052726
 20
16.8258007376
 10
-7.0871864325
 20
17.1731300138
 10
-7.0007332535
 20
17.5214394544
 10
-6.9048149742
 20
17.8702041909
 10
-6.7995710167
 20
18.2189304066
 10
-6.6851589971
 20
18.5671077283
  0
LWPOLYLINE
  5
254
100
AcDbEntity
  8
SUPERFICI
100
AcDbPolyline
 62
250
  6
CONTINUOUS
 90
16
 70
0
 10
-3.7829660864
 20
7.453825928
 10
-3.6549453373
 20
7.6095824816
 10
-3.5098362534
 20
7.7615962731
 10
-3.3490071979
 20
7.9111906196
 10
-3.1757385385
 20
8.0579412916
 10
-2.9911629424
 20
8.2039719763
 10
-2.7923459369
 20
8.3544890362
 10
-2.5797691494
 20
8.5114210817
 10
-2.356596361
 20
8.6746564566
 10
-2.1228885025
 20
8.8465412696
 10
-1.8825576758
 20
9.0267978999
 10
-1.6383795706
 20
9.216065318
 10
-1.3892005613
 20
9.418333949
 10
-1.1372245539
 20
9.6346489373
 10
-0.8881361627
 20
9.8627230179
 10
-0.6465912264
 20
10.1012784227
  0
LWPOLYLINE
  5
255
100
AcDbEntity
  8
SUPERFICI
100
AcDbPolyline
 62
250
  6
CONTINUOUS
 90
16
 70
0
 10
-0.6465912264
 20
10.1012784227
 10
-0.1635331258
 20
10.5935377747
 10
0.3113785774
 20
11.0672388355
 10
0.776313997
 20
11.5219568686
 10
1.2280251911
 20
11.9557794416
 10
1.6678039008
 20
12.3699777272
 10
2.1013280289
 20
12.7685849761
 10
2.5296609441
 20
13.1511627363
 10
2.9530477165
 20
13.516659199
 10
3.3757927805
 20
13.8678665686
 10
3.7988704255
 20
14.2047635748
 10
4.222280074
 20
14.5265421485
 10
4.6488240806
 20
14.8344374966
 10
5.0797913117
 20
15.1283111439
 10
5.5149398602
 20
15.4069240572
 10
5.9548119759
 20
15.669595142
  0
LWPOLYLINE
  5
256
100
AcDbEntity
  8
0
100
AcDbPolyline
 62
7
  6
CONTINUOUS
 90
10
 70
0
 10
-7.3735434014
 20
-22.3949916314
 10
-7.3360205166
 20
-22.6956255607
 10
-7.2885540208
 20
-22.9893540026
 10
-7.2312091621
 20
-23.2757446563
 10
-7.164052726
 20
-23.5543811923
 10
-7.0871864325
 20
-23.824844175
 10
-7.0007332535
 20
-24.0867004366
 10
-6.9048149742
 20
-24.3395468937
 10
-6.7995710167
 20
-24.5830291519
 10
-6.6851589971
 20
-24.8167944542
  0
LWPOLYLINE
  5
257
100
AcDbEntity
  8
RACCORDO
100
AcDbPolyline
 62
250
  6
CONTINUOUS
 90
15
 70
0
 10
-5.8127101907
 20
3.7435038697
 10
-5.7878281934
 20
3.9668047675
 10
-5.77244106
 20
4.1927879644
 10
-5.7665487904
 20
4.4214534605
 10
-5.7701876388
 20
4.6535239702
 10
-5.7833213511
 20
4.888276779
 10
-5.8058411646
 20
5.1235437434
 10
-5.8378367342
 20
5.3593242488
 10
-5.879218405
 20
5.5956189098
 10
-5.9296084492
 20
5.8302614269
 10
-5.9890868287
 20
6.0632240634
 10
-6.0575735816
 20
6.2945345561
 10
-6.1344510954
 20
6.522109815
 10
-6.2197968538
 20
6.7459218693
 10
-6.3135333731
 20
6.96599869
  0
LINE
  5
258
100
AcDbEntity
  8
RACCORDO
100
AcDbLine
 62
250
  6
CONTINUOUS
 10
-8.3421389524
 20
-15.0903022694
 11
-5.8127101907
 21
3.7435038697
  0
LWPOLYLINE
  5
259
100
AcDbEntity
  8
0
100
AcDbPolyline
 62
250
  6
CONTINUOUS
 90
22
 70
0
 10
-3.8302028243
 20
-6.1983426054
 10
-3.6832064517
 20
-6.267036863
 10
-3.5271663025
 20
-6.3307025523
 10
-3.3628051427
 20
-6.3890648544
 10
-3.1907749137
 20
-6.4418687954
 10
-3.0118764429
 20
-6.4888100788
 10
-2.827096054
 20
-6.5295709924
 10
-2.6374343093
 20
-6.5639705341
 10
-2.4436440613
 20
-6.5919322025
 10
-2.2464129286
 20
-6.6133649722
 10
-2.0464642144
 20
-6.6281478697
 10
-1.8448438818
 20
-6.6361336998
 10
-1.6427339905
 20
-6.6372756433
 10
-1.441213795
 20
-6.6316367181
 10
-1.2410356843
 20
-6.6192794483
 10
-1.0429074029
 20
-6.6002395977
 10
-0.8475965423
 20
-6.5745334569
 10
-0.6561481354
 20
-6.5422610044
 10
-0.4696361628
 20
-6.503658329
 10
-0.2889472601
 20
-6.458962877
 10
-0.1148055582
 20
-6.4083751203
 10
0.0519886485
 20
-6.3521095482
  0
LINE
  5
25A
100
AcDbEntity
  8
DRAFT
100
AcDbLine
 62
250
  6
CONTINUOUS
 10
-3.8302028243
 20
-6.1983426054
 11
-4.2636350111
 21
-5.9816265121
  0
LWPOLYLINE
  5
25B
100
AcDbEntity
  8
SUPERFICI
100
AcDbPolyline
 62
250
  6
CONTINUOUS
 90
12
 70
0
 10
-11.9481260407
 20
11.5364059051
 10
-12.0592810352
 20
11.8117503306
 10
-12.1644707826
 20
12.0889135377
 10
-12.2606767089
 20
12.3670253751
 10
-12.3447298236
 20
12.6424369341
 10
-12.4157629661
 20
12.9162719881
 10
-12.4740249716
 20
13.1953285536
 10
-12.517471844
 20
13.480272429
 10
-12.5435096227
 20
13.7681130875
 10
-12.5509722428
 20
14.0605831397
 10
-12.538944547
 20
14.3549913355
 10
-12.5065073667
 20
14.6501292161
  0
LWPOLYLINE
  5
25C
100
AcDbEntity
  8
0
100
AcDbPolyline
 62
7
  6
CONTINUOUS
 90
25
 70
0
 10
-3.7829542363
 20
7.4538305728
 10
-3.8353190632
 20
8.0074932242
 10
-3.8965051117
 20
8.5457760576
 10
-3.9665176587
 20
9.0650210414
 10
-4.0456120442
 20
9.5648846567
 10
-4.1338994798
 20
10.0456851257
 10
-4.2311914157
 20
10.5063835211
 10
-4.337877022
 20
10.9484519635
 10
-4.4539171045
 20
11.3712587354
 10
-4.5780611294
 20
11.7709900775
 10
-4.7108970522
 20
12.1499016064
 10
-4.8529142466
 20
12.5092989466
 10
-5.0018871324
 20
12.8451446334
 10
-5.1559479989
 20
13.1557218598
 10
-5.3158849328
 20
13.4444353097
 10
-5.4829505616
 20
13.7148936872
 10
-5.6552123973
 20
13.9654112715
 10
-5.8327089786
 20
14.1974313446
 10
-6.0206405165
 20
14.4178415445
 10
-6.219014388
 20
14.6256790174
 10
-6.4253779612
 20
14.8181331948
 10
-6.6431937439
 20
14.9977867953
 10
-6.8742544399
 20
15.1650744711
 10
-7.1174574539
 20
15.3182274941
 10
-7.3735434014
 20
15.4569205013
  0
LWPOLYLINE
  5
25D
100
AcDbEntity
  8
DRAFT
100
AcDbPolyline
 62
7
  6
CONTINUOUS
 90
15
 70
0
 10
-4.0297434179
 20
-15.3002024959
 10
-4.0218835791
 20
-15.6123114104
 10
-4.0309985431
 20
-15.914211128
 10
-4.0569833448
 20
-16.2045692564
 10
-4.0995540137
 20
-16.4820477493
 10
-4.158563978
 20
-16.7454677385
 10
-4.2340042233
 20
-16.9938171787
 10
-4.3254582788
 20
-17.2259715228
 10
-4.4324814479
 20
-17.4409100394
 10
-4.554922865
 20
-17.6378774111
 10
-4.6921994532
 20
-17.8160004176
 10
-4.8436515842
 20
-17.9744404712
 10
-5.0089092292
 20
-18.1126362937
 10
-5.1871337862
 20
-18.2299422039
 10
-5.2496375407
 20
-18.2645016082
  0
LWPOLYLINE
  5
25E
100
AcDbEntity
  8
0
100
AcDbPolyline
 62
7
  6
CONTINUOUS
 90
13
 70
0
 10
-3.8302028243
 20
-6.1983426054
 10
-3.8168247606
 20
-7.5089742497
 10
-3.7868764251
 20
-8.7888226107
 10
-3.7500986156
 20
-10.0308179171
 10
-3.7118506285
 20
-11.239680373
 10
-3.6771186739
 20
-12.4044989858
 10
-3.6501482546
 20
-13.5091970799
 10
-3.6333615735
 20
-14.5548646027
 10
-3.6285266999
 20
-15.5435031025
 10
-3.6388836162
 20
-16.4809816005
 10
-3.6671792743
 20
-17.3708373019
 10
-3.7149168385
 20
-18.2058377458
 10
-3.7829542363
 20
-18.9664725688
  0
LWPOLYLINE
  5
25F
100
AcDbEntity
  8
DRAFT
100
AcDbPolyline
 62
7
  6
CONTINUOUS
 90
10
 70
0
 10
-4.2636350111
 20
-5.9816265121
 10
-4.259049525
 20
-7.1545968567
 10
-4.2487636223
 20
-8.2919924256
 10
-4.2327773031
 20
-9.3938132186
 10
-4.2106241682
 20
-10.4584838724
 10
-4.1827706167
 20
-11.4875797504
 10
-4.1506158461
 20
-12.4858269427
 10
-4.1146262558
 20
-13.4548008127
 10
-4.0743354464
 20
-14.3929259971
 10
-4.0297434179
 20
-15.3002024959
  0
LWPOLYLINE
  5
260
100
AcDbEntity
  8
0
100
AcDbPolyline
 62
7
  6
CONTINUOUS
 90
13
 70
0
 10
-3.8302028243
 20
-6.1983426054
 10
-3.8168247606
 20
-4.8919814494
 10
-3.7868764251
 20
-3.615537718
 10
-3.7500986156
 20
-2.3677011113
 10
-3.7118506285
 20
-1.1394318462
 10
-3.6771186739
 20
0.0617140909
 10
-3.6501482546
 20
1.2215816949
 10
-3.6333615735
 20
2.3418141512
 10
-3.6285266999
 20
3.4246242074
 10
-3.6388836162
 20
4.4785531978
 10
-3.6671792743
 20
5.5092086966
 10
-3.7149168385
 20
6.5086311259
 10
-3.7829542363
 20
7.4538305728
  0
LWPOLYLINE
  5
261
100
AcDbEntity
  8
DRAFT
100
AcDbPolyline
 62
7
  6
CONTINUOUS
 90
10
 70
0
 10
-4.0297434179
 20
3.5791513066
 10
-4.0745903721
 20
2.6190919668
 10
-4.1150550757
 20
1.6341040634
 10
-4.1511375289
 20
0.6241875964
 10
-4.1832810639
 20
-0.4098124165
 10
-4.2110423485
 20
-1.4687409931
 10
-4.2330913852
 20
-2.5551331856
 10
-4.2489848416
 20
-3.6698340117
 10
-4.2591660503
 20
-4.8119984539
 10
-4.2636350111
 20
-5.9816265121
  0
LWPOLYLINE
  5
262
100
AcDbEntity
  8
0
100
AcDbPolyline
 62
7
  6
CONTINUOUS
 90
13
 70
0
 10
-2.7820034618
 20
26.0296283227
 10
-2.777353798
 20
26.1010309332
 10
-2.7631753161
 20
26.1732886698
 10
-2.7394243845
 20
26.2454697746
 10
-2.7060772664
 20
26.3173091224
 10
-2.6631869838
 20
26.3884299405
 10
-2.610754306
 20
26.4586473197
 10
-2.5483942177
 20
26.5281480885
 10
-2.4765922996
 20
26.5960458856
 10
-2.397214918
 20
26.6606809046
 10
-2.3115990253
 20
26.721471103
 10
-2.2199568398
 20
26.7787521032
 10
-2.1229937195
 20
26.832433448
  0
LWPOLYLINE
  5
263
100
AcDbEntity
  8
RACCORDO
100
AcDbPolyline
 62
250
  6
CONTINUOUS
 90
40
 70
0
 10
-4.4215000967
 20
3.5843506561
 10
-4.3909445781
 20
3.8576869343
 10
-4.3720170585
 20
4.1359352249
 10
-4.3647719769
 20
4.4182491119
 10
-4.3692277527
 20
4.7037556089
 10
-4.3853671169
 20
4.9916013578
 10
-4.4131431189
 20
5.28095625
 10
-4.452477533
 20
5.5709667583
 10
-4.5032512727
 20
5.8607274287
 10
-4.5653053148
 20
6.1493280717
 10
-4.6384455634
 20
6.4358766205
 10
-4.7224517356
 20
6.7195191228
 10
-4.8170735996
 20
6.9994116811
 10
-4.9220273128
 20
7.2747110049
 10
-5.036992563
 20
7.544573567
 10
-5.1616189397
 20
7.8081755377
 10
-5.2955279237
 20
8.0647157645
 10
-5.438313227
 20
8.3134153965
 10
-5.58953987
 20
8.5535166166
 10
-5.7487487037
 20
8.7842905482
 10
-5.9154559578
 20
9.0050360672
 10
-6.0891528925
 20
9.2150800643
 10
-6.2693088726
 20
9.4137822084
 10
-6.4553791056
 20
9.6005429179
 10
-6.646804557
 20
9.7748010599
 10
-6.8430080223
 20
9.9360298203
 10
-7.0433901628
 20
10.0837353557
 10
-7.2473372082
 20
10.2174650677
 10
-7.4542265307
 20
10.3368115274
 10
-7.6634327859
 20
10.4414148197
 10
-7.8743245936
 20
10.5309592556
 10
-8.0862647104
 20
10.605173461
 10
-8.2986063239
 20
10.6638301468
 10
-8.510699012
 20
10.7067498099
 10
-8.7218945503
 20
10.733802514
 10
-8.9315557879
 20
10.7449078898
 10
-9.1390528646
 20
10.7400325874
 10
-9.3437586955
 20
10.7191901944
 10
-9.5450481834
 20
10.6824431937
 10
-9.7438115869
 20
10.6294369541
  0
LINE
  5
264
100
AcDbEntity
  8
RACCORDO
100
AcDbLine
 62
250
  6
CONTINUOUS
 10
-6.9509288584
 20
-15.249455483
 11
-4.4215000967
 21
3.5843506561
  0
LWPOLYLINE
  5
265
100
AcDbEntity
  8
RACCORDO
100
AcDbPolyline
 62
250
  6
CONTINUOUS
 90
44
 70
0
 10
-6.3135333731
 20
6.96599869
 10
-6.4148105891
 20
7.1803411
 10
-6.5236973379
 20
7.3888964017
 10
-6.6401247834
 20
7.5917172928
 10
-6.7630363535
 20
7.7869626897
 10
-6.8924914475
 20
7.9745635649
 10
-7.0284306661
 20
8.1545889458
 10
-7.1696192397
 20
8.3254048311
 10
-7.3161025312
 20
8.4869252899
 10
-7.4678351776
 20
8.6392362529
 10
-7.6234463205
 20
8.7809615111
 10
-7.7829742167
 20
8.9120075527
 10
-7.9463806093
 20
9.0324678894
 10
-8.1121798691
 20
9.1412468472
 10
-8.2803913458
 20
9.2382365197
 10
-8.4509956897
 20
9.3235448133
 10
-8.622449223
 20
9.3963997732
 10
-8.7947622232
 20
9.4566889455
 10
-8.9679244128
 20
9.504524784
 10
-9.1403612817
 20
9.5394726957
 10
-9.3120629429
 20
9.5614150687
 10
-9.4830392834
 20
9.5704695149
 10
-9.6517454535
 20
9.566554276
 10
-9.8181634413
 20
9.5495516971
 10
-9.9823112588
 20
9.5195794333
 10
-10.1426980927
 20
9.4769086918
 10
-10.2992893516
 20
9.4214234593
 10
-10.4521196269
 20
9.3532397491
 10
-10.5998018802
 20
9.2729768091
 10
-10.7422891889
 20
9.1805241154
 10
-10.8796284756
 20
9.0759921919
 10
-11.0105734696
 20
8.9603318587
 10
-11.1350635068
 20
8.8334459772
 10
-11.2531592513
 20
8.695431686
 10
-11.3637964248
 20
8.54753122
 10
-11.4669121675
 20
8.3896454691
 10
-11.5625693393
 20
8.2218735435
 10
-11.6498922409
 20
8.0457550088
 10
-11.7288016286
 20
7.8612118284
 10
-11.7993767463
 20
7.6683220389
 10
-11.8609796265
 20
7.468859315
 10
-11.9133976135
 20
7.2634148817
 10
-11.9568433631
 20
7.051397514
 10
-11.9913168753
 20
6.832807212
  0
LINE
  5
266
100
AcDbEntity
  8
0
100
AcDbLine
 62
7
  6
CONTINUOUS
 10
-2.1229937195
 20
26.832433448
 11
-2.12209885
 21
26.2088235881
  0
LINE
  5
267
100
AcDbEntity
  8
0
100
AcDbLine
 62
7
  6
CONTINUOUS
 10
-2.123888086
 20
26.2079289701
 11
-2.1231123234
 21
26.7618635409
  0
LINE
  5
268
100
AcDbEntity
  8
0
100
AcDbLine
 62
7
  6
CONTINUOUS
 10
-3.7829542363
 20
-18.9664725688
 11
-3.8353190632
 21
-19.396956052
  0
LWPOLYLINE
  5
269
100
AcDbEntity
  8
0
100
AcDbPolyline
 62
7
  6
CONTINUOUS
 90
24
 70
0
 10
-3.8353190632
 20
-19.396956052
 10
-3.8965051117
 20
-19.8036233756
 10
-3.9665176587
 20
-20.183595112
 10
-4.0456120442
 20
-20.5366317
 10
-4.1338994798
 20
-20.8632155033
 10
-4.2311914157
 20
-21.1629234958
 10
-4.337877022
 20
-21.4368936818
 10
-4.4539171045
 20
-21.6848693884
 10
-4.5780611294
 20
-21.905047136
 10
-4.7108970522
 20
-22.0989931099
 10
-4.8529142466
 20
-22.2675323991
 10
-5.0018871324
 20
-22.4095365874
 10
-5.1559479989
 20
-22.5254800425
 10
-5.3158849328
 20
-22.6176166443
 10
-5.4829505616
 20
-22.687900918
 10
-5.6552123973
 20
-22.7368064085
 10
-5.8327089786
 20
-22.7655676698
 10
-6.0206405165
 20
-22.7751663587
 10
-6.219014388
 20
-22.7648613372
 10
-6.4253779612
 20
-22.7346379038
 10
-6.6431937439
 20
-22.6835053624
 10
-6.8742544399
 20
-22.6102151121
 10
-7.1174574539
 20
-22.5143496531
 10
-7.3735434014
 20
-22.3949916314
  0
LWPOLYLINE
  5
26A
100
AcDbEntity
  8
0
100
AcDbPolyline
 62
250
  6
CONTINUOUS
 90
13
 70
0
 10
0.0519886485
 20
-6.3521095482
 10
0.049619145
 20
-4.7427940731
 10
0.0529534312
 20
-3.1861757211
 10
0.0532016889
 20
-1.6772110513
 10
0.0443243111
 20
-0.2128218304
 10
0.0227681061
 20
1.2094412589
 10
-0.0141311767
 20
2.5922733401
 10
-0.068598971
 20
3.9366399282
 10
-0.1422946763
 20
5.2432196145
 10
-0.2362938299
 20
6.5136976309
 10
-0.3519009932
 20
7.7482688423
 10
-0.4891023584
 20
8.9448328943
 10
-0.6465912264
 20
10.1012784227
  0
LINE
  5
26B
100
AcDbEntity
  8
RACCORDO
100
AcDbLine
 62
7
  6
CONTINUOUS
 10
0.9529207786
 20
25.845349239
 11
0.9529207786
 21
25.189665552
  0
LINE
  5
26C
100
AcDbEntity
  8
DRAFT
100
AcDbLine
 62
7
  6
CONTINUOUS
 10
1.2542773833
 20
26.096184095
 11
1.2542773833
 21
25.3489748078
  0
LWPOLYLINE
  5
26D
100
AcDbEntity
  8
0
100
AcDbPolyline
 62
250
  6
CONTINUOUS
 90
13
 70
0
 10
0.0519886485
 20
-6.3521095482
 10
0.049619145
 20
-7.9515203007
 10
0.0529534312
 20
-9.5022097831
 10
0.0532016889
 20
-10.9997205576
 10
0.0443243111
 20
-12.4405563117
 10
0.0227681061
 20
-13.8232284938
 10
-0.0141311767
 20
-15.147505651
 10
-0.068598971
 20
-16.4120208191
 10
-0.1422946763
 20
-17.6158026671
 10
-0.2362938299
 20
-18.7595297412
 10
-0.3519009932
 20
-19.8423550309
 10
-0.4891023584
 20
-20.8624699551
 10
-0.6465912264
 20
-21.8193010941
  0
LWPOLYLINE
  5
26E
100
AcDbEntity
  8
0
100
AcDbPolyline
 62
7
  6
CONTINUOUS
 90
13
 70
0
 10
1.7179965382
 20
26.0296284794
 10
1.7133827287
 20
25.9567391054
 10
1.6992219452
 20
25.8830283385
 10
1.6755017618
 20
25.8100320473
 10
1.6422039081
 20
25.7379898997
 10
1.5994256734
 20
25.6672985088
 10
1.5474262031
 20
25.5984752673
 10
1.4864561596
 20
25.5318699373
 10
1.4167629462
 20
25.4677220341
 10
1.3387662931
 20
25.4063509614
 10
1.2528816535
 20
25.3480269721
 10
1.1594775078
 20
25.2929810568
 10
1.0589867958
 20
25.2414431904
  0
LWPOLYLINE
  5
26F
100
AcDbEntity
  8
RACCORDO
100
AcDbPolyline
 62
250
  6
CONTINUOUS
 90
19
 70
0
 10
-5.8127101907
 20
3.7435038697
 10
-5.7491736038
 20
3.7137673054
 10
-5.6809271817
 20
3.6857241607
 10
-5.6084788442
 20
3.6595831481
 10
-5.5323677843
 20
3.6355388236
 10
-5.4531604566
 20
3.6137701393
 10
-5.3714463624
 20
3.5944391114
 10
-5.2878336576
 20
3.5776896131
 10
-5.2029446307
 20
3.563646305
 10
-5.1174110728
 20
3.5524137074
 10
-5.0318695691
 20
3.5440754208
 10
-4.9469567652
 20
3.5386935052
 10
-4.8633046326
 20
3.5363080176
 10
-4.7815357556
 20
3.5369367134
 10
-4.7022587034
 20
3.5405749151
 10
-4.6260635047
 20
3.5471955459
 10
-4.5535172478
 20
3.5567493323
 10
-4.4851598605
 20
3.5691651705
 10
-4.4215000967
 20
3.5843506559
  0
LWPOLYLINE
  5
270
100
AcDbEntity
  8
RACCORDO
100
AcDbPolyline
 62
250
  6
CONTINUOUS
 90
11
 70
0
 10
-11.9913168753
 20
6.832807212
 10
-12.0496708886
 20
6.864015955
 10
-12.1024078937
 20
6.8964645452
 10
-12.1491353943
 20
6.9299114834
 10
-12.1895056198
 20
6.9641078398
 10
-12.2232181139
 20
6.9987991074
 10
-12.2500219706
 20
7.0337270955
 10
-12.2697177016
 20
7.0686318519
 10
-12.2821587209
 20
7.1032535969
 10
-12.2872524359
 20
7.1373346575
 10
-12.2860542406
 20
7.163713102
  0
LWPOLYLINE
  5
271
100
AcDbEntity
  8
0
100
AcDbPolyline
 62
250
  6
CONTINUOUS
 90
25
 70
0
 10
-0.6465912264
 20
10.1012784227
 10
-0.7483750171
 20
10.7198437428
 10
-0.8698008009
 20
11.3294091886
 10
-1.0095925543
 20
11.9276480977
 10
-1.1666728192
 20
12.5133120664
 10
-1.3395535593
 20
13.083864587
 10
-1.5261319637
 20
13.635288052
 10
-1.7247795007
 20
14.1654672604
 10
-1.9342014376
 20
14.6735545162
 10
-2.1525691107
 20
15.1573707914
 10
-2.3775751724
 20
15.6142890288
 10
-2.6083338159
 20
16.0450817559
 10
-2.8453347494
 20
16.4524448267
 10
-3.0865250494
 20
16.8343669922
 10
-3.3312086707
 20
17.1914231178
 10
-3.5825899137
 20
17.5294795769
 10
-3.8391244161
 20
17.847142222
 10
-4.0999284119
 20
18.143962743
 10
-4.370196991
 20
18.4257869181
 10
-4.6489304065
 20
18.691518455
 10
-4.9350305141
 20
18.9401799637
 10
-5.2342024489
 20
19.1758960781
 10
-5.5478623541
 20
19.398249749
 10
-5.8726562546
 20
19.603974258
 10
-6.2072615326
 20
19.7916976377
  0
LWPOLYLINE
  5
272
100
AcDbEntity
  8
0
100
AcDbPolyline
 62
250
  6
CONTINUOUS
 90
25
 70
0
 10
-0.6465912264
 20
-21.8193010941
 10
-0.7483750171
 20
-22.3118984144
 10
-0.8698008009
 20
-22.7752254995
 10
-1.0095925543
 20
-23.2083855408
 10
-1.1666728192
 20
-23.6113150439
 10
-1.3395535593
 20
-23.9831302477
 10
-1.5261319637
 20
-24.3222014015
 10
-1.7247795007
 20
-24.6283039733
 10
-1.9342014376
 20
-24.9020803428
 10
-2.1525691107
 20
-25.1434861328
 10
-2.3775751724
 20
-25.3525314557
 10
-2.6083338159
 20
-25.5310083374
 10
-2.8453347494
 20
-25.6811993765
 10
-3.0865250494
 20
-25.8034393593
 10
-3.3312086707
 20
-25.8991196339
 10
-3.5825899137
 20
-25.9707675901
 10
-3.8391244161
 20
-26.0187358023
 10
-4.0999284119
 20
-26.0435994859
 10
-4.370196991
 20
-26.0459132709
 10
-4.6489304065
 20
-26.0256765365
 10
-4.9350305141
 20
-25.9830764818
 10
-5.2342024489
 20
-25.9165541466
 10
-5.5478623541
 20
-25.8244088112
 10
-5.8726562546
 20
-25.7067503497
 10
-6.2072615326
 20
-25.563486899
  0
LINE
  5
273
100
AcDbEntity
  8
RACCORDO
100
AcDbLine
 62
250
  6
CONTINUOUS
 10
-4.4215000967
 20
3.5843506561
 11
-4.0270981435
 21
3.6909929159
  0
LWPOLYLINE
  5
274
100
AcDbEntity
  8
0
100
AcDbPolyline
 62
7
  6
CONTINUOUS
 90
7
 70
0
 10
5.9548119759
 20
15.669595142
 10
5.9204848786
 20
16.0983380672
 10
5.8686331754
 20
16.5334210831
 10
5.7994616711
 20
16.9736603269
 10
5.7131218979
 20
17.4181221908
 10
5.6098562858
 20
17.8653569323
 10
5.4900942136
 20
18.3133882958
  0
LWPOLYLINE
  5
275
100
AcDbEntity
  8
0
100
AcDbPolyline
 62
7
  6
CONTINUOUS
 90
10
 70
0
 10
6.5400745051
 20
-3.5843045788
 10
6.532844457
 20
-1.4721231494
 10
6.5111558399
 20
0.6472502607
 10
6.4750109458
 20
2.7736659396
 10
6.4244100304
 20
4.9070494183
 10
6.3593564077
 20
7.0471760597
 10
6.2798615409
 20
9.193668749
 10
6.1859358707
 20
11.3462996157
 10
6.0775837248
 20
13.5049923435
 10
5.9548119759
 20
15.669595142
  0
LWPOLYLINE
  5
276
100
AcDbEntity
  8
0
100
AcDbPolyline
 62
7
  6
CONTINUOUS
 90
10
 70
0
 10
6.5400745051
 20
-3.5843045788
 10
6.532844457
 20
-5.68925596
 10
6.5111558399
 20
-7.7869407531
 10
6.4750109458
 20
-9.8772115378
 10
6.4244100304
 20
-11.959994101
 10
6.3593564077
 20
-14.0350671198
 10
6.2798615409
 20
-16.1020649423
 10
6.1859358707
 20
-18.1607701388
 10
6.0775837248
 20
-20.2111107207
 10
5.9548119759
 20
-22.2529417702
  0
LWPOLYLINE
  5
277
100
AcDbEntity
  8
0
100
AcDbPolyline
 62
250
  6
CONTINUOUS
 90
10
 70
0
 10
12.075684444
 20
-0.3402616505
 10
11.512422253
 20
-0.7216262801
 10
10.9357089227
 20
-1.0980689875
 10
10.3457250445
 20
-1.4694750583
 10
9.7425576636
 20
-1.8357855854
 10
9.1264777993
 20
-2.1968279184
 10
8.4979599519
 20
-2.5523239852
 10
7.8573024446
 20
-2.9021127831
 10
7.2046079178
 20
-3.2461420579
 10
6.5400745051
 20
-3.5843045788
  0
LWPOLYLINE
  5
278
100
AcDbEntity
  8
0
100
AcDbPolyline
 62
250
  6
CONTINUOUS
 90
10
 70
0
 10
0.0519886485
 20
-6.3521095482
 10
0.8147179078
 20
-6.0704784527
 10
1.5676033225
 20
-5.7821217875
 10
2.3104154643
 20
-5.4871298484
 10
3.0430365185
 20
-5.185546158
 10
3.7651211845
 20
-4.8775062258
 10
4.476113318
 20
-4.5632473021
 10
5.1756909139
 20
-4.2429185485
 10
5.8637494634
 20
-3.9165712851
 10
6.5400745051
 20
-3.5843045788
  0
LWPOLYLINE
  5
279
100
AcDbEntity
  8
DRAFT
100
AcDbPolyline
 62
7
  6
CONTINUOUS
 90
34
 70
0
 10
-7.7769184672
 20
10.7388098483
 10
-7.619347215
 20
10.6567974092
 10
-7.461953311
 20
10.5667111007
 10
-7.3049786335
 20
10.4685853396
 10
-7.1484165362
 20
10.3622806201
 10
-6.9927784439
 20
10.248025166
 10
-6.8390751098
 20
10.126533589
 10
-6.6875470951
 20
9.9979757759
 10
-6.5384325719
 20
9.862582349
 10
-6.3926882857
 20
9.7213855959
 10
-6.2510069854
 20
9.5752281034
 10
-6.1130555739
 20
9.4239529448
 10
-5.9782427908
 20
9.2671149445
 10
-5.847547472
 20
9.1059763727
 10
-5.7203514776
 20
8.939826908
 10
-5.5939090534
 20
8.7648454142
 10
-5.4686071762
 20
8.5809717379
 10
-5.3449375605
 20
8.3881894336
 10
-5.2208318546
 20
8.1821537317
 10
-5.0968738196
 20
7.9622224477
 10
-4.9742206848
 20
7.728677795
 10
-4.8522969225
 20
7.4781945947
 10
-4.7317416983
 20
7.2089302167
 10
-4.6148700474
 20
6.9226678765
 10
-4.503878476
 20
6.6216568711
 10
-4.4001275187
 20
6.3056698491
 10
-4.3054931856
 20
5.976213738
 10
-4.2224039987
 20
5.6385930839
 10
-4.1520156495
 20
5.2934005438
 10
-4.0957340581
 20
4.9426075893
 10
-4.0550715561
 20
4.5937802222
 10
-4.0304062701
 20
4.2503353221
 10
-4.021879081
 20
3.9116537028
 10
-4.0297434179
 20
3.5791513066
  0
LINE
  5
27A
100
AcDbEntity
  8
0
100
AcDbLine
 62
7
  6
CONTINUOUS
 10
5.9548119759
 20
-22.2529417702
 11
5.9176475986
 21
-22.6725938744
  0
LINE
  5
27B
100
AcDbEntity
  8
0
100
AcDbLine
 62
7
  6
CONTINUOUS
 10
5.9176475986
 20
-22.6725938744
 11
5.8606300144
 21
-23.0794522532
  0
LWPOLYLINE
  5
27C
100
AcDbEntity
  8
0
100
AcDbPolyline
 62
250
  6
CONTINUOUS
 90
13
 70
0
 10
12.075684444
 20
-0.3402616505
 10
12.0657797214
 20
1.2652862151
 10
12.0598508518
 20
2.8172729892
 10
12.0483969565
 20
4.3203865825
 10
12.0248434897
 20
5.7774377589
 10
11.9852525825
 20
7.1906834971
 10
11.9266976585
 20
8.5626877576
 10
11.8468462385
 20
9.8943625329
 10
11.7440484002
 20
11.1863911528
 10
11.6172974579
 20
12.4404932748
 10
11.4655515363
 20
13.656995107
 10
11.2891024085
 20
14.8339352777
 10
11.089488019
 20
15.9693180454
  0
LWPOLYLINE
  5
27D
100
AcDbEntity
  8
0
100
AcDbPolyline
 62
250
  6
CONTINUOUS
 90
13
 70
0
 10
12.075684444
 20
-0.3402616505
 10
12.0657797214
 20
-1.9434400125
 10
12.0598508518
 20
-3.4987610728
 10
12.0483969565
 20
-5.0021229238
 10
12.0248434897
 20
-6.4502967224
 10
11.9852525825
 20
-7.8419862556
 10
11.9266976585
 20
-9.1770912334
 10
11.8468462385
 20
-10.4542982143
 10
11.7440484002
 20
-11.6726311289
 10
11.6172974579
 20
-12.8327340973
 10
11.4655515363
 20
-13.9336287662
 10
11.2891024085
 20
-14.9733675717
 10
11.089488019
 20
-15.9512614714
  0
LWPOLYLINE
  5
27E
100
AcDbEntity
  8
0
100
AcDbPolyline
 62
7
  6
CONTINUOUS
 90
12
 70
0
 10
5.8606300144
 20
-23.0794522532
 10
5.7840121637
 20
-23.4723380823
 10
5.6879867009
 20
-23.8502830935
 10
5.5728489128
 20
-24.2118615632
 10
5.4391069381
 20
-24.5552908985
 10
5.2872730182
 20
-24.8791667689
 10
5.11767822
 20
-25.182839197
 10
4.9307344844
 20
-25.4658249546
 10
4.726968464
 20
-25.7273603279
 10
4.5070556998
 20
-25.9665133511
 10
4.2716553511
 20
-26.1826028262
 10
4.0214241668
 20
-26.3749960005
  0
LINE
  5
27F
100
AcDbEntity
  8
0
100
AcDbLine
 62
7
  6
CONTINUOUS
 10
-7.8806129123
 20
15.6682537073
 11
-7.6315944304
 21
15.5752959823
  0
LINE
  5
280
100
AcDbEntity
  8
0
100
AcDbLine
 62
7
  6
CONTINUOUS
 10
-7.6315944304
 20
15.5752959823
 11
-7.3735434014
 21
15.4569205013
  0
LWPOLYLINE
  5
281
100
AcDbEntity
  8
0
100
AcDbPolyline
 62
7
  6
CONTINUOUS
 90
15
 70
0
 10
5.4900942136
 20
18.3133882958
 10
5.3542574907
 20
18.7606125154
 10
5.2025622099
 20
19.2062297996
 10
5.0353208625
 20
19.649462673
 10
4.8529955966
 20
20.0892055229
 10
4.6561246747
 20
20.5241617297
 10
4.4451758906
 20
20.9532743826
 10
4.2206736064
 20
21.3754938959
 10
3.9832561376
 20
21.7895677889
 10
3.7336282128
 20
22.1941785556
 10
3.4725169104
 20
22.5881770378
 10
3.2006126929
 20
22.9705880829
 10
2.9186244566
 20
23.3403983526
 10
2.6272941284
 20
23.6965905743
 10
2.3274298386
 20
24.0382258713
  0
LWPOLYLINE
  5
282
100
AcDbEntity
  8
SUPERFICI
100
AcDbPolyline
 62
7
  6
CONTINUOUS
 90
10
 70
0
 10
12.6467490144
 20
0.5462864198
 10
12.6368866541
 20
2.357963667
 10
12.6193393985
 20
4.2080972093
 10
12.5779894218
 20
6.0052839161
 10
12.5034498021
 20
7.7582155925
 10
12.3895893832
 20
9.4650831852
 10
12.2319971834
 20
11.1173358386
 10
12.0275179906
 20
12.7161031194
 10
11.7713623663
 20
14.2689106809
 10
11.483315452
 20
15.6795501188
  0
LINE
  5
283
100
AcDbEntity
  8
0
100
AcDbLine
 62
7
  6
CONTINUOUS
 10
12.6467490144
 20
0.5462864198
 11
12.6467517019
 21
0.5355353666
  0
LINE
  5
284
100
AcDbEntity
  8
0
100
AcDbLine
 62
250
  6
CONTINUOUS
 10
12.6467517019
 20
0.5355353666
 11
12.6460166341
 21
0.507099669
  0
LWPOLYLINE
  5
285
100
AcDbEntity
  8
0
100
AcDbPolyline
 62
250
  6
CONTINUOUS
 90
10
 70
0
 10
12.6460166341
 20
0.507099669
 10
12.6347387838
 20
0.4063395713
 10
12.6100242443
 20
0.3062505159
 10
12.571944543
 20
0.2071863753
 10
12.5205322614
 20
0.109530945
 10
12.4559873564
 20
0.0138067415
 10
12.3787820057
 20
-0.0794492448
 10
12.2893911016
 20
-0.1697936961
 10
12.1882155881
 20
-0.2568645471
 10
12.075684444
 20
-0.3402616505
  0
LWPOLYLINE
  5
286
100
AcDbEntity
  8
SUPERFICI
100
AcDbPolyline
 62
7
  6
CONTINUOUS
 90
13
 70
0
 10
11.3651654221
 20
-15.1423307176
 10
11.5787343088
 20
-14.214146307
 10
11.7965275486
 20
-13.1240017776
 10
11.9891600483
 20
-11.9786709105
 10
12.1553344354
 20
-10.7783670136
 10
12.2952417243
 20
-9.5245198285
 10
12.4088335469
 20
-8.2188198781
 10
12.497010563
 20
-6.8607060961
 10
12.5613334193
 20
-5.4516158899
 10
12.6037585455
 20
-3.9963903096
 10
12.6274565745
 20
-2.496766695
 10
12.6386495807
 20
-0.9523673946
 10
12.6467517019
 20
0.5355353666
  0
LINE
  5
287
100
AcDbEntity
  8
SUPERFICI
100
AcDbLine
 62
7
  6
CONTINUOUS
 10
11.3653903035
 20
-15.1414108107
 11
11.3651654221
 21
-15.1423307176
  0
LWPOLYLINE
  5
288
100
AcDbEntity
  8
0
100
AcDbPolyline
 62
250
  6
CONTINUOUS
 90
4
 70
0
 10
11.089488019
 20
-15.9512614714
 10
10.9635200193
 20
-16.4559508962
 10
10.8172816585
 20
-16.9316842697
 10
10.6770518541
 20
-17.3152376376
  0
LWPOLYLINE
  5
289
100
AcDbEntity
  8
DRAFT
100
AcDbPolyline
 62
7
  6
CONTINUOUS
 90
12
 70
0
 10
-5.2496375407
 20
-18.2645016082
 10
-5.3775353613
 20
-18.3258780852
 10
-5.5797411613
 20
-18.4002623454
 10
-5.792918283
 20
-18.4527507179
 10
-6.0160331146
 20
-18.4830373337
 10
-6.2483559686
 20
-18.491137387
 10
-6.4889165807
 20
-18.477021215
 10
-6.7365841573
 20
-18.4407122873
 10
-6.9903288844
 20
-18.3825248086
 10
-7.2490576446
 20
-18.3028081687
 10
-7.5116292848
 20
-18.201893744
 10
-7.7096780021
 20
-18.1110864589
  0
LINE
  5
28A
100
AcDbEntity
  8
SUPERFICI
100
AcDbLine
 62
7
  6
CONTINUOUS
 10
11.4834050729
 20
15.6791509438
 11
11.483315452
 21
15.6795501188
  0
LWPOLYLINE
  5
28B
100
AcDbEntity
  8
0
100
AcDbPolyline
 62
250
  6
CONTINUOUS
 90
15
 70
0
 10
11.089488019
 20
15.9693180454
 10
10.9635200193
 20
16.575791261
 10
10.8172816585
 20
17.1729504183
 10
10.6522027907
 20
17.7585457702
 10
10.4694683251
 20
18.3313826385
 10
10.2707310083
 20
18.8890068708
 10
10.0583786971
 20
19.4275433824
 10
9.8343020605
 20
19.945008041
 10
9.5999911742
 20
20.4406508221
 10
9.357580689
 20
20.9124456913
 10
9.1097077745
 20
21.3579305023
 10
8.8573919292
 20
21.7779446284
 10
8.6002198974
 20
22.1752221501
 10
8.3405377147
 20
22.5478983743
 10
8.0791618637
 20
22.896608385
  0
LWPOLYLINE
  5
28C
100
AcDbEntity
  8
SUPERFICI
100
AcDbPolyline
 62
250
  6
CONTINUOUS
 90
4
 70
0
 10
11.3651654221
 20
-15.1423307176
 10
11.3093843069
 20
-15.3492634662
 10
11.2094691781
 20
-15.651924178
 10
11.089488019
 20
-15.9512614714
  0
LWPOLYLINE
  5
28D
100
AcDbEntity
  8
SUPERFICI
100
AcDbPolyline
 62
7
  6
CONTINUOUS
 90
10
 70
0
 10
10.6766224655
 20
-17.3163264914
 10
10.6903879137
 20
-17.2813000121
 10
10.785593503
 20
-17.0322534193
 10
10.879724925
 20
-16.7732289288
 10
10.9723282493
 20
-16.5042218678
 10
11.0629638969
 20
-16.2252003752
 10
11.1512105303
 20
-15.9360944512
 10
11.2366376196
 20
-15.6368949581
 10
11.3188094805
 20
-15.327675183
 10
11.3653903035
 20
-15.1414108107
  0
LINE
  5
28E
100
AcDbEntity
  8
0
100
AcDbLine
 62
7
  6
CONTINUOUS
 10
10.6770518541
 20
-17.3152376376
 11
10.6766224655
 21
-17.3163264914
  0
LWPOLYLINE
  5
28F
100
AcDbEntity
  8
SUPERFICI
100
AcDbPolyline
 62
250
  6
CONTINUOUS
 90
16
 70
0
 10
11.089488019
 20
-15.9512614714
 10
10.8184472342
 20
-16.5495294813
 10
10.5379496023
 20
-17.1204375778
 10
10.2473318315
 20
-17.6623144353
 10
9.9472706507
 20
-18.1719620149
 10
9.6374851334
 20
-18.6511568967
 10
9.3160963698
 20
-19.1058318278
 10
8.9841551452
 20
-19.5366054333
 10
8.6432314992
 20
-19.9433334593
 10
8.2912152496
 20
-20.329905236
 10
7.9283332449
 20
-20.6969000624
 10
7.5556313858
 20
-21.0440325308
 10
7.1716447664
 20
-21.3732065724
 10
6.7761540221
 20
-21.6848184632
 10
6.3703644591
 20
-21.9781108692
 10
5.9548119759
 20
-22.2529417702
  0
LWPOLYLINE
  5
290
100
AcDbEntity
  8
0
100
AcDbPolyline
 62
7
  6
CONTINUOUS
 90
3
 70
0
 10
1.6312666306
 20
25.719915957
 10
1.5872782265
 20
25.7905412417
 10
1.5198920874
 20
25.8744613489
  0
LWPOLYLINE
  5
291
100
AcDbEntity
  8
SUPERFICI
100
AcDbPolyline
 62
250
  6
CONTINUOUS
 90
7
 70
0
 10
11.483315452
 20
15.6795501188
 10
11.4749376233
 20
15.7055455494
 10
11.442500443
 20
15.7565053248
 10
11.3875775532
 20
15.8067230062
 10
11.3093843069
 20
15.8579533678
 10
11.2094691781
 20
15.9115256883
 10
11.089488019
 20
15.9693180454
  0
LWPOLYLINE
  5
292
100
AcDbEntity
  8
SUPERFICI
100
AcDbPolyline
 62
7
  6
CONTINUOUS
 90
19
 70
0
 10
11.4834050729
 20
15.6791509438
 10
11.359264912
 20
16.1999536748
 10
11.197444628
 20
16.7986829448
 10
11.0235885853
 20
17.3689885123
 10
10.8421336385
 20
17.9044708036
 10
10.6548193048
 20
18.4078619369
 10
10.4589439295
 20
18.8913464119
 10
10.2548238305
 20
19.3566519171
 10
10.0451040141
 20
19.8003680966
 10
9.8284682536
 20
20.2275440128
 10
9.6059046972
 20
20.6378452949
 10
9.3786667085
 20
21.0307482316
 10
9.1446535595
 20
21.4112903687
 10
8.9046650681
 20
21.7791397183
 10
8.6595455384
 20
22.1340445055
 10
8.4062670498
 20
22.4810602613
 10
8.1439211386
 20
22.8216555297
 10
7.8744678961
 20
23.1537406296
 10
7.7352422213
 20
23.3189071643
  0
LWPOLYLINE
  5
293
100
AcDbEntity
  8
SUPERFICI
100
AcDbPolyline
 62
250
  6
CONTINUOUS
 90
16
 70
0
 10
11.089488019
 20
15.9693180454
 10
10.8184472342
 20
16.0845279547
 10
10.5379496023
 20
16.180524348
 10
10.2473318315
 20
16.2574657859
 10
9.9472706507
 20
16.3154021714
 10
9.6374851334
 20
16.3548183435
 10
9.3160963698
 20
16.3759691465
 10
8.9841551452
 20
16.3784098368
 10
8.6432314992
 20
16.3617510904
 10
8.2912152496
 20
16.3255778032
 10
7.9283332449
 20
16.2694949845
 10
7.5556313858
 20
16.1932178044
 10
7.1716447664
 20
16.0958478394
 10
6.7761540221
 20
15.9764924991
 10
6.3703644591
 20
15.8346363566
 10
5.9548119759
 20
15.669595142
  0
LWPOLYLINE
  5
294
100
AcDbEntity
  8
0
100
AcDbPolyline
 62
7
  6
CONTINUOUS
 90
25
 70
0
 10
1.5198920874
 20
25.8744613489
 10
1.4389895172
 20
25.9553408943
 10
1.3448275628
 20
26.0332377014
 10
1.2392199326
 20
26.1066513544
 10
1.12194474
 20
26.1754949427
 10
0.9932238716
 20
26.2398553769
 10
0.8555366951
 20
26.2984929732
 10
0.708709389
 20
26.3512967883
 10
0.5529157748
 20
26.3983777655
 10
0.391156684
 20
26.4388290506
 10
0.2233164696
 20
26.4725221202
 10
0.0495107785
 20
26.4995854977
 10
-0.1269126164
 20
26.5194978996
 10
-0.3060044621
 20
26.5321206969
 10
-0.4877140118
 20
26.5375925187
 10
-0.668541252
 20
26.535807969
 10
-0.848469078
 20
26.5266263756
 10
-1.0275145945
 20
26.5101884106
 10
-1.2022291014
 20
26.4868106955
 10
-1.3725289379
 20
26.4563585454
 10
-1.5384977649
 20
26.4189666452
 10
-1.6969378649
 20
26.37535567
 10
-1.8467833322
 20
26.325765845
 10
-1.9891000726
 20
26.269956945
 10
-2.123888086
 20
26.2079289701
  0
LWPOLYLINE
  5
295
100
AcDbEntity
  8
0
100
AcDbPolyline
 62
7
  6
CONTINUOUS
 90
5
 70
0
 10
2.3274298386
 20
24.0382258713
 10
2.0198362033
 20
24.3644039454
 10
1.7053264174
 20
24.6742156366
 10
1.3847503856
 20
24.9668144903
 10
1.0589867958
 20
25.2414431904
  0
LWPOLYLINE
  5
296
100
AcDbEntity
  8
0
100
AcDbPolyline
 62
250
  6
CONTINUOUS
 90
10
 70
0
 10
-8.8767602845
 20
20.1765647623
 10
-8.6070658515
 20
20.2311129398
 10
-8.3351090142
 20
20.2615530441
 10
-8.0555986241
 20
20.2684877346
 10
-7.7696303529
 20
20.2518684282
 10
-7.4783687894
 20
20.2118491014
 10
-7.1761303398
 20
20.1468600236
 10
-6.8616313335
 20
20.0551342387
 10
-6.5382483631
 20
19.9367703122
 10
-6.2072615326
 20
19.7916976377
  0
LWPOLYLINE
  5
297
100
AcDbEntity
  8
0
100
AcDbPolyline
 62
7
  6
CONTINUOUS
 90
13
 70
0
 10
-2.1229937195
 20
25.2539499054
 10
-2.2234355474
 20
25.305811086
 10
-2.3167241863
 20
25.3608498937
 10
-2.4024467144
 20
25.4188297636
 10
-2.4802325233
 20
25.4794846711
 10
-2.5497187398
 20
25.5425687726
 10
-2.6105648674
 20
25.6078540043
 10
-2.6625292199
 20
25.6750889717
 10
-2.7053494771
 20
25.7439449324
 10
-2.7387783745
 20
25.8140538523
 10
-2.7626970828
 20
25.8850030988
 10
-2.7771081693
 20
25.9565775502
 10
-2.7820034618
 20
26.0296283227
  0
LWPOLYLINE
  5
298
100
AcDbEntity
  8
SUPERFICI
100
AcDbPolyline
 62
7
  6
CONTINUOUS
 90
13
 70
0
 10
7.7364528357
 20
23.3174888721
 10
7.5723013155
 20
23.5070762031
 10
7.2569500895
 20
23.8562009139
 10
6.9348762385
 20
24.1928788431
 10
6.6066689444
 20
24.5161851091
 10
6.273103802
 20
24.8253379503
 10
5.9350081881
 20
25.1195665702
 10
5.5929514508
 20
25.3983571927
 10
5.2477176937
 20
25.661089503
 10
4.9003493101
 20
25.9072467523
 10
4.5515396365
 20
26.1366992055
 10
4.2016657768
 20
26.3495301781
 10
3.9541667425
 20
26.4898418153
  0
LINE
  5
299
100
AcDbEntity
  8
0
100
AcDbLine
 62
7
  6
CONTINUOUS
 10
7.7364528357
 20
23.3174888721
 11
7.7352422213
 21
23.3189071643
  0
LWPOLYLINE
  5
29A
100
AcDbEntity
  8
0
100
AcDbPolyline
 62
250
  6
CONTINUOUS
 90
3
 70
0
 10
8.0791618637
 20
22.896608385
 10
7.8127533608
 20
23.2271512142
 10
7.7364528357
 20
23.3174888721
  0
LINE
  5
29B
100
AcDbEntity
  8
0
100
AcDbLine
 62
7
  6
CONTINUOUS
 10
4.0214241668
 20
-26.3749960005
 11
3.8423221476
 21
-26.4924474418
  0
LWPOLYLINE
  5
29C
100
AcDbEntity
  8
SUPERFICI
100
AcDbPolyline
 62
7
  6
CONTINUOUS
 90
19
 70
0
 10
3.8423221476
 20
-26.4924474418
 10
4.1890913517
 20
-26.2709144288
 10
4.6252802361
 20
-25.9661524579
 10
5.056169543
 20
-25.6356321493
 10
5.4800526271
 20
-25.2807256903
 10
5.8970398069
 20
-24.9013596275
 10
6.3087823325
 20
-24.4956312526
 10
6.7139713588
 20
-24.0641399628
 10
7.1119071667
 20
-23.6069086686
 10
7.5045878753
 20
-23.1204514166
 10
7.8903898148
 20
-22.6051976757
 10
8.2683489462
 20
-22.060917693
 10
8.6406074417
 20
-21.4824082253
 10
9.0038416174
 20
-20.8723279619
 10
9.3579314651
 20
-20.2283736569
 10
9.7085267752
 20
-19.5366208902
 10
10.0564741133
 20
-18.7925303397
 10
10.3986904039
 20
-18.0019458957
 10
10.6770518541
 20
-17.3152376376
  0
LINE
  5
29D
100
AcDbEntity
  8
0
100
AcDbLine
 62
7
  6
CONTINUOUS
 10
4.0214241668
 20
-26.3749960005
 11
3.7571285866
 21
-26.5429761062
  0
LINE
  5
29E
100
AcDbEntity
  8
0
100
AcDbLine
 62
7
  6
CONTINUOUS
 10
3.8423221476
 20
-26.4924474418
 11
3.7571285866
 21
-26.5429761062
  0
LWPOLYLINE
  5
29F
100
AcDbEntity
  8
0
100
AcDbPolyline
 62
7
  6
CONTINUOUS
 90
13
 70
0
 10
1.0589867958
 20
26.844940163
 10
1.1549673457
 20
26.7921958022
 10
1.2460494432
 20
26.7354438189
 10
1.3314717091
 20
26.6747431326
 10
1.411065629
 20
26.609623876
 10
1.4832846941
 20
26.5407419348
 10
1.5459284478
 20
26.4700748981
 10
1.5984620393
 20
26.3986163193
 10
1.6414185812
 20
26.3260948056
 10
1.6748557779
 20
26.2527501064
 10
1.6987270532
 20
26.1789784086
 10
1.713087369
 20
26.1050236118
 10
1.7179965382
 20
26.0296284794
  0
LINE
  5
2A0
100
AcDbEntity
  8
0
100
AcDbLine
 62
7
  6
CONTINUOUS
 10
3.7571285866
 20
-26.5429761062
 11
3.4797090935
 21
-26.6859345526
  0
LINE
  5
2A1
100
AcDbEntity
  8
0
100
AcDbLine
 62
7
  6
CONTINUOUS
 10
3.4797090935
 20
-26.6859345526
 11
3.3516936996
 21
-26.7416453197
  0
LINE
  5
2A2
100
AcDbEntity
  8
RACCORDO
100
AcDbLine
 62
7
  6
CONTINUOUS
 10
-1.2970247056
 20
25.9720967896
 11
-2.6602697159
 21
25.6721654738
  0
LWPOLYLINE
  5
2A3
100
AcDbEntity
  8
0
100
AcDbPolyline
 62
7
  6
CONTINUOUS
 90
19
 70
0
 10
1.1780708407
 20
26.1425474618
 10
1.1419772876
 20
26.1546090223
 10
0.9726690725
 20
26.2030878605
 10
0.7944405917
 20
26.2461879509
 10
0.6113072185
 20
26.2829884376
 10
0.4255147817
 20
26.3132207797
 10
0.2367066279
 20
26.3371248016
 10
0.0453107453
 20
26.3548777082
 10
-0.1477106099
 20
26.3664297476
 10
-0.3416201846
 20
26.3718198212
 10
-0.5363810221
 20
26.3712797441
 10
-0.7313102372
 20
26.3647650363
 10
-0.9254450938
 20
26.3523029819
 10
-1.1183346994
 20
26.3341593841
 10
-1.3094185124
 20
26.3103420977
 10
-1.4975804441
 20
26.280906695
 10
-1.6815556642
 20
26.2462392349
 10
-1.8604703588
 20
26.2065865979
 10
-2.0336517475
 20
26.1620381759
  0
LWPOLYLINE
  5
2A4
100
AcDbEntity
  8
0
100
AcDbPolyline
 62
7
  6
CONTINUOUS
 90
10
 70
0
 10
3.7000333623
 20
26.616959213
 10
3.4978645908
 20
26.7012750609
 10
3.2206021567
 20
26.794975043
 10
2.9343421383
 20
26.8673587582
 10
2.6397117142
 20
26.9181292107
 10
2.3373948912
 20
26.9470776118
 10
2.0274968676
 20
26.9542637475
 10
1.7105281873
 20
26.9396526725
 10
1.3874406426
 20
26.9032162052
 10
1.0589867958
 20
26.844940163
  0
LWPOLYLINE
  5
2A5
100
AcDbEntity
  8
SUPERFICI
100
AcDbPolyline
 62
7
  6
CONTINUOUS
 90
16
 70
0
 10
3.7000333623
 20
26.616959213
 10
3.2803204633
 20
26.7962863291
 10
2.7493653608
 20
26.9929551922
 10
2.2185874326
 20
27.1563966204
 10
1.6910383722
 20
27.2865172005
 10
1.1651462499
 20
27.3847231185
 10
0.634801259
 20
27.4526523253
 10
0.1007911779
 20
27.4902710038
 10
-0.4366461995
 20
27.4976314223
 10
-0.9842974381
 20
27.4742541511
 10
-1.5416602686
 20
27.4191052767
 10
-2.1081044185
 20
27.3311845776
 10
-2.6900063962
 20
27.207749394
 10
-3.2889155212
 20
27.0458118652
 10
-3.901695222
 20
26.8434820881
 10
-4.4157143824
 20
26.6451084681
  0
LWPOLYLINE
  5
2A6
100
AcDbEntity
  8
0
100
AcDbPolyline
 62
7
  6
CONTINUOUS
 90
3
 70
0
 10
3.9541667425
 20
26.4898418153
 10
3.7660696523
 20
26.5862805091
 10
3.7000333623
 20
26.616959213
  0
ELLIPSE
  5
2A7
100
AcDbEntity
  8
RACCORDO
100
AcDbEllipse
 62
7
  6
CONTINUOUS
 10
-0.5813142952
 20
25.0177971386
 30
0.0
 11
1.4542547816
 21
-0.3677016291
 31
0.0
 40
0.6360950942
 41
0.9870138762
 42
2.2376625021
  0
ENDSEC
  0
SECTION
  2
OBJECTS
  0
DICTIONARY
  5
C
100
AcDbDictionary
280
0
281
1
  3
ACAD_GROUP
350
D
  3
ACAD_MLINESTYLE
350
17
  3
ACAD_LAYOUT
350
1A
  3
ACAD_PLOTSETTINGS
350
19
  3
ACAD_PLOTSTYLENAME
350
E
  0
DICTIONARY
  5
D
102
{ACAD_REACTORS
330
C
102
}
100
AcDbDictionary
280
0
281
1
  0
ACDBDICTIONARYWDFLT
  5
E
102
{ACAD_REACTORS
330
C
102
}
100
AcDbDictionary
281
1
  3
Normal
350
F
100
AcDbDictionaryWithDefault
340
F
  0
DICTIONARY
  5
17
102
{ACAD_REACTORS
330
C
102
}
100
AcDbDictionary
280
0
281
1
  3
Standard
350
18
  0
DICTIONARY
  5
19
102
{ACAD_REACTORS
330
C
102
}
100
AcDbDictionary
281
1
  0
DICTIONARY
  5
1A
102
{ACAD_REACTORS
330
C
102
}
100
AcDbDictionary
281
1
  3
Model
350
2A8
  3
Layout1
350
2A9
  0
ACDBPLACEHOLDER
  5
F
102
{ACAD_REACTORS
330
E
102
}
  0
MLINESTYLE
  5
18
102
{ACAD_REACTORS
330
17
102
}
100
AcDbMlineStyle
  2
STANDARD
 70
0
  3

 62
256
 51
90.0
 52
90.0
 71
2
 49
0.5
 62
256
  6
BYLAYER
 49
-0.5
 62
256
  6
BYLAYER
  0
LAYOUT
  5
2A8
102
{ACAD_REACTORS
330
1A
102
}
100
AcDbPlotSettings
  1

  2
none_device
  4
ISO_A3_(420.00_x_297.00_MM)
  6

 40
0.0
 41
0.0
 42
0.0
 43
0.0
 44
420.0
 45
297.0
 46
0.0
 47
0.0
 48
0.0
 49
0.0
140
0.0
141
0.0
142
1.0
143
1.0
 70
1024
 72
1
 73
0
 74
0
  7

 75
0
147
1.0
148
0.0
149
0.0
100
AcDbLayout
  1
Model
 70
0
 71
0
 10
0.0
 20
0.0
 11
420.0
 21
297.0
 12
0.0
 22
0.0
 32
0.0
 14
0.0
 24
0.0
 34
0.0
 15
0.0
 25
0.0
 35
0.0
146
0.0
 13
0.0
 23
0.0
 33
0.0
 16
1.0
 26
0.0
 36
0.0
 17
0.0
 27
1.0
 37
0.0
 76
0
330
214
345
0
346
0
  0
LAYOUT
  5
2A9
102
{ACAD_REACTORS
330
1A
102
}
100
AcDbPlotSettings
  1

  2
none_device
  4
ISO_A3_(420.00_x_297.00_MM)
  6

 40
0.0
 41
0.0
 42
0.0
 43
0.0
 44
420.0
 45
297.0
 46
0.0
 47
0.0
 48
0.0
 49
0.0
140
0.0
141
0.0
142
1.0
143
1.0
 70
0
 72
1
 73
0
 74
0
  7

 75
0
147
1.0
148
0.0
149
0.0
100
AcDbLayout
  1
Layout1
 70
0
 71
1
 10
0.0
 20
0.0
 11
420.0
 21
297.0
 12
0.0
 22
0.0
 32
0.0
 14
0.0
 24
0.0
 34
0.0
 15
0.0
 25
0.0
 35
0.0
146
0.0
 13
0.0
 23
0.0
 33
0.0
 16
1.0
 26
0.0
 36
0.0
 17
0.0
 27
1.0
 37
0.0
 76
0
330
215
345
0
346
0
  0
ENDSEC
  0
EOF
