  0
SECTION
  2
HEADER
  9
$ACADVER
  1
AC1024
  9
$DWGCODEPAGE
  3
ANSI_1252
  9
$EXTMAX
 10
558.8
 20
431.8
 30
0.0
  9
$EXTMIN
 10
0.0
 20
0.0
 30
0.0
  9
$LIMMIN
 10
0.0
 20
0.0
  9
$LIMMAX
 10
558.8
 20
431.8
  9
$VIEWCTR
 10
279.4
 20
215.9
  9
$VIEWSIZE
 40
431.8
  9
$CLAYER
  8
0
  9
$LTSCALE
 40
30.734
  9
$CELTYPE
  6
BYLAYER
  9
$DIMSCALE
 40
1.0
  9
$DIMASZ
 40
3.0
  9
$DIMEXO
 40
0.5
  9
$DIMDLI
 40
21.2344
  9
$DIMEXE
 40
1.5
  9
$DIMCEN
 40
5.0292
  9
$DIMLFAC
 40
1.0
  9
$DIMBLK
  1
_FILLED
  9
$DIMALT
 70
0
  9
$DIMALTF
 40
0.0393700787
  9
$DIMTXT
 40
3.0
  9
$DIMTOL
 70
1
  9
$DIMLIM
 70
0
  9
$DIMTFAC
 40
1.0
  9
$DIMTP
 40
0.01
  9
$DIMTM
 40
0.01
  9
$DIMGAP
 40
0.625
  9
$DIMDSEP
 70
44
  9
$AUNITS
 70
0
  9
$PDMODE
 70
3
  9
$PDSIZE
 40
3.0
  9
$HANDSEED
  5
74F
  9
$TILEMODE
 70
1
  9
$MEASUREMENT
 70
1
  9
$INSUNITS
 70
4
  0
ENDSEC
  0
SECTION
  2
CLASSES
  0
CLASS
  1
ACDBDICTIONARYWDFLT
  2
AcDbDictionaryWithDefault
  3
AutoCAD 2000
 90
0
 91
1
280
0
281
0
  0
CLASS
  1
ACDBPLACEHOLDER
  2
AcDbPlaceHolder
  3
AutoCAD 2000
 90
0
 91
1
280
0
281
0
  0
CLASS
  1
LAYOUT
  2
AcDbLayout
  3
AutoCAD 2000
 90
0
 91
0
280
0
281
0
  0
ENDSEC
  0
SECTION
  2
TABLES
  0
TABLE
  2
VPORT
  5
8
100
AcDbSymbolTable
 70
2
  0
VPORT
  5
1F4
100
AcDbSymbolTableRecord
100
AcDbViewportTableRecord
  2
*ACTIVE
 70
0
 10
0.0
 20
0.0
 11
1.0
 21
1.0
 12
279.4
 22
215.9
 13
0.0
 23
0.0
 14
1.0
 24
1.0
 15
0.0
 25
0.0
 16
0.0
 26
0.0
 36
1.0
 17
0.0
 27
0.0
 37
0.0
 40
431.8
 41
1.2941176471
 42
50.0
 43
0.0
 44
0.0
 50
0.0
 51
0.0
 71
0
 72
100
 73
1
 74
1
 75
0
 76
0
 77
0
 78
0
  0
ENDTAB
  0
TABLE
  2
LTYPE
  5
5
100
AcDbSymbolTable
 70
6
  0
LTYPE
  5
14
100
AcDbSymbolTableRecord
100
AcDbLinetypeTableRecord
  2
BYBLOCK
 70
0
  3

 72
65
 73
0
 40
0.0
  0
LTYPE
  5
15
100
AcDbSymbolTableRecord
100
AcDbLinetypeTableRecord
  2
BYLAYER
 70
0
  3

 72
65
 73
0
 40
0.0
  0
LTYPE
  5
16
100
AcDbSymbolTableRecord
100
AcDbLinetypeTableRecord
  2
CONTINUOUS
 70
64
  3
Solid line
 72
65
 73
0
 40
0.0
  0
LTYPE
  5
1F5
100
AcDbSymbolTableRecord
100
AcDbLinetypeTableRecord
  2
CENTER
 70
64
  3
____ _ ____ _ ____ _ ____ _ ____ _ ____ _ ____
 72
65
 73
4
 40
0.6
 49
0.375
 74
0
 49
-0.075
 74
0
 49
0.075
 74
0
 49
-0.075
 74
0
  0
LTYPE
  5
1F6
100
AcDbSymbolTableRecord
100
AcDbLinetypeTableRecord
  2
HIDDEN
 70
64
  3
- - - - - - - - - - - - - - - - - - - -
 72
65
 73
2
 40
0.2
 49
0.1
 74
0
 49
-0.1
 74
0
  0
LTYPE
  5
1F7
100
AcDbSymbolTableRecord
100
AcDbLinetypeTableRecord
  2
PHANTOM
 70
64
  3
_____ _ _ _____ _ _ _____ _ _ _____
 72
65
 73
6
 40
0.8
 49
0.45
 74
0
 49
-0.05
 74
0
 49
0.1
 74
0
 49
-0.05
 74
0
 49
0.1
 74
0
 49
-0.05
 74
0
  0
LTYPE
  5
1F8
100
AcDbSymbolTableRecord
100
AcDbLinetypeTableRecord
  2
DOT
 70
64
  3
. . . . . . . . . . . . . . . . . . . .
 72
65
 73
2
 40
0.2
 49
0.1
 74
0
 49
-0.1
 74
0
  0
LTYPE
  5
1F9
100
AcDbSymbolTableRecord
100
AcDbLinetypeTableRecord
  2
DASHED
 70
64
  3
- - - - - - - - - - - - - - - - - - - -
 72
65
 73
2
 40
0.2
 49
0.1
 74
0
 49
-0.1
 74
0
  0
ENDTAB
  0
TABLE
  2
LAYER
  5
2
100
AcDbSymbolTable
 70
36
  0
LAYER
  5
10
100
AcDbSymbolTableRecord
100
AcDbLayerTableRecord
  2
0
 70
0
 62
7
  6
CONTINUOUS
370
-3
390
F
  0
LAYER
  5
1FA
100
AcDbSymbolTableRecord
100
AcDbLayerTableRecord
  2
DEFAULT_1
 70
0
 62
7
  6
CENTER
370
-3
390
F
  0
LAYER
  5
1FB
100
AcDbSymbolTableRecord
100
AcDbLayerTableRecord
  2
DEFAULT_2
 70
0
 62
7
  6
HIDDEN
370
-3
390
F
  0
LAYER
  5
1FC
100
AcDbSymbolTableRecord
100
AcDbLayerTableRecord
  2
DEFAULT_3
 70
0
 62
7
  6
PHANTOM
370
-3
390
F
  0
LAYER
  5
1FD
100
AcDbSymbolTableRecord
100
AcDbLayerTableRecord
  2
ASSI
 70
0
 62
7
  6
CONTINUOUS
370
-3
390
F
  0
LAYER
  5
1FE
100
AcDbSymbolTableRecord
100
AcDbLayerTableRecord
  2
COLOR5
 70
0
 62
7
  6
CONTINUOUS
370
-3
390
F
  0
LAYER
  5
1FF
100
AcDbSymbolTableRecord
100
AcDbLayerTableRecord
  2
COORDINATE
 70
0
 62
7
  6
CONTINUOUS
370
-3
390
F
  0
LAYER
  5
200
100
AcDbSymbolTableRecord
100
AcDbLayerTableRecord
  2
COORD_ORIGINE
 70
0
 62
7
  6
CONTINUOUS
370
-3
390
F
  0
LAYER
  5
201
100
AcDbSymbolTableRecord
100
AcDbLayerTableRecord
  2
COPY_PUBLISH
 70
0
 62
7
  6
CONTINUOUS
370
-3
390
F
  0
LAYER
  5
202
100
AcDbSymbolTableRecord
100
AcDbLayerTableRecord
  2
COSMETICHE
 70
0
 62
7
  6
CONTINUOUS
370
-3
390
F
  0
LAYER
  5
203
100
AcDbSymbolTableRecord
100
AcDbLayerTableRecord
  2
COSMETICI
 70
0
 62
7
  6
CONTINUOUS
370
-3
390
F
  0
LAYER
  5
204
100
AcDbSymbolTableRecord
100
AcDbLayerTableRecord
  2
CURVE
 70
0
 62
7
  6
CONTINUOUS
370
-3
390
F
  0
LAYER
  5
205
100
AcDbSymbolTableRecord
100
AcDbLayerTableRecord
  2
DRAFT
 70
0
 62
7
  6
CONTINUOUS
370
-3
390
F
  0
LAYER
  5
206
100
AcDbSymbolTableRecord
100
AcDbLayerTableRecord
  2
IGES
 70
0
 62
7
  6
CONTINUOUS
370
-3
390
F
  0
LAYER
  5
207
100
AcDbSymbolTableRecord
100
AcDbLayerTableRecord
  2
IMPORT_IGES
 70
0
 62
7
  6
CONTINUOUS
370
-3
390
F
  0
LAYER
  5
208
100
AcDbSymbolTableRecord
100
AcDbLayerTableRecord
  2
INTF_1
 70
0
 62
7
  6
CONTINUOUS
370
-3
390
F
  0
LAYER
  5
209
100
AcDbSymbolTableRecord
100
AcDbLayerTableRecord
  2
INTF_11
 70
0
 62
7
  6
CONTINUOUS
370
-3
390
F
  0
LAYER
  5
20A
100
AcDbSymbolTableRecord
100
AcDbLayerTableRecord
  2
INTF_2
 70
0
 62
7
  6
CONTINUOUS
370
-3
390
F
  0
LAYER
  5
20B
100
AcDbSymbolTableRecord
100
AcDbLayerTableRecord
  2
INTF_3
 70
0
 62
7
  6
CONTINUOUS
370
-3
390
F
  0
LAYER
  5
20C
100
AcDbSymbolTableRecord
100
AcDbLayerTableRecord
  2
INTF_52
 70
0
 62
7
  6
CONTINUOUS
370
-3
390
F
  0
LAYER
  5
20D
100
AcDbSymbolTableRecord
100
AcDbLayerTableRecord
  2
INTF_GREEN
 70
0
 62
7
  6
CONTINUOUS
370
-3
390
F
  0
LAYER
  5
20E
100
AcDbSymbolTableRecord
100
AcDbLayerTableRecord
  2
INTF_MAGENTA
 70
0
 62
7
  6
CONTINUOUS
370
-3
390
F
  0
LAYER
  5
20F
100
AcDbSymbolTableRecord
100
AcDbLayerTableRecord
  2
INTF_YELLOW
 70
0
 62
7
  6
CONTINUOUS
370
-3
390
F
  0
LAYER
  5
210
100
AcDbSymbolTableRecord
100
AcDbLayerTableRecord
  2
NOTE
 70
0
 62
7
  6
CONTINUOUS
370
-3
390
F
  0
LAYER
  5
211
100
AcDbSymbolTableRecord
100
AcDbLayerTableRecord
  2
PIANI
 70
0
 62
7
  6
CONTINUOUS
370
-3
390
F
  0
LAYER
  5
212
100
AcDbSymbolTableRecord
100
AcDbLayerTableRecord
  2
PIANI_ORIGINE
 70
0
 62
7
  6
CONTINUOUS
370
-3
390
F
  0
LAYER
  5
213
100
AcDbSymbolTableRecord
100
AcDbLayerTableRecord
  2
PUNTI
 70
0
 62
7
  6
CONTINUOUS
370
-3
390
F
  0
LAYER
  5
214
100
AcDbSymbolTableRecord
100
AcDbLayerTableRecord
  2
RACCORDO
 70
0
 62
7
  6
CONTINUOUS
370
-3
390
F
  0
LAYER
  5
215
100
AcDbSymbolTableRecord
100
AcDbLayerTableRecord
  2
RGB__255__255__255__
 70
0
 62
7
  6
CONTINUOUS
370
-3
390
F
  0
LAYER
  5
216
100
AcDbSymbolTableRecord
100
AcDbLayerTableRecord
  2
RGB____0____0____0__
 70
0
 62
7
  6
CONTINUOUS
370
-3
390
F
  0
LAYER
  5
217
100
AcDbSymbolTableRecord
100
AcDbLayerTableRecord
  2
SIMBOLI
 70
0
 62
7
  6
CONTINUOUS
370
-3
390
F
  0
LAYER
  5
218
100
AcDbSymbolTableRecord
100
AcDbLayerTableRecord
  2
SMUSSO
 70
0
 62
7
  6
CONTINUOUS
370
-3
390
F
  0
LAYER
  5
219
100
AcDbSymbolTableRecord
100
AcDbLayerTableRecord
  2
SNAPLINE
 70
0
 62
7
  6
CONTINUOUS
370
-3
390
F
  0
LAYER
  5
21A
100
AcDbSymbolTableRecord
100
AcDbLayerTableRecord
  2
SUPERFICI
 70
0
 62
7
  6
CONTINUOUS
370
-3
390
F
  0
LAYER
  5
21B
100
AcDbSymbolTableRecord
100
AcDbLayerTableRecord
  2
TRASH
 70
0
 62
7
  6
CONTINUOUS
370
-3
390
F
  0
LAYER
  5
21C
100
AcDbSymbolTableRecord
100
AcDbLayerTableRecord
  2
XSEC_DATUMS
 70
0
 62
7
  6
CONTINUOUS
370
-3
390
F
  0
ENDTAB
  0
TABLE
  2
STYLE
  5
3
100
AcDbSymbolTable
 70
1
  0
STYLE
  5
11
100
AcDbSymbolTableRecord
100
AcDbTextStyleTableRecord
  2
STANDARD
 70
0
 40
0.0
 41
0.8
 50
0.0
 71
0
 42
0.2
  3
txt
  4

  0
STYLE
  5
21D
100
AcDbSymbolTableRecord
100
AcDbTextStyleTableRecord
  2
TEXTSTYLE_1
 70
0
 40
0.0
 41
0.8
 50
0.0
 71
0
 42
0.2
  3
gdt
  4

  0
ENDTAB
  0
TABLE
  2
VIEW
  5
6
100
AcDbSymbolTable
 70
0
  0
ENDTAB
  0
TABLE
  2
UCS
  5
7
100
AcDbSymbolTable
 70
0
  0
ENDTAB
  0
TABLE
  2
APPID
  5
9
100
AcDbSymbolTable
 70
1
  0
APPID
  5
21E
100
AcDbSymbolTableRecord
100
AcDbRegAppTableRecord
  2
ACAD
 70
0
  0
ENDTAB
  0
TABLE
  2
BLOCK_RECORD
  5
1
100
AcDbSymbolTable
 70
0
  0
BLOCK_RECORD
  5
21F
100
AcDbSymbolTableRecord
100
AcDbBlockTableRecord
  2
*Model_Space
  0
BLOCK_RECORD
  5
220
100
AcDbSymbolTableRecord
100
AcDbBlockTableRecord
  2
*Paper_Space
  0
BLOCK_RECORD
  5
221
100
AcDbSymbolTableRecord
100
AcDbBlockTableRecord
  2
_FILLED
  0
ENDTAB
  0
TABLE
  2
DIMSTYLE
  5
A
100
AcDbSymbolTable
 70
1
100
AcDbDimStyleTable
 71
0
  0
DIMSTYLE
105
222
100
AcDbSymbolTableRecord
100
AcDbDimStyleTableRecord
  2
STANDARD
 70
0
  3

  4

 40
1.0
 41
3.0
 42
0.5
 43
0.38
 44
1.5
 45
0.0
 46
0.0
 47
0.01
 48
0.01
140
3.0
141
0.09
142
0.0
143
25.4
144
1.0
145
0.0
146
1.0
147
0.625
 71
1
 72
0
 73
0
 74
0
 75
0
 76
0
 77
1
 78
8
 79
2
170
0
171
1
172
0
173
0
174
0
175
0
176
0
177
0
178
0
270
2
179
2
271
2
272
2
273
2
274
2
275
0
280
0
281
0
282
0
283
1
284
8
285
0
286
0
287
3
288
0
340
11
278
44
341
221
342
221
343
221
344
221
  0
ENDTAB
  0
ENDSEC
  0
SECTION
  2
BLOCKS
  0
BLOCK
  5
20
100
AcDbEntity
  8
0
100
AcDbBlockBegin
  2
*Model_Space
 70
0
 10
0.0
 20
0.0
 30
0.0
  3
*Model_Space
  1

  0
ENDBLK
  5
21
100
AcDbEntity
  8
0
100
AcDbBlockEnd
  0
BLOCK
  5
1C
100
AcDbEntity
  8
0
100
AcDbBlockBegin
  2
*Paper_Space
 70
0
 10
0.0
 20
0.0
 30
0.0
  3
*Paper_Space
  1

  0
ENDBLK
  5
1D
100
AcDbEntity
  8
0
100
AcDbBlockEnd
  0
BLOCK
  5
223
100
AcDbEntity
  8
0
100
AcDbBlockBegin
  2
_FILLED
 70
64
 10
0.0
 20
0.0
  3
_FILLED
  1

  0
SOLID
  5
224
100
AcDbEntity
  8
0
  6
BYBLOCK
 62
0
100
AcDbTrace
 10
0.0
 20
0.0
 11
-1.0
 21
0.3166666667
 12
-1.0
 22
-0.3166666667
 13
-1.0
 23
-0.3166666667
  0
ENDBLK
  5
225
100
AcDbEntity
  8
0
  6
BYBLOCK
 62
0
100
AcDbBlockEnd
  0
ENDSEC
  0
SECTION
  2
ENTITIES
  0
LINE
  5
226
100
AcDbEntity
  8
ASSI
100
AcDbLine
 62
250
  6
CONTINUOUS
 10
1.6083041333
 20
-43.5640767427
 11
1.5005136669
 21
-43.5823684367
  0
LWPOLYLINE
  5
227
100
AcDbEntity
  8
ASSI
100
AcDbPolyline
 62
250
  6
CONTINUOUS
 90
26
 70
0
 10
1.5005136669
 20
-43.5823684367
 10
1.2115085156
 20
-43.6222338397
 10
0.9124595823
 20
-43.6540737549
 10
0.6042090137
 20
-43.6772511698
 10
0.2877571043
 20
-43.6911389878
 10
-0.033704873
 20
-43.695136844
 10
-0.3590489195
 20
-43.6888564284
 10
-0.6867879728
 20
-43.671947431
 10
-1.0130687092
 20
-43.6443499057
 10
-1.3363249415
 20
-43.6060620579
 10
-1.6552701515
 20
-43.5570996505
 10
-1.9666082205
 20
-43.4979240682
 10
-2.2684433923
 20
-43.4289902422
 10
-2.5601848798
 20
-43.3505300894
 10
-2.8406791115
 20
-43.2629146665
 10
-3.1086692756
 20
-43.1666074161
 10
-3.3632380654
 20
-43.06201187
 10
-3.6037644511
 20
-42.9494170086
 10
-3.8292444772
 20
-42.8292934303
 10
-4.038738316
 20
-42.7021424947
 10
-4.2316701339
 20
-42.5682737166
 10
-4.407230038
 20
-42.4281478821
 10
-4.564494166
 20
-42.2823907756
 10
-4.7027276781
 20
-42.1315699038
 10
-4.8214633794
 20
-41.9759802653
 10
-4.8925684854
 20
-41.860697728
  0
LWPOLYLINE
  5
228
100
AcDbEntity
  8
ASSI
100
AcDbPolyline
 62
250
  6
CONTINUOUS
 90
16
 70
0
 10
-0.4733117659
 20
-42.8357229639
 10
-0.7585838495
 20
-42.8220640841
 10
-1.1297111584
 20
-42.7924720457
 10
-1.4961271301
 20
-42.7513565803
 10
-1.8568969085
 20
-42.6988254892
 10
-2.2108152967
 20
-42.6350204421
 10
-2.5562454323
 20
-42.5602019933
 10
-2.8916341829
 20
-42.4746936269
 10
-3.2156222229
 20
-42.378841516
 10
-3.5269710465
 20
-42.2730116686
 10
-3.8243975474
 20
-42.157641355
 10
-4.1066969967
 20
-42.0332064822
 10
-4.3728079529
 20
-41.9001839787
 10
-4.6217475298
 20
-41.7590651795
 10
-4.8525613209
 20
-41.6103809168
 10
-5.0642976197
 20
-41.4547332482
  0
LWPOLYLINE
  5
229
100
AcDbEntity
  8
ASSI
100
AcDbPolyline
 62
250
  6
CONTINUOUS
 90
6
 70
0
 10
1.1890671071
 20
-43.2291835356
 10
1.1340927003
 20
-43.213239686
 10
1.0798479929
 20
-43.1970668863
 10
1.0263446085
 20
-43.1806883948
 10
0.973593549
 20
-43.1641269976
 10
0.870459793
 20
-43.1312335466
  0
LWPOLYLINE
  5
22A
100
AcDbEntity
  8
ASSI
100
AcDbPolyline
 62
7
  6
CONTINUOUS
 90
10
 70
0
 10
1.4790450157
 20
-43.5264250537
 10
1.6773249159
 20
-43.5841817001
 10
1.8913201143
 20
-43.6353034536
 10
2.1340087555
 20
-43.6790243799
 10
2.3980349319
 20
-43.7090051996
 10
2.6627228858
 20
-43.7199617285
 10
2.9232991712
 20
-43.7111296538
 10
3.182203478
 20
-43.6817944163
 10
3.4305440903
 20
-43.6327671266
 10
3.6410658434
 20
-43.57372418
  0
LWPOLYLINE
  5
22B
100
AcDbEntity
  8
ASSI
100
AcDbPolyline
 62
250
  6
CONTINUOUS
 90
7
 70
0
 10
0.8744352744
 20
-43.1371663944
 10
0.6579912063
 20
-43.063645534
 10
0.4557721881
 20
-42.9941322853
 10
0.2675591838
 20
-42.9287549133
 10
0.095612882
 20
-42.8684993637
 10
-0.062444322
 20
-42.812674635
 10
-0.213532795
 20
-42.7588500085
  0
LWPOLYLINE
  5
22C
100
AcDbEntity
  8
ASSI
100
AcDbPolyline
 62
250
  6
CONTINUOUS
 90
8
 70
0
 10
1.4789990396
 20
-43.5263992815
 10
1.457950317
 20
-43.5188181967
 10
1.4033135353
 20
-43.4920152731
 10
1.3521471893
 20
-43.4561934016
 10
1.3048422751
 20
-43.4117080593
 10
1.2617397842
 20
-43.3589094871
 10
1.2231444996
 20
-43.2981092531
 10
1.1893780895
 20
-43.2296325055
  0
LWPOLYLINE
  5
22D
100
AcDbEntity
  8
ASSI
100
AcDbPolyline
 62
250
  6
CONTINUOUS
 90
14
 70
0
 10
-0.213532795
 20
-42.7588500085
 10
-0.4866062186
 20
-42.6605320226
 10
-0.6323169679
 20
-42.6073000066
 10
-0.7943069207
 20
-42.5474028157
 10
-0.9686140257
 20
-42.482139858
 10
-1.1629513637
 20
-42.4082590109
 10
-1.3924110385
 20
-42.3195033501
 10
-1.6412371186
 20
-42.2215338445
 10
-1.8713177638
 20
-42.1293804962
 10
-2.0663776162
 20
-42.050026382
 10
-2.2433148813
 20
-41.9770403012
 10
-2.4141975321
 20
-41.9056912097
 10
-2.5784287093
 20
-41.8363417327
 10
-2.7367349757
 20
-41.7687359688
  0
LINE
  5
22E
100
AcDbEntity
  8
ASSI
100
AcDbLine
 62
250
  6
CONTINUOUS
 10
-2.7367349757
 20
-41.7687359688
 11
-2.9122622012
 21
-41.6928646666
  0
LWPOLYLINE
  5
22F
100
AcDbEntity
  8
ASSI
100
AcDbPolyline
 62
250
  6
CONTINUOUS
 90
12
 70
0
 10
-2.9122622012
 20
-41.6928646666
 10
-3.0813256841
 20
-41.618971422
 10
-3.2674013403
 20
-41.5366072206
 10
-3.4613143457
 20
-41.4495659443
 10
-3.6645842286
 20
-41.3569810107
 10
-3.8754568664
 20
-41.2595009735
 10
-4.0892514378
 20
-41.1591560421
 10
-4.3064323995
 20
-41.0556267327
 10
-4.5264084434
 20
-40.9491294113
 10
-4.7430619556
 20
-40.8426424626
 10
-4.9675186941
 20
-40.7306078452
 10
-5.1885964682
 20
-40.6185481986
  0
LWPOLYLINE
  5
230
100
AcDbEntity
  8
ASSI
100
AcDbPolyline
 62
7
  6
CONTINUOUS
 90
14
 70
0
 10
-5.1742139031
 20
-40.744595497
 10
-4.156897832
 20
-41.2540514998
 10
-3.3202788729
 20
-41.6480519452
 10
-2.6422322638
 20
-41.9516734643
 10
-2.0310136593
 20
-42.214022466
 10
-1.4678722865
 20
-42.4463104471
 10
-0.9760866161
 20
-42.6422023053
 10
-0.5208244033
 20
-42.8179270468
 10
-0.0960206328
 20
-42.9770378245
 10
0.2907702185
 20
-43.1179605237
 10
0.655550302
 20
-43.2475196255
 10
1.0037170201
 20
-43.3680515279
 10
1.3291366558
 20
-43.4778112873
 10
1.4832647131
 20
-43.5277641176
  0
LWPOLYLINE
  5
231
100
AcDbEntity
  8
ASSI
100
AcDbPolyline
 62
250
  6
CONTINUOUS
 90
7
 70
0
 10
-3.0062257114
 20
-35.5251604041
 10
-2.5824464635
 20
-35.4846667162
 10
-2.1641936239
 20
-35.4160453112
 10
-1.7514385639
 20
-35.3189407044
 10
-1.3445184417
 20
-35.1928103569
 10
-0.9439377794
 20
-35.036849294
 10
-0.5500023329
 20
-34.849897378
  0
LINE
  5
232
100
AcDbEntity
  8
ASSI
100
AcDbLine
 62
250
  6
CONTINUOUS
 10
-5.1885964682
 20
-40.6185481986
 11
-5.3709082343
 21
-40.5248708971
  0
LINE
  5
233
100
AcDbEntity
  8
ASSI
100
AcDbLine
 62
250
  6
CONTINUOUS
 10
-5.3709082343
 20
-40.5248708971
 11
-5.5469978967
 21
-40.433276174
  0
LINE
  5
234
100
AcDbEntity
  8
ASSI
100
AcDbLine
 62
250
  6
CONTINUOUS
 10
-5.5469978967
 20
-40.433276174
 11
-5.6945651529
 21
-40.355621102
  0
LWPOLYLINE
  5
235
100
AcDbEntity
  8
ASSI
100
AcDbPolyline
 62
250
  6
CONTINUOUS
 90
3
 70
0
 10
-5.6945651529
 20
-40.355621102
 10
-5.8611533841
 20
-40.2669608456
 10
-5.9660575688
 20
-40.2105297636
  0
LINE
  5
236
100
AcDbEntity
  8
ASSI
100
AcDbLine
 62
250
  6
CONTINUOUS
 10
-5.9660575688
 20
-40.2105297636
 11
-6.1455288553
 21
-40.1129401654
  0
LWPOLYLINE
  5
237
100
AcDbEntity
  8
ASSI
100
AcDbPolyline
 62
250
  6
CONTINUOUS
 90
3
 70
0
 10
-6.1455288553
 20
-40.1129401654
 10
-6.3050408303
 20
-40.0252837495
 10
-6.4148721611
 20
-39.9643146909
  0
LINE
  5
238
100
AcDbEntity
  8
ASSI
100
AcDbLine
 62
250
  6
CONTINUOUS
 10
-6.4148721611
 20
-39.9643146909
 11
-6.6145181358
 21
-39.8523198122
  0
LWPOLYLINE
  5
239
100
AcDbEntity
  8
ASSI
100
AcDbPolyline
 62
250
  6
CONTINUOUS
 90
6
 70
0
 10
-6.6145181358
 20
-39.8523198122
 10
-6.8055325191
 20
-39.7437270281
 10
-6.9214918457
 20
-39.677118897
 10
-7.0484307383
 20
-39.6036096057
 10
-7.1905100769
 20
-39.5205905195
 10
-7.3489788718
 20
-39.4270649552
  0
LWPOLYLINE
  5
23A
100
AcDbEntity
  8
ASSI
100
AcDbPolyline
 62
7
  6
CONTINUOUS
 90
3
 70
0
 10
-7.4960584308
 20
-39.4448559517
 10
-6.3294286754
 20
-40.1228385506
 10
-5.1742139031
 20
-40.744595497
  0
LWPOLYLINE
  5
23B
100
AcDbEntity
  8
ASSI
100
AcDbPolyline
 62
250
  6
CONTINUOUS
 90
3
 70
0
 10
-7.3489788718
 20
-39.4270649552
 10
-7.5222304719
 20
-39.3236846623
 10
-7.7100822078
 20
-39.2102448075
  0
LWPOLYLINE
  5
23C
100
AcDbEntity
  8
ASSI
100
AcDbPolyline
 62
250
  6
CONTINUOUS
 90
16
 70
0
 10
-7.7100822078
 20
-39.2102448075
 10
-7.8524815383
 20
-39.1230513397
 10
-7.9891329188
 20
-39.038593639
 10
-8.1201091823
 20
-38.9569149748
 10
-8.24620881
 20
-38.8776005852
 10
-8.3667426242
 20
-38.8011568358
 10
-8.4795525413
 20
-38.7290357296
 10
-8.5813103761
 20
-38.6634897205
 10
-8.6754499234
 20
-38.6024286814
 10
-8.7699117397
 20
-38.5407452565
 10
-8.8639302259
 20
-38.4789430651
 10
-8.9582380521
 20
-38.4165302965
 10
-9.0628831209
 20
-38.3467785119
 10
-9.1836433884
 20
-38.265610769
 10
-9.3145450378
 20
-38.1768831051
 10
-9.447991221
 20
-38.0857484237
  0
LWPOLYLINE
  5
23D
100
AcDbEntity
  8
ASSI
100
AcDbPolyline
 62
250
  6
CONTINUOUS
 90
6
 70
0
 10
-7.4965296922
 20
-39.4445713829
 10
-7.5274199539
 20
-39.4243955333
 10
-7.5810793907
 20
-39.381236218
 10
-7.6296076458
 20
-39.3309508487
 10
-7.6726898621
 20
-39.2738142401
 10
-7.7099924131
 20
-39.2101142636
  0
LWPOLYLINE
  5
23E
100
AcDbEntity
  8
ASSI
100
AcDbPolyline
 62
7
  6
CONTINUOUS
 90
9
 70
0
 10
-9.5388959817
 20
-38.1240861003
 10
-9.3036662816
 20
-38.2851899654
 10
-9.0585530485
 20
-38.4506623193
 10
-8.8033276022
 20
-38.6202854383
 10
-8.5379877692
 20
-38.7935166033
 10
-8.2624163234
 20
-38.9701629025
 10
-7.9764959327
 20
-39.1500387906
 10
-7.680057178
 20
-39.3330766315
 10
-7.4960584308
 20
-39.4448559517
  0
LWPOLYLINE
  5
23F
100
AcDbEntity
  8
ASSI
100
AcDbPolyline
 62
250
  6
CONTINUOUS
 90
4
 70
0
 10
-9.447991221
 20
-38.0857484237
 10
-9.581456061
 20
-37.9939246572
 10
-9.7174145038
 20
-37.8996138379
 10
-9.8558295987
 20
-37.8027636723
  0
LINE
  5
240
100
AcDbEntity
  8
ASSI
100
AcDbLine
 62
250
  6
CONTINUOUS
 10
-9.8558295987
 20
-37.8027636723
 11
-10.0257887877
 21
-37.6844116829
  0
LWPOLYLINE
  5
241
100
AcDbEntity
  8
ASSI
100
AcDbPolyline
 62
7
  6
CONTINUOUS
 90
3
 70
0
 10
-9.8925485867
 20
-37.8777106614
 10
-9.83815938
 20
-37.9164698473
 10
-9.5388959817
 20
-38.1240861003
  0
LWPOLYLINE
  5
242
100
AcDbEntity
  8
ASSI
100
AcDbPolyline
 62
250
  6
CONTINUOUS
 90
3
 70
0
 10
-10.0257887877
 20
-37.6844116829
 10
-10.0594602162
 20
-37.6604058924
 10
-10.0929785769
 20
-37.6350926055
  0
LWPOLYLINE
  5
243
100
AcDbEntity
  8
ASSI
100
AcDbPolyline
 62
250
  6
CONTINUOUS
 90
6
 70
0
 10
-9.6578712985
 20
-38.0416679579
 10
-9.6711466137
 20
-38.0321628593
 10
-9.7264279342
 20
-37.9854934857
 10
-9.7758561396
 20
-37.9315068623
 10
-9.81910548
 20
-37.8704946694
 10
-9.8558296189
 20
-37.802763658
  0
LINE
  5
244
100
AcDbEntity
  8
ASSI
100
AcDbLine
 62
7
  6
CONTINUOUS
 10
-10.0713073085
 20
-37.7458040649
 11
-9.8925485867
 21
-37.8777106614
  0
LINE
  5
245
100
AcDbEntity
  8
ASSI
100
AcDbLine
 62
250
  6
CONTINUOUS
 10
-10.1605092742
 20
-37.5822570789
 11
-10.2664675883
 21
-37.5015412698
  0
LINE
  5
246
100
AcDbEntity
  8
ASSI
100
AcDbLine
 62
250
  6
CONTINUOUS
 10
-10.0929785769
 20
-37.6350926055
 11
-10.1605092742
 21
-37.5822570789
  0
LWPOLYLINE
  5
247
100
AcDbEntity
  8
ASSI
100
AcDbPolyline
 62
250
  6
CONTINUOUS
 90
18
 70
0
 10
-10.2664675883
 20
-37.5015412698
 10
-10.3987720986
 20
-37.3948466877
 10
-10.5291445767
 20
-37.280705601
 10
-10.6574267121
 20
-37.1595378455
 10
-10.7834205637
 20
-37.0318354043
 10
-10.9070098863
 20
-36.8979850909
 10
-11.0281613568
 20
-36.758230563
 10
-11.1467042717
 20
-36.6130214496
 10
-11.2625238381
 20
-36.4627108718
 10
-11.375659734
 20
-36.3073761751
 10
-11.4859964397
 20
-36.1474013316
 10
-11.5933541183
 20
-35.9832395409
 10
-11.6976599187
 20
-35.815078514
 10
-11.7988515285
 20
-35.6431937306
 10
-11.8967165888
 20
-35.4680866389
 10
-11.9909717154
 20
-35.2903044498
 10
-12.0814601011
 20
-35.1103046427
 10
-12.1681382345
 20
-34.9284229666
  0
LWPOLYLINE
  5
248
100
AcDbEntity
  8
ASSI
100
AcDbPolyline
 62
250
  6
CONTINUOUS
 90
8
 70
0
 10
-5.0642976197
 20
-41.4547332482
 10
-5.2560823865
 20
-41.2927629155
 10
-5.4271836409
 20
-41.1250884064
 10
-5.5769077268
 20
-40.9523898209
 10
-5.7046062792
 20
-40.7754447651
 10
-5.8097581101
 20
-40.5950713473
 10
-5.8920795192
 20
-40.4118724723
 10
-5.912774268
 20
-40.3470892945
  0
LWPOLYLINE
  5
249
100
AcDbEntity
  8
ASSI
100
AcDbPolyline
 62
250
  6
CONTINUOUS
 90
5
 70
0
 10
-10.0713073085
 20
-37.7458040649
 10
-10.1340582405
 20
-37.6921367992
 10
-10.1848912538
 20
-37.6354490167
 10
-10.2291568733
 20
-37.5717966641
 10
-10.2664675883
 20
-37.5015412698
  0
LWPOLYLINE
  5
24A
100
AcDbEntity
  8
ASSI
100
AcDbPolyline
 62
250
  6
CONTINUOUS
 90
42
 70
0
 10
-0.8197090096
 20
-32.2875736957
 10
-1.0277331568
 20
-32.3412726807
 10
-1.2464783126
 20
-32.3873372367
 10
-1.4751909391
 20
-32.4259767836
 10
-1.7144437917
 20
-32.4568909102
 10
-1.9671285201
 20
-32.4769841109
 10
-2.2336503049
 20
-32.4865763426
 10
-2.5133301758
 20
-32.4852096748
 10
-2.8073955424
 20
-32.4686007538
 10
-3.1149250493
 20
-32.4370660669
 10
-3.4365139581
 20
-32.3901246098
 10
-3.7756100343
 20
-32.3222660195
 10
-4.1337265575
 20
-32.2343650502
 10
-4.5088452109
 20
-32.1252917321
 10
-4.8991070724
 20
-31.9865160829
 10
-5.3121976794
 20
-31.8112320351
 10
-5.7398503146
 20
-31.6059409204
 10
-6.156755309
 20
-31.3823067287
 10
-6.5578657845
 20
-31.1402237909
 10
-6.9486145376
 20
-30.8799741008
 10
-7.3200010668
 20
-30.6141021443
 10
-7.6685506966
 20
-30.3456668543
 10
-7.9983155426
 20
-30.0718880761
 10
-8.3116807619
 20
-29.7966083216
 10
-8.6089273142
 20
-29.5203302202
 10
-8.8901627832
 20
-29.2427390008
 10
-9.1574428169
 20
-28.9664228539
 10
-9.4111383063
 20
-28.6915669599
 10
-9.6511657175
 20
-28.4181261017
 10
-9.8788562877
 20
-28.1483257626
 10
-10.0941676798
 20
-27.8827292607
 10
-10.2973717455
 20
-27.6208859723
 10
-10.4902386572
 20
-27.3634869572
 10
-10.6729954436
 20
-27.1106233681
 10
-10.845583738
 20
-26.8622871104
 10
-11.0093173285
 20
-26.6190078671
 10
-11.1642903754
 20
-26.3809449247
 10
-11.3105392224
 20
-26.1480033478
 10
-11.449271128
 20
-25.9203226437
 10
-11.5809189053
 20
-25.6979645068
 10
-11.7051484349
 20
-25.4809160248
 10
-11.822006175
 20
-25.2691999315
  0
LWPOLYLINE
  5
24B
100
AcDbEntity
  8
ASSI
100
AcDbPolyline
 62
7
  6
CONTINUOUS
 90
5
 70
0
 10
-5.0780331271
 20
-28.0684518623
 10
-4.9063942717
 20
-28.0580272249
 10
-4.7428439711
 20
-28.0251688405
 10
-4.588719814
 20
-27.970152686
 10
-4.5422861265
 20
-27.948281189
  0
LWPOLYLINE
  5
24C
100
AcDbEntity
  8
ASSI
100
AcDbPolyline
 62
7
  6
CONTINUOUS
 90
6
 70
0
 10
-5.5522367552
 20
-27.5654345733
 10
-5.7047366407
 20
-27.513585641
 10
-5.8585538739
 20
-27.4448329513
 10
-6.0125118167
 20
-27.3596957159
 10
-6.1654457995
 20
-27.2588250443
 10
-6.3162055766
 20
-27.1429921097
  0
LWPOLYLINE
  5
24D
100
AcDbEntity
  8
ASSI
100
AcDbPolyline
 62
7
  6
CONTINUOUS
 90
3
 70
0
 10
-5.8332646939
 20
-27.194851843
 10
-5.7278337154
 20
-27.2474076914
 10
-5.4106025823
 20
-27.4046033091
  0
LWPOLYLINE
  5
24E
100
AcDbEntity
  8
ASSI
100
AcDbPolyline
 62
250
  6
CONTINUOUS
 90
3
 70
0
 10
-12.2749215633
 20
-34.7255296043
 10
-12.2669483711
 20
-34.7360760928
 10
-12.250917449
 20
-34.74503092
  0
LWPOLYLINE
  5
24F
100
AcDbEntity
  8
ASSI
100
AcDbPolyline
 62
250
  6
CONTINUOUS
 90
16
 70
0
 10
3.5048179017
 20
-26.8455863142
 10
3.4977201132
 20
-26.8472830488
 10
3.4910635567
 20
-26.8496254946
 10
3.4848478401
 20
-26.8526139479
 10
3.479232867
 20
-26.8562509835
 10
3.4740579716
 20
-26.8605345977
 10
3.4688423248
 20
-26.8654579141
 10
3.4634065984
 20
-26.8710743575
 10
3.4579303956
 20
-26.8773303159
 10
3.4524715938
 20
-26.8840581313
 10
3.4470215777
 20
-26.8912788887
 10
3.4415890455
 20
-26.898971454
 10
3.4362576883
 20
-26.9069049508
 10
3.431079825
 20
-26.9149918702
 10
3.4260030041
 20
-26.9233198224
 10
3.4209537275
 20
-26.9319206324
  0
LWPOLYLINE
  5
250
100
AcDbEntity
  8
ASSI
100
AcDbPolyline
 62
7
  6
CONTINUOUS
 90
5
 70
0
 10
-5.1157714189
 20
-27.3704812096
 10
-5.0467861808
 20
-27.3548125804
 10
-4.9800744911
 20
-27.3337731397
 10
-4.9158130707
 20
-27.3074189628
 10
-4.8919925505
 20
-27.2959853376
  0
LWPOLYLINE
  5
251
100
AcDbEntity
  8
ASSI
100
AcDbPolyline
 62
250
  6
CONTINUOUS
 90
10
 70
0
 10
6.9989713715
 20
-25.1709796327
 10
7.0821482582
 20
-25.1653550712
 10
7.164333534
 20
-25.157069358
 10
7.2451889967
 20
-25.1461659374
 10
7.3243702638
 20
-25.1327014557
 10
7.4015696545
 20
-25.1167386292
 10
7.4765138862
 20
-25.0983415741
 10
7.5489105741
 20
-25.0775867727
 10
7.6184530187
 20
-25.0545670197
 10
7.6848604267
 20
-25.0293811643
  0
LWPOLYLINE
  5
252
100
AcDbEntity
  8
ASSI
100
AcDbPolyline
 62
7
  6
CONTINUOUS
 90
6
 70
0
 10
7.6837586921
 20
-25.3782481654
 10
7.6827472077
 20
-25.3780670185
 10
7.6817139826
 20
-25.3778569546
 10
7.6806588971
 20
-25.3776179007
 10
7.6795831686
 20
-25.3773446838
 10
7.6784853085
 20
-25.377042312
  0
LWPOLYLINE
  5
253
100
AcDbEntity
  8
ASSI
100
AcDbPolyline
 62
7
  6
CONTINUOUS
 90
5
 70
0
 10
6.6011980463
 20
-25.0881773408
 10
6.765747992
 20
-25.1204614599
 10
6.8455185031
 20
-25.1369042889
 10
6.9233510658
 20
-25.1536826718
 10
6.9989713715
 20
-25.1709796327
  0
LWPOLYLINE
  5
254
100
AcDbEntity
  8
ASSI
100
AcDbPolyline
 62
250
  6
CONTINUOUS
 90
16
 70
0
 10
5.816825644
 20
-25.6310942937
 10
5.9050970737
 20
-25.6517939111
 10
5.99671203
 20
-25.6691650865
 10
6.0911018023
 20
-25.6831190839
 10
6.1877579174
 20
-25.6935722489
 10
6.2860205901
 20
-25.7004216169
 10
6.3850702944
 20
-25.7035708355
 10
6.4842962143
 20
-25.7029455066
 10
6.5830811656
 20
-25.6984819452
 10
6.6806423012
 20
-25.6902194999
 10
6.776473107
 20
-25.6782548566
 10
6.8700823797
 20
-25.6626930712
 10
6.9607876077
 20
-25.6437022673
 10
7.0480621607
 20
-25.6214291964
 10
7.1315187812
 20
-25.595973776
 10
7.2107151036
 20
-25.5674538869
  0
LINE
  5
255
100
AcDbEntity
  8
ASSI
100
AcDbLine
 62
250
  6
CONTINUOUS
 10
5.5226871314
 20
-25.5562190539
 11
5.8198064983
 21
-25.6364478842
  0
LWPOLYLINE
  5
256
100
AcDbEntity
  8
ASSI
100
AcDbPolyline
 62
250
  6
CONTINUOUS
 90
7
 70
0
 10
3.5008379826
 20
-27.7975072445
 10
3.4647013289
 20
-27.7835644745
 10
3.429364754
 20
-27.7688456496
 10
3.3950794936
 20
-27.7534448777
 10
3.362096901
 20
-27.7374563109
 10
3.3306317968
 20
-27.7209612147
 10
3.3006491622
 20
-27.7039527087
  0
LINE
  5
257
100
AcDbEntity
  8
ASSI
100
AcDbLine
 62
7
  6
CONTINUOUS
 10
-5.4880248592
 20
-23.7068303546
 11
-5.6947714059
 21
-23.6045094717
  0
LINE
  5
258
100
AcDbEntity
  8
ASSI
100
AcDbLine
 62
7
  6
CONTINUOUS
 10
-5.4668101705
 20
-23.6962230102
 11
-5.6735567867
 21
-23.5939024081
  0
LINE
  5
259
100
AcDbEntity
  8
ASSI
100
AcDbLine
 62
7
  6
CONTINUOUS
 10
-5.4214713013
 20
-27.0010822864
 11
-5.6527122408
 21
-26.8866356581
  0
LWPOLYLINE
  5
25A
100
AcDbEntity
  8
ASSI
100
AcDbPolyline
 62
7
  6
CONTINUOUS
 90
3
 70
0
 10
-5.4002472753
 20
-26.9904702734
 10
-5.6479772103
 20
-26.8678347016
 10
-5.6974204926
 20
-26.8432557307
  0
LINE
  5
25B
100
AcDbEntity
  8
ASSI
100
AcDbLine
 62
7
  6
CONTINUOUS
 10
-5.6527122408
 20
-26.8866356581
 11
-5.7186441066
 21
-26.8538675377
  0
LINE
  5
25C
100
AcDbEntity
  8
ASSI
100
AcDbLine
 62
7
  6
CONTINUOUS
 10
-5.7704768242
 20
-23.9743630636
 11
-5.4842818094
 21
-24.1161624138
  0
LINE
  5
25D
100
AcDbEntity
  8
ASSI
100
AcDbLine
 62
7
  6
CONTINUOUS
 10
-5.6947714059
 20
-23.6045094717
 11
-5.9009212517
 21
-23.5018887001
  0
LINE
  5
25E
100
AcDbEntity
  8
ASSI
100
AcDbLine
 62
7
  6
CONTINUOUS
 10
-5.6735567867
 20
-23.5939024081
 11
-5.8797069984
 21
-23.4912815894
  0
LINE
  5
25F
100
AcDbEntity
  8
ASSI
100
AcDbLine
 62
7
  6
CONTINUOUS
 10
-5.9009212517
 20
-23.5018887001
 11
-6.1064737442
 21
-23.3989683659
  0
LINE
  5
260
100
AcDbEntity
  8
ASSI
100
AcDbLine
 62
7
  6
CONTINUOUS
 10
-5.8797069984
 20
-23.4912815894
 11
-6.0852599262
 21
-23.3883609941
  0
LINE
  5
261
100
AcDbEntity
  8
ASSI
100
AcDbLine
 62
7
  6
CONTINUOUS
 10
-6.1486163943
 20
-27.0367138886
 11
-5.8332646939
 21
-27.194851843
  0
LWPOLYLINE
  5
262
100
AcDbEntity
  8
ASSI
100
AcDbPolyline
 62
7
  6
CONTINUOUS
 90
3
 70
0
 10
-6.1064737442
 20
-23.3989683659
 10
-6.3114262735
 20
-23.2957497741
 10
-6.413677715
 20
-23.2440285501
  0
LWPOLYLINE
  5
263
100
AcDbEntity
  8
ASSI
100
AcDbPolyline
 62
7
  6
CONTINUOUS
 90
3
 70
0
 10
-6.0852599262
 20
-23.3883609941
 10
-6.2902120518
 20
-23.2851423818
 10
-6.3924630337
 20
-23.2334212094
  0
LINE
  5
264
100
AcDbEntity
  8
ASSI
100
AcDbLine
 62
7
  6
CONTINUOUS
 10
-6.0743731254
 20
-26.6760127884
 11
-6.3035831235
 21
-26.5604600571
  0
LINE
  5
265
100
AcDbEntity
  8
ASSI
100
AcDbLine
 62
7
  6
CONTINUOUS
 10
-6.0749211613
 20
-26.6544531709
 11
-6.347709326
 21
-26.516764479
  0
LINE
  5
266
100
AcDbEntity
  8
ASSI
100
AcDbLine
 62
7
  6
CONTINUOUS
 10
-6.3580646293
 20
-26.9308975128
 11
-6.1486163943
 21
-27.0367138886
  0
LINE
  5
267
100
AcDbEntity
  8
ASSI
100
AcDbLine
 62
7
  6
CONTINUOUS
 10
-6.3035831235
 20
-26.5604600571
 11
-6.3689333445
 21
-26.5273764882
  0
LINE
  5
268
100
AcDbEntity
  8
ASSI
100
AcDbLine
 62
7
  6
CONTINUOUS
 10
-6.4099346665
 20
-23.65336061
 11
-6.1262058359
 21
-23.7965083107
  0
LWPOLYLINE
  5
269
100
AcDbEntity
  8
ASSI
100
AcDbPolyline
 62
250
  6
CONTINUOUS
 90
7
 70
0
 10
-14.220760882
 20
-19.3914202903
 10
-14.1895160268
 20
-19.4113004344
 10
-14.155428924
 20
-19.4304720933
 10
-14.1187578394
 20
-19.4487866369
 10
-14.0796211895
 20
-19.4661941687
 10
-14.0381403034
 20
-19.4826427466
 10
-13.9944399335
 20
-19.4980780202
  0
LWPOLYLINE
  5
26A
100
AcDbEntity
  8
ASSI
100
AcDbPolyline
 62
7
  6
CONTINUOUS
 90
10
 70
0
 10
-5.7415334769
 20
-27.9197179619
 10
-5.6074110341
 20
-28.0081493605
 10
-5.4743495612
 20
-28.1070845611
 10
-5.3430242838
 20
-28.2160153814
 10
-5.2140750293
 20
-28.3343655254
 10
-5.0881745107
 20
-28.4615380585
 10
-4.9660256151
 20
-28.5969199172
 10
-4.8482624217
 20
-28.739824875
 10
-4.7354464017
 20
-28.889495686
 10
-4.6281355252
 20
-29.0451534803
  0
LINE
  5
26B
100
AcDbEntity
  8
ASSI
100
AcDbLine
 62
7
  6
CONTINUOUS
 10
-6.3162055766
 20
-27.1429921097
 11
-6.463642686
 21
-27.0130758474
  0
LWPOLYLINE
  5
26C
100
AcDbEntity
  8
ASSI
100
AcDbPolyline
 62
7
  6
CONTINUOUS
 90
4
 70
0
 10
-6.3385919199
 20
-27.1526494285
 10
-6.4852522957
 20
-27.0233262241
 10
-6.6271391415
 20
-26.8814547814
 10
-6.7641810721
 20
-26.7271136686
  0
LWPOLYLINE
  5
26D
100
AcDbEntity
  8
ASSI
100
AcDbPolyline
 62
7
  6
CONTINUOUS
 90
3
 70
0
 10
-6.463642686
 20
-27.0130758474
 10
-6.6066434547
 20
-26.8700688258
 10
-6.7441490448
 20
-26.7150728684
  0
LWPOLYLINE
  5
26E
100
AcDbEntity
  8
ASSI
100
AcDbPolyline
 62
250
  6
CONTINUOUS
 90
25
 70
0
 10
-11.9394002482
 20
-29.2118091136
 10
-11.6633387998
 20
-29.7090504452
 10
-11.3749051828
 20
-30.1888063108
 10
-11.0749564072
 20
-30.6503916062
 10
-10.7633565895
 20
-31.0953109812
 10
-10.4402634685
 20
-31.5231518105
 10
-10.1050375271
 20
-31.933383074
 10
-9.7594890165
 20
-32.3241854287
 10
-9.4051125623
 20
-32.6953949849
 10
-9.0416085175
 20
-33.0464826899
 10
-8.6685665091
 20
-33.3777253884
 10
-8.2872976702
 20
-33.688109358
 10
-7.8994220343
 20
-33.9758558144
 10
-7.5055800829
 20
-34.2404358774
 10
-7.106142174
 20
-34.4817848178
 10
-6.7020768818
 20
-34.699352066
 10
-6.2944360553
 20
-34.8925651141
 10
-5.8842006319
 20
-35.0609926803
 10
-5.4722503633
 20
-35.2042513684
 10
-5.0590565934
 20
-35.3219717631
 10
-4.6451795112
 20
-35.4140161525
 10
-4.2321640088
 20
-35.4804719857
 10
-3.8211265589
 20
-35.5212448134
 10
-3.4121818709
 20
-35.5359954018
 10
-3.0062523085
 20
-35.5250448416
  0
LWPOLYLINE
  5
26F
100
AcDbEntity
  8
ASSI
100
AcDbPolyline
 62
250
  6
CONTINUOUS
 90
3
 70
0
 10
-12.531934059
 20
-34.0660224721
 10
-12.5211981392
 20
-34.0892133673
 10
-12.5008085244
 20
-34.1162365248
  0
LINE
  5
270
100
AcDbEntity
  8
ASSI
100
AcDbLine
 62
250
  6
CONTINUOUS
 10
-12.1681382345
 20
-34.9284229666
 11
-12.2509174455
 21
-34.7450309279
  0
LWPOLYLINE
  5
271
100
AcDbEntity
  8
ASSI
100
AcDbPolyline
 62
7
  6
CONTINUOUS
 90
21
 70
0
 10
-12.2749215633
 20
-34.7255296043
 10
-12.2233131012
 20
-34.8430164778
 10
-12.1018576614
 20
-35.1043155194
 10
-11.969750036
 20
-35.3677570246
 10
-11.8234897465
 20
-35.6380097697
 10
-11.6661167573
 20
-35.9068711948
 10
-11.5089723591
 20
-36.1556626634
 10
-11.3558680755
 20
-36.3809732751
 10
-11.2058465342
 20
-36.5867655603
 10
-11.0648840947
 20
-36.7676280579
 10
-10.9379755026
 20
-36.9206640809
 10
-10.8226354836
 20
-37.0520818125
 10
-10.7135252307
 20
-37.1699569637
 10
-10.6100061782
 20
-37.2761950181
 10
-10.5135351004
 20
-37.3704242937
 10
-10.4213513233
 20
-37.4562423572
 10
-10.3334942873
 20
-37.534264501
 10
-10.2504088134
 20
-37.6047398321
 10
-10.1696123123
 20
-37.6702424202
 10
-10.0901465762
 20
-37.7318070429
 10
-10.0709376173
 20
-37.7462436688
  0
LINE
  5
272
100
AcDbEntity
  8
ASSI
100
AcDbLine
 62
250
  6
CONTINUOUS
 10
-12.2509174455
 20
-34.7450309279
 11
-12.2961309329
 21
-34.6401557635
  0
LINE
  5
273
100
AcDbEntity
  8
ASSI
100
AcDbLine
 62
250
  6
CONTINUOUS
 10
-12.2961309329
 20
-34.6401557635
 11
-12.3399296607
 21
-34.5351902823
  0
LWPOLYLINE
  5
274
100
AcDbEntity
  8
ASSI
100
AcDbPolyline
 62
250
  6
CONTINUOUS
 90
3
 70
0
 10
-12.3399296607
 20
-34.5351902823
 10
-12.3823047042
 20
-34.4302254119
 10
-12.4232473849
 20
-34.3253536267
  0
LWPOLYLINE
  5
275
100
AcDbEntity
  8
ASSI
100
AcDbPolyline
 62
250
  6
CONTINUOUS
 90
3
 70
0
 10
-12.6977579699
 20
-33.5609542669
 10
-12.6918894978
 20
-33.5757791733
 10
-12.6755164572
 20
-33.6012430903
  0
LWPOLYLINE
  5
276
100
AcDbEntity
  8
ASSI
100
AcDbPolyline
 62
250
  6
CONTINUOUS
 90
3
 70
0
 10
-12.4232473849
 20
-34.3253536267
 10
-12.4627505443
 20
-34.2206628643
 10
-12.5008085244
 20
-34.1162365248
  0
LWPOLYLINE
  5
277
100
AcDbEntity
  8
ASSI
100
AcDbPolyline
 62
250
  6
CONTINUOUS
 90
3
 70
0
 10
-12.7388164507
 20
-33.425183923
 10
-12.7341587307
 20
-33.4380024135
 10
-12.7192928609
 20
-33.462834557
  0
LWPOLYLINE
  5
278
100
AcDbEntity
  8
ASSI
100
AcDbPolyline
 62
7
  6
CONTINUOUS
 90
7
 70
0
 10
-12.5103219536
 20
-34.1272780446
 10
-12.4729664287
 20
-34.2302260776
 10
-12.4339736013
 20
-34.3341164943
 10
-12.3930567365
 20
-34.4395119693
 10
-12.35002126
 20
-34.5467052021
 10
-12.3047625616
 20
-34.6556520064
 10
-12.2750155059
 20
-34.7253104597
  0
LINE
  5
279
100
AcDbEntity
  8
ASSI
100
AcDbLine
 62
250
  6
CONTINUOUS
 10
-12.5008085244
 20
-34.1162365248
 11
-12.541584254
 21
-34.0007209031
  0
LINE
  5
27A
100
AcDbEntity
  8
ASSI
100
AcDbLine
 62
7
  6
CONTINUOUS
 10
-14.1943986115
 20
-17.9912791207
 11
-14.193018163
 21
-17.9914148374
  0
LWPOLYLINE
  5
27B
100
AcDbEntity
  8
ASSI
100
AcDbPolyline
 62
7
  6
CONTINUOUS
 90
5
 70
0
 10
6.2738553819
 20
-25.0163118114
 10
6.3542351856
 20
-25.0354411436
 10
6.4358456153
 20
-25.0537887272
 10
6.5182262322
 20
-25.0713979628
 10
6.6011980463
 20
-25.0881773408
  0
LWPOLYLINE
  5
27C
100
AcDbEntity
  8
ASSI
100
AcDbPolyline
 62
250
  6
CONTINUOUS
 90
10
 70
0
 10
6.0410003797
 20
-24.9780153039
 10
6.0653299185
 20
-24.9839763287
 10
6.09013488
 20
-24.9895262954
 10
6.1154152641
 20
-24.9946652038
 10
6.1412873474
 20
-24.9994127194
 10
6.1676348534
 20
-25.0037491769
 10
6.1941089522
 20
-25.0076155805
 10
6.2205933673
 20
-25.010992265
 10
6.2472043753
 20
-25.0138988958
 10
6.2739419762
 20
-25.0163354726
  0
LWPOLYLINE
  5
27D
100
AcDbEntity
  8
ASSI
100
AcDbPolyline
 62
7
  6
CONTINUOUS
 90
9
 70
0
 10
6.9995154662
 20
-25.1710080582
 10
7.013761341
 20
-25.1745242397
 10
7.0278417463
 20
-25.1780755531
 10
7.0417516325
 20
-25.1816637982
 10
7.0554863238
 20
-25.185290757
 10
7.0690445571
 20
-25.1889571361
 10
7.0824271783
 20
-25.1926628651
 10
7.0956310648
 20
-25.1964091667
 10
7.1086491039
 20
-25.2001986811
  0
LWPOLYLINE
  5
27E
100
AcDbEntity
  8
ASSI
100
AcDbPolyline
 62
7
  6
CONTINUOUS
 90
10
 70
0
 10
6.2739419762
 20
-25.0163354726
 10
6.2518690826
 20
-25.0105485097
 10
6.230076283
 20
-25.0045692947
 10
6.2085635773
 20
-24.9983978274
 10
6.1873479908
 20
-24.9920390962
 10
6.1664124983
 20
-24.9854881129
 10
6.1457060236
 20
-24.9787299125
 10
6.1252115414
 20
-24.9717595068
 10
6.1049460769
 20
-24.9645818841
 10
6.0849096303
 20
-24.9571970444
  0
LWPOLYLINE
  5
27F
100
AcDbEntity
  8
ASSI
100
AcDbPolyline
 62
7
  6
CONTINUOUS
 90
3
 70
0
 10
7.6784853085
 20
-25.377042312
 10
7.676211797
 20
-25.3763986523
 10
7.6738262932
 20
-25.375708303
  0
LINE
  5
280
100
AcDbEntity
  8
ASSI
100
AcDbLine
 62
7
  6
CONTINUOUS
 10
7.6738262932
 20
-25.375708303
 11
7.6613869266
 21
-25.3721811663
  0
LINE
  5
281
100
AcDbEntity
  8
ASSI
100
AcDbLine
 62
7
  6
CONTINUOUS
 10
7.6613869266
 20
-25.3721811663
 11
7.63762131
 21
-25.3652982768
  0
LINE
  5
282
100
AcDbEntity
  8
ASSI
100
AcDbLine
 62
7
  6
CONTINUOUS
 10
7.63762131
 20
-25.3652982768
 11
7.6132284411
 21
-25.3581290479
  0
LINE
  5
283
100
AcDbEntity
  8
ASSI
100
AcDbLine
 62
7
  6
CONTINUOUS
 10
7.6132284411
 20
-25.3581290479
 11
7.5850843375
 21
-25.3497150393
  0
LINE
  5
284
100
AcDbEntity
  8
ASSI
100
AcDbLine
 62
7
  6
CONTINUOUS
 10
7.138995243
 20
-25.2093186002
 11
7.1086491039
 21
-25.2001986811
  0
LINE
  5
285
100
AcDbEntity
  8
ASSI
100
AcDbLine
 62
7
  6
CONTINUOUS
 10
7.5850843375
 20
-25.3497150393
 11
7.5490674364
 21
-25.338757022
  0
LINE
  5
286
100
AcDbEntity
  8
ASSI
100
AcDbLine
 62
7
  6
CONTINUOUS
 10
7.1885666118
 20
-25.2245622616
 11
7.138995243
 21
-25.2093186002
  0
LINE
  5
287
100
AcDbEntity
  8
ASSI
100
AcDbLine
 62
7
  6
CONTINUOUS
 10
7.5490674364
 20
-25.338757022
 11
7.5040277762
 21
-25.3248128402
  0
LINE
  5
288
100
AcDbEntity
  8
ASSI
100
AcDbLine
 62
7
  6
CONTINUOUS
 10
7.248017165
 20
-25.2432200182
 11
7.1885666118
 21
-25.2245622616
  0
LINE
  5
289
100
AcDbEntity
  8
ASSI
100
AcDbLine
 62
7
  6
CONTINUOUS
 10
7.5040277762
 20
-25.3248128402
 11
7.4470295043
 21
-25.306866945
  0
LWPOLYLINE
  5
28A
100
AcDbEntity
  8
ASSI
100
AcDbPolyline
 62
250
  6
CONTINUOUS
 90
10
 70
0
 10
-14.2016671451
 20
-17.35054969
 10
-14.381154075
 20
-17.293624266
 10
-14.5500530036
 20
-17.2384357862
 10
-14.7127077632
 20
-17.1822291094
 10
-14.8712357947
 20
-17.1242930102
 10
-15.0245492962
 20
-17.0649774123
 10
-15.1690821411
 20
-17.0056416687
 10
-15.3043243391
 20
-16.9465895038
 10
-15.4322016691
 20
-16.8870756183
 10
-15.5527537728
 20
-16.8270707649
  0
LWPOLYLINE
  5
28B
100
AcDbEntity
  8
ASSI
100
AcDbPolyline
 62
250
  6
CONTINUOUS
 90
10
 70
0
 10
4.1671030528
 20
-25.1584705332
 10
4.2898383435
 20
-25.1976091051
 10
4.421966524
 20
-25.2390116118
 10
4.5543702263
 20
-25.279793801
 10
4.6835030268
 20
-25.3190661571
 10
4.8136003482
 20
-25.3580455859
 10
4.9473489019
 20
-25.3971911159
 10
5.0873213708
 20
-25.4368510174
 10
5.2318538601
 20
-25.4767713613
 10
5.5226871314
 20
-25.5562190539
  0
LINE
  5
28C
100
AcDbEntity
  8
ASSI
100
AcDbLine
 62
7
  6
CONTINUOUS
 10
7.4470295043
 20
-25.306866945
 11
7.248017165
 21
-25.2432200182
  0
LINE
  5
28D
100
AcDbEntity
  8
ASSI
100
AcDbLine
 62
250
  6
CONTINUOUS
 10
3.9619575301
 20
-25.0917595741
 11
4.1671030528
 21
-25.1584705332
  0
LWPOLYLINE
  5
28E
100
AcDbEntity
  8
ASSI
100
AcDbPolyline
 62
250
  6
CONTINUOUS
 90
10
 70
0
 10
3.8507854443
 20
-24.3198179357
 10
4.1007499282
 20
-24.4048802372
 10
4.349107184
 20
-24.4869419827
 10
4.5958572117
 20
-24.5660031724
 10
4.8410594636
 20
-24.6420394852
 10
5.0846544875
 20
-24.7150752421
 10
5.3264639268
 20
-24.7851834061
 10
5.5664283291
 20
-24.8523882982
 10
5.8046071467
 20
-24.9166655975
 10
6.0410003797
 20
-24.9780153039
  0
LWPOLYLINE
  5
28F
100
AcDbEntity
  8
ASSI
100
AcDbPolyline
 62
250
  6
CONTINUOUS
 90
4
 70
0
 10
3.5660482469
 20
-24.9591482933
 10
3.6664345719
 20
-24.9933867244
 10
3.7658450033
 20
-25.026838745
 10
3.9619575301
 20
-25.0917595741
  0
LWPOLYLINE
  5
290
100
AcDbEntity
  8
ASSI
100
AcDbPolyline
 62
250
  6
CONTINUOUS
 90
4
 70
0
 10
3.8507854443
 20
-24.3198179357
 10
3.7266915074
 20
-24.2767819729
 10
3.6762071736
 20
-24.259051713
 10
3.6364582651
 20
-24.2448612404
  0
LINE
  5
291
100
AcDbEntity
  8
ASSI
100
AcDbLine
 62
250
  6
CONTINUOUS
 10
3.6364582651
 20
-24.2448612404
 11
3.4126361681
 21
-24.1634032178
  0
LINE
  5
292
100
AcDbEntity
  8
ASSI
100
AcDbLine
 62
250
  6
CONTINUOUS
 10
3.4126361681
 20
-24.1634032178
 11
3.226692311
 21
-24.0950309447
  0
LINE
  5
293
100
AcDbEntity
  8
ASSI
100
AcDbLine
 62
250
  6
CONTINUOUS
 10
3.226692311
 20
-24.0950309447
 11
3.0638830768
 21
-24.0345334739
  0
LINE
  5
294
100
AcDbEntity
  8
ASSI
100
AcDbLine
 62
250
  6
CONTINUOUS
 10
3.0638830768
 20
-24.0345334739
 11
2.8863565028
 21
-23.9679006118
  0
LWPOLYLINE
  5
295
100
AcDbEntity
  8
ASSI
100
AcDbPolyline
 62
7
  6
CONTINUOUS
 90
13
 70
0
 10
6.0849096303
 20
-24.9571970444
 10
5.8554784122
 20
-24.8702511387
 10
5.6273341831
 20
-24.7824937947
 10
5.4004769429
 20
-24.6939250123
 10
5.1748972763
 20
-24.6045409219
 10
4.9506045986
 20
-24.5143453931
 10
4.7276271558
 20
-24.423350035
 10
4.5059648091
 20
-24.3315547848
 10
4.2856176973
 20
-24.2389597054
 10
4.066614483
 20
-24.1455765945
 10
3.8489647207
 20
-24.0514093848
 10
3.6326588559
 20
-23.9564541437
 10
3.4176968887
 20
-23.8607108711
  0
LINE
  5
296
100
AcDbEntity
  8
ASSI
100
AcDbLine
 62
250
  6
CONTINUOUS
 10
2.8863565028
 20
-23.9679006118
 11
2.6972378378
 21
-23.8961731301
  0
LINE
  5
297
100
AcDbEntity
  8
ASSI
100
AcDbLine
 62
250
  6
CONTINUOUS
 10
2.6972378378
 20
-23.8961731301
 11
2.4928660879
 21
-23.8178016689
  0
LINE
  5
298
100
AcDbEntity
  8
ASSI
100
AcDbLine
 62
250
  6
CONTINUOUS
 10
2.4928660879
 20
-23.8178016689
 11
2.2764066614
 21
-23.733857357
  0
LINE
  5
299
100
AcDbEntity
  8
ASSI
100
AcDbLine
 62
250
  6
CONTINUOUS
 10
2.2764066614
 20
-23.733857357
 11
2.0477969889
 21
-23.6441655001
  0
LINE
  5
29A
100
AcDbEntity
  8
ASSI
100
AcDbLine
 62
250
  6
CONTINUOUS
 10
2.0477969889
 20
-23.6441655001
 11
1.8859552719
 21
-23.5800314675
  0
LINE
  5
29B
100
AcDbEntity
  8
ASSI
100
AcDbLine
 62
250
  6
CONTINUOUS
 10
1.8859552719
 20
-23.5800314675
 11
1.7154965498
 21
-23.511938314
  0
LINE
  5
29C
100
AcDbEntity
  8
ASSI
100
AcDbLine
 62
250
  6
CONTINUOUS
 10
1.7154965498
 20
-23.511938314
 11
1.5361943173
 21
-23.439709936
  0
LINE
  5
29D
100
AcDbEntity
  8
ASSI
100
AcDbLine
 62
250
  6
CONTINUOUS
 10
1.5361943173
 20
-23.439709936
 11
1.3476555551
 21
-23.3630921863
  0
LINE
  5
29E
100
AcDbEntity
  8
ASSI
100
AcDbLine
 62
250
  6
CONTINUOUS
 10
1.3476555551
 20
-23.3630921863
 11
1.149613147
 21
-23.2819104306
  0
LWPOLYLINE
  5
29F
100
AcDbEntity
  8
ASSI
100
AcDbPolyline
 62
250
  6
CONTINUOUS
 90
10
 70
0
 10
0.6655338418
 20
-23.8382921116
 10
0.9998620969
 20
-23.9766855795
 10
1.3313424673
 20
-24.1114915676
 10
1.6597076847
 20
-24.242817706
 10
1.9846191351
 20
-24.3707291615
 10
2.3061275737
 20
-24.4952897545
 10
2.6247277918
 20
-24.6165402953
 10
2.9407246287
 20
-24.7344515459
 10
3.2542372874
 20
-24.8489019752
 10
3.5660482469
 20
-24.9591482938
  0
LINE
  5
2A0
100
AcDbEntity
  8
ASSI
100
AcDbLine
 62
250
  6
CONTINUOUS
 10
1.149613147
 20
-23.2819104306
 11
0.9415637152
 21
-23.1958305758
  0
LINE
  5
2A1
100
AcDbEntity
  8
ASSI
100
AcDbLine
 62
250
  6
CONTINUOUS
 10
0.5137906218
 20
-23.7747914806
 11
0.6655338909
 21
-23.8382921321
  0
LINE
  5
2A2
100
AcDbEntity
  8
ASSI
100
AcDbLine
 62
250
  6
CONTINUOUS
 10
0.9415637152
 20
-23.1958305758
 11
0.7562961155
 21
-23.1184340404
  0
LWPOLYLINE
  5
2A3
100
AcDbEntity
  8
ASSI
100
AcDbPolyline
 62
250
  6
CONTINUOUS
 90
5
 70
0
 10
0.7562961155
 20
-23.1184340404
 10
0.3334974164
 20
-22.9409556965
 10
-0.196958348
 20
-22.7136316158
 10
-0.7575467498
 20
-22.4690042518
 10
-1.3482957527
 20
-22.2077636971
  0
LINE
  5
2A4
100
AcDbEntity
  8
ASSI
100
AcDbLine
 62
250
  6
CONTINUOUS
 10
-0.9811920454
 20
-23.1352915086
 11
0.5137906218
 21
-23.7747914806
  0
LWPOLYLINE
  5
2A5
100
AcDbEntity
  8
ASSI
100
AcDbPolyline
 62
250
  6
CONTINUOUS
 90
3
 70
0
 10
-1.3482957527
 20
-22.2077636971
 10
-1.9691773931
 20
-21.9292198592
 10
-2.6201077801
 20
-21.631302461
  0
LINE
  5
2A6
100
AcDbEntity
  8
ASSI
100
AcDbLine
 62
7
  6
CONTINUOUS
 10
3.4176968887
 20
-23.8607108711
 11
2.5985950083
 21
-23.4895099924
  0
LINE
  5
2A7
100
AcDbEntity
  8
ASSI
100
AcDbLine
 62
7
  6
CONTINUOUS
 10
2.5985950083
 20
-23.4895099924
 11
1.8128939594
 21
-23.1306589825
  0
LWPOLYLINE
  5
2A8
100
AcDbEntity
  8
ASSI
100
AcDbPolyline
 62
7
  6
CONTINUOUS
 90
4
 70
0
 10
1.8128939594
 20
-23.1306589825
 10
1.0605937421
 20
-22.7841578413
 10
0.3435929092
 20
-22.4505591971
 10
-0.3400070922
 20
-22.1293104218
  0
LWPOLYLINE
  5
2A9
100
AcDbEntity
  8
ASSI
100
AcDbPolyline
 62
250
  6
CONTINUOUS
 90
3
 70
0
 10
-3.8940758542
 20
-21.8128733759
 10
-2.4506695134
 20
-22.4812338908
 10
-0.9811920454
 20
-23.1352915086
  0
LINE
  5
2AA
100
AcDbEntity
  8
ASSI
100
AcDbLine
 62
250
  6
CONTINUOUS
 10
-2.6201077801
 20
-21.631302461
 11
-3.3054374017
 21
-21.3120335836
  0
LWPOLYLINE
  5
2AB
100
AcDbEntity
  8
ASSI
100
AcDbPolyline
 62
250
  6
CONTINUOUS
 90
15
 70
0
 10
-3.3054374017
 20
-21.3120335836
 10
-4.02081577
 20
-20.9733911458
 10
-4.7531075304
 20
-20.6192386273
 10
-5.4980174077
 20
-20.2517553955
 10
-6.2598406771
 20
-19.8687620829
 10
-7.0383278096
 20
-19.4675840675
 10
-7.8458944881
 20
-19.0408556752
 10
-8.6701250296
 20
-18.5959425801
 10
-9.473522857
 20
-18.1522671819
 10
-10.2426564458
 20
-17.7186714606
 10
-10.9909573204
 20
-17.2863134363
 10
-11.7212234765
 20
-16.8480895693
 10
-12.4343875794
 20
-16.4016320132
 10
-13.129516964
 20
-15.9493086144
 10
-13.80661163
 20
-15.4911193731
  0
LINE
  5
2AC
100
AcDbEntity
  8
ASSI
100
AcDbLine
 62
7
  6
CONTINUOUS
 10
-0.3400070922
 20
-22.1293104218
 11
-0.9959019204
 21
-21.8187536308
  0
LINE
  5
2AD
100
AcDbEntity
  8
ASSI
100
AcDbLine
 62
7
  6
CONTINUOUS
 10
-0.9959019204
 20
-21.8187536308
 11
-1.6242892636
 21
-21.5189011188
  0
LWPOLYLINE
  5
2AE
100
AcDbEntity
  8
ASSI
100
AcDbPolyline
 62
7
  6
CONTINUOUS
 90
4
 70
0
 10
-1.6242892636
 20
-21.5189011188
 10
-2.2249714337
 20
-21.2297405911
 10
-2.8030510246
 20
-20.9495772806
 10
-3.3589524864
 20
-20.6782828683
  0
LWPOLYLINE
  5
2AF
100
AcDbEntity
  8
ASSI
100
AcDbPolyline
 62
7
  6
CONTINUOUS
 90
8
 70
0
 10
-3.3589524864
 20
-20.6782828683
 10
-3.8922513689
 20
-20.4159856731
 10
-4.406776916
 20
-20.1613758843
 10
-4.9028072428
 20
-19.9143703948
 10
-5.380064234
 20
-19.6750523118
 10
-5.8415427877
 20
-19.4423611467
 10
-6.28786539
 20
-19.2160151838
 10
-6.7184095548
 20
-18.9962961389
  0
LINE
  5
2B0
100
AcDbEntity
  8
ASSI
100
AcDbLine
 62
7
  6
CONTINUOUS
 10
-6.7184095548
 20
-18.9962961389
 11
-7.2249247506
 21
-18.7362644526
  0
LWPOLYLINE
  5
2B1
100
AcDbEntity
  8
ASSI
100
AcDbPolyline
 62
7
  6
CONTINUOUS
 90
3
 70
0
 10
-7.2249247506
 20
-18.7362644526
 10
-7.5357012137
 20
-18.5760298242
 10
-7.9224487078
 20
-18.3754825545
  0
LWPOLYLINE
  5
2B2
100
AcDbEntity
  8
ASSI
100
AcDbPolyline
 62
7
  6
CONTINUOUS
 90
13
 70
0
 10
-7.9224487078
 20
-18.3754825545
 10
-8.2952036713
 20
-18.1813203824
 10
-8.653501706
 20
-17.9938064498
 10
-8.9978072101
 20
-17.812677615
 10
-9.3301718452
 20
-17.6371179741
 10
-9.6499581408
 20
-17.4674977965
 10
-9.9578035673
 20
-17.3034468129
 10
-10.2576721977
 20
-17.1430383119
 10
-10.5495505312
 20
-16.986315995
 10
-10.8334520686
 20
-16.8332361606
 10
-11.1133813858
 20
-16.6817409926
 10
-11.3895095987
 20
-16.5317688524
 10
-11.6616655915
 20
-16.3833813785
  0
LWPOLYLINE
  5
2B3
100
AcDbEntity
  8
ASSI
100
AcDbPolyline
 62
7
  6
CONTINUOUS
 90
13
 70
0
 10
-11.6616655915
 20
-16.3833813785
 10
-12.2058491882
 20
-16.085374748
 10
-12.4778767921
 20
-15.9357555913
 10
-12.7489708714
 20
-15.7850762432
 10
-13.0197004075
 20
-15.6331840815
 10
-13.2894964191
 20
-15.4802317285
 10
-13.5561994292
 20
-15.3259050934
 10
-13.8193035032
 20
-15.1699661563
 10
-14.0793145758
 20
-15.0126529371
 10
-14.3355909742
 20
-14.8543654048
 10
-14.5879188075
 20
-14.6952368825
 10
-14.8365119667
 20
-14.5351340471
 10
-15.0813704518
 20
-14.3740568987
  0
LWPOLYLINE
  5
2B4
100
AcDbEntity
  8
ASSI
100
AcDbPolyline
 62
250
  6
CONTINUOUS
 90
7
 70
0
 10
-11.9775345463
 20
-17.5167579074
 10
-10.7014676061
 20
-18.265529152
 10
-9.3962408056
 20
-19.0015721579
 10
-8.0623630128
 20
-19.7246036509
 10
-6.7003902595
 20
-20.4343269649
 10
-5.310818431
 20
-21.1304883288
 10
-3.8940758542
 20
-21.8128733759
  0
LWPOLYLINE
  5
2B5
100
AcDbEntity
  8
ASSI
100
AcDbPolyline
 62
250
  6
CONTINUOUS
 90
7
 70
0
 10
3.5332508627
 20
-26.8545511543
 10
3.5284618944
 20
-26.8514845161
 10
3.5236930049
 20
-26.8490468552
 10
3.5189441735
 20
-26.847238191
 10
3.5142153852
 20
-26.8460585388
 10
3.5095066296
 20
-26.8455079106
 10
3.5048179017
 20
-26.8455863142
  0
LWPOLYLINE
  5
2B6
100
AcDbEntity
  8
ASSI
100
AcDbPolyline
 62
7
  6
CONTINUOUS
 90
10
 70
0
 10
-15.0813704518
 20
-14.3740568987
 10
-15.095937254
 20
-14.3641914357
 10
-15.110174368
 20
-14.3541472856
 10
-15.1240817939
 20
-14.3439244486
 10
-15.1376951171
 20
-14.3334966066
 10
-15.1509787521
 20
-14.3228900776
 10
-15.1638259421
 20
-14.3121838158
 10
-15.1762011015
 20
-14.3014041392
 10
-15.1881398159
 20
-14.2905247299
 10
-15.1996420853
 20
-14.2795455878
  0
LWPOLYLINE
  5
2B7
100
AcDbEntity
  8
ASSI
100
AcDbPolyline
 62
250
  6
CONTINUOUS
 90
10
 70
0
 10
-14.2184733058
 20
-16.0665482173
 10
-13.9999585031
 20
-16.2211291249
 10
-13.7725624581
 20
-16.3769461438
 10
-13.5377397868
 20
-16.5343779516
 10
-13.2956439288
 20
-16.6935191057
 10
-13.0463796605
 20
-16.8544672131
 10
-12.7900597819
 20
-17.0173296877
 10
-12.5266219071
 20
-17.1820865499
 10
-12.2558557114
 20
-17.3486089547
 10
-11.9775345052
 20
-17.5167579322
  0
LWPOLYLINE
  5
2B8
100
AcDbEntity
  8
ASSI
100
AcDbPolyline
 62
250
  6
CONTINUOUS
 90
10
 70
0
 10
-15.1230062519
 20
-14.3960119881
 10
-15.000301184
 20
-14.5142124016
 10
-14.8717514526
 20
-14.6332975372
 10
-14.7373570578
 20
-14.7532673948
 10
-14.5971787819
 20
-14.8741422088
 10
-14.4511558425
 20
-14.9959017448
 10
-14.2991058924
 20
-15.1184852996
 10
-14.140968149
 20
-15.2418726387
 10
-13.9768033949
 20
-15.3660839965
 10
-13.80661163
 20
-15.4911193731
  0
LWPOLYLINE
  5
2B9
100
AcDbEntity
  8
ASSI
100
AcDbPolyline
 62
250
  6
CONTINUOUS
 90
19
 70
0
 10
-15.5707024187
 20
-14.9368488021
 10
-15.505819756
 20
-14.9995279153
 10
-15.4404729602
 20
-15.061603449
 10
-15.3744834585
 20
-15.1232644073
 10
-15.3081600592
 20
-15.1842103407
 10
-15.2411310351
 20
-15.2448068957
 10
-15.1722738911
 20
-15.3060784847
 10
-15.1005052664
 20
-15.3688862717
 10
-15.0265128795
 20
-15.4325422603
 10
-14.951780011
 20
-15.495801232
 10
-14.8769479111
 20
-15.5581148213
 10
-14.8010132142
 20
-15.6203070109
 10
-14.7230061224
 20
-15.6831889866
 10
-14.6417861459
 20
-15.7475787691
 10
-14.558211642
 20
-15.8127147094
 10
-14.4743898161
 20
-15.8770236058
 10
-14.3904822338
 20
-15.9403561035
 10
-14.3049781989
 20
-16.0037326055
 10
-14.2174365178
 20
-16.0674256155
  0
LINE
  5
2BA
100
AcDbEntity
  8
ASSI
100
AcDbLine
 62
7
  6
CONTINUOUS
 10
-15.1995947626
 20
-14.279588885
 11
-15.2381669742
 21
-14.2387991497
  0
LWPOLYLINE
  5
2BB
100
AcDbEntity
  8
ASSI
100
AcDbPolyline
 62
250
  6
CONTINUOUS
 90
7
 70
0
 10
-15.5695425422
 20
-14.9380866403
 10
-15.6109340812
 20
-14.8937015241
 10
-15.6453046728
 20
-14.8479364667
 10
-15.6725444146
 20
-14.8010213805
 10
-15.6925542464
 20
-14.7531551885
 10
-15.7051996423
 20
-14.7046102692
 10
-15.7103645147
 20
-14.6557354167
  0
LWPOLYLINE
  5
2BC
100
AcDbEntity
  8
ASSI
100
AcDbPolyline
 62
7
  6
CONTINUOUS
 90
8
 70
0
 10
-15.2381669742
 20
-14.2387991497
 10
-15.2702994467
 20
-14.1998217746
 10
-15.2961894152
 20
-14.1629191408
 10
-15.3161007427
 20
-14.1281004494
 10
-15.3302446359
 20
-14.0958179452
 10
-15.3388735153
 20
-14.0669752482
 10
-15.3423784235
 20
-14.0419887811
 10
-15.3425050866
 20
-14.0367021497
  0
LWPOLYLINE
  5
2BD
100
AcDbEntity
  8
ASSI
100
AcDbPolyline
 62
7
  6
CONTINUOUS
 90
25
 70
0
 10
-6.5183890281
 20
-26.3439394604
 10
-6.5919676844
 20
-26.2536559123
 10
-6.6624901347
 20
-26.1590975
 10
-6.7296396268
 20
-26.0606954054
 10
-6.7931154064
 20
-25.9588982659
 10
-6.8526332521
 20
-25.854170668
 10
-6.9079268631
 20
-25.7469911024
 10
-6.9587519965
 20
-25.6378497469
 10
-7.0048818834
 20
-25.5272440322
 10
-7.0461075666
 20
-25.415676977
 10
-7.0822505462
 20
-25.3036594978
 10
-7.1131514259
 20
-25.1917022092
 10
-7.1386651034
 20
-25.0803109665
 10
-7.1586858307
 20
-24.9699966705
 10
-7.173128231
 20
-24.8612621497
 10
-7.1819154264
 20
-24.7545940583
 10
-7.1850183454
 20
-24.6504819532
 10
-7.1824290289
 20
-24.5494010967
 10
-7.174140833
 20
-24.4517996673
 10
-7.1602021158
 20
-24.3581261607
 10
-7.140682912
 20
-24.268809065
 10
-7.1156471148
 20
-24.1842403342
 10
-7.0852057283
 20
-24.1048026013
 10
-7.0495166236
 20
-24.0308671597
 10
-7.0087502892
 20
-23.9627743279
  0
LWPOLYLINE
  5
2BE
100
AcDbEntity
  8
ASSI
100
AcDbPolyline
 62
7
  6
CONTINUOUS
 90
22
 70
0
 10
-6.4971651341
 20
-26.3333275134
 10
-6.5707436734
 20
-26.2430441504
 10
-6.6412659404
 20
-26.1484860715
 10
-6.7084151993
 20
-26.0500844704
 10
-6.771890706
 20
-25.9482880027
 10
-6.8314082678
 20
-25.8435612498
 10
-6.8867016265
 20
-25.7363826717
 10
-6.9375265641
 20
-25.627242428
 10
-6.9836563241
 20
-25.5166379528
 10
-7.0248819715
 20
-25.4050722579
 10
-7.061025
 20
-25.2930563365
 10
-7.0919260696
 20
-25.1811006931
 10
-7.1174401551
 20
-25.0697108933
 10
-7.1374614979
 20
-24.9593977605
 10
-7.1519046812
 20
-24.8506641756
 10
-7.1606928066
 20
-24.7439967114
 10
-7.1637967648
 20
-24.6398850004
 10
-7.1612085639
 20
-24.5388042414
 10
-7.1529214858
 20
-24.4412023633
 10
-7.1389838021
 20
-24.3475279127
 10
-7.1194654618
 20
-24.2582094559
 10
-7.0944301983
 20
-24.1736388188
  0
LWPOLYLINE
  5
2BF
100
AcDbEntity
  8
ASSI
100
AcDbPolyline
 62
7
  6
CONTINUOUS
 90
7
 70
0
 10
-14.1732017301
 20
-18.006586746
 10
-14.1764852721
 20
-18.0025217174
 10
-14.1797765227
 20
-17.9990712458
 10
-14.1830754651
 20
-17.9962353287
 10
-14.186382075
 20
-17.9940139606
 10
-14.1896963207
 20
-17.9924071337
 10
-14.1943986115
 20
-17.9912791207
  0
LINE
  5
2C0
100
AcDbEntity
  8
ASSI
100
AcDbLine
 62
7
  6
CONTINUOUS
 10
-6.7641810721
 20
-26.7271136686
 11
-6.8959413054
 21
-26.5604321331
  0
LINE
  5
2C1
100
AcDbEntity
  8
ASSI
100
AcDbLine
 62
7
  6
CONTINUOUS
 10
-6.7441490448
 20
-26.7150728684
 11
-6.8751176792
 21
-26.5492709435
  0
LWPOLYLINE
  5
2C2
100
AcDbEntity
  8
ASSI
100
AcDbPolyline
 62
7
  6
CONTINUOUS
 90
12
 70
0
 10
-6.8959413054
 20
-26.5604321331
 10
-7.0205848406
 20
-26.383351049
 10
-7.1360968833
 20
-26.1988185038
 10
-7.2411321004
 20
-26.0095290629
 10
-7.3357651664
 20
-25.8159200816
 10
-7.4201854379
 20
-25.6176857303
 10
-7.4939893844
 20
-25.4152270003
 10
-7.5559907202
 20
-25.2111125525
 10
-7.6052725872
 20
-25.00824945
 10
-7.641495167
 20
-24.8086325678
 10
-7.664620647
 20
-24.6133308767
 10
-7.6745876797
 20
-24.4238077619
  0
LWPOLYLINE
  5
2C3
100
AcDbEntity
  8
ASSI
100
AcDbPolyline
 62
7
  6
CONTINUOUS
 90
12
 70
0
 10
-6.8751176792
 20
-26.5492709435
 10
-6.9985623309
 20
-26.3739271083
 10
-7.1135817528
 20
-26.1903879659
 10
-7.2193160234
 20
-26.0000550738
 10
-7.3149658311
 20
-25.8043816838
 10
-7.3998278833
 20
-25.604870068
 10
-7.4732796629
 20
-25.4030532501
 10
-7.5347691687
 20
-25.2004689931
 10
-7.5838299253
 20
-24.9986546714
 10
-7.620100925
 20
-24.7991526723
 10
-7.6433305645
 20
-24.603498619
 10
-7.65336282
 20
-24.4131953321
  0
LINE
  5
2C4
100
AcDbEntity
  8
ASSI
100
AcDbLine
 62
7
  6
CONTINUOUS
 10
-6.3065031055
 20
-25.03072449
 11
-6.1040991533
 21
-25.3349571482
  0
LWPOLYLINE
  5
2C5
100
AcDbEntity
  8
ASSI
100
AcDbPolyline
 62
7
  6
CONTINUOUS
 90
10
 70
0
 10
-4.4396585976
 20
-28.8226250048
 10
-4.500840893
 20
-28.7284771144
 10
-4.5641431862
 20
-28.6362526798
 10
-4.6294519036
 20
-28.5461222421
 10
-4.6966449596
 20
-28.4582709635
 10
-4.765605624
 20
-28.3728405636
 10
-4.8362260782
 20
-28.2899335235
 10
-4.9083875179
 20
-28.209688238
 10
-4.9819570549
 20
-28.1322742332
 10
-5.0479670096
 20
-28.0666257701
  0
LWPOLYLINE
  5
2C6
100
AcDbEntity
  8
ASSI
100
AcDbPolyline
 62
7
  6
CONTINUOUS
 90
10
 70
0
 10
-4.4608931048
 20
-28.8332422584
 10
-4.5220345981
 20
-28.739154466
 10
-4.5853120549
 20
-28.6469606637
 10
-4.6506139914
 20
-28.5568330138
 10
-4.7178321998
 20
-28.4689433454
 10
-4.786840312
 20
-28.3834517476
 10
-4.8574940352
 20
-28.3005062898
 10
-4.9296602425
 20
-28.2202575258
 10
-5.0032171926
 20
-28.1428581945
 10
-5.0780331271
 20
-28.0684518623
  0
LWPOLYLINE
  5
2C7
100
AcDbEntity
  8
ASSI
100
AcDbPolyline
 62
250
  6
CONTINUOUS
 90
7
 70
0
 10
-12.193857999
 20
-25.5166464638
 10
-12.42708778
 20
-25.0890565574
 10
-12.6460091154
 20
-24.6610306447
 10
-12.8505906274
 20
-24.2338405163
 10
-13.040947371
 20
-23.8087402989
 10
-13.2175707307
 20
-23.3870463117
 10
-13.3812167253
 20
-22.9700348386
  0
LINE
  5
2C8
100
AcDbEntity
  8
ASSI
100
AcDbLine
 62
250
  6
CONTINUOUS
 10
-11.822006175
 20
-25.2691999315
 11
-11.8520870015
 21
-25.2133988574
  0
LWPOLYLINE
  5
2C9
100
AcDbEntity
  8
ASSI
100
AcDbPolyline
 62
250
  6
CONTINUOUS
 90
16
 70
0
 10
-11.8520913108
 20
-25.2134041482
 10
-11.9511895504
 20
-25.0256667076
 10
-12.0451112077
 20
-24.842862159
 10
-12.1339140288
 20
-24.665015202
 10
-12.2172155233
 20
-24.4927395396
 10
-12.2955035194
 20
-24.3254684902
 10
-12.3701226634
 20
-24.1614484487
 10
-12.4414949441
 20
-23.9998067184
 10
-12.5092548973
 20
-23.8414427227
 10
-12.5735513786
 20
-23.6872546807
 10
-12.6342308903
 20
-23.5378002397
 10
-12.6914982462
 20
-23.3925473918
 10
-12.7460338675
 20
-23.2507573026
 10
-12.7980739117
 20
-23.1121886059
 10
-12.8474151169
 20
-22.9770996943
 10
-12.8940730137
 20
-22.8454986155
  0
LWPOLYLINE
  5
2CA
100
AcDbEntity
  8
ASSI
100
AcDbPolyline
 62
250
  6
CONTINUOUS
 90
20
 70
0
 10
-14.1784362307
 20
-18.0218607223
 10
-14.1769812341
 20
-18.0251515385
 10
-14.1756320926
 20
-18.0284150662
 10
-14.1743906161
 20
-18.0316513875
 10
-14.1732855004
 20
-18.0348280113
 10
-14.1722908075
 20
-18.0379779108
 10
-14.1713254011
 20
-18.0411992384
 10
-14.1703810043
 20
-18.0444655697
 10
-14.1694664247
 20
-18.047803481
 10
-14.1685252369
 20
-18.0513902959
 10
-14.1675380064
 20
-18.0552776235
 10
-14.1665238802
 20
-18.0594138537
 10
-14.1654840138
 20
-18.06382137
 10
-14.1644188983
 20
-18.0684981098
 10
-14.1633277786
 20
-18.0734461908
 10
-14.1622099559
 20
-18.0786942852
 10
-14.1610578433
 20
-18.0842885566
 10
-14.1598787156
 20
-18.0901829327
 10
-14.1586943064
 20
-18.0962677666
 10
-14.1574772936
 20
-18.1027178105
  0
LWPOLYLINE
  5
2CB
100
AcDbEntity
  8
ASSI
100
AcDbPolyline
 62
250
  6
CONTINUOUS
 90
10
 70
0
 10
-15.1996420853
 20
-14.2795455878
 10
-15.1946265113
 20
-14.2931565991
 10
-15.1887476547
 20
-14.306581759
 10
-15.1820055153
 20
-14.3198210676
 10
-15.1744155557
 20
-14.3328501565
 10
-15.1659623134
 20
-14.345693394
 10
-15.1565994007
 20
-14.3584238854
 10
-15.1463113549
 20
-14.3710659991
 10
-15.1351136386
 20
-14.3835953666
 10
-15.1230062519
 20
-14.3960119881
  0
LINE
  5
2CC
100
AcDbEntity
  8
ASSI
100
AcDbLine
 62
250
  6
CONTINUOUS
 10
-12.541584254
 20
-34.0007209031
 11
-12.5891300308
 21
-33.8636082319
  0
LWPOLYLINE
  5
2CD
100
AcDbEntity
  8
ASSI
100
AcDbPolyline
 62
250
  6
CONTINUOUS
 90
17
 70
0
 10
-12.8940730137
 20
-22.8454986155
 10
-12.9420357061
 20
-22.7070093956
 10
-12.9878856514
 20
-22.5723240929
 10
-13.0316342699
 20
-22.4414489775
 10
-13.0731739267
 20
-22.3145047773
 10
-13.1126360152
 20
-22.191382637
 10
-13.150388848
 20
-22.0717432998
 10
-13.1864764332
 20
-21.9556303736
 10
-13.2208744663
 20
-21.8430091753
 10
-13.2538453679
 20
-21.7334213784
 10
-13.285419807
 20
-21.6268162503
 10
-13.3155831274
 20
-21.5232513827
 10
-13.3445270861
 20
-21.4224297453
 10
-13.372277917
 20
-21.3242905295
 10
-13.3988226996
 20
-21.2289000944
 10
-13.4242927977
 20
-21.1361514513
 10
-13.4486834354
 20
-21.0461123173
  0
LINE
  5
2CE
100
AcDbEntity
  8
ASSI
100
AcDbLine
 62
250
  6
CONTINUOUS
 10
-12.5891300308
 20
-33.8636082319
 11
-12.6124356751
 21
-33.7952121318
  0
LINE
  5
2CF
100
AcDbEntity
  8
ASSI
100
AcDbLine
 62
250
  6
CONTINUOUS
 10
-12.6124356751
 20
-33.7952121318
 11
-12.6414399992
 21
-33.7077651651
  0
LINE
  5
2D0
100
AcDbEntity
  8
ASSI
100
AcDbLine
 62
250
  6
CONTINUOUS
 10
-12.6414399992
 20
-33.7077651651
 11
-12.6925714451
 21
-33.5478130141
  0
LWPOLYLINE
  5
2D1
100
AcDbEntity
  8
ASSI
100
AcDbPolyline
 62
250
  6
CONTINUOUS
 90
3
 70
0
 10
-14.4452908747
 20
-26.645621371
 10
-14.4337303201
 20
-26.6821173911
 10
-14.4149270629
 20
-26.7164010316
  0
LWPOLYLINE
  5
2D2
100
AcDbEntity
  8
ASSI
100
AcDbPolyline
 62
250
  6
CONTINUOUS
 90
3
 70
0
 10
-12.6925714451
 20
-33.5478130141
 10
-12.7132657359
 20
-33.481604241
 10
-12.7194201892
 20
-33.4616277047
  0
LINE
  5
2D3
100
AcDbEntity
  8
ASSI
100
AcDbLine
 62
7
  6
CONTINUOUS
 10
-12.7015697209
 20
-33.548694439
 11
-12.6977579699
 21
-33.5609542669
  0
LINE
  5
2D4
100
AcDbEntity
  8
ASSI
100
AcDbLine
 62
7
  6
CONTINUOUS
 10
-12.7095746898
 20
-33.5225821533
 11
-12.7015697209
 21
-33.548694439
  0
LWPOLYLINE
  5
2D5
100
AcDbEntity
  8
ASSI
100
AcDbPolyline
 62
7
  6
CONTINUOUS
 90
8
 70
0
 10
-12.6977582612
 20
-33.5609543666
 10
-12.694701906
 20
-33.5710825529
 10
-12.6669276898
 20
-33.6611830687
 10
-12.6359064026
 20
-33.7579910799
 10
-12.6022395443
 20
-33.8592579997
 10
-12.5690257304
 20
-33.9578968418
 10
-12.5367676084
 20
-34.0518439777
 10
-12.5103219536
 20
-34.1272780446
  0
LINE
  5
2D6
100
AcDbEntity
  8
ASSI
100
AcDbLine
 62
7
  6
CONTINUOUS
 10
-12.7294707101
 20
-33.4565672904
 11
-12.7095746898
 21
-33.5225821533
  0
LINE
  5
2D7
100
AcDbEntity
  8
ASSI
100
AcDbLine
 62
7
  6
CONTINUOUS
 10
-12.7388150708
 20
-33.42518299
 11
-12.7294707101
 21
-33.4565672904
  0
LINE
  5
2D8
100
AcDbEntity
  8
ASSI
100
AcDbLine
 62
250
  6
CONTINUOUS
 10
-12.7191655708
 20
-33.4640412813
 11
-12.7528925247
 21
-33.3483593077
  0
LWPOLYLINE
  5
2D9
100
AcDbEntity
  8
ASSI
100
AcDbPolyline
 62
250
  6
CONTINUOUS
 90
26
 70
0
 10
-12.7528925247
 20
-33.3483593077
 10
-12.8450354385
 20
-33.0268270484
 10
-12.9072427253
 20
-32.8074449005
 10
-12.9772504302
 20
-32.5583167328
 10
-13.0434878157
 20
-32.3205739269
 10
-13.1002616043
 20
-32.115160703
 10
-13.1535198899
 20
-31.9210034055
 10
-13.2092958996
 20
-31.7161225817
 10
-13.2710272912
 20
-31.4874616406
 10
-13.3350134423
 20
-31.2482233122
 10
-13.3965726195
 20
-31.0158178001
 10
-13.4526870068
 20
-30.8019740638
 10
-13.506539166
 20
-30.5948692771
 10
-13.5627540459
 20
-30.3765840224
 10
-13.6219606347
 20
-30.1442815148
 10
-13.6832935722
 20
-29.9009242701
 10
-13.7488867795
 20
-29.6374276505
 10
-13.8205188884
 20
-29.3456592428
 10
-13.895847927
 20
-29.0340389901
 10
-13.9709048892
 20
-28.718272007
 10
-14.0439435149
 20
-28.405560547
 10
-14.1166010239
 20
-28.08874234
 10
-14.1900973426
 20
-27.7619201237
 10
-14.2646731379
 20
-27.4232058814
 10
-14.3396852481
 20
-27.0746698254
 10
-14.414927071
 20
-26.7164009923
  0
LINE
  5
2DA
100
AcDbEntity
  8
ASSI
100
AcDbLine
 62
7
  6
CONTINUOUS
 10
-12.7530990322
 20
-33.3749575217
 11
-12.7388164507
 21
-33.425183923
  0
LINE
  5
2DB
100
AcDbEntity
  8
ASSI
100
AcDbLine
 62
7
  6
CONTINUOUS
 10
-12.8991187443
 20
-32.8635007044
 11
-12.7530990322
 21
-33.3749575217
  0
LINE
  5
2DC
100
AcDbEntity
  8
ASSI
100
AcDbLine
 62
7
  6
CONTINUOUS
 10
-13.0076432771
 20
-32.4777830362
 11
-12.8991187443
 21
-32.8635007044
  0
LINE
  5
2DD
100
AcDbEntity
  8
ASSI
100
AcDbLine
 62
7
  6
CONTINUOUS
 10
-13.0961021051
 20
-32.1592663613
 11
-13.0076432771
 21
-32.4777830362
  0
LINE
  5
2DE
100
AcDbEntity
  8
ASSI
100
AcDbLine
 62
7
  6
CONTINUOUS
 10
-13.1917455722
 20
-31.8106594807
 11
-13.0961021051
 21
-32.1592663613
  0
LINE
  5
2DF
100
AcDbEntity
  8
ASSI
100
AcDbLine
 62
7
  6
CONTINUOUS
 10
-13.2602563544
 20
-31.5583728344
 11
-13.1917455722
 21
-31.8106594807
  0
LINE
  5
2E0
100
AcDbEntity
  8
ASSI
100
AcDbLine
 62
7
  6
CONTINUOUS
 10
-13.3330314769
 20
-31.2875749021
 11
-13.2602563544
 21
-31.5583728344
  0
LINE
  5
2E1
100
AcDbEntity
  8
ASSI
100
AcDbLine
 62
7
  6
CONTINUOUS
 10
-13.410827174
 20
-30.9947165392
 11
-13.3330314769
 21
-31.2875749021
  0
LWPOLYLINE
  5
2E2
100
AcDbEntity
  8
ASSI
100
AcDbPolyline
 62
250
  6
CONTINUOUS
 90
4
 70
0
 10
-15.0350730444
 20
-23.4453833082
 10
-15.028025364
 20
-23.4758629014
 10
-15.0113414189
 20
-23.5165218559
 10
-14.9865817683
 20
-23.5554624327
  0
LWPOLYLINE
  5
2E3
100
AcDbEntity
  8
ASSI
100
AcDbPolyline
 62
7
  6
CONTINUOUS
 90
17
 70
0
 10
-14.4452989972
 20
-26.6455824003
 10
-14.377593467
 20
-26.9657936536
 10
-14.2833362986
 20
-27.4007070571
 10
-14.195130983
 20
-27.7972403857
 10
-14.1149202397
 20
-28.1498031244
 10
-14.0421069705
 20
-28.4637693503
 10
-13.9732940333
 20
-28.7555472556
 10
-13.9080623829
 20
-29.0279833663
 10
-13.8473456868
 20
-29.2781390115
 10
-13.7894431768
 20
-29.5138012944
 10
-13.7342103041
 20
-29.7360937486
 10
-13.6820732108
 20
-29.9438545357
 10
-13.6320435901
 20
-30.1413937249
 10
-13.5840541736
 20
-30.3292434519
 10
-13.5383127681
 20
-30.5068429474
 10
-13.4941880809
 20
-30.6768632441
 10
-13.410827174
 20
-30.9947165392
  0
LINE
  5
2E4
100
AcDbEntity
  8
ASSI
100
AcDbLine
 62
250
  6
CONTINUOUS
 10
-14.414927071
 20
-26.7164009923
 11
-14.469004444
 21
-26.4527106335
  0
LWPOLYLINE
  5
2E5
100
AcDbEntity
  8
ASSI
100
AcDbPolyline
 62
250
  6
CONTINUOUS
 90
12
 70
0
 10
-14.469004444
 20
-26.4527106335
 10
-14.5211792546
 20
-26.193108132
 10
-14.5714836718
 20
-25.9375795881
 10
-14.6192901581
 20
-25.6895729956
 10
-14.6653211466
 20
-25.4456005171
 10
-14.7114996009
 20
-25.1953092584
 10
-14.7584188002
 20
-24.9348743943
 10
-14.8052328986
 20
-24.6682479331
 10
-14.8515827115
 20
-24.396804233
 10
-14.8972869967
 20
-24.1210385087
 10
-14.9423230323
 20
-23.8405710465
 10
-14.9865817742
 20
-23.5554623939
  0
LWPOLYLINE
  5
2E6
100
AcDbEntity
  8
ASSI
100
AcDbPolyline
 62
250
  6
CONTINUOUS
 90
3
 70
0
 10
-15.2484804442
 20
-21.5790593272
 10
-15.2684459661
 20
-21.3971527472
 10
-15.2866022875
 20
-21.2258420974
  0
LINE
  5
2E7
100
AcDbEntity
  8
ASSI
100
AcDbLine
 62
250
  6
CONTINUOUS
 10
-14.0730680264
 20
-18.7605848562
 11
-14.0555605302
 21
-18.9224527374
  0
LINE
  5
2E8
100
AcDbEntity
  8
ASSI
100
AcDbLine
 62
250
  6
CONTINUOUS
 10
-14.0222647903
 20
-19.2406617541
 11
-13.9989744686
 21
-19.457275737
  0
LINE
  5
2E9
100
AcDbEntity
  8
ASSI
100
AcDbLine
 62
250
  6
CONTINUOUS
 10
-14.0555605302
 20
-18.9224527374
 11
-14.0222647903
 21
-19.2406617541
  0
LWPOLYLINE
  5
2EA
100
AcDbEntity
  8
ASSI
100
AcDbPolyline
 62
250
  6
CONTINUOUS
 90
7
 70
0
 10
-15.6846954615
 20
-16.5997928932
 10
-15.6804966987
 20
-16.6402415364
 10
-15.6688541477
 20
-16.6857072282
 10
-15.6500284452
 20
-16.7303934584
 10
-15.6241984428
 20
-16.773988734
 10
-15.5914673669
 20
-16.8163324559
 10
-15.5519623357
 20
-16.8571933651
  0
LWPOLYLINE
  5
2EB
100
AcDbEntity
  8
ASSI
100
AcDbPolyline
 62
250
  6
CONTINUOUS
 90
7
 70
0
 10
-15.2866022875
 20
-21.2258420974
 10
-15.3030656117
 20
-21.0650702155
 10
-15.3171715008
 20
-20.922692705
 10
-15.3298472803
 20
-20.790725335
 10
-15.3433650423
 20
-20.6454643711
 10
-15.3582823565
 20
-20.4791059072
 10
-15.3736889105
 20
-20.2996257581
  0
LWPOLYLINE
  5
2EC
100
AcDbEntity
  8
ASSI
100
AcDbPolyline
 62
7
  6
CONTINUOUS
 90
7
 70
0
 10
-15.4514494785
 20
-20.2124755754
 10
-15.4281309356
 20
-20.4440546758
 10
-15.4013100324
 20
-20.6986290175
 10
-15.3723412841
 20
-20.9612865043
 10
-15.3463786184
 20
-21.187181002
 10
-15.325715714
 20
-21.3612972972
 10
-15.3007891043
 20
-21.5651912739
  0
LWPOLYLINE
  5
2ED
100
AcDbEntity
  8
ASSI
100
AcDbPolyline
 62
250
  6
CONTINUOUS
 90
6
 70
0
 10
-15.5966358523
 20
-18.4249920525
 10
-15.5950119215
 20
-18.4412068803
 10
-15.5827449938
 20
-18.4941172331
 10
-15.5599906683
 20
-18.5457507642
 10
-15.5268763335
 20
-18.5957168175
 10
-15.4835320729
 20
-18.6436016426
  0
LINE
  5
2EE
100
AcDbEntity
  8
ASSI
100
AcDbLine
 62
7
  6
CONTINUOUS
 10
-15.4789370712
 20
-19.9250298694
 11
-15.4514494785
 21
-20.2124755754
  0
LWPOLYLINE
  5
2EF
100
AcDbEntity
  8
ASSI
100
AcDbPolyline
 62
7
  6
CONTINUOUS
 90
4
 70
0
 10
-15.5202298903
 20
-19.4590399591
 10
-15.508520818
 20
-19.5960787667
 10
-15.4943650264
 20
-19.7563464701
 10
-15.4787646498
 20
-19.9268076993
  0
LINE
  5
2F0
100
AcDbEntity
  8
ASSI
100
AcDbLine
 62
250
  6
CONTINUOUS
 10
-15.3736889105
 20
-20.2996257581
 11
-15.3958180669
 21
-20.0257430081
  0
LINE
  5
2F1
100
AcDbEntity
  8
ASSI
100
AcDbLine
 62
250
  6
CONTINUOUS
 10
-15.3958180669
 20
-20.0257430081
 11
-15.4078868452
 21
-19.8672366181
  0
LINE
  5
2F2
100
AcDbEntity
  8
ASSI
100
AcDbLine
 62
250
  6
CONTINUOUS
 10
-15.4078868452
 20
-19.8672366181
 11
-15.4216922994
 21
-19.6765543814
  0
LWPOLYLINE
  5
2F3
100
AcDbEntity
  8
ASSI
100
AcDbPolyline
 62
7
  6
CONTINUOUS
 90
4
 70
0
 10
-15.5842567094
 20
-18.6127446922
 10
-15.5636117256
 20
-18.9046086048
 10
-15.5450987383
 20
-19.148892804
 10
-15.5202298903
 20
-19.4590399591
  0
LINE
  5
2F4
100
AcDbEntity
  8
ASSI
100
AcDbLine
 62
250
  6
CONTINUOUS
 10
-15.4216922994
 20
-19.6765543814
 11
-15.4306252513
 21
-19.5465799488
  0
LINE
  5
2F5
100
AcDbEntity
  8
ASSI
100
AcDbLine
 62
250
  6
CONTINUOUS
 10
-15.4302703388
 20
-19.5465598965
 11
-15.4417714361
 21
-19.3709491297
  0
LINE
  5
2F6
100
AcDbEntity
  8
ASSI
100
AcDbLine
 62
250
  6
CONTINUOUS
 10
-15.4417714361
 20
-19.3709491297
 11
-15.4530786385
 21
-19.1895419344
  0
LINE
  5
2F7
100
AcDbEntity
  8
ASSI
100
AcDbLine
 62
250
  6
CONTINUOUS
 10
-15.4530786385
 20
-19.1895419344
 11
-15.4653624749
 21
-18.9812045153
  0
LINE
  5
2F8
100
AcDbEntity
  8
ASSI
100
AcDbLine
 62
250
  6
CONTINUOUS
 10
-15.4653624749
 20
-18.9812045153
 11
-15.4737755425
 21
-18.8300181561
  0
LINE
  5
2F9
100
AcDbEntity
  8
ASSI
100
AcDbLine
 62
250
  6
CONTINUOUS
 10
-15.4737755425
 20
-18.8300181561
 11
-15.4835320301
 21
-18.6436016594
  0
LWPOLYLINE
  5
2FA
100
AcDbEntity
  8
ASSI
100
AcDbPolyline
 62
250
  6
CONTINUOUS
 90
3
 70
0
 10
-15.4835320301
 20
-18.6436016594
 10
-15.4951101995
 20
-18.4109302649
 10
-15.5050946512
 20
-18.193894522
  0
LWPOLYLINE
  5
2FB
100
AcDbEntity
  8
ASSI
100
AcDbPolyline
 62
250
  6
CONTINUOUS
 90
3
 70
0
 10
-15.5050946512
 20
-18.193894522
 10
-15.513698586
 20
-17.9923788862
 10
-15.520751369
 20
-17.8154747122
  0
LWPOLYLINE
  5
2FC
100
AcDbEntity
  8
ASSI
100
AcDbPolyline
 62
7
  6
CONTINUOUS
 90
8
 70
0
 10
-15.6733113222
 20
-16.9240895167
 10
-15.656719199
 20
-17.3267081174
 10
-15.6409259117
 20
-17.6574526286
 10
-15.628146773
 20
-17.8993520495
 10
-15.618519906
 20
-18.0694518474
 10
-15.6096277116
 20
-18.2186866775
 10
-15.6005640919
 20
-18.3640325792
 10
-15.5842567094
 20
-18.6127446922
  0
LWPOLYLINE
  5
2FD
100
AcDbEntity
  8
ASSI
100
AcDbPolyline
 62
250
  6
CONTINUOUS
 90
4
 70
0
 10
-15.520751369
 20
-17.8154747122
 10
-15.5330861253
 20
-17.4799372257
 10
-15.5396057047
 20
-17.2845703247
 10
-15.5459451829
 20
-17.0769783433
  0
LWPOLYLINE
  5
2FE
100
AcDbEntity
  8
ASSI
100
AcDbPolyline
 62
250
  6
CONTINUOUS
 90
9
 70
0
 10
-15.342503758
 20
-1.1689895514
 10
-15.3419876408
 20
-1.1871727828
 10
-15.33356188
 20
-1.2452974239
 10
-15.3149750132
 20
-1.3025568433
 10
-15.2864576544
 20
-1.3585704824
 10
-15.2483790537
 20
-1.4128322873
 10
-15.2011824186
 20
-1.464918446
 10
-15.1453335166
 20
-1.5144840783
 10
-15.081370912
 20
-1.5611840329
  0
LINE
  5
2FF
100
AcDbEntity
  8
ASSI
100
AcDbLine
 62
250
  6
CONTINUOUS
 10
-15.5459451829
 20
-17.0769783433
 11
-15.5527192178
 21
-16.8270984551
  0
LWPOLYLINE
  5
300
100
AcDbEntity
  8
ASSI
100
AcDbPolyline
 62
250
  6
CONTINUOUS
 90
10
 70
0
 10
-15.5527537451
 20
-16.8270705682
 10
-15.5569573064
 20
-16.6248896906
 10
-15.5606203886
 20
-16.4209320765
 10
-15.5637642512
 20
-16.215174512
 10
-15.5664953964
 20
-16.0078359435
 10
-15.5687728553
 20
-15.7986745501
 10
-15.5703364418
 20
-15.587008295
 10
-15.5711299617
 20
-15.3726751222
 10
-15.5712664207
 20
-15.1559513181
 10
-15.5707024187
 20
-14.9368488021
  0
LWPOLYLINE
  5
301
100
AcDbEntity
  8
ASSI
100
AcDbPolyline
 62
7
  6
CONTINUOUS
 90
9
 70
0
 10
-15.710636468
 20
-14.7739157034
 10
-15.710225842
 20
-15.0481883911
 10
-15.7087491912
 20
-15.3154917434
 10
-15.706277087
 20
-15.5760254813
 10
-15.7027605927
 20
-15.8295145958
 10
-15.6982520327
 20
-16.075162116
 10
-15.6927799706
 20
-16.3124276672
 10
-15.6864910556
 20
-16.5417610412
 10
-15.6733113222
 20
-16.9240895167
  0
LINE
  5
302
100
AcDbEntity
  8
ASSI
100
AcDbLine
 62
7
  6
CONTINUOUS
 10
-15.3425050875
 20
-14.0364983591
 11
-15.3425050875
 21
-1.1687162922
  0
LINE
  5
303
100
AcDbEntity
  8
ASSI
100
AcDbLine
 62
7
  6
CONTINUOUS
 10
-15.710636468
 20
-14.7739157034
 11
-15.7103709727
 21
-14.6453364581
  0
LWPOLYLINE
  5
304
100
AcDbEntity
  8
ASSI
100
AcDbPolyline
 62
250
  6
CONTINUOUS
 90
10
 70
0
 10
-14.2199670939
 20
-19.3504442583
 10
-14.3882634878
 20
-19.3897219573
 10
-14.5454393222
 20
-19.4224085411
 10
-14.6955711804
 20
-19.4504622104
 10
-14.8404552472
 20
-19.4747304538
 10
-14.9788934045
 20
-19.4954350406
 10
-15.1069216091
 20
-19.5124990199
 10
-15.223745243
 20
-19.5263222054
 10
-15.3315491311
 20
-19.53756814
 10
-15.4306252513
 20
-19.5465799488
  0
LINE
  5
305
100
AcDbEntity
  8
ASSI
100
AcDbLine
 62
250
  6
CONTINUOUS
 10
-14.1317993395
 20
-18.2065592853
 11
-14.1405601324
 21
-18.2070928925
  0
LINE
  5
306
100
AcDbEntity
  8
ASSI
100
AcDbLine
 62
250
  6
CONTINUOUS
 10
-14.1232405659
 20
-18.206097063
 11
-14.1317993395
 21
-18.2065592853
  0
LINE
  5
307
100
AcDbEntity
  8
ASSI
100
AcDbLine
 62
250
  6
CONTINUOUS
 10
-14.1148020461
 20
-18.2056910607
 11
-14.1232405659
 21
-18.206097063
  0
LWPOLYLINE
  5
308
100
AcDbEntity
  8
ASSI
100
AcDbPolyline
 62
250
  6
CONTINUOUS
 90
3
 70
0
 10
-14.1024765992
 20
-18.2052083699
 10
-14.1065211913
 20
-18.2053468851
 10
-14.1148020461
 20
-18.2056910607
  0
LINE
  5
309
100
AcDbEntity
  8
ASSI
100
AcDbLine
 62
7
  6
CONTINUOUS
 10
1.5666421731
 20
-18.1237203202
 11
1.2167118086
 21
-17.9622572827
  0
LINE
  5
30A
100
AcDbEntity
  8
ASSI
100
AcDbLine
 62
7
  6
CONTINUOUS
 10
1.2167118086
 20
-17.9622572827
 11
0.8632195052
 21
-17.798436642
  0
LINE
  5
30B
100
AcDbEntity
  8
ASSI
100
AcDbLine
 62
7
  6
CONTINUOUS
 10
-0.3012154847
 20
-17.2536503786
 11
-0.6089493175
 21
-17.1083466222
  0
LINE
  5
30C
100
AcDbEntity
  8
ASSI
100
AcDbLine
 62
7
  6
CONTINUOUS
 10
-0.6089493175
 20
-17.1083466222
 11
-0.9189072936
 21
-16.9614251134
  0
LINE
  5
30D
100
AcDbEntity
  8
ASSI
100
AcDbLine
 62
7
  6
CONTINUOUS
 10
-1.3294022956
 20
-16.7659751755
 11
-1.6351218781
 21
-16.6197443622
  0
LINE
  5
30E
100
AcDbEntity
  8
ASSI
100
AcDbLine
 62
7
  6
CONTINUOUS
 10
-1.6351218781
 20
-16.6197443622
 11
-1.9432206383
 21
-16.471804517
  0
LINE
  5
30F
100
AcDbEntity
  8
ASSI
100
AcDbLine
 62
7
  6
CONTINUOUS
 10
-3.29193712
 20
-15.8173818368
 11
-3.5934698319
 21
-15.6695378052
  0
LINE
  5
310
100
AcDbEntity
  8
ASSI
100
AcDbLine
 62
7
  6
CONTINUOUS
 10
-3.5934698319
 20
-15.6695378052
 11
-3.8982897482
 21
-15.5195034197
  0
LINE
  5
311
100
AcDbEntity
  8
ASSI
100
AcDbLine
 62
7
  6
CONTINUOUS
 10
-4.301231867
 20
-15.3202683799
 11
-4.6012731164
 21
-15.1712439668
  0
LINE
  5
312
100
AcDbEntity
  8
ASSI
100
AcDbLine
 62
7
  6
CONTINUOUS
 10
-4.6012731164
 20
-15.1712439668
 11
-4.903714169
 21
-15.0204461395
  0
LINE
  5
313
100
AcDbEntity
  8
ASSI
100
AcDbLine
 62
7
  6
CONTINUOUS
 10
-5.4711962914
 20
-14.7359022762
 11
-5.7698483742
 21
-14.5853246323
  0
LINE
  5
314
100
AcDbEntity
  8
ASSI
100
AcDbLine
 62
7
  6
CONTINUOUS
 10
-5.7698483742
 20
-14.5853246323
 11
-6.0691461088
 21
-14.433837303
  0
LINE
  5
315
100
AcDbEntity
  8
ASSI
100
AcDbLine
 62
7
  6
CONTINUOUS
 10
-6.6323499265
 20
-14.1471700187
 11
-6.9295210961
 21
-13.9950643367
  0
LINE
  5
316
100
AcDbEntity
  8
ASSI
100
AcDbLine
 62
7
  6
CONTINUOUS
 10
-6.9295210961
 20
-13.9950643367
 11
-7.2257965188
 21
-13.8428299234
  0
LINE
  5
317
100
AcDbEntity
  8
ASSI
100
AcDbLine
 62
7
  6
CONTINUOUS
 10
-7.8169050603
 20
-13.5373363591
 11
-8.1105907733
 21
-13.3846782377
  0
LINE
  5
318
100
AcDbEntity
  8
ASSI
100
AcDbLine
 62
7
  6
CONTINUOUS
 10
-8.1105907733
 20
-13.3846782377
 11
-8.4057056964
 21
-13.230682812
  0
LINE
  5
319
100
AcDbEntity
  8
ASSI
100
AcDbLine
 62
7
  6
CONTINUOUS
 10
-9.7348235603
 20
-12.5296145689
 11
-10.0263349948
 21
-12.3741984914
  0
LINE
  5
31A
100
AcDbEntity
  8
ASSI
100
AcDbLine
 62
7
  6
CONTINUOUS
 10
-10.0263349948
 20
-12.3741984914
 11
-10.3160389472
 21
-12.2191464768
  0
LWPOLYLINE
  5
31B
100
AcDbEntity
  8
ASSI
100
AcDbPolyline
 62
250
  6
CONTINUOUS
 90
4
 70
0
 10
3.4058979227
 20
-26.9593918801
 10
3.4115775455
 20
-26.9643924939
 10
3.417211523
 20
-26.9694292066
 10
3.4228093546
 20
-26.9744933342
  0
LWPOLYLINE
  5
31C
100
AcDbEntity
  8
ASSI
100
AcDbPolyline
 62
250
  6
CONTINUOUS
 90
6
 70
0
 10
3.4228093546
 20
-26.9744933342
 10
3.4339070125
 20
-26.9846670537
 10
3.4394053551
 20
-26.9897674762
 10
3.4448659704
 20
-26.9948858929
 10
3.4502887504
 20
-27.0000301915
 10
3.455680352
 20
-27.0052053906
  0
LINE
  5
31D
100
AcDbEntity
  8
ASSI
100
AcDbLine
 62
7
  6
CONTINUOUS
 10
-6.1127218544
 20
-24.8324678343
 11
-6.3238752939
 21
-24.5138934765
  0
LINE
  5
31E
100
AcDbEntity
  8
ASSI
100
AcDbLine
 62
7
  6
CONTINUOUS
 10
-6.1133972329
 20
-24.788874044
 11
-6.3026578102
 21
-24.503285953
  0
LINE
  5
31F
100
AcDbEntity
  8
ASSI
100
AcDbLine
 62
7
  6
CONTINUOUS
 10
-6.508125312
 20
-24.72609162
 11
-6.3065031055
 21
-25.03072449
  0
LINE
  5
320
100
AcDbEntity
  8
ASSI
100
AcDbLine
 62
7
  6
CONTINUOUS
 10
-6.3238752939
 20
-24.5138934765
 11
-6.5341717614
 21
-24.1948833603
  0
LINE
  5
321
100
AcDbEntity
  8
ASSI
100
AcDbLine
 62
7
  6
CONTINUOUS
 10
-6.3026578102
 20
-24.503285953
 11
-6.5129545814
 21
-24.1842755145
  0
LINE
  5
322
100
AcDbEntity
  8
ASSI
100
AcDbLine
 62
7
  6
CONTINUOUS
 10
-6.7089648779
 20
-24.4210598981
 11
-6.508125312
 21
-24.72609162
  0
LINE
  5
323
100
AcDbEntity
  8
ASSI
100
AcDbLine
 62
7
  6
CONTINUOUS
 10
-6.5341717614
 20
-24.1948833603
 11
-6.7436106109
 21
-23.8754384698
  0
LINE
  5
324
100
AcDbEntity
  8
ASSI
100
AcDbLine
 62
7
  6
CONTINUOUS
 10
-6.5129545814
 20
-24.1842755145
 11
-6.7223940124
 21
-23.8648294231
  0
LWPOLYLINE
  5
325
100
AcDbEntity
  8
ASSI
100
AcDbPolyline
 62
7
  6
CONTINUOUS
 90
3
 70
0
 10
-7.0087502892
 20
-23.9627743279
 10
-6.9090182245
 20
-24.1156347643
 10
-6.7089648779
 20
-24.4210598981
  0
LWPOLYLINE
  5
326
100
AcDbEntity
  8
ASSI
100
AcDbPolyline
 62
7
  6
CONTINUOUS
 90
3
 70
0
 10
-6.7436106109
 20
-23.8754384698
 10
-6.9521892578
 20
-23.5555627412
 10
-7.0561561668
 20
-23.3954630665
  0
LINE
  5
327
100
AcDbEntity
  8
ASSI
100
AcDbLine
 62
7
  6
CONTINUOUS
 10
-6.7223940124
 20
-23.8648294231
 11
-6.9309721838
 21
-23.544953647
  0
LINE
  5
328
100
AcDbEntity
  8
ASSI
100
AcDbLine
 62
7
  6
CONTINUOUS
 10
-6.9309721838
 20
-23.544953647
 11
-7.0349385421
 21
-23.3848542542
  0
LINE
  5
329
100
AcDbEntity
  8
ASSI
100
AcDbLine
 62
7
  6
CONTINUOUS
 10
-4.7179493375
 20
-24.6523022203
 11
-4.8030019187
 21
-24.5032533348
  0
LWPOLYLINE
  5
32A
100
AcDbEntity
  8
ASSI
100
AcDbPolyline
 62
7
  6
CONTINUOUS
 90
10
 70
0
 10
-4.6905936726
 20
-24.4198623352
 10
-4.5838946836
 20
-24.6083430909
 10
-4.4876097038
 20
-24.8011427947
 10
-4.4016816142
 20
-24.9986280342
 10
-4.3265179252
 20
-25.2003997586
 10
-4.2632979174
 20
-25.4038866106
 10
-4.2130526452
 20
-25.6062356129
 10
-4.1761579665
 20
-25.8054706855
 10
-4.1526104106
 20
-26.0005063162
 10
-4.142468785
 20
-26.1898810368
  0
LWPOLYLINE
  5
32B
100
AcDbEntity
  8
ASSI
100
AcDbPolyline
 62
7
  6
CONTINUOUS
 90
27
 70
0
 10
-4.9895478797
 20
-41.77845284
 10
-4.9817737224
 20
-41.804360271
 10
-4.8864942814
 20
-42.0251823903
 10
-4.7615631537
 20
-42.2431956432
 10
-4.6064285058
 20
-42.4564046453
 10
-4.4185697192
 20
-42.6652394909
 10
-4.1983733766
 20
-42.866533428
 10
-3.9516292638
 20
-43.0543756942
 10
-3.6804259587
 20
-43.227921671
 10
-3.3848075174
 20
-43.387613621
 10
-3.0708631838
 20
-43.5308789244
 10
-2.7426288063
 20
-43.657155779
 10
-2.4004423253
 20
-43.7673719509
 10
-2.0465460722
 20
-43.8615265474
 10
-1.6836476422
 20
-43.939554162
 10
-1.3133875586
 20
-44.0016610038
 10
-0.9368131721
 20
-44.0480416286
 10
-0.5559960496
 20
-44.0786796223
 10
-0.1730543699
 20
-44.0935948761
 10
0.2108012134
 20
-44.0928348532
 10
0.5935236423
 20
-44.0764027977
 10
0.9730133841
 20
-44.0443483016
 10
1.3480109321
 20
-43.9966465213
 10
1.7164846758
 20
-43.933323175
 10
2.0763486275
 20
-43.8544480881
 10
2.4264363951
 20
-43.7598582579
 10
2.5615806101
 20
-43.7157750315
  0
LWPOLYLINE
  5
32C
100
AcDbEntity
  8
ASSI
100
AcDbPolyline
 62
7
  6
CONTINUOUS
 90
23
 70
0
 10
-5.9420450514
 20
-40.3313352431
 10
-5.8828454985
 20
-40.5416187543
 10
-5.7890167743
 20
-40.774461981
 10
-5.6663326333
 20
-41.0049933376
 10
-5.5140733141
 20
-41.2318019771
 10
-5.3300602498
 20
-41.4552438453
 10
-5.1145260603
 20
-41.6724631446
 10
-4.8718120769
 20
-41.878300524
 10
-4.6031943209
 20
-42.0719886195
 10
-4.3088350861
 20
-42.2535464721
 10
-3.9942015445
 20
-42.4201099294
 10
-3.6627028826
 20
-42.5709570175
 10
-3.314607137
 20
-42.7068637406
 10
-2.9522465946
 20
-42.8275633019
 10
-2.5780181626
 20
-42.9328788333
 10
-2.1933786377
 20
-43.0229351126
 10
-1.7996923415
 20
-43.0978061633
 10
-1.3989984732
 20
-43.1574168271
 10
-0.9930801519
 20
-43.2017709671
 10
-0.583046911
 20
-43.2309257094
 10
-0.1707428432
 20
-43.2448493583
 10
0.2418940922
 20
-43.2435479775
 10
0.6035377801
 20
-43.2290463153
  0
LWPOLYLINE
  5
32D
100
AcDbEntity
  8
ASSI
100
AcDbPolyline
 62
250
  6
CONTINUOUS
 90
18
 70
0
 10
-14.1060860719
 20
-18.1915395109
 10
-14.1097125525
 20
-18.178108496
 10
-14.113356048
 20
-18.1649153417
 10
-14.117003482
 20
-18.1519775421
 10
-14.1206679578
 20
-18.1392776187
 10
-14.1243886941
 20
-18.1267630978
 10
-14.1281924818
 20
-18.1143366574
 10
-14.1320523771
 20
-18.1020955715
 10
-14.1359270282
 20
-18.0902792725
 10
-14.1398150228
 20
-18.0788926327
 10
-14.1437178242
 20
-18.067930806
 10
-14.1475985688
 20
-18.0576187093
 10
-14.1513391889
 20
-18.0481518261
 10
-14.1550580668
 20
-18.0393347917
 10
-14.1590725847
 20
-18.0308061044
 10
-14.1634879766
 20
-18.0224450751
 10
-14.1681978864
 20
-18.0143720198
 10
-14.1732017301
 20
-18.006586746
  0
LINE
  5
32E
100
AcDbEntity
  8
ASSI
100
AcDbLine
 62
250
  6
CONTINUOUS
 10
-13.4486834354
 20
-21.0461123173
 11
-13.4944374575
 21
-20.8736704444
  0
LINE
  5
32F
100
AcDbEntity
  8
ASSI
100
AcDbLine
 62
250
  6
CONTINUOUS
 10
-14.0983298771
 20
-18.2211510304
 11
-14.1060860719
 21
-18.1915395109
  0
LINE
  5
330
100
AcDbEntity
  8
ASSI
100
AcDbLine
 62
250
  6
CONTINUOUS
 10
-13.4944374575
 20
-20.8736704444
 11
-13.5366053367
 21
-20.7106587752
  0
LINE
  5
331
100
AcDbEntity
  8
ASSI
100
AcDbLine
 62
250
  6
CONTINUOUS
 10
-14.0898994497
 20
-18.2543622163
 11
-14.0983298771
 21
-18.2211510304
  0
LINE
  5
332
100
AcDbEntity
  8
ASSI
100
AcDbLine
 62
250
  6
CONTINUOUS
 10
-13.5366053367
 20
-20.7106587752
 11
-13.5757083658
 21
-20.5558334809
  0
LINE
  5
333
100
AcDbEntity
  8
ASSI
100
AcDbLine
 62
250
  6
CONTINUOUS
 10
-13.5757083658
 20
-20.5558334809
 11
-13.6120246234
 21
-20.4086419018
  0
LINE
  5
334
100
AcDbEntity
  8
ASSI
100
AcDbLine
 62
250
  6
CONTINUOUS
 10
-14.0812929467
 20
-18.2893222263
 11
-14.0898994497
 21
-18.2543622163
  0
LINE
  5
335
100
AcDbEntity
  8
ASSI
100
AcDbLine
 62
250
  6
CONTINUOUS
 10
-13.6120246234
 20
-20.4086419018
 11
-13.6458592031
 21
-20.2685495823
  0
LINE
  5
336
100
AcDbEntity
  8
ASSI
100
AcDbLine
 62
250
  6
CONTINUOUS
 10
-14.0724677425
 20
-18.326135013
 11
-14.0812929467
 21
-18.2893222263
  0
LINE
  5
337
100
AcDbEntity
  8
ASSI
100
AcDbLine
 62
250
  6
CONTINUOUS
 10
-13.6458592031
 20
-20.2685495823
 11
-13.6774132844
 21
-20.1353622622
  0
LINE
  5
338
100
AcDbEntity
  8
ASSI
100
AcDbLine
 62
250
  6
CONTINUOUS
 10
-14.0634000713
 20
-18.3648503467
 11
-14.0724677425
 21
-18.326135013
  0
LINE
  5
339
100
AcDbEntity
  8
ASSI
100
AcDbLine
 62
250
  6
CONTINUOUS
 10
-13.6774132844
 20
-20.1353622622
 11
-13.7068452486
 21
-20.0088389667
  0
LINE
  5
33A
100
AcDbEntity
  8
ASSI
100
AcDbLine
 62
250
  6
CONTINUOUS
 10
-14.049267077
 20
-18.4266338166
 11
-14.0634000713
 21
-18.3648503467
  0
LINE
  5
33B
100
AcDbEntity
  8
ASSI
100
AcDbLine
 62
250
  6
CONTINUOUS
 10
-13.7068452486
 20
-20.0088389667
 11
-13.7475320395
 21
-19.830500213
  0
LINE
  5
33C
100
AcDbEntity
  8
ASSI
100
AcDbLine
 62
250
  6
CONTINUOUS
 10
-13.7475320395
 20
-19.830500213
 11
-13.7845545266
 21
-19.6649613075
  0
LINE
  5
33D
100
AcDbEntity
  8
ASSI
100
AcDbLine
 62
250
  6
CONTINUOUS
 10
-14.0294079498
 20
-18.5156600422
 11
-14.049267077
 21
-18.4266338166
  0
LINE
  5
33E
100
AcDbEntity
  8
ASSI
100
AcDbLine
 62
250
  6
CONTINUOUS
 10
-13.7845545266
 20
-19.6649613075
 11
-13.8290157956
 21
-19.4630909331
  0
LINE
  5
33F
100
AcDbEntity
  8
ASSI
100
AcDbLine
 62
250
  6
CONTINUOUS
 10
-13.8290157956
 20
-19.4630909331
 11
-13.8590551313
 21
-19.3246864169
  0
LINE
  5
340
100
AcDbEntity
  8
ASSI
100
AcDbLine
 62
250
  6
CONTINUOUS
 10
-14.0026669086
 20
-18.6385504421
 11
-14.0294079498
 21
-18.5156600422
  0
LINE
  5
341
100
AcDbEntity
  8
ASSI
100
AcDbLine
 62
250
  6
CONTINUOUS
 10
-13.8590551313
 20
-19.3246864169
 11
-13.8774634672
 21
-19.2382370469
  0
LINE
  5
342
100
AcDbEntity
  8
ASSI
100
AcDbLine
 62
250
  6
CONTINUOUS
 10
-13.9666845115
 20
-18.8079460335
 11
-14.0026669086
 21
-18.6385504421
  0
LWPOLYLINE
  5
343
100
AcDbEntity
  8
ASSI
100
AcDbPolyline
 62
250
  6
CONTINUOUS
 90
3
 70
0
 10
-13.8774634672
 20
-19.2382370469
 10
-13.9180986785
 20
-19.0417804832
 10
-13.9666845115
 20
-18.8079460335
  0
LWPOLYLINE
  5
344
100
AcDbEntity
  8
ASSI
100
AcDbPolyline
 62
250
  6
CONTINUOUS
 90
5
 70
0
 10
-15.4787646498
 20
-19.9268076993
 10
-15.4714771956
 20
-19.9670019132
 10
-15.4537163045
 20
-20.0153817418
 10
-15.4263341971
 20
-20.0621997682
 10
-15.3894125275
 20
-20.1071082599
  0
LINE
  5
345
100
AcDbEntity
  8
ASSI
100
AcDbLine
 62
250
  6
CONTINUOUS
 10
-14.1574772936
 20
-18.1027178105
 11
-14.1551314566
 21
-18.1155560366
  0
LWPOLYLINE
  5
346
100
AcDbEntity
  8
ASSI
100
AcDbPolyline
 62
250
  6
CONTINUOUS
 90
16
 70
0
 10
-13.757735275
 20
-21.1846459635
 10
-13.7416880994
 20
-21.2763703691
 10
-13.7245398788
 20
-21.3722145539
 10
-13.7061294484
 20
-21.4729633016
 10
-13.6861552231
 20
-21.5798234526
 10
-13.6647398606
 20
-21.691572033
 10
-13.6423944455
 20
-21.8053505877
 10
-13.6193498711
 20
-21.919875362
 10
-13.5953145105
 20
-22.0364117787
 10
-13.5700513624
 20
-22.1559259427
 10
-13.5436902336
 20
-22.2774976519
 10
-13.5160082436
 20
-22.4020184204
 10
-13.4861424943
 20
-22.533159324
 10
-13.4536815573
 20
-22.6721179628
 10
-13.4187499991
 20
-22.8176272711
 10
-13.3811983597
 20
-22.969642119
  0
LINE
  5
347
100
AcDbEntity
  8
ASSI
100
AcDbLine
 62
250
  6
CONTINUOUS
 10
-14.1551314566
 20
-18.1155560366
 11
-14.1533188318
 21
-18.1258601809
  0
LINE
  5
348
100
AcDbEntity
  8
ASSI
100
AcDbLine
 62
250
  6
CONTINUOUS
 10
-14.1533188318
 20
-18.1258601809
 11
-14.1515920458
 21
-18.1360382856
  0
LINE
  5
349
100
AcDbEntity
  8
ASSI
100
AcDbLine
 62
250
  6
CONTINUOUS
 10
-13.786775003
 20
-21.0134802501
 11
-13.757735275
 21
-21.1846459635
  0
LWPOLYLINE
  5
34A
100
AcDbEntity
  8
ASSI
100
AcDbPolyline
 62
7
  6
CONTINUOUS
 90
8
 70
0
 10
-14.9841844959
 20
-23.7617885532
 10
-14.9311621709
 20
-24.0807895133
 10
-14.8641733841
 20
-24.4699773763
 10
-14.7843690208
 20
-24.9158136542
 10
-14.6984696966
 20
-25.3770297499
 10
-14.608901783
 20
-25.83992998
 10
-14.5128957811
 20
-26.3183865832
 10
-14.4452908747
 20
-26.645621371
  0
LINE
  5
34B
100
AcDbEntity
  8
ASSI
100
AcDbLine
 62
250
  6
CONTINUOUS
 10
-14.1515920458
 20
-18.1360382856
 11
-14.1488942043
 21
-18.1525203877
  0
LINE
  5
34C
100
AcDbEntity
  8
ASSI
100
AcDbLine
 62
250
  6
CONTINUOUS
 10
-13.8120798054
 20
-20.8580748867
 11
-13.786775003
 21
-21.0134802501
  0
LWPOLYLINE
  5
34D
100
AcDbEntity
  8
ASSI
100
AcDbPolyline
 62
250
  6
CONTINUOUS
 90
5
 70
0
 10
-15.3171640291
 20
-21.4319916698
 10
-15.3147519574
 20
-21.4473379739
 10
-15.3015289449
 20
-21.4928443662
 10
-15.2794219814
 20
-21.536852144
 10
-15.2484804399
 20
-21.5790593657
  0
LINE
  5
34E
100
AcDbEntity
  8
ASSI
100
AcDbLine
 62
250
  6
CONTINUOUS
 10
-14.1488942043
 20
-18.1525203877
 11
-14.145953939
 21
-18.1711684228
  0
LINE
  5
34F
100
AcDbEntity
  8
ASSI
100
AcDbLine
 62
250
  6
CONTINUOUS
 10
-13.834761428
 20
-20.7135272688
 11
-13.8120798054
 21
-20.8580748867
  0
LINE
  5
350
100
AcDbEntity
  8
ASSI
100
AcDbLine
 62
250
  6
CONTINUOUS
 10
-14.145953939
 20
-18.1711684228
 11
-14.1427944655
 21
-18.1919580237
  0
LINE
  5
351
100
AcDbEntity
  8
ASSI
100
AcDbLine
 62
250
  6
CONTINUOUS
 10
-14.9865817742
 20
-23.5554623939
 11
-15.015751734
 21
-23.3617468209
  0
LINE
  5
352
100
AcDbEntity
  8
ASSI
100
AcDbLine
 62
250
  6
CONTINUOUS
 10
-13.8577938028
 20
-20.5609775923
 11
-13.834761428
 21
-20.7135272688
  0
LINE
  5
353
100
AcDbEntity
  8
ASSI
100
AcDbLine
 62
250
  6
CONTINUOUS
 10
-15.015751734
 20
-23.3617468209
 11
-15.045107911
 21
-23.1616477566
  0
LINE
  5
354
100
AcDbEntity
  8
ASSI
100
AcDbLine
 62
250
  6
CONTINUOUS
 10
-14.1427944655
 20
-18.1919580237
 11
-14.1393671548
 21
-18.2152614172
  0
LINE
  5
355
100
AcDbEntity
  8
ASSI
100
AcDbLine
 62
250
  6
CONTINUOUS
 10
-13.8788873728
 20
-20.415488986
 11
-13.8577938028
 21
-20.5609775923
  0
LINE
  5
356
100
AcDbEntity
  8
ASSI
100
AcDbLine
 62
250
  6
CONTINUOUS
 10
-15.045107911
 20
-23.1616477566
 11
-15.0741481134
 21
-22.9581464602
  0
LINE
  5
357
100
AcDbEntity
  8
ASSI
100
AcDbLine
 62
250
  6
CONTINUOUS
 10
-14.1393671548
 20
-18.2152614172
 11
-14.1355377639
 21
-18.2422267371
  0
LINE
  5
358
100
AcDbEntity
  8
ASSI
100
AcDbLine
 62
250
  6
CONTINUOUS
 10
-13.8977534987
 20
-20.280465198
 11
-13.8788873728
 21
-20.415488986
  0
LINE
  5
359
100
AcDbEntity
  8
ASSI
100
AcDbLine
 62
250
  6
CONTINUOUS
 10
-15.0741481134
 20
-22.9581464602
 11
-15.1006634974
 21
-22.7670236545
  0
LINE
  5
35A
100
AcDbEntity
  8
ASSI
100
AcDbLine
 62
250
  6
CONTINUOUS
 10
-14.1355377639
 20
-18.2422267371
 11
-14.1300822143
 21
-18.2820496482
  0
LINE
  5
35B
100
AcDbEntity
  8
ASSI
100
AcDbLine
 62
250
  6
CONTINUOUS
 10
-15.1006634974
 20
-22.7670236545
 11
-15.1282787887
 21
-22.5619930022
  0
LINE
  5
35C
100
AcDbEntity
  8
ASSI
100
AcDbLine
 62
250
  6
CONTINUOUS
 10
-13.9221713068
 20
-20.0980028339
 11
-13.8977534987
 21
-20.280465198
  0
LINE
  5
35D
100
AcDbEntity
  8
ASSI
100
AcDbLine
 62
250
  6
CONTINUOUS
 10
-14.1300822143
 20
-18.2820496482
 11
-14.1247901359
 21
-18.3221115645
  0
LINE
  5
35E
100
AcDbEntity
  8
ASSI
100
AcDbLine
 62
250
  6
CONTINUOUS
 10
-15.1282787887
 20
-22.5619930022
 11
-15.1575246487
 21
-22.3374975454
  0
LWPOLYLINE
  5
35F
100
AcDbEntity
  8
ASSI
100
AcDbPolyline
 62
7
  6
CONTINUOUS
 90
9
 70
0
 10
-15.3007891043
 20
-21.5651912739
 10
-15.2653668718
 20
-21.8446150662
 10
-15.2294119827
 20
-22.1172635686
 10
-15.1930479078
 20
-22.3831006849
 10
-15.1563822169
 20
-22.6421568199
 10
-15.1194982888
 20
-22.8945338356
 10
-15.0824980687
 20
-23.1402544489
 10
-15.0454863118
 20
-23.3792748639
 10
-14.9841844959
 20
-23.7617885532
  0
LINE
  5
360
100
AcDbEntity
  8
ASSI
100
AcDbLine
 62
250
  6
CONTINUOUS
 10
-13.9434695943
 20
-19.9310321439
 11
-13.9221713068
 21
-20.0980028339
  0
LINE
  5
361
100
AcDbEntity
  8
ASSI
100
AcDbLine
 62
250
  6
CONTINUOUS
 10
-14.1247901359
 20
-18.3221115645
 11
-14.1162727849
 21
-18.3891470309
  0
LWPOLYLINE
  5
362
100
AcDbEntity
  8
ASSI
100
AcDbPolyline
 62
250
  6
CONTINUOUS
 90
6
 70
0
 10
-15.1575246487
 20
-22.3374975454
 10
-15.187760873
 20
-22.0963984076
 10
-15.2030024973
 20
-21.9710059476
 10
-15.2181973121
 20
-21.8431674629
 10
-15.2333657837
 20
-21.7125139152
 10
-15.2484804442
 20
-21.5790593272
  0
LWPOLYLINE
  5
363
100
AcDbEntity
  8
ASSI
100
AcDbPolyline
 62
250
  6
CONTINUOUS
 90
10
 70
0
 10
-14.1918481061
 20
-18.015891672
 10
-14.1921180672
 20
-18.0136938372
 10
-14.1925489294
 20
-18.012125257
 10
-14.1927269069
 20
-18.0094262431
 10
-14.1926000594
 20
-18.0058798014
 10
-14.1922502327
 20
-18.0027295715
 10
-14.1917266584
 20
-18.0002777618
 10
-14.1911758114
 20
-17.9979555768
 10
-14.1907949374
 20
-17.9953380527
 10
-14.1906651948
 20
-17.9922988546
  0
LINE
  5
364
100
AcDbEntity
  8
ASSI
100
AcDbLine
 62
250
  6
CONTINUOUS
 10
-13.963208253
 20
-19.7692347927
 11
-13.9434695943
 21
-19.9310321439
  0
LINE
  5
365
100
AcDbEntity
  8
ASSI
100
AcDbLine
 62
250
  6
CONTINUOUS
 10
-14.1162727849
 20
-18.3891470309
 11
-14.1046892538
 21
-18.4841271618
  0
LINE
  5
366
100
AcDbEntity
  8
ASSI
100
AcDbLine
 62
250
  6
CONTINUOUS
 10
-14.1046892538
 20
-18.4841271618
 11
-14.0902613105
 21
-18.6074700357
  0
LINE
  5
367
100
AcDbEntity
  8
ASSI
100
AcDbLine
 62
250
  6
CONTINUOUS
 10
-13.985053396
 20
-19.5817165967
 11
-13.963208253
 21
-19.7692347927
  0
LINE
  5
368
100
AcDbEntity
  8
ASSI
100
AcDbLine
 62
250
  6
CONTINUOUS
 10
-13.9989744686
 20
-19.457275737
 11
-13.985053396
 21
-19.5817165967
  0
LINE
  5
369
100
AcDbEntity
  8
ASSI
100
AcDbLine
 62
250
  6
CONTINUOUS
 10
-14.0902613105
 20
-18.6074700357
 11
-14.0730680264
 21
-18.7605848562
  0
LINE
  5
36A
100
AcDbEntity
  8
ASSI
100
AcDbLine
 62
250
  6
CONTINUOUS
 10
-12.733820985
 20
-33.2467213248
 11
-12.7194201892
 21
-33.4616277047
  0
LWPOLYLINE
  5
36B
100
AcDbEntity
  8
ASSI
100
AcDbPolyline
 62
7
  6
CONTINUOUS
 90
3
 70
0
 10
-14.1943915305
 20
-17.9890532044
 10
-14.1942409256
 20
-17.9925778611
 10
-14.1935476844
 20
-17.9963986507
  0
LINE
  5
36C
100
AcDbEntity
  8
ASSI
100
AcDbLine
 62
250
  6
CONTINUOUS
 10
-14.1981793191
 20
-17.6603714445
 11
-14.2040529368
 21
-17.3512769359
  0
LINE
  5
36D
100
AcDbEntity
  8
ASSI
100
AcDbLine
 62
250
  6
CONTINUOUS
 10
-14.193018163
 20
-17.9914148374
 11
-14.1981793191
 21
-17.6603714445
  0
LINE
  5
36E
100
AcDbEntity
  8
ASSI
100
AcDbLine
 62
250
  6
CONTINUOUS
 10
-14.2124881005
 20
-16.4569742698
 11
-14.2077628246
 21
-16.8109285092
  0
LWPOLYLINE
  5
36F
100
AcDbEntity
  8
ASSI
100
AcDbPolyline
 62
250
  6
CONTINUOUS
 90
3
 70
0
 10
-14.2174365178
 20
-16.0674256155
 10
-14.2161656471
 20
-16.1682755084
 10
-14.2124881005
 20
-16.4569742698
  0
LINE
  5
370
100
AcDbEntity
  8
ASSI
100
AcDbLine
 62
250
  6
CONTINUOUS
 10
-14.2077628246
 20
-16.8109285092
 11
-14.2067298592
 21
-16.8941398227
  0
LWPOLYLINE
  5
371
100
AcDbEntity
  8
ASSI
100
AcDbPolyline
 62
250
  6
CONTINUOUS
 90
6
 70
0
 10
-14.2067298592
 20
-16.8941398227
 10
-14.205552277
 20
-17.0538240623
 10
-14.2047153811
 20
-17.1307078881
 10
-14.2034483661
 20
-17.2058002436
 10
-14.2017211685
 20
-17.2788884677
 10
-14.1992813535
 20
-17.3498224442
  0
LINE
  5
372
100
AcDbEntity
  8
ASSI
100
AcDbLine
 62
250
  6
CONTINUOUS
 10
-15.081370912
 20
-14.3740570813
 11
-15.081370912
 21
-1.5611840329
  0
LINE
  5
373
100
AcDbEntity
  8
0
100
AcDbLine
 62
7
  6
CONTINUOUS
 10
-13.6397870088
 20
-0.6014214873
 11
-13.6397870088
 21
-0.8445036943
  0
LWPOLYLINE
  5
374
100
AcDbEntity
  8
ASSI
100
AcDbPolyline
 62
250
  6
CONTINUOUS
 90
10
 70
0
 10
-11.9775345463
 20
-17.5167579074
 10
-11.9775291554
 20
-18.3830961228
 10
-11.9764869132
 20
-19.2475784379
 10
-11.9713666859
 20
-20.1089170576
 10
-11.9620058801
 20
-20.9668246226
 10
-11.9484247671
 20
-21.8214760324
 10
-11.9306312723
 20
-22.6734245408
 10
-11.9086331868
 20
-23.5228377571
 10
-11.8824472595
 20
-24.369502591
 10
-11.8520870015
 20
-25.2133988574
  0
LWPOLYLINE
  5
375
100
AcDbEntity
  8
ASSI
100
AcDbPolyline
 62
250
  6
CONTINUOUS
 90
19
 70
0
 10
-14.2207608805
 20
-19.3914202126
 10
-14.2240403663
 20
-19.7776937749
 10
-14.2193659781
 20
-20.1893102701
 10
-14.205451349
 20
-20.6261048841
 10
-14.1809940757
 20
-21.086441641
 10
-14.1444176331
 20
-21.5711136853
 10
-14.0936532258
 20
-22.0834002618
 10
-14.0262344602
 20
-22.624744606
 10
-13.9404093779
 20
-23.1915413378
 10
-13.8350044354
 20
-23.7792835489
 10
-13.706680568
 20
-24.3915735739
 10
-13.5542908853
 20
-25.021083174
 10
-13.3818386808
 20
-25.6473898797
 10
-13.1910275151
 20
-26.2633382114
 10
-12.9798789095
 20
-26.8732262632
 10
-12.7489046296
 20
-27.4746267281
 10
-12.4985254517
 20
-28.0656932883
 10
-12.2286668347
 20
-28.6452560081
 10
-11.9394422304
 20
-29.2120667152
  0
LWPOLYLINE
  5
376
100
AcDbEntity
  8
ASSI
100
AcDbPolyline
 62
250
  6
CONTINUOUS
 90
4
 70
0
 10
-14.1925852764
 20
-18.0153091575
 10
-14.1953000651
 20
-18.2350283486
 10
-14.198857523
 20
-18.4563533168
 10
-14.2036446075
 20
-18.6783026901
  0
LWPOLYLINE
  5
377
100
AcDbEntity
  8
ASSI
100
AcDbPolyline
 62
250
  6
CONTINUOUS
 90
9
 70
0
 10
-14.8443866631
 20
-0.7155944829
 10
-14.8450011859
 20
-0.7513382985
 10
-14.8396217862
 20
-0.7865289419
 10
-14.8281991306
 20
-0.8210636684
 10
-14.8107825524
 20
-0.8550452229
 10
-14.7877097696
 20
-0.8879281713
 10
-14.7590933546
 20
-0.9195307025
 10
-14.7248207349
 20
-0.9500346276
 10
-14.6848919105
 20
-0.9794399468
  0
LINE
  5
378
100
AcDbEntity
  8
ASSI
100
AcDbLine
 62
250
  6
CONTINUOUS
 10
-14.2036446075
 20
-18.6783026901
 11
-14.220760882
 21
-19.3914202903
  0
LWPOLYLINE
  5
379
100
AcDbEntity
  8
ASSI
100
AcDbPolyline
 62
250
  6
CONTINUOUS
 90
16
 70
0
 10
-15.0813704351
 20
-1.5611838546
 10
-15.0791882853
 20
-1.5155704902
 10
-15.0727504387
 20
-1.4689348957
 10
-15.0621248562
 20
-1.4216556782
 10
-15.0473639715
 20
-1.3740585787
 10
-15.0285330709
 20
-1.32658591
 10
-15.005744193
 20
-1.2797631944
 10
-14.9791724898
 20
-1.2340749704
 10
-14.9491671697
 20
-1.1902372999
 10
-14.9163227577
 20
-1.1490907021
 10
-14.8811968122
 20
-1.111193477
 10
-14.8441718618
 20
-1.0768455576
 10
-14.8056836026
 20
-1.0463168945
 10
-14.766113368
 20
-1.0198065881
 10
-14.7257431866
 20
-0.9974569056
 10
-14.6848919067
 20
-0.9794399485
  0
LWPOLYLINE
  5
37A
100
AcDbEntity
  8
ASSI
100
AcDbPolyline
 62
250
  6
CONTINUOUS
 90
16
 70
0
 10
-15.5683813803
 20
-14.9391170688
 10
-15.5656131819
 20
-14.8936011156
 10
-15.5581051869
 20
-14.8474873754
 10
-15.5459342648
 20
-14.8011497733
 10
-15.5291565156
 20
-14.7549126378
 10
-15.5078499322
 20
-14.7092123285
 10
-15.4821524689
 20
-14.6645599287
 10
-15.4522621906
 20
-14.6214243648
 10
-15.4185639072
 20
-14.5804955509
 10
-15.3817232927
 20
-14.5425599081
 10
-15.3423655927
 20
-14.5081208863
 10
-15.300918942
 20
-14.4774407859
 10
-15.257870817
 20
-14.4507472113
 10
-15.213649586
 20
-14.4281997718
 10
-15.1685749569
 20
-14.409908711
 10
-15.1230061842
 20
-14.396011981
  0
LWPOLYLINE
  5
37B
100
AcDbEntity
  8
0
100
AcDbPolyline
 62
7
  6
CONTINUOUS
 90
12
 70
0
 10
-5.3030246083
 20
13.8719951981
 10
-5.2012947244
 20
13.926814568
 10
-5.1080426111
 20
13.9852817937
 10
-5.0237897722
 20
14.0470699028
 10
-4.9490073837
 20
14.111833351
 10
-4.8841136589
 20
14.179209955
 10
-4.8294715101
 20
14.2488229173
 10
-4.7853865181
 20
14.3202829342
 10
-4.7521052242
 20
14.3931903721
 10
-4.7298137509
 20
14.4671375032
 10
-4.7186367611
 20
14.541710785
 10
-4.7172381707
 20
14.5791019793
  0
LWPOLYLINE
  5
37C
100
AcDbEntity
  8
0
100
AcDbPolyline
 62
7
  6
CONTINUOUS
 90
33
 70
0
 10
-5.3030246083
 20
13.8719951981
 10
-5.4126633481
 20
13.8211302561
 10
-5.5295977995
 20
13.7745041995
 10
-5.6531740176
 20
13.7323777801
 10
-5.7827009141
 20
13.6949865858
 10
-5.917454122
 20
13.6625397234
 10
-6.0566800468
 20
13.635218649
 10
-6.1996000805
 20
13.613176153
 10
-6.3454149563
 20
13.596535506
 10
-6.4933092185
 20
13.5853897694
 10
-6.6424557821
 20
13.5798012745
 10
-6.7920205592
 20
13.5798012745
 10
-6.9411671229
 20
13.5853897694
 10
-7.089061385
 20
13.596535506
 10
-7.2348762609
 20
13.613176153
 10
-7.3777962946
 20
13.635218649
 10
-7.5170222193
 20
13.6625397234
 10
-7.6517754272
 20
13.6949865858
 10
-7.7813023237
 20
13.7323777801
 10
-7.9048785418
 20
13.7745041995
 10
-8.0218129932
 20
13.8211302561
 10
-8.131451733
 20
13.8719951981
 10
-8.233181617
 20
13.926814568
 10
-8.3264337302
 20
13.9852817937
 10
-8.4106865691
 20
14.0470699028
 10
-8.4854689577
 20
14.111833351
 10
-8.5503626824
 20
14.179209955
 10
-8.6050048313
 20
14.2488229173
 10
-8.6490898233
 20
14.3202829342
 10
-8.6823711171
 20
14.3931903721
 10
-8.7046625905
 20
14.4671375032
 10
-8.7158395802
 20
14.541710785
 10
-8.7172381707
 20
14.5791019793
  0
LINE
  5
37D
100
AcDbEntity
  8
ASSI
100
AcDbLine
 62
7
  6
CONTINUOUS
 10
0.5140271893
 20
-15.5075887058
 11
0.4647832452
 21
-15.4882550856
  0
LWPOLYLINE
  5
37E
100
AcDbEntity
  8
ASSI
100
AcDbPolyline
 62
7
  6
CONTINUOUS
 90
7
 70
0
 10
0.4435577862
 20
-15.4988678151
 10
0.4872841586
 20
-15.5164243513
 10
0.5305279826
 20
-15.527796712
 10
0.5727200856
 20
-15.5327712568
 10
0.6133739931
 20
-15.5312026191
 10
0.6518568905
 20
-15.5230478932
 10
0.6842064213
 20
-15.5101128415
  0
LINE
  5
37F
100
AcDbEntity
  8
ASSI
100
AcDbLine
 62
7
  6
CONTINUOUS
 10
0.52923304
 20
-13.9622136034
 11
0.0519926522
 21
-13.7389732234
  0
LINE
  5
380
100
AcDbEntity
  8
ASSI
100
AcDbLine
 62
7
  6
CONTINUOUS
 10
0.0731959604
 20
-13.7283519403
 11
0.5504589311
 21
-13.9516006579
  0
LINE
  5
381
100
AcDbEntity
  8
ASSI
100
AcDbLine
 62
7
  6
CONTINUOUS
 10
0.4435577862
 20
-15.4988678151
 11
0.0686388294
 21
-15.3234076756
  0
LINE
  5
382
100
AcDbEntity
  8
ASSI
100
AcDbLine
 62
7
  6
CONTINUOUS
 10
0.4448459746
 20
-14.6037746991
 11
0.0692858182
 21
-14.4280166027
  0
LINE
  5
383
100
AcDbEntity
  8
ASSI
100
AcDbLine
 62
7
  6
CONTINUOUS
 10
-0.0358896033
 20
-15.253759566
 11
0.4647832446
 21
-15.4882550859
  0
LINE
  5
384
100
AcDbEntity
  8
ASSI
100
AcDbLine
 62
7
  6
CONTINUOUS
 10
0.2398562167
 20
-16.0845880845
 11
-0.1200619597
 21
-15.9157283515
  0
LINE
  5
385
100
AcDbEntity
  8
ASSI
100
AcDbLine
 62
7
  6
CONTINUOUS
 10
-0.1200619597
 20
-15.9157283515
 11
-0.3011463221
 21
-15.8304836706
  0
LINE
  5
386
100
AcDbEntity
  8
ASSI
100
AcDbLine
 62
7
  6
CONTINUOUS
 10
0.0686388294
 20
-15.3234076756
 11
-0.3097477398
 21
-15.1454897263
  0
LINE
  5
387
100
AcDbEntity
  8
ASSI
100
AcDbLine
 62
7
  6
CONTINUOUS
 10
-0.2885258654
 20
-15.1348787891
 11
-0.0358896033
 21
-15.253759566
  0
LINE
  5
388
100
AcDbEntity
  8
ASSI
100
AcDbLine
 62
7
  6
CONTINUOUS
 10
0.0692858182
 20
-14.4280166027
 11
-0.3097550197
 21
-14.2497917271
  0
LINE
  5
389
100
AcDbEntity
  8
ASSI
100
AcDbLine
 62
7
  6
CONTINUOUS
 10
0.0519926522
 20
-13.7389732234
 11
-0.4307207923
 21
-13.5117856457
  0
LINE
  5
38A
100
AcDbEntity
  8
ASSI
100
AcDbLine
 62
7
  6
CONTINUOUS
 10
-0.4095196647
 20
-13.5011654529
 11
0.0731959604
 21
-13.7283519403
  0
LINE
  5
38B
100
AcDbEntity
  8
ASSI
100
AcDbLine
 62
7
  6
CONTINUOUS
 10
-0.4307207923
 20
-13.5117856457
 11
-0.9189072936
 21
-13.2806508705
  0
LINE
  5
38C
100
AcDbEntity
  8
ASSI
100
AcDbLine
 62
7
  6
CONTINUOUS
 10
-0.8976879441
 20
-13.2700411957
 11
-0.4095196647
 21
-13.5011654529
  0
LINE
  5
38D
100
AcDbEntity
  8
ASSI
100
AcDbLine
 62
7
  6
CONTINUOUS
 10
-2.1365107871
 20
-15.654853607
 11
-2.454934104
 21
-15.5009827618
  0
LINE
  5
38E
100
AcDbEntity
  8
ASSI
100
AcDbLine
 62
7
  6
CONTINUOUS
 10
-2.3230600892
 20
-14.8654387662
 11
-2.6175594204
 21
-14.7228108333
  0
LINE
  5
38F
100
AcDbEntity
  8
ASSI
100
AcDbLine
 62
7
  6
CONTINUOUS
 10
-2.3136554947
 20
-12.6124002511
 11
-2.6174705802
 21
-12.465269472
  0
LINE
  5
390
100
AcDbEntity
  8
ASSI
100
AcDbLine
 62
7
  6
CONTINUOUS
 10
-2.454934104
 20
-15.5009827618
 11
-2.7761067231
 21
-15.3451437365
  0
LINE
  5
391
100
AcDbEntity
  8
ASSI
100
AcDbLine
 62
7
  6
CONTINUOUS
 10
-2.6175594204
 20
-14.7228108333
 11
-2.9143893619
 21
-14.57851459
  0
LINE
  5
392
100
AcDbEntity
  8
ASSI
100
AcDbLine
 62
7
  6
CONTINUOUS
 10
-2.8931752895
 20
-14.5679075538
 11
-2.3286229199
 21
-14.8418789165
  0
LINE
  5
393
100
AcDbEntity
  8
ASSI
100
AcDbLine
 62
7
  6
CONTINUOUS
 10
-2.6174705802
 20
-12.465269472
 11
-2.9237666465
 21
-12.3163627371
  0
LINE
  5
394
100
AcDbEntity
  8
ASSI
100
AcDbLine
 62
7
  6
CONTINUOUS
 10
-2.9025525875
 20
-12.3057557076
 11
-2.2924403431
 21
-12.6017926753
  0
LINE
  5
395
100
AcDbEntity
  8
ASSI
100
AcDbLine
 62
7
  6
CONTINUOUS
 10
-2.7761067231
 20
-15.3451437365
 11
-3.1000286444
 21
-15.1873365311
  0
LINE
  5
396
100
AcDbEntity
  8
ASSI
100
AcDbLine
 62
7
  6
CONTINUOUS
 10
-4.301231867
 20
-11.639495003
 11
-4.602344475
 21
-11.4899401295
  0
LINE
  5
397
100
AcDbEntity
  8
ASSI
100
AcDbLine
 62
7
  6
CONTINUOUS
 10
-4.7325200741
 20
-11.4039202314
 11
-4.2800187651
 21
-11.628888452
  0
LINE
  5
398
100
AcDbEntity
  8
ASSI
100
AcDbLine
 62
7
  6
CONTINUOUS
 10
-4.602344475
 20
-11.4899401295
 11
-4.9056421876
 21
-11.3387068671
  0
LINE
  5
399
100
AcDbEntity
  8
ASSI
100
AcDbLine
 62
7
  6
CONTINUOUS
 10
-4.9056421876
 20
-11.3387068671
 11
-5.2111250046
 21
-11.1857952158
  0
LINE
  5
39A
100
AcDbEntity
  8
ASSI
100
AcDbLine
 62
7
  6
CONTINUOUS
 10
-5.1899117108
 20
-11.1751885689
 11
-4.7325200741
 21
-11.4039202314
  0
LINE
  5
39B
100
AcDbEntity
  8
ASSI
100
AcDbLine
 62
7
  6
CONTINUOUS
 10
-6.3277663739
 20
-10.62168783
 11
-6.6278173727
 21
-10.4687119481
  0
LINE
  5
39C
100
AcDbEntity
  8
ASSI
100
AcDbLine
 62
7
  6
CONTINUOUS
 10
-6.7562755992
 20
-10.3815732146
 11
-6.3065521932
 21
-10.6110807397
  0
LINE
  5
39D
100
AcDbEntity
  8
ASSI
100
AcDbLine
 62
7
  6
CONTINUOUS
 10
-6.6278173727
 20
-10.4687119481
 11
-6.9271607543
 21
-10.3155015203
  0
LWPOLYLINE
  5
39E
100
AcDbEntity
  8
ASSI
100
AcDbPolyline
 62
7
  6
CONTINUOUS
 90
31
 70
0
 10
0.52923304
 20
-13.9622136034
 10
0.6084689594
 20
-14.0028268222
 10
0.6871176431
 20
-14.0509274477
 10
0.7646568226
 20
-14.1061603429
 10
0.8405441176
 20
-14.1680680214
 10
0.914311447
 20
-14.2362488558
 10
0.985552934
 20
-14.3104012701
 10
1.0538621368
 20
-14.3901253625
 10
1.1186861159
 20
-14.4747986182
 10
1.1794273199
 20
-14.563740847
 10
1.2356493701
 20
-14.6562768896
 10
1.2870163674
 20
-14.7518035348
 10
1.3331410041
 20
-14.8496932929
 10
1.3737124634
 20
-14.9492699256
 10
1.4084629076
 20
-15.0498320181
 10
1.4371224149
 20
-15.1506989889
 10
1.4594930326
 20
-15.2511731769
 10
1.4754315137
 20
-15.3505514146
 10
1.4848126988
 20
-15.4481501165
 10
1.487566286
 20
-15.5432966456
 10
1.483681087
 20
-15.6353270976
 10
1.4731877358
 20
-15.7235982458
 10
1.4561494822
 20
-15.8075035706
 10
1.4326875545
 20
-15.8864620705
 10
1.4029857451
 20
-15.9599161947
 10
1.3672367831
 20
-16.0273648
 10
1.3256853536
 20
-16.0883442896
 10
1.2786534203
 20
-16.1424170099
 10
1.2264510382
 20
-16.189217532
 10
1.169430237
 20
-16.2284281506
 10
1.1354145393
 20
-16.2470305469
  0
LINE
  5
39F
100
AcDbEntity
  8
ASSI
100
AcDbLine
 62
7
  6
CONTINUOUS
 10
-6.9271607543
 20
-10.3155015203
 11
-7.2257965188
 21
-10.1620565465
  0
LINE
  5
3A0
100
AcDbEntity
  8
ASSI
100
AcDbLine
 62
7
  6
CONTINUOUS
 10
-7.2045808558
 20
-10.151448715
 11
-6.7562755992
 21
-10.3815732146
  0
LINE
  5
3A1
100
AcDbEntity
  8
ASSI
100
AcDbLine
 62
7
  6
CONTINUOUS
 10
-7.8168981198
 20
-9.856566583
 11
-8.1105838402
 21
-9.7039037248
  0
LINE
  5
3A2
100
AcDbEntity
  8
ASSI
100
AcDbLine
 62
7
  6
CONTINUOUS
 10
-8.1105838402
 20
-9.7039037248
 11
-8.4056987832
 21
-9.5499035233
  0
LINE
  5
3A3
100
AcDbEntity
  8
ASSI
100
AcDbLine
 62
7
  6
CONTINUOUS
 10
-8.3844799519
 20
-9.5392941076
 11
-7.7956810429
 21
-9.8459580446
  0
LINE
  5
3A4
100
AcDbEntity
  8
ASSI
100
AcDbLine
 62
7
  6
CONTINUOUS
 10
-8.7969388321
 20
-9.3448174485
 11
-9.0895292427
 21
-9.1907492756
  0
LINE
  5
3A5
100
AcDbEntity
  8
ASSI
100
AcDbLine
 62
7
  6
CONTINUOUS
 10
-9.0895292427
 20
-9.1907492756
 11
-9.3818729547
 21
-9.0362140473
  0
LINE
  5
3A6
100
AcDbEntity
  8
ASSI
100
AcDbLine
 62
7
  6
CONTINUOUS
 10
-9.3606505471
 20
-9.0256028435
 11
-8.7757186578
 21
-9.3342073614
  0
LINE
  5
3A7
100
AcDbEntity
  8
ASSI
100
AcDbLine
 62
7
  6
CONTINUOUS
 10
-10.6667215369
 20
-8.3498644884
 11
-10.9572197228
 21
-8.1930436294
  0
LINE
  5
3A8
100
AcDbEntity
  8
ASSI
100
AcDbLine
 62
7
  6
CONTINUOUS
 10
-11.0320529697
 20
-8.1304369904
 11
-10.6454936641
 21
-8.339250552
  0
LINE
  5
3A9
100
AcDbEntity
  8
ASSI
100
AcDbLine
 62
7
  6
CONTINUOUS
 10
-11.2229565808
 20
-8.0269115479
 11
-11.0320529697
 21
-8.1304369904
  0
LINE
  5
3AA
100
AcDbEntity
  8
ASSI
100
AcDbLine
 62
7
  6
CONTINUOUS
 10
-10.9572197228
 20
-8.1930436294
 11
-11.24418724
 21
-8.0375268775
  0
LWPOLYLINE
  5
3AB
100
AcDbEntity
  8
ASSI
100
AcDbPolyline
 62
7
  6
CONTINUOUS
 90
3
 70
0
 10
-4.5693456448
 20
-24.961066837
 10
-4.6399154749
 20
-24.8052104125
 10
-4.7179493375
 20
-24.6523022203
  0
LWPOLYLINE
  5
3AC
100
AcDbEntity
  8
ASSI
100
AcDbPolyline
 62
250
  6
CONTINUOUS
 90
19
 70
0
 10
-0.5501121057
 20
-34.8495741322
 10
-0.4031800823
 20
-35.1869900068
 10
-0.2359200879
 20
-35.5344257493
 10
-0.0500046579
 20
-35.892425591
 10
0.151415541
 20
-36.2559795574
 10
0.3673698796
 20
-36.6257514451
 10
0.5984996086
 20
-37.0043828112
 10
0.8444557232
 20
-37.3920879175
 10
1.1035740544
 20
-37.7871577458
 10
1.3749451473
 20
-38.1889147419
 10
1.6589259487
 20
-38.5984999588
 10
1.9531410734
 20
-39.0131602346
 10
2.2524337696
 20
-39.4264027313
 10
2.5564713696
 20
-39.8386751419
 10
2.862542396
 20
-40.2472050466
 10
3.1616915308
 20
-40.6411482782
 10
3.4500404459
 20
-41.0166826771
 10
3.7282912433
 20
-41.3759602769
 10
3.9915568167
 20
-41.7137785403
  0
LWPOLYLINE
  5
3AD
100
AcDbEntity
  8
ASSI
100
AcDbPolyline
 62
7
  6
CONTINUOUS
 90
6
 70
0
 10
-4.5687854376
 20
-25.0240443733
 10
-4.6132736149
 20
-24.9194050209
 10
-4.6611887598
 20
-24.8157956424
 10
-4.712402225
 20
-24.7134868982
 10
-4.7667918971
 20
-24.6127534831
 10
-4.8242195548
 20
-24.5138621528
  0
LWPOLYLINE
  5
3AE
100
AcDbEntity
  8
ASSI
100
AcDbPolyline
 62
7
  6
CONTINUOUS
 90
23
 70
0
 10
-4.8617828454
 20
-25.0362661897
 10
-4.8171717928
 20
-25.1470579804
 10
-4.7776201835
 20
-25.2586240926
 10
-4.743298457
 20
-25.37045355
 10
-4.7143423023
 20
-25.4820282242
 10
-4.6908847754
 20
-25.592843161
 10
-4.673055984
 20
-25.7024088576
 10
-4.6609298486
 20
-25.8102247484
 10
-4.6545504931
 20
-25.9157959279
 10
-4.6539651354
 20
-26.0186532955
 10
-4.6591704667
 20
-26.1183270739
 10
-4.6701321781
 20
-26.2143594911
 10
-4.6868122895
 20
-26.3063211227
 10
-4.7091300712
 20
-26.3937919608
 10
-4.7369744686
 20
-26.4763700067
 10
-4.7702244536
 20
-26.5536833966
 10
-4.8087249124
 20
-26.6253788766
 10
-4.8522927842
 20
-26.6911265756
 10
-4.9007302196
 20
-26.7506279091
 10
-4.9538138074
 20
-26.8036106333
 10
-5.0112960452
 20
-26.8498305411
 10
-5.0729120951
 20
-26.8890754798
 10
-5.1005528712
 20
-26.9037327006
  0
LINE
  5
3AF
100
AcDbEntity
  8
ASSI
100
AcDbLine
 62
7
  6
CONTINUOUS
 10
-5.2796419429
 20
-26.9633181933
 11
-5.1157714189
 21
-27.3704812096
  0
LWPOLYLINE
  5
3B0
100
AcDbEntity
  8
ASSI
100
AcDbPolyline
 62
250
  6
CONTINUOUS
 90
16
 70
0
 10
-3.0062257114
 20
-35.5251604041
 10
-2.8567572534
 20
-36.0056654159
 10
-2.6802304322
 20
-36.5014132359
 10
-2.4790290454
 20
-37.0124365551
 10
-2.2556946241
 20
-37.535827926
 10
-2.0122941061
 20
-38.0695790186
 10
-1.7503204473
 20
-38.6128087213
 10
-1.4680344421
 20
-39.170622705
 10
-1.1696057833
 20
-39.7353627181
 10
-0.866424866
 20
-40.2873766721
 10
-0.5616959793
 20
-40.8232671614
 10
-0.2559410494
 20
-41.3440599379
 10
0.042934916
 20
-41.8379836079
 10
0.3309358572
 20
-42.3004786185
 10
0.6074165621
 20
-42.7321861773
 10
0.870459793
 20
-43.1312335466
  0
LINE
  5
3B1
100
AcDbEntity
  8
ASSI
100
AcDbLine
 62
7
  6
CONTINUOUS
 10
-10.1684167816
 20
-10.5886174757
 11
-10.0257148599
 21
-11.2281628303
  0
LINE
  5
3B2
100
AcDbEntity
  8
ASSI
100
AcDbLine
 62
7
  6
CONTINUOUS
 10
-10.0123178774
 20
-11.1824765552
 11
-10.1471928505
 21
-10.5779966425
  0
LINE
  5
3B3
100
AcDbEntity
  8
ASSI
100
AcDbLine
 62
7
  6
CONTINUOUS
 10
-10.1471928505
 20
-10.5779966425
 11
-10.4321571294
 21
-9.2987718207
  0
LINE
  5
3B4
100
AcDbEntity
  8
ASSI
100
AcDbLine
 62
7
  6
CONTINUOUS
 10
-10.3160389472
 20
-12.2191464768
 11
-10.6260992334
 21
-10.8255561193
  0
LINE
  5
3B5
100
AcDbEntity
  8
ASSI
100
AcDbLine
 62
7
  6
CONTINUOUS
 10
-10.6667215369
 20
-8.3498644884
 11
-10.1684167816
 21
-10.5886174757
  0
LINE
  5
3B6
100
AcDbEntity
  8
ASSI
100
AcDbLine
 62
7
  6
CONTINUOUS
 10
-10.4321571294
 20
-9.2987718207
 11
-10.6454936641
 21
-8.339250552
  0
LINE
  5
3B7
100
AcDbEntity
  8
ASSI
100
AcDbLine
 62
7
  6
CONTINUOUS
 10
-10.6260992334
 20
-10.8255561193
 11
-10.9354820228
 21
-9.4316827126
  0
LINE
  5
3B8
100
AcDbEntity
  8
ASSI
100
AcDbLine
 62
7
  6
CONTINUOUS
 10
-10.9354820228
 20
-9.4316827126
 11
-11.24418724
 21
-8.0375268775
  0
LINE
  5
3B9
100
AcDbEntity
  8
ASSI
100
AcDbLine
 62
7
  6
CONTINUOUS
 10
-9.991287549
 20
-0.9067210701
 11
-10.0039768136
 21
-0.7722200806
  0
LWPOLYLINE
  5
3BA
100
AcDbEntity
  8
0
100
AcDbPolyline
 62
7
  6
CONTINUOUS
 90
37
 70
0
 10
-8.7172381707
 20
8.3294165421
 10
-8.7129135359
 20
8.2641087603
 10
-8.7000490257
 20
8.1988009784
 10
-8.6788087315
 20
8.1343262201
 10
-8.649085361
 20
8.0706951562
 10
-8.6109862064
 20
8.0078971158
 10
-8.5649972357
 20
7.9467331098
 10
-8.5110173819
 20
7.8872240698
 10
-8.449147712
 20
7.8293490643
 10
-8.3801773953
 20
7.7738463091
 10
-8.3040154737
 20
7.7207461922
 10
-8.2207529053
 20
7.6700183256
 10
-8.131451733
 20
7.6223097609
 10
-8.0360346036
 20
7.5776591748
 10
-7.9345788705
 20
7.5360278906
 10
-7.8283786367
 20
7.4979469298
 10
-7.7173731263
 20
7.4634617714
 10
-7.6016231152
 20
7.4325269365
 10
-7.4826050354
 20
7.4055370096
 10
-7.3602770234
 20
7.3825425243
 10
-7.2346809426
 20
7.363492947
 10
-7.1074188147
 20
7.3486312617
 10
-6.9784692981
 20
7.3380111146
 10
-6.8478537344
 20
7.3315788595
 10
-6.7172381707
 20
7.3294165421
 10
-6.586622607
 20
7.3315788595
 10
-6.4560070433
 20
7.3380111146
 10
-6.3270575266
 20
7.3486312617
 10
-6.1997953988
 20
7.363492947
 10
-6.0741993179
 20
7.3825425243
 10
-5.9518713059
 20
7.4055370096
 10
-5.8328532261
 20
7.4325269365
 10
-5.7171032151
 20
7.4634617714
 10
-5.6060977046
 20
7.4979469298
 10
-5.5003288386
 20
7.5358508834
 10
-5.3993044732
 20
7.5773051605
 10
-5.3030246083
 20
7.6223097609
  0
LWPOLYLINE
  5
3BB
100
AcDbEntity
  8
RACCORDO
100
AcDbPolyline
 62
250
  6
CONTINUOUS
 90
3
 70
0
 10
-9.9672375521
 20
-0.8947566269
 10
-9.9627842751
 20
-0.9787988256
 10
-9.942669279
 20
-1.0744902635
  0
LINE
  5
3BC
100
AcDbEntity
  8
RACCORDO
100
AcDbLine
 62
250
  6
CONTINUOUS
 10
-9.9672381707
 20
-0.8937540082
 11
-9.9672375521
 21
-0.8947566269
  0
LINE
  5
3BD
100
AcDbEntity
  8
ASSI
100
AcDbLine
 62
7
  6
CONTINUOUS
 10
-10.3234827547
 20
0.9959708242
 11
-10.3234827547
 21
1.0360265769
  0
LINE
  5
3BE
100
AcDbEntity
  8
ASSI
100
AcDbLine
 62
7
  6
CONTINUOUS
 10
-9.9672381707
 20
-0.9980485519
 11
-9.9672381707
 21
-0.8937540082
  0
LINE
  5
3BF
100
AcDbEntity
  8
0
100
AcDbLine
 62
7
  6
CONTINUOUS
 10
-8.7172381707
 20
8.3294165421
 11
-8.7172381707
 21
14.5791019793
  0
LINE
  5
3C0
100
AcDbEntity
  8
ASSI
100
AcDbLine
 62
7
  6
CONTINUOUS
 10
-8.6922381707
 20
-0.7638501976
 11
-8.6922381707
 21
2.2672387156
  0
LINE
  5
3C1
100
AcDbEntity
  8
ASSI
100
AcDbLine
 62
7
  6
CONTINUOUS
 10
-8.5672381707
 20
2.2672387156
 11
-8.5672381707
 21
7.9497134887
  0
LINE
  5
3C2
100
AcDbEntity
  8
ASSI
100
AcDbLine
 62
7
  6
CONTINUOUS
 10
-8.4057056964
 20
-13.230682812
 11
-8.4056987832
 21
-9.5499035233
  0
LINE
  5
3C3
100
AcDbEntity
  8
ASSI
100
AcDbLine
 62
7
  6
CONTINUOUS
 10
-7.8169050603
 20
-13.5373363591
 11
-7.8168981198
 21
-9.856566583
  0
LINE
  5
3C4
100
AcDbEntity
  8
ASSI
100
AcDbLine
 62
7
  6
CONTINUOUS
 10
-7.7956810429
 20
-9.8459580446
 11
-7.7956879834
 21
-13.5267278207
  0
LINE
  5
3C5
100
AcDbEntity
  8
RACCORDO
100
AcDbLine
 62
7
  6
CONTINUOUS
 10
-9.9649366173
 20
-0.8285243009
 11
-9.9672375521
 21
-0.8947566269
  0
LWPOLYLINE
  5
3C6
100
AcDbEntity
  8
0
100
AcDbPolyline
 62
7
  6
CONTINUOUS
 90
5
 70
0
 10
-8.7172381707
 20
14.5791019793
 10
-8.7158395802
 20
14.6164931736
 10
-8.7046625905
 20
14.6910664554
 10
-8.6823711171
 20
14.7650135864
 10
-8.6459683229
 20
14.8436771104
  0
LWPOLYLINE
  5
3C7
100
AcDbEntity
  8
ASSI
100
AcDbPolyline
 62
7
  6
CONTINUOUS
 90
12
 70
0
 10
-10.0039768136
 20
-0.7722200806
 10
-9.991298421
 20
-0.6210136266
 10
-9.9536897975
 20
-0.4781661658
 10
-9.8920391947
 20
-0.3385357302
 10
-9.8057989222
 20
-0.2021915808
 10
-9.6955166703
 20
-0.0690644565
 10
-9.5636811324
 20
0.0578391586
 10
-9.4098037027
 20
0.1783757294
 10
-9.2343729869
 20
0.292688791
 10
-9.041343496
 20
0.3982024651
 10
-8.8303161479
 20
0.4947172105
 10
-8.6922381707
 20
0.5476926055
  0
LINE
  5
3C8
100
AcDbEntity
  8
ASSI
100
AcDbLine
 62
7
  6
CONTINUOUS
 10
-8.6746862686
 20
2.3953361541
 11
-8.6922381707
 21
2.2672387156
  0
LINE
  5
3C9
100
AcDbEntity
  8
ASSI
100
AcDbLine
 62
250
  6
CONTINUOUS
 10
-14.1732017367
 20
-18.0065867369
 11
-14.1784308361
 21
-18.0218618837
  0
LWPOLYLINE
  5
3CA
100
AcDbEntity
  8
ASSI
100
AcDbPolyline
 62
7
  6
CONTINUOUS
 90
3
 70
0
 10
-8.5672381707
 20
2.6074517587
 10
-8.6237259391
 20
2.5234335925
 10
-8.6746862686
 20
2.3953361541
  0
LWPOLYLINE
  5
3CB
100
AcDbEntity
  8
0
100
AcDbPolyline
 62
7
  6
CONTINUOUS
 90
7
 70
0
 10
-14.0451741469
 20
-1.0408032536
 10
-14.0683825983
 20
-1.0673971935
 10
-14.092710698
 20
-1.0920838258
 10
-14.1180213332
 20
-1.1146923704
 10
-14.1441692019
 20
-1.1350601378
 10
-14.1710014986
 20
-1.1530338773
 10
-14.1983586814
 20
-1.1684711155
  0
LWPOLYLINE
  5
3CC
100
AcDbEntity
  8
ASSI
100
AcDbPolyline
 62
250
  6
CONTINUOUS
 90
8
 70
0
 10
-14.6671454485
 20
-0.4817912403
 10
-14.710850115
 20
-0.5123549228
 10
-14.748435785
 20
-0.5439171272
 10
-14.7799024586
 20
-0.5764778535
 10
-14.8052716835
 20
-0.6102697769
 10
-14.8245219119
 20
-0.6450602221
 10
-14.8375885007
 20
-0.6801511638
 10
-14.8443866631
 20
-0.7155944829
  0
LWPOLYLINE
  5
3CD
100
AcDbEntity
  8
ASSI
100
AcDbPolyline
 62
7
  6
CONTINUOUS
 90
11
 70
0
 10
-14.9297674609
 20
-0.4896926831
 10
-14.9625470615
 20
-0.511070726
 10
-15.0398206247
 20
-0.5688184568
 10
-15.1090201957
 20
-0.6317605148
 10
-15.1700977412
 20
-0.6997394355
 10
-15.222475528
 20
-0.7719963828
 10
-15.2658865533
 20
-0.8481443297
 10
-15.2999225859
 20
-0.9275569331
 10
-15.3239707972
 20
-1.0084929107
 10
-15.3380472587
 20
-1.0897238977
 10
-15.342503758
 20
-1.1689895514
  0
LINE
  5
3CE
100
AcDbEntity
  8
ASSI
100
AcDbLine
 62
7
  6
CONTINUOUS
 10
-14.9296775308
 20
-0.4896365216
 11
-14.9297674609
 21
-0.4896926831
  0
LWPOLYLINE
  5
3CF
100
AcDbEntity
  8
ASSI
100
AcDbPolyline
 62
7
  6
CONTINUOUS
 90
9
 70
0
 10
-14.9301340525
 20
-0.4888973242
 10
-14.5613530151
 20
-0.2600442604
 10
-14.1873896389
 20
-0.0333513495
 10
-13.8083810016
 20
0.1910993001
 10
-13.424377663
 20
0.4132804987
 10
-13.0354326496
 20
0.6331642327
 10
-12.6416017522
 20
0.850721625
 10
-12.2429395554
 20
1.0659251855
 10
-11.83949913
 20
1.2787488543
  0
LWPOLYLINE
  5
3D0
100
AcDbEntity
  8
0
100
AcDbPolyline
 62
7
  6
CONTINUOUS
 90
13
 70
0
 10
-5.3030246083
 20
7.6223097609
 10
-5.2130154074
 20
7.6704496934
 10
-5.1301068533
 20
7.7209618761
 10
-5.0542989461
 20
7.7738463091
 10
-4.9853286293
 20
7.8293490643
 10
-4.9234589595
 20
7.8872240698
 10
-4.8694791057
 20
7.9467331098
 10
-4.823490135
 20
8.0078971158
 10
-4.7853909804
 20
8.0706951562
 10
-4.7556676099
 20
8.1343262201
 10
-4.7344273156
 20
8.1988009784
 10
-4.7215628055
 20
8.2641087603
 10
-4.7172381707
 20
8.3294165421
  0
LWPOLYLINE
  5
3D1
100
AcDbEntity
  8
ASSI
100
AcDbPolyline
 62
250
  6
CONTINUOUS
 90
16
 70
0
 10
6.3824041472
 20
-11.5130900862
 10
6.4406448922
 20
-11.5330172191
 10
6.5017179627
 20
-11.5500804149
 10
6.565623359
 20
-11.5642796735
 10
6.6331209209
 20
-11.5757338743
 10
6.7034508085
 20
-11.5843241379
 10
6.7743335017
 20
-11.5896938261
 10
6.8456172697
 20
-11.5916827065
 10
6.9174538434
 20
-11.5904510115
 10
6.988018895
 20
-11.5861228007
 10
7.0572253644
 20
-11.5786103801
 10
7.1251603116
 20
-11.5680014436
 10
7.1902605891
 20
-11.5546831324
 10
7.2520051474
 20
-11.5387844936
 10
7.310915036
 20
-11.52017648
 10
7.3669902546
 20
-11.4988590918
  0
LWPOLYLINE
  5
3D2
100
AcDbEntity
  8
0
100
AcDbPolyline
 62
7
  6
CONTINUOUS
 90
8
 70
0
 10
6.6833481008
 20
-10.8100439151
 10
6.7129169341
 20
-10.8202797858
 10
6.7441814118
 20
-10.8266911585
 10
6.7768979264
 20
-10.829234121
 10
6.8106934198
 20
-10.8278620655
 10
6.8452646855
 20
-10.8226015789
 10
6.8803851711
 20
-10.8135368723
 10
6.9157852872
 20
-10.8007697319
  0
LWPOLYLINE
  5
3D3
100
AcDbEntity
  8
ASSI
100
AcDbPolyline
 62
7
  6
CONTINUOUS
 90
10
 70
0
 10
6.0849105759
 20
-12.1443243504
 10
5.7792384229
 20
-12.0288047252
 10
5.47581115
 20
-11.9116724985
 10
5.174656666
 20
-11.792938527
 10
4.8757740411
 20
-11.6725111897
 10
4.5792198393
 20
-11.5505039462
 10
4.2851058651
 20
-11.4272367038
 10
3.9934850526
 20
-11.3028250792
 10
3.7043537143
 20
-11.1771790284
 10
3.4177362978
 20
-11.0503113625
  0
LWPOLYLINE
  5
3D4
100
AcDbEntity
  8
ASSI
100
AcDbPolyline
 62
250
  6
CONTINUOUS
 90
7
 70
0
 10
3.7463277073
 20
-10.433893968
 10
4.1996537059
 20
-10.6323031357
 10
4.6473877344
 20
-10.8232950441
 10
5.0895297928
 20
-11.0068696934
 10
5.5260798811
 20
-11.1830270835
 10
5.9570379992
 20
-11.3517672144
 10
6.3824041472
 20
-11.5130900862
  0
LWPOLYLINE
  5
3D5
100
AcDbEntity
  8
ASSI
100
AcDbPolyline
 62
250
  6
CONTINUOUS
 90
10
 70
0
 10
3.4174937791
 20
-11.0502495407
 10
2.5132377706
 20
-10.6415443874
 10
1.5864027194
 20
-10.2174334915
 10
0.6354158771
 20
-9.7774998298
 10
-0.3343232481
 20
-9.3233900601
 10
-1.3261331467
 20
-8.853060617
 10
-2.351043572
 20
-8.3606938294
 10
-3.4158955366
 20
-7.8422116241
 10
-4.512261812
 20
-7.3008942202
 10
-5.6282510988
 20
-6.7419553041
  0
LINE
  5
3D6
100
AcDbEntity
  8
ASSI
100
AcDbLine
 62
250
  6
CONTINUOUS
 10
2.9112854662
 20
-10.0565079883
 11
3.7463277073
 21
-10.433893968
  0
LINE
  5
3D7
100
AcDbEntity
  8
ASSI
100
AcDbLine
 62
250
  6
CONTINUOUS
 10
2.0433424601
 20
-9.6591127992
 11
2.9112854662
 21
-10.0565079883
  0
LWPOLYLINE
  5
3D8
100
AcDbEntity
  8
ASSI
100
AcDbPolyline
 62
250
  6
CONTINUOUS
 90
8
 70
0
 10
-4.8894734892
 20
-6.3291835692
 10
-3.8511162225
 20
-6.8461533451
 10
-2.7913822532
 20
-7.3671293099
 10
-1.7574372141
 20
-7.8694399493
 10
-0.7626323712
 20
-8.3459760531
 10
0.2063835414
 20
-8.8038468316
 10
1.142498689
 20
-9.2417084008
 10
2.0433424601
 20
-9.6591127992
  0
LINE
  5
3D9
100
AcDbEntity
  8
ASSI
100
AcDbLine
 62
250
  6
CONTINUOUS
 10
-14.1983586814
 20
-1.1684711155
 11
6.0026431132
 21
-11.2689720128
  0
LWPOLYLINE
  5
3DA
100
AcDbEntity
  8
ASSI
100
AcDbPolyline
 62
250
  6
CONTINUOUS
 90
4
 70
0
 10
-5.6282510988
 20
-6.7419553041
 10
-6.7720783541
 20
-6.1605986574
 10
-7.9341366321
 20
-5.5609802037
 10
-9.076848046
 20
-4.9622846619
  0
LINE
  5
3DB
100
AcDbEntity
  8
ASSI
100
AcDbLine
 62
250
  6
CONTINUOUS
 10
-9.076848046
 20
-4.9622846619
 11
-10.1995612021
 21
-4.3650977171
  0
LINE
  5
3DC
100
AcDbEntity
  8
ASSI
100
AcDbLine
 62
250
  6
CONTINUOUS
 10
-10.1995612021
 20
-4.3650977171
 11
-11.3032481583
 21
-3.7691435468
  0
LWPOLYLINE
  5
3DD
100
AcDbEntity
  8
ASSI
100
AcDbPolyline
 62
250
  6
CONTINUOUS
 90
3
 70
0
 10
-11.3032481583
 20
-3.7691435468
 10
-12.3540600776
 20
-3.1933198354
 10
-13.3405081909
 20
-2.6408055853
  0
LWPOLYLINE
  5
3DE
100
AcDbEntity
  8
ASSI
100
AcDbPolyline
 62
250
  6
CONTINUOUS
 90
10
 70
0
 10
-12.7493067898
 20
-2.1691228924
 10
-12.0150773866
 20
-2.5838605679
 10
-11.238219034
 20
-3.0080706487
 10
-10.4300611239
 20
-3.4440574862
 10
-9.5964915373
 20
-3.8919490319
 10
-8.7316223932
 20
-4.3516173342
 10
-7.8291194415
 20
-4.8249828895
 10
-6.8814522301
 20
-5.3159162178
 10
-5.8961512109
 20
-5.8205467991
 10
-4.8894734892
 20
-6.3291835692
  0
LWPOLYLINE
  5
3DF
100
AcDbEntity
  8
ASSI
100
AcDbPolyline
 62
250
  6
CONTINUOUS
 90
3
 70
0
 10
-13.3405081909
 20
-2.6408055853
 10
-14.2501799937
 20
-2.0961616672
 10
-15.0813704351
 20
-1.5611838546
  0
LWPOLYLINE
  5
3E0
100
AcDbEntity
  8
ASSI
100
AcDbPolyline
 62
250
  6
CONTINUOUS
 90
4
 70
0
 10
-14.6848919105
 20
-0.9794399468
 10
-14.0823258197
 20
-1.3665285233
 10
-13.4371307795
 20
-1.7630895051
 10
-12.7493067898
 20
-2.1691228924
  0
LINE
  5
3E1
100
AcDbEntity
  8
ASSI
100
AcDbLine
 62
7
  6
CONTINUOUS
 10
-5.9199359994
 20
-4.461346992
 11
-5.9573872755
 21
-4.4190145071
  0
LINE
  5
3E2
100
AcDbEntity
  8
ASSI
100
AcDbLine
 62
7
  6
CONTINUOUS
 10
-9.9536680537
 20
-1.0495810528
 11
-9.991287549
 21
-0.9067210701
  0
LINE
  5
3E3
100
AcDbEntity
  8
ASSI
100
AcDbLine
 62
7
  6
CONTINUOUS
 10
-5.8944801551
 20
-12.7059113533
 11
-5.7704575937
 21
-13.3012987592
  0
LINE
  5
3E4
100
AcDbEntity
  8
ASSI
100
AcDbLine
 62
7
  6
CONTINUOUS
 10
-5.7573654238
 20
-13.2517124151
 11
-5.8732669741
 21
-12.6953018612
  0
LINE
  5
3E5
100
AcDbEntity
  8
ASSI
100
AcDbLine
 62
7
  6
CONTINUOUS
 10
-6.0184020546
 20
-12.1104772459
 11
-5.8944801551
 21
-12.7059113533
  0
LINE
  5
3E6
100
AcDbEntity
  8
ASSI
100
AcDbLine
 62
7
  6
CONTINUOUS
 10
-5.8732669741
 20
-12.6953018612
 11
-5.9971889943
 21
-12.0998665674
  0
LINE
  5
3E7
100
AcDbEntity
  8
ASSI
100
AcDbLine
 62
7
  6
CONTINUOUS
 10
-6.0691461088
 20
-14.433837303
 11
-6.1318278862
 21
-14.1323401321
  0
LINE
  5
3E8
100
AcDbEntity
  8
ASSI
100
AcDbLine
 62
7
  6
CONTINUOUS
 10
-6.1318278862
 20
-14.1323401321
 11
-6.2571137622
 21
-13.5293111818
  0
LINE
  5
3E9
100
AcDbEntity
  8
ASSI
100
AcDbLine
 62
7
  6
CONTINUOUS
 10
-6.3277663739
 20
-10.62168783
 11
-6.0184020546
 21
-12.1104772459
  0
LINE
  5
3EA
100
AcDbEntity
  8
ASSI
100
AcDbLine
 62
7
  6
CONTINUOUS
 10
-5.9971889943
 20
-12.0998665674
 11
-6.3065521932
 21
-10.6110807397
  0
LINE
  5
3EB
100
AcDbEntity
  8
ASSI
100
AcDbLine
 62
7
  6
CONTINUOUS
 10
-6.2571137622
 20
-13.5293111818
 11
-6.3822960684
 21
-12.9262360748
  0
LINE
  5
3EC
100
AcDbEntity
  8
ASSI
100
AcDbLine
 62
7
  6
CONTINUOUS
 10
-6.3822960684
 20
-12.9262360748
 11
-6.507374791
 21
-12.3231148844
  0
LINE
  5
3ED
100
AcDbEntity
  8
ASSI
100
AcDbLine
 62
7
  6
CONTINUOUS
 10
-6.507374791
 20
-12.3231148844
 11
-6.6323499265
 21
-11.7199476292
  0
LWPOLYLINE
  5
3EE
100
AcDbEntity
  8
ASSI
100
AcDbPolyline
 62
7
  6
CONTINUOUS
 90
6
 70
0
 10
-8.6922381707
 20
-0.7638501976
 10
-8.6746862686
 20
-0.891947636
 10
-8.6237259391
 20
-1.0200450745
 10
-8.5419002474
 20
-1.1417500871
 10
-8.4276428695
 20
-1.2567382775
 10
-8.2825201293
 20
-1.3653340422
  0
LWPOLYLINE
  5
3EF
100
AcDbEntity
  8
ASSI
100
AcDbPolyline
 62
7
  6
CONTINUOUS
 90
19
 70
0
 10
-8.6922381707
 20
2.2672387156
 10
-8.6746862686
 20
2.1391412772
 10
-8.6237259391
 20
2.0110438388
 10
-8.5419002474
 20
1.8893388262
 10
-8.4276428695
 20
1.7743506357
 10
-8.2825201293
 20
1.6657548711
 10
-8.1137740635
 20
1.5689707692
 10
-7.9202058598
 20
1.4845977363
 10
-7.7030143305
 20
1.4120363662
 10
-7.4730379496
 20
1.3549076773
 10
-7.2296279244
 20
1.3139948314
 10
-6.9734330475
 20
1.2885146667
 10
-6.7172381707
 20
1.2797387156
 10
-6.4610432938
 20
1.2885146667
 10
-6.2048484169
 20
1.3139948314
 10
-5.9614383918
 20
1.3549076773
 10
-5.7350748354
 20
1.4108293601
 10
-5.5214961308
 20
1.4821837241
 10
-5.3207022778
 20
1.5689707692
  0
LWPOLYLINE
  5
3F0
100
AcDbEntity
  8
ASSI
100
AcDbPolyline
 62
7
  6
CONTINUOUS
 90
17
 70
0
 10
-8.5672363026
 20
2.2685532351
 10
-8.555605759
 20
2.1636715752
 10
-8.5034251932
 20
2.0290211836
 10
-8.4107878222
 20
1.8966499855
 10
-8.2836779392
 20
1.7751090449
 10
-8.1198196431
 20
1.6651133834
 10
-7.9214888351
 20
1.5659479794
 10
-7.7014975122
 20
1.4840188313
 10
-7.4584156309
 20
1.4204638899
 10
-7.1936732348
 20
1.3741452044
 10
-6.9243724515
 20
1.3480549215
 10
-6.6502123328
 20
1.3435285356
 10
-6.3714938269
 20
1.3592305523
 10
-6.1062219061
 20
1.3941466351
 10
-5.8603982275
 20
1.4479386717
 10
-5.628021134
 20
1.5209447743
 10
-5.4090906255
 20
1.613164943
  0
LWPOLYLINE
  5
3F1
100
AcDbEntity
  8
0
100
AcDbPolyline
 62
7
  6
CONTINUOUS
 90
5
 70
0
 10
-4.7172381707
 20
14.5791019793
 10
-4.7186367611
 20
14.6164931736
 10
-4.7298137509
 20
14.6910664554
 10
-4.7521052242
 20
14.7650135864
 10
-4.7885080185
 20
14.8436771104
  0
LINE
  5
3F2
100
AcDbEntity
  8
ASSI
100
AcDbLine
 62
7
  6
CONTINUOUS
 10
-5.7921565089
 20
-4.3060471665
 11
-5.7880982285
 21
-4.4254259424
  0
LINE
  5
3F3
100
AcDbEntity
  8
ASSI
100
AcDbLine
 62
7
  6
CONTINUOUS
 10
-4.6921017614
 20
-4.4844673764
 11
-4.6961600007
 21
-4.3650885799
  0
LINE
  5
3F4
100
AcDbEntity
  8
ASSI
100
AcDbLine
 62
7
  6
CONTINUOUS
 10
-5.3893767303
 20
-27.3939903831
 11
-5.4002472753
 21
-26.9904702734
  0
LWPOLYLINE
  5
3F5
100
AcDbEntity
  8
ASSI
100
AcDbPolyline
 62
7
  6
CONTINUOUS
 90
3
 70
0
 10
-5.4106025823
 20
-27.4046033091
 10
-5.4203071886
 20
-27.0459412639
 10
-5.4214713013
 20
-27.0010822864
  0
LINE
  5
3F6
100
AcDbEntity
  8
ASSI
100
AcDbLine
 62
7
  6
CONTINUOUS
 10
-6.3689333445
 20
-26.5273764882
 11
-6.3580646293
 21
-26.9308975128
  0
LINE
  5
3F7
100
AcDbEntity
  8
ASSI
100
AcDbLine
 62
7
  6
CONTINUOUS
 10
-5.7186441066
 20
-26.8538675377
 11
-5.726111191
 21
-26.5552979377
  0
LINE
  5
3F8
100
AcDbEntity
  8
ASSI
100
AcDbLine
 62
7
  6
CONTINUOUS
 10
-5.6974204926
 20
-26.8432557307
 11
-5.7048888459
 21
-26.5446861547
  0
LINE
  5
3F9
100
AcDbEntity
  8
ASSI
100
AcDbLine
 62
7
  6
CONTINUOUS
 10
-6.0853579597
 20
-26.2295683658
 11
-6.0743731254
 21
-26.6760127884
  0
LINE
  5
3FA
100
AcDbEntity
  8
ASSI
100
AcDbLine
 62
7
  6
CONTINUOUS
 10
-5.726111191
 20
-26.5552979377
 11
-5.7330967771
 21
-26.2564702658
  0
LINE
  5
3FB
100
AcDbEntity
  8
ASSI
100
AcDbLine
 62
7
  6
CONTINUOUS
 10
-5.7048888459
 20
-26.5446861547
 11
-5.7118756056
 21
-26.2458590594
  0
LINE
  5
3FC
100
AcDbEntity
  8
ASSI
100
AcDbLine
 62
7
  6
CONTINUOUS
 10
-6.0952666825
 20
-25.7825476909
 11
-6.0853579597
 21
-26.2295683658
  0
LINE
  5
3FD
100
AcDbEntity
  8
ASSI
100
AcDbLine
 62
7
  6
CONTINUOUS
 10
-5.7330967771
 20
-26.2564702658
 11
-5.7396008492
 21
-25.9573852386
  0
LINE
  5
3FE
100
AcDbEntity
  8
ASSI
100
AcDbLine
 62
7
  6
CONTINUOUS
 10
-5.7118756056
 20
-26.2458590594
 11
-5.7183807598
 21
-25.9467749931
  0
LWPOLYLINE
  5
3FF
100
AcDbEntity
  8
ASSI
100
AcDbPolyline
 62
7
  6
CONTINUOUS
 90
3
 70
0
 10
-5.7396008492
 20
-25.9573852386
 10
-5.7456233441
 20
-25.6580457226
 10
-5.7484540041
 20
-25.5082803521
  0
LWPOLYLINE
  5
400
100
AcDbEntity
  8
ASSI
100
AcDbPolyline
 62
7
  6
CONTINUOUS
 90
3
 70
0
 10
-5.7183807598
 20
-25.9467749931
 10
-5.7244042615
 20
-25.6474361488
 10
-5.7272353957
 20
-25.4976710479
  0
LINE
  5
401
100
AcDbEntity
  8
ASSI
100
AcDbLine
 62
7
  6
CONTINUOUS
 10
-6.1040991533
 20
-25.3349571482
 11
-6.0952666825
 21
-25.7825476909
  0
LINE
  5
402
100
AcDbEntity
  8
ASSI
100
AcDbLine
 62
7
  6
CONTINUOUS
 10
-5.7569928409
 20
-25.0103225863
 11
-5.7621237088
 21
-24.6653392134
  0
LINE
  5
403
100
AcDbEntity
  8
ASSI
100
AcDbLine
 62
7
  6
CONTINUOUS
 10
-5.7357756622
 20
-24.9997139969
 11
-5.7424765128
 21
-24.53966545
  0
LINE
  5
404
100
AcDbEntity
  8
ASSI
100
AcDbLine
 62
7
  6
CONTINUOUS
 10
-6.1209198174
 20
-24.2573115385
 11
-6.1127218544
 21
-24.8324678343
  0
LINE
  5
405
100
AcDbEntity
  8
ASSI
100
AcDbLine
 62
7
  6
CONTINUOUS
 10
-5.7621237088
 20
-24.6653392134
 11
-5.7666183261
 21
-24.3200231261
  0
LINE
  5
406
100
AcDbEntity
  8
ASSI
100
AcDbLine
 62
7
  6
CONTINUOUS
 10
-5.7424765128
 20
-24.53966545
 11
-5.7467598449
 21
-24.1942322408
  0
LINE
  5
407
100
AcDbEntity
  8
ASSI
100
AcDbLine
 62
7
  6
CONTINUOUS
 10
-5.7467598449
 20
-24.1942322408
 11
-5.7490375731
 21
-23.9850235488
  0
LINE
  5
408
100
AcDbEntity
  8
ASSI
100
AcDbLine
 62
7
  6
CONTINUOUS
 10
-6.1262058359
 20
-23.7965083107
 11
-6.1209198174
 21
-24.2573115385
  0
LINE
  5
409
100
AcDbEntity
  8
ASSI
100
AcDbLine
 62
7
  6
CONTINUOUS
 10
-5.7666183261
 20
-24.3200231261
 11
-5.7704768242
 21
-23.9743630636
  0
LINE
  5
40A
100
AcDbEntity
  8
ASSI
100
AcDbLine
 62
7
  6
CONTINUOUS
 10
-5.4630664927
 20
-24.1055547555
 11
-5.4668101705
 21
-23.6962230102
  0
LWPOLYLINE
  5
40B
100
AcDbEntity
  8
ASSI
100
AcDbPolyline
 62
7
  6
CONTINUOUS
 90
3
 70
0
 10
-5.4842818094
 20
-24.1161624138
 10
-5.4876529213
 20
-23.7523357075
 10
-5.4880248592
 20
-23.7068303546
  0
LINE
  5
40C
100
AcDbEntity
  8
ASSI
100
AcDbLine
 62
7
  6
CONTINUOUS
 10
-6.413677715
 20
-23.2440285501
 11
-6.4099346665
 21
-23.65336061
  0
LINE
  5
40D
100
AcDbEntity
  8
ASSI
100
AcDbLine
 62
7
  6
CONTINUOUS
 10
-7.2257965188
 20
-13.8428299234
 11
-7.2257965188
 21
-10.1620565465
  0
LINE
  5
40E
100
AcDbEntity
  8
ASSI
100
AcDbLine
 62
7
  6
CONTINUOUS
 10
-6.6323499265
 20
-14.1471700187
 11
-6.6323499265
 21
-11.7199476292
  0
LINE
  5
40F
100
AcDbEntity
  8
ASSI
100
AcDbLine
 62
7
  6
CONTINUOUS
 10
-6.6111353297
 20
-11.822358773
 11
-6.6111353297
 21
-14.1365627203
  0
LINE
  5
410
100
AcDbEntity
  8
ASSI
100
AcDbLine
 62
7
  6
CONTINUOUS
 10
-6.2292592873
 20
-3.7354468837
 11
-6.2292592873
 21
-3.8220494241
  0
LINE
  5
411
100
AcDbEntity
  8
ASSI
100
AcDbLine
 62
7
  6
CONTINUOUS
 10
-5.9897684164
 20
-4.3441491188
 11
-5.9897684164
 21
-4.4187217084
  0
LINE
  5
412
100
AcDbEntity
  8
ASSI
100
AcDbLine
 62
7
  6
CONTINUOUS
 10
-5.9573872755
 20
-4.4190145071
 11
-5.9573872755
 21
-4.4426213539
  0
LINE
  5
413
100
AcDbEntity
  8
ASSI
100
AcDbLine
 62
7
  6
CONTINUOUS
 10
-5.7051589036
 20
-4.2321963197
 11
-5.7051589036
 21
-4.31879886
  0
LINE
  5
414
100
AcDbEntity
  8
ASSI
100
AcDbLine
 62
7
  6
CONTINUOUS
 10
-5.5716613422
 20
-3.7708717464
 11
-5.5716613422
 21
-3.8574742868
  0
LINE
  5
415
100
AcDbEntity
  8
ASSI
100
AcDbLine
 62
7
  6
CONTINUOUS
 10
-5.5682510112
 20
-4.1637423735
 11
-5.5682510112
 21
-4.2503449139
  0
LINE
  5
416
100
AcDbEntity
  8
ASSI
100
AcDbLine
 62
7
  6
CONTINUOUS
 10
-5.420549345
 20
-4.1202435845
 11
-5.420549345
 21
-4.2068461249
  0
LINE
  5
417
100
AcDbEntity
  8
ASSI
100
AcDbLine
 62
7
  6
CONTINUOUS
 10
-5.2896435196
 20
-4.752886385
 11
-5.2896435196
 21
-4.7764932318
  0
LINE
  5
418
100
AcDbEntity
  8
ASSI
100
AcDbLine
 62
7
  6
CONTINUOUS
 10
-5.1817917521
 20
-4.1222727042
 11
-5.1817917521
 21
-4.2088752446
  0
LINE
  5
419
100
AcDbEntity
  8
ASSI
100
AcDbLine
 62
7
  6
CONTINUOUS
 10
-5.139912743
 20
-4.7690769555
 11
-5.139912743
 21
-4.8436495451
  0
LINE
  5
41A
100
AcDbEntity
  8
ASSI
100
AcDbLine
 62
7
  6
CONTINUOUS
 10
-5.0516192526
 20
-4.1482424133
 11
-5.0516192526
 21
-4.2348449536
  0
LINE
  5
41B
100
AcDbEntity
  8
ASSI
100
AcDbLine
 62
7
  6
CONTINUOUS
 10
-5.0009757332
 20
-4.7603123653
 11
-5.0009757332
 21
-4.8468794287
  0
LINE
  5
41C
100
AcDbEntity
  8
ASSI
100
AcDbLine
 62
7
  6
CONTINUOUS
 10
-4.9119488781
 20
-4.7461509819
 11
-4.9119488781
 21
-4.8327535222
  0
LINE
  5
41D
100
AcDbEntity
  8
ASSI
100
AcDbLine
 62
7
  6
CONTINUOUS
 10
-4.903714169
 20
-15.0204461395
 11
-4.9037219505
 21
-12.5932198625
  0
LINE
  5
41E
100
AcDbEntity
  8
ASSI
100
AcDbLine
 62
7
  6
CONTINUOUS
 10
-4.8803010219
 20
-4.2143432582
 11
-4.8803010219
 21
-4.3009457986
  0
LINE
  5
41F
100
AcDbEntity
  8
ASSI
100
AcDbLine
 62
7
  6
CONTINUOUS
 10
-4.8672381707
 20
2.2672387156
 11
-4.8672381707
 21
7.9497134887
  0
LINE
  5
420
100
AcDbEntity
  8
ASSI
100
AcDbLine
 62
7
  6
CONTINUOUS
 10
-4.7838056285
 20
-4.7124312276
 11
-4.7838056285
 21
-4.7990337679
  0
LINE
  5
421
100
AcDbEntity
  8
ASSI
100
AcDbLine
 62
7
  6
CONTINUOUS
 10
-4.7480994188
 20
-4.3000023301
 11
-4.7480994188
 21
-4.3866048705
  0
LINE
  5
422
100
AcDbEntity
  8
ASSI
100
AcDbLine
 62
7
  6
CONTINUOUS
 10
-4.7422381707
 20
-0.7638501976
 11
-4.7422381707
 21
2.2672387156
  0
LINE
  5
423
100
AcDbEntity
  8
0
100
AcDbLine
 62
7
  6
CONTINUOUS
 10
-4.7172381707
 20
8.3294165421
 11
-4.7172381707
 21
14.5791019793
  0
LINE
  5
424
100
AcDbEntity
  8
ASSI
100
AcDbLine
 62
7
  6
CONTINUOUS
 10
-4.6778975423
 20
-4.9022931904
 11
-4.6778975423
 21
-4.9888957308
  0
LINE
  5
425
100
AcDbEntity
  8
ASSI
100
AcDbLine
 62
7
  6
CONTINUOUS
 10
-4.6259581242
 20
-4.9673794402
 11
-4.6259581242
 21
-5.0529761591
  0
LINE
  5
426
100
AcDbEntity
  8
ASSI
100
AcDbLine
 62
7
  6
CONTINUOUS
 10
-4.6077811954
 20
-4.624419011
 11
-4.6077811954
 21
-4.7110215514
  0
LINE
  5
427
100
AcDbEntity
  8
ASSI
100
AcDbLine
 62
7
  6
CONTINUOUS
 10
-4.5403417142
 20
-4.5603473999
 11
-4.5403417142
 21
-4.6469499403
  0
LINE
  5
428
100
AcDbEntity
  8
ASSI
100
AcDbLine
 62
7
  6
CONTINUOUS
 10
-4.5120188926
 20
-4.515833945
 11
-4.5120188926
 21
-4.6024364853
  0
LINE
  5
429
100
AcDbEntity
  8
ASSI
100
AcDbLine
 62
7
  6
CONTINUOUS
 10
-4.4944897259
 20
-4.4463654469
 11
-4.4944897259
 21
-4.5329679873
  0
LINE
  5
42A
100
AcDbEntity
  8
ASSI
100
AcDbLine
 62
7
  6
CONTINUOUS
 10
-4.301231867
 20
-15.3202683799
 11
-4.301231867
 21
-11.639495003
  0
LINE
  5
42B
100
AcDbEntity
  8
ASSI
100
AcDbLine
 62
7
  6
CONTINUOUS
 10
-4.2800187651
 20
-11.628888452
 11
-4.2800187651
 21
-15.309661829
  0
LINE
  5
42C
100
AcDbEntity
  8
ASSI
100
AcDbLine
 62
7
  6
CONTINUOUS
 10
-3.7424256326
 20
-4.9201889001
 11
-3.7424256326
 21
-5.0067914405
  0
LINE
  5
42D
100
AcDbEntity
  8
ASSI
100
AcDbLine
 62
7
  6
CONTINUOUS
 10
-3.449699431
 20
-5.0469936757
 11
-3.449699431
 21
-5.1335962161
  0
LINE
  5
42E
100
AcDbEntity
  8
ASSI
100
AcDbLine
 62
250
  6
CONTINUOUS
 10
-4.3937998311
 20
0.304262942
 11
-4.3931328453
 21
0.3982024651
  0
LWPOLYLINE
  5
42F
100
AcDbEntity
  8
ASSI
100
AcDbPolyline
 62
7
  6
CONTINUOUS
 90
9
 70
0
 10
-7.6745876797
 20
-24.4238077619
 10
-7.6713938259
 20
-24.2411009719
 10
-7.6549110496
 20
-24.0660810489
 10
-7.6251982124
 20
-23.9001506086
 10
-7.5823499819
 20
-23.7443497542
 10
-7.5266442078
 20
-23.6003274363
 10
-7.458817632
 20
-23.4700520749
 10
-7.3800195836
 20
-23.3549304286
 10
-7.2906872979
 20
-23.2549396019
  0
LWPOLYLINE
  5
430
100
AcDbEntity
  8
ASSI
100
AcDbPolyline
 62
7
  6
CONTINUOUS
 90
9
 70
0
 10
-7.65336282
 20
-24.4131953321
 10
-7.6501317553
 20
-24.229792089
 10
-7.6335613324
 20
-24.0545356696
 10
-7.6038029708
 20
-23.888774406
 10
-7.5611494187
 20
-23.733803545
 10
-7.5059109512
 20
-23.5907996508
 10
-7.4384142645
 20
-23.460809935
 10
-7.3592041164
 20
-23.3448397008
 10
-7.268907502
 20
-23.2437838903
  0
LWPOLYLINE
  5
431
100
AcDbEntity
  8
ASSI
100
AcDbPolyline
 62
7
  6
CONTINUOUS
 90
12
 70
0
 10
-4.142468785
 20
-26.1898810368
 10
-4.1458453603
 20
-26.3727323423
 10
-4.1627713342
 20
-26.5480082809
 10
-4.1931853766
 20
-26.7143068002
 10
-4.2370285148
 20
-26.8706073756
 10
-4.2939821325
 20
-27.0152442679
 10
-4.3631928868
 20
-27.1461953222
 10
-4.4435146613
 20
-27.2620579852
 10
-4.5345036847
 20
-27.3628550508
 10
-4.6362921996
 20
-27.4487317012
 10
-4.7489455465
 20
-27.5191805877
 10
-4.7676040163
 20
-27.5287783915
  0
LWPOLYLINE
  5
432
100
AcDbEntity
  8
ASSI
100
AcDbPolyline
 62
7
  6
CONTINUOUS
 90
7
 70
0
 10
-4.8672400387
 20
2.2659241962
 10
-4.8698178106
 20
2.2337257967
 10
-4.9012218441
 20
2.0943665438
 10
-4.9710540096
 20
1.9617305833
 10
-5.0786380828
 20
1.8388187441
 10
-5.2246502881
 20
1.7226301973
 10
-5.4090906255
 20
1.613164943
  0
LWPOLYLINE
  5
433
100
AcDbEntity
  8
ASSI
100
AcDbPolyline
 62
7
  6
CONTINUOUS
 90
7
 70
0
 10
-4.7422381707
 20
2.2672387156
 10
-4.7597900727
 20
2.1391412772
 10
-4.8107504022
 20
2.0110438388
 10
-4.892576094
 20
1.8893388262
 10
-5.0044194596
 20
1.776157048
 10
-5.1471281876
 20
1.6693676957
 10
-5.3207022778
 20
1.5689707692
  0
LWPOLYLINE
  5
434
100
AcDbEntity
  8
ASSI
100
AcDbPolyline
 62
7
  6
CONTINUOUS
 90
7
 70
0
 10
-4.7422381707
 20
-0.7638501976
 10
-4.7597900727
 20
-0.891947636
 10
-4.8107504022
 20
-1.0200450745
 10
-4.892576094
 20
-1.1417500871
 10
-5.0044194596
 20
-1.2549318652
 10
-5.1471281876
 20
-1.3617212176
 10
-5.3207022778
 20
-1.462118144
  0
LWPOLYLINE
  5
435
100
AcDbEntity
  8
ASSI
100
AcDbPolyline
 62
250
  6
CONTINUOUS
 90
6
 70
0
 10
-11.9394002482
 20
-29.2118091136
 10
-11.9887821038
 20
-29.4531737558
 10
-12.0419783729
 20
-29.6926315444
 10
-12.098316711
 20
-29.931984672
 10
-12.1564965495
 20
-30.1682382325
 10
-12.2159819954
 20
-30.402841296
  0
LINE
  5
436
100
AcDbEntity
  8
ASSI
100
AcDbLine
 62
7
  6
CONTINUOUS
 10
-5.9897684164
 20
-4.3441491188
 11
-5.9722392794
 21
-4.2746805922
  0
LWPOLYLINE
  5
437
100
AcDbEntity
  8
ASSI
100
AcDbPolyline
 62
250
  6
CONTINUOUS
 90
12
 70
0
 10
-12.2159819954
 20
-30.402841296
 10
-12.3378372619
 20
-30.8754168591
 10
-12.3986703901
 20
-31.113614773
 10
-12.4582520789
 20
-31.3530515312
 10
-12.5159115569
 20
-31.5950460175
 10
-12.5702635013
 20
-31.8386592108
 10
-12.6193462454
 20
-32.0807565923
 10
-12.6620808398
 20
-32.3223940333
 10
-12.6967970566
 20
-32.5630467565
 10
-12.7212615269
 20
-32.7975003184
 10
-12.7341199583
 20
-33.0245441233
 10
-12.733820985
 20
-33.2467213248
  0
LINE
  5
438
100
AcDbEntity
  8
ASSI
100
AcDbLine
 62
7
  6
CONTINUOUS
 10
-10.0257148599
 20
-11.2281628303
 11
-9.9543240971
 21
-10.9847066626
  0
LINE
  5
439
100
AcDbEntity
  8
ASSI
100
AcDbLine
 62
7
  6
CONTINUOUS
 10
-9.9543240971
 20
-10.9847066626
 11
-9.8114321497
 21
-10.4977240426
  0
LINE
  5
43A
100
AcDbEntity
  8
ASSI
100
AcDbLine
 62
7
  6
CONTINUOUS
 10
-9.8114321497
 20
-10.4977240426
 11
-9.5968181736
 21
-9.7670744013
  0
LINE
  5
43B
100
AcDbEntity
  8
ASSI
100
AcDbLine
 62
7
  6
CONTINUOUS
 10
-9.7135997019
 20
-12.5190026397
 11
-9.4016648826
 21
-11.4578267717
  0
LINE
  5
43C
100
AcDbEntity
  8
ASSI
100
AcDbLine
 62
7
  6
CONTINUOUS
 10
-9.5968181736
 20
-9.7670744013
 11
-9.3818729547
 21
-9.0362140473
  0
LINE
  5
43D
100
AcDbEntity
  8
ASSI
100
AcDbLine
 62
7
  6
CONTINUOUS
 10
-9.1102622255
 20
-10.4068492015
 11
-9.7348235603
 21
-12.5296145689
  0
LINE
  5
43E
100
AcDbEntity
  8
ASSI
100
AcDbLine
 62
7
  6
CONTINUOUS
 10
-9.4016648826
 20
-11.4578267717
 11
-9.0890378411
 21
-10.3962282039
  0
LINE
  5
43F
100
AcDbEntity
  8
ASSI
100
AcDbLine
 62
7
  6
CONTINUOUS
 10
-8.7969388321
 20
-9.3448174485
 11
-9.1102622255
 21
-10.4068492015
  0
LINE
  5
440
100
AcDbEntity
  8
ASSI
100
AcDbLine
 62
7
  6
CONTINUOUS
 10
-9.0890378411
 20
-10.3962282039
 11
-8.7757186578
 21
-9.3342073614
  0
LWPOLYLINE
  5
441
100
AcDbEntity
  8
0
100
AcDbPolyline
 62
7
  6
CONTINUOUS
 90
3
 70
0
 10
-13.3560483968
 20
-0.6648528899
 10
-13.3852670909
 20
-0.6807782755
 10
-13.4143056356
 20
-0.6929390705
  0
LWPOLYLINE
  5
442
100
AcDbEntity
  8
ASSI
100
AcDbPolyline
 62
250
  6
CONTINUOUS
 90
9
 70
0
 10
-11.6124966753
 20
1.2684327726
 10
-12.0125523262
 20
1.0569657065
 10
-12.4073101969
 20
0.8434556235
 10
-12.7966761615
 20
0.6279500423
 10
-13.180744346
 20
0.4104014443
 10
-13.5597971291
 20
0.1906672726
 10
-13.933928637
 20
-0.0312999914
 10
-14.3030447434
 20
-0.2554528291
 10
-14.6671454485
 20
-0.4817912403
  0
LINE
  5
443
100
AcDbEntity
  8
ASSI
100
AcDbLine
 62
250
  6
CONTINUOUS
 10
-11.2071432445
 20
1.4778568218
 11
-11.6124966753
 21
1.2684327726
  0
LWPOLYLINE
  5
444
100
AcDbEntity
  8
ASSI
100
AcDbPolyline
 62
7
  6
CONTINUOUS
 90
9
 70
0
 10
-10.3234827547
 20
1.0360265769
 10
-10.7185477549
 20
0.8319289188
 10
-11.1088210871
 20
0.6256008237
 10
-11.4943027512
 20
0.4170422918
 10
-11.8750469275
 20
0.206222375
 10
-12.2509994358
 20
-0.0068279787
 10
-12.6219977354
 20
-0.2220159254
 10
-12.9879876463
 20
-0.4393105172
 10
-13.3490233485
 20
-0.6587427021
  0
LINE
  5
445
100
AcDbEntity
  8
ASSI
100
AcDbLine
 62
7
  6
CONTINUOUS
 10
-11.83949913
 20
1.2787488543
 11
-11.4319937742
 21
1.4888306266
  0
LWPOLYLINE
  5
446
100
AcDbEntity
  8
ASSI
100
AcDbPolyline
 62
7
  6
CONTINUOUS
 90
6
 70
0
 10
-9.9277765269
 20
1.1998748167
 10
-10.6446903196
 20
0.8414178932
 10
-11.3460694739
 20
0.4756691233
 10
-12.0315970865
 20
0.1027869654
 10
-12.7015900608
 20
-0.277387039
 10
-13.3560483968
 20
-0.6648528899
  0
LINE
  5
447
100
AcDbEntity
  8
0
100
AcDbLine
 62
7
  6
CONTINUOUS
 10
-13.6525750285
 20
-0.8445036943
 11
-14.0451741469
 21
-1.0408032536
  0
LINE
  5
448
100
AcDbEntity
  8
ASSI
100
AcDbLine
 62
7
  6
CONTINUOUS
 10
-11.0171957114
 20
1.6899004485
 11
-11.4294054273
 21
1.490124703
  0
LWPOLYLINE
  5
449
100
AcDbEntity
  8
ASSI
100
AcDbPolyline
 62
250
  6
CONTINUOUS
 90
8
 70
0
 10
-11.2071432445
 20
1.4778568218
 10
-10.7970112069
 20
1.6761755068
 10
-10.3827803211
 20
1.871851709
 10
-9.964450587
 20
2.0648854284
 10
-9.5421150419
 20
2.2552306021
 10
-9.1156806486
 20
2.442933293
 10
-8.684868295
 20
2.6281316897
 10
-8.5672381707
 20
2.6775150358
  0
LWPOLYLINE
  5
44A
100
AcDbEntity
  8
ASSI
100
AcDbPolyline
 62
7
  6
CONTINUOUS
 90
6
 70
0
 10
-10.3234827547
 20
1.0360265769
 10
-9.9237820426
 20
1.2293117749
 10
-9.5196169585
 20
1.420202888
 10
-9.1109875024
 20
1.6086999162
 10
-8.697833006
 20
1.7948293358
 10
-8.6922381707
 20
1.797290836
  0
LWPOLYLINE
  5
44B
100
AcDbEntity
  8
ASSI
100
AcDbPolyline
 62
7
  6
CONTINUOUS
 90
3
 70
0
 10
-8.6922381707
 20
1.7822287207
 10
-9.1962788062
 20
1.5505645182
 10
-9.9277765269
 20
1.1998748167
  0
LWPOLYLINE
  5
44C
100
AcDbEntity
  8
RACCORDO
100
AcDbPolyline
 62
250
  6
CONTINUOUS
 90
15
 70
0
 10
-8.6922381707
 20
0.42951939
 10
-8.9092060796
 20
0.3321383514
 10
-9.1251378219
 20
0.2118639502
 10
-9.3172293666
 20
0.0796692768
 10
-9.4792803537
 20
-0.0601788111
 10
-9.6103106584
 20
-0.20793
 10
-9.7113004056
 20
-0.3633346033
 10
-9.7789896095
 20
-0.5213767026
 10
-9.8122914622
 20
-0.682142713
 10
-9.8122927717
 20
-0.8455462195
 10
-9.7789939753
 20
-1.0063120586
 10
-9.7113074657
 20
-1.1643522146
 10
-9.6103208504
 20
-1.3197547033
 10
-9.4792973894
 20
-1.4675084086
 10
-9.3193248361
 20
-1.6059429586
  0
LWPOLYLINE
  5
44D
100
AcDbEntity
  8
ASSI
100
AcDbPolyline
 62
7
  6
CONTINUOUS
 90
7
 70
0
 10
-8.5672381707
 20
2.786667223
 10
-8.8847732293
 20
2.6530661511
 10
-9.3201569335
 20
2.4654846146
 10
-9.7511478875
 20
2.2753537903
 10
-10.1776893448
 20
2.0826968531
 10
-10.5997243656
 20
1.8875375818
 10
-11.0171957114
 20
1.6899004485
  0
LINE
  5
44E
100
AcDbEntity
  8
ASSI
100
AcDbLine
 62
7
  6
CONTINUOUS
 10
-11.4062024142
 20
1.4996146674
 11
-11.4294054427
 21
1.490124734
  0
LWPOLYLINE
  5
44F
100
AcDbEntity
  8
ASSI
100
AcDbPolyline
 62
7
  6
CONTINUOUS
 90
3
 70
0
 10
-11.4062024142
 20
1.4996146674
 10
-11.427404886
 20
1.4910910182
 10
-11.4319932262
 20
1.488829539
  0
LWPOLYLINE
  5
450
100
AcDbEntity
  8
RACCORDO
100
AcDbPolyline
 62
7
  6
CONTINUOUS
 90
10
 70
0
 10
-8.6922381707
 20
0.4599312743
 10
-8.797653174
 20
0.4193024462
 10
-9.0483758661
 20
0.2992492344
 10
-9.2747188146
 20
0.1648581161
 10
-9.4730738116
 20
0.0176296214
 10
-9.6392148678
 20
-0.1393191732
 10
-9.7718474709
 20
-0.3039938641
 10
-9.8708264574
 20
-0.4754585024
 10
-9.9352941115
 20
-0.6514320624
 10
-9.9649366173
 20
-0.8285243009
  0
LINE
  5
451
100
AcDbEntity
  8
ASSI
100
AcDbLine
 62
7
  6
CONTINUOUS
 10
-0.0488959439
 20
-7.1664886102
 11
-0.1770388461
 21
-7.2002085382
  0
LINE
  5
452
100
AcDbEntity
  8
ASSI
100
AcDbLine
 62
7
  6
CONTINUOUS
 10
-0.0488959439
 20
-7.0798860698
 11
-0.1770388461
 21
-7.1136059978
  0
LINE
  5
453
100
AcDbEntity
  8
ASSI
100
AcDbLine
 62
7
  6
CONTINUOUS
 10
-0.9655426693
 20
-6.4455382741
 11
-0.8373994471
 21
-6.4118185335
  0
LINE
  5
454
100
AcDbEntity
  8
ASSI
100
AcDbLine
 62
7
  6
CONTINUOUS
 10
-4.7838056285
 20
-4.7990337679
 11
-4.9119488781
 21
-4.8327535222
  0
LINE
  5
455
100
AcDbEntity
  8
ASSI
100
AcDbLine
 62
7
  6
CONTINUOUS
 10
-2.4264965649
 20
-5.6843142447
 11
-2.5350815167
 21
-5.7082548501
  0
LINE
  5
456
100
AcDbEntity
  8
ASSI
100
AcDbLine
 62
7
  6
CONTINUOUS
 10
-2.4264965649
 20
-5.5977117043
 11
-2.5350815167
 21
-5.6216523097
  0
LINE
  5
457
100
AcDbEntity
  8
ASSI
100
AcDbLine
 62
7
  6
CONTINUOUS
 10
-3.449699431
 20
-5.0469936757
 11
-3.3411143055
 21
-5.0230531571
  0
LINE
  5
458
100
AcDbEntity
  8
ASSI
100
AcDbLine
 62
7
  6
CONTINUOUS
 10
-0.1770388461
 20
-7.2002085382
 11
-0.2591990749
 21
-7.2132775509
  0
LINE
  5
459
100
AcDbEntity
  8
ASSI
100
AcDbLine
 62
7
  6
CONTINUOUS
 10
-0.1770388461
 20
-7.1136059978
 11
-0.266065875
 21
-7.1277672944
  0
LINE
  5
45A
100
AcDbEntity
  8
ASSI
100
AcDbLine
 62
7
  6
CONTINUOUS
 10
-0.8373994471
 20
-6.4118185335
 11
-0.7483727108
 21
-6.3976570359
  0
LINE
  5
45B
100
AcDbEntity
  8
ASSI
100
AcDbLine
 62
7
  6
CONTINUOUS
 10
-1.722961216
 20
-6.3993196239
 11
-1.6339345345
 21
-6.3851581536
  0
LINE
  5
45C
100
AcDbEntity
  8
ASSI
100
AcDbLine
 62
7
  6
CONTINUOUS
 10
-4.9119488781
 20
-4.8327535222
 11
-4.9941089466
 21
-4.845822615
  0
LINE
  5
45D
100
AcDbEntity
  8
ASSI
100
AcDbLine
 62
7
  6
CONTINUOUS
 10
-4.9119488781
 20
-4.7461509819
 11
-5.0009757332
 21
-4.7603123653
  0
LINE
  5
45E
100
AcDbEntity
  8
ASSI
100
AcDbLine
 62
7
  6
CONTINUOUS
 10
-1.5017327577
 20
-6.5574198528
 11
-1.5577959235
 21
-6.5639791266
  0
LINE
  5
45F
100
AcDbEntity
  8
ASSI
100
AcDbLine
 62
7
  6
CONTINUOUS
 10
-1.5017327577
 20
-6.4708173124
 11
-1.6602282114
 21
-6.4893609509
  0
LINE
  5
460
100
AcDbEntity
  8
ASSI
100
AcDbLine
 62
7
  6
CONTINUOUS
 10
-0.266065875
 20
-7.1277672944
 11
-0.405002711
 21
-7.1365319715
  0
LINE
  5
461
100
AcDbEntity
  8
ASSI
100
AcDbLine
 62
7
  6
CONTINUOUS
 10
-0.7483727108
 20
-6.3976570359
 11
-0.6094355411
 21
-6.3888925393
  0
LINE
  5
462
100
AcDbEntity
  8
ASSI
100
AcDbLine
 62
7
  6
CONTINUOUS
 10
-2.7475453048
 20
-5.5154204157
 11
-2.6086084825
 21
-5.5066557455
  0
LINE
  5
463
100
AcDbEntity
  8
ASSI
100
AcDbLine
 62
7
  6
CONTINUOUS
 10
-5.0009757332
 20
-4.7603123653
 11
-5.139912743
 21
-4.7690769555
  0
LINE
  5
464
100
AcDbEntity
  8
ASSI
100
AcDbLine
 62
7
  6
CONTINUOUS
 10
-5.4832824388
 20
-4.0302021719
 11
-5.3443453993
 21
-4.0214376102
  0
LINE
  5
465
100
AcDbEntity
  8
ASSI
100
AcDbLine
 62
7
  6
CONTINUOUS
 10
-3.7424256326
 20
-5.0067914405
 11
-4.5824390305
 21
-5.0516575731
  0
LINE
  5
466
100
AcDbEntity
  8
ASSI
100
AcDbLine
 62
7
  6
CONTINUOUS
 10
-3.7424256326
 20
-4.9201889001
 11
-4.6259581242
 21
-4.9673794402
  0
LINE
  5
467
100
AcDbEntity
  8
ASSI
100
AcDbLine
 62
7
  6
CONTINUOUS
 10
-4.6778975423
 20
-4.9022931904
 11
-3.7943649959
 21
-4.855102623
  0
LWPOLYLINE
  5
468
100
AcDbEntity
  8
ASSI
100
AcDbPolyline
 62
7
  6
CONTINUOUS
 90
7
 70
0
 10
-0.266065875
 20
-7.2143343578
 10
-0.2892450483
 20
-7.2153072626
 10
-0.312415008
 20
-7.2156756857
 10
-0.3355757541
 20
-7.2154396271
 10
-0.3587272867
 20
-7.2145990868
 10
-0.3818696056
 20
-7.2131540648
 10
-0.405002711
 20
-7.2111045611
  0
LINE
  5
469
100
AcDbEntity
  8
ASSI
100
AcDbLine
 62
7
  6
CONTINUOUS
 10
-5.0009757332
 20
-4.8468794287
 11
-5.0241549349
 21
-4.847852319
  0
LWPOLYLINE
  5
46A
100
AcDbEntity
  8
ASSI
100
AcDbPolyline
 62
7
  6
CONTINUOUS
 90
6
 70
0
 10
-5.0241549349
 20
-4.847852319
 10
-5.0473249233
 20
-4.8482207276
 10
-5.0704856982
 20
-4.8479846545
 10
-5.0936372598
 20
-4.8471440998
 10
-5.1167796081
 20
-4.8456990633
 10
-5.139912743
 20
-4.8436495451
  0
LINE
  5
46B
100
AcDbEntity
  8
ASSI
100
AcDbLine
 62
7
  6
CONTINUOUS
 10
-0.5675563583
 20
-7.0356968775
 11
-0.3287992406
 21
-7.0377258006
  0
LINE
  5
46C
100
AcDbEntity
  8
ASSI
100
AcDbLine
 62
7
  6
CONTINUOUS
 10
-0.4468818938
 20
-6.5763301737
 11
-0.6856393999
 21
-6.5743010975
  0
LINE
  5
46D
100
AcDbEntity
  8
ASSI
100
AcDbLine
 62
7
  6
CONTINUOUS
 10
-0.4468818938
 20
-6.4897276333
 11
-0.6856393999
 21
-6.4876985571
  0
LINE
  5
46E
100
AcDbEntity
  8
ASSI
100
AcDbLine
 62
7
  6
CONTINUOUS
 10
-1.842340129
 20
-6.3983049921
 11
-1.722961216
 21
-6.3993196239
  0
LINE
  5
46F
100
AcDbEntity
  8
ASSI
100
AcDbLine
 62
7
  6
CONTINUOUS
 10
-2.5350815167
 20
-5.7082548501
 11
-2.6544604161
 21
-5.7072402114
  0
LINE
  5
470
100
AcDbEntity
  8
ASSI
100
AcDbLine
 62
7
  6
CONTINUOUS
 10
-2.5350815167
 20
-5.6216523097
 11
-2.6544604161
 21
-5.6206376711
  0
LINE
  5
471
100
AcDbEntity
  8
ASSI
100
AcDbLine
 62
7
  6
CONTINUOUS
 10
-3.1785606582
 20
-5.2104907915
 11
-3.2979393838
 21
-5.2094762397
  0
LINE
  5
472
100
AcDbEntity
  8
ASSI
100
AcDbLine
 62
7
  6
CONTINUOUS
 10
-3.1785606582
 20
-5.1238882511
 11
-3.2979393838
 21
-5.1228736993
  0
LINE
  5
473
100
AcDbEntity
  8
ASSI
100
AcDbLine
 62
7
  6
CONTINUOUS
 10
-5.3024664771
 20
-4.6682418181
 11
-5.0637089252
 21
-4.6702709583
  0
LINE
  5
474
100
AcDbEntity
  8
ASSI
100
AcDbLine
 62
7
  6
CONTINUOUS
 10
-5.1817917521
 20
-4.2088752446
 11
-5.420549345
 21
-4.2068461249
  0
LINE
  5
475
100
AcDbEntity
  8
ASSI
100
AcDbLine
 62
7
  6
CONTINUOUS
 10
-5.1817917521
 20
-4.1222727042
 11
-5.420549345
 21
-4.1202435845
  0
LINE
  5
476
100
AcDbEntity
  8
ASSI
100
AcDbLine
 62
7
  6
CONTINUOUS
 10
-1.6602282114
 20
-6.4893609509
 11
-1.8295172584
 21
-6.4829495156
  0
LWPOLYLINE
  5
477
100
AcDbEntity
  8
0
100
AcDbPolyline
 62
7
  6
CONTINUOUS
 90
7
 70
0
 10
14.0457266481
 20
-7.2044115629
 10
14.0689763901
 20
-7.2054131763
 10
14.0933312251
 20
-7.2037968223
 10
14.1186521172
 20
-7.1995344157
 10
14.1447924297
 20
-7.192614187
 10
14.1715986492
 20
-7.1830412338
 10
14.1989111826
 20
-7.1708379782
  0
LINE
  5
478
100
AcDbEntity
  8
ASSI
100
AcDbLine
 62
7
  6
CONTINUOUS
 10
-6.0619479493
 20
-3.8339031323
 11
-6.2292592873
 21
-3.8220494241
  0
LINE
  5
479
100
AcDbEntity
  8
ASSI
100
AcDbLine
 62
7
  6
CONTINUOUS
 10
-5.9102394226
 20
-3.7580488689
 11
-6.2292592873
 21
-3.7354468837
  0
LINE
  5
47A
100
AcDbEntity
  8
ASSI
100
AcDbLine
 62
7
  6
CONTINUOUS
 10
-6.0727930698
 20
-3.657213775
 11
-5.7537732598
 21
-3.6798157876
  0
LINE
  5
47B
100
AcDbEntity
  8
ASSI
100
AcDbLine
 62
7
  6
CONTINUOUS
 10
-0.405002711
 20
-7.1365319715
 11
-0.5547334877
 21
-7.120341401
  0
LINE
  5
47C
100
AcDbEntity
  8
ASSI
100
AcDbLine
 62
7
  6
CONTINUOUS
 10
-0.6094355411
 20
-6.3888925393
 11
-0.4597047713
 21
-6.4050831132
  0
LINE
  5
47D
100
AcDbEntity
  8
ASSI
100
AcDbLine
 62
7
  6
CONTINUOUS
 10
-3.3411143055
 20
-5.0230531571
 11
-3.1414732211
 21
-5.044640618
  0
LINE
  5
47E
100
AcDbEntity
  8
ASSI
100
AcDbLine
 62
7
  6
CONTINUOUS
 10
-5.139912743
 20
-4.7690769555
 11
-5.2896435196
 21
-4.752886385
  0
LINE
  5
47F
100
AcDbEntity
  8
ASSI
100
AcDbLine
 62
7
  6
CONTINUOUS
 10
-5.3443453993
 20
-4.0214376102
 11
-5.1946146295
 21
-4.0376281841
  0
LINE
  5
480
100
AcDbEntity
  8
ASSI
100
AcDbLine
 62
7
  6
CONTINUOUS
 10
-4.0863577779
 20
-5.3349709787
 11
-2.7475453048
 21
-5.5154204157
  0
LINE
  5
481
100
AcDbEntity
  8
ASSI
100
AcDbLine
 62
7
  6
CONTINUOUS
 10
-2.6544604161
 20
-5.7072402114
 11
-3.5067402774
 21
-5.5895069496
  0
LINE
  5
482
100
AcDbEntity
  8
ASSI
100
AcDbLine
 62
7
  6
CONTINUOUS
 10
-2.6544604161
 20
-5.6206376711
 11
-3.8435419456
 21
-5.4563788948
  0
LINE
  5
483
100
AcDbEntity
  8
ASSI
100
AcDbLine
 62
7
  6
CONTINUOUS
 10
-2.0453912976
 20
-6.0704495817
 11
-2.2254742852
 21
-6.0390828989
  0
LINE
  5
484
100
AcDbEntity
  8
ASSI
100
AcDbLine
 62
7
  6
CONTINUOUS
 10
-2.0453912976
 20
-5.9838470413
 11
-2.2254742852
 21
-5.9524803585
  0
LINE
  5
485
100
AcDbEntity
  8
ASSI
100
AcDbLine
 62
7
  6
CONTINUOUS
 10
0.413119243
 20
-7.299704852
 11
0.2829467435
 21
-7.2737351429
  0
LINE
  5
486
100
AcDbEntity
  8
ASSI
100
AcDbLine
 62
7
  6
CONTINUOUS
 10
-0.6977288578
 20
-7.0097271684
 11
-0.5675563583
 21
-7.0356968775
  0
LINE
  5
487
100
AcDbEntity
  8
ASSI
100
AcDbLine
 62
7
  6
CONTINUOUS
 10
0.413119243
 20
-7.2131023116
 11
0.2829467435
 21
-7.1871326026
  0
LINE
  5
488
100
AcDbEntity
  8
ASSI
100
AcDbLine
 62
7
  6
CONTINUOUS
 10
-1.9725126285
 20
-6.372335283
 11
-1.842340129
 21
-6.3983049921
  0
LINE
  5
489
100
AcDbEntity
  8
ASSI
100
AcDbLine
 62
7
  6
CONTINUOUS
 10
-0.3167093943
 20
-6.6022998828
 11
-0.4468818938
 21
-6.5763301737
  0
LINE
  5
48A
100
AcDbEntity
  8
ASSI
100
AcDbLine
 62
7
  6
CONTINUOUS
 10
-0.3167093943
 20
-6.5156973424
 11
-0.4468818938
 21
-6.4897276333
  0
LINE
  5
48B
100
AcDbEntity
  8
ASSI
100
AcDbLine
 62
7
  6
CONTINUOUS
 10
-3.0483881587
 20
-5.2364605006
 11
-3.1785606582
 21
-5.2104907915
  0
LINE
  5
48C
100
AcDbEntity
  8
ASSI
100
AcDbLine
 62
7
  6
CONTINUOUS
 10
-3.0483881587
 20
-5.1498579602
 11
-3.1785606582
 21
-5.1238882511
  0
LINE
  5
48D
100
AcDbEntity
  8
ASSI
100
AcDbLine
 62
7
  6
CONTINUOUS
 10
-5.4326389766
 20
-4.642272109
 11
-5.3024664771
 21
-4.6682418181
  0
LINE
  5
48E
100
AcDbEntity
  8
ASSI
100
AcDbLine
 62
7
  6
CONTINUOUS
 10
-5.0516192526
 20
-4.2348449536
 11
-5.1817917521
 21
-4.2088752446
  0
LINE
  5
48F
100
AcDbEntity
  8
ASSI
100
AcDbLine
 62
7
  6
CONTINUOUS
 10
-5.0516192526
 20
-4.1482424133
 11
-5.1817917521
 21
-4.1222727042
  0
LINE
  5
490
100
AcDbEntity
  8
ASSI
100
AcDbLine
 62
7
  6
CONTINUOUS
 10
-0.5547334877
 20
-7.120341401
 11
-0.6393986321
 21
-7.1016156756
  0
LINE
  5
491
100
AcDbEntity
  8
ASSI
100
AcDbLine
 62
7
  6
CONTINUOUS
 10
-1.8295172584
 20
-6.4829495156
 11
-1.9141821234
 21
-6.46422393
  0
LINE
  5
492
100
AcDbEntity
  8
ASSI
100
AcDbLine
 62
7
  6
CONTINUOUS
 10
-0.4597047713
 20
-6.4050831132
 11
-0.2492699131
 21
-6.4516257313
  0
LINE
  5
493
100
AcDbEntity
  8
ASSI
100
AcDbLine
 62
7
  6
CONTINUOUS
 10
-2.1883866745
 20
-5.8732328122
 11
-1.9779521637
 21
-5.9197752566
  0
LINE
  5
494
100
AcDbEntity
  8
ASSI
100
AcDbLine
 62
7
  6
CONTINUOUS
 10
-5.2896435196
 20
-4.752886385
 11
-5.3743084894
 21
-4.734160747
  0
LINE
  5
495
100
AcDbEntity
  8
ASSI
100
AcDbLine
 62
7
  6
CONTINUOUS
 10
-5.1946146295
 20
-4.0376281841
 11
-4.9841798582
 21
-4.0841707587
  0
LINE
  5
496
100
AcDbEntity
  8
ASSI
100
AcDbLine
 62
7
  6
CONTINUOUS
 10
0.6168190557
 20
-7.3540687586
 11
0.7773430783
 21
-7.3952142292
  0
LINE
  5
497
100
AcDbEntity
  8
ASSI
100
AcDbLine
 62
7
  6
CONTINUOUS
 10
0.2917117611
 20
-7.1523985706
 11
0.4522357837
 21
-7.1935440413
  0
LINE
  5
498
100
AcDbEntity
  8
ASSI
100
AcDbLine
 62
7
  6
CONTINUOUS
 10
-3.1414732211
 20
-5.044640618
 11
-2.9809486775
 21
-5.0857863491
  0
LINE
  5
499
100
AcDbEntity
  8
ASSI
100
AcDbLine
 62
7
  6
CONTINUOUS
 10
0.7685787554
 20
-7.5165511489
 11
0.577702515
 21
-7.4602295693
  0
LINE
  5
49A
100
AcDbEntity
  8
ASSI
100
AcDbLine
 62
7
  6
CONTINUOUS
 10
0.7685787554
 20
-7.4299486085
 11
0.577702515
 21
-7.373627029
  0
LWPOLYLINE
  5
49B
100
AcDbEntity
  8
ASSI
100
AcDbPolyline
 62
250
  6
CONTINUOUS
 90
9
 70
0
 10
-14.6671521974
 20
-0.4807667726
 10
-14.7073791753
 20
-0.4668406399
 10
-14.7473090103
 20
-0.4576704546
 10
-14.7864996822
 20
-0.4534198534
 10
-14.824534956
 20
-0.4542031275
 10
-14.8609447262
 20
-0.4600825001
 10
-14.8952248298
 20
-0.471028663
 10
-14.9270118546
 20
-0.4869724749
 10
-14.9296775308
 20
-0.4896365216
  0
LINE
  5
49C
100
AcDbEntity
  8
ASSI
100
AcDbLine
 62
7
  6
CONTINUOUS
 10
-2.1134787282
 20
-6.3214105036
 11
-1.9725126285
 21
-6.372335283
  0
LINE
  5
49D
100
AcDbEntity
  8
ASSI
100
AcDbLine
 62
7
  6
CONTINUOUS
 10
-1.9044251979
 20
-6.1213743612
 11
-2.0453912976
 21
-6.0704495817
  0
LINE
  5
49E
100
AcDbEntity
  8
ASSI
100
AcDbLine
 62
7
  6
CONTINUOUS
 10
-1.9044251979
 20
-6.0347718208
 11
-2.0453912976
 21
-5.9838470413
  0
LINE
  5
49F
100
AcDbEntity
  8
ASSI
100
AcDbLine
 62
7
  6
CONTINUOUS
 10
-0.8690475226
 20
-6.9436261063
 11
-0.6977288578
 21
-7.0097271684
  0
LINE
  5
4A0
100
AcDbEntity
  8
ASSI
100
AcDbLine
 62
7
  6
CONTINUOUS
 10
-5.6039571204
 20
-4.5761713075
 11
-5.4326389766
 21
-4.642272109
  0
LINE
  5
4A1
100
AcDbEntity
  8
ASSI
100
AcDbLine
 62
7
  6
CONTINUOUS
 10
-0.1453914242
 20
-6.6684005975
 11
-0.3167093943
 21
-6.6022998828
  0
LINE
  5
4A2
100
AcDbEntity
  8
ASSI
100
AcDbLine
 62
7
  6
CONTINUOUS
 10
-1.9779521637
 20
-5.9197752566
 11
-1.8066338462
 21
-5.985876145
  0
LINE
  5
4A3
100
AcDbEntity
  8
ASSI
100
AcDbLine
 62
7
  6
CONTINUOUS
 10
-0.1453914242
 20
-6.5817980571
 11
-0.3167093943
 21
-6.5156973424
  0
LINE
  5
4A4
100
AcDbEntity
  8
ASSI
100
AcDbLine
 62
7
  6
CONTINUOUS
 10
-2.8770698412
 20
-5.302561389
 11
-3.0483881587
 21
-5.2364605006
  0
LINE
  5
4A5
100
AcDbEntity
  8
ASSI
100
AcDbLine
 62
7
  6
CONTINUOUS
 10
-2.8770698412
 20
-5.2159588486
 11
-3.0483881587
 21
-5.1498579602
  0
LINE
  5
4A6
100
AcDbEntity
  8
ASSI
100
AcDbLine
 62
7
  6
CONTINUOUS
 10
-4.8803010219
 20
-4.3009457986
 11
-5.0516192526
 21
-4.2348449536
  0
LINE
  5
4A7
100
AcDbEntity
  8
ASSI
100
AcDbLine
 62
7
  6
CONTINUOUS
 10
-4.8803010219
 20
-4.2143432582
 11
-5.0516192526
 21
-4.1482424133
  0
LINE
  5
4A8
100
AcDbEntity
  8
ASSI
100
AcDbLine
 62
7
  6
CONTINUOUS
 10
-0.2492699131
 20
-6.4516257313
 11
-0.0476000725
 21
-6.5329023813
  0
LINE
  5
4A9
100
AcDbEntity
  8
ASSI
100
AcDbLine
 62
7
  6
CONTINUOUS
 10
-4.9841798582
 20
-4.0841707587
 11
-4.7825096702
 21
-4.1654475824
  0
LINE
  5
4AA
100
AcDbEntity
  8
ASSI
100
AcDbLine
 62
7
  6
CONTINUOUS
 10
-2.9809486775
 20
-5.0857863491
 11
-2.748926619
 21
-5.182239108
  0
LWPOLYLINE
  5
4AB
100
AcDbEntity
  8
RACCORDO
100
AcDbPolyline
 62
250
  6
CONTINUOUS
 90
17
 70
0
 10
4.5257596502
 20
-8.5773801297
 10
4.7720336165
 20
-8.6874032523
 10
5.0336051496
 20
-8.7824079519
 10
5.3104742495
 20
-8.8623942286
 10
5.6059816602
 20
-8.927905959
 10
5.9167866378
 20
-8.9783992665
 10
6.2328669499
 20
-9.0122425211
 10
6.5543986282
 20
-9.0288919193
 10
6.8812056411
 20
-9.0288912646
 10
7.2027376619
 20
-9.0122403383
 10
7.5188218606
 20
-8.9783957364
 10
7.8296310671
 20
-8.9279008628
 10
8.125133445
 20
-8.8623857104
 10
8.4048296206
 20
-8.7813602168
 10
8.6692189675
 20
-8.6853144445
 10
8.9097677699
 20
-8.5773485734
 10
9.1256981288
 20
-8.4570737254
  0
LINE
  5
4AC
100
AcDbEntity
  8
0
100
AcDbLine
 62
7
  6
CONTINUOUS
 10
6.6702148064
 20
-10.803988784
 11
6.6833481008
 21
-10.8100439151
  0
LINE
  5
4AD
100
AcDbEntity
  8
ASSI
100
AcDbLine
 62
7
  6
CONTINUOUS
 10
-10.3234827547
 20
1.0360265769
 11
-11.202657055
 21
1.4746424516
  0
LINE
  5
4AE
100
AcDbEntity
  8
0
100
AcDbLine
 62
7
  6
CONTINUOUS
 10
6.16388456
 20
-11.145332607
 11
-14.0451741469
 21
-1.0408032536
  0
LINE
  5
4AF
100
AcDbEntity
  8
ASSI
100
AcDbLine
 62
7
  6
CONTINUOUS
 10
6.532259807
 20
-10.9989948046
 11
6.5676495017
 21
-11.0166896519
  0
LINE
  5
4B0
100
AcDbEntity
  8
0
100
AcDbLine
 62
7
  6
CONTINUOUS
 10
6.5564836784
 20
-10.9490330478
 11
-13.6525750285
 21
-0.8445036943
  0
LINE
  5
4B1
100
AcDbEntity
  8
0
100
AcDbLine
 62
7
  6
CONTINUOUS
 10
6.5692716981
 20
-10.7059508407
 11
-13.6397870088
 21
-0.6014214873
  0
LINE
  5
4B2
100
AcDbEntity
  8
ASSI
100
AcDbLine
 62
7
  6
CONTINUOUS
 10
-3.8435419456
 20
-5.4563788948
 11
-2.9936864458
 21
-5.8813066447
  0
LINE
  5
4B3
100
AcDbEntity
  8
ASSI
100
AcDbLine
 62
7
  6
CONTINUOUS
 10
-2.2955906458
 20
-6.2303545448
 11
-2.1134787282
 21
-6.3214105036
  0
LINE
  5
4B4
100
AcDbEntity
  8
ASSI
100
AcDbLine
 62
250
  6
CONTINUOUS
 10
6.9157852872
 20
-10.8007697319
 11
-0.2591990749
 21
-7.2132775509
  0
LINE
  5
4B5
100
AcDbEntity
  8
ASSI
100
AcDbLine
 62
250
  6
CONTINUOUS
 10
-0.6454339239
 20
-7.0201601264
 11
-0.9949631485
 21
-6.8453955141
  0
LINE
  5
4B6
100
AcDbEntity
  8
ASSI
100
AcDbLine
 62
250
  6
CONTINUOUS
 10
-1.270160294
 20
-6.7077969413
 11
-1.5577959235
 21
-6.5639791266
  0
LINE
  5
4B7
100
AcDbEntity
  8
ASSI
100
AcDbLine
 62
250
  6
CONTINUOUS
 10
-1.9202176946
 20
-6.382768241
 11
-2.3911544012
 21
-6.1472998878
  0
LINE
  5
4B8
100
AcDbEntity
  8
ASSI
100
AcDbLine
 62
250
  6
CONTINUOUS
 10
-2.6408523532
 20
-6.0224509117
 11
-3.5067402774
 21
-5.5895069496
  0
LINE
  5
4B9
100
AcDbEntity
  8
ASSI
100
AcDbLine
 62
250
  6
CONTINUOUS
 10
-3.9897773909
 20
-5.3479883929
 11
-4.5824390305
 21
-5.0516575731
  0
LINE
  5
4BA
100
AcDbEntity
  8
ASSI
100
AcDbLine
 62
250
  6
CONTINUOUS
 10
-4.6579370914
 20
-5.0139085426
 11
-4.9941089466
 21
-4.845822615
  0
LINE
  5
4BB
100
AcDbEntity
  8
ASSI
100
AcDbLine
 62
250
  6
CONTINUOUS
 10
-5.3803440426
 20
-4.652705067
 11
-5.7298730067
 21
-4.477940585
  0
LINE
  5
4BC
100
AcDbEntity
  8
ASSI
100
AcDbLine
 62
250
  6
CONTINUOUS
 10
-6.005070022
 20
-4.3403420773
 11
-6.2712334727
 21
-4.207260352
  0
LINE
  5
4BD
100
AcDbEntity
  8
ASSI
100
AcDbLine
 62
250
  6
CONTINUOUS
 10
-6.5399479307
 20
-4.072903123
 11
-13.3560483968
 21
-0.6648528899
  0
LINE
  5
4BE
100
AcDbEntity
  8
ASSI
100
AcDbLine
 62
7
  6
CONTINUOUS
 10
-2.6139625338
 20
-5.9342606947
 11
-2.4318506162
 21
-6.0253166535
  0
LINE
  5
4BF
100
AcDbEntity
  8
ASSI
100
AcDbLine
 62
7
  6
CONTINUOUS
 10
-2.2254742852
 20
-6.0390828989
 11
-2.4379380733
 21
-5.9328510048
  0
LINE
  5
4C0
100
AcDbEntity
  8
ASSI
100
AcDbLine
 62
7
  6
CONTINUOUS
 10
-1.7223132803
 20
-6.21243032
 11
-1.9044251979
 21
-6.1213743612
  0
LINE
  5
4C1
100
AcDbEntity
  8
ASSI
100
AcDbLine
 62
7
  6
CONTINUOUS
 10
-2.2254742852
 20
-5.9524803585
 11
-2.4379380733
 21
-5.8462484645
  0
LINE
  5
4C2
100
AcDbEntity
  8
ASSI
100
AcDbLine
 62
7
  6
CONTINUOUS
 10
-1.7223132803
 20
-6.1258277796
 11
-1.9044251979
 21
-6.0347718208
  0
LINE
  5
4C3
100
AcDbEntity
  8
ASSI
100
AcDbLine
 62
7
  6
CONTINUOUS
 10
-1.8066338462
 20
-5.985876145
 11
-1.6245219286
 21
-6.0769321038
  0
LINE
  5
4C4
100
AcDbEntity
  8
ASSI
100
AcDbLine
 62
7
  6
CONTINUOUS
 10
-3.2979393838
 20
-5.2094762397
 11
-3.449699431
 21
-5.1335962161
  0
LINE
  5
4C5
100
AcDbEntity
  8
ASSI
100
AcDbLine
 62
7
  6
CONTINUOUS
 10
-3.2979393838
 20
-5.1228736993
 11
-3.449699431
 21
-5.0469936757
  0
LINE
  5
4C6
100
AcDbEntity
  8
ASSI
100
AcDbLine
 62
7
  6
CONTINUOUS
 10
-0.995246924
 20
-6.2434728476
 11
-1.8754542943
 21
-5.8033691624
  0
LINE
  5
4C7
100
AcDbEntity
  8
ASSI
100
AcDbLine
 62
7
  6
CONTINUOUS
 10
-2.7556620119
 20
-5.3632653036
 11
-2.8770698412
 21
-5.302561389
  0
LINE
  5
4C8
100
AcDbEntity
  8
ASSI
100
AcDbLine
 62
7
  6
CONTINUOUS
 10
-0.995246924
 20
-6.1568703072
 11
-1.8754542943
 21
-5.7167666221
  0
LINE
  5
4C9
100
AcDbEntity
  8
ASSI
100
AcDbLine
 62
7
  6
CONTINUOUS
 10
-2.7556620119
 20
-5.2766627632
 11
-2.8770698412
 21
-5.2159588486
  0
LINE
  5
4CA
100
AcDbEntity
  8
ASSI
100
AcDbLine
 62
7
  6
CONTINUOUS
 10
-5.7537732598
 20
-3.6798157876
 11
-5.5716613422
 21
-3.7708717464
  0
LINE
  5
4CB
100
AcDbEntity
  8
ASSI
100
AcDbLine
 62
7
  6
CONTINUOUS
 10
-2.748926619
 20
-5.182239108
 11
-2.6275187897
 21
-5.2429430226
  0
LINE
  5
4CC
100
AcDbEntity
  8
ASSI
100
AcDbLine
 62
7
  6
CONTINUOUS
 10
-1.9294229897
 20
-5.5919909226
 11
-0.8974555723
 21
-6.1079746314
  0
LINE
  5
4CD
100
AcDbEntity
  8
ASSI
100
AcDbLine
 62
7
  6
CONTINUOUS
 10
4.3936853465
 20
-8.6434172816
 11
-9.041343496
 21
-1.9259028603
  0
LINE
  5
4CE
100
AcDbEntity
  8
RACCORDO
100
AcDbLine
 62
250
  6
CONTINUOUS
 10
-8.9092691924
 20
-1.8598657085
 11
4.5257596502
 21
-8.5773801297
  0
LINE
  5
4CF
100
AcDbEntity
  8
ASSI
100
AcDbLine
 62
7
  6
CONTINUOUS
 10
11.203762885
 20
-9.7285685599
 11
10.3240352559
 21
-9.2877324284
  0
LWPOLYLINE
  5
4D0
100
AcDbEntity
  8
ASSI
100
AcDbPolyline
 62
7
  6
CONTINUOUS
 90
8
 70
0
 10
-9.041343496
 20
-1.9259028603
 10
-9.2370048493
 20
-1.8186727093
 10
-9.411112846
 20
-1.7052222131
 10
-9.5636674863
 20
-1.5855513717
 10
-9.695496748
 20
-1.4586614898
 10
-9.8057726531
 20
-1.3255512627
 10
-9.8920112685
 20
-1.1892167761
 10
-9.9536680537
 20
-1.0495810528
  0
LINE
  5
4D1
100
AcDbEntity
  8
RACCORDO
100
AcDbLine
 62
250
  6
CONTINUOUS
 10
-9.1293154371
 20
-1.7367287252
 11
-8.9092691924
 21
-1.8598657085
  0
LWPOLYLINE
  5
4D2
100
AcDbEntity
  8
ASSI
100
AcDbPolyline
 62
7
  6
CONTINUOUS
 90
14
 70
0
 10
-8.2825201293
 20
-1.3653340422
 10
-8.1137740635
 20
-1.462118144
 10
-7.9202058598
 20
-1.5464911769
 10
-7.7030143305
 20
-1.619052547
 10
-7.4730379496
 20
-1.676181236
 10
-7.2296279244
 20
-1.7170940818
 10
-6.9734330475
 20
-1.7425742466
 10
-6.7172381707
 20
-1.7513501976
 10
-6.4610432938
 20
-1.7425742466
 10
-6.2048484169
 20
-1.7170940818
 10
-5.9614383918
 20
-1.676181236
 10
-5.7350748354
 20
-1.6202595531
 10
-5.5214961308
 20
-1.5489051892
 10
-5.3207022778
 20
-1.462118144
  0
LWPOLYLINE
  5
4D3
100
AcDbEntity
  8
0
100
AcDbPolyline
 62
7
  6
CONTINUOUS
 90
7
 70
0
 10
5.321254779
 20
-8.1796325653
 10
5.1525087133
 20
-8.0828484635
 10
5.0073859731
 20
-7.9742526988
 10
4.8931285952
 20
-7.8592645083
 10
4.8113029034
 20
-7.7375594958
 10
4.7603425739
 20
-7.6094620573
 10
4.7427906719
 20
-7.4813646189
  0
LINE
  5
4D4
100
AcDbEntity
  8
ASSI
100
AcDbLine
 62
7
  6
CONTINUOUS
 10
-4.7825096702
 20
-4.1654475824
 11
-4.6199560229
 21
-4.2662826764
  0
LINE
  5
4D5
100
AcDbEntity
  8
ASSI
100
AcDbLine
 62
7
  6
CONTINUOUS
 10
-2.6275187897
 20
-5.2429430226
 11
-2.4649651424
 21
-5.3437781166
  0
LINE
  5
4D6
100
AcDbEntity
  8
ASSI
100
AcDbLine
 62
7
  6
CONTINUOUS
 10
-0.0476000725
 20
-6.5329023813
 11
0.1149535748
 21
-6.6337374752
  0
LINE
  5
4D7
100
AcDbEntity
  8
ASSI
100
AcDbLine
 62
7
  6
CONTINUOUS
 10
-5.7361588103
 20
-4.4905121921
 11
-5.6039571204
 21
-4.5761713075
  0
LINE
  5
4D8
100
AcDbEntity
  8
ASSI
100
AcDbLine
 62
7
  6
CONTINUOUS
 10
-1.0012489521
 20
-6.8579671213
 11
-0.8690475226
 21
-6.9436261063
  0
LINE
  5
4D9
100
AcDbEntity
  8
ASSI
100
AcDbLine
 62
7
  6
CONTINUOUS
 10
-4.7480994188
 20
-4.3866048705
 11
-4.8803010219
 21
-4.3009457986
  0
LINE
  5
4DA
100
AcDbEntity
  8
ASSI
100
AcDbLine
 62
7
  6
CONTINUOUS
 10
-4.7480994188
 20
-4.3000023301
 11
-4.8803010219
 21
-4.2143432582
  0
LINE
  5
4DB
100
AcDbEntity
  8
ASSI
100
AcDbLine
 62
7
  6
CONTINUOUS
 10
-2.6234602351
 20
-5.4489244624
 11
-2.7556620119
 21
-5.3632653036
  0
LINE
  5
4DC
100
AcDbEntity
  8
ASSI
100
AcDbLine
 62
7
  6
CONTINUOUS
 10
-1.6245219286
 20
-6.0769321038
 11
-1.4923201518
 21
-6.1625912625
  0
LINE
  5
4DD
100
AcDbEntity
  8
ASSI
100
AcDbLine
 62
7
  6
CONTINUOUS
 10
-2.6234602351
 20
-5.362321922
 11
-2.7556620119
 21
-5.2766627632
  0
LINE
  5
4DE
100
AcDbEntity
  8
ASSI
100
AcDbLine
 62
7
  6
CONTINUOUS
 10
-0.0131893
 20
-6.7540599299
 11
-0.1453914242
 21
-6.6684005975
  0
LINE
  5
4DF
100
AcDbEntity
  8
ASSI
100
AcDbLine
 62
7
  6
CONTINUOUS
 10
-0.0131893
 20
-6.6674573895
 11
-0.1453914242
 21
-6.5817980571
  0
LINE
  5
4E0
100
AcDbEntity
  8
RACCORDO
100
AcDbLine
 62
250
  6
CONTINUOUS
 10
-9.3193248361
 20
-1.6059429586
 11
-9.1293154371
 21
-1.7367287252
  0
LWPOLYLINE
  5
4E1
100
AcDbEntity
  8
ASSI
100
AcDbPolyline
 62
250
  6
CONTINUOUS
 90
16
 70
0
 10
7.3669836782
 20
-11.4978347132
 10
7.3995747595
 20
-11.52031761
 10
7.4319955825
 20
-11.5473227536
 10
7.4638878499
 20
-11.5786136219
 10
7.4949137497
 20
-11.6139274826
 10
7.5246908421
 20
-11.6529002862
 10
7.55280774
 20
-11.6950449496
 10
7.5789755227
 20
-11.7399661649
 10
7.6028425553
 20
-11.7871208603
 10
7.6239879645
 20
-11.8356912643
 10
7.6421786643
 20
-11.8850459509
 10
7.6572851539
 20
-11.9346938974
 10
7.6691593386
 20
-11.9839944286
 10
7.6777243254
 20
-12.032386471
 10
7.6829547733
 20
-12.079395212
 10
7.6848543859
 20
-12.124545282
  0
LINE
  5
4E2
100
AcDbEntity
  8
ASSI
100
AcDbLine
 62
7
  6
CONTINUOUS
 10
-2.3974402048
 20
-6.1598714949
 11
-2.2955906458
 21
-6.2303545448
  0
LINE
  5
4E3
100
AcDbEntity
  8
ASSI
100
AcDbLine
 62
7
  6
CONTINUOUS
 10
-1.6204637213
 20
-6.2829133698
 11
-1.7223132803
 21
-6.21243032
  0
LINE
  5
4E4
100
AcDbEntity
  8
ASSI
100
AcDbLine
 62
7
  6
CONTINUOUS
 10
-1.6204637213
 20
-6.1963108294
 11
-1.7223132803
 21
-6.1258277796
  0
LWPOLYLINE
  5
4E5
100
AcDbEntity
  8
ASSI
100
AcDbPolyline
 62
250
  6
CONTINUOUS
 90
5
 70
0
 10
15.4739939314
 20
-20.5122949244
 10
15.4533671469
 20
-20.4939030873
 10
15.419670265
 20
-20.4701615058
 10
15.3828293553
 20
-20.451021617
 10
15.3436109808
 20
-20.4367130268
  0
LWPOLYLINE
  5
4E6
100
AcDbEntity
  8
ASSI
100
AcDbPolyline
 62
7
  6
CONTINUOUS
 90
3
 70
0
 10
15.4739865636
 20
-20.512307135
 10
15.4150912483
 20
-20.4550776927
 10
15.3436109808
 20
-20.3876132581
  0
LINE
  5
4E7
100
AcDbEntity
  8
ASSI
100
AcDbLine
 62
7
  6
CONTINUOUS
 10
-2.4649651424
 20
-5.3437781166
 11
-2.3826735065
 21
-5.4240404753
  0
LINE
  5
4E8
100
AcDbEntity
  8
ASSI
100
AcDbLine
 62
7
  6
CONTINUOUS
 10
0.577702515
 20
-7.4602295693
 11
0.413119243
 21
-7.299704852
  0
LINE
  5
4E9
100
AcDbEntity
  8
ASSI
100
AcDbLine
 62
7
  6
CONTINUOUS
 10
0.577702515
 20
-7.373627029
 11
0.413119243
 21
-7.2131023116
  0
LINE
  5
4EA
100
AcDbEntity
  8
ASSI
100
AcDbLine
 62
7
  6
CONTINUOUS
 10
0.4522357837
 20
-7.1935440413
 11
0.6168190557
 21
-7.3540687586
  0
LINE
  5
4EB
100
AcDbEntity
  8
ASSI
100
AcDbLine
 62
7
  6
CONTINUOUS
 10
-4.6199560229
 20
-4.2662826764
 11
-4.5268708737
 21
-4.371500062
  0
LINE
  5
4EC
100
AcDbEntity
  8
ASSI
100
AcDbLine
 62
7
  6
CONTINUOUS
 10
-2.5812174986
 20
-6.1307062423
 11
-2.6186686699
 21
-6.0883738099
  0
LINE
  5
4ED
100
AcDbEntity
  8
ASSI
100
AcDbLine
 62
7
  6
CONTINUOUS
 10
-1.1850261062
 20
-6.8288019386
 11
-1.2224774172
 21
-6.7864694362
  0
LINE
  5
4EE
100
AcDbEntity
  8
ASSI
100
AcDbLine
 62
7
  6
CONTINUOUS
 10
-1.4923201518
 20
-6.1625912625
 11
-1.399235263
 21
-6.2678085179
  0
LINE
  5
4EF
100
AcDbEntity
  8
ASSI
100
AcDbLine
 62
7
  6
CONTINUOUS
 10
0.1149535748
 20
-6.6337374752
 11
0.2080391583
 21
-6.738955078
  0
LINE
  5
4F0
100
AcDbEntity
  8
ASSI
100
AcDbLine
 62
7
  6
CONTINUOUS
 10
-5.7880982285
 20
-4.4254259424
 11
-5.7361588103
 21
-4.4905121921
  0
LINE
  5
4F1
100
AcDbEntity
  8
ASSI
100
AcDbLine
 62
7
  6
CONTINUOUS
 10
-4.6579370914
 20
-5.0139085426
 11
-4.6778975423
 21
-4.9888957308
  0
LINE
  5
4F2
100
AcDbEntity
  8
ASSI
100
AcDbLine
 62
7
  6
CONTINUOUS
 10
-4.6259581242
 20
-4.9673794402
 11
-4.6778975423
 21
-4.9022931904
  0
LINE
  5
4F3
100
AcDbEntity
  8
ASSI
100
AcDbLine
 62
7
  6
CONTINUOUS
 10
-4.6961600007
 20
-4.4516911203
 11
-4.7480994188
 21
-4.3866048705
  0
LINE
  5
4F4
100
AcDbEntity
  8
ASSI
100
AcDbLine
 62
7
  6
CONTINUOUS
 10
-4.6961600007
 20
-4.3650885799
 11
-4.7480994188
 21
-4.3000023301
  0
LINE
  5
4F5
100
AcDbEntity
  8
ASSI
100
AcDbLine
 62
7
  6
CONTINUOUS
 10
-3.7943649959
 20
-4.855102623
 11
-3.7424256326
 21
-4.9201889001
  0
LINE
  5
4F6
100
AcDbEntity
  8
ASSI
100
AcDbLine
 62
7
  6
CONTINUOUS
 10
-2.4493796229
 20
-6.0947852452
 11
-2.3974402048
 21
-6.1598714949
  0
LINE
  5
4F7
100
AcDbEntity
  8
ASSI
100
AcDbLine
 62
7
  6
CONTINUOUS
 10
-2.5895359124
 20
-5.4914356614
 11
-2.6234602351
 21
-5.4489244624
  0
LINE
  5
4F8
100
AcDbEntity
  8
ASSI
100
AcDbLine
 62
7
  6
CONTINUOUS
 10
-2.571520817
 20
-5.4274081717
 11
-2.6234602351
 21
-5.362321922
  0
LINE
  5
4F9
100
AcDbEntity
  8
ASSI
100
AcDbLine
 62
7
  6
CONTINUOUS
 10
-1.5808559145
 20
-6.3325466483
 11
-1.6204637213
 21
-6.2829133698
  0
LINE
  5
4FA
100
AcDbEntity
  8
ASSI
100
AcDbLine
 62
7
  6
CONTINUOUS
 10
-1.5685243032
 20
-6.2613970792
 11
-1.6204637213
 21
-6.1963108294
  0
LINE
  5
4FB
100
AcDbEntity
  8
ASSI
100
AcDbLine
 62
7
  6
CONTINUOUS
 10
-1.0531883702
 20
-6.7928808715
 11
-1.0012489521
 21
-6.8579671213
  0
LINE
  5
4FC
100
AcDbEntity
  8
ASSI
100
AcDbLine
 62
7
  6
CONTINUOUS
 10
0.0387501181
 20
-6.8191461796
 11
-0.0131893
 21
-6.7540599299
  0
LINE
  5
4FD
100
AcDbEntity
  8
ASSI
100
AcDbLine
 62
7
  6
CONTINUOUS
 10
0.0387501181
 20
-6.7325436393
 11
-0.0131893
 21
-6.6674573895
  0
LWPOLYLINE
  5
4FE
100
AcDbEntity
  8
ASSI
100
AcDbPolyline
 62
250
  6
CONTINUOUS
 90
10
 70
0
 10
7.1214659002
 20
-25.2040294271
 10
7.1395640194
 20
-25.2434542969
 10
7.1558742099
 20
-25.2838764107
 10
7.1702655242
 20
-25.324991484
 10
7.1826354758
 20
-25.3665321476
 10
7.192862618
 20
-25.4081376321
 10
7.2008312803
 20
-25.4493577281
 10
7.2064870681
 20
-25.4898375236
 10
7.2098131535
 20
-25.5293181419
 10
7.2107984897
 20
-25.5675073879
  0
LINE
  5
4FF
100
AcDbEntity
  8
ASSI
100
AcDbLine
 62
7
  6
CONTINUOUS
 10
-5.9573872755
 20
-4.4190145071
 11
-5.9897684164
 21
-4.3441491188
  0
LINE
  5
500
100
AcDbEntity
  8
ASSI
100
AcDbLine
 62
7
  6
CONTINUOUS
 10
-4.5268708737
 20
-4.371500062
 11
-4.4944897259
 21
-4.4463654469
  0
LINE
  5
501
100
AcDbEntity
  8
ASSI
100
AcDbLine
 62
7
  6
CONTINUOUS
 10
-2.3826735065
 20
-5.4240404753
 11
-2.3394987585
 21
-5.5238609306
  0
LINE
  5
502
100
AcDbEntity
  8
ASSI
100
AcDbLine
 62
7
  6
CONTINUOUS
 10
-1.2224774172
 20
-6.7864694362
 11
-1.2548585582
 21
-6.7116040479
  0
LINE
  5
503
100
AcDbEntity
  8
ASSI
100
AcDbLine
 62
7
  6
CONTINUOUS
 10
1.5878735728
 20
-18.1131046203
 11
1.2920785277
 21
-17.304834138
  0
LINE
  5
504
100
AcDbEntity
  8
ASSI
100
AcDbLine
 62
7
  6
CONTINUOUS
 10
1.0493277171
 20
-16.7090259258
 11
1.5666421731
 21
-18.1237203202
  0
LINE
  5
505
100
AcDbEntity
  8
ASSI
100
AcDbLine
 62
7
  6
CONTINUOUS
 10
1.2920785277
 20
-17.304834138
 11
1.0705547459
 21
-16.6984073057
  0
LINE
  5
506
100
AcDbEntity
  8
ASSI
100
AcDbLine
 62
7
  6
CONTINUOUS
 10
0.901798033
 20
-16.3046301433
 11
1.0493277171
 21
-16.7090259258
  0
LINE
  5
507
100
AcDbEntity
  8
ASSI
100
AcDbLine
 62
7
  6
CONTINUOUS
 10
1.0705547459
 20
-16.6984073057
 11
0.9328365221
 21
-16.3209152428
  0
LINE
  5
508
100
AcDbEntity
  8
ASSI
100
AcDbLine
 62
7
  6
CONTINUOUS
 10
0.8632195052
 20
-17.798436642
 11
0.5858969675
 21
-17.0369150433
  0
LWPOLYLINE
  5
509
100
AcDbEntity
  8
ASSI
100
AcDbPolyline
 62
7
  6
CONTINUOUS
 90
3
 70
0
 10
0.5858969675
 20
-17.0369150433
 10
0.3090099149
 20
-16.2750912178
 10
0.2398562167
 20
-16.0845880845
  0
LINE
  5
50A
100
AcDbEntity
  8
ASSI
100
AcDbLine
 62
250
  6
CONTINUOUS
 10
3.5048179111
 20
-26.8455863131
 11
3.5119893239
 21
-26.867079245
  0
LWPOLYLINE
  5
50B
100
AcDbEntity
  8
ASSI
100
AcDbPolyline
 62
250
  6
CONTINUOUS
 90
10
 70
0
 10
2.232095953
 20
-30.776471706
 10
2.2174532597
 20
-30.7169391323
 10
2.1979524824
 20
-30.6572283568
 10
2.1737212473
 20
-30.597646876
 10
2.1448719383
 20
-30.5384735747
 10
2.1115460315
 20
-30.48004922
 10
2.0739626596
 20
-30.4227594349
 10
2.0323491099
 20
-30.366912841
 10
1.9868922638
 20
-30.3127580921
 10
1.9377962015
 20
-30.2605720911
  0
LINE
  5
50C
100
AcDbEntity
  8
ASSI
100
AcDbLine
 62
7
  6
CONTINUOUS
 10
-1.3081844221
 20
-16.7553662387
 11
-1.6369153055
 21
-15.3712581238
  0
LINE
  5
50D
100
AcDbEntity
  8
ASSI
100
AcDbLine
 62
7
  6
CONTINUOUS
 10
-1.7675650702
 20
-14.9204055535
 11
-1.3294022956
 21
-16.7659751755
  0
LINE
  5
50E
100
AcDbEntity
  8
ASSI
100
AcDbLine
 62
7
  6
CONTINUOUS
 10
-1.6369153055
 20
-15.3712581238
 11
-1.9650006716
 21
-13.9867334127
  0
LINE
  5
50F
100
AcDbEntity
  8
ASSI
100
AcDbLine
 62
7
  6
CONTINUOUS
 10
-1.9432206383
 20
-16.471804517
 11
-2.1365107871
 21
-15.654853607
  0
LWPOLYLINE
  5
510
100
AcDbEntity
  8
ASSI
100
AcDbPolyline
 62
7
  6
CONTINUOUS
 90
3
 70
0
 10
-2.3136554947
 20
-12.6124002511
 10
-2.2045808161
 20
-13.0740939683
 10
-1.7675650702
 20
-14.9204055535
  0
LINE
  5
511
100
AcDbEntity
  8
ASSI
100
AcDbLine
 62
7
  6
CONTINUOUS
 10
-1.9650006716
 20
-13.9867334127
 11
-2.2924403431
 21
-12.6017926753
  0
LINE
  5
512
100
AcDbEntity
  8
ASSI
100
AcDbLine
 62
7
  6
CONTINUOUS
 10
-2.3230600892
 20
-14.8654387662
 11
-2.6190050267
 21
-13.61089662
  0
LINE
  5
513
100
AcDbEntity
  8
ASSI
100
AcDbLine
 62
7
  6
CONTINUOUS
 10
-2.6186686699
 20
-6.0883738099
 11
-2.6314915405
 21
-6.0037292864
  0
LINE
  5
514
100
AcDbEntity
  8
ASSI
100
AcDbLine
 62
7
  6
CONTINUOUS
 10
-4.7597900727
 20
2.3953361541
 11
-4.7422381707
 21
2.2672387156
  0
LINE
  5
515
100
AcDbEntity
  8
ASSI
100
AcDbLine
 62
7
  6
CONTINUOUS
 10
-2.569491887
 20
-5.4870974477
 11
-2.571520817
 21
-5.4274081717
  0
LINE
  5
516
100
AcDbEntity
  8
ASSI
100
AcDbLine
 62
7
  6
CONTINUOUS
 10
-1.5664950259
 20
-6.3210865289
 11
-1.5685243032
 21
-6.2613970792
  0
LINE
  5
517
100
AcDbEntity
  8
ASSI
100
AcDbLine
 62
7
  6
CONTINUOUS
 10
-1.0572465638
 20
-6.673502139
 11
-1.0531883702
 21
-6.7928808715
  0
LINE
  5
518
100
AcDbEntity
  8
ASSI
100
AcDbLine
 62
7
  6
CONTINUOUS
 10
0.0428079232
 20
-6.8519222187
 11
0.0387501181
 21
-6.7325436393
  0
LWPOLYLINE
  5
519
100
AcDbEntity
  8
ASSI
100
AcDbPolyline
 62
250
  6
CONTINUOUS
 90
7
 70
0
 10
0.6706831193
 20
-26.4301202119
 10
0.6785032642
 20
-27.28731384
 10
0.6898489507
 20
-28.1409024272
 10
0.7047135767
 20
-28.9914411292
 10
0.7230906725
 20
-29.8390998574
 10
0.7449662798
 20
-30.6836672312
 10
0.7703291412
 20
-31.5251189216
  0
LINE
  5
51A
100
AcDbEntity
  8
ASSI
100
AcDbLine
 62
7
  6
CONTINUOUS
 10
-3.2979393838
 20
-5.1228736993
 11
-3.2979393838
 21
-5.2094762397
  0
LINE
  5
51B
100
AcDbEntity
  8
ASSI
100
AcDbLine
 62
7
  6
CONTINUOUS
 10
-3.1785606582
 20
-5.1238882511
 11
-3.1785606582
 21
-5.2104907915
  0
LINE
  5
51C
100
AcDbEntity
  8
ASSI
100
AcDbLine
 62
7
  6
CONTINUOUS
 10
-3.0483881587
 20
-5.1498579602
 11
-3.0483881587
 21
-5.2364605006
  0
LINE
  5
51D
100
AcDbEntity
  8
ASSI
100
AcDbLine
 62
7
  6
CONTINUOUS
 10
-2.9936864458
 20
-5.8813066447
 11
-2.9936864458
 21
-5.9244717688
  0
LINE
  5
51E
100
AcDbEntity
  8
ASSI
100
AcDbLine
 62
7
  6
CONTINUOUS
 10
-2.8770698412
 20
-5.2159588486
 11
-2.8770698412
 21
-5.302561389
  0
LINE
  5
51F
100
AcDbEntity
  8
ASSI
100
AcDbLine
 62
7
  6
CONTINUOUS
 10
-2.7556620119
 20
-5.2766627632
 11
-2.7556620119
 21
-5.3632653036
  0
LINE
  5
520
100
AcDbEntity
  8
ASSI
100
AcDbLine
 62
7
  6
CONTINUOUS
 10
-2.6544604161
 20
-5.6206376711
 11
-2.6544604161
 21
-5.7072402114
  0
LINE
  5
521
100
AcDbEntity
  8
ASSI
100
AcDbLine
 62
7
  6
CONTINUOUS
 10
-2.6234602351
 20
-5.362321922
 11
-2.6234602351
 21
-5.4489244624
  0
LINE
  5
522
100
AcDbEntity
  8
ASSI
100
AcDbLine
 62
7
  6
CONTINUOUS
 10
-2.6186686699
 20
-6.0883738099
 11
-2.6186686699
 21
-6.1119806567
  0
LINE
  5
523
100
AcDbEntity
  8
ASSI
100
AcDbLine
 62
7
  6
CONTINUOUS
 10
-2.5350815167
 20
-5.6216523097
 11
-2.5350815167
 21
-5.7082548501
  0
LINE
  5
524
100
AcDbEntity
  8
ASSI
100
AcDbLine
 62
7
  6
CONTINUOUS
 10
-2.4379380733
 20
-5.8462484645
 11
-2.4379380733
 21
-5.9328510048
  0
LINE
  5
525
100
AcDbEntity
  8
ASSI
100
AcDbLine
 62
7
  6
CONTINUOUS
 10
-2.4264965649
 20
-5.5977117043
 11
-2.4264965649
 21
-5.6843142447
  0
LINE
  5
526
100
AcDbEntity
  8
ASSI
100
AcDbLine
 62
7
  6
CONTINUOUS
 10
-2.3873799694
 20
-5.5781534065
 11
-2.3873799694
 21
-5.6647559469
  0
LINE
  5
527
100
AcDbEntity
  8
ASSI
100
AcDbLine
 62
7
  6
CONTINUOUS
 10
-2.3394987585
 20
-5.5238609306
 11
-2.3394987585
 21
-5.610463471
  0
LINE
  5
528
100
AcDbEntity
  8
ASSI
100
AcDbLine
 62
7
  6
CONTINUOUS
 10
-2.2254742852
 20
-5.9524803585
 11
-2.2254742852
 21
-6.0390828989
  0
LINE
  5
529
100
AcDbEntity
  8
ASSI
100
AcDbLine
 62
7
  6
CONTINUOUS
 10
-2.0453912976
 20
-5.9838470413
 11
-2.0453912976
 21
-6.0704495817
  0
LINE
  5
52A
100
AcDbEntity
  8
ASSI
100
AcDbLine
 62
7
  6
CONTINUOUS
 10
-1.9044251979
 20
-6.0347718208
 11
-1.9044251979
 21
-6.1213743612
  0
LINE
  5
52B
100
AcDbEntity
  8
ASSI
100
AcDbLine
 62
7
  6
CONTINUOUS
 10
-1.8754542943
 20
-5.7167666221
 11
-1.8754542943
 21
-5.8033691624
  0
LINE
  5
52C
100
AcDbEntity
  8
ASSI
100
AcDbLine
 62
7
  6
CONTINUOUS
 10
-1.8295172584
 20
-6.4829495156
 11
-1.8295172584
 21
-6.5065563624
  0
LINE
  5
52D
100
AcDbEntity
  8
ASSI
100
AcDbLine
 62
7
  6
CONTINUOUS
 10
-1.7223132803
 20
-6.1258277796
 11
-1.7223132803
 21
-6.21243032
  0
LINE
  5
52E
100
AcDbEntity
  8
ASSI
100
AcDbLine
 62
7
  6
CONTINUOUS
 10
-1.6602282114
 20
-6.4893609509
 11
-1.6602282114
 21
-6.5689889844
  0
LINE
  5
52F
100
AcDbEntity
  8
ASSI
100
AcDbLine
 62
7
  6
CONTINUOUS
 10
-1.6204637213
 20
-6.1963108294
 11
-1.6204637213
 21
-6.2829133698
  0
LINE
  5
530
100
AcDbEntity
  8
ASSI
100
AcDbLine
 62
7
  6
CONTINUOUS
 10
-1.5017327577
 20
-6.4708173124
 11
-1.5017327577
 21
-6.5574198528
  0
LINE
  5
531
100
AcDbEntity
  8
ASSI
100
AcDbLine
 62
7
  6
CONTINUOUS
 10
-1.4234996763
 20
-6.4317007717
 11
-1.4234996763
 21
-6.5183033121
  0
LINE
  5
532
100
AcDbEntity
  8
ASSI
100
AcDbLine
 62
7
  6
CONTINUOUS
 10
-1.3864123856
 20
-6.352453038
 11
-1.3864123856
 21
-6.4390555784
  0
LINE
  5
533
100
AcDbEntity
  8
ASSI
100
AcDbLine
 62
7
  6
CONTINUOUS
 10
-1.2548585582
 20
-6.7116040479
 11
-1.2548585582
 21
-6.7861766375
  0
LINE
  5
534
100
AcDbEntity
  8
ASSI
100
AcDbLine
 62
7
  6
CONTINUOUS
 10
-1.2224774172
 20
-6.7864694362
 11
-1.2224774172
 21
-6.810076283
  0
LINE
  5
535
100
AcDbEntity
  8
ASSI
100
AcDbLine
 62
7
  6
CONTINUOUS
 10
-0.995246924
 20
-6.1568703072
 11
-0.995246924
 21
-6.2434728476
  0
LINE
  5
536
100
AcDbEntity
  8
ASSI
100
AcDbLine
 62
7
  6
CONTINUOUS
 10
-0.9702491322
 20
-6.5996512054
 11
-0.9702491322
 21
-6.6862537457
  0
LINE
  5
537
100
AcDbEntity
  8
ASSI
100
AcDbLine
 62
7
  6
CONTINUOUS
 10
-0.9189072936
 20
-16.9614251134
 11
-0.9189072936
 21
-13.2806508705
  0
LINE
  5
538
100
AcDbEntity
  8
ASSI
100
AcDbLine
 62
7
  6
CONTINUOUS
 10
-0.8974555723
 20
-6.1079746314
 11
-0.8974555723
 21
-6.1945771717
  0
LINE
  5
539
100
AcDbEntity
  8
ASSI
100
AcDbLine
 62
7
  6
CONTINUOUS
 10
-0.8333412398
 20
-6.5311972592
 11
-0.8333412398
 21
-6.6177997996
  0
LINE
  5
53A
100
AcDbEntity
  8
ASSI
100
AcDbLine
 62
7
  6
CONTINUOUS
 10
-0.6856393999
 20
-6.4876985571
 11
-0.6856393999
 21
-6.5743010975
  0
LINE
  5
53B
100
AcDbEntity
  8
ASSI
100
AcDbLine
 62
7
  6
CONTINUOUS
 10
-0.5547334877
 20
-7.120341401
 11
-0.5547334877
 21
-7.1439482478
  0
LINE
  5
53C
100
AcDbEntity
  8
ASSI
100
AcDbLine
 62
7
  6
CONTINUOUS
 10
-0.4468818938
 20
-6.4897276333
 11
-0.4468818938
 21
-6.5763301737
  0
LINE
  5
53D
100
AcDbEntity
  8
ASSI
100
AcDbLine
 62
7
  6
CONTINUOUS
 10
-0.405002711
 20
-7.1365319715
 11
-0.405002711
 21
-7.2111045611
  0
LINE
  5
53E
100
AcDbEntity
  8
ASSI
100
AcDbLine
 62
7
  6
CONTINUOUS
 10
-0.3167093943
 20
-6.5156973424
 11
-0.3167093943
 21
-6.6022998828
  0
LINE
  5
53F
100
AcDbEntity
  8
ASSI
100
AcDbLine
 62
7
  6
CONTINUOUS
 10
-0.3097477398
 20
-15.1454897263
 11
-0.3097550197
 21
-14.2497917271
  0
LINE
  5
540
100
AcDbEntity
  8
ASSI
100
AcDbLine
 62
7
  6
CONTINUOUS
 10
-0.2885329779
 20
-14.2597857701
 11
-0.2885258654
 21
-15.1348787891
  0
LINE
  5
541
100
AcDbEntity
  8
ASSI
100
AcDbLine
 62
7
  6
CONTINUOUS
 10
-0.266065875
 20
-7.1277672944
 11
-0.266065875
 21
-7.2143343578
  0
LINE
  5
542
100
AcDbEntity
  8
ASSI
100
AcDbLine
 62
7
  6
CONTINUOUS
 10
-0.1770388461
 20
-7.1136059978
 11
-0.1770388461
 21
-7.2002085382
  0
LINE
  5
543
100
AcDbEntity
  8
ASSI
100
AcDbLine
 62
7
  6
CONTINUOUS
 10
-0.1453914242
 20
-6.5817980571
 11
-0.1453914242
 21
-6.6684005975
  0
LINE
  5
544
100
AcDbEntity
  8
ASSI
100
AcDbLine
 62
7
  6
CONTINUOUS
 10
-0.0488959439
 20
-7.0798860698
 11
-0.0488959439
 21
-7.1664886102
  0
LINE
  5
545
100
AcDbEntity
  8
ASSI
100
AcDbLine
 62
7
  6
CONTINUOUS
 10
-0.0131893
 20
-6.6674573895
 11
-0.0131893
 21
-6.7540599299
  0
LINE
  5
546
100
AcDbEntity
  8
ASSI
100
AcDbLine
 62
7
  6
CONTINUOUS
 10
0.1271284891
 20
-6.9918738533
 11
0.1271284891
 21
-7.0784763937
  0
LINE
  5
547
100
AcDbEntity
  8
ASSI
100
AcDbLine
 62
7
  6
CONTINUOUS
 10
0.1945683177
 20
-6.9278024159
 11
0.1945683177
 21
-7.0144049563
  0
LINE
  5
548
100
AcDbEntity
  8
ASSI
100
AcDbLine
 62
7
  6
CONTINUOUS
 10
0.2228909657
 20
-6.8832888741
 11
0.2228909657
 21
-6.9698914145
  0
LINE
  5
549
100
AcDbEntity
  8
ASSI
100
AcDbLine
 62
7
  6
CONTINUOUS
 10
0.2404203061
 20
-6.8138204629
 11
0.2404203061
 21
-6.9004230033
  0
LINE
  5
54A
100
AcDbEntity
  8
ASSI
100
AcDbLine
 62
7
  6
CONTINUOUS
 10
0.2829467435
 20
-7.1871326026
 11
0.2829467435
 21
-7.2737351429
  0
LINE
  5
54B
100
AcDbEntity
  8
ASSI
100
AcDbLine
 62
7
  6
CONTINUOUS
 10
0.413119243
 20
-7.2131023116
 11
0.413119243
 21
-7.299704852
  0
LINE
  5
54C
100
AcDbEntity
  8
ASSI
100
AcDbLine
 62
7
  6
CONTINUOUS
 10
-0.3012154847
 20
-17.2536503786
 11
-0.3011463221
 21
-15.8304836706
  0
LINE
  5
54D
100
AcDbEntity
  8
ASSI
100
AcDbLine
 62
7
  6
CONTINUOUS
 10
-0.2799254109
 20
-15.8404788854
 11
-0.2799935724
 21
-17.2430394224
  0
LINE
  5
54E
100
AcDbEntity
  8
ASSI
100
AcDbLine
 62
7
  6
CONTINUOUS
 10
-4.4944897259
 20
-4.4463654469
 11
-4.5120188926
 21
-4.515833945
  0
LINE
  5
54F
100
AcDbEntity
  8
ASSI
100
AcDbLine
 62
7
  6
CONTINUOUS
 10
-4.4944897259
 20
-4.5329679873
 11
-4.5120188926
 21
-4.6024364853
  0
LINE
  5
550
100
AcDbEntity
  8
ASSI
100
AcDbLine
 62
7
  6
CONTINUOUS
 10
-2.6314915405
 20
-6.0037292864
 11
-2.6139625338
 21
-5.9342606947
  0
LINE
  5
551
100
AcDbEntity
  8
ASSI
100
AcDbLine
 62
7
  6
CONTINUOUS
 10
-2.4318506162
 20
-6.0253166535
 11
-2.4493796229
 21
-6.0947852452
  0
LINE
  5
552
100
AcDbEntity
  8
ASSI
100
AcDbLine
 62
7
  6
CONTINUOUS
 10
-1.2548585582
 20
-6.7116040479
 11
-1.2373295515
 21
-6.6421354562
  0
LINE
  5
553
100
AcDbEntity
  8
ASSI
100
AcDbLine
 62
7
  6
CONTINUOUS
 10
-5.7704575937
 20
-13.3012987592
 11
-5.6463364746
 21
-12.8312745505
  0
LINE
  5
554
100
AcDbEntity
  8
ASSI
100
AcDbLine
 62
7
  6
CONTINUOUS
 10
-5.6463364746
 20
-12.8312745505
 11
-5.5221153451
 21
-12.3612002193
  0
LINE
  5
555
100
AcDbEntity
  8
ASSI
100
AcDbLine
 62
7
  6
CONTINUOUS
 10
-5.5221153451
 20
-12.3612002193
 11
-5.3977942076
 21
-11.8910757751
  0
LINE
  5
556
100
AcDbEntity
  8
ASSI
100
AcDbLine
 62
7
  6
CONTINUOUS
 10
-5.4082459718
 20
-14.4978772533
 11
-5.4711962914
 21
-14.7359022762
  0
LINE
  5
557
100
AcDbEntity
  8
ASSI
100
AcDbLine
 62
7
  6
CONTINUOUS
 10
-5.449982867
 20
-14.725295564
 11
-5.3870329199
 21
-14.487271834
  0
LWPOLYLINE
  5
558
100
AcDbEntity
  8
ASSI
100
AcDbPolyline
 62
7
  6
CONTINUOUS
 90
3
 70
0
 10
-5.3977942076
 20
-11.8910757751
 10
-5.2733730722
 20
-11.4209012559
 10
-5.2111250046
 20
-11.1857952158
  0
LINE
  5
559
100
AcDbEntity
  8
ASSI
100
AcDbLine
 62
7
  6
CONTINUOUS
 10
-5.282268542
 20
-14.0217890996
 11
-5.4082459718
 21
-14.4978772533
  0
LINE
  5
55A
100
AcDbEntity
  8
ASSI
100
AcDbLine
 62
7
  6
CONTINUOUS
 10
-5.3870329199
 20
-14.487271834
 11
-5.2610559762
 21
-14.0111853081
  0
LINE
  5
55B
100
AcDbEntity
  8
ASSI
100
AcDbLine
 62
7
  6
CONTINUOUS
 10
-5.156188723
 20
-13.5456501285
 11
-5.282268542
 21
-14.0217890996
  0
LINE
  5
55C
100
AcDbEntity
  8
ASSI
100
AcDbLine
 62
7
  6
CONTINUOUS
 10
-5.2610559762
 20
-14.0111853081
 11
-5.1349762988
 21
-13.5350466893
  0
LINE
  5
55D
100
AcDbEntity
  8
ASSI
100
AcDbLine
 62
7
  6
CONTINUOUS
 10
-5.030006525
 20
-13.0694603796
 11
-5.156188723
 21
-13.5456501285
  0
LINE
  5
55E
100
AcDbEntity
  8
ASSI
100
AcDbLine
 62
7
  6
CONTINUOUS
 10
-5.1349762988
 20
-13.5350466893
 11
-5.0087938953
 21
-13.0588560078
  0
LINE
  5
55F
100
AcDbEntity
  8
ASSI
100
AcDbLine
 62
7
  6
CONTINUOUS
 10
-4.9037219505
 20
-12.5932198625
 11
-5.030006525
 21
-13.0694603796
  0
LINE
  5
560
100
AcDbEntity
  8
ASSI
100
AcDbLine
 62
7
  6
CONTINUOUS
 10
-5.0087938953
 20
-13.0588560078
 11
-4.9037217281
 21
-12.6625968801
  0
LINE
  5
561
100
AcDbEntity
  8
ASSI
100
AcDbLine
 62
7
  6
CONTINUOUS
 10
-5.9722392794
 20
-4.2746805922
 11
-5.9439164692
 21
-4.2301671863
  0
LINE
  5
562
100
AcDbEntity
  8
ASSI
100
AcDbLine
 62
7
  6
CONTINUOUS
 10
-4.5120188926
 20
-4.515833945
 11
-4.5403417142
 21
-4.5603473999
  0
LINE
  5
563
100
AcDbEntity
  8
ASSI
100
AcDbLine
 62
7
  6
CONTINUOUS
 10
-4.5120188926
 20
-4.6024364853
 11
-4.5403417142
 21
-4.6469499403
  0
LWPOLYLINE
  5
564
100
AcDbEntity
  8
ASSI
100
AcDbPolyline
 62
250
  6
CONTINUOUS
 90
10
 70
0
 10
-14.1927282755
 20
-18.0162932207
 10
-14.1914449066
 20
-18.0143515929
 10
-14.189921388
 20
-18.013093727
 10
-14.1883563104
 20
-18.0124953962
 10
-14.1866494483
 20
-18.0126120747
 10
-14.1848807298
 20
-18.01339236
 10
-14.1831689686
 20
-18.0147167824
 10
-14.181546165
 20
-18.016548808
 10
-14.1799691442
 20
-18.0189297846
 10
-14.1784362307
 20
-18.0218607223
  0
LINE
  5
565
100
AcDbEntity
  8
ASSI
100
AcDbLine
 62
7
  6
CONTINUOUS
 10
-5.9439164692
 20
-4.2301671863
 11
-5.8764770908
 21
-4.1660954964
  0
LINE
  5
566
100
AcDbEntity
  8
ASSI
100
AcDbLine
 62
7
  6
CONTINUOUS
 10
-4.5403417142
 20
-4.5603473999
 11
-4.6077811954
 21
-4.624419011
  0
LINE
  5
567
100
AcDbEntity
  8
ASSI
100
AcDbLine
 62
7
  6
CONTINUOUS
 10
-4.5403417142
 20
-4.6469499403
 11
-4.6077811954
 21
-4.7110215514
  0
LWPOLYLINE
  5
568
100
AcDbEntity
  8
ASSI
100
AcDbPolyline
 62
7
  6
CONTINUOUS
 90
9
 70
0
 10
-15.4127075065
 20
-14.0542895166
 10
-15.480756534
 20
-14.1164099978
 10
-15.5405784854
 20
-14.1831406982
 10
-15.5918237908
 20
-14.2539032486
 10
-15.6342555907
 20
-14.3282637822
 10
-15.6675414585
 20
-14.4055771459
 10
-15.691238994
 20
-14.4844532827
 10
-15.7053720459
 20
-14.5637156614
 10
-15.7103709727
 20
-14.6453364581
  0
LINE
  5
569
100
AcDbEntity
  8
ASSI
100
AcDbLine
 62
7
  6
CONTINUOUS
 10
-5.7051589036
 20
-4.2321963197
 11
-5.7921565089
 21
-4.3060471665
  0
LINE
  5
56A
100
AcDbEntity
  8
ASSI
100
AcDbLine
 62
7
  6
CONTINUOUS
 10
-5.7051589036
 20
-4.31879886
 11
-5.7921565089
 21
-4.3926497068
  0
LINE
  5
56B
100
AcDbEntity
  8
ASSI
100
AcDbLine
 62
7
  6
CONTINUOUS
 10
-4.7790993392
 20
-4.5583182095
 11
-4.6921017614
 21
-4.4844673764
  0
LWPOLYLINE
  5
56C
100
AcDbEntity
  8
RACCORDO
100
AcDbPolyline
 62
250
  6
CONTINUOUS
 90
7
 70
0
 10
-8.9092691924
 20
-1.8598657085
 10
-8.9276873629
 20
-1.8710483245
 10
-8.9455459067
 20
-1.885838224
 10
-8.9623022009
 20
-1.9037860233
 10
-8.977447114
 20
-1.9243463876
 10
-8.9905204754
 20
-1.9468946007
 10
-8.9921281807
 20
-1.950510518
  0
LWPOLYLINE
  5
56D
100
AcDbEntity
  8
0
100
AcDbPolyline
 62
7
  6
CONTINUOUS
 90
12
 70
0
 10
8.1320042342
 20
7.1544807768
 10
8.2337341182
 20
7.2093001467
 10
8.3269862314
 20
7.2677673724
 10
8.4112390703
 20
7.3295554815
 10
8.4860214589
 20
7.3943189297
 10
8.5509151836
 20
7.4616955337
 10
8.6055573325
 20
7.5313084961
 10
8.6496423244
 20
7.6027685129
 10
8.6829236183
 20
7.6756759508
 10
8.7052150917
 20
7.7496230819
 10
8.7163920814
 20
7.8241963637
 10
8.7177906719
 20
7.861587558
  0
LWPOLYLINE
  5
56E
100
AcDbEntity
  8
0
100
AcDbPolyline
 62
7
  6
CONTINUOUS
 90
33
 70
0
 10
8.1320042342
 20
7.1544807768
 10
8.0223654944
 20
7.1036158349
 10
7.905431043
 20
7.0569897782
 10
7.7818548249
 20
7.0148633588
 10
7.6523279284
 20
6.9774721645
 10
7.5175747205
 20
6.9450253021
 10
7.3783487958
 20
6.9177042277
 10
7.2354287621
 20
6.8956617317
 10
7.0896138862
 20
6.8790210848
 10
6.9417196241
 20
6.8678753481
 10
6.7925730604
 20
6.8622868532
 10
6.6430082833
 20
6.8622868532
 10
6.4938617197
 20
6.8678753481
 10
6.3459674575
 20
6.8790210848
 10
6.2001525817
 20
6.8956617317
 10
6.057232548
 20
6.9177042277
 10
5.9180066232
 20
6.9450253021
 10
5.7832534153
 20
6.9774721645
 10
5.6537265188
 20
7.0148633588
 10
5.5301503007
 20
7.0569897782
 10
5.4132158493
 20
7.1036158349
 10
5.3035771095
 20
7.1544807768
 10
5.2018472256
 20
7.2093001467
 10
5.1085951123
 20
7.2677673724
 10
5.0243422734
 20
7.3295554815
 10
4.9495598849
 20
7.3943189297
 10
4.8846661601
 20
7.4616955337
 10
4.8300240113
 20
7.5313084961
 10
4.7859390193
 20
7.6027685129
 10
4.7526577254
 20
7.6756759508
 10
4.7303662521
 20
7.7496230819
 10
4.7191892623
 20
7.8241963637
 10
4.7177906719
 20
7.861587558
  0
LWPOLYLINE
  5
56F
100
AcDbEntity
  8
RACCORDO
100
AcDbPolyline
 62
250
  6
CONTINUOUS
 90
5
 70
0
 10
-4.525207149
 20
0.3321653132
 10
-4.5067947678
 20
0.3393992227
 10
-4.4889399458
 20
0.3424689952
 10
-4.4721851635
 20
0.3412802885
 10
-4.4581251086
 20
0.3364255808
  0
LINE
  5
570
100
AcDbEntity
  8
0
100
AcDbLine
 62
7
  6
CONTINUOUS
 10
-13.4143056356
 20
-0.6929390705
 11
-13.4411694294
 21
-0.700730277
  0
LINE
  5
571
100
AcDbEntity
  8
ASSI
100
AcDbLine
 62
7
  6
CONTINUOUS
 10
-4.7838056285
 20
-4.7124312276
 11
-4.9119488781
 21
-4.7461509819
  0
LINE
  5
572
100
AcDbEntity
  8
ASSI
100
AcDbLine
 62
7
  6
CONTINUOUS
 10
-5.7004526578
 20
-4.0780832799
 11
-5.5723093053
 21
-4.0443636044
  0
LINE
  5
573
100
AcDbEntity
  8
ASSI
100
AcDbLine
 62
7
  6
CONTINUOUS
 10
-5.5723093053
 20
-4.0443636044
 11
-5.4832824388
 21
-4.0302021719
  0
LINE
  5
574
100
AcDbEntity
  8
ASSI
100
AcDbLine
 62
7
  6
CONTINUOUS
 10
-4.7422381707
 20
0.5476917419
 11
-4.6075931473
 21
0.4960331417
  0
LWPOLYLINE
  5
575
100
AcDbEntity
  8
ASSI
100
AcDbPolyline
 62
250
  6
CONTINUOUS
 90
12
 70
0
 10
-4.7589795387
 20
2.5219656764
 10
-4.0066272066
 20
2.2022168992
 10
-3.1781590965
 20
1.8345985772
 10
-2.3304957122
 20
1.4457910122
 10
-1.459196899
 20
1.0413746263
 10
-0.5640717252
 20
0.6242608742
 10
0.3546888775
 20
0.1915383012
 10
1.3009522683
 20
-0.2599470346
 10
2.2824572604
 20
-0.7339614725
 10
3.2914650407
 20
-1.2267386733
 10
4.3086265286
 20
-1.7301335603
 10
4.8677906719
 20
-2.0108848843
  0
LWPOLYLINE
  5
576
100
AcDbEntity
  8
ASSI
100
AcDbPolyline
 62
7
  6
CONTINUOUS
 90
9
 70
0
 10
-11.202657055
 20
1.4746424516
 10
-11.2313212427
 20
1.486994941
 10
-11.2590411231
 20
1.4967036162
 10
-11.2858166962
 20
1.5037684771
 10
-11.311619621
 20
1.5081727285
 10
-11.3364782386
 20
1.5099331655
 10
-11.3604775716
 20
1.5091001744
 10
-11.3837696352
 20
1.505654135
 10
-11.4062024142
 20
1.4996146674
  0
LINE
  5
577
100
AcDbEntity
  8
RACCORDO
100
AcDbLine
 62
250
  6
CONTINUOUS
 10
-4.525207149
 20
0.3321653132
 11
-4.7422381707
 21
0.4291225653
  0
LWPOLYLINE
  5
578
100
AcDbEntity
  8
RACCORDO
100
AcDbPolyline
 62
7
  6
CONTINUOUS
 90
3
 70
0
 10
-4.4581251086
 20
0.3364255808
 10
-4.7164634696
 20
0.4524473413
 10
-4.7422381707
 20
0.4617367785
  0
LINE
  5
579
100
AcDbEntity
  8
ASSI
100
AcDbLine
 62
7
  6
CONTINUOUS
 10
-4.6075931473
 20
0.4960331417
 11
-4.3931328453
 21
0.3982024651
  0
LWPOLYLINE
  5
57A
100
AcDbEntity
  8
ASSI
100
AcDbPolyline
 62
250
  6
CONTINUOUS
 90
16
 70
0
 10
14.668258091
 20
-7.8471975068
 10
14.7084850686
 20
-7.8658624554
 10
14.7484149034
 20
-7.8891130932
 10
14.7876055751
 20
-7.9167547592
 10
14.8256408486
 20
-7.9485639332
 10
14.8620506186
 20
-7.9842203979
 10
14.8963307222
 20
-8.0232834585
 10
14.9281177468
 20
-8.0653950528
 10
14.9569924058
 20
-8.110045935
 10
14.9824735468
 20
-8.1564484731
 10
15.0042905196
 20
-8.2039900233
 10
15.0222796945
 20
-8.2521966271
 10
15.036266946
 20
-8.300440625
 10
15.0461650924
 20
-8.3481660875
 10
15.0519493726
 20
-8.3948979123
 10
15.0536313316
 20
-8.4401568092
  0
LWPOLYLINE
  5
57B
100
AcDbEntity
  8
ASSI
100
AcDbPolyline
 62
250
  6
CONTINUOUS
 90
8
 70
0
 10
12.7599844452
 20
-6.0442100216
 10
12.7378951729
 20
-6.0334690384
 10
12.7054552074
 20
-6.0231237449
 10
12.6707500132
 20
-6.0177533764
 10
12.6344335196
 20
-6.0174892953
 10
12.5970190604
 20
-6.0222802306
 10
12.5588230892
 20
-6.0320327024
 10
12.5202634649
 20
-6.04660807
  0
LINE
  5
57C
100
AcDbEntity
  8
RACCORDO
100
AcDbLine
 62
250
  6
CONTINUOUS
 10
8.9098216936
 20
-6.385349108
 11
8.6927906719
 21
-6.2768335972
  0
LINE
  5
57D
100
AcDbEntity
  8
RACCORDO
100
AcDbLine
 62
250
  6
CONTINUOUS
 10
4.764181322
 20
-4.3125289223
 11
-4.525207149
 21
0.3321653132
  0
LINE
  5
57E
100
AcDbEntity
  8
RACCORDO
100
AcDbLine
 62
7
  6
CONTINUOUS
 10
8.9769037329
 20
-6.38108884
 11
8.6927906719
 21
-6.2390323095
  0
LINE
  5
57F
100
AcDbEntity
  8
RACCORDO
100
AcDbLine
 62
7
  6
CONTINUOUS
 10
4.7767245968
 20
-4.2809992719
 11
-4.4581251086
 21
0.3364255808
  0
LINE
  5
580
100
AcDbEntity
  8
ASSI
100
AcDbLine
 62
7
  6
CONTINUOUS
 10
-4.3931328453
 20
0.3982024651
 11
4.8080063974
 21
-4.2023671563
  0
LINE
  5
581
100
AcDbEntity
  8
ASSI
100
AcDbLine
 62
7
  6
CONTINUOUS
 10
8.6927906719
 20
-6.1447592935
 11
9.0418959972
 21
-6.3193119562
  0
LINE
  5
582
100
AcDbEntity
  8
ASSI
100
AcDbLine
 62
250
  6
CONTINUOUS
 10
13.356600898
 20
-7.5803619266
 11
8.6927906719
 21
-5.2484568135
  0
LINE
  5
583
100
AcDbEntity
  8
ASSI
100
AcDbLine
 62
250
  6
CONTINUOUS
 10
4.8677906719
 20
-3.3359568135
 11
-4.7422381707
 21
1.4690576078
  0
LINE
  5
584
100
AcDbEntity
  8
ASSI
100
AcDbLine
 62
250
  6
CONTINUOUS
 10
13.6590501565
 20
-7.4755805563
 11
13.64033951
 21
-7.466225233
  0
LINE
  5
585
100
AcDbEntity
  8
ASSI
100
AcDbLine
 62
7
  6
CONTINUOUS
 10
13.64033951
 20
-7.427270314
 11
13.7007599435
 21
-7.4574805308
  0
LINE
  5
586
100
AcDbEntity
  8
ASSI
100
AcDbLine
 62
7
  6
CONTINUOUS
 10
13.6702676487
 20
-7.4299908837
 11
13.7056573434
 21
-7.447685731
  0
LINE
  5
587
100
AcDbEntity
  8
0
100
AcDbLine
 62
7
  6
CONTINUOUS
 10
13.6531275297
 20
-7.4007111222
 11
13.64033951
 21
-7.3943171123
  0
LINE
  5
588
100
AcDbEntity
  8
0
100
AcDbLine
 62
7
  6
CONTINUOUS
 10
13.64033951
 20
-7.1704169348
 11
8.6927906719
 21
-4.6966425157
  0
LINE
  5
589
100
AcDbEntity
  8
0
100
AcDbLine
 62
7
  6
CONTINUOUS
 10
4.8677906719
 20
-2.7841425157
 11
-4.7422381707
 21
2.0208719055
  0
LINE
  5
58A
100
AcDbEntity
  8
0
100
AcDbLine
 62
7
  6
CONTINUOUS
 10
14.0457266481
 20
-7.2044115629
 11
8.6927906719
 21
-4.5279435748
  0
LINE
  5
58B
100
AcDbEntity
  8
0
100
AcDbLine
 62
7
  6
CONTINUOUS
 10
4.8677906719
 20
-2.6154435748
 11
-4.7422381707
 21
2.1895708465
  0
LINE
  5
58C
100
AcDbEntity
  8
ASSI
100
AcDbLine
 62
250
  6
CONTINUOUS
 10
14.1989111826
 20
-7.1708379782
 11
8.705789865
 21
-4.4242773194
  0
LINE
  5
58D
100
AcDbEntity
  8
ASSI
100
AcDbLine
 62
250
  6
CONTINUOUS
 10
4.8677906719
 20
-2.5052777228
 11
-4.7292389775
 21
2.2932371019
  0
LWPOLYLINE
  5
58E
100
AcDbEntity
  8
ASSI
100
AcDbPolyline
 62
7
  6
CONTINUOUS
 90
8
 70
0
 10
4.8677906719
 20
-1.8886387493
 10
4.1962623945
 20
-1.5520658053
 10
2.5929693693
 20
-0.7647988493
 10
1.0302078239
 20
-0.012472974
 10
-0.4904556643
 20
0.7057508126
 10
-1.9802727422
 20
1.3965091487
 10
-3.4425807631
 20
2.0621045014
 10
-4.8672381707
 20
2.6767706017
  0
LWPOLYLINE
  5
58F
100
AcDbEntity
  8
ASSI
100
AcDbPolyline
 62
7
  6
CONTINUOUS
 90
10
 70
0
 10
9.0418959972
 20
-6.3193119562
 10
9.2375573505
 20
-6.4265421072
 10
9.4116653472
 20
-6.5399926034
 10
9.5642199875
 20
-6.6596634448
 10
9.6960492492
 20
-6.7865533267
 10
9.8063251543
 20
-6.9196635538
 10
9.8925637697
 20
-7.0559980404
 10
9.9542205549
 20
-7.1956337637
 10
9.9918400502
 20
-7.3384937464
 10
10.004529312
 20
-7.48973478
  0
LWPOLYLINE
  5
590
100
AcDbEntity
  8
RACCORDO
100
AcDbPolyline
 62
7
  6
CONTINUOUS
 90
8
 70
0
 10
8.9769037329
 20
-6.38108884
 10
9.2132479402
 20
-6.5128392282
 10
9.4194330335
 20
-6.6561697201
 10
9.5942471968
 20
-6.8096920239
 10
9.7368006346
 20
-6.9722363167
 10
9.8459422629
 20
-7.142190717
 10
9.9205576525
 20
-7.3170569278
 10
9.9602733695
 20
-7.4934313802
  0
LINE
  5
591
100
AcDbEntity
  8
RACCORDO
100
AcDbLine
 62
250
  6
CONTINUOUS
 10
9.1298668537
 20
-6.508487463
 11
8.9098216936
 21
-6.385349108
  0
LWPOLYLINE
  5
592
100
AcDbEntity
  8
ASSI
100
AcDbPolyline
 62
7
  6
CONTINUOUS
 90
3
 70
0
 10
-4.8672381707
 20
2.6074517587
 10
-4.8107504022
 20
2.5234335925
 10
-4.7597900727
 20
2.3953361541
  0
LWPOLYLINE
  5
593
100
AcDbEntity
  8
0
100
AcDbPolyline
 62
7
  6
CONTINUOUS
 90
6
 70
0
 10
6.5692716981
 20
-10.7059508407
 10
6.5869243588
 20
-10.7332478514
 10
6.6073087694
 20
-10.7574938879
 10
6.6302777573
 20
-10.7784836016
 10
6.6556976517
 20
-10.7960568794
 10
6.6702148064
 20
-10.803988784
  0
LINE
  5
594
100
AcDbEntity
  8
ASSI
100
AcDbLine
 62
7
  6
CONTINUOUS
 10
0.2080391583
 20
-6.738955078
 11
0.2404203061
 21
-6.8138204629
  0
LWPOLYLINE
  5
595
100
AcDbEntity
  8
ASSI
100
AcDbPolyline
 62
7
  6
CONTINUOUS
 90
5
 70
0
 10
3.5335877671
 20
-26.8643178754
 10
3.5332870469
 20
-26.8624362245
 10
3.5329088153
 20
-26.8598761579
 10
3.5327390443
 20
-26.8571689364
 10
3.5327795814
 20
-26.8542171438
  0
LINE
  5
596
100
AcDbEntity
  8
ASSI
100
AcDbLine
 62
7
  6
CONTINUOUS
 10
-1.399235263
 20
-6.2678085179
 11
-1.3864123856
 21
-6.352453038
  0
LINE
  5
597
100
AcDbEntity
  8
ASSI
100
AcDbLine
 62
250
  6
CONTINUOUS
 10
0.6664054738
 20
-25.5691455875
 11
0.6706831193
 21
-26.4301202119
  0
LINE
  5
598
100
AcDbEntity
  8
ASSI
100
AcDbLine
 62
7
  6
CONTINUOUS
 10
0.577702515
 20
-7.373627029
 11
0.577702515
 21
-7.4602295693
  0
LWPOLYLINE
  5
599
100
AcDbEntity
  8
ASSI
100
AcDbPolyline
 62
250
  6
CONTINUOUS
 90
3
 70
0
 10
0.6655338418
 20
-23.8382921116
 10
0.6655349716
 20
-24.704690641
 10
0.6664054738
 20
-25.5691455875
  0
LINE
  5
59A
100
AcDbEntity
  8
ASSI
100
AcDbLine
 62
7
  6
CONTINUOUS
 10
0.7685787554
 20
-7.4299486085
 11
0.7685787554
 21
-7.5165511489
  0
LINE
  5
59B
100
AcDbEntity
  8
ASSI
100
AcDbLine
 62
250
  6
CONTINUOUS
 10
3.4177362978
 20
-23.8607285968
 11
3.4177362978
 21
-11.0503113625
  0
LINE
  5
59C
100
AcDbEntity
  8
ASSI
100
AcDbLine
 62
250
  6
CONTINUOUS
 10
3.5518305142
 20
-25.8317101873
 11
3.5508550367
 21
-26.0025007853
  0
LWPOLYLINE
  5
59D
100
AcDbEntity
  8
ASSI
100
AcDbPolyline
 62
250
  6
CONTINUOUS
 90
6
 70
0
 10
3.5508550367
 20
-26.0025007853
 10
3.5498182292
 20
-26.0853721022
 10
3.5474393424
 20
-26.1657262175
 10
3.5444007463
 20
-26.2445159605
 10
3.5417741317
 20
-26.3250888313
 10
3.5400539147
 20
-26.4084892138
  0
LINE
  5
59E
100
AcDbEntity
  8
ASSI
100
AcDbLine
 62
250
  6
CONTINUOUS
 10
3.5400539147
 20
-26.4084892138
 11
3.5332508627
 21
-26.8545511543
  0
LINE
  5
59F
100
AcDbEntity
  8
ASSI
100
AcDbLine
 62
250
  6
CONTINUOUS
 10
3.5660482469
 20
-24.9591482938
 11
3.5593889738
 21
-25.369016222
  0
LWPOLYLINE
  5
5A0
100
AcDbEntity
  8
ASSI
100
AcDbPolyline
 62
250
  6
CONTINUOUS
 90
3
 70
0
 10
3.5593889738
 20
-25.369016222
 10
3.5546425656
 20
-25.6527442251
 10
3.5518305142
 20
-25.8317101873
  0
LWPOLYLINE
  5
5A1
100
AcDbEntity
  8
0
100
AcDbPolyline
 62
7
  6
CONTINUOUS
 90
5
 70
0
 10
4.7177906719
 20
7.861587558
 10
4.7191892623
 20
7.8989787523
 10
4.7303662521
 20
7.9735520341
 10
4.7526577254
 20
8.0474991652
 10
4.7890605197
 20
8.1261626891
  0
LWPOLYLINE
  5
5A2
100
AcDbEntity
  8
ASSI
100
AcDbPolyline
 62
250
  6
CONTINUOUS
 90
16
 70
0
 10
3.4174940943
 20
-11.0502493648
 10
3.4192795066
 20
-11.0041354863
 10
3.4246828297
 20
-10.956464312
 10
3.4336525922
 20
-10.907752483
 10
3.4461274391
 20
-10.8584278081
 10
3.461962665
 20
-10.8091308353
 10
3.4808639906
 20
-10.7607021577
 10
3.5024380106
 20
-10.7139299201
 10
3.5265124901
 20
-10.6689985411
 10
3.5531167459
 20
-10.6258582519
 10
3.5822077007
 20
-10.5847474982
 10
3.6133341813
 20
-10.5464612924
 10
3.6459097114
 20
-10.5117511995
 10
3.6794738034
 20
-10.4810528591
 10
3.7137425399
 20
-10.454572977
 10
3.7483410139
 20
-10.4325692955
  0
LWPOLYLINE
  5
5A3
100
AcDbEntity
  8
ASSI
100
AcDbPolyline
 62
250
  6
CONTINUOUS
 90
16
 70
0
 10
0.5137906604
 20
-23.7747914968
 10
0.515614474
 20
-23.7282507453
 10
0.5209992881
 20
-23.6801896102
 10
0.5298131515
 20
-23.6311070195
 10
0.5419517131
 20
-23.5814008574
 10
0.5572607543
 20
-23.531699114
 10
0.575468938
 20
-23.4828510021
 10
0.5962670774
 20
-23.4355994739
 10
0.6195447919
 20
-23.3901857187
 10
0.6452761559
 20
-23.3466720889
 10
0.6733715623
 20
-23.3052452114
 10
0.7034124453
 20
-23.2666020244
 10
0.7348242227
 20
-23.2314917635
 10
0.7671869796
 20
-23.2003521898
 10
0.8002857984
 20
-23.1734057697
 10
0.833820582
 20
-23.1509765101
  0
LINE
  5
5A4
100
AcDbEntity
  8
ASSI
100
AcDbLine
 62
7
  6
CONTINUOUS
 10
0.2404203061
 20
-6.8138204629
 11
0.2228909657
 21
-6.8832888741
  0
LINE
  5
5A5
100
AcDbEntity
  8
ASSI
100
AcDbLine
 62
7
  6
CONTINUOUS
 10
0.2404203061
 20
-6.9004230033
 11
0.2228909657
 21
-6.9698914145
  0
LINE
  5
5A6
100
AcDbEntity
  8
ASSI
100
AcDbLine
 62
7
  6
CONTINUOUS
 10
0.7773430783
 20
-7.3952142292
 11
0.7685787554
 21
-7.4299486085
  0
LINE
  5
5A7
100
AcDbEntity
  8
ASSI
100
AcDbLine
 62
7
  6
CONTINUOUS
 10
0.2829467435
 20
-7.1871326026
 11
0.2917117611
 21
-7.1523985706
  0
LINE
  5
5A8
100
AcDbEntity
  8
ASSI
100
AcDbLine
 62
7
  6
CONTINUOUS
 10
-3.8982897482
 20
-15.5195034197
 11
-3.5741063809
 21
-14.4520982973
  0
LINE
  5
5A9
100
AcDbEntity
  8
ASSI
100
AcDbLine
 62
7
  6
CONTINUOUS
 10
-3.5741063809
 20
-14.4520982973
 11
-3.2492652972
 21
-13.3843845854
  0
LINE
  5
5AA
100
AcDbEntity
  8
ASSI
100
AcDbLine
 62
7
  6
CONTINUOUS
 10
-3.1000286444
 20
-15.1873365311
 11
-3.29193712
 21
-15.8173818368
  0
LINE
  5
5AB
100
AcDbEntity
  8
ASSI
100
AcDbLine
 62
7
  6
CONTINUOUS
 10
-3.2707235084
 20
-15.8067750309
 11
-3.206779242
 21
-15.5967713551
  0
LINE
  5
5AC
100
AcDbEntity
  8
ASSI
100
AcDbLine
 62
7
  6
CONTINUOUS
 10
-3.206779242
 20
-15.5967713551
 11
-3.08437355
 21
-15.1949709091
  0
LINE
  5
5AD
100
AcDbEntity
  8
ASSI
100
AcDbLine
 62
7
  6
CONTINUOUS
 10
-3.2492652972
 20
-13.3843845854
 11
-2.9237666465
 21
-12.3163627371
  0
LINE
  5
5AE
100
AcDbEntity
  8
ASSI
100
AcDbLine
 62
7
  6
CONTINUOUS
 10
-2.6190050267
 20
-13.61089662
 11
-2.9143893619
 21
-14.57851459
  0
LINE
  5
5AF
100
AcDbEntity
  8
ASSI
100
AcDbLine
 62
7
  6
CONTINUOUS
 10
-2.8931752895
 20
-14.5679075538
 11
-2.6111770794
 21
-13.6441105432
  0
LWPOLYLINE
  5
5B0
100
AcDbEntity
  8
ASSI
100
AcDbPolyline
 62
7
  6
CONTINUOUS
 90
4
 70
0
 10
-7.0944301983
 20
-24.1736388188
 10
-7.0639888684
 20
-24.0941987021
 10
-7.0282992569
 20
-24.0202606226
 10
-7.0009974028
 20
-23.9746572624
  0
LINE
  5
5B1
100
AcDbEntity
  8
ASSI
100
AcDbLine
 62
7
  6
CONTINUOUS
 10
-1.3864123856
 20
-6.352453038
 11
-1.4234996763
 21
-6.4317007717
  0
LINE
  5
5B2
100
AcDbEntity
  8
ASSI
100
AcDbLine
 62
7
  6
CONTINUOUS
 10
-1.3864123856
 20
-6.4390555784
 11
-1.4234996763
 21
-6.5183033121
  0
LINE
  5
5B3
100
AcDbEntity
  8
ASSI
100
AcDbLine
 62
7
  6
CONTINUOUS
 10
-1.5948179938
 20
-6.3655998833
 11
-1.5664950259
 21
-6.3210865289
  0
LINE
  5
5B4
100
AcDbEntity
  8
ASSI
100
AcDbLine
 62
7
  6
CONTINUOUS
 10
-1.2373295515
 20
-6.6421354562
 11
-1.2090066109
 21
-6.5976221154
  0
LINE
  5
5B5
100
AcDbEntity
  8
ASSI
100
AcDbLine
 62
7
  6
CONTINUOUS
 10
0.2228909657
 20
-6.8832888741
 11
0.1945683177
 21
-6.9278024159
  0
LINE
  5
5B6
100
AcDbEntity
  8
ASSI
100
AcDbLine
 62
7
  6
CONTINUOUS
 10
0.2228909657
 20
-6.9698914145
 11
0.1945683177
 21
-7.0144049563
  0
LINE
  5
5B7
100
AcDbEntity
  8
ASSI
100
AcDbLine
 62
7
  6
CONTINUOUS
 10
-2.3394987585
 20
-5.5238609306
 11
-2.3873799694
 21
-5.5781534065
  0
LINE
  5
5B8
100
AcDbEntity
  8
ASSI
100
AcDbLine
 62
7
  6
CONTINUOUS
 10
-2.3394987585
 20
-5.610463471
 11
-2.3873799694
 21
-5.6647559469
  0
LINE
  5
5B9
100
AcDbEntity
  8
ASSI
100
AcDbLine
 62
7
  6
CONTINUOUS
 10
-1.2090066109
 20
-6.5976221154
 11
-1.1415671023
 21
-6.5335504906
  0
LINE
  5
5BA
100
AcDbEntity
  8
ASSI
100
AcDbLine
 62
7
  6
CONTINUOUS
 10
-0.9702491322
 20
-6.5996512054
 11
-1.0572465638
 21
-6.673502139
  0
LINE
  5
5BB
100
AcDbEntity
  8
ASSI
100
AcDbLine
 62
7
  6
CONTINUOUS
 10
-15.3425050875
 20
-14.001598914
 11
-15.4127075065
 21
-14.0542895166
  0
LWPOLYLINE
  5
5BC
100
AcDbEntity
  8
0
100
AcDbPolyline
 62
7
  6
CONTINUOUS
 90
13
 70
0
 10
8.1320042342
 20
0.9047953397
 10
8.2220134352
 20
0.9529352721
 10
8.3049219893
 20
1.0034474548
 10
8.3807298965
 20
1.0563318878
 10
8.4497002132
 20
1.1118346431
 10
8.5115698831
 20
1.1697096486
 10
8.5655497369
 20
1.2292186885
 10
8.6115387076
 20
1.2903826945
 10
8.6496378622
 20
1.3531807349
 10
8.6793612327
 20
1.4168117988
 10
8.7006015269
 20
1.4812865572
 10
8.7134660371
 20
1.546594339
 10
8.7177906719
 20
1.6119021208
  0
LINE
  5
5BD
100
AcDbEntity
  8
ASSI
100
AcDbLine
 62
7
  6
CONTINUOUS
 10
-6.2292592873
 20
-3.7354468837
 11
-6.0727930698
 21
-3.657213775
  0
LINE
  5
5BE
100
AcDbEntity
  8
ASSI
100
AcDbLine
 62
7
  6
CONTINUOUS
 10
-6.618385834
 20
-4.1121220747
 11
-5.9102394226
 21
-3.7580488689
  0
LINE
  5
5BF
100
AcDbEntity
  8
ASSI
100
AcDbLine
 62
7
  6
CONTINUOUS
 10
-5.5716613422
 20
-3.7708717464
 11
-6.4362739164
 21
-4.2031780335
  0
LINE
  5
5C0
100
AcDbEntity
  8
ASSI
100
AcDbLine
 62
7
  6
CONTINUOUS
 10
-5.5716613422
 20
-3.8574742868
 11
-6.2712334727
 21
-4.207260352
  0
LINE
  5
5C1
100
AcDbEntity
  8
ASSI
100
AcDbLine
 62
7
  6
CONTINUOUS
 10
-5.8764770908
 20
-4.1660954964
 11
-5.7004526578
 21
-4.0780832799
  0
LINE
  5
5C2
100
AcDbEntity
  8
ASSI
100
AcDbLine
 62
7
  6
CONTINUOUS
 10
-5.5682510112
 20
-4.1637423735
 11
-5.7051589036
 21
-4.2321963197
  0
LINE
  5
5C3
100
AcDbEntity
  8
ASSI
100
AcDbLine
 62
7
  6
CONTINUOUS
 10
-5.5682510112
 20
-4.2503449139
 11
-5.7051589036
 21
-4.31879886
  0
LINE
  5
5C4
100
AcDbEntity
  8
ASSI
100
AcDbLine
 62
7
  6
CONTINUOUS
 10
-4.9160072316
 20
-4.6267721557
 11
-4.7790993392
 21
-4.5583182095
  0
LINE
  5
5C5
100
AcDbEntity
  8
ASSI
100
AcDbLine
 62
7
  6
CONTINUOUS
 10
-4.6077811954
 20
-4.624419011
 11
-4.7838056285
 21
-4.7124312276
  0
LINE
  5
5C6
100
AcDbEntity
  8
ASSI
100
AcDbLine
 62
7
  6
CONTINUOUS
 10
-4.6077811954
 20
-4.7110215514
 11
-4.7838056285
 21
-4.7990337679
  0
LINE
  5
5C7
100
AcDbEntity
  8
ASSI
100
AcDbLine
 62
7
  6
CONTINUOUS
 10
-11.24418724
 20
-8.0375268775
 11
-11.2229565808
 21
-8.0269115479
  0
LINE
  5
5C8
100
AcDbEntity
  8
ASSI
100
AcDbLine
 62
7
  6
CONTINUOUS
 10
-10.6667215369
 20
-8.3498644884
 11
-10.6454936641
 21
-8.339250552
  0
LINE
  5
5C9
100
AcDbEntity
  8
ASSI
100
AcDbLine
 62
7
  6
CONTINUOUS
 10
-4.1295229019
 20
-5.3565535407
 11
-4.0863577779
 21
-5.3349709787
  0
LINE
  5
5CA
100
AcDbEntity
  8
ASSI
100
AcDbLine
 62
7
  6
CONTINUOUS
 10
-2.6086084825
 20
-5.5066557455
 11
-2.569491887
 21
-5.4870974477
  0
LINE
  5
5CB
100
AcDbEntity
  8
ASSI
100
AcDbLine
 62
7
  6
CONTINUOUS
 10
-9.3818729547
 20
-9.0362140473
 11
-9.3606505471
 21
-9.0256028435
  0
LINE
  5
5CC
100
AcDbEntity
  8
ASSI
100
AcDbLine
 62
7
  6
CONTINUOUS
 10
-2.3873799694
 20
-5.5781534065
 11
-2.4264965649
 21
-5.5977117043
  0
LINE
  5
5CD
100
AcDbEntity
  8
ASSI
100
AcDbLine
 62
7
  6
CONTINUOUS
 10
-2.9936864458
 20
-5.8813066447
 11
-3.0368515698
 21
-5.9028892068
  0
LINE
  5
5CE
100
AcDbEntity
  8
ASSI
100
AcDbLine
 62
7
  6
CONTINUOUS
 10
-2.3873799694
 20
-5.6647559469
 11
-2.4264965649
 21
-5.6843142447
  0
LINE
  5
5CF
100
AcDbEntity
  8
ASSI
100
AcDbLine
 62
7
  6
CONTINUOUS
 10
-2.4379380733
 20
-5.8462484645
 11
-1.9294229897
 21
-5.5919909226
  0
LINE
  5
5D0
100
AcDbEntity
  8
ASSI
100
AcDbLine
 62
7
  6
CONTINUOUS
 10
-1.8754542943
 20
-5.7167666221
 11
-2.1883866745
 21
-5.8732328122
  0
LINE
  5
5D1
100
AcDbEntity
  8
ASSI
100
AcDbLine
 62
7
  6
CONTINUOUS
 10
-1.8754542943
 20
-5.8033691624
 11
-2.0683010177
 21
-5.8997925242
  0
LINE
  5
5D2
100
AcDbEntity
  8
ASSI
100
AcDbLine
 62
7
  6
CONTINUOUS
 10
-8.7969388321
 20
-9.3448174485
 11
-8.7757186578
 21
-9.3342073614
  0
LWPOLYLINE
  5
5D3
100
AcDbEntity
  8
ASSI
100
AcDbPolyline
 62
7
  6
CONTINUOUS
 90
4
 70
0
 10
-6.2712334727
 20
-4.207260352
 10
-6.3100278977
 20
-4.2238322214
 10
-6.3474466884
 20
-4.2350729082
 10
-6.366301451
 20
-4.2381642661
  0
LINE
  5
5D4
100
AcDbEntity
  8
ASSI
100
AcDbLine
 62
7
  6
CONTINUOUS
 10
-5.420549345
 20
-4.1202435845
 11
-5.5682510112
 21
-4.1637423735
  0
LINE
  5
5D5
100
AcDbEntity
  8
ASSI
100
AcDbLine
 62
7
  6
CONTINUOUS
 10
-5.420549345
 20
-4.2068461249
 11
-5.5682510112
 21
-4.2503449139
  0
LINE
  5
5D6
100
AcDbEntity
  8
ASSI
100
AcDbLine
 62
7
  6
CONTINUOUS
 10
-5.0637089252
 20
-4.6702709583
 11
-4.9160072316
 21
-4.6267721557
  0
LWPOLYLINE
  5
5D7
100
AcDbEntity
  8
ASSI
100
AcDbPolyline
 62
250
  6
CONTINUOUS
 90
6
 70
0
 10
8.5677906719
 20
-3.9117483841
 10
9.2595026365
 20
-4.2772872841
 10
10.1358644298
 20
-4.7450255304
 10
10.9713715569
 20
-5.1950982508
 10
11.7669355357
 20
-5.6286829536
 10
12.522556366
 20
-6.0457796387
  0
LWPOLYLINE
  5
5D8
100
AcDbEntity
  8
ASSI
100
AcDbPolyline
 62
7
  6
CONTINUOUS
 90
4
 70
0
 10
12.7604729574
 20
-6.0444815563
 10
11.0503860777
 20
-5.1066359468
 10
9.2677613058
 20
-4.1511726826
 10
8.5677906719
 20
-3.7846653497
  0
LINE
  5
5D9
100
AcDbEntity
  8
ASSI
100
AcDbLine
 62
7
  6
CONTINUOUS
 10
12.7604729574
 20
-6.0444815563
 11
12.7599844452
 21
-6.0442100216
  0
LINE
  5
5DA
100
AcDbEntity
  8
ASSI
100
AcDbLine
 62
250
  6
CONTINUOUS
 10
12.522556366
 20
-6.0457796387
 11
12.9199722787
 21
-6.2721438493
  0
LWPOLYLINE
  5
5DB
100
AcDbEntity
  8
ASSI
100
AcDbPolyline
 62
250
  6
CONTINUOUS
 90
6
 70
0
 10
12.9199722787
 20
-6.2721438493
 10
13.3026514144
 20
-6.4956632041
 10
13.6705937732
 20
-6.7163377032
 10
14.0237993551
 20
-6.9341673465
 10
14.3622681599
 20
-7.1491521341
 10
14.6860001879
 20
-7.3612920659
  0
LWPOLYLINE
  5
5DC
100
AcDbEntity
  8
ASSI
100
AcDbPolyline
 62
7
  6
CONTINUOUS
 90
10
 70
0
 10
14.9591933591
 20
-7.3791499376
 10
14.7261294108
 20
-7.2261414485
 10
14.4901824389
 20
-7.0742644257
 10
14.2513968228
 20
-6.9235461033
 10
14.0097939952
 20
-6.773998308
 10
13.7653972576
 20
-6.6256338079
 10
13.5182319718
 20
-6.4784663285
 10
13.2683221194
 20
-6.3325084608
 10
13.0156901081
 20
-6.1877716461
 10
12.7603597663
 20
-6.0442679408
  0
LWPOLYLINE
  5
5DD
100
AcDbEntity
  8
ASSI
100
AcDbPolyline
 62
250
  6
CONTINUOUS
 90
9
 70
0
 10
14.6860001879
 20
-7.3612920659
 10
14.7260488937
 20
-7.3903152184
 10
14.7604602506
 20
-7.420709271
 10
14.7892342585
 20
-7.4524742237
 10
14.8126141975
 20
-7.485987236
 10
14.8303567876
 20
-7.5208711483
 10
14.8417321891
 20
-7.5559944824
 10
14.8464217215
 20
-7.5912804806
 10
14.8447440653
 20
-7.6268059006
  0
LWPOLYLINE
  5
5DE
100
AcDbEntity
  8
ASSI
100
AcDbPolyline
 62
250
  6
CONTINUOUS
 90
10
 70
0
 10
15.3183157502
 20
-21.1056045021
 10
15.3412293161
 20
-21.1426216486
 10
15.3618730047
 20
-21.1808770133
 10
15.3800811202
 20
-21.220083686
 10
15.3957191921
 20
-21.2599902894
 10
15.4086383291
 20
-21.3002497765
 10
15.4187065293
 20
-21.3404201036
 10
15.4258597521
 20
-21.3801511816
 10
15.430071908
 20
-21.4191887647
 10
15.4313290032
 20
-21.4572421311
  0
LWPOLYLINE
  5
5DF
100
AcDbEntity
  8
0
100
AcDbPolyline
 62
7
  6
CONTINUOUS
 90
37
 70
0
 10
4.7177906719
 20
1.6119021208
 10
4.7221153067
 20
1.546594339
 10
4.7349798168
 20
1.4812865572
 10
4.7562201111
 20
1.4168117988
 10
4.7859434816
 20
1.3531807349
 10
4.8240426362
 20
1.2903826945
 10
4.8700316068
 20
1.2292186885
 10
4.9240114607
 20
1.1697096486
 10
4.9858811305
 20
1.1118346431
 10
5.0548514473
 20
1.0563318878
 10
5.1310133688
 20
1.003231771
 10
5.2142759373
 20
0.9525039044
 10
5.3035771095
 20
0.9047953397
 10
5.3989942389
 20
0.8601447535
 10
5.5004499721
 20
0.8185134693
 10
5.6066502058
 20
0.7804325085
 10
5.7176557163
 20
0.7459473502
 10
5.8334057273
 20
0.7150125152
 10
5.9524238071
 20
0.6880225883
 10
6.0747518191
 20
0.665028103
 10
6.2003479
 20
0.6459785257
 10
6.3276100278
 20
0.6311168404
 10
6.4565595445
 20
0.6204966933
 10
6.5871751082
 20
0.6140644382
 10
6.7177906719
 20
0.6119021208
 10
6.8484062356
 20
0.6140644382
 10
6.9790217993
 20
0.6204966933
 10
7.1079713159
 20
0.6311168404
 10
7.2352334438
 20
0.6459785257
 10
7.3608295246
 20
0.665028103
 10
7.4831575366
 20
0.6880225883
 10
7.6021756164
 20
0.7150125152
 10
7.7179256275
 20
0.7459473502
 10
7.8289311379
 20
0.7804325085
 10
7.9347000039
 20
0.8183364622
 10
8.0357243694
 20
0.8597907392
 10
8.1320042342
 20
0.9047953397
  0
LINE
  5
5E0
100
AcDbEntity
  8
0
100
AcDbLine
 62
7
  6
CONTINUOUS
 10
4.7177906719
 20
1.6119021208
 11
4.7177906719
 21
7.861587558
  0
LINE
  5
5E1
100
AcDbEntity
  8
0
100
AcDbLine
 62
7
  6
CONTINUOUS
 10
4.7427906719
 20
-4.4502757056
 11
4.7427906719
 21
-7.4813646189
  0
LINE
  5
5E2
100
AcDbEntity
  8
0
100
AcDbLine
 62
7
  6
CONTINUOUS
 10
4.8677906719
 20
1.2321990674
 11
4.8677906719
 21
-4.4502757056
  0
LINE
  5
5E3
100
AcDbEntity
  8
ASSI
100
AcDbLine
 62
250
  6
CONTINUOUS
 10
6.0849101935
 20
-12.1443245858
 11
6.0849101936
 21
-24.9571976339
  0
LINE
  5
5E4
100
AcDbEntity
  8
0
100
AcDbLine
 62
7
  6
CONTINUOUS
 10
6.5692716981
 20
-10.7059508407
 11
6.5692716981
 21
-11.0166896519
  0
LINE
  5
5E5
100
AcDbEntity
  8
ASSI
100
AcDbLine
 62
250
  6
CONTINUOUS
 10
7.6848600535
 20
-12.124550237
 11
7.6845719621
 21
-25.1068550881
  0
LINE
  5
5E6
100
AcDbEntity
  8
ASSI
100
AcDbLine
 62
250
  6
CONTINUOUS
 10
7.6845719621
 20
-25.1068550881
 11
7.6840113195
 21
-25.3006491854
  0
LINE
  5
5E7
100
AcDbEntity
  8
ASSI
100
AcDbLine
 62
250
  6
CONTINUOUS
 10
7.6840113195
 20
-25.3006491854
 11
7.6835514928
 21
-25.3781178751
  0
LWPOLYLINE
  5
5E8
100
AcDbEntity
  8
ASSI
100
AcDbPolyline
 62
250
  6
CONTINUOUS
 90
6
 70
0
 10
5.7694978499
 20
-27.5189715785
 10
5.767921758
 20
-27.6824547831
 10
5.7659902091
 20
-27.825886254
 10
5.7638003424
 20
-27.9492898422
 10
5.7613328019
 20
-28.047860337
 10
5.7564357009
 20
-28.1995834835
  0
LINE
  5
5E9
100
AcDbEntity
  8
ASSI
100
AcDbLine
 62
250
  6
CONTINUOUS
 10
5.727389483
 20
-29.2487313859
 11
5.7200579417
 21
-29.525429213
  0
LWPOLYLINE
  5
5EA
100
AcDbEntity
  8
ASSI
100
AcDbPolyline
 62
250
  6
CONTINUOUS
 90
3
 70
0
 10
5.7564357009
 20
-28.1995834835
 10
5.7336011511
 20
-29.0477860842
 10
5.727389483
 20
-29.2487313859
  0
LINE
  5
5EB
100
AcDbEntity
  8
ASSI
100
AcDbLine
 62
250
  6
CONTINUOUS
 10
5.7200579417
 20
-29.525429213
 11
5.7133362323
 21
-29.7550487197
  0
LWPOLYLINE
  5
5EC
100
AcDbEntity
  8
ASSI
100
AcDbPolyline
 62
250
  6
CONTINUOUS
 90
16
 70
0
 10
5.8137609776
 20
-25.6325315433
 10
5.8152231321
 20
-25.5851035595
 10
5.8190596775
 20
-25.5364533631
 10
5.825253423
 20
-25.4868196213
 10
5.8337990443
 20
-25.4363816409
 10
5.8446687527
 20
-25.3854614753
 10
5.8577810896
 20
-25.3345299746
 10
5.8730291265
 20
-25.2840720975
 10
5.8902201619
 20
-25.2348865574
 10
5.9090151148
 20
-25.1879287372
 10
5.9290937705
 20
-25.1438508719
 10
5.9502378125
 20
-25.1030192284
 10
5.9721988734
 20
-25.0657819031
 10
5.9947584794
 20
-25.0324036534
 10
6.0177534297
 20
-25.0030728463
 10
6.0410003938
 20
-24.9780152702
  0
LINE
  5
5ED
100
AcDbEntity
  8
ASSI
100
AcDbLine
 62
250
  6
CONTINUOUS
 10
5.7133362323
 20
-29.7550487197
 11
5.6973462289
 21
-30.2628126117
  0
LWPOLYLINE
  5
5EE
100
AcDbEntity
  8
ASSI
100
AcDbPolyline
 62
250
  6
CONTINUOUS
 90
8
 70
0
 10
5.783956875
 20
-27.1151367673
 10
5.79074955
 20
-26.9096058611
 10
5.7970278545
 20
-26.7018836767
 10
5.8025703383
 20
-26.4920610102
 10
5.8072829581
 20
-26.2801230137
 10
5.8112008275
 20
-26.0660183837
 10
5.8142602123
 20
-25.8496781138
 10
5.816825644
 20
-25.6310942937
  0
LINE
  5
5EF
100
AcDbEntity
  8
ASSI
100
AcDbLine
 62
250
  6
CONTINUOUS
 10
5.6973462289
 20
-30.2628126117
 11
5.6889655317
 21
-30.5093364676
  0
LINE
  5
5F0
100
AcDbEntity
  8
ASSI
100
AcDbLine
 62
250
  6
CONTINUOUS
 10
5.7694978485
 20
-27.5189716156
 11
5.783956875
 21
-27.1151367673
  0
LINE
  5
5F1
100
AcDbEntity
  8
ASSI
100
AcDbLine
 62
250
  6
CONTINUOUS
 10
5.6889655317
 20
-30.5093364676
 11
5.6785930563
 21
-30.7910090361
  0
LWPOLYLINE
  5
5F2
100
AcDbEntity
  8
ASSI
100
AcDbPolyline
 62
250
  6
CONTINUOUS
 90
7
 70
0
 10
7.1538183315
 20
-27.4841019142
 10
7.1659049942
 20
-27.1764783191
 10
7.1770194704
 20
-26.8641500337
 10
7.187106086
 20
-26.5470972486
 10
7.1961085248
 20
-26.2253006116
 10
7.203969834
 20
-25.8987412558
 10
7.2106324302
 20
-25.5674008276
  0
LINE
  5
5F3
100
AcDbEntity
  8
ASSI
100
AcDbLine
 62
250
  6
CONTINUOUS
 10
5.6785930563
 20
-30.7910090361
 11
5.6665468116
 21
-31.0878537948
  0
LWPOLYLINE
  5
5F4
100
AcDbEntity
  8
ASSI
100
AcDbPolyline
 62
250
  6
CONTINUOUS
 90
3
 70
0
 10
7.1538183315
 20
-27.4841019142
 10
7.1453372976
 20
-27.6786886745
 10
7.1365372253
 20
-27.8727539078
  0
LWPOLYLINE
  5
5F5
100
AcDbEntity
  8
ASSI
100
AcDbPolyline
 62
250
  6
CONTINUOUS
 90
6
 70
0
 10
5.6665468116
 20
-31.0878537948
 10
5.6532756221
 20
-31.3870090196
 10
5.6460354589
 20
-31.5395537895
 10
5.6383002266
 20
-31.6951884523
 10
5.6300911735
 20
-31.8533438362
 10
5.621393027
 20
-32.014012004
  0
LWPOLYLINE
  5
5F6
100
AcDbEntity
  8
ASSI
100
AcDbPolyline
 62
250
  6
CONTINUOUS
 90
7
 70
0
 10
3.5008379786
 20
-27.7975073186
 10
3.5087677241
 20
-27.6435072724
 10
3.5156330565
 20
-27.489782844
 10
3.5214160903
 20
-27.3363808961
 10
3.5260988837
 20
-27.183348369
 10
3.5296605823
 20
-27.0307331989
 10
3.5320723875
 20
-26.8785859436
  0
LINE
  5
5F7
100
AcDbEntity
  8
ASSI
100
AcDbLine
 62
250
  6
CONTINUOUS
 10
5.621393027
 20
-32.014012004
 11
5.6122131073
 21
-32.1746894572
  0
LINE
  5
5F8
100
AcDbEntity
  8
ASSI
100
AcDbLine
 62
250
  6
CONTINUOUS
 10
5.6122131073
 20
-32.1746894572
 11
5.5956364826
 21
-32.4496154918
  0
LINE
  5
5F9
100
AcDbEntity
  8
ASSI
100
AcDbLine
 62
250
  6
CONTINUOUS
 10
5.5956364826
 20
-32.4496154918
 11
5.5827524762
 21
-32.6514752771
  0
LINE
  5
5FA
100
AcDbEntity
  8
ASSI
100
AcDbLine
 62
250
  6
CONTINUOUS
 10
5.5827524762
 20
-32.6514752771
 11
5.5694614387
 21
-32.847614413
  0
LINE
  5
5FB
100
AcDbEntity
  8
ASSI
100
AcDbLine
 62
250
  6
CONTINUOUS
 10
5.5694614387
 20
-32.847614413
 11
5.5542191619
 21
-33.0598166234
  0
LINE
  5
5FC
100
AcDbEntity
  8
ASSI
100
AcDbLine
 62
250
  6
CONTINUOUS
 10
5.5542191619
 20
-33.0598166234
 11
5.5355872303
 21
-33.3055896736
  0
LWPOLYLINE
  5
5FD
100
AcDbEntity
  8
ASSI
100
AcDbPolyline
 62
250
  6
CONTINUOUS
 90
4
 70
0
 10
5.5355872303
 20
-33.3055896736
 10
5.5156454895
 20
-33.5534142189
 10
5.5054034946
 20
-33.6751479228
 10
5.4949237564
 20
-33.7962148893
  0
LINE
  5
5FE
100
AcDbEntity
  8
0
100
AcDbLine
 62
7
  6
CONTINUOUS
 10
4.7427906719
 20
-4.4502757056
 11
4.7603425739
 21
-4.3221782672
  0
LWPOLYLINE
  5
5FF
100
AcDbEntity
  8
0
100
AcDbPolyline
 62
7
  6
CONTINUOUS
 90
3
 70
0
 10
4.7603425739
 20
-4.3221782672
 10
4.8113029034
 20
-4.1940808288
 10
4.8677906719
 20
-4.1100626625
  0
LINE
  5
600
100
AcDbEntity
  8
ASSI
100
AcDbLine
 62
7
  6
CONTINUOUS
 10
-6.6406977867
 20
-26.5867860592
 11
-6.4971651341
 21
-26.3333275134
  0
LINE
  5
601
100
AcDbEntity
  8
ASSI
100
AcDbLine
 62
7
  6
CONTINUOUS
 10
-6.66192359
 20
-26.5973989608
 11
-6.5183890281
 21
-26.3439394604
  0
LINE
  5
602
100
AcDbEntity
  8
ASSI
100
AcDbLine
 62
7
  6
CONTINUOUS
 10
0.1945683177
 20
-6.9278024159
 11
0.1271284891
 21
-6.9918738533
  0
LINE
  5
603
100
AcDbEntity
  8
ASSI
100
AcDbLine
 62
7
  6
CONTINUOUS
 10
0.1945683177
 20
-7.0144049563
 11
0.1271284891
 21
-7.0784763937
  0
LINE
  5
604
100
AcDbEntity
  8
ASSI
100
AcDbLine
 62
7
  6
CONTINUOUS
 10
-0.9702491322
 20
-6.6862537457
 11
-1.0572465638
 21
-6.7601046794
  0
LINE
  5
605
100
AcDbEntity
  8
ASSI
100
AcDbLine
 62
7
  6
CONTINUOUS
 10
-0.044189481
 20
-6.9257731386
 11
0.0428079232
 21
-6.8519222187
  0
LINE
  5
606
100
AcDbEntity
  8
ASSI
100
AcDbLine
 62
7
  6
CONTINUOUS
 10
-8.4056987832
 20
-9.5499035233
 11
-8.3844799519
 21
-9.5392941076
  0
LINE
  5
607
100
AcDbEntity
  8
ASSI
100
AcDbLine
 62
7
  6
CONTINUOUS
 10
-1.6339345345
 20
-6.3851581536
 11
-1.5948179938
 21
-6.3655998833
  0
LINE
  5
608
100
AcDbEntity
  8
ASSI
100
AcDbLine
 62
7
  6
CONTINUOUS
 10
-0.8974555723
 20
-6.1079746314
 11
-0.995246924
 21
-6.1568703072
  0
LINE
  5
609
100
AcDbEntity
  8
ASSI
100
AcDbLine
 62
7
  6
CONTINUOUS
 10
-1.4234996763
 20
-6.4317007717
 11
-1.5017327577
 21
-6.4708173124
  0
LINE
  5
60A
100
AcDbEntity
  8
ASSI
100
AcDbLine
 62
7
  6
CONTINUOUS
 10
-0.8974555723
 20
-6.1945771717
 11
-0.995246924
 21
-6.2434728476
  0
LINE
  5
60B
100
AcDbEntity
  8
ASSI
100
AcDbLine
 62
7
  6
CONTINUOUS
 10
-1.4234996763
 20
-6.5183033121
 11
-1.5017327577
 21
-6.5574198528
  0
LINE
  5
60C
100
AcDbEntity
  8
ASSI
100
AcDbLine
 62
7
  6
CONTINUOUS
 10
-7.8168981198
 20
-9.856566583
 11
-7.7956810429
 21
-9.8459580446
  0
LINE
  5
60D
100
AcDbEntity
  8
ASSI
100
AcDbLine
 62
7
  6
CONTINUOUS
 10
-1.1415671023
 20
-6.5335504906
 11
-0.9655426693
 21
-6.4455382741
  0
LINE
  5
60E
100
AcDbEntity
  8
ASSI
100
AcDbLine
 62
7
  6
CONTINUOUS
 10
-0.8333412398
 20
-6.5311972592
 11
-0.9702491322
 21
-6.5996512054
  0
LINE
  5
60F
100
AcDbEntity
  8
ASSI
100
AcDbLine
 62
7
  6
CONTINUOUS
 10
-0.8333412398
 20
-6.6177997996
 11
-0.9702491322
 21
-6.6862537457
  0
LINE
  5
610
100
AcDbEntity
  8
ASSI
100
AcDbLine
 62
7
  6
CONTINUOUS
 10
-7.2257965188
 20
-10.1620565465
 11
-7.2045808558
 21
-10.151448715
  0
LINE
  5
611
100
AcDbEntity
  8
ASSI
100
AcDbLine
 62
7
  6
CONTINUOUS
 10
-0.1810973734
 20
-6.9942270848
 11
-0.044189481
 21
-6.9257731386
  0
LINE
  5
612
100
AcDbEntity
  8
ASSI
100
AcDbLine
 62
7
  6
CONTINUOUS
 10
0.1271284891
 20
-6.9918738533
 11
-0.0488959439
 21
-7.0798860698
  0
LINE
  5
613
100
AcDbEntity
  8
ASSI
100
AcDbLine
 62
7
  6
CONTINUOUS
 10
0.1271284891
 20
-7.0784763937
 11
-0.0488959439
 21
-7.1664886102
  0
LINE
  5
614
100
AcDbEntity
  8
ASSI
100
AcDbLine
 62
7
  6
CONTINUOUS
 10
-6.3277663739
 20
-10.62168783
 11
-6.3065521932
 21
-10.6110807397
  0
LINE
  5
615
100
AcDbEntity
  8
ASSI
100
AcDbLine
 62
7
  6
CONTINUOUS
 10
-9.7348235603
 20
-12.5296145689
 11
-9.7135997019
 21
-12.5190026397
  0
LINE
  5
616
100
AcDbEntity
  8
ASSI
100
AcDbLine
 62
7
  6
CONTINUOUS
 10
-5.2111250046
 20
-11.1857952158
 11
-5.1899117108
 21
-11.1751885689
  0
LWPOLYLINE
  5
617
100
AcDbEntity
  8
0
100
AcDbPolyline
 62
7
  6
CONTINUOUS
 90
19
 70
0
 10
8.1143265647
 20
-5.1485436521
 10
7.9135327117
 20
-5.2353306972
 10
7.6999540071
 20
-5.3066850612
 10
7.4735904508
 20
-5.362606744
 10
7.2301804256
 20
-5.4035195899
 10
6.9739855487
 20
-5.4289997546
 10
6.7177906719
 20
-5.4377757056
 10
6.461595795
 20
-5.4289997546
 10
6.2054009181
 20
-5.4035195899
 10
5.961990893
 20
-5.362606744
 10
5.732014512
 20
-5.305478055
 10
5.5148229827
 20
-5.2329166849
 10
5.321254779
 20
-5.1485436521
 10
5.1525087133
 20
-5.0517595502
 10
5.0073859731
 20
-4.9431637856
 10
4.8931285952
 20
-4.8281755951
 10
4.8113029034
 20
-4.7064705825
 10
4.7603425739
 20
-4.5783731441
 10
4.7427906719
 20
-4.4502757056
  0
LWPOLYLINE
  5
618
100
AcDbEntity
  8
0
100
AcDbPolyline
 62
7
  6
CONTINUOUS
 90
17
 70
0
 10
8.0259382171
 20
-5.1043494782
 10
7.8070077085
 20
-5.1965696469
 10
7.574630615
 20
-5.2695757496
 10
7.3288069365
 20
-5.3233677862
 10
7.0635350156
 20
-5.3582838689
 10
6.7848165098
 20
-5.3739858857
 10
6.5106563911
 20
-5.3694594998
 10
6.2413556078
 20
-5.3433692169
 10
5.9766132116
 20
-5.2970505314
 10
5.7335313303
 20
-5.2334955899
 10
5.5135400074
 20
-5.1515664419
 10
5.3152091994
 20
-5.0524010379
 10
5.1513509033
 20
-4.9424053764
 10
5.0242410204
 20
-4.8208644358
 10
4.9316036494
 20
-4.6884932377
 10
4.8794230836
 20
-4.553842846
 10
4.8677925399
 20
-4.4489611862
  0
LINE
  5
619
100
AcDbEntity
  8
ASSI
100
AcDbLine
 62
7
  6
CONTINUOUS
 10
-0.6856393999
 20
-6.4876985571
 11
-0.8333412398
 21
-6.5311972592
  0
LINE
  5
61A
100
AcDbEntity
  8
ASSI
100
AcDbLine
 62
7
  6
CONTINUOUS
 10
-0.6856393999
 20
-6.5743010975
 11
-0.8333412398
 21
-6.6177997996
  0
LINE
  5
61B
100
AcDbEntity
  8
ASSI
100
AcDbLine
 62
7
  6
CONTINUOUS
 10
-0.3287992406
 20
-7.0377258006
 11
-0.1810973734
 21
-6.9942270848
  0
LWPOLYLINE
  5
61C
100
AcDbEntity
  8
0
100
AcDbPolyline
 62
7
  6
CONTINUOUS
 90
7
 70
0
 10
13.6702676487
 20
-7.4299908837
 10
13.6672595047
 20
-7.4252926926
 10
13.6643114085
 20
-7.4205211016
 10
13.6614237659
 20
-7.4156766235
 10
13.658596977
 20
-7.4107597797
 10
13.6558314356
 20
-7.4057711
 10
13.6531275297
 20
-7.4007111222
  0
LWPOLYLINE
  5
61D
100
AcDbEntity
  8
0
100
AcDbPolyline
 62
7
  6
CONTINUOUS
 90
3
 70
0
 10
8.6752387698
 20
-4.3221782672
 10
8.6242784403
 20
-4.1940808288
 10
8.5677906719
 20
-4.1100626625
  0
LINE
  5
61E
100
AcDbEntity
  8
0
100
AcDbLine
 62
7
  6
CONTINUOUS
 10
8.6927906719
 20
-4.4502757056
 11
8.6752387698
 21
-4.3221782672
  0
LINE
  5
61F
100
AcDbEntity
  8
RACCORDO
100
AcDbLine
 62
7
  6
CONTINUOUS
 10
9.9602733695
 20
-7.4934313802
 11
9.9677894106
 21
-7.6098368109
  0
LWPOLYLINE
  5
620
100
AcDbEntity
  8
0
100
AcDbPolyline
 62
7
  6
CONTINUOUS
 90
5
 70
0
 10
8.7177906719
 20
7.861587558
 10
8.7163920814
 20
7.8989787523
 10
8.7052150917
 20
7.9735520341
 10
8.6829236183
 20
8.0474991652
 10
8.6465208241
 20
8.1261626891
  0
LWPOLYLINE
  5
621
100
AcDbEntity
  8
ASSI
100
AcDbPolyline
 62
7
  6
CONTINUOUS
 90
22
 70
0
 10
11.5617488194
 20
-10.339526674
 10
11.5605855001
 20
-10.3065898131
 10
11.5575209951
 20
-10.2732108973
 10
11.5525553044
 20
-10.2393899267
 10
11.5456453848
 20
-10.2049356937
 10
11.5368342795
 20
-10.1700394058
 10
11.5262511187
 20
-10.1352746853
 10
11.5138565082
 20
-10.1006271319
 10
11.4996898421
 20
-10.0661111459
 10
11.483998434
 20
-10.0323435507
 10
11.4667605684
 20
-9.9993537825
 10
11.4479979608
 20
-9.9671124051
 10
11.4280230701
 20
-9.9361479338
 10
11.4068161993
 20
-9.90648163
 10
11.3843970454
 20
-9.8780922323
 10
11.361137159
 20
-9.8514444721
 10
11.3371938227
 20
-9.8267115267
 10
11.3124097539
 20
-9.8037202189
 10
11.2866846554
 20
-9.7824157484
 10
11.2599850949
 20
-9.7627798483
 10
11.2323445048
 20
-9.7448307855
 10
11.203762885
 20
-9.7285685599
  0
LINE
  5
622
100
AcDbEntity
  8
0
100
AcDbLine
 62
7
  6
CONTINUOUS
 10
8.5677906719
 20
1.2321990674
 11
8.5677906719
 21
-4.4502757056
  0
LINE
  5
623
100
AcDbEntity
  8
0
100
AcDbLine
 62
7
  6
CONTINUOUS
 10
8.6927906719
 20
-4.4502757056
 11
8.6927906719
 21
-7.4813646189
  0
LINE
  5
624
100
AcDbEntity
  8
0
100
AcDbLine
 62
7
  6
CONTINUOUS
 10
8.7177906719
 20
1.6119021208
 11
8.7177906719
 21
7.861587558
  0
LINE
  5
625
100
AcDbEntity
  8
0
100
AcDbLine
 62
7
  6
CONTINUOUS
 10
9.9677906719
 20
-7.6112684295
 11
9.9677906719
 21
-7.7155883598
  0
LINE
  5
626
100
AcDbEntity
  8
ASSI
100
AcDbLine
 62
7
  6
CONTINUOUS
 10
11.5617488194
 20
-10.339526674
 11
11.5617496863
 21
-23.2834366148
  0
LINE
  5
627
100
AcDbEntity
  8
ASSI
100
AcDbLine
 62
250
  6
CONTINUOUS
 10
9.0412028757
 20
-6.4169324814
 11
9.0418959972
 21
-6.3193119562
  0
LWPOLYLINE
  5
628
100
AcDbEntity
  8
ASSI
100
AcDbPolyline
 62
7
  6
CONTINUOUS
 90
12
 70
0
 10
11.5617496863
 20
-23.2834366148
 10
11.5416624961
 20
-24.880427288
 10
11.4818979627
 20
-26.4531309946
 10
11.382456086
 20
-28.0015477345
 10
11.2431714057
 20
-29.5270651941
 10
11.0642093821
 20
-31.028295687
 10
10.8460663964
 20
-32.5010761545
 10
10.5886335534
 20
-33.9453281977
 10
10.2920197483
 20
-35.3611302155
 10
9.9570480479
 20
-36.744554346
 10
9.5839928077
 20
-38.0942913018
 10
9.1725796721
 20
-39.4116503702
  0
LWPOLYLINE
  5
629
100
AcDbEntity
  8
ASSI
100
AcDbPolyline
 62
250
  6
CONTINUOUS
 90
7
 70
0
 10
7.1365372253
 20
-27.8727539078
 10
7.1180226649
 20
-28.2593045038
 10
7.1083096485
 20
-28.4517859435
 10
7.0981617928
 20
-28.6437601711
 10
7.0875405322
 20
-28.8352325868
 10
7.0764865044
 20
-29.0261938215
 10
7.0650007255
 20
-29.2166419102
  0
LWPOLYLINE
  5
62A
100
AcDbEntity
  8
ASSI
100
AcDbPolyline
 62
250
  6
CONTINUOUS
 90
7
 70
0
 10
6.9688476979
 20
-30.6060654398
 10
6.9858540421
 20
-30.3821621929
 10
7.0025057724
 20
-30.1552091659
 10
7.0187748263
 20
-29.9251934037
 10
7.0346328355
 20
-29.6921020648
 10
7.0500511274
 20
-29.4559224297
 10
7.0650007255
 20
-29.2166419102
  0
LWPOLYLINE
  5
62B
100
AcDbEntity
  8
ASSI
100
AcDbPolyline
 62
250
  6
CONTINUOUS
 90
7
 70
0
 10
6.8536762467
 20
-31.9690782705
 10
6.873414113
 20
-31.7504788717
 10
6.8929778861
 20
-31.5284736701
 10
6.9123356555
 20
-31.3030461374
 10
6.931455101
 20
-31.0741798188
 10
6.9503034939
 20
-30.8418583441
 10
6.9688476979
 20
-30.6060654398
  0
LWPOLYLINE
  5
62C
100
AcDbEntity
  8
ASSI
100
AcDbPolyline
 62
250
  6
CONTINUOUS
 90
10
 70
0
 10
5.4949237564
 20
-33.7962148893
 10
5.4662713506
 20
-34.1104276701
 10
5.4359979385
 20
-34.4207384091
 10
5.4041065987
 20
-34.7271341631
 10
5.3707002654
 20
-35.0285157338
 10
5.3356875708
 20
-35.3259595215
 10
5.2987341449
 20
-35.6226947182
 10
5.2596770583
 20
-35.9197659639
 10
5.2185731134
 20
-36.2160605124
 10
5.1753707653
 20
-36.5115502669
  0
LINE
  5
62D
100
AcDbEntity
  8
ASSI
100
AcDbLine
 62
7
  6
CONTINUOUS
 10
10.004529312
 20
-7.48973478
 11
9.9918509222
 21
-7.62420119
  0
LWPOLYLINE
  5
62E
100
AcDbEntity
  8
ASSI
100
AcDbPolyline
 62
250
  6
CONTINUOUS
 90
7
 70
0
 10
6.6688494823
 20
-33.7464969525
 10
6.7009483588
 20
-33.4649786129
 10
6.7326297438
 20
-33.1776272596
 10
6.7638193752
 20
-32.8844020504
 10
6.7944417311
 20
-32.5852623514
 10
6.8244200324
 20
-32.2801677837
 10
6.8536762467
 20
-31.9690782705
  0
LWPOLYLINE
  5
62F
100
AcDbEntity
  8
ASSI
100
AcDbPolyline
 62
250
  6
CONTINUOUS
 90
16
 70
0
 10
5.1753707653
 20
-36.5115502669
 10
5.1084667751
 20
-36.9383113915
 10
5.0407058895
 20
-37.3440363013
 10
4.972446456
 20
-37.728943821
 10
4.905566689
 20
-38.085159581
 10
4.8390285527
 20
-38.4210179226
 10
4.7682603096
 20
-38.7607652918
 10
4.690762194
 20
-39.1147503937
 10
4.6084320783
 20
-39.4723573338
 10
4.5229306619
 20
-39.8262168239
 10
4.4334798185
 20
-40.1793023246
 10
4.3407512443
 20
-40.5286144907
 10
4.2492586425
 20
-40.8581195543
 10
4.1610110096
 20
-41.1626644727
 10
4.0749771678
 20
-41.4478027249
 10
3.9915568167
 20
-41.7137785403
  0
LWPOLYLINE
  5
630
100
AcDbEntity
  8
ASSI
100
AcDbPolyline
 62
250
  6
CONTINUOUS
 90
7
 70
0
 10
6.2910024808
 20
-36.4672422044
 10
6.3571508436
 20
-36.0522578375
 10
6.4224627357
 20
-35.6221476305
 10
6.4866205787
 20
-35.176713643
 10
6.549297152
 20
-34.7157582069
 10
6.6101556056
 20
-34.2390844687
 10
6.6688494823
 20
-33.7464969525
  0
LWPOLYLINE
  5
631
100
AcDbEntity
  8
RACCORDO
100
AcDbPolyline
 62
250
  6
CONTINUOUS
 90
3
 70
0
 10
9.9432199427
 20
-7.7920128245
 10
9.9633361143
 20
-7.6963195632
 10
9.9677906719
 20
-7.6112684295
  0
LINE
  5
632
100
AcDbEntity
  8
ASSI
100
AcDbLine
 62
250
  6
CONTINUOUS
 10
3.2544238226
 20
-27.9238703026
 11
3.3531523537
 21
-27.4526837388
  0
LINE
  5
633
100
AcDbEntity
  8
ASSI
100
AcDbLine
 62
250
  6
CONTINUOUS
 10
3.3531523537
 20
-27.4526837388
 11
3.3807543951
 21
-27.3240235877
  0
LINE
  5
634
100
AcDbEntity
  8
ASSI
100
AcDbLine
 62
250
  6
CONTINUOUS
 10
3.2408075584
 20
-27.9865074925
 11
3.2544238226
 21
-27.9238703026
  0
LINE
  5
635
100
AcDbEntity
  8
ASSI
100
AcDbLine
 62
250
  6
CONTINUOUS
 10
3.3807543951
 20
-27.3240235877
 11
3.3981889239
 21
-27.2446951431
  0
LINE
  5
636
100
AcDbEntity
  8
ASSI
100
AcDbLine
 62
250
  6
CONTINUOUS
 10
3.2259740789
 20
-28.0530270852
 11
3.2408075584
 21
-27.9865074925
  0
LINE
  5
637
100
AcDbEntity
  8
ASSI
100
AcDbLine
 62
250
  6
CONTINUOUS
 10
3.3981889239
 20
-27.2446951431
 11
3.4092828855
 21
-27.1953376279
  0
LINE
  5
638
100
AcDbEntity
  8
ASSI
100
AcDbLine
 62
250
  6
CONTINUOUS
 10
3.2101944715
 20
-28.122086021
 11
3.2259740789
 21
-28.0530270852
  0
LINE
  5
639
100
AcDbEntity
  8
ASSI
100
AcDbLine
 62
250
  6
CONTINUOUS
 10
3.4092828855
 20
-27.1953376279
 11
3.4194643512
 21
-27.1510000745
  0
LINE
  5
63A
100
AcDbEntity
  8
ASSI
100
AcDbLine
 62
250
  6
CONTINUOUS
 10
3.1936279778
 20
-28.192962081
 11
3.2101944715
 21
-28.122086021
  0
LINE
  5
63B
100
AcDbEntity
  8
ASSI
100
AcDbLine
 62
250
  6
CONTINUOUS
 10
3.4194643512
 20
-27.1510000745
 11
3.4264130107
 21
-27.1213809349
  0
LINE
  5
63C
100
AcDbEntity
  8
ASSI
100
AcDbLine
 62
250
  6
CONTINUOUS
 10
3.1760300014
 20
-28.2666751259
 11
3.1936279778
 21
-28.192962081
  0
LINE
  5
63D
100
AcDbEntity
  8
ASSI
100
AcDbLine
 62
250
  6
CONTINUOUS
 10
3.4264130107
 20
-27.1213809349
 11
3.4328092301
 21
-27.0946734708
  0
LINE
  5
63E
100
AcDbEntity
  8
ASSI
100
AcDbLine
 62
250
  6
CONTINUOUS
 10
3.4328092301
 20
-27.0946734708
 11
3.4369039059
 21
-27.0779232412
  0
LINE
  5
63F
100
AcDbEntity
  8
ASSI
100
AcDbLine
 62
250
  6
CONTINUOUS
 10
3.1560830566
 20
-28.3482760938
 11
3.1760300014
 21
-28.2666751259
  0
LINE
  5
640
100
AcDbEntity
  8
ASSI
100
AcDbLine
 62
250
  6
CONTINUOUS
 10
3.4369039059
 20
-27.0779232412
 11
3.4412682752
 21
-27.0603979699
  0
LINE
  5
641
100
AcDbEntity
  8
ASSI
100
AcDbLine
 62
250
  6
CONTINUOUS
 10
3.1343854737
 20
-28.4346623105
 11
3.1560830566
 21
-28.3482760938
  0
LINE
  5
642
100
AcDbEntity
  8
ASSI
100
AcDbLine
 62
250
  6
CONTINUOUS
 10
3.4412682752
 20
-27.0603979699
 11
3.4456203221
 21
-27.0432626432
  0
LINE
  5
643
100
AcDbEntity
  8
ASSI
100
AcDbLine
 62
250
  6
CONTINUOUS
 10
3.1111719442
 20
-28.524389966
 11
3.1343854737
 21
-28.4346623105
  0
LINE
  5
644
100
AcDbEntity
  8
ASSI
100
AcDbLine
 62
250
  6
CONTINUOUS
 10
3.4456203221
 20
-27.0432626432
 11
3.4498532587
 21
-27.0269497272
  0
LWPOLYLINE
  5
645
100
AcDbEntity
  8
ASSI
100
AcDbPolyline
 62
7
  6
CONTINUOUS
 90
8
 70
0
 10
3.5331095116
 20
-26.8642311121
 10
3.533528806
 20
-26.8626379186
 10
3.5340242577
 20
-26.8612560024
 10
3.5345630281
 20
-26.8599840166
 10
3.5350570398
 20
-26.8587587874
 10
3.5354215799
 20
-26.8574906672
 10
3.5356037316
 20
-26.8561050851
 10
3.5355964199
 20
-26.8551363059
  0
LINE
  5
646
100
AcDbEntity
  8
ASSI
100
AcDbLine
 62
7
  6
CONTINUOUS
 10
9.9918509222
 20
-7.62420119
 11
9.9542422987
 21
-7.7670486507
  0
LINE
  5
647
100
AcDbEntity
  8
ASSI
100
AcDbLine
 62
250
  6
CONTINUOUS
 10
3.4498532587
 20
-27.0269497272
 11
3.4537980096
 21
-27.0121135674
  0
LWPOLYLINE
  5
648
100
AcDbEntity
  8
ASSI
100
AcDbPolyline
 62
250
  6
CONTINUOUS
 90
7
 70
0
 10
3.5322075424
 20
-26.8786916587
 10
3.5326729047
 20
-26.8769531152
 10
3.5334062615
 20
-26.8760002118
 10
3.5338832837
 20
-26.8732795464
 10
3.5339655502
 20
-26.8691278872
 10
3.5337169434
 20
-26.8653176049
 10
3.5335877671
 20
-26.8643178754
  0
LINE
  5
649
100
AcDbEntity
  8
ASSI
100
AcDbLine
 62
250
  6
CONTINUOUS
 10
3.0873702306
 20
-28.6136749198
 11
3.1111719442
 21
-28.524389966
  0
LINE
  5
64A
100
AcDbEntity
  8
ASSI
100
AcDbLine
 62
250
  6
CONTINUOUS
 10
3.4537980096
 20
-27.0121135674
 11
3.4575215452
 21
-26.9984785176
  0
LINE
  5
64B
100
AcDbEntity
  8
ASSI
100
AcDbLine
 62
250
  6
CONTINUOUS
 10
3.4575215452
 20
-26.9984785176
 11
3.4610763974
 21
-26.9857752785
  0
LINE
  5
64C
100
AcDbEntity
  8
ASSI
100
AcDbLine
 62
250
  6
CONTINUOUS
 10
3.4610763974
 20
-26.9857752785
 11
3.4644434862
 21
-26.9740795146
  0
LWPOLYLINE
  5
64D
100
AcDbEntity
  8
ASSI
100
AcDbPolyline
 62
250
  6
CONTINUOUS
 90
3
 70
0
 10
3.4644434862
 20
-26.9740795146
 10
3.4676304554
 20
-26.9633292407
 10
3.4691572241
 20
-26.9583024638
  0
LWPOLYLINE
  5
64E
100
AcDbEntity
  8
ASSI
100
AcDbPolyline
 62
250
  6
CONTINUOUS
 90
25
 70
0
 10
3.4691572241
 20
-26.9583024638
 10
3.4720544474
 20
-26.9489718217
 10
3.473425004
 20
-26.9446681163
 10
3.4748676032
 20
-26.9402524749
 10
3.4764118428
 20
-26.9356240669
 10
3.4780282551
 20
-26.9308833505
 10
3.4797403654
 20
-26.9260118554
 10
3.4815978836
 20
-26.9208715554
 10
3.4835515051
 20
-26.9155998952
 10
3.4854762995
 20
-26.9105918585
 10
3.4873375912
 20
-26.9059677055
 10
3.4891705156
 20
-26.9016073708
 10
3.4909547671
 20
-26.8975457226
 10
3.4926827461
 20
-26.8938074652
 10
3.4943623316
 20
-26.8903681351
 10
3.4959963469
 20
-26.8871888972
 10
3.4975613468
 20
-26.8842905168
 10
3.4990808566
 20
-26.8816524478
 10
3.5006283274
 20
-26.8791737139
 10
3.5021790453
 20
-26.8768332546
 10
3.5037579399
 20
-26.8746518975
 10
3.5055136503
 20
-26.8725909073
 10
3.5074962758
 20
-26.8706366451
 10
3.5096566019
 20
-26.8688009565
 10
3.5119945143
 20
-26.8670826289
  0
LINE
  5
64F
100
AcDbEntity
  8
ASSI
100
AcDbLine
 62
250
  6
CONTINUOUS
 10
3.1770889338
 20
-27.534789304
 11
3.1163549812
 21
-27.7099304316
  0
LWPOLYLINE
  5
650
100
AcDbEntity
  8
ASSI
100
AcDbPolyline
 62
250
  6
CONTINUOUS
 90
3
 70
0
 10
3.1163549812
 20
-27.7099304316
 10
3.1051458221
 20
-27.7418641603
 10
3.093481053
 20
-27.7745476569
  0
LWPOLYLINE
  5
651
100
AcDbEntity
  8
ASSI
100
AcDbPolyline
 62
250
  6
CONTINUOUS
 90
3
 70
0
 10
3.2132494415
 20
-27.4329770062
 10
3.2045016085
 20
-27.4573873045
 10
3.1770889338
 20
-27.534789304
  0
LWPOLYLINE
  5
652
100
AcDbEntity
  8
ASSI
100
AcDbPolyline
 62
7
  6
CONTINUOUS
 90
26
 70
0
 10
9.9542422987
 20
-7.7670486507
 10
9.8925916959
 20
-7.9066790863
 10
9.8063514234
 20
-8.0430232357
 10
9.6960691715
 20
-8.17615036
 10
9.5642336336
 20
-8.3030539751
 10
9.4103562039
 20
-8.4235905459
 10
9.2349254881
 20
-8.5379036075
 10
9.0418959972
 20
-8.6434172816
 10
8.8308686491
 20
-8.739932027
 10
8.6022425259
 20
-8.8276473849
 10
8.3611693843
 20
-8.9045860997
 10
8.107362154
 20
-8.9705038687
 10
7.8411079055
 20
-9.0256449946
 10
7.5684196068
 20
-9.0687651309
 10
7.2891587355
 20
-9.0995904323
 10
7.003463814
 20
-9.118394744
 10
6.7177633777
 20
-9.1247552546
 10
6.432048927
 20
-9.1183893081
 10
6.1463289614
 20
-9.0995795604
 10
5.8670575149
 20
-9.0687511678
 10
5.5943885417
 20
-9.0256318601
 10
5.3281680875
 20
-8.9704939075
 10
5.0743883238
 20
-8.9045792767
 10
4.8350466409
 20
-8.8283019566
 10
4.6081456485
 20
-8.7412479582
 10
4.3936853465
 20
-8.6434172816
  0
LWPOLYLINE
  5
653
100
AcDbEntity
  8
0
100
AcDbPolyline
 62
7
  6
CONTINUOUS
 90
7
 70
0
 10
6.5564836784
 20
-10.9490330478
 10
6.5525849992
 20
-10.9573938297
 10
6.5486303509
 20
-10.9657423165
 10
6.544620116
 20
-10.9740775811
 10
6.540554683
 20
-10.9823986987
 10
6.5364344464
 20
-10.9907047467
 10
6.532259807
 20
-10.9989948046
  0
LWPOLYLINE
  5
654
100
AcDbEntity
  8
RACCORDO
100
AcDbPolyline
 62
250
  6
CONTINUOUS
 90
14
 70
0
 10
9.1256981288
 20
-8.4570737254
 10
9.3177879431
 20
-8.3248787787
 10
9.479837194
 20
-8.1850305471
 10
9.6108658199
 20
-8.0372792903
 10
9.7118538823
 20
-7.8818747486
 10
9.7795415471
 20
-7.7238329574
 10
9.8128419221
 20
-7.5630675464
 10
9.8128418996
 20
-7.3996648858
 10
9.7795423226
 20
-7.2389001213
 10
9.7118558502
 20
-7.0808615804
 10
9.6108698233
 20
-6.9254609356
 10
9.4798471076
 20
-6.7777083496
 10
9.3198753251
 20
-6.6392738769
 10
9.1298668537
 20
-6.508487463
  0
LWPOLYLINE
  5
655
100
AcDbEntity
  8
RACCORDO
100
AcDbPolyline
 62
250
  6
CONTINUOUS
 90
7
 70
0
 10
4.5257596502
 20
-8.5773801297
 10
4.5073468877
 20
-8.5885588742
 10
4.4894918208
 20
-8.6033442435
 10
4.4727369395
 20
-8.6212880168
 10
4.4575913744
 20
-8.6418460781
 10
4.4445159296
 20
-8.6643942108
 10
4.4436986984
 20
-8.6662319471
  0
LWPOLYLINE
  5
656
100
AcDbEntity
  8
0
100
AcDbPolyline
 62
7
  6
CONTINUOUS
 90
7
 70
0
 10
8.0259382171
 20
-5.1043494782
 10
8.2103785544
 20
-4.994884224
 10
8.3563907597
 20
-4.8786956772
 10
8.4639748329
 20
-4.755783838
 10
8.5338069985
 20
-4.6231478775
 10
8.5652110319
 20
-4.4837886246
 10
8.5677888038
 20
-4.4515902251
  0
LWPOLYLINE
  5
657
100
AcDbEntity
  8
0
100
AcDbPolyline
 62
7
  6
CONTINUOUS
 90
7
 70
0
 10
8.1143265647
 20
-5.1485436521
 10
8.287900655
 20
-5.0481467256
 10
8.4306093829
 20
-4.9413573733
 10
8.5424527486
 20
-4.8281755951
 10
8.6242784403
 20
-4.7064705825
 10
8.6752387698
 20
-4.5783731441
 10
8.6927906719
 20
-4.4502757056
  0
LWPOLYLINE
  5
658
100
AcDbEntity
  8
0
100
AcDbPolyline
 62
7
  6
CONTINUOUS
 90
7
 70
0
 10
8.1143265647
 20
-8.1796325653
 10
8.287900655
 20
-8.0792356388
 10
8.4306093829
 20
-7.9724462865
 10
8.5424527486
 20
-7.8592645083
 10
8.6242784403
 20
-7.7375594958
 10
8.6752387698
 20
-7.6094620573
 10
8.6927906719
 20
-7.4813646189
  0
LINE
  5
659
100
AcDbEntity
  8
ASSI
100
AcDbLine
 62
7
  6
CONTINUOUS
 10
-4.301231867
 20
-11.639495003
 11
-4.2800187651
 21
-11.628888452
  0
LINE
  5
65A
100
AcDbEntity
  8
ASSI
100
AcDbLine
 62
7
  6
CONTINUOUS
 10
-7.8169050603
 20
-13.5373363591
 11
-7.7956879834
 21
-13.5267278207
  0
LINE
  5
65B
100
AcDbEntity
  8
ASSI
100
AcDbLine
 62
7
  6
CONTINUOUS
 10
-6.6323499265
 20
-14.1471700187
 11
-6.6111353297
 21
-14.1365627203
  0
LINE
  5
65C
100
AcDbEntity
  8
ASSI
100
AcDbLine
 62
7
  6
CONTINUOUS
 10
-2.9237666465
 20
-12.3163627371
 11
-2.9025525875
 21
-12.3057557076
  0
LINE
  5
65D
100
AcDbEntity
  8
ASSI
100
AcDbLine
 62
7
  6
CONTINUOUS
 10
-2.3136554947
 20
-12.6124002511
 11
-2.2924403431
 21
-12.6017926753
  0
LINE
  5
65E
100
AcDbEntity
  8
ASSI
100
AcDbLine
 62
7
  6
CONTINUOUS
 10
-5.4711962914
 20
-14.7359022762
 11
-5.449982867
 21
-14.725295564
  0
LINE
  5
65F
100
AcDbEntity
  8
ASSI
100
AcDbLine
 62
7
  6
CONTINUOUS
 10
-0.9189072936
 20
-13.2806508705
 11
-0.8976879441
 21
-13.2700411957
  0
LINE
  5
660
100
AcDbEntity
  8
ASSI
100
AcDbLine
 62
7
  6
CONTINUOUS
 10
-2.9143893619
 20
-14.57851459
 11
-2.8931752895
 21
-14.5679075538
  0
LINE
  5
661
100
AcDbEntity
  8
ASSI
100
AcDbLine
 62
7
  6
CONTINUOUS
 10
-4.301231867
 20
-15.3202683799
 11
-4.2800187651
 21
-15.309661829
  0
LWPOLYLINE
  5
662
100
AcDbEntity
  8
0
100
AcDbPolyline
 62
7
  6
CONTINUOUS
 90
13
 70
0
 10
8.1143265647
 20
-8.1796325653
 10
7.9135327117
 20
-8.2664196104
 10
7.6999540071
 20
-8.3377739744
 10
7.4735904508
 20
-8.3936956572
 10
7.2301804256
 20
-8.4346085031
 10
6.9739855487
 20
-8.4600886679
 10
6.7177906719
 20
-8.4688646189
 10
6.461595795
 20
-8.4600886679
 10
6.2054009181
 20
-8.4346085031
 10
5.961990893
 20
-8.3936956572
 10
5.732014512
 20
-8.3365669683
 10
5.5148229827
 20
-8.2640055982
 10
5.321254779
 20
-8.1796325653
  0
LWPOLYLINE
  5
663
100
AcDbEntity
  8
ASSI
100
AcDbPolyline
 62
250
  6
CONTINUOUS
 90
16
 70
0
 10
-13.8066116494
 20
-15.4911193834
 10
-13.8496475932
 20
-15.5083804466
 10
-13.892050721
 20
-15.5301167288
 10
-13.9334790161
 20
-15.5561129211
 10
-13.9736146384
 20
-15.5861742015
 10
-14.0120861293
 20
-15.6200819387
 10
-14.0485023144
 20
-15.6575898222
 10
-14.0824765306
 20
-15.6983877942
 10
-14.1134174157
 20
-15.7418839281
 10
-14.1407315738
 20
-15.7872203153
 10
-14.1640728405
 20
-15.8336345666
 10
-14.1833122645
 20
-15.880683512
 10
-14.1983777933
 20
-15.9279522187
 10
-14.2092014517
 20
-15.9750354726
 10
-14.2157161299
 20
-16.0215705497
 10
-14.2178482217
 20
-16.067177996
  0
LWPOLYLINE
  5
664
100
AcDbEntity
  8
RACCORDO
100
AcDbPolyline
 62
250
  6
CONTINUOUS
 90
5
 70
0
 10
8.9098216936
 20
-6.385349108
 10
8.9282398641
 20
-6.3781135535
 10
8.9460984079
 20
-6.3750449092
 10
8.9628547021
 20
-6.3762364143
 10
8.9769037329
 20
-6.38108884
  0
LWPOLYLINE
  5
665
100
AcDbEntity
  8
ASSI
100
AcDbPolyline
 62
250
  6
CONTINUOUS
 90
9
 70
0
 10
14.6859997908
 20
-7.3613465582
 10
14.7273542591
 20
-7.3485090281
 10
14.768333381
 20
-7.3404667544
 10
14.8084890942
 20
-7.3373434831
 10
14.847411942
 20
-7.3392145866
 10
14.8846266778
 20
-7.3461023837
 10
14.9196158701
 20
-7.3579290071
 10
14.9519806866
 20
-7.3745506204
 10
14.9586874127
 20
-7.3787630176
  0
LWPOLYLINE
  5
666
100
AcDbEntity
  8
ASSI
100
AcDbPolyline
 62
7
  6
CONTINUOUS
 90
12
 70
0
 10
15.343609276
 20
-8.035177061
 10
15.3415667782
 20
-7.9815294724
 10
15.3321509721
 20
-7.9093078593
 10
15.3148664053
 20
-7.8371394008
 10
15.2894470019
 20
-7.7653386325
 10
15.2559155367
 20
-7.6949282182
 10
15.2147956499
 20
-7.6273099784
 10
15.1662356014
 20
-7.5627747267
 10
15.1104690782
 20
-7.5017643596
 10
15.0484432695
 20
-7.4453223286
 10
14.980516812
 20
-7.3935918888
 10
14.9586874127
 20
-7.3787630176
  0
LWPOLYLINE
  5
667
100
AcDbEntity
  8
ASSI
100
AcDbPolyline
 62
7
  6
CONTINUOUS
 90
9
 70
0
 10
15.7114844427
 20
-21.0511650938
 10
15.7114117319
 20
-21.0411696183
 10
15.7057968499
 20
-20.9621699149
 10
15.6910339058
 20
-20.883037372
 10
15.6668122994
 20
-20.8043048958
 10
15.6331091487
 20
-20.7272237154
 10
15.5904689192
 20
-20.6534564754
 10
15.5393337881
 20
-20.5837326682
 10
15.4742090752
 20
-20.5125057583
  0
LINE
  5
668
100
AcDbEntity
  8
0
100
AcDbLine
 62
7
  6
CONTINUOUS
 10
13.64033951
 20
-7.1704169348
 11
13.64033951
 21
-7.4867790484
  0
LINE
  5
669
100
AcDbEntity
  8
ASSI
100
AcDbLine
 62
7
  6
CONTINUOUS
 10
15.3436109813
 20
-8.0345836846
 11
15.3436109808
 21
-20.9024234078
  0
LINE
  5
66A
100
AcDbEntity
  8
ASSI
100
AcDbLine
 62
250
  6
CONTINUOUS
 10
15.0536383271
 20
-8.4401611002
 11
15.0533607592
 21
-21.4224606895
  0
LWPOLYLINE
  5
66B
100
AcDbEntity
  8
ASSI
100
AcDbPolyline
 62
250
  6
CONTINUOUS
 90
3
 70
0
 10
15.0533607592
 20
-21.4224606895
 10
15.0527149176
 20
-21.6549288021
 10
15.0525552073
 20
-21.6936160178
  0
LWPOLYLINE
  5
66C
100
AcDbEntity
  8
ASSI
100
AcDbPolyline
 62
250
  6
CONTINUOUS
 90
7
 70
0
 10
15.405308699
 20
-23.3583567305
 10
15.4142387014
 20
-23.0523114655
 10
15.4213922824
 20
-22.7419636276
 10
15.4267137522
 20
-22.4272934155
 10
15.4301467755
 20
-22.1082814863
 10
15.431634377
 20
-21.7849089843
 10
15.431118948
 20
-21.4571575687
  0
LWPOLYLINE
  5
66D
100
AcDbEntity
  8
ASSI
100
AcDbPolyline
 62
7
  6
CONTINUOUS
 90
3
 70
0
 10
15.3436109782
 20
-20.902672445
 10
15.3423638032
 20
-20.9441763031
 10
15.3368357222
 20
-21.0020474574
  0
LWPOLYLINE
  5
66E
100
AcDbEntity
  8
ASSI
100
AcDbPolyline
 62
250
  6
CONTINUOUS
 90
10
 70
0
 10
15.405308699
 20
-23.3583567305
 10
15.3988880174
 20
-23.5519133146
 10
15.3916332041
 20
-23.7452059184
 10
15.3835450245
 20
-23.9382325656
 10
15.3745922007
 20
-24.1310197359
 10
15.3648074865
 20
-24.3235370246
 10
15.3542879337
 20
-24.5156971006
 10
15.3430666719
 20
-24.707469517
 10
15.3311126423
 20
-24.8988807525
 10
15.3184268599
 20
-25.089928843
  0
LWPOLYLINE
  5
66F
100
AcDbEntity
  8
ASSI
100
AcDbPolyline
 62
250
  6
CONTINUOUS
 90
8
 70
0
 10
14.8447440653
 20
-7.6268059006
 10
14.8369254232
 20
-7.6616695366
 10
14.8227913413
 20
-7.6958273916
 10
14.8025162734
 20
-7.7293234627
 10
14.7768497832
 20
-7.7613885353
 10
14.7460417252
 20
-7.7917662047
 10
14.7098422448
 20
-7.8207128756
 10
14.6682513421
 20
-7.8482285481
  0
LWPOLYLINE
  5
670
100
AcDbEntity
  8
ASSI
100
AcDbPolyline
 62
250
  6
CONTINUOUS
 90
10
 70
0
 10
5.0506484242
 20
-41.8033108839
 10
5.0483134824
 20
-41.8130657907
 10
5.0456541687
 20
-41.8229498096
 10
5.0426704987
 20
-41.8329629292
 10
5.0391502388
 20
-41.8431835516
 10
5.0353056388
 20
-41.8535332205
 10
5.0317734186
 20
-41.8637766741
 10
5.028765795
 20
-41.8738355142
 10
5.0260704951
 20
-41.8837881526
 10
5.0236874827
 20
-41.8936345805
  0
LWPOLYLINE
  5
671
100
AcDbEntity
  8
ASSI
100
AcDbPolyline
 62
250
  6
CONTINUOUS
 90
10
 70
0
 10
3.9920955663
 20
-41.7144655297
 10
3.9883965916
 20
-41.7269116425
 10
3.9850404175
 20
-41.7377070657
 10
3.9820241637
 20
-41.7468479676
 10
3.9798693367
 20
-41.7530874974
 10
3.9780602056
 20
-41.757675016
 10
3.9750297599
 20
-41.7643455113
 10
3.9702370646
 20
-41.7743292428
 10
3.964175541
 20
-41.7863574336
 10
3.9568002415
 20
-41.8003928694
  0
LINE
  5
672
100
AcDbEntity
  8
0
100
AcDbLine
 62
7
  6
CONTINUOUS
 10
13.6261396629
 20
-7.2134987145
 11
13.64033951
 21
-7.1704169348
  0
LINE
  5
673
100
AcDbEntity
  8
ASSI
100
AcDbLine
 62
250
  6
CONTINUOUS
 10
3.2302358003
 20
-27.3860516711
 11
3.2132494415
 21
-27.4329770062
  0
LINE
  5
674
100
AcDbEntity
  8
ASSI
100
AcDbLine
 62
250
  6
CONTINUOUS
 10
3.093481053
 20
-27.7745476569
 11
3.0689588127
 21
-27.8422628634
  0
LINE
  5
675
100
AcDbEntity
  8
ASSI
100
AcDbLine
 62
250
  6
CONTINUOUS
 10
3.246568891
 20
-27.341576071
 11
3.2302358003
 21
-27.3860516711
  0
LINE
  5
676
100
AcDbEntity
  8
ASSI
100
AcDbLine
 62
250
  6
CONTINUOUS
 10
3.0689588127
 20
-27.8422628634
 11
2.9715772089
 21
-28.1063359279
  0
LINE
  5
677
100
AcDbEntity
  8
ASSI
100
AcDbLine
 62
250
  6
CONTINUOUS
 10
3.2623447278
 20
-27.2992829854
 11
3.246568891
 21
-27.341576071
  0
LINE
  5
678
100
AcDbEntity
  8
ASSI
100
AcDbLine
 62
250
  6
CONTINUOUS
 10
2.9715772089
 20
-28.1063359279
 11
2.9238199685
 21
-28.2336805927
  0
LINE
  5
679
100
AcDbEntity
  8
ASSI
100
AcDbLine
 62
250
  6
CONTINUOUS
 10
3.2775712491
 20
-27.2591168785
 11
3.2623447278
 21
-27.2992829854
  0
LINE
  5
67A
100
AcDbEntity
  8
ASSI
100
AcDbLine
 62
250
  6
CONTINUOUS
 10
2.9238199685
 20
-28.2336805927
 11
2.8895962664
 21
-28.3234480532
  0
LINE
  5
67B
100
AcDbEntity
  8
ASSI
100
AcDbLine
 62
250
  6
CONTINUOUS
 10
3.2922596686
 20
-27.2210284628
 11
3.2775712491
 21
-27.2591168785
  0
LINE
  5
67C
100
AcDbEntity
  8
ASSI
100
AcDbLine
 62
250
  6
CONTINUOUS
 10
2.8895962664
 20
-28.3234480532
 11
2.853179584
 21
-28.4174421942
  0
LINE
  5
67D
100
AcDbEntity
  8
ASSI
100
AcDbLine
 62
250
  6
CONTINUOUS
 10
3.3064141796
 20
-27.1849757723
 11
3.2922596686
 21
-27.2210284628
  0
LWPOLYLINE
  5
67E
100
AcDbEntity
  8
ASSI
100
AcDbPolyline
 62
250
  6
CONTINUOUS
 90
3
 70
0
 10
2.853179584
 20
-28.4174421942
 10
2.8142695275
 20
-28.5158973715
 10
2.7938460105
 20
-28.5668266948
  0
LINE
  5
67F
100
AcDbEntity
  8
ASSI
100
AcDbLine
 62
250
  6
CONTINUOUS
 10
3.3201112171
 20
-27.1507740634
 11
3.3064141796
 21
-27.1849757723
  0
LWPOLYLINE
  5
680
100
AcDbEntity
  8
ASSI
100
AcDbPolyline
 62
250
  6
CONTINUOUS
 90
25
 70
0
 10
2.7938460105
 20
-28.5668266948
 10
2.7509024792
 20
-28.6718589568
 10
2.7283871001
 20
-28.7259589722
 10
2.7050705945
 20
-28.7811825364
 10
2.6809854711
 20
-28.8374705428
 10
2.6561046468
 20
-28.8948786426
 10
2.6302379674
 20
-28.953634575
 10
2.603394584
 20
-29.0137443047
 10
2.5755725664
 20
-29.0751972438
 10
2.5465666551
 20
-29.1381953483
 10
2.5163278391
 20
-29.2028694794
 10
2.4849145837
 20
-29.2690827092
 10
2.452283638
 20
-29.336634812
 10
2.4185024345
 20
-29.4054301389
 10
2.3835130375
 20
-29.4755582618
 10
2.3470849737
 20
-29.547096288
 10
2.3093074764
 20
-29.6199764571
 10
2.2701030717
 20
-29.6942591815
 10
2.2289941128
 20
-29.7702120879
 10
2.1859798902
 20
-29.8479452575
 10
2.1410782845
 20
-29.927338349
 10
2.0938433171
 20
-30.0083112166
 10
2.0441343924
 20
-30.0908326973
 10
1.9921147143
 20
-30.1749216452
 10
1.9377962015
 20
-30.2605720911
  0
LWPOLYLINE
  5
681
100
AcDbEntity
  8
ASSI
100
AcDbPolyline
 62
250
  6
CONTINUOUS
 90
46
 70
0
 10
2.2320886351
 20
-30.7765474817
 10
1.9949406273
 20
-31.2449414204
 10
1.7339909558
 20
-31.6887504864
 10
1.4507924821
 20
-32.1066674376
 10
1.1467435491
 20
-32.4978775411
 10
0.8233045016
 20
-32.8611410997
 10
0.4821491909
 20
-33.1946868923
 10
0.1249168055
 20
-33.4974651863
 10
-0.2471294265
 20
-33.7691036471
 10
-0.6328197865
 20
-34.0088998512
 10
-1.0307350529
 20
-34.2162449515
 10
-1.4395152946
 20
-34.390731087
 10
-1.8580687008
 20
-34.5320355689
 10
-2.2849143895
 20
-34.6399316735
 10
-2.7187015164
 20
-34.7143055529
 10
-3.1585582372
 20
-34.7549817027
 10
-3.6032187252
 20
-34.7619368494
 10
-4.0513348299
 20
-34.735332201
 10
-4.5019722025
 20
-34.675238375
 10
-4.9538804908
 20
-34.5816370366
 10
-5.4056602736
 20
-34.4549303053
 10
-5.8561601554
 20
-34.2957738116
 10
-6.304017247
 20
-34.1047883903
 10
-6.747951345
 20
-33.8824623624
 10
-7.1869542132
 20
-33.6293172882
 10
-7.6197176957
 20
-33.3462006033
 10
-8.0448169234
 20
-33.0339269025
 10
-8.4609957714
 20
-32.6930498396
 10
-8.8668967156
 20
-32.3245593237
 10
-9.2615422946
 20
-31.9296010949
 10
-9.6442378468
 20
-31.5088882168
 10
-10.0138198387
 20
-31.0635030182
 10
-10.3692675026
 20
-30.5946155565
 10
-10.710059599
 20
-30.1030619383
 10
-11.0351459438
 20
-29.5901563588
 10
-11.34346393
 20
-29.0573723273
 10
-11.6345070033
 20
-28.5057361772
 10
-11.9075096326
 20
-27.9365991754
 10
-12.1616901485
 20
-27.3517290288
 10
-12.3966709766
 20
-26.7527882915
 10
-12.6118582959
 20
-26.141130462
 10
-12.8067715797
 20
-25.5188291418
 10
-12.9813550373
 20
-24.8886113051
 10
-13.1354199127
 20
-24.2525809776
 10
-13.2686992895
 20
-23.612364194
 10
-13.3812167253
 20
-22.9700348386
  0
LWPOLYLINE
  5
682
100
AcDbEntity
  8
ASSI
100
AcDbPolyline
 62
250
  6
CONTINUOUS
 90
14
 70
0
 10
3.405897919
 20
-26.959391887
 10
3.4001843373
 20
-26.9704435343
 10
3.3944192149
 20
-26.9818874792
 10
3.3886026604
 20
-26.9937236516
 10
3.3827398598
 20
-27.0059481092
 10
3.3768258474
 20
-27.0185646525
 10
3.3708455218
 20
-27.0315848131
 10
3.3648003219
 20
-27.0450062774
 10
3.3586890756
 20
-27.0588311875
 10
3.352492805
 20
-27.0730777321
 10
3.3462121758
 20
-27.0877439963
 10
3.3398468465
 20
-27.1028316872
 10
3.3333763766
 20
-27.1183643953
 10
3.3201112171
 20
-27.1507740634
  0
LINE
  5
683
100
AcDbEntity
  8
ASSI
100
AcDbLine
 62
7
  6
CONTINUOUS
 10
-4.6281355252
 20
-29.0451534803
 11
-4.4608931048
 21
-28.8332422584
  0
LWPOLYLINE
  5
684
100
AcDbEntity
  8
0
100
AcDbPolyline
 62
7
  6
CONTINUOUS
 90
8
 70
0
 10
13.471303607
 20
-7.4818346124
 10
13.4981532586
 20
-7.4494088604
 10
13.5237687055
 20
-7.4144755432
 10
13.5478996507
 20
-7.3773627617
 10
13.5703462554
 20
-7.3383517829
 10
13.5909788606
 20
-7.2978071891
 10
13.609638873
 20
-7.2560788831
 10
13.6261396629
 20
-7.2134987145
  0
LWPOLYLINE
  5
685
100
AcDbEntity
  8
0
100
AcDbPolyline
 62
7
  6
CONTINUOUS
 90
3
 70
0
 10
13.4148764656
 20
-7.5377374993
 10
13.4434574546
 20
-7.5113649859
 10
13.471303607
 20
-7.4818346124
  0
LWPOLYLINE
  5
686
100
AcDbEntity
  8
ASSI
100
AcDbPolyline
 62
7
  6
CONTINUOUS
 90
29
 70
0
 10
1.247600983
 20
-16.1786654304
 10
1.2997972084
 20
-16.1318895348
 10
1.3468251391
 20
-16.0778465069
 10
1.3883757388
 20
-16.0169013796
 10
1.4241273914
 20
-15.9494921497
 10
1.4538359341
 20
-15.8760825574
 10
1.4773093315
 20
-15.7971733208
 10
1.4943644205
 20
-15.713321388
 10
1.5048803607
 20
-15.625108143
 10
1.5087944487
 20
-15.5331386201
 10
1.5060761414
 20
-15.4380520639
 10
1.4967360514
 20
-15.34050984
 10
1.4808439498
 20
-15.2411848452
 10
1.4585245806
 20
-15.1407606112
 10
1.4299204424
 20
-15.0399384738
 10
1.3952291318
 20
-14.9394160071
 10
1.3547214198
 20
-14.8398763823
 10
1.3086634223
 20
-14.7420168406
 10
1.2573670366
 20
-14.6465157729
 10
1.2012269819
 20
-14.5540115368
 10
1.1406153723
 20
-14.4651526596
 10
1.0759384464
 20
-14.3805579905
 10
1.0076858284
 20
-14.3007850412
 10
0.9363119871
 20
-14.2263942473
 10
0.8622925857
 20
-14.1579077547
 10
0.7861793745
 20
-14.0957723569
 10
0.708499076
 20
-14.0404162017
 10
0.6297503831
 20
-13.9922444161
 10
0.5504589325
 20
-13.9516006572
  0
LWPOLYLINE
  5
687
100
AcDbEntity
  8
ASSI
100
AcDbPolyline
 62
7
  6
CONTINUOUS
 90
4
 70
0
 10
-7.2906872979
 20
-23.2549396019
 10
-7.1905588169
 20
-23.1698729791
 10
-7.0795771575
 20
-23.1002434879
 10
-7.0611141672
 20
-23.0907412667
  0
LWPOLYLINE
  5
688
100
AcDbEntity
  8
ASSI
100
AcDbPolyline
 62
7
  6
CONTINUOUS
 90
37
 70
0
 10
-7.0561561668
 20
-23.3954630665
 10
-7.110362425
 20
-23.4384822929
 10
-7.1614470362
 20
-23.4864354392
 10
-7.2092712035
 20
-23.5391939096
 10
-7.2536968488
 20
-23.5966124544
 10
-7.2946102422
 20
-23.6585414287
 10
-7.3319222373
 20
-23.7248273026
 10
-7.3655301995
 20
-23.7952933462
 10
-7.3953404374
 20
-23.8697515076
 10
-7.4212915601
 20
-23.9480149855
 10
-7.4433110616
 20
-24.0298759982
 10
-7.4613351418
 20
-24.1151162547
 10
-7.4753308124
 20
-24.2035191733
 10
-7.4852573237
 20
-24.2948506901
 10
-7.4910824579
 20
-24.3888673764
 10
-7.4928021676
 20
-24.4853270985
 10
-7.4904084465
 20
-24.5839744311
 10
-7.483901693
 20
-24.684546976
 10
-7.4733069779
 20
-24.7867835231
 10
-7.4586492244
 20
-24.8904132743
 10
-7.4399614479
 20
-24.995161207
 10
-7.4172970967
 20
-25.1007543783
 10
-7.3907131526
 20
-25.2069135698
 10
-7.3602744568
 20
-25.3133571979
 10
-7.3260617826
 20
-25.4198066779
 10
-7.2881625773
 20
-25.5259811276
 10
-7.2466721244
 20
-25.6315988087
 10
-7.2016976321
 20
-25.736381053
 10
-7.1533552578
 20
-25.8400511505
 10
-7.1017684165
 20
-25.9423346177
 10
-7.047068713
 20
-26.0429606127
 10
-6.9893980424
 20
-26.1416635403
 10
-6.9289052213
 20
-26.2381822262
 10
-6.8657441894
 20
-26.3322601372
 10
-6.8000780861
 20
-26.423648254
 10
-6.7320788171
 20
-26.5121057236
 10
-6.66192359
 20
-26.5973989608
  0
LWPOLYLINE
  5
689
100
AcDbEntity
  8
ASSI
100
AcDbPolyline
 62
250
  6
CONTINUOUS
 90
16
 70
0
 10
6.3824045208
 20
-11.5131441932
 10
6.3512994583
 20
-11.5365364285
 10
6.3204849558
 20
-11.564390967
 10
6.2902980093
 20
-11.5964390255
 10
6.2610465518
 20
-11.6323972817
 10
6.2330878143
 20
-11.6718718154
 10
6.2068105062
 20
-11.714331689
 10
6.1825142271
 20
-11.7592838501
 10
6.1604492765
 20
-11.8062554237
 10
6.1408769246
 20
-11.8546727311
 10
6.1239924266
 20
-11.9040257177
 10
6.1099783545
 20
-11.953749545
 10
6.0989996291
 20
-12.0031716066
 10
6.0911430005
 20
-12.0517203582
 10
6.0864430012
 20
-12.0989322583
 10
6.0849104192
 20
-12.1443244369
  0
LWPOLYLINE
  5
68A
100
AcDbEntity
  8
0
100
AcDbPolyline
 62
7
  6
CONTINUOUS
 90
3
 70
0
 10
13.356600898
 20
-7.5803619266
 10
13.3858336986
 20
-7.5607931614
 10
13.4148764656
 20
-7.5377374993
  0
LWPOLYLINE
  5
68B
100
AcDbEntity
  8
ASSI
100
AcDbPolyline
 62
250
  6
CONTINUOUS
 90
9
 70
0
 10
15.0536387861
 20
-8.4401598471
 10
15.1214615945
 20
-8.3948733177
 10
15.1811702559
 20
-8.3466170745
 10
15.2322211742
 20
-8.2957437041
 10
15.2741498703
 20
-8.2426082851
 10
15.3065093596
 20
-8.1876357577
 10
15.3289251362
 20
-8.1313254639
 10
15.341177949
 20
-8.0740640017
 10
15.343609276
 20
-8.035177061
  0
LWPOLYLINE
  5
68C
100
AcDbEntity
  8
ASSI
100
AcDbPolyline
 62
7
  6
CONTINUOUS
 90
22
 70
0
 10
0.6842064213
 20
-15.5101128415
 10
0.7195859265
 20
-15.4877223188
 10
0.7479857554
 20
-15.4611038238
 10
0.7722696568
 20
-15.4289627146
 10
0.7921180026
 20
-15.3917346648
 10
0.8072812247
 20
-15.3499186299
 10
0.8175511387
 20
-15.3040226912
 10
0.8227713477
 20
-15.2545949365
 10
0.8228491402
 20
-15.2023435326
 10
0.8177814139
 20
-15.1480913099
 10
0.8076520416
 20
-15.092639933
 10
0.7926137978
 20
-15.0366917086
 10
0.7728877092
 20
-14.9809579165
 10
0.7487464212
 20
-14.9262343442
 10
0.720502538
 20
-14.8732244908
 10
0.6884832427
 20
-14.8224966102
 10
0.6529820389
 20
-14.7746446634
 10
0.6145323255
 20
-14.7304906075
 10
0.5739048516
 20
-14.6908475974
 10
0.531748766
 20
-14.6562723224
 10
0.4885393103
 20
-14.6271313605
 10
0.4448459746
 20
-14.6037764312
  0
LWPOLYLINE
  5
68D
100
AcDbEntity
  8
ASSI
100
AcDbPolyline
 62
250
  6
CONTINUOUS
 90
10
 70
0
 10
-12.1938579735
 20
-25.5166465093
 10
-12.1428342995
 20
-25.4854489871
 10
-12.0938521649
 20
-25.4549273167
 10
-12.0470776638
 20
-25.4251876544
 10
-12.0026777837
 20
-25.3963367434
 10
-11.9608174946
 20
-25.3684802238
 10
-11.9216582176
 20
-25.3417257642
 10
-11.8853613842
 20
-25.3161854339
 10
-11.852089969
 20
-25.2919725702
 10
-11.8220061513
 20
-25.2691999752
  0
LINE
  5
68E
100
AcDbEntity
  8
ASSI
100
AcDbLine
 62
7
  6
CONTINUOUS
 10
13.7056573434
 20
-7.447685731
 11
13.3495795121
 21
-7.6608015518
  0
LWPOLYLINE
  5
68F
100
AcDbEntity
  8
ASSI
100
AcDbPolyline
 62
7
  6
CONTINUOUS
 90
10
 70
0
 10
15.0536383271
 20
-8.4401611002
 10
14.6858583076
 20
-8.6601057525
 10
14.3129032721
 20
-8.877896652
 10
13.934823551
 20
-9.0935039668
 10
13.5516660603
 20
-9.3068998091
 10
13.1634864934
 20
-9.5180532431
 10
12.7703498457
 20
-9.7269305284
 10
12.3723138846
 20
-9.9335016788
 10
11.9694286103
 20
-10.1377402273
 10
11.5617488194
 20
-10.3396184005
  0
LWPOLYLINE
  5
690
100
AcDbEntity
  8
ASSI
100
AcDbPolyline
 62
250
  6
CONTINUOUS
 90
10
 70
0
 10
14.6682513421
 20
-7.8482285481
 10
14.3042026885
 20
-8.065903027
 10
13.9350718225
 20
-8.281419817
 10
13.5608587441
 20
-8.494778918
 10
13.1815858497
 20
-8.7059722821
 10
12.7972307429
 20
-8.9150079572
 10
12.4077262341
 20
-9.1219100875
 10
12.0130499269
 20
-9.3266867211
 10
11.6132242177
 20
-9.5293298098
 10
11.2082491065
 20
-9.7298393537
  0
LINE
  5
691
100
AcDbEntity
  8
ASSI
100
AcDbLine
 62
7
  6
CONTINUOUS
 10
12.7021417437
 20
-7.9678282273
 11
13.356600898
 21
-7.5803619266
  0
LWPOLYLINE
  5
692
100
AcDbEntity
  8
ASSI
100
AcDbPolyline
 62
7
  6
CONTINUOUS
 90
29
 70
0
 10
-7.2728806191
 20
-22.6644627502
 10
-7.3946826564
 20
-22.7358874626
 10
-7.521399138
 20
-22.8365786594
 10
-7.6349224263
 20
-22.9573729344
 10
-7.7344763614
 20
-23.0973588594
 10
-7.819217516
 20
-23.2553786584
 10
-7.8884129392
 20
-23.4301238044
 10
-7.9416353584
 20
-23.6202318985
 10
-7.9784312304
 20
-23.8241426338
 10
-7.9984497361
 20
-24.0401656965
 10
-8.0016235037
 20
-24.2665733295
 10
-7.9879190357
 20
-24.501505204
 10
-7.9573998529
 20
-24.7430259965
 10
-7.9103535266
 20
-24.989193239
 10
-7.8471590205
 20
-25.2379965214
 10
-7.7682876541
 20
-25.4873897499
 10
-7.6743610753
 20
-25.735348211
 10
-7.5661368423
 20
-25.9798523675
 10
-7.4444638609
 20
-26.2188953027
 10
-7.3102739222
 20
-26.4505144248
 10
-7.1646492653
 20
-26.6728200153
 10
-7.0087569153
 20
-26.8839939914
 10
-6.8437953174
 20
-27.082293337
 10
-6.6710939639
 20
-27.2660948034
 10
-6.4920539663
 20
-27.4338990051
 10
-6.3080761631
 20
-27.5843211723
 10
-6.1206365791
 20
-27.7161237817
 10
-5.9312753041
 20
-27.8282296275
 10
-5.7415334769
 20
-27.9197179619
  0
LINE
  5
693
100
AcDbEntity
  8
ASSI
100
AcDbLine
 62
7
  6
CONTINUOUS
 10
13.3495795121
 20
-7.6608015518
 11
12.9885460666
 21
-7.8717733951
  0
LWPOLYLINE
  5
694
100
AcDbEntity
  8
ASSI
100
AcDbPolyline
 62
7
  6
CONTINUOUS
 90
8
 70
0
 10
12.9885460666
 20
-7.8717733951
 10
12.6225570067
 20
-8.080601261
 10
12.2515574988
 20
-8.2873152423
 10
11.8756023767
 20
-8.4918852461
 10
11.4948561413
 20
-8.6942209944
 10
11.1093736261
 20
-8.8942923946
 10
10.7190999977
 20
-9.0921295392
 10
10.3240352559
 20
-9.2877324284
  0
LWPOLYLINE
  5
695
100
AcDbEntity
  8
0
100
AcDbPolyline
 62
7
  6
CONTINUOUS
 90
7
 70
0
 10
6.0026431132
 20
-11.2689720128
 10
6.0299335996
 20
-11.253899034
 10
6.0572685537
 20
-11.2364638242
 10
6.0844880676
 20
-11.2167674975
 10
6.1114338347
 20
-11.1949254072
 10
6.1379500935
 20
-11.1710665033
 10
6.16388456
 20
-11.145332607
  0
LINE
  5
696
100
AcDbEntity
  8
ASSI
100
AcDbLine
 62
7
  6
CONTINUOUS
 10
6.4856546522
 20
-11.0227522567
 11
6.532259807
 21
-10.9989948046
  0
LINE
  5
697
100
AcDbEntity
  8
ASSI
100
AcDbLine
 62
7
  6
CONTINUOUS
 10
9.9243348798
 20
-9.4895120982
 11
10.3240352559
 21
-9.2877324284
  0
LINE
  5
698
100
AcDbEntity
  8
ASSI
100
AcDbLine
 62
7
  6
CONTINUOUS
 10
-3.29193712
 20
-15.8173818368
 11
-3.2707235084
 21
-15.8067750309
  0
LINE
  5
699
100
AcDbEntity
  8
ASSI
100
AcDbLine
 62
7
  6
CONTINUOUS
 10
0.52923304
 20
-13.9622136034
 11
0.5504589311
 21
-13.9516006579
  0
LINE
  5
69A
100
AcDbEntity
  8
0
100
AcDbLine
 62
7
  6
CONTINUOUS
 10
6.5564836784
 20
-10.9490330478
 11
6.16388456
 21
-11.145332607
  0
LINE
  5
69B
100
AcDbEntity
  8
0
100
AcDbLine
 62
7
  6
CONTINUOUS
 10
13.6531275297
 20
-7.4007111222
 11
14.0457266481
 21
-7.2044115629
  0
LWPOLYLINE
  5
69C
100
AcDbEntity
  8
ASSI
100
AcDbPolyline
 62
7
  6
CONTINUOUS
 90
5
 70
0
 10
9.9283268536
 20
-9.4450906933
 10
10.6452407004
 20
-9.086633797
 10
11.3466201034
 20
-8.7208849367
 10
12.0321481455
 20
-8.348002564
 10
12.7021417437
 20
-7.9678282273
  0
LINE
  5
69D
100
AcDbEntity
  8
ASSI
100
AcDbLine
 62
7
  6
CONTINUOUS
 10
-0.3097477398
 20
-15.1454897263
 11
-0.2885258654
 21
-15.1348787891
  0
LINE
  5
69E
100
AcDbEntity
  8
ASSI
100
AcDbLine
 62
7
  6
CONTINUOUS
 10
0.4435577862
 20
-15.4988678151
 11
0.4647832446
 21
-15.4882550859
  0
LINE
  5
69F
100
AcDbEntity
  8
ASSI
100
AcDbLine
 62
7
  6
CONTINUOUS
 10
-1.3294022956
 20
-16.7659751755
 11
-1.3081844221
 21
-16.7553662387
  0
LINE
  5
6A0
100
AcDbEntity
  8
ASSI
100
AcDbLine
 62
7
  6
CONTINUOUS
 10
1.1354228478
 20
-16.2470263927
 11
1.1566519128
 21
-16.2364118602
  0
LINE
  5
6A1
100
AcDbEntity
  8
ASSI
100
AcDbLine
 62
7
  6
CONTINUOUS
 10
-0.3012154847
 20
-17.2536503786
 11
-0.2799935724
 21
-17.2430394224
  0
LINE
  5
6A2
100
AcDbEntity
  8
ASSI
100
AcDbLine
 62
7
  6
CONTINUOUS
 10
13.7414464541
 20
-7.3950974751
 11
13.6702676487
 21
-7.4299908837
  0
LWPOLYLINE
  5
6A3
100
AcDbEntity
  8
ASSI
100
AcDbPolyline
 62
7
  6
CONTINUOUS
 90
5
 70
0
 10
1.1354145393
 20
-16.2470305469
 10
1.1080267781
 20
-16.2597580385
 10
1.042668358
 20
-16.282989048
 10
0.9737722845
 20
-16.297978046
 10
0.901798033
 20
-16.3046301433
  0
LWPOLYLINE
  5
6A4
100
AcDbEntity
  8
ASSI
100
AcDbPolyline
 62
7
  6
CONTINUOUS
 90
5
 70
0
 10
6.9157852872
 20
-10.8007697319
 10
7.690716989
 20
-10.473540564
 10
8.4510649979
 20
-10.1385440768
 10
9.1968293137
 20
-9.7957802705
 10
9.9283268536
 20
-9.4450906933
  0
LWPOLYLINE
  5
6A5
100
AcDbEntity
  8
ASSI
100
AcDbPolyline
 62
250
  6
CONTINUOUS
 90
10
 70
0
 10
7.3669902546
 20
-11.4988590918
 10
7.8109756309
 20
-11.3125165558
 10
8.2506539139
 20
-11.1236287712
 10
8.6860251037
 20
-10.9321957382
 10
9.1170726883
 20
-10.7382288628
 10
9.5438131797
 20
-10.5417167388
 10
9.9662961136
 20
-10.3426251478
 10
10.3845380021
 20
-10.1409426835
 10
10.798522333
 20
-9.9366807521
 10
11.2082491065
 20
-9.7298393537
  0
LWPOLYLINE
  5
6A6
100
AcDbEntity
  8
ASSI
100
AcDbPolyline
 62
7
  6
CONTINUOUS
 90
10
 70
0
 10
7.6848600535
 20
-12.124550237
 10
8.1333895686
 20
-11.936340122
 10
8.5776184558
 20
-11.7455390602
 10
9.0174870513
 20
-11.5521722167
 10
9.452940888
 20
-11.3562623953
 10
9.8839167858
 20
-11.1578380969
 10
10.3103433386
 20
-10.9569337819
 10
10.7321592659
 20
-10.7535789881
 10
11.1493129417
 20
-10.5477980616
 10
11.5617488194
 20
-10.3396184005
  0
LWPOLYLINE
  5
6A7
100
AcDbEntity
  8
ASSI
100
AcDbPolyline
 62
7
  6
CONTINUOUS
 90
9
 70
0
 10
6.5676495017
 20
-11.0166896519
 10
7.0023329472
 20
-10.8344248342
 10
7.4327356511
 20
-10.6496786028
 10
7.8588576134
 20
-10.4624509577
 10
8.280760262
 20
-10.2727138607
 10
8.698382169
 20
-10.0804953499
 10
9.1115390503
 20
-9.8858795399
 10
9.5201694779
 20
-9.6888944687
 10
9.9243348798
 20
-9.4895120982
  0
LWPOLYLINE
  5
6A8
100
AcDbEntity
  8
ASSI
100
AcDbPolyline
 62
250
  6
CONTINUOUS
 90
16
 70
0
 10
7.6848604266
 20
-12.1245490268
 10
7.5932203932
 20
-12.1589939184
 10
7.4956731414
 20
-12.1893656317
 10
7.3929238447
 20
-12.2153923689
 10
7.2856745878
 20
-12.2368459263
 10
7.1747833236
 20
-12.2534987756
 10
7.061272952
 20
-12.265151556
 10
6.9459185621
 20
-12.2716936952
 10
6.8297448096
 20
-12.2730390081
 10
6.7141956065
 20
-12.2691761673
 10
6.6002994627
 20
-12.2601940814
 10
6.4888199184
 20
-12.2462092689
 10
6.3807578133
 20
-12.227400721
 10
6.2769570157
 20
-12.2039881632
 10
6.1781110415
 20
-12.1762063575
 10
6.0849101935
 20
-12.1443245858
  0
LWPOLYLINE
  5
6A9
100
AcDbEntity
  8
ASSI
100
AcDbPolyline
 62
7
  6
CONTINUOUS
 90
8
 70
0
 10
15.6941178051
 20
-22.6737664035
 10
15.6995911186
 20
-22.4444265632
 10
15.7040289261
 20
-22.2067184269
 10
15.7074052965
 20
-21.9607974172
 10
15.709766084
 20
-21.7071225831
 10
15.7111701507
 20
-21.4457054388
 10
15.7115320871
 20
-21.1762075813
 10
15.7113400783
 20
-21.0506221903
  0
LINE
  5
6AA
100
AcDbEntity
  8
ASSI
100
AcDbLine
 62
7
  6
CONTINUOUS
 10
15.6859250002
 20
-22.9500738714
 11
15.6941178051
 21
-22.6737664035
  0
LWPOLYLINE
  5
6AB
100
AcDbEntity
  8
ASSI
100
AcDbPolyline
 62
250
  6
CONTINUOUS
 90
10
 70
0
 10
15.7114844427
 20
-21.0511650938
 10
15.7090014599
 20
-21.0905928838
 10
15.6991758014
 20
-21.1404346274
 10
15.6817597106
 20
-21.1896607953
 10
15.6569652102
 20
-21.238008805
 10
15.6250064241
 20
-21.285231049
 10
15.5861871035
 20
-21.3310025193
 10
15.5407968019
 20
-21.3750618758
 10
15.4890602806
 20
-21.4172030263
 10
15.4312235248
 20
-21.4571996764
  0
LWPOLYLINE
  5
6AC
100
AcDbEntity
  8
ASSI
100
AcDbPolyline
 62
7
  6
CONTINUOUS
 90
8
 70
0
 10
15.6056535364
 20
-24.5744162607
 10
15.6173410767
 20
-24.3936590428
 10
15.630114845
 20
-24.1814107228
 10
15.6433904476
 20
-23.9409732898
 10
15.6562850269
 20
-23.6824218961
 10
15.6686202791
 20
-23.4093852322
 10
15.6793576986
 20
-23.1174676465
 10
15.6845624125
 20
-22.9487648753
  0
LINE
  5
6AD
100
AcDbEntity
  8
ASSI
100
AcDbLine
 62
250
  6
CONTINUOUS
 10
15.5975246561
 20
-24.6938311077
 11
15.5975420829
 21
-24.6935954845
  0
LWPOLYLINE
  5
6AE
100
AcDbEntity
  8
ASSI
100
AcDbPolyline
 62
7
  6
CONTINUOUS
 90
7
 70
0
 10
15.5051108419
 20
-25.8342838729
 10
15.5251056558
 20
-25.6149423614
 10
15.5454577265
 20
-25.3787343221
 10
15.5649621678
 20
-25.1383400724
 10
15.5806644933
 20
-24.9317063931
 10
15.5921535656
 20
-24.7716664486
 10
15.6056535364
 20
-24.5744162607
  0
LWPOLYLINE
  5
6AF
100
AcDbEntity
  8
ASSI
100
AcDbPolyline
 62
250
  6
CONTINUOUS
 90
7
 70
0
 10
15.2006887449
 20
-26.4901449163
 10
15.2226951301
 20
-26.263741649
 10
15.2437858758
 20
-26.0345691142
 10
15.2639329319
 20
-25.8026143509
 10
15.2831079412
 20
-25.567864512
 10
15.30128224
 20
-25.3303068734
 10
15.3184268599
 20
-25.089928843
  0
LINE
  5
6B0
100
AcDbEntity
  8
ASSI
100
AcDbLine
 62
7
  6
CONTINUOUS
 10
15.4789228545
 20
-26.10461634
 11
15.5051108419
 21
-25.8342838729
  0
LINE
  5
6B1
100
AcDbEntity
  8
ASSI
100
AcDbLine
 62
250
  6
CONTINUOUS
 10
15.4789228507
 20
-26.1046162908
 11
15.4789854441
 21
-26.1040250717
  0
LWPOLYLINE
  5
6B2
100
AcDbEntity
  8
ASSI
100
AcDbPolyline
 62
7
  6
CONTINUOUS
 90
7
 70
0
 10
15.3340054065
 20
-27.3670767147
 10
15.3673623094
 20
-27.103475364
 10
15.3961546632
 20
-26.8648355648
 10
15.4207771036
 20
-26.6512962294
 10
15.4415947133
 20
-26.4630374058
 10
15.4589244762
 20
-26.3002587283
 10
15.4789854441
 20
-26.1040250717
  0
LWPOLYLINE
  5
6B3
100
AcDbEntity
  8
ASSI
100
AcDbPolyline
 62
250
  6
CONTINUOUS
 90
7
 70
0
 10
15.0394571592
 20
-27.8761878142
 10
15.06862517
 20
-27.6528733432
 10
15.0969176674
 20
-27.4265037794
 10
15.1243027712
 20
-27.1970625796
 10
15.1507481893
 20
-26.9645332747
 10
15.1762212182
 20
-26.728899482
 10
15.2006887449
 20
-26.4901449163
  0
LINE
  5
6B4
100
AcDbEntity
  8
ASSI
100
AcDbLine
 62
7
  6
CONTINUOUS
 10
15.3368208401
 20
-21.0023553712
 11
15.3352827412
 21
-21.0137635396
  0
LINE
  5
6B5
100
AcDbEntity
  8
ASSI
100
AcDbLine
 62
250
  6
CONTINUOUS
 10
15.3162892407
 20
-27.5021312724
 11
15.3164040211
 21
-27.5012928178
  0
LWPOLYLINE
  5
6B6
100
AcDbEntity
  8
ASSI
100
AcDbPolyline
 62
7
  6
CONTINUOUS
 90
9
 70
0
 10
15.3352827412
 20
-21.0137635396
 10
15.3336045862
 20
-21.0251941331
 10
15.3317913198
 20
-21.0366439545
 10
15.3298484176
 20
-21.0481097101
 10
15.3277795206
 20
-21.0595896544
 10
15.3255867291
 20
-21.0710830897
 10
15.3232748411
 20
-21.0825872785
 10
15.3208515855
 20
-21.0940974403
 10
15.3183243859
 20
-21.1056090307
  0
LWPOLYLINE
  5
6B7
100
AcDbEntity
  8
ASSI
100
AcDbPolyline
 62
7
  6
CONTINUOUS
 90
9
 70
0
 10
15.0523275291
 20
-29.2277034501
 10
15.0961876248
 20
-28.9700313129
 10
15.1373875142
 20
-28.7191403622
 10
15.176046062
 20
-28.4750765167
 10
15.212270686
 20
-28.2379375651
 10
15.2461359923
 20
-28.0079137168
 10
15.2777618149
 20
-27.7851777435
 10
15.30724195
 20
-27.5697459708
 10
15.3340054065
 20
-27.3670767147
  0
LWPOLYLINE
  5
6B8
100
AcDbEntity
  8
ASSI
100
AcDbPolyline
 62
250
  6
CONTINUOUS
 90
7
 70
0
 10
14.7579465069
 20
-29.7019484403
 10
14.8080585461
 20
-29.4114235193
 10
14.8569933392
 20
-29.1154454618
 10
14.9046766878
 20
-28.8139733941
 10
14.9510331306
 20
-28.5069666517
 10
14.9959859467
 20
-28.1943848265
 10
15.0394571592
 20
-27.8761878142
  0
LWPOLYLINE
  5
6B9
100
AcDbEntity
  8
ASSI
100
AcDbPolyline
 62
250
  6
CONTINUOUS
 90
16
 70
0
 10
5.0506484242
 20
-41.8033108839
 10
5.1344830627
 20
-41.5223459853
 10
5.2191452756
 20
-41.2325268101
 10
5.3044917883
 20
-40.9337385884
 10
5.3906040725
 20
-40.6264542073
 10
5.477113838
 20
-40.309978007
 10
5.5631465814
 20
-39.9823993174
 10
5.648089591
 20
-39.6432481858
 10
5.732116671
 20
-39.2926659726
 10
5.8154545294
 20
-38.9295989274
 10
5.897846497
 20
-38.5539180724
 10
5.9790398673
 20
-38.1653911761
 10
6.0592143589
 20
-37.7627719283
 10
6.138216423
 20
-37.3455001535
 10
6.2155853035
 20
-36.9137247333
 10
6.2910024808
 20
-36.4672422044
  0
LINE
  5
6BA
100
AcDbEntity
  8
ASSI
100
AcDbLine
 62
250
  6
CONTINUOUS
 10
4.9185744666
 20
-42.2420332298
 11
5.0236874827
 21
-41.8936345805
  0
LWPOLYLINE
  5
6BB
100
AcDbEntity
  8
ASSI
100
AcDbPolyline
 62
250
  6
CONTINUOUS
 90
7
 70
0
 10
4.9186641158
 20
-42.2421312472
 10
4.88705166
 20
-42.3373001881
 10
4.8520618522
 20
-42.4296912933
 10
4.8137265676
 20
-42.5192549422
 10
4.7720783204
 20
-42.6059411148
 10
4.7271502753
 20
-42.6896993861
 10
4.6789762591
 20
-42.7704789208
  0
LWPOLYLINE
  5
6BC
100
AcDbEntity
  8
ASSI
100
AcDbPolyline
 62
250
  6
CONTINUOUS
 90
4
 70
0
 10
3.8320390576
 20
-42.0869754292
 10
3.81582856
 20
-42.1319278529
 10
3.7950790359
 20
-42.1869173462
 10
3.7692060884
 20
-42.2514118066
  0
LWPOLYLINE
  5
6BD
100
AcDbEntity
  8
ASSI
100
AcDbPolyline
 62
250
  6
CONTINUOUS
 90
7
 70
0
 10
3.7692060884
 20
-42.2514118066
 10
3.7416017056
 20
-42.3236973584
 10
3.7115145214
 20
-42.3939597319
 10
3.6789314436
 20
-42.4621373911
 10
3.6438401943
 20
-42.5281679595
 10
3.6062292807
 20
-42.5919882006
 10
3.566091635
 20
-42.6535358891
  0
LWPOLYLINE
  5
6BE
100
AcDbEntity
  8
ASSI
100
AcDbPolyline
 62
250
  6
CONTINUOUS
 90
31
 70
0
 10
2.2320840009
 20
-30.776284249
 10
2.286152952
 20
-30.6755281012
 10
2.336928712
 20
-30.577947684
 10
2.3845354203
 20
-30.4837124907
 10
2.4287414536
 20
-30.3937236215
 10
2.4700316989
 20
-30.3073967638
 10
2.5095375605
 20
-30.2225860475
 10
2.5474585599
 20
-30.1390047074
 10
2.5836932438
 20
-30.0570653495
 10
2.6188263366
 20
-29.9755642993
 10
2.6533629727
 20
-29.8933728947
 10
2.6868214116
 20
-29.8116620055
 10
2.7183300048
 20
-29.7327015385
 10
2.747633584
 20
-29.6574601722
 10
2.775152331
 20
-29.5851491342
 10
2.8010719516
 20
-29.5154484734
 10
2.8254503562
 20
-29.4484295348
 10
2.8483508749
 20
-29.384145191
 10
2.8699469297
 20
-29.3222292628
 10
2.8900257126
 20
-29.2634773926
 10
2.9089048726
 20
-29.2071970537
 10
2.9274957444
 20
-29.1507362313
 10
2.9461791941
 20
-29.0928886323
 10
2.9645584331
 20
-29.0348490563
 10
2.9823474171
 20
-28.9775386766
 10
2.9995645312
 20
-28.920978247
 10
3.0162228861
 20
-28.8651786292
 10
3.03206067
 20
-28.8110754839
 10
3.0470121697
 20
-28.7590449092
 10
3.0612080638
 20
-28.708769592
 10
3.0873702306
 20
-28.6136749198
  0
LWPOLYLINE
  5
6BF
100
AcDbEntity
  8
ASSI
100
AcDbPolyline
 62
250
  6
CONTINUOUS
 90
4
 70
0
 10
3.4209537275
 20
-26.9319206324
 10
3.4159075319
 20
-26.9408048856
 10
3.4108889234
 20
-26.9499619733
 10
3.405897919
 20
-26.959391887
  0
LWPOLYLINE
  5
6C0
100
AcDbEntity
  8
ASSI
100
AcDbPolyline
 62
250
  6
CONTINUOUS
 90
16
 70
0
 10
1.9377962015
 20
-30.2605720911
 10
1.8849636438
 20
-30.3411951449
 10
1.8290379439
 20
-30.4228086167
 10
1.7700355711
 20
-30.5054040017
 10
1.7081877229
 20
-30.5891236444
 10
1.6432987286
 20
-30.6738069842
 10
1.5747486717
 20
-30.7589891711
 10
1.502544479
 20
-30.8447236517
 10
1.4267272943
 20
-30.9309322868
 10
1.3467350986
 20
-31.0169493398
 10
1.2627539359
 20
-31.1025994805
 10
1.1746579794
 20
-31.1880259904
 10
1.0814289769
 20
-31.2730342964
 10
0.9827594084
 20
-31.357541194
 10
0.8790443453
 20
-31.4415789158
 10
0.7703291412
 20
-31.5251189216
  0
LWPOLYLINE
  5
6C1
100
AcDbEntity
  8
ASSI
100
AcDbPolyline
 62
250
  6
CONTINUOUS
 90
55
 70
0
 10
2.2320886351
 20
-30.7765474817
 10
2.0102680937
 20
-31.0795361479
 10
1.7676635671
 20
-31.3654019131
 10
1.5048206734
 20
-31.6318256612
 10
1.2187569768
 20
-31.8792619989
 10
0.9136711334
 20
-32.1034510883
 10
0.6024372119
 20
-32.2984474238
 10
0.2897660132
 20
-32.4648559492
 10
-0.0251378221
 20
-32.6052323391
 10
-0.3364156711
 20
-32.7205729533
 10
-0.6411875081
 20
-32.8134092582
 10
-0.9395908378
 20
-32.8861082136
 10
-1.2304115552
 20
-32.9403863768
 10
-1.5119842089
 20
-32.9784007621
 10
-1.7845370253
 20
-33.0024227648
 10
-2.0499422293
 20
-33.0138088328
 10
-2.3083100091
 20
-33.014021524
 10
-2.5589141199
 20
-33.0044519828
 10
-2.8024865405
 20
-32.9856830702
 10
-3.038554033
 20
-32.9590086448
 10
-3.2672619434
 20
-32.9257274292
 10
-3.490276286
 20
-32.8859769046
 10
-3.7052011803
 20
-32.8408402894
 10
-3.914283297
 20
-32.7912093554
 10
-4.1261516985
 20
-32.7354966669
 10
-4.3412792269
 20
-32.6730222166
 10
-4.559078557
 20
-32.6038421974
 10
-4.7865261505
 20
-32.5254381573
 10
-5.0262833282
 20
-32.43555489
 10
-5.2753945171
 20
-32.3336549398
 10
-5.5324513496
 20
-32.219008966
 10
-5.8003568659
 20
-32.0886268748
 10
-6.0759757127
 20
-31.9428249253
 10
-6.3487371344
 20
-31.7877018411
 10
-6.6155654945
 20
-31.6257545707
 10
-6.8788624273
 20
-31.4557621375
 10
-7.1366761826
 20
-31.2801139727
 10
-7.3859998998
 20
-31.1020077402
 10
-7.6299992906
 20
-30.9198564619
 10
-7.8758864341
 20
-30.7280835639
 10
-8.1238498788
 20
-30.5256106832
 10
-8.3734161069
 20
-30.3126331945
 10
-8.6302536044
 20
-30.0836312741
 10
-8.8950574706
 20
-29.8358889372
 10
-9.1661218163
 20
-29.5694622133
 10
-9.4451688145
 20
-29.2818708769
 10
-9.7314995112
 20
-28.9716981268
 10
-10.0244199952
 20
-28.6375689813
 10
-10.3253844631
 20
-28.2764133535
 10
-10.6356577706
 20
-27.8840136406
 10
-10.9515098095
 20
-27.4610568361
 10
-11.2669363634
 20
-27.0124501241
 10
-11.5792452824
 20
-26.539976584
 10
-11.8886534377
 20
-26.0413819498
 10
-12.193857999
 20
-25.5166464638
  0
LWPOLYLINE
  5
6C2
100
AcDbEntity
  8
ASSI
100
AcDbPolyline
 62
7
  6
CONTINUOUS
 90
19
 70
0
 10
-4.803175768
 20
-27.2474766495
 10
-4.7182068509
 20
-27.1866503471
 10
-4.640192964
 20
-27.1146934644
 10
-4.5696054501
 20
-27.032036541
 10
-4.5068743419
 20
-26.9391752073
 10
-4.4523748783
 20
-26.8366605259
 10
-4.4064300254
 20
-26.7250944394
 10
-4.3693291019
 20
-26.6051422551
 10
-4.3412990755
 20
-26.4775157095
 10
-4.3224943202
 20
-26.3429594588
 10
-4.3130477786
 20
-26.202276549
 10
-4.3130249177
 20
-26.0563016414
 10
-4.3223979058
 20
-25.9058813013
 10
-4.341134707
 20
-25.7519127481
 10
-4.3691364326
 20
-25.5953114799
 10
-4.4061922843
 20
-25.4369835903
 10
-4.452104535
 20
-25.2778749375
 10
-4.5066156156
 20
-25.1189315141
 10
-4.5693456448
 20
-24.961066837
  0
LINE
  5
6C3
100
AcDbEntity
  8
ASSI
100
AcDbLine
 62
7
  6
CONTINUOUS
 10
-5.7272353957
 20
-25.4976710479
 11
-5.038968533
 21
-25.1312321568
  0
LINE
  5
6C4
100
AcDbEntity
  8
ASSI
100
AcDbLine
 62
7
  6
CONTINUOUS
 10
-5.7484540041
 20
-25.5082803521
 11
-4.8617828454
 21
-25.0362661897
  0
LINE
  5
6C5
100
AcDbEntity
  8
ASSI
100
AcDbLine
 62
7
  6
CONTINUOUS
 10
-4.8242195548
 20
-24.5138621528
 11
-5.7569928409
 21
-25.0103225863
  0
LINE
  5
6C6
100
AcDbEntity
  8
ASSI
100
AcDbLine
 62
7
  6
CONTINUOUS
 10
1.5666421731
 20
-18.1237203202
 11
1.5878735728
 21
-18.1131046203
  0
LINE
  5
6C7
100
AcDbEntity
  8
ASSI
100
AcDbLine
 62
7
  6
CONTINUOUS
 10
-7.2516920579
 20
-22.6538684697
 11
-7.2729098613
 21
-22.6644773713
  0
LINE
  5
6C8
100
AcDbEntity
  8
ASSI
100
AcDbLine
 62
7
  6
CONTINUOUS
 10
-7.0561561668
 20
-23.3954630665
 11
-7.0349385421
 21
-23.3848542542
  0
LINE
  5
6C9
100
AcDbEntity
  8
ASSI
100
AcDbLine
 62
7
  6
CONTINUOUS
 10
-6.413677715
 20
-23.2440285501
 11
-6.3924630337
 21
-23.2334212094
  0
LINE
  5
6CA
100
AcDbEntity
  8
ASSI
100
AcDbLine
 62
7
  6
CONTINUOUS
 10
-5.4880248592
 20
-23.7068303546
 11
-5.4668101705
 21
-23.6962230102
  0
LINE
  5
6CB
100
AcDbEntity
  8
ASSI
100
AcDbLine
 62
7
  6
CONTINUOUS
 10
-5.4842818094
 20
-24.1161624138
 11
-5.4630664927
 21
-24.1055547555
  0
LINE
  5
6CC
100
AcDbEntity
  8
ASSI
100
AcDbLine
 62
7
  6
CONTINUOUS
 10
-4.8242195548
 20
-24.5138621528
 11
-4.8030019187
 21
-24.5032533348
  0
LWPOLYLINE
  5
6CD
100
AcDbEntity
  8
ASSI
100
AcDbPolyline
 62
7
  6
CONTINUOUS
 90
18
 70
0
 10
-7.0611141672
 20
-23.0907412667
 10
-6.9590690984
 20
-23.047402161
 10
-6.8309242089
 20
-23.0121907834
 10
-6.6969485049
 20
-22.9947097822
 10
-6.5576090251
 20
-22.9946557602
 10
-6.4129416745
 20
-23.0119564995
 10
-6.2635227163
 20
-23.0467599107
 10
-6.1109456109
 20
-23.0989260251
 10
-5.9567474482
 20
-23.1679714444
 10
-5.8020876545
 20
-23.2533557603
 10
-5.6481729416
 20
-23.3544360465
 10
-5.496611347
 20
-23.470123291
 10
-5.3489749392
 20
-23.5989751461
 10
-5.2058614761
 20
-23.7402567288
 10
-5.0674421391
 20
-23.893936376
 10
-4.9341331519
 20
-24.0598755718
 10
-4.8077912855
 20
-24.2361425896
 10
-4.6905936726
 20
-24.4198623352
  0
LWPOLYLINE
  5
6CE
100
AcDbEntity
  8
ASSI
100
AcDbPolyline
 62
250
  6
CONTINUOUS
 90
10
 70
0
 10
-13.3812700943
 20
-22.9698644847
 10
-13.3162954535
 20
-22.9501965177
 10
-13.2533206991
 20
-22.931783364
 10
-13.1926545857
 20
-22.9147235183
 10
-13.1345956697
 20
-22.8991128486
 10
-13.0794658241
 20
-22.8850527523
 10
-13.0275840326
 20
-22.8726208616
 10
-12.9792221955
 20
-22.8618596521
 10
-12.9346313994
 20
-22.852805818
 10
-12.8940730137
 20
-22.8454986155
  0
LWPOLYLINE
  5
6CF
100
AcDbEntity
  8
ASSI
100
AcDbPolyline
 62
250
  6
CONTINUOUS
 90
6
 70
0
 10
14.2695868138
 20
-32.0960398524
 10
14.3712785217
 20
-31.6477397375
 10
14.4712922973
 20
-31.1843777837
 10
14.569301001
 20
-30.7057562824
 10
14.6649678632
 20
-30.2116783399
 10
14.7579465069
 20
-29.7019484403
  0
LINE
  5
6D0
100
AcDbEntity
  8
ASSI
100
AcDbLine
 62
250
  6
CONTINUOUS
 10
14.1665346703
 20
-32.5294761097
 11
14.2695868138
 21
-32.0960398524
  0
LWPOLYLINE
  5
6D1
100
AcDbEntity
  8
ASSI
100
AcDbPolyline
 62
7
  6
CONTINUOUS
 90
10
 70
0
 10
14.4373443427
 20
-32.1888436953
 10
14.5213914867
 20
-31.8354775323
 10
14.6277685164
 20
-31.3698988763
 10
14.7218978723
 20
-30.9383023855
 10
14.8054091979
 20
-30.5375082494
 10
14.8782964128
 20
-30.1719934979
 10
14.9391753569
 20
-29.8541654515
 10
14.9882543481
 20
-29.5886182813
 10
15.0270835832
 20
-29.3719086406
 10
15.0523275291
 20
-29.2277034501
  0
LINE
  5
6D2
100
AcDbEntity
  8
ASSI
100
AcDbLine
 62
7
  6
CONTINUOUS
 10
14.4372712151
 20
-32.1891447256
 11
14.4373443077
 21
-32.1888436297
  0
LWPOLYLINE
  5
6D3
100
AcDbEntity
  8
ASSI
100
AcDbPolyline
 62
250
  6
CONTINUOUS
 90
10
 70
0
 10
15.3368357222
 20
-21.0020474574
 10
15.3255865992
 20
-21.0436359007
 10
15.3090151728
 20
-21.0847285386
 10
15.2872083315
 20
-21.12515627
 10
15.2602793683
 20
-21.1647469035
 10
15.2283537152
 20
-21.2033465988
 10
15.191559605
 20
-21.2408187147
 10
15.1500500022
 20
-21.2770170587
 10
15.1040104963
 20
-21.3117882809
 10
15.0536387855
 20
-21.3449919849
  0
LINE
  5
6D4
100
AcDbEntity
  8
ASSI
100
AcDbLine
 62
7
  6
CONTINUOUS
 10
9.1725796721
 20
-39.4116503702
 11
8.7228086412
 21
-40.6966315513
  0
LWPOLYLINE
  5
6D5
100
AcDbEntity
  8
ASSI
100
AcDbPolyline
 62
250
  6
CONTINUOUS
 90
5
 70
0
 10
3.9112603458
 20
-41.8946811597
 10
3.8727409163
 20
-41.9814637826
 10
3.85765022
 20
-42.0160316361
 10
3.8480266226
 20
-42.0396132378
 10
3.8320390576
 20
-42.0869754292
  0
LWPOLYLINE
  5
6D6
100
AcDbEntity
  8
ASSI
100
AcDbPolyline
 62
250
  6
CONTINUOUS
 90
5
 70
0
 10
3.9390818166
 20
-41.8367330031
 10
3.9318088495
 20
-41.8522706101
 10
3.9260895054
 20
-41.8642742681
 10
3.9192536321
 20
-41.8784226219
 10
3.9112603458
 20
-41.8946811597
  0
LINE
  5
6D7
100
AcDbEntity
  8
ASSI
100
AcDbLine
 62
250
  6
CONTINUOUS
 10
3.9425928631
 20
-41.8293984921
 11
3.9390818166
 21
-41.8367330031
  0
LWPOLYLINE
  5
6D8
100
AcDbEntity
  8
ASSI
100
AcDbPolyline
 62
7
  6
CONTINUOUS
 90
32
 70
0
 10
15.1957296479
 20
-21.4493772624
 10
15.1992261252
 20
-21.4421520786
 10
15.2027566846
 20
-21.4347710417
 10
15.2063265819
 20
-21.4272184062
 10
15.2099448095
 20
-21.4194653151
 10
15.2136086786
 20
-21.4115121519
 10
15.2173148627
 20
-21.4033595656
 10
15.2210703632
 20
-21.3949792227
 10
15.2248718265
 20
-21.3863715657
 10
15.2287152121
 20
-21.3775377817
 10
15.2326053703
 20
-21.36845087
 10
15.2365382894
 20
-21.359111684
 10
15.2405090799
 20
-21.3495218697
 10
15.2445200781
 20
-21.3396559478
 10
15.2485665691
 20
-21.3295153335
 10
15.2526427402
 20
-21.3191023379
 10
15.2567480039
 20
-21.3083933088
 10
15.2608723606
 20
-21.2974029474
 10
15.2650137464
 20
-21.2861219274
 10
15.2691813207
 20
-21.2744914136
 10
15.2733618159
 20
-21.2625345711
 10
15.2775531049
 20
-21.2502363295
 10
15.2817765143
 20
-21.237482354
 10
15.2860449016
 20
-21.2242061499
 10
15.2903217119
 20
-21.2104880563
 10
15.2945532744
 20
-21.1964351142
 10
15.29871963
 20
-21.1820940744
 10
15.302823133
 20
-21.167434001
 10
15.3068451932
 20
-21.1524459702
 10
15.3107728087
 20
-21.1371343649
 10
15.3145994671
 20
-21.1215164881
 10
15.3183157502
 20
-21.1056045021
  0
LINE
  5
6D9
100
AcDbEntity
  8
ASSI
100
AcDbLine
 62
250
  6
CONTINUOUS
 10
3.9568002415
 20
-41.8003928694
 11
3.9425928631
 21
-41.8293984921
  0
LINE
  5
6DA
100
AcDbEntity
  8
ASSI
100
AcDbLine
 62
7
  6
CONTINUOUS
 10
15.1888821434
 20
-21.4632916304
 11
15.1957296479
 21
-21.4493772624
  0
LINE
  5
6DB
100
AcDbEntity
  8
ASSI
100
AcDbLine
 62
7
  6
CONTINUOUS
 10
15.1822963106
 20
-21.4763968541
 11
15.1888821434
 21
-21.4632916304
  0
LINE
  5
6DC
100
AcDbEntity
  8
ASSI
100
AcDbLine
 62
7
  6
CONTINUOUS
 10
15.1759017862
 20
-21.4888758352
 11
15.1822963106
 21
-21.4763968541
  0
LINE
  5
6DD
100
AcDbEntity
  8
ASSI
100
AcDbLine
 62
7
  6
CONTINUOUS
 10
15.1696803793
 20
-21.5007956821
 11
15.1759017862
 21
-21.4888758352
  0
LINE
  5
6DE
100
AcDbEntity
  8
ASSI
100
AcDbLine
 62
7
  6
CONTINUOUS
 10
15.1636080512
 20
-21.5122304102
 11
15.1696803793
 21
-21.5007956821
  0
LINE
  5
6DF
100
AcDbEntity
  8
ASSI
100
AcDbLine
 62
7
  6
CONTINUOUS
 10
15.1576973894
 20
-21.5231801294
 11
15.1636080512
 21
-21.5122304102
  0
LINE
  5
6E0
100
AcDbEntity
  8
ASSI
100
AcDbLine
 62
7
  6
CONTINUOUS
 10
15.1519552517
 20
-21.5336535365
 11
15.1576973894
 21
-21.5231801294
  0
LINE
  5
6E1
100
AcDbEntity
  8
ASSI
100
AcDbLine
 62
7
  6
CONTINUOUS
 10
15.1463859359
 20
-21.5436638039
 11
15.1519552517
 21
-21.5336535365
  0
LINE
  5
6E2
100
AcDbEntity
  8
ASSI
100
AcDbLine
 62
7
  6
CONTINUOUS
 10
15.1409924174
 20
-21.5532244346
 11
15.1463859359
 21
-21.5436638039
  0
LINE
  5
6E3
100
AcDbEntity
  8
ASSI
100
AcDbLine
 62
7
  6
CONTINUOUS
 10
15.1357788951
 20
-21.5623448079
 11
15.1409924174
 21
-21.5532244346
  0
LINE
  5
6E4
100
AcDbEntity
  8
ASSI
100
AcDbLine
 62
7
  6
CONTINUOUS
 10
15.1307436276
 20
-21.5710440132
 11
15.1357788951
 21
-21.5623448079
  0
LINE
  5
6E5
100
AcDbEntity
  8
ASSI
100
AcDbLine
 62
7
  6
CONTINUOUS
 10
15.1259055092
 20
-21.5793044534
 11
15.1307436276
 21
-21.5710440132
  0
LWPOLYLINE
  5
6E6
100
AcDbEntity
  8
ASSI
100
AcDbPolyline
 62
7
  6
CONTINUOUS
 90
3
 70
0
 10
15.1190307605
 20
-21.5908815298
 10
15.1212711808
 20
-21.5871289392
 10
15.1259055092
 20
-21.5793044534
  0
LWPOLYLINE
  5
6E7
100
AcDbEntity
  8
ASSI
100
AcDbPolyline
 62
250
  6
CONTINUOUS
 90
16
 70
0
 10
3.8507854237
 20
-24.3198179454
 10
3.8210225866
 20
-24.3437156106
 10
3.7916983761
 20
-24.3719914271
 10
3.7630487562
 20
-24.404376955
 10
3.7352924232
 20
-24.4406276957
 10
3.7086861667
 20
-24.4804678743
 10
3.6835014128
 20
-24.5235920603
 10
3.6600053406
 20
-24.5696295497
 10
3.6386065481
 20
-24.617894115
 10
3.6197160335
 20
-24.6674417089
 10
3.6035730984
 20
-24.7174661369
 10
3.5902678132
 20
-24.7674799693
 10
3.5798486555
 20
-24.8170199492
 10
3.5723339759
 20
-24.8656953016
 10
3.5677298862
 20
-24.9131848283
 10
3.5660481707
 20
-24.9591482674
  0
LWPOLYLINE
  5
6E8
100
AcDbEntity
  8
ASSI
100
AcDbPolyline
 62
7
  6
CONTINUOUS
 90
37
 70
0
 10
-4.4704923086
 20
-27.9107061983
 10
-4.3456468728
 20
-27.8281915899
 10
-4.231345427
 20
-27.7283580319
 10
-4.1283883964
 20
-27.6118983555
 10
-4.0374857096
 20
-27.4796122691
 10
-3.9592854597
 20
-27.3324093823
 10
-3.8943527599
 20
-27.1713047525
 10
-3.8431423966
 20
-26.9974037498
 10
-3.8060076497
 20
-26.8118913491
 10
-3.7832425939
 20
-26.6160493856
 10
-3.775015589
 20
-26.4112232729
 10
-3.7813461322
 20
-26.198801351
 10
-3.8022337827
 20
-25.9802546309
 10
-3.8375502703
 20
-25.7570880171
 10
-3.8869715544
 20
-25.530806524
 10
-3.9501955251
 20
-25.3029847021
 10
-4.0268080492
 20
-25.0751870229
 10
-4.1161732057
 20
-24.8489200519
 10
-4.2177102176
 20
-24.6257488529
 10
-4.3307479894
 20
-24.4072134893
 10
-4.4543895314
 20
-24.1947504098
 10
-4.5878062841
 20
-23.9898269874
 10
-4.7301157792
 20
-23.7938559661
 10
-4.880238962
 20
-23.6081142593
 10
-5.0371569143
 20
-23.4338760867
 10
-5.1998263934
 20
-23.272350088
 10
-5.3670602036
 20
-23.1245977469
 10
-5.5377090645
 20
-22.9916275486
 10
-5.7106324912
 20
-22.8743658271
 10
-5.8846170636
 20
-22.7735993296
 10
-6.0584552314
 20
-22.6900098727
 10
-6.2309757608
 20
-22.6241830658
 10
-6.4010157276
 20
-22.5765829643
 10
-6.5673833182
 20
-22.5475232153
 10
-6.728948588
 20
-22.5372083806
 10
-6.8846739549
 20
-22.5457454054
 10
-7.0334628085
 20
-22.5730612528
  0
LWPOLYLINE
  5
6E9
100
AcDbEntity
  8
ASSI
100
AcDbPolyline
 62
7
  6
CONTINUOUS
 90
37
 70
0
 10
-4.5422861265
 20
-27.948281189
 10
-4.4452717625
 20
-27.8934301234
 10
-4.3136886137
 20
-27.7956424057
 10
-4.1950910797
 20
-27.6776109621
 10
-4.0904711089
 20
-27.5403096931
 10
-4.000687156
 20
-27.3848595625
 10
-3.9264986623
 20
-27.2125310349
 10
-3.8685534502
 20
-27.0247429609
 10
-3.8273335943
 20
-26.8230257045
 10
-3.8031614343
 20
-26.6090024545
 10
-3.7962903762
 20
-26.3844324895
 10
-3.8067931065
 20
-26.151151968
 10
-3.8345144667
 20
-25.9110296112
 10
-3.8792862746
 20
-25.666045613
 10
-3.94076569
 20
-25.4182056961
 10
-4.0183261083
 20
-25.1694789271
 10
-4.1113837251
 20
-24.9219159335
 10
-4.2192096104
 20
-24.677547802
 10
-4.3407664754
 20
-24.438300011
 10
-4.4750944206
 20
-24.2061404441
 10
-4.6211364666
 20
-23.9829755598
 10
-4.7775497034
 20
-23.7705498709
 10
-4.9430717125
 20
-23.570600232
 10
-5.116395815
 20
-23.3847729408
 10
-5.2959971682
 20
-23.2145219078
 10
-5.4804040222
 20
-23.0612296648
 10
-5.6681555634
 20
-22.92616028
 10
-5.8576790886
 20
-22.8103824226
 10
-6.0474067116
 20
-22.7148262049
 10
-6.2358236788
 20
-22.6402840429
 10
-6.4214272036
 20
-22.5873730661
 10
-6.6026709948
 20
-22.5565075537
 10
-6.7780900866
 20
-22.547948564
 10
-6.9463489639
 20
-22.5618146818
 10
-7.1060339095
 20
-22.5979741657
 10
-7.2558378238
 20
-22.6561315567
 10
-7.2728806191
 20
-22.6644627502
  0
LWPOLYLINE
  5
6EA
100
AcDbEntity
  8
ASSI
100
AcDbPolyline
 62
7
  6
CONTINUOUS
 90
29
 70
0
 10
-4.8919925505
 20
-27.2959853376
 10
-4.854171235
 20
-27.275819583
 10
-4.7953138536
 20
-27.2390595082
 10
-4.739400862
 20
-27.1972381077
 10
-4.6865817783
 20
-27.1504667028
 10
-4.6369970415
 20
-27.0988691361
 10
-4.5907809329
 20
-27.042583331
 10
-4.5480583321
 20
-26.9817592064
 10
-4.5089431876
 20
-26.9165575484
 10
-4.4735398304
 20
-26.8471506348
 10
-4.441945548
 20
-26.7737234258
 10
-4.414245235
 20
-26.6964696494
 10
-4.3905100843
 20
-26.6155904738
 10
-4.370807422
 20
-26.5313006992
 10
-4.3551916271
 20
-26.4438228849
 10
-4.3436992317
 20
-26.3533830423
 10
-4.3363661025
 20
-26.2602207011
 10
-4.3332147925
 20
-26.1645822468
 10
-4.3342459196
 20
-26.0667146556
 10
-4.3394628468
 20
-25.9668774116
 10
-4.3488555272
 20
-25.8653344555
 10
-4.3623880881
 20
-25.7623473291
 10
-4.3800310192
 20
-25.6581895334
 10
-4.4017419941
 20
-25.5531361947
 10
-4.4274497565
 20
-25.4474559951
 10
-4.457092717
 20
-25.34142919
 10
-4.4905973659
 20
-25.2353362991
 10
-4.5278590711
 20
-25.1294477889
 10
-4.5687854376
 20
-25.0240443733
  0
LINE
  5
6EB
100
AcDbEntity
  8
ASSI
100
AcDbLine
 62
7
  6
CONTINUOUS
 10
-5.7484540041
 20
-25.5082803521
 11
-5.7272353957
 21
-25.4976710479
  0
LINE
  5
6EC
100
AcDbEntity
  8
ASSI
100
AcDbLine
 62
7
  6
CONTINUOUS
 10
-6.5183890281
 20
-26.3439394604
 11
-6.4971651341
 21
-26.3333275134
  0
LINE
  5
6ED
100
AcDbEntity
  8
ASSI
100
AcDbLine
 62
7
  6
CONTINUOUS
 10
-6.66192359
 20
-26.5973989608
 11
-6.6406977867
 21
-26.5867860592
  0
LINE
  5
6EE
100
AcDbEntity
  8
ASSI
100
AcDbLine
 62
7
  6
CONTINUOUS
 10
-6.3689333445
 20
-26.5273764882
 11
-6.347709326
 21
-26.516764479
  0
LINE
  5
6EF
100
AcDbEntity
  8
ASSI
100
AcDbLine
 62
7
  6
CONTINUOUS
 10
-5.7186441066
 20
-26.8538675377
 11
-5.6974204926
 21
-26.8432557307
  0
LINE
  5
6F0
100
AcDbEntity
  8
ASSI
100
AcDbLine
 62
7
  6
CONTINUOUS
 10
-5.4214713013
 20
-27.0010822864
 11
-5.4002472753
 21
-26.9904702734
  0
LINE
  5
6F1
100
AcDbEntity
  8
ASSI
100
AcDbLine
 62
7
  6
CONTINUOUS
 10
-5.2796419429
 20
-26.9633181933
 11
-5.2584180504
 21
-26.952706247
  0
LINE
  5
6F2
100
AcDbEntity
  8
ASSI
100
AcDbLine
 62
7
  6
CONTINUOUS
 10
-5.4106025823
 20
-27.4046033091
 11
-5.3893767303
 21
-27.3939903831
  0
LINE
  5
6F3
100
AcDbEntity
  8
ASSI
100
AcDbLine
 62
7
  6
CONTINUOUS
 10
-4.8707662464
 20
-27.2853721856
 11
-4.8919920691
 21
-27.295985097
  0
LINE
  5
6F4
100
AcDbEntity
  8
ASSI
100
AcDbLine
 62
7
  6
CONTINUOUS
 10
-4.5210499495
 20
-27.9376631005
 11
-4.5422796628
 21
-27.9482779571
  0
LINE
  5
6F5
100
AcDbEntity
  8
ASSI
100
AcDbLine
 62
7
  6
CONTINUOUS
 10
-4.4608931048
 20
-28.8332422584
 11
-4.4396585976
 21
-28.8226250048
  0
LINE
  5
6F6
100
AcDbEntity
  8
ASSI
100
AcDbLine
 62
7
  6
CONTINUOUS
 10
-4.6281355252
 20
-29.0451534803
 11
-4.6069002674
 21
-29.0345358513
  0
LWPOLYLINE
  5
6F7
100
AcDbEntity
  8
ASSI
100
AcDbPolyline
 62
7
  6
CONTINUOUS
 90
4
 70
0
 10
-5.1005528712
 20
-26.9037327006
 10
-5.138378389
 20
-26.921164884
 10
-5.2073938748
 20
-26.9459506662
 10
-5.2796419429
 20
-26.9633181933
  0
LWPOLYLINE
  5
6F8
100
AcDbEntity
  8
ASSI
100
AcDbPolyline
 62
7
  6
CONTINUOUS
 90
12
 70
0
 10
-4.7676040163
 20
-27.5287783915
 10
-4.8711277402
 20
-27.5728477725
 10
-5.0007949282
 20
-27.608814538
 10
-5.1361224683
 20
-27.6269698685
 10
-5.2766632369
 20
-27.6276263736
 10
-5.4222857169
 20
-27.6108068485
 10
-5.5723973146
 20
-27.5763529927
 10
-5.7254217398
 20
-27.5244128244
 10
-5.8797763733
 20
-27.455448467
 10
-6.0342736425
 20
-27.3699854904
 10
-6.1877351219
 20
-27.2686812356
 10
-6.3385919199
 20
-27.1526494285
  0
LWPOLYLINE
  5
6F9
100
AcDbEntity
  8
ASSI
100
AcDbPolyline
 62
7
  6
CONTINUOUS
 90
21
 70
0
 10
12.94586693
 20
-37.1536269552
 10
12.9886360375
 20
-37.0345526906
 10
13.0331014065
 20
-36.9094527222
 10
13.0791597073
 20
-36.7785239387
 10
13.1269028878
 20
-36.6414430969
 10
13.1769916902
 20
-36.4962427992
 10
13.2292814178
 20
-36.3432379304
 10
13.2837975771
 20
-36.1819657527
 10
13.3414813736
 20
-36.0092227524
 10
13.4019540226
 20
-35.825723788
 10
13.4653751107
 20
-35.6305452685
 10
13.5334316431
 20
-35.4178972658
 10
13.6053265785
 20
-35.1895406496
 10
13.6814945677
 20
-34.9433126834
 10
13.7652407392
 20
-34.6672895229
 10
13.8542360805
 20
-34.3673034619
 10
13.949811593
 20
-34.0368358385
 10
14.0598720467
 20
-33.6447024601
 10
14.1857870391
 20
-33.1794833877
 10
14.322993963
 20
-32.6501896592
 10
14.4372712151
 20
-32.1891447256
  0
LINE
  5
6FA
100
AcDbEntity
  8
ASSI
100
AcDbLine
 62
7
  6
CONTINUOUS
 10
12.8646903403
 20
-37.3766536037
 11
12.94586693
 21
-37.1536269552
  0
LWPOLYLINE
  5
6FB
100
AcDbEntity
  8
ASSI
100
AcDbPolyline
 62
250
  6
CONTINUOUS
 90
15
 70
0
 10
12.554018187
 20
-37.8125784231
 10
12.6670210539
 20
-37.508588921
 10
12.7800024132
 20
-37.195983276
 10
12.8921894997
 20
-36.8756614937
 10
13.0040684926
 20
-36.5465006797
 10
13.1173277306
 20
-36.2053087428
 10
13.2323505392
 20
-35.8511177117
 10
13.3483141024
 20
-35.4845672569
 10
13.4650187187
 20
-35.1048168327
 10
13.5821915219
 20
-34.7117455599
 10
13.6995955369
 20
-34.3051133413
 10
13.8170320737
 20
-33.883863071
 10
13.9342213444
 20
-33.4474976929
 10
14.0508284522
 20
-32.9961031589
 10
14.1665346703
 20
-32.5294761097
  0
LINE
  5
6FC
100
AcDbEntity
  8
ASSI
100
AcDbLine
 62
7
  6
CONTINUOUS
 10
12.788611909
 20
-37.5821785328
 11
12.8646903403
 21
-37.3766536037
  0
LWPOLYLINE
  5
6FD
100
AcDbEntity
  8
ASSI
100
AcDbPolyline
 62
7
  6
CONTINUOUS
 90
3
 70
0
 10
12.7057135689
 20
-37.8026273777
 10
12.7150654352
 20
-37.7780399459
 10
12.788611909
 20
-37.5821785328
  0
LINE
  5
6FE
100
AcDbEntity
  8
ASSI
100
AcDbLine
 62
250
  6
CONTINUOUS
 10
12.4411370021
 20
-38.1080665949
 11
12.554018187
 21
-37.8125784231
  0
LINE
  5
6FF
100
AcDbEntity
  8
ASSI
100
AcDbLine
 62
7
  6
CONTINUOUS
 10
12.6768696975
 20
-37.877126579
 11
12.7060066708
 21
-37.8019079276
  0
LWPOLYLINE
  5
700
100
AcDbEntity
  8
ASSI
100
AcDbPolyline
 62
7
  6
CONTINUOUS
 90
3
 70
0
 10
12.6546028817
 20
-37.9335353936
 10
12.6697535423
 20
-37.8952044354
 10
12.6768696975
 20
-37.877126579
  0
LINE
  5
701
100
AcDbEntity
  8
ASSI
100
AcDbLine
 62
250
  6
CONTINUOUS
 10
12.3297096167
 20
-38.3900777356
 11
12.4037403754
 21
-38.2036081342
  0
LINE
  5
702
100
AcDbEntity
  8
ASSI
100
AcDbLine
 62
7
  6
CONTINUOUS
 10
12.6373667808
 20
-37.9767221499
 11
12.6546028817
 21
-37.9335353936
  0
LINE
  5
703
100
AcDbEntity
  8
ASSI
100
AcDbLine
 62
250
  6
CONTINUOUS
 10
12.2554925022
 20
-38.573574212
 11
12.3297096167
 21
-38.3900777356
  0
LINE
  5
704
100
AcDbEntity
  8
ASSI
100
AcDbLine
 62
7
  6
CONTINUOUS
 10
12.5794148836
 20
-38.1199036197
 11
12.6373667808
 21
-37.9767221499
  0
LINE
  5
705
100
AcDbEntity
  8
ASSI
100
AcDbLine
 62
7
  6
CONTINUOUS
 10
12.5572686409
 20
-38.1737286529
 11
12.5794148836
 21
-38.1199036197
  0
LINE
  5
706
100
AcDbEntity
  8
ASSI
100
AcDbLine
 62
7
  6
CONTINUOUS
 10
12.53397399
 20
-38.2294587995
 11
12.5572686409
 21
-38.1737286529
  0
LWPOLYLINE
  5
707
100
AcDbEntity
  8
ASSI
100
AcDbPolyline
 62
250
  6
CONTINUOUS
 90
3
 70
0
 10
12.2556004559
 20
-38.5736630772
 10
12.2131179652
 20
-38.6742670355
 10
12.1684012603
 20
-38.7715215892
  0
LWPOLYLINE
  5
708
100
AcDbEntity
  8
ASSI
100
AcDbPolyline
 62
250
  6
CONTINUOUS
 90
10
 70
0
 10
12.4411370021
 20
-38.1080665949
 10
12.4364938573
 20
-38.1189756032
 10
12.4321033864
 20
-38.1297252008
 10
12.4279656093
 20
-38.1403153739
 10
12.4242548029
 20
-38.1506312695
 10
12.4207967108
 20
-38.1607876844
 10
12.4170685316
 20
-38.1711291175
 10
12.4128959741
 20
-38.1817704246
 10
12.4084532688
 20
-38.1925967657
 10
12.4037403754
 20
-38.2036081342
  0
LWPOLYLINE
  5
709
100
AcDbEntity
  8
ASSI
100
AcDbPolyline
 62
7
  6
CONTINUOUS
 90
3
 70
0
 10
12.4991208632
 20
-38.3113409912
 10
12.5099441139
 20
-38.286082662
 10
12.53397399
 20
-38.2294587995
  0
LINE
  5
70A
100
AcDbEntity
  8
ASSI
100
AcDbLine
 62
7
  6
CONTINUOUS
 10
15.1125881474
 20
-21.6015655173
 11
15.1190307605
 21
-21.5908815298
  0
LINE
  5
70B
100
AcDbEntity
  8
ASSI
100
AcDbLine
 62
7
  6
CONTINUOUS
 10
15.1065234938
 20
-21.6114815216
 11
15.1125881474
 21
-21.6015655173
  0
LINE
  5
70C
100
AcDbEntity
  8
ASSI
100
AcDbLine
 62
7
  6
CONTINUOUS
 10
15.1008213066
 20
-21.6206838674
 11
15.1065234938
 21
-21.6114815216
  0
LINE
  5
70D
100
AcDbEntity
  8
ASSI
100
AcDbLine
 62
7
  6
CONTINUOUS
 10
15.0954593676
 20
-21.629233591
 11
15.1008213066
 21
-21.6206838674
  0
LINE
  5
70E
100
AcDbEntity
  8
ASSI
100
AcDbLine
 62
7
  6
CONTINUOUS
 10
15.0904186386
 20
-21.6371831462
 11
15.0954593676
 21
-21.629233591
  0
LINE
  5
70F
100
AcDbEntity
  8
ASSI
100
AcDbLine
 62
7
  6
CONTINUOUS
 10
15.0841744803
 20
-21.6469171176
 11
15.0904186386
 21
-21.6371831462
  0
LINE
  5
710
100
AcDbEntity
  8
ASSI
100
AcDbLine
 62
7
  6
CONTINUOUS
 10
15.0784295105
 20
-21.6557663903
 11
15.0841744803
 21
-21.6469171176
  0
LINE
  5
711
100
AcDbEntity
  8
ASSI
100
AcDbLine
 62
7
  6
CONTINUOUS
 10
15.0731552848
 20
-21.6638022783
 11
15.0784295105
 21
-21.6557663903
  0
LINE
  5
712
100
AcDbEntity
  8
ASSI
100
AcDbLine
 62
7
  6
CONTINUOUS
 10
15.0683310519
 20
-21.6710722878
 11
15.0731552848
 21
-21.6638022783
  0
LINE
  5
713
100
AcDbEntity
  8
ASSI
100
AcDbLine
 62
7
  6
CONTINUOUS
 10
15.0628659106
 20
-21.679209804
 11
15.0683310519
 21
-21.6710722878
  0
LWPOLYLINE
  5
714
100
AcDbEntity
  8
ASSI
100
AcDbPolyline
 62
7
  6
CONTINUOUS
 90
7
 70
0
 10
15.0528106019
 20
-21.6937222105
 10
15.0536353766
 20
-21.6926229341
 10
15.0544767224
 20
-21.6914755848
 10
15.0553344915
 20
-21.6902801035
 10
15.0562074432
 20
-21.6890325465
 10
15.0570964832
 20
-21.6877367247
 10
15.0628659106
 20
-21.679209804
  0
LWPOLYLINE
  5
715
100
AcDbEntity
  8
ASSI
100
AcDbPolyline
 62
250
  6
CONTINUOUS
 90
9
 70
0
 10
0.7703327406
 20
-31.5251132782
 10
0.6466086823
 20
-31.6133908138
 10
0.5152794326
 20
-31.699528554
 10
0.3763867218
 20
-31.7835045495
 10
0.2302842271
 20
-31.8657406979
 10
0.0767083731
 20
-31.9457681346
 10
-0.0852187482
 20
-32.0222256602
 10
-0.2551624495
 20
-32.0951670199
 10
-0.4333467925
 20
-32.1644817541
  0
LWPOLYLINE
  5
716
100
AcDbEntity
  8
ASSI
100
AcDbPolyline
 62
250
  6
CONTINUOUS
 90
10
 70
0
 10
15.4053087002
 20
-23.3583566932
 10
15.4628873589
 20
-23.3179750357
 10
15.5143358282
 20
-23.2752679619
 10
15.5594378036
 20
-23.23046794
 10
15.5980195908
 20
-23.183749754
 10
15.6297987066
 20
-23.1354075914
 10
15.6544719629
 20
-23.0858730079
 10
15.6718600307
 20
-23.0355399765
 10
15.6819081146
 20
-22.9845246733
 10
15.6844917312
 20
-22.9512622445
  0
LINE
  5
717
100
AcDbEntity
  8
ASSI
100
AcDbLine
 62
7
  6
CONTINUOUS
 10
15.4313290032
 20
-21.4572421311
 11
15.3057929991
 21
-21.5363237514
  0
LINE
  5
718
100
AcDbEntity
  8
ASSI
100
AcDbLine
 62
7
  6
CONTINUOUS
 10
15.3057929991
 20
-21.5363237514
 11
15.1796191721
 21
-21.6151508729
  0
LINE
  5
719
100
AcDbEntity
  8
ASSI
100
AcDbLine
 62
7
  6
CONTINUOUS
 10
15.1796191721
 20
-21.6151508729
 11
15.0528106019
 21
-21.6937222105
  0
LWPOLYLINE
  5
71A
100
AcDbEntity
  8
ASSI
100
AcDbPolyline
 62
7
  6
CONTINUOUS
 90
10
 70
0
 10
15.0536383269
 20
-21.3449917985
 10
14.6858555956
 20
-21.5692581902
 10
14.3129011662
 20
-21.791372239
 10
13.9348255085
 20
-22.0113041718
 10
13.5516793805
 20
-22.2290247344
 10
13.1635150003
 20
-22.444504523
 10
12.7703860895
 20
-22.6577140118
 10
12.3723462709
 20
-22.8686244421
 10
11.9694490095
 20
-23.0772078035
 10
11.5617488194
 20
-23.2834361813
  0
LWPOLYLINE
  5
71B
100
AcDbEntity
  8
ASSI
100
AcDbPolyline
 62
7
  6
CONTINUOUS
 90
4
 70
0
 10
10.3103044805
 20
-23.8877548163
 10
10.7321253411
 20
-23.688734907
 10
11.1492920638
 20
-23.4872862763
 10
11.5617488194
 20
-23.2834361813
  0
LINE
  5
71C
100
AcDbEntity
  8
ASSI
100
AcDbLine
 62
7
  6
CONTINUOUS
 10
9.8838855029
 20
-24.0843192717
 11
10.3103044805
 21
-23.8877548163
  0
LWPOLYLINE
  5
71D
100
AcDbEntity
  8
ASSI
100
AcDbPolyline
 62
250
  6
CONTINUOUS
 90
10
 70
0
 10
3.5119945143
 20
-26.8670826289
 10
3.5143695297
 20
-26.8659923989
 10
3.5167749556
 20
-26.8655515021
 10
3.5192148565
 20
-26.8657617277
 10
3.5217679692
 20
-26.8666876439
 10
3.5243720047
 20
-26.8682726513
 10
3.5267986119
 20
-26.8703266583
 10
3.5289335294
 20
-26.8727640475
 10
3.5309463732
 20
-26.8757083982
 10
3.5325981705
 20
-26.8789875705
  0
LWPOLYLINE
  5
71E
100
AcDbEntity
  8
ASSI
100
AcDbPolyline
 62
7
  6
CONTINUOUS
 90
6
 70
0
 10
7.6848600538
 20
-25.029380935
 10
8.1333928371
 20
-24.8454895694
 10
8.5776209348
 20
-24.6590123547
 10
9.0174848004
 20
-24.4699745258
 10
9.4529259256
 20
-24.2784014619
 10
9.8838855029
 20
-24.0843192717
  0
LINE
  5
71F
100
AcDbEntity
  8
ASSI
100
AcDbLine
 62
7
  6
CONTINUOUS
 10
7.4215695229
 20
-25.483745932
 11
7.6837586921
 21
-25.3782481654
  0
LINE
  5
720
100
AcDbEntity
  8
ASSI
100
AcDbLine
 62
7
  6
CONTINUOUS
 10
7.2107984897
 20
-25.5675073879
 11
7.4215695229
 21
-25.483745932
  0
LWPOLYLINE
  5
721
100
AcDbEntity
  8
ASSI
100
AcDbPolyline
 62
250
  6
CONTINUOUS
 90
5
 70
0
 10
12.1684012603
 20
-38.7715215892
 10
12.121491793
 20
-38.8653723295
 10
12.0724307611
 20
-38.9557648944
 10
12.0212590947
 20
-39.0426449764
 10
11.9680174418
 20
-39.1259583295
  0
LWPOLYLINE
  5
722
100
AcDbEntity
  8
ASSI
100
AcDbPolyline
 62
7
  6
CONTINUOUS
 90
8
 70
0
 10
12.1589641579
 20
-38.9379102014
 10
12.1918093233
 20
-38.888544024
 10
12.2526912514
 20
-38.7918326568
 10
12.3113592585
 20
-38.6915638737
 10
12.3674571492
 20
-38.588333793
 10
12.4200127802
 20
-38.4841969384
 10
12.4689031564
 20
-38.3800303929
 10
12.4991666333
 20
-38.3115071059
  0
LINE
  5
723
100
AcDbEntity
  8
ASSI
100
AcDbLine
 62
7
  6
CONTINUOUS
 10
12.158320347
 20
-38.9388615348
 11
12.158964161
 21
-38.9379101977
  0
LWPOLYLINE
  5
724
100
AcDbEntity
  8
ASSI
100
AcDbPolyline
 62
250
  6
CONTINUOUS
 90
10
 70
0
 10
4.6789762591
 20
-42.7704789208
 10
4.585711864
 20
-42.9058963818
 10
4.4830631907
 20
-43.0312422409
 10
4.3712594643
 20
-43.1463003343
 10
4.2505202685
 20
-43.250816655
 10
4.1209968314
 20
-43.3446723596
 10
3.9828533334
 20
-43.4277424829
 10
3.8365128179
 20
-43.4996361474
 10
3.6824927887
 20
-43.5599283971
 10
3.6410658434
 20
-43.57372418
  0
LWPOLYLINE
  5
725
100
AcDbEntity
  8
ASSI
100
AcDbPolyline
 62
250
  6
CONTINUOUS
 90
19
 70
0
 10
3.566091635
 20
-42.6535358891
 10
3.4921424661
 20
-42.7516432014
 10
3.4107319614
 20
-42.8438850556
 10
3.3218129772
 20
-42.9298575557
 10
3.2252307871
 20
-43.0091201689
 10
3.1210883711
 20
-43.0812543268
 10
3.0097826216
 20
-43.1459182191
 10
2.8914807875
 20
-43.2027410756
 10
2.7662220502
 20
-43.2513972938
 10
2.6342943229
 20
-43.2916879681
 10
2.4958815299
 20
-43.3232665261
 10
2.3511443297
 20
-43.3457735694
 10
2.2003803276
 20
-43.3590186085
 10
2.0437394808
 20
-43.3627210912
 10
1.8816014895
 20
-43.3565498428
 10
1.7146737322
 20
-43.3403230535
 10
1.5434365146
 20
-43.3138433231
 10
1.3681133999
 20
-43.2768590124
 10
1.1890671071
 20
-43.2291835356
  0
LWPOLYLINE
  5
726
100
AcDbEntity
  8
ASSI
100
AcDbPolyline
 62
250
  6
CONTINUOUS
 90
8
 70
0
 10
15.3184268624
 20
-25.0899288062
 10
15.3875521232
 20
-25.0409276937
 10
15.4474744816
 20
-24.9883762419
 10
15.4978750116
 20
-24.9327217758
 10
15.5384378068
 20
-24.8744063584
 10
15.5688353316
 20
-24.8138868846
 10
15.5887403188
 20
-24.7516373183
 10
15.5975246561
 20
-24.6938311077
  0
LWPOLYLINE
  5
727
100
AcDbEntity
  8
ASSI
100
AcDbPolyline
 62
250
  6
CONTINUOUS
 90
8
 70
0
 10
15.2006887485
 20
-26.4901448799
 10
15.2671536186
 20
-26.443688616
 10
15.3251992744
 20
-26.3936982279
 10
15.3745328131
 20
-26.3405720124
 10
15.4148642524
 20
-26.2847034466
 10
15.4458929924
 20
-26.2264991259
 10
15.467317973
 20
-26.1663810228
 10
15.4789228507
 20
-26.1046162908
  0
LWPOLYLINE
  5
728
100
AcDbEntity
  8
ASSI
100
AcDbPolyline
 62
250
  6
CONTINUOUS
 90
8
 70
0
 10
15.039457164
 20
-27.8761877781
 10
15.1032875166
 20
-27.8322906467
 10
15.1594254097
 20
-27.7849050703
 10
15.2076048853
 20
-27.7343820668
 10
15.2475627842
 20
-27.6810682726
 10
15.2790263104
 20
-27.6253218499
 10
15.3017216575
 20
-27.5675147115
 10
15.3162892407
 20
-27.5021312724
  0
LWPOLYLINE
  5
729
100
AcDbEntity
  8
ASSI
100
AcDbPolyline
 62
250
  6
CONTINUOUS
 90
22
 70
0
 10
-0.5501121057
 20
-34.8495741322
 10
-0.1890116667
 20
-34.6485871052
 10
0.1603375234
 20
-34.4234648443
 10
0.497308161
 20
-34.1746994924
 10
0.8214053301
 20
-33.9029236479
 10
1.1315843809
 20
-33.6087777892
 10
1.4264168038
 20
-33.2930545087
 10
1.7071023644
 20
-32.9548075598
 10
1.9710415356
 20
-32.5964477021
 10
2.2122635205
 20
-32.2254139642
 10
2.4307599465
 20
-31.8448123034
 10
2.6276798151
 20
-31.4559215292
 10
2.8005801779
 20
-31.0655432707
 10
2.9499360709
 20
-30.678015342
 10
3.0781279188
 20
-30.2941380551
 10
3.1863458508
 20
-29.915905273
 10
3.2754917299
 20
-29.5475138049
 10
3.347655981
 20
-29.1885614876
 10
3.4051833327
 20
-28.833556517
 10
3.449079795
 20
-28.4812602035
 10
3.4796165664
 20
-28.1349864976
 10
3.5008379786
 20
-27.7975073186
  0
LWPOLYLINE
  5
72A
100
AcDbEntity
  8
ASSI
100
AcDbPolyline
 62
250
  6
CONTINUOUS
 90
13
 70
0
 10
6.9688477006
 20
-30.6060654038
 10
6.8765146608
 20
-30.6390080949
 10
6.7789104796
 20
-30.6668426254
 10
6.6767907525
 20
-30.6894430427
 10
6.5709020129
 20
-30.7066845663
 10
6.4620158067
 20
-30.7184377187
 10
6.3509314401
 20
-30.7245742893
 10
6.2383835018
 20
-30.725003394
 10
6.1252134729
 20
-30.7197591405
 10
6.0123858041
 20
-30.7089291286
 10
5.9007574387
 20
-30.6926135768
 10
5.7910769602
 20
-30.6708997663
 10
5.6841387638
 20
-30.6438781155
  0
LWPOLYLINE
  5
72B
100
AcDbEntity
  8
ASSI
100
AcDbPolyline
 62
250
  6
CONTINUOUS
 90
16
 70
0
 10
7.153818333
 20
-27.4841018768
 10
7.0749652257
 20
-27.5119361023
 10
6.9920030699
 20
-27.536434341
 10
6.9053804117
 20
-27.5574966359
 10
6.8154349677
 20
-27.5750420655
 10
6.7227348023
 20
-27.5889395435
 10
6.6281082162
 20
-27.5990548812
 10
6.5323069173
 20
-27.6053165332
 10
6.4355525777
 20
-27.6077024418
 10
6.3379321426
 20
-27.6062136065
 10
6.2397048872
 20
-27.6008627981
 10
6.1417579942
 20
-27.591688487
 10
6.0451560387
 20
-27.5788044712
 10
5.9506226916
 20
-27.5623367815
 10
5.8585540219
 20
-27.5423614274
 10
5.7694978502
 20
-27.5189715411
  0
LWPOLYLINE
  5
72C
100
AcDbEntity
  8
ASSI
100
AcDbPolyline
 62
250
  6
CONTINUOUS
 90
13
 70
0
 10
7.0650007278
 20
-29.2166418735
 10
6.968668153
 20
-29.2503696788
 10
6.8666595831
 20
-29.2787836912
 10
6.759825798
 20
-29.3017463826
 10
6.6490076377
 20
-29.3191214429
 10
6.5350742474
 20
-29.3307674267
 10
6.4189260955
 20
-29.33654443
 10
6.3013916127
 20
-29.3363542678
 10
6.1834238375
 20
-29.3302407521
 10
6.0661145273
 20
-29.3183089046
 10
5.9504327454
 20
-29.3006772745
 10
5.8372251497
 20
-29.2774490895
 10
5.7273894839
 20
-29.2487313492
  0
LWPOLYLINE
  5
72D
100
AcDbEntity
  8
ASSI
100
AcDbPolyline
 62
250
  6
CONTINUOUS
 90
3
 70
0
 10
-0.4333467925
 20
-32.1644817541
 10
-0.6214715448
 20
-32.2285538871
 10
-0.8197090096
 20
-32.2875736957
  0
LWPOLYLINE
  5
72E
100
AcDbEntity
  8
ASSI
100
AcDbPolyline
 62
250
  6
CONTINUOUS
 90
6
 70
0
 10
11.9680174418
 20
-39.1259583295
 10
11.8692359124
 20
-39.2641343576
 10
11.7643579724
 20
-39.39059485
 10
11.6536386568
 20
-39.505110738
 10
11.5374230295
 20
-39.6073652745
 10
11.4468687323
 20
-39.6758370072
  0
LWPOLYLINE
  5
72F
100
AcDbEntity
  8
ASSI
100
AcDbPolyline
 62
250
  6
CONTINUOUS
 90
4
 70
0
 10
12.5629274318
 20
-38.0712604038
 10
12.6039399602
 20
-38.0192186163
 10
12.6383239592
 20
-37.9638069666
 10
12.6659840129
 20
-37.9047098935
  0
LWPOLYLINE
  5
730
100
AcDbEntity
  8
ASSI
100
AcDbPolyline
 62
250
  6
CONTINUOUS
 90
9
 70
0
 10
14.7579465131
 20
-29.7019484048
 10
14.8189181905
 20
-29.6606986924
 10
14.8729284005
 20
-29.6160101112
 10
14.9197478521
 20
-29.568184506
 10
14.959149919
 20
-29.5175197841
 10
14.9908993824
 20
-29.4643238252
 10
15.0147595852
 20
-29.4089166481
 10
15.0305447951
 20
-29.3515970579
 10
15.032389269
 20
-29.3418632001
  0
LWPOLYLINE
  5
731
100
AcDbEntity
  8
ASSI
100
AcDbPolyline
 62
250
  6
CONTINUOUS
 90
8
 70
0
 10
14.1665346786
 20
-32.5294760753
 10
14.224845625
 20
-32.4903730783
 10
14.2769253867
 20
-32.4477685085
 10
14.3225678534
 20
-32.4019309282
 10
14.3615694218
 20
-32.353125343
 10
14.3937187851
 20
-32.3016255052
 10
14.418802823
 20
-32.2477160591
 10
14.4372712151
 20
-32.1891447256
  0
LWPOLYLINE
  5
732
100
AcDbEntity
  8
ASSI
100
AcDbPolyline
 62
250
  6
CONTINUOUS
 90
13
 70
0
 10
6.6688494863
 20
-33.7464969182
 10
6.5845934921
 20
-33.7778610415
 10
6.4959067673
 20
-33.8045209278
 10
6.4033590939
 20
-33.8263788851
 10
6.3075128902
 20
-33.8433382985
 10
6.2089496206
 20
-33.8552987061
 10
6.1082719903
 20
-33.8621604456
 10
6.0060352012
 20
-33.8638518549
 10
5.9028851807
 20
-33.8603905801
 10
5.7995656863
 20
-33.8518326956
 10
5.6967396739
 20
-33.8382450658
 10
5.5949870864
 20
-33.8196857565
 10
5.4949237595
 20
-33.7962148549
  0
LWPOLYLINE
  5
733
100
AcDbEntity
  8
ASSI
100
AcDbPolyline
 62
250
  6
CONTINUOUS
 90
13
 70
0
 10
6.8536762499
 20
-31.9690782352
 10
6.7652312379
 20
-32.001318786
 10
6.6719081819
 20
-32.0286636842
 10
6.5743730498
 20
-32.0509979845
 10
6.4732835838
 20
-32.0682078728
 10
6.3693195482
 20
-32.080175231
 10
6.2631852137
 20
-32.0867829334
 10
6.155528322
 20
-32.0879471633
 10
6.0470936911
 20
-32.083693382
 10
5.9387361942
 20
-32.0740933846
 10
5.8312166671
 20
-32.059230791
 10
5.7252002624
 20
-32.0391785115
 10
5.621393029
 20
-32.0140119686
  0
LWPOLYLINE
  5
734
100
AcDbEntity
  8
ASSI
100
AcDbPolyline
 62
250
  6
CONTINUOUS
 90
5
 70
0
 10
11.9680174459
 20
-39.1259583232
 10
12.0287163133
 20
-39.0809712136
 10
12.0833592477
 20
-39.0306877912
 10
12.1317461097
 20
-38.97533524
 10
12.158320347
 20
-38.9388615348
  0
LWPOLYLINE
  5
735
100
AcDbEntity
  8
ASSI
100
AcDbPolyline
 62
7
  6
CONTINUOUS
 90
8
 70
0
 10
11.4464046376
 20
-39.6761645947
 10
11.5025649001
 20
-39.6353701165
 10
11.6394322685
 20
-39.5257139812
 10
11.7719102314
 20
-39.4042476785
 10
11.8987083657
 20
-39.2717506237
 10
12.0193534186
 20
-39.1285411983
 10
12.1338540624
 20
-38.9744219656
 10
12.158320347
 20
-38.9388615348
  0
LWPOLYLINE
  5
736
100
AcDbEntity
  8
ASSI
100
AcDbPolyline
 62
250
  6
CONTINUOUS
 90
8
 70
0
 10
12.4411370136
 20
-38.1080665654
 10
12.4994690964
 20
-38.0678732159
 10
12.5523838854
 20
-38.023391577
 10
12.5995376881
 20
-37.9749635644
 10
12.6405890567
 20
-37.9229275795
 10
12.6751884533
 20
-37.8676311343
 10
12.7029836527
 20
-37.8094333475
 10
12.7057042007
 20
-37.8026322592
  0
LWPOLYLINE
  5
737
100
AcDbEntity
  8
ASSI
100
AcDbPolyline
 62
250
  6
CONTINUOUS
 90
4
 70
0
 10
12.4037403929
 20
-38.2036080896
 10
12.462469607
 20
-38.1638067775
 10
12.5156516833
 20
-38.1195730634
 10
12.5629274318
 20
-38.0712604038
  0
LWPOLYLINE
  5
738
100
AcDbEntity
  8
ASSI
100
AcDbPolyline
 62
250
  6
CONTINUOUS
 90
7
 70
0
 10
12.2555464791
 20
-38.5736186446
 10
12.3146869903
 20
-38.535606008
 10
12.3674315134
 20
-38.4931426473
 10
12.4135864178
 20
-38.4464199166
 10
12.4529496779
 20
-38.3956461953
 10
12.4852816395
 20
-38.3411038329
 10
12.4991618519
 20
-38.3115182429
  0
LWPOLYLINE
  5
739
100
AcDbEntity
  8
ASSI
100
AcDbPolyline
 62
250
  6
CONTINUOUS
 90
13
 70
0
 10
6.2910024863
 20
-36.4672421715
 10
6.2107817138
 20
-36.4974050339
 10
6.1265373888
 20
-36.5229625074
 10
6.0387668586
 20
-36.5438314256
 10
5.9479609458
 20
-36.559929581
 10
5.8546269438
 20
-36.5711714258
 10
5.7592905101
 20
-36.5774722156
 10
5.6624339097
 20
-36.5787712971
 10
5.5646089753
 20
-36.5750850239
 10
5.4664503456
 20
-36.5664634319
 10
5.3685233906
 20
-36.5529658712
 10
5.2713218271
 20
-36.5346437088
 10
5.1753707704
 20
-36.5115502343
  0
LWPOLYLINE
  5
73A
100
AcDbEntity
  8
ASSI
100
AcDbPolyline
 62
7
  6
CONTINUOUS
 90
12
 70
0
 10
7.6990314116
 20
-41.9203703076
 10
7.8205122192
 20
-41.8536441109
 10
7.9375936437
 20
-41.777161389
 10
8.0492373124
 20
-41.6913393696
 10
8.1555008751
 20
-41.5962231392
 10
8.255709195
 20
-41.4924247805
 10
8.349846119
 20
-41.3798484159
 10
8.4379278001
 20
-41.2585899232
 10
8.5193275606
 20
-41.1295490187
 10
8.593836508
 20
-40.993025608
 10
8.6616635349
 20
-40.8487197855
 10
8.7228086412
 20
-40.6966315513
  0
LWPOLYLINE
  5
73B
100
AcDbEntity
  8
ASSI
100
AcDbPolyline
 62
250
  6
CONTINUOUS
 90
10
 70
0
 10
8.7228041804
 20
-40.6966463939
 10
9.1289387095
 20
-40.4890534841
 10
9.5318005338
 20
-40.2743399566
 10
9.9313308266
 20
-40.0525320943
 10
10.3274576466
 20
-39.8236893431
 10
10.7201331015
 20
-39.5878105967
 10
11.1093330862
 20
-39.3448341511
 10
11.4950078241
 20
-39.0947627102
 10
11.8770821531
 20
-38.837663438
 10
12.2554925022
 20
-38.573574212
  0
LWPOLYLINE
  5
73C
100
AcDbEntity
  8
ASSI
100
AcDbPolyline
 62
7
  6
CONTINUOUS
 90
10
 70
0
 10
7.6988698309
 20
-41.9204511086
 10
8.0464794982
 20
-41.7436732628
 10
8.5295153064
 20
-41.4879983641
 10
9.0084140895
 20
-41.2227088942
 10
9.4830556755
 20
-40.9478406366
 10
9.9532928459
 20
-40.6634462265
 10
10.4189518096
 20
-40.3695977162
 10
10.879877024
 20
-40.0663611519
 10
11.3359286536
 20
-39.7538056135
 10
11.4470410723
 20
-39.6757186666
  0
LWPOLYLINE
  5
73D
100
AcDbEntity
  8
ASSI
100
AcDbPolyline
 62
250
  6
CONTINUOUS
 90
10
 70
0
 10
8.7228037669
 20
-40.6966466007
 10
8.3132047799
 20
-40.8969204488
 10
7.9002119608
 20
-41.090134243
 10
7.4838746513
 20
-41.276260182
 10
7.0642314371
 20
-41.4553024479
 10
6.6413406831
 20
-41.6272068059
 10
6.2152802712
 20
-41.7918605586
 10
5.786106944
 20
-41.9492131502
 10
5.353856563
 20
-42.0992762331
 10
4.9185744666
 20
-42.2420332298
  0
LWPOLYLINE
  5
73E
100
AcDbEntity
  8
ASSI
100
AcDbPolyline
 62
250
  6
CONTINUOUS
 90
13
 70
0
 10
4.9186192912
 20
-42.2420822385
 10
4.8351596655
 20
-42.2753696704
 10
4.7477617419
 20
-42.302977533
 10
4.6567915983
 20
-42.3248173263
 10
4.5626515298
 20
-42.3407952693
 10
4.4658995388
 20
-42.3507948832
 10
4.3671369605
 20
-42.3546945127
 10
4.2669457457
 20
-42.3524078876
 10
4.1660386795
 20
-42.3439921994
 10
4.0652161292
 20
-42.3295602513
 10
3.9651677248
 20
-42.3092359467
 10
3.8663489707
 20
-42.2831431133
 10
3.7692060884
 20
-42.2514118066
  0
LWPOLYLINE
  5
73F
100
AcDbEntity
  8
ASSI
100
AcDbPolyline
 62
250
  6
CONTINUOUS
 90
13
 70
0
 10
5.0236874953
 20
-41.8936345385
 10
4.9434048325
 20
-41.9233391647
 10
4.8587494626
 20
-41.9480241737
 10
4.7703735882
 20
-41.9675373256
 10
4.6789232346
 20
-41.9817269791
 10
4.5850613986
 20
-41.9904382469
 10
4.4894697748
 20
-41.9935176865
 10
4.392753431
 20
-41.9908562259
 10
4.2954535666
 20
-41.982511161
 10
4.1981594946
 20
-41.9686004093
 10
4.1013911247
 20
-41.949249238
 10
4.005597845
 20
-41.9245706895
 10
3.9112603587
 20
-41.8946811304
  0
LWPOLYLINE
  5
740
100
AcDbEntity
  8
ASSI
100
AcDbPolyline
 62
250
  6
CONTINUOUS
 90
13
 70
0
 10
5.0506484325
 20
-41.803310856
 10
4.9717780022
 20
-41.8317187629
 10
4.8886626401
 20
-41.8552521996
 10
4.8019225704
 20
-41.8737711233
 10
4.7121721554
 20
-41.8871360302
 10
4.6200418061
 20
-41.8952044579
 10
4.5261796355
 20
-41.8978353561
 10
4.431161009
 20
-41.8949286415
 10
4.335501666
 20
-41.8865387192
 10
4.239763792
 20
-41.8727767129
 10
4.1444434764
 20
-41.8537604348
 10
4.0499693916
 20
-41.8295960125
 10
3.9568002633
 20
-41.8003928253
  0
LWPOLYLINE
  5
741
100
AcDbEntity
  8
ASSI
100
AcDbPolyline
 62
7
  6
CONTINUOUS
 90
10
 70
0
 10
3.6394373877
 20
-43.5742516693
 10
3.7902367521
 20
-43.5254539118
 10
4.3107606191
 20
-43.3498944944
 10
4.8273766665
 20
-43.1645525293
 10
5.3399176738
 20
-42.9694970062
 10
5.8482729637
 20
-42.7647851975
 10
6.352370228
 20
-42.5504603102
 10
6.8521033667
 20
-42.3265800704
 10
7.3473312785
 20
-42.0932192552
 10
7.6988611287
 20
-41.9204554597
  0
LWPOLYLINE
  5
742
100
AcDbEntity
  8
ASSI
100
AcDbPolyline
 62
250
  6
CONTINUOUS
 90
13
 70
0
 10
4.6789762629
 20
-42.7704789147
 10
4.5961893113
 20
-42.7972347145
 10
4.5099239336
 20
-42.8174054483
 10
4.420547132
 20
-42.8309347288
 10
4.3284594298
 20
-42.8377670874
 10
4.2342059976
 20
-42.8378502848
 10
4.1383724131
 20
-42.8311339507
 10
4.0415253563
 20
-42.8175996013
 10
3.9443588669
 20
-42.79738149
 10
3.8476510805
 20
-42.7706795818
 10
3.7520729409
 20
-42.7376923489
 10
3.6580729746
 20
-42.6985871461
 10
3.5660916381
 20
-42.6535358844
  0
ARC
  5
743
100
AcDbEntity
  8
0
100
AcDbCircle
 62
7
  6
CONTINUOUS
 10
-6.7172381707
 20
13.785376586
 40
2.2
100
AcDbArc
 50
28.7537201592
 51
151.2462798408
  0
ARC
  5
744
100
AcDbEntity
  8
0
100
AcDbCircle
 62
7
  6
CONTINUOUS
 10
6.7177906719
 20
7.0678621647
 40
2.2
100
AcDbArc
 50
28.7537201592
 51
151.2462798408
  0
ELLIPSE
  5
745
100
AcDbEntity
  8
ASSI
100
AcDbEllipse
 62
7
  6
CONTINUOUS
 10
-4.6579370914
 20
-4.5808958407
 30
0.0
 11
-0.4194749203
 21
0.7200667847
 31
0.0
 40
0.2927169918
 41
-4.246763099
 42
-4.1785905965
  0
ELLIPSE
  5
746
100
AcDbEntity
  8
ASSI
100
AcDbEllipse
 62
7
  6
CONTINUOUS
 10
-4.5824390305
 20
-4.6186448712
 30
0.0
 11
0.6374616335
 21
0.0627021877
 31
0.0
 40
0.6742452939
 41
-1.7051921639
 42
-1.6370196614
  0
ELLIPSE
  5
747
100
AcDbEntity
  8
ASSI
100
AcDbEllipse
 62
7
  6
CONTINUOUS
 10
-3.5067402774
 20
-5.1564942477
 30
0.0
 11
0.9743775683
 21
-0.1665598873
 31
0.0
 40
0.4329633795
 41
-1.6047480622
 42
-1.4969203526
  0
ELLIPSE
  5
748
100
AcDbEntity
  8
ASSI
100
AcDbEllipse
 62
7
  6
CONTINUOUS
 10
-2.6418504815
 20
-5.5889391457
 30
0.0
 11
-0.0385830359
 21
0.5777711022
 31
0.0
 40
0.0748352799
 41
-3.6904399317
 42
-3.60055798
  0
ELLIPSE
  5
749
100
AcDbEntity
  8
ASSI
100
AcDbEllipse
 62
7
  6
CONTINUOUS
 10
-1.5234682531
 20
-6.1481302599
 30
0.0
 11
0.7646784279
 21
-0.0425681382
 31
0.0
 40
0.5647972645
 41
-1.8089714916
 42
-1.7190895399
  0
ELLIPSE
  5
74A
100
AcDbEntity
  8
ASSI
100
AcDbEllipse
 62
7
  6
CONTINUOUS
 10
-1.5577959235
 20
-6.1309664247
 30
0.0
 11
0.5627080515
 21
0.1476217994
 31
0.0
 40
0.7331617848
 41
-1.9405387411
 42
-1.7608147337
  0
ELLIPSE
  5
74B
100
AcDbEntity
  8
ASSI
100
AcDbEllipse
 62
7
  6
CONTINUOUS
 10
-429.229579345
 20
-190.6132650002
 30
0.0
 11
3905.5990699084
 21
1910.8764293677
 31
0.0
 40
0.0069656025
 41
-1.4605409362
 42
-1.4604230448
  0
ELLIPSE
  5
74C
100
AcDbEntity
  8
ASSI
100
AcDbEllipse
 62
7
  6
CONTINUOUS
 10
381.6418454724
 20
214.8224474085
 30
0.0
 11
3905.596832344
 21
1994.3646092707
 31
0.0
 40
0.0069954718
 41
-1.6706965064
 42
-1.6705722603
  0
ENDSEC
  0
SECTION
  2
OBJECTS
  0
DICTIONARY
  5
C
100
AcDbDictionary
280
0
281
1
  3
ACAD_GROUP
350
D
  3
ACAD_MLINESTYLE
350
17
  3
ACAD_LAYOUT
350
1A
  3
ACAD_PLOTSETTINGS
350
19
  3
ACAD_PLOTSTYLENAME
350
E
  0
DICTIONARY
  5
D
102
{ACAD_REACTORS
330
C
102
}
100
AcDbDictionary
280
0
281
1
  0
ACDBDICTIONARYWDFLT
  5
E
102
{ACAD_REACTORS
330
C
102
}
100
AcDbDictionary
281
1
  3
Normal
350
F
100
AcDbDictionaryWithDefault
340
F
  0
DICTIONARY
  5
17
102
{ACAD_REACTORS
330
C
102
}
100
AcDbDictionary
280
0
281
1
  3
Standard
350
18
  0
DICTIONARY
  5
19
102
{ACAD_REACTORS
330
C
102
}
100
AcDbDictionary
281
1
  0
DICTIONARY
  5
1A
102
{ACAD_REACTORS
330
C
102
}
100
AcDbDictionary
281
1
  3
Model
350
74D
  3
Layout1
350
74E
  0
ACDBPLACEHOLDER
  5
F
102
{ACAD_REACTORS
330
E
102
}
  0
MLINESTYLE
  5
18
102
{ACAD_REACTORS
330
17
102
}
100
AcDbMlineStyle
  2
STANDARD
 70
0
  3

 62
256
 51
90.0
 52
90.0
 71
2
 49
0.5
 62
256
  6
BYLAYER
 49
-0.5
 62
256
  6
BYLAYER
  0
LAYOUT
  5
74D
102
{ACAD_REACTORS
330
1A
102
}
100
AcDbPlotSettings
  1

  2
none_device
  4
ANSI_C_(22.00_x_17.00_Inches)
  6

 40
0.0
 41
0.0
 42
0.0
 43
0.0
 44
558.8
 45
431.8
 46
0.0
 47
0.0
 48
0.0
 49
0.0
140
0.0
141
0.0
142
1.0
143
1.0
 70
1024
 72
1
 73
0
 74
0
  7

 75
0
147
1.0
148
0.0
149
0.0
100
AcDbLayout
  1
Model
 70
0
 71
0
 10
0.0
 20
0.0
 11
558.8
 21
431.8
 12
0.0
 22
0.0
 32
0.0
 14
0.0
 24
0.0
 34
0.0
 15
0.0
 25
0.0
 35
0.0
146
0.0
 13
0.0
 23
0.0
 33
0.0
 16
1.0
 26
0.0
 36
0.0
 17
0.0
 27
1.0
 37
0.0
 76
0
330
21F
345
0
346
0
  0
LAYOUT
  5
74E
102
{ACAD_REACTORS
330
1A
102
}
100
AcDbPlotSettings
  1

  2
none_device
  4
ANSI_C_(22.00_x_17.00_Inches)
  6

 40
0.0
 41
0.0
 42
0.0
 43
0.0
 44
558.8
 45
431.8
 46
0.0
 47
0.0
 48
0.0
 49
0.0
140
0.0
141
0.0
142
1.0
143
1.0
 70
0
 72
1
 73
0
 74
0
  7

 75
0
147
1.0
148
0.0
149
0.0
100
AcDbLayout
  1
Layout1
 70
0
 71
1
 10
0.0
 20
0.0
 11
558.8
 21
431.8
 12
0.0
 22
0.0
 32
0.0
 14
0.0
 24
0.0
 34
0.0
 15
0.0
 25
0.0
 35
0.0
146
0.0
 13
0.0
 23
0.0
 33
0.0
 16
1.0
 26
0.0
 36
0.0
 17
0.0
 27
1.0
 37
0.0
 76
0
330
220
345
0
346
0
  0
ENDSEC
  0
EOF
