  0
SECTION
  2
HEADER
  9
$ACADVER
  1
AC1024
  9
$DWGCODEPAGE
  3
ANSI_1252
  9
$EXTMAX
 10
558.8
 20
431.8
 30
0.0
  9
$EXTMIN
 10
0.0
 20
0.0
 30
0.0
  9
$LIMMIN
 10
0.0
 20
0.0
  9
$LIMMAX
 10
558.8
 20
431.8
  9
$VIEWCTR
 10
279.4
 20
215.9
  9
$VIEWSIZE
 40
431.8
  9
$CLAYER
  8
0
  9
$LTSCALE
 40
30.734
  9
$CELTYPE
  6
BYLAYER
  9
$DIMSCALE
 40
1.0
  9
$DIMASZ
 40
3.0
  9
$DIMEXO
 40
0.5
  9
$DIMDLI
 40
21.2344
  9
$DIMEXE
 40
1.5
  9
$DIMCEN
 40
5.0292
  9
$DIMLFAC
 40
1.0
  9
$DIMBLK
  1
_FILLED
  9
$DIMALT
 70
0
  9
$DIMALTF
 40
0.0393700787
  9
$DIMTXT
 40
3.0
  9
$DIMTOL
 70
1
  9
$DIMLIM
 70
0
  9
$DIMTFAC
 40
1.0
  9
$DIMTP
 40
0.01
  9
$DIMTM
 40
0.01
  9
$DIMGAP
 40
0.625
  9
$DIMDSEP
 70
44
  9
$AUNITS
 70
0
  9
$PDMODE
 70
3
  9
$PDSIZE
 40
3.0
  9
$HANDSEED
  5
452
  9
$TILEMODE
 70
1
  9
$MEASUREMENT
 70
1
  9
$INSUNITS
 70
4
  0
ENDSEC
  0
SECTION
  2
CLASSES
  0
CLASS
  1
ACDBDICTIONARYWDFLT
  2
AcDbDictionaryWithDefault
  3
AutoCAD 2000
 90
0
 91
1
280
0
281
0
  0
CLASS
  1
ACDBPLACEHOLDER
  2
AcDbPlaceHolder
  3
AutoCAD 2000
 90
0
 91
1
280
0
281
0
  0
CLASS
  1
LAYOUT
  2
AcDbLayout
  3
AutoCAD 2000
 90
0
 91
0
280
0
281
0
  0
ENDSEC
  0
SECTION
  2
TABLES
  0
TABLE
  2
VPORT
  5
8
100
AcDbSymbolTable
 70
2
  0
VPORT
  5
1F4
100
AcDbSymbolTableRecord
100
AcDbViewportTableRecord
  2
*ACTIVE
 70
0
 10
0.0
 20
0.0
 11
1.0
 21
1.0
 12
279.4
 22
215.9
 13
0.0
 23
0.0
 14
1.0
 24
1.0
 15
0.0
 25
0.0
 16
0.0
 26
0.0
 36
1.0
 17
0.0
 27
0.0
 37
0.0
 40
431.8
 41
1.2941176471
 42
50.0
 43
0.0
 44
0.0
 50
0.0
 51
0.0
 71
0
 72
100
 73
1
 74
1
 75
0
 76
0
 77
0
 78
0
  0
ENDTAB
  0
TABLE
  2
LTYPE
  5
5
100
AcDbSymbolTable
 70
6
  0
LTYPE
  5
14
100
AcDbSymbolTableRecord
100
AcDbLinetypeTableRecord
  2
BYBLOCK
 70
0
  3

 72
65
 73
0
 40
0.0
  0
LTYPE
  5
15
100
AcDbSymbolTableRecord
100
AcDbLinetypeTableRecord
  2
BYLAYER
 70
0
  3

 72
65
 73
0
 40
0.0
  0
LTYPE
  5
16
100
AcDbSymbolTableRecord
100
AcDbLinetypeTableRecord
  2
CONTINUOUS
 70
64
  3
Solid line
 72
65
 73
0
 40
0.0
  0
LTYPE
  5
1F5
100
AcDbSymbolTableRecord
100
AcDbLinetypeTableRecord
  2
CENTER
 70
64
  3
____ _ ____ _ ____ _ ____ _ ____ _ ____ _ ____
 72
65
 73
4
 40
0.6
 49
0.375
 74
0
 49
-0.075
 74
0
 49
0.075
 74
0
 49
-0.075
 74
0
  0
LTYPE
  5
1F6
100
AcDbSymbolTableRecord
100
AcDbLinetypeTableRecord
  2
HIDDEN
 70
64
  3
- - - - - - - - - - - - - - - - - - - -
 72
65
 73
2
 40
0.2
 49
0.1
 74
0
 49
-0.1
 74
0
  0
LTYPE
  5
1F7
100
AcDbSymbolTableRecord
100
AcDbLinetypeTableRecord
  2
PHANTOM
 70
64
  3
_____ _ _ _____ _ _ _____ _ _ _____
 72
65
 73
6
 40
0.8
 49
0.45
 74
0
 49
-0.05
 74
0
 49
0.1
 74
0
 49
-0.05
 74
0
 49
0.1
 74
0
 49
-0.05
 74
0
  0
LTYPE
  5
1F8
100
AcDbSymbolTableRecord
100
AcDbLinetypeTableRecord
  2
DOT
 70
64
  3
. . . . . . . . . . . . . . . . . . . .
 72
65
 73
2
 40
0.2
 49
0.1
 74
0
 49
-0.1
 74
0
  0
LTYPE
  5
1F9
100
AcDbSymbolTableRecord
100
AcDbLinetypeTableRecord
  2
DASHED
 70
64
  3
- - - - - - - - - - - - - - - - - - - -
 72
65
 73
2
 40
0.2
 49
0.1
 74
0
 49
-0.1
 74
0
  0
ENDTAB
  0
TABLE
  2
LAYER
  5
2
100
AcDbSymbolTable
 70
36
  0
LAYER
  5
10
100
AcDbSymbolTableRecord
100
AcDbLayerTableRecord
  2
0
 70
0
 62
7
  6
CONTINUOUS
370
-3
390
F
  0
LAYER
  5
1FA
100
AcDbSymbolTableRecord
100
AcDbLayerTableRecord
  2
DEFAULT_1
 70
0
 62
7
  6
CENTER
370
-3
390
F
  0
LAYER
  5
1FB
100
AcDbSymbolTableRecord
100
AcDbLayerTableRecord
  2
DEFAULT_2
 70
0
 62
7
  6
HIDDEN
370
-3
390
F
  0
LAYER
  5
1FC
100
AcDbSymbolTableRecord
100
AcDbLayerTableRecord
  2
DEFAULT_3
 70
0
 62
7
  6
PHANTOM
370
-3
390
F
  0
LAYER
  5
1FD
100
AcDbSymbolTableRecord
100
AcDbLayerTableRecord
  2
ASSI
 70
0
 62
7
  6
CONTINUOUS
370
-3
390
F
  0
LAYER
  5
1FE
100
AcDbSymbolTableRecord
100
AcDbLayerTableRecord
  2
COLOR5
 70
0
 62
7
  6
CONTINUOUS
370
-3
390
F
  0
LAYER
  5
1FF
100
AcDbSymbolTableRecord
100
AcDbLayerTableRecord
  2
COORDINATE
 70
0
 62
7
  6
CONTINUOUS
370
-3
390
F
  0
LAYER
  5
200
100
AcDbSymbolTableRecord
100
AcDbLayerTableRecord
  2
COORD_ORIGINE
 70
0
 62
7
  6
CONTINUOUS
370
-3
390
F
  0
LAYER
  5
201
100
AcDbSymbolTableRecord
100
AcDbLayerTableRecord
  2
COSMETICHE
 70
0
 62
7
  6
CONTINUOUS
370
-3
390
F
  0
LAYER
  5
202
100
AcDbSymbolTableRecord
100
AcDbLayerTableRecord
  2
CURVE
 70
0
 62
7
  6
CONTINUOUS
370
-3
390
F
  0
LAYER
  5
203
100
AcDbSymbolTableRecord
100
AcDbLayerTableRecord
  2
DRAFT
 70
0
 62
7
  6
CONTINUOUS
370
-3
390
F
  0
LAYER
  5
204
100
AcDbSymbolTableRecord
100
AcDbLayerTableRecord
  2
IGES
 70
0
 62
7
  6
CONTINUOUS
370
-3
390
F
  0
LAYER
  5
205
100
AcDbSymbolTableRecord
100
AcDbLayerTableRecord
  2
INTF_1
 70
0
 62
7
  6
CONTINUOUS
370
-3
390
F
  0
LAYER
  5
206
100
AcDbSymbolTableRecord
100
AcDbLayerTableRecord
  2
INTF_11
 70
0
 62
7
  6
CONTINUOUS
370
-3
390
F
  0
LAYER
  5
207
100
AcDbSymbolTableRecord
100
AcDbLayerTableRecord
  2
INTF_2
 70
0
 62
7
  6
CONTINUOUS
370
-3
390
F
  0
LAYER
  5
208
100
AcDbSymbolTableRecord
100
AcDbLayerTableRecord
  2
INTF_3
 70
0
 62
7
  6
CONTINUOUS
370
-3
390
F
  0
LAYER
  5
209
100
AcDbSymbolTableRecord
100
AcDbLayerTableRecord
  2
INTF_YELLOW
 70
0
 62
7
  6
CONTINUOUS
370
-3
390
F
  0
LAYER
  5
20A
100
AcDbSymbolTableRecord
100
AcDbLayerTableRecord
  2
NOTE
 70
0
 62
7
  6
CONTINUOUS
370
-3
390
F
  0
LAYER
  5
20B
100
AcDbSymbolTableRecord
100
AcDbLayerTableRecord
  2
PIANI
 70
0
 62
7
  6
CONTINUOUS
370
-3
390
F
  0
LAYER
  5
20C
100
AcDbSymbolTableRecord
100
AcDbLayerTableRecord
  2
PIANI_ORIGINE
 70
0
 62
7
  6
CONTINUOUS
370
-3
390
F
  0
LAYER
  5
20D
100
AcDbSymbolTableRecord
100
AcDbLayerTableRecord
  2
PUNTI
 70
0
 62
7
  6
CONTINUOUS
370
-3
390
F
  0
LAYER
  5
20E
100
AcDbSymbolTableRecord
100
AcDbLayerTableRecord
  2
RACCORDO
 70
0
 62
7
  6
CONTINUOUS
370
-3
390
F
  0
LAYER
  5
20F
100
AcDbSymbolTableRecord
100
AcDbLayerTableRecord
  2
SNAPLINE
 70
0
 62
7
  6
CONTINUOUS
370
-3
390
F
  0
LAYER
  5
210
100
AcDbSymbolTableRecord
100
AcDbLayerTableRecord
  2
SUPERFICI
 70
0
 62
7
  6
CONTINUOUS
370
-3
390
F
  0
LAYER
  5
211
100
AcDbSymbolTableRecord
100
AcDbLayerTableRecord
  2
TRASH
 70
0
 62
7
  6
CONTINUOUS
370
-3
390
F
  0
LAYER
  5
212
100
AcDbSymbolTableRecord
100
AcDbLayerTableRecord
  2
XSEC_DATUMS
 70
0
 62
7
  6
CONTINUOUS
370
-3
390
F
  0
ENDTAB
  0
TABLE
  2
STYLE
  5
3
100
AcDbSymbolTable
 70
1
  0
STYLE
  5
11
100
AcDbSymbolTableRecord
100
AcDbTextStyleTableRecord
  2
STANDARD
 70
0
 40
0.0
 41
0.8
 50
0.0
 71
0
 42
0.2
  3
txt
  4

  0
STYLE
  5
213
100
AcDbSymbolTableRecord
100
AcDbTextStyleTableRecord
  2
TEXTSTYLE_1
 70
0
 40
0.0
 41
0.8
 50
0.0
 71
0
 42
0.2
  3
gdt
  4

  0
ENDTAB
  0
TABLE
  2
VIEW
  5
6
100
AcDbSymbolTable
 70
0
  0
ENDTAB
  0
TABLE
  2
UCS
  5
7
100
AcDbSymbolTable
 70
0
  0
ENDTAB
  0
TABLE
  2
APPID
  5
9
100
AcDbSymbolTable
 70
1
  0
APPID
  5
214
100
AcDbSymbolTableRecord
100
AcDbRegAppTableRecord
  2
ACAD
 70
0
  0
ENDTAB
  0
TABLE
  2
BLOCK_RECORD
  5
1
100
AcDbSymbolTable
 70
0
  0
BLOCK_RECORD
  5
215
100
AcDbSymbolTableRecord
100
AcDbBlockTableRecord
  2
*Model_Space
  0
BLOCK_RECORD
  5
216
100
AcDbSymbolTableRecord
100
AcDbBlockTableRecord
  2
*Paper_Space
  0
BLOCK_RECORD
  5
217
100
AcDbSymbolTableRecord
100
AcDbBlockTableRecord
  2
_FILLED
  0
ENDTAB
  0
TABLE
  2
DIMSTYLE
  5
A
100
AcDbSymbolTable
 70
1
100
AcDbDimStyleTable
 71
0
  0
DIMSTYLE
105
218
100
AcDbSymbolTableRecord
100
AcDbDimStyleTableRecord
  2
STANDARD
 70
0
  3

  4

 40
1.0
 41
3.0
 42
0.5
 43
0.38
 44
1.5
 45
0.0
 46
0.0
 47
0.01
 48
0.01
140
3.0
141
0.09
142
0.0
143
25.4
144
1.0
145
0.0
146
1.0
147
0.625
 71
1
 72
0
 73
0
 74
0
 75
0
 76
0
 77
1
 78
8
 79
2
170
0
171
1
172
0
173
0
174
0
175
0
176
0
177
0
178
0
270
2
179
2
271
2
272
2
273
2
274
2
275
0
280
0
281
0
282
0
283
1
284
8
285
0
286
0
287
3
288
0
340
11
278
44
341
217
342
217
343
217
344
217
  0
ENDTAB
  0
ENDSEC
  0
SECTION
  2
BLOCKS
  0
BLOCK
  5
20
100
AcDbEntity
  8
0
100
AcDbBlockBegin
  2
*Model_Space
 70
0
 10
0.0
 20
0.0
 30
0.0
  3
*Model_Space
  1

  0
ENDBLK
  5
21
100
AcDbEntity
  8
0
100
AcDbBlockEnd
  0
BLOCK
  5
1C
100
AcDbEntity
  8
0
100
AcDbBlockBegin
  2
*Paper_Space
 70
0
 10
0.0
 20
0.0
 30
0.0
  3
*Paper_Space
  1

  0
ENDBLK
  5
1D
100
AcDbEntity
  8
0
100
AcDbBlockEnd
  0
BLOCK
  5
219
100
AcDbEntity
  8
0
100
AcDbBlockBegin
  2
_FILLED
 70
64
 10
0.0
 20
0.0
  3
_FILLED
  1

  0
SOLID
  5
21A
100
AcDbEntity
  8
0
  6
BYBLOCK
 62
0
100
AcDbTrace
 10
0.0
 20
0.0
 11
-1.0
 21
0.3166666667
 12
-1.0
 22
-0.3166666667
 13
-1.0
 23
-0.3166666667
  0
ENDBLK
  5
21B
100
AcDbEntity
  8
0
  6
BYBLOCK
 62
0
100
AcDbBlockEnd
  0
ENDSEC
  0
SECTION
  2
ENTITIES
  0
LWPOLYLINE
  5
21C
100
AcDbEntity
  8
RACCORDO
100
AcDbPolyline
 62
250
  6
CONTINUOUS
 90
7
 70
0
 10
6.6462519841
 20
-39.2860519495
 10
6.3707412519
 20
-39.3593495047
 10
6.0952436309
 20
-39.4168334299
 10
5.8198415887
 20
-39.458529502
 10
5.544615242
 20
-39.484463961
 10
5.2696423601
 20
-39.4946634709
 10
4.994998369
 20
-39.4891550805
  0
LWPOLYLINE
  5
21D
100
AcDbEntity
  8
RACCORDO
100
AcDbPolyline
 62
250
  6
CONTINUOUS
 90
11
 70
0
 10
4.1996668217
 20
-40.2066046661
 10
4.2399807769
 20
-40.2077440513
 10
4.3400568899
 20
-40.1970466567
 10
4.4387305188
 20
-40.1670139724
 10
4.5366226024
 20
-40.1180848833
 10
4.6304428944
 20
-40.0512091489
 10
4.7177112623
 20
-39.9673657931
 10
4.7999915367
 20
-39.8674731371
 10
4.8759887099
 20
-39.7529501551
 10
4.9417486478
 20
-39.6260407381
 10
4.9950487223
 20
-39.489160683
  0
LWPOLYLINE
  5
21E
100
AcDbEntity
  8
RACCORDO
100
AcDbPolyline
 62
7
  6
CONTINUOUS
 90
10
 70
0
 10
4.2001745529
 20
-40.2066438612
 10
4.2737417004
 20
-40.2110610269
 10
4.54270475
 20
-40.2189501282
 10
4.8130335738
 20
-40.2139621647
 10
5.084215643
 20
-40.196081338
 10
5.3558231298
 20
-40.165297061
 10
5.6274876392
 20
-40.1216214214
 10
5.898717055
 20
-40.0651253708
 10
6.1689345377
 20
-39.9959057074
 10
6.229444771
 20
-39.9786151891
  0
LINE
  5
21F
100
AcDbEntity
  8
RACCORDO
100
AcDbLine
 62
7
  6
CONTINUOUS
 10
4.1990273747
 20
-40.2065617819
 11
4.1996668217
 21
-40.2066046661
  0
LWPOLYLINE
  5
220
100
AcDbEntity
  8
RACCORDO
100
AcDbPolyline
 62
250
  6
CONTINUOUS
 90
9
 70
0
 10
3.4058391198
 20
-39.4287057113
 10
2.0865983842
 20
-38.7942552284
 10
0.7723738546
 20
-38.1590824936
 10
-0.5368009864
 20
-37.5231972615
 10
-1.8406159392
 20
-36.8865735166
 10
-3.1393167111
 20
-36.249257849
 10
-4.4336927962
 20
-35.6113626577
 10
-5.7239728379
 20
-34.9729248219
 10
-7.0098367507
 20
-34.3339124966
  0
LWPOLYLINE
  5
221
100
AcDbEntity
  8
RACCORDO
100
AcDbPolyline
 62
7
  6
CONTINUOUS
 90
10
 70
0
 10
-7.954017701
 20
-34.3557996466
 10
-6.8170669745
 20
-34.9232707098
 10
-5.5132108651
 20
-35.5715192809
 10
-4.1991048871
 20
-36.2221116213
 10
-2.8747146259
 20
-36.8749788234
 10
-1.5400084783
 20
-37.5299712406
 10
-0.1949615636
 20
-38.1868920351
 10
1.1604524706
 20
-38.8455464675
 10
2.5262611846
 20
-39.5056850738
 10
3.7246232206
 20
-40.0817547627
  0
LINE
  5
222
100
AcDbEntity
  8
RACCORDO
100
AcDbLine
 62
250
  6
CONTINUOUS
 10
-7.0098367507
 20
-34.3339124966
 11
-8.2912398618
 21
-33.6943287319
  0
LWPOLYLINE
  5
223
100
AcDbEntity
  8
RACCORDO
100
AcDbPolyline
 62
250
  6
CONTINUOUS
 90
10
 70
0
 10
3.7246145337
 20
-40.0817449338
 10
3.6687612843
 20
-40.0497005879
 10
3.6110654526
 20
-40.0034522706
 10
3.5596772443
 20
-39.9469912074
 10
3.5150763953
 20
-39.8808444922
 10
3.477679334
 20
-39.8056296733
 10
3.4478352315
 20
-39.7220489534
 10
3.4258226858
 20
-39.6308826127
 10
3.411847123
 20
-39.5329817277
 10
3.4060389359
 20
-39.4292602489
  0
LWPOLYLINE
  5
224
100
AcDbEntity
  8
RACCORDO
100
AcDbPolyline
 62
7
  6
CONTINUOUS
 90
10
 70
0
 10
-7.9540175262
 20
-34.3557995804
 10
-8.0393125854
 20
-34.3063043118
 10
-8.119739153
 20
-34.2450614755
 10
-8.1937675644
 20
-34.1722807229
 10
-8.2598879917
 20
-34.0884996625
 10
-8.3168755654
 20
-33.9943159061
 10
-8.3638411408
 20
-33.8899637746
 10
-8.3998294268
 20
-33.7757128078
 10
-8.4237750672
 20
-33.6523344867
 10
-8.4347546932
 20
-33.5205700725
  0
LWPOLYLINE
  5
225
100
AcDbEntity
  8
RACCORDO
100
AcDbPolyline
 62
250
  6
CONTINUOUS
 90
8
 70
0
 10
-7.9540145391
 20
-34.3558010739
 10
-8.0296342954
 20
-34.308964021
 10
-8.1034800955
 20
-34.2413276108
 10
-8.1663055574
 20
-34.1578843152
 10
-8.2171632992
 20
-34.0598924307
 10
-8.2552864527
 20
-33.9488296112
 10
-8.2801001975
 20
-33.8263705476
 10
-8.2912303898
 20
-33.6943617921
  0
LINE
  5
226
100
AcDbEntity
  8
0
100
AcDbLine
 62
7
  6
CONTINUOUS
 10
-6.4691473251
 20
-31.5670373103
 11
-7.0817152124
 21
-31.6470806469
  0
LINE
  5
227
100
AcDbEntity
  8
0
100
AcDbLine
 62
7
  6
CONTINUOUS
 10
-7.4042050021
 20
-31.0708924994
 11
-6.5393670597
 21
-30.9579586805
  0
LINE
  5
228
100
AcDbEntity
  8
0
100
AcDbLine
 62
7
  6
CONTINUOUS
 10
-7.0817152124
 20
-31.6470806469
 11
-7.3874163021
 21
-31.6868111275
  0
LINE
  5
229
100
AcDbEntity
  8
0
100
AcDbLine
 62
7
  6
CONTINUOUS
 10
-5.1948327024
 20
-29.3761612747
 11
-5.6984656301
 21
-29.3228627126
  0
LINE
  5
22A
100
AcDbEntity
  8
0
100
AcDbLine
 62
7
  6
CONTINUOUS
 10
-5.6984656301
 20
-29.3228627126
 11
-6.2011605571
 21
-29.2690917928
  0
LINE
  5
22B
100
AcDbEntity
  8
0
100
AcDbLine
 62
7
  6
CONTINUOUS
 10
-6.5954922692
 20
-28.6800589067
 11
-5.9131197974
 21
-28.7533897935
  0
LINE
  5
22C
100
AcDbEntity
  8
0
100
AcDbLine
 62
7
  6
CONTINUOUS
 10
-6.2011605571
 20
-29.2690917928
 11
-6.7029168001
 21
-29.2148485867
  0
LWPOLYLINE
  5
22D
100
AcDbEntity
  8
0
100
AcDbPolyline
 62
7
  6
CONTINUOUS
 90
3
 70
0
 10
-6.7029168001
 20
-29.2148485867
 10
-7.2037316261
 20
-29.1601333798
 10
-7.4537861785
 20
-29.1325987582
  0
LINE
  5
22E
100
AcDbEntity
  8
0
100
AcDbLine
 62
7
  6
CONTINUOUS
 10
-7.4669001779
 20
-28.5848774436
 11
-7.0240512257
 21
-28.6334763631
  0
LINE
  5
22F
100
AcDbEntity
  8
0
100
AcDbLine
 62
7
  6
CONTINUOUS
 10
-5.6731766154
 20
-30.3718175319
 11
-5.1649970728
 21
-30.6205691047
  0
LINE
  5
230
100
AcDbEntity
  8
0
100
AcDbLine
 62
7
  6
CONTINUOUS
 10
-5.14377293
 20
-30.6099570333
 11
-5.6519529376
 21
-30.3612056292
  0
LWPOLYLINE
  5
231
100
AcDbEntity
  8
0
100
AcDbPolyline
 62
7
  6
CONTINUOUS
 90
12
 70
0
 10
-5.7846596518
 20
-31.8140854221
 10
-5.8259447166
 20
-31.7938010513
 10
-5.867060317
 20
-31.7663224345
 10
-5.9071999798
 20
-31.7321280383
 10
-5.9453578443
 20
-31.6919921766
 10
-5.9805210061
 20
-31.6468939189
 10
-6.0119289812
 20
-31.5978711446
 10
-6.0388960811
 20
-31.5460358497
 10
-6.0607135894
 20
-31.4926753237
 10
-6.0769289167
 20
-31.4390429147
 10
-6.0873088196
 20
-31.3863099506
 10
-6.0917047034
 20
-31.3356449069
  0
LWPOLYLINE
  5
232
100
AcDbEntity
  8
0
100
AcDbPolyline
 62
7
  6
CONTINUOUS
 90
3
 70
0
 10
-5.574555818
 20
-30.9533595272
 10
-6.0376573008
 20
-30.7260421276
 10
-6.1301890314
 20
-30.6805335557
  0
LINE
  5
233
100
AcDbEntity
  8
0
100
AcDbLine
 62
7
  6
CONTINUOUS
 10
-6.1804701063
 20
-30.1226146306
 11
-5.6731766154
 21
-30.3718175319
  0
LINE
  5
234
100
AcDbEntity
  8
0
100
AcDbLine
 62
7
  6
CONTINUOUS
 10
-5.6519529376
 20
-30.3612056292
 11
-6.1592468151
 21
-30.1120028684
  0
LINE
  5
235
100
AcDbEntity
  8
0
100
AcDbLine
 62
7
  6
CONTINUOUS
 10
-6.68687686
 20
-29.8729607384
 11
-6.1804701063
 21
-30.1226146306
  0
LINE
  5
236
100
AcDbEntity
  8
0
100
AcDbLine
 62
7
  6
CONTINUOUS
 10
-6.1592468151
 20
-30.1120028684
 11
-6.6656538598
 21
-29.8623490969
  0
LINE
  5
237
100
AcDbEntity
  8
0
100
AcDbLine
 62
7
  6
CONTINUOUS
 10
-6.5516905307
 20
-30.4803642823
 11
-7.0405590877
 21
-30.238684657
  0
LWPOLYLINE
  5
238
100
AcDbEntity
  8
0
100
AcDbPolyline
 62
7
  6
CONTINUOUS
 90
3
 70
0
 10
-6.6656538598
 20
-29.8623490969
 10
-7.1711712606
 20
-29.6122456999
 10
-7.4235965202
 20
-29.4870253052
  0
LWPOLYLINE
  5
239
100
AcDbEntity
  8
0
100
AcDbPolyline
 62
7
  6
CONTINUOUS
 90
3
 70
0
 10
-7.4448193889
 20
-29.4976367396
 10
-7.1923941348
 20
-29.6228572056
 10
-6.68687686
 20
-29.8729607384
  0
LINE
  5
23A
100
AcDbEntity
  8
0
100
AcDbLine
 62
7
  6
CONTINUOUS
 10
-7.0405590877
 20
-30.238684657
 11
-7.4310552006
 21
-30.0450386166
  0
LINE
  5
23B
100
AcDbEntity
  8
0
100
AcDbLine
 62
7
  6
CONTINUOUS
 10
-5.2707074172
 20
-25.7274990416
 11
-5.7639712062
 21
-25.6554299765
  0
LINE
  5
23C
100
AcDbEntity
  8
0
100
AcDbLine
 62
7
  6
CONTINUOUS
 10
-5.7639712062
 20
-25.6554299765
 11
-6.25635092
 21
-25.582914561
  0
LINE
  5
23D
100
AcDbEntity
  8
0
100
AcDbLine
 62
7
  6
CONTINUOUS
 10
-6.0942134262
 20
-25.0453845816
 11
-6.5312579708
 21
-24.980766646
  0
LINE
  5
23E
100
AcDbEntity
  8
0
100
AcDbLine
 62
7
  6
CONTINUOUS
 10
-6.25635092
 20
-25.582914561
 11
-6.7478447023
 21
-25.5099530641
  0
LINE
  5
23F
100
AcDbEntity
  8
0
100
AcDbLine
 62
7
  6
CONTINUOUS
 10
-6.8840893952
 20
-24.9420361418
 11
-6.0543010457
 21
-25.0650049906
  0
LINE
  5
240
100
AcDbEntity
  8
0
100
AcDbLine
 62
7
  6
CONTINUOUS
 10
-6.5312579708
 20
-24.980766646
 11
-7.0285251706
 21
-24.9066805333
  0
LINE
  5
241
100
AcDbEntity
  8
0
100
AcDbLine
 62
7
  6
CONTINUOUS
 10
-7.546100368
 20
-24.8427467895
 11
-6.8840893952
 21
-24.9420361418
  0
LINE
  5
242
100
AcDbEntity
  8
0
100
AcDbLine
 62
7
  6
CONTINUOUS
 10
-7.0285251706
 20
-24.9066805333
 11
-7.5248815532
 21
-24.8321373821
  0
LINE
  5
243
100
AcDbEntity
  8
0
100
AcDbLine
 62
7
  6
CONTINUOUS
 10
-5.2342992001
 20
-27.5822723225
 11
-5.7424780671
 21
-27.3335203801
  0
LINE
  5
244
100
AcDbEntity
  8
0
100
AcDbLine
 62
7
  6
CONTINUOUS
 10
-5.7937449066
 20
-24.6482587569
 11
-5.2855665858
 21
-24.8970109426
  0
LINE
  5
245
100
AcDbEntity
  8
0
100
AcDbLine
 62
7
  6
CONTINUOUS
 10
-5.2643472692
 20
-24.8864012843
 11
-5.7725260549
 21
-24.6376492672
  0
LINE
  5
246
100
AcDbEntity
  8
0
100
AcDbLine
 62
7
  6
CONTINUOUS
 10
-5.2949101399
 20
-24.3474264613
 11
-5.8030884232
 21
-24.0986726864
  0
LINE
  5
247
100
AcDbEntity
  8
0
100
AcDbLine
 62
7
  6
CONTINUOUS
 10
-5.7424780671
 20
-27.3335203801
 11
-6.2497709806
 21
-27.0843171766
  0
LINE
  5
248
100
AcDbEntity
  8
0
100
AcDbLine
 62
7
  6
CONTINUOUS
 10
-6.3010373774
 20
-24.3990553451
 11
-5.7937449066
 21
-24.6482587569
  0
LINE
  5
249
100
AcDbEntity
  8
0
100
AcDbLine
 62
7
  6
CONTINUOUS
 10
-5.7725260549
 20
-24.6376492672
 11
-6.2798189122
 21
-24.3884459958
  0
LINE
  5
24A
100
AcDbEntity
  8
0
100
AcDbLine
 62
7
  6
CONTINUOUS
 10
-5.8030884232
 20
-24.0986726864
 11
-6.3103808544
 21
-23.849467702
  0
LINE
  5
24B
100
AcDbEntity
  8
0
100
AcDbLine
 62
7
  6
CONTINUOUS
 10
-6.0860643601
 20
-26.6006359903
 11
-6.5040994727
 21
-26.394848472
  0
LINE
  5
24C
100
AcDbEntity
  8
0
100
AcDbLine
 62
7
  6
CONTINUOUS
 10
-6.0543010457
 20
-25.0650049906
 11
-6.5556215341
 21
-24.81827315
  0
LINE
  5
24D
100
AcDbEntity
  8
0
100
AcDbLine
 62
7
  6
CONTINUOUS
 10
-6.6922334187
 20
-26.3231174088
 11
-6.0239988283
 21
-26.6521879404
  0
LINE
  5
24E
100
AcDbEntity
  8
0
100
AcDbLine
 62
7
  6
CONTINUOUS
 10
-6.2497709806
 20
-27.0843171766
 11
-6.7561772554
 21
-26.8346630498
  0
LINE
  5
24F
100
AcDbEntity
  8
0
100
AcDbLine
 62
7
  6
CONTINUOUS
 10
-6.8074433131
 20
-24.1494010447
 11
-6.3010373774
 21
-24.3990553451
  0
LINE
  5
250
100
AcDbEntity
  8
0
100
AcDbLine
 62
7
  6
CONTINUOUS
 10
-6.2798189122
 20
-24.3884459958
 11
-6.7862251387
 21
-24.1387918162
  0
LWPOLYLINE
  5
251
100
AcDbEntity
  8
0
100
AcDbPolyline
 62
7
  6
CONTINUOUS
 90
3
 70
0
 10
-6.3103808544
 20
-23.849467702
 10
-6.8167867484
 20
-23.5998118456
 10
-7.0696561593
 20
-23.4748153747
  0
LINE
  5
252
100
AcDbEntity
  8
0
100
AcDbLine
 62
7
  6
CONTINUOUS
 10
-6.5040994727
 20
-26.394848472
 11
-7.0045517934
 21
-26.1476785184
  0
LINE
  5
253
100
AcDbEntity
  8
0
100
AcDbLine
 62
7
  6
CONTINUOUS
 10
-6.5556215341
 20
-24.81827315
 11
-7.0560734781
 21
-24.5711007176
  0
LWPOLYLINE
  5
254
100
AcDbEntity
  8
0
100
AcDbPolyline
 62
7
  6
CONTINUOUS
 90
3
 70
0
 10
-6.7561772554
 20
-26.8346630498
 10
-7.2616941504
 20
-26.5845593496
 10
-7.5141192518
 20
-26.4593388252
  0
LWPOLYLINE
  5
255
100
AcDbEntity
  8
0
100
AcDbPolyline
 62
7
  6
CONTINUOUS
 90
3
 70
0
 10
-6.7862251387
 20
-24.1387918162
 10
-7.2917419246
 20
-23.8886881127
 10
-7.544166953
 20
-23.7634676031
  0
LWPOLYLINE
  5
256
100
AcDbEntity
  8
0
100
AcDbPolyline
 62
7
  6
CONTINUOUS
 90
3
 70
0
 10
-7.5253531193
 20
-25.910678716
 10
-7.3589226537
 20
-25.9932641453
 10
-6.6922334187
 20
-26.3231174088
  0
LINE
  5
257
100
AcDbEntity
  8
0
100
AcDbLine
 62
7
  6
CONTINUOUS
 10
-7.0045517934
 20
-26.1476785184
 11
-7.5041334742
 21
-25.9000688934
  0
LINE
  5
258
100
AcDbEntity
  8
0
100
AcDbLine
 62
7
  6
CONTINUOUS
 10
-7.0560734781
 20
-24.5711007176
 11
-7.5556549512
 21
-24.3234886452
  0
LWPOLYLINE
  5
259
100
AcDbEntity
  8
0
100
AcDbPolyline
 62
7
  6
CONTINUOUS
 90
3
 70
0
 10
-7.565384996
 20
-23.7740766246
 10
-7.3129599731
 20
-23.8992972056
 10
-6.8074433131
 20
-24.1494010447
  0
LINE
  5
25A
100
AcDbEntity
  8
0
100
AcDbLine
 62
7
  6
CONTINUOUS
 10
-6.0239988283
 20
-26.6521879404
 11
-6.5287759714
 21
-26.232512328
  0
LINE
  5
25B
100
AcDbEntity
  8
0
100
AcDbLine
 62
7
  6
CONTINUOUS
 10
-6.5287759714
 20
-26.232512328
 11
-7.0326480189
 21
-25.8123731325
  0
LINE
  5
25C
100
AcDbEntity
  8
0
100
AcDbLine
 62
7
  6
CONTINUOUS
 10
-7.0326480189
 20
-25.8123731325
 11
-7.535613043
 21
-25.3917719705
  0
LINE
  5
25D
100
AcDbEntity
  8
0
100
AcDbLine
 62
7
  6
CONTINUOUS
 10
-5.7198739421
 20
-28.3838128305
 11
-5.2073325171
 21
-28.8281064262
  0
LINE
  5
25E
100
AcDbEntity
  8
0
100
AcDbLine
 62
7
  6
CONTINUOUS
 10
-5.1861100692
 20
-28.8174952023
 11
-5.6986521319
 21
-28.3732018401
  0
LINE
  5
25F
100
AcDbEntity
  8
0
100
AcDbLine
 62
7
  6
CONTINUOUS
 10
-6.2314825889
 20
-27.9390380034
 11
-5.7198739421
 21
-28.3838128305
  0
LINE
  5
260
100
AcDbEntity
  8
0
100
AcDbLine
 62
7
  6
CONTINUOUS
 10
-5.6986521319
 20
-28.3732018401
 11
-6.2102613367
 21
-27.9284272208
  0
LINE
  5
261
100
AcDbEntity
  8
0
100
AcDbLine
 62
7
  6
CONTINUOUS
 10
-5.9131197974
 20
-28.7533897935
 11
-6.2991588642
 21
-28.4176580026
  0
LINE
  5
262
100
AcDbEntity
  8
0
100
AcDbLine
 62
7
  6
CONTINUOUS
 10
-6.2991588642
 20
-28.4176580026
 11
-6.6076069949
 21
-28.1488756782
  0
LINE
  5
263
100
AcDbEntity
  8
0
100
AcDbLine
 62
7
  6
CONTINUOUS
 10
-6.2102613367
 20
-27.9284272208
 11
-6.7209369785
 21
-27.4831719635
  0
LINE
  5
264
100
AcDbEntity
  8
0
100
AcDbLine
 62
7
  6
CONTINUOUS
 10
-6.7773466035
 20
-27.4630345671
 11
-6.2314825889
 21
-27.9390380034
  0
LINE
  5
265
100
AcDbEntity
  8
0
100
AcDbLine
 62
7
  6
CONTINUOUS
 10
-7.2280988153
 20
-27.0688737607
 11
-6.7773466035
 21
-27.4630345671
  0
LWPOLYLINE
  5
266
100
AcDbEntity
  8
0
100
AcDbPolyline
 62
7
  6
CONTINUOUS
 90
3
 70
0
 10
-6.7209369785
 20
-27.4831719635
 10
-7.2306762371
 20
-27.0374385436
 10
-7.4851948989
 20
-26.8143923681
  0
LWPOLYLINE
  5
267
100
AcDbEntity
  8
0
100
AcDbPolyline
 62
7
  6
CONTINUOUS
 90
3
 70
0
 10
-7.0437909988
 20
-27.7679608433
 10
-7.4194590352
 20
-27.4391388981
 10
-7.4945314807
 20
-27.3733433589
  0
LINE
  5
268
100
AcDbEntity
  8
0
100
AcDbLine
 62
7
  6
CONTINUOUS
 10
-7.5064153021
 20
-26.8250025697
 11
-7.2280988153
 21
-27.0688737607
  0
LWPOLYLINE
  5
269
100
AcDbEntity
  8
0
100
AcDbPolyline
 62
7
  6
CONTINUOUS
 90
29
 70
0
 10
-13.7564211141
 20
16.1878859533
 10
-13.862105426
 20
16.130200632
 10
-13.9671987083
 20
16.0631515797
 10
-14.0711132368
 20
15.987113762
 10
-14.1732678794
 20
15.902512413
 10
-14.2730913457
 20
15.809820658
 10
-14.3700253825
 20
15.7095568668
 10
-14.4635278953
 20
15.6022817551
 10
-14.5530759802
 20
15.488595249
 10
-14.6381688479
 20
15.3691331294
 10
-14.7183306246
 20
15.244563477
 10
-14.7931130132
 20
15.1155829359
 10
-14.8620978001
 20
14.9829128175
 10
-14.9248991945
 20
14.847295067
 10
-14.9811659855
 20
14.7094881138
 10
-15.0305835064
 20
14.5702626303
 10
-15.0728753943
 20
14.4303972219
 10
-15.1078051359
 20
14.2906740727
 10
-15.1351773899
 20
14.1518745712
 10
-15.1548390795
 20
14.0147749405
 10
-15.1666802485
 20
13.8801418974
 10
-15.1706346765
 20
13.7487283645
 10
-15.1666802485
 20
13.6212692595
 10
-15.1548390795
 20
13.4984773855
 10
-15.1351773899
 20
13.3810394445
 10
-15.1078051359
 20
13.2696121969
 10
-15.0728753943
 20
13.1648187893
 10
-15.0305835064
 20
13.0672452688
 10
-14.9814473544
 20
12.9778937698
  0
LINE
  5
26A
100
AcDbEntity
  8
0
100
AcDbLine
 62
7
  6
CONTINUOUS
 10
1.0368519785
 20
-21.9524877453
 11
0.55809396
 21
-22.0306025905
  0
LINE
  5
26B
100
AcDbEntity
  8
0
100
AcDbLine
 62
7
  6
CONTINUOUS
 10
1.2719903931
 20
-23.5099375864
 11
1.2303401718
 21
-23.515870251
  0
LWPOLYLINE
  5
26C
100
AcDbEntity
  8
0
100
AcDbPolyline
 62
7
  6
CONTINUOUS
 90
3
 70
0
 10
1.2303401718
 20
-23.515870251
 10
1.202305535
 20
-23.519671388
 10
1.1881775773
 20
-23.5214857969
  0
LINE
  5
26D
100
AcDbEntity
  8
0
100
AcDbLine
 62
7
  6
CONTINUOUS
 10
2.2401884431
 20
-22.9801948156
 11
2.3366995497
 21
-22.9673691325
  0
LINE
  5
26E
100
AcDbEntity
  8
0
100
AcDbLine
 62
7
  6
CONTINUOUS
 10
2.1633824265
 20
-22.9900287131
 11
2.2401884431
 21
-22.9801948156
  0
LINE
  5
26F
100
AcDbEntity
  8
0
100
AcDbLine
 62
7
  6
CONTINUOUS
 10
2.105922356
 20
-22.9971070051
 11
2.1633824265
 21
-22.9900287131
  0
LINE
  5
270
100
AcDbEntity
  8
0
100
AcDbLine
 62
7
  6
CONTINUOUS
 10
2.0484958689
 20
-23.003886527
 11
2.105922356
 21
-22.9971070051
  0
LINE
  5
271
100
AcDbEntity
  8
0
100
AcDbLine
 62
7
  6
CONTINUOUS
 10
2.0102139681
 20
-23.0082148981
 11
2.0484958689
 21
-23.003886527
  0
LINE
  5
272
100
AcDbEntity
  8
0
100
AcDbLine
 62
7
  6
CONTINUOUS
 10
1.9718578223
 20
-23.0123697983
 11
2.0102139681
 21
-23.0082148981
  0
LINE
  5
273
100
AcDbEntity
  8
0
100
AcDbLine
 62
7
  6
CONTINUOUS
 10
1.9334077286
 20
-23.0163459458
 11
1.9718578223
 21
-23.0123697983
  0
LWPOLYLINE
  5
274
100
AcDbEntity
  8
0
100
AcDbPolyline
 62
7
  6
CONTINUOUS
 90
3
 70
0
 10
0.184993821
 20
-21.9272088159
 10
0.2469487305
 20
-21.9213399886
 10
0.259751717
 20
-21.9201880653
  0
LINE
  5
275
100
AcDbEntity
  8
TRASH
100
AcDbLine
 62
7
  6
CONTINUOUS
 10
1.0661436651
 20
-21.9542450267
 11
1.0368674699
 21
-21.9523323422
  0
LINE
  5
276
100
AcDbEntity
  8
0
100
AcDbLine
 62
7
  6
CONTINUOUS
 10
-6.1002216467
 20
-21.0347042872
 11
-5.342018446
 21
-21.1132771016
  0
LINE
  5
277
100
AcDbEntity
  8
0
100
AcDbLine
 62
7
  6
CONTINUOUS
 10
-5.3349454298
 20
-21.6640245648
 11
-6.0309230669
 21
-21.5918334178
  0
LINE
  5
278
100
AcDbEntity
  8
0
100
AcDbLine
 62
7
  6
CONTINUOUS
 10
-6.0309230669
 20
-21.5918334178
 11
-6.5517406935
 21
-21.5371022103
  0
LINE
  5
279
100
AcDbEntity
  8
0
100
AcDbLine
 62
7
  6
CONTINUOUS
 10
-6.8563170833
 20
-20.955068772
 11
-6.1002216467
 21
-21.0347042872
  0
LINE
  5
27A
100
AcDbEntity
  8
0
100
AcDbLine
 62
7
  6
CONTINUOUS
 10
-6.5517406935
 20
-21.5371022103
 11
-6.8983963821
 21
-21.5003349156
  0
LINE
  5
27B
100
AcDbEntity
  8
0
100
AcDbLine
 62
7
  6
CONTINUOUS
 10
-7.6102989244
 20
-20.8743711581
 11
-6.8563170833
 21
-20.955068772
  0
LWPOLYLINE
  5
27C
100
AcDbEntity
  8
0
100
AcDbPolyline
 62
7
  6
CONTINUOUS
 90
13
 70
0
 10
2.7067498621
 20
-22.914231873
 10
2.7168364549
 20
-22.9163994634
 10
2.7270631125
 20
-22.9182900251
 10
2.7374298348
 20
-22.9199035581
 10
2.7479664267
 20
-22.9212430174
 10
2.7586430833
 20
-22.922305448
 10
2.76937039
 20
-22.9230819846
 10
2.7801486427
 20
-22.9235702704
 10
2.7909775455
 20
-22.9237726621
 10
2.8017667953
 20
-22.9236873655
 10
2.8125157143
 20
-22.9233121314
 10
2.8232249804
 20
-22.9226492089
 10
2.8328122198
 20
-22.921792394
  0
LINE
  5
27D
100
AcDbEntity
  8
0
100
AcDbLine
 62
7
  6
CONTINUOUS
 10
2.7067498621
 20
-23.9534623576
 11
2.6223757211
 21
-23.9336424077
  0
LINE
  5
27E
100
AcDbEntity
  8
0
100
AcDbLine
 62
7
  6
CONTINUOUS
 10
2.6223765853
 20
-22.8944121286
 11
2.7067498621
 21
-22.914231873
  0
LINE
  5
27F
100
AcDbEntity
  8
0
100
AcDbLine
 62
7
  6
CONTINUOUS
 10
2.6223757211
 20
-23.9336424077
 11
2.5387678702
 21
-23.9133192265
  0
LINE
  5
280
100
AcDbEntity
  8
0
100
AcDbLine
 62
7
  6
CONTINUOUS
 10
2.5387698593
 20
-22.8740892344
 11
2.6223765853
 21
-22.8944121286
  0
LINE
  5
281
100
AcDbEntity
  8
0
100
AcDbLine
 62
7
  6
CONTINUOUS
 10
2.5387678702
 20
-23.9133192265
 11
2.4558833737
 21
-23.8924831737
  0
LINE
  5
282
100
AcDbEntity
  8
0
100
AcDbLine
 62
7
  6
CONTINUOUS
 10
2.4558866902
 20
-22.8532535367
 11
2.5387698593
 21
-22.8740892344
  0
LINE
  5
283
100
AcDbEntity
  8
0
100
AcDbLine
 62
7
  6
CONTINUOUS
 10
2.4558833737
 20
-23.8924831737
 11
2.3735790564
 21
-23.8711036763
  0
LINE
  5
284
100
AcDbEntity
  8
0
100
AcDbLine
 62
7
  6
CONTINUOUS
 10
2.373583708
 20
-22.8318744204
 11
2.4558866902
 21
-22.8532535367
  0
LINE
  5
285
100
AcDbEntity
  8
0
100
AcDbLine
 62
7
  6
CONTINUOUS
 10
2.3735790564
 20
-23.8711036763
 11
2.2917211192
 21
-23.8491424958
  0
LINE
  5
286
100
AcDbEntity
  8
0
100
AcDbLine
 62
7
  6
CONTINUOUS
 10
2.2917269364
 20
-22.8099135971
 11
2.373583708
 21
-22.8318744204
  0
LINE
  5
287
100
AcDbEntity
  8
0
100
AcDbLine
 62
7
  6
CONTINUOUS
 10
2.2917211192
 20
-23.8491424958
 11
2.2102397601
 21
-23.8265778527
  0
LINE
  5
288
100
AcDbEntity
  8
0
100
AcDbLine
 62
7
  6
CONTINUOUS
 10
2.2102464742
 20
-22.7873492569
 11
2.2917269364
 21
-22.8099135971
  0
LINE
  5
289
100
AcDbEntity
  8
0
100
AcDbLine
 62
7
  6
CONTINUOUS
 10
2.2102397601
 20
-23.8265778527
 11
2.1290045446
 21
-23.803365354
  0
LINE
  5
28A
100
AcDbEntity
  8
0
100
AcDbLine
 62
7
  6
CONTINUOUS
 10
2.1290116998
 20
-22.7641369457
 11
2.2102464742
 21
-22.7873492569
  0
LINE
  5
28B
100
AcDbEntity
  8
0
100
AcDbLine
 62
7
  6
CONTINUOUS
 10
2.1290045446
 20
-23.803365354
 11
2.0482324127
 21
-23.7795599086
  0
LINE
  5
28C
100
AcDbEntity
  8
0
100
AcDbLine
 62
7
  6
CONTINUOUS
 10
2.0482397806
 20
-22.7403316282
 11
2.1290116998
 21
-22.7641369457
  0
LINE
  5
28D
100
AcDbEntity
  8
0
100
AcDbLine
 62
7
  6
CONTINUOUS
 10
2.0482324127
 20
-23.7795599086
 11
1.9680463419
 21
-23.755195787
  0
LINE
  5
28E
100
AcDbEntity
  8
0
100
AcDbLine
 62
7
  6
CONTINUOUS
 10
1.9680538284
 20
-22.7159676119
 11
2.0482397806
 21
-22.7403316282
  0
LINE
  5
28F
100
AcDbEntity
  8
0
100
AcDbLine
 62
7
  6
CONTINUOUS
 10
1.9680463419
 20
-23.755195787
 11
1.8887322688
 21
-23.7303608615
  0
LINE
  5
290
100
AcDbEntity
  8
0
100
AcDbLine
 62
7
  6
CONTINUOUS
 10
1.8887401135
 20
-22.6911328707
 11
1.9680538284
 21
-22.7159676119
  0
LWPOLYLINE
  5
291
100
AcDbEntity
  8
0
100
AcDbPolyline
 62
7
  6
CONTINUOUS
 90
16
 70
0
 10
1.8887322688
 20
-23.7303608615
 10
1.8100694472
 20
-23.7049882682
 10
1.7709645449
 20
-23.692095018
 10
1.7319220624
 20
-23.6790311231
 10
1.6929071501
 20
-23.6657856302
 10
1.6539546576
 20
-23.6523694927
 10
1.615084308
 20
-23.638784574
 10
1.5762757456
 20
-23.6250228483
 10
1.5375493261
 20
-23.6110923416
 10
1.4989858396
 20
-23.5970189946
 10
1.4605825011
 20
-23.5828001049
 10
1.4223420954
 20
-23.568438375
 10
1.3843537674
 20
-23.5539678533
 10
1.3466472317
 20
-23.5393998894
 10
1.3091927736
 20
-23.5247231338
 10
1.2719903931
 20
-23.5099375864
  0
LINE
  5
292
100
AcDbEntity
  8
0
100
AcDbLine
 62
7
  6
CONTINUOUS
 10
-5.8120470435
 20
-23.548873727
 11
-5.303867613
 21
-23.7976281548
  0
LINE
  5
293
100
AcDbEntity
  8
0
100
AcDbLine
 62
7
  6
CONTINUOUS
 10
-5.2826490288
 20
-23.7870188627
 11
-5.7908289242
 21
-23.5382646035
  0
LINE
  5
294
100
AcDbEntity
  8
0
100
AcDbLine
 62
7
  6
CONTINUOUS
 10
-6.3193406502
 20
-23.2996680864
 11
-5.8120470435
 21
-23.548873727
  0
LINE
  5
295
100
AcDbEntity
  8
0
100
AcDbLine
 62
7
  6
CONTINUOUS
 10
-5.7908289242
 20
-23.5382646035
 11
-6.2981229173
 21
-23.2890591033
  0
LINE
  5
296
100
AcDbEntity
  8
0
100
AcDbLine
 62
7
  6
CONTINUOUS
 10
-6.825747748
 20
-23.0500115705
 11
-6.3193406502
 21
-23.2996680864
  0
LINE
  5
297
100
AcDbEntity
  8
0
100
AcDbLine
 62
7
  6
CONTINUOUS
 10
-6.2981229173
 20
-23.2890591033
 11
-6.8045303059
 21
-23.0394027082
  0
LWPOLYLINE
  5
298
100
AcDbEntity
  8
0
100
AcDbPolyline
 62
7
  6
CONTINUOUS
 90
3
 70
0
 10
-6.8045303059
 20
-23.0394027082
 10
-7.3100482803
 20
-22.7892968024
 10
-7.5624739128
 20
-22.6640751965
  0
LINE
  5
299
100
AcDbEntity
  8
0
100
AcDbLine
 62
7
  6
CONTINUOUS
 10
-7.0696561593
 20
-23.4748153747
 11
-7.5747283654
 21
-23.2244851226
  0
LWPOLYLINE
  5
29A
100
AcDbEntity
  8
0
100
AcDbPolyline
 62
7
  6
CONTINUOUS
 90
3
 70
0
 10
-7.5836912235
 20
-22.6746838518
 10
-7.3312655965
 20
-22.799905529
 10
-6.825747748
 20
-23.0500115705
  0
LINE
  5
29B
100
AcDbEntity
  8
0
100
AcDbLine
 62
7
  6
CONTINUOUS
 10
-5.2299121152
 20
-26.7421610968
 11
-5.7296977039
 21
-26.3283421131
  0
LINE
  5
29C
100
AcDbEntity
  8
0
100
AcDbLine
 62
7
  6
CONTINUOUS
 10
-5.91731727
 20
-26.2009115127
 11
-5.25113281
 21
-26.7527714442
  0
LINE
  5
29D
100
AcDbEntity
  8
0
100
AcDbLine
 62
7
  6
CONTINUOUS
 10
-5.7296977039
 20
-26.3283421131
 11
-6.2286027695
 21
-25.9140690151
  0
LINE
  5
29E
100
AcDbEntity
  8
0
100
AcDbLine
 62
7
  6
CONTINUOUS
 10
-6.5819353136
 20
-25.648245293
 11
-5.91731727
 21
-26.2009115127
  0
LINE
  5
29F
100
AcDbEntity
  8
0
100
AcDbLine
 62
7
  6
CONTINUOUS
 10
-6.7478447023
 20
-25.5099530641
 11
-6.5819353136
 21
-25.648245293
  0
LINE
  5
2A0
100
AcDbEntity
  8
0
100
AcDbLine
 62
7
  6
CONTINUOUS
 10
-6.2286027695
 20
-25.9140690151
 11
-6.7065173682
 21
-25.5161042422
  0
LINE
  5
2A1
100
AcDbEntity
  8
0
100
AcDbLine
 62
7
  6
CONTINUOUS
 10
-5.2967200816
 20
-22.8702546986
 11
-5.6487079278
 21
-22.5638692177
  0
LINE
  5
2A2
100
AcDbEntity
  8
0
100
AcDbLine
 62
7
  6
CONTINUOUS
 10
-5.3096245478
 20
-23.4309909029
 11
-5.8208098685
 21
-22.9860154971
  0
LINE
  5
2A3
100
AcDbEntity
  8
0
100
AcDbLine
 62
7
  6
CONTINUOUS
 10
-5.8457534314
 20
-22.421199755
 11
-5.3179381027
 21
-22.8808637091
  0
LINE
  5
2A4
100
AcDbEntity
  8
0
100
AcDbLine
 62
7
  6
CONTINUOUS
 10
-5.6487079278
 20
-22.5638692177
 11
-6.0002535183
 21
-22.2572556756
  0
LINE
  5
2A5
100
AcDbEntity
  8
0
100
AcDbLine
 62
7
  6
CONTINUOUS
 10
-5.8208098685
 20
-22.9860154971
 11
-6.331061797
 21
-22.5405596597
  0
LINE
  5
2A6
100
AcDbEntity
  8
0
100
AcDbLine
 62
7
  6
CONTINUOUS
 10
-6.3725735833
 20
-21.961022854
 11
-5.8457534314
 21
-22.421199755
  0
LINE
  5
2A7
100
AcDbEntity
  8
0
100
AcDbLine
 62
7
  6
CONTINUOUS
 10
-6.0002535183
 20
-22.2572556756
 11
-6.3513566043
 21
-21.9504142908
  0
LINE
  5
2A8
100
AcDbEntity
  8
0
100
AcDbLine
 62
7
  6
CONTINUOUS
 10
-6.3513566043
 20
-21.9504142908
 11
-6.7020161903
 21
-21.6433459365
  0
LINE
  5
2A9
100
AcDbEntity
  8
0
100
AcDbLine
 62
7
  6
CONTINUOUS
 10
-6.331061797
 20
-22.5405596597
 11
-6.8403796462
 21
-22.0946239946
  0
LINE
  5
2AA
100
AcDbEntity
  8
0
100
AcDbLine
 62
7
  6
CONTINUOUS
 10
-6.8983963821
 20
-21.5003349156
 11
-6.3725735833
 21
-21.961022854
  0
LINE
  5
2AB
100
AcDbEntity
  8
0
100
AcDbLine
 62
7
  6
CONTINUOUS
 10
-6.7020161903
 20
-21.6433459365
 11
-6.860491022
 21
-21.5043626782
  0
LINE
  5
2AC
100
AcDbEntity
  8
0
100
AcDbLine
 62
7
  6
CONTINUOUS
 10
-6.8403796462
 20
-22.0946239946
 11
-7.3487606679
 21
-21.6482109186
  0
LINE
  5
2AD
100
AcDbEntity
  8
0
100
AcDbLine
 62
7
  6
CONTINUOUS
 10
-7.3487606679
 20
-21.6482109186
 11
-7.6026000403
 21
-21.4248252005
  0
LWPOLYLINE
  5
2AE
100
AcDbEntity
  8
0
100
AcDbPolyline
 62
7
  6
CONTINUOUS
 90
6
 70
0
 10
-13.7564211141
 20
16.1878859533
 10
-13.6507368023
 20
16.2358849439
 10
-13.5456435199
 20
16.2739291739
 10
-13.4417289914
 20
16.3018058847
 10
-13.3395743489
 20
16.3193591783
 10
-13.3090837576
 20
16.3226209635
  0
LWPOLYLINE
  5
2AF
100
AcDbEntity
  8
0
100
AcDbPolyline
 62
250
  6
CONTINUOUS
 90
13
 70
0
 10
0.6791109945
 20
-20.104214793
 10
0.6701470571
 20
-20.1022172238
 10
0.5820980202
 20
-20.0882716815
 10
0.4952437814
 20
-20.0802783303
 10
0.4098409491
 20
-20.0782830573
 10
0.3261246772
 20
-20.0823080116
 10
0.2442790809
 20
-20.0923622198
 10
0.1645395397
 20
-20.1084350922
 10
0.0872027506
 20
-20.1304705356
 10
0.0125014538
 20
-20.1583877296
 10
-0.0594310925
 20
-20.1921218803
 10
-0.1284609781
 20
-20.2316074172
 10
-0.1402529266
 20
-20.239116785
  0
LWPOLYLINE
  5
2B0
100
AcDbEntity
  8
RACCORDO
100
AcDbPolyline
 62
250
  6
CONTINUOUS
 90
10
 70
0
 10
-8.6333602241
 20
-15.3047235971
 10
-8.3937245363
 20
-15.3819335483
 10
-8.1561168779
 20
-15.4487881524
 10
-7.9208859887
 20
-15.5061379253
 10
-7.6884319758
 20
-15.5548928446
 10
-7.4589539344
 20
-15.5956989125
 10
-7.2324167457
 20
-15.6288972046
 10
-7.0089151396
 20
-15.6549821282
 10
-6.7887125505
 20
-15.6746401502
 10
-6.5719579045
 20
-15.6884127672
  0
LWPOLYLINE
  5
2B1
100
AcDbEntity
  8
0
100
AcDbPolyline
 62
7
  6
CONTINUOUS
 90
16
 70
0
 10
1.2719918481
 20
-22.4707076842
 10
1.3091947248
 20
-22.485493421
 10
1.3466497474
 20
-22.5001703851
 10
1.3843569159
 20
-22.5147385767
 10
1.4223459792
 20
-22.5292093582
 10
1.4605871885
 20
-22.5435713671
 10
1.4989912966
 20
-22.5577905159
 10
1.5375555144
 20
-22.5718640987
 10
1.5762826311
 20
-22.5857948215
 10
1.6150917669
 20
-22.5995567151
 10
1.6539625403
 20
-22.6131417437
 10
1.6929153329
 20
-22.6265579431
 10
1.7319304101
 20
-22.6398034518
 10
1.7709728809
 20
-22.6528673037
 10
1.8100776364
 20
-22.665760465
 10
1.8887401135
 20
-22.6911328707
  0
LWPOLYLINE
  5
2B2
100
AcDbEntity
  8
RACCORDO
100
AcDbPolyline
 62
250
  6
CONTINUOUS
 90
26
 70
0
 10
-8.0050334211
 20
-15.6556762435
 10
-7.3742836143
 20
-15.9537617221
 10
-6.7482248055
 20
-16.1956312315
 10
-6.1237971738
 20
-16.381821321
 10
-5.5040892931
 20
-16.5118083788
 10
-4.8984061534
 20
-16.5840437603
 10
-4.3073284761
 20
-16.5976320479
 10
-3.7303727491
 20
-16.5535228505
 10
-3.1753422361
 20
-16.452985181
 10
-2.6427946341
 20
-16.2955344751
 10
-2.132295808
 20
-16.0817271669
 10
-1.6502352688
 20
-15.8144322221
 10
-1.1968002365
 20
-15.4930259008
 10
-0.7719257028
 20
-15.1182039509
 10
-0.3816851204
 20
-14.694845541
 10
-0.0265171423
 20
-14.2220532686
 10
0.2939042244
 20
-13.7007886904
 10
0.5745946432
 20
-13.1387465606
 10
0.8147762728
 20
-12.5356027342
 10
1.0151347203
 20
-11.8917289337
 10
1.1728340159
 20
-11.2158844096
 10
1.2873072132
 20
-10.507644362
 10
1.3590739168
 20
-9.7674516778
 10
1.3868915302
 20
-9.005382848
 10
1.3700760903
 20
-8.2207699295
 10
1.3093158825
 20
-7.4142678002
  0
LINE
  5
2B3
100
AcDbEntity
  8
0
100
AcDbLine
 62
7
  6
CONTINUOUS
 10
-0.3054894667
 20
-21.9209264373
 11
1.1337632702
 21
-22.6405528058
  0
LINE
  5
2B4
100
AcDbEntity
  8
0
100
AcDbLine
 62
7
  6
CONTINUOUS
 10
1.9237636439
 20
-23.0355529926
 11
2.9315495982
 21
-23.5394459698
  0
LINE
  5
2B5
100
AcDbEntity
  8
RACCORDO
100
AcDbLine
 62
250
  6
CONTINUOUS
 10
-8.6404364774
 20
-15.3013577875
 11
-8.0050334211
 21
-15.6556762435
  0
LWPOLYLINE
  5
2B6
100
AcDbEntity
  8
TRASH
100
AcDbPolyline
 62
7
  6
CONTINUOUS
 90
4
 70
0
 10
1.8131203813
 20
-23.1046119383
 10
1.7811176827
 20
-23.0849569405
 10
1.7436169742
 20
-23.0597508741
 10
1.7063724858
 20
-23.0325270572
  0
LWPOLYLINE
  5
2B7
100
AcDbEntity
  8
0
100
AcDbPolyline
 62
7
  6
CONTINUOUS
 90
37
 70
0
 10
0.1849926565
 20
-22.9664385729
 10
0.1554211829
 20
-22.9478371346
 10
0.1260672545
 20
-22.9291096233
 10
0.0969308713
 20
-22.910256039
 10
0.0679893084
 20
-22.8912615073
 10
0.0392652907
 20
-22.8721409027
 10
0.0108269929
 20
-22.8529388487
 10
-0.0173201726
 20
-22.8336567397
 10
-0.0451816182
 20
-22.8142931814
 10
-0.0727054055
 20
-22.7948886135
 10
-0.0998754626
 20
-22.7754532268
 10
-0.1267078614
 20
-22.7559768305
 10
-0.1531988789
 20
-22.7364692919
 10
-0.1793265827
 20
-22.7169480565
 10
-0.2051129052
 20
-22.6973956788
 10
-0.2306199206
 20
-22.6777696894
 10
-0.2558577166
 20
-22.6580644402
 10
-0.2808162056
 20
-22.6382855793
 10
-0.305527199
 20
-22.6184075828
 10
-0.3300149631
 20
-22.5984106626
 10
-0.3542552316
 20
-22.5783146067
 10
-0.3782070172
 20
-22.5581532545
 10
-0.4018658666
 20
-22.537928647
 10
-0.425236233
 20
-22.5176387433
 10
-0.4482904889
 20
-22.4973112599
 10
-0.4710128844
 20
-22.4769599342
 10
-0.4934191693
 20
-22.4565710287
 10
-0.515528966
 20
-22.4361310474
 10
-0.537340816
 20
-22.4156426429
 10
-0.5588561778
 20
-22.3951031626
 10
-0.5800990486
 20
-22.3744911519
 10
-0.6010709918
 20
-22.3538066248
 10
-0.621770444
 20
-22.3330495673
 10
-0.6422167123
 20
-22.3121984823
 10
-0.6624162325
 20
-22.2912462043
 10
-0.6823625688
 20
-22.2701998988
 10
-0.7020557213
 20
-22.2490595659
  0
LWPOLYLINE
  5
2B8
100
AcDbEntity
  8
0
100
AcDbPolyline
 62
7
  6
CONTINUOUS
 90
10
 70
0
 10
0.6975785229
 20
-24.1746909433
 10
0.7332924039
 20
-24.197338878
 10
0.7690999536
 20
-24.2188396297
 10
0.8049745642
 20
-24.2391771904
 10
0.8408897857
 20
-24.2583365237
 10
0.8768187196
 20
-24.2763032385
 10
0.9127340388
 20
-24.2930636698
 10
0.9486088448
 20
-24.3086053068
 10
0.9844166873
 20
-24.3229167329
 10
1.0201309585
 20
-24.335987345
  0
LWPOLYLINE
  5
2B9
100
AcDbEntity
  8
0
100
AcDbPolyline
 62
7
  6
CONTINUOUS
 90
10
 70
0
 10
1.0202646217
 20
-21.1320259944
 10
0.9845507407
 20
-21.1093780596
 10
0.9487431909
 20
-21.0878773079
 10
0.9128685802
 20
-21.0675397471
 10
0.8769533587
 20
-21.0483804138
 10
0.8410244247
 20
-21.030413699
 10
0.8051091055
 20
-21.0136532676
 10
0.7692342994
 20
-20.9981116305
 10
0.7334264568
 20
-20.9838002045
 10
0.6977121855
 20
-20.9707295923
  0
LINE
  5
2BA
100
AcDbEntity
  8
0
100
AcDbLine
 62
7
  6
CONTINUOUS
 10
0.55809396
 20
-22.0306025905
 11
0.7068255298
 21
-22.1408383278
  0
LWPOLYLINE
  5
2BB
100
AcDbEntity
  8
0
100
AcDbPolyline
 62
7
  6
CONTINUOUS
 90
29
 70
0
 10
-14.0392638266
 20
8.1020659736
 10
-14.1449481385
 20
8.0443806523
 10
-14.2500414208
 20
7.9773316
 10
-14.3539559493
 20
7.9012937822
 10
-14.4561105918
 20
7.8166924333
 10
-14.5559340581
 20
7.7240006783
 10
-14.6528680949
 20
7.6237368871
 10
-14.7463706078
 20
7.5164617754
 10
-14.8359186927
 20
7.4027752692
 10
-14.9210115604
 20
7.2833131497
 10
-15.0011733371
 20
7.1587434973
 10
-15.0759557257
 20
7.0297629562
 10
-15.1449405126
 20
6.8970928378
 10
-15.207741907
 20
6.7614750873
 10
-15.264008698
 20
6.6236681341
 10
-15.3134262189
 20
6.4844426506
 10
-15.3557181068
 20
6.3445772422
 10
-15.3906478484
 20
6.204854093
 10
-15.4180201023
 20
6.0660545915
 10
-15.4376817919
 20
5.9289549608
 10
-15.449522961
 20
5.7943219177
 10
-15.453477389
 20
5.6629083848
 10
-15.449522961
 20
5.5354492798
 10
-15.4376817919
 20
5.4126574058
 10
-15.4180201023
 20
5.2952194648
 10
-15.3906478484
 20
5.1837922172
 10
-15.3557181068
 20
5.0789988096
 10
-15.3134262189
 20
4.9814252891
 10
-15.2642900669
 20
4.8920737901
  0
LWPOLYLINE
  5
2BC
100
AcDbEntity
  8
0
100
AcDbPolyline
 62
7
  6
CONTINUOUS
 90
12
 70
0
 10
-8.6535743228
 20
13.6364625576
 10
-8.5604297899
 20
13.6791948423
 10
-8.4684633301
 20
13.7140844487
 10
-8.3776749435
 20
13.7411313767
 10
-8.2876870299
 20
13.7603841395
 10
-8.1988771895
 20
13.771794224
 10
-8.1123782227
 20
13.7752160905
 10
-8.0282197313
 20
13.7705474115
 10
-7.9463721136
 20
13.7578905145
 10
-7.8678793644
 20
13.7374068427
 10
-7.792784459
 20
13.7089961365
 10
-7.75913832
 20
13.6932617261
  0
LINE
  5
2BD
100
AcDbEntity
  8
RACCORDO
100
AcDbLine
 62
7
  6
CONTINUOUS
 10
-1.1013459558
 20
14.5280968874
 11
-1.0932269579
 21
14.531645162
  0
LINE
  5
2BE
100
AcDbEntity
  8
RACCORDO
100
AcDbLine
 62
250
  6
CONTINUOUS
 10
2.6397999598
 20
16.0055301041
 11
3.0773271771
 21
16.1527875788
  0
LINE
  5
2BF
100
AcDbEntity
  8
RACCORDO
100
AcDbLine
 62
7
  6
CONTINUOUS
 10
-1.0551650337
 20
14.5436641878
 11
-1.0935715024
 21
14.5314797704
  0
LWPOLYLINE
  5
2C0
100
AcDbEntity
  8
RACCORDO
100
AcDbPolyline
 62
250
  6
CONTINUOUS
 90
9
 70
0
 10
3.0773271771
 20
16.1527875788
 10
3.433824295
 20
16.2617042263
 10
3.7881871778
 20
16.3547374792
 10
4.140005445
 20
16.4317797987
 10
4.4888705952
 20
16.4927420041
 10
4.8343797311
 20
16.5375539681
 10
5.1761359173
 20
16.5661641956
 10
5.5137443343
 20
16.5785393254
 10
5.8468128476
 20
16.5746646708
  0
LWPOLYLINE
  5
2C1
100
AcDbEntity
  8
0
100
AcDbPolyline
 62
250
  6
CONTINUOUS
 90
9
 70
0
 10
3.4379516355
 20
15.9724753496
 10
3.794415786
 20
16.0813826313
 10
4.1487476802
 20
16.1744098467
 10
4.5005370152
 20
16.251449274
 10
4.8493764646
 20
16.3124117093
 10
5.1948620534
 20
16.3572265527
 10
5.5365936292
 20
16.3858419048
 10
5.874175453
 20
16.398224643
 10
6.2072166534
 20
16.3943604453
  0
LWPOLYLINE
  5
2C2
100
AcDbEntity
  8
RACCORDO
100
AcDbPolyline
 62
7
  6
CONTINUOUS
 90
10
 70
0
 10
2.8765966707
 20
16.1741160786
 10
3.2442513545
 20
16.2863408564
 10
3.6096105476
 20
16.3819871709
 10
3.9722791955
 20
16.4610025536
 10
4.3319528239
 20
16.5233638741
 10
4.6881507101
 20
16.5690293722
 10
5.040220377
 20
16.5979798491
 10
5.3876927173
 20
16.6102650114
 10
5.730277007
 20
16.6059629479
 10
6.0675975669
 20
16.5851608725
  0
LWPOLYLINE
  5
2C3
100
AcDbEntity
  8
RACCORDO
100
AcDbPolyline
 62
250
  6
CONTINUOUS
 90
24
 70
0
 10
-4.8203745096
 20
-15.7072351083
 10
-4.5811871835
 20
-15.6546430538
 10
-4.3377050809
 20
-15.5942504416
 10
-4.0904368874
 20
-15.5252214389
 10
-3.8404119932
 20
-15.4466450613
 10
-3.5877216785
 20
-15.3577709497
 10
-3.3315960603
 20
-15.2577947849
 10
-3.0727729949
 20
-15.1455840423
 10
-2.8120748422
 20
-15.0201270681
 10
-2.5490876912
 20
-14.8803745021
 10
-2.2848197752
 20
-14.7249670438
 10
-2.0203731047
 20
-14.5526583654
 10
-1.755755255
 20
-14.3621024922
 10
-1.4924332686
 20
-14.1518117739
 10
-1.2317474718
 20
-13.9202413317
 10
-0.9739146941
 20
-13.6653955325
 10
-0.7208543182
 20
-13.3855195906
 10
-0.4744716103
 20
-13.0788562839
 10
-0.2355626675
 20
-12.74270988
 10
-0.006396613
 20
-12.3746067376
 10
0.2100074357
 20
-11.9731015628
 10
0.4111561397
 20
-11.5365580754
 10
0.5940532237
 20
-11.0628189685
 10
0.7551961557
 20
-10.5507612697
  0
LWPOLYLINE
  5
2C4
100
AcDbEntity
  8
RACCORDO
100
AcDbPolyline
 62
250
  6
CONTINUOUS
 90
10
 70
0
 10
-6.7029975048
 20
-15.0641907798
 10
-6.5173009932
 20
-15.0304955238
 10
-6.3276106846
 20
-14.9972990387
 10
-6.1339531275
 20
-14.9646219482
 10
-5.936261457
 20
-14.9332116173
 10
-5.7346586912
 20
-14.9023633387
 10
-5.5294550225
 20
-14.8699188315
 10
-5.3207712683
 20
-14.835171943
 10
-5.1085416083
 20
-14.7988701352
 10
-4.8927949744
 20
-14.7610346247
  0
LWPOLYLINE
  5
2C5
100
AcDbEntity
  8
RACCORDO
100
AcDbPolyline
 62
250
  6
CONTINUOUS
 90
10
 70
0
 10
-8.6407629929
 20
-15.3047158368
 10
-8.4158802101
 20
-15.308528024
 10
-8.1921631893
 20
-15.3036248501
 10
-7.9704708374
 20
-15.2902793542
 10
-7.7523045409
 20
-15.2681623799
 10
-7.5377331589
 20
-15.2381915998
 10
-7.3252484553
 20
-15.2024316745
 10
-7.1146225319
 20
-15.1616715323
 10
-6.9070555292
 20
-15.1155205298
 10
-6.7029975048
 20
-15.0641907798
  0
LWPOLYLINE
  5
2C6
100
AcDbEntity
  8
RACCORDO
100
AcDbPolyline
 62
250
  6
CONTINUOUS
 90
18
 70
0
 10
-4.8203745096
 20
-15.7072351083
 10
-4.306038448
 20
-15.7215485108
 10
-3.8049957951
 20
-15.6896746859
 10
-3.3192647809
 20
-15.6118012007
 10
-2.8509801305
 20
-15.4882685643
 10
-2.4018137913
 20
-15.3197302457
 10
-1.9730361627
 20
-15.1069219138
 10
-1.5662969795
 20
-14.8504891744
 10
-1.1834188624
 20
-14.5514183602
 10
-0.8258868609
 20
-14.2109357066
 10
-0.4950898973
 20
-13.8300625007
 10
-0.1926151545
 20
-13.4102987661
 10
0.0799670661
 20
-12.9538138821
 10
0.3214849687
 20
-12.4624644124
 10
0.5309886849
 20
-11.9380444542
 10
0.7075278894
 20
-11.3828926334
 10
0.8503487212
 20
-10.7992588385
 10
0.8944800992
 20
-10.5767839643
  0
LWPOLYLINE
  5
2C7
100
AcDbEntity
  8
RACCORDO
100
AcDbPolyline
 62
250
  6
CONTINUOUS
 90
10
 70
0
 10
-6.5719579045
 20
-15.6884127672
 10
-6.3958314176
 20
-15.6976836855
 10
-6.2146339563
 20
-15.7062815122
 10
-6.0285853041
 20
-15.7138170709
 10
-5.8380063917
 20
-15.7200124194
 10
-5.6430274413
 20
-15.7242694884
 10
-5.4435726802
 20
-15.7256787115
 10
-5.2397653741
 20
-15.7235953561
 10
-5.0319471275
 20
-15.7176320794
 10
-4.8203738588
 20
-15.7072325772
  0
LWPOLYLINE
  5
2C8
100
AcDbEntity
  8
DRAFT
100
AcDbPolyline
 62
7
  6
CONTINUOUS
 90
9
 70
0
 10
1.3919242739
 20
-20.5623586679
 10
1.6082996838
 20
-20.760425222
 10
1.815282052
 20
-20.9798029161
 10
2.0104131933
 20
-21.2181998679
 10
2.191644645
 20
-21.4729700639
 10
2.3570723025
 20
-21.7412692265
 10
2.5046790894
 20
-22.0202458346
 10
2.6329125337
 20
-22.3068152222
 10
2.7404579793
 20
-22.5977871353
  0
LINE
  5
2C9
100
AcDbEntity
  8
0
100
AcDbLine
 62
7
  6
CONTINUOUS
 10
1.2299784377
 20
-22.4276153544
 11
1.2719918481
 21
-22.4707076842
  0
LINE
  5
2CA
100
AcDbEntity
  8
0
100
AcDbLine
 62
7
  6
CONTINUOUS
 10
1.1881772996
 20
-22.3844010436
 11
1.2299784377
 21
-22.4276153544
  0
LWPOLYLINE
  5
2CB
100
AcDbEntity
  8
0
100
AcDbPolyline
 62
7
  6
CONTINUOUS
 90
37
 70
0
 10
-0.7020557213
 20
-21.2098290814
 10
-0.6823623825
 20
-21.2309696152
 10
-0.6624158215
 20
-21.2520161519
 10
-0.642216038
 20
-21.2729686912
 10
-0.6217694591
 20
-21.2938200773
 10
-0.6010696578
 20
-21.3145774661
 10
-0.5800973535
 20
-21.3352623256
 10
-0.5588541076
 20
-21.3558746696
 10
-0.5373383587
 20
-21.3764144842
 10
-0.5155261412
 20
-21.3969031952
 10
-0.4934159977
 20
-21.4173434528
 10
-0.4710093857
 20
-21.4377326068
 10
-0.4482867115
 20
-21.4580841323
 10
-0.4252322438
 20
-21.4784117505
 10
-0.401861714
 20
-21.4987017401
 10
-0.3782027227
 20
-21.5189264129
 10
-0.3542508233
 20
-21.5390878061
 10
-0.3300104623
 20
-21.5591838824
 10
-0.3055225802
 20
-21.5791808415
 10
-0.2808114152
 20
-21.5990589184
 10
-0.2558527291
 20
-21.618837878
 10
-0.2306147472
 20
-21.6385432147
 10
-0.2051075425
 20
-21.6581692888
 10
-0.179321042
 20
-21.67772174
 10
-0.1531932523
 20
-21.6972429812
 10
-0.1267022665
 20
-21.7167504374
 10
-0.0998699914
 20
-21.7362266836
 10
-0.0727001541
 20
-21.7556618584
 10
-0.0451767028
 20
-21.7750661396
 10
-0.0173156892
 20
-21.7944293493
 10
0.0108310047
 20
-21.8137110926
 10
0.0392687841
 20
-21.8329127619
 10
0.0679922439
 20
-21.8520329647
 10
0.0969332872
 20
-21.8710271287
 10
0.126069215
 20
-21.8898803965
 10
0.1554227263
 20
-21.9086076256
 10
0.184993821
 20
-21.9272088159
  0
LINE
  5
2CC
100
AcDbEntity
  8
0
100
AcDbLine
 62
7
  6
CONTINUOUS
 10
1.0477771933
 20
-22.5272802889
 11
1.1241189985
 21
-22.6117015659
  0
LINE
  5
2CD
100
AcDbEntity
  8
0
100
AcDbLine
 62
7
  6
CONTINUOUS
 10
0.9335600346
 20
-22.3997107325
 11
1.0477771933
 21
-22.5272802889
  0
LINE
  5
2CE
100
AcDbEntity
  8
0
100
AcDbLine
 62
7
  6
CONTINUOUS
 10
0.7596866535
 20
-22.2035114573
 11
0.9335600346
 21
-22.3997107325
  0
LINE
  5
2CF
100
AcDbEntity
  8
0
100
AcDbLine
 62
7
  6
CONTINUOUS
 10
0.7208270374
 20
-22.1594328348
 11
0.7596866535
 21
-22.2035114573
  0
LWPOLYLINE
  5
2D0
100
AcDbEntity
  8
0
100
AcDbPolyline
 62
7
  6
CONTINUOUS
 90
8
 70
0
 10
-0.7020557213
 20
-22.2490595659
 10
-0.7063909021
 20
-22.2440162695
 10
-0.7101720255
 20
-22.2389029407
 10
-0.7133990914
 20
-22.2337195796
 10
-0.71607801
 20
-22.2284512836
 10
-0.7182028712
 20
-22.2231129553
 10
-0.7197559444
 20
-22.2177493019
 10
-0.7203278515
 20
-22.2149921803
  0
LINE
  5
2D1
100
AcDbEntity
  8
0
100
AcDbLine
 62
7
  6
CONTINUOUS
 10
0.2597519252
 20
-23.0572728533
 11
0.2345831043
 21
-23.0271031859
  0
LINE
  5
2D2
100
AcDbEntity
  8
0
100
AcDbLine
 62
7
  6
CONTINUOUS
 10
0.2345831043
 20
-23.0271031859
 11
0.2096827902
 21
-22.9968333515
  0
LINE
  5
2D3
100
AcDbEntity
  8
0
100
AcDbLine
 62
7
  6
CONTINUOUS
 10
0.2096827902
 20
-22.9968333515
 11
0.1849926565
 21
-22.9664385729
  0
LWPOLYLINE
  5
2D4
100
AcDbEntity
  8
0
100
AcDbPolyline
 62
7
  6
CONTINUOUS
 90
6
 70
0
 10
-14.9814473544
 20
-3.4765889021
 10
-14.9248991945
 20
-3.5585855279
 10
-14.8620978001
 20
-3.631401884
 10
-14.7931130132
 20
-3.6950872155
 10
-14.7183306246
 20
-3.7492853681
 10
-14.6508483051
 20
-3.7875019082
  0
LWPOLYLINE
  5
2D5
100
AcDbEntity
  8
RACCORDO
100
AcDbPolyline
 62
250
  6
CONTINUOUS
 90
6
 70
0
 10
-8.4347546801
 20
-33.5205704955
 10
-8.4329398552
 20
-33.5387975301
 10
-8.4180840573
 20
-33.5824258186
 10
-8.3888545908
 20
-33.6237130788
 10
-8.3461401447
 20
-33.6614052748
 10
-8.2912390623
 20
-33.6943574557
  0
LWPOLYLINE
  5
2D6
100
AcDbEntity
  8
RACCORDO
100
AcDbPolyline
 62
250
  6
CONTINUOUS
 90
5
 70
0
 10
-8.3919207301
 20
8.6868646919
 10
-8.3428417971
 20
8.8346208361
 10
-8.2818983166
 20
8.9800896095
 10
-8.2099940446
 20
9.1211137862
 10
-8.128195261
 20
9.255602124
  0
LINE
  5
2D7
100
AcDbEntity
  8
RACCORDO
100
AcDbLine
 62
250
  6
CONTINUOUS
 10
-8.128195261
 20
9.255602124
 11
-8.0377149314
 21
9.3815603669
  0
LWPOLYLINE
  5
2D8
100
AcDbEntity
  8
RACCORDO
100
AcDbPolyline
 62
250
  6
CONTINUOUS
 90
10
 70
0
 10
-7.5790225158
 20
9.3170722774
 10
-7.6766885781
 20
9.2014332647
 10
-7.7670171016
 20
9.0753967512
 10
-7.8486685707
 20
8.9408317792
 10
-7.9204321454
 20
8.7997338631
 10
-7.9812436168
 20
8.6541953965
 10
-8.0302011888
 20
8.5063746238
 10
-8.0665788514
 20
8.3584636343
 10
-8.0898371464
 20
8.2126558554
 10
-8.0996311681
 20
8.0711135252
  0
LWPOLYLINE
  5
2D9
100
AcDbEntity
  8
RACCORDO
100
AcDbPolyline
 62
7
  6
CONTINUOUS
 90
10
 70
0
 10
-8.1507705839
 20
9.52106069
 10
-8.2380872412
 20
9.4178928786
 10
-8.3171068555
 20
9.3077493802
 10
-8.3875188837
 20
9.1917099858
 10
-8.4490340823
 20
9.0706366104
 10
-8.5011894537
 20
8.9455264831
 10
-8.5434376902
 20
8.8174865119
 10
-8.5752702929
 20
8.6873765548
 10
-8.5960947993
 20
8.5559445217
 10
-8.605162068
 20
8.4241486794
  0
LINE
  5
2DA
100
AcDbEntity
  8
RACCORDO
100
AcDbLine
 62
250
  6
CONTINUOUS
 10
-8.0377149314
 20
9.3815603669
 11
-7.9398947721
 21
9.4971207181
  0
LWPOLYLINE
  5
2DB
100
AcDbEntity
  8
RACCORDO
100
AcDbPolyline
 62
250
  6
CONTINUOUS
 90
9
 70
0
 10
-7.9398972325
 20
9.4971180443
 10
-7.6117544427
 20
9.8453810257
 10
-7.2786859294
 20
10.1823241935
 10
-6.9410775124
 20
10.5075574807
 10
-6.5993213263
 20
10.8207034394
 10
-6.2538121903
 20
11.1214006113
 10
-5.9049470401
 20
11.4093035561
 10
-5.5531287729
 20
11.6840795039
 10
-5.1987658901
 20
11.9454091338
  0
LINE
  5
2DC
100
AcDbEntity
  8
RACCORDO
100
AcDbLine
 62
250
  6
CONTINUOUS
 10
-7.2509093317
 20
9.6652974527
 11
-7.5790242646
 21
9.3170758742
  0
LWPOLYLINE
  5
2DD
100
AcDbEntity
  8
RACCORDO
100
AcDbPolyline
 62
7
  6
CONTINUOUS
 90
10
 70
0
 10
-5.0673916333
 20
12.2035506708
 10
-5.423792588
 20
11.9560399658
 10
-5.7776145296
 20
11.6951136085
 10
-6.1284810266
 20
11.4210852409
 10
-6.4760283738
 20
11.1342726171
 10
-6.8198796017
 20
10.8350186414
 10
-7.1596419597
 20
10.5236975303
 10
-7.4949437215
 20
10.2006832186
 10
-7.8254371356
 20
9.8663425253
 10
-8.1507705839
 20
9.52106069
  0
LINE
  5
2DE
100
AcDbEntity
  8
RACCORDO
100
AcDbLine
 62
250
  6
CONTINUOUS
 10
-5.1987658901
 20
11.9454091338
 11
-4.8422687722
 21
12.1929896042
  0
LWPOLYLINE
  5
2DF
100
AcDbEntity
  8
RACCORDO
100
AcDbPolyline
 62
250
  6
CONTINUOUS
 90
9
 70
0
 10
-4.4816443138
 20
12.012677375
 10
-4.8381084644
 20
11.7651205061
 10
-5.1924403585
 20
11.5038158274
 10
-5.5442296935
 20
11.2290659196
 10
-5.8930691429
 20
10.9411889055
 10
-6.2385547317
 20
10.6405181602
 10
-6.5802863075
 20
10.3274019364
 10
-6.9178681313
 20
10.0022028508
 10
-7.2509093317
 20
9.6652974527
  0
LWPOLYLINE
  5
2E0
100
AcDbEntity
  8
RACCORDO
100
AcDbPolyline
 62
250
  6
CONTINUOUS
 90
6
 70
0
 10
-8.1507705839
 20
9.52106069
 10
-8.1275873548
 20
9.5364535887
 10
-8.0930808402
 20
9.5424966225
 10
-8.0493713123
 20
9.5378068812
 10
-7.997786837
 20
9.5225268304
 10
-7.9398947721
 20
9.4971207181
  0
LWPOLYLINE
  5
2E1
100
AcDbEntity
  8
RACCORDO
100
AcDbPolyline
 62
250
  6
CONTINUOUS
 90
9
 70
0
 10
-4.8422687722
 20
12.1929896042
 10
-4.4047415549
 20
12.4832593468
 10
-3.9663474931
 20
12.7655926267
 10
-3.527193312
 20
13.0399201884
 10
-3.0873797648
 20
13.3061783941
 10
-2.6470200971
 20
13.5642979868
 10
-2.2062400891
 20
13.8142052527
 10
-1.7651533164
 20
14.055836522
 10
-1.3238610558
 20
14.2891370371
  0
LWPOLYLINE
  5
2E2
100
AcDbEntity
  8
RACCORDO
100
AcDbPolyline
 62
250
  6
CONTINUOUS
 90
6
 70
0
 10
-5.0673916333
 20
12.2035506708
 10
-5.0536347564
 20
12.2117192969
 10
-5.0090112028
 20
12.2265670284
 10
-4.9578473826
 20
12.2283647099
 10
-4.901697881
 20
12.2170577172
 10
-4.8422687722
 20
12.1929896042
  0
LWPOLYLINE
  5
2E3
100
AcDbEntity
  8
RACCORDO
100
AcDbPolyline
 62
7
  6
CONTINUOUS
 90
10
 70
0
 10
-1.1016054594
 20
14.5279673915
 10
-1.5440638754
 20
14.3025112998
 10
-1.9863143472
 20
14.0687083632
 10
-2.4282526683
 20
13.8266165274
 10
-2.8697790225
 20
13.5762930996
 10
-3.3107852317
 20
13.3178019319
 10
-3.7511545764
 20
13.0512143435
 10
-4.1907789524
 20
12.7765990769
 10
-4.6295590834
 20
12.4940213454
 10
-5.0673916333
 20
12.2035506708
  0
LINE
  5
2E4
100
AcDbEntity
  8
RACCORDO
100
AcDbLine
 62
250
  6
CONTINUOUS
 10
-1.3238610558
 20
14.2891370371
 11
-0.8824707976
 21
14.5140505158
  0
LWPOLYLINE
  5
2E5
100
AcDbEntity
  8
SUPERFICI
100
AcDbPolyline
 62
250
  6
CONTINUOUS
 90
10
 70
0
 10
-0.5218463392
 20
14.3337382866
 10
-0.9632560587
 20
14.1088147052
 10
-1.4045582649
 20
13.8755084647
 10
-1.8456454708
 20
13.6338763911
 10
-2.2864102415
 20
13.3839773382
 10
-2.7267452209
 20
13.1258721735
 10
-3.1665431575
 20
12.859623763
 10
-3.6056969306
 20
12.5852969563
 10
-4.0440995763
 20
12.3029585708
 10
-4.4816443138
 20
12.012677375
  0
LWPOLYLINE
  5
2E6
100
AcDbEntity
  8
RACCORDO
100
AcDbPolyline
 62
7
  6
CONTINUOUS
 90
10
 70
0
 10
-1.1016054594
 20
14.5279673915
 10
-0.6584497286
 20
14.7453060205
 10
-0.2153285508
 20
14.9541491302
 10
0.2276536848
 20
15.1544462792
 10
0.6703996989
 20
15.3461519174
 10
1.1127979253
 20
15.5292160603
 10
1.5547228224
 20
15.7035857888
 10
1.9960633263
 20
15.8692170136
 10
2.4367225655
 20
16.0260729993
 10
2.8765966706
 20
16.1741160786
  0
LWPOLYLINE
  5
2E7
100
AcDbEntity
  8
RACCORDO
100
AcDbPolyline
 62
250
  6
CONTINUOUS
 90
9
 70
0
 10
-0.8824707976
 20
14.5140505158
 10
-0.4410805394
 20
14.7305272953
 10
0.0002117212
 20
14.9385190408
 10
0.441298494
 20
15.1379745443
 10
0.8820785019
 20
15.3288472863
 10
1.3224381696
 20
15.5110873613
 10
1.7622517169
 20
15.6846427029
 10
2.201405898
 20
15.8494693223
 10
2.6397999598
 20
16.0055301041
  0
LWPOLYLINE
  5
2E8
100
AcDbEntity
  8
0
100
AcDbPolyline
 62
250
  6
CONTINUOUS
 90
10
 70
0
 10
-0.5218463392
 20
14.3337382866
 10
-0.0804366196
 20
14.5502244247
 10
0.3608655866
 20
14.7582203905
 10
0.8019527924
 20
14.9576755227
 10
1.2427175632
 20
15.1485412406
 10
1.6830525426
 20
15.3307710552
 10
2.1228504792
 20
15.5043205813
 10
2.5620042522
 20
15.6691475477
 10
3.000406898
 20
15.8252118079
 10
3.4379516355
 20
15.9724753496
  0
LWPOLYLINE
  5
2E9
100
AcDbEntity
  8
0
100
AcDbPolyline
 62
7
  6
CONTINUOUS
 90
6
 70
0
 10
-14.0392638266
 20
8.1020659736
 10
-13.9335795147
 20
8.1500649641
 10
-13.8284862324
 20
8.1881091942
 10
-13.7245717039
 20
8.215985905
 10
-13.6224170614
 20
8.2335391986
 10
-13.5919264701
 20
8.2368009838
  0
LWPOLYLINE
  5
2EA
100
AcDbEntity
  8
RACCORDO
100
AcDbPolyline
 62
250
  6
CONTINUOUS
 90
32
 70
0
 10
-4.8927949744
 20
-14.7610346247
 10
-4.6661975457
 20
-14.7167764806
 10
-4.4364173163
 20
-14.6636503214
 10
-4.2034816038
 20
-14.60167729
 10
-3.9672641226
 20
-14.5317573638
 10
-3.7279481669
 20
-14.4530334808
 10
-3.4860208341
 20
-14.3628881082
 10
-3.2412260222
 20
-14.26155505
 10
-2.9938685508
 20
-14.1488370417
 10
-2.7452583534
 20
-14.021457481
 10
-2.4950428377
 20
-13.8796460615
 10
-2.2435955533
 20
-13.7231894781
 10
-1.9932765149
 20
-13.5481197926
 10
-1.7436783712
 20
-13.3547472106
 10
-1.4951741602
 20
-13.1427397701
 10
-1.2512300686
 20
-12.9071227428
 10
-1.0111473546
 20
-12.6481668658
 10
-0.7755070973
 20
-12.365525336
 10
-0.5495993798
 20
-12.0532335456
 10
-0.3322660773
 20
-11.7107921248
 10
-0.1244308108
 20
-11.3385514007
 10
0.0656233729
 20
-10.9317353159
 10
0.2387708928
 20
-10.4893180117
 10
0.3944996052
 20
-10.0120965803
 10
0.5225702845
 20
-9.4979452763
 10
0.6231313219
 20
-8.9439399325
 10
0.696416179
 20
-8.3527623103
 10
0.7323374278
 20
-7.7306695191
 10
0.729304939
 20
-7.0752796195
 10
0.6890282128
 20
-6.3888824514
 10
0.6062356437
 20
-5.6848114668
 10
0.4787028044
 20
-4.9626194211
  0
LWPOLYLINE
  5
2EB
100
AcDbEntity
  8
0
100
AcDbPolyline
 62
7
  6
CONTINUOUS
 90
38
 70
0
 10
-9.5480103256
 20
-6.3389208979
 10
-9.5861042236
 20
-6.3184178274
 10
-9.6535743228
 20
-6.2748157933
 10
-9.7167197873
 20
-6.2237548675
 10
-9.775595314
 20
-6.1653293885
 10
-9.8294499252
 20
-6.1002845938
 10
-9.8782193039
 20
-6.0285356911
 10
-9.921967767
 20
-5.9501674727
 10
-9.9601372877
 20
-5.8661795524
 10
-9.9926564007
 20
-5.7764999429
 10
-10.0195965713
 20
-5.6812006316
 10
-10.0406141681
 20
-5.5814971943
 10
-10.0556333242
 20
-5.4773332151
 10
-10.0647299066
 20
-5.36876511
 10
-10.0677878852
 20
-5.257177703
 10
-10.0647299066
 20
-5.1425323175
 10
-10.0556333242
 20
-5.02486763
 10
-10.0406141681
 20
-4.9056844947
 10
-10.0195965713
 20
-4.7849634606
 10
-9.9926564007
 20
-4.6627239787
 10
-9.9601372877
 20
-4.5405252562
 10
-9.921967767
 20
-4.4183678152
 10
-9.8782193039
 20
-4.2962511337
 10
-9.8294499252
 20
-4.1757328523
 10
-9.775595314
 20
-4.0568334464
 10
-9.7167197873
 20
-3.9395324407
 10
-9.6535743228
 20
-3.8253260505
 10
-9.5861042236
 20
-3.7142539171
 10
-9.5143641866
 20
-3.6062763992
 10
-9.4392692812
 20
-3.5027707876
 10
-9.360776532
 20
-3.4037943666
 10
-9.2789289143
 20
-3.3092898519
 10
-9.194770423
 20
-3.2204626816
 10
-9.1082714561
 20
-3.1373855813
 10
-9.0194616157
 20
-3.0599858253
 10
-8.9294737021
 20
-2.9892506745
 10
-8.8386853155
 20
-2.9255092159
 10
-8.7737591351
 20
-2.8852142857
  0
LINE
  5
2EC
100
AcDbEntity
  8
0
100
AcDbLine
 62
7
  6
CONTINUOUS
 10
0.7068255298
 20
-22.1408383278
 11
0.7208270374
 21
-22.1594328348
  0
LINE
  5
2ED
100
AcDbEntity
  8
0
100
AcDbLine
 62
7
  6
CONTINUOUS
 10
0.4903782152
 20
-23.5974983953
 11
0.5006614314
 21
-23.6161539529
  0
LWPOLYLINE
  5
2EE
100
AcDbEntity
  8
0
100
AcDbPolyline
 62
7
  6
CONTINUOUS
 90
16
 70
0
 10
-6.1129293572
 20
-31.3462572338
 10
-6.1085141211
 20
-31.3970571692
 10
-6.0980906116
 20
-31.4499064349
 10
-6.0818175701
 20
-31.5036270584
 10
-6.0599376716
 20
-31.5570437962
 10
-6.0329140333
 20
-31.6088983391
 10
-6.0014683514
 20
-31.6578985336
 10
-5.9663068806
 20
-31.7029248896
 10
-5.9281856095
 20
-31.7429674557
 10
-5.8880836165
 20
-31.7770880029
 10
-5.847003517
 20
-31.8045096396
 10
-5.8057476376
 20
-31.8247527796
 10
-5.7650367003
 20
-31.8374783583
 10
-5.7256914476
 20
-31.8423491011
 10
-5.6886989469
 20
-31.8391456452
 10
-5.6526444534
 20
-31.8267680183
  0
LWPOLYLINE
  5
2EF
100
AcDbEntity
  8
RACCORDO
100
AcDbPolyline
 62
250
  6
CONTINUOUS
 90
6
 70
0
 10
-8.605162068
 20
8.4241486794
 10
-8.6033177904
 20
8.4009104581
 10
-8.5884730618
 20
8.3600216478
 10
-8.5592506518
 20
8.3207519434
 10
-8.5165384634
 20
8.2842945363
 10
-8.4616342808
 20
8.2517571685
  0
LWPOLYLINE
  5
2F0
100
AcDbEntity
  8
RACCORDO
100
AcDbPolyline
 62
250
  6
CONTINUOUS
 90
7
 70
0
 10
-8.2912398618
 20
-33.6943287319
 10
-8.3795435396
 20
-30.6448122273
 10
-8.4558073083
 20
-27.5888114337
 10
-8.520029622
 20
-24.5263958646
 10
-8.5722092084
 20
-21.4576351773
 10
-8.6123450686
 20
-18.3825991715
 10
-8.6404364774
 20
-15.3013577875
  0
LINE
  5
2F1
100
AcDbEntity
  8
0
100
AcDbLine
 62
7
  6
CONTINUOUS
 10
-7.3874163021
 20
-31.6868111275
 11
-7.3958719278
 21
-31.3788849222
  0
LINE
  5
2F2
100
AcDbEntity
  8
0
100
AcDbLine
 62
7
  6
CONTINUOUS
 10
-7.3958719278
 20
-31.3788849222
 11
-7.4042050021
 21
-31.0708924994
  0
LINE
  5
2F3
100
AcDbEntity
  8
0
100
AcDbLine
 62
7
  6
CONTINUOUS
 10
-6.1158445148
 20
-31.2353252633
 11
-6.1129279544
 21
-31.3462579466
  0
LINE
  5
2F4
100
AcDbEntity
  8
0
100
AcDbLine
 62
7
  6
CONTINUOUS
 10
-6.5393670597
 20
-30.9579586805
 11
-6.5516905307
 21
-30.4803642823
  0
LINE
  5
2F5
100
AcDbEntity
  8
0
100
AcDbLine
 62
7
  6
CONTINUOUS
 10
-6.1084200238
 20
-30.6912398987
 11
-6.0917032778
 21
-31.3356456083
  0
LINE
  5
2F6
100
AcDbEntity
  8
0
100
AcDbLine
 62
7
  6
CONTINUOUS
 10
-6.1301890314
 20
-30.6805335557
 11
-6.1158445148
 21
-31.2353252633
  0
LINE
  5
2F7
100
AcDbEntity
  8
0
100
AcDbLine
 62
7
  6
CONTINUOUS
 10
-7.4448193889
 20
-29.4976367396
 11
-7.4310552006
 21
-30.0450386166
  0
LINE
  5
2F8
100
AcDbEntity
  8
0
100
AcDbLine
 62
7
  6
CONTINUOUS
 10
-7.4537861785
 20
-29.1325987582
 11
-7.4669001779
 21
-28.5848774436
  0
LWPOLYLINE
  5
2F9
100
AcDbEntity
  8
RACCORDO
100
AcDbPolyline
 62
250
  6
CONTINUOUS
 90
10
 70
0
 10
-6.5719859952
 20
-15.6884045242
 10
-6.573650222
 20
-15.6180835927
 10
-6.5786567436
 20
-15.5471444219
 10
-6.5869795812
 20
-15.4759558721
 10
-6.5985755121
 20
-15.4048881003
 10
-6.6133842946
 20
-15.3343106348
 10
-6.6313289814
 20
-15.2645904538
 10
-6.6523163195
 20
-15.1960900786
 10
-6.6762372348
 20
-15.1291656886
 10
-6.7029673996
 20
-15.0641652683
  0
LINE
  5
2FA
100
AcDbEntity
  8
0
100
AcDbLine
 62
7
  6
CONTINUOUS
 10
-6.6076069949
 20
-28.1488756782
 11
-6.5954922692
 21
-28.6800589067
  0
LINE
  5
2FB
100
AcDbEntity
  8
0
100
AcDbLine
 62
7
  6
CONTINUOUS
 10
-6.5857166745
 20
-28.1679635083
 11
-6.5742702713
 21
-28.6694479078
  0
LINE
  5
2FC
100
AcDbEntity
  8
0
100
AcDbLine
 62
7
  6
CONTINUOUS
 10
-7.0437909988
 20
-27.7679608433
 11
-7.0240512257
 21
-28.6334763631
  0
LINE
  5
2FD
100
AcDbEntity
  8
0
100
AcDbLine
 62
7
  6
CONTINUOUS
 10
-7.4945314807
 20
-27.3733433589
 11
-7.5064153021
 21
-26.8250025697
  0
LINE
  5
2FE
100
AcDbEntity
  8
0
100
AcDbLine
 62
7
  6
CONTINUOUS
 10
-7.5253531193
 20
-25.910678716
 11
-7.5141192518
 21
-26.4593388252
  0
LINE
  5
2FF
100
AcDbEntity
  8
0
100
AcDbLine
 62
7
  6
CONTINUOUS
 10
-7.535613043
 20
-25.3917719705
 11
-7.546100368
 21
-24.8427467895
  0
LINE
  5
300
100
AcDbEntity
  8
0
100
AcDbLine
 62
7
  6
CONTINUOUS
 10
-7.565384996
 20
-23.7740766246
 11
-7.5556549512
 21
-24.3234886452
  0
LINE
  5
301
100
AcDbEntity
  8
0
100
AcDbLine
 62
7
  6
CONTINUOUS
 10
-7.5747283654
 20
-23.2244851226
 11
-7.5836912235
 21
-22.6746838518
  0
LINE
  5
302
100
AcDbEntity
  8
0
100
AcDbLine
 62
7
  6
CONTINUOUS
 10
-7.6026000403
 20
-21.4248252005
 11
-7.6102989244
 21
-20.8743711581
  0
LWPOLYLINE
  5
303
100
AcDbEntity
  8
RACCORDO
100
AcDbPolyline
 62
250
  6
CONTINUOUS
 90
7
 70
0
 10
-8.6407629929
 20
-15.3047158368
 10
-8.6585960846
 20
-11.5966627006
 10
-8.6590610271
 20
-7.8798613131
 10
-8.6421578044
 20
-4.1544333986
 10
-8.6078869696
 20
-0.4205009638
 10
-8.556249644
 20
3.3218137058
 10
-8.4872475183
 20
7.0723880503
  0
LWPOLYLINE
  5
304
100
AcDbEntity
  8
RACCORDO
100
AcDbPolyline
 62
250
  6
CONTINUOUS
 90
5
 70
0
 10
-6.7029975048
 20
-15.0641907798
 10
-6.7156782763
 20
-11.6882180316
 10
-6.713972261
 20
-8.3051336971
 10
-6.6978809956
 20
-4.9150303296
 10
-6.6674064075
 20
-1.5180006567
  0
LWPOLYLINE
  5
305
100
AcDbEntity
  8
RACCORDO
100
AcDbPolyline
 62
7
  6
CONTINUOUS
 90
8
 70
0
 10
-8.7592604015
 20
-0.9924881067
 10
-8.7951758874
 20
-5.6810479664
 10
-8.8036656631
 20
-10.3561122606
 10
-8.7847290526
 20
-15.0174394131
 10
-8.7383667934
 20
-19.664788529
 10
-8.6645810363
 20
-24.2979194732
 10
-8.5633753443
 20
-28.9165928704
 10
-8.4347546932
 20
-33.5205700725
  0
LWPOLYLINE
  5
306
100
AcDbEntity
  8
RACCORDO
100
AcDbPolyline
 62
250
  6
CONTINUOUS
 90
3
 70
0
 10
-6.6674064075
 20
-1.5180006567
 10
-6.6225508139
 20
1.8858624218
 10
-6.5633169222
 20
5.2964658366
  0
LWPOLYLINE
  5
307
100
AcDbEntity
  8
RACCORDO
100
AcDbPolyline
 62
7
  6
CONTINUOUS
 90
3
 70
0
 10
-8.605162068
 20
8.4241486794
 10
-8.6959212945
 20
3.7093250856
 10
-8.7592604015
 20
-0.9924881067
  0
LINE
  5
308
100
AcDbEntity
  8
RACCORDO
100
AcDbLine
 62
250
  6
CONTINUOUS
 10
-8.4869698763
 20
7.0686219363
 11
-8.4702783184
 21
7.8572140191
  0
LINE
  5
309
100
AcDbEntity
  8
RACCORDO
100
AcDbLine
 62
250
  6
CONTINUOUS
 10
-8.4702783184
 20
7.8572140191
 11
-8.4616428961
 21
8.2517601381
  0
LWPOLYLINE
  5
30A
100
AcDbEntity
  8
RACCORDO
100
AcDbPolyline
 62
250
  6
CONTINUOUS
 90
4
 70
0
 10
-8.4616342808
 20
8.2517571685
 10
-8.4517606227
 20
8.3932559544
 10
-8.4284073454
 20
8.5390122545
 10
-8.3919207301
 20
8.6868646919
  0
LWPOLYLINE
  5
30B
100
AcDbEntity
  8
RACCORDO
100
AcDbPolyline
 62
250
  6
CONTINUOUS
 90
10
 70
0
 10
-6.425787392
 20
5.6146499205
 10
-6.4280938619
 20
5.5924566889
 10
-6.4337726841
 20
5.5665982441
 10
-6.4427943258
 20
5.5372090681
 10
-6.4551118691
 20
5.5044420053
 10
-6.4706612555
 20
5.4684674664
 10
-6.489361619
 20
5.4294725428
 10
-6.5111157067
 20
5.387660034
 10
-6.5358103836
 20
5.3432473936
 10
-6.5633172224
 20
5.2964655975
  0
LINE
  5
30C
100
AcDbEntity
  8
0
100
AcDbLine
 62
7
  6
CONTINUOUS
 10
-9.5480015138
 20
-6.3389253039
 11
-14.6508483051
 21
-3.7875019082
  0
LINE
  5
30D
100
AcDbEntity
  8
ASSI
100
AcDbLine
 62
7
  6
CONTINUOUS
 10
-8.7967481521
 20
-6.5468468864
 11
-9.4809194745
 21
-6.2047612252
  0
LWPOLYLINE
  5
30E
100
AcDbEntity
  8
0
100
AcDbPolyline
 62
7
  6
CONTINUOUS
 90
6
 70
0
 10
-15.2642900669
 20
4.8920737901
 10
-15.207741907
 20
4.8100771643
 10
-15.1449405126
 20
4.7372608082
 10
-15.0759557257
 20
4.6735754767
 10
-15.0011733371
 20
4.6193773241
 10
-14.9336910176
 20
4.581160784
  0
LWPOLYLINE
  5
30F
100
AcDbEntity
  8
0
100
AcDbPolyline
 62
7
  6
CONTINUOUS
 90
13
 70
0
 10
0.4903782152
 20
-23.5974983953
 10
0.4666498154
 20
-23.5473947063
 10
0.4440540621
 20
-23.4985733955
 10
0.4225030637
 20
-23.4510042751
 10
0.4019311058
 20
-23.404765517
 10
0.3822032136
 20
-23.3596758682
 10
0.3631694333
 20
-23.3153192623
 10
0.3448094216
 20
-23.2716321136
 10
0.3270311879
 20
-23.2285545397
 10
0.30966262
 20
-23.1856937414
 10
0.2926511403
 20
-23.1428681668
 10
0.2760198377
 20
-23.1000942571
 10
0.2597519252
 20
-23.0572728533
  0
LWPOLYLINE
  5
310
100
AcDbEntity
  8
0
100
AcDbPolyline
 62
7
  6
CONTINUOUS
 90
16
 70
0
 10
0.6975785229
 20
-24.1746909433
 10
0.6830731238
 20
-24.138759618
 10
0.6687472233
 20
-24.1025989205
 10
0.654600846
 20
-24.0662088593
 10
0.6406345193
 20
-24.029595732
 10
0.6268477642
 20
-23.9927532582
 10
0.613239099
 20
-23.9556625806
 10
0.5997935436
 20
-23.9182786991
 10
0.5865261394
 20
-23.8806466354
 10
0.5734804181
 20
-23.8428825594
 10
0.5606444628
 20
-23.8049364555
 10
0.54803021
 20
-23.7668583465
 10
0.535716902
 20
-23.7289144369
 10
0.523730905
 20
-23.6911934449
 10
0.5120457614
 20
-23.6536066214
 10
0.5006614314
 20
-23.6161539529
  0
LINE
  5
311
100
AcDbEntity
  8
0
100
AcDbLine
 62
7
  6
CONTINUOUS
 10
-5.5602110157
 20
-31.5081568656
 11
-5.5572943929
 21
-31.6190906722
  0
LINE
  5
312
100
AcDbEntity
  8
0
100
AcDbLine
 62
7
  6
CONTINUOUS
 10
-5.574555818
 20
-30.9533595272
 11
-5.5602110157
 21
-31.5081568656
  0
LINE
  5
313
100
AcDbEntity
  8
0
100
AcDbLine
 62
7
  6
CONTINUOUS
 10
-5.1649970728
 20
-30.6205691047
 11
-5.1321578007
 21
-31.9020790618
  0
LINE
  5
314
100
AcDbEntity
  8
0
100
AcDbLine
 62
7
  6
CONTINUOUS
 10
-5.14377293
 20
-30.6099570333
 11
-5.1109323714
 21
-31.8914663472
  0
LINE
  5
315
100
AcDbEntity
  8
0
100
AcDbLine
 62
7
  6
CONTINUOUS
 10
-5.2073325171
 20
-28.8281064262
 11
-5.1948327024
 21
-29.3761612747
  0
LINE
  5
316
100
AcDbEntity
  8
0
100
AcDbLine
 62
7
  6
CONTINUOUS
 10
-5.1861100692
 20
-28.8174952023
 11
-5.1736097541
 21
-29.3655498006
  0
LINE
  5
317
100
AcDbEntity
  8
0
100
AcDbLine
 62
7
  6
CONTINUOUS
 10
-5.2299121152
 20
-26.7421610968
 11
-5.2130778315
 21
-27.5716616383
  0
LINE
  5
318
100
AcDbEntity
  8
0
100
AcDbLine
 62
7
  6
CONTINUOUS
 10
-5.25113281
 20
-26.7527714442
 11
-5.2342992001
 21
-27.5822723225
  0
LINE
  5
319
100
AcDbEntity
  8
0
100
AcDbLine
 62
7
  6
CONTINUOUS
 10
-5.2643472692
 20
-24.8864012843
 11
-5.249487506
 21
-25.716889086
  0
LINE
  5
31A
100
AcDbEntity
  8
0
100
AcDbLine
 62
7
  6
CONTINUOUS
 10
-5.2855665858
 20
-24.8970109426
 11
-5.2707074172
 21
-25.7274990416
  0
LINE
  5
31B
100
AcDbEntity
  8
0
100
AcDbLine
 62
7
  6
CONTINUOUS
 10
-5.303867613
 20
-23.7976281548
 11
-5.2949101399
 21
-24.3474264613
  0
LINE
  5
31C
100
AcDbEntity
  8
0
100
AcDbLine
 62
7
  6
CONTINUOUS
 10
-5.2826490288
 20
-23.7870188627
 11
-5.2736911973
 21
-24.3368169899
  0
LINE
  5
31D
100
AcDbEntity
  8
0
100
AcDbLine
 62
7
  6
CONTINUOUS
 10
-5.3179381027
 20
-22.8808637091
 11
-5.3096245478
 21
-23.4309909029
  0
LINE
  5
31E
100
AcDbEntity
  8
0
100
AcDbLine
 62
7
  6
CONTINUOUS
 10
-5.2967200816
 20
-22.8702546986
 11
-5.288406194
 21
-23.420381726
  0
LINE
  5
31F
100
AcDbEntity
  8
0
100
AcDbLine
 62
7
  6
CONTINUOUS
 10
-5.342018446
 20
-21.1132771016
 11
-5.3349454298
 21
-21.6640245648
  0
LINE
  5
320
100
AcDbEntity
  8
0
100
AcDbLine
 62
7
  6
CONTINUOUS
 10
-5.3208013885
 20
-21.1026685728
 11
-5.3137280893
 21
-21.6534158945
  0
LINE
  5
321
100
AcDbEntity
  8
0
100
AcDbLine
 62
7
  6
CONTINUOUS
 10
-4.7644870263
 20
4.2567694739
 11
-4.7644870263
 21
4.2732660636
  0
LWPOLYLINE
  5
322
100
AcDbEntity
  8
0
100
AcDbPolyline
 62
7
  6
CONTINUOUS
 90
8
 70
0
 10
-5.1321553507
 20
-31.9020803154
 10
-5.1351745594
 20
-32.008421589
 10
-5.150155316
 20
-32.1070450127
 10
-5.1767655494
 20
-32.1962732314
 10
-5.2144187495
 20
-32.2745280354
 10
-5.2624575785
 20
-32.3405850956
 10
-5.3202416034
 20
-32.3934968445
 10
-5.3725805876
 20
-32.4255754592
  0
LWPOLYLINE
  5
323
100
AcDbEntity
  8
RACCORDO
100
AcDbPolyline
 62
250
  6
CONTINUOUS
 90
7
 70
0
 10
-4.6923831166
 20
4.207295171
 10
-4.6934741094
 20
4.1823046461
 10
-4.7030024458
 20
4.139359113
 10
-4.720432582
 20
4.0886052295
 10
-4.7455536309
 20
4.0306571993
 10
-4.778061638
 20
3.9662162826
 10
-4.8175632591
 20
3.8960623106
  0
LWPOLYLINE
  5
324
100
AcDbEntity
  8
0
100
AcDbPolyline
 62
7
  6
CONTINUOUS
 90
29
 70
0
 10
-13.7564211141
 20
-0.2665967186
 10
-13.862105426
 20
-0.3242820399
 10
-13.9671987083
 20
-0.3913310922
 10
-14.0711132368
 20
-0.4673689099
 10
-14.1732678794
 20
-0.5519702589
 10
-14.2730913457
 20
-0.6446620139
 10
-14.3700253825
 20
-0.7449258051
 10
-14.4635278953
 20
-0.8522009168
 10
-14.5530759802
 20
-0.9658874229
 10
-14.6381688479
 20
-1.0853495425
 10
-14.7183306246
 20
-1.2099191949
 10
-14.7931130132
 20
-1.338899736
 10
-14.8620978001
 20
-1.4715698544
 10
-14.9248991945
 20
-1.6071876049
 10
-14.9811659855
 20
-1.7449945581
 10
-15.0305835064
 20
-1.8842200416
 10
-15.0728753943
 20
-2.02408545
 10
-15.1078051359
 20
-2.1638085992
 10
-15.1351773899
 20
-2.3026081007
 10
-15.1548390795
 20
-2.4397077314
 10
-15.1666802485
 20
-2.5743407745
 10
-15.1706346765
 20
-2.7057543074
 10
-15.1666802485
 20
-2.8332134124
 10
-15.1548390795
 20
-2.9560052864
 10
-15.1351773899
 20
-3.0734432274
 10
-15.1078051359
 20
-3.184870475
 10
-15.0728753943
 20
-3.2896638826
 10
-15.0305835064
 20
-3.3872374031
 10
-14.9814473544
 20
-3.4765889021
  0
LWPOLYLINE
  5
325
100
AcDbEntity
  8
0
100
AcDbPolyline
 62
7
  6
CONTINUOUS
 90
6
 70
0
 10
-13.7564211141
 20
-0.2665967186
 10
-13.6507368023
 20
-0.2185977281
 10
-13.5456435199
 20
-0.180553498
 10
-13.4417289914
 20
-0.1526767872
 10
-13.3395743489
 20
-0.1351234936
 10
-13.3090837576
 20
-0.1318617084
  0
LWPOLYLINE
  5
326
100
AcDbEntity
  8
RACCORDO
100
AcDbPolyline
 62
250
  6
CONTINUOUS
 90
10
 70
0
 10
4.6814871613
 20
-2.1024071712
 10
4.5149876022
 20
-2.1450558324
 10
4.3373750425
 20
-2.175924497
 10
4.1523930337
 20
-2.1943625192
 10
3.963940457
 20
-2.1999812295
 10
3.7759893407
 20
-2.1926621995
 10
3.5925011416
 20
-2.1725597371
 10
3.4173432572
 20
-2.1400975395
 10
3.2542075117
 20
-2.095959765
 10
3.1065323376
 20
-2.0410766841
  0
LWPOLYLINE
  5
327
100
AcDbEntity
  8
0
100
AcDbPolyline
 62
7
  6
CONTINUOUS
 90
8
 70
0
 10
-9.0663158526
 20
-6.4120630361
 10
-9.1082714561
 20
-6.4174533958
 10
-9.194770423
 20
-6.4208752623
 10
-9.2789289143
 20
-6.4162065833
 10
-9.360776532
 20
-6.4035496863
 10
-9.4392692812
 20
-6.3830660145
 10
-9.5143641866
 20
-6.3546553084
 10
-9.5480103256
 20
-6.3389208979
  0
LINE
  5
328
100
AcDbEntity
  8
0
100
AcDbLine
 62
7
  6
CONTINUOUS
 10
-8.7689416495
 20
-2.256319281
 11
-12.8619939231
 21
-0.2097931442
  0
LWPOLYLINE
  5
329
100
AcDbEntity
  8
0
100
AcDbPolyline
 62
7
  6
CONTINUOUS
 90
6
 70
0
 10
-14.9814473544
 20
12.9778937698
 10
-14.9248991945
 20
12.895897144
 10
-14.8620978001
 20
12.8230807879
 10
-14.7931130132
 20
12.7593954564
 10
-14.7183306246
 20
12.7051973039
 10
-14.6508483051
 20
12.6669807637
  0
LINE
  5
32A
100
AcDbEntity
  8
0
100
AcDbLine
 62
7
  6
CONTINUOUS
 10
1.0216958511
 20
-21.7883059182
 11
1.0285983323
 21
-21.8086518403
  0
LINE
  5
32B
100
AcDbEntity
  8
0
100
AcDbLine
 62
7
  6
CONTINUOUS
 10
1.1241189985
 20
-22.6117015659
 11
1.1337632702
 21
-22.6405528058
  0
LINE
  5
32C
100
AcDbEntity
  8
0
100
AcDbLine
 62
7
  6
CONTINUOUS
 10
1.1617403589
 20
-22.2955745929
 11
1.1881772996
 21
-22.3844010436
  0
LINE
  5
32D
100
AcDbEntity
  8
DRAFT
100
AcDbLine
 62
7
  6
CONTINUOUS
 10
2.7404579793
 20
-22.5977871353
 11
2.825970973
 21
-22.8900315365
  0
LINE
  5
32E
100
AcDbEntity
  8
0
100
AcDbLine
 62
7
  6
CONTINUOUS
 10
1.1355518784
 20
-22.2057924365
 11
1.1617403589
 21
-22.2955745929
  0
LINE
  5
32F
100
AcDbEntity
  8
0
100
AcDbLine
 62
7
  6
CONTINUOUS
 10
1.1095544457
 20
-22.1139573075
 11
1.1355518784
 21
-22.2057924365
  0
LWPOLYLINE
  5
330
100
AcDbEntity
  8
0
100
AcDbPolyline
 62
7
  6
CONTINUOUS
 90
3
 70
0
 10
1.069866487
 20
-21.9684494589
 10
1.0832048373
 20
-22.0183050208
 10
1.1095544457
 20
-22.1139573075
  0
LWPOLYLINE
  5
331
100
AcDbEntity
  8
0
100
AcDbPolyline
 62
7
  6
CONTINUOUS
 90
3
 70
0
 10
1.0285983323
 20
-21.8086518403
 10
1.0426024875
 20
-21.8636176516
 10
1.069866487
 20
-21.9684494589
  0
LWPOLYLINE
  5
332
100
AcDbEntity
  8
0
100
AcDbPolyline
 62
250
  6
CONTINUOUS
 90
42
 70
0
 10
-0.7020557213
 20
-22.2490595659
 10
-0.6740886167
 20
-22.3851664478
 10
-0.6402934057
 20
-22.5219564377
 10
-0.6007875701
 20
-22.6589539882
 10
-0.5557084444
 20
-22.7956828308
 10
-0.5052127396
 20
-22.9316676278
 10
-0.4494759991
 20
-23.0664356246
 10
-0.3886919697
 20
-23.1995183334
 10
-0.3230719751
 20
-23.3304530563
 10
-0.2528441947
 20
-23.4587844974
 10
-0.1782528237
 20
-23.5840664477
 10
-0.0995571455
 20
-23.7058634425
 10
-0.0170306746
 20
-23.8237521643
 10
0.0690397388
 20
-23.9373228281
 10
0.1583548329
 20
-24.0461805357
 10
0.2506040417
 20
-24.149946765
 10
0.3454666352
 20
-24.248260753
 10
0.4426128449
 20
-24.3407807425
 10
0.5417049452
 20
-24.4271850961
 10
0.642398425
 20
-24.5071734208
 10
0.7443432404
 20
-24.5804676576
 10
0.847185037
 20
-24.6468130383
 10
0.9505663277
 20
-24.7059789287
 10
1.0541276684
 20
-24.7577596042
 10
1.1575089635
 20
-24.8019750168
 10
1.2603507718
 20
-24.8384714467
 10
1.362295603
 20
-24.8671220388
 10
1.4629890944
 20
-24.8878272044
 10
1.5620811978
 20
-24.9005149593
 10
1.6592274069
 20
-24.9051411876
 10
1.7540900011
 20
-24.9016898015
 10
1.8463392145
 20
-24.8901727893
 10
1.9356543142
 20
-24.8706301833
 10
2.0217247316
 20
-24.8431299406
 10
2.104251201
 20
-24.8077677
 10
2.1829468768
 20
-24.7646663955
 10
2.2575382539
 20
-24.7139758239
 10
2.3277660534
 20
-24.6558721587
 10
2.3933860719
 20
-24.5905574156
 10
2.45417012
 20
-24.51825872
 10
2.5099068725
 20
-24.4392274501
 10
2.5604025854
 20
-24.3537383453
  0
LWPOLYLINE
  5
333
100
AcDbEntity
  8
0
100
AcDbPolyline
 62
7
  6
CONTINUOUS
 90
34
 70
0
 10
-0.7203288077
 20
-22.2149922233
 10
-0.6925741346
 20
-22.3530352255
 10
-0.657567802
 20
-22.4971339754
 10
-0.6164682207
 20
-22.6411773652
 10
-0.5694200966
 20
-22.7847418395
 10
-0.5166132632
 20
-22.9273076221
 10
-0.4582529798
 20
-23.0683757135
 10
-0.3945671971
 20
-23.2074457354
 10
-0.3257642587
 20
-23.3440999719
 10
-0.2520369255
 20
-23.4779657938
 10
-0.1736017904
 20
-23.6086364093
 10
-0.0907333862
 20
-23.7356343898
 10
-0.0037230327
 20
-23.8584966203
 10
0.0871188548
 20
-23.9767717015
 10
0.1815352765
 20
-24.0901056231
 10
0.279313208
 20
-24.1982009107
 10
0.3802411216
 20
-24.3007542966
 10
0.4839403344
 20
-24.397306053
 10
0.5899476979
 20
-24.4873732902
 10
0.6979820362
 20
-24.5706726429
 10
0.8076860242
 20
-24.6468766762
 10
0.9184794883
 20
-24.7155558687
 10
1.0300268129
 20
-24.776496955
 10
1.1420144044
 20
-24.8295147434
 10
1.2539081384
 20
-24.8743560769
 10
1.3654544199
 20
-24.9109266749
 10
1.4762685762
 20
-24.9390997481
 10
1.5856319404
 20
-24.9587363289
 10
1.693155689
 20
-24.9698578466
 10
1.798590287
 20
-24.9725266108
 10
1.9014198843
 20
-24.9668310667
 10
2.0012501703
 20
-24.9529279765
 10
2.0978195452
 20
-24.9309947063
 10
2.1908102198
 20
-24.9012430777
  0
LWPOLYLINE
  5
334
100
AcDbEntity
  8
0
100
AcDbPolyline
 62
7
  6
CONTINUOUS
 90
5
 70
0
 10
-0.3054894667
 20
-21.9209264373
 10
-0.3246075503
 20
-21.7968929
 10
-0.338946113
 20
-21.6747513439
 10
-0.3485051548
 20
-21.5545017692
 10
-0.3489488585
 20
-21.5434833136
  0
LWPOLYLINE
  5
335
100
AcDbEntity
  8
0
100
AcDbPolyline
 62
7
  6
CONTINUOUS
 90
16
 70
0
 10
-0.7203278515
 20
-22.2149921803
 10
-0.7207325159
 20
-22.2123601756
 10
-0.7211372995
 20
-22.2069457242
 10
-0.7209667062
 20
-22.2015510993
 10
-0.7202162381
 20
-22.1961766398
 10
-0.7188903931
 20
-22.1908220067
 10
-0.7169990764
 20
-22.185531335
 10
-0.7145381104
 20
-22.1803051295
 10
-0.7115116727
 20
-22.1751428853
 10
-0.7079422017
 20
-22.1700872224
 10
-0.7038252268
 20
-22.1651385084
 10
-0.6991652186
 20
-22.1602963758
 10
-0.6939980268
 20
-22.155602342
 10
-0.6883356014
 20
-22.151070246
 10
-0.6821659925
 20
-22.1466862487
 10
-0.6754892001
 20
-22.1424503502
  0
LWPOLYLINE
  5
336
100
AcDbEntity
  8
0
100
AcDbPolyline
 62
7
  6
CONTINUOUS
 90
3
 70
0
 10
1.019134791
 20
-21.7030122133
 10
1.0203267793
 20
-21.7458456169
 10
1.0216958511
 20
-21.7883059182
  0
LWPOLYLINE
  5
337
100
AcDbEntity
  8
DRAFT
100
AcDbPolyline
 62
7
  6
CONTINUOUS
 90
10
 70
0
 10
-1.4584760022
 20
-21.6804112409
 10
-1.4494552296
 20
-21.4147399889
 10
-1.416471948
 20
-21.1632993974
 10
-1.3599109163
 20
-20.9288523929
 10
-1.2804174358
 20
-20.7139837582
 10
-1.1788609268
 20
-20.521031593
 10
-1.0563153713
 20
-20.3520727261
 10
-0.9140703973
 20
-20.2089375593
 10
-0.753690395
 20
-20.0932175619
 10
-0.6659577321
 20
-20.0454186217
  0
LWPOLYLINE
  5
338
100
AcDbEntity
  8
RACCORDO
100
AcDbPolyline
 62
250
  6
CONTINUOUS
 90
10
 70
0
 10
-4.820366074
 20
-15.7072335491
 10
-4.7967018036
 20
-15.610834283
 10
-4.7808569873
 20
-15.5092196735
 10
-4.773026629
 20
-15.4036402001
 10
-4.7733071062
 20
-15.2953951345
 10
-4.7816949842
 20
-15.1858165514
 10
-4.7980870582
 20
-15.0762529356
 10
-4.8222816236
 20
-14.968052588
 10
-4.853980958
 20
-14.8625470331
 10
-4.8927949853
 20
-14.7610346332
  0
LWPOLYLINE
  5
339
100
AcDbEntity
  8
ASSI
100
AcDbPolyline
 62
7
  6
CONTINUOUS
 90
33
 70
0
 10
-8.774763402
 20
-3.0163155425
 10
-8.8492562961
 20
-3.0638416816
 10
-8.9446645363
 20
-3.1336382018
 10
-9.0389644474
 20
-3.2118032989
 10
-9.1316425275
 20
-3.2978601572
 10
-9.221158271
 20
-3.3903783299
 10
-9.3074588204
 20
-3.489465816
 10
-9.3905970332
 20
-3.5950146164
 10
-9.4691909766
 20
-3.7052702869
 10
-9.5431646943
 20
-3.8203115017
 10
-9.6125941426
 20
-3.9400595866
 10
-9.6763252574
 20
-4.0625240754
 10
-9.7342627924
 20
-4.187750372
 10
-9.7865019938
 20
-4.3156930724
 10
-9.8321745356
 20
-4.4442254986
 10
-9.871170658
 20
-4.5733575076
 10
-9.9036001208
 20
-4.7030792423
 10
-9.9289238779
 20
-4.8312344533
 10
-9.9470231592
 20
-4.9577969565
 10
-9.9580167347
 20
-5.0827929361
 10
-9.961721868
 20
-5.2041446945
 10
-9.9580167347
 20
-5.3217913196
 10
-9.9470231592
 20
-5.4357937236
 10
-9.9289238779
 20
-5.5442569455
 10
-9.9036001208
 20
-5.6470883995
 10
-9.871170658
 20
-5.7443806714
 10
-9.8321745356
 20
-5.834516558
 10
-9.7865019938
 20
-5.9173764423
 10
-9.7342627924
 20
-5.9930799413
 10
-9.6763252574
 20
-6.0603687028
 10
-9.6125941426
 20
-6.1191020769
 10
-9.5431646943
 20
-6.1694207135
 10
-9.4810032803
 20
-6.2047193152
  0
LINE
  5
33A
100
AcDbEntity
  8
0
100
AcDbLine
 62
250
  6
CONTINUOUS
 10
14.7368836572
 20
6.5672106671
 11
14.6089355492
 21
6.5120228609
  0
LWPOLYLINE
  5
33B
100
AcDbEntity
  8
0
100
AcDbPolyline
 62
250
  6
CONTINUOUS
 90
8
 70
0
 10
13.8024197904
 20
6.1728248476
 10
13.4483485996
 20
6.0208206683
 10
13.0917966147
 20
5.8642362447
 10
12.7328749208
 20
5.7031076643
 10
12.3716036907
 20
5.5374511665
 10
12.0079090665
 20
5.3672587083
 10
11.6418068455
 20
5.1925429101
 10
11.276778655
 20
5.0149822497
  0
LINE
  5
33C
100
AcDbEntity
  8
0
100
AcDbLine
 62
250
  6
CONTINUOUS
 10
14.6089355492
 20
6.5120228609
 11
14.4800727882
 21
6.457005424
  0
LINE
  5
33D
100
AcDbEntity
  8
0
100
AcDbLine
 62
250
  6
CONTINUOUS
 10
14.4800727882
 20
6.457005424
 11
14.3502992319
 21
6.4021620425
  0
LINE
  5
33E
100
AcDbEntity
  8
0
100
AcDbLine
 62
250
  6
CONTINUOUS
 10
14.3502992319
 20
6.4021620425
 11
13.8024197904
 21
6.1728248476
  0
LINE
  5
33F
100
AcDbEntity
  8
0
100
AcDbLine
 62
7
  6
CONTINUOUS
 10
-8.7259892371
 20
1.4773098937
 11
-14.9336910176
 21
4.581160784
  0
LWPOLYLINE
  5
340
100
AcDbEntity
  8
RACCORDO
100
AcDbPolyline
 62
250
  6
CONTINUOUS
 90
3
 70
0
 10
-6.0120878703
 20
4.8604933837
 10
-6.2916055653
 20
5.0822880466
 10
-6.5633169222
 20
5.2964658366
  0
LWPOLYLINE
  5
341
100
AcDbEntity
  8
RACCORDO
100
AcDbPolyline
 62
250
  6
CONTINUOUS
 90
5
 70
0
 10
-5.43299467
 20
4.8523108399
 10
-5.6212581932
 20
5.0018662378
 10
-5.8994350642
 20
5.2177942464
 10
-6.1678348128
 20
5.421597283
 10
-6.4257857356
 20
5.6146517709
  0
LINE
  5
342
100
AcDbEntity
  8
RACCORDO
100
AcDbLine
 62
7
  6
CONTINUOUS
 10
-5.4323741754
 20
4.8518128115
 11
-5.43299467
 21
4.8523108399
  0
LINE
  5
343
100
AcDbEntity
  8
RACCORDO
100
AcDbLine
 62
250
  6
CONTINUOUS
 10
-5.6557478573
 20
4.5754539052
 11
-6.0120878703
 21
4.8604933837
  0
LWPOLYLINE
  5
344
100
AcDbEntity
  8
RACCORDO
100
AcDbPolyline
 62
250
  6
CONTINUOUS
 90
4
 70
0
 10
-4.8175714033
 20
3.8960562291
 10
-5.1274969799
 20
4.1488668243
 10
-5.42995014
 20
4.3938383358
 10
-5.6557478573
 20
4.5754539052
  0
LINE
  5
345
100
AcDbEntity
  8
RACCORDO
100
AcDbLine
 62
7
  6
CONTINUOUS
 10
-5.4330367326
 20
4.8523446131
 11
-5.0241049899
 21
4.5108014326
  0
LINE
  5
346
100
AcDbEntity
  8
RACCORDO
100
AcDbLine
 62
250
  6
CONTINUOUS
 10
-4.7534867868
 20
4.646500317
 11
-5.3555783065
 21
5.1695852245
  0
LWPOLYLINE
  5
347
100
AcDbEntity
  8
RACCORDO
100
AcDbPolyline
 62
250
  6
CONTINUOUS
 90
10
 70
0
 10
-6.5633169222
 20
5.2964658366
 10
-6.7656928334
 20
5.4758409859
 10
-6.9716014211
 20
5.6592817857
 10
-7.1805924344
 20
5.8469797185
 10
-7.3914460893
 20
6.0391836981
 10
-7.6044099315
 20
6.235999033
 10
-7.8210481531
 20
6.4374786826
 10
-8.0413067693
 20
6.6438467551
 10
-8.263661121
 20
6.8554035967
 10
-8.4872475183
 20
7.0723880503
  0
LWPOLYLINE
  5
348
100
AcDbEntity
  8
RACCORDO
100
AcDbPolyline
 62
7
  6
CONTINUOUS
 90
16
 70
0
 10
-5.0241049899
 20
4.5108014326
 10
-4.4662704918
 20
4.0004152424
 10
-3.9201821277
 20
3.4479887998
 10
-3.3890289816
 20
2.8562539712
 10
-2.8761319637
 20
2.2282663582
 10
-2.3843966006
 20
1.5672028363
 10
-1.9165495325
 20
0.8764514774
 10
-1.4753477183
 20
0.1596079607
 10
-1.0631983615
 20
-0.5796332442
 10
-0.6823008092
 20
-1.3374321087
 10
-0.3348293913
 20
-2.1098136198
 10
-0.0225983683
 20
-2.8927605851
 10
0.252838683
 20
-3.6822022597
 10
0.489977025
 20
-4.473958586
 10
0.6876956078
 20
-5.2639056371
 10
0.8451605627
 20
-6.0479088354
  0
LWPOLYLINE
  5
349
100
AcDbEntity
  8
RACCORDO
100
AcDbPolyline
 62
250
  6
CONTINUOUS
 90
5
 70
0
 10
-2.9339342708
 20
2.0066276861
 10
-3.4036330282
 20
2.5430162494
 10
-3.8715516829
 20
3.0361063293
 10
-4.3428590847
 20
3.4871354465
 10
-4.8175714033
 20
3.8960562291
  0
LWPOLYLINE
  5
34A
100
AcDbEntity
  8
RACCORDO
100
AcDbPolyline
 62
250
  6
CONTINUOUS
 90
4
 70
0
 10
-3.0469620909
 20
2.832880088
 10
-3.5960906551
 20
3.4741928749
 10
-4.1672548302
 20
4.0813658506
 10
-4.7534867868
 20
4.646500317
  0
LINE
  5
34B
100
AcDbEntity
  8
RACCORDO
100
AcDbLine
 62
250
  6
CONTINUOUS
 10
-2.5199723746
 20
2.1568333041
 11
-3.0469620909
 21
2.832880088
  0
LWPOLYLINE
  5
34C
100
AcDbEntity
  8
RACCORDO
100
AcDbPolyline
 62
250
  6
CONTINUOUS
 90
5
 70
0
 10
-1.1767370963
 20
-0.5445101933
 10
-1.589333111
 20
0.1524513274
 10
-2.0199536538
 20
0.8118767574
 10
-2.4676315591
 20
1.4282382075
 10
-2.9339342708
 20
2.0066276861
  0
LWPOLYLINE
  5
34D
100
AcDbEntity
  8
RACCORDO
100
AcDbPolyline
 62
250
  6
CONTINUOUS
 90
4
 70
0
 10
-1.0930398617
 20
-0.0480518581
 10
-1.5393475238
 20
0.7117529765
 10
-2.0151331632
 20
1.4465997721
 10
-2.5199723746
 20
2.1568333041
  0
LWPOLYLINE
  5
34E
100
AcDbEntity
  8
RACCORDO
100
AcDbPolyline
 62
250
  6
CONTINUOUS
 90
7
 70
0
 10
0.4787028044
 20
-4.9626194211
 10
0.3082414966
 20
-4.2229757102
 10
0.0954409639
 20
-3.4809996801
 10
-0.1626132146
 20
-2.735915866
 10
-0.4639359768
 20
-1.9890477342
 10
-0.800646779
 20
-1.2587028147
 10
-1.1767370963
 20
-0.5445101933
  0
LWPOLYLINE
  5
34F
100
AcDbEntity
  8
DRAFT
100
AcDbPolyline
 62
7
  6
CONTINUOUS
 90
4
 70
0
 10
2.825970973
 20
-22.8900315365
 10
2.8885047361
 20
-23.180347908
 10
2.9275138108
 20
-23.4655006737
 10
2.9426235373
 20
-23.7423470685
  0
LWPOLYLINE
  5
350
100
AcDbEntity
  8
0
100
AcDbPolyline
 62
250
  6
CONTINUOUS
 90
45
 70
0
 10
2.7067498621
 20
-22.914231873
 10
2.6787827576
 20
-22.7781249911
 10
2.6449875466
 20
-22.6413350012
 10
2.6054817109
 20
-22.5043374507
 10
2.5604025852
 20
-22.3676086081
 10
2.5099068805
 20
-22.2316238111
 10
2.4541701399
 20
-22.0968558143
 10
2.3933861106
 20
-21.9637731056
 10
2.3277661159
 20
-21.8328383826
 10
2.2575383356
 20
-21.7045069415
 10
2.1829469645
 20
-21.5792249912
 10
2.1042512864
 20
-21.4574279964
 10
2.0217248154
 20
-21.3395392746
 10
1.935654402
 20
-21.2259686108
 10
1.846339308
 20
-21.1171109032
 10
1.7540900992
 20
-21.013344674
 10
1.6592275057
 20
-20.915030686
 10
1.5620812959
 20
-20.8225106964
 10
1.4629891957
 20
-20.7361063429
 10
1.3622957158
 20
-20.6561180181
 10
1.2603509005
 20
-20.5828237813
 10
1.1575091038
 20
-20.5164784006
 10
1.0541278132
 20
-20.4573125103
 10
0.9505664725
 20
-20.4055318347
 10
0.8471851773
 20
-20.3613164221
 10
0.744343369
 20
-20.3248199922
 10
0.6423985378
 20
-20.2961694002
 10
0.5417050464
 20
-20.2754642345
 10
0.442612943
 20
-20.2627764796
 10
0.3454667339
 20
-20.2581502513
 10
0.2506041397
 20
-20.2616016374
 10
0.1583549263
 20
-20.2731186497
 10
0.0690398267
 20
-20.2926612556
 10
-0.0170305907
 20
-20.3201614983
 10
-0.0995570602
 20
-20.3555237389
 10
-0.178252736
 20
-20.3986250434
 10
-0.2528441131
 20
-20.449315615
 10
-0.3230719126
 20
-20.5074192802
 10
-0.3886919311
 20
-20.5727340233
 10
-0.4494759792
 20
-20.6450327189
 10
-0.5052127317
 20
-20.7240639888
 10
-0.5557084446
 20
-20.8095530937
 10
-0.6007875743
 20
-20.9012028195
 10
-0.6402934103
 20
-20.9986945376
 10
-0.6740886196
 20
-21.1016893137
  0
LWPOLYLINE
  5
351
100
AcDbEntity
  8
RACCORDO
100
AcDbPolyline
 62
250
  6
CONTINUOUS
 90
9
 70
0
 10
1.2053895878
 20
-6.5979543412
 10
1.0575262109
 20
-5.7716281952
 10
0.8665465562
 20
-4.9354534093
 10
0.6355740193
 20
-4.1020779072
 10
0.3640983028
 20
-3.2718683839
 10
0.0527156617
 20
-2.4444059926
 10
-0.2938390544
 20
-1.6311866488
 10
-0.675909895
 20
-0.8325272973
 10
-1.0930398617
 20
-0.0480518581
  0
LWPOLYLINE
  5
352
100
AcDbEntity
  8
RACCORDO
100
AcDbPolyline
 62
7
  6
CONTINUOUS
 90
8
 70
0
 10
0.8451605627
 20
-6.0479088354
 10
0.9616048373
 20
-6.8216633727
 10
1.0366900702
 20
-7.5811430418
 10
1.0703981873
 20
-8.3223352338
 10
1.0628373806
 20
-9.040880305
 10
1.0145853109
 20
-9.7328395133
 10
0.9265674474
 20
-10.3948263757
 10
0.8984240314
 20
-10.5554680955
  0
LINE
  5
353
100
AcDbEntity
  8
RACCORDO
100
AcDbLine
 62
250
  6
CONTINUOUS
 10
1.3093158825
 20
-7.4142678002
 11
1.2053895878
 21
-6.5979543412
  0
LINE
  5
354
100
AcDbEntity
  8
0
100
AcDbLine
 62
7
  6
CONTINUOUS
 10
1.0172781945
 20
-21.6161259565
 11
1.019134791
 21
-21.7030122133
  0
LINE
  5
355
100
AcDbEntity
  8
0
100
AcDbLine
 62
7
  6
CONTINUOUS
 10
1.0161366922
 20
-21.5279473938
 11
1.0172781945
 21
-21.6161259565
  0
LWPOLYLINE
  5
356
100
AcDbEntity
  8
RACCORDO
100
AcDbPolyline
 62
250
  6
CONTINUOUS
 90
4
 70
0
 10
3.3144108948
 20
-30.2371973563
 10
3.3437837787
 20
-33.3127792814
 10
3.3742588692
 20
-36.3766376144
 10
3.4058391198
 20
-39.4287057113
  0
LINE
  5
357
100
AcDbEntity
  8
RACCORDO
100
AcDbLine
 62
250
  6
CONTINUOUS
 10
3.2587993727
 20
-24.0510800675
 11
3.2796890445
 21
-26.4260971372
  0
LINE
  5
358
100
AcDbEntity
  8
RACCORDO
100
AcDbLine
 62
250
  6
CONTINUOUS
 10
3.2796890445
 20
-26.4260971372
 11
3.3144108948
 21
-30.2371973563
  0
LINE
  5
359
100
AcDbEntity
  8
RACCORDO
100
AcDbLine
 62
250
  6
CONTINUOUS
 10
3.2328901949
 20
-20.9407667782
 11
3.2587993727
 21
-24.0510800675
  0
LINE
  5
35A
100
AcDbEntity
  8
RACCORDO
100
AcDbLine
 62
250
  6
CONTINUOUS
 10
3.2084065987
 20
-17.8191141905
 11
3.2328901949
 21
-20.9407667782
  0
LINE
  5
35B
100
AcDbEntity
  8
RACCORDO
100
AcDbLine
 62
250
  6
CONTINUOUS
 10
3.1635119753
 20
-11.5417833135
 11
3.1826247514
 21
-14.3034026759
  0
LINE
  5
35C
100
AcDbEntity
  8
RACCORDO
100
AcDbLine
 62
250
  6
CONTINUOUS
 10
3.1826247514
 20
-14.3034026759
 11
3.2084065987
 21
-17.8191141905
  0
LINE
  5
35D
100
AcDbEntity
  8
RACCORDO
100
AcDbLine
 62
250
  6
CONTINUOUS
 10
3.1431331834
 20
-8.3861011503
 11
3.1635119753
 21
-11.5417833135
  0
LINE
  5
35E
100
AcDbEntity
  8
RACCORDO
100
AcDbLine
 62
250
  6
CONTINUOUS
 10
3.1241375933
 20
-5.2191784622
 11
3.1431331834
 21
-8.3861011503
  0
LINE
  5
35F
100
AcDbEntity
  8
RACCORDO
100
AcDbLine
 62
250
  6
CONTINUOUS
 10
3.1065322835
 20
-2.0410767121
 11
3.1241375933
 21
-5.2191784622
  0
LWPOLYLINE
  5
360
100
AcDbEntity
  8
TRASH
100
AcDbPolyline
 62
7
  6
CONTINUOUS
 90
9
 70
0
 10
1.7063724858
 20
-23.0325270572
 10
1.7061468367
 20
-22.9714244233
 10
1.705649216
 20
-22.9128050445
 10
1.7048259931
 20
-22.8566329216
 10
1.7035280608
 20
-22.8028980646
 10
1.7017653978
 20
-22.751501345
 10
1.6997093994
 20
-22.7022722057
 10
1.6972737769
 20
-22.6552035475
 10
1.6954739039
 20
-22.6274265707
  0
LINE
  5
361
100
AcDbEntity
  8
0
100
AcDbLine
 62
7
  6
CONTINUOUS
 10
1.0157553923
 20
-21.4395853437
 11
1.0161366922
 21
-21.5279473938
  0
LWPOLYLINE
  5
362
100
AcDbEntity
  8
0
100
AcDbPolyline
 62
7
  6
CONTINUOUS
 90
6
 70
0
 10
0.5449632565
 20
-21.8212991997
 10
0.5449628038
 20
-21.8486257493
 10
0.5462754796
 20
-21.8933835383
 10
0.5489015646
 20
-21.9385908294
 10
0.5528410581
 20
-21.9843305135
 10
0.55809396
 20
-22.0306025905
  0
LINE
  5
363
100
AcDbEntity
  8
0
100
AcDbLine
 62
7
  6
CONTINUOUS
 10
1.0161221772
 20
-21.3514002828
 11
1.0157553923
 21
-21.4395853437
  0
LINE
  5
364
100
AcDbEntity
  8
0
100
AcDbLine
 62
7
  6
CONTINUOUS
 10
1.0172320593
 20
-21.2635131991
 11
1.0161221772
 21
-21.3514002828
  0
LWPOLYLINE
  5
365
100
AcDbEntity
  8
0
100
AcDbPolyline
 62
7
  6
CONTINUOUS
 90
3
 70
0
 10
1.0202646217
 20
-21.1320259944
 10
1.0190708648
 20
-21.1758068981
 10
1.0172320593
 20
-21.2635131991
  0
LWPOLYLINE
  5
366
100
AcDbEntity
  8
DRAFT
100
AcDbPolyline
 62
7
  6
CONTINUOUS
 90
10
 70
0
 10
2.9426235373
 20
-23.7423470685
 10
2.9334647315
 20
-24.007970727
 10
2.9002295214
 20
-24.259438405
 10
2.8433008813
 20
-24.4939899612
 10
2.763294587
 20
-24.7090577467
 10
2.6611041356
 20
-24.9022891476
 10
2.5378832291
 20
-25.0715632014
 10
2.3949141995
 20
-25.2150539138
 10
2.2337649983
 20
-25.3311677554
 10
2.1611127577
 20
-25.3714350221
  0
LWPOLYLINE
  5
367
100
AcDbEntity
  8
0
100
AcDbPolyline
 62
7
  6
CONTINUOUS
 90
16
 70
0
 10
1.0217763582
 20
-23.8765536175
 10
1.0201923719
 20
-23.912275965
 10
1.0188455351
 20
-23.9476006843
 10
1.0177358478
 20
-23.9825277755
 10
1.0168693747
 20
-24.0172408284
 10
1.0162400511
 20
-24.051556253
 10
1.0158296837
 20
-24.0849232804
 10
1.0156487033
 20
-24.1172206066
 10
1.015686679
 20
-24.1485695355
 10
1.0158941246
 20
-24.1787832092
 10
1.0162718683
 20
-24.2077942983
 10
1.0168190818
 20
-24.2356701322
 10
1.0174837947
 20
-24.2624258409
 10
1.0182486833
 20
-24.2880664676
 10
1.0191310713
 20
-24.3125869689
 10
1.0201309585
 20
-24.335987345
  0
LINE
  5
368
100
AcDbEntity
  8
RACCORDO
100
AcDbLine
 62
7
  6
CONTINUOUS
 10
0.8944800992
 20
-10.5767839643
 11
0.8984943638
 21
-10.5551053025
  0
LWPOLYLINE
  5
369
100
AcDbEntity
  8
0
100
AcDbPolyline
 62
7
  6
CONTINUOUS
 90
12
 70
0
 10
-0.7199703319
 20
-21.1557517986
 10
-0.7202588055
 20
-21.1571727453
 10
-0.7209851663
 20
-21.1625421555
 10
-0.721133712
 20
-21.1679233483
 10
-0.7207083469
 20
-21.1733173283
 10
-0.7197171667
 20
-21.178682516
 10
-0.7181572565
 20
-21.1840182648
 10
-0.7160315313
 20
-21.1893252211
 10
-0.7133568311
 20
-21.194563745
 10
-0.7101387694
 20
-21.199720623
 10
-0.7063717328
 20
-21.2048090684
 10
-0.7020557213
 20
-21.2098290814
  0
LWPOLYLINE
  5
36A
100
AcDbEntity
  8
RACCORDO
100
AcDbPolyline
 62
250
  6
CONTINUOUS
 90
4
 70
0
 10
0.7551961557
 20
-10.5507612697
 10
0.8910953217
 20
-10.0003313233
 10
0.9984604488
 20
-9.4088672329
 10
1.064872148
 20
-8.8475051586
  0
LWPOLYLINE
  5
36B
100
AcDbEntity
  8
RACCORDO
100
AcDbPolyline
 62
250
  6
CONTINUOUS
 90
10
 70
0
 10
3.4556317392
 20
0.4122825645
 10
3.3320535895
 20
0.31723761
 10
3.2097399918
 20
0.2164600647
 10
3.0905203115
 20
0.1114571937
 10
2.9761776404
 20
0.0037994577
 10
2.8684221281
 20
-0.1049029759
 10
2.7688654046
 20
-0.2130243151
 10
2.6789964759
 20
-0.3189474588
 10
2.600159454
 20
-0.4210881833
 10
2.533533454
 20
-0.5179188361
  0
LWPOLYLINE
  5
36C
100
AcDbEntity
  8
RACCORDO
100
AcDbPolyline
 62
250
  6
CONTINUOUS
 90
10
 70
0
 10
3.4556653119
 20
0.412321365
 10
3.8292950034
 20
0.6882451657
 10
4.2038733127
 20
0.9568245803
 10
4.5790376052
 20
1.2177274463
 10
4.9545705483
 20
1.4705309295
 10
5.3299482654
 20
1.715018502
 10
5.7043385954
 20
1.9511942337
 10
6.0772070574
 20
2.1788810113
 10
6.4483192617
 20
2.397707098
 10
6.817287708
 20
2.6074126925
  0
LINE
  5
36D
100
AcDbEntity
  8
RACCORDO
100
AcDbLine
 62
250
  6
CONTINUOUS
 10
7.2630427214
 20
2.8585337872
 11
7.8695158023
 21
3.2063728535
  0
LWPOLYLINE
  5
36E
100
AcDbEntity
  8
RACCORDO
100
AcDbPolyline
 62
250
  6
CONTINUOUS
 90
10
 70
0
 10
8.6699174468
 20
0.382416699
 10
9.0412907621
 20
0.5938073799
 10
9.41104002
 20
0.8013483915
 10
9.779148041
 20
1.0050345767
 10
10.145613302
 20
1.2048678433
 10
10.5104025153
 20
1.4008363881
 10
10.8734515243
 20
1.5929142607
 10
11.2347281274
 20
1.7810892737
 10
11.5942311836
 20
1.9653634397
 10
11.9519438182
 20
2.1457318896
  0
LWPOLYLINE
  5
36F
100
AcDbEntity
  8
RACCORDO
100
AcDbPolyline
 62
250
  6
CONTINUOUS
 90
9
 70
0
 10
7.8695158023
 20
3.2063728535
 10
8.254826851
 20
3.424059794
 10
8.6384710627
 20
3.6375734687
 10
9.0203494704
 20
3.8468449391
 10
9.4004362484
 20
4.0518674454
 10
9.778776254
 20
4.2526923021
 10
10.1553398956
 20
4.4493094351
 10
10.5300256115
 20
4.6416515007
 10
10.9027677953
 20
4.8296819832
  0
LINE
  5
370
100
AcDbEntity
  8
RACCORDO
100
AcDbLine
 62
250
  6
CONTINUOUS
 10
7.0412697968
 20
2.7328180676
 11
7.2630427214
 21
2.8585337872
  0
LINE
  5
371
100
AcDbEntity
  8
RACCORDO
100
AcDbLine
 62
250
  6
CONTINUOUS
 10
8.4441628976
 20
0.2556659178
 11
8.6699174468
 21
0.382416699
  0
LINE
  5
372
100
AcDbEntity
  8
RACCORDO
100
AcDbLine
 62
250
  6
CONTINUOUS
 10
6.817287708
 20
2.6074126925
 11
7.0412697968
 21
2.7328180676
  0
LINE
  5
373
100
AcDbEntity
  8
RACCORDO
100
AcDbLine
 62
250
  6
CONTINUOUS
 10
8.2161614803
 20
0.1292602
 11
8.4441628976
 21
0.2556659178
  0
LINE
  5
374
100
AcDbEntity
  8
RACCORDO
100
AcDbLine
 62
250
  6
CONTINUOUS
 10
7.9859124371
 20
0.0032028294
 11
8.2161614803
 21
0.1292602
  0
LINE
  5
375
100
AcDbEntity
  8
0
100
AcDbLine
 62
250
  6
CONTINUOUS
 10
11.276778655
 20
5.0149822497
 11
10.9027677953
 21
4.8296819832
  0
LINE
  5
376
100
AcDbEntity
  8
0
100
AcDbLine
 62
250
  6
CONTINUOUS
 10
15.669806126
 20
3.8451496738
 11
15.5383301721
 21
3.7865363924
  0
LINE
  5
377
100
AcDbEntity
  8
0
100
AcDbLine
 62
250
  6
CONTINUOUS
 10
15.5383301721
 20
3.7865363924
 11
15.4059255298
 21
3.7281138716
  0
LINE
  5
378
100
AcDbEntity
  8
0
100
AcDbLine
 62
250
  6
CONTINUOUS
 10
15.4059255298
 20
3.7281138716
 11
15.2725988805
 21
3.6698839093
  0
LWPOLYLINE
  5
379
100
AcDbEntity
  8
0
100
AcDbPolyline
 62
250
  6
CONTINUOUS
 90
3
 70
0
 10
15.2725988805
 20
3.6698839093
 10
15.1383517121
 20
3.6118465202
 10
15.0708859352
 20
3.5829009432
  0
LWPOLYLINE
  5
37A
100
AcDbEntity
  8
0
100
AcDbPolyline
 62
250
  6
CONTINUOUS
 90
10
 70
0
 10
15.0708859352
 20
3.5829009432
 10
14.7336452386
 20
3.4399846181
 10
14.3940471228
 20
3.2928519429
 10
14.0520996264
 20
3.1415103694
 10
13.7077960153
 20
2.9859591999
 10
13.3611589997
 20
2.8262146303
 10
13.0122416798
 20
2.6623093384
 10
12.6610681401
 20
2.49425928
 10
12.3076325054
 20
2.3220641005
 10
11.9519438182
 20
2.1457318896
  0
LWPOLYLINE
  5
37B
100
AcDbEntity
  8
0
100
AcDbPolyline
 62
250
  6
CONTINUOUS
 90
10
 70
0
 10
18.1276090431
 20
4.6206543968
 10
17.887235902
 20
4.5826892091
 10
17.6387113206
 20
4.5323433208
 10
17.381893453
 20
4.4697070105
 10
17.1162873323
 20
4.3947206649
 10
16.8420962333
 20
4.3076414939
 10
16.5602970881
 20
4.2090184221
 10
16.271203928
 20
4.0990803457
 10
15.974392892
 20
3.9777613391
 10
15.669806126
 20
3.8451496738
  0
LWPOLYLINE
  5
37C
100
AcDbEntity
  8
0
100
AcDbPolyline
 62
7
  6
CONTINUOUS
 90
7
 70
0
 10
-13.3090837576
 20
-0.1318617084
 10
-13.2397508826
 20
-0.1279917823
 10
-13.1428168458
 20
-0.1313215368
 10
-13.0493143329
 20
-0.1450941356
 10
-12.959766248
 20
-0.1692325569
 10
-12.8746733803
 20
-0.2036018087
 10
-12.8619939231
 20
-0.2097931442
  0
LINE
  5
37D
100
AcDbEntity
  8
RACCORDO
100
AcDbLine
 62
250
  6
CONTINUOUS
 10
-8.4616428961
 20
8.2517601381
 11
-8.0996315745
 21
8.0711133352
  0
LINE
  5
37E
100
AcDbEntity
  8
0
100
AcDbLine
 62
7
  6
CONTINUOUS
 10
-8.6534972325
 20
5.9131998464
 11
-13.1448366356
 21
8.158869548
  0
LWPOLYLINE
  5
37F
100
AcDbEntity
  8
RACCORDO
100
AcDbPolyline
 62
250
  6
CONTINUOUS
 90
3
 70
0
 10
-7.2203079797
 20
6.4606515862
 10
-7.8508931264
 20
6.7895538385
 10
-8.4869698763
 20
7.0686219363
  0
LWPOLYLINE
  5
380
100
AcDbEntity
  8
RACCORDO
100
AcDbPolyline
 62
250
  6
CONTINUOUS
 90
5
 70
0
 10
-8.0996315745
 20
8.0711133352
 10
-7.178253213
 20
7.5885394896
 10
-6.2601549189
 20
7.0612652881
 10
-5.3453826958
 20
6.4892809151
 10
-4.4321334054
 20
5.8712323223
  0
LINE
  5
381
100
AcDbEntity
  8
RACCORDO
100
AcDbLine
 62
250
  6
CONTINUOUS
 10
-6.5952528988
 20
6.0819007844
 11
-7.2203079797
 21
6.4606515862
  0
LINE
  5
382
100
AcDbEntity
  8
RACCORDO
100
AcDbLine
 62
250
  6
CONTINUOUS
 10
-5.972635612
 20
5.6506696219
 11
-6.5952528988
 21
6.0819007844
  0
LWPOLYLINE
  5
383
100
AcDbEntity
  8
RACCORDO
100
AcDbPolyline
 62
250
  6
CONTINUOUS
 90
5
 70
0
 10
-4.4321334054
 20
5.8712323223
 10
-3.522262524
 20
5.2084763638
 10
-2.6213424378
 20
4.5050524053
 10
-1.7295151554
 20
3.7606443875
 10
-0.8467497921
 20
2.9755471381
  0
LWPOLYLINE
  5
384
100
AcDbEntity
  8
RACCORDO
100
AcDbPolyline
 62
250
  6
CONTINUOUS
 90
10
 70
0
 10
-6.4257857356
 20
5.6146517709
 10
-6.6414354983
 20
5.7748769765
 10
-6.8605837233
 20
5.9358697129
 10
-7.0830867201
 20
6.0974217857
 10
-7.3086746105
 20
6.2591343712
 10
-7.5372713145
 20
6.420841136
 10
-7.7689551661
 20
6.5826524446
 10
-8.0035462365
 20
6.7443401203
 10
-8.240640099
 20
6.9052794991
 10
-8.479896425
 20
7.0649103748
  0
LINE
  5
385
100
AcDbEntity
  8
RACCORDO
100
AcDbLine
 62
250
  6
CONTINUOUS
 10
-5.3555783065
 20
5.1695852245
 11
-5.972635612
 21
5.6506696219
  0
LINE
  5
386
100
AcDbEntity
  8
RACCORDO
100
AcDbLine
 62
250
  6
CONTINUOUS
 10
-0.8467497921
 20
2.9755471381
 11
0.0215529478
 21
2.1546734877
  0
LWPOLYLINE
  5
387
100
AcDbEntity
  8
RACCORDO
100
AcDbPolyline
 62
250
  6
CONTINUOUS
 90
3
 70
0
 10
0.0215529478
 20
2.1546734877
 10
0.873521089
 20
1.2996362795
 10
1.7108671979
 20
0.4087764278
  0
LINE
  5
388
100
AcDbEntity
  8
RACCORDO
100
AcDbLine
 62
250
  6
CONTINUOUS
 10
1.7108671979
 20
0.4087764278
 11
2.5335334384
 21
-0.5179188441
  0
LWPOLYLINE
  5
389
100
AcDbEntity
  8
RACCORDO
100
AcDbPolyline
 62
250
  6
CONTINUOUS
 90
16
 70
0
 10
3.4556316318
 20
0.4122865311
 10
3.5523960575
 20
0.2981110826
 10
3.6494644649
 20
0.175499939
 10
3.7465160046
 20
0.0445568767
 10
3.8432820965
 20
-0.0941410524
 10
3.9392517278
 20
-0.2407237699
 10
4.0336575328
 20
-0.39603822
 10
4.1260780461
 20
-0.5597152505
 10
4.215809001
 20
-0.7311018902
 10
4.30156274
 20
-0.9104400136
 10
4.3826674022
 20
-1.0968933998
 10
4.4583234687
 20
-1.2894053733
 10
4.5269805199
 20
-1.487614314
 10
4.5875393252
 20
-1.6904000978
 10
4.6393416376
 20
-1.8959123407
 10
4.681441906
 20
-2.102405216
  0
LWPOLYLINE
  5
38A
100
AcDbEntity
  8
RACCORDO
100
AcDbPolyline
 62
250
  6
CONTINUOUS
 90
16
 70
0
 10
2.5335334384
 20
-0.5179188441
 10
2.5884310497
 20
-0.5832756889
 10
2.642231991
 20
-0.6539161203
 10
2.6949367089
 20
-0.7298398867
 10
2.7469682068
 20
-0.8109631085
 10
2.7979048655
 20
-0.8973689279
 10
2.8464799758
 20
-0.9893077655
 10
2.8928651816
 20
-1.0870103051
 10
2.9368903683
 20
-1.1902451393
 10
2.9767754419
 20
-1.2985700018
 10
3.0126348365
 20
-1.4123348151
 10
3.0443560055
 20
-1.5311889119
 10
3.0698173837
 20
-1.6536397601
 10
3.0883122915
 20
-1.7791897558
 10
3.1005498897
 20
-1.9083356817
 10
3.1065322835
 20
-2.0410767121
  0
LWPOLYLINE
  5
38B
100
AcDbEntity
  8
RACCORDO
100
AcDbPolyline
 62
250
  6
CONTINUOUS
 90
4
 70
0
 10
4.8912271596
 20
-30.3000385337
 10
4.9241767292
 20
-33.3750076976
 10
4.9588033185
 20
-36.4380884868
 10
4.994998369
 20
-39.4891550805
  0
LINE
  5
38C
100
AcDbEntity
  8
RACCORDO
100
AcDbLine
 62
250
  6
CONTINUOUS
 10
4.8589873633
 20
-27.1043922491
 11
4.8912271596
 21
-30.3000385337
  0
LWPOLYLINE
  5
38D
100
AcDbEntity
  8
RACCORDO
100
AcDbPolyline
 62
250
  6
CONTINUOUS
 90
6
 70
0
 10
4.7332545812
 20
-11.605320008
 10
4.7545441253
 20
-14.7499938615
 10
4.7778849671
 20
-17.8831652861
 10
4.8032546743
 20
-21.0048088931
 10
4.8306517799
 20
-24.1148717181
 10
4.8589873633
 20
-27.1043922491
  0
LINE
  5
38E
100
AcDbEntity
  8
RACCORDO
100
AcDbLine
 62
250
  6
CONTINUOUS
 10
4.7140087308
 20
-8.4491605585
 11
4.7332545812
 21
-11.605320008
  0
LINE
  5
38F
100
AcDbEntity
  8
RACCORDO
100
AcDbLine
 62
250
  6
CONTINUOUS
 10
4.6814864749
 20
-2.1024068873
 11
4.6958465033
 21
-5.0896432292
  0
LINE
  5
390
100
AcDbEntity
  8
RACCORDO
100
AcDbLine
 62
250
  6
CONTINUOUS
 10
4.6958465033
 20
-5.0896432292
 11
4.7140087308
 21
-8.4491605585
  0
LWPOLYLINE
  5
391
100
AcDbEntity
  8
0
100
AcDbPolyline
 62
7
  6
CONTINUOUS
 90
5
 70
0
 10
2.4994261242
 20
-23.0013170897
 10
2.5046804814
 20
-22.9602988463
 10
2.5086214324
 20
-22.9184995374
 10
2.511248977
 20
-22.8759191629
 10
2.5115099033
 20
-22.8672931585
  0
LINE
  5
392
100
AcDbEntity
  8
0
100
AcDbLine
 62
250
  6
CONTINUOUS
 10
-0.6740886196
 20
-21.1016893137
 11
-0.7020557213
 21
-21.2098290814
  0
LWPOLYLINE
  5
393
100
AcDbEntity
  8
RACCORDO
100
AcDbPolyline
 62
250
  6
CONTINUOUS
 90
10
 70
0
 10
4.6814864749
 20
-2.1024068873
 10
5.0469077957
 20
-1.8374748441
 10
5.4136211537
 20
-1.5802017626
 10
5.7814180744
 20
-1.3305306788
 10
6.150572025
 20
-1.0881369887
 10
6.5203593107
 20
-0.8532269674
 10
6.8891138952
 20
-0.6265731744
 10
7.2561768241
 20
-0.4084332063
 10
7.6218413648
 20
-0.1985144245
 10
7.9859124371
 20
0.0032028294
  0
LWPOLYLINE
  5
394
100
AcDbEntity
  8
0
100
AcDbPolyline
 62
250
  6
CONTINUOUS
 90
10
 70
0
 10
17.2670183418
 20
7.31799788
 10
17.0167482463
 20
7.2819717872
 10
16.7581763046
 20
7.2339760762
 10
16.4915666751
 20
7.1739919813
 10
16.2172638738
 20
7.1018775923
 10
15.9354719503
 20
7.0177803445
 10
15.6462595564
 20
6.9221547142
 10
15.3498515466
 20
6.8152032559
 10
15.0466233046
 20
6.6968591194
 10
14.7368836572
 20
6.5672106671
  0
LWPOLYLINE
  5
395
100
AcDbEntity
  8
0
100
AcDbPolyline
 62
250
  6
CONTINUOUS
 90
5
 70
0
 10
17.2670181844
 20
7.3179757871
 10
17.3415278539
 20
7.3219747422
 10
17.4028513348
 20
7.3130157362
 10
17.450071451
 20
7.2912327635
 10
17.4742677172
 20
7.268620328
  0
LINE
  5
396
100
AcDbEntity
  8
RACCORDO
100
AcDbLine
 62
250
  6
CONTINUOUS
 10
-7.9398972325
 20
9.4971180443
 11
-7.5790242646
 21
9.3170758742
  0
LINE
  5
397
100
AcDbEntity
  8
0
100
AcDbLine
 62
7
  6
CONTINUOUS
 10
-9.5480015138
 20
10.115557368
 11
-14.6508483051
 21
12.6669807637
  0
LINE
  5
398
100
AcDbEntity
  8
ASSI
100
AcDbLine
 62
7
  6
CONTINUOUS
 10
-9.4809194745
 20
10.2497214467
 11
-8.1100445033
 21
9.5642839611
  0
LWPOLYLINE
  5
399
100
AcDbEntity
  8
RACCORDO
100
AcDbPolyline
 62
250
  6
CONTINUOUS
 90
13
 70
0
 10
-7.5790242646
 20
9.3170758742
 10
-6.6260013202
 20
8.8184500979
 10
-5.6730233822
 20
8.2713407668
 10
-4.7218311538
 20
7.6767977014
 10
-3.7739537201
 20
7.0359206303
 10
-2.8313129442
 20
6.3499383528
 10
-1.8962223521
 20
5.620284093
 10
-0.9703320396
 20
4.8484337273
 10
-0.0553375339
 20
4.0358507111
 10
0.8464133013
 20
3.1841954915
 10
1.73308142
 20
2.2952115779
 10
2.6033404683
 20
1.3706453572
 10
3.4556653119
 20
0.412321365
  0
LWPOLYLINE
  5
39A
100
AcDbEntity
  8
0
100
AcDbPolyline
 62
7
  6
CONTINUOUS
 90
39
 70
0
 10
-9.5480103256
 20
10.115561774
 10
-9.5861042236
 20
10.1360648445
 10
-9.6535743228
 20
10.1796668787
 10
-9.7167197873
 20
10.2307278044
 10
-9.775595314
 20
10.2891532834
 10
-9.8294499252
 20
10.3541980781
 10
-9.8782193039
 20
10.4259469808
 10
-9.921967767
 20
10.5043151992
 10
-9.9601372877
 20
10.5883031195
 10
-9.9926564007
 20
10.677982729
 10
-10.0195965713
 20
10.7732820403
 10
-10.0406141681
 20
10.8729854776
 10
-10.0556333242
 20
10.9771494568
 10
-10.0647299066
 20
11.0857175619
 10
-10.0677878852
 20
11.1973049689
 10
-10.0647299066
 20
11.3119503544
 10
-10.0556333242
 20
11.4296150419
 10
-10.0406141681
 20
11.5487981772
 10
-10.0195965713
 20
11.6695192113
 10
-9.9926564007
 20
11.7917586932
 10
-9.9601372877
 20
11.9139574157
 10
-9.921967767
 20
12.0361148567
 10
-9.8782193039
 20
12.1582315382
 10
-9.8294499252
 20
12.2787498196
 10
-9.775595314
 20
12.3976492255
 10
-9.7167197873
 20
12.5149502312
 10
-9.6535743228
 20
12.6291566214
 10
-9.5861042236
 20
12.7402287548
 10
-9.5143641866
 20
12.8482062727
 10
-9.4392692812
 20
12.9517118843
 10
-9.360776532
 20
13.0506883053
 10
-9.2789289143
 20
13.14519282
 10
-9.194770423
 20
13.2340199904
 10
-9.1082714561
 20
13.3170970906
 10
-9.0194616157
 20
13.3944968466
 10
-8.9294737021
 20
13.4652319974
 10
-8.8386853155
 20
13.528973456
 10
-8.7467188557
 20
13.5860503094
 10
-8.6535743228
 20
13.6364625576
  0
LWPOLYLINE
  5
39B
100
AcDbEntity
  8
ASSI
100
AcDbPolyline
 62
7
  6
CONTINUOUS
 90
32
 70
0
 10
-9.4806980236
 20
10.2496107706
 10
-9.5210366003
 20
10.2714563639
 10
-9.5967956038
 20
10.322822307
 10
-9.666953079
 20
10.3847328536
 10
-9.7301586467
 20
10.45599636
 10
-9.7862776337
 20
10.5367940128
 10
-9.8354447131
 20
10.6269446253
 10
-9.8767135254
 20
10.7247129939
 10
-9.9099310643
 20
10.8302466904
 10
-9.935250336
 20
10.9433981429
 10
-9.9521839995
 20
11.0619894314
 10
-9.9605696078
 20
11.1861259369
 10
-9.9605696078
 20
11.3157022782
 10
-9.9521839995
 20
11.448224392
 10
-9.935250336
 20
11.5837493439
 10
-9.9099310643
 20
11.7222200682
 10
-9.8767135254
 20
11.8609713036
 10
-9.8354447131
 20
12.0000084844
 10
-9.7862776337
 20
12.1393261764
 10
-9.7301586467
 20
12.2762428162
 10
-9.666953079
 20
12.4107118902
 10
-9.5967956038
 20
12.5427799121
 10
-9.5210366003
 20
12.6699048587
 10
-9.4395675551
 20
12.7919909722
 10
-9.3524969816
 20
12.9091340105
 10
-9.2615007995
 20
13.0190792242
 10
-9.1665029615
 20
13.121687176
 10
-9.0675795149
 20
13.2170973032
 10
-8.9666345216
 20
13.3034731677
 10
-8.8643026687
 20
13.3802026235
 10
-8.7599492692
 20
13.4478978166
 10
-8.6535743228
 20
13.506558747
  0
LWPOLYLINE
  5
39C
100
AcDbEntity
  8
RACCORDO
100
AcDbPolyline
 62
250
  6
CONTINUOUS
 90
8
 70
0
 10
0.4141078208
 20
8.8999789292
 10
1.3721987921
 20
8.1301238219
 10
2.318870167
 20
7.3144490178
 10
3.2522755616
 20
6.4545454728
 10
4.1705945435
 20
5.5520902794
 10
5.0720358588
 20
4.6088437159
 10
5.9548409445
 20
3.6266458679
 10
6.817287708
 20
2.6074126925
  0
LWPOLYLINE
  5
39D
100
AcDbEntity
  8
RACCORDO
100
AcDbPolyline
 62
250
  6
CONTINUOUS
 90
10
 70
0
 10
6.8172877065
 20
2.6074126895
 10
7.0134288417
 20
2.348272006
 10
7.197631421
 20
2.0732196407
 10
7.3676072566
 20
1.7856723292
 10
7.5212448868
 20
1.4892020208
 10
7.6566358055
 20
1.1874915077
 10
7.7720981694
 20
0.8842886763
 10
7.8661976903
 20
0.5833599509
 10
7.937765452
 20
0.2884435066
 10
7.9859124305
 20
0.003202833
  0
LINE
  5
39E
100
AcDbEntity
  8
RACCORDO
100
AcDbLine
 62
250
  6
CONTINUOUS
 10
8.7694591903
 20
-3.9984902504
 11
8.6699174468
 21
0.382416699
  0
LINE
  5
39F
100
AcDbEntity
  8
RACCORDO
100
AcDbLine
 62
250
  6
CONTINUOUS
 10
8.8437185261
 20
-8.3675168222
 11
8.7694591903
 21
-3.9984902504
  0
LINE
  5
3A0
100
AcDbEntity
  8
RACCORDO
100
AcDbLine
 62
250
  6
CONTINUOUS
 10
8.8926916596
 20
-12.7244397482
 11
8.8437185261
 21
-8.3675168222
  0
LWPOLYLINE
  5
3A1
100
AcDbEntity
  8
RACCORDO
100
AcDbPolyline
 62
250
  6
CONTINUOUS
 90
3
 70
0
 10
8.9147706025
 20
-21.4010846807
 10
8.9163760884
 20
-17.0690363722
 10
8.8926916596
 20
-12.7244397482
  0
LWPOLYLINE
  5
3A2
100
AcDbEntity
  8
RACCORDO
100
AcDbPolyline
 62
250
  6
CONTINUOUS
 90
5
 70
0
 10
8.6554705354
 20
-38.5993772518
 10
8.7582219376
 20
-34.3197293278
 10
8.8356915067
 20
-30.0266515528
 10
8.8878752838
 20
-25.7203633142
 10
8.9147706025
 20
-21.4010846807
  0
LWPOLYLINE
  5
3A3
100
AcDbEntity
  8
0
100
AcDbPolyline
 62
7
  6
CONTINUOUS
 90
8
 70
0
 10
0.598815445
 20
-21.2346790002
 10
0.5849758382
 20
-21.2738683593
 10
0.570862245
 20
-21.3145078367
 10
0.5565329475
 20
-21.3564048648
 10
0.5423045022
 20
-21.39877379
 10
0.5282824279
 20
-21.4413527278
 10
0.5143612059
 20
-21.4844035627
 10
0.500540836
 20
-21.5279262947
  0
LWPOLYLINE
  5
3A4
100
AcDbEntity
  8
0
100
AcDbPolyline
 62
7
  6
CONTINUOUS
 90
3
 70
0
 10
0.638560394
 20
-21.1254214285
 10
0.6257058358
 20
-21.1602808848
 10
0.598815445
 20
-21.2346790002
  0
LINE
  5
3A5
100
AcDbEntity
  8
0
100
AcDbLine
 62
7
  6
CONTINUOUS
 10
0.6632191054
 20
-21.0598829221
 11
0.638560394
 21
-21.1254214285
  0
LWPOLYLINE
  5
3A6
100
AcDbEntity
  8
0
100
AcDbPolyline
 62
7
  6
CONTINUOUS
 90
3
 70
0
 10
0.6977121855
 20
-20.9707295923
 10
0.6865500688
 20
-20.9991979653
 10
0.6632191054
 20
-21.0598829221
  0
LWPOLYLINE
  5
3A7
100
AcDbEntity
  8
0
100
AcDbPolyline
 62
7
  6
CONTINUOUS
 90
3
 70
0
 10
1.0519072059
 20
-23.8143505682
 10
1.0366526181
 20
-23.848682115
 10
1.0285983068
 20
-23.8666085115
  0
LWPOLYLINE
  5
3A8
100
AcDbEntity
  8
0
100
AcDbPolyline
 62
7
  6
CONTINUOUS
 90
3
 70
0
 10
1.0732919492
 20
-23.7671729596
 10
1.0592118147
 20
-23.7980919843
 10
1.0519072059
 20
-23.8143505682
  0
LINE
  5
3A9
100
AcDbEntity
  8
0
100
AcDbLine
 62
7
  6
CONTINUOUS
 10
1.1183550986
 20
-23.6695966271
 11
1.0732919492
 21
-23.7671729596
  0
LINE
  5
3AA
100
AcDbEntity
  8
0
100
AcDbLine
 62
7
  6
CONTINUOUS
 10
0.259751717
 20
-21.9201880653
 11
0.2677094651
 21
-21.9056713139
  0
LWPOLYLINE
  5
3AB
100
AcDbEntity
  8
0
100
AcDbPolyline
 62
7
  6
CONTINUOUS
 90
3
 70
0
 10
0.2677094651
 20
-21.9056713139
 10
0.2838226858
 20
-21.8767454766
 10
0.2919772007
 20
-21.8622889616
  0
LWPOLYLINE
  5
3AC
100
AcDbEntity
  8
0
100
AcDbPolyline
 62
250
  6
CONTINUOUS
 90
5
 70
0
 10
18.1276101271
 20
4.6206543117
 10
18.2164580305
 20
4.7056793817
 10
18.2802749369
 20
4.7955254501
 10
18.3177157662
 20
4.888298847
 10
18.3280012507
 20
4.9817712099
  0
LWPOLYLINE
  5
3AD
100
AcDbEntity
  8
0
100
AcDbPolyline
 62
7
  6
CONTINUOUS
 90
7
 70
0
 10
-13.5919264701
 20
8.2368009838
 10
-13.522593595
 20
8.2406709098
 10
-13.4256595582
 20
8.2373411554
 10
-13.3321570454
 20
8.2235685566
 10
-13.2426089605
 20
8.1994301353
 10
-13.1575160928
 20
8.1650608835
 10
-13.1448366356
 20
8.158869548
  0
LWPOLYLINE
  5
3AE
100
AcDbEntity
  8
ASSI
100
AcDbPolyline
 62
7
  6
CONTINUOUS
 90
10
 70
0
 10
-7.826450622
 20
13.5592127294
 10
-7.8675810905
 20
13.5779842045
 10
-7.954651664
 20
13.6080566693
 10
-8.0456478461
 20
13.6270057009
 10
-8.1406456841
 20
13.6346158147
 10
-8.2395691307
 20
13.6311024953
 10
-8.340514124
 20
13.6165333665
 10
-8.4428459769
 20
13.5909309694
 10
-8.5471993765
 20
13.554272763
 10
-8.6535743228
 20
13.506558747
  0
LINE
  5
3AF
100
AcDbEntity
  8
ASSI
100
AcDbLine
 62
7
  6
CONTINUOUS
 10
-7.8262291711
 20
13.5591020534
 11
-5.0873731598
 21
12.1896740477
  0
LINE
  5
3B0
100
AcDbEntity
  8
RACCORDO
100
AcDbLine
 62
250
  6
CONTINUOUS
 10
-4.8422687722
 20
12.1929896042
 11
-4.4816443138
 21
12.012677375
  0
LINE
  5
3B1
100
AcDbEntity
  8
0
100
AcDbLine
 62
7
  6
CONTINUOUS
 10
-7.7591471318
 20
13.693266132
 11
-12.8619939231
 21
16.2446895277
  0
LWPOLYLINE
  5
3B2
100
AcDbEntity
  8
RACCORDO
100
AcDbPolyline
 62
250
  6
CONTINUOUS
 90
6
 70
0
 10
-4.4816443138
 20
12.012677375
 10
-3.4948100731
 20
11.492563373
 10
-2.509900632
 20
10.920070062
 10
-1.5288372519
 20
10.2963141689
 10
-0.5535335395
 20
9.6225123088
 10
0.4141078208
 20
8.8999789292
  0
LWPOLYLINE
  5
3B3
100
AcDbEntity
  8
0
100
AcDbPolyline
 62
7
  6
CONTINUOUS
 90
8
 70
0
 10
-7.75913832
 20
13.6932617261
 10
-7.721044422
 20
13.6727586555
 10
-7.6535743228
 20
13.6291566214
 10
-7.5904288584
 20
13.5780956956
 10
-7.5315533316
 20
13.5196702167
 10
-7.4776987204
 20
13.454625422
 10
-7.4289293417
 20
13.3828765193
 10
-7.411564092
 20
13.3517695138
  0
LWPOLYLINE
  5
3B4
100
AcDbEntity
  8
RACCORDO
100
AcDbPolyline
 62
250
  6
CONTINUOUS
 90
10
 70
0
 10
7.4826002751
 20
2.9845526023
 10
7.6844342916
 20
2.7274503729
 10
7.8735592046
 20
2.4539567032
 10
8.0476108077
 20
2.1674904738
 10
8.2044133225
 20
1.871632732
 10
8.3420065973
 20
1.5700819265
 10
8.4586706109
 20
1.2666076733
 10
8.5529469735
 20
0.9650036333
 10
8.6236571583
 20
0.6690400881
 10
8.669917234
 20
0.3824168089
  0
LWPOLYLINE
  5
3B5
100
AcDbEntity
  8
0
100
AcDbPolyline
 62
7
  6
CONTINUOUS
 90
5
 70
0
 10
12.2034843485
 20
-15.4428726741
 10
12.1791164921
 20
-11.0642562432
 10
12.129070433
 20
-6.6734050294
 10
12.0533461735
 20
-2.2700742947
 10
11.9519437137
 20
2.1457359609
  0
LWPOLYLINE
  5
3B6
100
AcDbEntity
  8
RACCORDO
100
AcDbPolyline
 62
7
  6
CONTINUOUS
 90
5
 70
0
 10
12.2034843485
 20
-15.4428726741
 10
12.1791164921
 20
-11.0642562432
 10
12.129070433
 20
-6.6734050294
 10
12.0533461735
 20
-2.2700742947
 10
11.9519437137
 20
2.1457359609
  0
LINE
  5
3B7
100
AcDbEntity
  8
0
100
AcDbLine
 62
7
  6
CONTINUOUS
 10
12.2021740046
 20
-19.8090095841
 11
12.2034843485
 21
-15.4428726741
  0
LINE
  5
3B8
100
AcDbEntity
  8
RACCORDO
100
AcDbLine
 62
7
  6
CONTINUOUS
 10
12.2021740046
 20
-19.8090095841
 11
12.2034843485
 21
-15.4428726741
  0
LWPOLYLINE
  5
3B9
100
AcDbEntity
  8
0
100
AcDbPolyline
 62
7
  6
CONTINUOUS
 90
3
 70
0
 10
12.1225187386
 20
-28.5013974609
 10
12.1751854671
 20
-24.1619327591
 10
12.2021740046
 20
-19.8090095841
  0
LWPOLYLINE
  5
3BA
100
AcDbEntity
  8
RACCORDO
100
AcDbPolyline
 62
7
  6
CONTINUOUS
 90
3
 70
0
 10
12.1225187386
 20
-28.5013974609
 10
12.1751854671
 20
-24.1619327591
 10
12.2021740046
 20
-19.8090095841
  0
LWPOLYLINE
  5
3BB
100
AcDbEntity
  8
0
100
AcDbPolyline
 62
7
  6
CONTINUOUS
 90
3
 70
0
 10
11.9401507013
 20
-37.1406856594
 10
12.0441738167
 20
-32.8276484277
 10
12.1225187386
 20
-28.5013974609
  0
LWPOLYLINE
  5
3BC
100
AcDbEntity
  8
RACCORDO
100
AcDbPolyline
 62
7
  6
CONTINUOUS
 90
3
 70
0
 10
11.9401507013
 20
-37.1406856594
 10
12.0441738167
 20
-32.8276484277
 10
12.1225187386
 20
-28.5013974609
  0
LWPOLYLINE
  5
3BD
100
AcDbEntity
  8
0
100
AcDbPolyline
 62
7
  6
CONTINUOUS
 90
9
 70
0
 10
11.9401507013
 20
-37.1406856594
 10
11.9325615466
 20
-37.2511450323
 10
11.9155896361
 20
-37.354101209
 10
11.8892349696
 20
-37.4495541894
 10
11.8528359499
 20
-37.5388232022
 10
11.8070541742
 20
-37.6205890187
 10
11.7538744347
 20
-37.6908939532
 10
11.6934894801
 20
-37.7487144152
 10
11.6257065616
 20
-37.7950739952
  0
LWPOLYLINE
  5
3BE
100
AcDbEntity
  8
RACCORDO
100
AcDbPolyline
 62
7
  6
CONTINUOUS
 90
10
 70
0
 10
11.9401507013
 20
-37.1406856594
 10
11.9325615466
 20
-37.2511450323
 10
11.9155896361
 20
-37.354101209
 10
11.8892349696
 20
-37.4495541894
 10
11.8528359499
 20
-37.5388232022
 10
11.8070541742
 20
-37.6205890187
 10
11.7538744347
 20
-37.6908939532
 10
11.6934894801
 20
-37.7487144152
 10
11.6257065616
 20
-37.7950739952
 10
11.6031166791
 20
-37.8070023268
  0
LINE
  5
3BF
100
AcDbEntity
  8
0
100
AcDbLine
 62
7
  6
CONTINUOUS
 10
1.1307113731
 20
-23.6432159125
 11
1.1183550986
 21
-23.6695966271
  0
LINE
  5
3C0
100
AcDbEntity
  8
0
100
AcDbLine
 62
7
  6
CONTINUOUS
 10
1.1881775773
 20
-23.5214857969
 11
1.1307113731
 21
-23.6432159125
  0
LWPOLYLINE
  5
3C1
100
AcDbEntity
  8
0
100
AcDbPolyline
 62
250
  6
CONTINUOUS
 90
5
 70
0
 10
2.5604025854
 20
-24.3537383453
 10
2.6054817151
 20
-24.2620886195
 10
2.6449875512
 20
-24.1645969013
 10
2.6787827604
 20
-24.0616021252
 10
2.7067498621
 20
-23.9534623576
  0
LINE
  5
3C2
100
AcDbEntity
  8
0
100
AcDbLine
 62
7
  6
CONTINUOUS
 10
1.9237636439
 20
-23.0355529926
 11
1.9334077286
 21
-23.0163459458
  0
LINE
  5
3C3
100
AcDbEntity
  8
TRASH
100
AcDbLine
 62
7
  6
CONTINUOUS
 10
1.7063723871
 20
-23.0325326923
 11
1.6851776558
 21
-23.0705019978
  0
LINE
  5
3C4
100
AcDbEntity
  8
0
100
AcDbLine
 62
7
  6
CONTINUOUS
 10
0.2919772007
 20
-21.8622889616
 11
0.3084746342
 21
-21.8334054166
  0
LINE
  5
3C5
100
AcDbEntity
  8
0
100
AcDbLine
 62
7
  6
CONTINUOUS
 10
0.3084746342
 20
-21.8334054166
 11
0.3251697257
 21
-21.8046445833
  0
LINE
  5
3C6
100
AcDbEntity
  8
0
100
AcDbLine
 62
7
  6
CONTINUOUS
 10
0.3251697257
 20
-21.8046445833
 11
0.3421276269
 21
-21.7759006828
  0
LINE
  5
3C7
100
AcDbEntity
  8
0
100
AcDbLine
 62
7
  6
CONTINUOUS
 10
0.3421276269
 20
-21.7759006828
 11
0.3594549116
 21
-21.7469194211
  0
LINE
  5
3C8
100
AcDbEntity
  8
0
100
AcDbLine
 62
7
  6
CONTINUOUS
 10
0.3594549116
 20
-21.7469194211
 11
0.3775429224
 21
-21.7171485619
  0
LINE
  5
3C9
100
AcDbEntity
  8
0
100
AcDbLine
 62
7
  6
CONTINUOUS
 10
0.3775429224
 20
-21.7171485619
 11
0.3966828792
 21
-21.6860317668
  0
LWPOLYLINE
  5
3CA
100
AcDbEntity
  8
0
100
AcDbPolyline
 62
7
  6
CONTINUOUS
 90
3
 70
0
 10
0.3966828792
 20
-21.6860317668
 10
0.4171662514
 20
-21.6532364494
 10
0.4280334755
 20
-21.6360157758
  0
LWPOLYLINE
  5
3CB
100
AcDbEntity
  8
0
100
AcDbPolyline
 62
7
  6
CONTINUOUS
 90
4
 70
0
 10
0.4280334755
 20
-21.6360157758
 10
0.4636157234
 20
-21.5803763279
 10
0.476654758
 20
-21.5603027063
 10
0.4903782592
 20
-21.5395417148
  0
LINE
  5
3CC
100
AcDbEntity
  8
0
100
AcDbLine
 62
7
  6
CONTINUOUS
 10
1.0285983068
 20
-23.8666085115
 11
1.0217763582
 21
-23.8765536175
  0
LINE
  5
3CD
100
AcDbEntity
  8
0
100
AcDbLine
 62
7
  6
CONTINUOUS
 10
0.500540836
 20
-21.5279262947
 11
0.4903782592
 21
-21.5395417148
  0
LWPOLYLINE
  5
3CE
100
AcDbEntity
  8
0
100
AcDbPolyline
 62
7
  6
CONTINUOUS
 90
8
 70
0
 10
-9.0663158526
 20
10.0424196358
 10
-9.1082714561
 20
10.0370292761
 10
-9.194770423
 20
10.0336074096
 10
-9.2789289143
 20
10.0382760886
 10
-9.360776532
 20
10.0509329856
 10
-9.4392692812
 20
10.0714166574
 10
-9.5143641866
 20
10.0998273635
 10
-9.5480103256
 20
10.115561774
  0
LINE
  5
3CF
100
AcDbEntity
  8
RACCORDO
100
AcDbLine
 62
7
  6
CONTINUOUS
 10
-0.972905417
 20
14.5444716748
 11
-1.0147453872
 21
14.5480333907
  0
LWPOLYLINE
  5
3D0
100
AcDbEntity
  8
RACCORDO
100
AcDbPolyline
 62
7
  6
CONTINUOUS
 90
3
 70
0
 10
-0.8824707976
 20
14.5140505158
 10
-0.9288003942
 20
14.533149274
 10
-0.972905417
 20
14.5444716748
  0
LINE
  5
3D1
100
AcDbEntity
  8
RACCORDO
100
AcDbLine
 62
7
  6
CONTINUOUS
 10
-0.8824707976
 20
14.5140505158
 11
-0.5218463392
 21
14.3337382866
  0
LINE
  5
3D2
100
AcDbEntity
  8
0
100
AcDbLine
 62
7
  6
CONTINUOUS
 10
-0.5218463392
 20
14.3337382866
 11
0.4798603634
 21
13.8054244018
  0
LINE
  5
3D3
100
AcDbEntity
  8
RACCORDO
100
AcDbLine
 62
7
  6
CONTINUOUS
 10
-0.5218463392
 20
14.3337382866
 11
0.4798603634
 21
13.8054244018
  0
LINE
  5
3D4
100
AcDbEntity
  8
0
100
AcDbLine
 62
7
  6
CONTINUOUS
 10
0.4798603634
 20
13.8054244018
 11
1.4756513832
 21
13.2266671116
  0
LINE
  5
3D5
100
AcDbEntity
  8
RACCORDO
100
AcDbLine
 62
7
  6
CONTINUOUS
 10
0.4798603634
 20
13.8054244018
 11
1.4756513832
 21
13.2266671116
  0
LWPOLYLINE
  5
3D6
100
AcDbEntity
  8
0
100
AcDbPolyline
 62
7
  6
CONTINUOUS
 90
8
 70
0
 10
1.4756513832
 20
13.2266671116
 10
2.4655267201
 20
12.5974664161
 10
3.4513551672
 20
11.9164174389
 10
4.4312679316
 20
11.1849250563
 10
5.3996586339
 20
10.4072038971
 10
6.3566605729
 20
9.5827633913
 10
7.3021404498
 20
8.7120941088
 10
8.2300919891
 20
7.8008823878
  0
LWPOLYLINE
  5
3D7
100
AcDbEntity
  8
RACCORDO
100
AcDbPolyline
 62
7
  6
CONTINUOUS
 90
8
 70
0
 10
1.4756513832
 20
13.2266671116
 10
2.4655267201
 20
12.5974664161
 10
3.4513551672
 20
11.9164174389
 10
4.4312679316
 20
11.1849250563
 10
5.3996586339
 20
10.4072038971
 10
6.3566605729
 20
9.5827633913
 10
7.3021404498
 20
8.7120941088
 10
8.2300919891
 20
7.8008823878
  0
LWPOLYLINE
  5
3D8
100
AcDbEntity
  8
0
100
AcDbPolyline
 62
7
  6
CONTINUOUS
 90
4
 70
0
 10
8.2300919891
 20
7.8008823878
 10
9.1385130989
 20
6.8510236745
 10
10.0294058711
 20
5.8606225227
 10
10.9027703057
 20
4.8296789324
  0
LWPOLYLINE
  5
3D9
100
AcDbEntity
  8
RACCORDO
100
AcDbPolyline
 62
7
  6
CONTINUOUS
 90
4
 70
0
 10
8.2300919891
 20
7.8008823878
 10
9.1385130989
 20
6.8510236745
 10
10.0294058711
 20
5.8606225227
 10
10.9027703057
 20
4.8296789324
  0
LWPOLYLINE
  5
3DA
100
AcDbEntity
  8
0
100
AcDbPolyline
 62
7
  6
CONTINUOUS
 90
13
 70
0
 10
10.9027703057
 20
4.8296789324
 10
11.0530979071
 20
4.6361829806
 10
11.1934118375
 20
4.4341140223
 10
11.323712097
 20
4.2234720572
 10
11.4449835424
 20
4.0024013234
 10
11.5562413169
 20
3.772757583
 10
11.6545308494
 20
3.5401081224
 10
11.7393888426
 20
3.3043268463
 10
11.8112785939
 20
3.0655398501
 10
11.8686354245
 20
2.8296927062
 10
11.9109377749
 20
2.5987672721
 10
11.9387072046
 20
2.3707816903
 10
11.9519437137
 20
2.1457359609
  0
LWPOLYLINE
  5
3DB
100
AcDbEntity
  8
RACCORDO
100
AcDbPolyline
 62
7
  6
CONTINUOUS
 90
13
 70
0
 10
10.9027703057
 20
4.8296789324
 10
11.0530979071
 20
4.6361829806
 10
11.1934118375
 20
4.4341140223
 10
11.323712097
 20
4.2234720572
 10
11.4449835424
 20
4.0024013234
 10
11.5562413169
 20
3.772757583
 10
11.6545308494
 20
3.5401081224
 10
11.7393888426
 20
3.3043268463
 10
11.8112785939
 20
3.0655398501
 10
11.8686354245
 20
2.8296927062
 10
11.9109377749
 20
2.5987672721
 10
11.9387072046
 20
2.3707816903
 10
11.9519437137
 20
2.1457359609
  0
LWPOLYLINE
  5
3DC
100
AcDbEntity
  8
0
100
AcDbPolyline
 62
250
  6
CONTINUOUS
 90
3
 70
0
 10
15.2446870145
 20
-5.167032578
 10
15.1704276787
 20
-0.7980060062
 10
15.0708859352
 20
3.5829009432
  0
LWPOLYLINE
  5
3DD
100
AcDbEntity
  8
0
100
AcDbPolyline
 62
250
  6
CONTINUOUS
 90
7
 70
0
 10
15.159190426
 20
-31.1192450836
 10
15.2366599951
 20
-26.8261673086
 10
15.2888437722
 20
-22.51987907
 10
15.3157390909
 20
-18.2006004365
 10
15.3173445768
 20
-13.868552128
 10
15.293660148
 20
-9.5239555041
 10
15.2446870145
 20
-5.167032578
  0
LINE
  5
3DE
100
AcDbEntity
  8
0
100
AcDbLine
 62
250
  6
CONTINUOUS
 10
15.0564390238
 20
-35.3988930077
 11
15.159190426
 21
-31.1192450836
  0
LWPOLYLINE
  5
3DF
100
AcDbEntity
  8
0
100
AcDbPolyline
 62
7
  6
CONTINUOUS
 90
6
 70
0
 10
-5.2414034857
 20
-32.3301647345
 10
-5.1932426065
 20
-32.2639978734
 10
-5.1555289099
 20
-32.1856319714
 10
-5.1289116627
 20
-32.0963535774
 10
-5.1139416906
 20
-31.9977346242
 10
-5.1109298643
 20
-31.8914675721
  0
LINE
  5
3E0
100
AcDbEntity
  8
0
100
AcDbLine
 62
7
  6
CONTINUOUS
 10
1.6851493454
 20
-23.0704938945
 11
1.427561399
 21
-23.3592374722
  0
LINE
  5
3E1
100
AcDbEntity
  8
0
100
AcDbLine
 62
7
  6
CONTINUOUS
 10
1.0842523719
 20
-23.743224543
 11
0.6975785229
 21
-24.1746909433
  0
LWPOLYLINE
  5
3E2
100
AcDbEntity
  8
0
100
AcDbPolyline
 62
7
  6
CONTINUOUS
 90
12
 70
0
 10
-0.1402529266
 20
-20.239116785
 10
-0.2199254329
 20
-20.2957180739
 10
-0.2956166855
 20
-20.3600128707
 10
-0.366937712
 20
-20.4319119397
 10
-0.4335812699
 20
-20.5113780338
 10
-0.4951231884
 20
-20.5981957143
 10
-0.551089671
 20
-20.6919280559
 10
-0.6012601286
 20
-20.7924099981
 10
-0.6453718193
 20
-20.899354326
 10
-0.6830605028
 20
-21.0120081808
 10
-0.7141960252
 20
-21.1299699416
 10
-0.719973353
 20
-21.1557516345
  0
LINE
  5
3E3
100
AcDbEntity
  8
0
100
AcDbLine
 62
7
  6
CONTINUOUS
 10
-0.1402529266
 20
-20.239116785
 11
0.2806375434
 21
-19.9668883826
  0
LINE
  5
3E4
100
AcDbEntity
  8
0
100
AcDbLine
 62
7
  6
CONTINUOUS
 10
-7.6102989244
 20
-20.8743711581
 11
-7.5890826783
 21
-20.863763035
  0
LINE
  5
3E5
100
AcDbEntity
  8
0
100
AcDbLine
 62
7
  6
CONTINUOUS
 10
-5.342018446
 20
-21.1132771016
 11
-5.3208013885
 21
-21.1026685728
  0
LINE
  5
3E6
100
AcDbEntity
  8
0
100
AcDbLine
 62
7
  6
CONTINUOUS
 10
-7.5836912235
 20
-22.6746838518
 11
-7.5624739128
 21
-22.6640751965
  0
LINE
  5
3E7
100
AcDbEntity
  8
0
100
AcDbLine
 62
7
  6
CONTINUOUS
 10
-5.3349454298
 20
-21.6640245648
 11
-5.3137280893
 21
-21.6534158945
  0
LINE
  5
3E8
100
AcDbEntity
  8
0
100
AcDbLine
 62
7
  6
CONTINUOUS
 10
-7.565384996
 20
-23.7740766246
 11
-7.544166953
 21
-23.7634676031
  0
LWPOLYLINE
  5
3E9
100
AcDbEntity
  8
DRAFT
100
AcDbPolyline
 62
7
  6
CONTINUOUS
 90
11
 70
0
 10
-0.6659577321
 20
-20.0454186217
 10
-0.5769669345
 20
-20.0062058422
 10
-0.385788469
 20
-19.9488273073
 10
-0.1822184606
 20
-19.9216927134
 10
0.0314641199
 20
-19.9251366467
 10
0.2530189579
 20
-19.9590922635
 10
0.4800469142
 20
-20.0231772617
 10
0.7099141863
 20
-20.1167545471
 10
0.940199443
 20
-20.23875389
 10
1.1684364584
 20
-20.3878091713
 10
1.3919242739
 20
-20.5623586679
  0
LWPOLYLINE
  5
3EA
100
AcDbEntity
  8
RACCORDO
100
AcDbPolyline
 62
250
  6
CONTINUOUS
 90
5
 70
0
 10
2.8765966707
 20
16.1741160786
 10
2.8975868596
 20
16.1798661502
 10
2.9558975782
 20
16.1852373292
 10
3.0164240412
 20
16.1761187929
 10
3.077327177
 20
16.1527875788
  0
LINE
  5
3EB
100
AcDbEntity
  8
RACCORDO
100
AcDbLine
 62
7
  6
CONTINUOUS
 10
-1.0147453872
 20
14.5480333907
 11
-1.0551650337
 21
14.5436641878
  0
LWPOLYLINE
  5
3EC
100
AcDbEntity
  8
0
100
AcDbPolyline
 62
7
  6
CONTINUOUS
 90
7
 70
0
 10
-13.3090837576
 20
16.3226209635
 10
-13.2397508826
 20
16.3264908896
 10
-13.1428168458
 20
16.3231611351
 10
-13.0493143329
 20
16.3093885363
 10
-12.959766248
 20
16.285250115
 10
-12.8746733803
 20
16.2508808632
 10
-12.8619939231
 20
16.2446895277
  0
LINE
  5
3ED
100
AcDbEntity
  8
0
100
AcDbLine
 62
250
  6
CONTINUOUS
 10
6.2072166534
 20
16.3943604453
 11
6.5353315862
 21
16.3742537996
  0
LINE
  5
3EE
100
AcDbEntity
  8
RACCORDO
100
AcDbLine
 62
250
  6
CONTINUOUS
 10
5.8468128476
 20
16.5746646708
 11
6.1749556374
 21
16.5545444792
  0
LWPOLYLINE
  5
3EF
100
AcDbEntity
  8
RACCORDO
100
AcDbPolyline
 62
7
  6
CONTINUOUS
 90
10
 70
0
 10
6.0675975669
 20
16.5851608725
 10
6.1019383223
 20
16.5814641518
 10
6.1358837629
 20
16.5763739447
 10
6.1693849904
 20
16.5699097881
 10
6.2023652898
 20
16.5621017587
 10
6.2348077818
 20
16.5529702782
 10
6.2667505184
 20
16.5425144938
 10
6.2981719587
 20
16.5307446954
 10
6.3289960658
 20
16.5176938012
 10
6.3591707562
 20
16.5033919819
  0
LWPOLYLINE
  5
3F0
100
AcDbEntity
  8
RACCORDO
100
AcDbPolyline
 62
250
  6
CONTINUOUS
 90
3
 70
0
 10
6.0675975669
 20
16.5851608725
 10
6.1125129233
 20
16.5776764765
 10
6.1749531769
 20
16.5545446926
  0
LINE
  5
3F1
100
AcDbEntity
  8
RACCORDO
100
AcDbLine
 62
250
  6
CONTINUOUS
 10
6.1749531769
 20
16.5545446926
 11
6.2727733277
 21
16.5368045031
  0
LWPOLYLINE
  5
3F2
100
AcDbEntity
  8
0
100
AcDbPolyline
 62
250
  6
CONTINUOUS
 90
3
 70
0
 10
6.5353298372
 20
16.3742484539
 10
6.6333108914
 20
16.3564329995
 10
6.7200425269
 20
16.3228574923
  0
LINE
  5
3F3
100
AcDbEntity
  8
RACCORDO
100
AcDbLine
 62
250
  6
CONTINUOUS
 10
6.2727733277
 20
16.5368045031
 11
6.3591727577
 21
16.5033909812
  0
LINE
  5
3F4
100
AcDbEntity
  8
RACCORDO
100
AcDbLine
 62
250
  6
CONTINUOUS
 10
3.0773271771
 20
16.1527875788
 11
3.4379516355
 21
15.9724753496
  0
LINE
  5
3F5
100
AcDbEntity
  8
0
100
AcDbLine
 62
7
  6
CONTINUOUS
 10
6.7200654357
 20
16.3228516382
 11
6.3591704418
 21
16.503392102
  0
LINE
  5
3F6
100
AcDbEntity
  8
RACCORDO
100
AcDbLine
 62
250
  6
CONTINUOUS
 10
6.1749556374
 20
16.5545444792
 11
6.5353315862
 21
16.3742537996
  0
LINE
  5
3F7
100
AcDbEntity
  8
0
100
AcDbLine
 62
250
  6
CONTINUOUS
 10
3.4379516355
 20
15.9724753496
 11
4.4247858762
 21
15.4523613477
  0
LWPOLYLINE
  5
3F8
100
AcDbEntity
  8
0
100
AcDbPolyline
 62
250
  6
CONTINUOUS
 90
13
 70
0
 10
6.5353315862
 20
16.3742537996
 10
7.4836351366
 20
15.8732683263
 10
8.4279413848
 20
15.3218231503
 10
9.3665070596
 20
14.7209668081
 10
10.2976740397
 20
14.0717345102
 10
11.2196407533
 20
13.3754152015
 10
12.1304639452
 20
12.6336272416
 10
13.0284136907
 20
11.8478065925
 10
13.9118604452
 20
11.0194497006
 10
14.7790459263
 20
10.150511804
 10
15.628323086
 20
9.2428324109
 10
16.4581584628
 20
8.2980543545
 10
17.2670183418
 20
7.31799788
  0
LWPOLYLINE
  5
3F9
100
AcDbEntity
  8
0
100
AcDbPolyline
 62
250
  6
CONTINUOUS
 90
5
 70
0
 10
4.4247858762
 20
15.4523613477
 10
5.4096953173
 20
14.8798680367
 10
6.3907586974
 20
14.2561121435
 10
7.3660624098
 20
13.5823102835
 10
8.3337037701
 20
12.8597769038
  0
LWPOLYLINE
  5
3FA
100
AcDbEntity
  8
0
100
AcDbPolyline
 62
250
  6
CONTINUOUS
 90
8
 70
0
 10
8.3337037701
 20
12.8597769038
 10
9.2917947413
 20
12.0899217965
 10
10.2384661163
 20
11.2742469924
 10
11.1718715109
 20
10.4143434475
 10
12.0901904928
 20
9.511888254
 10
12.9916318081
 20
8.5686416905
 10
13.8744368938
 20
7.5864438425
 10
14.7368836572
 20
6.5672106671
  0
LWPOLYLINE
  5
3FB
100
AcDbEntity
  8
0
100
AcDbPolyline
 62
250
  6
CONTINUOUS
 90
10
 70
0
 10
14.7368836547
 20
6.5672106636
 10
14.9345012729
 20
6.3088082216
 10
15.1127836271
 20
6.0307957437
 10
15.2695160711
 20
5.7366267364
 10
15.4027516544
 20
5.4299554046
 10
15.5108353077
 20
5.1145912588
 10
15.592424402
 20
4.7944517926
 10
15.6465054271
 20
4.4735138193
 10
15.6724065816
 20
4.1557640715
 10
15.6698061182
 20
3.8451496769
  0
LWPOLYLINE
  5
3FC
100
AcDbEntity
  8
0
100
AcDbPolyline
 62
250
  6
CONTINUOUS
 90
10
 70
0
 10
14.1539446178
 20
6.3202247736
 10
14.3476975555
 20
6.0590820048
 10
14.5225876405
 20
5.7784709212
 10
14.6764286128
 20
5.4818993763
 10
14.8072973423
 20
5.1730747419
 10
14.9135578695
 20
4.8558575626
 10
14.9938818565
 20
4.5342132961
 10
15.0472651918
 20
4.2121627425
 10
15.0730405428
 20
3.8937317804
 10
15.0708856979
 20
3.5829010409
  0
LWPOLYLINE
  5
3FD
100
AcDbEntity
  8
0
100
AcDbPolyline
 62
7
  6
CONTINUOUS
 90
10
 70
0
 10
18.327953926
 20
4.9817685353
 10
18.3232382278
 20
5.0761538813
 10
18.2913081059
 20
5.3798344913
 10
18.2348617565
 20
5.6804007408
 10
18.1548703941
 20
5.9768901583
 10
18.0524110829
 20
6.266751895
 10
17.9296984952
 20
6.5452651791
 10
17.788625779
 20
6.8097281404
 10
17.6301026735
 20
7.0592506665
 10
17.4742677172
 20
7.268620328
  0
LWPOLYLINE
  5
3FE
100
AcDbEntity
  8
0
100
AcDbPolyline
 62
250
  6
CONTINUOUS
 90
12
 70
0
 10
18.1276090431
 20
4.6206543968
 10
18.2327844247
 20
1.486483167
 10
18.3151185498
 20
-1.6486056489
 10
18.3746866055
 20
-4.7846039959
 10
18.4115324583
 20
-7.9214996949
 10
18.4256805807
 20
-11.0592674793
 10
18.417136004
 20
-14.1978682283
 10
18.385852463
 20
-17.3372713766
 10
18.3317800943
 20
-20.4774183133
 10
18.2548780837
 20
-23.6182130716
 10
18.1550474115
 20
-26.7595723564
 10
18.0321306293
 20
-29.9014248314
  0
LWPOLYLINE
  5
3FF
100
AcDbEntity
  8
0
100
AcDbPolyline
 62
7
  6
CONTINUOUS
 90
10
 70
0
 10
18.0950650907
 20
-32.7185904505
 10
18.2744570363
 20
-28.6945357869
 10
18.4225543896
 20
-24.4721237089
 10
18.5299654319
 20
-20.2451500968
 10
18.5967613364
 20
-16.01401324
 10
18.6229820099
 20
-11.7790940044
 10
18.6085830681
 20
-7.5407369511
 10
18.5534497688
 20
-3.2992405519
 10
18.4574224733
 20
0.9451134857
 10
18.3279907618
 20
4.982060754
  0
LINE
  5
400
100
AcDbEntity
  8
0
100
AcDbLine
 62
250
  6
CONTINUOUS
 10
18.0321306293
 20
-29.9014248314
 11
17.8859601375
 21
-33.0436741962
  0
LINE
  5
401
100
AcDbEntity
  8
0
100
AcDbLine
 62
7
  6
CONTINUOUS
 10
1.2719903931
 20
-23.5099375864
 11
1.6880337425
 21
-23.1826816989
  0
LINE
  5
402
100
AcDbEntity
  8
0
100
AcDbLine
 62
7
  6
CONTINUOUS
 10
2.2534236003
 20
-22.7993902825
 11
1.9334077286
 21
-23.0163459458
  0
LINE
  5
403
100
AcDbEntity
  8
0
100
AcDbLine
 62
7
  6
CONTINUOUS
 10
1.6880337425
 20
-23.1826816989
 11
1.1881775773
 21
-23.5214857969
  0
LINE
  5
404
100
AcDbEntity
  8
0
100
AcDbLine
 62
7
  6
CONTINUOUS
 10
2.4949550259
 20
-22.8631563365
 11
2.3366995497
 21
-22.9673691325
  0
LINE
  5
405
100
AcDbEntity
  8
0
100
AcDbLine
 62
7
  6
CONTINUOUS
 10
2.5002444486
 20
-22.8644846108
 11
2.3509185493
 21
-22.9627047878
  0
LINE
  5
406
100
AcDbEntity
  8
0
100
AcDbLine
 62
7
  6
CONTINUOUS
 10
1.6880337425
 20
-23.1826816989
 11
1.9237636439
 21
-23.0355529926
  0
LINE
  5
407
100
AcDbEntity
  8
0
100
AcDbLine
 62
7
  6
CONTINUOUS
 10
-0.6754892001
 20
-22.1424503502
 11
-0.3054894667
 21
-21.9209264373
  0
LWPOLYLINE
  5
408
100
AcDbEntity
  8
0
100
AcDbPolyline
 62
7
  6
CONTINUOUS
 90
3
 70
0
 10
0.7068255298
 20
-22.1408383278
 10
0.7619328085
 20
-22.1095310907
 10
1.0368674699
 20
-21.9523323422
  0
LINE
  5
409
100
AcDbEntity
  8
0
100
AcDbLine
 62
7
  6
CONTINUOUS
 10
0.7208270374
 20
-22.1594328348
 11
1.0684046005
 21
-21.9628716287
  0
LINE
  5
40A
100
AcDbEntity
  8
0
100
AcDbLine
 62
7
  6
CONTINUOUS
 10
1.3431420043
 20
-22.498795856
 11
1.1241189985
 21
-22.6117015659
  0
LINE
  5
40B
100
AcDbEntity
  8
0
100
AcDbLine
 62
7
  6
CONTINUOUS
 10
0.8395052094
 20
-22.7584179238
 11
0.2597519252
 21
-23.0572728533
  0
LINE
  5
40C
100
AcDbEntity
  8
0
100
AcDbLine
 62
7
  6
CONTINUOUS
 10
-5.3179381027
 20
-22.8808637091
 11
-5.2967200816
 21
-22.8702546986
  0
LINE
  5
40D
100
AcDbEntity
  8
0
100
AcDbLine
 62
7
  6
CONTINUOUS
 10
-5.3096245478
 20
-23.4309909029
 11
-5.288406194
 21
-23.420381726
  0
LINE
  5
40E
100
AcDbEntity
  8
0
100
AcDbLine
 62
7
  6
CONTINUOUS
 10
-7.546100368
 20
-24.8427467895
 11
-7.5248815532
 21
-24.8321373821
  0
LINE
  5
40F
100
AcDbEntity
  8
0
100
AcDbLine
 62
7
  6
CONTINUOUS
 10
-5.303867613
 20
-23.7976281548
 11
-5.2826490288
 21
-23.7870188627
  0
LINE
  5
410
100
AcDbEntity
  8
0
100
AcDbLine
 62
7
  6
CONTINUOUS
 10
-5.2949101399
 20
-24.3474264613
 11
-5.2736911973
 21
-24.3368169899
  0
LINE
  5
411
100
AcDbEntity
  8
0
100
AcDbLine
 62
7
  6
CONTINUOUS
 10
-7.5253531193
 20
-25.910678716
 11
-7.5041334742
 21
-25.9000688934
  0
LINE
  5
412
100
AcDbEntity
  8
0
100
AcDbLine
 62
7
  6
CONTINUOUS
 10
-5.2855665858
 20
-24.8970109426
 11
-5.2643472692
 21
-24.8864012843
  0
LINE
  5
413
100
AcDbEntity
  8
0
100
AcDbLine
 62
7
  6
CONTINUOUS
 10
-7.5064153021
 20
-26.8250025697
 11
-7.4851948989
 21
-26.8143923681
  0
LINE
  5
414
100
AcDbEntity
  8
0
100
AcDbLine
 62
7
  6
CONTINUOUS
 10
-5.2707074172
 20
-25.7274990416
 11
-5.249487506
 21
-25.716889086
  0
LINE
  5
415
100
AcDbEntity
  8
0
100
AcDbLine
 62
7
  6
CONTINUOUS
 10
-5.25113281
 20
-26.7527714442
 11
-5.2299121152
 21
-26.7421610968
  0
LINE
  5
416
100
AcDbEntity
  8
0
100
AcDbLine
 62
7
  6
CONTINUOUS
 10
0.8395055961
 20
-21.7191871411
 11
1.0178872495
 21
-21.647734805
  0
LINE
  5
417
100
AcDbEntity
  8
0
100
AcDbLine
 62
7
  6
CONTINUOUS
 10
1.1337632702
 20
-22.6405528058
 11
0.8395052094
 21
-22.7584179238
  0
LINE
  5
418
100
AcDbEntity
  8
0
100
AcDbLine
 62
7
  6
CONTINUOUS
 10
0.500540836
 20
-21.5279262947
 11
1.0162824656
 21
-21.3361962751
  0
LINE
  5
419
100
AcDbEntity
  8
0
100
AcDbLine
 62
7
  6
CONTINUOUS
 10
0.4903782592
 20
-21.5395417148
 11
1.0161926543
 21
-21.3447152394
  0
LINE
  5
41A
100
AcDbEntity
  8
0
100
AcDbLine
 62
7
  6
CONTINUOUS
 10
0.259751717
 20
-21.9201880653
 11
0.8395055961
 21
-21.7191871411
  0
LWPOLYLINE
  5
41B
100
AcDbEntity
  8
0
100
AcDbPolyline
 62
7
  6
CONTINUOUS
 90
13
 70
0
 10
17.4743016719
 20
7.2686085509
 10
16.7811208214
 20
8.1108272917
 10
15.9322371108
 20
9.083531701
 10
15.0622372287
 20
10.0178451954
 10
14.1727950026
 20
10.911636079
 10
13.265469594
 20
11.7631833037
 10
12.3417491015
 20
12.5708782974
 10
11.4031865547
 20
13.3330756693
 10
10.4513729051
 20
14.0482663665
 10
9.4878088663
 20
14.71501898
 10
8.514114365
 20
15.3318513268
 10
7.5322455699
 20
15.8973170468
 10
6.7200425269
 20
16.3228574923
  0
LWPOLYLINE
  5
41C
100
AcDbEntity
  8
0
100
AcDbPolyline
 62
250
  6
CONTINUOUS
 90
16
 70
0
 10
17.2670236859
 20
7.3179825582
 10
17.3568518583
 20
7.200338983
 10
17.4458879756
 20
7.0737116943
 10
17.533313932
 20
6.9379558403
 10
17.6179691723
 20
6.7932024856
 10
17.699234301
 20
6.6392675167
 10
17.7769111785
 20
6.4755886029
 10
17.8498657404
 20
6.3021785967
 10
17.9168580112
 20
6.1194226149
 10
17.9772604319
 20
5.9274088324
 10
18.0296907939
 20
5.7266182961
 10
18.0727258199
 20
5.5177958023
 10
18.1054832561
 20
5.3016370541
 10
18.1266297673
 20
5.0791451232
 10
18.1344801665
 20
4.8516569238
 10
18.1275872875
 20
4.6206674747
  0
LWPOLYLINE
  5
41D
100
AcDbEntity
  8
0
100
AcDbPolyline
 62
7
  6
CONTINUOUS
 90
7
 70
0
 10
-5.6526444534
 20
-31.8267680183
 10
-5.625330913
 20
-31.8089058014
 10
-5.6004092321
 20
-31.7825540908
 10
-5.5807955189
 20
-31.7495274317
 10
-5.5669027223
 20
-31.7106541643
 10
-5.5590171946
 20
-31.6668356542
 10
-5.5572943929
 20
-31.6190906722
  0
LINE
  5
41E
100
AcDbEntity
  8
0
100
AcDbLine
 62
7
  6
CONTINUOUS
 10
-7.4669001779
 20
-28.5848774436
 11
-7.4456781932
 21
-28.5742664512
  0
LINE
  5
41F
100
AcDbEntity
  8
0
100
AcDbLine
 62
7
  6
CONTINUOUS
 10
-5.2342992001
 20
-27.5822723225
 11
-5.2130778315
 21
-27.5716616383
  0
LINE
  5
420
100
AcDbEntity
  8
0
100
AcDbLine
 62
7
  6
CONTINUOUS
 10
-6.5954922692
 20
-28.6800589067
 11
-6.5742702713
 21
-28.6694479078
  0
LINE
  5
421
100
AcDbEntity
  8
0
100
AcDbLine
 62
7
  6
CONTINUOUS
 10
-7.4448193889
 20
-29.4976367396
 11
-7.4235965202
 21
-29.4870253052
  0
LINE
  5
422
100
AcDbEntity
  8
0
100
AcDbLine
 62
7
  6
CONTINUOUS
 10
-5.2073325171
 20
-28.8281064262
 11
-5.1861100692
 21
-28.8174952023
  0
LINE
  5
423
100
AcDbEntity
  8
0
100
AcDbLine
 62
7
  6
CONTINUOUS
 10
-5.1948327024
 20
-29.3761612747
 11
-5.1736097541
 21
-29.3655498006
  0
LINE
  5
424
100
AcDbEntity
  8
0
100
AcDbLine
 62
7
  6
CONTINUOUS
 10
-7.4042050021
 20
-31.0708924994
 11
-7.3829805071
 21
-31.0602802519
  0
LINE
  5
425
100
AcDbEntity
  8
0
100
AcDbLine
 62
7
  6
CONTINUOUS
 10
-5.1649970728
 20
-30.6205691047
 11
-5.14377293
 21
-30.6099570333
  0
LINE
  5
426
100
AcDbEntity
  8
0
100
AcDbLine
 62
7
  6
CONTINUOUS
 10
1.7063723871
 20
-23.0325326923
 11
0.4903782152
 21
-23.5974983953
  0
LINE
  5
427
100
AcDbEntity
  8
0
100
AcDbLine
 62
7
  6
CONTINUOUS
 10
1.6851776558
 20
-23.0705019978
 11
0.5006614314
 21
-23.6161539529
  0
LWPOLYLINE
  5
428
100
AcDbEntity
  8
DRAFT
100
AcDbPolyline
 62
7
  6
CONTINUOUS
 90
23
 70
0
 10
2.1611127577
 20
-25.3714350221
 10
2.0563254469
 20
-25.4185598412
 10
1.8644899799
 20
-25.4763028886
 10
1.6603124665
 20
-25.5037897476
 10
1.4461477998
 20
-25.5006429469
 10
1.2242492762
 20
-25.466919752
 10
0.9969991451
 20
-25.4030085149
 10
0.767063714
 20
-25.3095275582
 10
0.5368859515
 20
-25.1875376855
 10
0.3089083998
 20
-25.0384132005
 10
0.0857984433
 20
-24.8637243655
 10
-0.130064767
 20
-24.6654379354
 10
-0.3364161865
 20
-24.4457667678
 10
-0.5308762389
 20
-24.2070375801
 10
-0.71139464
 20
-23.9518833181
 10
-0.8760647562
 20
-23.6831596316
 10
-1.0229502695
 20
-23.4037952699
 10
-1.1504990535
 20
-23.1169046265
 10
-1.2574074164
 20
-22.8256542447
 10
-1.3424242944
 20
-22.5331733648
 10
-1.4046275119
 20
-22.2426629881
 10
-1.4434375126
 20
-21.957360554
 10
-1.4584760022
 20
-21.6804112409
  0
LINE
  5
429
100
AcDbEntity
  8
0
100
AcDbLine
 62
7
  6
CONTINUOUS
 10
2.9360334953
 20
-23.9334714477
 11
2.9199682935
 21
-23.940179097
  0
LWPOLYLINE
  5
42A
100
AcDbEntity
  8
0
100
AcDbPolyline
 62
250
  6
CONTINUOUS
 90
16
 70
0
 10
2.1908102198
 20
-24.9012430777
 10
2.2319776396
 20
-24.8850112331
 10
2.3039101859
 20
-24.8512770824
 10
2.3729400715
 20
-24.8117915454
 10
2.4389110869
 20
-24.7666376128
 10
2.5016417583
 20
-24.7159328328
 10
2.5609677773
 20
-24.6598076145
 10
2.6167674981
 20
-24.5983701947
 10
2.6688741387
 20
-24.531796923
 10
2.717087438
 20
-24.4603654153
 10
2.7612584105
 20
-24.3843621697
 10
2.8013531814
 20
-24.3039169339
 10
2.8373548692
 20
-24.2190857658
 10
2.8691895022
 20
-24.1300157683
 10
2.8967512973
 20
-24.0369721086
 10
2.9199682935
 20
-23.940179097
  0
LWPOLYLINE
  5
42B
100
AcDbEntity
  8
0
100
AcDbPolyline
 62
7
  6
CONTINUOUS
 90
22
 70
0
 10
2.9199682935
 20
-23.940179097
 10
2.9114583417
 20
-23.9435320954
 10
2.9026472823
 20
-23.9466295256
 10
2.8935351153
 20
-23.9494713874
 10
2.8840908994
 20
-23.9520642417
 10
2.874345576
 20
-23.9544015278
 10
2.8643919685
 20
-23.956463563
 10
2.8542298438
 20
-23.9582470852
 10
2.8438594351
 20
-23.9597553566
 10
2.8333742654
 20
-23.9609784814
 10
2.8227757803
 20
-23.9619137638
 10
2.8120625343
 20
-23.9625638997
 10
2.8013237139
 20
-23.9629270801
 10
2.7905613282
 20
-23.963001353
 10
2.7797733681
 20
-23.9627886704
 10
2.7690429928
 20
-23.9622930803
 10
2.7583714953
 20
-23.9615131252
 10
2.7477575825
 20
-23.9604502626
 10
2.7372805348
 20
-23.9591129125
 10
2.7269667789
 20
-23.9575038816
 10
2.716789888
 20
-23.9556203633
 10
2.7067498621
 20
-23.9534623576
  0
LINE
  5
42C
100
AcDbEntity
  8
0
100
AcDbLine
 62
7
  6
CONTINUOUS
 10
2.1908102198
 20
-24.9012430777
 11
2.7714224028
 21
-24.6872090738
  0
LINE
  5
42D
100
AcDbEntity
  8
0
100
AcDbLine
 62
7
  6
CONTINUOUS
 10
2.3366995497
 20
-22.9673691325
 11
2.3509185493
 21
-22.9627047878
  0
LINE
  5
42E
100
AcDbEntity
  8
0
100
AcDbLine
 62
7
  6
CONTINUOUS
 10
0.8395052094
 20
-22.7584179238
 11
0.1849926565
 21
-22.9664385729
  0
LINE
  5
42F
100
AcDbEntity
  8
0
100
AcDbLine
 62
7
  6
CONTINUOUS
 10
-6.1129279544
 20
-31.3462579466
 11
-6.0917032778
 21
-31.3356456083
  0
LINE
  5
430
100
AcDbEntity
  8
0
100
AcDbLine
 62
7
  6
CONTINUOUS
 10
-5.1321578007
 20
-31.9020790618
 11
-5.1109323714
 21
-31.8914663472
  0
LINE
  5
431
100
AcDbEntity
  8
ASSI
100
AcDbLine
 62
7
  6
CONTINUOUS
 10
-5.3513398574
 20
-32.4149550941
 11
-5.3725658031
 21
-32.4255680669
  0
LWPOLYLINE
  5
432
100
AcDbEntity
  8
0
100
AcDbPolyline
 62
7
  6
CONTINUOUS
 90
16
 70
0
 10
-5.3725805876
 20
-32.4255754592
 10
-5.3868889057
 20
-32.4323370039
 10
-5.4612041595
 20
-32.4563042615
 10
-5.5419044622
 20
-32.4649397375
 10
-5.627637589
 20
-32.4580737934
 10
-5.71691395
 20
-32.4357859485
 10
-5.8080980499
 20
-32.3984758837
 10
-5.8996260403
 20
-32.3468390239
 10
-5.9899646667
 20
-32.2817702961
 10
-6.0775234904
 20
-32.2043882144
 10
-6.1608247614
 20
-32.1160939854
 10
-6.2385190649
 20
-32.0183898165
 10
-6.3093078409
 20
-31.9127934167
 10
-6.3720040255
 20
-31.8010492812
 10
-6.4255774144
 20
-31.6851320188
 10
-6.4691473251
 20
-31.5670373103
  0
LWPOLYLINE
  5
433
100
AcDbEntity
  8
0
100
AcDbPolyline
 62
250
  6
CONTINUOUS
 90
6
 70
0
 10
17.8409395736
 20
-33.4287599601
 10
17.8630225508
 20
-33.3947101488
 10
17.8933601858
 20
-33.3207888126
 10
17.9064557209
 20
-33.2377166496
 10
17.9036240256
 20
-33.1451030492
 10
17.885926429
 20
-33.0437218297
  0
LINE
  5
434
100
AcDbEntity
  8
0
100
AcDbLine
 62
7
  6
CONTINUOUS
 10
17.8409052291
 20
-33.4288062736
 11
17.8409395736
 21
-33.4287599601
  0
LINE
  5
435
100
AcDbEntity
  8
0
100
AcDbLine
 62
250
  6
CONTINUOUS
 10
17.7009506885
 20
-33.2790093067
 11
17.8859601375
 21
-33.0436741962
  0
LINE
  5
436
100
AcDbEntity
  8
0
100
AcDbLine
 62
250
  6
CONTINUOUS
 10
17.51185245
 20
-33.500845357
 11
17.7009506885
 21
-33.2790093067
  0
LWPOLYLINE
  5
437
100
AcDbEntity
  8
0
100
AcDbPolyline
 62
250
  6
CONTINUOUS
 90
7
 70
0
 10
16.4720902842
 20
-34.8528573062
 10
16.5273827472
 20
-34.8036166982
 10
16.5959507476
 20
-34.7188339612
 10
16.649613549
 20
-34.6196029126
 10
16.687502757
 20
-34.5075293509
 10
16.7090052323
 20
-34.3844268974
 10
16.7137730123
 20
-34.2522876477
  0
LWPOLYLINE
  5
438
100
AcDbEntity
  8
0
100
AcDbPolyline
 62
250
  6
CONTINUOUS
 90
6
 70
0
 10
17.885926429
 20
-33.0437218297
 10
17.9569437263
 20
-32.9836807133
 10
18.0141521434
 20
-32.9213576333
 10
18.0566278789
 20
-32.8565854156
 10
18.0837933431
 20
-32.7883495034
 10
18.0950768302
 20
-32.7183138077
  0
LWPOLYLINE
  5
439
100
AcDbEntity
  8
0
100
AcDbPolyline
 62
250
  6
CONTINUOUS
 90
5
 70
0
 10
16.7137771732
 20
-34.2522893549
 10
16.9196272619
 20
-34.0849064997
 10
17.1212303192
 20
-33.9038400858
 10
17.3186255573
 20
-33.7091375177
 10
17.51185245
 20
-33.500845357
  0
LWPOLYLINE
  5
43A
100
AcDbEntity
  8
0
100
AcDbPolyline
 62
7
  6
CONTINUOUS
 90
10
 70
0
 10
16.4720733196
 20
-34.8528704761
 10
16.508012752
 20
-34.8247455904
 10
16.7018319146
 20
-34.6654208358
 10
16.8923872771
 20
-34.4957366596
 10
17.0794263803
 20
-34.3159031101
 10
17.2627293446
 20
-34.1260939008
 10
17.4421587608
 20
-33.9264409431
 10
17.6175958313
 20
-33.7170994561
 10
17.7888913949
 20
-33.4982533496
 10
17.8410198307
 20
-33.4286559869
  0
LWPOLYLINE
  5
43B
100
AcDbEntity
  8
0
100
AcDbPolyline
 62
250
  6
CONTINUOUS
 90
4
 70
0
 10
16.1812486295
 20
-34.6486917984
 10
16.3609924808
 20
-34.5181137855
 10
16.5385068766
 20
-34.3859757078
 10
16.7137771732
 20
-34.2522893549
  0
LWPOLYLINE
  5
43C
100
AcDbEntity
  8
0
100
AcDbPolyline
 62
250
  6
CONTINUOUS
 90
8
 70
0
 10
14.7758971216
 20
-36.0322806821
 10
14.7942103561
 20
-36.0203195018
 10
14.872964709
 20
-35.9534908099
 10
14.9389042962
 20
-35.869902005
 10
14.9909509707
 20
-35.7709198079
 10
15.0282537423
 20
-35.6581626293
 10
15.050202691
 20
-35.5334741081
 10
15.0564389401
 20
-35.3988929669
  0
LWPOLYLINE
  5
43D
100
AcDbEntity
  8
0
100
AcDbPolyline
 62
250
  6
CONTINUOUS
 90
7
 70
0
 10
15.0564390238
 20
-35.3988930077
 10
15.2494090357
 20
-35.2778552836
 10
15.4401976548
 20
-35.1552032336
 10
15.6287902169
 20
-35.0309488026
 10
15.815158964
 20
-34.9051096365
 10
15.9993033805
 20
-34.7776923446
 10
16.1812486295
 20
-34.6486917984
  0
LWPOLYLINE
  5
43E
100
AcDbEntity
  8
0
100
AcDbPolyline
 62
7
  6
CONTINUOUS
 90
10
 70
0
 10
14.7758971216
 20
-36.0322806821
 10
14.8435842387
 20
-35.9899931332
 10
15.0745046947
 20
-35.8429703928
 10
15.3025530621
 20
-35.6934734566
 10
15.5276918559
 20
-35.5415264976
 10
15.749890537
 20
-35.3871512623
 10
15.9691215531
 20
-35.2303681591
 10
16.1853553572
 20
-35.0711993422
 10
16.3985579733
 20
-34.9096724136
 10
16.4720966425
 20
-34.8528655034
  0
LWPOLYLINE
  5
43F
100
AcDbEntity
  8
RACCORDO
100
AcDbPolyline
 62
250
  6
CONTINUOUS
 90
8
 70
0
 10
8.2603788631
 20
-39.2901965898
 10
8.3579819484
 20
-39.2384337057
 10
8.4373640869
 20
-39.171291121
 10
8.5061271376
 20
-39.0862905843
 10
8.5631467889
 20
-38.9848218988
 10
8.6074907394
 20
-38.8685441307
 10
8.6384339424
 20
-38.7393584824
 10
8.6554704603
 20
-38.5993772068
  0
LINE
  5
440
100
AcDbEntity
  8
0
100
AcDbLine
 62
7
  6
CONTINUOUS
 10
11.6257065616
 20
-37.7950739952
 11
11.6031193651
 21
-37.8070009811
  0
LWPOLYLINE
  5
441
100
AcDbEntity
  8
0
100
AcDbPolyline
 62
250
  6
CONTINUOUS
 90
10
 70
0
 10
11.9401507191
 20
-37.140684991
 10
12.2949789653
 20
-36.9610011794
 10
12.6476886653
 20
-36.777840675
 10
12.9982674422
 20
-36.5912103243
 10
13.3466978585
 20
-36.4011193038
 10
13.692972843
 20
-36.2075724244
 10
14.0370953661
 20
-36.0105699641
 10
14.3790580198
 20
-35.8101166748
 10
14.7188433436
 20
-35.6062219491
 10
15.0564390238
 20
-35.3988930077
  0
LWPOLYLINE
  5
442
100
AcDbEntity
  8
0
100
AcDbPolyline
 62
7
  6
CONTINUOUS
 90
10
 70
0
 10
11.602784758
 20
-37.8071684466
 10
11.8282307727
 20
-37.6935411195
 10
12.2245085931
 20
-37.4893857341
 10
12.6182590887
 20
-37.2808488191
 10
13.0094432571
 20
-37.0679481217
 10
13.3980280099
 20
-36.8507005115
 10
13.7839825038
 20
-36.6291225086
 10
14.1672751279
 20
-36.4032314541
 10
14.5478706691
 20
-36.1730490891
 10
14.7758951327
 20
-36.0322819035
  0
LWPOLYLINE
  5
443
100
AcDbEntity
  8
RACCORDO
100
AcDbPolyline
 62
250
  6
CONTINUOUS
 90
10
 70
0
 10
11.9401507191
 20
-37.140684991
 10
11.5832422415
 20
-37.3168695413
 10
11.2242923518
 20
-37.4895388318
 10
10.863314514
 20
-37.6586867884
 10
10.5003276377
 20
-37.8243044142
 10
10.1353399431
 20
-37.9863888744
 10
9.7683486526
 20
-38.1449433208
 10
9.3993616497
 20
-38.2999648598
 10
9.028397787
 20
-38.4514447274
 10
8.6554705354
 20
-38.5993772518
  0
LWPOLYLINE
  5
444
100
AcDbEntity
  8
RACCORDO
100
AcDbPolyline
 62
7
  6
CONTINUOUS
 90
3
 70
0
 10
10.9753238355
 20
-38.1139899191
 10
11.3768000428
 20
-37.9192587464
 10
11.6027820685
 20
-37.8071697913
  0
LWPOLYLINE
  5
445
100
AcDbEntity
  8
RACCORDO
100
AcDbPolyline
 62
250
  6
CONTINUOUS
 90
10
 70
0
 10
8.6554705354
 20
-38.5993772518
 10
8.4389533031
 20
-38.6830831499
 10
8.220712071
 20
-38.7649460254
 10
8.0007699662
 20
-38.844958928
 10
7.7791664503
 20
-38.9231058934
 10
7.5559088868
 20
-38.9993895915
 10
7.330971253
 20
-39.0738304867
 10
7.1043593397
 20
-39.146430356
 10
6.8761120334
 20
-39.2171731294
 10
6.6462519841
 20
-39.2860519495
  0
LWPOLYLINE
  5
446
100
AcDbEntity
  8
RACCORDO
100
AcDbPolyline
 62
7
  6
CONTINUOUS
 90
8
 70
0
 10
8.260378857
 20
-39.2901965743
 10
8.5127409798
 20
-39.1907679115
 10
8.9294013744
 20
-39.0222946179
 10
9.3436159868
 20
-38.8494043153
 10
9.7553470604
 20
-38.6721129865
 10
10.1645627855
 20
-38.490436237
 10
10.5712325203
 20
-38.304389515
 10
10.9753238355
 20
-38.1139899191
  0
LWPOLYLINE
  5
447
100
AcDbEntity
  8
RACCORDO
100
AcDbPolyline
 62
250
  6
CONTINUOUS
 90
9
 70
0
 10
6.2294799948
 20
-39.9786049301
 10
6.2729002652
 20
-39.9632515466
 10
6.3552251553
 20
-39.9174761282
 10
6.4296314683
 20
-39.8524923377
 10
6.4949151308
 20
-39.7693517696
 10
6.550019696
 20
-39.6693998391
 10
6.5940534396
 20
-39.5542540096
 10
6.6263037899
 20
-39.4257776186
 10
6.6462488589
 20
-39.2860497244
  0
LWPOLYLINE
  5
448
100
AcDbEntity
  8
RACCORDO
100
AcDbPolyline
 62
250
  6
CONTINUOUS
 90
13
 70
0
 10
4.9950487223
 20
-39.489160683
 10
4.8713696576
 20
-39.5264677476
 10
4.7399941781
 20
-39.558436616
 10
4.6026386034
 20
-39.5835800533
 10
4.4608048476
 20
-39.5998437512
 10
4.3167582519
 20
-39.6067255444
 10
4.173196537
 20
-39.6055755593
 10
4.0313057558
 20
-39.5959832585
 10
3.892850954
 20
-39.5772392987
 10
3.7604239895
 20
-39.5511099193
 10
3.6349976988
 20
-39.5182930847
 10
3.5166424615
 20
-39.4778376995
 10
3.4060389359
 20
-39.4292602489
  0
LWPOLYLINE
  5
449
100
AcDbEntity
  8
RACCORDO
100
AcDbPolyline
 62
7
  6
CONTINUOUS
 90
10
 70
0
 10
6.2294831319
 20
-39.9786157122
 10
6.3262233146
 20
-39.9502286072
 10
6.5994018541
 20
-39.8678198873
 10
6.8701736748
 20
-39.7827918875
 10
7.1385014224
 20
-39.6951562081
 10
7.4043564957
 20
-39.6049234421
 10
7.6677139731
 20
-39.5121031224
 10
7.928544597
 20
-39.4167068007
 10
8.1868118551
 20
-39.3187504636
 10
8.2603778701
 20
-39.2901969772
  0
ARC
  5
44A
100
AcDbEntity
  8
0
100
AcDbCircle
 62
7
  6
CONTINUOUS
 10
-13.1083470443
 20
-2.3226845611
 40
2.2
100
AcDbArc
 50
95.2351752652
 51
211.6347223807
  0
ARC
  5
44B
100
AcDbEntity
  8
0
100
AcDbCircle
 62
7
  6
CONTINUOUS
 10
-13.3911897568
 20
6.0459781311
 40
2.2
100
AcDbArc
 50
95.2351752652
 51
211.6347223807
  0
ARC
  5
44C
100
AcDbEntity
  8
0
100
AcDbCircle
 62
7
  6
CONTINUOUS
 10
-13.1083470443
 20
14.1317981108
 40
2.2
100
AcDbArc
 50
95.2351752652
 51
211.6347223807
  0
ARC
  5
44D
100
AcDbEntity
  8
0
100
AcDbCircle
 62
7
  6
CONTINUOUS
 10
16.7966429591
 20
-32.6545218954
 40
1.3
100
AcDbArc
 50
323.4443430508
 51
357.1894569537
  0
ARC
  5
44E
100
AcDbEntity
  8
RACCORDO
100
AcDbCircle
 62
7
  6
CONTINUOUS
 10
4.2866504484
 20
-38.9095181508
 40
1.3
100
AcDbArc
 50
244.384143104
 51
266.1351988523
  0
ELLIPSE
  5
44F
100
AcDbEntity
  8
0
100
AcDbEllipse
 62
7
  6
CONTINUOUS
 10
-69.6430548151
 20
467.9070499888
 30
0.0
 11
-236.6069866725
 21
478.804767105
 31
0.0
 40
0.6117587651
 41
-3.6286705194
 42
-3.628268688
  0
ENDSEC
  0
SECTION
  2
OBJECTS
  0
DICTIONARY
  5
C
100
AcDbDictionary
280
0
281
1
  3
ACAD_GROUP
350
D
  3
ACAD_MLINESTYLE
350
17
  3
ACAD_LAYOUT
350
1A
  3
ACAD_PLOTSETTINGS
350
19
  3
ACAD_PLOTSTYLENAME
350
E
  0
DICTIONARY
  5
D
102
{ACAD_REACTORS
330
C
102
}
100
AcDbDictionary
280
0
281
1
  0
ACDBDICTIONARYWDFLT
  5
E
102
{ACAD_REACTORS
330
C
102
}
100
AcDbDictionary
281
1
  3
Normal
350
F
100
AcDbDictionaryWithDefault
340
F
  0
DICTIONARY
  5
17
102
{ACAD_REACTORS
330
C
102
}
100
AcDbDictionary
280
0
281
1
  3
Standard
350
18
  0
DICTIONARY
  5
19
102
{ACAD_REACTORS
330
C
102
}
100
AcDbDictionary
281
1
  0
DICTIONARY
  5
1A
102
{ACAD_REACTORS
330
C
102
}
100
AcDbDictionary
281
1
  3
Model
350
450
  3
Layout1
350
451
  0
ACDBPLACEHOLDER
  5
F
102
{ACAD_REACTORS
330
E
102
}
  0
MLINESTYLE
  5
18
102
{ACAD_REACTORS
330
17
102
}
100
AcDbMlineStyle
  2
STANDARD
 70
0
  3

 62
256
 51
90.0
 52
90.0
 71
2
 49
0.5
 62
256
  6
BYLAYER
 49
-0.5
 62
256
  6
BYLAYER
  0
LAYOUT
  5
450
102
{ACAD_REACTORS
330
1A
102
}
100
AcDbPlotSettings
  1

  2
none_device
  4
ANSI_C_(22.00_x_17.00_Inches)
  6

 40
0.0
 41
0.0
 42
0.0
 43
0.0
 44
558.8
 45
431.8
 46
0.0
 47
0.0
 48
0.0
 49
0.0
140
0.0
141
0.0
142
1.0
143
1.0
 70
1024
 72
1
 73
0
 74
0
  7

 75
0
147
1.0
148
0.0
149
0.0
100
AcDbLayout
  1
Model
 70
0
 71
0
 10
0.0
 20
0.0
 11
558.8
 21
431.8
 12
0.0
 22
0.0
 32
0.0
 14
0.0
 24
0.0
 34
0.0
 15
0.0
 25
0.0
 35
0.0
146
0.0
 13
0.0
 23
0.0
 33
0.0
 16
1.0
 26
0.0
 36
0.0
 17
0.0
 27
1.0
 37
0.0
 76
0
330
215
345
0
346
0
  0
LAYOUT
  5
451
102
{ACAD_REACTORS
330
1A
102
}
100
AcDbPlotSettings
  1

  2
none_device
  4
ANSI_C_(22.00_x_17.00_Inches)
  6

 40
0.0
 41
0.0
 42
0.0
 43
0.0
 44
558.8
 45
431.8
 46
0.0
 47
0.0
 48
0.0
 49
0.0
140
0.0
141
0.0
142
1.0
143
1.0
 70
0
 72
1
 73
0
 74
0
  7

 75
0
147
1.0
148
0.0
149
0.0
100
AcDbLayout
  1
Layout1
 70
0
 71
1
 10
0.0
 20
0.0
 11
558.8
 21
431.8
 12
0.0
 22
0.0
 32
0.0
 14
0.0
 24
0.0
 34
0.0
 15
0.0
 25
0.0
 35
0.0
146
0.0
 13
0.0
 23
0.0
 33
0.0
 16
1.0
 26
0.0
 36
0.0
 17
0.0
 27
1.0
 37
0.0
 76
0
330
216
345
0
346
0
  0
ENDSEC
  0
EOF
