  0
SECTION
  2
HEADER
  9
$ACADVER
  1
AC1024
  9
$DWGCODEPAGE
  3
ANSI_1252
  9
$EXTMAX
 10
558.8
 20
431.8
 30
0.0
  9
$EXTMIN
 10
0.0
 20
0.0
 30
0.0
  9
$LIMMIN
 10
0.0
 20
0.0
  9
$LIMMAX
 10
558.8
 20
431.8
  9
$VIEWCTR
 10
279.4
 20
215.9
  9
$VIEWSIZE
 40
431.8
  9
$CLAYER
  8
0
  9
$LTSCALE
 40
30.734
  9
$CELTYPE
  6
BYLAYER
  9
$DIMSCALE
 40
1.0
  9
$DIMASZ
 40
3.0
  9
$DIMEXO
 40
0.5
  9
$DIMDLI
 40
21.2344
  9
$DIMEXE
 40
1.5
  9
$DIMCEN
 40
5.0292
  9
$DIMLFAC
 40
1.0
  9
$DIMBLK
  1
_FILLED
  9
$DIMALT
 70
0
  9
$DIMALTF
 40
0.0393700787
  9
$DIMTXT
 40
3.0
  9
$DIMTOL
 70
1
  9
$DIMLIM
 70
0
  9
$DIMTFAC
 40
1.0
  9
$DIMTP
 40
0.01
  9
$DIMTM
 40
0.01
  9
$DIMGAP
 40
0.625
  9
$DIMDSEP
 70
44
  9
$AUNITS
 70
0
  9
$PDMODE
 70
3
  9
$PDSIZE
 40
3.0
  9
$HANDSEED
  5
4ED
  9
$TILEMODE
 70
1
  9
$MEASUREMENT
 70
1
  9
$INSUNITS
 70
4
  0
ENDSEC
  0
SECTION
  2
CLASSES
  0
CLASS
  1
ACDBDICTIONARYWDFLT
  2
AcDbDictionaryWithDefault
  3
AutoCAD 2000
 90
0
 91
1
280
0
281
0
  0
CLASS
  1
ACDBPLACEHOLDER
  2
AcDbPlaceHolder
  3
AutoCAD 2000
 90
0
 91
1
280
0
281
0
  0
CLASS
  1
LAYOUT
  2
AcDbLayout
  3
AutoCAD 2000
 90
0
 91
0
280
0
281
0
  0
ENDSEC
  0
SECTION
  2
TABLES
  0
TABLE
  2
VPORT
  5
8
100
AcDbSymbolTable
 70
2
  0
VPORT
  5
1F4
100
AcDbSymbolTableRecord
100
AcDbViewportTableRecord
  2
*ACTIVE
 70
0
 10
0.0
 20
0.0
 11
1.0
 21
1.0
 12
279.4
 22
215.9
 13
0.0
 23
0.0
 14
1.0
 24
1.0
 15
0.0
 25
0.0
 16
0.0
 26
0.0
 36
1.0
 17
0.0
 27
0.0
 37
0.0
 40
431.8
 41
1.2941176471
 42
50.0
 43
0.0
 44
0.0
 50
0.0
 51
0.0
 71
0
 72
100
 73
1
 74
1
 75
0
 76
0
 77
0
 78
0
  0
ENDTAB
  0
TABLE
  2
LTYPE
  5
5
100
AcDbSymbolTable
 70
6
  0
LTYPE
  5
14
100
AcDbSymbolTableRecord
100
AcDbLinetypeTableRecord
  2
BYBLOCK
 70
0
  3

 72
65
 73
0
 40
0.0
  0
LTYPE
  5
15
100
AcDbSymbolTableRecord
100
AcDbLinetypeTableRecord
  2
BYLAYER
 70
0
  3

 72
65
 73
0
 40
0.0
  0
LTYPE
  5
16
100
AcDbSymbolTableRecord
100
AcDbLinetypeTableRecord
  2
CONTINUOUS
 70
64
  3
Solid line
 72
65
 73
0
 40
0.0
  0
LTYPE
  5
1F5
100
AcDbSymbolTableRecord
100
AcDbLinetypeTableRecord
  2
CENTER
 70
64
  3
____ _ ____ _ ____ _ ____ _ ____ _ ____ _ ____
 72
65
 73
4
 40
0.6
 49
0.375
 74
0
 49
-0.075
 74
0
 49
0.075
 74
0
 49
-0.075
 74
0
  0
LTYPE
  5
1F6
100
AcDbSymbolTableRecord
100
AcDbLinetypeTableRecord
  2
HIDDEN
 70
64
  3
- - - - - - - - - - - - - - - - - - - -
 72
65
 73
2
 40
0.2
 49
0.1
 74
0
 49
-0.1
 74
0
  0
LTYPE
  5
1F7
100
AcDbSymbolTableRecord
100
AcDbLinetypeTableRecord
  2
PHANTOM
 70
64
  3
_____ _ _ _____ _ _ _____ _ _ _____
 72
65
 73
6
 40
0.8
 49
0.45
 74
0
 49
-0.05
 74
0
 49
0.1
 74
0
 49
-0.05
 74
0
 49
0.1
 74
0
 49
-0.05
 74
0
  0
LTYPE
  5
1F8
100
AcDbSymbolTableRecord
100
AcDbLinetypeTableRecord
  2
DOT
 70
64
  3
. . . . . . . . . . . . . . . . . . . .
 72
65
 73
2
 40
0.2
 49
0.1
 74
0
 49
-0.1
 74
0
  0
LTYPE
  5
1F9
100
AcDbSymbolTableRecord
100
AcDbLinetypeTableRecord
  2
DASHED
 70
64
  3
- - - - - - - - - - - - - - - - - - - -
 72
65
 73
2
 40
0.2
 49
0.1
 74
0
 49
-0.1
 74
0
  0
ENDTAB
  0
TABLE
  2
LAYER
  5
2
100
AcDbSymbolTable
 70
36
  0
LAYER
  5
10
100
AcDbSymbolTableRecord
100
AcDbLayerTableRecord
  2
0
 70
0
 62
7
  6
CONTINUOUS
370
-3
390
F
  0
LAYER
  5
1FA
100
AcDbSymbolTableRecord
100
AcDbLayerTableRecord
  2
DEFAULT_1
 70
0
 62
7
  6
CENTER
370
-3
390
F
  0
LAYER
  5
1FB
100
AcDbSymbolTableRecord
100
AcDbLayerTableRecord
  2
DEFAULT_2
 70
0
 62
7
  6
HIDDEN
370
-3
390
F
  0
LAYER
  5
1FC
100
AcDbSymbolTableRecord
100
AcDbLayerTableRecord
  2
DEFAULT_3
 70
0
 62
7
  6
PHANTOM
370
-3
390
F
  0
LAYER
  5
1FD
100
AcDbSymbolTableRecord
100
AcDbLayerTableRecord
  2
ASSI
 70
0
 62
7
  6
CONTINUOUS
370
-3
390
F
  0
LAYER
  5
1FE
100
AcDbSymbolTableRecord
100
AcDbLayerTableRecord
  2
COLOR5
 70
0
 62
7
  6
CONTINUOUS
370
-3
390
F
  0
LAYER
  5
1FF
100
AcDbSymbolTableRecord
100
AcDbLayerTableRecord
  2
COORDINATE
 70
0
 62
7
  6
CONTINUOUS
370
-3
390
F
  0
LAYER
  5
200
100
AcDbSymbolTableRecord
100
AcDbLayerTableRecord
  2
COORD_ORIGINE
 70
0
 62
7
  6
CONTINUOUS
370
-3
390
F
  0
LAYER
  5
201
100
AcDbSymbolTableRecord
100
AcDbLayerTableRecord
  2
COSMETICHE
 70
0
 62
7
  6
CONTINUOUS
370
-3
390
F
  0
LAYER
  5
202
100
AcDbSymbolTableRecord
100
AcDbLayerTableRecord
  2
CURVE
 70
0
 62
7
  6
CONTINUOUS
370
-3
390
F
  0
LAYER
  5
203
100
AcDbSymbolTableRecord
100
AcDbLayerTableRecord
  2
DRAFT
 70
0
 62
7
  6
CONTINUOUS
370
-3
390
F
  0
LAYER
  5
204
100
AcDbSymbolTableRecord
100
AcDbLayerTableRecord
  2
IGES
 70
0
 62
7
  6
CONTINUOUS
370
-3
390
F
  0
LAYER
  5
205
100
AcDbSymbolTableRecord
100
AcDbLayerTableRecord
  2
INTF_1
 70
0
 62
7
  6
CONTINUOUS
370
-3
390
F
  0
LAYER
  5
206
100
AcDbSymbolTableRecord
100
AcDbLayerTableRecord
  2
INTF_11
 70
0
 62
7
  6
CONTINUOUS
370
-3
390
F
  0
LAYER
  5
207
100
AcDbSymbolTableRecord
100
AcDbLayerTableRecord
  2
INTF_2
 70
0
 62
7
  6
CONTINUOUS
370
-3
390
F
  0
LAYER
  5
208
100
AcDbSymbolTableRecord
100
AcDbLayerTableRecord
  2
INTF_3
 70
0
 62
7
  6
CONTINUOUS
370
-3
390
F
  0
LAYER
  5
209
100
AcDbSymbolTableRecord
100
AcDbLayerTableRecord
  2
INTF_YELLOW
 70
0
 62
7
  6
CONTINUOUS
370
-3
390
F
  0
LAYER
  5
20A
100
AcDbSymbolTableRecord
100
AcDbLayerTableRecord
  2
NOTE
 70
0
 62
7
  6
CONTINUOUS
370
-3
390
F
  0
LAYER
  5
20B
100
AcDbSymbolTableRecord
100
AcDbLayerTableRecord
  2
PIANI
 70
0
 62
7
  6
CONTINUOUS
370
-3
390
F
  0
LAYER
  5
20C
100
AcDbSymbolTableRecord
100
AcDbLayerTableRecord
  2
PIANI_ORIGINE
 70
0
 62
7
  6
CONTINUOUS
370
-3
390
F
  0
LAYER
  5
20D
100
AcDbSymbolTableRecord
100
AcDbLayerTableRecord
  2
PUNTI
 70
0
 62
7
  6
CONTINUOUS
370
-3
390
F
  0
LAYER
  5
20E
100
AcDbSymbolTableRecord
100
AcDbLayerTableRecord
  2
RACCORDO
 70
0
 62
7
  6
CONTINUOUS
370
-3
390
F
  0
LAYER
  5
20F
100
AcDbSymbolTableRecord
100
AcDbLayerTableRecord
  2
SNAPLINE
 70
0
 62
7
  6
CONTINUOUS
370
-3
390
F
  0
LAYER
  5
210
100
AcDbSymbolTableRecord
100
AcDbLayerTableRecord
  2
SUPERFICI
 70
0
 62
7
  6
CONTINUOUS
370
-3
390
F
  0
LAYER
  5
211
100
AcDbSymbolTableRecord
100
AcDbLayerTableRecord
  2
TRASH
 70
0
 62
7
  6
CONTINUOUS
370
-3
390
F
  0
LAYER
  5
212
100
AcDbSymbolTableRecord
100
AcDbLayerTableRecord
  2
XSEC_DATUMS
 70
0
 62
7
  6
CONTINUOUS
370
-3
390
F
  0
ENDTAB
  0
TABLE
  2
STYLE
  5
3
100
AcDbSymbolTable
 70
1
  0
STYLE
  5
11
100
AcDbSymbolTableRecord
100
AcDbTextStyleTableRecord
  2
STANDARD
 70
0
 40
0.0
 41
0.8
 50
0.0
 71
0
 42
0.2
  3
txt
  4

  0
STYLE
  5
213
100
AcDbSymbolTableRecord
100
AcDbTextStyleTableRecord
  2
TEXTSTYLE_1
 70
0
 40
0.0
 41
0.8
 50
0.0
 71
0
 42
0.2
  3
gdt
  4

  0
ENDTAB
  0
TABLE
  2
VIEW
  5
6
100
AcDbSymbolTable
 70
0
  0
ENDTAB
  0
TABLE
  2
UCS
  5
7
100
AcDbSymbolTable
 70
0
  0
ENDTAB
  0
TABLE
  2
APPID
  5
9
100
AcDbSymbolTable
 70
1
  0
APPID
  5
214
100
AcDbSymbolTableRecord
100
AcDbRegAppTableRecord
  2
ACAD
 70
0
  0
ENDTAB
  0
TABLE
  2
BLOCK_RECORD
  5
1
100
AcDbSymbolTable
 70
0
  0
BLOCK_RECORD
  5
215
100
AcDbSymbolTableRecord
100
AcDbBlockTableRecord
  2
*Model_Space
  0
BLOCK_RECORD
  5
216
100
AcDbSymbolTableRecord
100
AcDbBlockTableRecord
  2
*Paper_Space
  0
BLOCK_RECORD
  5
217
100
AcDbSymbolTableRecord
100
AcDbBlockTableRecord
  2
_FILLED
  0
ENDTAB
  0
TABLE
  2
DIMSTYLE
  5
A
100
AcDbSymbolTable
 70
1
100
AcDbDimStyleTable
 71
0
  0
DIMSTYLE
105
218
100
AcDbSymbolTableRecord
100
AcDbDimStyleTableRecord
  2
STANDARD
 70
0
  3

  4

 40
1.0
 41
3.0
 42
0.5
 43
0.38
 44
1.5
 45
0.0
 46
0.0
 47
0.01
 48
0.01
140
3.0
141
0.09
142
0.0
143
25.4
144
1.0
145
0.0
146
1.0
147
0.625
 71
1
 72
0
 73
0
 74
0
 75
0
 76
0
 77
1
 78
8
 79
2
170
0
171
1
172
0
173
0
174
0
175
0
176
0
177
0
178
0
270
2
179
2
271
2
272
2
273
2
274
2
275
0
280
0
281
0
282
0
283
1
284
8
285
0
286
0
287
3
288
0
340
11
278
44
341
217
342
217
343
217
344
217
  0
ENDTAB
  0
ENDSEC
  0
SECTION
  2
BLOCKS
  0
BLOCK
  5
20
100
AcDbEntity
  8
0
100
AcDbBlockBegin
  2
*Model_Space
 70
0
 10
0.0
 20
0.0
 30
0.0
  3
*Model_Space
  1

  0
ENDBLK
  5
21
100
AcDbEntity
  8
0
100
AcDbBlockEnd
  0
BLOCK
  5
1C
100
AcDbEntity
  8
0
100
AcDbBlockBegin
  2
*Paper_Space
 70
0
 10
0.0
 20
0.0
 30
0.0
  3
*Paper_Space
  1

  0
ENDBLK
  5
1D
100
AcDbEntity
  8
0
100
AcDbBlockEnd
  0
BLOCK
  5
219
100
AcDbEntity
  8
0
100
AcDbBlockBegin
  2
_FILLED
 70
64
 10
0.0
 20
0.0
  3
_FILLED
  1

  0
SOLID
  5
21A
100
AcDbEntity
  8
0
  6
BYBLOCK
 62
0
100
AcDbTrace
 10
0.0
 20
0.0
 11
-1.0
 21
0.3166666667
 12
-1.0
 22
-0.3166666667
 13
-1.0
 23
-0.3166666667
  0
ENDBLK
  5
21B
100
AcDbEntity
  8
0
  6
BYBLOCK
 62
0
100
AcDbBlockEnd
  0
ENDSEC
  0
SECTION
  2
ENTITIES
  0
LWPOLYLINE
  5
21C
100
AcDbEntity
  8
0
100
AcDbPolyline
 62
7
  6
CONTINUOUS
 90
9
 70
0
 10
-8.6912660993
 20
25.0361935134
 10
-9.0993466201
 20
24.8076795325
 10
-9.5584604233
 20
24.5251373373
 10
-10.0006345772
 20
24.2248800584
 10
-10.4253027347
 20
23.9074367081
 10
-10.8317876061
 20
23.5734760737
 10
-11.2195394466
 20
23.223656846
 10
-11.5881194145
 20
22.8587074853
 10
-11.7992152714
 20
22.6335366463
  0
LINE
  5
21D
100
AcDbEntity
  8
0
100
AcDbLine
 62
7
  6
CONTINUOUS
 10
-8.6911910378
 20
25.0362337014
 11
-8.6901305273
 21
25.0368012888
  0
LWPOLYLINE
  5
21E
100
AcDbEntity
  8
0
100
AcDbPolyline
 62
7
  6
CONTINUOUS
 90
3
 70
0
 10
-12.3943022814
 20
21.9590409283
 10
-12.5073410686
 20
21.8258432056
 10
-12.5412909607
 20
21.7855137454
  0
LWPOLYLINE
  5
21F
100
AcDbEntity
  8
0
100
AcDbPolyline
 62
7
  6
CONTINUOUS
 90
6
 70
0
 10
-11.9201911599
 20
22.5000565285
 10
-12.0049222021
 20
22.4054217748
 10
-12.0893556424
 20
22.3102401403
 10
-12.1734907175
 20
22.2145139075
 10
-12.2573264125
 20
22.1182456319
 10
-12.3943022814
 20
21.9590409283
  0
LINE
  5
220
100
AcDbEntity
  8
0
100
AcDbLine
 62
7
  6
CONTINUOUS
 10
-11.7994223711
 20
22.6334288463
 11
-11.9201911599
 21
22.5000565285
  0
LINE
  5
221
100
AcDbEntity
  8
0
100
AcDbLine
 62
7
  6
CONTINUOUS
 10
-11.7994223711
 20
22.6334288463
 11
-11.7992746724
 21
22.6335908438
  0
LWPOLYLINE
  5
222
100
AcDbEntity
  8
RACCORDO
100
AcDbPolyline
 62
7
  6
CONTINUOUS
 90
7
 70
0
 10
-20.0217870192
 20
4.3971182271
 10
-20.0243805654
 20
4.1730683765
 10
-20.0180479397
 20
3.685895213
 10
-19.9953851519
 20
3.1932055554
 10
-19.9563416332
 20
2.6952667965
 10
-19.9008671956
 20
2.1923666258
 10
-19.8547994463
 20
1.8549500874
  0
LINE
  5
223
100
AcDbEntity
  8
RACCORDO
100
AcDbLine
 62
7
  6
CONTINUOUS
 10
-20.0220227677
 20
4.3849857677
 11
-20.0218037329
 21
4.3964802109
  0
LINE
  5
224
100
AcDbEntity
  8
RACCORDO
100
AcDbLine
 62
7
  6
CONTINUOUS
 10
-19.8548016745
 20
1.8549281442
 11
-19.8048419294
 21
1.5153167961
  0
LINE
  5
225
100
AcDbEntity
  8
RACCORDO
100
AcDbLine
 62
250
  6
CONTINUOUS
 10
-19.1273964133
 20
0.8109765422
 11
-19.1445243152
 21
0.9273305099
  0
LINE
  5
226
100
AcDbEntity
  8
0
100
AcDbLine
 62
7
  6
CONTINUOUS
 10
-10.93348246
 20
-1.9699120409
 11
-10.4282405492
 21
-5.4013595118
  0
LINE
  5
227
100
AcDbEntity
  8
0
100
AcDbLine
 62
7
  6
CONTINUOUS
 10
-6.6916501588
 20
-3.3194640747
 11
-6.4709065419
 21
-4.818686744
  0
LINE
  5
228
100
AcDbEntity
  8
0
100
AcDbLine
 62
7
  6
CONTINUOUS
 10
17.0801760204
 20
-8.6239531011
 11
17.6122478483
 21
-8.7738222321
  0
LINE
  5
229
100
AcDbEntity
  8
0
100
AcDbLine
 62
7
  6
CONTINUOUS
 10
12.4680788171
 20
-8.1262935729
 11
12.321455955
 21
-8.0839940374
  0
LWPOLYLINE
  5
22A
100
AcDbEntity
  8
RACCORDO
100
AcDbPolyline
 62
250
  6
CONTINUOUS
 90
3
 70
0
 10
-9.8062159847
 20
-0.4267531148
 10
-10.1364966958
 20
-0.3219049909
 10
-10.4397003478
 20
-0.224157415
  0
LINE
  5
22B
100
AcDbEntity
  8
RACCORDO
100
AcDbLine
 62
250
  6
CONTINUOUS
 10
-9.8066162141
 20
-0.4273605516
 11
-10.4400725054
 21
-0.2247209808
  0
LINE
  5
22C
100
AcDbEntity
  8
RACCORDO
100
AcDbLine
 62
250
  6
CONTINUOUS
 10
-16.0196916147
 20
1.5867998576
 11
-17.0259966157
 21
1.9162039082
  0
LINE
  5
22D
100
AcDbEntity
  8
RACCORDO
100
AcDbLine
 62
250
  6
CONTINUOUS
 10
-16.0206680711
 20
1.5853499955
 11
-17.0259966157
 21
1.9162039082
  0
LINE
  5
22E
100
AcDbEntity
  8
RACCORDO
100
AcDbLine
 62
250
  6
CONTINUOUS
 10
-18.9294471562
 20
0.7450821765
 11
-19.1273964133
 21
0.8109765422
  0
LINE
  5
22F
100
AcDbEntity
  8
0
100
AcDbLine
 62
7
  6
CONTINUOUS
 10
-2.4615190572
 20
-4.6403220905
 11
-1.9277301929
 21
-8.2656516786
  0
LINE
  5
230
100
AcDbEntity
  8
0
100
AcDbLine
 62
7
  6
CONTINUOUS
 10
-6.6329235769
 20
-5.5988909112
 11
-6.6682343813
 21
-5.6570551277
  0
LINE
  5
231
100
AcDbEntity
  8
0
100
AcDbLine
 62
7
  6
CONTINUOUS
 10
18.7788845913
 20
-7.8355475599
 11
19.0047120914
 21
-7.8986332321
  0
LINE
  5
232
100
AcDbEntity
  8
0
100
AcDbLine
 62
7
  6
CONTINUOUS
 10
16.8870609096
 20
-7.3043757113
 11
16.9833662184
 21
-7.3315316137
  0
LINE
  5
233
100
AcDbEntity
  8
0
100
AcDbLine
 62
7
  6
CONTINUOUS
 10
12.754754561
 20
-6.1273905771
 11
12.899899816
 21
-6.1691228411
  0
LINE
  5
234
100
AcDbEntity
  8
0
100
AcDbLine
 62
7
  6
CONTINUOUS
 10
11.6031844653
 20
-5.7952775994
 11
11.7950500921
 21
-5.8507366525
  0
LINE
  5
235
100
AcDbEntity
  8
0
100
AcDbLine
 62
7
  6
CONTINUOUS
 10
10.6442613355
 20
-5.5173492875
 11
10.7401246648
 21
-5.5451899995
  0
LINE
  5
236
100
AcDbEntity
  8
0
100
AcDbLine
 62
7
  6
CONTINUOUS
 10
8.7988717212
 20
-4.9789678595
 11
8.9903450674
 21
-5.0350451871
  0
LINE
  5
237
100
AcDbEntity
  8
DRAFT
100
AcDbLine
 62
7
  6
CONTINUOUS
 10
3.2906251028
 20
-2.8564446791
 11
3.3718821128
 21
-2.8813979196
  0
LINE
  5
238
100
AcDbEntity
  8
0
100
AcDbLine
 62
7
  6
CONTINUOUS
 10
4.7116182686
 20
2.8387364773
 11
4.9319013662
 21
3.2805796552
  0
LINE
  5
239
100
AcDbEntity
  8
0
100
AcDbLine
 62
7
  6
CONTINUOUS
 10
6.8583407545
 20
2.7559539667
 11
6.9507051954
 21
2.8683361782
  0
LINE
  5
23A
100
AcDbEntity
  8
0
100
AcDbLine
 62
7
  6
CONTINUOUS
 10
6.9876274829
 20
2.8592790084
 11
6.8756877843
 21
2.7238603412
  0
LINE
  5
23B
100
AcDbEntity
  8
0
100
AcDbLine
 62
7
  6
CONTINUOUS
 10
6.8583407545
 20
2.7559539667
 11
6.8483550834
 21
2.7464533019
  0
LINE
  5
23C
100
AcDbEntity
  8
0
100
AcDbLine
 62
7
  6
CONTINUOUS
 10
5.4520653757
 20
1.7842426951
 11
5.1662271006
 21
1.6054136477
  0
LINE
  5
23D
100
AcDbEntity
  8
0
100
AcDbLine
 62
7
  6
CONTINUOUS
 10
31.5317326156
 20
-4.7546158635
 11
30.9684738898
 21
-4.635058327
  0
LINE
  5
23E
100
AcDbEntity
  8
0
100
AcDbLine
 62
7
  6
CONTINUOUS
 10
13.1758553324
 20
-1.8653248494
 11
13.3015057695
 21
-1.9012798529
  0
LINE
  5
23F
100
AcDbEntity
  8
ASSI
100
AcDbLine
 62
7
  6
CONTINUOUS
 10
28.1766355807
 20
-6.6299652512
 11
28.9153113798
 21
-6.8568054329
  0
LINE
  5
240
100
AcDbEntity
  8
ASSI
100
AcDbLine
 62
7
  6
CONTINUOUS
 10
29.892051138
 20
-6.2152716762
 11
30.5155198455
 21
-6.4067328761
  0
LINE
  5
241
100
AcDbEntity
  8
RACCORDO
100
AcDbLine
 62
250
  6
CONTINUOUS
 10
31.4795530503
 20
-6.0863096355
 11
31.4516097777
 21
-6.0777285272
  0
LINE
  5
242
100
AcDbEntity
  8
RACCORDO
100
AcDbLine
 62
250
  6
CONTINUOUS
 10
31.716172092
 20
-5.5977045882
 11
31.3905179776
 21
-5.4976993646
  0
LWPOLYLINE
  5
243
100
AcDbEntity
  8
RACCORDO
100
AcDbPolyline
 62
7
  6
CONTINUOUS
 90
3
 70
0
 10
3.1419771298
 20
-2.4528899571
 10
3.4585445436
 20
-3.0429235253
 10
3.6524084363
 20
-3.4524449312
  0
LINE
  5
244
100
AcDbEntity
  8
RACCORDO
100
AcDbLine
 62
7
  6
CONTINUOUS
 10
3.6523966003
 20
-3.4524184843
 11
3.6518523532
 21
-3.4512014109
  0
LINE
  5
245
100
AcDbEntity
  8
0
100
AcDbLine
 62
7
  6
CONTINUOUS
 10
1.7726386322
 20
-5.9377505246
 11
2.0296038144
 21
-7.6829789108
  0
LINE
  5
246
100
AcDbEntity
  8
0
100
AcDbLine
 62
7
  6
CONTINUOUS
 10
6.8746449481
 20
2.8844423432
 11
6.8583407545
 21
2.7559539667
  0
LINE
  5
247
100
AcDbEntity
  8
0
100
AcDbLine
 62
7
  6
CONTINUOUS
 10
7.5495926827
 20
0.9347079821
 11
7.5658968762
 21
1.0631963586
  0
LINE
  5
248
100
AcDbEntity
  8
0
100
AcDbLine
 62
7
  6
CONTINUOUS
 10
7.5658968762
 20
1.0631963586
 11
7.6105368746
 21
1.1560552263
  0
LINE
  5
249
100
AcDbEntity
  8
0
100
AcDbLine
 62
7
  6
CONTINUOUS
 10
7.5758825473
 20
1.0726970234
 11
7.614867542
 21
1.1536881776
  0
LINE
  5
24A
100
AcDbEntity
  8
0
100
AcDbLine
 62
7
  6
CONTINUOUS
 10
8.0405335838
 20
0.9911624869
 11
7.8245999779
 21
0.5752714619
  0
LINE
  5
24B
100
AcDbEntity
  8
0
100
AcDbLine
 62
7
  6
CONTINUOUS
 10
8.0526183378
 20
0.9878418069
 11
7.8401089693
 21
0.5802092706
  0
LINE
  5
24C
100
AcDbEntity
  8
0
100
AcDbLine
 62
7
  6
CONTINUOUS
 10
7.6624236122
 20
1.1279097033
 11
7.6388550078
 21
1.0860913944
  0
LINE
  5
24D
100
AcDbEntity
  8
0
100
AcDbLine
 62
7
  6
CONTINUOUS
 10
1.8675867794
 20
-8.463183078
 11
1.832275975
 21
-8.5213472945
  0
LINE
  5
24E
100
AcDbEntity
  8
0
100
AcDbLine
 62
7
  6
CONTINUOUS
 10
5.6925000877
 20
1.2396053296
 11
6.0039356196
 21
1.7327862041
  0
LINE
  5
24F
100
AcDbEntity
  8
0
100
AcDbLine
 62
7
  6
CONTINUOUS
 10
5.7080807405
 20
1.2252340571
 11
6.0310928907
 21
1.7335154018
  0
LINE
  5
250
100
AcDbEntity
  8
0
100
AcDbLine
 62
7
  6
CONTINUOUS
 10
7.6157337072
 20
1.130188896
 11
7.6272682613
 21
1.1469326797
  0
LINE
  5
251
100
AcDbEntity
  8
0
100
AcDbLine
 62
7
  6
CONTINUOUS
 10
7.5758825473
 20
1.0726970234
 11
7.5958540784
 21
1.1014427258
  0
LINE
  5
252
100
AcDbEntity
  8
0
100
AcDbLine
 62
7
  6
CONTINUOUS
 10
7.2066399152
 20
1.4082702832
 11
7.0720140473
 21
1.2274302171
  0
LINE
  5
253
100
AcDbEntity
  8
0
100
AcDbLine
 62
7
  6
CONTINUOUS
 10
7.2191818722
 20
1.3881063083
 11
7.0860910481
 21
1.2103449208
  0
LINE
  5
254
100
AcDbEntity
  8
0
100
AcDbLine
 62
7
  6
CONTINUOUS
 10
9.1068077934
 20
0.0318112239
 11
9.405202721
 21
0.4052198077
  0
LINE
  5
255
100
AcDbEntity
  8
0
100
AcDbLine
 62
7
  6
CONTINUOUS
 10
7.5658968762
 20
1.0631963586
 11
7.5758825473
 21
1.0726970234
  0
LINE
  5
256
100
AcDbEntity
  8
RACCORDO
100
AcDbLine
 62
7
  6
CONTINUOUS
 10
-10.3074313174
 20
6.4818851594
 11
-9.6082451114
 21
6.376091538
  0
LINE
  5
257
100
AcDbEntity
  8
0
100
AcDbLine
 62
7
  6
CONTINUOUS
 10
33.019412737
 20
-1.2276495932
 11
33.207917519
 21
-1.2604047962
  0
LWPOLYLINE
  5
258
100
AcDbEntity
  8
RACCORDO
100
AcDbPolyline
 62
7
  6
CONTINUOUS
 90
21
 70
0
 10
-9.6082451114
 20
6.376091538
 10
-8.8907040491
 20
6.2289741473
 10
-8.1586014217
 20
6.040976299
 10
-7.4156030617
 20
5.8125905484
 10
-6.6658095248
 20
5.5447067502
 10
-5.9134786645
 20
5.2386897345
 10
-5.1624387751
 20
4.8958543917
 10
-4.4166913942
 20
4.517838027
 10
-3.6805893724
 20
4.1068798482
 10
-2.9579783866
 20
3.6650982395
 10
-2.2524947147
 20
3.1947280357
 10
-1.5679674909
 20
2.698543196
 10
-0.9080151101
 20
2.1793235508
 10
-0.2757637999
 20
1.6397204565
 10
0.325899767
 20
1.0825761067
 10
0.8939614249
 20
0.5109430874
 10
1.4256304874
 20
-0.0720761296
 10
1.9185334464
 20
-0.6633309247
 10
2.3702932183
 20
-1.2595290941
 10
2.7787168499
 20
-1.8572645433
 10
3.1419771298
 20
-2.4528899571
  0
LINE
  5
259
100
AcDbEntity
  8
DRAFT
100
AcDbLine
 62
7
  6
CONTINUOUS
 10
33.1659215767
 20
-1.1663530065
 11
33.2255167382
 21
-1.1792584504
  0
LINE
  5
25A
100
AcDbEntity
  8
0
100
AcDbLine
 62
7
  6
CONTINUOUS
 10
12.8711904219
 20
0.764515937
 11
12.9867943273
 21
0.7314438777
  0
LINE
  5
25B
100
AcDbEntity
  8
RACCORDO
100
AcDbLine
 62
250
  6
CONTINUOUS
 10
17.2569116679
 20
1.930008257
 11
17.7775435219
 21
1.7785702963
  0
LINE
  5
25C
100
AcDbEntity
  8
RACCORDO
100
AcDbLine
 62
250
  6
CONTINUOUS
 10
17.2563028123
 20
1.9298855057
 11
17.7766054491
 21
1.7783623812
  0
LINE
  5
25D
100
AcDbEntity
  8
RACCORDO
100
AcDbLine
 62
250
  6
CONTINUOUS
 10
16.3953774641
 20
0.5667645633
 11
18.9784564973
 21
-0.1882207621
  0
LINE
  5
25E
100
AcDbEntity
  8
RACCORDO
100
AcDbLine
 62
250
  6
CONTINUOUS
 10
13.417326719
 20
3.0516499498
 11
14.3210476715
 21
2.7874486088
  0
LINE
  5
25F
100
AcDbEntity
  8
RACCORDO
100
AcDbLine
 62
250
  6
CONTINUOUS
 10
13.5993922425
 20
2.9982974437
 11
14.3201830752
 21
2.7872270288
  0
LINE
  5
260
100
AcDbEntity
  8
RACCORDO
100
AcDbLine
 62
250
  6
CONTINUOUS
 10
12.4838205269
 20
3.3254464413
 11
13.4833940957
 21
3.0322877826
  0
LINE
  5
261
100
AcDbEntity
  8
RACCORDO
100
AcDbLine
 62
250
  6
CONTINUOUS
 10
14.2737124981
 20
1.1895425111
 11
14.9091958958
 21
1.0029908454
  0
LINE
  5
262
100
AcDbEntity
  8
RACCORDO
100
AcDbLine
 62
250
  6
CONTINUOUS
 10
14.2727389667
 20
1.1893936937
 11
14.9081569572
 21
1.0028520978
  0
LINE
  5
263
100
AcDbEntity
  8
RACCORDO
100
AcDbLine
 62
250
  6
CONTINUOUS
 10
10.43904273
 20
3.9268049985
 11
11.0189776461
 21
3.7563937914
  0
LINE
  5
264
100
AcDbEntity
  8
RACCORDO
100
AcDbLine
 62
250
  6
CONTINUOUS
 10
12.4847161349
 20
3.3256932795
 11
13.417326719
 21
3.0516499498
  0
LINE
  5
265
100
AcDbEntity
  8
RACCORDO
100
AcDbLine
 62
250
  6
CONTINUOUS
 10
10.8931866256
 20
3.792916041
 11
11.0181215738
 21
3.7561560077
  0
LINE
  5
266
100
AcDbEntity
  8
RACCORDO
100
AcDbLine
 62
250
  6
CONTINUOUS
 10
10.5073109088
 20
3.9065001193
 11
10.8931866256
 21
3.792916041
  0
LINE
  5
267
100
AcDbEntity
  8
RACCORDO
100
AcDbLine
 62
250
  6
CONTINUOUS
 10
9.2646385814
 20
2.6652194804
 11
10.204933516
 21
2.3876082096
  0
LINE
  5
268
100
AcDbEntity
  8
RACCORDO
100
AcDbLine
 62
250
  6
CONTINUOUS
 10
6.9237910293
 20
4.9647132859
 11
7.367595362
 21
4.8336234437
  0
LINE
  5
269
100
AcDbEntity
  8
RACCORDO
100
AcDbLine
 62
250
  6
CONTINUOUS
 10
8.539261676
 20
2.8798163897
 11
9.2646385814
 21
2.6652194804
  0
LINE
  5
26A
100
AcDbEntity
  8
RACCORDO
100
AcDbLine
 62
250
  6
CONTINUOUS
 10
8.5402920883
 20
2.8800569822
 11
9.8443795682
 21
2.4939062629
  0
LINE
  5
26B
100
AcDbEntity
  8
RACCORDO
100
AcDbLine
 62
250
  6
CONTINUOUS
 10
6.4236762945
 20
5.1128949112
 11
6.9237911334
 21
4.9647177098
  0
LINE
  5
26C
100
AcDbEntity
  8
RACCORDO
100
AcDbLine
 62
250
  6
CONTINUOUS
 10
6.4242621445
 20
5.1130525231
 11
6.9237910293
 21
4.9647132859
  0
LINE
  5
26D
100
AcDbEntity
  8
RACCORDO
100
AcDbLine
 62
250
  6
CONTINUOUS
 10
5.2476009709
 20
3.8563625632
 11
6.7013485313
 21
3.4245828581
  0
LINE
  5
26E
100
AcDbEntity
  8
RACCORDO
100
AcDbLine
 62
250
  6
CONTINUOUS
 10
3.9855818798
 20
4.2323185889
 11
6.6033948792
 21
3.4535877168
  0
LINE
  5
26F
100
AcDbEntity
  8
RACCORDO
100
AcDbLine
 62
250
  6
CONTINUOUS
 10
3.9849075574
 20
4.2321776773
 11
5.2476009709
 21
3.8563625632
  0
LINE
  5
270
100
AcDbEntity
  8
DRAFT
100
AcDbLine
 62
7
  6
CONTINUOUS
 10
31.5571642359
 20
-4.7290133174
 11
30.9510972602
 21
-4.5428960207
  0
LINE
  5
271
100
AcDbEntity
  8
DRAFT
100
AcDbLine
 62
7
  6
CONTINUOUS
 10
30.9085479129
 20
-3.9477345455
 11
31.9268118629
 21
-4.2604335397
  0
LINE
  5
272
100
AcDbEntity
  8
0
100
AcDbLine
 62
7
  6
CONTINUOUS
 10
7.0720140473
 20
1.2274302171
 11
7.0860910481
 21
1.2103449208
  0
LINE
  5
273
100
AcDbEntity
  8
0
100
AcDbLine
 62
7
  6
CONTINUOUS
 10
10.2157741477
 20
-6.8105483644
 11
10.1218914059
 21
-6.6261545607
  0
LINE
  5
274
100
AcDbEntity
  8
0
100
AcDbLine
 62
7
  6
CONTINUOUS
 10
5.9952174388
 20
-7.2073156777
 11
6.494481511
 21
-10.5981635099
  0
LINE
  5
275
100
AcDbEntity
  8
0
100
AcDbLine
 62
7
  6
CONTINUOUS
 10
6.5129947172
 20
3.1924282306
 11
6.6230436191
 21
2.4450099781
  0
LINE
  5
276
100
AcDbEntity
  8
0
100
AcDbLine
 62
7
  6
CONTINUOUS
 10
6.7323905493
 20
1.7023593012
 11
6.9316029107
 21
0.3493702892
  0
LINE
  5
277
100
AcDbEntity
  8
0
100
AcDbLine
 62
7
  6
CONTINUOUS
 10
8.4614496793
 20
0.5933627478
 11
8.4615927533
 21
0.611555671
  0
LINE
  5
278
100
AcDbEntity
  8
0
100
AcDbLine
 62
7
  6
CONTINUOUS
 10
11.1222586954
 20
0.7120366159
 11
11.1089277749
 21
0.6911625573
  0
LINE
  5
279
100
AcDbEntity
  8
0
100
AcDbLine
 62
7
  6
CONTINUOUS
 10
11.7466640178
 20
0.315222576
 11
11.7333332412
 21
0.2943487428
  0
LINE
  5
27A
100
AcDbEntity
  8
0
100
AcDbLine
 62
7
  6
CONTINUOUS
 10
12.0835490226
 20
0.6171251468
 11
12.0702173715
 21
0.5962499443
  0
LINE
  5
27B
100
AcDbEntity
  8
0
100
AcDbLine
 62
7
  6
CONTINUOUS
 10
8.7855495543
 20
-4.9998282114
 11
8.7988717212
 21
-4.9789678595
  0
LINE
  5
27C
100
AcDbEntity
  8
0
100
AcDbLine
 62
7
  6
CONTINUOUS
 10
12.8711904219
 20
0.764515937
 11
12.857857715
 21
0.7436390812
  0
LINE
  5
27D
100
AcDbEntity
  8
0
100
AcDbLine
 62
7
  6
CONTINUOUS
 10
9.3600477273
 20
-5.1679331008
 11
9.3733700719
 21
-5.1470724706
  0
LINE
  5
27E
100
AcDbEntity
  8
RACCORDO
100
AcDbLine
 62
7
  6
CONTINUOUS
 10
-12.7657186862
 20
6.5057648611
 11
-12.775004884
 21
6.5046150276
  0
LWPOLYLINE
  5
27F
100
AcDbEntity
  8
RACCORDO
100
AcDbPolyline
 62
7
  6
CONTINUOUS
 90
5
 70
0
 10
-12.7656579617
 20
6.505725937
 10
-12.2575092236
 20
6.5523553348
 10
-11.6358843273
 20
6.5696438195
 10
-10.9845393702
 20
6.5463066145
 10
-10.3074313174
 20
6.4818851594
  0
LINE
  5
280
100
AcDbEntity
  8
RACCORDO
100
AcDbLine
 62
250
  6
CONTINUOUS
 10
33.2080641299
 20
-1.2598516497
 11
34.2768676284
 21
-1.5880708495
  0
LINE
  5
281
100
AcDbEntity
  8
RACCORDO
100
AcDbLine
 62
7
  6
CONTINUOUS
 10
33.4125063302
 20
-0.9609061387
 11
34.4795687099
 21
-1.2885906579
  0
LINE
  5
282
100
AcDbEntity
  8
0
100
AcDbLine
 62
7
  6
CONTINUOUS
 10
33.3862973655
 20
-0.3690805949
 11
34.4551008641
 21
-0.6972997948
  0
LINE
  5
283
100
AcDbEntity
  8
RACCORDO
100
AcDbLine
 62
7
  6
CONTINUOUS
 10
31.5135224607
 20
1.8586639169
 11
30.8900537532
 21
2.0501251169
  0
LINE
  5
284
100
AcDbEntity
  8
0
100
AcDbLine
 62
7
  6
CONTINUOUS
 10
13.1332689801
 20
-0.6842125361
 11
13.4073056074
 21
-0.9203243065
  0
LINE
  5
285
100
AcDbEntity
  8
0
100
AcDbLine
 62
7
  6
CONTINUOUS
 10
13.3542425439
 20
-0.4817927759
 11
13.2286458574
 21
-0.3734346792
  0
LINE
  5
286
100
AcDbEntity
  8
0
100
AcDbLine
 62
7
  6
CONTINUOUS
 10
12.3563062753
 20
0.3483317187
 11
12.0702173715
 21
0.5962499443
  0
LINE
  5
287
100
AcDbEntity
  8
0
100
AcDbLine
 62
7
  6
CONTINUOUS
 10
12.3700919039
 20
0.3688134075
 11
12.0835490226
 21
0.6171251468
  0
LINE
  5
288
100
AcDbEntity
  8
0
100
AcDbLine
 62
7
  6
CONTINUOUS
 10
14.3598831958
 20
-7.9296247369
 11
14.2780738528
 21
-7.7575442612
  0
LINE
  5
289
100
AcDbEntity
  8
0
100
AcDbLine
 62
7
  6
CONTINUOUS
 10
10.2219097947
 20
-8.4540418658
 11
10.4518155184
 21
-10.0154907421
  0
LINE
  5
28A
100
AcDbEntity
  8
0
100
AcDbLine
 62
7
  6
CONTINUOUS
 10
10.2897984833
 20
-10.7956949093
 11
10.2544876789
 21
-10.8538591258
  0
LINE
  5
28B
100
AcDbEntity
  8
0
100
AcDbLine
 62
7
  6
CONTINUOUS
 10
14.0507591677
 20
0.4278476429
 11
14.0374259139
 21
0.4069699308
  0
LINE
  5
28C
100
AcDbEntity
  8
0
100
AcDbLine
 62
7
  6
CONTINUOUS
 10
14.0893681985
 20
0.0999127141
 11
14.0760355354
 21
0.0790359269
  0
LINE
  5
28D
100
AcDbEntity
  8
0
100
AcDbLine
 62
7
  6
CONTINUOUS
 10
12.976722669
 20
-1.7241902531
 11
12.9633941568
 21
-1.7450605407
  0
LINE
  5
28E
100
AcDbEntity
  8
0
100
AcDbLine
 62
7
  6
CONTINUOUS
 10
10.6309385636
 20
-5.5382105867
 11
10.6442613355
 21
-5.5173492875
  0
LINE
  5
28F
100
AcDbEntity
  8
0
100
AcDbLine
 62
7
  6
CONTINUOUS
 10
13.8252301986
 20
-0.6264279531
 11
13.8118991212
 21
-0.6473022573
  0
LINE
  5
290
100
AcDbEntity
  8
0
100
AcDbLine
 62
7
  6
CONTINUOUS
 10
13.1758553324
 20
-1.8653248494
 11
13.1625268577
 21
-1.8861950784
  0
LINE
  5
291
100
AcDbEntity
  8
0
100
AcDbLine
 62
7
  6
CONTINUOUS
 10
11.2062156695
 20
-5.7050957935
 11
11.2195386503
 21
-5.6842341672
  0
LINE
  5
292
100
AcDbEntity
  8
0
100
AcDbLine
 62
7
  6
CONTINUOUS
 10
14.9279708849
 20
-0.1966364199
 11
14.9146379189
 21
-0.2175136814
  0
LINE
  5
293
100
AcDbEntity
  8
0
100
AcDbLine
 62
7
  6
CONTINUOUS
 10
11.5898613398
 20
-5.8161394523
 11
11.6031844653
 21
-5.7952775994
  0
LINE
  5
294
100
AcDbEntity
  8
0
100
AcDbLine
 62
7
  6
CONTINUOUS
 10
14.0061474568
 20
-2.1025183319
 11
13.9928186019
 21
-2.1233891562
  0
LINE
  5
295
100
AcDbEntity
  8
0
100
AcDbLine
 62
7
  6
CONTINUOUS
 10
10.5853736112
 20
-7.5809103969
 11
10.5986954619
 21
-7.5600505402
  0
LINE
  5
296
100
AcDbEntity
  8
0
100
AcDbLine
 62
7
  6
CONTINUOUS
 10
14.3832133577
 20
-2.209929033
 11
14.3698843235
 21
-2.2308001379
  0
LINE
  5
297
100
AcDbEntity
  8
0
100
AcDbLine
 62
7
  6
CONTINUOUS
 10
14.5553125722
 20
-2.174757416
 11
14.5419833287
 21
-2.1956288487
  0
LINE
  5
298
100
AcDbEntity
  8
0
100
AcDbLine
 62
7
  6
CONTINUOUS
 10
12.1655356358
 20
-5.9823893784
 11
12.1788589864
 21
-5.9615271732
  0
LINE
  5
299
100
AcDbEntity
  8
0
100
AcDbLine
 62
7
  6
CONTINUOUS
 10
14.4236217764
 20
-2.5329229385
 11
14.4102931784
 21
-2.5537933605
  0
LINE
  5
29A
100
AcDbEntity
  8
0
100
AcDbLine
 62
7
  6
CONTINUOUS
 10
12.7414309757
 20
-6.1482531501
 11
12.754754561
 21
-6.1273905771
  0
LINE
  5
29B
100
AcDbEntity
  8
0
100
AcDbLine
 62
7
  6
CONTINUOUS
 10
15.5252539678
 20
-2.0683544647
 11
15.5119236495
 21
-2.0892275804
  0
LINE
  5
29C
100
AcDbEntity
  8
RACCORDO
100
AcDbLine
 62
250
  6
CONTINUOUS
 10
1.5679542149
 20
11.2665360401
 11
-0.0746810006
 21
11.7622697923
  0
LINE
  5
29D
100
AcDbEntity
  8
RACCORDO
100
AcDbLine
 62
250
  6
CONTINUOUS
 10
2.2447512558
 20
11.0591653895
 11
-0.0743645039
 21
11.7602715902
  0
LINE
  5
29E
100
AcDbEntity
  8
RACCORDO
100
AcDbLine
 62
250
  6
CONTINUOUS
 10
2.2443935188
 20
11.0614935862
 11
1.5679542149
 21
11.2665360401
  0
LINE
  5
29F
100
AcDbEntity
  8
RACCORDO
100
AcDbLine
 62
7
  6
CONTINUOUS
 10
30.0894321035
 20
2.8671907942
 11
29.4659633961
 21
3.0586519942
  0
LINE
  5
2A0
100
AcDbEntity
  8
ASSI
100
AcDbLine
 62
7
  6
CONTINUOUS
 10
32.8863641868
 20
3.5353226322
 11
33.5098328943
 21
3.3438614323
  0
LINE
  5
2A1
100
AcDbEntity
  8
ASSI
100
AcDbLine
 62
7
  6
CONTINUOUS
 10
31.6993568146
 20
4.8413221704
 11
32.4380326136
 21
4.6144819887
  0
LINE
  5
2A2
100
AcDbEntity
  8
RACCORDO
100
AcDbLine
 62
250
  6
CONTINUOUS
 10
12.2253882946
 20
7.9749499103
 11
10.1434934922
 21
8.6255487072
  0
LINE
  5
2A3
100
AcDbEntity
  8
RACCORDO
100
AcDbLine
 62
250
  6
CONTINUOUS
 10
10.5424548595
 20
8.5036040212
 11
10.1430864137
 21
8.6285108321
  0
LINE
  5
2A4
100
AcDbEntity
  8
RACCORDO
100
AcDbLine
 62
250
  6
CONTINUOUS
 10
12.2253464583
 20
7.9752641728
 11
10.5424548595
 21
8.5036040212
  0
LINE
  5
2A5
100
AcDbEntity
  8
0
100
AcDbLine
 62
7
  6
CONTINUOUS
 10
21.398455396
 20
-10.6234870986
 11
21.2332905124
 21
-10.3906528039
  0
LINE
  5
2A6
100
AcDbEntity
  8
0
100
AcDbLine
 62
7
  6
CONTINUOUS
 10
18.6957745046
 20
-9.871571557
 11
18.5584261919
 21
-9.6053379687
  0
LINE
  5
2A7
100
AcDbEntity
  8
0
100
AcDbLine
 62
7
  6
CONTINUOUS
 10
13.6334635895
 20
-8.4367883537
 11
13.6109093737
 21
-8.2803059561
  0
LINE
  5
2A8
100
AcDbEntity
  8
0
100
AcDbLine
 62
7
  6
CONTINUOUS
 10
12.4814013681
 20
-8.1054326196
 11
12.4472232307
 21
-7.8680943991
  0
LINE
  5
2A9
100
AcDbEntity
  8
0
100
AcDbLine
 62
7
  6
CONTINUOUS
 10
13.0439811663
 20
-8.2921597143
 11
13.0098021959
 21
-8.0548213365
  0
LINE
  5
2AA
100
AcDbEntity
  8
0
100
AcDbLine
 62
7
  6
CONTINUOUS
 10
15.8775329985
 20
-9.0770719985
 11
15.8433541326
 21
-8.8397334355
  0
LINE
  5
2AB
100
AcDbEntity
  8
0
100
AcDbLine
 62
7
  6
CONTINUOUS
 10
13.4768674382
 20
-7.3394144661
 11
13.442448914
 21
-7.0947351565
  0
LINE
  5
2AC
100
AcDbEntity
  8
0
100
AcDbLine
 62
7
  6
CONTINUOUS
 10
12.7744851992
 20
-6.3873371646
 11
12.7414309757
 21
-6.1482531501
  0
LINE
  5
2AD
100
AcDbEntity
  8
0
100
AcDbLine
 62
7
  6
CONTINUOUS
 10
14.4102931784
 20
-2.5537933605
 11
14.3967958741
 21
-2.446170906
  0
LINE
  5
2AE
100
AcDbEntity
  8
0
100
AcDbLine
 62
7
  6
CONTINUOUS
 10
14.4236217764
 20
-2.5329229385
 11
14.4168697349
 21
-2.4791168435
  0
LINE
  5
2AF
100
AcDbEntity
  8
0
100
AcDbLine
 62
7
  6
CONTINUOUS
 10
14.3899307891
 20
-2.2637875731
 11
14.3832133577
 21
-2.209929033
  0
LINE
  5
2B0
100
AcDbEntity
  8
0
100
AcDbLine
 62
7
  6
CONTINUOUS
 10
14.0636007837
 20
0.3184939675
 11
14.0507591677
 21
0.4278476429
  0
LINE
  5
2B1
100
AcDbEntity
  8
0
100
AcDbLine
 62
7
  6
CONTINUOUS
 10
12.4680788171
 20
-8.1262935729
 11
12.4814013681
 21
-8.1054326196
  0
LINE
  5
2B2
100
AcDbEntity
  8
0
100
AcDbLine
 62
7
  6
CONTINUOUS
 10
13.6125230413
 20
-6.3982825616
 11
13.6258470001
 21
-6.377419404
  0
LINE
  5
2B3
100
AcDbEntity
  8
0
100
AcDbLine
 62
7
  6
CONTINUOUS
 10
16.1523288423
 20
-2.4609881432
 11
16.1389985318
 21
-2.4818612467
  0
LINE
  5
2B4
100
AcDbEntity
  8
0
100
AcDbLine
 62
7
  6
CONTINUOUS
 10
15.680659017
 20
-3.6464093551
 11
15.6673308273
 21
-3.6672791376
  0
LINE
  5
2B5
100
AcDbEntity
  8
0
100
AcDbLine
 62
7
  6
CONTINUOUS
 10
14.6893279493
 20
-6.7059389936
 11
14.7026524001
 21
-6.6850750657
  0
LINE
  5
2B6
100
AcDbEntity
  8
0
100
AcDbLine
 62
7
  6
CONTINUOUS
 10
13.6201405593
 20
-8.4576500573
 11
13.6334635895
 21
-8.4367883537
  0
LINE
  5
2B7
100
AcDbEntity
  8
0
100
AcDbLine
 62
7
  6
CONTINUOUS
 10
15.5616597645
 20
-6.9540271585
 11
15.5749846383
 21
-6.9331625681
  0
LINE
  5
2B8
100
AcDbEntity
  8
0
100
AcDbLine
 62
7
  6
CONTINUOUS
 10
14.7417039011
 20
-8.7785033955
 11
14.7550274348
 21
-8.7576409035
  0
LINE
  5
2B9
100
AcDbEntity
  8
0
100
AcDbLine
 62
7
  6
CONTINUOUS
 10
16.8737353581
 20
-7.3252413629
 11
16.8870609096
 21
-7.3043757113
  0
LINE
  5
2BA
100
AcDbEntity
  8
0
100
AcDbLine
 62
7
  6
CONTINUOUS
 10
15.8642089245
 20
-9.0979353366
 11
15.8775329985
 21
-9.0770719985
  0
LINE
  5
2BB
100
AcDbEntity
  8
0
100
AcDbLine
 62
7
  6
CONTINUOUS
 10
12.3151229313
 20
11.7993953856
 11
12.2010777483
 21
11.8350322328
  0
LINE
  5
2BC
100
AcDbEntity
  8
RACCORDO
100
AcDbLine
 62
7
  6
CONTINUOUS
 10
12.3151229313
 20
11.7993953856
 11
12.2010777483
 21
11.8350322328
  0
LINE
  5
2BD
100
AcDbEntity
  8
0
100
AcDbLine
 62
7
  6
CONTINUOUS
 10
12.3147144072
 20
11.802375782
 11
12.2006654553
 21
11.8380349694
  0
LINE
  5
2BE
100
AcDbEntity
  8
RACCORDO
100
AcDbLine
 62
7
  6
CONTINUOUS
 10
12.3147144072
 20
11.802375782
 11
12.2006654553
 21
11.8380349694
  0
LINE
  5
2BF
100
AcDbEntity
  8
0
100
AcDbLine
 62
7
  6
CONTINUOUS
 10
14.7128863076
 20
11.0491167814
 11
14.2360045638
 21
11.1991581507
  0
LINE
  5
2C0
100
AcDbEntity
  8
RACCORDO
100
AcDbLine
 62
7
  6
CONTINUOUS
 10
14.7128863076
 20
11.0491167814
 11
14.2360045638
 21
11.1991581507
  0
LINE
  5
2C1
100
AcDbEntity
  8
0
100
AcDbLine
 62
7
  6
CONTINUOUS
 10
14.7130060883
 20
11.0482101339
 11
14.34306851
 21
11.1657028008
  0
LINE
  5
2C2
100
AcDbEntity
  8
RACCORDO
100
AcDbLine
 62
7
  6
CONTINUOUS
 10
14.7130060883
 20
11.0482101339
 11
14.34306851
 21
11.1657028008
  0
LINE
  5
2C3
100
AcDbEntity
  8
0
100
AcDbLine
 62
7
  6
CONTINUOUS
 10
24.7820367327
 20
7.8150320931
 11
23.5847074766
 21
8.2056302404
  0
LINE
  5
2C4
100
AcDbEntity
  8
RACCORDO
100
AcDbLine
 62
7
  6
CONTINUOUS
 10
24.7820367327
 20
7.8150320931
 11
23.5847074766
 21
8.2056302404
  0
LINE
  5
2C5
100
AcDbEntity
  8
0
100
AcDbLine
 62
7
  6
CONTINUOUS
 10
25.9655734894
 20
7.4245403183
 11
23.7427611429
 21
8.153226263
  0
LINE
  5
2C6
100
AcDbEntity
  8
RACCORDO
100
AcDbLine
 62
7
  6
CONTINUOUS
 10
25.9655734894
 20
7.4245403183
 11
23.7427611429
 21
8.153226263
  0
LINE
  5
2C7
100
AcDbEntity
  8
0
100
AcDbLine
 62
7
  6
CONTINUOUS
 10
25.928350043
 20
7.4395535812
 11
24.7820367327
 21
7.8150320931
  0
LINE
  5
2C8
100
AcDbEntity
  8
RACCORDO
100
AcDbLine
 62
7
  6
CONTINUOUS
 10
25.928350043
 20
7.4395535812
 11
24.7820367327
 21
7.8150320931
  0
LINE
  5
2C9
100
AcDbEntity
  8
0
100
AcDbLine
 62
7
  6
CONTINUOUS
 10
25.965258473
 20
7.4274393595
 11
25.928350043
 21
7.4395535812
  0
LINE
  5
2CA
100
AcDbEntity
  8
RACCORDO
100
AcDbLine
 62
7
  6
CONTINUOUS
 10
25.965258473
 20
7.4274393595
 11
25.928350043
 21
7.4395535812
  0
LINE
  5
2CB
100
AcDbEntity
  8
0
100
AcDbLine
 62
7
  6
CONTINUOUS
 10
19.6601314281
 20
-10.1409848857
 11
19.5810986279
 21
-9.590059194
  0
LINE
  5
2CC
100
AcDbEntity
  8
0
100
AcDbLine
 62
7
  6
CONTINUOUS
 10
19.5810986279
 20
-9.590059194
 11
19.5454959318
 21
-9.3397511779
  0
LINE
  5
2CD
100
AcDbEntity
  8
0
100
AcDbLine
 62
7
  6
CONTINUOUS
 10
19.4778059924
 20
-8.9153591192
 11
19.4082694785
 21
-8.4183874297
  0
LINE
  5
2CE
100
AcDbEntity
  8
0
100
AcDbLine
 62
250
  6
CONTINUOUS
 10
28.0668748239
 20
7.1578684723
 11
28.1146748156
 21
7.2334735348
  0
LINE
  5
2CF
100
AcDbEntity
  8
0
100
AcDbLine
 62
7
  6
CONTINUOUS
 10
17.451662388
 20
-7.4880172545
 11
17.4649882537
 21
-7.4671511109
  0
LINE
  5
2D0
100
AcDbEntity
  8
0
100
AcDbLine
 62
7
  6
CONTINUOUS
 10
17.0668510559
 20
-8.6448178336
 11
17.0801760204
 21
-8.6239531011
  0
LINE
  5
2D1
100
AcDbEntity
  8
0
100
AcDbLine
 62
7
  6
CONTINUOUS
 10
16.8265845352
 20
-9.3704377343
 11
16.8399091014
 21
-9.3495736256
  0
LINE
  5
2D2
100
AcDbEntity
  8
0
100
AcDbLine
 62
7
  6
CONTINUOUS
 10
18.7655579755
 20
-7.856414878
 11
18.7788845913
 21
-7.8355475599
  0
LINE
  5
2D3
100
AcDbEntity
  8
0
100
AcDbLine
 62
7
  6
CONTINUOUS
 10
18.6824489141
 20
-9.8924372696
 11
18.6957745046
 21
-9.871571557
  0
LINE
  5
2D4
100
AcDbEntity
  8
0
100
AcDbLine
 62
7
  6
CONTINUOUS
 10
19.4644794826
 20
-8.9362262713
 11
19.4778059924
 21
-8.9153591192
  0
LINE
  5
2D5
100
AcDbEntity
  8
0
100
AcDbLine
 62
7
  6
CONTINUOUS
 10
20.1210420342
 20
-8.2340516061
 11
20.1343694578
 21
-8.2131830232
  0
LINE
  5
2D6
100
AcDbEntity
  8
0
100
AcDbLine
 62
250
  6
CONTINUOUS
 10
3.0420579637
 20
18.3266508719
 11
2.9974265693
 21
18.3400309064
  0
LINE
  5
2D7
100
AcDbEntity
  8
0
100
AcDbLine
 62
250
  6
CONTINUOUS
 10
12.6318599817
 20
15.3988259389
 11
12.4777625041
 21
15.4467039253
  0
LINE
  5
2D8
100
AcDbEntity
  8
0
100
AcDbLine
 62
250
  6
CONTINUOUS
 10
12.6320871602
 20
15.3972099689
 11
12.4779492491
 21
15.44537856
  0
LINE
  5
2D9
100
AcDbEntity
  8
0
100
AcDbLine
 62
250
  6
CONTINUOUS
 10
20.8292019892
 20
12.8129044751
 11
18.400281789
 21
13.584293836
  0
LINE
  5
2DA
100
AcDbEntity
  8
0
100
AcDbLine
 62
250
  6
CONTINUOUS
 10
18.9138339543
 20
13.4239730118
 11
18.3999047637
 21
13.5872242326
  0
LINE
  5
2DB
100
AcDbEntity
  8
0
100
AcDbLine
 62
250
  6
CONTINUOUS
 10
19.6181682687
 20
13.1997508802
 11
18.9138339543
 21
13.4239730118
  0
LINE
  5
2DC
100
AcDbEntity
  8
0
100
AcDbLine
 62
250
  6
CONTINUOUS
 10
20.8292020637
 20
12.8129038724
 11
19.6181682687
 21
13.1997508802
  0
LINE
  5
2DD
100
AcDbEntity
  8
0
100
AcDbLine
 62
250
  6
CONTINUOUS
 10
27.0763902672
 20
10.7908672485
 11
25.6913152512
 21
11.2429983109
  0
LINE
  5
2DE
100
AcDbEntity
  8
0
100
AcDbLine
 62
250
  6
CONTINUOUS
 10
29.7634985005
 20
9.9075097655
 11
25.6914230364
 21
11.2420483924
  0
LINE
  5
2DF
100
AcDbEntity
  8
0
100
AcDbLine
 62
250
  6
CONTINUOUS
 10
27.9108146109
 20
10.5174354398
 11
27.0763902672
 21
10.7908672485
  0
LINE
  5
2E0
100
AcDbEntity
  8
0
100
AcDbLine
 62
250
  6
CONTINUOUS
 10
29.7634985005
 20
9.9075097655
 11
27.9108146109
 21
10.5174354398
  0
LINE
  5
2E1
100
AcDbEntity
  8
0
100
AcDbLine
 62
7
  6
CONTINUOUS
 10
20.1688625026
 20
-9.132236283
 11
20.1821894536
 21
-9.1113684401
  0
LINE
  5
2E2
100
AcDbEntity
  8
0
100
AcDbLine
 62
7
  6
CONTINUOUS
 10
19.6468052663
 20
-10.1618514929
 11
19.6601314281
 21
-10.1409848857
  0
LINE
  5
2E3
100
AcDbEntity
  8
ASSI
100
AcDbLine
 62
7
  6
CONTINUOUS
 10
21.0641690495
 20
-9.3833779478
 11
21.0508415563
 21
-9.4042466397
  0
LINE
  5
2E4
100
AcDbEntity
  8
0
100
AcDbLine
 62
7
  6
CONTINUOUS
 10
21.3851281372
 20
-10.6443554236
 11
21.398455396
 21
-10.6234870986
  0
LWPOLYLINE
  5
2E5
100
AcDbEntity
  8
0
100
AcDbPolyline
 62
7
  6
CONTINUOUS
 90
10
 70
0
 10
-6.7055935733
 20
25.1607971187
 10
-6.7916601617
 20
25.1831399766
 10
-7.0675976599
 20
25.2411562955
 10
-7.3357615842
 20
25.2764776225
 10
-7.5966637526
 20
25.2891463932
 10
-7.8489703062
 20
25.2787846764
 10
-8.0890641767
 20
25.2456796283
 10
-8.3160226491
 20
25.1904155389
 10
-8.528879338
 20
25.1137859615
 10
-8.6902671439
 20
25.0367276319
  0
LWPOLYLINE
  5
2E6
100
AcDbEntity
  8
0
100
AcDbPolyline
 62
7
  6
CONTINUOUS
 90
9
 70
0
 10
27.6700501791
 20
14.5127995933
 10
23.4017873897
 20
15.9826828936
 10
19.1171014706
 20
17.4151678447
 10
14.8162123474
 20
18.8102279513
 10
10.4993449099
 20
20.167807504
 10
6.1667474038
 20
21.4877688598
 10
1.8186695396
 20
22.7699115647
 10
-2.5446252482
 20
24.0139911934
 10
-6.7060394733
 20
25.1609615034
  0
LINE
  5
2E7
100
AcDbEntity
  8
0
100
AcDbLine
 62
7
  6
CONTINUOUS
 10
27.6700501791
 20
14.5127995933
 11
31.727510842
 21
13.0752382459
  0
LINE
  5
2E8
100
AcDbEntity
  8
RACCORDO
100
AcDbLine
 62
250
  6
CONTINUOUS
 10
23.3584632911
 20
-5.7849234746
 11
23.3730243485
 21
-5.9121591535
  0
LINE
  5
2E9
100
AcDbEntity
  8
RACCORDO
100
AcDbLine
 62
250
  6
CONTINUOUS
 10
23.2724847607
 20
-5.0199042175
 11
23.2763632279
 21
-5.0540763954
  0
LINE
  5
2EA
100
AcDbEntity
  8
RACCORDO
100
AcDbLine
 62
250
  6
CONTINUOUS
 10
23.3592513803
 20
-5.7843826159
 11
23.3737025071
 21
-5.9117077819
  0
LINE
  5
2EB
100
AcDbEntity
  8
RACCORDO
100
AcDbLine
 62
250
  6
CONTINUOUS
 10
29.9515056023
 20
-6.8147966607
 11
29.2287451776
 21
-7.9465222183
  0
LINE
  5
2EC
100
AcDbEntity
  8
RACCORDO
100
AcDbLine
 62
7
  6
CONTINUOUS
 10
30.0290167222
 20
-6.7883042571
 11
29.2377898962
 21
-8.0272370906
  0
LINE
  5
2ED
100
AcDbEntity
  8
RACCORDO
100
AcDbLine
 62
250
  6
CONTINUOUS
 10
29.1472671091
 20
-7.9694260006
 11
29.1149152715
 21
-8.0156225129
  0
LINE
  5
2EE
100
AcDbEntity
  8
RACCORDO
100
AcDbLine
 62
7
  6
CONTINUOUS
 10
29.0074056083
 20
-8.2651825872
 11
29.120144075
 21
-8.1045526989
  0
LINE
  5
2EF
100
AcDbEntity
  8
RACCORDO
100
AcDbLine
 62
250
  6
CONTINUOUS
 10
27.3623794713
 20
-10.4066199968
 11
25.7494633183
 21
0.5478098236
  0
LINE
  5
2F0
100
AcDbEntity
  8
RACCORDO
100
AcDbLine
 62
7
  6
CONTINUOUS
 10
29.1472671091
 20
-7.9694260006
 11
28.9861789705
 21
-6.8753649701
  0
LINE
  5
2F1
100
AcDbEntity
  8
RACCORDO
100
AcDbLine
 62
7
  6
CONTINUOUS
 10
29.0739164439
 20
-6.8949731374
 11
29.2287451776
 21
-7.9465222183
  0
LINE
  5
2F2
100
AcDbEntity
  8
ASSI
100
AcDbLine
 62
7
  6
CONTINUOUS
 10
29.4659633961
 20
3.0586519942
 11
29.0916347985
 21
5.6009765558
  0
LINE
  5
2F3
100
AcDbEntity
  8
RACCORDO
100
AcDbLine
 62
7
  6
CONTINUOUS
 10
31.3915590671
 20
-5.494309191
 11
31.4446434268
 21
-5.8548418151
  0
LINE
  5
2F4
100
AcDbEntity
  8
RACCORDO
100
AcDbLine
 62
7
  6
CONTINUOUS
 10
30.8802646118
 20
2.1166099507
 11
30.8900537532
 21
2.0501251169
  0
LINE
  5
2F5
100
AcDbEntity
  8
RACCORDO
100
AcDbLine
 62
7
  6
CONTINUOUS
 10
32.3044017199
 20
1.1077655558
 11
32.3337187735
 21
0.9086531557
  0
LWPOLYLINE
  5
2F6
100
AcDbEntity
  8
0
100
AcDbPolyline
 62
7
  6
CONTINUOUS
 90
9
 70
0
 10
33.9490089305
 20
3.1118793565
 10
33.8429236889
 20
3.8249216798
 10
33.6629727121
 20
5.0247500693
 10
33.4815727924
 20
6.2240732591
 10
33.2985763145
 20
7.4228163587
 10
33.1137782665
 20
8.6209714978
 10
32.9269781407
 20
9.8184900641
 10
32.7379231525
 20
11.0152978644
 10
32.5708990585
 20
12.0587771482
  0
LINE
  5
2F7
100
AcDbEntity
  8
0
100
AcDbLine
 62
7
  6
CONTINUOUS
 10
33.4763224816
 20
-0.9805034606
 11
33.3862973655
 21
-0.3690805949
  0
LINE
  5
2F8
100
AcDbEntity
  8
RACCORDO
100
AcDbLine
 62
250
  6
CONTINUOUS
 10
32.8760116339
 20
4.392760374
 11
32.0008645504
 21
10.3364898669
  0
LINE
  5
2F9
100
AcDbEntity
  8
RACCORDO
100
AcDbLine
 62
7
  6
CONTINUOUS
 10
34.5081840995
 20
-1.0578247832
 11
34.4551008641
 21
-0.6972997948
  0
ARC
  5
2FA
100
AcDbEntity
  8
RACCORDO
100
AcDbCircle
 62
250
  6
CONTINUOUS
 10
-296.3293351312
 20
-971.5846276856
 40
1027.0073601088
100
AcDbArc
 50
71.7234375781
 51
72.1290883443
  0
ARC
  5
2FB
100
AcDbEntity
  8
0
100
AcDbCircle
 62
250
  6
CONTINUOUS
 10
-290.8944813903
 20
-960.9324243439
 40
1022.4243830471
100
AcDbArc
 50
71.9623272536
 51
72.2486472235
  0
ARC
  5
2FC
100
AcDbEntity
  8
0
100
AcDbCircle
 62
7
  6
CONTINUOUS
 10
-292.1223479754
 20
-961.5420116976
 40
1019.8438183291
100
AcDbArc
 50
72.0802967325
 51
72.3534218789
  0
ARC
  5
2FD
100
AcDbEntity
  8
RACCORDO
100
AcDbCircle
 62
7
  6
CONTINUOUS
 10
-292.1223479751
 20
-961.5420116968
 40
1019.8438183283
100
AcDbArc
 50
72.0802967325
 51
72.3534218789
  0
ARC
  5
2FE
100
AcDbEntity
  8
RACCORDO
100
AcDbCircle
 62
250
  6
CONTINUOUS
 10
-293.3244031731
 20
-962.284203228
 40
1017.2335442663
100
AcDbArc
 50
72.1294201821
 51
72.5199770118
  0
ARC
  5
2FF
100
AcDbEntity
  8
0
100
AcDbCircle
 62
7
  6
CONTINUOUS
 10
-290.3980046193
 20
-956.132441753
 40
1014.1660726583
100
AcDbArc
 50
72.3536095144
 51
72.4913943453
  0
ARC
  5
300
100
AcDbEntity
  8
RACCORDO
100
AcDbCircle
 62
7
  6
CONTINUOUS
 10
-290.398004619
 20
-956.1324417518
 40
1014.166072657
100
AcDbArc
 50
72.3536095144
 51
72.4913943453
  0
ARC
  5
301
100
AcDbEntity
  8
0
100
AcDbCircle
 62
250
  6
CONTINUOUS
 10
-287.4752420074
 20
-950.21481768
 40
1011.1745553599
100
AcDbArc
 50
72.3924855593
 51
72.7350593654
  0
ARC
  5
302
100
AcDbEntity
  8
RACCORDO
100
AcDbCircle
 62
7
  6
CONTINUOUS
 10
-289.2412123392
 20
-952.4633371232
 40
1010.3189308533
100
AcDbArc
 50
72.5197157016
 51
72.6339104449
  0
ARC
  5
303
100
AcDbEntity
  8
0
100
AcDbCircle
 62
7
  6
CONTINUOUS
 10
-289.241212339
 20
-952.4633371226
 40
1010.3189308527
100
AcDbArc
 50
72.5197157016
 51
72.6339104449
  0
ARC
  5
304
100
AcDbEntity
  8
RACCORDO
100
AcDbCircle
 62
250
  6
CONTINUOUS
 10
-289.2387064507
 20
-949.2781816612
 40
1003.6008616089
100
AcDbArc
 50
72.6440163162
 51
73.1158631201
  0
ARC
  5
305
100
AcDbEntity
  8
0
100
AcDbCircle
 62
250
  6
CONTINUOUS
 10
-284.1967099553
 20
-939.6644181011
 40
1000.1264910139
100
AcDbArc
 50
72.7442779178
 51
73.3094559472
  0
ARC
  5
306
100
AcDbEntity
  8
RACCORDO
100
AcDbCircle
 62
250
  6
CONTINUOUS
 10
-283.6228810761
 20
-930.6797727726
 40
984.1730464507
100
AcDbArc
 50
73.2552770264
 51
74.1215833732
  0
ARC
  5
307
100
AcDbEntity
  8
0
100
AcDbCircle
 62
250
  6
CONTINUOUS
 10
-279.3696385178
 20
-923.5826590654
 40
983.3359107292
100
AcDbArc
 50
73.3124613394
 51
74.1218889162
  0
ARC
  5
308
100
AcDbEntity
  8
0
100
AcDbCircle
 62
7
  6
CONTINUOUS
 10
-176.7691511525
 20
489.9694931178
 40
526.3325722655
100
AcDbArc
 50
291.2287562315
 51
291.3575939303
  0
ARC
  5
309
100
AcDbEntity
  8
0
100
AcDbCircle
 62
7
  6
CONTINUOUS
 10
-176.746529453
 20
489.9639994188
 40
526.3046294738
100
AcDbArc
 50
291.2288528458
 51
291.3576976933
  0
ARC
  5
30A
100
AcDbEntity
  8
0
100
AcDbCircle
 62
7
  6
CONTINUOUS
 10
-175.8557447966
 20
488.3143075599
 40
524.848279613
100
AcDbArc
 50
291.1903852489
 51
291.3134712315
  0
ARC
  5
30B
100
AcDbEntity
  8
0
100
AcDbCircle
 62
250
  6
CONTINUOUS
 10
-87.2144426945
 20
80.2899636974
 40
136.5213747
100
AcDbArc
 50
327.4360288036
 51
327.6097990865
  0
ARC
  5
30C
100
AcDbEntity
  8
0
100
AcDbCircle
 62
7
  6
CONTINUOUS
 10
-5.4720292334
 20
10.1609451239
 40
15.9010725469
100
AcDbArc
 50
325.2677955759
 51
325.3937319206
  0
ARC
  5
30D
100
AcDbEntity
  8
RACCORDO
100
AcDbCircle
 62
250
  6
CONTINUOUS
 10
-12.5893058978
 20
-8.4369740941
 40
15.3650662498
100
AcDbArc
 50
78.6508093756
 51
78.7887241913
  0
ARC
  5
30E
100
AcDbEntity
  8
RACCORDO
100
AcDbCircle
 62
250
  6
CONTINUOUS
 10
-6.7582144823
 20
4.1392721625
 40
13.2660740059
100
AcDbArc
 50
177.6502673074
 51
178.8891441891
  0
ARC
  5
30F
100
AcDbEntity
  8
RACCORDO
100
AcDbCircle
 62
250
  6
CONTINUOUS
 10
-10.8545354745
 20
-0.3410391356
 40
6.4663776659
100
AcDbArc
 50
114.6219030264
 51
114.8795587138
  0
ARC
  5
310
100
AcDbEntity
  8
DRAFT
100
AcDbCircle
 62
7
  6
CONTINUOUS
 10
5.0252075474
 20
-1.4680066717
 40
4.895790648
100
AcDbArc
 50
62.1314496964
 51
63.3881900557
  0
ARC
  5
311
100
AcDbEntity
  8
0
100
AcDbCircle
 62
7
  6
CONTINUOUS
 10
5.0410722253
 20
6.5893277449
 40
4.8941313689
100
AcDbArc
 50
276.7957640524
 51
276.9536120813
  0
ARC
  5
312
100
AcDbEntity
  8
DRAFT
100
AcDbCircle
 62
7
  6
CONTINUOUS
 10
5.032363675
 20
-1.4537865373
 40
4.8798714273
100
AcDbArc
 50
63.3885212303
 51
63.7921549671
  0
ARC
  5
313
100
AcDbEntity
  8
DRAFT
100
AcDbCircle
 62
7
  6
CONTINUOUS
 10
5.0471552369
 20
-1.4234259706
 40
4.846099614
100
AcDbArc
 50
63.7905335596
 51
65.3899084205
  0
ARC
  5
314
100
AcDbEntity
  8
DRAFT
100
AcDbCircle
 62
7
  6
CONTINUOUS
 10
5.0661035981
 20
-1.3823839664
 40
4.8008948804
100
AcDbArc
 50
65.3915264166
 51
65.8021612173
  0
ARC
  5
315
100
AcDbEntity
  8
0
100
AcDbCircle
 62
250
  6
CONTINUOUS
 10
5.3232679487
 20
-1.0363859561
 40
4.2892816231
100
AcDbArc
 50
62.4141049761
 51
62.7229629135
  0
ARC
  5
316
100
AcDbEntity
  8
RACCORDO
100
AcDbCircle
 62
250
  6
CONTINUOUS
 10
-13.8493739317
 20
2.2663976169
 40
4.2774135681
100
AcDbArc
 50
155.2375332316
 51
159.7448500531
  0
ARC
  5
317
100
AcDbEntity
  8
0
100
AcDbCircle
 62
250
  6
CONTINUOUS
 10
5.3495458932
 20
-0.9848912958
 40
4.2314701177
100
AcDbArc
 50
62.7196617764
 51
64.3674484902
  0
ARC
  5
318
100
AcDbEntity
  8
RACCORDO
100
AcDbCircle
 62
250
  6
CONTINUOUS
 10
-13.9087497155
 20
2.2931225811
 40
4.2123033614
100
AcDbArc
 50
152.9046056863
 51
155.2293404259
  0
ARC
  5
319
100
AcDbEntity
  8
RACCORDO
100
AcDbCircle
 62
250
  6
CONTINUOUS
 10
-13.9381237084
 20
2.3081603616
 40
4.1793038731
100
AcDbArc
 50
149.0910045561
 51
152.9047195364
  0
ARC
  5
31A
100
AcDbEntity
  8
0
100
AcDbCircle
 62
7
  6
CONTINUOUS
 10
3.9645792668
 20
2.7286965502
 40
4.0566870425
100
AcDbArc
 50
325.7867539009
 51
326.7147413525
  0
ARC
  5
31B
100
AcDbEntity
  8
0
100
AcDbCircle
 62
7
  6
CONTINUOUS
 10
-8.5392759209
 20
-4.5007922178
 40
2.2
100
AcDbArc
 50
226.6947886626
 51
327.436242848
  0
ARC
  5
31C
100
AcDbEntity
  8
0
100
AcDbCircle
 62
7
  6
CONTINUOUS
 10
-0.0387655646
 20
-7.3650843846
 40
2.2
100
AcDbArc
 50
226.6947886626
 51
327.436242848
  0
ARC
  5
31D
100
AcDbEntity
  8
0
100
AcDbCircle
 62
7
  6
CONTINUOUS
 10
-7.9487788286
 20
-4.839184393
 40
1.5194428651
100
AcDbArc
 50
326.2181678434
 51
327.434042259
  0
ARC
  5
31E
100
AcDbEntity
  8
0
100
AcDbCircle
 62
7
  6
CONTINUOUS
 10
0.5517315277
 20
-7.7034765597
 40
1.5194428651
100
AcDbArc
 50
326.2181678434
 51
327.434042259
  0
ARC
  5
31F
100
AcDbEntity
  8
RACCORDO
100
AcDbCircle
 62
7
  6
CONTINUOUS
 10
-28.8824159653
 20
32.5023769354
 40
70.8041337158
100
AcDbArc
 50
322.5579100146
 51
324.8457697418
  0
ARC
  5
320
100
AcDbEntity
  8
RACCORDO
100
AcDbCircle
 62
250
  6
CONTINUOUS
 10
-28.5025098678
 20
32.3792704237
 40
70.3670255157
100
AcDbArc
 50
322.55216098
 51
324.7402536554
  0
ARC
  5
321
100
AcDbEntity
  8
RACCORDO
100
AcDbCircle
 62
250
  6
CONTINUOUS
 10
-27.6174807541
 20
31.7491831116
 40
69.2806215703
100
AcDbArc
 50
324.7432146685
 51
324.9726621187
  0
ARC
  5
322
100
AcDbEntity
  8
0
100
AcDbCircle
 62
7
  6
CONTINUOUS
 10
-6.7537159544
 20
12.3105482301
 40
10.2953272228
100
AcDbArc
 50
140.0235671202
 51
147.410013105
  0
ARC
  5
323
100
AcDbEntity
  8
RACCORDO
100
AcDbCircle
 62
7
  6
CONTINUOUS
 10
-6.7537159544
 20
12.3105482301
 40
10.2953272228
100
AcDbArc
 50
140.0235671202
 51
147.410013105
  0
ARC
  5
324
100
AcDbEntity
  8
RACCORDO
100
AcDbCircle
 62
250
  6
CONTINUOUS
 10
-5.2547004095
 20
11.1105773056
 40
10.2843088434
100
AcDbArc
 50
156.2914195359
 51
176.50102165
  0
ARC
  5
325
100
AcDbEntity
  8
SUPERFICI
100
AcDbCircle
 62
7
  6
CONTINUOUS
 10
16.1660754651
 20
-2.318625558
 40
37.4859957034
100
AcDbArc
 50
147.4434357493
 51
157.1971193669
  0
ARC
  5
326
100
AcDbEntity
  8
0
100
AcDbCircle
 62
7
  6
CONTINUOUS
 10
16.1276566566
 20
-2.2996218778
 40
37.4433853761
100
AcDbArc
 50
144.9392445084
 51
145.7717009945
  0
ARC
  5
327
100
AcDbEntity
  8
0
100
AcDbCircle
 62
7
  6
CONTINUOUS
 10
16.1236913672
 20
-2.2975041932
 40
37.4389231259
100
AcDbArc
 50
139.9645621141
 51
144.9384113344
  0
ARC
  5
328
100
AcDbEntity
  8
RACCORDO
100
AcDbCircle
 62
250
  6
CONTINUOUS
 10
22.0952693777
 20
-6.3728826266
 40
6.6342660415
100
AcDbArc
 50
320.2855952883
 51
322.5538428471
  0
ARC
  5
329
100
AcDbEntity
  8
0
100
AcDbCircle
 62
7
  6
CONTINUOUS
 10
10.8811005773
 20
-1.4227400073
 40
5.7646120071
100
AcDbArc
 50
146.0359333767
 51
146.7939533586
  0
ARC
  5
32A
100
AcDbEntity
  8
0
100
AcDbCircle
 62
7
  6
CONTINUOUS
 10
12.8951732852
 20
-6.6172265441
 40
4.0724299297
100
AcDbArc
 50
46.8440731177
 51
49.1489051544
  0
ARC
  5
32B
100
AcDbEntity
  8
0
100
AcDbCircle
 62
7
  6
CONTINUOUS
 10
12.7352813154
 20
-2.4899331303
 40
3.1485687792
100
AcDbArc
 50
40.254736186
 51
46.1975741132
  0
ARC
  5
32C
100
AcDbEntity
  8
0
100
AcDbCircle
 62
7
  6
CONTINUOUS
 10
12.7527088388
 20
-2.4651488861
 40
3.1429148538
100
AcDbArc
 50
40.1019350693
 51
46.2021472877
  0
ARC
  5
32D
100
AcDbEntity
  8
0
100
AcDbCircle
 62
7
  6
CONTINUOUS
 10
8.3834461393
 20
-9.6975962159
 40
2.2
100
AcDbArc
 50
226.6947886626
 51
327.436242848
  0
ARC
  5
32E
100
AcDbEntity
  8
0
100
AcDbCircle
 62
7
  6
CONTINUOUS
 10
8.9739432316
 20
-10.0359883911
 40
1.5194428651
100
AcDbArc
 50
326.2181678434
 51
327.434042259
  0
ARC
  5
32F
100
AcDbEntity
  8
0
100
AcDbCircle
 62
7
  6
CONTINUOUS
 10
19.730555125
 20
-9.6351664762
 40
1.4545133461
100
AcDbArc
 50
69.6008023651
 51
74.4270287252
  0
ARC
  5
330
100
AcDbEntity
  8
0
100
AcDbCircle
 62
7
  6
CONTINUOUS
 10
14.9751535548
 20
-1.7429857459
 40
0.902590126
100
AcDbArc
 50
316.4580480437
 51
327.3965791997
  0
ARC
  5
331
100
AcDbEntity
  8
0
100
AcDbCircle
 62
7
  6
CONTINUOUS
 10
14.8362163938
 20
-1.6578057253
 40
0.801668406
100
AcDbArc
 50
327.4428037306
 51
335.8766804551
  0
ARC
  5
332
100
AcDbEntity
  8
0
100
AcDbCircle
 62
7
  6
CONTINUOUS
 10
20.3192293761
 20
-8.6197818048
 40
0.510331879
100
AcDbArc
 50
254.4231513522
 51
260.3685434365
  0
ARC
  5
333
100
AcDbEntity
  8
RACCORDO
100
AcDbCircle
 62
250
  6
CONTINUOUS
 10
17.8337618726
 20
0.9571592669
 40
35.5066984939
100
AcDbArc
 50
155.0379833756
 51
156.2704874875
  0
ARC
  5
334
100
AcDbEntity
  8
RACCORDO
100
AcDbCircle
 62
250
  6
CONTINUOUS
 10
14.1953951809
 20
1.6244499978
 40
33.6845850922
100
AcDbArc
 50
155.6803839893
 51
156.9423794835
  0
ARC
  5
335
100
AcDbEntity
  8
0
100
AcDbCircle
 62
250
  6
CONTINUOUS
 10
10.9944961561
 20
4.2211012907
 40
27.9201063492
100
AcDbArc
 50
138.2833708065
 51
139.8198591867
  0
ARC
  5
336
100
AcDbEntity
  8
0
100
AcDbCircle
 62
250
  6
CONTINUOUS
 10
8.3223003813
 20
4.2530276358
 40
27.2521096905
100
AcDbArc
 50
139.9583861786
 51
147.4265930224
  0
ARC
  5
337
100
AcDbEntity
  8
RACCORDO
100
AcDbCircle
 62
250
  6
CONTINUOUS
 10
8.2412950898
 20
4.3125016873
 40
27.1518274964
100
AcDbArc
 50
147.4403247639
 51
155.67503433
  0
ARC
  5
338
100
AcDbEntity
  8
0
100
AcDbCircle
 62
250
  6
CONTINUOUS
 10
10.0050120617
 20
4.8078039168
 40
26.7862595961
100
AcDbArc
 50
139.4131128178
 51
146.2956323191
  0
ARC
  5
339
100
AcDbEntity
  8
RACCORDO
100
AcDbCircle
 62
250
  6
CONTINUOUS
 10
9.9906207862
 20
4.8263574013
 40
26.7640652109
100
AcDbArc
 50
147.442528705
 51
155.4614878801
  0
ARC
  5
33A
100
AcDbEntity
  8
0
100
AcDbCircle
 62
250
  6
CONTINUOUS
 10
9.9307397355
 20
4.8610637551
 40
26.6949174469
100
AcDbArc
 50
146.3022712939
 51
147.4361490231
  0
ARC
  5
33B
100
AcDbEntity
  8
0
100
AcDbCircle
 62
7
  6
CONTINUOUS
 10
18.6633835168
 20
8.5187037483
 40
13.483902718
100
AcDbArc
 50
211.5190005659
 51
211.9909288511
  0
ARC
  5
33C
100
AcDbEntity
  8
RACCORDO
100
AcDbCircle
 62
7
  6
CONTINUOUS
 10
22.5418240859
 20
1.3925188342
 40
12.2732086256
100
AcDbArc
 50
345.6586680194
 51
346.7261536238
  0
ARC
  5
33D
100
AcDbEntity
  8
RACCORDO
100
AcDbCircle
 62
7
  6
CONTINUOUS
 10
22.4721815134
 20
1.3981237408
 40
11.0601208586
100
AcDbArc
 50
342.3857599878
 51
344.2308241091
  0
ARC
  5
33E
100
AcDbEntity
  8
RACCORDO
100
AcDbCircle
 62
7
  6
CONTINUOUS
 10
22.7164215107
 20
1.3302404293
 40
10.8066249045
100
AcDbArc
 50
344.2252740305
 51
346.1325627518
  0
ARC
  5
33F
100
AcDbEntity
  8
0
100
AcDbCircle
 62
7
  6
CONTINUOUS
 10
10.5142455143
 20
10.0399363948
 40
9.3808426793
100
AcDbArc
 50
252.9759116954
 51
257.0802832399
  0
ARC
  5
340
100
AcDbEntity
  8
0
100
AcDbCircle
 62
7
  6
CONTINUOUS
 10
12.410959073
 20
8.4934623439
 40
8.7558397092
100
AcDbArc
 50
237.838063632
 51
237.974612357
  0
ARC
  5
341
100
AcDbEntity
  8
0
100
AcDbCircle
 62
7
  6
CONTINUOUS
 10
11.1330742519
 20
7.1223865706
 40
8.0129247074
100
AcDbArc
 50
227.2364157687
 51
227.3879794612
  0
ARC
  5
342
100
AcDbEntity
  8
0
100
AcDbCircle
 62
7
  6
CONTINUOUS
 10
7.9873364434
 20
8.3074604458
 40
7.728653612
100
AcDbArc
 50
268.9084744133
 51
273.5170102542
  0
ARC
  5
343
100
AcDbEntity
  8
0
100
AcDbCircle
 62
7
  6
CONTINUOUS
 10
10.2533798664
 20
6.7048089472
 40
7.1193739276
100
AcDbArc
 50
230.3243445465
 51
235.1613985453
  0
ARC
  5
344
100
AcDbEntity
  8
0
100
AcDbCircle
 62
7
  6
CONTINUOUS
 10
9.465151135
 20
7.2286266797
 40
7.0782252477
100
AcDbArc
 50
232.6022311428
 51
237.7920337268
  0
ARC
  5
345
100
AcDbEntity
  8
0
100
AcDbCircle
 62
7
  6
CONTINUOUS
 10
5.841424245
 20
6.8309838619
 40
6.5625394185
100
AcDbArc
 50
287.5895713681
 51
287.7316735104
  0
ARC
  5
346
100
AcDbEntity
  8
0
100
AcDbCircle
 62
7
  6
CONTINUOUS
 10
10.1803149812
 20
3.7894870099
 40
4.9522957703
100
AcDbArc
 50
216.2452273746
 51
217.4821451438
  0
ARC
  5
347
100
AcDbEntity
  8
0
100
AcDbCircle
 62
7
  6
CONTINUOUS
 10
15.0589498687
 20
1.4019074769
 40
4.1769330793
100
AcDbArc
 50
235.4647158425
 51
236.4105829954
  0
ARC
  5
348
100
AcDbEntity
  8
0
100
AcDbCircle
 62
7
  6
CONTINUOUS
 10
15.0427325206
 20
1.3767355392
 40
4.171750448
100
AcDbArc
 50
235.4639070752
 51
241.9902104931
  0
ARC
  5
349
100
AcDbEntity
  8
0
100
AcDbCircle
 62
7
  6
CONTINUOUS
 10
15.0560191184
 20
1.3973459069
 40
4.1715117839
100
AcDbArc
 50
236.4094533088
 51
240.0603435843
  0
ARC
  5
34A
100
AcDbEntity
  8
0
100
AcDbCircle
 62
7
  6
CONTINUOUS
 10
15.0504606131
 20
1.38786901
 40
4.1605253842
100
AcDbArc
 50
240.0615407104
 51
241.9953280562
  0
ARC
  5
34B
100
AcDbEntity
  8
0
100
AcDbCircle
 62
7
  6
CONTINUOUS
 10
15.0346608743
 20
1.3673461219
 40
4.1346924807
100
AcDbArc
 50
232.2115868917
 51
235.4704724065
  0
ARC
  5
34C
100
AcDbEntity
  8
0
100
AcDbCircle
 62
7
  6
CONTINUOUS
 10
15.0068636647
 20
1.3090032054
 40
4.0951069646
100
AcDbArc
 50
241.9882352065
 51
245.3074807379
  0
ARC
  5
34D
100
AcDbEntity
  8
0
100
AcDbCircle
 62
7
  6
CONTINUOUS
 10
15.0201848343
 20
1.3298613042
 40
4.0950940751
100
AcDbArc
 50
241.9882431645
 51
245.3074991268
  0
ARC
  5
34E
100
AcDbEntity
  8
0
100
AcDbCircle
 62
7
  6
CONTINUOUS
 10
14.637071956
 20
0.7275705728
 40
2.9610624617
100
AcDbArc
 50
233.2349076536
 51
235.8938726784
  0
ARC
  5
34F
100
AcDbEntity
  8
0
100
AcDbCircle
 62
7
  6
CONTINUOUS
 10
14.6494904928
 20
0.0988314789
 40
2.8285275871
100
AcDbArc
 50
259.8024074858
 51
264.0428550831
  0
ARC
  5
350
100
AcDbEntity
  8
0
100
AcDbCircle
 62
7
  6
CONTINUOUS
 10
14.6628149436
 20
0.1196973116
 40
2.8285230502
100
AcDbArc
 50
259.8024656881
 51
264.0429223448
  0
ARC
  5
351
100
AcDbEntity
  8
0
100
AcDbCircle
 62
250
  6
CONTINUOUS
 10
7.978441377
 20
2.243496799
 40
2.6381320625
100
AcDbArc
 50
262.8897755298
 51
263.4282309521
  0
ARC
  5
352
100
AcDbEntity
  8
0
100
AcDbCircle
 62
7
  6
CONTINUOUS
 10
6.4534860584
 20
0.8165808246
 40
2.1118406385
100
AcDbArc
 50
69.9364759799
 51
70.9076130424
  0
ARC
  5
353
100
AcDbEntity
  8
0
100
AcDbCircle
 62
7
  6
CONTINUOUS
 10
8.1273689508
 20
0.9415947954
 40
1.8331348312
100
AcDbArc
 50
211.9368354994
 51
212.6031082102
  0
ARC
  5
354
100
AcDbEntity
  8
0
100
AcDbCircle
 62
7
  6
CONTINUOUS
 10
6.5549340074
 20
1.174492147
 40
1.7395817771
100
AcDbArc
 50
76.8506864232
 51
79.4096327131
  0
ARC
  5
355
100
AcDbEntity
  8
0
100
AcDbCircle
 62
250
  6
CONTINUOUS
 10
7.8538249192
 20
0.5846392105
 40
1.4451091161
100
AcDbArc
 50
8.3863232565
 51
11.4056094406
  0
ARC
  5
356
100
AcDbEntity
  8
0
100
AcDbCircle
 62
7
  6
CONTINUOUS
 10
12.4191105912
 20
-0.1426380854
 40
0.8131720664
100
AcDbArc
 50
147.4941425046
 51
159.8319650387
  0
ARC
  5
357
100
AcDbEntity
  8
0
100
AcDbCircle
 62
7
  6
CONTINUOUS
 10
12.6550979084
 20
-0.292944433
 40
0.6488189544
100
AcDbArc
 50
137.7240809211
 51
147.421654034
  0
ARC
  5
358
100
AcDbEntity
  8
RACCORDO
100
AcDbCircle
 62
250
  6
CONTINUOUS
 10
24.6215903332
 20
-10.7355398137
 40
1.6151214174
100
AcDbArc
 50
258.5757135817
 51
266.030257903
  0
ARC
  5
359
100
AcDbEntity
  8
RACCORDO
100
AcDbCircle
 62
250
  6
CONTINUOUS
 10
24.6726899254
 20
-10.7373283484
 40
1.6055529863
100
AcDbArc
 50
292.4458991434
 51
297.9574004602
  0
ARC
  5
35A
100
AcDbEntity
  8
RACCORDO
100
AcDbCircle
 62
250
  6
CONTINUOUS
 10
24.5952878003
 20
-10.8707721755
 40
1.4773588974
100
AcDbArc
 50
254.7617519679
 51
258.5367584652
  0
ARC
  5
35B
100
AcDbEntity
  8
RACCORDO
100
AcDbCircle
 62
250
  6
CONTINUOUS
 10
24.7369542401
 20
-10.8572680651
 40
1.4694826914
100
AcDbArc
 50
297.9365442974
 51
303.8188066946
  0
ARC
  5
35C
100
AcDbEntity
  8
RACCORDO
100
AcDbCircle
 62
7
  6
CONTINUOUS
 10
32.3026135468
 20
-6.0892946316
 40
0.8015197762
100
AcDbArc
 50
156.5127284596
 51
164.6387400828
  0
ARC
  5
35D
100
AcDbEntity
  8
RACCORDO
100
AcDbCircle
 62
7
  6
CONTINUOUS
 10
31.0842610478
 20
-5.9847140522
 40
0.4697477136
100
AcDbArc
 50
277.4246539524
 51
279.3233301842
  0
ARC
  5
35E
100
AcDbEntity
  8
RACCORDO
100
AcDbCircle
 62
7
  6
CONTINUOUS
 10
31.0562218768
 20
-5.9992075332
 40
0.4594506198
100
AcDbArc
 50
277.4724159356
 51
280.9487498071
  0
ARC
  5
35F
100
AcDbEntity
  8
RACCORDO
100
AcDbCircle
 62
7
  6
CONTINUOUS
 10
29.9091107226
 20
-6.4184189898
 40
0.384595107
100
AcDbArc
 50
290.2122459871
 51
293.0818997191
  0
ARC
  5
360
100
AcDbEntity
  8
RACCORDO
100
AcDbCircle
 62
7
  6
CONTINUOUS
 10
29.8845028715
 20
-6.4370339998
 40
0.3768672076
100
AcDbArc
 50
292.0448988694
 51
294.1548027997
  0
ARC
  5
361
100
AcDbEntity
  8
RACCORDO
100
AcDbCircle
 62
7
  6
CONTINUOUS
 10
29.889759908
 20
-6.4486469507
 40
0.3641198551
100
AcDbArc
 50
294.1477709107
 51
297.7756555339
  0
ARC
  5
362
100
AcDbEntity
  8
RACCORDO
100
AcDbCircle
 62
7
  6
CONTINUOUS
 10
28.980671799
 20
-7.9831824777
 40
0.2507675733
100
AcDbArc
 50
4.040212841
 51
8.4063220716
  0
ARC
  5
363
100
AcDbEntity
  8
RACCORDO
100
AcDbCircle
 62
7
  6
CONTINUOUS
 10
29.0041950631
 20
-7.9816132515
 40
0.2271922244
100
AcDbArc
 50
357.9249029308
 51
4.0634251245
  0
ARC
  5
364
100
AcDbEntity
  8
RACCORDO
100
AcDbCircle
 62
7
  6
CONTINUOUS
 10
29.0697387711
 20
-7.9925087597
 40
0.1603283644
100
AcDbArc
 50
320.5701534529
 51
327.3070604932
  0
ARC
  5
365
100
AcDbEntity
  8
RACCORDO
100
AcDbCircle
 62
7
  6
CONTINUOUS
 10
28.9925060116
 20
-8.0151543756
 40
0.1558321911
100
AcDbArc
 50
324.9925676913
 51
333.9936758866
  0
ARC
  5
366
100
AcDbEntity
  8
RACCORDO
100
AcDbCircle
 62
7
  6
CONTINUOUS
 10
27.0626702599
 20
-0.8982077307
 40
5.914580366
100
AcDbArc
 50
326.116670003
 51
327.4446024656
  0
ARC
  5
367
100
AcDbEntity
  8
RACCORDO
100
AcDbCircle
 62
7
  6
CONTINUOUS
 10
28.7475526253
 20
-3.9871122446
 40
3.0853425984
100
AcDbArc
 50
303.9995460136
 51
307.4778410731
  0
ARC
  5
368
100
AcDbEntity
  8
RACCORDO
100
AcDbCircle
 62
7
  6
CONTINUOUS
 10
28.8626494088
 20
-4.155438385
 40
2.8814329
100
AcDbArc
 50
302.4869377604
 51
303.9738077363
  0
ARC
  5
369
100
AcDbEntity
  8
RACCORDO
100
AcDbCircle
 62
7
  6
CONTINUOUS
 10
28.903207934
 20
-4.2187745575
 40
2.806223683
100
AcDbArc
 50
302.0623516427
 51
302.4829898805
  0
ARC
  5
36A
100
AcDbEntity
  8
RACCORDO
100
AcDbCircle
 62
7
  6
CONTINUOUS
 10
29.2847066468
 20
-4.9700349993
 40
1.9617661317
100
AcDbArc
 50
285.8042822607
 51
292.2017325295
  0
ARC
  5
36B
100
AcDbEntity
  8
RACCORDO
100
AcDbCircle
 62
7
  6
CONTINUOUS
 10
30.9183445487
 20
-4.9524840574
 40
1.5152247145
100
AcDbArc
 50
276.1934278743
 51
277.4949197581
  0
ARC
  5
36C
100
AcDbEntity
  8
RACCORDO
100
AcDbCircle
 62
7
  6
CONTINUOUS
 10
30.9240593835
 20
-5.0117812677
 40
1.4556572308
100
AcDbArc
 50
267.5666964924
 51
276.2216030685
  0
ARC
  5
36D
100
AcDbEntity
  8
RACCORDO
100
AcDbCircle
 62
7
  6
CONTINUOUS
 10
30.9215502191
 20
-5.0756709248
 40
1.3917186667
100
AcDbArc
 50
255.9046448032
 51
267.5582312041
  0
ARC
  5
36E
100
AcDbEntity
  8
RACCORDO
100
AcDbCircle
 62
7
  6
CONTINUOUS
 10
30.9180925417
 20
-5.0958863015
 40
1.3712707675
100
AcDbArc
 50
252.9278100073
 51
255.8390619326
  0
ARC
  5
36F
100
AcDbEntity
  8
RACCORDO
100
AcDbCircle
 62
250
  6
CONTINUOUS
 10
40.1108994779
 20
-3.5267960857
 40
10.1467030159
100
AcDbArc
 50
151.6854589019
 51
151.9055529039
  0
ARC
  5
370
100
AcDbEntity
  8
RACCORDO
100
AcDbCircle
 62
250
  6
CONTINUOUS
 10
39.5471165859
 20
-3.2183684318
 40
9.5040828594
100
AcDbArc
 50
149.7818938813
 51
151.7102823495
  0
ARC
  5
371
100
AcDbEntity
  8
RACCORDO
100
AcDbCircle
 62
250
  6
CONTINUOUS
 10
39.0211432069
 20
-2.9132685214
 40
8.896026356
100
AcDbArc
 50
149.1408499971
 51
149.7749567764
  0
ARC
  5
372
100
AcDbEntity
  8
RACCORDO
100
AcDbCircle
 62
250
  6
CONTINUOUS
 10
37.9955147134
 20
-2.4257283418
 40
8.4415068226
100
AcDbArc
 50
147.4463235533
 51
148.9409659421
  0
ARC
  5
373
100
AcDbEntity
  8
RACCORDO
100
AcDbCircle
 62
250
  6
CONTINUOUS
 10
38.4789582932
 20
-2.5870111384
 40
8.2632513598
100
AcDbArc
 50
147.4520293765
 51
149.1544876796
  0
ARC
  5
374
100
AcDbEntity
  8
0
100
AcDbCircle
 62
7
  6
CONTINUOUS
 10
37.7280683794
 20
-2.3156570307
 40
8.1128600252
100
AcDbArc
 50
147.443496062
 51
148.5903980907
  0
ARC
  5
375
100
AcDbEntity
  8
0
100
AcDbCircle
 62
7
  6
CONTINUOUS
 10
37.4038121872
 20
-2.1096924095
 40
7.7287211613
100
AcDbArc
 50
147.0600329417
 51
147.4368777431
  0
ARC
  5
376
100
AcDbEntity
  8
RACCORDO
100
AcDbCircle
 62
250
  6
CONTINUOUS
 10
38.6372760641
 20
-2.9191204066
 40
7.5048875278
100
AcDbArc
 50
148.9680861133
 51
149.8313232146
  0
ARC
  5
377
100
AcDbEntity
  8
RACCORDO
100
AcDbCircle
 62
250
  6
CONTINUOUS
 10
38.4211816894
 20
-2.7896119636
 40
7.2529569279
100
AcDbArc
 50
148.705545745
 51
148.9647149065
  0
ARC
  5
378
100
AcDbEntity
  8
RACCORDO
100
AcDbCircle
 62
250
  6
CONTINUOUS
 10
38.1303513647
 20
-2.6116557464
 40
6.9120028999
100
AcDbArc
 50
147.4448955397
 51
148.7138131001
  0
ARC
  5
379
100
AcDbEntity
  8
0
100
AcDbCircle
 62
7
  6
CONTINUOUS
 10
37.2861456513
 20
-2.2529491037
 40
5.8755647241
100
AcDbArc
 50
145.9744613167
 51
147.4460615289
  0
ARC
  5
37A
100
AcDbEntity
  8
RACCORDO
100
AcDbCircle
 62
7
  6
CONTINUOUS
 10
33.4158884647
 20
-1.2197911397
 40
1.1042385739
100
AcDbArc
 50
4.6089037814
 51
8.4337893649
  0
ARC
  5
37B
100
AcDbEntity
  8
RACCORDO
100
AcDbCircle
 62
7
  6
CONTINUOUS
 10
33.5985317067
 20
-1.2051449744
 40
0.9210090543
100
AcDbArc
 50
0.3046997665
 51
4.6137111779
  0
ARC
  5
37C
100
AcDbEntity
  8
RACCORDO
100
AcDbCircle
 62
7
  6
CONTINUOUS
 10
35.0658291826
 20
-1.7821794051
 40
0.8124507689
100
AcDbArc
 50
158.0061580441
 51
163.3654616414
  0
ARC
  5
37D
100
AcDbEntity
  8
RACCORDO
100
AcDbCircle
 62
7
  6
CONTINUOUS
 10
35.0649889982
 20
-1.7827584486
 40
0.8118118961
100
AcDbArc
 50
163.3093293251
 51
166.1241652781
  0
ARC
  5
37E
100
AcDbEntity
  8
RACCORDO
100
AcDbCircle
 62
7
  6
CONTINUOUS
 10
33.746846892
 20
-1.2043930928
 40
0.7726919687
100
AcDbArc
 50
355.4709888605
 51
0.3074335319
  0
ARC
  5
37F
100
AcDbEntity
  8
RACCORDO
100
AcDbCircle
 62
7
  6
CONTINUOUS
 10
33.8900650669
 20
-1.2886589928
 40
0.6126614889
100
AcDbArc
 50
350.3246167354
 51
353.4239536362
  0
ARC
  5
380
100
AcDbEntity
  8
RACCORDO
100
AcDbCircle
 62
7
  6
CONTINUOUS
 10
33.9462643913
 20
-1.2982795962
 40
0.5556446631
100
AcDbArc
 50
346.7665270685
 51
350.3285938869
  0
ARC
  5
381
100
AcDbEntity
  8
RACCORDO
100
AcDbCircle
 62
7
  6
CONTINUOUS
 10
33.9949652658
 20
-1.2377755042
 40
0.5219286498
100
AcDbArc
 50
343.7102548826
 51
347.1798768193
  0
ARC
  5
382
100
AcDbEntity
  8
RACCORDO
100
AcDbCircle
 62
250
  6
CONTINUOUS
 10
23.3302582064
 20
1.1547700498
 40
11.394993377
100
AcDbArc
 50
346.0604150666
 51
346.9813303738
  0
ARC
  5
383
100
AcDbEntity
  8
RACCORDO
100
AcDbCircle
 62
250
  6
CONTINUOUS
 10
23.5368087854
 20
1.1067151843
 40
11.1829265812
100
AcDbArc
 50
346.9828179869
 51
347.3601077866
  0
ARC
  5
384
100
AcDbEntity
  8
RACCORDO
100
AcDbCircle
 62
250
  6
CONTINUOUS
 10
23.6559740181
 20
1.0799599921
 40
11.0607947178
100
AcDbArc
 50
347.3602668981
 51
347.6370171554
  0
ARC
  5
385
100
AcDbEntity
  8
RACCORDO
100
AcDbCircle
 62
7
  6
CONTINUOUS
 10
30.7811234121
 20
2.3695247498
 40
2.9866140686
100
AcDbArc
 50
18.2338850145
 51
21.9753073787
  0
ARC
  5
386
100
AcDbEntity
  8
0
100
AcDbCircle
 62
7
  6
CONTINUOUS
 10
31.2874458629
 20
11.8519873452
 40
1.3
100
AcDbArc
 50
9.1519854307
 51
70.2578839717
  0
ARC
  5
387
100
AcDbEntity
  8
0
100
AcDbCircle
 62
250
  6
CONTINUOUS
 10
31.7958511529
 20
11.9351600169
 40
0.7847994471
100
AcDbArc
 50
353.8359633371
 51
9.0607247695
  0
ARC
  5
388
100
AcDbEntity
  8
0
100
AcDbCircle
 62
7
  6
CONTINUOUS
 10
164.141852459
 20
-132.3879023399
 40
207.3234858608
100
AcDbArc
 50
139.5166978381
 51
139.6670235295
  0
ARC
  5
389
100
AcDbEntity
  8
RACCORDO
100
AcDbCircle
 62
250
  6
CONTINUOUS
 10
154.5864797914
 20
-84.0075675499
 40
154.1057710031
100
AcDbArc
 50
145.8907377868
 51
146.7232204652
  0
ARC
  5
38A
100
AcDbEntity
  8
RACCORDO
100
AcDbCircle
 62
250
  6
CONTINUOUS
 10
144.4734533951
 20
-76.3527945326
 40
143.1478819181
100
AcDbArc
 50
146.0387738878
 51
146.9618021347
  0
ARC
  5
38B
100
AcDbEntity
  8
DRAFT
100
AcDbCircle
 62
7
  6
CONTINUOUS
 10
161.6061166714
 20
590.9613342169
 40
605.8977602241
100
AcDbArc
 50
257.6011965904
 51
257.7613974272
  0
ARC
  5
38C
100
AcDbEntity
  8
0
100
AcDbCircle
 62
7
  6
CONTINUOUS
 10
84.8881121799
 20
296.2258910219
 40
301.9420082109
100
AcDbArc
 50
259.8078494731
 51
260.1084604007
  0
ARC
  5
38D
100
AcDbEntity
  8
RACCORDO
100
AcDbCircle
 62
250
  6
CONTINUOUS
 10
236.1911711101
 20
769.6671477004
 40
808.4308627142
100
AcDbArc
 50
251.8215855535
 51
252.2373835308
  0
ARC
  5
38E
100
AcDbEntity
  8
0
100
AcDbCircle
 62
7
  6
CONTINUOUS
 10
697.0574413111
 20
-234.152101257
 40
717.0078787666
100
AcDbArc
 50
161.5575492908
 51
161.7159932222
  0
ARC
  5
38F
100
AcDbEntity
  8
0
100
AcDbCircle
 62
7
  6
CONTINUOUS
 10
688.3402292206
 20
-230.858123463
 40
713.5855647199
100
AcDbArc
 50
161.6075790262
 51
161.7662284825
  0
ARC
  5
390
100
AcDbEntity
  8
0
100
AcDbCircle
 62
7
  6
CONTINUOUS
 10
436.0671248343
 20
489.5844527158
 40
647.2115881628
100
AcDbArc
 50
229.1052730145
 51
229.2225494563
  0
ARC
  5
391
100
AcDbEntity
  8
0
100
AcDbCircle
 62
7
  6
CONTINUOUS
 10
596.4999589819
 20
-167.6152869316
 40
603.6517444987
100
AcDbArc
 50
164.5403371352
 51
164.6628621217
  0
ARC
  5
392
100
AcDbEntity
  8
0
100
AcDbCircle
 62
7
  6
CONTINUOUS
 10
592.2702845559
 20
-166.5148765969
 40
598.6819062774
100
AcDbArc
 50
164.5990990132
 51
164.7237764186
  0
ARC
  5
393
100
AcDbEntity
  8
0
100
AcDbCircle
 62
7
  6
CONTINUOUS
 10
377.8287476645
 20
242.8148593045
 40
437.7987431194
100
AcDbArc
 50
215.1886627329
 51
215.347030781
  0
ARC
  5
394
100
AcDbEntity
  8
0
100
AcDbCircle
 62
7
  6
CONTINUOUS
 10
378.3577807115
 20
242.7659874113
 40
437.7512832476
100
AcDbArc
 50
215.203952437
 51
215.3318762227
  0
ARC
  5
395
100
AcDbEntity
  8
0
100
AcDbCircle
 62
7
  6
CONTINUOUS
 10
378.2370142951
 20
242.6690954575
 40
437.6196671218
100
AcDbArc
 50
215.2009998689
 51
215.3692658967
  0
ARC
  5
396
100
AcDbEntity
  8
0
100
AcDbCircle
 62
7
  6
CONTINUOUS
 10
350.9465896027
 20
166.7844650955
 40
382.4038675412
100
AcDbArc
 50
206.7184860118
 51
206.9668602416
  0
ARC
  5
397
100
AcDbEntity
  8
0
100
AcDbCircle
 62
7
  6
CONTINUOUS
 10
350.795709614
 20
166.6942873352
 40
382.249831944
100
AcDbArc
 50
206.7184756724
 51
206.997965053
  0
ARC
  5
398
100
AcDbEntity
  8
0
100
AcDbCircle
 62
7
  6
CONTINUOUS
 10
349.3915312063
 20
166.3439018488
 40
381.2756333259
100
AcDbArc
 50
206.7049361082
 51
207.111672761
  0
ARC
  5
399
100
AcDbEntity
  8
0
100
AcDbCircle
 62
7
  6
CONTINUOUS
 10
355.9950553459
 20
164.2900449891
 40
379.6305198263
100
AcDbArc
 50
206.9033912823
 51
207.3110595962
  0
ARC
  5
39A
100
AcDbEntity
  8
0
100
AcDbCircle
 62
7
  6
CONTINUOUS
 10
355.411103717
 20
164.3484156451
 40
379.5778947007
100
AcDbArc
 50
207.0169355567
 51
207.1400613508
  0
ARC
  5
39B
100
AcDbEntity
  8
0
100
AcDbCircle
 62
7
  6
CONTINUOUS
 10
355.8671799681
 20
164.2381742001
 40
379.4716881366
100
AcDbArc
 50
206.90324439
 51
207.2658511368
  0
ARC
  5
39C
100
AcDbEntity
  8
0
100
AcDbCircle
 62
7
  6
CONTINUOUS
 10
350.6368005388
 20
152.0448568063
 40
372.3895814933
100
AcDbArc
 50
205.1773020169
 51
205.4121662263
  0
ARC
  5
39D
100
AcDbEntity
  8
0
100
AcDbCircle
 62
7
  6
CONTINUOUS
 10
350.4868444218
 20
151.9596906622
 40
372.2385741553
100
AcDbArc
 50
205.1772915871
 51
205.4415789362
  0
ARC
  5
39E
100
AcDbEntity
  8
0
100
AcDbCircle
 62
7
  6
CONTINUOUS
 10
348.5494796964
 20
151.3922237083
 40
370.695072878
100
AcDbArc
 50
205.303189512
 51
205.5715405493
  0
ARC
  5
39F
100
AcDbEntity
  8
0
100
AcDbCircle
 62
7
  6
CONTINUOUS
 10
378.241174417
 20
43.4484686452
 40
367.5218945083
100
AcDbArc
 50
186.7404286999
 51
186.870709113
  0
ARC
  5
3A0
100
AcDbEntity
  8
0
100
AcDbCircle
 62
7
  6
CONTINUOUS
 10
378.6892995201
 20
43.3183128598
 40
367.5166562681
100
AcDbArc
 50
186.7404037813
 51
186.8706861177
  0
ARC
  5
3A1
100
AcDbEntity
  8
0
100
AcDbCircle
 62
7
  6
CONTINUOUS
 10
378.6445151248
 20
43.3315020165
 40
367.4580387763
100
AcDbArc
 50
186.743265727
 51
186.8705804526
  0
ARC
  5
3A2
100
AcDbEntity
  8
0
100
AcDbCircle
 62
7
  6
CONTINUOUS
 10
373.9374177772
 20
42.7424417298
 40
362.7300060053
100
AcDbArc
 50
186.9336184735
 51
187.1050724613
  0
ARC
  5
3A3
100
AcDbEntity
  8
0
100
AcDbCircle
 62
7
  6
CONTINUOUS
 10
373.4829521907
 20
42.8718116954
 40
362.7288552596
100
AcDbArc
 50
186.9342159265
 51
187.1050929754
  0
ARC
  5
3A4
100
AcDbEntity
  8
0
100
AcDbCircle
 62
7
  6
CONTINUOUS
 10
373.8928203513
 20
42.755532526
 40
362.6715622348
100
AcDbArc
 50
186.9365220867
 51
187.1049847143
  0
ARC
  5
3A5
100
AcDbEntity
  8
0
100
AcDbCircle
 62
7
  6
CONTINUOUS
 10
350.6282223117
 20
40.6874429067
 40
341.6651335992
100
AcDbArc
 50
187.8508752451
 51
188.2139615776
  0
ARC
  5
3A6
100
AcDbEntity
  8
0
100
AcDbCircle
 62
7
  6
CONTINUOUS
 10
353.9861409671
 20
39.7112658786
 40
341.6266661891
100
AcDbArc
 50
187.8509963325
 51
188.2141243506
  0
ARC
  5
3A7
100
AcDbEntity
  8
0
100
AcDbCircle
 62
7
  6
CONTINUOUS
 10
349.8586535359
 20
40.5973733912
 40
340.874426833
100
AcDbArc
 50
187.8503789565
 51
188.1740032637
  0
ARC
  5
3A8
100
AcDbEntity
  8
0
100
AcDbCircle
 62
7
  6
CONTINUOUS
 10
353.2165759667
 20
39.6211970361
 40
340.8359614139
100
AcDbArc
 50
187.8504999319
 51
188.1741614914
  0
ARC
  5
3A9
100
AcDbEntity
  8
0
100
AcDbCircle
 62
7
  6
CONTINUOUS
 10
350.0956764094
 20
40.3654129948
 40
340.5457468343
100
AcDbArc
 50
187.8909287089
 51
188.1742579196
  0
ARC
  5
3AA
100
AcDbEntity
  8
0
100
AcDbCircle
 62
7
  6
CONTINUOUS
 10
348.8174102845
 20
40.6794281181
 40
340.4177691763
100
AcDbArc
 50
187.8502159099
 51
188.2146335379
  0
ARC
  5
3AB
100
AcDbEntity
  8
0
100
AcDbCircle
 62
7
  6
CONTINUOUS
 10
355.9061750963
 20
38.6274248669
 40
340.3300502012
100
AcDbArc
 50
187.850258935
 51
188.2147707689
  0
ARC
  5
3AC
100
AcDbEntity
  8
0
100
AcDbCircle
 62
7
  6
CONTINUOUS
 10
349.8808669229
 20
40.087221015
 40
339.7467889503
100
AcDbArc
 50
187.9743695666
 51
188.2148490938
  0
ARC
  5
3AD
100
AcDbEntity
  8
0
100
AcDbCircle
 62
7
  6
CONTINUOUS
 10
351.5282718915
 20
39.6097203182
 40
339.7272545451
100
AcDbArc
 50
187.9746216472
 51
188.2151155941
  0
ARC
  5
3AE
100
AcDbEntity
  8
0
100
AcDbCircle
 62
7
  6
CONTINUOUS
 10
349.5985287287
 20
40.0653888577
 40
339.4480616632
100
AcDbArc
 50
188.0277440326
 51
188.1881616244
  0
ARC
  5
3AF
100
AcDbEntity
  8
0
100
AcDbCircle
 62
7
  6
CONTINUOUS
 10
354.8296609907
 20
38.2029475483
 40
338.6542492836
100
AcDbArc
 50
188.0694403592
 51
188.2107526909
  0
ARC
  5
3B0
100
AcDbEntity
  8
RACCORDO
100
AcDbCircle
 62
250
  6
CONTINUOUS
 10
258.8497765167
 20
21.0051054308
 40
237.010467107
100
AcDbArc
 50
185.4070214481
 51
186.3040931158
  0
ARC
  5
3B1
100
AcDbEntity
  8
RACCORDO
100
AcDbCircle
 62
250
  6
CONTINUOUS
 10
244.4362438844
 20
19.4486975982
 40
222.5131922033
100
AcDbArc
 50
186.3221514454
 51
186.5115100935
  0
ARC
  5
3B2
100
AcDbEntity
  8
RACCORDO
100
AcDbCircle
 62
250
  6
CONTINUOUS
 10
753.806721352
 20
2521.3085236475
 40
2626.3865069492
100
AcDbArc
 50
253.2780304868
 51
253.4115242451
  0
ARC
  5
3B3
100
AcDbEntity
  8
RACCORDO
100
AcDbCircle
 62
250
  6
CONTINUOUS
 10
745.3643891721
 20
2501.2188941058
 40
2603.1878446725
100
AcDbArc
 50
253.769708366
 51
253.8945509183
  0
ARC
  5
3B4
100
AcDbEntity
  8
RACCORDO
100
AcDbCircle
 62
250
  6
CONTINUOUS
 10
744.9435391234
 20
2491.7897357153
 40
2595.5658259591
100
AcDbArc
 50
252.9558305131
 51
253.2198450536
  0
ARC
  5
3B5
100
AcDbEntity
  8
RACCORDO
100
AcDbCircle
 62
250
  6
CONTINUOUS
 10
239.0708935655
 20
778.7556962187
 40
817.9647002359
100
AcDbArc
 50
252.2860881982
 51
253.2805746855
  0
SPLINE
  5
3B6
100
AcDbEntity
  8
0
100
AcDbSpline
 62
7
  6
CONTINUOUS
 70
0
 71
3
 72
10
 73
6
 74
0
 42
0.0000001
 43
0.0000001
 44
0.0000000001
 40
0.0
 40
0.0
 40
0.0
 40
0.0
 40
0.2423750398
 40
0.4881364173
 40
1.0
 40
1.0
 40
1.0
 40
1.0
 10
-6.4709249097
 20
-4.818689448
 30
0.0
 10
-6.461397165
 20
-4.8834208398
 30
0.0
 10
-6.453923629
 20
-5.0158495434
 30
0.0
 10
-6.4864791285
 20
-5.2848664973
 30
0.0
 10
-6.5639888323
 20
-5.4791403591
 30
0.0
 10
-6.6329325963
 20
-5.5988884856
 30
0.0
  0
SPLINE
  5
3B7
100
AcDbEntity
  8
0
100
AcDbSpline
 62
7
  6
CONTINUOUS
 70
0
 71
3
 72
10
 73
6
 74
0
 42
0.0000001
 43
0.0000001
 44
0.0000000001
 40
0.0
 40
0.0
 40
0.0
 40
0.0
 40
0.2424186431
 40
0.4882422041
 40
1.0
 40
1.0
 40
1.0
 40
1.0
 10
-10.4282221815
 20
-5.4013568079
 30
0.0
 10
-10.4186927526
 20
-5.4660996426
 30
0.0
 10
-10.3876605666
 20
-5.5950892131
 30
0.0
 10
-10.2789235037
 20
-5.8432901961
 30
0.0
 10
-10.1487448671
 20
-6.0069928745
 30
0.0
 10
-10.0482205527
 20
-6.1017541975
 30
0.0
  0
SPLINE
  5
3B8
100
AcDbEntity
  8
0
100
AcDbSpline
 62
7
  6
CONTINUOUS
 70
0
 71
3
 72
15
 73
11
 74
0
 42
0.0000001
 43
0.0000001
 44
0.0000000001
 40
0.0
 40
0.0
 40
0.0
 40
0.0
 40
0.1132561835
 40
0.2351066024
 40
0.3640313805
 40
0.4970942941
 40
0.6306186437
 40
0.7608533191
 40
0.884606908
 40
1.0
 40
1.0
 40
1.0
 40
1.0
 10
-10.0482205527
 20
-6.1017541975
 30
0.0
 10
-9.9447419515
 20
-6.1993004399
 30
0.0
 10
-9.6995195299
 20
-6.3707913218
 30
0.0
 10
-9.2700207947
 20
-6.5371781226
 30
0.0
 10
-8.7910283072
 20
-6.6147065938
 30
0.0
 10
-8.2917637692
 20
-6.5990625685
 30
0.0
 10
-7.8022989041
 20
-6.4915731813
 30
0.0
 10
-7.3522587615
 20
-6.2984240323
 30
0.0
 10
-6.9690868046
 20
-6.0311874933
 30
0.0
 10
-6.7664369837
 20
-5.8044742226
 30
0.0
 10
-6.6858774471
 20
-5.6840433876
 30
0.0
  0
SPLINE
  5
3B9
100
AcDbEntity
  8
0
100
AcDbSpline
 62
7
  6
CONTINUOUS
 70
0
 71
3
 72
10
 73
6
 74
0
 42
0.0000001
 43
0.0000001
 44
0.0000000001
 40
0.0
 40
0.0
 40
0.0
 40
0.0
 40
0.2423750398
 40
0.4881364173
 40
1.0
 40
1.0
 40
1.0
 40
1.0
 10
2.0295854467
 20
-7.6829816148
 30
0.0
 10
2.0391131913
 20
-7.7477130066
 30
0.0
 10
2.0465867274
 20
-7.8801417102
 30
0.0
 10
2.0140312278
 20
-8.1491586641
 30
0.0
 10
1.9365215241
 20
-8.3434325259
 30
0.0
 10
1.86757776
 20
-8.4631806524
 30
0.0
  0
SPLINE
  5
3BA
100
AcDbEntity
  8
0
100
AcDbSpline
 62
7
  6
CONTINUOUS
 70
0
 71
3
 72
10
 73
6
 74
0
 42
0.0000001
 43
0.0000001
 44
0.0000000001
 40
0.0
 40
0.0
 40
0.0
 40
0.0
 40
0.2424186431
 40
0.4882422041
 40
1.0
 40
1.0
 40
1.0
 40
1.0
 10
-1.9277118251
 20
-8.2656489747
 30
0.0
 10
-1.9181823962
 20
-8.3303918094
 30
0.0
 10
-1.8871502102
 20
-8.4593813799
 30
0.0
 10
-1.7784131474
 20
-8.7075823629
 30
0.0
 10
-1.6482345107
 20
-8.8712850413
 30
0.0
 10
-1.5477101964
 20
-8.9660463643
 30
0.0
  0
SPLINE
  5
3BB
100
AcDbEntity
  8
0
100
AcDbSpline
 62
7
  6
CONTINUOUS
 70
0
 71
3
 72
15
 73
11
 74
0
 42
0.0000001
 43
0.0000001
 44
0.0000000001
 40
0.0
 40
0.0
 40
0.0
 40
0.0
 40
0.1132561835
 40
0.2351066024
 40
0.3640313805
 40
0.4970942941
 40
0.6306186437
 40
0.7608533191
 40
0.884606908
 40
1.0
 40
1.0
 40
1.0
 40
1.0
 10
-1.5477101964
 20
-8.9660463643
 30
0.0
 10
-1.4442315952
 20
-9.0635926067
 30
0.0
 10
-1.1990091736
 20
-9.2350834886
 30
0.0
 10
-0.7695104383
 20
-9.4014702894
 30
0.0
 10
-0.2905179509
 20
-9.4789987606
 30
0.0
 10
0.2087465871
 20
-9.4633547353
 30
0.0
 10
0.6982114522
 20
-9.3558653481
 30
0.0
 10
1.1482515948
 20
-9.1627161991
 30
0.0
 10
1.5314235517
 20
-8.8954796601
 30
0.0
 10
1.7340733726
 20
-8.6687663894
 30
0.0
 10
1.8146329093
 20
-8.5483355544
 30
0.0
  0
SPLINE
  5
3BC
100
AcDbEntity
  8
0
100
AcDbSpline
 62
7
  6
CONTINUOUS
 70
0
 71
3
 72
10
 73
6
 74
0
 42
0.0000001
 43
0.0000001
 44
0.0000000001
 40
0.0
 40
0.0
 40
0.0
 40
0.0
 40
0.2423750398
 40
0.4881364173
 40
1.0
 40
1.0
 40
1.0
 40
1.0
 10
10.4517971506
 20
-10.0154934461
 30
0.0
 10
10.4613248952
 20
-10.0802248379
 30
0.0
 10
10.4687984313
 20
-10.2126535415
 30
0.0
 10
10.4362429318
 20
-10.4816704954
 30
0.0
 10
10.358733228
 20
-10.6759443572
 30
0.0
 10
10.2897894639
 20
-10.7956924837
 30
0.0
  0
SPLINE
  5
3BD
100
AcDbEntity
  8
0
100
AcDbSpline
 62
7
  6
CONTINUOUS
 70
0
 71
3
 72
10
 73
6
 74
0
 42
0.0000001
 43
0.0000001
 44
0.0000000001
 40
0.0
 40
0.0
 40
0.0
 40
0.0
 40
0.2424186431
 40
0.4882422041
 40
1.0
 40
1.0
 40
1.0
 40
1.0
 10
6.4944998788
 20
-10.598160806
 30
0.0
 10
6.5040293077
 20
-10.6629036407
 30
0.0
 10
6.5350614937
 20
-10.7918932112
 30
0.0
 10
6.6437985566
 20
-11.0400941942
 30
0.0
 10
6.7739771932
 20
-11.2037968726
 30
0.0
 10
6.8745015076
 20
-11.2985581955
 30
0.0
  0
SPLINE
  5
3BE
100
AcDbEntity
  8
0
100
AcDbSpline
 62
7
  6
CONTINUOUS
 70
0
 71
3
 72
15
 73
11
 74
0
 42
0.0000001
 43
0.0000001
 44
0.0000000001
 40
0.0
 40
0.0
 40
0.0
 40
0.0
 40
0.1132561835
 40
0.2351066024
 40
0.3640313805
 40
0.4970942941
 40
0.6306186437
 40
0.7608533191
 40
0.884606908
 40
1.0
 40
1.0
 40
1.0
 40
1.0
 10
6.8745015076
 20
-11.2985581955
 30
0.0
 10
6.9779801088
 20
-11.396104438
 30
0.0
 10
7.2232025303
 20
-11.5675953199
 30
0.0
 10
7.6527012656
 20
-11.7339821207
 30
0.0
 10
8.131693753
 20
-11.8115105919
 30
0.0
 10
8.6309582911
 20
-11.7958665666
 30
0.0
 10
9.1204231561
 20
-11.6883771794
 30
0.0
 10
9.5704632987
 20
-11.4952280304
 30
0.0
 10
9.9536352556
 20
-11.2279914914
 30
0.0
 10
10.1562850765
 20
-11.0012782207
 30
0.0
 10
10.2368446132
 20
-10.8808473856
 30
0.0
  0
SPLINE
  5
3BF
100
AcDbEntity
  8
0
100
AcDbSpline
 62
7
  6
CONTINUOUS
 70
0
 71
3
 72
9
 73
5
 74
0
 42
0.0000001
 43
0.0000001
 44
0.0000000001
 40
0.0
 40
0.0
 40
0.0
 40
0.0
 40
0.2377490102
 40
1.0
 40
1.0
 40
1.0
 40
1.0
 10
8.4615925846
 20
0.6115557356
 30
0.0
 10
8.461519473
 20
0.6344655116
 30
0.0
 10
8.4572299999
 20
0.7308091444
 30
0.0
 10
8.4377563614
 20
0.8261700214
 30
0.0
 10
8.4168247389
 20
0.8965762103
 30
0.0
  0
SPLINE
  5
3C0
100
AcDbEntity
  8
0
100
AcDbSpline
 62
7
  6
CONTINUOUS
 70
0
 71
3
 72
12
 73
8
 74
0
 42
0.0000001
 43
0.0000001
 44
0.0000000001
 40
0.0
 40
0.0
 40
0.0
 40
0.0
 40
0.28142581
 40
0.5384572611
 40
0.7750946388
 40
0.8884167617
 40
1.0
 40
1.0
 40
1.0
 40
1.0
 10
7.6748829168
 20
-0.3906592855
 30
0.0
 10
7.81971927
 20
-0.4094240081
 30
0.0
 10
8.1004919687
 20
-0.4240503024
 30
0.0
 10
8.5015016746
 20
-0.3655215097
 30
0.0
 10
8.796266841
 20
-0.2414309608
 30
0.0
 10
8.9894791796
 20
-0.098271838
 30
0.0
 10
9.0706584209
 20
-0.0134257582
 30
0.0
 10
9.1068077934
 20
0.0318112239
 30
0.0
  0
SPLINE
  5
3C1
100
AcDbEntity
  8
0
100
AcDbSpline
 62
7
  6
CONTINUOUS
 70
0
 71
3
 72
16
 73
12
 74
0
 42
0.0000001
 43
0.0000001
 44
0.0000000001
 40
0.0
 40
0.0
 40
0.0
 40
0.0
 40
0.0481060368
 40
0.0970248804
 40
0.1995132585
 40
0.3114277135
 40
0.4343916282
 40
0.5677298254
 40
0.7089678972
 40
0.8544614859
 40
1.0
 40
1.0
 40
1.0
 40
1.0
 10
4.7116182686
 20
2.8387364773
 30
0.0
 10
4.6846185411
 20
2.7845805047
 30
0.0
 10
4.6402650244
 20
2.6700079492
 30
0.0
 10
4.5921008472
 20
2.4225961015
 30
0.0
 10
4.6108547277
 20
2.08652361
 30
0.0
 10
4.7433435993
 20
1.6798097894
 30
0.0
 10
4.9723095079
 20
1.274322311
 30
0.0
 10
5.2862840817
 20
0.88277299
 30
0.0
 10
5.6716460923
 20
0.5189913436
 30
0.0
 10
6.1118557743
 20
0.197580142
 30
0.0
 10
6.4325854466
 20
0.0187671032
 30
0.0
 10
6.5978457911
 20
-0.0600075973
 30
0.0
  0
SPLINE
  5
3C2
100
AcDbEntity
  8
0
100
AcDbSpline
 62
7
  6
CONTINUOUS
 70
0
 71
3
 72
9
 73
5
 74
0
 42
0.0000001
 43
0.0000001
 44
0.0000000001
 40
0.0
 40
0.0
 40
0.0
 40
0.0
 40
0.2426541984
 40
1.0
 40
1.0
 40
1.0
 40
1.0
 10
5.6335837458
 20
1.7311951866
 30
0.0
 10
5.6678919255
 20
1.7304155078
 30
0.0
 10
5.8093085032
 20
1.7284381747
 30
0.0
 10
5.9507549793
 20
1.7310039252
 30
0.0
 10
6.0578121121
 20
1.734258563
 30
0.0
  0
SPLINE
  5
3C3
100
AcDbEntity
  8
0
100
AcDbSpline
 62
7
  6
CONTINUOUS
 70
0
 71
3
 72
9
 73
5
 74
0
 42
0.0000001
 43
0.0000001
 44
0.0000000001
 40
0.0
 40
0.0
 40
0.0
 40
0.0
 40
0.2453694983
 40
1.0
 40
1.0
 40
1.0
 40
1.0
 10
5.1216021601
 20
1.9086271107
 30
0.0
 10
5.1616523602
 20
1.8920680881
 30
0.0
 10
5.3256964153
 20
1.8265758211
 30
0.0
 10
5.4928547022
 20
1.7689407202
 30
0.0
 10
5.6201975154
 20
1.7295812747
 30
0.0
  0
SPLINE
  5
3C4
100
AcDbEntity
  8
0
100
AcDbSpline
 62
7
  6
CONTINUOUS
 70
0
 71
3
 72
9
 73
5
 74
0
 42
0.0000001
 43
0.0000001
 44
0.0000000001
 40
0.0
 40
0.0
 40
0.0
 40
0.0
 40
0.5352750119
 40
1.0
 40
1.0
 40
1.0
 40
1.0
 10
7.3192590717
 20
0.4477245717
 30
0.0
 10
7.3578065035
 20
0.2937403102
 30
0.0
 10
7.4458786633
 20
0.0096415017
 30
0.0
 10
7.577637952
 20
-0.2582515136
 30
0.0
 10
7.6518971969
 20
-0.3743476726
 30
0.0
  0
SPLINE
  5
3C5
100
AcDbEntity
  8
0
100
AcDbSpline
 62
7
  6
CONTINUOUS
 70
0
 71
3
 72
9
 73
5
 74
0
 42
0.0000001
 43
0.0000001
 44
0.0000000001
 40
0.0
 40
0.0
 40
0.0
 40
0.0
 40
0.2504116228
 40
1.0
 40
1.0
 40
1.0
 40
1.0
 10
7.2272543648
 20
1.3751344356
 30
0.0
 10
7.2702728373
 20
1.3495177355
 30
0.0
 10
7.4426079249
 20
1.2481402493
 30
0.0
 10
7.6174601482
 20
1.151006006
 30
0.0
 10
7.7501029949
 20
1.0812326097
 30
0.0
  0
SPLINE
  5
3C6
100
AcDbEntity
  8
0
100
AcDbSpline
 62
7
  6
CONTINUOUS
 70
0
 71
3
 72
9
 73
5
 74
0
 42
0.0000001
 43
0.0000001
 44
0.0000000001
 40
0.0
 40
0.0
 40
0.0
 40
0.0
 40
0.5198317764
 40
1.0
 40
1.0
 40
1.0
 40
1.0
 10
7.1800715642
 20
2.8301467281
 30
0.0
 10
7.1632941213
 20
2.5948438427
 30
0.0
 10
7.1437394492
 20
2.1411565758
 30
0.0
 10
7.1545461071
 20
1.6870056372
 30
0.0
 10
7.1688035055
 20
1.4695716832
 30
0.0
  0
SPLINE
  5
3C7
100
AcDbEntity
  8
0
100
AcDbSpline
 62
7
  6
CONTINUOUS
 70
0
 71
3
 72
11
 73
7
 74
0
 42
0.0000001
 43
0.0000001
 44
0.0000000001
 40
0.0
 40
0.0
 40
0.0
 40
0.0
 40
0.3405025085
 40
0.6136902232
 40
0.8245810814
 40
1.0
 40
1.0
 40
1.0
 40
1.0
 10
6.6712916488
 20
-0.0159839969
 30
0.0
 10
6.6652553764
 20
-0.0244555723
 30
0.0
 10
6.6534340587
 20
-0.0391319115
 30
0.0
 10
6.6341416369
 20
-0.0555829036
 30
0.0
 10
6.6151670473
 20
-0.0639049728
 30
0.0
 10
6.6026806863
 20
-0.0623163186
 30
0.0
 10
6.5978435448
 20
-0.0600097632
 30
0.0
  0
SPLINE
  5
3C8
100
AcDbEntity
  8
0
100
AcDbSpline
 62
7
  6
CONTINUOUS
 70
0
 71
3
 72
9
 73
5
 74
0
 42
0.0000001
 43
0.0000001
 44
0.0000000001
 40
0.0
 40
0.0
 40
0.0
 40
0.0
 40
0.2616979765
 40
1.0
 40
1.0
 40
1.0
 40
1.0
 10
7.1952230627
 20
2.9179112578
 30
0.0
 10
7.19323273
 20
2.9103950626
 30
0.0
 10
7.186245975
 20
2.8815195962
 30
0.0
 10
7.1816316403
 20
2.8520267253
 30
0.0
 10
7.1800715642
 20
2.8301467281
 30
0.0
  0
SPLINE
  5
3C9
100
AcDbEntity
  8
0
100
AcDbSpline
 62
7
  6
CONTINUOUS
 70
0
 71
3
 72
9
 73
5
 74
0
 42
0.0000001
 43
0.0000001
 44
0.0000000001
 40
0.0
 40
0.0
 40
0.0
 40
0.0
 40
0.5306343247
 40
1.0
 40
1.0
 40
1.0
 40
1.0
 10
7.6518971969
 20
-0.3743476726
 30
0.0
 10
7.6546536837
 20
-0.3786571363
 30
0.0
 10
7.6610554136
 20
-0.3862395491
 30
0.0
 10
7.6704071007
 20
-0.3900811378
 30
0.0
 10
7.6748947616
 20
-0.390660981
 30
0.0
  0
SPLINE
  5
3CA
100
AcDbEntity
  8
0
100
AcDbSpline
 62
7
  6
CONTINUOUS
 70
0
 71
3
 72
8
 73
4
 74
0
 42
0.0000001
 43
0.0000001
 44
0.0000000001
 40
0.0
 40
0.0
 40
0.0
 40
0.0
 40
1.0
 40
1.0
 40
1.0
 40
1.0
 10
7.6388550078
 20
1.0860913944
 30
0.0
 10
7.5324891489
 20
0.8732193673
 30
0.0
 10
7.4259420872
 20
0.6604378295
 30
0.0
 10
7.3192590717
 20
0.4477245717
 30
0.0
  0
LINE
  5
3CB
100
AcDbEntity
  8
0
100
AcDbLine
 62
7
  6
CONTINUOUS
 10
6.9316029107
 20
0.3493702892
 11
6.6712916488
 21
-0.0159839969
  0
SPLINE
  5
3CC
100
AcDbEntity
  8
0
100
AcDbSpline
 62
7
  6
CONTINUOUS
 70
0
 71
3
 72
9
 73
5
 74
0
 42
0.0000001
 43
0.0000001
 44
0.0000000001
 40
0.0
 40
0.0
 40
0.0
 40
0.0
 40
0.2547114739
 40
1.0
 40
1.0
 40
1.0
 40
1.0
 10
7.1442529508
 20
2.8122541403
 30
0.0
 10
7.1280754653
 20
2.8178530954
 30
0.0
 10
7.0642957031
 20
2.8390519224
 30
0.0
 10
6.9994491753
 20
2.8570748279
 30
0.0
 10
6.950670612
 20
2.8684630142
 30
0.0
  0
SPLINE
  5
3CD
100
AcDbEntity
  8
0
100
AcDbSpline
 62
7
  6
CONTINUOUS
 70
0
 71
3
 72
9
 73
5
 74
0
 42
0.0000001
 43
0.0000001
 44
0.0000000001
 40
0.0
 40
0.0
 40
0.0
 40
0.0
 40
0.2457469376
 40
1.0
 40
1.0
 40
1.0
 40
1.0
 10
7.4025487594
 20
0.1620165444
 30
0.0
 10
7.3630856335
 20
0.1749637725
 30
0.0
 10
7.203348622
 20
0.2302085644
 30
0.0
 10
7.0470658989
 20
0.2953539058
 30
0.0
 10
6.9316029107
 20
0.3493702892
 30
0.0
  0
LINE
  5
3CE
100
AcDbEntity
  8
0
100
AcDbLine
 62
7
  6
CONTINUOUS
 10
6.6230436191
 20
2.4450099781
 11
6.4526035584
 21
2.2119809089
  0
LINE
  5
3CF
100
AcDbEntity
  8
0
100
AcDbLine
 62
7
  6
CONTINUOUS
 10
6.6464216108
 20
2.4464871183
 11
6.6230436191
 21
2.4450099781
  0
LINE
  5
3D0
100
AcDbEntity
  8
0
100
AcDbLine
 62
7
  6
CONTINUOUS
 10
6.8756877843
 20
2.7238603412
 11
6.6464216108
 21
2.4464871183
  0
LINE
  5
3D1
100
AcDbEntity
  8
0
100
AcDbLine
 62
7
  6
CONTINUOUS
 10
6.4526035584
 20
2.2119809089
 11
6.0578121121
 21
1.734258563
  0
SPLINE
  5
3D2
100
AcDbEntity
  8
0
100
AcDbSpline
 62
7
  6
CONTINUOUS
 70
0
 71
3
 72
9
 73
5
 74
0
 42
0.0000001
 43
0.0000001
 44
0.0000000001
 40
0.0
 40
0.0
 40
0.0
 40
0.0
 40
0.2370155287
 40
1.0
 40
1.0
 40
1.0
 40
1.0
 10
5.1216021601
 20
1.9086271107
 30
0.0
 10
5.1211411188
 20
1.8843623322
 30
0.0
 10
5.1237959191
 20
1.7819027278
 30
0.0
 10
5.1439635632
 20
1.6802999024
 30
0.0
 10
5.1662271006
 20
1.6054136477
 30
0.0
  0
SPLINE
  5
3D3
100
AcDbEntity
  8
0
100
AcDbSpline
 62
7
  6
CONTINUOUS
 70
0
 71
3
 72
9
 73
5
 74
0
 42
0.0000001
 43
0.0000001
 44
0.0000000001
 40
0.0
 40
0.0
 40
0.0
 40
0.0
 40
0.4657492713
 40
1.0
 40
1.0
 40
1.0
 40
1.0
 10
6.5717124782
 20
-0.0281042551
 30
0.0
 10
6.5003908608
 20
0.0863088196
 30
0.0
 10
6.3735995385
 20
0.3485317104
 30
0.0
 10
6.2880109786
 20
0.6259221574
 30
0.0
 10
6.2504553007
 20
0.7759448601
 30
0.0
  0
SPLINE
  5
3D4
100
AcDbEntity
  8
0
100
AcDbSpline
 62
7
  6
CONTINUOUS
 70
0
 71
3
 72
9
 73
5
 74
0
 42
0.0000001
 43
0.0000001
 44
0.0000000001
 40
0.0
 40
0.0
 40
0.0
 40
0.0
 40
0.4801682501
 40
1.0
 40
1.0
 40
1.0
 40
1.0
 10
6.0999999169
 20
1.7977922572
 30
0.0
 10
6.0857425708
 20
2.0152260059
 30
0.0
 10
6.0749359749
 20
2.4693764854
 30
0.0
 10
6.0944906406
 20
2.9230632924
 30
0.0
 10
6.1112680657
 20
3.158365928
 30
0.0
  0
SPLINE
  5
3D5
100
AcDbEntity
  8
0
100
AcDbSpline
 62
7
  6
CONTINUOUS
 70
0
 71
3
 72
9
 73
5
 74
0
 42
0.0000001
 43
0.0000001
 44
0.0000000001
 40
0.0
 40
0.0
 40
0.0
 40
0.0
 40
0.2536323353
 40
1.0
 40
1.0
 40
1.0
 40
1.0
 10
7.8245999779
 20
0.5752714619
 30
0.0
 10
7.7852641057
 20
0.5673689719
 30
0.0
 10
7.6298703076
 20
0.5377769545
 30
0.0
 10
7.4731782688
 20
0.5147259972
 30
0.0
 10
7.3557610764
 20
0.5023552254
 30
0.0
  0
SPLINE
  5
3D6
100
AcDbEntity
  8
0
100
AcDbSpline
 62
250
  6
CONTINUOUS
 70
0
 71
3
 72
11
 73
7
 74
0
 42
0.0000001
 43
0.0000001
 44
0.0000000001
 40
0.0
 40
0.0
 40
0.0
 40
0.0
 40
0.2758969028
 40
0.5297125362
 40
0.7679842225
 40
1.0
 40
1.0
 40
1.0
 40
1.0
 10
5.4606233625
 20
3.3524164215
 30
0.0
 10
5.3759237551
 20
3.3354051186
 30
0.0
 10
5.2153976651
 20
3.2895564448
 30
0.0
 10
5.0003709896
 20
3.1777326561
 30
0.0
 10
4.8274947955
 20
3.027514936
 30
0.0
 10
4.7440334351
 20
2.9037543934
 30
0.0
 10
4.7116214941
 20
2.8387345683
 30
0.0
  0
SPLINE
  5
3D7
100
AcDbEntity
  8
0
100
AcDbSpline
 62
7
  6
CONTINUOUS
 70
0
 71
3
 72
9
 73
5
 74
0
 42
0.0000001
 43
0.0000001
 44
0.0000000001
 40
0.0
 40
0.0
 40
0.0
 40
0.0
 40
0.2344523467
 40
1.0
 40
1.0
 40
1.0
 40
1.0
 10
6.1112680657
 20
3.158365928
 30
0.0
 10
6.1120051463
 20
3.1687034508
 30
0.0
 10
6.1169757366
 20
3.2126537614
 30
0.0
 10
6.1280000882
 20
3.2558535337
 30
0.0
 10
6.1392330488
 20
3.2877751907
 30
0.0
  0
SPLINE
  5
3D8
100
AcDbEntity
  8
0
100
AcDbSpline
 62
250
  6
CONTINUOUS
 70
0
 71
3
 72
23
 73
19
 74
0
 42
0.0000001
 43
0.0000001
 44
0.0000000001
 40
0.0
 40
0.0
 40
0.0
 40
0.0
 40
0.0656801908
 40
0.125607337
 40
0.1798771424
 40
0.2293521712
 40
0.2757452903
 40
0.3214766786
 40
0.3691364257
 40
0.4208372928
 40
0.4486721604
 40
0.4779282166
 40
0.5407443288
 40
0.6091436087
 40
0.6824240526
 40
0.7595302864
 40
0.8391615555
 40
1.0
 40
1.0
 40
1.0
 40
1.0
 10
6.1112680657
 20
3.158365928
 30
0.0
 10
6.0005634924
 20
3.1721736625
 30
0.0
 10
5.7868117528
 20
3.1854705439
 30
0.0
 10
5.4811549052
 20
3.1576089261
 30
0.0
 10
5.21185313
 20
3.0810475388
 30
0.0
 10
4.9863644267
 20
2.9563058587
 30
0.0
 10
4.812650769
 20
2.7851254102
 30
0.0
 10
4.698564942
 20
2.5728544741
 30
0.0
 10
4.6482166517
 20
2.3285123668
 30
0.0
 10
4.658706525
 20
2.1107422458
 30
0.0
 10
4.695324481
 20
1.9294153054
 30
0.0
 10
4.7542687537
 20
1.7341692632
 30
0.0
 10
4.8666196585
 20
1.484501013
 30
0.0
 10
5.0524744629
 20
1.1899782585
 30
0.0
 10
5.2874999719
 20
0.9010968633
 30
0.0
 10
5.5654526924
 20
0.6254918502
 30
0.0
 10
5.9843405447
 20
0.2847622778
 30
0.0
 10
6.3367772955
 20
0.0720402724
 30
0.0
 10
6.5830936984
 20
-0.0461284727
 30
0.0
  0
SPLINE
  5
3D9
100
AcDbEntity
  8
0
100
AcDbSpline
 62
250
  6
CONTINUOUS
 70
0
 71
3
 72
23
 73
19
 74
0
 42
0.0000001
 43
0.0000001
 44
0.0000000001
 40
0.0
 40
0.0
 40
0.0
 40
0.0
 40
0.0658048354
 40
0.1259539618
 40
0.1805670793
 40
0.2304688871
 40
0.2772755994
 40
0.3232742678
 40
0.3709488086
 40
0.4223844347
 40
0.4499946818
 40
0.4789775198
 40
0.5411554408
 40
0.608888025
 40
0.6815921463
 40
0.758328731
 40
0.837911837
 40
1.0
 40
1.0
 40
1.0
 40
1.0
 10
7.6765132859
 20
-0.3773008289
 30
0.0
 10
7.7838675217
 20
-0.3896672624
 30
0.0
 10
7.9911703441
 20
-0.4008134241
 30
0.0
 10
8.2876031751
 20
-0.3720810067
 30
0.0
 10
8.5493410366
 20
-0.2972449384
 30
0.0
 10
8.7695246056
 20
-0.1768589413
 30
0.0
 10
8.9409219235
 20
-0.0125627367
 30
0.0
 10
9.0563694745
 20
0.1909437812
 30
0.0
 10
9.1117825757
 20
0.4256353222
 30
0.0
 10
9.1080622841
 20
0.6355976492
 30
0.0
 10
9.0781244513
 20
0.8106526496
 30
0.0
 10
9.0272302334
 20
0.9992191122
 30
0.0
 10
8.9265726164
 20
1.241230737
 30
0.0
 10
8.756402408
 20
1.5281823324
 30
0.0
 10
8.538434663
 20
1.8114229084
 30
0.0
 10
8.2781675773
 20
2.0838780953
 30
0.0
 10
7.881472359
 20
2.4253458111
 30
0.0
 10
7.5454593606
 20
2.6420182684
 30
0.0
 10
7.3095392909
 20
2.7652798626
 30
0.0
  0
SPLINE
  5
3DA
100
AcDbEntity
  8
0
100
AcDbSpline
 62
7
  6
CONTINUOUS
 70
0
 71
3
 72
9
 73
5
 74
0
 42
0.0000001
 43
0.0000001
 44
0.0000000001
 40
0.0
 40
0.0
 40
0.0
 40
0.0
 40
0.2490061471
 40
1.0
 40
1.0
 40
1.0
 40
1.0
 10
6.7584382999
 20
1.6857041622
 30
0.0
 10
6.7840739453
 20
1.6474009116
 30
0.0
 10
6.8876025693
 20
1.4939621891
 30
0.0
 10
6.9927606686
 20
1.3416311887
 30
0.0
 10
7.0720140473
 20
1.2274302171
 30
0.0
  0
LINE
  5
3DB
100
AcDbEntity
  8
0
100
AcDbLine
 62
7
  6
CONTINUOUS
 10
6.7584382999
 20
1.6857041622
 11
7.1149599393
 21
2.1992991079
  0
SPLINE
  5
3DC
100
AcDbEntity
  8
0
100
AcDbSpline
 62
7
  6
CONTINUOUS
 70
0
 71
3
 72
8
 73
4
 74
0
 42
0.0000001
 43
0.0000001
 44
0.0000000001
 40
0.0
 40
0.0
 40
0.0
 40
0.0
 40
1.0
 40
1.0
 40
1.0
 40
1.0
 10
6.2504553007
 20
0.7759448601
 30
0.0
 10
6.3571381229
 20
0.9886580796
 30
0.0
 10
6.4636862715
 20
1.2014389381
 30
0.0
 10
6.5700518323
 20
1.4143109789
 30
0.0
  0
LINE
  5
3DD
100
AcDbEntity
  8
0
100
AcDbLine
 62
7
  6
CONTINUOUS
 10
6.1863188673
 20
0.8614794212
 11
6.5700518323
 21
1.4143109789
  0
LINE
  5
3DE
100
AcDbEntity
  8
0
100
AcDbLine
 62
7
  6
CONTINUOUS
 10
7.2571622968
 20
1.3573906557
 11
7.1433022616
 21
1.0594817292
  0
LINE
  5
3DF
100
AcDbEntity
  8
0
100
AcDbLine
 62
7
  6
CONTINUOUS
 10
6.7323905493
 20
1.7023593012
 11
6.7584382999
 21
1.6857041622
  0
LINE
  5
3E0
100
AcDbEntity
  8
0
100
AcDbLine
 62
7
  6
CONTINUOUS
 10
6.5700518323
 20
1.4143109789
 11
6.7323905493
 21
1.7023593012
  0
SPLINE
  5
3E1
100
AcDbEntity
  8
TRASH
100
AcDbSpline
 62
7
  6
CONTINUOUS
 70
0
 71
3
 72
9
 73
5
 74
0
 42
0.0000001
 43
0.0000001
 44
0.0000000001
 40
0.0
 40
0.0
 40
0.0
 40
0.0
 40
0.2515701059
 40
1.0
 40
1.0
 40
1.0
 40
1.0
 10
7.1511434647
 20
2.1149253581
 30
0.0
 10
7.1482512506
 20
2.1220602215
 30
0.0
 10
7.1366257214
 20
2.1503689145
 30
0.0
 10
7.1244484832
 20
2.1784528402
 30
0.0
 10
7.1149599397
 20
2.1992991082
 30
0.0
  0
SPLINE
  5
3E2
100
AcDbEntity
  8
TRASH
100
AcDbSpline
 62
7
  6
CONTINUOUS
 70
0
 71
3
 72
9
 73
5
 74
0
 42
0.0000001
 43
0.0000001
 44
0.0000000001
 40
0.0
 40
0.0
 40
0.0
 40
0.0
 40
0.5019847718
 40
1.0
 40
1.0
 40
1.0
 40
1.0
 10
7.1149599397
 20
2.1992991082
 30
0.0
 10
7.0270119599
 20
2.237379387
 30
0.0
 10
6.8463258815
 20
2.3005542082
 30
0.0
 10
6.6616317304
 20
2.3491143459
 30
0.0
 10
6.5692126496
 20
2.3714521828
 30
0.0
  0
SPLINE
  5
3E3
100
AcDbEntity
  8
0
100
AcDbSpline
 62
250
  6
CONTINUOUS
 70
0
 71
3
 72
11
 73
7
 74
0
 42
0.0000001
 43
0.0000001
 44
0.0000000001
 40
0.0
 40
0.0
 40
0.0
 40
0.0
 40
0.2362770747
 40
0.4769497441
 40
0.7296003362
 40
1.0
 40
1.0
 40
1.0
 40
1.0
 10
9.1068055036
 20
0.0318127981
 30
0.0
 10
9.1464094022
 20
0.0813719695
 30
0.0
 10
9.2151749143
 20
0.1909743338
 30
0.0
 10
9.2793551028
 20
0.3777001724
 30
0.0
 10
9.3037762489
 20
0.5826564466
 30
0.0
 10
9.2940574483
 20
0.7235768932
 30
0.0
 10
9.283481737
 20
0.7954038677
 30
0.0
  0
LINE
  5
3E4
100
AcDbEntity
  8
0
100
AcDbLine
 62
7
  6
CONTINUOUS
 10
7.6388550078
 20
1.0860913944
 11
7.3557610764
 21
0.5023552254
  0
SPLINE
  5
3E5
100
AcDbEntity
  8
0
100
AcDbSpline
 62
7
  6
CONTINUOUS
 70
0
 71
3
 72
9
 73
5
 74
0
 42
0.0000001
 43
0.0000001
 44
0.0000000001
 40
0.0
 40
0.0
 40
0.0
 40
0.0
 40
0.2319128489
 40
1.0
 40
1.0
 40
1.0
 40
1.0
 10
6.5978435448
 20
-0.0600097632
 30
0.0
 10
6.5964191695
 20
-0.0593305604
 30
0.0
 10
6.5905214258
 20
-0.0558772542
 30
0.0
 10
6.5859098498
 20
-0.0505312155
 30
0.0
 10
6.5830936984
 20
-0.0461284727
 30
0.0
  0
SPLINE
  5
3E6
100
AcDbEntity
  8
0
100
AcDbSpline
 62
7
  6
CONTINUOUS
 70
0
 71
3
 72
9
 73
5
 74
0
 42
0.0000001
 43
0.0000001
 44
0.0000000001
 40
0.0
 40
0.0
 40
0.0
 40
0.0
 40
0.2592269965
 40
1.0
 40
1.0
 40
1.0
 40
1.0
 10
7.1433022616
 20
1.0594817292
 30
0.0
 10
7.1771571979
 20
1.0451483185
 30
0.0
 10
7.3090662785
 20
0.9930697
 30
0.0
 10
7.4463154942
 20
0.9539700494
 30
0.0
 10
7.5495926827
 20
0.9347079821
 30
0.0
  0
SPLINE
  5
3E7
100
AcDbEntity
  8
0
100
AcDbSpline
 62
7
  6
CONTINUOUS
 70
0
 71
3
 72
8
 73
4
 74
0
 42
0.0000001
 43
0.0000001
 44
0.0000000001
 40
0.0
 40
0.0
 40
0.0
 40
0.0
 40
1.0
 40
1.0
 40
1.0
 40
1.0
 10
6.8483550834
 20
2.7464533019
 30
0.0
 10
6.7794915514
 20
2.6475273115
 30
0.0
 10
6.7113066653
 20
2.5480669752
 30
0.0
 10
6.6464216108
 20
2.4464871183
 30
0.0
  0
SPLINE
  5
3E8
100
AcDbEntity
  8
RACCORDO
100
AcDbSpline
 62
7
  6
CONTINUOUS
 70
0
 71
3
 72
8
 73
4
 74
0
 42
0.0000001
 43
0.0000001
 44
0.0000000001
 40
0.0
 40
0.0
 40
0.0
 40
0.0
 40
1.0
 40
1.0
 40
1.0
 40
1.0
 10
30.1834803569
 20
-6.7150549023
 30
0.0
 10
30.255119825
 20
-6.6791565044
 30
0.0
 10
30.3249600832
 20
-6.6395034605
 30
0.0
 10
30.3928688531
 20
-6.5969675071
 30
0.0
  0
SPLINE
  5
3E9
100
AcDbEntity
  8
RACCORDO
100
AcDbSpline
 62
7
  6
CONTINUOUS
 70
0
 71
3
 72
13
 73
9
 74
0
 42
0.0000001
 43
0.0000001
 44
0.0000000001
 40
0.0
 40
0.0
 40
0.0
 40
0.0
 40
0.1977334428
 40
0.3082985019
 40
0.430383213
 40
0.5634180568
 40
0.7050240573
 40
1.0
 40
1.0
 40
1.0
 40
1.0
 10
31.296118504
 20
-6.4202192241
 30
0.0
 10
31.6737036216
 20
-6.3247884017
 30
0.0
 10
32.2052313006
 20
-5.9655891635
 30
0.0
 10
32.7638525325
 20
-5.3315065356
 30
0.0
 10
33.1748509588
 20
-4.7369236929
 30
0.0
 10
33.5542859959
 20
-4.05301361
 30
0.0
 10
34.0185516993
 20
-3.0306976019
 30
0.0
 10
34.2886784299
 20
-2.210418439
 30
0.0
 10
34.4325663852
 20
-1.6475301031
 30
0.0
  0
SPLINE
  5
3EA
100
AcDbEntity
  8
RACCORDO
100
AcDbSpline
 62
7
  6
CONTINUOUS
 70
0
 71
3
 72
9
 73
5
 74
0
 42
0.0000001
 43
0.0000001
 44
0.0000000001
 40
0.0
 40
0.0
 40
0.0
 40
0.0
 40
0.3410442302
 40
1.0
 40
1.0
 40
1.0
 40
1.0
 10
34.4986956908
 20
-1.3588221146
 30
0.0
 10
34.4995964385
 20
-1.3510378113
 30
0.0
 10
34.501442095
 20
-1.3291664504
 30
0.0
 10
34.4989092159
 20
-1.3008621329
 30
0.0
 10
34.486569709
 20
-1.2920880028
 30
0.0
  0
SPLINE
  5
3EB
100
AcDbEntity
  8
RACCORDO
100
AcDbSpline
 62
7
  6
CONTINUOUS
 70
0
 71
3
 72
9
 73
5
 74
0
 42
0.0000001
 43
0.0000001
 44
0.0000000001
 40
0.0
 40
0.0
 40
0.0
 40
0.0
 40
0.4939175118
 40
1.0
 40
1.0
 40
1.0
 40
1.0
 10
34.486569709
 20
-1.2920880028
 30
0.0
 10
34.4855118061
 20
-1.2913357704
 30
0.0
 10
34.4832396683
 20
-1.2899884506
 30
0.0
 10
34.4807812901
 20
-1.2890260891
 30
0.0
 10
34.4795105245
 20
-1.288633417
 30
0.0
  0
SPLINE
  5
3EC
100
AcDbEntity
  8
RACCORDO
100
AcDbSpline
 62
7
  6
CONTINUOUS
 70
0
 71
3
 72
9
 73
5
 74
0
 42
0.0000001
 43
0.0000001
 44
0.0000000001
 40
0.0
 40
0.0
 40
0.0
 40
0.0
 40
0.4432967995
 40
1.0
 40
1.0
 40
1.0
 40
1.0
 10
31.1071816695
 20
-5.1153288251
 30
0.0
 10
31.2664822271
 20
-5.0162894029
 30
0.0
 10
31.5847044965
 20
-4.7288357368
 30
0.0
 10
31.841447161
 20
-4.3911483812
 30
0.0
 10
31.9728041994
 20
-4.1956075551
 30
0.0
  0
SPLINE
  5
3ED
100
AcDbEntity
  8
RACCORDO
100
AcDbSpline
 62
7
  6
CONTINUOUS
 70
0
 71
3
 72
9
 73
5
 74
0
 42
0.0000001
 43
0.0000001
 44
0.0000000001
 40
0.0
 40
0.0
 40
0.0
 40
0.0
 40
0.4762540675
 40
1.0
 40
1.0
 40
1.0
 40
1.0
 10
32.0479017991
 20
-4.0809309995
 30
0.0
 10
32.2483112975
 20
-3.7671222414
 30
0.0
 10
32.6122122004
 20
-3.0717016005
 30
0.0
 10
32.8898498569
 20
-2.3390213535
 30
0.0
 10
33.013754012
 20
-1.948743849
 30
0.0
  0
SPLINE
  5
3EE
100
AcDbEntity
  8
RACCORDO
100
AcDbSpline
 62
7
  6
CONTINUOUS
 70
0
 71
3
 72
12
 73
8
 74
0
 42
0.0000001
 43
0.0000001
 44
0.0000000001
 40
0.0
 40
0.0
 40
0.0
 40
0.0
 40
0.3347438129
 40
0.6359050101
 40
0.7596298998
 40
0.8609635015
 40
1.0
 40
1.0
 40
1.0
 40
1.0
 10
33.2080641299
 20
-1.2598516497
 30
0.0
 10
33.2182850055
 20
-1.2184296384
 30
0.0
 10
33.2439652869
 20
-1.1411939932
 30
0.0
 10
33.2879074131
 20
-1.0543836036
 30
0.0
 10
33.329378188
 20
-1.0009024379
 30
0.0
 10
33.362188917
 20
-0.9693060876
 30
0.0
 10
33.3954394076
 20
-0.9557329395
 30
0.0
 10
33.4123988149
 20
-0.9608713157
 30
0.0
  0
SPLINE
  5
3EF
100
AcDbEntity
  8
RACCORDO
100
AcDbSpline
 62
7
  6
CONTINUOUS
 70
0
 71
3
 72
9
 73
5
 74
0
 42
0.0000001
 43
0.0000001
 44
0.0000000001
 40
0.0
 40
0.0
 40
0.0
 40
0.0
 40
0.2723474893
 40
1.0
 40
1.0
 40
1.0
 40
1.0
 10
29.082553424
 20
-8.1595769704
 30
0.0
 10
29.0940087761
 20
-8.1567468306
 30
0.0
 10
29.1353370129
 20
-8.1439537788
 30
0.0
 10
29.1735574008
 20
-8.1186929745
 30
0.0
 10
29.1935768526
 20
-8.0943385883
 30
0.0
  0
SPLINE
  5
3F0
100
AcDbEntity
  8
RACCORDO
100
AcDbSpline
 62
7
  6
CONTINUOUS
 70
0
 71
3
 72
8
 73
4
 74
0
 42
0.0000001
 43
0.0000001
 44
0.0000000001
 40
0.0
 40
0.0
 40
0.0
 40
0.0
 40
1.0
 40
1.0
 40
1.0
 40
1.0
 10
31.1603628287
 20
-6.4482563193
 30
0.0
 10
31.1802723845
 20
-6.4449856624
 30
0.0
 10
31.2000232581
 20
-6.440396698
 30
0.0
 10
31.219274976
 20
-6.4343585718
 30
0.0
  0
SPLINE
  5
3F1
100
AcDbEntity
  8
RACCORDO
100
AcDbSpline
 62
7
  6
CONTINUOUS
 70
0
 71
3
 72
9
 73
5
 74
0
 42
0.0000001
 43
0.0000001
 44
0.0000000001
 40
0.0
 40
0.0
 40
0.0
 40
0.0
 40
0.5210204448
 40
1.0
 40
1.0
 40
1.0
 40
1.0
 10
31.219274976
 20
-6.4343585718
 30
0.0
 10
31.259874688
 20
-6.4216248414
 30
0.0
 10
31.3346706321
 20
-6.3839983607
 30
0.0
 10
31.3906306093
 20
-6.322011031
 30
0.0
 10
31.4117997682
 20
-6.2891177997
 30
0.0
  0
SPLINE
  5
3F2
100
AcDbEntity
  8
RACCORDO
100
AcDbSpline
 62
7
  6
CONTINUOUS
 70
0
 71
3
 72
9
 73
5
 74
0
 42
0.0000001
 43
0.0000001
 44
0.0000000001
 40
0.0
 40
0.0
 40
0.0
 40
0.0
 40
0.2448116363
 40
1.0
 40
1.0
 40
1.0
 40
1.0
 10
31.4117997682
 20
-6.2891177997
 30
0.0
 10
31.4212928828
 20
-6.2743671329
 30
0.0
 10
31.455799127
 20
-6.2113405131
 30
0.0
 10
31.473333154
 20
-6.1400622694
 30
0.0
 10
31.4795530503
 20
-6.0863096355
 30
0.0
  0
SPLINE
  5
3F3
100
AcDbEntity
  8
RACCORDO
100
AcDbSpline
 62
7
  6
CONTINUOUS
 70
0
 71
3
 72
9
 73
5
 74
0
 42
0.0000001
 43
0.0000001
 44
0.0000000001
 40
0.0
 40
0.0
 40
0.0
 40
0.0
 40
0.7382615383
 40
1.0
 40
1.0
 40
1.0
 40
1.0
 10
29.2046674909
 20
-8.0791079802
 30
0.0
 10
29.217123961
 20
-8.0596883914
 30
0.0
 10
29.2280439396
 20
-8.0291294798
 30
0.0
 10
29.2309336278
 20
-7.9980136031
 30
0.0
 10
29.2312383008
 20
-7.9898397363
 30
0.0
  0
SPLINE
  5
3F4
100
AcDbEntity
  8
RACCORDO
100
AcDbSpline
 62
7
  6
CONTINUOUS
 70
0
 71
3
 72
8
 73
4
 74
0
 42
0.0000001
 43
0.0000001
 44
0.0000000001
 40
0.0
 40
0.0
 40
0.0
 40
0.0
 40
1.0
 40
1.0
 40
1.0
 40
1.0
 10
34.4795105245
 20
-1.288633417
 30
0.0
 10
34.4733838631
 20
-1.2867402521
 30
0.0
 10
34.4665810802
 20
-1.2870248083
 30
0.0
 10
34.4602778525
 20
-1.2882035251
 30
0.0
  0
SPLINE
  5
3F5
100
AcDbEntity
  8
RACCORDO
100
AcDbSpline
 62
7
  6
CONTINUOUS
 70
0
 71
3
 72
8
 73
4
 74
0
 42
0.0000001
 43
0.0000001
 44
0.0000000001
 40
0.0
 40
0.0
 40
0.0
 40
0.0
 40
1.0
 40
1.0
 40
1.0
 40
1.0
 10
30.0598898947
 20
-6.7722254872
 30
0.0
 10
30.0886121663
 20
-6.7599792972
 30
0.0
 10
30.116062339
 20
-6.7439432084
 30
0.0
 10
30.1404870786
 20
-6.7244914693
 30
0.0
  0
SPLINE
  5
3F6
100
AcDbEntity
  8
RACCORDO
100
AcDbSpline
 62
7
  6
CONTINUOUS
 70
0
 71
3
 72
9
 73
5
 74
0
 42
0.0000001
 43
0.0000001
 44
0.0000000001
 40
0.0
 40
0.0
 40
0.0
 40
0.0
 40
0.2549957818
 40
1.0
 40
1.0
 40
1.0
 40
1.0
 10
30.1404870786
 20
-6.7244914693
 30
0.0
 10
30.1517215935
 20
-6.7155443584
 30
0.0
 10
30.1935139954
 20
-6.6776311399
 30
0.0
 10
30.2246282591
 20
-6.6284953439
 30
0.0
 10
30.240522077
 20
-6.5896616768
 30
0.0
  0
SPLINE
  5
3F7
100
AcDbEntity
  8
RACCORDO
100
AcDbSpline
 62
7
  6
CONTINUOUS
 70
0
 71
3
 72
8
 73
4
 74
0
 42
0.0000001
 43
0.0000001
 44
0.0000000001
 40
0.0
 40
0.0
 40
0.0
 40
0.0
 40
1.0
 40
1.0
 40
1.0
 40
1.0
 10
30.240522077
 20
-6.5896616768
 30
0.0
 10
30.2482416039
 20
-6.5708004102
 30
0.0
 10
30.2544137696
 20
-6.5512506449
 30
0.0
 10
30.259147423
 20
-6.5314281577
 30
0.0
  0
SPLINE
  5
3F8
100
AcDbEntity
  8
RACCORDO
100
AcDbSpline
 62
7
  6
CONTINUOUS
 70
0
 71
3
 72
9
 73
5
 74
0
 42
0.0000001
 43
0.0000001
 44
0.0000000001
 40
0.0
 40
0.0
 40
0.0
 40
0.0
 40
0.2382837243
 40
1.0
 40
1.0
 40
1.0
 40
1.0
 10
30.259147423
 20
-6.5314281577
 30
0.0
 10
30.2630808498
 20
-6.514956672
 30
0.0
 10
30.2754873839
 20
-6.4448462264
 30
0.0
 10
30.2726009746
 20
-6.3726130544
 30
0.0
 10
30.264715292
 20
-6.3190559263
 30
0.0
  0
SPLINE
  5
3F9
100
AcDbEntity
  8
RACCORDO
100
AcDbSpline
 62
7
  6
CONTINUOUS
 70
0
 71
3
 72
9
 73
5
 74
0
 42
0.0000001
 43
0.0000001
 44
0.0000000001
 40
0.0
 40
0.0
 40
0.0
 40
0.0
 40
0.2596248995
 40
1.0
 40
1.0
 40
1.0
 40
1.0
 10
31.529728275
 20
-5.8769686834
 30
0.0
 10
31.5269769377
 20
-5.8869386665
 30
0.0
 10
31.5163899987
 20
-5.9253423779
 30
0.0
 10
31.5059608793
 20
-5.9637946063
 30
0.0
 10
31.4987556383
 20
-5.9923952201
 30
0.0
  0
SPLINE
  5
3FA
100
AcDbEntity
  8
RACCORDO
100
AcDbSpline
 62
7
  6
CONTINUOUS
 70
0
 71
3
 72
9
 73
5
 74
0
 42
0.0000001
 43
0.0000001
 44
0.0000000001
 40
0.0
 40
0.0
 40
0.0
 40
0.0
 40
0.2697164978
 40
1.0
 40
1.0
 40
1.0
 40
1.0
 10
31.4987556383
 20
-5.9923952201
 30
0.0
 10
31.4972717005
 20
-5.9982855898
 30
0.0
 10
31.4918636731
 20
-6.0201465075
 30
0.0
 10
31.4868841916
 20
-6.0421262108
 30
0.0
 10
31.4838809565
 20
-6.058296759
 30
0.0
  0
SPLINE
  5
3FB
100
AcDbEntity
  8
RACCORDO
100
AcDbSpline
 62
7
  6
CONTINUOUS
 70
0
 71
3
 72
8
 73
4
 74
0
 42
0.0000001
 43
0.0000001
 44
0.0000000001
 40
0.0
 40
0.0
 40
0.0
 40
0.0
 40
1.0
 40
1.0
 40
1.0
 40
1.0
 10
31.4838809565
 20
-6.058296759
 30
0.0
 10
31.4821556766
 20
-6.0675863153
 30
0.0
 10
31.4806391105
 20
-6.0769238527
 30
0.0
 10
31.4795530503
 20
-6.0863096355
 30
0.0
  0
SPLINE
  5
3FC
100
AcDbEntity
  8
RACCORDO
100
AcDbSpline
 62
7
  6
CONTINUOUS
 70
0
 71
3
 72
9
 73
5
 74
0
 42
0.0000001
 43
0.0000001
 44
0.0000000001
 40
0.0
 40
0.0
 40
0.0
 40
0.0
 40
0.7200371592
 40
1.0
 40
1.0
 40
1.0
 40
1.0
 10
31.716172092
 20
-5.5977045882
 30
0.0
 10
31.7080967249
 20
-5.5977594829
 30
0.0
 10
31.6968873781
 20
-5.6009727494
 30
0.0
 10
31.6869758065
 20
-5.6061630219
 30
0.0
 10
31.6842619114
 20
-5.6077422101
 30
0.0
  0
SPLINE
  5
3FD
100
AcDbEntity
  8
RACCORDO
100
AcDbSpline
 62
7
  6
CONTINUOUS
 70
0
 71
3
 72
9
 73
5
 74
0
 42
0.0000001
 43
0.0000001
 44
0.0000000001
 40
0.0
 40
0.0
 40
0.0
 40
0.0
 40
0.419533584
 40
1.0
 40
1.0
 40
1.0
 40
1.0
 10
31.6842619114
 20
-5.6077422101
 30
0.0
 10
31.6598790813
 20
-5.6219303325
 30
0.0
 10
31.6145221438
 20
-5.6748460488
 30
0.0
 10
31.5831045091
 20
-5.7340754475
 30
0.0
 10
31.5675007779
 20
-5.7698526671
 30
0.0
  0
SPLINE
  5
3FE
100
AcDbEntity
  8
RACCORDO
100
AcDbSpline
 62
250
  6
CONTINUOUS
 70
0
 71
3
 72
16
 73
12
 74
0
 42
0.0000001
 43
0.0000001
 44
0.0000000001
 40
0.0
 40
0.0
 40
0.0
 40
0.0
 40
0.0644195857
 40
0.1025280749
 40
0.1456805978
 40
0.2482941323
 40
0.3722654455
 40
0.5145341844
 40
0.6704301399
 40
0.8342718659
 40
1.0
 40
1.0
 40
1.0
 40
1.0
 10
31.529728275
 20
-5.8769686834
 30
0.0
 10
31.6443907381
 20
-5.8975275241
 30
0.0
 10
31.837928762
 20
-5.8714367558
 30
0.0
 10
32.0772316412
 20
-5.7610813755
 30
0.0
 10
32.3554468384
 20
-5.5764173121
 30
0.0
 10
32.7057227876
 20
-5.2318811702
 30
0.0
 10
33.1055552541
 20
-4.6961566913
 30
0.0
 10
33.4906203871
 20
-4.0354204216
 30
0.0
 10
33.8443675506
 20
-3.2774985265
 30
0.0
 10
34.1515469751
 20
-2.4542345245
 30
0.0
 10
34.3174869902
 20
-1.8811337971
 30
0.0
 10
34.389672212
 20
-1.5902683678
 30
0.0
  0
SPLINE
  5
3FF
100
AcDbEntity
  8
RACCORDO
100
AcDbSpline
 62
7
  6
CONTINUOUS
 70
0
 71
3
 72
9
 73
5
 74
0
 42
0.0000001
 43
0.0000001
 44
0.0000000001
 40
0.0
 40
0.0
 40
0.0
 40
0.0
 40
0.3964825157
 40
1.0
 40
1.0
 40
1.0
 40
1.0
 10
34.4602778525
 20
-1.2882035251
 30
0.0
 10
34.4377234375
 20
-1.2924212479
 30
0.0
 10
34.3900135112
 20
-1.3329695214
 30
0.0
 10
34.3595974953
 20
-1.3812543945
 30
0.0
 10
34.3431451286
 20
-1.4120637208
 30
0.0
  0
SPLINE
  5
400
100
AcDbEntity
  8
RACCORDO
100
AcDbSpline
 62
7
  6
CONTINUOUS
 70
0
 71
3
 72
8
 73
4
 74
0
 42
0.0000001
 43
0.0000001
 44
0.0000000001
 40
0.0
 40
0.0
 40
0.0
 40
0.0
 40
1.0
 40
1.0
 40
1.0
 40
1.0
 10
34.3431451286
 20
-1.4120637208
 30
0.0
 10
34.3317414969
 20
-1.4334185942
 30
0.0
 10
34.3215890939
 20
-1.4554708776
 30
0.0
 10
34.3125052405
 20
-1.4779109543
 30
0.0
  0
SPLINE
  5
401
100
AcDbEntity
  8
RACCORDO
100
AcDbSpline
 62
7
  6
CONTINUOUS
 70
0
 71
3
 72
14
 73
10
 74
0
 42
0.0000001
 43
0.0000001
 44
0.0000000001
 40
0.0
 40
0.0
 40
0.0
 40
0.0
 40
0.322420335
 40
0.4760692895
 40
0.6176384186
 40
0.7426798843
 40
0.8480796791
 40
0.9329155878
 40
1.0
 40
1.0
 40
1.0
 40
1.0
 10
34.2768676284
 20
-1.5880708495
 30
0.0
 10
34.1492639985
 20
-2.1052084429
 30
0.0
 10
33.9052858571
 20
-2.8569008628
 30
0.0
 10
33.4823156728
 20
-3.7863015573
 30
0.0
 10
33.1410879845
 20
-4.3921738737
 30
0.0
 10
32.7847821906
 20
-4.8945834125
 30
0.0
 10
32.4258694317
 20
-5.2754012804
 30
0.0
 10
32.0765427431
 20
-5.5236737071
 30
0.0
 10
31.8269949959
 20
-5.5969512369
 30
0.0
 10
31.716172092
 20
-5.5977045882
 30
0.0
  0
SPLINE
  5
402
100
AcDbEntity
  8
RACCORDO
100
AcDbSpline
 62
7
  6
CONTINUOUS
 70
0
 71
3
 72
10
 73
6
 74
0
 42
0.0000001
 43
0.0000001
 44
0.0000000001
 40
0.0
 40
0.0
 40
0.0
 40
0.0
 40
0.4984842526
 40
0.7455404229
 40
1.0
 40
1.0
 40
1.0
 40
1.0
 10
33.5507456679
 20
3.4871365584
 30
0.0
 10
33.4490805776
 20
3.738561236
 30
0.0
 10
33.2387683577
 20
4.0999534153
 30
0.0
 10
32.8214764782
 20
4.4564528861
 30
0.0
 10
32.570372294
 20
4.573841755
 30
0.0
 10
32.4380326136
 20
4.6144819887
 30
0.0
  0
SPLINE
  5
403
100
AcDbEntity
  8
RACCORDO
100
AcDbSpline
 62
7
  6
CONTINUOUS
 70
0
 71
3
 72
13
 73
9
 74
0
 42
0.0000001
 43
0.0000001
 44
0.0000000001
 40
0.0
 40
0.0
 40
0.0
 40
0.0
 40
0.3024975491
 40
0.5637281243
 40
0.6777037423
 40
0.7852688124
 40
0.8911027148
 40
1.0
 40
1.0
 40
1.0
 40
1.0
 10
34.5168221162
 20
-1.2961885423
 30
0.0
 10
34.6301957757
 20
-0.7902440181
 30
0.0
 10
34.7828919657
 20
0.1668881135
 30
0.0
 10
34.7765326218
 20
1.3382857889
 30
0.0
 10
34.6034473965
 20
2.151188638
 30
0.0
 10
34.3760636095
 20
2.6696953847
 30
0.0
 10
34.0210161289
 20
3.1047764521
 30
0.0
 10
33.6882628465
 20
3.2890673225
 30
0.0
 10
33.5098328943
 20
3.3438614323
 30
0.0
  0
SPLINE
  5
404
100
AcDbEntity
  8
0
100
AcDbSpline
 62
7
  6
CONTINUOUS
 70
0
 71
3
 72
10
 73
6
 74
0
 42
0.0000001
 43
0.0000001
 44
0.0000000001
 40
0.0
 40
0.0
 40
0.0
 40
0.0
 40
0.5738956782
 40
0.8077691673
 40
1.0
 40
1.0
 40
1.0
 40
1.0
 10
33.3862973655
 20
-0.3690805949
 30
0.0
 10
33.453338281
 20
0.0730875972
 30
0.0
 10
33.5064539455
 20
0.7063960705
 30
0.0
 10
33.4259641778
 20
1.4831600531
 30
0.0
 10
33.335582018
 20
1.8060868626
 30
0.0
 10
33.2747106948
 20
1.9429621142
 30
0.0
  0
SPLINE
  5
405
100
AcDbEntity
  8
0
100
AcDbSpline
 62
7
  6
CONTINUOUS
 70
0
 71
3
 72
13
 73
9
 74
0
 42
0.0000001
 43
0.0000001
 44
0.0000000001
 40
0.0
 40
0.0
 40
0.0
 40
0.0
 40
0.3366633458
 40
0.6117399361
 40
0.7261652983
 40
0.8267445191
 40
0.9164429775
 40
1.0
 40
1.0
 40
1.0
 40
1.0
 10
32.4165467113
 20
1.0347958668
 30
0.0
 10
32.5367223885
 20
1.2127262805
 30
0.0
 10
32.7729999711
 20
1.524445547
 30
0.0
 10
33.1123745975
 20
1.8457519663
 30
0.0
 10
33.3801901435
 20
2.0092411824
 30
0.0
 10
33.56254513
 20
2.0801148649
 30
0.0
 10
33.7372332178
 20
2.1052251722
 30
0.0
 10
33.8485069695
 20
2.0891142583
 30
0.0
 10
33.8994481037
 20
2.0734679699
 30
0.0
  0
SPLINE
  5
406
100
AcDbEntity
  8
0
100
AcDbSpline
 62
250
  6
CONTINUOUS
 70
0
 71
3
 72
9
 73
5
 74
0
 42
0.0000001
 43
0.0000001
 44
0.0000000001
 40
0.0
 40
0.0
 40
0.0
 40
0.0
 40
0.2571906089
 40
1.0
 40
1.0
 40
1.0
 40
1.0
 10
29.7634985005
 20
9.9075097655
 30
0.0
 10
29.8506250003
 20
10.0523849235
 30
0.0
 10
30.190428766
 20
10.6150560595
 30
0.0
 10
30.5344936799
 20
11.1751593501
 30
0.0
 10
30.7929294321
 20
11.5894176096
 30
0.0
  0
SPLINE
  5
407
100
AcDbEntity
  8
RACCORDO
100
AcDbSpline
 62
250
  6
CONTINUOUS
 70
0
 71
3
 72
8
 73
4
 74
0
 42
0.0000001
 43
0.0000001
 44
0.0000000001
 40
0.0
 40
0.0
 40
0.0
 40
0.0
 40
1.0
 40
1.0
 40
1.0
 40
1.0
 10
33.2346214557
 20
3.4312828651
 30
0.0
 10
33.2063813854
 20
3.4599566996
 30
0.0
 10
33.1762368013
 20
3.486909327
 30
0.0
 10
33.1443246861
 20
3.5114308943
 30
0.0
  0
SPLINE
  5
408
100
AcDbEntity
  8
RACCORDO
100
AcDbSpline
 62
250
  6
CONTINUOUS
 70
0
 71
3
 72
14
 73
10
 74
0
 42
0.0000001
 43
0.0000001
 44
0.0000000001
 40
0.0
 40
0.0
 40
0.0
 40
0.0
 40
0.0858618216
 40
0.1714985337
 40
0.2658629633
 40
0.3752917922
 40
0.5030813173
 40
0.6502877686
 40
1.0
 40
1.0
 40
1.0
 40
1.0
 10
33.1443246861
 20
3.5114308943
 30
0.0
 10
33.0775830437
 20
3.5627157954
 30
0.0
 10
32.9259453859
 20
3.6447425898
 30
0.0
 10
32.6614772213
 20
3.6755040117
 30
0.0
 10
32.3805777899
 20
3.6127355004
 30
0.0
 10
32.0886254157
 20
3.46461411
 30
0.0
 10
31.7873428639
 20
3.2357466416
 30
0.0
 10
31.3527494677
 20
2.8025362309
 30
0.0
 10
31.0647840817
 20
2.4055375023
 30
0.0
 10
30.8802646118
 20
2.1166099507
 30
0.0
  0
SPLINE
  5
409
100
AcDbEntity
  8
RACCORDO
100
AcDbSpline
 62
250
  6
CONTINUOUS
 70
0
 71
3
 72
19
 73
15
 74
0
 42
0.0000001
 43
0.0000001
 44
0.0000000001
 40
0.0
 40
0.0
 40
0.0
 40
0.0
 40
0.1864082021
 40
0.3480781082
 40
0.4768726041
 40
0.5282724264
 40
0.5719399259
 40
0.6101959441
 40
0.6468909245
 40
0.6864429357
 40
0.7322806477
 40
0.7862571256
 40
0.8490511258
 40
1.0
 40
1.0
 40
1.0
 40
1.0
 10
34.5081840995
 20
-1.0578247832
 30
0.0
 10
34.578720049
 20
-0.6991457698
 30
0.0
 10
34.6771439748
 20
-0.0215984573
 30
0.0
 10
34.6934433334
 20
0.9152567556
 30
0.0
 10
34.5878943522
 20
1.5854094668
 30
0.0
 10
34.4144045391
 20
1.9913871699
 30
0.0
 10
34.2590905684
 20
2.2054441055
 30
0.0
 10
34.0670419314
 20
2.3454158207
 30
0.0
 10
33.8430700591
 20
2.3994328626
 30
0.0
 10
33.6015837861
 20
2.3655337871
 30
0.0
 10
33.3501292901
 20
2.2522527239
 30
0.0
 10
33.0899881098
 20
2.0652158499
 30
0.0
 10
32.7121863447
 20
1.6988621006
 30
0.0
 10
32.4637192897
 20
1.3572947162
 30
0.0
 10
32.3043940986
 20
1.1078173172
 30
0.0
  0
SPLINE
  5
40A
100
AcDbEntity
  8
0
100
AcDbSpline
 62
250
  6
CONTINUOUS
 70
0
 71
3
 72
10
 73
6
 74
0
 42
0.0000001
 43
0.0000001
 44
0.0000000001
 40
0.0
 40
0.0
 40
0.0
 40
0.0
 40
0.4409895331
 40
0.7065383458
 40
1.0
 40
1.0
 40
1.0
 40
1.0
 10
-8.6901768379
 20
25.0367749383
 30
0.0
 10
-8.4756858603
 20
25.1513902126
 30
0.0
 10
-8.0648649032
 20
25.2046431642
 30
0.0
 10
-7.5216856879
 20
25.1162869737
 30
0.0
 10
-7.2270283382
 20
25.0189877099
 30
0.0
 10
-7.0770114474
 20
24.9582769579
 30
0.0
  0
SPLINE
  5
40B
100
AcDbEntity
  8
0
100
AcDbSpline
 62
250
  6
CONTINUOUS
 70
0
 71
3
 72
9
 73
5
 74
0
 42
0.0000001
 43
0.0000001
 44
0.0000000001
 40
0.0
 40
0.0
 40
0.0
 40
0.0
 40
0.5060779793
 40
1.0
 40
1.0
 40
1.0
 40
1.0
 10
-7.0770326684
 20
24.9582998254
 30
0.0
 10
-7.6020391239
 20
24.6792052403
 30
0.0
 10
-8.595777673
 20
24.040103625
 30
0.0
 10
-9.4601369896
 20
23.2335827204
 30
0.0
 10
-9.8463298126
 20
22.8004530419
 30
0.0
  0
SPLINE
  5
40C
100
AcDbEntity
  8
0
100
AcDbSpline
 62
250
  6
CONTINUOUS
 70
0
 71
3
 72
11
 73
7
 74
0
 42
0.0000001
 43
0.0000001
 44
0.0000000001
 40
0.0
 40
0.0
 40
0.0
 40
0.0
 40
0.2037264859
 40
0.4316967455
 40
0.6969374377
 40
1.0
 40
1.0
 40
1.0
 40
1.0
 10
-12.3033125679
 20
22.0650598413
 30
0.0
 10
-12.2106396827
 20
22.1724523899
 30
0.0
 10
-11.9574536119
 20
22.3543732314
 30
0.0
 10
-11.4748974754
 20
22.4623483008
 30
0.0
 10
-10.9163934232
 20
22.4225024733
 30
0.0
 10
-10.5340302292
 20
22.3105373145
 30
0.0
 10
-10.3370151909
 20
22.2349557551
 30
0.0
  0
SPLINE
  5
40D
100
AcDbEntity
  8
0
100
AcDbSpline
 62
250
  6
CONTINUOUS
 70
0
 71
3
 72
11
 73
7
 74
0
 42
0.0000001
 43
0.0000001
 44
0.0000000001
 40
0.0
 40
0.0
 40
0.0
 40
0.0
 40
0.2075091101
 40
0.4369279391
 40
0.7007218734
 40
1.0
 40
1.0
 40
1.0
 40
1.0
 10
-11.7992642187
 20
22.6335813093
 30
0.0
 10
-11.7026484486
 20
22.7393858981
 30
0.0
 10
-11.4467219669
 20
22.9177209842
 30
0.0
 10
-10.9658527418
 20
23.0250383293
 30
0.0
 10
-10.4145138321
 20
22.9860617529
 30
0.0
 10
-10.0389687977
 20
22.8752340631
 30
0.0
 10
-9.8463298117
 20
22.8004530344
 30
0.0
  0
SPLINE
  5
40E
100
AcDbEntity
  8
0
100
AcDbSpline
 62
250
  6
CONTINUOUS
 70
0
 71
3
 72
9
 73
5
 74
0
 42
0.0000001
 43
0.0000001
 44
0.0000000001
 40
0.0
 40
0.0
 40
0.0
 40
0.0
 40
0.2498927235
 40
1.0
 40
1.0
 40
1.0
 40
1.0
 10
-7.0770326684
 20
24.9582998254
 30
0.0
 10
-3.8397937454
 20
24.0830505462
 30
0.0
 10
9.0783461722
 20
20.447473882
 30
0.0
 10
21.8489565527
 20
16.2869019914
 30
0.0
 10
31.3186138551
 20
12.8731821847
 30
0.0
  0
SPLINE
  5
40F
100
AcDbEntity
  8
0
100
AcDbSpline
 62
7
  6
CONTINUOUS
 70
0
 71
3
 72
11
 73
7
 74
0
 42
0.0000001
 43
0.0000001
 44
0.0000000001
 40
0.0
 40
0.0
 40
0.0
 40
0.0
 40
0.2186142131
 40
0.4540913166
 40
0.7134238137
 40
1.0
 40
1.0
 40
1.0
 40
1.0
 10
-14.6431155176
 20
18.925012468
 30
0.0
 10
-14.5804149115
 20
18.9998093721
 30
0.0
 10
-14.4256163434
 20
19.1357132223
 30
0.0
 10
-14.1363555469
 20
19.2760844297
 30
0.0
 10
-13.7944616255
 20
19.3561670755
 30
0.0
 10
-13.5498024623
 20
19.368343164
 30
0.0
 10
-13.4218873101
 20
19.365685746
 30
0.0
  0
SPLINE
  5
410
100
AcDbEntity
  8
0
100
AcDbSpline
 62
7
  6
CONTINUOUS
 70
0
 71
3
 72
9
 73
5
 74
0
 42
0.0000001
 43
0.0000001
 44
0.0000000001
 40
0.0
 40
0.0
 40
0.0
 40
0.0
 40
0.2361676481
 40
1.0
 40
1.0
 40
1.0
 40
1.0
 10
-13.4218873101
 20
19.365685746
 30
0.0
 10
-13.3536863118
 20
19.3642688805
 30
0.0
 10
-13.0651532008
 20
19.3472080267
 30
0.0
 10
-12.7797576154
 20
19.2896224731
 30
0.0
 10
-12.5675312602
 20
19.2293148206
 30
0.0
  0
SPLINE
  5
411
100
AcDbEntity
  8
0
100
AcDbSpline
 62
7
  6
CONTINUOUS
 70
0
 71
3
 72
8
 73
4
 74
0
 42
0.0000001
 43
0.0000001
 44
0.0000000001
 40
0.0
 40
0.0
 40
0.0
 40
0.0
 40
1.0
 40
1.0
 40
1.0
 40
1.0
 10
27.8445467686
 20
6.8085722537
 30
0.0
 10
27.218315663
 20
7.0154625665
 30
0.0
 10
26.5918858215
 20
7.2217523028
 30
0.0
 10
25.965258473
 20
7.4274393595
 30
0.0
  0
SPLINE
  5
412
100
AcDbEntity
  8
0
100
AcDbSpline
 62
7
  6
CONTINUOUS
 70
0
 71
3
 72
8
 73
4
 74
0
 42
0.0000001
 43
0.0000001
 44
0.0000000001
 40
0.0
 40
0.0
 40
0.0
 40
0.0
 40
1.0
 40
1.0
 40
1.0
 40
1.0
 10
23.5847074766
 20
8.2056302404
 30
0.0
 10
22.9457142583
 20
8.413651631
 30
0.0
 10
22.3065162355
 20
8.6210449646
 30
0.0
 10
21.667114719
 20
8.8278079516
 30
0.0
  0
SPLINE
  5
413
100
AcDbEntity
  8
0
100
AcDbSpline
 62
7
  6
CONTINUOUS
 70
0
 71
3
 72
9
 73
5
 74
0
 42
0.0000001
 43
0.0000001
 44
0.0000000001
 40
0.0
 40
0.0
 40
0.0
 40
0.0
 40
0.2511814685
 40
1.0
 40
1.0
 40
1.0
 40
1.0
 10
12.2006654553
 20
11.8380349694
 30
0.0
 10
10.1350636107
 20
12.4837433775
 30
0.0
 10
1.9032705996
 20
15.0279561305
 30
0.0
 10
-6.3614356755
 20
17.4657493991
 30
0.0
 10
-12.5675312602
 20
19.2293148206
 30
0.0
  0
SPLINE
  5
414
100
AcDbEntity
  8
0
100
AcDbSpline
 62
7
  6
CONTINUOUS
 70
0
 71
3
 72
11
 73
7
 74
0
 42
0.0000001
 43
0.0000001
 44
0.0000000001
 40
0.0
 40
0.0
 40
0.0
 40
0.0
 40
0.2702737377
 40
0.5432657185
 40
0.7926602243
 40
1.0
 40
1.0
 40
1.0
 40
1.0
 10
27.8445467686
 20
6.8085722537
 30
0.0
 10
27.9989619179
 20
6.7575575393
 30
0.0
 10
28.2972673642
 20
6.6162148304
 30
0.0
 10
28.6791697139
 20
6.3245266767
 30
0.0
 10
28.9630609911
 20
5.9849956225
 30
0.0
 10
29.0734617439
 20
5.7244023466
 30
0.0
 10
29.0916347985
 20
5.6009765558
 30
0.0
  0
SPLINE
  5
415
100
AcDbEntity
  8
RACCORDO
100
AcDbSpline
 62
7
  6
CONTINUOUS
 70
0
 71
3
 72
8
 73
4
 74
0
 42
0.0000001
 43
0.0000001
 44
0.0000000001
 40
0.0
 40
0.0
 40
0.0
 40
0.0
 40
1.0
 40
1.0
 40
1.0
 40
1.0
 10
30.8802664217
 20
2.1165976588
 30
0.0
 10
30.8766209485
 20
2.1413565899
 30
0.0
 10
30.8707597498
 20
2.1658440582
 30
0.0
 10
30.8633100373
 20
2.189735394
 30
0.0
  0
SPLINE
  5
416
100
AcDbEntity
  8
RACCORDO
100
AcDbSpline
 62
7
  6
CONTINUOUS
 70
0
 71
3
 72
8
 73
4
 74
0
 42
0.0000001
 43
0.0000001
 44
0.0000000001
 40
0.0
 40
0.0
 40
0.0
 40
0.0
 40
1.0
 40
1.0
 40
1.0
 40
1.0
 10
30.8633100373
 20
2.189735394
 30
0.0
 10
30.8555104867
 20
2.2147486659
 30
0.0
 10
30.8459263356
 20
2.2392481019
 30
0.0
 10
30.8350178904
 20
2.2630704145
 30
0.0
  0
SPLINE
  5
417
100
AcDbEntity
  8
0
100
AcDbSpline
 62
250
  6
CONTINUOUS
 70
0
 71
3
 72
9
 73
5
 74
0
 42
0.0000001
 43
0.0000001
 44
0.0000000001
 40
0.0
 40
0.0
 40
0.0
 40
0.0
 40
0.2641231194
 40
1.0
 40
1.0
 40
1.0
 40
1.0
 10
32.0008645504
 20
10.3364898669
 30
0.0
 10
32.0745201523
 20
10.45918064
 30
0.0
 10
32.33451209
 20
10.9343544747
 30
0.0
 10
32.5129429212
 20
11.4572986031
 30
0.0
 10
32.576161309
 20
11.8509529502
 30
0.0
  0
SPLINE
  5
418
100
AcDbEntity
  8
RACCORDO
100
AcDbSpline
 62
250
  6
CONTINUOUS
 70
0
 71
3
 72
9
 73
5
 74
0
 42
0.0000001
 43
0.0000001
 44
0.0000000001
 40
0.0
 40
0.0
 40
0.0
 40
0.0
 40
0.2452772273
 40
1.0
 40
1.0
 40
1.0
 40
1.0
 10
32.576161309
 20
11.8509529502
 30
0.0
 10
32.692985741
 20
11.1385022746
 30
0.0
 10
33.1613874287
 20
8.2325323841
 30
0.0
 10
33.6055220541
 20
5.3226993822
 30
0.0
 10
33.9331939052
 20
3.1254968693
 30
0.0
  0
SPLINE
  5
419
100
AcDbEntity
  8
0
100
AcDbSpline
 62
250
  6
CONTINUOUS
 70
0
 71
3
 72
11
 73
7
 74
0
 42
0.0000001
 43
0.0000001
 44
0.0000000001
 40
0.0
 40
0.0
 40
0.0
 40
0.0
 40
0.3241155457
 40
0.5967118693
 40
0.8160536629
 40
1.0
 40
1.0
 40
1.0
 40
1.0
 10
31.3186094079
 20
12.8731415915
 30
0.0
 10
31.3520499348
 20
12.9124909182
 30
0.0
 10
31.4199091446
 20
12.9800067793
 30
0.0
 10
31.5286055845
 20
13.0528538826
 30
0.0
 10
31.6315053198
 20
13.0900290053
 30
0.0
 10
31.6984177848
 20
13.0855122428
 30
0.0
 10
31.7260512854
 20
13.0757501877
 30
0.0
  0
SPLINE
  5
41A
100
AcDbEntity
  8
0
100
AcDbSpline
 62
250
  6
CONTINUOUS
 70
0
 71
3
 72
10
 73
6
 74
0
 42
0.0000001
 43
0.0000001
 44
0.0000000001
 40
0.0
 40
0.0
 40
0.0
 40
0.0
 40
0.3213632544
 40
0.7062703618
 40
1.0
 40
1.0
 40
1.0
 40
1.0
 10
-7.0770329314
 20
24.9583009345
 30
0.0
 10
-7.0468594114
 20
24.9947302376
 30
0.0
 10
-6.9753369388
 20
25.0702861416
 30
0.0
 10
-6.8542773329
 20
25.1587913618
 30
0.0
 10
-6.7477449594
 20
25.1723604177
 30
0.0
 10
-6.7060152198
 20
25.161050992
 30
0.0
  0
SPLINE
  5
41B
100
AcDbEntity
  8
0
100
AcDbSpline
 62
250
  6
CONTINUOUS
 70
0
 71
3
 72
9
 73
5
 74
0
 42
0.0000001
 43
0.0000001
 44
0.0000000001
 40
0.0
 40
0.0
 40
0.0
 40
0.0
 40
0.2547319758
 40
1.0
 40
1.0
 40
1.0
 40
1.0
 10
29.0916348813
 20
5.6009759936
 30
0.0
 10
29.2581122464
 20
5.8616525487
 30
0.0
 10
29.9080440203
 20
6.8872863269
 30
0.0
 10
30.5433142185
 20
7.9222287574
 30
0.0
 10
31.0074851235
 20
8.6990331603
 30
0.0
  0
SPLINE
  5
41C
100
AcDbEntity
  8
0
100
AcDbSpline
 62
250
  6
CONTINUOUS
 70
0
 71
3
 72
11
 73
7
 74
0
 42
0.0000001
 43
0.0000001
 44
0.0000000001
 40
0.0
 40
0.0
 40
0.0
 40
0.0
 40
0.2115069718
 40
0.4601560654
 40
0.7307333528
 40
1.0
 40
1.0
 40
1.0
 40
1.0
 10
31.0074850587
 20
8.6990331772
 30
0.0
 10
30.9935251224
 20
8.8263438581
 30
0.0
 10
30.8915336655
 20
9.0951475064
 30
0.0
 10
30.6091672596
 20
9.4418390296
 30
0.0
 10
30.2233719065
 20
9.7303844037
 30
0.0
 10
29.920239633
 20
9.8625966084
 30
0.0
 10
29.7634985056
 20
9.9075096876
 30
0.0
  0
SPLINE
  5
41D
100
AcDbEntity
  8
0
100
AcDbSpline
 62
250
  6
CONTINUOUS
 70
0
 71
3
 72
9
 73
5
 74
0
 42
0.0000001
 43
0.0000001
 44
0.0000000001
 40
0.0
 40
0.0
 40
0.0
 40
0.0
 40
0.7465387952
 40
1.0
 40
1.0
 40
1.0
 40
1.0
 10
32.5761133268
 20
11.8508919196
 30
0.0
 10
32.5699818947
 20
11.9144823465
 30
0.0
 10
32.5515106437
 20
11.999068383
 30
0.0
 10
32.5213885272
 20
12.0791828001
 30
0.0
 10
32.5130582549
 20
12.0992093913
 30
0.0
  0
SPLINE
  5
41E
100
AcDbEntity
  8
0
100
AcDbSpline
 62
250
  6
CONTINUOUS
 70
0
 71
3
 72
9
 73
5
 74
0
 42
0.0000001
 43
0.0000001
 44
0.0000000001
 40
0.0
 40
0.0
 40
0.0
 40
0.0
 40
0.2445020898
 40
1.0
 40
1.0
 40
1.0
 40
1.0
 10
32.5130582549
 20
12.0992093913
 30
0.0
 10
32.5046398837
 20
12.1194477784
 30
0.0
 10
32.4673076563
 20
12.2010021709
 30
0.0
 10
32.4188100153
 20
12.2773010671
 30
0.0
 10
32.3775994058
 20
12.3310506117
 30
0.0
  0
SPLINE
  5
41F
100
AcDbEntity
  8
0
100
AcDbSpline
 62
250
  6
CONTINUOUS
 70
0
 71
3
 72
9
 73
5
 74
0
 42
0.0000001
 43
0.0000001
 44
0.0000000001
 40
0.0
 40
0.0
 40
0.0
 40
0.0
 40
0.4831507699
 40
1.0
 40
1.0
 40
1.0
 40
1.0
 10
32.3775994058
 20
12.3310506117
 30
0.0
 10
32.258530815
 20
12.4863475755
 30
0.0
 10
31.9286948906
 20
12.7483251686
 30
0.0
 10
31.5268702729
 20
12.8519271769
 30
0.0
 10
31.3186094079
 20
12.8731415915
 30
0.0
  0
SPLINE
  5
420
100
AcDbEntity
  8
0
100
AcDbSpline
 62
250
  6
CONTINUOUS
 70
0
 71
3
 72
10
 73
6
 74
0
 42
0.0000001
 43
0.0000001
 44
0.0000000001
 40
0.0
 40
0.0
 40
0.0
 40
0.0
 40
0.4640800101
 40
0.7327664344
 40
1.0
 40
1.0
 40
1.0
 40
1.0
 10
32.0008545545
 20
10.3364922157
 30
0.0
 10
31.9838149979
 20
10.6180806065
 30
0.0
 10
31.7336363879
 20
11.0433928479
 30
0.0
 10
31.2538510742
 20
11.4148460878
 30
0.0
 10
30.9497614927
 20
11.5470802861
 30
0.0
 10
30.7929294625
 20
11.5894137215
 30
0.0
  0
SPLINE
  5
421
100
AcDbEntity
  8
0
100
AcDbSpline
 62
250
  6
CONTINUOUS
 70
0
 71
3
 72
9
 73
5
 74
0
 42
0.0000001
 43
0.0000001
 44
0.0000000001
 40
0.0
 40
0.0
 40
0.0
 40
0.0
 40
0.2571314454
 40
1.0
 40
1.0
 40
1.0
 40
1.0
 10
31.0074851235
 20
8.6990331603
 30
0.0
 10
31.0916871259
 20
8.8399478032
 30
0.0
 10
31.4200216095
 20
9.3874540267
 30
0.0
 10
31.7519106294
 20
9.9328326976
 30
0.0
 10
32.0008645504
 20
10.3364898669
 30
0.0
  0
SPLINE
  5
422
100
AcDbEntity
  8
0
100
AcDbSpline
 62
250
  6
CONTINUOUS
 70
0
 71
3
 72
9
 73
5
 74
0
 42
0.0000001
 43
0.0000001
 44
0.0000000001
 40
0.0
 40
0.0
 40
0.0
 40
0.0
 40
0.2654866437
 40
1.0
 40
1.0
 40
1.0
 40
1.0
 10
30.7929294321
 20
11.5894176096
 30
0.0
 10
30.8580968972
 20
11.693894432
 30
0.0
 10
31.0884732816
 20
12.0962356513
 30
0.0
 10
31.253976471
 20
12.5386969662
 30
0.0
 10
31.3186138551
 20
12.8731821847
 30
0.0
  0
SPLINE
  5
423
100
AcDbEntity
  8
0
100
AcDbSpline
 62
250
  6
CONTINUOUS
 70
0
 71
3
 72
9
 73
5
 74
0
 42
0.0000001
 43
0.0000001
 44
0.0000000001
 40
0.0
 40
0.0
 40
0.0
 40
0.0
 40
0.2541631194
 40
1.0
 40
1.0
 40
1.0
 40
1.0
 10
28.1148674041
 20
7.2335758172
 30
0.0
 10
28.2572839349
 20
7.4584046063
 30
0.0
 10
28.8149999917
 20
8.344644396
 30
0.0
 10
29.3620831984
 20
9.2375847685
 30
0.0
 10
29.7634985005
 20
9.9075097655
 30
0.0
  0
SPLINE
  5
424
100
AcDbEntity
  8
RACCORDO
100
AcDbSpline
 62
7
  6
CONTINUOUS
 70
0
 71
3
 72
8
 73
4
 74
0
 42
0.0000001
 43
0.0000001
 44
0.0000000001
 40
0.0
 40
0.0
 40
0.0
 40
0.0
 40
1.0
 40
1.0
 40
1.0
 40
1.0
 10
34.5093004271
 20
-1.3268374377
 30
0.0
 10
34.5129165241
 20
-1.3065146212
 30
0.0
 10
34.5154709614
 20
-1.2859833927
 30
0.0
 10
34.5171261138
 20
-1.2654078369
 30
0.0
  0
SPLINE
  5
425
100
AcDbEntity
  8
0
100
AcDbSpline
 62
7
  6
CONTINUOUS
 70
0
 71
3
 72
9
 73
5
 74
0
 42
0.0000001
 43
0.0000001
 44
0.0000000001
 40
0.0
 40
0.0
 40
0.0
 40
0.0
 40
0.4678332468
 40
1.0
 40
1.0
 40
1.0
 40
1.0
 10
33.8994481037
 20
2.0734679699
 30
0.0
 10
33.9719088879
 20
2.0512120396
 30
0.0
 10
34.1169508539
 20
1.9678062641
 30
0.0
 10
34.2192801907
 20
1.8383558752
 30
0.0
 10
34.2646824051
 20
1.7650519607
 30
0.0
  0
SPLINE
  5
426
100
AcDbEntity
  8
0
100
AcDbSpline
 62
7
  6
CONTINUOUS
 70
0
 71
3
 72
11
 73
7
 74
0
 42
0.0000001
 43
0.0000001
 44
0.0000000001
 40
0.0
 40
0.0
 40
0.0
 40
0.0
 40
0.1823490325
 40
0.4127047607
 40
0.6882045339
 40
1.0
 40
1.0
 40
1.0
 40
1.0
 10
34.2646824051
 20
1.7650519607
 30
0.0
 10
34.344952622
 20
1.63545209
 30
0.0
 10
34.4664151182
 20
1.3061588684
 30
0.0
 10
34.547647522
 20
0.7348605728
 30
0.0
 10
34.5471737273
 20
0.0493402586
 30
0.0
 10
34.4941756165
 20
-0.4395823621
 30
0.0
 10
34.4551008641
 20
-0.6972997948
 30
0.0
  0
SPLINE
  5
427
100
AcDbEntity
  8
RACCORDO
100
AcDbSpline
 62
250
  6
CONTINUOUS
 70
0
 71
3
 72
13
 73
9
 74
0
 42
0.0000001
 43
0.0000001
 44
0.0000000001
 40
0.0
 40
0.0
 40
0.0
 40
0.0
 40
0.0817154361
 40
0.1700222445
 40
0.2699292166
 40
0.384433068
 40
0.6611588354
 40
1.0
 40
1.0
 40
1.0
 40
1.0
 10
32.4380291408
 20
4.6144706805
 30
0.0
 10
32.3574204968
 20
4.6392324128
 30
0.0
 10
32.1801758999
 20
4.6631512938
 30
0.0
 10
31.9022847771
 20
4.6170625918
 30
0.0
 10
31.6123849117
 20
4.4949115833
 30
0.0
 10
31.1861176932
 20
4.2171269576
 30
0.0
 10
30.6491578082
 20
3.6790810486
 30
0.0
 10
30.2776359219
 20
3.1618874378
 30
0.0
 10
30.0894321035
 20
2.8671907942
 30
0.0
  0
SPLINE
  5
428
100
AcDbEntity
  8
0
100
AcDbSpline
 62
7
  6
CONTINUOUS
 70
0
 71
3
 72
13
 73
9
 74
0
 42
0.0000001
 43
0.0000001
 44
0.0000000001
 40
0.0
 40
0.0
 40
0.0
 40
0.0
 40
0.0768766527
 40
0.1611445349
 40
0.2585403506
 40
0.372294958
 40
0.652457622
 40
1.0
 40
1.0
 40
1.0
 40
1.0
 10
31.6993536755
 20
4.841311644
 30
0.0
 10
31.625593812
 20
4.8639479827
 30
0.0
 10
31.4612899604
 20
4.8834249035
 30
0.0
 10
31.2040840487
 20
4.8297775193
 30
0.0
 10
30.9347040622
 20
4.7010965755
 30
0.0
 10
30.5320308781
 20
4.4135103895
 30
0.0
 10
30.0178422919
 20
3.867925862
 30
0.0
 10
29.6537015531
 20
3.3526194876
 30
0.0
 10
29.4659633961
 20
3.0586519942
 30
0.0
  0
SPLINE
  5
429
100
AcDbEntity
  8
RACCORDO
100
AcDbSpline
 62
250
  6
CONTINUOUS
 70
0
 71
3
 72
13
 73
9
 74
0
 42
0.0000001
 43
0.0000001
 44
0.0000000001
 40
0.0
 40
0.0
 40
0.0
 40
0.0
 40
0.0816748271
 40
0.1699467562
 40
0.2698416714
 40
0.3843062321
 40
0.6610712785
 40
1.0
 40
1.0
 40
1.0
 40
1.0
 10
33.509829339
 20
3.3438498536
 30
0.0
 10
33.4413390954
 20
3.3648625073
 30
0.0
 10
33.2907622087
 20
3.3851943803
 30
0.0
 10
33.0546136473
 20
3.3461086516
 30
0.0
 10
32.8082861466
 20
3.2422751059
 30
0.0
 10
32.4458672288
 20
3.00633608
 30
0.0
 10
31.9894195109
 20
2.5488870343
 30
0.0
 10
31.6735359081
 20
2.1092190135
 30
0.0
 10
31.5135224607
 20
1.8586639169
 30
0.0
  0
SPLINE
  5
42A
100
AcDbEntity
  8
0
100
AcDbSpline
 62
7
  6
CONTINUOUS
 70
0
 71
3
 72
13
 73
9
 74
0
 42
0.0000001
 43
0.0000001
 44
0.0000000001
 40
0.0
 40
0.0
 40
0.0
 40
0.0
 40
0.0821552924
 40
0.1707907289
 40
0.2708660434
 40
0.3853229487
 40
0.6616412606
 40
1.0
 40
1.0
 40
1.0
 40
1.0
 10
32.8859802216
 20
3.5354278732
 30
0.0
 10
32.8184131257
 20
3.5561137437
 30
0.0
 10
32.6701365401
 20
3.5763979311
 30
0.0
 10
32.4375417157
 20
3.5391826068
 30
0.0
 10
32.1948882537
 20
3.4388570163
 30
0.0
 10
31.8380258124
 20
3.2102387137
 30
0.0
 10
31.3878463939
 20
2.7655182389
 30
0.0
 10
31.0758054474
 20
2.3371163132
 30
0.0
 10
30.9175543251
 20
2.0928770112
 30
0.0
  0
SPLINE
  5
42B
100
AcDbEntity
  8
0
100
AcDbSpline
 62
7
  6
CONTINUOUS
 70
0
 71
3
 72
11
 73
7
 74
0
 42
0.0000001
 43
0.0000001
 44
0.0000000001
 40
0.0
 40
0.0
 40
0.0
 40
0.0
 40
0.2154209729
 40
0.4480488847
 40
0.7084807633
 40
1.0
 40
1.0
 40
1.0
 40
1.0
 10
11.5106081983
 20
0.4357964482
 30
0.0
 10
11.570082046
 20
0.5289262223
 30
0.0
 10
11.7322210695
 20
0.7000661588
 30
0.0
 10
12.0613552702
 20
0.866737263
 30
0.0
 10
12.4599379347
 20
0.9456298032
 30
0.0
 10
12.7450225967
 20
0.9399030501
 30
0.0
 10
12.8937711973
 20
0.9245892884
 30
0.0
  0
SPLINE
  5
42C
100
AcDbEntity
  8
0
100
AcDbSpline
 62
7
  6
CONTINUOUS
 70
0
 71
3
 72
9
 73
5
 74
0
 42
0.0000001
 43
0.0000001
 44
0.0000000001
 40
0.0
 40
0.0
 40
0.0
 40
0.0
 40
0.4811023876
 40
1.0
 40
1.0
 40
1.0
 40
1.0
 10
12.8937711973
 20
0.9245892884
 30
0.0
 10
13.1579903712
 20
0.8973877588
 30
0.0
 10
13.6995710399
 20
0.7603078624
 30
0.0
 10
14.1966379184
 20
0.5104844154
 30
0.0
 10
14.4383249142
 20
0.3566678397
 30
0.0
  0
SPLINE
  5
42D
100
AcDbEntity
  8
0
100
AcDbSpline
 62
7
  6
CONTINUOUS
 70
0
 71
3
 72
11
 73
7
 74
0
 42
0.0000001
 43
0.0000001
 44
0.0000000001
 40
0.0
 40
0.0
 40
0.0
 40
0.0
 40
0.2807151297
 40
0.5474954149
 40
0.7892363615
 40
1.0
 40
1.0
 40
1.0
 40
1.0
 10
14.4383249142
 20
0.3566678397
 30
0.0
 10
14.6312617462
 20
0.2338772743
 30
0.0
 10
14.9888243921
 20
-0.0367720769
 30
0.0
 10
15.4301237191
 20
-0.5093012387
 30
0.0
 10
15.740822004
 20
-1.0109814426
 30
0.0
 10
15.8526252964
 20
-1.3691595181
 30
0.0
 10
15.8733159783
 20
-1.5396159892
 30
0.0
  0
SPLINE
  5
42E
100
AcDbEntity
  8
0
100
AcDbSpline
 62
7
  6
CONTINUOUS
 70
0
 71
3
 72
14
 73
10
 74
0
 42
0.0000001
 43
0.0000001
 44
0.0000000001
 40
0.0
 40
0.0
 40
0.0
 40
0.0
 40
0.0892120335
 40
0.187672292
 40
0.3006235738
 40
0.4284449742
 40
0.5680362314
 40
0.7141336691
 40
1.0
 40
1.0
 40
1.0
 40
1.0
 10
11.108927777
 20
0.691162553
 30
0.0
 10
11.0247393193
 20
0.5593394012
 30
0.0
 10
10.9108808746
 20
0.2379842251
 30
0.0
 10
10.9441424419
 20
-0.2983268341
 30
0.0
 10
11.1559073551
 20
-0.8611447189
 30
0.0
 10
11.5272866308
 20
-1.4203368263
 30
0.0
 10
12.034252244
 20
-1.9439708607
 30
0.0
 10
12.8388048886
 20
-2.5447865967
 30
0.0
 10
13.5465326669
 20
-2.8608679783
 30
0.0
 10
14.0337581224
 20
-2.9784030581
 30
0.0
  0
SPLINE
  5
42F
100
AcDbEntity
  8
0
100
AcDbSpline
 62
7
  6
CONTINUOUS
 70
0
 71
3
 72
11
 73
7
 74
0
 42
0.0000001
 43
0.0000001
 44
0.0000000001
 40
0.0
 40
0.0
 40
0.0
 40
0.0
 40
0.1952842304
 40
0.428460446
 40
0.7013554188
 40
1.0
 40
1.0
 40
1.0
 40
1.0
 10
11.6557977497
 20
0.1377229597
 30
0.0
 10
11.5989124924
 20
-0.0169934122
 30
0.0
 10
11.5802969882
 20
-0.3961978182
 30
0.0
 10
11.8010946162
 20
-0.9567161766
 30
0.0
 10
12.2178932289
 20
-1.501326275
 30
0.0
 10
12.5919630705
 20
-1.8126471329
 30
0.0
 10
12.800718619
 20
-1.9539655072
 30
0.0
  0
SPLINE
  5
430
100
AcDbEntity
  8
DRAFT
100
AcDbSpline
 62
7
  6
CONTINUOUS
 70
0
 71
3
 72
9
 73
5
 74
0
 42
0.0000001
 43
0.0000001
 44
0.0000000001
 40
0.0
 40
0.0
 40
0.0
 40
0.0
 40
0.2448462083
 40
1.0
 40
1.0
 40
1.0
 40
1.0
 10
6.4669907218
 20
3.2077747485
 30
0.0
 10
6.5143696714
 20
3.1938027963
 30
0.0
 10
6.7068216185
 20
3.1332046653
 30
0.0
 10
6.894974117
 20
3.0591281712
 30
0.0
 10
7.033935814
 20
2.9966830601
 30
0.0
  0
SPLINE
  5
431
100
AcDbEntity
  8
DRAFT
100
AcDbSpline
 62
7
  6
CONTINUOUS
 70
0
 71
3
 72
13
 73
9
 74
0
 42
0.0000001
 43
0.0000001
 44
0.0000000001
 40
0.0
 40
0.0
 40
0.0
 40
0.0
 40
0.3006998875
 40
0.5789178339
 40
0.7015746942
 40
0.8111781624
 40
0.9091669617
 40
1.0
 40
1.0
 40
1.0
 40
1.0
 10
7.3137186649
 20
2.8599816525
 30
0.0
 10
7.6896940004
 20
2.6611801703
 30
0.0
 10
8.3672188402
 20
2.1854940967
 30
0.0
 10
9.0211013497
 20
1.4180634699
 30
0.0
 10
9.3332547907
 20
0.762463365
 30
0.0
 10
9.4417582204
 20
0.303535404
 30
0.0
 10
9.4259111168
 20
-0.1244314288
 30
0.0
 10
9.3256367104
 20
-0.3791114175
 30
0.0
 10
9.2572423829
 20
-0.4878635358
 30
0.0
  0
SPLINE
  5
432
100
AcDbEntity
  8
RACCORDO
100
AcDbSpline
 62
7
  6
CONTINUOUS
 70
0
 71
3
 72
9
 73
5
 74
0
 42
0.0000001
 43
0.0000001
 44
0.0000000001
 40
0.0
 40
0.0
 40
0.0
 40
0.0
 40
0.2582606426
 40
1.0
 40
1.0
 40
1.0
 40
1.0
 10
25.5210271691
 20
-12.2217173798
 30
0.0
 10
25.6980141085
 20
-12.1028993667
 30
0.0
 10
26.3660114538
 20
-11.6180525172
 30
0.0
 10
26.9616267398
 20
-11.0297729638
 30
0.0
 10
27.3338162316
 20
-10.5436517877
 30
0.0
  0
SPLINE
  5
433
100
AcDbEntity
  8
RACCORDO
100
AcDbSpline
 62
7
  6
CONTINUOUS
 70
0
 71
3
 72
9
 73
5
 74
0
 42
0.0000001
 43
0.0000001
 44
0.0000000001
 40
0.0
 40
0.0
 40
0.0
 40
0.0
 40
0.4994786376
 40
1.0
 40
1.0
 40
1.0
 40
1.0
 10
25.5210271691
 20
-12.2217173798
 30
0.0
 10
25.343214115
 20
-12.3410899948
 30
0.0
 10
24.9288362104
 20
-12.4987617394
 30
0.0
 10
24.4861641038
 20
-12.4799801608
 30
0.0
 10
24.2791196801
 20
-12.4234857582
 30
0.0
  0
SPLINE
  5
434
100
AcDbEntity
  8
RACCORDO
100
AcDbSpline
 62
7
  6
CONTINUOUS
 70
0
 71
3
 72
9
 73
5
 74
0
 42
0.0000001
 43
0.0000001
 44
0.0000000001
 40
0.0
 40
0.0
 40
0.0
 40
0.0
 40
0.2485793878
 40
1.0
 40
1.0
 40
1.0
 40
1.0
 10
-19.0527942289
 20
0.6829459629
 30
0.0
 10
-15.4935925041
 20
-0.5023730159
 30
0.0
 10
-1.1421615574
 20
-5.1703592546
 30
0.0
 10
13.3391531233
 20
-9.4383926815
 30
0.0
 10
24.2791196801
 20
-12.4234857582
 30
0.0
  0
SPLINE
  5
435
100
AcDbEntity
  8
RACCORDO
100
AcDbSpline
 62
7
  6
CONTINUOUS
 70
0
 71
3
 72
10
 73
6
 74
0
 42
0.0000001
 43
0.0000001
 44
0.0000000001
 40
0.0
 40
0.0
 40
0.0
 40
0.0
 40
0.2469854697
 40
0.4950131171
 40
1.0
 40
1.0
 40
1.0
 40
1.0
 10
-19.8048419129
 20
1.5153165642
 30
0.0
 10
-19.7907715991
 20
1.419758908
 30
0.0
 10
-19.7318453217
 20
1.231386838
 30
0.0
 10
-19.5066672168
 20
0.9061133758
 30
0.0
 10
-19.2401610312
 20
0.7453446253
 30
0.0
 10
-19.0527942289
 20
0.6829459629
 30
0.0
  0
SPLINE
  5
436
100
AcDbEntity
  8
0
100
AcDbSpline
 62
7
  6
CONTINUOUS
 70
0
 71
3
 72
12
 73
8
 74
0
 42
0.0000001
 43
0.0000001
 44
0.0000000001
 40
0.0
 40
0.0
 40
0.0
 40
0.0
 40
0.181676866
 40
0.2934577189
 40
0.4206856452
 40
0.7070159341
 40
1.0
 40
1.0
 40
1.0
 40
1.0
 10
20.4646507416
 20
-9.0738880751
 30
0.0
 10
20.486124145
 20
-9.0402613455
 30
0.0
 10
20.4921473131
 20
-8.968028027
 30
0.0
 10
20.4584047868
 20
-8.8819502722
 30
0.0
 10
20.3942910151
 20
-8.7848967175
 30
0.0
 10
20.2748552968
 20
-8.6817839382
 30
0.0
 10
20.1577692052
 20
-8.6269126062
 30
0.0
 10
20.0957745111
 20
-8.6096904067
 30
0.0
  0
SPLINE
  5
437
100
AcDbEntity
  8
0
100
AcDbSpline
 62
7
  6
CONTINUOUS
 70
0
 71
3
 72
9
 73
5
 74
0
 42
0.0000001
 43
0.0000001
 44
0.0000000001
 40
0.0
 40
0.0
 40
0.0
 40
0.0
 40
0.4552802302
 40
1.0
 40
1.0
 40
1.0
 40
1.0
 10
21.050845296
 20
-9.4042489095
 30
0.0
 10
21.0129226014
 20
-9.4636062336
 30
0.0
 10
20.8838802274
 20
-9.5656334877
 30
0.0
 10
20.7269585459
 20
-9.5922382524
 30
0.0
 10
20.6427381074
 20
-9.5952632806
 30
0.0
  0
SPLINE
  5
438
100
AcDbEntity
  8
RACCORDO
100
AcDbSpline
 62
7
  6
CONTINUOUS
 70
0
 71
3
 72
9
 73
5
 74
0
 42
0.0000001
 43
0.0000001
 44
0.0000000001
 40
0.0
 40
0.0
 40
0.0
 40
0.0
 40
0.5032509807
 40
1.0
 40
1.0
 40
1.0
 40
1.0
 10
28.9153113798
 20
-6.8568054329
 30
0.0
 10
29.0617416767
 20
-6.9017727584
 30
0.0
 10
29.3686103965
 20
-6.9453157319
 30
0.0
 10
29.6734574916
 20
-6.8986234093
 30
0.0
 10
29.8189978942
 20
-6.8576417429
 30
0.0
  0
SPLINE
  5
439
100
AcDbEntity
  8
DRAFT
100
AcDbSpline
 62
7
  6
CONTINUOUS
 70
0
 71
3
 72
11
 73
7
 74
0
 42
0.0000001
 43
0.0000001
 44
0.0000000001
 40
0.0
 40
0.0
 40
0.0
 40
0.0
 40
0.2043660622
 40
0.4334068685
 40
0.6990901868
 40
1.0
 40
1.0
 40
1.0
 40
1.0
 10
4.1835482881
 20
2.7669329409
 30
0.0
 10
4.2752661643
 20
2.9083228619
 30
0.0
 10
4.5475659789
 20
3.1616191481
 30
0.0
 10
5.1043165119
 20
3.351786229
 30
0.0
 10
5.7672097565
 20
3.3707837194
 30
0.0
 10
6.2289758588
 20
3.2779648292
 30
0.0
 10
6.4669907218
 20
3.2077747485
 30
0.0
  0
SPLINE
  5
43A
100
AcDbEntity
  8
SUPERFICI
100
AcDbSpline
 62
7
  6
CONTINUOUS
 70
0
 71
3
 72
9
 73
5
 74
0
 42
0.0000001
 43
0.0000001
 44
0.0000000001
 40
0.0
 40
0.0
 40
0.0
 40
0.0
 40
0.4991222513
 40
1.0
 40
1.0
 40
1.0
 40
1.0
 10
-20.0220221128
 20
4.3850224355
 30
0.0
 10
-19.9971369216
 20
5.7206111298
 30
0.0
 10
-19.7049926315
 20
8.3981646709
 30
0.0
 10
-18.9094590777
 20
10.9736751257
 30
0.0
 10
-18.3901522934
 20
12.2095194364
 30
0.0
  0
SPLINE
  5
43B
100
AcDbEntity
  8
RACCORDO
100
AcDbSpline
 62
7
  6
CONTINUOUS
 70
0
 71
3
 72
9
 73
5
 74
0
 42
0.0000001
 43
0.0000001
 44
0.0000000001
 40
0.0
 40
0.0
 40
0.0
 40
0.0
 40
0.2649327944
 40
1.0
 40
1.0
 40
1.0
 40
1.0
 10
31.4446440174
 20
-5.854845826
 30
0.0
 10
31.4488604188
 20
-5.8834823263
 30
0.0
 10
31.4608809367
 20
-5.9918669143
 30
0.0
 10
31.4549662579
 20
-6.1040645249
 30
0.0
 10
31.4324115908
 20
-6.1811420912
 30
0.0
  0
SPLINE
  5
43C
100
AcDbEntity
  8
RACCORDO
100
AcDbSpline
 62
7
  6
CONTINUOUS
 70
0
 71
3
 72
9
 73
5
 74
0
 42
0.0000001
 43
0.0000001
 44
0.0000000001
 40
0.0
 40
0.0
 40
0.0
 40
0.0
 40
0.4771365814
 40
1.0
 40
1.0
 40
1.0
 40
1.0
 10
31.4324115908
 20
-6.1811420912
 30
0.0
 10
31.414015349
 20
-6.2440087934
 30
0.0
 10
31.346895319
 20
-6.3721437094
 30
0.0
 10
31.2139553076
 20
-6.4366389886
 30
0.0
 10
31.1434857321
 20
-6.4502949876
 30
0.0
  0
SPLINE
  5
43D
100
AcDbEntity
  8
RACCORDO
100
AcDbSpline
 62
7
  6
CONTINUOUS
 70
0
 71
3
 72
9
 73
5
 74
0
 42
0.0000001
 43
0.0000001
 44
0.0000000001
 40
0.0
 40
0.0
 40
0.0
 40
0.0
 40
0.2589840017
 40
1.0
 40
1.0
 40
1.0
 40
1.0
 10
30.2382318879
 20
-6.3247224379
 30
0.0
 10
30.2401150882
 20
-6.3375125543
 30
0.0
 10
30.2461360308
 20
-6.3870603222
 30
0.0
 10
30.2468491764
 20
-6.437361025
 30
0.0
 10
30.2434662806
 20
-6.4741961894
 30
0.0
  0
SPLINE
  5
43E
100
AcDbEntity
  8
RACCORDO
100
AcDbSpline
 62
7
  6
CONTINUOUS
 70
0
 71
3
 72
9
 73
5
 74
0
 42
0.0000001
 43
0.0000001
 44
0.0000000001
 40
0.0
 40
0.0
 40
0.0
 40
0.0
 40
0.5014045924
 40
1.0
 40
1.0
 40
1.0
 40
1.0
 10
30.2434662806
 20
-6.4741961894
 30
0.0
 10
30.2379483513
 20
-6.5342789844
 30
0.0
 10
30.205702714
 20
-6.6552874479
 30
0.0
 10
30.1125220256
 20
-6.7428411391
 30
0.0
 10
30.0594436739
 20
-6.7708125734
 30
0.0
  0
SPLINE
  5
43F
100
AcDbEntity
  8
RACCORDO
100
AcDbSpline
 62
7
  6
CONTINUOUS
 70
0
 71
3
 72
9
 73
5
 74
0
 42
0.0000001
 43
0.0000001
 44
0.0000000001
 40
0.0
 40
0.0
 40
0.0
 40
0.0
 40
0.2685752183
 40
1.0
 40
1.0
 40
1.0
 40
1.0
 10
29.1472671091
 20
-7.9694260006
 30
0.0
 10
29.1487790662
 20
-7.9796947479
 30
0.0
 10
29.1521573764
 20
-8.0181542144
 30
0.0
 10
29.1449499702
 20
-8.0580755695
 30
0.0
 10
29.1325595163
 20
-8.083482171
 30
0.0
  0
SPLINE
  5
440
100
AcDbEntity
  8
0
100
AcDbSpline
 62
7
  6
CONTINUOUS
 70
0
 71
3
 72
16
 73
12
 74
0
 42
0.0000001
 43
0.0000001
 44
0.0000000001
 40
0.0
 40
0.0
 40
0.0
 40
0.0
 40
0.0666300984
 40
0.108735513
 40
0.1572628319
 40
0.2727841355
 40
0.4090091818
 40
0.5586923688
 40
0.7131296318
 40
0.8631449017
 40
1.0
 40
1.0
 40
1.0
 40
1.0
 10
31.3915590671
 20
-5.494309191
 30
0.0
 10
31.2690896297
 20
-5.406546134
 30
0.0
 10
31.124727642
 20
-5.1903609593
 30
0.0
 10
31.0087162432
 20
-4.8554090044
 30
0.0
 10
30.9159400952
 20
-4.3966243678
 30
0.0
 10
30.8903967343
 20
-3.7147537799
 30
0.0
 10
30.976932319
 20
-2.8093353748
 30
0.0
 10
31.1769331746
 20
-1.8321511384
 30
0.0
 10
31.4771566628
 20
-0.8485015024
 30
0.0
 10
31.8576369452
 20
0.0755594749
 30
0.0
 10
32.1671520206
 20
0.6478366461
 30
0.0
 10
32.3337187735
 20
0.9086531557
 30
0.0
  0
LINE
  5
441
100
AcDbEntity
  8
0
100
AcDbLine
 62
7
  6
CONTINUOUS
 10
12.800718619
 20
-1.9539655072
 11
12.9633941568
 21
-1.7450605407
  0
SPLINE
  5
442
100
AcDbEntity
  8
0
100
AcDbSpline
 62
7
  6
CONTINUOUS
 70
0
 71
3
 72
8
 73
4
 74
0
 42
0.0000001
 43
0.0000001
 44
0.0000000001
 40
0.0
 40
0.0
 40
0.0
 40
0.0
 40
1.0
 40
1.0
 40
1.0
 40
1.0
 10
12.1750277513
 20
0.1435171115
 30
0.0
 10
12.4941714556
 20
-0.1327050789
 30
0.0
 10
12.813585435
 20
-0.4086153057
 30
0.0
 10
13.1332689801
 20
-0.6842125361
 30
0.0
  0
SPLINE
  5
443
100
AcDbEntity
  8
RACCORDO
100
AcDbSpline
 62
7
  6
CONTINUOUS
 70
0
 71
3
 72
11
 73
7
 74
0
 42
0.0000001
 43
0.0000001
 44
0.0000000001
 40
0.0
 40
0.0
 40
0.0
 40
0.0
 40
0.2687337478
 40
0.5420624386
 40
0.7923609422
 40
1.0
 40
1.0
 40
1.0
 40
1.0
 10
31.5135224607
 20
1.8586639169
 30
0.0
 10
31.6107291356
 20
1.8288126888
 30
0.0
 10
31.7993952292
 20
1.7430133183
 30
0.0
 10
32.0416045171
 20
1.5623591868
 30
0.0
 10
32.2223458011
 20
1.3498942776
 30
0.0
 10
32.2929117539
 20
1.1858018664
 30
0.0
 10
32.3043567788
 20
1.1080707815
 30
0.0
  0
SPLINE
  5
444
100
AcDbEntity
  8
RACCORDO
100
AcDbSpline
 62
7
  6
CONTINUOUS
 70
0
 71
3
 72
11
 73
7
 74
0
 42
0.0000001
 43
0.0000001
 44
0.0000000001
 40
0.0
 40
0.0
 40
0.0
 40
0.0
 40
0.2687337478
 40
0.5420624386
 40
0.7923609422
 40
1.0
 40
1.0
 40
1.0
 40
1.0
 10
30.0894321035
 20
2.8671907942
 30
0.0
 10
30.1866387785
 20
2.8373395661
 30
0.0
 10
30.3753048721
 20
2.7515401956
 30
0.0
 10
30.61751416
 20
2.5708860641
 30
0.0
 10
30.7982554439
 20
2.3584211549
 30
0.0
 10
30.8688213967
 20
2.1943287437
 30
0.0
 10
30.8802664217
 20
2.1165976588
 30
0.0
  0
SPLINE
  5
445
100
AcDbEntity
  8
RACCORDO
100
AcDbSpline
 62
7
  6
CONTINUOUS
 70
0
 71
3
 72
11
 73
7
 74
0
 42
0.0000001
 43
0.0000001
 44
0.0000000001
 40
0.0
 40
0.0
 40
0.0
 40
0.0
 40
0.2702737377
 40
0.5432657185
 40
0.7926602243
 40
1.0
 40
1.0
 40
1.0
 40
1.0
 10
27.8445467686
 20
6.8085722537
 30
0.0
 10
27.9989619179
 20
6.7575575393
 30
0.0
 10
28.2972673642
 20
6.6162148304
 30
0.0
 10
28.6791697139
 20
6.3245266767
 30
0.0
 10
28.9630609911
 20
5.9849956225
 30
0.0
 10
29.0734617439
 20
5.7244023466
 30
0.0
 10
29.0916347985
 20
5.6009765558
 30
0.0
  0
SPLINE
  5
446
100
AcDbEntity
  8
RACCORDO
100
AcDbSpline
 62
7
  6
CONTINUOUS
 70
0
 71
3
 72
8
 73
4
 74
0
 42
0.0000001
 43
0.0000001
 44
0.0000000001
 40
0.0
 40
0.0
 40
0.0
 40
0.0
 40
1.0
 40
1.0
 40
1.0
 40
1.0
 10
27.8445467686
 20
6.8085722537
 30
0.0
 10
27.218315663
 20
7.0154625665
 30
0.0
 10
26.5918858215
 20
7.2217523028
 30
0.0
 10
25.965258473
 20
7.4274393595
 30
0.0
  0
SPLINE
  5
447
100
AcDbEntity
  8
RACCORDO
100
AcDbSpline
 62
7
  6
CONTINUOUS
 70
0
 71
3
 72
8
 73
4
 74
0
 42
0.0000001
 43
0.0000001
 44
0.0000000001
 40
0.0
 40
0.0
 40
0.0
 40
0.0
 40
1.0
 40
1.0
 40
1.0
 40
1.0
 10
23.5847074766
 20
8.2056302404
 30
0.0
 10
22.9457142583
 20
8.413651631
 30
0.0
 10
22.3065162355
 20
8.6210449646
 30
0.0
 10
21.667114719
 20
8.8278079516
 30
0.0
  0
SPLINE
  5
448
100
AcDbEntity
  8
RACCORDO
100
AcDbSpline
 62
7
  6
CONTINUOUS
 70
0
 71
3
 72
9
 73
5
 74
0
 42
0.0000001
 43
0.0000001
 44
0.0000000001
 40
0.0
 40
0.0
 40
0.0
 40
0.0
 40
0.2511814685
 40
1.0
 40
1.0
 40
1.0
 40
1.0
 10
12.2006654553
 20
11.8380349694
 30
0.0
 10
10.1350636107
 20
12.4837433775
 30
0.0
 10
1.9032705996
 20
15.0279561305
 30
0.0
 10
-6.3614356755
 20
17.4657493991
 30
0.0
 10
-12.5675312602
 20
19.2293148206
 30
0.0
  0
SPLINE
  5
449
100
AcDbEntity
  8
RACCORDO
100
AcDbSpline
 62
7
  6
CONTINUOUS
 70
0
 71
3
 72
11
 73
7
 74
0
 42
0.0000001
 43
0.0000001
 44
0.0000000001
 40
0.0
 40
0.0
 40
0.0
 40
0.0
 40
0.2186142131
 40
0.4540913166
 40
0.7134238137
 40
1.0
 40
1.0
 40
1.0
 40
1.0
 10
-14.6431155176
 20
18.925012468
 30
0.0
 10
-14.5804149115
 20
18.9998093721
 30
0.0
 10
-14.4256163434
 20
19.1357132223
 30
0.0
 10
-14.1363555469
 20
19.2760844297
 30
0.0
 10
-13.7944616255
 20
19.3561670755
 30
0.0
 10
-13.5498024623
 20
19.368343164
 30
0.0
 10
-13.4218873101
 20
19.365685746
 30
0.0
  0
SPLINE
  5
44A
100
AcDbEntity
  8
RACCORDO
100
AcDbSpline
 62
7
  6
CONTINUOUS
 70
0
 71
3
 72
9
 73
5
 74
0
 42
0.0000001
 43
0.0000001
 44
0.0000000001
 40
0.0
 40
0.0
 40
0.0
 40
0.0
 40
0.2361676481
 40
1.0
 40
1.0
 40
1.0
 40
1.0
 10
-13.4218873101
 20
19.365685746
 30
0.0
 10
-13.3536863118
 20
19.3642688805
 30
0.0
 10
-13.0651532008
 20
19.3472080267
 30
0.0
 10
-12.7797576154
 20
19.2896224731
 30
0.0
 10
-12.5675312602
 20
19.2293148206
 30
0.0
  0
LINE
  5
44B
100
AcDbEntity
  8
0
100
AcDbLine
 62
7
  6
CONTINUOUS
 10
13.1625268577
 20
-1.8861950784
 11
13.2029359563
 21
-2.2091879192
  0
SPLINE
  5
44C
100
AcDbEntity
  8
0
100
AcDbSpline
 62
7
  6
CONTINUOUS
 70
0
 71
3
 72
8
 73
4
 74
0
 42
0.0000001
 43
0.0000001
 44
0.0000000001
 40
0.0
 40
0.0
 40
0.0
 40
0.0
 40
1.0
 40
1.0
 40
1.0
 40
1.0
 10
14.4102931784
 20
-2.5537933605
 30
0.0
 10
14.0077542747
 20
-2.4392283615
 30
0.0
 10
13.605301603
 20
-2.3243599398
 30
0.0
 10
13.2029359563
 20
-2.2091879192
 30
0.0
  0
SPLINE
  5
44D
100
AcDbEntity
  8
0
100
AcDbSpline
 62
7
  6
CONTINUOUS
 70
0
 71
3
 72
11
 73
7
 74
0
 42
0.0000001
 43
0.0000001
 44
0.0000000001
 40
0.0
 40
0.0
 40
0.0
 40
0.0
 40
0.2975749827
 40
0.5607415736
 40
0.790883506
 40
1.0
 40
1.0
 40
1.0
 40
1.0
 10
14.9110048812
 20
-0.6373913124
 30
0.0
 10
14.9896100714
 20
-0.7407478169
 30
0.0
 10
15.1214633734
 20
-0.9491211733
 30
0.0
 10
15.2376438565
 20
-1.2779379639
 30
0.0
 10
15.2521339085
 20
-1.5898633203
 30
0.0
 10
15.184786364
 20
-1.7763378176
 30
0.0
 10
15.1356615446
 20
-1.8532371636
 30
0.0
  0
LINE
  5
44E
100
AcDbEntity
  8
0
100
AcDbLine
 62
7
  6
CONTINUOUS
 10
14.5419833287
 20
-2.1956288487
 11
14.7710470913
 21
-2.5163462286
  0
SPLINE
  5
44F
100
AcDbEntity
  8
0
100
AcDbSpline
 62
7
  6
CONTINUOUS
 70
0
 71
3
 72
9
 73
5
 74
0
 42
0.0000001
 43
0.0000001
 44
0.0000000001
 40
0.0
 40
0.0
 40
0.0
 40
0.0
 40
0.5324205476
 40
1.0
 40
1.0
 40
1.0
 40
1.0
 10
14.7710470913
 20
-2.5163462286
 30
0.0
 10
14.924710957
 20
-2.4933608536
 30
0.0
 10
15.2119628787
 20
-2.4088014578
 30
0.0
 10
15.4384477168
 20
-2.2042068668
 30
0.0
 10
15.511906345
 20
-2.0892165772
 30
0.0
  0
LINE
  5
450
100
AcDbEntity
  8
0
100
AcDbLine
 62
7
  6
CONTINUOUS
 10
14.0760355354
 20
0.0790359269
 11
13.7128710259
 21
0.182489255
  0
LINE
  5
451
100
AcDbEntity
  8
0
100
AcDbLine
 62
7
  6
CONTINUOUS
 10
12.857857715
 20
0.7436390812
 11
12.896467659
 21
0.4157055822
  0
LINE
  5
452
100
AcDbEntity
  8
0
100
AcDbLine
 62
7
  6
CONTINUOUS
 10
13.2595626492
 20
0.3118714878
 11
12.896467659
 21
0.4157055822
  0
SPLINE
  5
453
100
AcDbEntity
  8
0
100
AcDbSpline
 62
7
  6
CONTINUOUS
 70
0
 71
3
 72
11
 73
7
 74
0
 42
0.0000001
 43
0.0000001
 44
0.0000000001
 40
0.0
 40
0.0
 40
0.0
 40
0.0
 40
0.2837771937
 40
0.5415932053
 40
0.7771713451
 40
1.0
 40
1.0
 40
1.0
 40
1.0
 10
14.8629595387
 20
-3.0743846279
 30
0.0
 10
15.0011665728
 20
-3.0710620273
 30
0.0
 10
15.2652632393
 20
-3.0435228744
 30
0.0
 10
15.629381573
 20
-2.9289582491
 30
0.0
 10
15.9298461413
 20
-2.7435998037
 30
0.0
 10
16.0805051286
 20
-2.5733089267
 30
0.0
 10
16.13892538
 20
-2.4818145231
 30
0.0
  0
SPLINE
  5
454
100
AcDbEntity
  8
0
100
AcDbSpline
 62
7
  6
CONTINUOUS
 70
0
 71
3
 72
9
 73
5
 74
0
 42
0.0000001
 43
0.0000001
 44
0.0000000001
 40
0.0
 40
0.0
 40
0.0
 40
0.0
 40
0.247463735
 40
1.0
 40
1.0
 40
1.0
 40
1.0
 10
14.0337581224
 20
-2.9784030581
 30
0.0
 10
14.1647164201
 20
-3.0253617972
 30
0.0
 10
14.6836283494
 20
-3.2426112642
 30
0.0
 10
15.1611708761
 20
-3.55915844
 30
0.0
 10
15.4755167991
 20
-3.8423136846
 30
0.0
  0
LINE
  5
455
100
AcDbEntity
  8
0
100
AcDbLine
 62
7
  6
CONTINUOUS
 10
15.4755167991
 20
-3.8423136846
 11
15.6673308273
 21
-3.6672791376
  0
SPLINE
  5
456
100
AcDbEntity
  8
0
100
AcDbSpline
 62
7
  6
CONTINUOUS
 70
0
 71
3
 72
9
 73
5
 74
0
 42
0.0000001
 43
0.0000001
 44
0.0000000001
 40
0.0
 40
0.0
 40
0.0
 40
0.0
 40
0.5198309624
 40
1.0
 40
1.0
 40
1.0
 40
1.0
 10
15.8733159783
 20
-1.5396159892
 30
0.0
 10
15.8882271949
 20
-1.662459372
 30
0.0
 10
15.8855366531
 20
-1.9049992388
 30
0.0
 10
15.7970345963
 20
-2.1329850039
 30
0.0
 10
15.735513735
 20
-2.2293203342
 30
0.0
  0
SPLINE
  5
457
100
AcDbEntity
  8
0
100
AcDbSpline
 62
7
  6
CONTINUOUS
 70
0
 71
3
 72
9
 73
5
 74
0
 42
0.0000001
 43
0.0000001
 44
0.0000000001
 40
0.0
 40
0.0
 40
0.0
 40
0.0
 40
0.2493021007
 40
1.0
 40
1.0
 40
1.0
 40
1.0
 10
10.2024522373
 20
-6.8314083146
 30
0.0
 10
10.2379569013
 20
-6.7239086442
 30
0.0
 10
10.380476766
 20
-6.2927404555
 30
0.0
 10
10.5234099799
 20
-5.8617089003
 30
0.0
 10
10.6309385636
 20
-5.5382105867
 30
0.0
  0
LINE
  5
458
100
AcDbEntity
  8
0
100
AcDbLine
 62
7
  6
CONTINUOUS
 10
10.5853736112
 20
-7.5809103969
 11
10.0104725406
 21
-7.4134162332
  0
LINE
  5
459
100
AcDbEntity
  8
0
100
AcDbLine
 62
7
  6
CONTINUOUS
 10
12.321455955
 20
-8.0839940374
 11
11.8924054747
 21
-7.9600486973
  0
LINE
  5
45A
100
AcDbEntity
  8
0
100
AcDbLine
 62
7
  6
CONTINUOUS
 10
15.2871052829
 20
-8.9339235336
 11
15.8642089245
 21
-9.0979353366
  0
LINE
  5
45B
100
AcDbEntity
  8
0
100
AcDbLine
 62
7
  6
CONTINUOUS
 10
13.0439811663
 20
-8.2921597143
 11
13.6201405593
 21
-8.4576500573
  0
LINE
  5
45C
100
AcDbEntity
  8
0
100
AcDbLine
 62
7
  6
CONTINUOUS
 10
14.7417039011
 20
-8.7785033955
 11
14.1650875983
 21
-8.6137617334
  0
SPLINE
  5
45D
100
AcDbEntity
  8
0
100
AcDbSpline
 62
7
  6
CONTINUOUS
 70
0
 71
3
 72
8
 73
4
 74
0
 42
0.0000001
 43
0.0000001
 44
0.0000000001
 40
0.0
 40
0.0
 40
0.0
 40
0.0
 40
1.0
 40
1.0
 40
1.0
 40
1.0
 10
16.9485583763
 20
-9.0017310539
 30
0.0
 10
17.2527398382
 20
-9.0875918992
 30
0.0
 10
17.5569701248
 20
-9.1732799596
 30
0.0
 10
17.861248897
 20
-9.2587953109
 30
0.0
  0
LINE
  5
45E
100
AcDbEntity
  8
0
100
AcDbLine
 62
7
  6
CONTINUOUS
 10
18.1041532795
 20
-9.7302720452
 11
17.861248897
 21
-9.2587953109
  0
LINE
  5
45F
100
AcDbEntity
  8
0
100
AcDbLine
 62
7
  6
CONTINUOUS
 10
18.6824489141
 20
-9.8924372696
 11
18.1041532795
 21
-9.7302720452
  0
LINE
  5
460
100
AcDbEntity
  8
0
100
AcDbLine
 62
7
  6
CONTINUOUS
 10
16.8265845352
 20
-9.3704377343
 11
16.2490771233
 21
-9.2070647141
  0
LINE
  5
461
100
AcDbEntity
  8
0
100
AcDbLine
 62
7
  6
CONTINUOUS
 10
19.3913841471
 20
-8.4136785491
 11
20.095774511
 21
-8.6096904067
  0
LINE
  5
462
100
AcDbEntity
  8
0
100
AcDbLine
 62
7
  6
CONTINUOUS
 10
21.3851281372
 20
-10.6443554236
 11
20.7325178522
 21
-10.4636872224
  0
LINE
  5
463
100
AcDbEntity
  8
0
100
AcDbLine
 62
7
  6
CONTINUOUS
 10
20.0338098258
 20
-9.475691319
 11
19.5285395685
 21
-9.3350218117
  0
LINE
  5
464
100
AcDbEntity
  8
0
100
AcDbLine
 62
7
  6
CONTINUOUS
 10
19.0681057137
 20
-10.0003252824
 11
19.6468052663
 21
-10.1618514929
  0
SPLINE
  5
465
100
AcDbEntity
  8
0
100
AcDbSpline
 62
7
  6
CONTINUOUS
 70
0
 71
3
 72
8
 73
4
 74
0
 42
0.0000001
 43
0.0000001
 44
0.0000000001
 40
0.0
 40
0.0
 40
0.0
 40
0.0
 40
1.0
 40
1.0
 40
1.0
 40
1.0
 10
14.7026524001
 20
-6.6850750657
 30
0.0
 10
14.9933847556
 20
-6.7679291675
 30
0.0
 10
15.2841622677
 20
-6.8506249795
 30
0.0
 10
15.5749846383
 20
-6.9331625681
 30
0.0
  0
SPLINE
  5
466
100
AcDbEntity
  8
RACCORDO
100
AcDbSpline
 62
250
  6
CONTINUOUS
 70
0
 71
3
 72
9
 73
5
 74
0
 42
0.0000001
 43
0.0000001
 44
0.0000000001
 40
0.0
 40
0.0
 40
0.0
 40
0.0
 40
0.2458142679
 40
1.0
 40
1.0
 40
1.0
 40
1.0
 10
27.8445460695
 20
6.8085724844
 30
0.0
 10
27.6759415862
 20
6.544565382
 30
0.0
 10
26.986373275
 20
5.4728991796
 30
0.0
 10
26.2824549701
 20
4.41047958
 30
0.0
 10
25.7443374758
 20
3.6141557073
 30
0.0
  0
SPLINE
  5
467
100
AcDbEntity
  8
0
100
AcDbSpline
 62
7
  6
CONTINUOUS
 70
0
 71
3
 72
9
 73
5
 74
0
 42
0.0000001
 43
0.0000001
 44
0.0000000001
 40
0.0
 40
0.0
 40
0.0
 40
0.0
 40
0.2607724392
 40
1.0
 40
1.0
 40
1.0
 40
1.0
 10
12.0702173715
 20
0.5962499443
 30
0.0
 10
12.0351683474
 20
0.5778841763
 30
0.0
 10
11.9048604025
 20
0.500083636
 30
0.0
 10
11.7937022928
 20
0.3888878538
 30
0.0
 10
11.7333328972
 20
0.2943490585
 30
0.0
  0
SPLINE
  5
468
100
AcDbEntity
  8
0
100
AcDbSpline
 62
7
  6
CONTINUOUS
 70
0
 71
3
 72
11
 73
7
 74
0
 42
0.0000001
 43
0.0000001
 44
0.0000000001
 40
0.0
 40
0.0
 40
0.0
 40
0.0
 40
0.2946457008
 40
0.5662542707
 40
0.8016750268
 40
1.0
 40
1.0
 40
1.0
 40
1.0
 10
12.9633941568
 20
-1.7450605407
 30
0.0
 10
12.804972109
 20
-1.6377735343
 30
0.0
 10
12.519037399
 20
-1.402091093
 30
0.0
 10
12.1923599603
 20
-0.9910462416
 30
0.0
 10
12.0050582003
 20
-0.5661572381
 30
0.0
 10
11.992869603
 20
-0.2735896556
 30
0.0
 10
12.0224643595
 20
-0.148251118
 30
0.0
  0
SPLINE
  5
469
100
AcDbEntity
  8
0
100
AcDbSpline
 62
7
  6
CONTINUOUS
 70
0
 71
3
 72
9
 73
5
 74
0
 42
0.0000001
 43
0.0000001
 44
0.0000000001
 40
0.0
 40
0.0
 40
0.0
 40
0.0
 40
0.2541748732
 40
1.0
 40
1.0
 40
1.0
 40
1.0
 10
12.0224643595
 20
-0.148251118
 30
0.0
 10
12.0267974079
 20
-0.1298999638
 30
0.0
 10
12.0466820613
 20
-0.0584048057
 30
0.0
 10
12.0785939515
 20
0.0097786851
 30
0.0
 10
12.1083667516
 20
0.0564136609
 30
0.0
  0
LINE
  5
46A
100
AcDbEntity
  8
0
100
AcDbLine
 62
7
  6
CONTINUOUS
 10
12.899899816
 20
-6.1691228411
 11
13.6258470001
 21
-6.377419404
  0
SPLINE
  5
46B
100
AcDbEntity
  8
RACCORDO
100
AcDbSpline
 62
250
  6
CONTINUOUS
 70
0
 71
3
 72
9
 73
5
 74
0
 42
0.0000001
 43
0.0000001
 44
0.0000000001
 40
0.0
 40
0.0
 40
0.0
 40
0.0
 40
0.5028573434
 40
1.0
 40
1.0
 40
1.0
 40
1.0
 10
-17.6338568431
 20
11.236335714
 30
0.0
 10
-17.5973793266
 20
11.8538922657
 30
0.0
 10
-17.421001369
 20
13.0782011939
 30
0.0
 10
-17.0375614341
 20
14.2544339444
 30
0.0
 10
-16.7981769932
 20
14.8172418451
 30
0.0
  0
SPLINE
  5
46C
100
AcDbEntity
  8
0
100
AcDbSpline
 62
7
  6
CONTINUOUS
 70
0
 71
3
 72
11
 73
7
 74
0
 42
0.0000001
 43
0.0000001
 44
0.0000000001
 40
0.0
 40
0.0
 40
0.0
 40
0.0
 40
0.4285484819
 40
0.5684864146
 40
0.7137769539
 40
1.0
 40
1.0
 40
1.0
 40
1.0
 10
21.108280285
 20
-9.2787026769
 30
0.0
 10
21.1592250705
 20
-9.0658338047
 30
0.0
 10
20.9816162063
 20
-8.7567727845
 30
0.0
 10
20.7190895783
 20
-8.513617471
 30
0.0
 10
20.4792749196
 20
-8.3436386619
 30
0.0
 10
20.2752267696
 20
-8.2522957673
 30
0.0
 10
20.1343691327
 20
-8.2131806651
 30
0.0
  0
LINE
  5
46D
100
AcDbEntity
  8
0
100
AcDbLine
 62
7
  6
CONTINUOUS
 10
13.539510988
 20
-1.9940057289
 11
13.1625268577
 21
-1.8861950784
  0
SPLINE
  5
46E
100
AcDbEntity
  8
RACCORDO
100
AcDbSpline
 62
250
  6
CONTINUOUS
 70
0
 71
3
 72
9
 73
5
 74
0
 42
0.0000001
 43
0.0000001
 44
0.0000000001
 40
0.0
 40
0.0
 40
0.0
 40
0.0
 40
0.2332298911
 40
1.0
 40
1.0
 40
1.0
 40
1.0
 10
27.333797399
 20
-10.5436374089
 30
0.0
 10
27.3404776058
 20
-10.5348267827
 30
0.0
 10
27.3646162006
 20
-10.4935122229
 30
0.0
 10
27.3676745715
 20
-10.4425826886
 30
0.0
 10
27.3623794715
 20
-10.4066199964
 30
0.0
  0
LINE
  5
46F
100
AcDbEntity
  8
0
100
AcDbLine
 62
7
  6
CONTINUOUS
 10
14.3967958741
 20
-2.446170906
 11
14.3698843235
 21
-2.2308001379
  0
LINE
  5
470
100
AcDbEntity
  8
0
100
AcDbLine
 62
7
  6
CONTINUOUS
 10
14.3698843235
 20
-2.2308001379
 11
13.9928186019
 21
-2.1233891562
  0
SPLINE
  5
471
100
AcDbEntity
  8
DRAFT
100
AcDbSpline
 62
7
  6
CONTINUOUS
 70
0
 71
3
 72
14
 73
10
 74
0
 42
0.0000001
 43
0.0000001
 44
0.0000000001
 40
0.0
 40
0.0
 40
0.0
 40
0.0
 40
0.2889089655
 40
0.4349380883
 40
0.5738730941
 40
0.7008214001
 40
0.8130131632
 40
0.9110170339
 40
1.0
 40
1.0
 40
1.0
 40
1.0
 10
6.969941883
 20
-0.9355167829
 30
0.0
 10
6.4921536649
 20
-0.7946707911
 30
0.0
 10
5.805095641
 20
-0.4561785152
 30
0.0
 10
5.0302426619
 20
0.1624312035
 30
0.0
 10
4.5488258392
 20
0.6894379344
 30
0.0
 10
4.2004780101
 20
1.2453675639
 30
0.0
 10
4.0068403362
 20
1.8001134921
 30
0.0
 10
3.9849104942
 20
2.3251712949
 30
0.0
 10
4.1000561129
 20
2.638223549
 30
0.0
 10
4.1835482881
 20
2.7669329409
 30
0.0
  0
LINE
  5
472
100
AcDbEntity
  8
0
100
AcDbLine
 62
7
  6
CONTINUOUS
 10
11.7950500921
 20
-5.8507366525
 11
12.1788589864
 21
-5.9615271732
  0
SPLINE
  5
473
100
AcDbEntity
  8
RACCORDO
100
AcDbSpline
 62
250
  6
CONTINUOUS
 70
0
 71
3
 72
10
 73
6
 74
0
 42
0.0000001
 43
0.0000001
 44
0.0000000001
 40
0.0
 40
0.0
 40
0.0
 40
0.0
 40
0.1860905219
 40
0.5333628249
 40
1.0
 40
1.0
 40
1.0
 40
1.0
 10
24.2791031719
 20
-12.4235451039
 30
0.0
 10
24.2699458473
 20
-12.4210416903
 30
0.0
 10
24.2455535606
 20
-12.4065435566
 30
0.0
 10
24.2197761006
 20
-12.36033936
 30
0.0
 10
24.2104579839
 20
-12.3197485014
 30
0.0
 10
24.2069898556
 20
-12.2961971395
 30
0.0
  0
LINE
  5
474
100
AcDbEntity
  8
0
100
AcDbLine
 62
7
  6
CONTINUOUS
 10
10.7401246648
 20
-5.5451899995
 11
11.2195386503
 21
-5.6842341672
  0
SPLINE
  5
475
100
AcDbEntity
  8
RACCORDO
100
AcDbSpline
 62
250
  6
CONTINUOUS
 70
0
 71
3
 72
9
 73
5
 74
0
 42
0.0000001
 43
0.0000001
 44
0.0000000001
 40
0.0
 40
0.0
 40
0.0
 40
0.0
 40
0.194625438
 40
1.0
 40
1.0
 40
1.0
 40
1.0
 10
25.521060911
 20
-12.2217676315
 30
0.0
 10
25.5292691215
 20
-12.2162496669
 30
0.0
 10
25.5641596825
 20
-12.1767382585
 30
0.0
 10
25.5607836658
 20
-12.1186081779
 30
0.0
 10
25.5548217923
 20
-12.0781169695
 30
0.0
  0
LINE
  5
476
100
AcDbEntity
  8
0
100
AcDbLine
 62
7
  6
CONTINUOUS
 10
14.0760355354
 20
0.0790359269
 11
14.0374259139
 21
0.4069699308
  0
SPLINE
  5
477
100
AcDbEntity
  8
0
100
AcDbSpline
 62
7
  6
CONTINUOUS
 70
0
 71
3
 72
8
 73
4
 74
0
 42
0.0000001
 43
0.0000001
 44
0.0000000001
 40
0.0
 40
0.0
 40
0.0
 40
0.0
 40
1.0
 40
1.0
 40
1.0
 40
1.0
 10
14.0374259139
 20
0.4069699308
 30
0.0
 10
13.644153937
 20
0.5189032553
 30
0.0
 10
13.2509642908
 20
0.6311262507
 30
0.0
 10
12.857857715
 20
0.7436390812
 30
0.0
  0
LINE
  5
478
100
AcDbEntity
  8
0
100
AcDbLine
 62
7
  6
CONTINUOUS
 10
8.9903450674
 20
-5.0350451871
 11
9.3733700719
 21
-5.1470724706
  0
SPLINE
  5
479
100
AcDbEntity
  8
0
100
AcDbSpline
 62
7
  6
CONTINUOUS
 70
0
 71
3
 72
9
 73
5
 74
0
 42
0.0000001
 43
0.0000001
 44
0.0000000001
 40
0.0
 40
0.0
 40
0.0
 40
0.0
 40
0.2460877861
 40
1.0
 40
1.0
 40
1.0
 40
1.0
 10
15.6673308273
 20
-3.6672791376
 30
0.0
 10
15.6074674935
 20
-3.6111337313
 30
0.0
 10
15.3572138765
 20
-3.3905311959
 30
0.0
 10
15.0810411221
 20
-3.1995286919
 30
0.0
 10
14.8629595387
 20
-3.0743846279
 30
0.0
  0
SPLINE
  5
47A
100
AcDbEntity
  8
RACCORDO
100
AcDbSpline
 62
250
  6
CONTINUOUS
 70
0
 71
3
 72
9
 73
5
 74
0
 42
0.0000001
 43
0.0000001
 44
0.0000000001
 40
0.0
 40
0.0
 40
0.0
 40
0.0
 40
0.251533134
 40
1.0
 40
1.0
 40
1.0
 40
1.0
 10
23.3730243485
 20
-5.9121591535
 30
0.0
 10
23.4345589126
 20
-6.4484658365
 30
0.0
 10
23.6870424797
 20
-8.5797065233
 30
0.0
 10
23.9729187662
 20
-10.7070154534
 30
0.0
 10
24.2069594014
 20
-12.2961887274
 30
0.0
  0
SPLINE
  5
47B
100
AcDbEntity
  8
0
100
AcDbSpline
 62
7
  6
CONTINUOUS
 70
0
 71
3
 72
9
 73
5
 74
0
 42
0.0000001
 43
0.0000001
 44
0.0000000001
 40
0.0
 40
0.0
 40
0.0
 40
0.0
 40
0.5194065172
 40
1.0
 40
1.0
 40
1.0
 40
1.0
 10
11.3721800746
 20
-0.2548880833
 30
0.0
 10
11.357257518
 20
-0.1319552396
 30
0.0
 10
11.3601204682
 20
0.1109823295
 30
0.0
 10
11.4489376626
 20
0.3392268925
 30
0.0
 10
11.5106081983
 20
0.4357964482
 30
0.0
  0
SPLINE
  5
47C
100
AcDbEntity
  8
RACCORDO
100
AcDbSpline
 62
250
  6
CONTINUOUS
 70
0
 71
3
 72
9
 73
5
 74
0
 42
0.0000001
 43
0.0000001
 44
0.0000000001
 40
0.0
 40
0.0
 40
0.0
 40
0.0
 40
0.2506129751
 40
1.0
 40
1.0
 40
1.0
 40
1.0
 10
24.2069594014
 20
-12.2961887274
 30
0.0
 10
22.5879597041
 20
-11.8544263947
 30
0.0
 10
16.1330957459
 20
-10.072353511
 30
0.0
 10
9.6996264892
 20
-8.2127596172
 30
0.0
 10
4.8917592359
 20
-6.7753364034
 30
0.0
  0
SPLINE
  5
47D
100
AcDbEntity
  8
RACCORDO
100
AcDbSpline
 62
250
  6
CONTINUOUS
 70
0
 71
3
 72
15
 73
11
 74
0
 42
0.0000001
 43
0.0000001
 44
0.0000000001
 40
0.0
 40
0.0
 40
0.0
 40
0.0
 40
0.095547366
 40
0.2049046031
 40
0.3271474586
 40
0.4593190902
 40
0.5973144258
 40
0.7364838701
 40
0.8721386267
 40
1.0
 40
1.0
 40
1.0
 40
1.0
 10
4.8917592359
 20
-6.7753364034
 30
0.0
 10
4.8684353413
 20
-6.1110737985
 30
0.0
 10
4.5847411499
 20
-4.6929193148
 30
0.0
 10
3.6326523127
 20
-2.6110837724
 30
0.0
 10
2.1816965815
 20
-0.5237667028
 30
0.0
 10
0.301467685
 20
1.4672992623
 30
0.0
 10
-1.9168160639
 20
3.2652711235
 30
0.0
 10
-4.3657596541
 20
4.7803691165
 30
0.0
 10
-6.9253731196
 20
5.9374243832
 30
0.0
 10
-8.6935748642
 20
6.4526097859
 30
0.0
 10
-9.5656457443
 20
6.6276447241
 30
0.0
  0
SPLINE
  5
47E
100
AcDbEntity
  8
RACCORDO
100
AcDbSpline
 62
250
  6
CONTINUOUS
 70
0
 71
3
 72
13
 73
9
 74
0
 42
0.0000001
 43
0.0000001
 44
0.0000000001
 40
0.0
 40
0.0
 40
0.0
 40
0.0
 40
0.2997192263
 40
0.4361059511
 40
0.563199748
 40
0.7916392918
 40
0.8971635632
 40
1.0
 40
1.0
 40
1.0
 40
1.0
 10
-9.601916025
 20
6.6348792295
 30
0.0
 10
-10.456582449
 20
6.8042817997
 30
0.0
 10
-11.7277341143
 20
6.9479099271
 30
0.0
 10
-13.3660572846
 20
6.8473102424
 30
0.0
 10
-14.7721367893
 20
6.576687559
 30
0.0
 10
-16.0317633593
 20
6.0312336941
 30
0.0
 10
-17.0011703646
 20
5.1987633385
 30
0.0
 10
-17.3703251554
 20
4.7114540129
 30
0.0
 10
-17.5239006873
 20
4.4549682992
 30
0.0
  0
SPLINE
  5
47F
100
AcDbEntity
  8
RACCORDO
100
AcDbSpline
 62
250
  6
CONTINUOUS
 70
0
 71
3
 72
9
 73
5
 74
0
 42
0.0000001
 43
0.0000001
 44
0.0000000001
 40
0.0
 40
0.0
 40
0.0
 40
0.0
 40
0.4842475613
 40
1.0
 40
1.0
 40
1.0
 40
1.0
 10
-17.862273194
 20
3.7472441125
 30
0.0
 10
-17.9831724655
 20
3.4197617239
 30
0.0
 10
-18.1507380664
 20
2.7112137437
 30
0.0
 10
-18.1622943422
 20
1.9851666304
 30
0.0
 10
-18.1352739024
 20
1.6143519675
 30
0.0
  0
SPLINE
  5
480
100
AcDbEntity
  8
RACCORDO
100
AcDbSpline
 62
250
  6
CONTINUOUS
 70
0
 71
3
 72
8
 73
4
 74
0
 42
0.0000001
 43
0.0000001
 44
0.0000000001
 40
0.0
 40
0.0
 40
0.0
 40
0.0
 40
1.0
 40
1.0
 40
1.0
 40
1.0
 10
-17.9395167
 20
0.4164054221
 30
0.0
 10
-18.2695645519
 20
0.5257501654
 30
0.0
 10
-18.5995415219
 20
0.6353090929
 30
0.0
 10
-18.9294471562
 20
0.7450821765
 30
0.0
  0
LINE
  5
481
100
AcDbEntity
  8
RACCORDO
100
AcDbLine
 62
250
  6
CONTINUOUS
 10
-19.1445243152
 20
0.9273305099
 11
-19.1774683022
 21
1.1513421171
  0
SPLINE
  5
482
100
AcDbEntity
  8
RACCORDO
100
AcDbSpline
 62
250
  6
CONTINUOUS
 70
0
 71
3
 72
11
 73
7
 74
0
 42
0.0000001
 43
0.0000001
 44
0.0000000001
 40
0.0
 40
0.0
 40
0.0
 40
0.0
 40
0.2672596889
 40
0.5188669996
 40
0.7606994619
 40
1.0
 40
1.0
 40
1.0
 40
1.0
 10
-19.1774683022
 20
1.1513421171
 30
0.0
 10
-19.299664597
 20
1.9830031473
 30
0.0
 10
-19.4071873376
 20
3.6215561718
 30
0.0
 10
-19.1032109192
 20
6.0110734184
 30
0.0
 10
-18.3279439252
 20
8.2007360255
 30
0.0
 10
-17.5065734486
 20
9.4897490621
 30
0.0
 10
-17.0342684545
 20
10.0757643808
 30
0.0
  0
SPLINE
  5
483
100
AcDbEntity
  8
RACCORDO
100
AcDbSpline
 62
250
  6
CONTINUOUS
 70
0
 71
3
 72
11
 73
7
 74
0
 42
0.0000001
 43
0.0000001
 44
0.0000000001
 40
0.0
 40
0.0
 40
0.0
 40
0.0
 40
0.2034358527
 40
0.4346955428
 40
0.7016141822
 40
1.0
 40
1.0
 40
1.0
 40
1.0
 10
-17.0342684545
 20
10.0757643808
 30
0.0
 10
-16.9803345118
 20
10.1426923298
 30
0.0
 10
-16.8266724273
 20
10.2562997586
 30
0.0
 10
-16.5333252895
 20
10.3260160149
 30
0.0
 10
-16.1942614686
 20
10.3145211513
 30
0.0
 10
-15.9602777023
 20
10.2604858619
 30
0.0
 10
-15.8397387664
 20
10.2235445831
 30
0.0
  0
SPLINE
  5
484
100
AcDbEntity
  8
RACCORDO
100
AcDbSpline
 62
250
  6
CONTINUOUS
 70
0
 71
3
 72
8
 73
4
 74
0
 42
0.0000001
 43
0.0000001
 44
0.0000000001
 40
0.0
 40
0.0
 40
0.0
 40
0.0
 40
1.0
 40
1.0
 40
1.0
 40
1.0
 10
-4.3968364668
 20
6.7442716649
 30
0.0
 10
-3.5572196544
 20
6.4910971681
 30
0.0
 10
-2.7174744492
 20
6.2383480822
 30
0.0
 10
-1.8776022558
 20
5.9860220708
 30
0.0
  0
SPLINE
  5
485
100
AcDbEntity
  8
RACCORDO
100
AcDbSpline
 62
250
  6
CONTINUOUS
 70
0
 71
3
 72
8
 73
4
 74
0
 42
0.0000001
 43
0.0000001
 44
0.0000000001
 40
0.0
 40
0.0
 40
0.0
 40
0.0
 40
1.0
 40
1.0
 40
1.0
 40
1.0
 10
6.7012216802
 20
3.4245559867
 30
0.0
 10
7.313837981
 20
3.2427613326
 30
0.0
 10
7.9265183903
 20
3.0611825777
 30
0.0
 10
8.539261676
 20
2.8798163897
 30
0.0
  0
SPLINE
  5
486
100
AcDbEntity
  8
RACCORDO
100
AcDbSpline
 62
250
  6
CONTINUOUS
 70
0
 71
3
 72
8
 73
4
 74
0
 42
0.0000001
 43
0.0000001
 44
0.0000000001
 40
0.0
 40
0.0
 40
0.0
 40
0.0
 40
1.0
 40
1.0
 40
1.0
 40
1.0
 10
10.2045166831
 20
2.3874830623
 30
0.0
 10
11.0596208235
 20
2.1349605267
 30
0.0
 10
11.9148455242
 20
1.882845896
 30
0.0
 10
12.7701875448
 20
1.6311302835
 30
0.0
  0
SPLINE
  5
487
100
AcDbEntity
  8
RACCORDO
100
AcDbSpline
 62
250
  6
CONTINUOUS
 70
0
 71
3
 72
8
 73
4
 74
0
 42
0.0000001
 43
0.0000001
 44
0.0000000001
 40
0.0
 40
0.0
 40
0.0
 40
0.0
 40
1.0
 40
1.0
 40
1.0
 40
1.0
 10
12.7701875448
 20
1.6311302835
 30
0.0
 10
13.270997953
 20
1.4837485396
 30
0.0
 10
13.7718486272
 20
1.3365035544
 30
0.0
 10
14.2727389667
 20
1.1893936937
 30
0.0
  0
LINE
  5
488
100
AcDbEntity
  8
RACCORDO
100
AcDbLine
 62
250
  6
CONTINUOUS
 10
14.9081569572
 20
1.0028520978
 11
16.3953113821
 21
0.5668744792
  0
SPLINE
  5
489
100
AcDbEntity
  8
RACCORDO
100
AcDbSpline
 62
250
  6
CONTINUOUS
 70
0
 71
3
 72
9
 73
5
 74
0
 42
0.0000001
 43
0.0000001
 44
0.0000000001
 40
0.0
 40
0.0
 40
0.0
 40
0.0
 40
0.2497583323
 40
1.0
 40
1.0
 40
1.0
 40
1.0
 10
18.9777954575
 20
-0.1882054301
 30
0.0
 10
19.3037589189
 20
-0.2833533709
 30
0.0
 10
20.6089387119
 20
-0.6640929798
 30
0.0
 10
21.9143738884
 20
-1.0439571018
 30
0.0
 10
22.8939054012
 20
-1.3284658106
 30
0.0
  0
SPLINE
  5
48A
100
AcDbEntity
  8
0
100
AcDbSpline
 62
7
  6
CONTINUOUS
 70
0
 71
3
 72
8
 73
4
 74
0
 42
0.0000001
 43
0.0000001
 44
0.0000000001
 40
0.0
 40
0.0
 40
0.0
 40
0.0
 40
1.0
 40
1.0
 40
1.0
 40
1.0
 10
19.0047120914
 20
-7.8986332321
 30
0.0
 10
19.3811909854
 20
-8.0037469895
 30
0.0
 10
19.757743651
 20
-8.1085968803
 30
0.0
 10
20.1343694578
 20
-8.2131830232
 30
0.0
  0
SPLINE
  5
48B
100
AcDbEntity
  8
0
100
AcDbSpline
 62
7
  6
CONTINUOUS
 70
0
 71
3
 72
9
 73
5
 74
0
 42
0.0000001
 43
0.0000001
 44
0.0000000001
 40
0.0
 40
0.0
 40
0.0
 40
0.0
 40
0.2475521992
 40
1.0
 40
1.0
 40
1.0
 40
1.0
 10
15.5589310181
 20
-3.5367914657
 30
0.0
 10
15.5088405595
 20
-3.4934639389
 30
0.0
 10
15.3023466121
 20
-3.3232884801
 30
0.0
 10
15.080018678
 20
-3.172398703
 30
0.0
 10
14.9062069062
 20
-3.0708397655
 30
0.0
  0
SPLINE
  5
48C
100
AcDbEntity
  8
RACCORDO
100
AcDbSpline
 62
250
  6
CONTINUOUS
 70
0
 71
3
 72
9
 73
5
 74
0
 42
0.0000001
 43
0.0000001
 44
0.0000000001
 40
0.0
 40
0.0
 40
0.0
 40
0.0
 40
0.1987907307
 40
1.0
 40
1.0
 40
1.0
 40
1.0
 10
-19.0528130272
 20
0.682889537
 30
0.0
 10
-19.0624279666
 20
0.6860996396
 30
0.0
 10
-19.1070514405
 20
0.7142095063
 30
0.0
 10
-19.1214478194
 20
0.7705659167
 30
0.0
 10
-19.1273990849
 20
0.8109850794
 30
0.0
  0
SPLINE
  5
48D
100
AcDbEntity
  8
0
100
AcDbSpline
 62
7
  6
CONTINUOUS
 70
0
 71
3
 72
9
 73
5
 74
0
 42
0.0000001
 43
0.0000001
 44
0.0000000001
 40
0.0
 40
0.0
 40
0.0
 40
0.0
 40
0.4676004233
 40
1.0
 40
1.0
 40
1.0
 40
1.0
 10
15.1356615446
 20
-1.8532371636
 30
0.0
 10
15.0767897172
 20
-1.9453943477
 30
0.0
 10
14.8953069987
 20
-2.1093690473
 30
0.0
 10
14.6651208298
 20
-2.177186627
 30
0.0
 10
14.5419833287
 20
-2.1956288487
 30
0.0
  0
SPLINE
  5
48E
100
AcDbEntity
  8
0
100
AcDbSpline
 62
7
  6
CONTINUOUS
 70
0
 71
3
 72
8
 73
4
 74
0
 42
0.0000001
 43
0.0000001
 44
0.0000000001
 40
0.0
 40
0.0
 40
0.0
 40
0.0
 40
1.0
 40
1.0
 40
1.0
 40
1.0
 10
13.2286458572
 20
-0.3734346795
 30
0.0
 10
12.9422443458
 20
-0.1262697201
 30
0.0
 10
12.6560595085
 20
0.121146532
 30
0.0
 10
12.3700918559
 20
0.3688133336
 30
0.0
  0
SPLINE
  5
48F
100
AcDbEntity
  8
0
100
AcDbSpline
 62
7
  6
CONTINUOUS
 70
0
 71
3
 72
9
 73
5
 74
0
 42
0.0000001
 43
0.0000001
 44
0.0000000001
 40
0.0
 40
0.0
 40
0.0
 40
0.0
 40
0.2391100785
 40
1.0
 40
1.0
 40
1.0
 40
1.0
 10
14.8360204024
 20
-2.0945835845
 30
0.0
 10
14.8147791693
 20
-2.1041854237
 30
0.0
 10
14.7243601872
 20
-2.140817098
 30
0.0
 10
14.6286728245
 20
-2.1637701813
 30
0.0
 10
14.5553125722
 20
-2.174757416
 30
0.0
  0
SPLINE
  5
490
100
AcDbEntity
  8
DRAFT
100
AcDbSpline
 62
7
  6
CONTINUOUS
 70
0
 71
3
 72
11
 73
7
 74
0
 42
0.0000001
 43
0.0000001
 44
0.0000000001
 40
0.0
 40
0.0
 40
0.0
 40
0.0
 40
0.2038957186
 40
0.4324032943
 40
0.6982124588
 40
1.0
 40
1.0
 40
1.0
 40
1.0
 10
9.2572423829
 20
-0.4878635358
 30
0.0
 10
9.1674041243
 20
-0.6307131154
 30
0.0
 10
8.897292667
 20
-0.8877045979
 30
0.0
 10
8.3394731406
 20
-1.0802836049
 30
0.0
 10
7.6737543346
 20
-1.099536869
 30
0.0
 10
7.2095187837
 20
-1.0061410573
 30
0.0
 10
6.969941883
 20
-0.9355167829
 30
0.0
  0
SPLINE
  5
491
100
AcDbEntity
  8
0
100
AcDbSpline
 62
7
  6
CONTINUOUS
 70
0
 71
3
 72
11
 73
7
 74
0
 42
0.0000001
 43
0.0000001
 44
0.0000000001
 40
0.0
 40
0.0
 40
0.0
 40
0.0
 40
0.2950722401
 40
0.5652997882
 40
0.8001333976
 40
1.0
 40
1.0
 40
1.0
 40
1.0
 10
12.8647705434
 20
-1.6445252526
 30
0.0
 10
12.722020986
 20
-1.5378666689
 30
0.0
 10
12.4659364245
 20
-1.3084496356
 30
0.0
 10
12.1765624583
 20
-0.9165172415
 30
0.0
 10
12.0147820837
 20
-0.5166821101
 30
0.0
 10
12.0080576525
 20
-0.2448479884
 30
0.0
 10
12.0357946164
 20
-0.1273781056
 30
0.0
  0
SPLINE
  5
492
100
AcDbEntity
  8
0
100
AcDbSpline
 62
7
  6
CONTINUOUS
 70
0
 71
3
 72
11
 73
7
 74
0
 42
0.0000001
 43
0.0000001
 44
0.0000000001
 40
0.0
 40
0.0
 40
0.0
 40
0.0
 40
0.2068872221
 40
0.4388342273
 40
0.7036231546
 40
1.0
 40
1.0
 40
1.0
 40
1.0
 10
15.5678734225
 20
-1.9854491683
 30
0.0
 10
15.6148313513
 20
-1.8806016298
 30
0.0
 10
15.6656462595
 20
-1.6347754161
 30
0.0
 10
15.6058046131
 20
-1.242854345
 30
0.0
 10
15.4268917516
 20
-0.8362422264
 30
0.0
 10
15.2444820554
 20
-0.5810266396
 30
0.0
 10
15.138203068
 20
-0.4553687032
 30
0.0
  0
SPLINE
  5
493
100
AcDbEntity
  8
0
100
AcDbSpline
 62
7
  6
CONTINUOUS
 70
0
 71
3
 72
11
 73
7
 74
0
 42
0.0000001
 43
0.0000001
 44
0.0000000001
 40
0.0
 40
0.0
 40
0.0
 40
0.0
 40
0.2070460058
 40
0.4390298431
 40
0.7037403257
 40
1.0
 40
1.0
 40
1.0
 40
1.0
 10
15.5812040132
 20
-1.9645755906
 30
0.0
 10
15.6279726104
 20
-1.8601508883
 30
0.0
 10
15.6787776957
 20
-1.6154910985
 30
0.0
 10
15.6199846022
 20
-1.2252925919
 30
0.0
 10
15.4429205687
 20
-0.8203021385
 30
0.0
 10
15.2621125484
 20
-0.5659329658
 30
0.0
 10
15.1567232988
 20
-0.4406419697
 30
0.0
  0
LINE
  5
494
100
AcDbEntity
  8
0
100
AcDbLine
 62
7
  6
CONTINUOUS
 10
13.3015057695
 20
-1.9012798529
 11
13.5363252986
 21
-1.9684164706
  0
SPLINE
  5
495
100
AcDbEntity
  8
RACCORDO
100
AcDbSpline
 62
250
  6
CONTINUOUS
 70
0
 71
3
 72
9
 73
5
 74
0
 42
0.0000001
 43
0.0000001
 44
0.0000000001
 40
0.0
 40
0.0
 40
0.0
 40
0.0
 40
0.2436081085
 40
1.0
 40
1.0
 40
1.0
 40
1.0
 10
24.4715415157
 20
1.6911497741
 30
0.0
 10
24.3852998807
 20
1.5586207142
 30
0.0
 10
24.0143265417
 20
1.0257378015
 30
0.0
 10
23.5794530981
 20
0.5380124587
 30
0.0
 10
23.2243932375
 20
0.1989459802
 30
0.0
  0
LINE
  5
496
100
AcDbEntity
  8
0
100
AcDbLine
 62
7
  6
CONTINUOUS
 10
19.4778059924
 20
-8.9153591192
 11
20.1821894536
 21
-9.1113684401
  0
LINE
  5
497
100
AcDbEntity
  8
0
100
AcDbLine
 62
7
  6
CONTINUOUS
 10
14.4168697349
 20
-2.4791168435
 11
14.3899307891
 21
-2.2637875731
  0
LINE
  5
498
100
AcDbEntity
  8
0
100
AcDbLine
 62
7
  6
CONTINUOUS
 10
14.0061474568
 20
-2.1025183319
 11
14.3832133577
 21
-2.209929033
  0
SPLINE
  5
499
100
AcDbEntity
  8
0
100
AcDbSpline
 62
7
  6
CONTINUOUS
 70
0
 71
3
 72
11
 73
7
 74
0
 42
0.0000001
 43
0.0000001
 44
0.0000000001
 40
0.0
 40
0.0
 40
0.0
 40
0.0
 40
0.2164148993
 40
0.4519059613
 40
0.7126094062
 40
1.0
 40
1.0
 40
1.0
 40
1.0
 10
15.629414207
 20
-2.3647670052
 30
0.0
 10
15.5616629841
 20
-2.4360961987
 30
0.0
 10
15.3952153341
 20
-2.5625110654
 30
0.0
 10
15.0907139786
 20
-2.6818892096
 30
0.0
 10
14.7362113487
 20
-2.7357425241
 30
0.0
 10
14.485877651
 20
-2.7278935104
 30
0.0
 10
14.3559329757
 20
-2.714421495
 30
0.0
  0
SPLINE
  5
49A
100
AcDbEntity
  8
0
100
AcDbSpline
 62
7
  6
CONTINUOUS
 70
0
 71
3
 72
9
 73
5
 74
0
 42
0.0000001
 43
0.0000001
 44
0.0000000001
 40
0.0
 40
0.0
 40
0.0
 40
0.0
 40
0.240448817
 40
1.0
 40
1.0
 40
1.0
 40
1.0
 10
14.1487183923
 20
-2.6850139935
 30
0.0
 10
14.077976074
 20
-2.6723352804
 30
0.0
 10
13.7857156426
 20
-2.608966432
 30
0.0
 10
13.5024223776
 20
-2.5064677242
 30
0.0
 10
13.2961390685
 20
-2.4116583497
 30
0.0
  0
SPLINE
  5
49B
100
AcDbEntity
  8
0
100
AcDbSpline
 62
7
  6
CONTINUOUS
 70
0
 71
3
 72
10
 73
6
 74
0
 42
0.0000001
 43
0.0000001
 44
0.0000000001
 40
0.0
 40
0.0
 40
0.0
 40
0.0
 40
0.2823333715
 40
0.5491969202
 40
1.0
 40
1.0
 40
1.0
 40
1.0
 10
12.6776617511
 20
-2.0598240858
 30
0.0
 10
12.501128551
 20
-1.9383354431
 30
0.0
 10
12.1745532473
 20
-1.6744360747
 30
0.0
 10
11.670584875
 20
-1.1088330661
 30
0.0
 10
11.4134126962
 20
-0.5945646931
 30
0.0
 10
11.3721800746
 20
-0.2548880833
 30
0.0
  0
SPLINE
  5
49C
100
AcDbEntity
  8
RACCORDO
100
AcDbSpline
 62
250
  6
CONTINUOUS
 70
0
 71
3
 72
9
 73
5
 74
0
 42
0.0000001
 43
0.0000001
 44
0.0000000001
 40
0.0
 40
0.0
 40
0.0
 40
0.0
 40
0.4197165883
 40
1.0
 40
1.0
 40
1.0
 40
1.0
 10
3.2637849123
 20
-2.6781627673
 30
0.0
 10
3.2168490659
 20
-2.6482621426
 30
0.0
 10
3.0816294047
 20
-2.6185343791
 30
0.0
 10
2.949350105
 20
-2.6281375025
 30
0.0
 10
2.8732120715
 20
-2.6392221868
 30
0.0
  0
SPLINE
  5
49D
100
AcDbEntity
  8
0
100
AcDbSpline
 62
7
  6
CONTINUOUS
 70
0
 71
3
 72
9
 73
5
 74
0
 42
0.0000001
 43
0.0000001
 44
0.0000000001
 40
0.0
 40
0.0
 40
0.0
 40
0.0
 40
0.2368932088
 40
1.0
 40
1.0
 40
1.0
 40
1.0
 10
14.9433000034
 20
-2.6822950097
 30
0.0
 10
14.8984770212
 20
-2.6895989384
 30
0.0
 10
14.7080764027
 20
-2.7130804114
 30
0.0
 10
14.5147744751
 20
-2.7086374123
 30
0.0
 10
14.3692611999
 20
-2.6935514945
 30
0.0
  0
SPLINE
  5
49E
100
AcDbEntity
  8
0
100
AcDbSpline
 62
7
  6
CONTINUOUS
 70
0
 71
3
 72
9
 73
5
 74
0
 42
0.0000001
 43
0.0000001
 44
0.0000000001
 40
0.0
 40
0.0
 40
0.0
 40
0.0
 40
0.2404488551
 40
1.0
 40
1.0
 40
1.0
 40
1.0
 10
14.1620464742
 20
-2.6641442043
 30
0.0
 10
14.0913041189
 20
-2.6514655586
 30
0.0
 10
13.7990435743
 20
-2.5880969719
 30
0.0
 10
13.5157501836
 20
-2.48559841
 30
0.0
 10
13.3094668168
 20
-2.390789089
 30
0.0
  0
SPLINE
  5
49F
100
AcDbEntity
  8
0
100
AcDbSpline
 62
7
  6
CONTINUOUS
 70
0
 71
3
 72
9
 73
5
 74
0
 42
0.0000001
 43
0.0000001
 44
0.0000000001
 40
0.0
 40
0.0
 40
0.0
 40
0.0
 40
0.5470883321
 40
1.0
 40
1.0
 40
1.0
 40
1.0
 10
12.5011394332
 20
-1.9002142857
 30
0.0
 10
12.20701277
 20
-1.6721075725
 30
0.0
 10
11.7209482082
 20
-1.1839082139
 30
0.0
 10
11.4226409353
 20
-0.5399112688
 30
0.0
 10
11.3855095652
 20
-0.2340162637
 30
0.0
  0
LINE
  5
4A0
100
AcDbEntity
  8
0
100
AcDbLine
 62
7
  6
CONTINUOUS
 10
14.0893681985
 20
0.0999127141
 11
14.0636007837
 21
0.3184939675
  0
SPLINE
  5
4A1
100
AcDbEntity
  8
0
100
AcDbSpline
 62
7
  6
CONTINUOUS
 70
0
 71
3
 72
8
 73
4
 74
0
 42
0.0000001
 43
0.0000001
 44
0.0000000001
 40
0.0
 40
0.0
 40
0.0
 40
0.0
 40
1.0
 40
1.0
 40
1.0
 40
1.0
 10
12.9867910685
 20
0.7314384826
 30
0.0
 10
13.3413797472
 20
0.6300057823
 30
0.0
 10
13.6960359612
 20
0.5288088759
 30
0.0
 10
14.0507591677
 20
0.4278476429
 30
0.0
  0
SPLINE
  5
4A2
100
AcDbEntity
  8
RACCORDO
100
AcDbSpline
 62
250
  6
CONTINUOUS
 70
0
 71
3
 72
9
 73
5
 74
0
 42
0.0000001
 43
0.0000001
 44
0.0000000001
 40
0.0
 40
0.0
 40
0.0
 40
0.0
 40
0.4173924923
 40
1.0
 40
1.0
 40
1.0
 40
1.0
 10
4.1494170917
 20
-4.6583040742
 30
0.0
 10
4.1010138277
 20
-4.6306764888
 30
0.0
 10
3.9643108786
 20
-4.6059903917
 30
0.0
 10
3.8314136044
 20
-4.6175399783
 30
0.0
 10
3.7545493165
 20
-4.62952789
 30
0.0
  0
SPLINE
  5
4A3
100
AcDbEntity
  8
RACCORDO
100
AcDbSpline
 62
250
  6
CONTINUOUS
 70
0
 71
3
 72
9
 73
5
 74
0
 42
0.0000001
 43
0.0000001
 44
0.0000000001
 40
0.0
 40
0.0
 40
0.0
 40
0.0
 40
0.2317802232
 40
1.0
 40
1.0
 40
1.0
 40
1.0
 10
-17.0230236481
 20
3.5774317634
 30
0.0
 10
-16.9519500211
 20
3.5865852942
 30
0.0
 10
-16.6404517275
 20
3.5859798317
 30
0.0
 10
-16.3381821399
 20
3.4495958159
 30
0.0
 10
-16.1509343552
 20
3.3034749083
 30
0.0
  0
SPLINE
  5
4A4
100
AcDbEntity
  8
RACCORDO
100
AcDbSpline
 62
250
  6
CONTINUOUS
 70
0
 71
3
 72
9
 73
5
 74
0
 42
0.0000001
 43
0.0000001
 44
0.0000000001
 40
0.0
 40
0.0
 40
0.0
 40
0.0
 40
0.2422418296
 40
1.0
 40
1.0
 40
1.0
 40
1.0
 10
-17.5929239704
 20
2.1904813256
 30
0.0
 10
-17.5429100069
 20
2.1799334962
 30
0.0
 10
-17.3394627307
 20
2.1227367454
 30
0.0
 10
-17.1507320856
 20
2.0162339601
 30
0.0
 10
-17.0259968935
 20
1.9162036125
 30
0.0
  0
SPLINE
  5
4A5
100
AcDbEntity
  8
RACCORDO
100
AcDbSpline
 62
250
  6
CONTINUOUS
 70
0
 71
3
 72
9
 73
5
 74
0
 42
0.0000001
 43
0.0000001
 44
0.0000000001
 40
0.0
 40
0.0
 40
0.0
 40
0.0
 40
0.2421703686
 40
1.0
 40
1.0
 40
1.0
 40
1.0
 10
27.1986051441
 20
-10.6119214285
 30
0.0
 10
27.0847831625
 20
-10.7489853176
 30
0.0
 10
26.5925276138
 20
-11.2963539558
 30
0.0
 10
26.0176452984
 20
-11.7674093099
 30
0.0
 10
25.5547520537
 20
-12.0781637871
 30
0.0
  0
SPLINE
  5
4A6
100
AcDbEntity
  8
RACCORDO
100
AcDbSpline
 62
250
  6
CONTINUOUS
 70
0
 71
3
 72
9
 73
5
 74
0
 42
0.0000001
 43
0.0000001
 44
0.0000000001
 40
0.0
 40
0.0
 40
0.0
 40
0.0
 40
0.2532396907
 40
1.0
 40
1.0
 40
1.0
 40
1.0
 10
24.2994962265
 20
-1.1089616849
 30
0.0
 10
24.3783419381
 20
-2.0376895441
 30
0.0
 10
24.71349724
 20
-5.7029647281
 30
0.0
 10
25.1542736326
 20
-9.3589862722
 30
0.0
 10
25.5547520537
 20
-12.0781637871
 30
0.0
  0
SPLINE
  5
4A7
100
AcDbEntity
  8
RACCORDO
100
AcDbSpline
 62
250
  6
CONTINUOUS
 70
0
 71
3
 72
9
 73
5
 74
0
 42
0.0000001
 43
0.0000001
 44
0.0000000001
 40
0.0
 40
0.0
 40
0.0
 40
0.0
 40
0.2432372254
 40
1.0
 40
1.0
 40
1.0
 40
1.0
 10
25.7494633183
 20
0.5478098236
 30
0.0
 10
25.6498309591
 20
0.3993822058
 30
0.0
 10
25.2197069743
 20
-0.1969332995
 30
0.0
 10
24.7129771313
 20
-0.7369811826
 30
0.0
 10
24.2994962265
 20
-1.1089616849
 30
0.0
  0
SPLINE
  5
4A8
100
AcDbEntity
  8
RACCORDO
100
AcDbSpline
 62
250
  6
CONTINUOUS
 70
0
 71
3
 72
11
 73
7
 74
0
 42
0.0000001
 43
0.0000001
 44
0.0000000001
 40
0.0
 40
0.0
 40
0.0
 40
0.0
 40
0.2808954939
 40
0.5343778912
 40
0.7694590705
 40
1.0
 40
1.0
 40
1.0
 40
1.0
 10
-12.7750171959
 20
6.5046032162
 30
0.0
 10
-13.2792986758
 20
6.4418483271
 30
0.0
 10
-14.232226353
 20
6.2349153474
 30
0.0
 10
-15.4988966308
 20
5.6199240522
 30
0.0
 10
-16.4718328931
 20
4.7254614228
 30
0.0
 10
-16.8829335733
 20
3.970271382
 30
0.0
 10
-17.0230353547
 20
3.5774325041
 30
0.0
  0
SPLINE
  5
4A9
100
AcDbEntity
  8
RACCORDO
100
AcDbSpline
 62
250
  6
CONTINUOUS
 70
0
 71
3
 72
9
 73
5
 74
0
 42
0.0000001
 43
0.0000001
 44
0.0000000001
 40
0.0
 40
0.0
 40
0.0
 40
0.0
 40
0.2551578687
 40
1.0
 40
1.0
 40
1.0
 40
1.0
 10
-11.4536027457
 20
6.5686770536
 30
0.0
 10
-11.5641841533
 20
6.561536947
 30
0.0
 10
-11.9970317433
 20
6.5260225603
 30
0.0
 10
-12.427490292
 20
6.4597176876
 30
0.0
 10
-12.7437039717
 20
6.3915632369
 30
0.0
  0
SPLINE
  5
4AA
100
AcDbEntity
  8
RACCORDO
100
AcDbSpline
 62
250
  6
CONTINUOUS
 70
0
 71
3
 72
11
 73
7
 74
0
 42
0.0000001
 43
0.0000001
 44
0.0000000001
 40
0.0
 40
0.0
 40
0.0
 40
0.0
 40
0.2586245343
 40
0.5074967593
 40
0.7525625614
 40
1.0
 40
1.0
 40
1.0
 40
1.0
 10
-12.7437039717
 20
6.3915632369
 30
0.0
 10
-13.1855352742
 20
6.296334056
 30
0.0
 10
-14.0392825339
 20
6.0362718077
 30
0.0
 10
-15.2108487671
 20
5.4211885473
 30
0.0
 10
-16.2239971124
 20
4.6004365332
 30
0.0
 10
-16.7781086118
 20
3.9338081414
 30
0.0
 10
-17.0230353547
 20
3.5774325041
 30
0.0
  0
LINE
  5
4AB
100
AcDbEntity
  8
0
100
AcDbLine
 62
7
  6
CONTINUOUS
 10
10.6309385636
 20
-5.5382105867
 11
11.2062156695
 21
-5.7050957935
  0
SPLINE
  5
4AC
100
AcDbEntity
  8
RACCORDO
100
AcDbSpline
 62
250
  6
CONTINUOUS
 70
0
 71
3
 72
11
 73
7
 74
0
 42
0.0000001
 43
0.0000001
 44
0.0000000001
 40
0.0
 40
0.0
 40
0.0
 40
0.0
 40
0.2587101424
 40
0.5089619372
 40
0.7546812332
 40
1.0
 40
1.0
 40
1.0
 40
1.0
 10
-20.0131341655
 20
4.6831689558
 30
0.0
 10
-19.9880551307
 20
5.2937698916
 30
0.0
 10
-19.8544793804
 20
6.4937829897
 30
0.0
 10
-19.3845374465
 20
8.2210618446
 30
0.0
 10
-18.6526813218
 20
9.8203876255
 30
0.0
 10
-17.9975166176
 20
10.7851680477
 30
0.0
 10
-17.6338568431
 20
11.236335714
 30
0.0
  0
LINE
  5
4AD
100
AcDbEntity
  8
0
100
AcDbLine
 62
7
  6
CONTINUOUS
 10
8.7855495543
 20
-4.9998282114
 11
9.3600477273
 21
-5.1679331008
  0
SPLINE
  5
4AE
100
AcDbEntity
  8
RACCORDO
100
AcDbSpline
 62
250
  6
CONTINUOUS
 70
0
 71
3
 72
9
 73
5
 74
0
 42
0.0000001
 43
0.0000001
 44
0.0000000001
 40
0.0
 40
0.0
 40
0.0
 40
0.0
 40
0.4840879532
 40
1.0
 40
1.0
 40
1.0
 40
1.0
 10
-19.8546821085
 20
1.8549457951
 30
0.0
 10
-19.840347887
 20
1.7581252218
 30
0.0
 10
-19.7678752723
 20
1.5625696128
 30
0.0
 10
-19.6270470417
 20
1.4108246848
 30
0.0
 10
-19.54530108
 20
1.3460308845
 30
0.0
  0
SPLINE
  5
4AF
100
AcDbEntity
  8
RACCORDO
100
AcDbSpline
 62
250
  6
CONTINUOUS
 70
0
 71
3
 72
9
 73
5
 74
0
 42
0.0000001
 43
0.0000001
 44
0.0000000001
 40
0.0
 40
0.0
 40
0.0
 40
0.0
 40
0.2409067784
 40
1.0
 40
1.0
 40
1.0
 40
1.0
 10
-19.54530108
 20
1.3460308845
 30
0.0
 10
-19.5190344133
 20
1.3252112975
 30
0.0
 10
-19.4057138976
 20
1.24425015
 30
0.0
 10
-19.2776829912
 20
1.1846710108
 30
0.0
 10
-19.1774680326
 20
1.1513425124
 30
0.0
  0
SPLINE
  5
4B0
100
AcDbEntity
  8
RACCORDO
100
AcDbSpline
 62
250
  6
CONTINUOUS
 70
0
 71
3
 72
9
 73
5
 74
0
 42
0.0000001
 43
0.0000001
 44
0.0000000001
 40
0.0
 40
0.0
 40
0.0
 40
0.0
 40
0.2458371733
 40
1.0
 40
1.0
 40
1.0
 40
1.0
 10
29.0916348813
 20
5.6009759936
 30
0.0
 10
28.9231730073
 20
5.3371920441
 30
0.0
 10
28.2340925523
 20
4.2666336212
 30
0.0
 10
27.5300615558
 20
3.2057123901
 30
0.0
 10
26.991571872
 20
2.4107645881
 30
0.0
  0
SPLINE
  5
4B1
100
AcDbEntity
  8
0
100
AcDbSpline
 62
7
  6
CONTINUOUS
 70
0
 71
3
 72
9
 73
5
 74
0
 42
0.0000001
 43
0.0000001
 44
0.0000000001
 40
0.0
 40
0.0
 40
0.0
 40
0.0
 40
0.2429089126
 40
1.0
 40
1.0
 40
1.0
 40
1.0
 10
29.4659633961
 20
3.0586519942
 30
0.0
 10
29.4370550095
 20
3.0133861512
 30
0.0
 10
29.3194487301
 20
2.8261430199
 30
0.0
 10
29.2072604987
 20
2.6355122233
 30
0.0
 10
29.1250623385
 20
2.489683278
 30
0.0
  0
SPLINE
  5
4B2
100
AcDbEntity
  8
0
100
AcDbSpline
 62
7
  6
CONTINUOUS
 70
0
 71
3
 72
13
 73
9
 74
0
 42
0.0000001
 43
0.0000001
 44
0.0000000001
 40
0.0
 40
0.0
 40
0.0
 40
0.0
 40
0.2631905725
 40
0.5386893089
 40
0.6706063326
 40
0.793436864
 40
0.9040005249
 40
1.0
 40
1.0
 40
1.0
 40
1.0
 10
29.1250623385
 20
2.489683278
 30
0.0
 10
28.7756459633
 20
1.8697786313
 30
0.0
 10
28.1570491473
 20
0.5459558246
 30
0.0
 10
27.5886732662
 20
-1.1812668079
 30
0.0
 10
27.2875318597
 20
-2.5842331885
 30
0.0
 10
27.1608924292
 20
-3.5652713799
 30
0.0
 10
27.1365583883
 20
-4.4571131034
 30
0.0
 10
27.1943229991
 20
-5.0154150206
 30
0.0
 10
27.2460872711
 20
-5.2697586854
 30
0.0
  0
SPLINE
  5
4B3
100
AcDbEntity
  8
0
100
AcDbSpline
 62
7
  6
CONTINUOUS
 70
0
 71
3
 72
9
 73
5
 74
0
 42
0.0000001
 43
0.0000001
 44
0.0000000001
 40
0.0
 40
0.0
 40
0.0
 40
0.0
 40
0.2559435355
 40
1.0
 40
1.0
 40
1.0
 40
1.0
 10
27.2460872711
 20
-5.2697586854
 30
0.0
 10
27.2501917586
 20
-5.2899260783
 30
0.0
 10
27.2668571752
 20
-5.3685921909
 30
0.0
 10
27.2860867473
 20
-5.4467219574
 30
0.0
 10
27.3020015381
 20
-5.5043972618
 30
0.0
  0
SPLINE
  5
4B4
100
AcDbEntity
  8
0
100
AcDbSpline
 62
7
  6
CONTINUOUS
 70
0
 71
3
 72
11
 73
7
 74
0
 42
0.0000001
 43
0.0000001
 44
0.0000000001
 40
0.0
 40
0.0
 40
0.0
 40
0.0
 40
0.2987571502
 40
0.5587216328
 40
0.7878790651
 40
1.0
 40
1.0
 40
1.0
 40
1.0
 10
27.3020015381
 20
-5.5043972618
 30
0.0
 10
27.3412933349
 20
-5.6467909861
 30
0.0
 10
27.4331099833
 20
-5.9088681118
 30
0.0
 10
27.6308202811
 20
-6.2480707786
 30
0.0
 10
27.8777478697
 20
-6.4978715255
 30
0.0
 10
28.0763779981
 20
-6.5991770014
 30
0.0
 10
28.176636885
 20
-6.6299645658
 30
0.0
  0
SPLINE
  5
4B5
100
AcDbEntity
  8
RACCORDO
100
AcDbSpline
 62
250
  6
CONTINUOUS
 70
0
 71
3
 72
9
 73
5
 74
0
 42
0.0000001
 43
0.0000001
 44
0.0000000001
 40
0.0
 40
0.0
 40
0.0
 40
0.0
 40
0.2483895321
 40
1.0
 40
1.0
 40
1.0
 40
1.0
 10
-15.5198381373
 20
11.7382363014
 30
0.0
 10
-13.705821413
 20
11.1803791155
 30
0.0
 10
-6.3998573305
 20
8.9437640059
 30
0.0
 10
0.9176668455
 20
6.744921384
 30
0.0
 10
6.4236762945
 20
5.1128949112
 30
0.0
  0
SPLINE
  5
4B6
100
AcDbEntity
  8
RACCORDO
100
AcDbSpline
 62
250
  6
CONTINUOUS
 70
0
 71
3
 72
8
 73
4
 74
0
 42
0.0000001
 43
0.0000001
 44
0.0000000001
 40
0.0
 40
0.0
 40
0.0
 40
0.0
 40
1.0
 40
1.0
 40
1.0
 40
1.0
 10
7.3670665735
 20
4.8334829146
 30
0.0
 10
8.3907379461
 20
4.5305279066
 30
0.0
 10
9.4146168098
 20
4.2282731583
 30
0.0
 10
10.4386973549
 20
3.9267041728
 30
0.0
  0
SPLINE
  5
4B7
100
AcDbEntity
  8
RACCORDO
100
AcDbSpline
 62
250
  6
CONTINUOUS
 70
0
 71
3
 72
8
 73
4
 74
0
 42
0.0000001
 43
0.0000001
 44
0.0000000001
 40
0.0
 40
0.0
 40
0.0
 40
0.0
 40
1.0
 40
1.0
 40
1.0
 40
1.0
 10
11.0181215738
 20
3.7561560077
 30
0.0
 10
11.5066423544
 20
3.6124312807
 30
0.0
 10
11.995208877
 20
3.468861942
 30
0.0
 10
12.4838205269
 20
3.3254464413
 30
0.0
  0
SPLINE
  5
4B8
100
AcDbEntity
  8
RACCORDO
100
AcDbSpline
 62
250
  6
CONTINUOUS
 70
0
 71
3
 72
8
 73
4
 74
0
 42
0.0000001
 43
0.0000001
 44
0.0000000001
 40
0.0
 40
0.0
 40
0.0
 40
0.0
 40
1.0
 40
1.0
 40
1.0
 40
1.0
 10
14.3201830752
 20
2.7872270288
 30
0.0
 10
15.2987136848
 20
2.5008445703
 30
0.0
 10
16.2774222743
 20
2.2150695844
 30
0.0
 10
17.2563028123
 20
1.9298855057
 30
0.0
  0
SPLINE
  5
4B9
100
AcDbEntity
  8
RACCORDO
100
AcDbSpline
 62
250
  6
CONTINUOUS
 70
0
 71
3
 72
11
 73
7
 74
0
 42
0.0000001
 43
0.0000001
 44
0.0000000001
 40
0.0
 40
0.0
 40
0.0
 40
0.0
 40
0.2019648207
 40
0.4347558237
 40
0.7024067507
 40
1.0
 40
1.0
 40
1.0
 40
1.0
 10
-17.6338340566
 20
11.2362930535
 30
0.0
 10
-17.5387424818
 20
11.3548131118
 30
0.0
 10
-17.2740885398
 20
11.5631292829
 30
0.0
 10
-16.7688704719
 20
11.7378215065
 30
0.0
 10
-16.1677118437
 20
11.7993751398
 30
0.0
 10
-15.7416100741
 20
11.7689365272
 30
0.0
 10
-15.5198312408
 20
11.7381910042
 30
0.0
  0
SPLINE
  5
4BA
100
AcDbEntity
  8
RACCORDO
100
AcDbSpline
 62
250
  6
CONTINUOUS
 70
0
 71
3
 72
9
 73
5
 74
0
 42
0.0000001
 43
0.0000001
 44
0.0000000001
 40
0.0
 40
0.0
 40
0.0
 40
0.0
 40
0.5006011666
 40
1.0
 40
1.0
 40
1.0
 40
1.0
 10
-18.3901503897
 20
12.2095183632
 30
0.0
 10
-18.1920943799
 20
12.6808800311
 30
0.0
 10
-17.7258660645
 20
13.5944912451
 30
0.0
 10
-17.126373963
 20
14.4268054566
 30
0.0
 10
-16.7981769932
 20
14.8172418451
 30
0.0
  0
SPLINE
  5
4BB
100
AcDbEntity
  8
RACCORDO
100
AcDbSpline
 62
250
  6
CONTINUOUS
 70
0
 71
3
 72
10
 73
6
 74
0
 42
0.0000001
 43
0.0000001
 44
0.0000000001
 40
0.0
 40
0.0
 40
0.0
 40
0.0
 40
0.4256015482
 40
0.696461488
 40
1.0
 40
1.0
 40
1.0
 40
1.0
 10
-16.7981769882
 20
14.8172418424
 30
0.0
 10
-16.5923921193
 20
15.0596557423
 30
0.0
 10
-16.0661048046
 20
15.2798245966
 30
0.0
 10
-15.3250796694
 20
15.329955996
 30
0.0
 10
-14.8942782888
 20
15.2856758847
 30
0.0
 10
-14.6710381482
 20
15.2457425855
 30
0.0
  0
SPLINE
  5
4BC
100
AcDbEntity
  8
RACCORDO
100
AcDbSpline
 62
250
  6
CONTINUOUS
 70
0
 71
3
 72
11
 73
7
 74
0
 42
0.0000001
 43
0.0000001
 44
0.0000000001
 40
0.0
 40
0.0
 40
0.0
 40
0.0
 40
0.2006299557
 40
0.4325573962
 40
0.7005833915
 40
1.0
 40
1.0
 40
1.0
 40
1.0
 10
-16.5000981899
 20
15.4966500956
 30
0.0
 10
-16.4024804285
 20
15.6137456874
 30
0.0
 10
-16.1329120876
 20
15.818195022
 30
0.0
 10
-15.6207755105
 20
15.9853090357
 30
0.0
 10
-15.0106838588
 20
16.0310796797
 30
0.0
 10
-14.579798376
 20
15.9834910664
 30
0.0
 10
-14.3561762003
 20
15.941601721
 30
0.0
  0
SPLINE
  5
4BD
100
AcDbEntity
  8
RACCORDO
100
AcDbSpline
 62
250
  6
CONTINUOUS
 70
0
 71
3
 72
10
 73
6
 74
0
 42
0.0000001
 43
0.0000001
 44
0.0000000001
 40
0.0
 40
0.0
 40
0.0
 40
0.0
 40
0.5298907861
 40
0.7699244755
 40
1.0
 40
1.0
 40
1.0
 40
1.0
 10
-19.1273990849
 20
0.8109850794
 30
0.0
 10
-19.2986462196
 20
0.8680160357
 30
0.0
 10
-19.5393497258
 20
1.0036757829
 30
0.0
 10
-19.7429940409
 20
1.2821623524
 30
0.0
 10
-19.793229626
 20
1.4378127207
 30
0.0
 10
-19.804727623
 20
1.5153341534
 30
0.0
  0
LINE
  5
4BE
100
AcDbEntity
  8
0
100
AcDbLine
 62
7
  6
CONTINUOUS
 10
11.5898613398
 20
-5.8161394523
 11
12.1655356358
 21
-5.9823893784
  0
SPLINE
  5
4BF
100
AcDbEntity
  8
RACCORDO
100
AcDbSpline
 62
250
  6
CONTINUOUS
 70
0
 71
3
 72
9
 73
5
 74
0
 42
0.0000001
 43
0.0000001
 44
0.0000000001
 40
0.0
 40
0.0
 40
0.0
 40
0.0
 40
0.4792222718
 40
1.0
 40
1.0
 40
1.0
 40
1.0
 10
-17.6338250139
 20
11.2362911539
 30
0.0
 10
-17.6470088116
 20
11.0216812741
 30
0.0
 10
-17.530739213
 20
10.5625507361
 30
0.0
 10
-17.2222042037
 20
10.2146053633
 30
0.0
 10
-17.0342684438
 20
10.075764396
 30
0.0
  0
SPLINE
  5
4C0
100
AcDbEntity
  8
RACCORDO
100
AcDbSpline
 62
250
  6
CONTINUOUS
 70
0
 71
3
 72
10
 73
6
 74
0
 42
0.0000001
 43
0.0000001
 44
0.0000000001
 40
0.0
 40
0.0
 40
0.0
 40
0.0
 40
0.5309442359
 40
0.784442167
 40
1.0
 40
1.0
 40
1.0
 40
1.0
 10
-15.51983865
 20
11.7382370196
 30
0.0
 10
-15.6467300723
 20
11.4919033115
 30
0.0
 10
-15.7823986599
 20
11.0986872889
 30
0.0
 10
-15.8583613181
 20
10.5817972405
 30
0.0
 10
-15.8559622472
 20
10.3348664288
 30
0.0
 10
-15.8397387292
 20
10.2235446361
 30
0.0
  0
SPLINE
  5
4C1
100
AcDbEntity
  8
RACCORDO
100
AcDbSpline
 62
250
  6
CONTINUOUS
 70
0
 71
3
 72
10
 73
6
 74
0
 42
0.0000001
 43
0.0000001
 44
0.0000000001
 40
0.0
 40
0.0
 40
0.0
 40
0.0
 40
0.2617648503
 40
0.5328906649
 40
1.0
 40
1.0
 40
1.0
 40
1.0
 10
23.2244415726
 20
0.1989880355
 30
0.0
 10
23.1630771164
 20
0.0760826643
 30
0.0
 10
23.0650765719
 20
-0.1873886425
 30
0.0
 10
22.926111591
 20
-0.6924540408
 30
0.0
 10
22.8759699536
 20
-1.0839833749
 30
0.0
 10
22.8943844842
 20
-1.3284275082
 30
0.0
  0
SPLINE
  5
4C2
100
AcDbEntity
  8
RACCORDO
100
AcDbSpline
 62
250
  6
CONTINUOUS
 70
0
 71
3
 72
8
 73
4
 74
0
 42
0.0000001
 43
0.0000001
 44
0.0000000001
 40
0.0
 40
0.0
 40
0.0
 40
0.0
 40
1.0
 40
1.0
 40
1.0
 40
1.0
 10
25.2857075556
 20
-12.2212453868
 30
0.0
 10
25.0435998088
 20
-12.321403455
 30
0.0
 10
24.771137582
 20
-12.3651694339
 30
0.0
 10
24.509776042
 20
-12.3467861503
 30
0.0
  0
SPLINE
  5
4C3
100
AcDbEntity
  8
RACCORDO
100
AcDbSpline
 62
250
  6
CONTINUOUS
 70
0
 71
3
 72
9
 73
5
 74
0
 42
0.0000001
 43
0.0000001
 44
0.0000000001
 40
0.0
 40
0.0
 40
0.0
 40
0.0
 40
0.4942872367
 40
1.0
 40
1.0
 40
1.0
 40
1.0
 10
24.2996858785
 20
-1.108650619
 30
0.0
 10
24.1030087437
 20
-1.2458049953
 30
0.0
 10
23.6306754705
 20
-1.4193796246
 30
0.0
 10
23.1302640928
 20
-1.395826894
 30
0.0
 10
22.8943844842
 20
-1.3284275082
 30
0.0
  0
SPLINE
  5
4C4
100
AcDbEntity
  8
0
100
AcDbSpline
 62
7
  6
CONTINUOUS
 70
0
 71
3
 72
8
 73
4
 74
0
 42
0.0000001
 43
0.0000001
 44
0.0000000001
 40
0.0
 40
0.0
 40
0.0
 40
0.0
 40
1.0
 40
1.0
 40
1.0
 40
1.0
 10
14.6893279493
 20
-6.7059389936
 30
0.0
 10
14.9800601655
 20
-6.78879331
 30
0.0
 10
15.2708375366
 20
-6.8714893428
 30
0.0
 10
15.5616597645
 20
-6.9540271585
 30
0.0
  0
SPLINE
  5
4C5
100
AcDbEntity
  8
RACCORDO
100
AcDbSpline
 62
250
  6
CONTINUOUS
 70
0
 71
3
 72
11
 73
7
 74
0
 42
0.0000001
 43
0.0000001
 44
0.0000000001
 40
0.0
 40
0.0
 40
0.0
 40
0.0
 40
0.2034277122
 40
0.4535953801
 40
0.7288451628
 40
1.0
 40
1.0
 40
1.0
 40
1.0
 10
26.9915718104
 20
2.4107646101
 30
0.0
 10
26.9681840459
 20
2.529791136
 30
0.0
 10
26.8488199951
 20
2.7805669817
 30
0.0
 10
26.5640983979
 20
3.112114096
 30
0.0
 10
26.1873447509
 20
3.4061931743
 30
0.0
 10
25.8954757447
 20
3.5567087141
 30
0.0
 10
25.7443374862
 20
3.6141556378
 30
0.0
  0
SPLINE
  5
4C6
100
AcDbEntity
  8
RACCORDO
100
AcDbSpline
 62
250
  6
CONTINUOUS
 70
0
 71
3
 72
11
 73
7
 74
0
 42
0.0000001
 43
0.0000001
 44
0.0000000001
 40
0.0
 40
0.0
 40
0.0
 40
0.0
 40
0.196482227
 40
0.4464569353
 40
0.7250581513
 40
1.0
 40
1.0
 40
1.0
 40
1.0
 10
25.7494540922
 20
0.5478133778
 30
0.0
 10
25.716792655
 20
0.6580280294
 30
0.0
 10
25.5807512235
 20
0.8881800635
 30
0.0
 10
25.2871378467
 20
1.1960433824
 30
0.0
 10
24.9084415418
 20
1.478321235
 30
0.0
 10
24.6203539691
 20
1.6300774116
 30
0.0
 10
24.4715421964
 20
1.6911469043
 30
0.0
  0
SPLINE
  5
4C7
100
AcDbEntity
  8
0
100
AcDbSpline
 62
7
  6
CONTINUOUS
 70
0
 71
3
 72
8
 73
4
 74
0
 42
0.0000001
 43
0.0000001
 44
0.0000000001
 40
0.0
 40
0.0
 40
0.0
 40
0.0
 40
1.0
 40
1.0
 40
1.0
 40
1.0
 10
12.7414309757
 20
-6.1482531501
 30
0.0
 10
13.0317495328
 20
-6.2317545218
 30
0.0
 10
13.3221136544
 20
-6.3150976369
 30
0.0
 10
13.6125230413
 20
-6.3982825616
 30
0.0
  0
SPLINE
  5
4C8
100
AcDbEntity
  8
RACCORDO
100
AcDbSpline
 62
250
  6
CONTINUOUS
 70
0
 71
3
 72
11
 73
7
 74
0
 42
0.0000001
 43
0.0000001
 44
0.0000000001
 40
0.0
 40
0.0
 40
0.0
 40
0.0
 40
0.2018442545
 40
0.456866064
 40
0.7343980679
 40
1.0
 40
1.0
 40
1.0
 40
1.0
 10
24.2996858785
 20
-1.108650619
 30
0.0
 10
24.2516208806
 20
-1.004519134
 30
0.0
 10
24.1260942796
 20
-0.7761611249
 30
0.0
 10
23.8729040554
 20
-0.4429188283
 30
0.0
 10
23.5670309148
 20
-0.1082391758
 30
0.0
 10
23.3440468283
 20
0.1069530671
 30
0.0
 10
23.2244415726
 20
0.1989880355
 30
0.0
  0
SPLINE
  5
4C9
100
AcDbEntity
  8
RACCORDO
100
AcDbSpline
 62
250
  6
CONTINUOUS
 70
0
 71
3
 72
9
 73
5
 74
0
 42
0.0000001
 43
0.0000001
 44
0.0000000001
 40
0.0
 40
0.0
 40
0.0
 40
0.0
 40
0.2364903514
 40
1.0
 40
1.0
 40
1.0
 40
1.0
 10
4.8954782457
 20
-6.7767634273
 30
0.0
 10
4.8015173883
 20
-6.6096849388
 30
0.0
 10
4.407849436
 20
-5.9011537554
 30
0.0
 10
4.0311937705
 20
-5.1831309096
 30
0.0
 10
3.7545230032
 20
-4.629558032
 30
0.0
  0
SPLINE
  5
4CA
100
AcDbEntity
  8
RACCORDO
100
AcDbSpline
 62
250
  6
CONTINUOUS
 70
0
 71
3
 72
9
 73
5
 74
0
 42
0.0000001
 43
0.0000001
 44
0.0000000001
 40
0.0
 40
0.0
 40
0.0
 40
0.0
 40
0.2507698028
 40
1.0
 40
1.0
 40
1.0
 40
1.0
 10
4.8954782457
 20
-6.7767634273
 30
0.0
 10
2.9777654891
 20
-6.2034236604
 30
0.0
 10
-4.6611881908
 20
-3.8892756402
 30
0.0
 10
-12.2663261336
 20
-1.4634490737
 30
0.0
 10
-17.9430687634
 20
0.4172687502
 30
0.0
  0
SPLINE
  5
4CB
100
AcDbEntity
  8
RACCORDO
100
AcDbSpline
 62
250
  6
CONTINUOUS
 70
0
 71
3
 72
9
 73
5
 74
0
 42
0.0000001
 43
0.0000001
 44
0.0000000001
 40
0.0
 40
0.0
 40
0.0
 40
0.0
 40
0.5310232759
 40
1.0
 40
1.0
 40
1.0
 40
1.0
 10
-17.0259966157
 20
1.9162039082
 30
0.0
 10
-17.216467289
 20
1.6694571173
 30
0.0
 10
-17.5581065989
 20
1.1912708076
 30
0.0
 10
-17.8389355322
 20
0.6721022527
 30
0.0
 10
-17.9430687634
 20
0.4172687502
 30
0.0
  0
SPLINE
  5
4CC
100
AcDbEntity
  8
RACCORDO
100
AcDbSpline
 62
250
  6
CONTINUOUS
 70
0
 71
3
 72
15
 73
11
 74
0
 42
0.0000001
 43
0.0000001
 44
0.0000000001
 40
0.0
 40
0.0
 40
0.0
 40
0.0
 40
0.1419795479
 40
0.2916581487
 40
0.442323906
 40
0.5870930445
 40
0.7195631872
 40
0.8343566146
 40
0.9279184513
 40
1.0
 40
1.0
 40
1.0
 40
1.0
 10
31.1597570033
 20
1.2515540994
 30
0.0
 10
30.987175591
 20
0.9282652032
 30
0.0
 10
30.667821827
 20
0.2450618782
 30
0.0
 10
30.2753929608
 20
-0.8283696997
 30
0.0
 10
29.9701858416
 20
-1.9373642322
 30
0.0
 10
29.7680319306
 20
-3.0247151649
 30
0.0
 10
29.6783781227
 20
-4.0342996112
 30
0.0
 10
29.7056985075
 20
-4.9169323668
 30
0.0
 10
29.8452082277
 20
-5.6300204305
 30
0.0
 10
30.0386202748
 20
-6.0244703763
 30
0.0
 10
30.1604383318
 20
-6.1650976777
 30
0.0
  0
SPLINE
  5
4CD
100
AcDbEntity
  8
RACCORDO
100
AcDbSpline
 62
250
  6
CONTINUOUS
 70
0
 71
3
 72
9
 73
5
 74
0
 42
0.0000001
 43
0.0000001
 44
0.0000000001
 40
0.0
 40
0.0
 40
0.0
 40
0.0
 40
0.5183296343
 40
1.0
 40
1.0
 40
1.0
 40
1.0
 10
30.1604383318
 20
-6.1650976777
 30
0.0
 10
30.2095150457
 20
-6.2217520522
 30
0.0
 10
30.3168050009
 20
-6.3214039965
 30
0.0
 10
30.4489448833
 20
-6.386253354
 30
0.0
 10
30.5155412104
 20
-6.4066632856
 30
0.0
  0
SPLINE
  5
4CE
100
AcDbEntity
  8
RACCORDO
100
AcDbSpline
 62
250
  6
CONTINUOUS
 70
0
 71
3
 72
9
 73
5
 74
0
 42
0.0000001
 43
0.0000001
 44
0.0000000001
 40
0.0
 40
0.0
 40
0.0
 40
0.0
 40
0.496752088
 40
1.0
 40
1.0
 40
1.0
 40
1.0
 10
-16.1509415299
 20
3.3034668936
 30
0.0
 10
-16.3010946477
 20
3.077160201
 30
0.0
 10
-16.589854962
 20
2.6128669926
 30
0.0
 10
-16.8710396512
 20
2.1435598109
 30
0.0
 10
-17.0259966157
 20
1.9162039082
 30
0.0
  0
SPLINE
  5
4CF
100
AcDbEntity
  8
0
100
AcDbSpline
 62
7
  6
CONTINUOUS
 70
0
 71
3
 72
17
 73
13
 74
0
 42
0.0000001
 43
0.0000001
 44
0.0000000001
 40
0.0
 40
0.0
 40
0.0
 40
0.0
 40
0.1439981454
 40
0.3003874498
 40
0.4593279754
 40
0.6106075303
 40
0.7448767165
 40
0.8548841196
 40
0.8996940506
 40
0.9378855848
 40
0.9705631896
 40
1.0
 40
1.0
 40
1.0
 40
1.0
 10
30.8040386951
 20
1.9123816066
 30
0.0
 10
30.5858945334
 20
1.5552399911
 30
0.0
 10
30.1841925491
 20
0.7772519606
 30
0.0
 10
29.700127047
 20
-0.4689420006
 30
0.0
 10
29.3331404043
 20
-1.7766106601
 30
0.0
 10
29.1093836611
 20
-3.0516743534
 30
0.0
 10
29.044234239
 20
-4.2017082096
 30
0.0
 10
29.1264899141
 20
-5.0449994878
 30
0.0
 10
29.2936660621
 20
-5.5826524358
 30
0.0
 10
29.4505264946
 20
-5.8828080265
 30
0.0
 10
29.6479923259
 20
-6.102745298
 30
0.0
 10
29.8112505842
 20
-6.1905714014
 30
0.0
 10
29.8930852513
 20
-6.2155110125
 30
0.0
  0
SPLINE
  5
4D0
100
AcDbEntity
  8
RACCORDO
100
AcDbSpline
 62
250
  6
CONTINUOUS
 70
0
 71
3
 72
9
 73
5
 74
0
 42
0.0000001
 43
0.0000001
 44
0.0000000001
 40
0.0
 40
0.0
 40
0.0
 40
0.0
 40
0.2437744391
 40
1.0
 40
1.0
 40
1.0
 40
1.0
 10
2.8732120805
 20
-2.6392221761
 30
0.0
 10
2.7078061694
 20
-2.2903487459
 30
0.0
 10
1.9655081339
 20
-0.8897947328
 30
0.0
 10
0.9847190711
 20
0.3798675373
 30
0.0
 10
0.1544811068
 20
1.2431607648
 30
0.0
  0
SPLINE
  5
4D1
100
AcDbEntity
  8
RACCORDO
100
AcDbSpline
 62
250
  6
CONTINUOUS
 70
0
 71
3
 72
11
 73
7
 74
0
 42
0.0000001
 43
0.0000001
 44
0.0000000001
 40
0.0
 40
0.0
 40
0.0
 40
0.0
 40
0.2769504823
 40
0.5354021087
 40
0.7753446977
 40
1.0
 40
1.0
 40
1.0
 40
1.0
 10
-7.0697707084
 20
5.6935607044
 30
0.0
 10
-7.655387857
 20
5.8651690785
 30
0.0
 10
-8.8112594438
 20
6.123501883
 30
0.0
 10
-10.5233938136
 20
6.2384101041
 30
0.0
 10
-12.1160647517
 20
6.063061704
 30
0.0
 10
-13.0986059935
 20
5.7436327604
 30
0.0
 10
-13.5486116966
 20
5.5373954713
 30
0.0
  0
SPLINE
  5
4D2
100
AcDbEntity
  8
RACCORDO
100
AcDbSpline
 62
250
  6
CONTINUOUS
 70
0
 71
3
 72
9
 73
5
 74
0
 42
0.0000001
 43
0.0000001
 44
0.0000000001
 40
0.0
 40
0.0
 40
0.0
 40
0.0
 40
0.5000895398
 40
1.0
 40
1.0
 40
1.0
 40
1.0
 10
-13.5750193353
 20
5.5252209747
 30
0.0
 10
-14.0944948066
 20
5.2843131706
 30
0.0
 10
-15.0736096673
 20
4.6579261701
 30
0.0
 10
-15.8346596576
 20
3.7805647054
 30
0.0
 10
-16.1509415299
 20
3.3034668936
 30
0.0
  0
SPLINE
  5
4D3
100
AcDbEntity
  8
RACCORDO
100
AcDbSpline
 62
250
  6
CONTINUOUS
 70
0
 71
3
 72
9
 73
5
 74
0
 42
0.0000001
 43
0.0000001
 44
0.0000000001
 40
0.0
 40
0.0
 40
0.0
 40
0.0
 40
0.2513397245
 40
1.0
 40
1.0
 40
1.0
 40
1.0
 10
3.7545230032
 20
-4.629558032
 30
0.0
 10
3.7156059027
 20
-4.5440199497
 30
0.0
 10
3.5638026757
 20
-4.202310779
 30
0.0
 10
3.4182223506
 20
-3.8579039304
 30
0.0
 10
3.3068477708
 20
-3.6010933298
 30
0.0
  0
SPLINE
  5
4D4
100
AcDbEntity
  8
RACCORDO
100
AcDbSpline
 62
250
  6
CONTINUOUS
 70
0
 71
3
 72
8
 73
4
 74
0
 42
0.0000001
 43
0.0000001
 44
0.0000000001
 40
0.0
 40
0.0
 40
0.0
 40
0.0
 40
1.0
 40
1.0
 40
1.0
 40
1.0
 10
3.3068477708
 20
-3.6010933298
 30
0.0
 10
3.166914053
 20
-3.2784302754
 30
0.0
 10
3.0238651439
 20
-2.9570217143
 30
0.0
 10
2.8732120805
 20
-2.6392221761
 30
0.0
  0
SPLINE
  5
4D5
100
AcDbEntity
  8
RACCORDO
100
AcDbSpline
 62
250
  6
CONTINUOUS
 70
0
 71
3
 72
15
 73
11
 74
0
 42
0.0000001
 43
0.0000001
 44
0.0000000001
 40
0.0
 40
0.0
 40
0.0
 40
0.0
 40
0.1318897193
 40
0.2762065298
 40
0.4256040213
 40
0.572279258
 40
0.7086311179
 40
0.8279893072
 40
0.9255560566
 40
1.0
 40
1.0
 40
1.0
 40
1.0
 10
30.0894321035
 20
2.8671907942
 30
0.0
 10
29.855993527
 20
2.5016638586
 30
0.0
 10
29.4191357367
 20
1.7025966306
 30
0.0
 10
28.8732556034
 20
0.4119289468
 30
0.0
 10
28.4298763796
 20
-0.9687285659
 30
0.0
 10
28.1156005166
 20
-2.3576277168
 30
0.0
 10
27.948066867
 20
-3.6723215168
 30
0.0
 10
27.9368578666
 20
-4.838306228
 30
0.0
 10
28.0776801956
 20
-5.7890135261
 30
0.0
 10
28.3032715104
 20
-6.3242383931
 30
0.0
 10
28.4529475013
 20
-6.5179537645
 30
0.0
  0
SPLINE
  5
4D6
100
AcDbEntity
  8
RACCORDO
100
AcDbSpline
 62
250
  6
CONTINUOUS
 70
0
 71
3
 72
9
 73
5
 74
0
 42
0.0000001
 43
0.0000001
 44
0.0000000001
 40
0.0
 40
0.0
 40
0.0
 40
0.0
 40
0.5227671384
 40
1.0
 40
1.0
 40
1.0
 40
1.0
 10
28.4529475013
 20
-6.5179537645
 30
0.0
 10
28.5147702611
 20
-6.5979667232
 30
0.0
 10
28.6514856145
 20
-6.7387744406
 30
0.0
 10
28.8270710369
 20
-6.8297084666
 30
0.0
 10
28.9153114017
 20
-6.8568053616
 30
0.0
  0
SPLINE
  5
4D7
100
AcDbEntity
  8
RACCORDO
100
AcDbSpline
 62
250
  6
CONTINUOUS
 70
0
 71
3
 72
9
 73
5
 74
0
 42
0.0000001
 43
0.0000001
 44
0.0000000001
 40
0.0
 40
0.0
 40
0.0
 40
0.0
 40
0.4953759772
 40
1.0
 40
1.0
 40
1.0
 40
1.0
 10
-17.0230329187
 20
3.5774352613
 30
0.0
 10
-17.1361587414
 20
3.3570189226
 30
0.0
 10
-17.3405501548
 20
2.8995186277
 30
0.0
 10
-17.5078546143
 20
2.4280905004
 30
0.0
 10
-17.5929242041
 20
2.1904833108
 30
0.0
  0
SPLINE
  5
4D8
100
AcDbEntity
  8
RACCORDO
100
AcDbSpline
 62
250
  6
CONTINUOUS
 70
0
 71
3
 72
9
 73
5
 74
0
 42
0.0000001
 43
0.0000001
 44
0.0000000001
 40
0.0
 40
0.0
 40
0.0
 40
0.0
 40
0.2563518937
 40
1.0
 40
1.0
 40
1.0
 40
1.0
 10
-17.5929242041
 20
2.1904833108
 30
0.0
 10
-17.6447854686
 20
2.0451951471
 30
0.0
 10
-17.827806569
 20
1.4720461827
 30
0.0
 10
-17.9288327374
 20
0.8703635076
 30
0.0
 10
-17.9403200009
 20
0.423000314
 30
0.0
  0
SPLINE
  5
4D9
100
AcDbEntity
  8
RACCORDO
100
AcDbSpline
 62
250
  6
CONTINUOUS
 70
0
 71
3
 72
18
 73
14
 74
0
 42
0.0000001
 43
0.0000001
 44
0.0000000001
 40
0.0
 40
0.0
 40
0.0
 40
0.0
 40
0.1508808703
 40
0.3144131752
 40
0.4787046685
 40
0.6317216102
 40
0.7628295711
 40
0.8177968733
 40
0.8650561962
 40
0.9048993762
 40
0.9386352603
 40
0.9690158732
 40
1.0
 40
1.0
 40
1.0
 40
1.0
 10
30.7642145371
 20
1.9294220801
 30
0.0
 10
30.5265278841
 20
1.5349227767
 30
0.0
 10
30.0935999691
 20
0.6748241613
 30
0.0
 10
29.5842837787
 20
-0.6972661563
 30
0.0
 10
29.2169716638
 20
-2.1214400677
 30
0.0
 10
29.0222066051
 20
-3.4788769314
 30
0.0
 10
29.0122212608
 20
-4.5196741532
 30
0.0
 10
29.1188066257
 20
-5.2255131981
 30
0.0
 10
29.241908381
 20
-5.6432389981
 30
0.0
 10
29.4115333624
 20
-5.974048557
 30
0.0
 10
29.6299923436
 20
-6.2119203364
 30
0.0
 10
29.8985334657
 20
-6.3417076064
 30
0.0
 10
30.0914419155
 20
-6.3467028539
 30
0.0
 10
30.1851229021
 20
-6.3336911596
 30
0.0
  0
SPLINE
  5
4DA
100
AcDbEntity
  8
RACCORDO
100
AcDbSpline
 62
250
  6
CONTINUOUS
 70
0
 71
3
 72
9
 73
5
 74
0
 42
0.0000001
 43
0.0000001
 44
0.0000000001
 40
0.0
 40
0.0
 40
0.0
 40
0.0
 40
0.2350318887
 40
1.0
 40
1.0
 40
1.0
 40
1.0
 10
4.8906028004
 20
-6.7686298877
 30
0.0
 10
4.8393704726
 20
-6.601028621
 30
0.0
 10
4.6129257681
 20
-5.8905250421
 30
0.0
 10
4.3573304254
 20
-5.1894714008
 30
0.0
 10
4.1494538287
 20
-4.658282914
 30
0.0
  0
SPLINE
  5
4DB
100
AcDbEntity
  8
RACCORDO
100
AcDbSpline
 62
250
  6
CONTINUOUS
 70
0
 71
3
 72
9
 73
5
 74
0
 42
0.0000001
 43
0.0000001
 44
0.0000000001
 40
0.0
 40
0.0
 40
0.0
 40
0.0
 40
0.2488946047
 40
1.0
 40
1.0
 40
1.0
 40
1.0
 10
4.1494538287
 20
-4.658282914
 30
0.0
 10
4.1099858498
 20
-4.5575221845
 30
0.0
 10
3.9514836713
 20
-4.1526806893
 30
0.0
 10
3.7857079614
 20
-3.7505393602
 30
0.0
 10
3.6523975838
 20
-3.4524214972
 30
0.0
  0
LINE
  5
4DC
100
AcDbEntity
  8
0
100
AcDbLine
 62
7
  6
CONTINUOUS
 10
16.9833662184
 20
-7.3315316137
 11
17.4649882537
 21
-7.4671511109
  0
SPLINE
  5
4DD
100
AcDbEntity
  8
RACCORDO
100
AcDbSpline
 62
250
  6
CONTINUOUS
 70
0
 71
3
 72
17
 73
13
 74
0
 42
0.0000001
 43
0.0000001
 44
0.0000000001
 40
0.0
 40
0.0
 40
0.0
 40
0.0
 40
0.1462445694
 40
0.3033051275
 40
0.4617526804
 40
0.6119401972
 40
0.745101936
 40
0.8544881014
 40
0.8992532284
 40
0.9375760926
 40
0.9704846996
 40
1.0
 40
1.0
 40
1.0
 40
1.0
 10
32.1489280257
 20
0.8524411449
 30
0.0
 10
31.9732731716
 20
0.5503009828
 30
0.0
 10
31.6504666306
 20
-0.1007954951
 30
0.0
 10
31.262881535
 20
-1.1356310978
 30
0.0
 10
30.9717516331
 20
-2.2114868436
 30
0.0
 10
30.7969582765
 20
-3.2549180116
 30
0.0
 10
30.7496874413
 20
-4.1941454529
 30
0.0
 10
30.8202181704
 20
-4.8827725297
 30
0.0
 10
30.9572868333
 20
-5.32355304
 30
0.0
 10
31.0853047131
 20
-5.5716162149
 30
0.0
 10
31.2456494996
 20
-5.7552584995
 30
0.0
 10
31.3779557929
 20
-5.8318659312
 30
0.0
 10
31.4446434268
 20
-5.8548418151
 30
0.0
  0
LINE
  5
4DE
100
AcDbEntity
  8
0
100
AcDbLine
 62
7
  6
CONTINUOUS
 10
16.8737353581
 20
-7.3252413629
 11
17.451662388
 21
-7.4880172545
  0
LINE
  5
4DF
100
AcDbEntity
  8
0
100
AcDbLine
 62
7
  6
CONTINUOUS
 10
16.9485583763
 20
-9.0017310539
 11
16.8265845352
 21
-9.3704377343
  0
SPLINE
  5
4E0
100
AcDbEntity
  8
0
100
AcDbSpline
 62
7
  6
CONTINUOUS
 70
0
 71
3
 72
19
 73
15
 74
0
 42
0.0000001
 43
0.0000001
 44
0.0000000001
 40
0.0
 40
0.0
 40
0.0
 40
0.0
 40
0.04635476
 40
0.095653328
 40
0.1500165142
 40
0.2103793931
 40
0.3475790006
 40
0.499092027
 40
0.6507372031
 40
0.7883681673
 40
0.8490529155
 40
0.903768122
 40
0.9534014412
 40
1.0
 40
1.0
 40
1.0
 40
1.0
 10
16.13892538
 20
-2.4818145231
 30
0.0
 10
16.2018148515
 20
-2.3833206866
 30
0.0
 10
16.2976982197
 20
-2.1565293796
 30
0.0
 10
16.3298490053
 20
-1.7746748081
 30
0.0
 10
16.2568136737
 20
-1.363802105
 30
0.0
 10
16.0164897353
 20
-0.7720672212
 30
0.0
 10
15.4774284258
 20
-0.0584625809
 30
0.0
 10
14.6047252512
 20
0.642356379
 30
0.0
 10
13.5962945026
 20
1.1306901132
 30
0.0
 10
12.7182690804
 20
1.3116984575
 30
0.0
 10
12.0778464674
 20
1.2757241585
 30
0.0
 10
11.6726645568
 20
1.1657731196
 30
0.0
 10
11.3385958403
 20
0.9735447185
 30
0.0
 10
11.172157521
 20
0.7901683356
 30
0.0
 10
11.108927777
 20
0.691162553
 30
0.0
  0
LINE
  5
4E1
100
AcDbEntity
  8
0
100
AcDbLine
 62
7
  6
CONTINUOUS
 10
17.2556738377
 20
-8.0763023873
 11
17.0668510559
 21
-8.6448178336
  0
LINE
  5
4E2
100
AcDbEntity
  8
0
100
AcDbLine
 62
7
  6
CONTINUOUS
 10
17.0668510559
 20
-8.6448178336
 11
17.6269865353
 21
-8.8025829808
  0
LINE
  5
4E3
100
AcDbEntity
  8
0
100
AcDbLine
 62
7
  6
CONTINUOUS
 10
19.4644794826
 20
-8.9362262713
 11
20.1688625026
 21
-9.132236283
  0
LINE
  5
4E4
100
AcDbEntity
  8
0
100
AcDbLine
 62
7
  6
CONTINUOUS
 10
19.3913841471
 20
-8.4136785491
 11
19.4644794826
 21
-8.9362262713
  0
SPLINE
  5
4E5
100
AcDbEntity
  8
0
100
AcDbSpline
 62
7
  6
CONTINUOUS
 70
0
 71
3
 72
19
 73
15
 74
0
 42
0.0000001
 43
0.0000001
 44
0.0000000001
 40
0.0
 40
0.0
 40
0.0
 40
0.0
 40
0.0467952872
 40
0.0972633515
 40
0.1530745306
 40
0.2147851119
 40
0.353619182
 40
0.5049398864
 40
0.6549948117
 40
0.7906740342
 40
0.8505030735
 40
0.9045516601
 40
0.9537224957
 40
1.0
 40
1.0
 40
1.0
 40
1.0
 10
16.2123662739
 20
-2.3535945832
 30
0.0
 10
16.2631589894
 20
-2.2492197037
 30
0.0
 10
16.3328181752
 20
-2.0134407806
 30
0.0
 10
16.3309845073
 20
-1.6295587413
 30
0.0
 10
16.2299017786
 20
-1.2219439257
 30
0.0
 10
15.960028695
 20
-0.6427997161
 30
0.0
 10
15.4037586089
 20
0.0460885227
 30
0.0
 10
14.5301599758
 20
0.715515181
 30
0.0
 10
13.5379586199
 20
1.1735273229
 30
0.0
 10
12.6822612191
 20
1.3355161876
 30
0.0
 10
12.0614147484
 20
1.2909872728
 30
0.0
 10
11.6690819999
 20
1.1788390977
 30
0.0
 10
11.3455669966
 20
0.9882852819
 30
0.0
 10
11.1840664266
 20
0.8087697516
 30
0.0
 10
11.1222630301
 20
0.7120338779
 30
0.0
  0
SPLINE
  5
4E6
100
AcDbEntity
  8
0
100
AcDbSpline
 62
7
  6
CONTINUOUS
 70
0
 71
3
 72
10
 73
6
 74
0
 42
0.0000001
 43
0.0000001
 44
0.0000000001
 40
0.0
 40
0.0
 40
0.0
 40
0.0
 40
0.3050457523
 40
0.5749346535
 40
1.0
 40
1.0
 40
1.0
 40
1.0
 10
20.1688627055
 20
-9.1322376012
 30
0.0
 10
20.1999510619
 20
-9.1408739916
 30
0.0
 10
20.2604732824
 20
-9.1517551654
 30
0.0
 10
20.3658682974
 20
-9.1496363852
 30
0.0
 10
20.4404527544
 20
-9.1117814242
 30
0.0
 10
20.4646507416
 20
-9.0738880751
 30
0.0
  0
SPLINE
  5
4E7
100
AcDbEntity
  8
0
100
AcDbSpline
 62
7
  6
CONTINUOUS
 70
0
 71
3
 72
13
 73
9
 74
0
 42
0.0000001
 43
0.0000001
 44
0.0000000001
 40
0.0
 40
0.0
 40
0.0
 40
0.0
 40
0.2980411872
 40
0.5807045543
 40
0.7052583559
 40
0.815159373
 40
0.9116078996
 40
1.0
 40
1.0
 40
1.0
 40
1.0
 10
20.2375387285
 20
-8.2718702135
 30
0.0
 10
20.3814549456
 20
-8.3252435581
 30
0.0
 10
20.6475624187
 20
-8.4702537507
 30
0.0
 10
20.9143312285
 20
-8.725749254
 30
0.0
 10
21.0519267031
 20
-8.9556455786
 30
0.0
 10
21.105708916
 20
-9.1193122781
 30
0.0
 10
21.1095224545
 20
-9.2737833427
 30
0.0
 10
21.0753543381
 20
-9.3658868898
 30
0.0
 10
21.050845296
 20
-9.4042489095
 30
0.0
  0
SPLINE
  5
4E8
100
AcDbEntity
  8
0
100
AcDbSpline
 62
7
  6
CONTINUOUS
 70
0
 71
3
 72
8
 73
4
 74
0
 42
0.0000001
 43
0.0000001
 44
0.0000000001
 40
0.0
 40
0.0
 40
0.0
 40
0.0
 40
1.0
 40
1.0
 40
1.0
 40
1.0
 10
18.7655579755
 20
-7.856414878
 30
0.0
 10
19.2172799794
 20
-7.9826737008
 30
0.0
 10
19.6691083693
 20
-8.1085525159
 30
0.0
 10
20.1210420342
 20
-8.2340516061
 30
0.0
  0
SPLINE
  5
4E9
100
AcDbEntity
  8
RACCORDO
100
AcDbSpline
 62
250
  6
CONTINUOUS
 70
0
 71
3
 72
9
 73
5
 74
0
 42
0.0000001
 43
0.0000001
 44
0.0000000001
 40
0.0
 40
0.0
 40
0.0
 40
0.0
 40
0.2427372107
 40
1.0
 40
1.0
 40
1.0
 40
1.0
 10
-18.1352739024
 20
1.6143519675
 30
0.0
 10
-18.1281311463
 20
1.5163284448
 30
0.0
 10
-18.0892268917
 20
1.1132169534
 30
0.0
 10
-18.0137061881
 20
0.713907398
 30
0.0
 10
-17.9395167
 20
0.4164054221
 30
0.0
  0
ELLIPSE
  5
4EA
100
AcDbEntity
  8
0
100
AcDbEllipse
 62
7
  6
CONTINUOUS
 10
464.9380554727
 20
-74.7727783458
 30
0.0
 11
451.4826081503
 21
-286.3086173389
 31
0.0
 40
0.563583542
 41
-2.4970396344
 42
-2.4966378031
  0
ENDSEC
  0
SECTION
  2
OBJECTS
  0
DICTIONARY
  5
C
100
AcDbDictionary
280
0
281
1
  3
ACAD_GROUP
350
D
  3
ACAD_MLINESTYLE
350
17
  3
ACAD_LAYOUT
350
1A
  3
ACAD_PLOTSETTINGS
350
19
  3
ACAD_PLOTSTYLENAME
350
E
  0
DICTIONARY
  5
D
102
{ACAD_REACTORS
330
C
102
}
100
AcDbDictionary
280
0
281
1
  0
ACDBDICTIONARYWDFLT
  5
E
102
{ACAD_REACTORS
330
C
102
}
100
AcDbDictionary
281
1
  3
Normal
350
F
100
AcDbDictionaryWithDefault
340
F
  0
DICTIONARY
  5
17
102
{ACAD_REACTORS
330
C
102
}
100
AcDbDictionary
280
0
281
1
  3
Standard
350
18
  0
DICTIONARY
  5
19
102
{ACAD_REACTORS
330
C
102
}
100
AcDbDictionary
281
1
  0
DICTIONARY
  5
1A
102
{ACAD_REACTORS
330
C
102
}
100
AcDbDictionary
281
1
  3
Model
350
4EB
  3
Layout1
350
4EC
  0
ACDBPLACEHOLDER
  5
F
102
{ACAD_REACTORS
330
E
102
}
  0
MLINESTYLE
  5
18
102
{ACAD_REACTORS
330
17
102
}
100
AcDbMlineStyle
  2
STANDARD
 70
0
  3

 62
256
 51
90.0
 52
90.0
 71
2
 49
0.5
 62
256
  6
BYLAYER
 49
-0.5
 62
256
  6
BYLAYER
  0
LAYOUT
  5
4EB
102
{ACAD_REACTORS
330
1A
102
}
100
AcDbPlotSettings
  1

  2
none_device
  4
ANSI_C_(22.00_x_17.00_Inches)
  6

 40
0.0
 41
0.0
 42
0.0
 43
0.0
 44
558.8
 45
431.8
 46
0.0
 47
0.0
 48
0.0
 49
0.0
140
0.0
141
0.0
142
1.0
143
1.0
 70
1024
 72
1
 73
0
 74
0
  7

 75
0
147
1.0
148
0.0
149
0.0
100
AcDbLayout
  1
Model
 70
0
 71
0
 10
0.0
 20
0.0
 11
558.8
 21
431.8
 12
0.0
 22
0.0
 32
0.0
 14
0.0
 24
0.0
 34
0.0
 15
0.0
 25
0.0
 35
0.0
146
0.0
 13
0.0
 23
0.0
 33
0.0
 16
1.0
 26
0.0
 36
0.0
 17
0.0
 27
1.0
 37
0.0
 76
0
330
215
345
0
346
0
  0
LAYOUT
  5
4EC
102
{ACAD_REACTORS
330
1A
102
}
100
AcDbPlotSettings
  1

  2
none_device
  4
ANSI_C_(22.00_x_17.00_Inches)
  6

 40
0.0
 41
0.0
 42
0.0
 43
0.0
 44
558.8
 45
431.8
 46
0.0
 47
0.0
 48
0.0
 49
0.0
140
0.0
141
0.0
142
1.0
143
1.0
 70
0
 72
1
 73
0
 74
0
  7

 75
0
147
1.0
148
0.0
149
0.0
100
AcDbLayout
  1
Layout1
 70
0
 71
1
 10
0.0
 20
0.0
 11
558.8
 21
431.8
 12
0.0
 22
0.0
 32
0.0
 14
0.0
 24
0.0
 34
0.0
 15
0.0
 25
0.0
 35
0.0
146
0.0
 13
0.0
 23
0.0
 33
0.0
 16
1.0
 26
0.0
 36
0.0
 17
0.0
 27
1.0
 37
0.0
 76
0
330
216
345
0
346
0
  0
ENDSEC
  0
EOF
