  0
SECTION
  2
HEADER
  9
$ACADVER
  1
AC1024
  9
$DWGCODEPAGE
  3
ANSI_1252
  9
$EXTMAX
 10
558.8
 20
431.8
 30
0.0
  9
$EXTMIN
 10
0.0
 20
0.0
 30
0.0
  9
$LIMMIN
 10
0.0
 20
0.0
  9
$LIMMAX
 10
558.8
 20
431.8
  9
$VIEWCTR
 10
279.4
 20
215.9
  9
$VIEWSIZE
 40
431.8
  9
$CLAYER
  8
0
  9
$LTSCALE
 40
30.734
  9
$CELTYPE
  6
BYLAYER
  9
$DIMSCALE
 40
1.0
  9
$DIMASZ
 40
3.0
  9
$DIMEXO
 40
0.5
  9
$DIMDLI
 40
21.2344
  9
$DIMEXE
 40
1.5
  9
$DIMCEN
 40
5.0292
  9
$DIMLFAC
 40
1.0
  9
$DIMBLK
  1
_FILLED
  9
$DIMALT
 70
0
  9
$DIMALTF
 40
0.0393700787
  9
$DIMTXT
 40
3.0
  9
$DIMTOL
 70
1
  9
$DIMLIM
 70
0
  9
$DIMTFAC
 40
1.0
  9
$DIMTP
 40
0.01
  9
$DIMTM
 40
0.01
  9
$DIMGAP
 40
0.625
  9
$DIMDSEP
 70
44
  9
$AUNITS
 70
0
  9
$PDMODE
 70
3
  9
$PDSIZE
 40
3.0
  9
$HANDSEED
  5
40E
  9
$TILEMODE
 70
1
  9
$MEASUREMENT
 70
1
  9
$INSUNITS
 70
4
  0
ENDSEC
  0
SECTION
  2
CLASSES
  0
CLASS
  1
ACDBDICTIONARYWDFLT
  2
AcDbDictionaryWithDefault
  3
AutoCAD 2000
 90
0
 91
1
280
0
281
0
  0
CLASS
  1
ACDBPLACEHOLDER
  2
AcDbPlaceHolder
  3
AutoCAD 2000
 90
0
 91
1
280
0
281
0
  0
CLASS
  1
LAYOUT
  2
AcDbLayout
  3
AutoCAD 2000
 90
0
 91
0
280
0
281
0
  0
ENDSEC
  0
SECTION
  2
TABLES
  0
TABLE
  2
VPORT
  5
8
100
AcDbSymbolTable
 70
2
  0
VPORT
  5
1F4
100
AcDbSymbolTableRecord
100
AcDbViewportTableRecord
  2
*ACTIVE
 70
0
 10
0.0
 20
0.0
 11
1.0
 21
1.0
 12
279.4
 22
215.9
 13
0.0
 23
0.0
 14
1.0
 24
1.0
 15
0.0
 25
0.0
 16
0.0
 26
0.0
 36
1.0
 17
0.0
 27
0.0
 37
0.0
 40
431.8
 41
1.2941176471
 42
50.0
 43
0.0
 44
0.0
 50
0.0
 51
0.0
 71
0
 72
100
 73
1
 74
1
 75
0
 76
0
 77
0
 78
0
  0
ENDTAB
  0
TABLE
  2
LTYPE
  5
5
100
AcDbSymbolTable
 70
6
  0
LTYPE
  5
14
100
AcDbSymbolTableRecord
100
AcDbLinetypeTableRecord
  2
BYBLOCK
 70
0
  3

 72
65
 73
0
 40
0.0
  0
LTYPE
  5
15
100
AcDbSymbolTableRecord
100
AcDbLinetypeTableRecord
  2
BYLAYER
 70
0
  3

 72
65
 73
0
 40
0.0
  0
LTYPE
  5
16
100
AcDbSymbolTableRecord
100
AcDbLinetypeTableRecord
  2
CONTINUOUS
 70
64
  3
Solid line
 72
65
 73
0
 40
0.0
  0
LTYPE
  5
1F5
100
AcDbSymbolTableRecord
100
AcDbLinetypeTableRecord
  2
CENTER
 70
64
  3
____ _ ____ _ ____ _ ____ _ ____ _ ____ _ ____
 72
65
 73
4
 40
0.6
 49
0.375
 74
0
 49
-0.075
 74
0
 49
0.075
 74
0
 49
-0.075
 74
0
  0
LTYPE
  5
1F6
100
AcDbSymbolTableRecord
100
AcDbLinetypeTableRecord
  2
HIDDEN
 70
64
  3
- - - - - - - - - - - - - - - - - - - -
 72
65
 73
2
 40
0.2
 49
0.1
 74
0
 49
-0.1
 74
0
  0
LTYPE
  5
1F7
100
AcDbSymbolTableRecord
100
AcDbLinetypeTableRecord
  2
PHANTOM
 70
64
  3
_____ _ _ _____ _ _ _____ _ _ _____
 72
65
 73
6
 40
0.8
 49
0.45
 74
0
 49
-0.05
 74
0
 49
0.1
 74
0
 49
-0.05
 74
0
 49
0.1
 74
0
 49
-0.05
 74
0
  0
LTYPE
  5
1F8
100
AcDbSymbolTableRecord
100
AcDbLinetypeTableRecord
  2
DOT
 70
64
  3
. . . . . . . . . . . . . . . . . . . .
 72
65
 73
2
 40
0.2
 49
0.1
 74
0
 49
-0.1
 74
0
  0
LTYPE
  5
1F9
100
AcDbSymbolTableRecord
100
AcDbLinetypeTableRecord
  2
DASHED
 70
64
  3
- - - - - - - - - - - - - - - - - - - -
 72
65
 73
2
 40
0.2
 49
0.1
 74
0
 49
-0.1
 74
0
  0
ENDTAB
  0
TABLE
  2
LAYER
  5
2
100
AcDbSymbolTable
 70
36
  0
LAYER
  5
10
100
AcDbSymbolTableRecord
100
AcDbLayerTableRecord
  2
0
 70
0
 62
7
  6
CONTINUOUS
370
-3
390
F
  0
LAYER
  5
1FA
100
AcDbSymbolTableRecord
100
AcDbLayerTableRecord
  2
DEFAULT_1
 70
0
 62
7
  6
CENTER
370
-3
390
F
  0
LAYER
  5
1FB
100
AcDbSymbolTableRecord
100
AcDbLayerTableRecord
  2
DEFAULT_2
 70
0
 62
7
  6
HIDDEN
370
-3
390
F
  0
LAYER
  5
1FC
100
AcDbSymbolTableRecord
100
AcDbLayerTableRecord
  2
DEFAULT_3
 70
0
 62
7
  6
PHANTOM
370
-3
390
F
  0
LAYER
  5
1FD
100
AcDbSymbolTableRecord
100
AcDbLayerTableRecord
  2
ASSI
 70
0
 62
7
  6
CONTINUOUS
370
-3
390
F
  0
LAYER
  5
1FE
100
AcDbSymbolTableRecord
100
AcDbLayerTableRecord
  2
COLOR5
 70
0
 62
7
  6
CONTINUOUS
370
-3
390
F
  0
LAYER
  5
1FF
100
AcDbSymbolTableRecord
100
AcDbLayerTableRecord
  2
COORDINATE
 70
0
 62
7
  6
CONTINUOUS
370
-3
390
F
  0
LAYER
  5
200
100
AcDbSymbolTableRecord
100
AcDbLayerTableRecord
  2
COORD_ORIGINE
 70
0
 62
7
  6
CONTINUOUS
370
-3
390
F
  0
LAYER
  5
201
100
AcDbSymbolTableRecord
100
AcDbLayerTableRecord
  2
COSMETICHE
 70
0
 62
7
  6
CONTINUOUS
370
-3
390
F
  0
LAYER
  5
202
100
AcDbSymbolTableRecord
100
AcDbLayerTableRecord
  2
CURVE
 70
0
 62
7
  6
CONTINUOUS
370
-3
390
F
  0
LAYER
  5
203
100
AcDbSymbolTableRecord
100
AcDbLayerTableRecord
  2
DRAFT
 70
0
 62
7
  6
CONTINUOUS
370
-3
390
F
  0
LAYER
  5
204
100
AcDbSymbolTableRecord
100
AcDbLayerTableRecord
  2
IGES
 70
0
 62
7
  6
CONTINUOUS
370
-3
390
F
  0
LAYER
  5
205
100
AcDbSymbolTableRecord
100
AcDbLayerTableRecord
  2
INTF_1
 70
0
 62
7
  6
CONTINUOUS
370
-3
390
F
  0
LAYER
  5
206
100
AcDbSymbolTableRecord
100
AcDbLayerTableRecord
  2
INTF_11
 70
0
 62
7
  6
CONTINUOUS
370
-3
390
F
  0
LAYER
  5
207
100
AcDbSymbolTableRecord
100
AcDbLayerTableRecord
  2
INTF_2
 70
0
 62
7
  6
CONTINUOUS
370
-3
390
F
  0
LAYER
  5
208
100
AcDbSymbolTableRecord
100
AcDbLayerTableRecord
  2
INTF_3
 70
0
 62
7
  6
CONTINUOUS
370
-3
390
F
  0
LAYER
  5
209
100
AcDbSymbolTableRecord
100
AcDbLayerTableRecord
  2
INTF_YELLOW
 70
0
 62
7
  6
CONTINUOUS
370
-3
390
F
  0
LAYER
  5
20A
100
AcDbSymbolTableRecord
100
AcDbLayerTableRecord
  2
NOTE
 70
0
 62
7
  6
CONTINUOUS
370
-3
390
F
  0
LAYER
  5
20B
100
AcDbSymbolTableRecord
100
AcDbLayerTableRecord
  2
PIANI
 70
0
 62
7
  6
CONTINUOUS
370
-3
390
F
  0
LAYER
  5
20C
100
AcDbSymbolTableRecord
100
AcDbLayerTableRecord
  2
PIANI_ORIGINE
 70
0
 62
7
  6
CONTINUOUS
370
-3
390
F
  0
LAYER
  5
20D
100
AcDbSymbolTableRecord
100
AcDbLayerTableRecord
  2
PUNTI
 70
0
 62
7
  6
CONTINUOUS
370
-3
390
F
  0
LAYER
  5
20E
100
AcDbSymbolTableRecord
100
AcDbLayerTableRecord
  2
RACCORDO
 70
0
 62
7
  6
CONTINUOUS
370
-3
390
F
  0
LAYER
  5
20F
100
AcDbSymbolTableRecord
100
AcDbLayerTableRecord
  2
SMUSSO
 70
0
 62
7
  6
CONTINUOUS
370
-3
390
F
  0
LAYER
  5
210
100
AcDbSymbolTableRecord
100
AcDbLayerTableRecord
  2
SNAPLINE
 70
0
 62
7
  6
CONTINUOUS
370
-3
390
F
  0
LAYER
  5
211
100
AcDbSymbolTableRecord
100
AcDbLayerTableRecord
  2
SUPERFICI
 70
0
 62
7
  6
CONTINUOUS
370
-3
390
F
  0
LAYER
  5
212
100
AcDbSymbolTableRecord
100
AcDbLayerTableRecord
  2
TRASH
 70
0
 62
7
  6
CONTINUOUS
370
-3
390
F
  0
LAYER
  5
213
100
AcDbSymbolTableRecord
100
AcDbLayerTableRecord
  2
XSEC_DATUMS
 70
0
 62
7
  6
CONTINUOUS
370
-3
390
F
  0
ENDTAB
  0
TABLE
  2
STYLE
  5
3
100
AcDbSymbolTable
 70
1
  0
STYLE
  5
11
100
AcDbSymbolTableRecord
100
AcDbTextStyleTableRecord
  2
STANDARD
 70
0
 40
0.0
 41
0.8
 50
0.0
 71
0
 42
0.2
  3
txt
  4

  0
STYLE
  5
214
100
AcDbSymbolTableRecord
100
AcDbTextStyleTableRecord
  2
TEXTSTYLE_1
 70
0
 40
0.0
 41
0.8
 50
0.0
 71
0
 42
0.2
  3
gdt
  4

  0
ENDTAB
  0
TABLE
  2
VIEW
  5
6
100
AcDbSymbolTable
 70
0
  0
ENDTAB
  0
TABLE
  2
UCS
  5
7
100
AcDbSymbolTable
 70
0
  0
ENDTAB
  0
TABLE
  2
APPID
  5
9
100
AcDbSymbolTable
 70
1
  0
APPID
  5
215
100
AcDbSymbolTableRecord
100
AcDbRegAppTableRecord
  2
ACAD
 70
0
  0
ENDTAB
  0
TABLE
  2
BLOCK_RECORD
  5
1
100
AcDbSymbolTable
 70
0
  0
BLOCK_RECORD
  5
216
100
AcDbSymbolTableRecord
100
AcDbBlockTableRecord
  2
*Model_Space
  0
BLOCK_RECORD
  5
217
100
AcDbSymbolTableRecord
100
AcDbBlockTableRecord
  2
*Paper_Space
  0
BLOCK_RECORD
  5
218
100
AcDbSymbolTableRecord
100
AcDbBlockTableRecord
  2
_FILLED
  0
ENDTAB
  0
TABLE
  2
DIMSTYLE
  5
A
100
AcDbSymbolTable
 70
1
100
AcDbDimStyleTable
 71
0
  0
DIMSTYLE
105
219
100
AcDbSymbolTableRecord
100
AcDbDimStyleTableRecord
  2
STANDARD
 70
0
  3

  4

 40
1.0
 41
3.0
 42
0.5
 43
0.38
 44
1.5
 45
0.0
 46
0.0
 47
0.01
 48
0.01
140
3.0
141
0.09
142
0.0
143
25.4
144
1.0
145
0.0
146
1.0
147
0.625
 71
1
 72
0
 73
0
 74
0
 75
0
 76
0
 77
1
 78
8
 79
2
170
0
171
1
172
0
173
0
174
0
175
0
176
0
177
0
178
0
270
2
179
2
271
2
272
2
273
2
274
2
275
0
280
0
281
0
282
0
283
1
284
8
285
0
286
0
287
3
288
0
340
11
278
44
341
218
342
218
343
218
344
218
  0
ENDTAB
  0
ENDSEC
  0
SECTION
  2
BLOCKS
  0
BLOCK
  5
20
100
AcDbEntity
  8
0
100
AcDbBlockBegin
  2
*Model_Space
 70
0
 10
0.0
 20
0.0
 30
0.0
  3
*Model_Space
  1

  0
ENDBLK
  5
21
100
AcDbEntity
  8
0
100
AcDbBlockEnd
  0
BLOCK
  5
1C
100
AcDbEntity
  8
0
100
AcDbBlockBegin
  2
*Paper_Space
 70
0
 10
0.0
 20
0.0
 30
0.0
  3
*Paper_Space
  1

  0
ENDBLK
  5
1D
100
AcDbEntity
  8
0
100
AcDbBlockEnd
  0
BLOCK
  5
21A
100
AcDbEntity
  8
0
100
AcDbBlockBegin
  2
_FILLED
 70
64
 10
0.0
 20
0.0
  3
_FILLED
  1

  0
SOLID
  5
21B
100
AcDbEntity
  8
0
  6
BYBLOCK
 62
0
100
AcDbTrace
 10
0.0
 20
0.0
 11
-1.0
 21
0.3166666667
 12
-1.0
 22
-0.3166666667
 13
-1.0
 23
-0.3166666667
  0
ENDBLK
  5
21C
100
AcDbEntity
  8
0
  6
BYBLOCK
 62
0
100
AcDbBlockEnd
  0
ENDSEC
  0
SECTION
  2
ENTITIES
  0
LWPOLYLINE
  5
21D
100
AcDbEntity
  8
0
100
AcDbPolyline
 62
7
  6
CONTINUOUS
 90
18
 70
0
 10
-11.4012316171
 20
26.3469919435
 10
-11.4514290449
 20
26.3194314452
 10
-11.6547870532
 20
26.2046493612
 10
-11.8551488499
 20
26.0864872361
 10
-12.0524642517
 20
25.9649806558
 10
-12.2466773428
 20
25.8401704021
 10
-12.4377411337
 20
25.7120955334
 10
-12.6256094452
 20
25.5807968922
 10
-12.8102274499
 20
25.44632323
 10
-12.9915508833
 20
25.3087200323
 10
-13.1695361769
 20
25.1680343761
 10
-13.3441305669
 20
25.0243228034
 10
-13.5152930432
 20
24.8776368243
 10
-13.6829836185
 20
24.7280290401
 10
-13.8471529189
 20
24.5755629308
 10
-14.0077600332
 20
24.4202992942
 10
-14.1647720899
 20
24.262293233
 10
-14.2456842117
 20
24.1783334792
  0
LINE
  5
21E
100
AcDbEntity
  8
0
100
AcDbLine
 62
250
  6
CONTINUOUS
 10
-14.5614602324
 20
23.8339941436
 11
-14.5648109227
 21
23.8302495853
  0
LINE
  5
21F
100
AcDbEntity
  8
0
100
AcDbLine
 62
250
  6
CONTINUOUS
 10
-14.5643264077
 20
23.836479716
 11
-14.5642858673
 21
23.8365242141
  0
LINE
  5
220
100
AcDbEntity
  8
0
100
AcDbLine
 62
250
  6
CONTINUOUS
 10
-14.5642858673
 20
23.8365242141
 11
-14.4017996659
 21
24.0108310081
  0
LINE
  5
221
100
AcDbEntity
  8
0
100
AcDbLine
 62
7
  6
CONTINUOUS
 10
-14.2455974779
 20
24.178424418
 11
-14.245690969
 21
24.1783263761
  0
LWPOLYLINE
  5
222
100
AcDbEntity
  8
RACCORDO
100
AcDbPolyline
 62
7
  6
CONTINUOUS
 90
12
 70
0
 10
-23.0257186354
 20
5.5779306325
 10
-23.0305822235
 20
5.3701944159
 10
-23.0324116715
 20
5.1261545647
 10
-23.0300824049
 20
4.8806172538
 10
-23.0235844849
 20
4.6336157849
 10
-23.0129088135
 20
4.3851866438
 10
-22.9980474286
 20
4.1353618984
 10
-22.9789922145
 20
3.884169429
 10
-22.9557351008
 20
3.6316386424
 10
-22.9282695541
 20
3.3778026065
 10
-22.8965901782
 20
3.122697313
 10
-22.8623622394
 20
2.8776792212
  0
LINE
  5
223
100
AcDbEntity
  8
RACCORDO
100
AcDbLine
 62
7
  6
CONTINUOUS
 10
-23.0257250023
 20
5.5777240695
 11
-23.0257188161
 21
5.5779249223
  0
LINE
  5
224
100
AcDbEntity
  8
RACCORDO
100
AcDbLine
 62
7
  6
CONTINUOUS
 10
-22.861383439
 20
2.8710314653
 11
-22.8623621721
 21
2.8776787195
  0
LINE
  5
225
100
AcDbEntity
  8
RACCORDO
100
AcDbLine
 62
250
  6
CONTINUOUS
 10
-22.1901211006
 20
2.1687696889
 11
-22.1910998338
 21
2.1754169431
  0
LINE
  5
226
100
AcDbEntity
  8
0
100
AcDbLine
 62
7
  6
CONTINUOUS
 10
-14.0858533136
 20
-0.6275993267
 11
-13.5757138464
 21
-4.0923094933
  0
LWPOLYLINE
  5
227
100
AcDbEntity
  8
RACCORDO
100
AcDbPolyline
 62
7
  6
CONTINUOUS
 90
34
 70
0
 10
-3.9763842467
 20
5.6938131414
 10
-3.9470240443
 20
5.7088475552
 10
-3.9094480555
 20
5.726516749
 10
-3.8705153572
 20
5.7431397182
 10
-3.830288341
 20
5.7586889147
 10
-3.788794971
 20
5.7731530565
 10
-3.7460196871
 20
5.7865345586
 10
-3.7020084157
 20
5.7988145816
 10
-3.6568085846
 20
5.8099759402
 10
-3.6103944373
 20
5.8200193091
 10
-3.5628132862
 20
5.8289273064
 10
-3.514109507
 20
5.8366849667
 10
-3.4642387039
 20
5.8432902172
 10
-3.4132436997
 20
5.8487264085
 10
-3.3611677717
 20
5.8529784178
 10
-3.3079529389
 20
5.8560376306
 10
-3.2536209364
 20
5.8578868895
 10
-3.1982297452
 20
5.8585088114
 10
-3.1417655025
 20
5.8578874275
 10
-3.0842510521
 20
5.856006022
 10
-3.0257438995
 20
5.8528500897
 10
-2.966277752
 20
5.8484056084
 10
-2.9058915959
 20
5.8426605146
 10
-2.8446313893
 20
5.835604919
 10
-2.7825393802
 20
5.8272295763
 10
-2.7196594136
 20
5.8175271341
 10
-2.6560372038
 20
5.8064922873
 10
-2.5917162026
 20
5.7941201865
 10
-2.5267437043
 20
5.7804079864
 10
-2.4611630494
 20
5.7653537678
 10
-2.3950098414
 20
5.7489543378
 10
-2.328327163
 20
5.7312089634
 10
-2.261170471
 20
5.712122198
 10
-2.2067281638
 20
5.6957638479
  0
LINE
  5
228
100
AcDbEntity
  8
0
100
AcDbLine
 62
7
  6
CONTINUOUS
 10
-8.7797957957
 20
-2.3401246337
 11
-8.6290463372
 21
-3.3639685335
  0
LINE
  5
229
100
AcDbEntity
  8
0
100
AcDbLine
 62
7
  6
CONTINUOUS
 10
-2.3476376249
 20
4.5536266354
 11
-2.036202093
 21
5.0468075099
  0
LINE
  5
22A
100
AcDbEntity
  8
0
100
AcDbLine
 62
7
  6
CONTINUOUS
 10
-2.3320569721
 20
4.5392553629
 11
-2.0090448219
 21
5.0475367076
  0
LINE
  5
22B
100
AcDbEntity
  8
0
100
AcDbLine
 62
7
  6
CONTINUOUS
 10
-1.2816994127
 20
4.999725468
 11
-1.1330591739
 21
5.2138549311
  0
LINE
  5
22C
100
AcDbEntity
  8
0
100
AcDbLine
 62
7
  6
CONTINUOUS
 10
-0.8334977974
 20
4.722291589
 11
-0.9681236653
 21
4.5414515229
  0
LINE
  5
22D
100
AcDbEntity
  8
0
100
AcDbLine
 62
7
  6
CONTINUOUS
 10
-0.8209558404
 20
4.7021276141
 11
-0.9540466645
 21
4.5243662267
  0
LINE
  5
22E
100
AcDbEntity
  8
0
100
AcDbLine
 62
7
  6
CONTINUOUS
 10
-0.4742408364
 20
4.3772176644
 11
-0.4642551653
 21
4.3867183292
  0
LINE
  5
22F
100
AcDbEntity
  8
0
100
AcDbLine
 62
7
  6
CONTINUOUS
 10
-2.5880723369
 20
5.098264001
 11
-2.873910612
 21
4.9194349536
  0
LINE
  5
230
100
AcDbEntity
  8
0
100
AcDbLine
 62
7
  6
CONTINUOUS
 10
-0.4905450299
 20
4.2487292879
 11
-0.4742408364
 21
4.3772176644
  0
LINE
  5
231
100
AcDbEntity
  8
0
100
AcDbLine
 62
7
  6
CONTINUOUS
 10
-0.4742408364
 20
4.3772176644
 11
-0.429600838
 21
4.4700765322
  0
LINE
  5
232
100
AcDbEntity
  8
0
100
AcDbLine
 62
7
  6
CONTINUOUS
 10
-0.4642551653
 20
4.3867183292
 11
-0.4252701706
 21
4.4677094835
  0
LINE
  5
233
100
AcDbEntity
  8
0
100
AcDbLine
 62
7
  6
CONTINUOUS
 10
0.0003958712
 20
4.3051837927
 11
-0.2155377347
 21
3.8892927677
  0
LINE
  5
234
100
AcDbEntity
  8
0
100
AcDbLine
 62
7
  6
CONTINUOUS
 10
0.0124081605
 20
4.3017241283
 11
-0.2000287433
 21
3.8942305764
  0
LINE
  5
235
100
AcDbEntity
  8
0
100
AcDbLine
 62
7
  6
CONTINUOUS
 10
-0.3777141004
 20
4.4419310092
 11
-0.4012827048
 21
4.4001127002
  0
LINE
  5
236
100
AcDbEntity
  8
0
100
AcDbLine
 62
7
  6
CONTINUOUS
 10
-0.4244040054
 20
4.4442102019
 11
-0.4128694513
 21
4.4609539855
  0
LINE
  5
237
100
AcDbEntity
  8
0
100
AcDbLine
 62
7
  6
CONTINUOUS
 10
-0.4642551653
 20
4.3867183292
 11
-0.4442836342
 21
4.4154640316
  0
LINE
  5
238
100
AcDbEntity
  8
0
100
AcDbLine
 62
7
  6
CONTINUOUS
 10
-2.487131093
 20
-4.3192610611
 11
-1.9578599526
 21
-7.9139076597
  0
LINE
  5
239
100
AcDbEntity
  8
0
100
AcDbLine
 62
7
  6
CONTINUOUS
 10
-1.3077471633
 20
5.016380607
 11
-1.1085348019
 21
3.663391595
  0
LWPOLYLINE
  5
23A
100
AcDbEntity
  8
RACCORDO
100
AcDbPolyline
 62
7
  6
CONTINUOUS
 90
36
 70
0
 10
0.8825241073
 20
2.5435883563
 10
0.8823901622
 20
2.5358673529
 10
0.882227447
 20
2.5184666621
 10
0.8822661019
 20
2.5015480707
 10
0.8825048655
 20
2.485093301
 10
0.8829442415
 20
2.4690428671
 10
0.8835891294
 20
2.4532960777
 10
0.884445679
 20
2.4378098869
 10
0.8855208769
 20
2.4225547343
 10
0.8868276334
 20
2.4074522814
 10
0.8883792572
 20
2.3924625941
 10
0.8901889437
 20
2.3775650934
 10
0.8922747543
 20
2.3627146563
 10
0.8946549403
 20
2.347884177
 10
0.8973480155
 20
2.3330563088
 10
0.9003753761
 20
2.318207683
 10
0.9037460656
 20
2.3033765405
 10
0.9074924488
 20
2.2884998874
 10
0.9116825183
 20
2.2734159177
 10
0.9163462927
 20
2.2581411621
 10
0.9215230132
 20
2.2426676512
 10
0.9273212639
 20
2.2268162479
 10
0.9338320343
 20
2.2105182069
 10
0.9410777197
 20
2.1938940005
 10
0.9490728061
 20
2.1770603144
 10
0.9578746254
 20
2.1600340398
 10
0.9675221138
 20
2.1428737003
 10
0.9779783747
 20
2.1257559473
 10
0.989276314
 20
2.1087188004
 10
1.0014413351
 20
2.0918129559
 10
1.014390422
 20
2.0752223342
 10
1.0281229179
 20
2.0589964182
 10
1.0426493787
 20
2.0431695689
 10
1.0578695066
 20
2.0278845025
 10
1.0737650949
 20
2.0131788241
 10
1.0812162596
 20
2.0066889643
  0
LINE
  5
23B
100
AcDbEntity
  8
ASSI
100
AcDbLine
 62
7
  6
CONTINUOUS
 10
27.2295147605
 20
-5.4412962413
 11
27.9715132872
 21
-5.6691568004
  0
LINE
  5
23C
100
AcDbEntity
  8
ASSI
100
AcDbLine
 62
7
  6
CONTINUOUS
 10
29.0188560262
 20
-5.2062180474
 11
29.5262945714
 21
-5.3620475086
  0
LWPOLYLINE
  5
23D
100
AcDbEntity
  8
RACCORDO
100
AcDbPolyline
 62
7
  6
CONTINUOUS
 90
39
 70
0
 10
-4.5588822293
 20
5.6366625701
 10
-4.5528331883
 20
5.6338961168
 10
-4.5335243788
 20
5.6256784611
 10
-4.5140265542
 20
5.618289964
 10
-4.4943793944
 20
5.6117261445
 10
-4.4747030582
 20
5.6060022398
 10
-4.4550236839
 20
5.6010966285
 10
-4.4353843958
 20
5.5969914168
 10
-4.4159318363
 20
5.5936818787
 10
-4.3966987873
 20
5.5911323106
 10
-4.3777086404
 20
5.5893056332
 10
-4.3590905904
 20
5.5881697047
 10
-4.34086893
 20
5.5876770289
 10
-4.3230534563
 20
5.5877805299
 10
-4.3057447064
 20
5.588429899
 10
-4.2889942337
 20
5.5895691425
 10
-4.2727593435
 20
5.5911493272
 10
-4.2569915576
 20
5.5931295462
 10
-4.2417134441
 20
5.5954641969
 10
-4.226889917
 20
5.5981178368
 10
-4.2123797051
 20
5.6010829105
 10
-4.1981410961
 20
5.604342549
 10
-4.1841868216
 20
5.6078696507
 10
-4.1704508824
 20
5.61165852
 10
-4.1568961881
 20
5.6157003615
 10
-4.1435145241
 20
5.6199797624
 10
-4.1302771385
 20
5.6244888345
 10
-4.1171624973
 20
5.6292189597
 10
-4.1041345683
 20
5.6341684236
 10
-4.0911401087
 20
5.6393447903
 10
-4.0781561637
 20
5.6447461021
 10
-4.0651417213
 20
5.6503794566
 10
-4.0520170471
 20
5.6562719311
 10
-4.0387533823
 20
5.662431147
 10
-4.0253128843
 20
5.6688702888
 10
-4.0116042441
 20
5.6756308757
 10
-3.9975758558
 20
5.6827386044
 10
-3.9832145652
 20
5.6902013364
 10
-3.9763744755
 20
5.693818609
  0
LWPOLYLINE
  5
23E
100
AcDbEntity
  8
RACCORDO
100
AcDbPolyline
 62
7
  6
CONTINUOUS
 90
34
 70
0
 10
1.0812163089
 20
2.0066888197
 10
1.2483055591
 20
1.8625685815
 10
1.4337393864
 20
1.6994433695
 10
1.6167807698
 20
1.5350232903
 10
1.7973659164
 20
1.369374166
 10
1.9754391947
 20
1.2025562943
 10
2.1509457385
 20
1.0346297093
 10
2.3238254416
 20
0.8656617048
 10
2.4940262244
 20
0.6957138189
 10
2.6614964336
 20
0.5248476369
 10
2.8261793053
 20
0.3531322704
 10
2.9880257556
 20
0.180631126
 10
3.1469884366
 20
0.0074062783
 10
3.3030159816
 20
-0.1664735447
 10
3.4560633979
 20
-0.3409443103
 10
3.6060868294
 20
-0.5159427278
 10
3.7530394409
 20
-0.6913997018
 10
3.8968806113
 20
-0.8672509601
 10
4.0375700855
 20
-1.0434320762
 10
4.175064545
 20
-1.2198723291
 10
4.3093260925
 20
-1.3965049479
 10
4.4403203391
 20
-1.5732670475
 10
4.5680120902
 20
-1.7500924341
 10
4.6923672047
 20
-1.9269133172
 10
4.8133559889
 20
-2.1036673732
 10
4.9309522067
 20
-2.2802953742
 10
5.045127588
 20
-2.456732204
 10
5.1558544788
 20
-2.63291277
 10
5.2631095709
 20
-2.8087766131
 10
5.3668689416
 20
-2.9842589188
 10
5.4671090923
 20
-3.1592944746
 10
5.5638095841
 20
-3.3338208957
 10
5.6569510625
 20
-3.5077736977
 10
5.7465146345
 20
-3.681087886
  0
LINE
  5
23F
100
AcDbEntity
  8
0
100
AcDbLine
 62
7
  6
CONTINUOUS
 10
-0.9681236653
 20
4.5414515229
 11
-0.9540466645
 21
4.5243662267
  0
LINE
  5
240
100
AcDbEntity
  8
RACCORDO
100
AcDbLine
 62
7
  6
CONTINUOUS
 10
5.7465146345
 20
-3.681087886
 11
5.8381427844
 21
-3.8652959598
  0
LINE
  5
241
100
AcDbEntity
  8
RACCORDO
100
AcDbLine
 62
7
  6
CONTINUOUS
 10
5.8381331001
 20
-3.8652760881
 11
5.8380997138
 21
-3.8652075877
  0
LINE
  5
242
100
AcDbEntity
  8
0
100
AcDbLine
 62
7
  6
CONTINUOUS
 10
2.8054457223
 20
-5.9402295869
 11
2.9888075566
 21
-7.1855667
  0
LWPOLYLINE
  5
243
100
AcDbEntity
  8
RACCORDO
100
AcDbPolyline
 62
7
  6
CONTINUOUS
 90
33
 70
0
 10
-11.2044087793
 20
7.4393652775
 10
-11.1588987383
 20
7.4366883455
 10
-10.959959853
 20
7.4231337299
 10
-10.759057266
 20
7.4064397653
 10
-10.5562633055
 20
7.3865979839
 10
-10.351660276
 20
7.3636036702
 10
-10.1453175546
 20
7.3374519094
 10
-9.9373044349
 20
7.3081387872
 10
-9.7277031916
 20
7.275664698
 10
-9.5165850303
 20
7.2400294872
 10
-9.3040211072
 20
7.2012338997
 10
-9.0900935784
 20
7.1592830823
 10
-8.874875126
 20
7.114181426
 10
-8.6584384199
 20
7.0659341378
 10
-8.4408654564
 20
7.0145508238
 10
-8.2222302061
 20
6.9600402573
 10
-8.0026064351
 20
6.9024119035
 10
-7.7820756121
 20
6.8416794941
 10
-7.5607113312
 20
6.7778555956
 10
-7.3385895724
 20
6.7109541232
 10
-7.1157951275
 20
6.6409939452
 10
-6.8924002201
 20
6.5679910524
 10
-6.6684836001
 20
6.4919641484
 10
-6.4441395891
 20
6.4129397277
 10
-6.2194437145
 20
6.3309391004
 10
-5.994472367
 20
6.2459844643
 10
-5.7693208023
 20
6.1581075395
 10
-5.5440653793
 20
6.0673341719
 10
-5.3187819187
 20
5.9736905354
 10
-5.093564317
 20
5.8772126469
 10
-4.8684896054
 20
5.7779308118
 10
-4.643632522
 20
5.6758748488
 10
-4.5588822445
 20
5.6366624416
  0
LINE
  5
244
100
AcDbEntity
  8
DRAFT
100
AcDbLine
 62
7
  6
CONTINUOUS
 10
30.3495216277
 20
-0.2782384662
 11
30.3815838127
 21
-0.2856007403
  0
LINE
  5
245
100
AcDbEntity
  8
RACCORDO
100
AcDbLine
 62
250
  6
CONTINUOUS
 10
-0.9447558793
 20
6.3572186816
 11
-0.808071903
 21
6.3161875744
  0
LINE
  5
246
100
AcDbEntity
  8
RACCORDO
100
AcDbLine
 62
250
  6
CONTINUOUS
 10
30.6841339141
 20
-4.3534535405
 11
30.4937453211
 21
-4.2949870481
  0
LWPOLYLINE
  5
247
100
AcDbEntity
  8
RACCORDO
100
AcDbPolyline
 62
7
  6
CONTINUOUS
 90
70
 70
0
 10
-2.2067266284
 20
5.6957633975
 10
-2.15261044
 20
5.678723764
 10
-2.0838626958
 20
5.6559656721
 10
-2.0148251197
 20
5.6318678032
 10
-1.9455486858
 20
5.6064392055
 10
-1.8760883641
 20
5.579692432
 10
-1.8065050895
 20
5.5516440424
 10
-1.7368485042
 20
5.5223073464
 10
-1.6671691347
 20
5.4916976054
 10
-1.5975285615
 20
5.4598363973
 10
-1.5279774081
 20
5.4267415125
 10
-1.4585670237
 20
5.3924326854
 10
-1.3893590624
 20
5.3569365204
 10
-1.3204035571
 20
5.3202749231
 10
-1.2517506353
 20
5.2824712594
 10
-1.1834610571
 20
5.2435566344
 10
-1.1155843724
 20
5.2035570745
 10
-1.0481691526
 20
5.1624993209
 10
-0.9812734162
 20
5.1204178688
 10
-0.9149448834
 20
5.0773420518
 10
-0.8492307641
 20
5.0333020285
 10
-0.7841868204
 20
4.9883358271
 10
-0.7198590971
 20
4.9424761857
 10
-0.6562924052
 20
4.8957560232
 10
-0.5935389032
 20
4.8482158524
 10
-0.531642485
 20
4.7998914656
 10
-0.4706451188
 20
4.7508181487
 10
-0.4105941649
 20
4.7010376951
 10
-0.3515300208
 20
4.6505877404
 10
-0.2934925063
 20
4.5995063738
 10
-0.2365260354
 20
4.547837976
 10
-0.1806676388
 20
4.4956221273
 10
-0.1259540007
 20
4.4428990316
 10
-0.0724266659
 20
4.389715865
 10
-0.0201189647
 20
4.3361139273
 10
0.0309361245
 20
4.2821351559
 10
0.0807002304
 20
4.227829505
 10
0.1291441622
 20
4.1732396747
 10
0.1762391482
 20
4.1184090059
 10
0.2219503969
 20
4.0633901949
 10
0.2662533649
 20
4.0082269373
 10
0.3091239626
 20
3.9529636725
 10
0.350531364
 20
3.8976559529
 10
0.3904559967
 20
3.842348317
 10
0.4288792034
 20
3.7870856684
 10
0.4657751372
 20
3.731925798
 10
0.5011275349
 20
3.676917097
 10
0.5349260629
 20
3.6221010043
 10
0.5671567852
 20
3.5675265581
 10
0.5978032075
 20
3.5132523403
 10
0.6268665795
 20
3.4593090485
 10
0.6543584252
 20
3.4057061887
 10
0.6802683183
 20
3.3524964864
 10
0.7045958892
 20
3.2997165917
 10
0.7273610591
 20
3.2473559204
 10
0.7485579743
 20
3.1954595799
 10
0.7681827941
 20
3.1440737688
 10
0.7862499819
 20
3.0931954421
 10
0.8027552525
 20
3.042870744
 10
0.8176966703
 20
2.9931474959
 10
0.8310847833
 20
2.9440323234
 10
0.8429184864
 20
2.8955714985
 10
0.8531991031
 20
2.8478147917
 10
0.8619355191
 20
2.8007814969
 10
0.8691311859
 20
2.7545208513
 10
0.8747938403
 20
2.7090784855
 10
0.8789355249
 20
2.6644747747
 10
0.8815664864
 20
2.6207482555
 10
0.8826999978
 20
2.5779494527
 10
0.8825238519
 20
2.5435769875
  0
LINE
  5
248
100
AcDbEntity
  8
0
100
AcDbLine
 62
7
  6
CONTINUOUS
 10
7.6415963662
 20
-4.0067085867
 11
7.628274445
 21
-4.0275685537
  0
LINE
  5
249
100
AcDbEntity
  8
0
100
AcDbLine
 62
7
  6
CONTINUOUS
 10
8.2154125045
 20
-4.1758814316
 11
8.202090433
 21
-4.1967416342
  0
LINE
  5
24A
100
AcDbEntity
  8
0
100
AcDbLine
 62
7
  6
CONTINUOUS
 10
9.4847955297
 20
-4.5485199051
 11
9.4714730912
 21
-4.5693806822
  0
LINE
  5
24B
100
AcDbEntity
  8
0
100
AcDbLine
 62
7
  6
CONTINUOUS
 10
12.669142495
 20
0.0887773978
 11
12.6558120189
 21
0.0679040351
  0
LINE
  5
24C
100
AcDbEntity
  8
0
100
AcDbLine
 62
7
  6
CONTINUOUS
 10
10.0593905498
 20
-4.7164731476
 11
10.0460679298
 21
-4.737334209
  0
LINE
  5
24D
100
AcDbEntity
  8
0
100
AcDbLine
 62
7
  6
CONTINUOUS
 10
13.456161167
 20
0.2351930981
 11
13.4428296821
 21
0.2143181556
  0
LINE
  5
24E
100
AcDbEntity
  8
RACCORDO
100
AcDbLine
 62
7
  6
CONTINUOUS
 10
30.2978402599
 20
-0.4642001009
 11
30.3158144922
 21
-0.4697198135
  0
LINE
  5
24F
100
AcDbEntity
  8
RACCORDO
100
AcDbLine
 62
250
  6
CONTINUOUS
 10
33.4078317926
 20
-0.0885845812
 11
32.339028294
 21
0.2396346187
  0
LINE
  5
250
100
AcDbEntity
  8
RACCORDO
100
AcDbLine
 62
7
  6
CONTINUOUS
 10
33.5390560402
 20
0.1114763008
 11
32.4702525417
 21
0.4396955006
  0
LINE
  5
251
100
AcDbEntity
  8
0
100
AcDbLine
 62
7
  6
CONTINUOUS
 10
32.4416984766
 20
0.7769245578
 11
33.5105019751
 21
0.4487053579
  0
LINE
  5
252
100
AcDbEntity
  8
0
100
AcDbLine
 62
7
  6
CONTINUOUS
 10
9.0824156345
 20
-7.8127718304
 11
9.5816952887
 21
-11.2037254907
  0
LINE
  5
253
100
AcDbEntity
  8
0
100
AcDbLine
 62
7
  6
CONTINUOUS
 10
10.4425814943
 20
-4.8282288332
 11
10.4292587478
 21
-4.8490900926
  0
LINE
  5
254
100
AcDbEntity
  8
0
100
AcDbLine
 62
7
  6
CONTINUOUS
 10
9.4378666357
 20
-6.5933554267
 11
9.4245452351
 21
-6.6142145786
  0
LINE
  5
255
100
AcDbEntity
  8
0
100
AcDbLine
 62
7
  6
CONTINUOUS
 10
11.0175736805
 20
-4.9955468327
 11
11.0042507362
 21
-5.0164084018
  0
LINE
  5
256
100
AcDbEntity
  8
0
100
AcDbLine
 62
7
  6
CONTINUOUS
 10
14.6357292455
 20
-0.1014762408
 11
14.6223972138
 21
-0.1223520395
  0
LINE
  5
257
100
AcDbEntity
  8
0
100
AcDbLine
 62
7
  6
CONTINUOUS
 10
11.5927869145
 20
-5.1624786714
 11
11.5794637628
 21
-5.1833405654
  0
LINE
  5
258
100
AcDbEntity
  8
0
100
AcDbLine
 62
7
  6
CONTINUOUS
 10
14.6748664975
 20
-0.4285840612
 11
14.6615350166
 21
-0.4494589972
  0
LINE
  5
259
100
AcDbEntity
  8
0
100
AcDbLine
 62
7
  6
CONTINUOUS
 10
13.5658103685
 20
-2.2470666095
 11
13.5524827684
 21
-2.2679354689
  0
LINE
  5
25A
100
AcDbEntity
  8
0
100
AcDbLine
 62
7
  6
CONTINUOUS
 10
14.4120678163
 20
-1.1528275723
 11
14.3987378203
 21
-1.1737001833
  0
LINE
  5
25B
100
AcDbEntity
  8
0
100
AcDbLine
 62
7
  6
CONTINUOUS
 10
13.7650845831
 20
-2.3879795596
 11
13.7517570097
 21
-2.4088483771
  0
LINE
  5
25C
100
AcDbEntity
  8
0
100
AcDbLine
 62
7
  6
CONTINUOUS
 10
11.3183400387
 20
-7.1422332438
 11
11.3050180273
 21
-7.1630933522
  0
LINE
  5
25D
100
AcDbEntity
  8
0
100
AcDbLine
 62
7
  6
CONTINUOUS
 10
12.4628477368
 20
-5.4141228426
 11
12.449524253
 21
-5.4349852567
  0
LINE
  5
25E
100
AcDbEntity
  8
0
100
AcDbLine
 62
7
  6
CONTINUOUS
 10
15.5135659961
 20
-0.7249816028
 11
15.5002342051
 21
-0.7458570244
  0
LINE
  5
25F
100
AcDbEntity
  8
0
100
AcDbLine
 62
7
  6
CONTINUOUS
 10
14.5953763649
 20
-2.6251735785
 11
14.5820484115
 21
-2.6460429911
  0
LINE
  5
260
100
AcDbEntity
  8
0
100
AcDbLine
 62
7
  6
CONTINUOUS
 10
14.9724421043
 20
-2.7325845324
 11
14.9591139717
 21
-2.7534542256
  0
LINE
  5
261
100
AcDbEntity
  8
0
100
AcDbLine
 62
7
  6
CONTINUOUS
 10
15.1443996055
 20
-2.6976348155
 11
15.1310712742
 21
-2.7185048198
  0
LINE
  5
262
100
AcDbEntity
  8
0
100
AcDbLine
 62
7
  6
CONTINUOUS
 10
15.0133753849
 20
-3.0547565893
 11
15.000047649
 21
-3.0756256614
  0
LINE
  5
263
100
AcDbEntity
  8
0
100
AcDbLine
 62
7
  6
CONTINUOUS
 10
13.5383786943
 20
-5.7237740746
 11
13.5250547695
 21
-5.744637179
  0
LINE
  5
264
100
AcDbEntity
  8
0
100
AcDbLine
 62
7
  6
CONTINUOUS
 10
12.4690374991
 20
-7.4757259721
 11
12.4557150631
 21
-7.4965867455
  0
LINE
  5
265
100
AcDbEntity
  8
RACCORDO
100
AcDbLine
 62
7
  6
CONTINUOUS
 10
30.5634345441
 20
3.227482492
 11
30.0560231045
 21
3.3833036293
  0
LINE
  5
266
100
AcDbEntity
  8
RACCORDO
100
AcDbLine
 62
7
  6
CONTINUOUS
 10
29.1554182172
 20
4.1358727695
 11
28.5305564768
 21
4.3277617563
  0
LINE
  5
267
100
AcDbEntity
  8
ASSI
100
AcDbLine
 62
7
  6
CONTINUOUS
 10
32.1306202218
 20
4.9267441844
 11
32.6380316613
 21
4.7709230471
  0
LINE
  5
268
100
AcDbEntity
  8
0
100
AcDbLine
 62
7
  6
CONTINUOUS
 10
14.3621502113
 20
-9.3465198271
 11
14.5283627979
 21
-10.4753845309
  0
LINE
  5
269
100
AcDbEntity
  8
0
100
AcDbLine
 62
7
  6
CONTINUOUS
 10
14.4096791298
 20
-5.9734772127
 11
14.3963548232
 21
-5.9943409149
  0
LINE
  5
26A
100
AcDbEntity
  8
0
100
AcDbLine
 62
7
  6
CONTINUOUS
 10
13.5892736829
 20
-7.7986574244
 11
13.5759507965
 21
-7.8195189029
  0
LINE
  5
26B
100
AcDbEntity
  8
0
100
AcDbLine
 62
7
  6
CONTINUOUS
 10
16.2716901298
 20
-4.1662426414
 11
16.2583627063
 21
-4.1871112243
  0
LINE
  5
26C
100
AcDbEntity
  8
0
100
AcDbLine
 62
7
  6
CONTINUOUS
 10
15.7202045287
 20
-6.3471187705
 11
15.7068796066
 21
-6.3679834365
  0
LINE
  5
26D
100
AcDbEntity
  8
0
100
AcDbLine
 62
7
  6
CONTINUOUS
 10
14.7104514052
 20
-8.1201677037
 11
14.6971280317
 21
-8.1410299449
  0
LINE
  5
26E
100
AcDbEntity
  8
0
100
AcDbLine
 62
7
  6
CONTINUOUS
 10
16.2974491613
 20
-6.5109631855
 11
16.2841239523
 21
-6.5318283007
  0
LINE
  5
26F
100
AcDbEntity
  8
0
100
AcDbLine
 62
7
  6
CONTINUOUS
 10
15.912219799
 20
-7.6684183319
 11
15.8988955461
 21
-7.6892819502
  0
LINE
  5
270
100
AcDbEntity
  8
0
100
AcDbLine
 62
7
  6
CONTINUOUS
 10
15.6716898347
 20
-8.3944507428
 11
15.6583660146
 21
-8.4153136833
  0
LINE
  5
271
100
AcDbEntity
  8
RACCORDO
100
AcDbLine
 62
7
  6
CONTINUOUS
 10
29.1322455965
 20
-5.5795688061
 11
29.1411622957
 21
-5.575687917
  0
LINE
  5
272
100
AcDbEntity
  8
RACCORDO
100
AcDbLine
 62
7
  6
CONTINUOUS
 10
29.132186361
 20
-5.5794345067
 11
29.1411488931
 21
-5.5756900095
  0
LINE
  5
273
100
AcDbEntity
  8
ASSI
100
AcDbLine
 62
7
  6
CONTINUOUS
 10
30.7815920046
 20
6.1255852421
 11
31.523617637
 21
5.8977163592
  0
LINE
  5
274
100
AcDbEntity
  8
0
100
AcDbLine
 62
7
  6
CONTINUOUS
 10
17.6097942762
 20
-6.8817885976
 11
17.5964683794
 21
-6.9026547898
  0
LINE
  5
275
100
AcDbEntity
  8
0
100
AcDbLine
 62
7
  6
CONTINUOUS
 10
17.5253632129
 20
-8.9198810297
 11
17.5120384563
 21
-8.9407454365
  0
LINE
  5
276
100
AcDbEntity
  8
0
100
AcDbLine
 62
7
  6
CONTINUOUS
 10
18.3072814874
 20
-7.9638458656
 11
18.2939557806
 21
-7.9847117603
  0
LINE
  5
277
100
AcDbEntity
  8
0
100
AcDbLine
 62
7
  6
CONTINUOUS
 10
18.9636801066
 20
-7.2619278919
 11
18.9503534681
 21
-7.2827952455
  0
LINE
  5
278
100
AcDbEntity
  8
0
100
AcDbLine
 62
7
  6
CONTINUOUS
 10
19.0108341164
 20
-8.1611561347
 11
18.9975080007
 21
-8.1820226698
  0
LINE
  5
279
100
AcDbEntity
  8
0
100
AcDbLine
 62
7
  6
CONTINUOUS
 10
18.4885820783
 20
-9.1910763727
 11
18.4752567961
 21
-9.2119416026
  0
LINE
  5
27A
100
AcDbEntity
  8
0
100
AcDbLine
 62
250
  6
CONTINUOUS
 10
17.767158271
 20
14.424814885
 11
17.7231363658
 21
14.4387301186
  0
LINE
  5
27B
100
AcDbEntity
  8
0
100
AcDbLine
 62
250
  6
CONTINUOUS
 10
17.76723461
 20
14.4242317612
 11
17.7232117899
 21
14.438154385
  0
LINE
  5
27C
100
AcDbEntity
  8
RACCORDO
100
AcDbLine
 62
250
  6
CONTINUOUS
 10
23.3235998746
 20
-11.749269883
 11
23.3245786078
 21
-11.7559171372
  0
LINE
  5
27D
100
AcDbEntity
  8
0
100
AcDbLine
 62
7
  6
CONTINUOUS
 10
20.2248562549
 20
-9.6767882262
 11
20.2115299579
 21
-9.6976550452
  0
LWPOLYLINE
  5
27E
100
AcDbEntity
  8
0
100
AcDbPolyline
 62
7
  6
CONTINUOUS
 90
29
 70
0
 10
-9.4144938747
 20
26.4864039022
 10
-9.4853277904
 20
26.5044385542
 10
-9.5690577306
 20
26.5240225717
 10
-9.6523536341
 20
26.5416087852
 10
-9.7352755641
 20
26.5571999868
 10
-9.8177345272
 20
26.5707667137
 10
-9.8994927693
 20
26.5822653968
 10
-9.9805367417
 20
26.5916953143
 10
-10.060857292
 20
26.5990540713
 10
-10.1402298687
 20
26.6043266476
 10
-10.2186465158
 20
26.607523499
 10
-10.2960970485
 20
26.608654898
 10
-10.3723601091
 20
26.6077349341
 10
-10.447408723
 20
26.6047897914
 10
-10.5212501555
 20
26.5998455869
 10
-10.5937132807
 20
26.5929448262
 10
-10.6647234584
 20
26.5841367225
 10
-10.7343320048
 20
26.5734575308
 10
-10.802547187
 20
26.5609446726
 10
-10.8693431361
 20
26.546643592
 10
-10.9347121043
 20
26.5305972196
 10
-10.9986748594
 20
26.5128398021
 10
-11.0612094455
 20
26.4934179695
 10
-11.122295141
 20
26.4723798973
 10
-11.1819405619
 20
26.4497632805
 10
-11.2401135926
 20
26.4256226899
 10
-11.2967997151
 20
26.4000090302
 10
-11.3520217442
 20
26.3729547155
 10
-11.4012139718
 20
26.3470012008
  0
LWPOLYLINE
  5
27F
100
AcDbEntity
  8
0
100
AcDbPolyline
 62
7
  6
CONTINUOUS
 90
22
 70
0
 10
30.8410039853
 20
14.0329793898
 10
28.9637390709
 20
14.6969910907
 10
27.0705640015
 20
15.358097687
 10
25.1744733659
 20
16.011692063
 10
23.2754867359
 20
16.6577820627
 10
21.3736239991
 20
17.2963746999
 10
19.4689065154
 20
17.9274743388
 10
17.5613554776
 20
18.551081748
 10
15.6509922783
 20
19.1671971594
 10
13.7378398892
 20
19.7758172785
 10
11.8219200208
 20
20.3769361911
 10
9.903254957
 20
20.9705473123
 10
7.9818694756
 20
21.5566395062
 10
6.0577870459
 20
22.1351997694
 10
4.1310307967
 20
22.7062144074
 10
2.2016264757
 20
23.2696646903
 10
0.2695991571
 20
23.8255305827
 10
-1.665026107
 20
24.3737906514
 10
-3.6022229233
 20
24.914418739
 10
-5.541965428
 20
25.4473879431
 10
-7.4842261195
 20
25.9726687177
 10
-9.4144996922
 20
26.4864056413
  0
LINE
  5
280
100
AcDbEntity
  8
RACCORDO
100
AcDbLine
 62
250
  6
CONTINUOUS
 10
24.6646441954
 20
-11.5379739959
 11
24.6656229286
 21
-11.5446212501
  0
LINE
  5
281
100
AcDbEntity
  8
RACCORDO
100
AcDbLine
 62
250
  6
CONTINUOUS
 10
26.5297395333
 20
-9.835471925
 11
24.8632863269
 21
1.4825650756
  0
LINE
  5
282
100
AcDbEntity
  8
RACCORDO
100
AcDbLine
 62
250
  6
CONTINUOUS
 10
29.6603286591
 20
-5.3958053911
 11
28.3961052397
 21
-7.3753741465
  0
LINE
  5
283
100
AcDbEntity
  8
RACCORDO
100
AcDbLine
 62
7
  6
CONTINUOUS
 10
29.7146284762
 20
-5.4056581217
 11
28.3721669645
 21
-7.5077350355
  0
LINE
  5
284
100
AcDbEntity
  8
RACCORDO
100
AcDbLine
 62
7
  6
CONTINUOUS
 10
28.3385613269
 20
-7.3640496631
 11
28.0936762366
 21
-5.7008655406
  0
LINE
  5
285
100
AcDbEntity
  8
RACCORDO
100
AcDbLine
 62
7
  6
CONTINUOUS
 10
28.1512135939
 20
-5.7121455014
 11
28.3961052397
 21
-7.3753741465
  0
LINE
  5
286
100
AcDbEntity
  8
ASSI
100
AcDbLine
 62
7
  6
CONTINUOUS
 10
28.5305564768
 20
4.3277617563
 11
28.2054017292
 21
6.5361126717
  0
LINE
  5
287
100
AcDbEntity
  8
RACCORDO
100
AcDbLine
 62
7
  6
CONTINUOUS
 10
30.4913593346
 20
-4.278782163
 11
30.5736459757
 21
-4.8376476897
  0
LINE
  5
288
100
AcDbEntity
  8
RACCORDO
100
AcDbLine
 62
7
  6
CONTINUOUS
 10
31.3542689539
 20
2.4768887337
 11
31.40320552
 21
2.1445266469
  0
LINE
  5
289
100
AcDbEntity
  8
RACCORDO
100
AcDbLine
 62
7
  6
CONTINUOUS
 10
32.4923508364
 20
0.4329093284
 11
32.4416984766
 21
0.7769245578
  0
LINE
  5
28A
100
AcDbEntity
  8
RACCORDO
100
AcDbLine
 62
250
  6
CONTINUOUS
 10
31.9351978957
 20
5.6985915848
 11
31.114687559
 21
11.2712451189
  0
LWPOLYLINE
  5
28B
100
AcDbEntity
  8
0
100
AcDbPolyline
 62
7
  6
CONTINUOUS
 90
9
 70
0
 10
32.8085608482
 20
5.8004958265
 10
32.6720680929
 20
6.7041975915
 10
32.5346862604
 20
7.6077868282
 10
32.3963519241
 20
8.511223179
 10
32.2569794255
 20
9.4144700963
 10
32.1164585174
 20
10.3175270261
 10
31.9746801841
 20
11.2203772359
 10
31.8315218415
 20
12.1229917916
 10
31.6884736761
 20
13.015199221
  0
LINE
  5
28C
100
AcDbEntity
  8
0
100
AcDbLine
 62
7
  6
CONTINUOUS
 10
32.9872924722
 20
4.6081745142
 11
32.8085608482
 21
5.8004958265
  0
LINE
  5
28D
100
AcDbEntity
  8
RACCORDO
100
AcDbLine
 62
7
  6
CONTINUOUS
 10
33.5927887119
 20
-0.1101608184
 11
33.5105019751
 21
0.4487053579
  0
ARC
  5
28E
100
AcDbEntity
  8
0
100
AcDbCircle
 62
250
  6
CONTINUOUS
 10
-290.4746488656
 20
-960.5677676326
 40
1022.5573566461
100
AcDbArc
 50
71.8018238637
 51
72.4557621582
  0
ARC
  5
28F
100
AcDbEntity
  8
0
100
AcDbCircle
 62
7
  6
CONTINUOUS
 10
-174.8770542586
 20
487.8077178657
 40
524.3212629018
100
AcDbArc
 50
291.162693881
 51
291.2918224872
  0
ARC
  5
290
100
AcDbEntity
  8
0
100
AcDbCircle
 62
7
  6
CONTINUOUS
 10
-174.6185561987
 20
487.0894255629
 40
523.5727431807
100
AcDbArc
 50
291.1625061999
 51
291.2918191189
  0
ARC
  5
291
100
AcDbEntity
  8
0
100
AcDbCircle
 62
7
  6
CONTINUOUS
 10
-173.9814222631
 20
486.1425915217
 40
522.8484676071
100
AcDbArc
 50
291.124116147
 51
291.2474783398
  0
ARC
  5
292
100
AcDbEntity
  8
0
100
AcDbCircle
 62
250
  6
CONTINUOUS
 10
-88.6416483474
 20
81.5693917679
 40
137.1600694992
100
AcDbArc
 50
327.4361783287
 51
327.5692955728
  0
ARC
  5
293
100
AcDbEntity
  8
RACCORDO
100
AcDbCircle
 62
250
  6
CONTINUOUS
 10
-14.9357769307
 20
-16.3692863064
 40
24.530250796
100
AcDbArc
 50
64.6585230291
 51
65.3991272529
  0
ARC
  5
294
100
AcDbEntity
  8
RACCORDO
100
AcDbCircle
 62
250
  6
CONTINUOUS
 10
-7.7549176358
 20
-1.5842833274
 40
11.8243702577
100
AcDbArc
 50
153.31156173
 51
154.0196338415
  0
ARC
  5
295
100
AcDbEntity
  8
0
100
AcDbCircle
 62
7
  6
CONTINUOUS
 10
2.8409628648
 20
1.8912812985
 40
5.7646120071
100
AcDbArc
 50
146.0359333767
 51
146.7939533586
  0
ARC
  5
296
100
AcDbEntity
  8
0
100
AcDbCircle
 62
7
  6
CONTINUOUS
 10
2.1401772686
 20
7.1035083157
 40
4.9522957704
100
AcDbArc
 50
216.2452273746
 51
217.4821451438
  0
ARC
  5
297
100
AcDbEntity
  8
RACCORDO
100
AcDbCircle
 62
250
  6
CONTINUOUS
 10
2.3718199718
 20
-1.2565591225
 40
4.2627164512
100
AcDbArc
 50
110.6032580823
 51
111.8588116421
  0
ARC
  5
298
100
AcDbEntity
  8
0
100
AcDbCircle
 62
7
  6
CONTINUOUS
 10
-4.0755584458
 20
6.0427178561
 40
4.0566870425
100
AcDbArc
 50
325.7867539009
 51
326.7147413525
  0
ARC
  5
299
100
AcDbEntity
  8
0
100
AcDbCircle
 62
7
  6
CONTINUOUS
 10
-11.2021916809
 20
-3.0502494365
 40
2.7
100
AcDbArc
 50
222.5806903726
 51
334.1712588509
  0
ARC
  5
29A
100
AcDbEntity
  8
0
100
AcDbCircle
 62
7
  6
CONTINUOUS
 10
0.4156622128
 20
-6.8718476029
 40
2.7
100
AcDbArc
 50
222.5806903726
 51
327.436242848
  0
ARC
  5
29B
100
AcDbEntity
  8
0
100
AcDbCircle
 62
250
  6
CONTINUOUS
 10
-0.0616963356
 20
5.5575181049
 40
2.6381320625
100
AcDbArc
 50
262.8897755298
 51
263.4282309521
  0
ARC
  5
29C
100
AcDbEntity
  8
0
100
AcDbCircle
 62
7
  6
CONTINUOUS
 10
-10.5623300584
 20
-3.3301394562
 40
2.0038173956
100
AcDbArc
 50
323.1634541355
 51
324.3504220399
  0
ARC
  5
29D
100
AcDbEntity
  8
0
100
AcDbCircle
 62
7
  6
CONTINUOUS
 10
1.0555238353
 20
-7.1517376226
 40
2.0038173956
100
AcDbArc
 50
323.1634541355
 51
324.3504220399
  0
ARC
  5
29E
100
AcDbEntity
  8
0
100
AcDbCircle
 62
7
  6
CONTINUOUS
 10
-10.5042334417
 20
-3.3713334998
 40
1.9325993394
100
AcDbArc
 50
324.3389755704
 51
327.422257491
  0
ARC
  5
29F
100
AcDbEntity
  8
0
100
AcDbCircle
 62
7
  6
CONTINUOUS
 10
1.113620452
 20
-7.1929316662
 40
1.9325993394
100
AcDbArc
 50
324.3389755704
 51
327.422257491
  0
ARC
  5
2A0
100
AcDbEntity
  8
0
100
AcDbCircle
 62
7
  6
CONTINUOUS
 10
0.0872312382
 20
4.2556161013
 40
1.8331348312
100
AcDbArc
 50
211.9368354994
 51
212.6031082102
  0
ARC
  5
2A1
100
AcDbEntity
  8
0
100
AcDbCircle
 62
7
  6
CONTINUOUS
 10
-10.3881201267
 20
-3.443529398
 40
1.7958824829
100
AcDbArc
 50
327.3685393567
 51
334.1491849964
  0
ARC
  5
2A2
100
AcDbEntity
  8
0
100
AcDbCircle
 62
7
  6
CONTINUOUS
 10
1.2297337671
 20
-7.2651275644
 40
1.7958824829
100
AcDbArc
 50
327.3685393568
 51
334.1491849964
  0
ARC
  5
2A3
100
AcDbEntity
  8
RACCORDO
100
AcDbCircle
 62
250
  6
CONTINUOUS
 10
-22.1567779171
 20
2.9815710751
 40
0.7131920065
100
AcDbArc
 50
188.3762160495
 51
188.9157887591
  0
ARC
  5
2A4
100
AcDbEntity
  8
RACCORDO
100
AcDbCircle
 62
7
  6
CONTINUOUS
 10
-29.6458530591
 20
33.0214449744
 40
70.7175263222
100
AcDbArc
 50
322.5573245459
 51
325.0408988246
  0
ARC
  5
2A5
100
AcDbEntity
  8
RACCORDO
100
AcDbCircle
 62
250
  6
CONTINUOUS
 10
-29.1812622403
 20
32.8367811813
 40
70.1757572369
100
AcDbArc
 50
322.5494240831
 51
325.0501492163
  0
ARC
  5
2A6
100
AcDbEntity
  8
0
100
AcDbCircle
 62
7
  6
CONTINUOUS
 10
0.6179901605
 20
10.0044585646
 40
20.5384406786
100
AcDbArc
 50
136.360458129
 51
137.6645600754
  0
ARC
  5
2A7
100
AcDbEntity
  8
0
100
AcDbCircle
 62
7
  6
CONTINUOUS
 10
-13.5121669457
 20
13.4749664296
 40
15.9010725466
100
AcDbArc
 50
325.2677955759
 51
325.3937319207
  0
ARC
  5
2A8
100
AcDbEntity
  8
RACCORDO
100
AcDbCircle
 62
250
  6
CONTINUOUS
 10
-7.9798982001
 20
12.514016155
 40
10.1820933994
100
AcDbArc
 50
156.2730814954
 51
176.1367558142
  0
ARC
  5
2A9
100
AcDbEntity
  8
0
100
AcDbCircle
 62
250
  6
CONTINUOUS
 10
-6.9905479907
 20
17.2598917364
 40
10.0250602214
100
AcDbArc
 50
136.3608242652
 51
137.6694834638
  0
ARC
  5
2AA
100
AcDbEntity
  8
0
100
AcDbCircle
 62
7
  6
CONTINUOUS
 10
2.4657797145
 20
13.3258261637
 40
9.3515055758
100
AcDbArc
 50
252.9742389895
 51
254.7891265557
  0
ARC
  5
2AB
100
AcDbEntity
  8
0
100
AcDbCircle
 62
7
  6
CONTINUOUS
 10
4.3708213608
 20
11.8074836504
 40
8.75583971
100
AcDbArc
 50
237.838063632
 51
237.974612357
  0
ARC
  5
2AC
100
AcDbEntity
  8
0
100
AcDbCircle
 62
7
  6
CONTINUOUS
 10
3.0929365387
 20
10.4364078759
 40
8.0129247066
100
AcDbArc
 50
227.2364157687
 51
227.3879794612
  0
ARC
  5
2AD
100
AcDbEntity
  8
0
100
AcDbCircle
 62
7
  6
CONTINUOUS
 10
-0.0522606894
 20
11.5808489877
 40
7.6880386314
100
AcDbArc
 50
268.8986778525
 51
272.9723847719
  0
ARC
  5
2AE
100
AcDbEntity
  8
0
100
AcDbCircle
 62
7
  6
CONTINUOUS
 10
2.2132421538
 20
10.0188302531
 40
7.1193739276
100
AcDbArc
 50
230.3243445465
 51
235.1613985453
  0
ARC
  5
2AF
100
AcDbEntity
  8
0
100
AcDbCircle
 62
7
  6
CONTINUOUS
 10
1.4250134224
 20
10.5426479855
 40
7.0782252477
100
AcDbArc
 50
232.6022311428
 51
237.7920337268
  0
ARC
  5
2B0
100
AcDbEntity
  8
0
100
AcDbCircle
 62
7
  6
CONTINUOUS
 10
-2.1987134676
 20
10.1450051678
 40
6.5625394186
100
AcDbArc
 50
287.5895713681
 51
287.7316735104
  0
ARC
  5
2B1
100
AcDbEntity
  8
0
100
AcDbCircle
 62
7
  6
CONTINUOUS
 10
-2.9990654873
 20
9.9033490506
 40
4.8941313688
100
AcDbArc
 50
276.7957640524
 51
276.9536120813
  0
ARC
  5
2B2
100
AcDbEntity
  8
SUPERFICI
100
AcDbCircle
 62
7
  6
CONTINUOUS
 10
13.0982751047
 20
-1.3659283011
 40
37.4213868655
100
AcDbArc
 50
147.4349953298
 51
157.2055597864
  0
ARC
  5
2B3
100
AcDbEntity
  8
0
100
AcDbCircle
 62
7
  6
CONTINUOUS
 10
13.0991391252
 20
-1.3645497377
 40
37.421373061
100
AcDbArc
 50
137.6668289051
 51
147.4374862601
  0
ARC
  5
2B4
100
AcDbEntity
  8
RACCORDO
100
AcDbCircle
 62
250
  6
CONTINUOUS
 10
16.5747715659
 20
1.7123496422
 40
37.0075996841
100
AcDbArc
 50
155.0780617333
 51
156.2601012661
  0
ARC
  5
2B5
100
AcDbEntity
  8
RACCORDO
100
AcDbCircle
 62
250
  6
CONTINUOUS
 10
13.0890183265
 20
2.3971925241
 40
35.2855707
100
AcDbArc
 50
155.7252711418
 51
156.9293903502
  0
ARC
  5
2B6
100
AcDbEntity
  8
0
100
AcDbCircle
 62
250
  6
CONTINUOUS
 10
9.0589791043
 20
4.9781458492
 40
28.8435007617
100
AcDbArc
 50
138.2998453283
 51
139.7878402567
  0
ARC
  5
2B7
100
AcDbEntity
  8
0
100
AcDbCircle
 62
250
  6
CONTINUOUS
 10
6.1555799483
 20
5.2935647161
 40
27.8018575601
100
AcDbArc
 50
138.1838420789
 51
139.1922710772
  0
ARC
  5
2B8
100
AcDbEntity
  8
0
100
AcDbCircle
 62
250
  6
CONTINUOUS
 10
5.7073555735
 20
5.6943984393
 40
27.2005482755
100
AcDbArc
 50
137.671163183
 51
138.1730180784
  0
ARC
  5
2B9
100
AcDbEntity
  8
0
100
AcDbCircle
 62
250
  6
CONTINUOUS
 10
5.6502384448
 20
5.7197910677
 40
27.1408135596
100
AcDbArc
 50
139.176145814
 51
147.4275114373
  0
ARC
  5
2BA
100
AcDbEntity
  8
RACCORDO
100
AcDbCircle
 62
250
  6
CONTINUOUS
 10
5.5191042438
 20
5.8086992828
 40
26.9824404944
100
AcDbArc
 50
147.4366968493
 51
155.7205832431
  0
ARC
  5
2BB
100
AcDbEntity
  8
0
100
AcDbCircle
 62
250
  6
CONTINUOUS
 10
7.2604360956
 20
6.2474098202
 40
26.6512560581
100
AcDbArc
 50
139.3753049443
 51
147.4310451978
  0
ARC
  5
2BC
100
AcDbEntity
  8
RACCORDO
100
AcDbCircle
 62
250
  6
CONTINUOUS
 10
7.2189762147
 20
6.2780693164
 40
26.5998117737
100
AcDbArc
 50
147.4386265359
 51
155.504983517
  0
ARC
  5
2BD
100
AcDbEntity
  8
0
100
AcDbCircle
 62
7
  6
CONTINUOUS
 10
7.4233056786
 20
5.3233112119
 40
8.3121806161
100
AcDbArc
 50
181.8361688726
 51
183.7228915248
  0
ARC
  5
2BE
100
AcDbEntity
  8
RACCORDO
100
AcDbCircle
 62
7
  6
CONTINUOUS
 10
29.9700113086
 20
3.6876664516
 40
2.8801573868
100
AcDbArc
 50
22.099179532
 51
22.5200640954
  0
ARC
  5
2BF
100
AcDbEntity
  8
0
100
AcDbCircle
 62
7
  6
CONTINUOUS
 10
11.9552174542
 20
-10.1616654339
 40
2.7
100
AcDbArc
 50
222.5806903726
 51
334.1712588509
  0
ARC
  5
2C0
100
AcDbEntity
  8
0
100
AcDbCircle
 62
7
  6
CONTINUOUS
 10
12.5950790766
 20
-10.4415554536
 40
2.0038173956
100
AcDbArc
 50
323.1634541355
 51
324.3504220399
  0
ARC
  5
2C1
100
AcDbEntity
  8
0
100
AcDbCircle
 62
7
  6
CONTINUOUS
 10
12.6531756933
 20
-10.4827494971
 40
1.9325993394
100
AcDbArc
 50
324.3389755704
 51
327.422257491
  0
ARC
  5
2C2
100
AcDbEntity
  8
0
100
AcDbCircle
 62
7
  6
CONTINUOUS
 10
12.7692890084
 20
-10.5549453954
 40
1.7958824829
100
AcDbArc
 50
327.3685393568
 51
334.1491849964
  0
ARC
  5
2C3
100
AcDbEntity
  8
RACCORDO
100
AcDbCircle
 62
7
  6
CONTINUOUS
 10
29.6312737919
 20
-4.9767845495
 40
0.952588262
100
AcDbArc
 50
6.2426422967
 51
8.3986390341
  0
ARC
  5
2C4
100
AcDbEntity
  8
RACCORDO
100
AcDbCircle
 62
7
  6
CONTINUOUS
 10
32.6504178225
 20
-0.2492968121
 40
0.9525868552
100
AcDbArc
 50
6.2426277398
 51
8.3986383665
  0
ARC
  5
2C5
100
AcDbEntity
  8
0
100
AcDbCircle
 62
7
  6
CONTINUOUS
 10
13.2388548604
 20
-0.8184518483
 40
0.6457710931
100
AcDbArc
 50
137.6860751463
 51
147.4004779552
  0
ARC
  5
2C6
100
AcDbEntity
  8
RACCORDO
100
AcDbCircle
 62
7
  6
CONTINUOUS
 10
33.1096317334
 20
-0.2604989993
 40
0.4908116404
100
AcDbArc
 50
345.7890499486
 51
346.1586048799
  0
ARC
  5
2C7
100
AcDbEntity
  8
RACCORDO
100
AcDbCircle
 62
7
  6
CONTINUOUS
 10
28.9908633516
 20
-5.2322722689
 40
0.3748619311
100
AcDbArc
 50
293.6350162358
 51
294.1414551144
  0
ARC
  5
2C8
100
AcDbEntity
  8
RACCORDO
100
AcDbCircle
 62
7
  6
CONTINUOUS
 10
28.9911812941
 20
-5.2329908107
 40
0.3740761383
100
AcDbArc
 50
293.6447000283
 51
294.4432450729
  0
ARC
  5
2C9
100
AcDbEntity
  8
RACCORDO
100
AcDbCircle
 62
7
  6
CONTINUOUS
 10
28.9923981439
 20
-5.2356836834
 40
0.3711211682
100
AcDbArc
 50
294.1406338111
 51
295.1548089315
  0
ARC
  5
2CA
100
AcDbEntity
  8
RACCORDO
100
AcDbCircle
 62
250
  6
CONTINUOUS
 10
5.684288137
 20
-3.8503787309
 40
0.131717837
100
AcDbArc
 50
26.0655292019
 51
31.3545575308
  0
ARC
  5
2CB
100
AcDbEntity
  8
RACCORDO
100
AcDbCircle
 62
250
  6
CONTINUOUS
 10
38.9630799886
 20
13.3722383187
 40
37.7546106217
100
AcDbArc
 50
209.0855130579
 51
212.9653474976
  0
ARC
  5
2CC
100
AcDbEntity
  8
0
100
AcDbCircle
 62
7
  6
CONTINUOUS
 10
10.6232458043
 20
11.8327250541
 40
13.483902718
100
AcDbArc
 50
211.5190005659
 51
211.9909288511
  0
ARC
  5
2CD
100
AcDbEntity
  8
0
100
AcDbCircle
 62
7
  6
CONTINUOUS
 10
30.4050486319
 20
12.8082575844
 40
1.3
100
AcDbArc
 50
9.1594202485
 51
70.4065644254
  0
ARC
  5
2CE
100
AcDbEntity
  8
0
100
AcDbCircle
 62
250
  6
CONTINUOUS
 10
30.9149740921
 20
12.891429096
 40
0.7833375299
100
AcDbArc
 50
354.2032165427
 51
9.0906617573
  0
ARC
  5
2CF
100
AcDbEntity
  8
0
100
AcDbCircle
 62
7
  6
CONTINUOUS
 10
159.6880702931
 20
-132.1253814281
 40
212.0323686116
100
AcDbArc
 50
139.5367695039
 51
139.6656847401
  0
ARC
  5
2D0
100
AcDbEntity
  8
RACCORDO
100
AcDbCircle
 62
250
  6
CONTINUOUS
 10
153.5083944119
 20
-82.9323103031
 40
153.8682391509
100
AcDbArc
 50
145.8939209756
 51
146.7277509998
  0
ARC
  5
2D1
100
AcDbEntity
  8
RACCORDO
100
AcDbCircle
 62
250
  6
CONTINUOUS
 10
143.3758019199
 20
-75.2660860682
 40
142.8902722604
100
AcDbArc
 50
146.0421583639
 51
146.966915772
  0
ARC
  5
2D2
100
AcDbEntity
  8
0
100
AcDbCircle
 62
7
  6
CONTINUOUS
 10
378.1367580942
 20
243.7631485188
 40
439.0076665868
100
AcDbArc
 50
215.0772034826
 51
215.2352611767
  0
ARC
  5
2D3
100
AcDbEntity
  8
0
100
AcDbCircle
 62
7
  6
CONTINUOUS
 10
378.3341062281
 20
243.4686815951
 40
438.5715148551
100
AcDbArc
 50
215.089468117
 51
215.2575025676
  0
ARC
  5
2D4
100
AcDbEntity
  8
0
100
AcDbCircle
 62
7
  6
CONTINUOUS
 10
378.312001473
 20
243.4646302617
 40
438.5281990072
100
AcDbArc
 50
215.092577038
 51
215.25751633
  0
ARC
  5
2D5
100
AcDbEntity
  8
0
100
AcDbCircle
 62
7
  6
CONTINUOUS
 10
350.2602854619
 20
167.6140785205
 40
383.2199759718
100
AcDbArc
 50
206.6085982895
 51
207.0136769633
  0
ARC
  5
2D6
100
AcDbEntity
  8
0
100
AcDbCircle
 62
7
  6
CONTINUOUS
 10
350.715859327
 20
167.4828399303
 40
383.1312576757
100
AcDbArc
 50
206.621590343
 51
206.900716549
  0
ARC
  5
2D7
100
AcDbEntity
  8
0
100
AcDbCircle
 62
7
  6
CONTINUOUS
 10
350.7123685055
 20
167.4950135697
 40
383.1123347799
100
AcDbArc
 50
206.6215556659
 51
206.899409486
  0
ARC
  5
2D8
100
AcDbEntity
  8
0
100
AcDbCircle
 62
7
  6
CONTINUOUS
 10
355.6730706855
 20
165.3066100808
 40
380.8532019001
100
AcDbArc
 50
206.9195444087
 51
207.0423805624
  0
ARC
  5
2D9
100
AcDbEntity
  8
0
100
AcDbCircle
 62
7
  6
CONTINUOUS
 10
355.4490199533
 20
164.8356965541
 40
379.9995463869
100
AcDbArc
 50
206.8057881218
 51
207.2134674012
  0
ARC
  5
2DA
100
AcDbEntity
  8
0
100
AcDbCircle
 62
7
  6
CONTINUOUS
 10
355.4377397696
 20
164.8439048326
 40
379.9718772586
100
AcDbArc
 50
206.8057578887
 51
207.2134669192
  0
ARC
  5
2DB
100
AcDbEntity
  8
0
100
AcDbCircle
 62
7
  6
CONTINUOUS
 10
350.3949507965
 20
152.7507974058
 40
373.1351674101
100
AcDbArc
 50
205.0833939844
 51
205.3473187712
  0
ARC
  5
2DC
100
AcDbEntity
  8
0
100
AcDbCircle
 62
7
  6
CONTINUOUS
 10
350.3948666931
 20
152.7651573612
 40
373.1202676372
100
AcDbArc
 50
205.0833624663
 51
205.3455733827
  0
ARC
  5
2DD
100
AcDbEntity
  8
0
100
AcDbCircle
 62
7
  6
CONTINUOUS
 10
348.9404969436
 20
152.414866312
 40
372.1262619247
100
AcDbArc
 50
205.2092231751
 51
205.4768178243
  0
ARC
  5
2DE
100
AcDbEntity
  8
0
100
AcDbCircle
 62
7
  6
CONTINUOUS
 10
377.0162327526
 20
43.2175953811
 40
365.3245608398
100
AcDbArc
 50
186.8486061907
 51
186.9793688776
  0
ARC
  5
2DF
100
AcDbEntity
  8
0
100
AcDbCircle
 62
7
  6
CONTINUOUS
 10
376.0835138217
 20
43.28898774
 40
364.8416556517
100
AcDbArc
 50
186.8485420352
 51
186.9794777379
  0
ARC
  5
2E0
100
AcDbEntity
  8
0
100
AcDbCircle
 62
7
  6
CONTINUOUS
 10
376.4829089344
 20
43.1714717679
 40
364.7738169057
100
AcDbArc
 50
186.8524393648
 51
186.9793571261
  0
ARC
  5
2E1
100
AcDbEntity
  8
0
100
AcDbCircle
 62
7
  6
CONTINUOUS
 10
372.3532441028
 20
42.6445660933
 40
360.626493394
100
AcDbArc
 50
187.0426960763
 51
187.2147531788
  0
ARC
  5
2E2
100
AcDbEntity
  8
0
100
AcDbCircle
 62
7
  6
CONTINUOUS
 10
371.2720135323
 20
42.6955343702
 40
359.9936938031
100
AcDbArc
 50
187.0431437346
 51
187.2149227552
  0
ARC
  5
2E3
100
AcDbEntity
  8
0
100
AcDbCircle
 62
7
  6
CONTINUOUS
 10
371.6921237627
 20
42.5804882358
 40
359.9467166987
100
AcDbArc
 50
187.0448457242
 51
187.2148213688
  0
ARC
  5
2E4
100
AcDbEntity
  8
0
100
AcDbCircle
 62
7
  6
CONTINUOUS
 10
350.123601723
 20
41.6503585927
 40
342.8621375676
100
AcDbArc
 50
187.7945549059
 51
188.1567933262
  0
ARC
  5
2E5
100
AcDbEntity
  8
0
100
AcDbCircle
 62
7
  6
CONTINUOUS
 10
351.2633295574
 20
41.3156555308
 40
342.8516958091
100
AcDbArc
 50
187.7947174293
 51
188.156966582
  0
ARC
  5
2E6
100
AcDbEntity
  8
0
100
AcDbCircle
 62
7
  6
CONTINUOUS
 10
357.212304912
 20
39.5863083645
 40
342.7829344044
100
AcDbArc
 50
187.7945981143
 51
188.1569205448
  0
ARC
  5
2E7
100
AcDbEntity
  8
0
100
AcDbCircle
 62
7
  6
CONTINUOUS
 10
349.4505885808
 20
41.3081487058
 40
341.6019440689
100
AcDbArc
 50
187.7938807309
 51
188.1574546175
  0
ARC
  5
2E8
100
AcDbEntity
  8
0
100
AcDbCircle
 62
7
  6
CONTINUOUS
 10
349.4391253328
 20
41.3253576322
 40
341.5768915093
100
AcDbArc
 50
187.7938375127
 51
188.1574382862
  0
ARC
  5
2E9
100
AcDbEntity
  8
0
100
AcDbCircle
 62
7
  6
CONTINUOUS
 10
352.808483636
 20
40.326263141
 40
341.5675149772
100
AcDbArc
 50
187.794001933
 51
188.1576132825
  0
ARC
  5
2EA
100
AcDbEntity
  8
0
100
AcDbCircle
 62
7
  6
CONTINUOUS
 10
352.7970216171
 20
40.3434741005
 40
341.5424622716
100
AcDbArc
 50
187.7939587058
 51
188.1575969478
  0
ARC
  5
2EB
100
AcDbEntity
  8
0
100
AcDbCircle
 62
7
  6
CONTINUOUS
 10
352.0004737758
 20
40.4592122717
 40
341.3337102331
100
AcDbArc
 50
187.9181511631
 51
188.15779044
  0
ARC
  5
2EC
100
AcDbEntity
  8
0
100
AcDbCircle
 62
7
  6
CONTINUOUS
 10
349.5350704725
 20
40.8239963467
 40
340.5251394443
100
AcDbArc
 50
187.917609492
 51
188.157817191
  0
ARC
  5
2ED
100
AcDbEntity
  8
0
100
AcDbCircle
 62
7
  6
CONTINUOUS
 10
349.4230643748
 20
40.8268771883
 40
340.3985277579
100
AcDbArc
 50
187.9293783066
 51
188.1578148599
  0
ARC
  5
2EE
100
AcDbEntity
  8
0
100
AcDbCircle
 62
7
  6
CONTINUOUS
 10
354.6504636608
 20
38.9539339787
 40
339.6081878887
100
AcDbArc
 50
188.0125472224
 51
188.1536258649
  0
ARC
  5
2EF
100
AcDbEntity
  8
0
100
AcDbCircle
 62
7
  6
CONTINUOUS
 10
354.6020359598
 20
38.9658721856
 40
339.5457930451
100
AcDbArc
 50
188.0168748267
 51
188.1536126196
  0
ARC
  5
2F0
100
AcDbEntity
  8
RACCORDO
100
AcDbCircle
 62
250
  6
CONTINUOUS
 10
265.4980486586
 20
22.1574234125
 40
244.562159189
100
AcDbArc
 50
185.2960580823
 51
185.7804323738
  0
ARC
  5
2F1
100
AcDbEntity
  8
RACCORDO
100
AcDbCircle
 62
250
  6
CONTINUOUS
 10
235.9517684351
 20
767.5470224257
 40
806.0319798145
100
AcDbArc
 50
251.624974163
 51
252.0335872126
  0
ARC
  5
2F2
100
AcDbEntity
  8
RACCORDO
100
AcDbCircle
 62
250
  6
CONTINUOUS
 10
234.4273400198
 20
760.8369804467
 40
800.8872527458
100
AcDbArc
 50
251.3118133938
 51
251.5354789809
  0
ARC
  5
2F3
100
AcDbEntity
  8
0
100
AcDbCircle
 62
7
  6
CONTINUOUS
 10
435.8858322816
 20
489.4983984658
 40
647.0439389488
100
AcDbArc
 50
229.1487238891
 51
229.2995231604
  0
ARC
  5
2F4
100
AcDbEntity
  8
0
100
AcDbCircle
 62
7
  6
CONTINUOUS
 10
435.804611076
 20
489.408899436
 40
646.8986061222
100
AcDbArc
 50
229.1486641483
 51
229.2974234116
  0
ARC
  5
2F5
100
AcDbEntity
  8
0
100
AcDbCircle
 62
7
  6
CONTINUOUS
 10
435.3883440495
 20
489.2415446095
 40
646.7971073013
100
AcDbArc
 50
229.200414319
 51
229.3445977697
  0
ARC
  5
2F6
100
AcDbEntity
  8
0
100
AcDbCircle
 62
7
  6
CONTINUOUS
 10
700.8306895688
 20
-234.9542313253
 40
722.2508620286
100
AcDbArc
 50
161.5491231146
 51
161.7065140532
  0
ARC
  5
2F7
100
AcDbEntity
  8
0
100
AcDbCircle
 62
7
  6
CONTINUOUS
 10
684.7469347472
 20
-229.2036309532
 40
711.0600382937
100
AcDbArc
 50
161.5982268361
 51
161.7575385428
  0
ARC
  5
2F8
100
AcDbEntity
  8
0
100
AcDbCircle
 62
7
  6
CONTINUOUS
 10
684.7128987256
 20
-229.1672995473
 40
711.0102176238
100
AcDbArc
 50
161.598205013
 51
161.7575280597
  0
ARC
  5
2F9
100
AcDbEntity
  8
0
100
AcDbCircle
 62
7
  6
CONTINUOUS
 10
597.5654665406
 20
-167.4071320023
 40
606.0016211317
100
AcDbArc
 50
164.5279016524
 51
164.6500386876
  0
ARC
  5
2FA
100
AcDbEntity
  8
0
100
AcDbCircle
 62
7
  6
CONTINUOUS
 10
590.3150048737
 20
-165.476443288
 40
597.8993580063
100
AcDbArc
 50
164.5862567312
 51
164.7111867516
  0
ARC
  5
2FB
100
AcDbEntity
  8
0
100
AcDbCircle
 62
7
  6
CONTINUOUS
 10
590.1317018292
 20
-165.4019084171
 40
597.6955380261
100
AcDbArc
 50
164.5900978424
 51
164.7111797134
  0
ARC
  5
2FC
100
AcDbEntity
  8
RACCORDO
100
AcDbCircle
 62
250
  6
CONTINUOUS
 10
751.1588409974
 20
2511.4939790935
 40
2615.6012709895
100
AcDbArc
 50
252.88792225
 51
253.288952194
  0
ARC
  5
2FD
100
AcDbEntity
  8
RACCORDO
100
AcDbCircle
 62
250
  6
CONTINUOUS
 10
243.5174735289
 20
789.9571174193
 40
831.395497604
100
AcDbArc
 50
253.4927098792
 51
254.6420475012
  0
SPLINE
  5
2FE
100
AcDbEntity
  8
0
100
AcDbSpline
 62
7
  6
CONTINUOUS
 70
0
 71
3
 72
9
 73
5
 74
0
 42
0.0000001
 43
0.0000001
 44
0.0000000001
 40
0.0
 40
0.0
 40
0.0
 40
0.0
 40
0.489758322
 40
1.0
 40
1.0
 40
1.0
 40
1.0
 10
-8.6290576356
 20
-3.3639701963
 30
0.0
 10
-8.6080448741
 20
-3.5068065802
 30
0.0
 10
-8.6120630241
 20
-3.8071047839
 30
0.0
 10
-8.7064193483
 20
-4.0911992583
 30
0.0
 10
-8.7719472656
 20
-4.2265869793
 30
0.0
  0
SPLINE
  5
2FF
100
AcDbEntity
  8
0
100
AcDbSpline
 62
7
  6
CONTINUOUS
 70
0
 71
3
 72
9
 73
5
 74
0
 42
0.0000001
 43
0.0000001
 44
0.0000000001
 40
0.0
 40
0.0
 40
0.0
 40
0.0
 40
0.4898554926
 40
1.0
 40
1.0
 40
1.0
 40
1.0
 10
-13.5757025479
 20
-4.0923078305
 30
0.0
 10
-13.5546857012
 20
-4.2351719839
 30
0.0
 10
-13.4642047036
 20
-4.521549607
 30
0.0
 10
-13.2920180487
 20
-4.7664099455
 30
0.0
 10
-13.1902692437
 20
-4.8771444345
 30
0.0
  0
SPLINE
  5
300
100
AcDbEntity
  8
0
100
AcDbSpline
 62
7
  6
CONTINUOUS
 70
0
 71
3
 72
15
 73
11
 74
0
 42
0.0000001
 43
0.0000001
 44
0.0000000001
 40
0.0
 40
0.0
 40
0.0
 40
0.0
 40
0.1113061894
 40
0.2313548959
 40
0.3590514665
 40
0.4916931891
 40
0.6256637182
 40
0.757115535
 40
0.8826356544
 40
1.0
 40
1.0
 40
1.0
 40
1.0
 10
-13.1902692437
 20
-4.8771444345
 30
0.0
 10
-13.0715148533
 20
-5.0063863134
 30
0.0
 10
-12.7825711084
 20
-5.2379157177
 30
0.0
 10
-12.262191482
 20
-5.4727193285
 30
0.0
 10
-11.6710172294
 20
-5.5971419971
 30
0.0
 10
-11.045542788
 20
-5.6042352808
 30
0.0
 10
-10.4238781728
 20
-5.4941715585
 30
0.0
 10
-9.8440783019
 20
-5.2734066231
 30
0.0
 10
-9.3419094855
 20
-4.9554024533
 30
0.0
 10
-9.0695270618
 20
-4.6796205929
 30
0.0
 10
-8.9585765622
 20
-4.5314965548
 30
0.0
  0
SPLINE
  5
301
100
AcDbEntity
  8
0
100
AcDbSpline
 62
7
  6
CONTINUOUS
 70
0
 71
3
 72
11
 73
7
 74
0
 42
0.0000001
 43
0.0000001
 44
0.0000000001
 40
0.0
 40
0.0
 40
0.0
 40
0.0
 40
0.2746682926
 40
0.531869188
 40
0.7726610423
 40
1.0
 40
1.0
 40
1.0
 40
1.0
 10
-0.3652547958
 20
2.9233620204
 30
0.0
 10
-0.2579039266
 20
2.9094538458
 30
0.0
 10
-0.0481836523
 20
2.8943893126
 30
0.0
 10
0.2567800566
 20
2.9143973589
 30
0.0
 10
0.5366299597
 20
2.9791683544
 30
0.0
 10
0.706419613
 20
3.0554328306
 30
0.0
 10
0.7833736079
 20
3.1013175956
 30
0.0
  0
SPLINE
  5
302
100
AcDbEntity
  8
0
100
AcDbSpline
 62
7
  6
CONTINUOUS
 70
0
 71
3
 72
16
 73
12
 74
0
 42
0.0000001
 43
0.0000001
 44
0.0000000001
 40
0.0
 40
0.0
 40
0.0
 40
0.0
 40
0.0984231103
 40
0.2044106406
 40
0.3197449228
 40
0.4445725733
 40
0.5102292442
 40
0.5776893295
 40
0.7166388501
 40
0.8585045574
 40
1.0
 40
1.0
 40
1.0
 40
1.0
 10
-3.4241207287
 20
5.8480035708
 30
0.0
 10
-3.4413108911
 20
5.7359796492
 30
0.0
 10
-3.4413802842
 20
5.4971324808
 30
0.0
 10
-3.3515128949
 20
5.1373484489
 30
0.0
 10
-3.1815604332
 20
4.7745583931
 30
0.0
 10
-2.9830853947
 20
4.4821036219
 30
0.0
 10
-2.7927320004
 20
4.2538894744
 30
0.0
 10
-2.5770816572
 20
4.0263795753
 30
0.0
 10
-2.2752885934
 20
3.7607733453
 30
0.0
 10
-1.8761590574
 20
3.4814165904
 30
0.0
 10
-1.5893706313
 20
3.3241217635
 30
0.0
 10
-1.4422919215
 20
3.2540137085
 30
0.0
  0
SPLINE
  5
303
100
AcDbEntity
  8
0
100
AcDbSpline
 62
7
  6
CONTINUOUS
 70
0
 71
3
 72
9
 73
5
 74
0
 42
0.0000001
 43
0.0000001
 44
0.0000000001
 40
0.0
 40
0.0
 40
0.0
 40
0.0
 40
0.2426541984
 40
1.0
 40
1.0
 40
1.0
 40
1.0
 10
-2.4065539668
 20
5.0452164924
 30
0.0
 10
-2.3722457871
 20
5.0444368137
 30
0.0
 10
-2.2308292094
 20
5.0424594805
 30
0.0
 10
-2.0893827333
 20
5.0450252311
 30
0.0
 10
-1.9823256005
 20
5.0482798689
 30
0.0
  0
SPLINE
  5
304
100
AcDbEntity
  8
0
100
AcDbSpline
 62
7
  6
CONTINUOUS
 70
0
 71
3
 72
9
 73
5
 74
0
 42
0.0000001
 43
0.0000001
 44
0.0000000001
 40
0.0
 40
0.0
 40
0.0
 40
0.0
 40
0.2453694983
 40
1.0
 40
1.0
 40
1.0
 40
1.0
 10
-2.9185355525
 20
5.2226484166
 30
0.0
 10
-2.8784853524
 20
5.2060893939
 30
0.0
 10
-2.7144412973
 20
5.140597127
 30
0.0
 10
-2.5472830104
 20
5.082962026
 30
0.0
 10
-2.4199401973
 20
5.0436025806
 30
0.0
  0
SPLINE
  5
305
100
AcDbEntity
  8
0
100
AcDbSpline
 62
7
  6
CONTINUOUS
 70
0
 71
3
 72
9
 73
5
 74
0
 42
0.0000001
 43
0.0000001
 44
0.0000000001
 40
0.0
 40
0.0
 40
0.0
 40
0.0
 40
0.5352750119
 40
1.0
 40
1.0
 40
1.0
 40
1.0
 10
-0.7208786409
 20
3.7617458775
 30
0.0
 10
-0.6823312091
 20
3.607761616
 30
0.0
 10
-0.5942590493
 20
3.3236628075
 30
0.0
 10
-0.4624997606
 20
3.0557697922
 30
0.0
 10
-0.3882405157
 20
2.9396736333
 30
0.0
  0
SPLINE
  5
306
100
AcDbEntity
  8
0
100
AcDbSpline
 62
7
  6
CONTINUOUS
 70
0
 71
3
 72
9
 73
5
 74
0
 42
0.0000001
 43
0.0000001
 44
0.0000000001
 40
0.0
 40
0.0
 40
0.0
 40
0.0
 40
0.2504116228
 40
1.0
 40
1.0
 40
1.0
 40
1.0
 10
-0.8128833478
 20
4.6891557414
 30
0.0
 10
-0.7698648753
 20
4.6635390413
 30
0.0
 10
-0.5975297877
 20
4.5621615551
 30
0.0
 10
-0.4226775644
 20
4.4650273118
 30
0.0
 10
-0.2900347177
 20
4.3952539155
 30
0.0
  0
SPLINE
  5
307
100
AcDbEntity
  8
0
100
AcDbSpline
 62
7
  6
CONTINUOUS
 70
0
 71
3
 72
11
 73
7
 74
0
 42
0.0000001
 43
0.0000001
 44
0.0000000001
 40
0.0
 40
0.0
 40
0.0
 40
0.0
 40
0.3405025085
 40
0.6136902232
 40
0.8245810814
 40
1.0
 40
1.0
 40
1.0
 40
1.0
 10
-1.3688460638
 20
3.2980373089
 30
0.0
 10
-1.3748823362
 20
3.2895657335
 30
0.0
 10
-1.3867036539
 20
3.2748893943
 30
0.0
 10
-1.4059960757
 20
3.2584384022
 30
0.0
 10
-1.4249706653
 20
3.2501163331
 30
0.0
 10
-1.4374570263
 20
3.2517049873
 30
0.0
 10
-1.4422941678
 20
3.2540115426
 30
0.0
  0
SPLINE
  5
308
100
AcDbEntity
  8
0
100
AcDbSpline
 62
7
  6
CONTINUOUS
 70
0
 71
3
 72
9
 73
5
 74
0
 42
0.0000001
 43
0.0000001
 44
0.0000000001
 40
0.0
 40
0.0
 40
0.0
 40
0.0
 40
0.5306343247
 40
1.0
 40
1.0
 40
1.0
 40
1.0
 10
-0.3882405157
 20
2.9396736333
 30
0.0
 10
-0.3854840289
 20
2.9353641695
 30
0.0
 10
-0.379082299
 20
2.9277817567
 30
0.0
 10
-0.3697306119
 20
2.9239401681
 30
0.0
 10
-0.365242951
 20
2.9233603248
 30
0.0
  0
SPLINE
  5
309
100
AcDbEntity
  8
0
100
AcDbSpline
 62
7
  6
CONTINUOUS
 70
0
 71
3
 72
8
 73
4
 74
0
 42
0.0000001
 43
0.0000001
 44
0.0000000001
 40
0.0
 40
0.0
 40
0.0
 40
0.0
 40
1.0
 40
1.0
 40
1.0
 40
1.0
 10
-0.4012827048
 20
4.4001127002
 30
0.0
 10
-0.5076485637
 20
4.1872406731
 30
0.0
 10
-0.6141956254
 20
3.9744591354
 30
0.0
 10
-0.7208786409
 20
3.7617458775
 30
0.0
  0
LINE
  5
30A
100
AcDbEntity
  8
0
100
AcDbLine
 62
7
  6
CONTINUOUS
 10
-1.1085348019
 20
3.663391595
 11
-1.3688460638
 21
3.2980373089
  0
SPLINE
  5
30B
100
AcDbEntity
  8
0
100
AcDbSpline
 62
7
  6
CONTINUOUS
 70
0
 71
3
 72
9
 73
5
 74
0
 42
0.0000001
 43
0.0000001
 44
0.0000000001
 40
0.0
 40
0.0
 40
0.0
 40
0.0
 40
0.2457469376
 40
1.0
 40
1.0
 40
1.0
 40
1.0
 10
-0.6375889532
 20
3.4760378502
 30
0.0
 10
-0.6770520791
 20
3.4889850783
 30
0.0
 10
-0.8367890906
 20
3.5442298702
 30
0.0
 10
-0.9930718137
 20
3.6093752116
 30
0.0
 10
-1.1085348019
 20
3.663391595
 30
0.0
  0
LINE
  5
30C
100
AcDbEntity
  8
0
100
AcDbLine
 62
7
  6
CONTINUOUS
 10
-1.6299560373
 20
5.4746724224
 11
-1.9823256005
 21
5.0482798689
  0
SPLINE
  5
30D
100
AcDbEntity
  8
0
100
AcDbSpline
 62
7
  6
CONTINUOUS
 70
0
 71
3
 72
9
 73
5
 74
0
 42
0.0000001
 43
0.0000001
 44
0.0000000001
 40
0.0
 40
0.0
 40
0.0
 40
0.0
 40
0.2370155287
 40
1.0
 40
1.0
 40
1.0
 40
1.0
 10
-2.9185355525
 20
5.2226484166
 30
0.0
 10
-2.9189965938
 20
5.198383638
 30
0.0
 10
-2.9163417935
 20
5.0959240336
 30
0.0
 10
-2.8961741494
 20
4.9943212082
 30
0.0
 10
-2.873910612
 20
4.9194349536
 30
0.0
  0
SPLINE
  5
30E
100
AcDbEntity
  8
0
100
AcDbSpline
 62
7
  6
CONTINUOUS
 70
0
 71
3
 72
9
 73
5
 74
0
 42
0.0000001
 43
0.0000001
 44
0.0000000001
 40
0.0
 40
0.0
 40
0.0
 40
0.0
 40
0.4657492713
 40
1.0
 40
1.0
 40
1.0
 40
1.0
 10
-1.4684252344
 20
3.2859170507
 30
0.0
 10
-1.5397468518
 20
3.4003301254
 30
0.0
 10
-1.6665381741
 20
3.6625530163
 30
0.0
 10
-1.752126734
 20
3.9399434632
 30
0.0
 10
-1.7896824119
 20
4.0899661659
 30
0.0
  0
SPLINE
  5
30F
100
AcDbEntity
  8
0
100
AcDbSpline
 62
7
  6
CONTINUOUS
 70
0
 71
3
 72
9
 73
5
 74
0
 42
0.0000001
 43
0.0000001
 44
0.0000000001
 40
0.0
 40
0.0
 40
0.0
 40
0.0
 40
0.2434896336
 40
1.0
 40
1.0
 40
1.0
 40
1.0
 10
-1.9401377957
 20
5.111813563
 30
0.0
 10
-1.9427902716
 20
5.1522655347
 30
0.0
 10
-1.9523788868
 20
5.3184840874
 30
0.0
 10
-1.9569075147
 20
5.4849839133
 30
0.0
 10
-1.9578474475
 20
5.6109326002
 30
0.0
  0
SPLINE
  5
310
100
AcDbEntity
  8
0
100
AcDbSpline
 62
7
  6
CONTINUOUS
 70
0
 71
3
 72
9
 73
5
 74
0
 42
0.0000001
 43
0.0000001
 44
0.0000000001
 40
0.0
 40
0.0
 40
0.0
 40
0.0
 40
0.2536323353
 40
1.0
 40
1.0
 40
1.0
 40
1.0
 10
-0.2155377347
 20
3.8892927677
 30
0.0
 10
-0.2548736069
 20
3.8813902777
 30
0.0
 10
-0.410267405
 20
3.8517982603
 30
0.0
 10
-0.5669594438
 20
3.828747303
 30
0.0
 10
-0.6843766362
 20
3.8163765313
 30
0.0
  0
SPLINE
  5
311
100
AcDbEntity
  8
0
100
AcDbSpline
 62
250
  6
CONTINUOUS
 70
0
 71
3
 72
16
 73
12
 74
0
 42
0.0000001
 43
0.0000001
 44
0.0000000001
 40
0.0
 40
0.0
 40
0.0
 40
0.0
 40
0.0889603069
 40
0.188322583
 40
0.300518626
 40
0.4254651284
 40
0.4922256608
 40
0.5613589238
 40
0.7049669884
 40
0.8525545764
 40
1.0
 40
1.0
 40
1.0
 40
1.0
 10
-3.3403203276
 20
5.8546112829
 30
0.0
 10
-3.3714330338
 20
5.7579728799
 30
0.0
 10
-3.3998725858
 20
5.5404888054
 30
0.0
 10
-3.3445006837
 20
5.1985782054
 30
0.0
 10
-3.2000479826
 20
4.8400543623
 30
0.0
 10
-3.0151150956
 20
4.5448351418
 30
0.0
 10
-2.8308875239
 20
4.310793152
 30
0.0
 10
-2.6167303417
 20
4.0740993595
 30
0.0
 10
-2.3117574611
 20
3.7965580422
 30
0.0
 10
-1.9038919271
 20
3.5046033799
 30
0.0
 10
-1.6087563956
 20
3.340675894
 30
0.0
 10
-1.4570440142
 20
3.2678928332
 30
0.0
  0
SPLINE
  5
312
100
AcDbEntity
  8
0
100
AcDbSpline
 62
250
  6
CONTINUOUS
 70
0
 71
3
 72
11
 73
7
 74
0
 42
0.0000001
 43
0.0000001
 44
0.0000000001
 40
0.0
 40
0.0
 40
0.0
 40
0.0
 40
0.2869769094
 40
0.5482042558
 40
0.7844567541
 40
1.0
 40
1.0
 40
1.0
 40
1.0
 10
-0.3636244267
 20
2.9367204769
 30
0.0
 10
-0.25207793
 20
2.9238711252
 30
0.0
 10
-0.0370179665
 20
2.9127963231
 30
0.0
 10
0.2696990072
 20
2.9455080266
 30
0.0
 10
0.5382591069
 20
3.0280053152
 30
0.0
 10
0.6923135366
 20
3.1194089305
 30
0.0
 10
0.757919823
 20
3.1724008375
 30
0.0
  0
SPLINE
  5
313
100
AcDbEntity
  8
0
100
AcDbSpline
 62
7
  6
CONTINUOUS
 70
0
 71
3
 72
9
 73
5
 74
0
 42
0.0000001
 43
0.0000001
 44
0.0000000001
 40
0.0
 40
0.0
 40
0.0
 40
0.0
 40
0.2490061471
 40
1.0
 40
1.0
 40
1.0
 40
1.0
 10
-1.2816994127
 20
4.999725468
 30
0.0
 10
-1.2560637673
 20
4.9614222174
 30
0.0
 10
-1.1525351433
 20
4.8079834949
 30
0.0
 10
-1.047377044
 20
4.6556524945
 30
0.0
 10
-0.9681236653
 20
4.5414515229
 30
0.0
  0
SPLINE
  5
314
100
AcDbEntity
  8
0
100
AcDbSpline
 62
7
  6
CONTINUOUS
 70
0
 71
3
 72
8
 73
4
 74
0
 42
0.0000001
 43
0.0000001
 44
0.0000000001
 40
0.0
 40
0.0
 40
0.0
 40
0.0
 40
1.0
 40
1.0
 40
1.0
 40
1.0
 10
-1.7896824119
 20
4.0899661659
 30
0.0
 10
-1.6829995897
 20
4.3026793854
 30
0.0
 10
-1.5764514411
 20
4.5154602439
 30
0.0
 10
-1.4700858803
 20
4.7283322848
 30
0.0
  0
LINE
  5
315
100
AcDbEntity
  8
0
100
AcDbLine
 62
7
  6
CONTINUOUS
 10
-1.8538188453
 20
4.175500727
 11
-1.4700858803
 21
4.7283322848
  0
LINE
  5
316
100
AcDbEntity
  8
0
100
AcDbLine
 62
7
  6
CONTINUOUS
 10
-0.7829754158
 20
4.6714119615
 11
-0.896835451
 21
4.373503035
  0
LINE
  5
317
100
AcDbEntity
  8
0
100
AcDbLine
 62
7
  6
CONTINUOUS
 10
-1.3077471633
 20
5.016380607
 11
-1.2816994127
 21
4.999725468
  0
LINE
  5
318
100
AcDbEntity
  8
0
100
AcDbLine
 62
7
  6
CONTINUOUS
 10
-1.4700858803
 20
4.7283322848
 11
-1.3077471633
 21
5.016380607
  0
LINE
  5
319
100
AcDbEntity
  8
0
100
AcDbLine
 62
7
  6
CONTINUOUS
 10
-0.4012827048
 20
4.4001127002
 11
-0.6843766362
 21
3.8163765313
  0
SPLINE
  5
31A
100
AcDbEntity
  8
0
100
AcDbSpline
 62
7
  6
CONTINUOUS
 70
0
 71
3
 72
9
 73
5
 74
0
 42
0.0000001
 43
0.0000001
 44
0.0000000001
 40
0.0
 40
0.0
 40
0.0
 40
0.0
 40
0.2319128489
 40
1.0
 40
1.0
 40
1.0
 40
1.0
 10
-1.4422941678
 20
3.2540115426
 30
0.0
 10
-1.4437185431
 20
3.2546907455
 30
0.0
 10
-1.4496162868
 20
3.2581440516
 30
0.0
 10
-1.4542278628
 20
3.2634900903
 30
0.0
 10
-1.4570440142
 20
3.2678928332
 30
0.0
  0
SPLINE
  5
31B
100
AcDbEntity
  8
0
100
AcDbSpline
 62
7
  6
CONTINUOUS
 70
0
 71
3
 72
9
 73
5
 74
0
 42
0.0000001
 43
0.0000001
 44
0.0000000001
 40
0.0
 40
0.0
 40
0.0
 40
0.0
 40
0.2592269965
 40
1.0
 40
1.0
 40
1.0
 40
1.0
 10
-0.896835451
 20
4.373503035
 30
0.0
 10
-0.8629805147
 20
4.3591696243
 30
0.0
 10
-0.7310714341
 20
4.3070910059
 30
0.0
 10
-0.5938222184
 20
4.2679913552
 30
0.0
 10
-0.4905450299
 20
4.2487292879
 30
0.0
  0
SPLINE
  5
31C
100
AcDbEntity
  8
0
100
AcDbSpline
 62
7
  6
CONTINUOUS
 70
0
 71
3
 72
9
 73
5
 74
0
 42
0.0000001
 43
0.0000001
 44
0.0000000001
 40
0.0
 40
0.0
 40
0.0
 40
0.0
 40
0.489758322
 40
1.0
 40
1.0
 40
1.0
 40
1.0
 10
2.9887962581
 20
-7.1855683627
 30
0.0
 10
3.0098090197
 20
-7.3284047466
 30
0.0
 10
3.0057908696
 20
-7.6287029504
 30
0.0
 10
2.9114345454
 20
-7.9127974248
 30
0.0
 10
2.8459066281
 20
-8.0481851457
 30
0.0
  0
SPLINE
  5
31D
100
AcDbEntity
  8
0
100
AcDbSpline
 62
7
  6
CONTINUOUS
 70
0
 71
3
 72
9
 73
5
 74
0
 42
0.0000001
 43
0.0000001
 44
0.0000000001
 40
0.0
 40
0.0
 40
0.0
 40
0.0
 40
0.4898554926
 40
1.0
 40
1.0
 40
1.0
 40
1.0
 10
-1.9578486542
 20
-7.913905997
 30
0.0
 10
-1.9368318075
 20
-8.0567701504
 30
0.0
 10
-1.8463508098
 20
-8.3431477735
 30
0.0
 10
-1.6741641549
 20
-8.588008112
 30
0.0
 10
-1.57241535
 20
-8.6987426009
 30
0.0
  0
SPLINE
  5
31E
100
AcDbEntity
  8
0
100
AcDbSpline
 62
7
  6
CONTINUOUS
 70
0
 71
3
 72
15
 73
11
 74
0
 42
0.0000001
 43
0.0000001
 44
0.0000000001
 40
0.0
 40
0.0
 40
0.0
 40
0.0
 40
0.1113061894
 40
0.2313548959
 40
0.3590514665
 40
0.4916931891
 40
0.6256637182
 40
0.757115535
 40
0.8826356544
 40
1.0
 40
1.0
 40
1.0
 40
1.0
 10
-1.57241535
 20
-8.6987426009
 30
0.0
 10
-1.4536609596
 20
-8.8279844798
 30
0.0
 10
-1.1647172147
 20
-9.0595138842
 30
0.0
 10
-0.6443375883
 20
-9.294317495
 30
0.0
 10
-0.0531633356
 20
-9.4187401636
 30
0.0
 10
0.5723111058
 20
-9.4258334473
 30
0.0
 10
1.1939757209
 20
-9.3157697249
 30
0.0
 10
1.7737755918
 20
-9.0950047896
 30
0.0
 10
2.2759444083
 20
-8.7770006198
 30
0.0
 10
2.5483268319
 20
-8.5012187593
 30
0.0
 10
2.6592773315
 20
-8.3530947213
 30
0.0
  0
SPLINE
  5
31F
100
AcDbEntity
  8
0
100
AcDbSpline
 62
7
  6
CONTINUOUS
 70
0
 71
3
 72
9
 73
5
 74
0
 42
0.0000001
 43
0.0000001
 44
0.0000000001
 40
0.0
 40
0.0
 40
0.0
 40
0.0
 40
0.489758322
 40
1.0
 40
1.0
 40
1.0
 40
1.0
 10
14.5283514995
 20
-10.4753861937
 30
0.0
 10
14.549364261
 20
-10.6182225776
 30
0.0
 10
14.5453461109
 20
-10.9185207813
 30
0.0
 10
14.4509897868
 20
-11.2026152557
 30
0.0
 10
14.3854618695
 20
-11.3380029767
 30
0.0
  0
SPLINE
  5
320
100
AcDbEntity
  8
0
100
AcDbSpline
 62
7
  6
CONTINUOUS
 70
0
 71
3
 72
9
 73
5
 74
0
 42
0.0000001
 43
0.0000001
 44
0.0000000001
 40
0.0
 40
0.0
 40
0.0
 40
0.0
 40
0.4898554926
 40
1.0
 40
1.0
 40
1.0
 40
1.0
 10
9.5817065871
 20
-11.2037238279
 30
0.0
 10
9.6027234339
 20
-11.3465879813
 30
0.0
 10
9.6932044315
 20
-11.6329656044
 30
0.0
 10
9.8653910864
 20
-11.8778259429
 30
0.0
 10
9.9671398914
 20
-11.9885604318
 30
0.0
  0
SPLINE
  5
321
100
AcDbEntity
  8
0
100
AcDbSpline
 62
7
  6
CONTINUOUS
 70
0
 71
3
 72
15
 73
11
 74
0
 42
0.0000001
 43
0.0000001
 44
0.0000000001
 40
0.0
 40
0.0
 40
0.0
 40
0.0
 40
0.1113061894
 40
0.2313548959
 40
0.3590514665
 40
0.4916931891
 40
0.6256637182
 40
0.757115535
 40
0.8826356544
 40
1.0
 40
1.0
 40
1.0
 40
1.0
 10
9.9671398914
 20
-11.9885604318
 30
0.0
 10
10.0858942817
 20
-12.1178023108
 30
0.0
 10
10.3748380266
 20
-12.3493317151
 30
0.0
 10
10.8952176531
 20
-12.5841353259
 30
0.0
 10
11.4863919057
 20
-12.7085579945
 30
0.0
 10
12.1118663471
 20
-12.7156512782
 30
0.0
 10
12.7335309622
 20
-12.6055875559
 30
0.0
 10
13.3133308331
 20
-12.3848226205
 30
0.0
 10
13.8154996496
 20
-12.0668184507
 30
0.0
 10
14.0878820732
 20
-11.7910365903
 30
0.0
 10
14.1988325728
 20
-11.6429125522
 30
0.0
  0
SPLINE
  5
322
100
AcDbEntity
  8
RACCORDO
100
AcDbSpline
 62
7
  6
CONTINUOUS
 70
0
 71
3
 72
9
 73
5
 74
0
 42
0.0000001
 43
0.0000001
 44
0.0000000001
 40
0.0
 40
0.0
 40
0.0
 40
0.0
 40
0.2475698354
 40
1.0
 40
1.0
 40
1.0
 40
1.0
 10
29.1501795248
 20
-5.571710037
 30
0.0
 10
29.1826877954
 20
-5.5572999947
 30
0.0
 10
29.312580891
 20
-5.4959134854
 30
0.0
 10
29.4367209951
 20
-5.4226399034
 30
0.0
 10
29.5265675423
 20
-5.3625785719
 30
0.0
  0
SPLINE
  5
323
100
AcDbEntity
  8
RACCORDO
100
AcDbSpline
 62
7
  6
CONTINUOUS
 70
0
 71
3
 72
19
 73
15
 74
0
 42
0.0000001
 43
0.0000001
 44
0.0000000001
 40
0.0
 40
0.0
 40
0.0
 40
0.0
 40
0.0484876433
 40
0.0970791352
 40
0.1466320317
 40
0.1979586339
 40
0.2516791972
 40
0.3081831634
 40
0.3676465343
 40
0.4300666277
 40
0.5630456
 40
0.7047792168
 40
0.8517802271
 40
1.0
 40
1.0
 40
1.0
 40
1.0
 10
30.2915008624
 20
-5.3833046616
 30
0.0
 10
30.3894162631
 20
-5.3606576089
 30
0.0
 10
30.5816193864
 20
-5.2973049725
 30
0.0
 10
30.8528708939
 20
-5.1581806241
 30
0.0
 10
31.1087560301
 20
-4.9822638689
 30
0.0
 10
31.3525187096
 20
-4.7735255392
 30
0.0
 10
31.5870165231
 20
-4.5339958782
 30
0.0
 10
31.8139693394
 20
-4.2649525685
 30
0.0
 10
32.0341045224
 20
-3.9676101198
 30
0.0
 10
32.3245028203
 20
-3.5260760934
 30
0.0
 10
32.6642148122
 20
-2.9142343138
 30
0.0
 10
33.0254553864
 20
-2.1174075724
 30
0.0
 10
33.3386758544
 20
-1.2668427706
 30
0.0
 10
33.510004708
 20
-0.6788040602
 30
0.0
 10
33.5854235731
 20
-0.3809901991
 30
0.0
  0
SPLINE
  5
324
100
AcDbEntity
  8
RACCORDO
100
AcDbSpline
 62
7
  6
CONTINUOUS
 70
0
 71
3
 72
11
 73
7
 74
0
 42
0.0000001
 43
0.0000001
 44
0.0000000001
 40
0.0
 40
0.0
 40
0.0
 40
0.0
 40
0.3203573846
 40
0.5877426358
 40
0.8084549295
 40
1.0
 40
1.0
 40
1.0
 40
1.0
 10
33.5673841505
 20
0.0623791395
 30
0.0
 10
33.5664604873
 20
0.0686523757
 30
0.0
 10
33.5640893387
 20
0.0800921209
 30
0.0
 10
33.5580963526
 20
0.0950491723
 30
0.0
 10
33.5499467551
 20
0.1060288486
 30
0.0
 10
33.5426800144
 20
0.1103635218
 30
0.0
 10
33.5390557509
 20
0.1114763887
 30
0.0
  0
SPLINE
  5
325
100
AcDbEntity
  8
RACCORDO
100
AcDbSpline
 62
7
  6
CONTINUOUS
 70
0
 71
3
 72
9
 73
5
 74
0
 42
0.0000001
 43
0.0000001
 44
0.0000000001
 40
0.0
 40
0.0
 40
0.0
 40
0.0
 40
0.2641597191
 40
1.0
 40
1.0
 40
1.0
 40
1.0
 10
33.5927889499
 20
-0.1101624347
 30
0.0
 10
33.59627546
 20
-0.1338417374
 30
0.0
 10
33.6062593606
 20
-0.2237912208
 30
0.0
 10
33.6017914978
 20
-0.3163585717
 30
0.0
 10
33.5854236486
 20
-0.3809901616
 30
0.0
  0
LINE
  5
326
100
AcDbEntity
  8
0
100
AcDbLine
 62
7
  6
CONTINUOUS
 10
30.4449154451
 20
-0.1006338032
 11
31.3634659551
 21
-0.3094402263
  0
SPLINE
  5
327
100
AcDbEntity
  8
RACCORDO
100
AcDbSpline
 62
7
  6
CONTINUOUS
 70
0
 71
3
 72
10
 73
6
 74
0
 42
0.0000001
 43
0.0000001
 44
0.0000000001
 40
0.0
 40
0.0
 40
0.0
 40
0.0
 40
0.5256467292
 40
0.7665242315
 40
1.0
 40
1.0
 40
1.0
 40
1.0
 10
28.2486094066
 20
-7.5887615172
 30
0.0
 10
28.2743205648
 20
-7.5825361221
 30
0.0
 10
28.3112000682
 20
-7.568049577
 30
0.0
 10
28.3506936837
 20
-7.5363780827
 30
0.0
 10
28.3658475745
 20
-7.5176315416
 30
0.0
 10
28.3721712023
 20
-7.5077282048
 30
0.0
  0
SPLINE
  5
328
100
AcDbEntity
  8
0
100
AcDbSpline
 62
7
  6
CONTINUOUS
 70
0
 71
3
 72
11
 73
7
 74
0
 42
0.0000001
 43
0.0000001
 44
0.0000000001
 40
0.0
 40
0.0
 40
0.0
 40
0.0
 40
0.2277573934
 40
0.4752033451
 40
0.7352105716
 40
1.0
 40
1.0
 40
1.0
 40
1.0
 10
30.0202577166
 20
-3.3044495939
 30
0.0
 10
30.1703377509
 20
-3.0752859647
 30
0.0
 10
30.4581667594
 20
-2.5803847696
 30
0.0
 10
30.8388619089
 20
-1.7813924697
 30
0.0
 10
31.176964112
 20
-0.9155100359
 30
0.0
 10
31.3663402587
 20
-0.3128012907
 30
0.0
 10
31.4514451596
 20
-0.0059086385
 30
0.0
  0
SPLINE
  5
329
100
AcDbEntity
  8
RACCORDO
100
AcDbSpline
 62
7
  6
CONTINUOUS
 70
0
 71
3
 72
15
 73
11
 74
0
 42
0.0000001
 43
0.0000001
 44
0.0000000001
 40
0.0
 40
0.0
 40
0.0
 40
0.0
 40
0.1650472632
 40
0.3300159214
 40
0.4877964715
 40
0.631789078
 40
0.7565045634
 40
0.8583776905
 40
0.9373135216
 40
1.0
 40
1.0
 40
1.0
 40
1.0
 10
32.339028294
 20
0.2396346187
 30
0.0
 10
32.3420234187
 20
0.253273576
 30
0.0
 10
32.3491773557
 20
0.280301229
 30
0.0
 10
32.3629037249
 20
0.3192665361
 30
0.0
 10
32.3791010105
 20
0.3553391357
 30
0.0
 10
32.3969673342
 20
0.3867583559
 30
0.0
 10
32.4156204968
 20
0.4120938047
 30
0.0
 10
32.4342805706
 20
0.4301838538
 30
0.0
 10
32.4524609666
 20
0.4406689272
 30
0.0
 10
32.4651820049
 20
0.4412523682
 30
0.0
 10
32.4702520359
 20
0.4396956537
 30
0.0
  0
SPLINE
  5
32A
100
AcDbEntity
  8
RACCORDO
100
AcDbSpline
 62
7
  6
CONTINUOUS
 70
0
 71
3
 72
18
 73
14
 74
0
 42
0.0000001
 43
0.0000001
 44
0.0000000001
 40
0.0
 40
0.0
 40
0.0
 40
0.0
 40
0.0395733348
 40
0.0832071283
 40
0.1309283307
 40
0.1826477695
 40
0.2381866406
 40
0.2972952669
 40
0.4249203044
 40
0.56259659
 40
0.7068621153
 40
0.8539574439
 40
1.0
 40
1.0
 40
1.0
 40
1.0
 10
30.1765868115
 20
-3.8794989329
 30
0.0
 10
30.2297017074
 20
-3.8464695738
 30
0.0
 10
30.337018699
 20
-3.7699022924
 30
0.0
 10
30.493027247
 20
-3.6335714568
 30
0.0
 10
30.6507591637
 20
-3.4712259632
 30
0.0
 10
30.8090412663
 20
-3.2840707933
 30
0.0
 10
30.9667254393
 20
-3.0734767336
 30
0.0
 10
31.1800487976
 20
-2.7553123925
 30
0.0
 10
31.4351577537
 20
-2.3097508862
 30
0.0
 10
31.7133268818
 20
-1.7246647326
 30
0.0
 10
31.9624798653
 20
-1.0934503985
 30
0.0
 10
32.1750423383
 20
-0.4351598061
 30
0.0
 10
32.2895186226
 20
0.0141814677
 30
0.0
 10
32.339028294
 20
0.2396346187
 30
0.0
  0
SPLINE
  5
32B
100
AcDbEntity
  8
RACCORDO
100
AcDbSpline
 62
7
  6
CONTINUOUS
 70
0
 71
3
 72
9
 73
5
 74
0
 42
0.0000001
 43
0.0000001
 44
0.0000000001
 40
0.0
 40
0.0
 40
0.0
 40
0.0
 40
0.4765829087
 40
1.0
 40
1.0
 40
1.0
 40
1.0
 10
28.3721712023
 20
-7.5077282048
 30
0.0
 10
28.3838610134
 20
-7.4894209704
 30
0.0
 10
28.400324002
 20
-7.4454479144
 30
0.0
 10
28.3995802503
 20
-7.3989753483
 30
0.0
 10
28.3961052397
 20
-7.3753741465
 30
0.0
  0
SPLINE
  5
32C
100
AcDbEntity
  8
RACCORDO
100
AcDbSpline
 62
7
  6
CONTINUOUS
 70
0
 71
3
 72
11
 73
7
 74
0
 42
0.0000001
 43
0.0000001
 44
0.0000000001
 40
0.0
 40
0.0
 40
0.0
 40
0.0
 40
0.2600332678
 40
0.5056983004
 40
0.7491608053
 40
1.0
 40
1.0
 40
1.0
 40
1.0
 10
29.1459708832
 20
-5.5735391043
 30
0.0
 10
29.1732874722
 20
-5.5611224707
 30
0.0
 10
29.2237716594
 20
-5.5302754649
 30
0.0
 10
29.2833287787
 20
-5.4662075683
 30
0.0
 10
29.323644332
 20
-5.389960725
 30
0.0
 10
29.3381726311
 20
-5.3342972956
 30
0.0
 10
29.3428299152
 20
-5.3057292207
 30
0.0
  0
SPLINE
  5
32D
100
AcDbEntity
  8
RACCORDO
100
AcDbSpline
 62
7
  6
CONTINUOUS
 70
0
 71
3
 72
17
 73
13
 74
0
 42
0.0000001
 43
0.0000001
 44
0.0000000001
 40
0.0
 40
0.0
 40
0.0
 40
0.0
 40
0.0301582345
 40
0.0652277182
 40
0.1072495352
 40
0.1569286625
 40
0.2780318661
 40
0.4222381573
 40
0.5788287821
 40
0.7353314405
 40
0.879280465
 40
1.0
 40
1.0
 40
1.0
 40
1.0
 10
30.6841339141
 20
-4.3534535405
 30
0.0
 10
30.680545533
 20
-4.3528207239
 30
0.0
 10
30.672441832
 20
-4.353204981
 30
0.0
 10
30.6603050596
 20
-4.3581697622
 30
0.0
 10
30.6477288358
 20
-4.3670719427
 30
0.0
 10
30.6293605036
 20
-4.3851735846
 30
0.0
 10
30.6074001451
 20
-4.4165797636
 30
0.0
 10
30.5844143401
 20
-4.462191581
 30
0.0
 10
30.5653875698
 20
-4.5141899107
 30
0.0
 10
30.5520419722
 20
-4.5678973036
 30
0.0
 10
30.5455564032
 20
-4.6184664392
 30
0.0
 10
30.5461168703
 20
-4.6506784828
 30
0.0
 10
30.54824151
 20
-4.6651083814
 30
0.0
  0
SPLINE
  5
32E
100
AcDbEntity
  8
RACCORDO
100
AcDbSpline
 62
250
  6
CONTINUOUS
 70
0
 71
3
 72
20
 73
16
 74
0
 42
0.0000001
 43
0.0000001
 44
0.0000000001
 40
0.0
 40
0.0
 40
0.0
 40
0.0
 40
0.0309481042
 40
0.0650595154
 40
0.1036443581
 40
0.1474450597
 40
0.1967715968
 40
0.2516268938
 40
0.3117947819
 40
0.3768979666
 40
0.4464364095
 40
0.5198150962
 40
0.6753236201
 40
0.8375176261
 40
1.0
 40
1.0
 40
1.0
 40
1.0
 10
30.5736461459
 20
-4.837648845
 30
0.0
 10
30.6339599109
 20
-4.8453880872
 30
0.0
 10
30.763646192
 20
-4.8424877177
 30
0.0
 10
30.9612096869
 20
-4.787011508
 30
0.0
 10
31.1663736822
 20
-4.6829679195
 30
0.0
 10
31.377532474
 20
-4.5320633072
 30
0.0
 10
31.5929891481
 20
-4.3360282587
 30
0.0
 10
31.8106078219
 20
-4.0969266414
 30
0.0
 10
32.0280769157
 20
-3.8173275321
 30
0.0
 10
32.242980117
 20
-3.5002976399
 30
0.0
 10
32.452905969
 20
-3.1493687658
 30
0.0
 10
32.7282702617
 20
-2.6314625011
 30
0.0
 10
33.0415225535
 20
-1.9286438039
 30
0.0
 10
33.3561354984
 20
-1.0382636541
 30
0.0
 10
33.5222666843
 20
-0.4215272753
 30
0.0
 10
33.5927887119
 20
-0.1101608184
 30
0.0
  0
SPLINE
  5
32F
100
AcDbEntity
  8
RACCORDO
100
AcDbSpline
 62
7
  6
CONTINUOUS
 70
0
 71
3
 72
15
 73
11
 74
0
 42
0.0000001
 43
0.0000001
 44
0.0000000001
 40
0.0
 40
0.0
 40
0.0
 40
0.0
 40
0.0626849762
 40
0.1416191595
 40
0.2434918028
 40
0.3682073854
 40
0.5122004915
 40
0.6699819389
 40
0.8349515901
 40
1.0
 40
1.0
 40
1.0
 40
1.0
 10
33.5390557509
 20
0.1114763887
 30
0.0
 10
33.5339858619
 20
0.1130331495
 30
0.0
 10
33.5212650859
 20
0.1124498797
 30
0.0
 10
33.5030847772
 20
0.1019652449
 30
0.0
 10
33.4844246907
 20
0.0838753957
 30
0.0
 10
33.4657713718
 20
0.0585400187
 30
0.0
 10
33.4479048799
 20
0.0271207036
 30
0.0
 10
33.4317074507
 20
-0.0089520936
 30
0.0
 10
33.417980937
 20
-0.0479176639
 30
0.0
 10
33.4108269409
 20
-0.0749455164
 30
0.0
 10
33.4078317926
 20
-0.0885845812
 30
0.0
  0
SPLINE
  5
330
100
AcDbEntity
  8
RACCORDO
100
AcDbSpline
 62
7
  6
CONTINUOUS
 70
0
 71
3
 72
20
 73
16
 74
0
 42
0.0000001
 43
0.0000001
 44
0.0000000001
 40
0.0
 40
0.0
 40
0.0
 40
0.0
 40
0.1626357546
 40
0.3253795707
 40
0.4815466549
 40
0.5552080336
 40
0.6249552132
 40
0.6901665029
 40
0.7503213608
 40
0.8050306775
 40
0.854079016
 40
0.8974890167
 40
0.9356198053
 40
0.969306269
 40
1.0
 40
1.0
 40
1.0
 40
1.0
 10
33.4078317926
 20
-0.0885845812
 30
0.0
 10
33.3458203702
 20
-0.3709671983
 30
0.0
 10
33.1982189227
 20
-0.9309991079
 30
0.0
 10
32.9159442732
 20
-1.7399814327
 30
0.0
 10
32.63312913
 20
-2.379047723
 30
0.0
 10
32.3837415461
 20
-2.8498007216
 30
0.0
 10
32.1934556292
 20
-3.1683331719
 30
0.0
 10
31.9985665259
 20
-3.455513136
 30
0.0
 10
31.8013489055
 20
-3.7080145444
 30
0.0
 10
31.6040786114
 20
-3.922961433
 30
0.0
 10
31.4089237456
 20
-4.09795908
 30
0.0
 10
31.2178661283
 20
-4.2310957134
 30
0.0
 10
31.0324489398
 20
-4.3207520641
 30
0.0
 10
30.8541267257
 20
-4.3652437718
 30
0.0
 10
30.7378678179
 20
-4.3629295978
 30
0.0
 10
30.6841339141
 20
-4.3534535405
 30
0.0
  0
SPLINE
  5
331
100
AcDbEntity
  8
RACCORDO
100
AcDbSpline
 62
7
  6
CONTINUOUS
 70
0
 71
3
 72
13
 73
9
 74
0
 42
0.0000001
 43
0.0000001
 44
0.0000000001
 40
0.0
 40
0.0
 40
0.0
 40
0.0
 40
0.2508299208
 40
0.4981060791
 40
0.6224081417
 40
0.7475511908
 40
0.8735373318
 40
1.0
 40
1.0
 40
1.0
 40
1.0
 10
32.6305436362
 20
4.790786711
 30
0.0
 10
32.5787578001
 20
4.9156822764
 30
0.0
 10
32.4581322811
 20
5.1569793032
 30
0.0
 10
32.254302266
 20
5.4266808636
 30
0.0
 10
32.0588521638
 20
5.6105093817
 30
0.0
 10
31.8951924135
 20
5.7304918772
 30
0.0
 10
31.7162863769
 20
5.8287407114
 30
0.0
 10
31.5887817778
 20
5.877705098
 30
0.0
 10
31.5236174293
 20
5.8977164229
 30
0.0
  0
SPLINE
  5
332
100
AcDbEntity
  8
RACCORDO
100
AcDbSpline
 62
7
  6
CONTINUOUS
 70
0
 71
3
 72
20
 73
16
 74
0
 42
0.0000001
 43
0.0000001
 44
0.0000000001
 40
0.0
 40
0.0
 40
0.0
 40
0.0
 40
0.1557363816
 40
0.3043837839
 40
0.4427165281
 40
0.5073826871
 40
0.5689239852
 40
0.6274594164
 40
0.6833124012
 40
0.7370367107
 40
0.7894049939
 40
0.8413092538
 40
0.8935386564
 40
0.9464888108
 40
1.0
 40
1.0
 40
1.0
 40
1.0
 10
33.585423825
 20
-0.3809896272
 30
0.0
 10
33.6578682153
 20
-0.0949238189
 30
0.0
 10
33.7804664965
 20
0.4692569925
 30
0.0
 10
33.8975791315
 20
1.3006897118
 30
0.0
 10
33.9345937215
 20
1.9671003912
 30
0.0
 10
33.9224212105
 20
2.468454099
 30
0.0
 10
33.893053841
 20
2.8175208334
 30
0.0
 10
33.8422776859
 20
3.147299171
 30
0.0
 10
33.7683888228
 20
3.4575811477
 30
0.0
 10
33.6686146449
 20
3.7483717418
 30
0.0
 10
33.538775836
 20
4.0190352082
 30
0.0
 10
33.3735602755
 20
4.266694711
 30
0.0
 10
33.1681351485
 20
4.4843759998
 30
0.0
 10
32.9218994741
 20
4.6604247813
 30
0.0
 10
32.7349596559
 20
4.741157399
 30
0.0
 10
32.6380316613
 20
4.7709230471
 30
0.0
  0
SPLINE
  5
333
100
AcDbEntity
  8
0
100
AcDbSpline
 62
7
  6
CONTINUOUS
 70
0
 71
3
 72
11
 73
7
 74
0
 42
0.0000001
 43
0.0000001
 44
0.0000000001
 40
0.0
 40
0.0
 40
0.0
 40
0.0
 40
0.2663775638
 40
0.5250119076
 40
0.7710330949
 40
1.0
 40
1.0
 40
1.0
 40
1.0
 10
31.4514451596
 20
-0.0059086385
 30
0.0
 10
31.5187875985
 20
0.2369316618
 30
0.0
 10
31.6386596799
 20
0.7192358174
 30
0.0
 10
31.7746223271
 20
1.4362961628
 30
0.0
 10
31.8623438294
 20
2.125208686
 30
0.0
 10
31.8885505069
 20
2.5743076706
 30
0.0
 10
31.8920293439
 20
2.7908924114
 30
0.0
  0
SPLINE
  5
334
100
AcDbEntity
  8
0
100
AcDbSpline
 62
7
  6
CONTINUOUS
 70
0
 71
3
 72
14
 73
10
 74
0
 42
0.0000001
 43
0.0000001
 44
0.0000000001
 40
0.0
 40
0.0
 40
0.0
 40
0.0
 40
0.3026592302
 40
0.443102299
 40
0.574799398
 40
0.6968592648
 40
0.8086087259
 40
0.9096588134
 40
1.0
 40
1.0
 40
1.0
 40
1.0
 10
32.4416984766
 20
0.7769245578
 30
0.0
 10
32.4808879941
 20
1.0191033571
 30
0.0
 10
32.5244713549
 20
1.3762738913
 30
0.0
 10
32.5463745686
 20
1.8418449853
 30
0.0
 10
32.5438473522
 20
2.1615558633
 30
0.0
 10
32.5228575641
 20
2.4573052962
 30
0.0
 10
32.4836074354
 20
2.7261949124
 30
0.0
 10
32.4265007789
 20
2.9655476884
 30
0.0
 10
32.3739188385
 20
3.1120267281
 30
0.0
 10
32.3441539887
 20
3.1789332935
 30
0.0
  0
SPLINE
  5
335
100
AcDbEntity
  8
0
100
AcDbSpline
 62
7
  6
CONTINUOUS
 70
0
 71
3
 72
16
 73
12
 74
0
 42
0.0000001
 43
0.0000001
 44
0.0000000001
 40
0.0
 40
0.0
 40
0.0
 40
0.0
 40
0.1766823413
 40
0.3388645693
 40
0.48541744
 40
0.6157750065
 40
0.730164457
 40
0.8299574536
 40
0.9181532349
 40
0.9595079558
 40
1.0
 40
1.0
 40
1.0
 40
1.0
 10
31.40320552
 20
2.1445266469
 30
0.0
 10
31.4686856497
 20
2.2470579059
 30
0.0
 10
31.6000767159
 20
2.4401098582
 30
0.0
 10
31.8074068708
 20
2.7026815868
 30
0.0
 10
32.0145657957
 20
2.9235133811
 30
0.0
 10
32.2190481077
 20
3.0999131822
 30
0.0
 10
32.4187454042
 20
3.2297311105
 30
0.0
 10
32.6118218894
 20
3.3111974288
 30
0.0
 10
32.7697275092
 20
3.337143373
 30
0.0
 10
32.8869900627
 20
3.3298287278
 30
0.0
 10
32.9422846173
 20
3.3175723506
 30
0.0
 10
32.9689374566
 20
3.3093876649
 30
0.0
  0
SPLINE
  5
336
100
AcDbEntity
  8
0
100
AcDbSpline
 62
7
  6
CONTINUOUS
 70
0
 71
3
 72
19
 73
15
 74
0
 42
0.0000001
 43
0.0000001
 44
0.0000000001
 40
0.0
 40
0.0
 40
0.0
 40
0.0
 40
0.0356204708
 40
0.0725324549
 40
0.1118735525
 40
0.1545384522
 40
0.201164836
 40
0.2521635316
 40
0.3077615709
 40
0.3680418392
 40
0.5023844248
 40
0.654055938
 40
0.8208754621
 40
1.0
 40
1.0
 40
1.0
 40
1.0
 10
32.9689374566
 20
3.3093876649
 30
0.0
 10
33.0040040604
 20
3.2986192389
 30
0.0
 10
33.0732883592
 20
3.2690549207
 30
0.0
 10
33.1685215067
 20
3.2030142995
 30
0.0
 10
33.2553020632
 20
3.1157694926
 30
0.0
 10
33.3332634379
 20
3.0081215037
 30
0.0
 10
33.4022043883
 20
2.8807698615
 30
0.0
 10
33.461890389
 20
2.7344224316
 30
0.0
 10
33.5120931377
 20
2.5698538789
 30
0.0
 10
33.5680581246
 20
2.318109132
 30
0.0
 10
33.6098889489
 20
1.9630394539
 30
0.0
 10
33.618390279
 20
1.4962313247
 30
0.0
 10
33.5864557259
 20
0.9843034745
 30
0.0
 10
33.5399691389
 20
0.6308030919
 30
0.0
 10
33.5105019751
 20
0.4487053579
 30
0.0
  0
SPLINE
  5
337
100
AcDbEntity
  8
0
100
AcDbSpline
 62
7
  6
CONTINUOUS
 70
0
 71
3
 72
19
 73
15
 74
0
 42
0.0000001
 43
0.0000001
 44
0.0000000001
 40
0.0
 40
0.0
 40
0.0
 40
0.0
 40
0.0380490412
 40
0.0770161974
 40
0.1178502047
 40
0.1613548704
 40
0.2081641929
 40
0.2587481948
 40
0.3134340743
 40
0.3724309902
 40
0.5036844952
 40
0.6526475767
 40
0.8185411279
 40
1.0
 40
1.0
 40
1.0
 40
1.0
 10
30.7815920003
 20
6.1255852177
 30
0.0
 10
30.7447477677
 20
6.1368998964
 30
0.0
 10
30.6680076239
 20
6.1533135562
 30
0.0
 10
30.5482073988
 20
6.1580779391
 30
0.0
 10
30.4237067068
 20
6.1432818272
 30
0.0
 10
30.2949166193
 20
6.1091969493
 30
0.0
 10
30.1621022592
 20
6.0561291538
 30
0.0
 10
30.0255228781
 20
5.9843693875
 30
0.0
 10
29.8854410984
 20
5.8942236228
 30
0.0
 10
29.6873267968
 20
5.7445410004
 30
0.0
 10
29.434344645
 20
5.5108061235
 30
0.0
 10
29.1327592015
 20
5.1736404833
 30
0.0
 10
28.8263692775
 20
4.7745523038
 30
0.0
 10
28.6294909931
 20
4.4826771568
 30
0.0
 10
28.5305564768
 20
4.3277617563
 30
0.0
  0
SPLINE
  5
338
100
AcDbEntity
  8
0
100
AcDbSpline
 62
250
  6
CONTINUOUS
 70
0
 71
3
 72
9
 73
5
 74
0
 42
0.0000001
 43
0.0000001
 44
0.0000000001
 40
0.0
 40
0.0
 40
0.0
 40
0.0
 40
0.2543921924
 40
1.0
 40
1.0
 40
1.0
 40
1.0
 10
27.1270269999
 20
8.0133011068
 30
0.0
 10
27.2782880188
 20
8.2513700881
 30
0.0
 10
27.8699757523
 20
9.1890488193
 30
0.0
 10
28.4498451785
 20
10.1341966143
 30
0.0
 10
28.874797587
 20
10.843308422
 30
0.0
  0
SPLINE
  5
339
100
AcDbEntity
  8
RACCORDO
100
AcDbSpline
 62
250
  6
CONTINUOUS
 70
0
 71
3
 72
17
 73
13
 74
0
 42
0.0000001
 43
0.0000001
 44
0.0000000001
 40
0.0
 40
0.0
 40
0.0
 40
0.0
 40
0.040486642
 40
0.0818358318
 40
0.1700197306
 40
0.2183020413
 40
0.2699331498
 40
0.3843071994
 40
0.5146472755
 40
0.6611806587
 40
0.8233415979
 40
1.0
 40
1.0
 40
1.0
 40
1.0
 10
32.6380315756
 20
4.7709227679
 30
0.0
 10
32.6027165645
 20
4.7817676256
 30
0.0
 10
32.5294479973
 20
4.798007722
 30
0.0
 10
32.3740954422
 20
4.8076981211
 30
0.0
 10
32.2117225118
 20
4.7810528799
 30
0.0
 10
32.0494912937
 20
4.7245398839
 30
0.0
 10
31.872119557
 20
4.6414437057
 30
0.0
 10
31.6443973167
 20
4.4933285838
 30
0.0
 10
31.3734974121
 20
4.2596547003
 30
0.0
 10
31.0989989365
 20
3.9670339664
 30
0.0
 10
30.8242899113
 20
3.6191318545
 30
0.0
 10
30.6501956363
 20
3.3633362854
 30
0.0
 10
30.5634345441
 20
3.227482492
 30
0.0
  0
SPLINE
  5
33A
100
AcDbEntity
  8
0
100
AcDbSpline
 62
7
  6
CONTINUOUS
 70
0
 71
3
 72
15
 73
11
 74
0
 42
0.0000001
 43
0.0000001
 44
0.0000000001
 40
0.0
 40
0.0
 40
0.0
 40
0.0
 40
0.0990884776
 40
0.2033764133
 40
0.3147976794
 40
0.4345667179
 40
0.563225372
 40
0.7007429295
 40
0.8466225771
 40
1.0
 40
1.0
 40
1.0
 40
1.0
 10
-17.2216234899
 20
20.331488087
 30
0.0
 10
-17.1731059572
 20
20.3825934673
 30
0.0
 10
-17.062002938
 20
20.4770282955
 30
0.0
 10
-16.8656061641
 20
20.5869082078
 30
0.0
 10
-16.6396407329
 20
20.666599775
 30
0.0
 10
-16.3875899684
 20
20.7152845115
 30
0.0
 10
-16.1130191098
 20
20.7325916395
 30
0.0
 10
-15.8197906647
 20
20.7184280427
 30
0.0
 10
-15.5120690896
 20
20.6730888404
 30
0.0
 10
-15.3047755559
 20
20.6236280339
 30
0.0
 10
-15.1997555002
 20
20.5941602501
 30
0.0
  0
SPLINE
  5
33B
100
AcDbEntity
  8
0
100
AcDbSpline
 62
7
  6
CONTINUOUS
 70
0
 71
3
 72
9
 73
5
 74
0
 42
0.0000001
 43
0.0000001
 44
0.0000000001
 40
0.0
 40
0.0
 40
0.0
 40
0.0
 40
0.2519657378
 40
1.0
 40
1.0
 40
1.0
 40
1.0
 10
26.9558192705
 20
7.7445305657
 30
0.0
 10
23.439490377
 20
8.9008832928
 30
0.0
 10
9.4592774223
 20
13.4149019228
 30
0.0
 10
-4.6191431781
 20
17.6253254428
 30
0.0
 10
-15.1997555002
 20
20.5941602501
 30
0.0
  0
SPLINE
  5
33C
100
AcDbEntity
  8
0
100
AcDbSpline
 62
7
  6
CONTINUOUS
 70
0
 71
3
 72
15
 73
11
 74
0
 42
0.0000001
 43
0.0000001
 44
0.0000000001
 40
0.0
 40
0.0
 40
0.0
 40
0.0
 40
0.132921345
 40
0.269959805
 40
0.4077224155
 40
0.5427628067
 40
0.6718380513
 40
0.7921824644
 40
0.9018266376
 40
1.0
 40
1.0
 40
1.0
 40
1.0
 10
26.9558192705
 20
7.7445305657
 30
0.0
 10
27.0320849897
 20
7.7194504111
 30
0.0
 10
27.1839085819
 20
7.6587787075
 30
0.0
 10
27.4013806737
 20
7.5422617227
 30
0.0
 10
27.6061409254
 20
7.4022866172
 30
0.0
 10
27.7907606166
 20
7.2439122615
 30
0.0
 10
27.9486227564
 20
7.072830725
 30
0.0
 10
28.0741003054
 20
6.8950353592
 30
0.0
 10
28.1627087248
 20
6.716797638
 30
0.0
 10
28.1967641687
 20
6.5947763227
 30
0.0
 10
28.2054017292
 20
6.5361126717
 30
0.0
  0
SPLINE
  5
33D
100
AcDbEntity
  8
RACCORDO
100
AcDbSpline
 62
7
  6
CONTINUOUS
 70
0
 71
3
 72
12
 73
8
 74
0
 42
0.0000001
 43
0.0000001
 44
0.0000000001
 40
0.0
 40
0.0
 40
0.0
 40
0.0
 40
0.106684825
 40
0.2225407745
 40
0.4751177377
 40
0.7410859684
 40
1.0
 40
1.0
 40
1.0
 40
1.0
 10
29.9138266337
 20
3.5021290149
 30
0.0
 10
29.9004012581
 20
3.535665767
 30
0.0
 10
29.8663671148
 20
3.603285153
 30
0.0
 10
29.7749248007
 20
3.7360788489
 30
0.0
 10
29.6222720216
 20
3.8898465593
 30
0.0
 10
29.4035697373
 20
4.0386975216
 30
0.0
 10
29.2392259602
 20
4.1101380215
 30
0.0
 10
29.1554182172
 20
4.1358727695
 30
0.0
  0
SPLINE
  5
33E
100
AcDbEntity
  8
0
100
AcDbSpline
 62
250
  6
CONTINUOUS
 70
0
 71
3
 72
13
 73
9
 74
0
 42
0.0000001
 43
0.0000001
 44
0.0000000001
 40
0.0
 40
0.0
 40
0.0
 40
0.0
 40
0.1016635989
 40
0.2089213222
 40
0.3228136831
 40
0.4439279426
 40
0.7080439806
 40
1.0
 40
1.0
 40
1.0
 40
1.0
 10
-11.4012276234
 20
26.3469937172
 30
0.0
 10
-11.3516893762
 20
26.3740451121
 30
0.0
 10
-11.2449155947
 20
26.4208790455
 30
0.0
 10
-11.0711817952
 20
26.4671801805
 30
0.0
 10
-10.8821448985
 20
26.4910869102
 30
0.0
 10
-10.604508195
 20
26.493148768
 30
0.0
 10
-10.2304938443
 20
26.4361240834
 30
0.0
 10
-9.9356778952
 20
26.3405946388
 30
0.0
 10
-9.7850267992
 20
26.2807770016
 30
0.0
  0
SPLINE
  5
33F
100
AcDbEntity
  8
0
100
AcDbSpline
 62
250
  6
CONTINUOUS
 70
0
 71
3
 72
9
 73
5
 74
0
 42
0.0000001
 43
0.0000001
 44
0.0000000001
 40
0.0
 40
0.0
 40
0.0
 40
0.0
 40
0.2514628855
 40
1.0
 40
1.0
 40
1.0
 40
1.0
 10
17.7231363658
 20
14.4387301186
 30
0.0
 10
15.1632022421
 20
15.2478558676
 30
0.0
 10
4.9702904533
 20
18.42504691
 30
0.0
 10
-5.2734567385
 20
21.4393174023
 30
0.0
 10
-12.9676206379
 20
23.6000802275
 30
0.0
  0
SPLINE
  5
340
100
AcDbEntity
  8
0
100
AcDbSpline
 62
7
  6
CONTINUOUS
 70
0
 71
3
 72
9
 73
5
 74
0
 42
0.0000001
 43
0.0000001
 44
0.0000000001
 40
0.0
 40
0.0
 40
0.0
 40
0.0
 40
0.4984361089
 40
1.0
 40
1.0
 40
1.0
 40
1.0
 10
-18.4397612911
 20
18.7763763917
 30
0.0
 10
-18.2629060052
 20
19.0533014085
 30
0.0
 10
-17.8810265082
 20
19.5920617105
 30
0.0
 10
-17.4492730192
 20
20.0916960818
 30
0.0
 10
-17.2216234899
 20
20.331488087
 30
0.0
  0
SPLINE
  5
341
100
AcDbEntity
  8
0
100
AcDbSpline
 62
250
  6
CONTINUOUS
 70
0
 71
3
 72
15
 73
11
 74
0
 42
0.0000001
 43
0.0000001
 44
0.0000000001
 40
0.0
 40
0.0
 40
0.0
 40
0.0
 40
0.1025285782
 40
0.2082268806
 40
0.3195338048
 40
0.4382457949
 40
0.56546234
 40
0.7016350543
 40
0.8466632651
 40
1.0
 40
1.0
 40
1.0
 40
1.0
 10
-14.4017996658
 20
24.010831008
 30
0.0
 10
-14.3536518666
 20
24.0613343956
 30
0.0
 10
-14.2446824764
 20
24.1538048166
 30
0.0
 10
-14.0526824241
 20
24.2586864716
 30
0.0
 10
-13.8342469927
 20
24.3296219259
 30
0.0
 10
-13.5928974433
 20
24.3659531162
 30
0.0
 10
-13.3320905174
 20
24.3675752765
 30
0.0
 10
-13.0554546999
 20
24.3347079521
 30
0.0
 10
-12.766845199
 20
24.2679611881
 30
0.0
 10
-12.5740443965
 20
24.2031925581
 30
0.0
 10
-12.4766280777
 20
24.1657762264
 30
0.0
  0
SPLINE
  5
342
100
AcDbEntity
  8
0
100
AcDbSpline
 62
250
  6
CONTINUOUS
 70
0
 71
3
 72
15
 73
11
 74
0
 42
0.0000001
 43
0.0000001
 44
0.0000000001
 40
0.0
 40
0.0
 40
0.0
 40
0.0
 40
0.1004520796
 40
0.2046712555
 40
0.3151782986
 40
0.4337619234
 40
0.5614540003
 40
0.6986071901
 40
0.8450094186
 40
1.0
 40
1.0
 40
1.0
 40
1.0
 10
-14.8878380213
 20
23.4627100927
 30
0.0
 10
-14.8408241757
 20
23.5119183474
 30
0.0
 10
-14.7336915977
 20
23.6019141429
 30
0.0
 10
-14.5441373884
 20
23.7030912318
 30
0.0
 10
-14.3274712341
 20
23.7707927497
 30
0.0
 10
-14.0871748005
 20
23.8044595574
 30
0.0
 10
-13.8266627839
 20
23.8040366704
 30
0.0
 10
-13.5495551973
 20
23.7697604157
 30
0.0
 10
-13.2597267842
 20
23.7022474035
 30
0.0
 10
-13.0657609215
 20
23.6374299077
 30
0.0
 10
-12.9676206376
 20
23.6000802254
 30
0.0
  0
SPLINE
  5
343
100
AcDbEntity
  8
0
100
AcDbSpline
 62
250
  6
CONTINUOUS
 70
0
 71
3
 72
15
 73
11
 74
0
 42
0.0000001
 43
0.0000001
 44
0.0000000001
 40
0.0
 40
0.0
 40
0.0
 40
0.0
 40
0.1697916212
 40
0.3256772649
 40
0.4674381337
 40
0.5953515674
 40
0.7103080113
 40
0.8140410239
 40
0.9093198931
 40
1.0
 40
1.0
 40
1.0
 40
1.0
 10
30.4344359045
 20
13.831053835
 30
0.0
 10
30.4525182671
 20
13.8511855015
 30
0.0
 10
30.4885437164
 20
13.8886219744
 30
0.0
 10
30.544040434
 20
13.9384350878
 30
0.0
 10
30.5984702932
 20
13.9790848595
 30
0.0
 10
30.6514202889
 20
14.0102654725
 30
0.0
 10
30.7025511892
 20
14.0317073292
 30
0.0
 10
30.7515676495
 20
14.0431347628
 30
0.0
 10
30.7980878699
 20
14.0442424179
 30
0.0
 10
30.8273855767
 20
14.0378261185
 30
0.0
 10
30.8410008401
 20
14.0329800718
 30
0.0
  0
SPLINE
  5
344
100
AcDbEntity
  8
0
100
AcDbSpline
 62
250
  6
CONTINUOUS
 70
0
 71
3
 72
13
 73
9
 74
0
 42
0.0000001
 43
0.0000001
 44
0.0000000001
 40
0.0
 40
0.0
 40
0.0
 40
0.0
 40
0.3208451568
 40
0.5883431052
 40
0.703800285
 40
0.8089934354
 40
0.9065526309
 40
1.0
 40
1.0
 40
1.0
 40
1.0
 10
-9.7850263865
 20
26.2807774823
 30
0.0
 10
-9.7549018161
 20
26.3176549784
 30
0.0
 10
-9.6956017319
 20
26.3821480774
 30
0.0
 10
-9.6117102239
 20
26.4460152398
 30
0.0
 10
-9.5460332285
 20
26.4772075215
 30
0.0
 10
-9.5003844698
 20
26.4902854697
 30
0.0
 10
-9.4562687194
 20
26.4939659332
 30
0.0
 10
-9.4279091912
 20
26.4899453364
 30
0.0
 10
-9.4144997294
 20
26.4864055001
 30
0.0
  0
SPLINE
  5
345
100
AcDbEntity
  8
0
100
AcDbSpline
 62
250
  6
CONTINUOUS
 70
0
 71
3
 72
14
 73
10
 74
0
 42
0.0000001
 43
0.0000001
 44
0.0000000001
 40
0.0
 40
0.0
 40
0.0
 40
0.0
 40
0.2111799154
 40
0.3316953869
 40
0.4601143913
 40
0.594083738
 40
0.7307601818
 40
0.8670776518
 40
1.0
 40
1.0
 40
1.0
 40
1.0
 10
30.121275361
 20
9.6340109808
 30
0.0
 10
30.1073025253
 20
9.7615235305
 30
0.0
 10
30.0333889852
 20
9.9564557745
 30
0.0
 10
29.8763960633
 20
10.1877561719
 30
0.0
 10
29.7193562419
 20
10.3605726541
 30
0.0
 10
29.5342800257
 20
10.517969707
 30
0.0
 10
29.3276136771
 20
10.6547081955
 30
0.0
 10
29.1068707446
 20
10.7657741114
 30
0.0
 10
28.9524468725
 20
10.8211819369
 30
0.0
 10
28.8747975871
 20
10.8433084212
 30
0.0
  0
SPLINE
  5
346
100
AcDbEntity
  8
0
100
AcDbSpline
 62
250
  6
CONTINUOUS
 70
0
 71
3
 72
14
 73
10
 74
0
 42
0.0000001
 43
0.0000001
 44
0.0000000001
 40
0.0
 40
0.0
 40
0.0
 40
0.0
 40
0.1097455911
 40
0.2235988376
 40
0.3425543064
 40
0.4668521464
 40
0.7282940291
 40
0.8637690223
 40
1.0
 40
1.0
 40
1.0
 40
1.0
 10
31.6943059319
 20
12.8123116568
 30
0.0
 10
31.6878149898
 20
12.8758871621
 30
0.0
 10
31.659389717
 20
13.0042614067
 30
0.0
 10
31.5751549371
 20
13.1865375844
 30
0.0
 10
31.4518779525
 20
13.3556005917
 30
0.0
 10
31.2381846937
 20
13.5591482827
 30
0.0
 10
30.9682992921
 20
13.7104138619
 30
0.0
 10
30.6706242022
 20
13.8008168612
 30
0.0
 10
30.5135069315
 20
13.8246649004
 30
0.0
 10
30.4344359045
 20
13.831053835
 30
0.0
  0
SPLINE
  5
347
100
AcDbEntity
  8
0
100
AcDbSpline
 62
250
  6
CONTINUOUS
 70
0
 71
3
 72
14
 73
10
 74
0
 42
0.0000001
 43
0.0000001
 44
0.0000000001
 40
0.0
 40
0.0
 40
0.0
 40
0.0
 40
0.1057705624
 40
0.2194556509
 40
0.340801424
 40
0.4685849234
 40
0.6008879797
 40
0.7353550763
 40
1.0
 40
1.0
 40
1.0
 40
1.0
 10
31.1146875412
 20
11.2712451231
 30
0.0
 10
31.1107674156
 20
11.3361266558
 30
0.0
 10
31.0865984906
 20
11.4700564937
 30
0.0
 10
31.0092329551
 20
11.6658437317
 30
0.0
 10
30.8926996017
 20
11.8570860106
 30
0.0
 10
30.7412972491
 20
12.0370777138
 30
0.0
 10
30.5603304198
 20
12.1996775584
 30
0.0
 10
30.2902774433
 20
12.3842898454
 30
0.0
 10
30.0613633736
 20
12.4828545356
 30
0.0
 10
29.9042816143
 20
12.5249866056
 30
0.0
  0
SPLINE
  5
348
100
AcDbEntity
  8
0
100
AcDbSpline
 62
250
  6
CONTINUOUS
 70
0
 71
3
 72
9
 73
5
 74
0
 42
0.0000001
 43
0.0000001
 44
0.0000000001
 40
0.0
 40
0.0
 40
0.0
 40
0.0
 40
0.2571956408
 40
1.0
 40
1.0
 40
1.0
 40
1.0
 10
28.874797587
 20
10.843308422
 30
0.0
 10
28.96192729
 20
10.9881686975
 30
0.0
 10
29.3017394917
 20
11.5507692844
 30
0.0
 10
29.6458249072
 20
12.1107943782
 30
0.0
 10
29.9042816142
 20
12.5249866105
 30
0.0
  0
SPLINE
  5
349
100
AcDbEntity
  8
RACCORDO
100
AcDbSpline
 62
250
  6
CONTINUOUS
 70
0
 71
3
 72
32
 73
28
 74
0
 42
0.0000001
 43
0.0000001
 44
0.0000000001
 40
0.0
 40
0.0
 40
0.0
 40
0.0
 40
0.0956628069
 40
0.1871917094
 40
0.2730604127
 40
0.3519302353
 40
0.4227257763
 40
0.4548719898
 40
0.4847759992
 40
0.512436972
 40
0.5379055241
 40
0.5612972928
 40
0.5828095852
 40
0.6027388935
 40
0.6214927331
 40
0.6395839499
 40
0.6575959265
 40
0.6761211059
 40
0.6956956611
 40
0.716756525
 40
0.7396288401
 40
0.7645344846
 40
0.7916089537
 40
0.8209185811
 40
0.8524750066
 40
0.9221417598
 40
1.0
 40
1.0
 40
1.0
 40
1.0
 10
33.5927886257
 20
-0.1101602326
 30
0.0
 10
33.6385211315
 20
0.0917563713
 30
0.0
 10
33.7176257566
 20
0.489320384
 30
0.0
 10
33.7997067885
 20
1.0748800107
 30
0.0
 10
33.8417426321
 20
1.6283361465
 30
0.0
 10
33.8429530679
 20
2.1385637459
 30
0.0
 10
33.8090803695
 20
2.5313401886
 30
0.0
 10
33.7594201952
 20
2.8146905774
 30
0.0
 10
33.7133930377
 20
3.0034732564
 30
0.0
 10
33.6576191021
 20
3.1745095537
 30
0.0
 10
33.5923224927
 20
3.3269805344
 30
0.0
 10
33.5177448053
 20
3.4601546655
 30
0.0
 10
33.4341170031
 20
3.5733615403
 30
0.0
 10
33.3416723567
 20
3.6659362133
 30
0.0
 10
33.2407219427
 20
3.7371604575
 30
0.0
 10
33.1318071482
 20
3.7862941318
 30
0.0
 10
33.0157914872
 20
3.8127824024
 30
0.0
 10
32.8937062813
 20
3.8164828982
 30
0.0
 10
32.7664720467
 20
3.7976383765
 30
0.0
 10
32.6347949819
 20
3.756656615
 30
0.0
 10
32.4992546763
 20
3.6939597697
 30
0.0
 10
32.3604121636
 20
3.6099679505
 30
0.0
 10
32.2188659066
 20
3.5051349797
 30
0.0
 10
32.0752499436
 20
3.379991177
 30
0.0
 10
31.8752893275
 20
3.1801882161
 30
0.0
 10
31.6265514031
 20
2.881954438
 30
0.0
 10
31.4449613309
 20
2.618898181
 30
0.0
 10
31.3542689659
 20
2.4768886522
 30
0.0
  0
SPLINE
  5
34A
100
AcDbEntity
  8
0
100
AcDbSpline
 62
250
  6
CONTINUOUS
 70
0
 71
3
 72
10
 73
6
 74
0
 42
0.0000001
 43
0.0000001
 44
0.0000000001
 40
0.0
 40
0.0
 40
0.0
 40
0.0
 40
0.5174665758
 40
0.7625395224
 40
1.0
 40
1.0
 40
1.0
 40
1.0
 10
31.114687559
 20
11.2712451189
 30
0.0
 10
31.2616816542
 20
11.516037912
 30
0.0
 10
31.4500061367
 20
11.8957908028
 30
0.0
 10
31.6195036518
 20
12.4216369873
 30
0.0
 10
31.6745107693
 20
12.6828055419
 30
0.0
 10
31.6943073844
 20
12.8123311461
 30
0.0
  0
SPLINE
  5
34B
100
AcDbEntity
  8
0
100
AcDbSpline
 62
250
  6
CONTINUOUS
 70
0
 71
3
 72
9
 73
5
 74
0
 42
0.0000001
 43
0.0000001
 44
0.0000000001
 40
0.0
 40
0.0
 40
0.0
 40
0.0
 40
0.4939903903
 40
1.0
 40
1.0
 40
1.0
 40
1.0
 10
31.6943073844
 20
12.8123311461
 30
0.0
 10
31.9155164819
 20
11.4646280359
 30
0.0
 10
32.3495486387
 20
8.7341684452
 30
0.0
 10
32.7657832844
 20
6.0009659471
 30
0.0
 10
32.9732876355
 20
4.6174743504
 30
0.0
  0
SPLINE
  5
34C
100
AcDbEntity
  8
0
100
AcDbSpline
 62
250
  6
CONTINUOUS
 70
0
 71
3
 72
9
 73
5
 74
0
 42
0.0000001
 43
0.0000001
 44
0.0000000001
 40
0.0
 40
0.0
 40
0.0
 40
0.0
 40
0.2547388436
 40
1.0
 40
1.0
 40
1.0
 40
1.0
 10
28.2054017236
 20
6.5361127097
 30
0.0
 10
28.3718779551
 20
6.7967874785
 30
0.0
 10
29.0217955166
 20
7.822381663
 30
0.0
 10
29.6570801857
 20
8.8572664271
 30
0.0
 10
30.1212753615
 20
9.6340109806
 30
0.0
  0
SPLINE
  5
34D
100
AcDbEntity
  8
0
100
AcDbSpline
 62
250
  6
CONTINUOUS
 70
0
 71
3
 72
9
 73
5
 74
0
 42
0.0000001
 43
0.0000001
 44
0.0000000001
 40
0.0
 40
0.0
 40
0.0
 40
0.0
 40
0.2571369252
 40
1.0
 40
1.0
 40
1.0
 40
1.0
 10
30.1212753615
 20
9.6340109806
 30
0.0
 10
30.2054795603
 20
9.7749110882
 30
0.0
 10
30.5338179168
 20
10.3223476527
 30
0.0
 10
30.8657198358
 20
10.8676509757
 30
0.0
 10
31.114687559
 20
11.2712451189
 30
0.0
  0
SPLINE
  5
34E
100
AcDbEntity
  8
RACCORDO
100
AcDbSpline
 62
250
  6
CONTINUOUS
 70
0
 71
3
 72
17
 73
13
 74
0
 42
0.0000001
 43
0.0000001
 44
0.0000000001
 40
0.0
 40
0.0
 40
0.0
 40
0.0
 40
0.1766584108
 40
0.3388193505
 40
0.4853527336
 40
0.6156928102
 40
0.7300668579
 40
0.7816979638
 40
0.8299802735
 40
0.9181641698
 40
0.9595133591
 40
1.0
 40
1.0
 40
1.0
 40
1.0
 10
30.0560231045
 20
3.3833036293
 30
0.0
 10
30.142784201
 20
3.5191574295
 30
0.0
 10
30.3168784814
 20
3.7749530052
 30
0.0
 10
30.5915875136
 20
4.1228551224
 30
0.0
 10
30.8660859916
 20
4.4154758551
 30
0.0
 10
31.1369858958
 20
4.649149737
 30
0.0
 10
31.3647081352
 20
4.7972648541
 30
0.0
 10
31.5420798692
 20
4.8803610261
 30
0.0
 10
31.704311083
 20
4.936874018
 30
0.0
 10
31.8666840089
 20
4.96351926
 30
0.0
 10
32.0220365612
 20
4.9538288621
 30
0.0
 10
32.0953051252
 20
4.9375887604
 30
0.0
 10
32.1306201363
 20
4.926743906
 30
0.0
  0
SPLINE
  5
34F
100
AcDbEntity
  8
RACCORDO
100
AcDbSpline
 62
7
  6
CONTINUOUS
 70
0
 71
3
 72
8
 73
4
 74
0
 42
0.0000001
 43
0.0000001
 44
0.0000000001
 40
0.0
 40
0.0
 40
0.0
 40
0.0
 40
1.0
 40
1.0
 40
1.0
 40
1.0
 10
31.4514451596
 20
-0.0059086385
 30
0.0
 10
31.7134691177
 20
-0.0642194571
 30
0.0
 10
31.9755219241
 20
-0.1224008221
 30
0.0
 10
32.2376059239
 20
-0.1804411807
 30
0.0
  0
SPLINE
  5
350
100
AcDbEntity
  8
0
100
AcDbSpline
 62
250
  6
CONTINUOUS
 70
0
 71
3
 72
11
 73
7
 74
0
 42
0.0000001
 43
0.0000001
 44
0.0000000001
 40
0.0
 40
0.0
 40
0.0
 40
0.0
 40
0.2549761507
 40
0.5060396933
 40
0.7540843174
 40
1.0
 40
1.0
 40
1.0
 40
1.0
 10
-9.7850263732
 20
26.2807773202
 30
0.0
 10
-10.0420822435
 20
26.14159246
 30
0.0
 10
-10.5411999513
 20
25.8442937717
 30
0.0
 10
-11.244415823
 20
25.3396269401
 30
0.0
 10
-11.893166055
 20
24.7824192952
 30
0.0
 10
-12.2890675399
 20
24.3762666544
 30
0.0
 10
-12.4766280777
 20
24.1657762265
 30
0.0
  0
SPLINE
  5
351
100
AcDbEntity
  8
RACCORDO
100
AcDbSpline
 62
250
  6
CONTINUOUS
 70
0
 71
3
 72
21
 73
17
 74
0
 42
0.0000001
 43
0.0000001
 44
0.0000000001
 40
0.0
 40
0.0
 40
0.0
 40
0.0
 40
0.1862314465
 40
0.3531555201
 40
0.4288931018
 40
0.4993300478
 40
0.5644855576
 40
0.6245024423
 40
0.6796793175
 40
0.7305093438
 40
0.7777193456
 40
0.8222929994
 40
0.865450542
 40
0.9085613165
 40
0.9529998919
 40
1.0
 40
1.0
 40
1.0
 40
1.0
 10
29.9138266337
 20
3.5021290149
 30
0.0
 10
30.0217119857
 20
3.6710599718
 30
0.0
 10
30.2377650167
 20
3.984320175
 30
0.0
 10
30.5333816491
 20
4.3400402208
 30
0.0
 10
30.7710637162
 20
4.5792220162
 30
0.0
 10
30.9419431744
 20
4.7296394821
 30
0.0
 10
31.1104493865
 20
4.8562634927
 30
0.0
 10
31.2758411894
 20
4.9584714759
 30
0.0
 10
31.4374169636
 20
5.0357319969
 30
0.0
 10
31.5945203735
 20
5.0875589476
 30
0.0
 10
31.7464849806
 20
5.1134707518
 30
0.0
 10
31.8925221113
 20
5.1129948821
 30
0.0
 10
32.0316067295
 20
5.0858156344
 30
0.0
 10
32.1625651986
 20
5.0320093069
 30
0.0
 10
32.2843217765
 20
4.9521723418
 30
0.0
 10
32.3564327434
 20
4.8844592374
 30
0.0
 10
32.3906899109
 20
4.847237809
 30
0.0
  0
SPLINE
  5
352
100
AcDbEntity
  8
RACCORDO
100
AcDbSpline
 62
7
  6
CONTINUOUS
 70
0
 71
3
 72
11
 73
7
 74
0
 42
0.0000001
 43
0.0000001
 44
0.0000000001
 40
0.0
 40
0.0
 40
0.0
 40
0.0
 40
0.2590518256
 40
0.525162852
 40
0.7778747038
 40
1.0
 40
1.0
 40
1.0
 40
1.0
 10
30.0560231045
 20
3.3833036293
 30
0.0
 10
30.0403096891
 20
3.388129067
 30
0.0
 10
30.009502037
 20
3.4015185871
 30
0.0
 10
29.9684711634
 20
3.4294551014
 30
0.0
 10
29.9351469289
 20
3.4630183663
 30
0.0
 10
29.9190648063
 20
3.4890439957
 30
0.0
 10
29.9138266337
 20
3.5021290149
 30
0.0
  0
SPLINE
  5
353
100
AcDbEntity
  8
0
100
AcDbSpline
 62
250
  6
CONTINUOUS
 70
0
 71
3
 72
11
 73
7
 74
0
 42
0.0000001
 43
0.0000001
 44
0.0000000001
 40
0.0
 40
0.0
 40
0.0
 40
0.0
 40
0.249862962
 40
0.4998049696
 40
0.749838997
 40
1.0
 40
1.0
 40
1.0
 40
1.0
 10
-9.7850263732
 20
26.2807773202
 30
0.0
 10
-6.3929826616
 20
25.387863879
 30
0.0
 10
0.3731506703
 20
23.5285850559
 30
0.0
 10
10.4621472701
 20
20.5233441889
 30
0.0
 10
20.4888474544
 20
17.3026662204
 30
0.0
 10
27.1273043188
 20
15.0123901044
 30
0.0
 10
30.4344408668
 20
13.831089383
 30
0.0
  0
SPLINE
  5
354
100
AcDbEntity
  8
0
100
AcDbSpline
 62
250
  6
CONTINUOUS
 70
0
 71
3
 72
9
 73
5
 74
0
 42
0.0000001
 43
0.0000001
 44
0.0000000001
 40
0.0
 40
0.0
 40
0.0
 40
0.0
 40
0.5198240097
 40
1.0
 40
1.0
 40
1.0
 40
1.0
 10
29.9042816142
 20
12.5249866105
 30
0.0
 10
30.034149943
 20
12.7331091605
 30
0.0
 10
30.2544166683
 20
13.1532576848
 30
0.0
 10
30.3930828961
 20
13.6082886281
 30
0.0
 10
30.4344408668
 20
13.831089383
 30
0.0
  0
SPLINE
  5
355
100
AcDbEntity
  8
RACCORDO
100
AcDbSpline
 62
250
  6
CONTINUOUS
 70
0
 71
3
 72
18
 73
14
 74
0
 42
0.0000001
 43
0.0000001
 44
0.0000000001
 40
0.0
 40
0.0
 40
0.0
 40
0.0
 40
0.0404787226
 40
0.0818198306
 40
0.1248230574
 40
0.1701799902
 40
0.2184528378
 40
0.2700738308
 40
0.3844255217
 40
0.5147401345
 40
0.6612448371
 40
0.8233747516
 40
1.0
 40
1.0
 40
1.0
 40
1.0
 10
31.5236174243
 20
5.8977164068
 30
0.0
 10
31.4833049892
 20
5.910095866
 30
0.0
 10
31.3996773341
 20
5.9286397947
 30
0.0
 10
31.2694146894
 20
5.9367353582
 30
0.0
 10
31.1343264736
 20
5.9253319576
 30
0.0
 10
30.9949630254
 20
5.8945976469
 30
0.0
 10
30.8517534144
 20
5.8447688026
 30
0.0
 10
30.6493478278
 20
5.7499151997
 30
0.0
 10
30.3893639319
 20
5.5808395324
 30
0.0
 10
30.0801435795
 20
5.3140983801
 30
0.0
 10
29.7667938992
 20
4.9800699073
 30
0.0
 10
29.4532194201
 20
4.5829289649
 30
0.0
 10
29.2544633998
 20
4.2909506166
 30
0.0
 10
29.1554240043
 20
4.1358709923
 30
0.0
  0
SPLINE
  5
356
100
AcDbEntity
  8
RACCORDO
100
AcDbSpline
 62
7
  6
CONTINUOUS
 70
0
 71
3
 72
9
 73
5
 74
0
 42
0.0000001
 43
0.0000001
 44
0.0000000001
 40
0.0
 40
0.0
 40
0.0
 40
0.0
 40
0.2393193844
 40
1.0
 40
1.0
 40
1.0
 40
1.0
 10
33.5861910335
 20
-0.3779183327
 30
0.0
 10
33.5906413713
 20
-0.3598564967
 30
0.0
 10
33.6049534032
 20
-0.2833217099
 30
0.0
 10
33.6037776295
 20
-0.2044906154
 30
0.0
 10
33.5973561596
 20
-0.1457135001
 30
0.0
  0
SPLINE
  5
357
100
AcDbEntity
  8
0
100
AcDbSpline
 62
7
  6
CONTINUOUS
 70
0
 71
3
 72
11
 73
7
 74
0
 42
0.0000001
 43
0.0000001
 44
0.0000000001
 40
0.0
 40
0.0
 40
0.0
 40
0.0
 40
0.2293533592
 40
0.4680487728
 40
0.7233802391
 40
1.0
 40
1.0
 40
1.0
 40
1.0
 10
16.1003694476
 20
-2.6131088359
 30
0.0
 10
16.0642100009
 20
-2.6697296578
 30
0.0
 10
15.9750763925
 20
-2.7761582764
 30
0.0
 10
15.8020158647
 20
-2.9015769769
 30
0.0
 10
15.5935347166
 20
-2.9920045849
 30
0.0
 10
15.4407132029
 20
-3.0266427051
 30
0.0
 10
15.3605653909
 20
-3.038548335
 30
0.0
  0
SPLINE
  5
358
100
AcDbEntity
  8
0
100
AcDbSpline
 62
7
  6
CONTINUOUS
 70
0
 71
3
 72
14
 73
10
 74
0
 42
0.0000001
 43
0.0000001
 44
0.0000000001
 40
0.0
 40
0.0
 40
0.0
 40
0.0
 40
0.1033219367
 40
0.2094642861
 40
0.3209704029
 40
0.4397281181
 40
0.5668845119
 40
0.7028905998
 40
1.0
 40
1.0
 40
1.0
 40
1.0
 10
15.7239049422
 20
-2.3774678833
 30
0.0
 10
15.7481857196
 20
-2.3394488683
 30
0.0
 10
15.7892141951
 20
-2.2568021402
 30
0.0
 10
15.824259726
 20
-2.120181051
 30
0.0
 10
15.8328959287
 20
-1.9727324626
 30
0.0
 10
15.8152889647
 20
-1.8170173028
 30
0.0
 10
15.7719971805
 20
-1.6554122217
 30
0.0
 10
15.678417497
 20
-1.4288584704
 30
0.0
 10
15.5760172043
 20
-1.2677432208
 30
0.0
 10
15.4973038284
 20
-1.1646344024
 30
0.0
  0
SPLINE
  5
359
100
AcDbEntity
  8
0
100
AcDbSpline
 62
7
  6
CONTINUOUS
 70
0
 71
3
 72
13
 73
9
 74
0
 42
0.0000001
 43
0.0000001
 44
0.0000000001
 40
0.0
 40
0.0
 40
0.0
 40
0.0
 40
0.1106258636
 40
0.2229805644
 40
0.3385863777
 40
0.4587401599
 40
0.7160448792
 40
1.0
 40
1.0
 40
1.0
 40
1.0
 10
16.7278061244
 20
-3.0051760128
 30
0.0
 10
16.6988152713
 20
-3.0505716377
 30
0.0
 10
16.6332040028
 20
-3.1377005983
 30
0.0
 10
16.5148608901
 20
-3.253296307
 30
0.0
 10
16.3773398542
 20
-3.3533446086
 30
0.0
 10
16.1654152708
 20
-3.4674712164
 30
0.0
 10
15.8553447
 20
-3.5649654001
 30
0.0
 10
15.5915939093
 20
-3.5919698788
 30
0.0
 10
15.4533751272
 20
-3.5951817254
 30
0.0
  0
SPLINE
  5
35A
100
AcDbEntity
  8
0
100
AcDbSpline
 62
7
  6
CONTINUOUS
 70
0
 71
3
 72
11
 73
7
 74
0
 42
0.0000001
 43
0.0000001
 44
0.0000000001
 40
0.0
 40
0.0
 40
0.0
 40
0.0
 40
0.2374453465
 40
0.480171201
 40
0.7330704011
 40
1.0
 40
1.0
 40
1.0
 40
1.0
 10
16.324089391
 20
-2.7530003274
 30
0.0
 10
16.3545386216
 20
-2.7053217247
 30
0.0
 10
16.4069067295
 20
-2.6026805367
 30
0.0
 10
16.4558536455
 20
-2.4340428262
 30
0.0
 10
16.4751588429
 20
-2.2525426201
 30
0.0
 10
16.4684516841
 20
-2.1283284813
 30
0.0
 10
16.4606682557
 20
-2.065209735
 30
0.0
  0
SPLINE
  5
35B
100
AcDbEntity
  8
RACCORDO
100
AcDbSpline
 62
7
  6
CONTINUOUS
 70
0
 71
3
 72
9
 73
5
 74
0
 42
0.0000001
 43
0.0000001
 44
0.0000000001
 40
0.0
 40
0.0
 40
0.0
 40
0.0
 40
0.5108512616
 40
1.0
 40
1.0
 40
1.0
 40
1.0
 10
24.6321281576
 20
-11.688022062
 30
0.0
 10
24.99391636
 20
-11.4491907643
 30
0.0
 10
25.6686647271
 20
-10.928225645
 30
0.0
 10
26.2488354138
 20
-10.3020891772
 30
0.0
 10
26.5011762948
 20
-9.9725037144
 30
0.0
  0
SPLINE
  5
35C
100
AcDbEntity
  8
RACCORDO
100
AcDbSpline
 62
7
  6
CONTINUOUS
 70
0
 71
3
 72
9
 73
5
 74
0
 42
0.0000001
 43
0.0000001
 44
0.0000000001
 40
0.0
 40
0.0
 40
0.0
 40
0.0
 40
0.4996218005
 40
1.0
 40
1.0
 40
1.0
 40
1.0
 10
24.6321281576
 20
-11.688022062
 30
0.0
 10
24.4544707315
 20
-11.8053010483
 30
0.0
 10
24.0420562456
 20
-11.9595405541
 30
0.0
 10
23.6023899311
 20
-11.9397142434
 30
0.0
 10
23.3968065001
 20
-11.8832404289
 30
0.0
  0
SPLINE
  5
35D
100
AcDbEntity
  8
RACCORDO
100
AcDbSpline
 62
7
  6
CONTINUOUS
 70
0
 71
3
 72
9
 73
5
 74
0
 42
0.0000001
 43
0.0000001
 44
0.0000000001
 40
0.0
 40
0.0
 40
0.0
 40
0.0
 40
0.2484981357
 40
1.0
 40
1.0
 40
1.0
 40
1.0
 10
-22.1153668685
 20
2.0406804401
 30
0.0
 10
-18.3805487285
 20
0.7773702068
 30
0.0
 10
-3.3135730958
 20
-4.1952197214
 30
0.0
 10
11.8993283698
 20
-8.724880611
 30
0.0
 10
23.3968065001
 20
-11.8832404289
 30
0.0
  0
SPLINE
  5
35E
100
AcDbEntity
  8
RACCORDO
100
AcDbSpline
 62
7
  6
CONTINUOUS
 70
0
 71
3
 72
13
 73
9
 74
0
 42
0.0000001
 43
0.0000001
 44
0.0000000001
 40
0.0
 40
0.0
 40
0.0
 40
0.0
 40
0.1230660271
 40
0.2462802671
 40
0.3698150211
 40
0.4938959508
 40
0.7442402654
 40
1.0
 40
1.0
 40
1.0
 40
1.0
 10
-22.861383439
 20
2.8710314653
 30
0.0
 10
-22.854372465
 20
2.8234150888
 30
0.0
 10
-22.8329141127
 20
2.7290520446
 30
0.0
 10
-22.7794158489
 20
2.5941079398
 30
0.0
 10
-22.7060635759
 20
2.4683588544
 30
0.0
 10
-22.5842330962
 20
2.3156693449
 30
0.0
 10
-22.3913900551
 20
2.1572655161
 30
0.0
 10
-22.210117964
 20
2.0727302011
 30
0.0
 10
-22.1153668685
 20
2.0406804401
 30
0.0
  0
SPLINE
  5
35F
100
AcDbEntity
  8
RACCORDO
100
AcDbSpline
 62
7
  6
CONTINUOUS
 70
0
 71
3
 72
11
 73
7
 74
0
 42
0.0000001
 43
0.0000001
 44
0.0000000001
 40
0.0
 40
0.0
 40
0.0
 40
0.0
 40
0.2528463032
 40
0.5037826566
 40
0.752340905
 40
1.0
 40
1.0
 40
1.0
 40
1.0
 10
27.9715132684
 20
-5.6691567946
 30
0.0
 10
28.0672055411
 20
-5.6985429666
 30
0.0
 10
28.2643643095
 20
-5.7378637682
 30
0.0
 10
28.5639396139
 20
-5.7378481364
 30
0.0
 10
28.856301296
 20
-5.6843575073
 30
0.0
 10
29.0422552538
 20
-5.6184964962
 30
0.0
 10
29.1322455965
 20
-5.5795688061
 30
0.0
  0
SPLINE
  5
360
100
AcDbEntity
  8
RACCORDO
100
AcDbSpline
 62
7
  6
CONTINUOUS
 70
0
 71
3
 72
11
 73
7
 74
0
 42
0.0000001
 43
0.0000001
 44
0.0000000001
 40
0.0
 40
0.0
 40
0.0
 40
0.0
 40
0.2525624618
 40
0.5039346722
 40
0.753210618
 40
1.0
 40
1.0
 40
1.0
 40
1.0
 10
29.5262945714
 20
-5.3620475086
 30
0.0
 10
29.5885707682
 20
-5.3811719253
 30
0.0
 10
29.7156939686
 20
-5.410617831
 30
0.0
 10
29.9097903697
 20
-5.4279225543
 30
0.0
 10
30.1029215799
 20
-5.4193089466
 30
0.0
 10
30.2293973983
 20
-5.3976718258
 30
0.0
 10
30.2914174031
 20
-5.3833267071
 30
0.0
  0
SPLINE
  5
361
100
AcDbEntity
  8
SUPERFICI
100
AcDbSpline
 62
7
  6
CONTINUOUS
 70
0
 71
3
 72
11
 73
7
 74
0
 42
0.0000001
 43
0.0000001
 44
0.0000000001
 40
0.0
 40
0.0
 40
0.0
 40
0.0
 40
0.2493329156
 40
0.4991367016
 40
0.7493850536
 40
1.0
 40
1.0
 40
1.0
 40
1.0
 10
-23.0257249934
 20
5.5777244163
 30
0.0
 10
-23.0058540199
 20
6.2230368254
 30
0.0
 10
-22.9095747066
 20
7.513892143
 30
0.0
 10
-22.5915906343
 20
9.4307443346
 30
0.0
 10
-22.0978204243
 20
11.3135361031
 30
0.0
 10
-21.6519231489
 20
12.5338292172
 30
0.0
 10
-21.4005295289
 20
13.1320947983
 30
0.0
  0
SPLINE
  5
362
100
AcDbEntity
  8
RACCORDO
100
AcDbSpline
 62
7
  6
CONTINUOUS
 70
0
 71
3
 72
9
 73
5
 74
0
 42
0.0000001
 43
0.0000001
 44
0.0000000001
 40
0.0
 40
0.0
 40
0.0
 40
0.0
 40
0.4984361089
 40
1.0
 40
1.0
 40
1.0
 40
1.0
 10
-18.4397612911
 20
18.7763763917
 30
0.0
 10
-18.2629060052
 20
19.0533014085
 30
0.0
 10
-17.8810265082
 20
19.5920617105
 30
0.0
 10
-17.4492730192
 20
20.0916960818
 30
0.0
 10
-17.2216234899
 20
20.331488087
 30
0.0
  0
SPLINE
  5
363
100
AcDbEntity
  8
RACCORDO
100
AcDbSpline
 62
7
  6
CONTINUOUS
 70
0
 71
3
 72
15
 73
11
 74
0
 42
0.0000001
 43
0.0000001
 44
0.0000000001
 40
0.0
 40
0.0
 40
0.0
 40
0.0
 40
0.1319417795
 40
0.2685407993
 40
0.4062986511
 40
0.5416267154
 40
0.6711249643
 40
0.7918751551
 40
0.9017811208
 40
1.0
 40
1.0
 40
1.0
 40
1.0
 10
30.5634345441
 20
3.227482492
 30
0.0
 10
30.6112773822
 20
3.2127904199
 30
0.0
 10
30.7067808381
 20
3.17652074
 30
0.0
 10
30.843903071
 20
3.1055150578
 30
0.0
 10
30.9734828979
 20
3.019156304
 30
0.0
 10
31.0906340364
 20
2.9206876121
 30
0.0
 10
31.1909925018
 20
2.8137882718
 30
0.0
 10
31.2708409864
 20
2.702351484
 30
0.0
 10
31.3272179681
 20
2.5904624908
 30
0.0
 10
31.3488418177
 20
2.5137481718
 30
0.0
 10
31.3542688622
 20
2.4768893566
 30
0.0
  0
SPLINE
  5
364
100
AcDbEntity
  8
RACCORDO
100
AcDbSpline
 62
7
  6
CONTINUOUS
 70
0
 71
3
 72
15
 73
11
 74
0
 42
0.0000001
 43
0.0000001
 44
0.0000000001
 40
0.0
 40
0.0
 40
0.0
 40
0.0
 40
0.132921345
 40
0.269959805
 40
0.4077224155
 40
0.5427628067
 40
0.6718380513
 40
0.7921824644
 40
0.9018266376
 40
1.0
 40
1.0
 40
1.0
 40
1.0
 10
26.9558192705
 20
7.7445305657
 30
0.0
 10
27.0320849897
 20
7.7194504111
 30
0.0
 10
27.1839085819
 20
7.6587787075
 30
0.0
 10
27.4013806737
 20
7.5422617227
 30
0.0
 10
27.6061409254
 20
7.4022866172
 30
0.0
 10
27.7907606166
 20
7.2439122615
 30
0.0
 10
27.9486227564
 20
7.072830725
 30
0.0
 10
28.0741003054
 20
6.8950353592
 30
0.0
 10
28.1627087248
 20
6.716797638
 30
0.0
 10
28.1967641687
 20
6.5947763227
 30
0.0
 10
28.2054017292
 20
6.5361126717
 30
0.0
  0
SPLINE
  5
365
100
AcDbEntity
  8
RACCORDO
100
AcDbSpline
 62
7
  6
CONTINUOUS
 70
0
 71
3
 72
9
 73
5
 74
0
 42
0.0000001
 43
0.0000001
 44
0.0000000001
 40
0.0
 40
0.0
 40
0.0
 40
0.0
 40
0.2519657378
 40
1.0
 40
1.0
 40
1.0
 40
1.0
 10
26.9558192705
 20
7.7445305657
 30
0.0
 10
23.439490377
 20
8.9008832928
 30
0.0
 10
9.4592774223
 20
13.4149019228
 30
0.0
 10
-4.6191431781
 20
17.6253254428
 30
0.0
 10
-15.1997555002
 20
20.5941602501
 30
0.0
  0
SPLINE
  5
366
100
AcDbEntity
  8
RACCORDO
100
AcDbSpline
 62
7
  6
CONTINUOUS
 70
0
 71
3
 72
15
 73
11
 74
0
 42
0.0000001
 43
0.0000001
 44
0.0000000001
 40
0.0
 40
0.0
 40
0.0
 40
0.0
 40
0.0990884776
 40
0.2033764133
 40
0.3147976794
 40
0.4345667179
 40
0.563225372
 40
0.7007429295
 40
0.8466225771
 40
1.0
 40
1.0
 40
1.0
 40
1.0
 10
-17.2216234899
 20
20.331488087
 30
0.0
 10
-17.1731059572
 20
20.3825934673
 30
0.0
 10
-17.062002938
 20
20.4770282955
 30
0.0
 10
-16.8656061641
 20
20.5869082078
 30
0.0
 10
-16.6396407329
 20
20.666599775
 30
0.0
 10
-16.3875899684
 20
20.7152845115
 30
0.0
 10
-16.1130191098
 20
20.7325916395
 30
0.0
 10
-15.8197906647
 20
20.7184280427
 30
0.0
 10
-15.5120690896
 20
20.6730888404
 30
0.0
 10
-15.3047755559
 20
20.6236280339
 30
0.0
 10
-15.1997555002
 20
20.5941602501
 30
0.0
  0
SPLINE
  5
367
100
AcDbEntity
  8
RACCORDO
100
AcDbSpline
 62
7
  6
CONTINUOUS
 70
0
 71
3
 72
14
 73
10
 74
0
 42
0.0000001
 43
0.0000001
 44
0.0000000001
 40
0.0
 40
0.0
 40
0.0
 40
0.0
 40
0.2642260292
 40
0.3877851928
 40
0.5067962555
 40
0.623425307
 40
0.7411794526
 40
0.8648854906
 40
1.0
 40
1.0
 40
1.0
 40
1.0
 10
30.5736463094
 20
-4.8376499556
 30
0.0
 10
30.5823965373
 20
-4.8970788089
 30
0.0
 10
30.5876324321
 20
-4.9861310085
 30
0.0
 10
30.5705929806
 20
-5.1004653049
 30
0.0
 10
30.5452607717
 20
-5.178578389
 30
0.0
 10
30.5055591402
 20
-5.2491323807
 30
0.0
 10
30.4499379438
 20
-5.3096708192
 30
0.0
 10
30.3775532289
 20
-5.3569765637
 30
0.0
 10
30.3213348491
 20
-5.3764109805
 30
0.0
 10
30.2914062516
 20
-5.3833263852
 30
0.0
  0
SPLINE
  5
368
100
AcDbEntity
  8
RACCORDO
100
AcDbSpline
 62
7
  6
CONTINUOUS
 70
0
 71
3
 72
11
 73
7
 74
0
 42
0.0000001
 43
0.0000001
 44
0.0000000001
 40
0.0
 40
0.0
 40
0.0
 40
0.0
 40
0.2511549466
 40
0.4949176107
 40
0.7405870912
 40
1.0
 40
1.0
 40
1.0
 40
1.0
 10
29.342829923
 20
-5.305729756
 30
0.0
 10
29.3382282954
 20
-5.3339562322
 30
0.0
 10
29.3239383242
 20
-5.3889569343
 30
0.0
 10
29.28446859
 20
-5.4644143294
 30
0.0
 10
29.2262714176
 20
-5.5280775082
 30
0.0
 10
29.1768866988
 20
-5.5590519584
 30
0.0
 10
29.1501489459
 20
-5.5716086838
 30
0.0
  0
SPLINE
  5
369
100
AcDbEntity
  8
RACCORDO
100
AcDbSpline
 62
7
  6
CONTINUOUS
 70
0
 71
3
 72
10
 73
6
 74
0
 42
0.0000001
 43
0.0000001
 44
0.0000000001
 40
0.0
 40
0.0
 40
0.0
 40
0.0
 40
0.5222331836
 40
0.7639506307
 40
1.0
 40
1.0
 40
1.0
 40
1.0
 10
28.3385613269
 20
-7.3640496631
 30
0.0
 10
28.3421284709
 20
-7.3882766063
 30
0.0
 10
28.3423535358
 20
-7.4250722992
 30
0.0
 10
28.3287300638
 20
-7.4702193924
 30
0.0
 10
28.3178326498
 20
-7.4900282766
 30
0.0
 10
28.3114922996
 20
-7.499101025
 30
0.0
  0
LINE
  5
36A
100
AcDbEntity
  8
0
100
AcDbLine
 62
7
  6
CONTINUOUS
 10
13.4819677856
 20
-0.1127883312
 11
13.8450625822
 21
-0.2166227287
  0
LINE
  5
36B
100
AcDbEntity
  8
0
100
AcDbLine
 62
7
  6
CONTINUOUS
 10
13.4819677856
 20
-0.1127883312
 11
13.4428296821
 21
0.2143181556
  0
LINE
  5
36C
100
AcDbEntity
  8
0
100
AcDbLine
 62
7
  6
CONTINUOUS
 10
14.2983707108
 20
-0.3460053499
 11
14.6615350166
 21
-0.4494589972
  0
LINE
  5
36D
100
AcDbEntity
  8
0
100
AcDbLine
 62
7
  6
CONTINUOUS
 10
15.3605653909
 20
-3.038548335
 11
15.1310712742
 21
-2.7185048198
  0
SPLINE
  5
36E
100
AcDbEntity
  8
0
100
AcDbSpline
 62
7
  6
CONTINUOUS
 70
0
 71
3
 72
25
 73
21
 74
0
 42
0.0000001
 43
0.0000001
 44
0.0000000001
 40
0.0
 40
0.0
 40
0.0
 40
0.0
 40
0.014895487
 40
0.0307039827
 40
0.0476928543
 40
0.0660602126
 40
0.1073804691
 40
0.1552280245
 40
0.2095512259
 40
0.2699316508
 40
0.3356962301
 40
0.4059877299
 40
0.4798139892
 40
0.556086484
 40
0.6336535872
 40
0.7113312727
 40
0.787932782
 40
0.8622981853
 40
0.9333247404
 40
1.0
 40
1.0
 40
1.0
 40
1.0
 10
30.4913593346
 20
-4.278782163
 30
0.0
 10
30.4626378585
 20
-4.2607757334
 30
0.0
 10
30.4066410821
 20
-4.2183471966
 30
0.0
 10
30.3311558194
 20
-4.1398543003
 30
0.0
 10
30.2623841504
 20
-4.0454994677
 30
0.0
 10
30.1766040639
 20
-3.8931673908
 30
0.0
 10
30.0899996094
 20
-3.6628136522
 30
0.0
 10
30.019701117
 20
-3.3431689943
 30
0.0
 10
29.9800306613
 20
-2.9747595497
 30
0.0
 10
29.9716829746
 20
-2.5637227178
 30
0.0
 10
29.9948477529
 20
-2.1169397081
 30
0.0
 10
30.0491926743
 20
-1.6421179501
 30
0.0
 10
30.1338209911
 20
-1.1475050226
 30
0.0
 10
30.2472894527
 20
-0.6417401545
 30
0.0
 10
30.3876322907
 20
-0.1336756078
 30
0.0
 10
30.5523990464
 20
0.3677894828
 30
0.0
 10
30.7386978093
 20
0.8538712438
 30
0.0
 10
30.943256568
 20
1.3160787353
 30
0.0
 10
31.1624589733
 20
1.7463216149
 30
0.0
 10
31.3215334743
 20
2.0166414746
 30
0.0
 10
31.40320552
 20
2.1445266469
 30
0.0
  0
SPLINE
  5
36F
100
AcDbEntity
  8
0
100
AcDbSpline
 62
7
  6
CONTINUOUS
 70
0
 71
3
 72
8
 73
4
 74
0
 42
0.0000001
 43
0.0000001
 44
0.0000000001
 40
0.0
 40
0.0
 40
0.0
 40
0.0
 40
1.0
 40
1.0
 40
1.0
 40
1.0
 10
13.7926909088
 20
-2.7310194656
 30
0.0
 10
14.1950563977
 20
-2.8461917272
 30
0.0
 10
14.5975089087
 20
-2.9610604004
 30
0.0
 10
15.000047649
 20
-3.0756256614
 30
0.0
  0
LINE
  5
370
100
AcDbEntity
  8
0
100
AcDbLine
 62
7
  6
CONTINUOUS
 10
13.7926909088
 20
-2.7310194656
 11
13.7517570097
 21
-2.4088483771
  0
LINE
  5
371
100
AcDbEntity
  8
0
100
AcDbLine
 62
7
  6
CONTINUOUS
 10
13.5524827684
 20
-2.2679354689
 11
13.3902377209
 21
-2.4761663574
  0
SPLINE
  5
372
100
AcDbEntity
  8
0
100
AcDbSpline
 62
7
  6
CONTINUOUS
 70
0
 71
3
 72
17
 73
13
 74
0
 42
0.0000001
 43
0.0000001
 44
0.0000000001
 40
0.0
 40
0.0
 40
0.0
 40
0.0
 40
0.1545381967
 40
0.3043991931
 40
0.4464534062
 40
0.5782533586
 40
0.6983942783
 40
0.8069492553
 40
0.8575383972
 40
0.9061692706
 40
0.9534274565
 40
1.0
 40
1.0
 40
1.0
 40
1.0
 10
13.3902377209
 20
-2.4761663574
 30
0.0
 10
13.2744376588
 20
-2.3979453707
 30
0.0
 10
13.0547138527
 20
-2.2309871435
 30
0.0
 10
12.7631211115
 20
-1.9504234624
 30
0.0
 10
12.5219994968
 20
-1.6511801418
 30
0.0
 10
12.3397988197
 20
-1.3433186987
 30
0.0
 10
12.2229645644
 20
-1.0370793801
 30
0.0
 10
12.183349544
 20
-0.7850529524
 30
0.0
 10
12.1909823831
 20
-0.5967976453
 30
0.0
 10
12.214868238
 20
-0.4660254252
 30
0.0
 10
12.256901213
 20
-0.3437390912
 30
0.0
 10
12.296926647
 20
-0.2684473215
 30
0.0
 10
12.3195940195
 20
-0.232954128
 30
0.0
  0
SPLINE
  5
373
100
AcDbEntity
  8
0
100
AcDbSpline
 62
7
  6
CONTINUOUS
 70
0
 71
3
 72
11
 73
7
 74
0
 42
0.0000001
 43
0.0000001
 44
0.0000000001
 40
0.0
 40
0.0
 40
0.0
 40
0.0
 40
0.2487767312
 40
0.5012170741
 40
0.7530388031
 40
1.0
 40
1.0
 40
1.0
 40
1.0
 10
16.0669369163
 20
-4.3615378533
 30
0.0
 10
15.962647899
 20
-4.2678653847
 30
0.0
 10
15.7428574553
 20
-4.089662633
 30
0.0
 10
15.3888513103
 20
-3.8546257686
 30
0.0
 10
15.0152364021
 20
-3.6543536568
 30
0.0
 10
14.7554118541
 20
-3.545772134
 30
0.0
 10
14.6244106361
 20
-3.4988291693
 30
0.0
  0
SPLINE
  5
374
100
AcDbEntity
  8
0
100
AcDbSpline
 62
7
  6
CONTINUOUS
 70
0
 71
3
 72
20
 73
16
 74
0
 42
0.0000001
 43
0.0000001
 44
0.0000000001
 40
0.0
 40
0.0
 40
0.0
 40
0.0
 40
0.1401858261
 40
0.2863733596
 40
0.432255045
 40
0.5031609225
 40
0.5717074757
 40
0.6372816692
 40
0.6994013934
 40
0.7577561033
 40
0.8122532074
 40
0.863069126
 40
0.9106959162
 40
0.955963012
 40
1.0
 40
1.0
 40
1.0
 40
1.0
 10
14.6244106361
 20
-3.4988291693
 30
0.0
 10
14.3851300829
 20
-3.441074393
 30
0.0
 10
13.9066880184
 20
-3.2771599454
 30
0.0
 10
13.2339800215
 20
-2.9199785371
 30
0.0
 10
12.7204972279
 20
-2.5375178042
 30
0.0
 10
12.357710348
 20
-2.1912572555
 30
0.0
 10
12.1192544231
 20
-1.9208904311
 30
0.0
 10
11.9159619559
 20
-1.6420027602
 30
0.0
 10
11.7512376444
 20
-1.3591489137
 30
0.0
 10
11.6278808694
 20
-1.0769266077
 30
0.0
 10
11.5480749203
 20
-0.7998541806
 30
0.0
 10
11.5134190723
 20
-0.5323664113
 30
0.0
 10
11.5250091993
 20
-0.2788143956
 30
0.0
 10
11.5832193032
 20
-0.0438449479
 30
0.0
 10
11.6532074088
 20
0.0981245901
 30
0.0
 10
11.694826761
 20
0.1632928337
 30
0.0
  0
LINE
  5
375
100
AcDbEntity
  8
0
100
AcDbLine
 62
7
  6
CONTINUOUS
 10
16.2583627063
 20
-4.1871112243
 11
16.0669369163
 21
-4.3615378533
  0
SPLINE
  5
376
100
AcDbEntity
  8
0
100
AcDbSpline
 62
7
  6
CONTINUOUS
 70
0
 71
3
 72
24
 73
20
 74
0
 42
0.0000001
 43
0.0000001
 44
0.0000000001
 40
0.0
 40
0.0
 40
0.0
 40
0.0
 40
0.0536242166
 40
0.1122590179
 40
0.1757644461
 40
0.2435420968
 40
0.314661862
 40
0.3879680468
 40
0.462170699
 40
0.5359285948
 40
0.6079289393
 40
0.6769680803
 40
0.7420379195
 40
0.8024239834
 40
0.8578217311
 40
0.9084719105
 40
0.9552889967
 40
0.9777947482
 40
1.0
 40
1.0
 40
1.0
 40
1.0
 10
16.4606682557
 20
-2.065209735
 30
0.0
 10
16.4483218615
 20
-1.9650881847
 30
0.0
 10
16.3995488444
 20
-1.7580205207
 30
0.0
 10
16.2688682805
 20
-1.4529209894
 30
0.0
 10
16.0814780213
 20
-1.1474154823
 30
0.0
 10
15.8425725566
 20
-0.8497861237
 30
0.0
 10
15.5586738814
 20
-0.5680229798
 30
0.0
 10
15.2375611254
 20
-0.3098850788
 30
0.0
 10
14.8880690196
 20
-0.082511189
 30
0.0
 10
14.5198346138
 20
0.1077916539
 30
0.0
 10
14.1430031803
 20
0.2557553995
 30
0.0
 10
13.7679112144
 20
0.3572990341
 30
0.0
 10
13.4047511507
 20
0.4096055548
 30
0.0
 10
13.0632631725
 20
0.4111385753
 30
0.0
 10
12.7524439201
 20
0.3614264881
 30
0.0
 10
12.4806887806
 20
0.2610883949
 30
0.0
 10
12.2907596987
 20
0.1342638273
 30
0.0
 10
12.1695906234
 20
0.011278378
 30
0.0
 10
12.119222996
 20
-0.0565019048
 30
0.0
 10
12.0967390079
 20
-0.0917082167
 30
0.0
  0
SPLINE
  5
377
100
AcDbEntity
  8
0
100
AcDbSpline
 62
7
  6
CONTINUOUS
 70
0
 71
3
 72
9
 73
5
 74
0
 42
0.0000001
 43
0.0000001
 44
0.0000000001
 40
0.0
 40
0.0
 40
0.0
 40
0.0
 40
0.250696843
 40
1.0
 40
1.0
 40
1.0
 40
1.0
 10
9.4714730912
 20
-4.5693806822
 30
0.0
 10
9.4355246411
 20
-4.6774748279
 30
0.0
 10
9.2922323198
 20
-5.10868341
 30
0.0
 10
9.1493482824
 20
-5.54002767
 30
0.0
 10
9.0425180816
 20
-5.8633122922
 30
0.0
  0
LINE
  5
378
100
AcDbEntity
  8
0
100
AcDbLine
 62
7
  6
CONTINUOUS
 10
8.8503264017
 20
-6.4456521421
 11
9.4245452351
 21
-6.6142145786
  0
LINE
  5
379
100
AcDbEntity
  8
0
100
AcDbLine
 62
7
  6
CONTINUOUS
 10
10.7300269925
 20
-6.9957800935
 11
11.3050180273
 21
-7.1630933522
  0
LINE
  5
37A
100
AcDbEntity
  8
0
100
AcDbLine
 62
7
  6
CONTINUOUS
 10
13.0000169216
 20
-7.6537086696
 11
13.5759507965
 21
-7.8195189029
  0
LINE
  5
37B
100
AcDbEntity
  8
0
100
AcDbLine
 62
7
  6
CONTINUOUS
 10
11.8802380488
 20
-7.330027908
 11
12.4557150631
 21
-7.4965867455
  0
LINE
  5
37C
100
AcDbEntity
  8
0
100
AcDbLine
 62
7
  6
CONTINUOUS
 10
14.1207069155
 20
-7.9759494179
 11
14.6971280317
 21
-8.1410299449
  0
SPLINE
  5
37D
100
AcDbEntity
  8
0
100
AcDbSpline
 62
7
  6
CONTINUOUS
 70
0
 71
3
 72
8
 73
4
 74
0
 42
0.0000001
 43
0.0000001
 44
0.0000000001
 40
0.0
 40
0.0
 40
0.0
 40
0.0
 40
1.0
 40
1.0
 40
1.0
 40
1.0
 10
15.780473639
 20
-8.0463975199
 30
0.0
 10
16.0842953485
 20
-8.1328210736
 30
0.0
 10
16.3881662531
 20
-8.2190718682
 30
0.0
 10
16.6920860132
 20
-8.3051499793
 30
0.0
  0
LINE
  5
37E
100
AcDbEntity
  8
0
100
AcDbLine
 62
7
  6
CONTINUOUS
 10
15.0815411934
 20
-8.2508718367
 11
15.6583660146
 21
-8.4153136833
  0
LINE
  5
37F
100
AcDbEntity
  8
0
100
AcDbLine
 62
7
  6
CONTINUOUS
 10
16.9344255761
 20
-8.7775111295
 11
17.5120384563
 21
-8.9407454365
  0
LINE
  5
380
100
AcDbEntity
  8
0
100
AcDbLine
 62
7
  6
CONTINUOUS
 10
16.6920860132
 20
-8.3051499793
 11
16.9344255761
 21
-8.7775111295
  0
SPLINE
  5
381
100
AcDbEntity
  8
0
100
AcDbSpline
 62
7
  6
CONTINUOUS
 70
0
 71
3
 72
16
 73
12
 74
0
 42
0.0000001
 43
0.0000001
 44
0.0000000001
 40
0.0
 40
0.0
 40
0.0
 40
0.0
 40
0.1436720319
 40
0.2919081651
 40
0.4385229839
 40
0.5775377534
 40
0.7040508084
 40
0.8152825614
 40
0.9119246742
 40
0.9565395925
 40
1.0
 40
1.0
 40
1.0
 40
1.0
 10
18.9248521862
 20
-7.6588000743
 30
0.0
 10
18.9554252214
 20
-7.6673598454
 30
0.0
 10
19.0161334026
 20
-7.690088944
 30
0.0
 10
19.1011362921
 20
-7.7372820538
 30
0.0
 10
19.177606781
 20
-7.795710179
 30
0.0
 10
19.240860443
 20
-7.8618045433
 30
0.0
 10
19.2870730632
 20
-7.9317202578
 30
0.0
 10
19.3134787533
 20
-8.0015370905
 30
0.0
 10
19.3168954733
 20
-8.0585200155
 30
0.0
 10
19.3069612665
 20
-8.0983910181
 30
0.0
 10
19.2982646491
 20
-8.1160064599
 30
0.0
 10
19.2930954433
 20
-8.1241005426
 30
0.0
  0
LINE
  5
382
100
AcDbEntity
  8
0
100
AcDbLine
 62
7
  6
CONTINUOUS
 10
18.2212926245
 20
-7.4614873154
 11
18.9248521862
 21
-7.6588000743
  0
SPLINE
  5
383
100
AcDbEntity
  8
0
100
AcDbSpline
 62
7
  6
CONTINUOUS
 70
0
 71
3
 72
11
 73
7
 74
0
 42
0.0000001
 43
0.0000001
 44
0.0000000001
 40
0.0
 40
0.0
 40
0.0
 40
0.0
 40
0.2853630092
 40
0.543421909
 40
0.778606328
 40
1.0
 40
1.0
 40
1.0
 40
1.0
 10
19.4705964434
 20
-8.6462822355
 30
0.0
 10
19.5150102365
 20
-8.64475249
 30
0.0
 10
19.5996285691
 20
-8.6352732025
 30
0.0
 10
19.7160262883
 20
-8.598020385
 30
0.0
 10
19.8118117509
 20
-8.5388920083
 30
0.0
 10
19.859871104
 20
-8.48474882
 30
0.0
 10
19.8784283106
 20
-8.455690829
 30
0.0
  0
LINE
  5
384
100
AcDbEntity
  8
0
100
AcDbLine
 62
7
  6
CONTINUOUS
 10
19.5596889375
 20
-9.5157823005
 11
20.2115299579
 21
-9.6976550452
  0
LINE
  5
385
100
AcDbEntity
  8
0
100
AcDbLine
 62
7
  6
CONTINUOUS
 10
18.3576778061
 20
-8.3840366484
 11
18.8623520725
 21
-8.5256393807
  0
LINE
  5
386
100
AcDbEntity
  8
0
100
AcDbLine
 62
7
  6
CONTINUOUS
 10
17.8972400753
 20
-9.0493461882
 11
18.4752567961
 21
-9.2119416026
  0
SPLINE
  5
387
100
AcDbEntity
  8
0
100
AcDbSpline
 62
7
  6
CONTINUOUS
 70
0
 71
3
 72
8
 73
4
 74
0
 42
0.0000001
 43
0.0000001
 44
0.0000000001
 40
0.0
 40
0.0
 40
0.0
 40
0.0
 40
1.0
 40
1.0
 40
1.0
 40
1.0
 10
13.5383786943
 20
-5.7237740746
 30
0.0
 10
13.8287667748
 20
-5.8071667005
 30
0.0
 10
14.1192003529
 20
-5.8904010578
 30
0.0
 10
14.4096791298
 20
-5.9734772127
 30
0.0
  0
SPLINE
  5
388
100
AcDbEntity
  8
RACCORDO
100
AcDbSpline
 62
250
  6
CONTINUOUS
 70
0
 71
3
 72
9
 73
5
 74
0
 42
0.0000001
 43
0.0000001
 44
0.0000000001
 40
0.0
 40
0.0
 40
0.0
 40
0.0
 40
0.4914862041
 40
1.0
 40
1.0
 40
1.0
 40
1.0
 10
23.5828936978
 20
2.626718775
 30
0.0
 10
23.4055935684
 20
2.3541721165
 30
0.0
 10
23.0090410385
 20
1.822354215
 30
0.0
 10
22.5536677814
 20
1.3403192292
 30
0.0
 10
22.3095601936
 20
1.108844506
 30
0.0
  0
SPLINE
  5
389
100
AcDbEntity
  8
0
100
AcDbSpline
 62
7
  6
CONTINUOUS
 70
0
 71
3
 72
9
 73
5
 74
0
 42
0.0000001
 43
0.0000001
 44
0.0000000001
 40
0.0
 40
0.0
 40
0.0
 40
0.0
 40
0.5043496763
 40
1.0
 40
1.0
 40
1.0
 40
1.0
 10
15.4533751272
 20
-3.5951817254
 30
0.0
 10
15.5993792722
 20
-3.6788121366
 30
0.0
 10
15.8797106066
 20
-3.8611404521
 30
0.0
 10
16.1375853464
 20
-4.0741694414
 30
0.0
 10
16.2583627063
 20
-4.1871112243
 30
0.0
  0
SPLINE
  5
38A
100
AcDbEntity
  8
0
100
AcDbSpline
 62
7
  6
CONTINUOUS
 70
0
 71
3
 72
8
 73
4
 74
0
 42
0.0000001
 43
0.0000001
 44
0.0000000001
 40
0.0
 40
0.0
 40
0.0
 40
0.0
 40
1.0
 40
1.0
 40
1.0
 40
1.0
 10
11.5927869145
 20
-5.1624786714
 30
0.0
 10
11.8827613801
 20
-5.2465182831
 30
0.0
 10
12.1727817541
 20
-5.3303996515
 30
0.0
 10
12.4628477368
 20
-5.4141228426
 30
0.0
  0
SPLINE
  5
38B
100
AcDbEntity
  8
0
100
AcDbSpline
 62
7
  6
CONTINUOUS
 70
0
 71
3
 72
24
 73
20
 74
0
 42
0.0000001
 43
0.0000001
 44
0.0000000001
 40
0.0
 40
0.0
 40
0.0
 40
0.0
 40
0.0536487408
 40
0.1122855009
 40
0.1757879949
 40
0.2435714931
 40
0.3147141819
 40
0.38806306
 40
0.462325636
 40
0.536153624
 40
0.6082236348
 40
0.6773192186
 40
0.742419066
 40
0.8027974851
 40
0.8581438826
 40
0.908702028
 40
0.9554021346
 40
0.9778488381
 40
1.0
 40
1.0
 40
1.0
 40
1.0
 10
11.9595345241
 20
-0.7804784278
 30
0.0
 10
11.9718761219
 20
-0.880558138
 30
0.0
 10
12.0206989118
 20
-1.0874881164
 30
0.0
 10
12.1516663481
 20
-1.3922115786
 30
0.0
 10
12.3394894952
 20
-1.6971045372
 30
0.0
 10
12.5789170699
 20
-1.9939532731
 30
0.0
 10
12.8633633599
 20
-2.2748574412
 30
0.0
 10
13.1849851502
 20
-2.5321568189
 30
0.0
 10
13.5348902159
 20
-2.7588099711
 30
0.0
 10
13.9033969591
 20
-2.9485943302
 30
0.0
 10
14.280332834
 20
-3.0963033905
 30
0.0
 10
14.6553534475
 20
-3.1978874642
 30
0.0
 10
15.0182783145
 20
-3.2505271197
 30
0.0
 10
15.3593988103
 20
-3.2526501911
 30
0.0
 10
15.6697682837
 20
-3.2037163805
 30
0.0
 10
15.9410526192
 20
-3.1042450748
 30
0.0
 10
16.1306114189
 20
-2.9781098207
 30
0.0
 10
16.2514670718
 20
-2.8556304957
 30
0.0
 10
16.301679784
 20
-2.7880901713
 30
0.0
 10
16.324089391
 20
-2.7530003274
 30
0.0
  0
SPLINE
  5
38C
100
AcDbEntity
  8
RACCORDO
100
AcDbSpline
 62
250
  6
CONTINUOUS
 70
0
 71
3
 72
10
 73
6
 74
0
 42
0.0000001
 43
0.0000001
 44
0.0000000001
 40
0.0
 40
0.0
 40
0.0
 40
0.0
 40
0.230608119
 40
0.469952475
 40
1.0
 40
1.0
 40
1.0
 40
1.0
 10
26.5011762262
 20
-9.9725036618
 30
0.0
 10
26.5078733588
 20
-9.9637559529
 30
0.0
 10
26.5194256148
 20
-9.9442148855
 30
0.0
 10
26.5338537034
 20
-9.8983349835
 30
0.0
 10
26.533428186
 20
-9.8605241185
 30
0.0
 10
26.5297395333
 20
-9.835471925
 30
0.0
  0
SPLINE
  5
38D
100
AcDbEntity
  8
0
100
AcDbSpline
 62
7
  6
CONTINUOUS
 70
0
 71
3
 72
15
 73
11
 74
0
 42
0.0000001
 43
0.0000001
 44
0.0000000001
 40
0.0
 40
0.0
 40
0.0
 40
0.0
 40
0.0981086332
 40
0.2002037316
 40
0.3096030089
 40
0.4283973515
 40
0.5574333638
 40
0.6965026574
 40
0.8445732478
 40
1.0
 40
1.0
 40
1.0
 40
1.0
 10
16.1136988054
 20
-2.5922372242
 30
0.0
 10
16.1508366886
 20
-2.5340843024
 30
0.0
 10
16.211082102
 20
-2.4047428946
 30
0.0
 10
16.2507484505
 20
-2.1886102959
 30
0.0
 10
16.2407151716
 20
-1.9548436033
 30
0.0
 10
16.1822105773
 20
-1.7092046482
 30
0.0
 10
16.0772448236
 20
-1.4570853329
 30
0.0
 10
15.9284880719
 20
-1.2040839078
 30
0.0
 10
15.7395081151
 20
-0.9559673446
 30
0.0
 10
15.5924725596
 20
-0.800630912
 30
0.0
 10
15.5135659961
 20
-0.7249816028
 30
0.0
  0
SPLINE
  5
38E
100
AcDbEntity
  8
RACCORDO
100
AcDbSpline
 62
250
  6
CONTINUOUS
 70
0
 71
3
 72
11
 73
7
 74
0
 42
0.0000001
 43
0.0000001
 44
0.0000000001
 40
0.0
 40
0.0
 40
0.0
 40
0.0
 40
0.1902513901
 40
0.4104235821
 40
0.6782524496
 40
1.0
 40
1.0
 40
1.0
 40
1.0
 10
24.6321114061
 20
-11.6880331165
 30
0.0
 10
24.6402809242
 20
-11.6826437984
 30
0.0
 10
24.6551104394
 20
-11.6665063908
 30
0.0
 10
24.6670809939
 20
-11.6331158416
 30
0.0
 10
24.6707294401
 20
-11.5913339295
 30
0.0
 10
24.6680339588
 20
-11.5609962248
 30
0.0
 10
24.6656229286
 20
-11.5446212501
 30
0.0
  0
SPLINE
  5
38F
100
AcDbEntity
  8
RACCORDO
100
AcDbSpline
 62
250
  6
CONTINUOUS
 70
0
 71
3
 72
11
 73
7
 74
0
 42
0.0000001
 43
0.0000001
 44
0.0000000001
 40
0.0
 40
0.0
 40
0.0
 40
0.0
 40
0.2471184262
 40
0.4962186265
 40
0.7472049163
 40
1.0
 40
1.0
 40
1.0
 40
1.0
 10
-18.1388548901
 20
13.2000372667
 30
0.0
 10
-14.8163182346
 20
12.1732594536
 30
0.0
 10
-8.1398583001
 20
10.1267745763
 30
0.0
 10
1.9278878178
 20
7.0924087765
 30
0.0
 10
12.0862056947
 20
4.0821265206
 30
0.0
 10
18.892309281
 20
2.0977381769
 30
0.0
 10
22.3095601936
 20
1.108844506
 30
0.0
  0
SPLINE
  5
390
100
AcDbEntity
  8
0
100
AcDbSpline
 62
250
  6
CONTINUOUS
 70
0
 71
3
 72
11
 73
7
 74
0
 42
0.0000001
 43
0.0000001
 44
0.0000000001
 40
0.0
 40
0.0
 40
0.0
 40
0.0
 40
0.1856967293
 40
0.4040369466
 40
0.6734976705
 40
1.0
 40
1.0
 40
1.0
 40
1.0
 10
23.3968065557
 20
-11.8832402266
 30
0.0
 10
23.3876433105
 20
-11.8807234869
 30
0.0
 10
23.3690436291
 20
-11.8698556774
 30
0.0
 10
23.348437458
 20
-11.8414979063
 30
0.0
 10
23.333142883
 20
-11.8024467004
 30
0.0
 10
23.327012427
 20
-11.7724468883
 30
0.0
 10
23.3245786078
 20
-11.7559171372
 30
0.0
  0
LINE
  5
391
100
AcDbEntity
  8
0
100
AcDbLine
 62
7
  6
CONTINUOUS
 10
15.912219799
 20
-7.6684183319
 11
16.4436672172
 21
-7.8192740819
  0
LINE
  5
392
100
AcDbEntity
  8
0
100
AcDbLine
 62
7
  6
CONTINUOUS
 10
15.912219799
 20
-7.6684183319
 11
16.0917785139
 21
-7.1280404938
  0
SPLINE
  5
393
100
AcDbEntity
  8
RACCORDO
100
AcDbSpline
 62
250
  6
CONTINUOUS
 70
0
 71
3
 72
11
 73
7
 74
0
 42
0.0000001
 43
0.0000001
 44
0.0000000001
 40
0.0
 40
0.0
 40
0.0
 40
0.0
 40
0.1966059636
 40
0.4194521091
 40
0.6850497999
 40
1.0
 40
1.0
 40
1.0
 40
1.0
 10
-22.1153668516
 20
2.0406804902
 30
0.0
 10
-22.1249985419
 20
2.0439388297
 30
0.0
 10
-22.1441126979
 20
2.0556312304
 30
0.0
 10
-22.1657470884
 20
2.0843882525
 30
0.0
 10
-22.1815571227
 20
2.1231383224
 30
0.0
 10
-22.1877484091
 20
2.1526550983
 30
0.0
 10
-22.1901211006
 20
2.1687696889
 30
0.0
  0
LINE
  5
394
100
AcDbEntity
  8
0
100
AcDbLine
 62
7
  6
CONTINUOUS
 10
15.7202045287
 20
-6.3471187705
 11
16.2974491613
 21
-6.5109631855
  0
SPLINE
  5
395
100
AcDbEntity
  8
0
100
AcDbSpline
 62
7
  6
CONTINUOUS
 70
0
 71
3
 72
11
 73
7
 74
0
 42
0.0000001
 43
0.0000001
 44
0.0000000001
 40
0.0
 40
0.0
 40
0.0
 40
0.0
 40
0.2292838114
 40
0.4686530389
 40
0.7242563319
 40
1.0
 40
1.0
 40
1.0
 40
1.0
 10
15.7167842849
 20
-2.3866813405
 30
0.0
 10
15.6868839728
 20
-2.4280714277
 30
0.0
 10
15.6151951867
 20
-2.5054845643
 30
0.0
 10
15.4806648376
 20
-2.5966018894
 30
0.0
 10
15.3212143878
 20
-2.6627575664
 30
0.0
 10
15.2051382766
 20
-2.6886008614
 30
0.0
 10
15.1443996055
 20
-2.6976348155
 30
0.0
  0
LINE
  5
396
100
AcDbEntity
  8
0
100
AcDbLine
 62
7
  6
CONTINUOUS
 10
15.6716898347
 20
-8.3944507428
 11
15.7862516883
 21
-8.048312882
  0
SPLINE
  5
397
100
AcDbEntity
  8
0
100
AcDbSpline
 62
7
  6
CONTINUOUS
 70
0
 71
3
 72
16
 73
12
 74
0
 42
0.0000001
 43
0.0000001
 44
0.0000000001
 40
0.0
 40
0.0
 40
0.0
 40
0.0
 40
0.0465712535
 40
0.093831466
 40
0.1928230045
 40
0.3014044665
 40
0.421581585
 40
0.5534228231
 40
0.695520092
 40
0.8454226341
 40
1.0
 40
1.0
 40
1.0
 40
1.0
 10
12.6948205528
 20
-0.4705337877
 30
0.0
 10
12.676664706
 20
-0.4989628163
 30
0.0
 10
12.6446104971
 20
-0.5592808053
 30
0.0
 10
12.5990200267
 20
-0.6918085705
 30
0.0
 10
12.5801150557
 20
-0.878151326
 30
0.0
 10
12.6174735582
 20
-1.1146303035
 30
0.0
 10
12.711023819
 20
-1.3601344559
 30
0.0
 10
12.8569800428
 20
-1.6067878554
 30
0.0
 10
13.0501199293
 20
-1.8466031657
 30
0.0
 10
13.283699262
 20
-2.0714433874
 30
0.0
 10
13.4597157135
 20
-2.2052482129
 30
0.0
 10
13.5524827684
 20
-2.2679354689
 30
0.0
  0
LINE
  5
398
100
AcDbEntity
  8
0
100
AcDbLine
 62
7
  6
CONTINUOUS
 10
18.3072814874
 20
-7.9638458656
 11
19.0108341164
 21
-8.1611561347
  0
LINE
  5
399
100
AcDbEntity
  8
0
100
AcDbLine
 62
7
  6
CONTINUOUS
 10
18.3072814874
 20
-7.9638458656
 11
18.238155347
 21
-7.4662253985
  0
SPLINE
  5
39A
100
AcDbEntity
  8
0
100
AcDbSpline
 62
7
  6
CONTINUOUS
 70
0
 71
3
 72
9
 73
5
 74
0
 42
0.0000001
 43
0.0000001
 44
0.0000000001
 40
0.0
 40
0.0
 40
0.0
 40
0.0
 40
0.4881748801
 40
1.0
 40
1.0
 40
1.0
 40
1.0
 10
12.3195940195
 20
-0.232954128
 30
0.0
 10
12.3594533347
 20
-0.1705413188
 30
0.0
 10
12.4597390364
 20
-0.053799964
 30
0.0
 10
12.5869993227
 20
0.0319432445
 30
0.0
 10
12.6558120189
 20
0.0679040351
 30
0.0
  0
SPLINE
  5
39B
100
AcDbEntity
  8
0
100
AcDbSpline
 62
7
  6
CONTINUOUS
 70
0
 71
3
 72
9
 73
5
 74
0
 42
0.0000001
 43
0.0000001
 44
0.0000000001
 40
0.0
 40
0.0
 40
0.0
 40
0.0
 40
0.2499574742
 40
1.0
 40
1.0
 40
1.0
 40
1.0
 10
17.6097942762
 20
-6.8817885976
 30
0.0
 10
17.7225722088
 20
-6.9135564342
 30
0.0
 10
18.1737874381
 20
-7.0405544144
 30
0.0
 10
18.625109578
 20
-7.1671725481
 30
0.0
 10
18.9636801066
 20
-7.2619278919
 30
0.0
  0
SPLINE
  5
39C
100
AcDbEntity
  8
0
100
AcDbSpline
 62
7
  6
CONTINUOUS
 70
0
 71
3
 72
12
 73
8
 74
0
 42
0.0000001
 43
0.0000001
 44
0.0000000001
 40
0.0
 40
0.0
 40
0.0
 40
0.0
 40
0.0993851973
 40
0.2035024172
 40
0.4336046596
 40
0.6999674162
 40
1.0
 40
1.0
 40
1.0
 40
1.0
 10
19.299343827
 20
-8.1132640828
 30
0.0
 10
19.2930789343
 20
-8.1213282961
 30
0.0
 10
19.2782988949
 20
-8.1364041634
 30
0.0
 10
19.2408564767
 20
-8.1610587969
 30
0.0
 10
19.1805578651
 20
-8.1792012949
 30
0.0
 10
19.098069692
 20
-8.1805656492
 30
0.0
 10
19.0405209238
 20
-8.1694690473
 30
0.0
 10
19.0108343039
 20
-8.1611574772
 30
0.0
  0
SPLINE
  5
39D
100
AcDbEntity
  8
0
100
AcDbSpline
 62
7
  6
CONTINUOUS
 70
0
 71
3
 72
12
 73
8
 74
0
 42
0.0000001
 43
0.0000001
 44
0.0000000001
 40
0.0
 40
0.0
 40
0.0
 40
0.0
 40
0.0994310902
 40
0.2028143416
 40
0.4310809924
 40
0.6974968868
 40
1.0
 40
1.0
 40
1.0
 40
1.0
 10
19.2930954433
 20
-8.1241005426
 30
0.0
 10
19.2873803057
 20
-8.1330494603
 30
0.0
 10
19.2734439191
 20
-8.1499424223
 30
0.0
 10
19.2365097824
 20
-8.1779993553
 30
0.0
 10
19.1746558902
 20
-8.1992970998
 30
0.0
 10
19.0887831203
 20
-8.2020938447
 30
0.0
 10
19.0286160989
 20
-8.1907335138
 30
0.0
 10
18.9975082047
 20
-8.1820239863
 30
0.0
  0
SPLINE
  5
39E
100
AcDbEntity
  8
0
100
AcDbSpline
 62
7
  6
CONTINUOUS
 70
0
 71
3
 72
17
 73
13
 74
0
 42
0.0000001
 43
0.0000001
 44
0.0000000001
 40
0.0
 40
0.0
 40
0.0
 40
0.0
 40
0.0434323849
 40
0.0880221458
 40
0.1349221833
 40
0.1849918612
 40
0.2961892788
 40
0.4226663645
 40
0.5616373124
 40
0.708200669
 40
0.8563816287
 40
1.0
 40
1.0
 40
1.0
 40
1.0
 10
19.8917549241
 20
-8.4348235145
 30
0.0
 10
19.904780042
 20
-8.4144280009
 30
0.0
 10
19.9266975185
 20
-8.3700415133
 30
0.0
 10
19.9449671827
 20
-8.2965930607
 30
0.0
 10
19.9486713193
 20
-8.2173400591
 30
0.0
 10
19.9338157126
 20
-8.1018148726
 30
0.0
 10
19.8765706029
 20
-7.9498022362
 30
0.0
 10
19.7601081994
 20
-7.7737440585
 30
0.0
 10
19.6007128835
 20
-7.6070475609
 30
0.0
 10
19.4079941127
 20
-7.4597550446
 30
0.0
 10
19.1937566768
 20
-7.3407766746
 30
0.0
 10
19.0407405054
 20
-7.2834924263
 30
0.0
 10
18.9636797834
 20
-7.2619255308
 30
0.0
  0
SPLINE
  5
39F
100
AcDbEntity
  8
0
100
AcDbSpline
 62
7
  6
CONTINUOUS
 70
0
 71
3
 72
17
 73
13
 74
0
 42
0.0000001
 43
0.0000001
 44
0.0000000001
 40
0.0
 40
0.0
 40
0.0
 40
0.0
 40
0.0434323297
 40
0.0880220445
 40
0.1349220472
 40
0.1849917025
 40
0.2961891086
 40
0.4226662167
 40
0.5616372062
 40
0.7082006096
 40
0.8563816079
 40
1.0
 40
1.0
 40
1.0
 40
1.0
 10
19.8784283106
 20
-8.455690829
 30
0.0
 10
19.8914534082
 20
-8.4352953472
 30
0.0
 10
19.9133708451
 20
-8.3909089181
 30
0.0
 10
19.9316404504
 20
-8.3174605512
 30
0.0
 10
19.9353445339
 20
-8.2382076281
 30
0.0
 10
19.9204888623
 20
-8.1226825232
 30
0.0
 10
19.8632436914
 20
-7.9706699712
 30
0.0
 10
19.7467812683
 20
-7.7946118507
 30
0.0
 10
19.5873859723
 20
-7.6279153457
 30
0.0
 10
19.3946672568
 20
-7.4806227647
 30
0.0
 10
19.1804299166
 20
-7.3616442469
 30
0.0
 10
19.0274137945
 20
-7.3043599157
 30
0.0
 10
18.9503531052
 20
-7.2827929466
 30
0.0
  0
SPLINE
  5
3A0
100
AcDbEntity
  8
0
100
AcDbSpline
 62
7
  6
CONTINUOUS
 70
0
 71
3
 72
29
 73
25
 74
0
 42
0.0000001
 43
0.0000001
 44
0.0000000001
 40
0.0
 40
0.0
 40
0.0
 40
0.0
 40
0.023073346
 40
0.0465669248
 40
0.0708349842
 40
0.0961713781
 40
0.1227967321
 40
0.1508558523
 40
0.2114368711
 40
0.2778714496
 40
0.3492728841
 40
0.424238664
 40
0.5010432432
 40
0.5778048115
 40
0.6526410309
 40
0.723825987
 40
0.7899608049
 40
0.8501730903
 40
0.8780323013
 40
0.9044558356
 40
0.9295975043
 40
0.9536886243
 40
0.9770345237
 40
1.0
 40
1.0
 40
1.0
 40
1.0
 10
11.694826761
 20
0.1632928337
 30
0.0
 10
11.7261685853
 20
0.2123683605
 30
0.0
 10
11.7977711538
 20
0.3063422493
 30
0.0
 10
11.9281814349
 20
0.4296504628
 30
0.0
 10
12.080609931
 20
0.5347714232
 30
0.0
 10
12.2533791471
 20
0.6207148315
 30
0.0
 10
12.4447523388
 20
0.6867969884
 30
0.0
 10
12.7294217678
 20
0.7492679598
 30
0.0
 10
13.1228077337
 20
0.7713109912
 30
0.0
 10
13.6221747871
 20
0.7142166759
 30
0.0
 10
14.1430831536
 20
0.5768652343
 30
0.0
 10
14.6662134825
 20
0.3644259415
 30
0.0
 10
15.1721857761
 20
0.0848756503
 30
0.0
 10
15.6420610606
 20
-0.2512718934
 30
0.0
 10
16.0582763017
 20
-0.6313399786
 30
0.0
 10
16.4053725251
 20
-1.0411982935
 30
0.0
 10
16.6704436475
 20
-1.4656149204
 30
0.0
 10
16.8184950649
 20
-1.8284082513
 30
0.0
 10
16.8833241547
 20
-2.1105639013
 30
0.0
 10
16.9050056973
 20
-2.3103547247
 30
0.0
 10
16.9006842143
 20
-2.5018334939
 30
0.0
 10
16.8702287198
 20
-2.6831554651
 30
0.0
 10
16.8138166534
 20
-2.8523959795
 30
0.0
 10
16.7590007956
 20
-2.9563295171
 30
0.0
 10
16.7278061244
 20
-3.0051760128
 30
0.0
  0
SPLINE
  5
3A1
100
AcDbEntity
  8
0
100
AcDbSpline
 62
7
  6
CONTINUOUS
 70
0
 71
3
 72
11
 73
7
 74
0
 42
0.0000001
 43
0.0000001
 44
0.0000000001
 40
0.0
 40
0.0
 40
0.0
 40
0.0
 40
0.2663552211
 40
0.5193068023
 40
0.7623761936
 40
1.0
 40
1.0
 40
1.0
 40
1.0
 10
11.9728629722
 20
-0.7596082406
 30
0.0
 10
11.9653519793
 20
-0.6986997083
 30
0.0
 10
11.9586162555
 20
-0.578747829
 30
0.0
 10
11.9758239213
 20
-0.4031829687
 30
0.0
 10
12.0205974852
 20
-0.2393209266
 30
0.0
 10
12.0688645493
 20
-0.1388217064
 30
0.0
 10
12.0970390712
 20
-0.0918774955
 30
0.0
  0
SPLINE
  5
3A2
100
AcDbEntity
  8
RACCORDO
100
AcDbSpline
 62
250
  6
CONTINUOUS
 70
0
 71
3
 72
9
 73
5
 74
0
 42
0.0000001
 43
0.0000001
 44
0.0000000001
 40
0.0
 40
0.0
 40
0.0
 40
0.0
 40
0.5027120854
 40
1.0
 40
1.0
 40
1.0
 40
1.0
 10
-20.2011972294
 20
12.7488249467
 30
0.0
 10
-20.1610332303
 20
13.348245599
 30
0.0
 10
-19.9824159014
 20
14.5361852807
 30
0.0
 10
-19.6073078015
 20
15.6775951427
 30
0.0
 10
-19.3745051915
 20
16.2243809737
 30
0.0
  0
SPLINE
  5
3A3
100
AcDbEntity
  8
0
100
AcDbSpline
 62
7
  6
CONTINUOUS
 70
0
 71
3
 72
9
 73
5
 74
0
 42
0.0000001
 43
0.0000001
 44
0.0000000001
 40
0.0
 40
0.0
 40
0.0
 40
0.0
 40
0.4955914051
 40
1.0
 40
1.0
 40
1.0
 40
1.0
 10
16.2716901298
 20
-4.1662426414
 30
0.0
 10
16.1555462251
 20
-4.0576336393
 30
0.0
 10
15.9080584421
 20
-3.8522147106
 30
0.0
 10
15.6396272171
 20
-3.6751635772
 30
0.0
 10
15.499890551
 20
-3.5935136874
 30
0.0
  0
SPLINE
  5
3A4
100
AcDbEntity
  8
RACCORDO
100
AcDbSpline
 62
250
  6
CONTINUOUS
 70
0
 71
3
 72
12
 73
8
 74
0
 42
0.0000001
 43
0.0000001
 44
0.0000000001
 40
0.0
 40
0.0
 40
0.0
 40
0.0
 40
0.2129137784
 40
0.3285812954
 40
0.4507063777
 40
0.7138443327
 40
1.0
 40
1.0
 40
1.0
 40
1.0
 10
-4.4365296958
 20
5.8004906797
 30
0.0
 10
-4.2984597966
 20
5.87397695
 30
0.0
 10
-4.0674472954
 20
5.9553697544
 30
0.0
 10
-3.7407684441
 20
6.0108583996
 30
0.0
 10
-3.3728571961
 20
6.0344289992
 30
0.0
 10
-2.8786237721
 20
5.9949714581
 30
0.0
 10
-2.4846182783
 20
5.9011292034
 30
0.0
 10
-2.2837025738
 20
5.839306121
 30
0.0
  0
SPLINE
  5
3A5
100
AcDbEntity
  8
0
100
AcDbSpline
 62
7
  6
CONTINUOUS
 70
0
 71
3
 72
9
 73
5
 74
0
 42
0.0000001
 43
0.0000001
 44
0.0000000001
 40
0.0
 40
0.0
 40
0.0
 40
0.0
 40
0.5118249998
 40
1.0
 40
1.0
 40
1.0
 40
1.0
 10
12.669142495
 20
0.0887773978
 30
0.0
 10
12.6003296479
 20
0.0528163958
 30
0.0
 10
12.4730690767
 20
-0.0329272586
 30
0.0
 10
12.3727831247
 20
-0.1496690308
 30
0.0
 10
12.3329236712
 20
-0.2120820561
 30
0.0
  0
SPLINE
  5
3A6
100
AcDbEntity
  8
RACCORDO
100
AcDbSpline
 62
250
  6
CONTINUOUS
 70
0
 71
3
 72
27
 73
23
 74
0
 42
0.0000001
 43
0.0000001
 44
0.0000000001
 40
0.0
 40
0.0
 40
0.0
 40
0.0
 40
0.0837576263
 40
0.1652251663
 40
0.2438445099
 40
0.3191348116
 40
0.3907138162
 40
0.458322934
 40
0.5218576641
 40
0.581403514
 40
0.6372748901
 40
0.6900488262
 40
0.7155566379
 40
0.7406311374
 40
0.7654155779
 40
0.7900625259
 40
0.8147294573
 40
0.8395738732
 40
0.8647484004
 40
0.8903963527
 40
0.9435708778
 40
1.0
 40
1.0
 40
1.0
 40
1.0
 10
-4.7239649579
 20
5.9343479344
 30
0.0
 10
-5.2058408987
 20
6.1549666589
 30
0.0
 10
-6.170930854
 20
6.5593716499
 30
0.0
 10
-7.6328595944
 20
7.0566015981
 30
0.0
 10
-9.0756790556
 20
7.4318151962
 30
0.0
 10
-10.482279935
 20
7.6805251711
 30
0.0
 10
-11.8360614799
 20
7.7997448159
 30
0.0
 10
-13.1210009475
 20
7.7878996142
 30
0.0
 10
-14.3218123933
 20
7.6448041193
 30
0.0
 10
-15.4241133778
 20
7.3714534943
 30
0.0
 10
-16.4140599807
 20
6.9702748823
 30
0.0
 10
-17.1432067768
 20
6.5267790531
 30
0.0
 10
-17.6513977555
 20
6.1138646903
 30
0.0
 10
-17.992490713
 20
5.7795393928
 30
0.0
 10
-18.2964533427
 20
5.4182166603
 30
0.0
 10
-18.5622392869
 20
5.0310534916
 30
0.0
 10
-18.7888966894
 20
4.6193255541
 30
0.0
 10
-18.9756368905
 20
4.184409374
 30
0.0
 10
-19.1218212596
 20
3.7277248853
 30
0.0
 10
-19.2637292018
 20
3.0843235463
 30
0.0
 10
-19.334083928
 20
2.2269816305
 30
0.0
 10
-19.2795754447
 20
1.5326865505
 30
0.0
 10
-19.2275642271
 20
1.1794384173
 30
0.0
  0
SPLINE
  5
3A7
100
AcDbEntity
  8
0
100
AcDbSpline
 62
7
  6
CONTINUOUS
 70
0
 71
3
 72
16
 73
12
 74
0
 42
0.0000001
 43
0.0000001
 44
0.0000000001
 40
0.0
 40
0.0
 40
0.0
 40
0.0
 40
0.1539832837
 40
0.3034316153
 40
0.445309629
 40
0.5772184038
 40
0.6977331722
 40
0.8068058632
 40
0.9062014238
 40
0.9535194515
 40
1.0
 40
1.0
 40
1.0
 40
1.0
 10
13.5658103685
 20
-2.2470666095
 30
0.0
 10
13.4744447475
 20
-2.1853263514
 30
0.0
 10
13.3009215845
 20
-2.0536444799
 30
0.0
 10
13.0700629897
 20
-1.8326132791
 30
0.0
 10
12.8782271993
 20
-1.5968271532
 30
0.0
 10
12.7319163497
 20
-1.3540663172
 30
0.0
 10
12.6361889152
 20
-1.111990392
 30
0.0
 10
12.594722733
 20
-0.8781776699
 30
0.0
 10
12.6083703911
 20
-0.6929697428
 30
0.0
 10
12.6490223666
 20
-0.5602483806
 30
0.0
 10
12.6784286607
 20
-0.499493623
 30
0.0
 10
12.6952418211
 20
-0.4707664983
 30
0.0
  0
SPLINE
  5
3A8
100
AcDbEntity
  8
RACCORDO
100
AcDbSpline
 62
250
  6
CONTINUOUS
 70
0
 71
3
 72
15
 73
11
 74
0
 42
0.0000001
 43
0.0000001
 44
0.0000000001
 40
0.0
 40
0.0
 40
0.0
 40
0.0
 40
0.1362289923
 40
0.2675896136
 40
0.3947497455
 40
0.518524019
 40
0.6398591806
 40
0.7598055856
 40
0.8794765249
 40
1.0
 40
1.0
 40
1.0
 40
1.0
 10
-22.1910998338
 20
2.1754169431
 30
0.0
 10
-22.2577134656
 20
2.6278386397
 30
0.0
 10
-22.3495944178
 20
3.5229100662
 30
0.0
 10
-22.3570804151
 20
4.8501314927
 30
0.0
 10
-22.2312533123
 20
6.1297344591
 30
0.0
 10
-21.9723617065
 20
7.354994301
 30
0.0
 10
-21.5814068027
 20
8.5193797181
 30
0.0
 10
-21.0601220235
 20
9.6164782517
 30
0.0
 10
-20.4112732628
 20
10.6399100716
 30
0.0
 10
-19.8989665599
 20
11.2654741752
 30
0.0
 10
-19.624686263
 20
11.5628864335
 30
0.0
  0
SPLINE
  5
3A9
100
AcDbEntity
  8
RACCORDO
100
AcDbSpline
 62
250
  6
CONTINUOUS
 70
0
 71
3
 72
28
 73
24
 74
0
 42
0.0000001
 43
0.0000001
 44
0.0000000001
 40
0.0
 40
0.0
 40
0.0
 40
0.0
 40
0.0145312021
 40
0.0295114352
 40
0.0453435048
 40
0.0623550225
 40
0.080790663
 40
0.1008187708
 40
0.1225436032
 40
0.1460177928
 40
0.1712528747
 40
0.1982275118
 40
0.2571660431
 40
0.3222276863
 40
0.3925346138
 40
0.4670291151
 40
0.5445249846
 40
0.6237500619
 40
0.703384567
 40
0.7820976262
 40
0.858583429
 40
0.9315982572
 40
1.0
 40
1.0
 40
1.0
 40
1.0
 10
29.0188560673
 20
-5.2062179135
 30
0.0
 10
28.9760935982
 20
-5.1930856974
 30
0.0
 10
28.891628795
 20
-5.1578942019
 30
0.0
 10
28.7744575436
 20
-5.0807195966
 30
0.0
 10
28.6665892145
 20
-4.979588189
 30
0.0
 10
28.568466885
 20
-4.8552940324
 30
0.0
 10
28.4803445478
 20
-4.7085536089
 30
0.0
 10
28.4024856332
 20
-4.5400861456
 30
0.0
 10
28.3351526999
 20
-4.3506628031
 30
0.0
 10
28.2786087044
 20
-4.1411444338
 30
0.0
 10
28.2330844444
 20
-3.9124903968
 30
0.0
 10
28.18599276
 20
-3.5734217532
 30
0.0
 10
28.1584302408
 20
-3.1087267989
 30
0.0
 10
28.1717314867
 20
-2.5102058948
 30
0.0
 10
28.2304548599
 20
-1.8663734787
 30
0.0
 10
28.3335502549
 20
-1.189481964
 30
0.0
 10
28.4791272624
 20
-0.4924040515
 30
0.0
 10
28.6644409486
 20
0.2115298937
 30
0.0
 10
28.8859635836
 20
0.9088506354
 30
0.0
 10
29.1394496283
 20
1.5862093193
 30
0.0
 10
29.4200345243
 20
2.2306754698
 30
0.0
 10
29.7222956506
 20
2.8299211226
 30
0.0
 10
29.9426588072
 20
3.2058442999
 30
0.0
 10
30.0559959989
 20
3.3833119532
 30
0.0
  0
SPLINE
  5
3AA
100
AcDbEntity
  8
RACCORDO
100
AcDbSpline
 62
250
  6
CONTINUOUS
 70
0
 71
3
 72
14
 73
10
 74
0
 42
0.0000001
 43
0.0000001
 44
0.0000000001
 40
0.0
 40
0.0
 40
0.0
 40
0.0
 40
0.1000798555
 40
0.2051103382
 40
0.3172662492
 40
0.4377205843
 40
0.5667746905
 40
0.7040891795
 40
1.0
 40
1.0
 40
1.0
 40
1.0
 10
-19.624686263
 20
11.5628864335
 30
0.0
 10
-19.5969057083
 20
11.5930093329
 30
0.0
 10
-19.5325180621
 20
11.6482120088
 30
0.0
 10
-19.4174827883
 20
11.710292328
 30
0.0
 10
-19.2851809815
 20
11.7526743254
 30
0.0
 10
-19.1383620647
 20
11.7754573376
 30
0.0
 10
-18.9796329428
 20
11.7791656558
 30
0.0
 10
-18.7499457609
 20
11.7591394058
 30
0.0
 10
-18.5761727203
 20
11.7183808464
 30
0.0
 10
-18.4603759695
 20
11.6827322836
 30
0.0
  0
LINE
  5
3AB
100
AcDbEntity
  8
0
100
AcDbLine
 62
7
  6
CONTINUOUS
 10
13.7650845831
 20
-2.3879795596
 11
14.1255038765
 21
-2.4910569723
  0
SPLINE
  5
3AC
100
AcDbEntity
  8
RACCORDO
100
AcDbSpline
 62
250
  6
CONTINUOUS
 70
0
 71
3
 72
14
 73
10
 74
0
 42
0.0000001
 43
0.0000001
 44
0.0000000001
 40
0.0
 40
0.0
 40
0.0
 40
0.0
 40
0.0829924377
 40
0.173313895
 40
0.2749825382
 40
0.3904046976
 40
0.5207195312
 40
0.6661495938
 40
1.0
 40
1.0
 40
1.0
 40
1.0
 10
5.7967703953
 20
-3.7818416596
 30
0.0
 10
5.7899363051
 20
-3.770623734
 30
0.0
 10
5.7720234925
 20
-3.7492821289
 30
0.0
 10
5.7359847397
 20
-3.724206506
 30
0.0
 10
5.6908924675
 20
-3.7052036109
 30
0.0
 10
5.6372682594
 20
-3.692251774
 30
0.0
 10
5.5756116719
 20
-3.6853453586
 30
0.0
 10
5.4790209576
 20
-3.6842278672
 30
0.0
 10
5.4033177042
 20
-3.6928843026
 30
0.0
 10
5.3512024765
 20
-3.7016088629
 30
0.0
  0
SPLINE
  5
3AD
100
AcDbEntity
  8
RACCORDO
100
AcDbSpline
 62
250
  6
CONTINUOUS
 70
0
 71
3
 72
9
 73
5
 74
0
 42
0.0000001
 43
0.0000001
 44
0.0000000001
 40
0.0
 40
0.0
 40
0.0
 40
0.0
 40
0.249866679
 40
1.0
 40
1.0
 40
1.0
 40
1.0
 10
-0.808071903
 20
6.3161875744
 30
0.0
 10
-0.648598399
 20
6.2683200046
 30
0.0
 10
-0.0103458347
 20
6.076808163
 30
0.0
 10
0.6279794029
 20
5.8855385209
 30
0.0
 10
1.1068490523
 20
5.7421965458
 30
0.0
  0
LINE
  5
3AE
100
AcDbEntity
  8
RACCORDO
100
AcDbLine
 62
250
  6
CONTINUOUS
 10
1.1068490523
 20
5.7421965458
 11
1.9853123796
 21
5.4794083497
  0
SPLINE
  5
3AF
100
AcDbEntity
  8
RACCORDO
100
AcDbSpline
 62
250
  6
CONTINUOUS
 70
0
 71
3
 72
9
 73
5
 74
0
 42
0.0000001
 43
0.0000001
 44
0.0000000001
 40
0.0
 40
0.0
 40
0.0
 40
0.0
 40
0.4982634519
 40
1.0
 40
1.0
 40
1.0
 40
1.0
 10
1.9853123796
 20
5.4794083497
 30
0.0
 10
5.3024662124
 20
4.4877224692
 30
0.0
 10
11.9638080291
 20
2.5105035794
 30
0.0
 10
18.632411039
 20
0.5579275359
 30
0.0
 10
21.9799128856
 20
-0.4161730403
 30
0.0
  0
LINE
  5
3B0
100
AcDbEntity
  8
0
100
AcDbLine
 62
7
  6
CONTINUOUS
 10
15.0133753849
 20
-3.0547565893
 11
14.9724421043
 21
-2.7325845324
  0
LINE
  5
3B1
100
AcDbEntity
  8
0
100
AcDbLine
 62
7
  6
CONTINUOUS
 10
14.5953763649
 20
-2.6251735785
 11
14.9724421043
 21
-2.7325845324
  0
SPLINE
  5
3B2
100
AcDbEntity
  8
RACCORDO
100
AcDbSpline
 62
250
  6
CONTINUOUS
 70
0
 71
3
 72
9
 73
5
 74
0
 42
0.0000001
 43
0.0000001
 44
0.0000000001
 40
0.0
 40
0.0
 40
0.0
 40
0.0
 40
0.5029543824
 40
1.0
 40
1.0
 40
1.0
 40
1.0
 10
22.1794480619
 20
-2.4740262164
 30
0.0
 10
22.337354592
 20
-4.0329452966
 30
0.0
 10
22.6819872454
 20
-7.1294748621
 30
0.0
 10
23.0980346045
 20
-10.2172988423
 30
0.0
 10
23.3235998746
 20
-11.749269883
 30
0.0
  0
SPLINE
  5
3B3
100
AcDbEntity
  8
RACCORDO
100
AcDbSpline
 62
250
  6
CONTINUOUS
 70
0
 71
3
 72
15
 73
11
 74
0
 42
0.0000001
 43
0.0000001
 44
0.0000000001
 40
0.0
 40
0.0
 40
0.0
 40
0.0
 40
0.1019861199
 40
0.2112927809
 40
0.3279121331
 40
0.4514904875
 40
0.5814008566
 40
0.7168053885
 40
0.8567081967
 40
1.0
 40
1.0
 40
1.0
 40
1.0
 10
7.286968762
 20
-7.1712424161
 30
0.0
 10
7.2304431134
 20
-6.7873417938
 30
0.0
 10
7.0557717285
 20
-5.999814156
 30
0.0
 10
6.6397968082
 20
-4.8209723396
 30
0.0
 10
6.0667293365
 20
-3.6185135566
 30
0.0
 10
5.3440607314
 20
-2.40777955
 30
0.0
 10
4.48098522
 20
-1.2039500907
 30
0.0
 10
3.4883881067
 20
-0.0223396776
 30
0.0
 10
2.3788078129
 20
1.1219506446
 30
0.0
 10
1.5775321902
 20
1.8437407901
 30
0.0
 10
1.1608852581
 20
2.1953787282
 30
0.0
  0
SPLINE
  5
3B4
100
AcDbEntity
  8
RACCORDO
100
AcDbSpline
 62
250
  6
CONTINUOUS
 70
0
 71
3
 72
17
 73
13
 74
0
 42
0.0000001
 43
0.0000001
 44
0.0000000001
 40
0.0
 40
0.0
 40
0.0
 40
0.0
 40
0.1335328476
 40
0.2718422685
 40
0.411033233
 40
0.5471285971
 40
0.6764355325
 40
0.7376112188
 40
0.7960426606
 40
0.8515367305
 40
0.9040073957
 40
1.0
 40
1.0
 40
1.0
 40
1.0
 10
-2.2837025738
 20
5.839306121
 30
0.0
 10
-2.0581685822
 20
5.76990607
 30
0.0
 10
-1.6088891154
 20
5.5950040464
 30
0.0
 10
-0.9696258354
 20
5.2464948274
 30
0.0
 10
-0.3739429141
 20
4.819738837
 30
0.0
 10
0.152535897
 20
4.3332778591
 30
0.0
 10
0.5220519851
 20
3.8871404965
 30
0.0
 10
0.7617291581
 20
3.5178009018
 30
0.0
 10
0.9081767146
 20
3.2448014405
 30
0.0
 10
1.0230524041
 20
2.9735205297
 30
0.0
 10
1.1291948813
 20
2.6288373415
 30
0.0
 10
1.16421204
 20
2.3649777488
 30
0.0
 10
1.1608852581
 20
2.1953787282
 30
0.0
  0
SPLINE
  5
3B5
100
AcDbEntity
  8
RACCORDO
100
AcDbSpline
 62
250
  6
CONTINUOUS
 70
0
 71
3
 72
11
 73
7
 74
0
 42
0.0000001
 43
0.0000001
 44
0.0000000001
 40
0.0
 40
0.0
 40
0.0
 40
0.0
 40
0.2269494569
 40
0.4691613245
 40
0.7271901178
 40
1.0
 40
1.0
 40
1.0
 40
1.0
 10
0.7847224401
 20
2.6996856838
 30
0.0
 10
0.6665177176
 20
2.6524238811
 30
0.0
 10
0.4110323123
 20
2.5811173291
 30
0.0
 10
0.0025759832
 20
2.5466975456
 30
0.0
 10
-0.4313393978
 20
2.5826435078
 30
0.0
 10
-0.7222410794
 20
2.6514778675
 30
0.0
 10
-0.8684963259
 20
2.6964978851
 30
0.0
  0
SPLINE
  5
3B6
100
AcDbEntity
  8
RACCORDO
100
AcDbSpline
 62
250
  6
CONTINUOUS
 70
0
 71
3
 72
19
 73
15
 74
0
 42
0.0000001
 43
0.0000001
 44
0.0000000001
 40
0.0
 40
0.0
 40
0.0
 40
0.0
 40
0.0042827712
 40
0.0164323734
 40
0.0367124737
 40
0.0651069456
 40
0.1015505838
 40
0.1459557223
 40
0.1982246704
 40
0.2582395131
 40
0.400997689
 40
0.5730822065
 40
0.7732346676
 40
1.0
 40
1.0
 40
1.0
 40
1.0
 10
-4.5588837077
 20
5.6366631161
 30
0.0
 10
-4.5591486933
 20
5.6367863437
 30
0.0
 10
-4.5584092019
 20
5.6383186053
 30
0.0
 10
-4.5575430261
 20
5.6400789823
 30
0.0
 10
-4.555182993
 20
5.6438676196
 30
0.0
 10
-4.5520759289
 20
5.648610815
 30
0.0
 10
-4.5478353197
 20
5.6548070756
 30
0.0
 10
-4.5426184483
 20
5.6622194371
 30
0.0
 10
-4.5363704687
 20
5.670903931
 30
0.0
 10
-4.5260906052
 20
5.6849429405
 30
0.0
 10
-4.5107502469
 20
5.705413948
 30
0.0
 10
-4.4893842212
 20
5.7333130922
 30
0.0
 10
-4.4642502991
 20
5.7655460039
 30
0.0
 10
-4.4461687975
 20
5.788386354
 30
0.0
 10
-4.4365296908
 20
5.8004906891
 30
0.0
  0
SPLINE
  5
3B7
100
AcDbEntity
  8
RACCORDO
100
AcDbSpline
 62
250
  6
CONTINUOUS
 70
0
 71
3
 72
14
 73
10
 74
0
 42
0.0000001
 43
0.0000001
 44
0.0000000001
 40
0.0
 40
0.0
 40
0.0
 40
0.0
 40
0.2559780059
 40
0.3883298435
 40
0.5202923597
 40
0.6494843648
 40
0.7736783004
 40
0.8909714997
 40
1.0
 40
1.0
 40
1.0
 40
1.0
 10
-0.8684963259
 20
2.6964978851
 30
0.0
 10
-1.2065272431
 20
2.800552516
 30
0.0
 10
-1.6975930413
 20
3.0376764001
 30
0.0
 10
-2.2764150413
 20
3.4655770358
 30
0.0
 10
-2.6720453269
 20
3.8407615347
 30
0.0
 10
-3.0116766682
 20
4.2524953294
 30
0.0
 10
-3.2860158666
 20
4.6867697247
 30
0.0
 10
-3.4873452558
 20
5.1289227899
 30
0.0
 10
-3.5723683391
 20
5.4316605284
 30
0.0
 10
-3.5993949254
 20
5.5798605954
 30
0.0
  0
SPLINE
  5
3B8
100
AcDbEntity
  8
RACCORDO
100
AcDbSpline
 62
250
  6
CONTINUOUS
 70
0
 71
3
 72
9
 73
5
 74
0
 42
0.0000001
 43
0.0000001
 44
0.0000000001
 40
0.0
 40
0.0
 40
0.0
 40
0.0
 40
0.5412448432
 40
1.0
 40
1.0
 40
1.0
 40
1.0
 10
-3.5993949254
 20
5.5798605954
 30
0.0
 10
-3.6070772493
 20
5.6219828859
 30
0.0
 10
-3.6228480409
 20
5.6995291153
 30
0.0
 10
-3.6433307796
 20
5.776049041
 30
0.0
 10
-3.6545943996
 20
5.8105483442
 30
0.0
  0
SPLINE
  5
3B9
100
AcDbEntity
  8
RACCORDO
100
AcDbSpline
 62
250
  6
CONTINUOUS
 70
0
 71
3
 72
19
 73
15
 74
0
 42
0.0000001
 43
0.0000001
 44
0.0000000001
 40
0.0
 40
0.0
 40
0.0
 40
0.0
 40
0.1518930945
 40
0.294104581
 40
0.4267993558
 40
0.5507586593
 40
0.6099599428
 40
0.6676028413
 40
0.7239907277
 40
0.7794673248
 40
0.834408309
 40
0.88921003
 40
0.9442751846
 40
1.0
 40
1.0
 40
1.0
 40
1.0
 10
-11.204408603
 20
7.43936509
 30
0.0
 10
-11.6431896763
 20
7.4644034179
 30
0.0
 10
-12.4960487981
 20
7.4711742534
 30
0.0
 10
-13.7269341621
 20
7.3389793838
 30
0.0
 10
-14.8519013522
 20
7.065251809
 30
0.0
 10
-15.7010988622
 20
6.7154091094
 30
0.0
 10
-16.3054081645
 20
6.3669199317
 30
0.0
 10
-16.7153711844
 20
6.0772007121
 30
0.0
 10
-17.0872317798
 20
5.7561797533
 30
0.0
 10
-17.4195219575
 20
5.404973587
 30
0.0
 10
-17.7108732809
 20
5.0248652582
 30
0.0
 10
-17.9600904225
 20
4.6172615347
 30
0.0
 10
-18.1661396163
 20
4.1837769707
 30
0.0
 10
-18.2733485631
 20
3.8809770222
 30
0.0
 10
-18.3195436339
 20
3.726499348
 30
0.0
  0
SPLINE
  5
3BA
100
AcDbEntity
  8
RACCORDO
100
AcDbSpline
 62
250
  6
CONTINUOUS
 70
0
 71
3
 72
13
 73
9
 74
0
 42
0.0000001
 43
0.0000001
 44
0.0000000001
 40
0.0
 40
0.0
 40
0.0
 40
0.0
 40
0.1140670069
 40
0.2295341957
 40
0.3475935807
 40
0.4692217423
 40
0.7251557379
 40
1.0
 40
1.0
 40
1.0
 40
1.0
 10
-22.8613525639
 20
2.8710387034
 30
0.0
 10
-22.8553766847
 20
2.8329461926
 30
0.0
 10
-22.837066218
 20
2.7571347006
 30
0.0
 10
-22.791380023
 20
2.6483783505
 30
0.0
 10
-22.7281163929
 20
2.5457923826
 30
0.0
 10
-22.6199434993
 20
2.4171770861
 30
0.0
 10
-22.4439949083
 20
2.2799240899
 30
0.0
 10
-22.2791078633
 20
2.2051858476
 30
0.0
 10
-22.1910998338
 20
2.1754169431
 30
0.0
  0
SPLINE
  5
3BB
100
AcDbEntity
  8
RACCORDO
100
AcDbSpline
 62
250
  6
CONTINUOUS
 70
0
 71
3
 72
9
 73
5
 74
0
 42
0.0000001
 43
0.0000001
 44
0.0000000001
 40
0.0
 40
0.0
 40
0.0
 40
0.0
 40
0.2318073237
 40
1.0
 40
1.0
 40
1.0
 40
1.0
 10
1.0048422345
 20
2.0875215063
 30
0.0
 10
0.9947973332
 20
2.0854950571
 30
0.0
 10
0.9514876354
 20
2.0766376956
 30
0.0
 10
0.9082431881
 20
2.0674649389
 30
0.0
 10
0.8750360478
 20
2.0603600246
 30
0.0
  0
LINE
  5
3BC
100
AcDbEntity
  8
0
100
AcDbLine
 62
7
  6
CONTINUOUS
 10
14.6748664975
 20
-0.4285840612
 11
14.6357292455
 21
-0.1014762408
  0
SPLINE
  5
3BD
100
AcDbEntity
  8
RACCORDO
100
AcDbSpline
 62
250
  6
CONTINUOUS
 70
0
 71
3
 72
15
 73
11
 74
0
 42
0.0000001
 43
0.0000001
 44
0.0000000001
 40
0.0
 40
0.0
 40
0.0
 40
0.0
 40
0.1310260537
 40
0.2591420527
 40
0.3848841328
 40
0.5088453412
 40
0.6316640199
 40
0.7540090713
 40
0.8765618257
 40
1.0
 40
1.0
 40
1.0
 40
1.0
 10
-23.0257188146
 20
5.5779248012
 30
0.0
 10
-23.0151266119
 20
5.921748855
 30
0.0
 10
-22.96760116
 20
6.6012985821
 30
0.0
 10
-22.8135852309
 20
7.6011163681
 30
0.0
 10
-22.5780750351
 20
8.5659890302
 30
0.0
 10
-22.2616907182
 20
9.4928110861
 30
0.0
 10
-21.8653249691
 20
10.3786328662
 30
0.0
 10
-21.3901269954
 20
11.2205862742
 30
0.0
 10
-20.8376139324
 20
12.0158296237
 30
0.0
 10
-20.4209301947
 20
12.5106307186
 30
0.0
 10
-20.2011972294
 20
12.7488249467
 30
0.0
  0
SPLINE
  5
3BE
100
AcDbEntity
  8
0
100
AcDbSpline
 62
7
  6
CONTINUOUS
 70
0
 71
3
 72
8
 73
4
 74
0
 42
0.0000001
 43
0.0000001
 44
0.0000000001
 40
0.0
 40
0.0
 40
0.0
 40
0.0
 40
1.0
 40
1.0
 40
1.0
 40
1.0
 10
13.456161167
 20
0.2351930981
 30
0.0
 10
13.8492677034
 20
0.1226802073
 30
0.0
 10
14.2424573094
 20
0.0104571491
 30
0.0
 10
14.6357292455
 20
-0.1014762408
 30
0.0
  0
SPLINE
  5
3BF
100
AcDbEntity
  8
RACCORDO
100
AcDbSpline
 62
250
  6
CONTINUOUS
 70
0
 71
3
 72
9
 73
5
 74
0
 42
0.0000001
 43
0.0000001
 44
0.0000000001
 40
0.0
 40
0.0
 40
0.0
 40
0.0
 40
0.2458090434
 40
1.0
 40
1.0
 40
1.0
 40
1.0
 10
26.9558193199
 20
7.7445305495
 30
0.0
 10
26.7872132477
 20
7.4805208177
 30
0.0
 10
26.0976300156
 20
6.4088171744
 30
0.0
 10
25.3937293204
 20
5.3463390124
 30
0.0
 10
24.8556365623
 20
4.5499543638
 30
0.0
  0
LINE
  5
3C0
100
AcDbEntity
  8
0
100
AcDbLine
 62
7
  6
CONTINUOUS
 10
7.6415963662
 20
-4.0067085867
 11
8.2154125045
 21
-4.1758814316
  0
SPLINE
  5
3C1
100
AcDbEntity
  8
RACCORDO
100
AcDbSpline
 62
250
  6
CONTINUOUS
 70
0
 71
3
 72
11
 73
7
 74
0
 42
0.0000001
 43
0.0000001
 44
0.0000000001
 40
0.0
 40
0.0
 40
0.0
 40
0.0
 40
0.2504388224
 40
0.4996404665
 40
0.7490223381
 40
1.0
 40
1.0
 40
1.0
 40
1.0
 10
-21.400529494
 20
13.1320947786
 30
0.0
 10
-21.2803478219
 20
13.4181032788
 30
0.0
 10
-21.0148419387
 20
13.9783036114
 30
0.0
 10
-20.5418590148
 20
14.7780192461
 30
0.0
 10
-19.997124207
 20
15.5315170216
 30
0.0
 10
-19.5890748739
 20
15.9993944205
 30
0.0
 10
-19.3745051915
 20
16.2243809737
 30
0.0
  0
SPLINE
  5
3C2
100
AcDbEntity
  8
RACCORDO
100
AcDbSpline
 62
250
  6
CONTINUOUS
 70
0
 71
3
 72
9
 73
5
 74
0
 42
0.0000001
 43
0.0000001
 44
0.0000000001
 40
0.0
 40
0.0
 40
0.0
 40
0.0
 40
0.4874323892
 40
1.0
 40
1.0
 40
1.0
 40
1.0
 10
26.5297395333
 20
-9.835471925
 30
0.0
 10
26.2790717816
 20
-10.1628720934
 30
0.0
 10
25.7003304509
 20
-10.7867055843
 30
0.0
 10
25.0274895241
 20
-11.3057382019
 30
0.0
 10
24.6656229286
 20
-11.5446212501
 30
0.0
  0
SPLINE
  5
3C3
100
AcDbEntity
  8
RACCORDO
100
AcDbSpline
 62
250
  6
CONTINUOUS
 70
0
 71
3
 72
10
 73
6
 74
0
 42
0.0000001
 43
0.0000001
 44
0.0000000001
 40
0.0
 40
0.0
 40
0.0
 40
0.0
 40
0.5043477638
 40
0.7532150999
 40
1.0
 40
1.0
 40
1.0
 40
1.0
 10
23.3828319379
 20
-0.2020908711
 30
0.0
 10
23.5406389457
 20
-2.1137585428
 30
0.0
 10
23.8141070756
 20
-4.965925824
 30
0.0
 10
24.2698949755
 20
-8.7419190894
 30
0.0
 10
24.527921699
 20
-10.609396162
 30
0.0
 10
24.6646441954
 20
-11.5379739959
 30
0.0
  0
SPLINE
  5
3C4
100
AcDbEntity
  8
RACCORDO
100
AcDbSpline
 62
250
  6
CONTINUOUS
 70
0
 71
3
 72
9
 73
5
 74
0
 42
0.0000001
 43
0.0000001
 44
0.0000000001
 40
0.0
 40
0.0
 40
0.0
 40
0.0
 40
0.2432225602
 40
1.0
 40
1.0
 40
1.0
 40
1.0
 10
24.8632863269
 20
1.4825650756
 30
0.0
 10
24.7618107529
 20
1.3313612853
 30
0.0
 10
24.3233727159
 20
0.7240691598
 30
0.0
 10
23.8054867228
 20
0.1752550455
 30
0.0
 10
23.3828319379
 20
-0.2020908711
 30
0.0
  0
SPLINE
  5
3C5
100
AcDbEntity
  8
RACCORDO
100
AcDbSpline
 62
250
  6
CONTINUOUS
 70
0
 71
3
 72
9
 73
5
 74
0
 42
0.0000001
 43
0.0000001
 44
0.0000000001
 40
0.0
 40
0.0
 40
0.0
 40
0.0
 40
0.2458319455
 40
1.0
 40
1.0
 40
1.0
 40
1.0
 10
28.2054017236
 20
6.5361127097
 30
0.0
 10
28.0369381625
 20
6.2723261072
 30
0.0
 10
27.3478442697
 20
5.201728949
 30
0.0
 10
26.6438284075
 20
4.1407504022
 30
0.0
 10
26.10536211
 20
3.3457424084
 30
0.0
  0
SPLINE
  5
3C6
100
AcDbEntity
  8
0
100
AcDbSpline
 62
7
  6
CONTINUOUS
 70
0
 71
3
 72
28
 73
24
 74
0
 42
0.0000001
 43
0.0000001
 44
0.0000000001
 40
0.0
 40
0.0
 40
0.0
 40
0.0
 40
0.0681707468
 40
0.1410269816
 40
0.2173464775
 40
0.2958231016
 40
0.3751110407
 40
0.4538645008
 40
0.5307740774
 40
0.6046025024
 40
0.6742214964
 40
0.7386538397
 40
0.7971253546
 40
0.8239685823
 40
0.849162917
 40
0.8727064111
 40
0.89463059
 40
0.9150074563
 40
0.9339577278
 40
0.9516593859
 40
0.968354217
 40
0.9843480986
 40
1.0
 40
1.0
 40
1.0
 40
1.0
 10
28.5305564768
 20
4.3277617563
 30
0.0
 10
28.4009888281
 20
4.1248798408
 30
0.0
 10
28.1466783232
 20
3.696313448
 30
0.0
 10
27.7911950081
 20
3.0157563885
 30
0.0
 10
27.45445033
 20
2.2854488668
 30
0.0
 10
27.1438768774
 20
1.5190894081
 30
0.0
 10
26.8666234084
 20
0.7309227839
 30
0.0
 10
26.6293620153
 20
-0.0644486574
 30
0.0
 10
26.4380543297
 20
-0.8523359527
 30
0.0
 10
26.2977391602
 20
-1.6181845688
 30
0.0
 10
26.2123133239
 20
-2.3478788642
 30
0.0
 10
26.1844088741
 20
-3.0278515553
 30
0.0
 10
26.2107097869
 20
-3.5570366265
 30
0.0
 10
26.2641068307
 20
-3.9438236857
 30
0.0
 10
26.3176676447
 20
-4.2055048263
 30
0.0
 10
26.3855970937
 20
-4.4458690274
 30
0.0
 10
26.4675747307
 20
-4.6637876451
 30
0.0
 10
26.5632075836
 20
-4.8582259396
 30
0.0
 10
26.6720601394
 20
-5.0282322455
 30
0.0
 10
26.7936413772
 20
-5.1729018647
 30
0.0
 10
26.9274032728
 20
-5.2913479952
 30
0.0
 10
27.0725503103
 20
-5.3826602257
 30
0.0
 10
27.17667963
 20
-5.4250712655
 30
0.0
 10
27.2295147671
 20
-5.44129622
 30
0.0
  0
SPLINE
  5
3C7
100
AcDbEntity
  8
RACCORDO
100
AcDbSpline
 62
250
  6
CONTINUOUS
 70
0
 71
3
 72
9
 73
5
 74
0
 42
0.0000001
 43
0.0000001
 44
0.0000000001
 40
0.0
 40
0.0
 40
0.0
 40
0.0
 40
0.2509318716
 40
1.0
 40
1.0
 40
1.0
 40
1.0
 10
24.8556365623
 20
4.5499543638
 30
0.0
 10
23.1285004559
 20
5.1177326995
 30
0.0
 10
16.2396296897
 20
7.3621700204
 30
0.0
 10
9.3268790412
 20
9.5333429554
 30
0.0
 10
4.1359860273
 20
11.1173574928
 30
0.0
  0
SPLINE
  5
3C8
100
AcDbEntity
  8
RACCORDO
100
AcDbSpline
 62
250
  6
CONTINUOUS
 70
0
 71
3
 72
9
 73
5
 74
0
 42
0.0000001
 43
0.0000001
 44
0.0000000001
 40
0.0
 40
0.0
 40
0.0
 40
0.0
 40
0.2510256462
 40
1.0
 40
1.0
 40
1.0
 40
1.0
 10
4.1359860273
 20
11.1173574928
 30
0.0
 10
2.37439077
 20
11.6549128786
 30
0.0
 10
-4.6491080107
 20
13.776935163
 30
0.0
 10
-11.6961841633
 20
15.8209602629
 30
0.0
 10
-16.9867816626
 20
17.3067261693
 30
0.0
  0
SPLINE
  5
3C9
100
AcDbEntity
  8
RACCORDO
100
AcDbSpline
 62
250
  6
CONTINUOUS
 70
0
 71
3
 72
14
 73
10
 74
0
 42
0.0000001
 43
0.0000001
 44
0.0000000001
 40
0.0
 40
0.0
 40
0.0
 40
0.0
 40
0.0989523559
 40
0.2041609931
 40
0.3170089562
 40
0.4381569514
 40
0.5676507513
 40
0.7050563171
 40
1.0
 40
1.0
 40
1.0
 40
1.0
 10
-20.2011971443
 20
12.7488245161
 30
0.0
 10
-20.152769667
 20
12.802322423
 30
0.0
 10
-20.0411860631
 20
12.9025308145
 30
0.0
 10
-19.8433728901
 20
13.0241119111
 30
0.0
 10
-19.6143421399
 20
13.1198381929
 30
0.0
 10
-19.3577949083
 20
13.189057496
 30
0.0
 10
-19.0774967229
 20
13.231649483
 30
0.0
 10
-18.6678992665
 20
13.2536524031
 30
0.0
 10
-18.3518643482
 20
13.2298701363
 30
0.0
 10
-18.1388548283
 20
13.2000377118
 30
0.0
  0
SPLINE
  5
3CA
100
AcDbEntity
  8
RACCORDO
100
AcDbSpline
 62
250
  6
CONTINUOUS
 70
0
 71
3
 72
14
 73
10
 74
0
 42
0.0000001
 43
0.0000001
 44
0.0000000001
 40
0.0
 40
0.0
 40
0.0
 40
0.0
 40
0.0965656856
 40
0.2000827164
 40
0.3119176735
 40
0.4327266844
 40
0.5625684776
 40
0.7010190288
 40
1.0
 40
1.0
 40
1.0
 40
1.0
 10
-19.3745051914
 20
16.2243809736
 30
0.0
 10
-19.3258146436
 20
16.2751427742
 30
0.0
 10
-19.2137166642
 20
16.3699373873
 30
0.0
 10
-19.0160183467
 20
16.4838492665
 30
0.0
 10
-18.7869070655
 20
16.5725883319
 30
0.0
 10
-18.5297364964
 20
16.6351396786
 30
0.0
 10
-18.2480298076
 20
16.670853523
 30
0.0
 10
-17.8345116954
 20
16.6823759019
 30
0.0
 10
-17.515826379
 20
16.648768759
 30
0.0
 10
-17.301336415
 20
16.6110657764
 30
0.0
  0
SPLINE
  5
3CB
100
AcDbEntity
  8
RACCORDO
100
AcDbSpline
 62
250
  6
CONTINUOUS
 70
0
 71
3
 72
14
 73
10
 74
0
 42
0.0000001
 43
0.0000001
 44
0.0000000001
 40
0.0
 40
0.0
 40
0.0
 40
0.0
 40
0.0982761023
 40
0.2029015913
 40
0.315270581
 40
0.4361046099
 40
0.5655431954
 40
0.7032460572
 40
1.0
 40
1.0
 40
1.0
 40
1.0
 10
-19.0767677829
 20
16.9035257375
 30
0.0
 10
-19.0272113821
 20
16.9562853393
 30
0.0
 10
-18.9135017188
 20
17.0549005116
 30
0.0
 10
-18.7129298878
 20
17.173889405
 30
0.0
 10
-18.481076754
 20
17.2665974465
 30
0.0
 10
-18.2213980113
 20
17.3319412226
 30
0.0
 10
-17.9374989083
 20
17.3692353434
 30
0.0
 10
-17.5218299989
 20
17.3812415697
 30
0.0
 10
-17.2017696465
 20
17.3461325231
 30
0.0
 10
-16.9867816622
 20
17.3067261675
 30
0.0
  0
SPLINE
  5
3CC
100
AcDbEntity
  8
0
100
AcDbSpline
 62
7
  6
CONTINUOUS
 70
0
 71
3
 72
29
 73
25
 74
0
 42
0.0000001
 43
0.0000001
 44
0.0000000001
 40
0.0
 40
0.0
 40
0.0
 40
0.0
 40
0.0229655224
 40
0.0463114711
 40
0.0704026341
 40
0.0955443263
 40
0.1219678818
 40
0.1498271211
 40
0.2100394221
 40
0.2761742026
 40
0.3473591289
 40
0.4221952631
 40
0.4989567602
 40
0.5757612623
 40
0.6507269525
 40
0.7221283521
 40
0.7885628755
 40
0.8491439151
 40
0.8772030607
 40
0.9038284294
 40
0.9291648502
 40
0.9534329608
 40
0.9769265978
 40
1.0
 40
1.0
 40
1.0
 40
1.0
 10
16.741135577
 20
-2.9843044191
 30
0.0
 10
16.7723305006
 20
-2.9354578704
 30
0.0
 10
16.8271463639
 20
-2.8315238893
 30
0.0
 10
16.8835586433
 20
-2.6622828905
 30
0.0
 10
16.9140142575
 20
-2.4809604451
 30
0.0
 10
16.9183363378
 20
-2.2894812741
 30
0.0
 10
16.8966552573
 20
-2.0896899735
 30
0.0
 10
16.8318262607
 20
-1.8075337993
 30
0.0
 10
16.6837753336
 20
-1.4447398328
 30
0.0
 10
16.4187049688
 20
-1.0203221808
 30
0.0
 10
16.0716086488
 20
-0.6104636924
 30
0.0
 10
15.6553941868
 20
-0.2303944976
 30
0.0
 10
15.1855184509
 20
0.1057524962
 30
0.0
 10
14.6795466342
 20
0.3853037608
 30
0.0
 10
14.1564157025
 20
0.5977418943
 30
0.0
 10
13.6355073181
 20
0.735093806
 30
0.0
 10
13.1361396769
 20
0.7921868203
 30
0.0
 10
12.7427533956
 20
0.770143244
 30
0.0
 10
12.4580835013
 20
0.7076721021
 30
0.0
 10
12.2667101394
 20
0.641589146
 30
0.0
 10
12.0939408897
 20
0.5556448782
 30
0.0
 10
11.941511878
 20
0.4505236948
 30
0.0
 10
11.8111012102
 20
0.3272150916
 30
0.0
 10
11.739497799
 20
0.2332412118
 30
0.0
 10
11.7081563875
 20
0.1841651767
 30
0.0
  0
SPLINE
  5
3CD
100
AcDbEntity
  8
RACCORDO
100
AcDbSpline
 62
250
  6
CONTINUOUS
 70
0
 71
3
 72
11
 73
7
 74
0
 42
0.0000001
 43
0.0000001
 44
0.0000000001
 40
0.0
 40
0.0
 40
0.0
 40
0.0
 40
0.2340129539
 40
0.4812895182
 40
0.7385392725
 40
1.0
 40
1.0
 40
1.0
 40
1.0
 10
-20.2011964527
 20
12.7488243275
 30
0.0
 10
-20.2094217045
 20
12.6424288745
 30
0.0
 10
-20.1928562033
 20
12.4201667848
 30
0.0
 10
-20.0804155633
 20
12.0992419493
 30
0.0
 10
-19.88945662
 20
11.8032203316
 30
0.0
 10
-19.7186678248
 20
11.6362562474
 30
0.0
 10
-19.6246862623
 20
11.5628864344
 30
0.0
  0
SPLINE
  5
3CE
100
AcDbEntity
  8
RACCORDO
100
AcDbSpline
 62
250
  6
CONTINUOUS
 70
0
 71
3
 72
13
 73
9
 74
0
 42
0.0000001
 43
0.0000001
 44
0.0000000001
 40
0.0
 40
0.0
 40
0.0
 40
0.0
 40
0.261543961
 40
0.5308204908
 40
0.6608988246
 40
0.7840612965
 40
0.8977814752
 40
1.0
 40
1.0
 40
1.0
 40
1.0
 10
-18.1388549414
 20
13.2000373693
 30
0.0
 10
-18.2022036658
 20
13.0785397558
 30
0.0
 10
-18.3116373608
 20
12.821773892
 30
0.0
 10
-18.4064223416
 20
12.4877459457
 30
0.0
 10
-18.4543381009
 20
12.2180279048
 30
0.0
 10
-18.4740267598
 20
12.0265839003
 30
0.0
 10
-18.4774369086
 20
11.848752637
 30
0.0
 10
-18.4682924812
 20
11.7356954238
 30
0.0
 10
-18.460375966
 20
11.6827322885
 30
0.0
  0
SPLINE
  5
3CF
100
AcDbEntity
  8
RACCORDO
100
AcDbSpline
 62
250
  6
CONTINUOUS
 70
0
 71
3
 72
15
 73
11
 74
0
 42
0.0000001
 43
0.0000001
 44
0.0000000001
 40
0.0
 40
0.0
 40
0.0
 40
0.0
 40
0.1279287432
 40
0.2613849204
 40
0.3971720849
 40
0.5320081653
 40
0.6626454558
 40
0.7859910373
 40
0.8992347081
 40
1.0
 40
1.0
 40
1.0
 40
1.0
 10
22.3096019837
 20
1.1088821646
 30
0.0
 10
22.2809805126
 20
1.0481305444
 30
0.0
 10
22.2269885027
 20
0.9218694425
 30
0.0
 10
22.1557108675
 20
0.7258392511
 30
0.0
 10
22.0941571737
 20
0.5227341597
 30
0.0
 10
22.043864313
 20
0.3180799332
 30
0.0
 10
22.0062022821
 20
0.1173608792
 30
0.0
 10
21.9821488382
 20
-0.0740476664
 30
0.0
 10
21.9722777993
 20
-0.2510144886
 30
0.0
 10
21.9755235754
 20
-0.3635271069
 30
0.0
 10
21.9801273349
 20
-0.416223089
 30
0.0
  0
SPLINE
  5
3D0
100
AcDbEntity
  8
RACCORDO
100
AcDbSpline
 62
250
  6
CONTINUOUS
 70
0
 71
3
 72
11
 73
7
 74
0
 42
0.0000001
 43
0.0000001
 44
0.0000000001
 40
0.0
 40
0.0
 40
0.0
 40
0.0
 40
0.2411534898
 40
0.4945781394
 40
0.7508709114
 40
1.0
 40
1.0
 40
1.0
 40
1.0
 10
23.3828489654
 20
-0.2020814236
 30
0.0
 10
23.28618427
 20
-0.268675047
 30
0.0
 10
23.0695173456
 20
-0.3795862199
 30
0.0
 10
22.7132451667
 20
-0.4719234321
 30
0.0
 10
22.3418003967
 20
-0.489822144
 30
0.0
 10
22.0966518102
 20
-0.449798298
 30
0.0
 10
21.9801273349
 20
-0.416223089
 30
0.0
  0
SPLINE
  5
3D1
100
AcDbEntity
  8
RACCORDO
100
AcDbSpline
 62
250
  6
CONTINUOUS
 70
0
 71
3
 72
15
 73
11
 74
0
 42
0.0000001
 43
0.0000001
 44
0.0000000001
 40
0.0
 40
0.0
 40
0.0
 40
0.0
 40
0.0954054222
 40
0.2038764462
 40
0.324223748
 40
0.4540619448
 40
0.5902341539
 40
0.7291308331
 40
0.8669596438
 40
1.0
 40
1.0
 40
1.0
 40
1.0
 10
26.1053621095
 20
3.3457424086
 30
0.0
 10
26.0943505244
 20
3.4017531477
 30
0.0
 10
26.0557919213
 20
3.5185866265
 30
0.0
 10
25.9631843755
 20
3.6898161134
 30
0.0
 10
25.8354254332
 20
3.8629865101
 30
0.0
 10
25.6770060193
 20
4.0319595454
 30
0.0
 10
25.4935335211
 20
4.1907873863
 30
0.0
 10
25.2915763462
 20
4.3337456873
 30
0.0
 10
25.0784500206
 20
4.4556667969
 30
0.0
 10
24.930078982
 20
4.5217660085
 30
0.0
 10
24.8556365624
 20
4.5499543631
 30
0.0
  0
SPLINE
  5
3D2
100
AcDbEntity
  8
RACCORDO
100
AcDbSpline
 62
250
  6
CONTINUOUS
 70
0
 71
3
 72
15
 73
11
 74
0
 42
0.0000001
 43
0.0000001
 44
0.0000000001
 40
0.0
 40
0.0
 40
0.0
 40
0.0
 40
0.0908527838
 40
0.1968887999
 40
0.3164996215
 40
0.4468871748
 40
0.5844986748
 40
0.7253357438
 40
0.8652127439
 40
1.0
 40
1.0
 40
1.0
 40
1.0
 10
24.8632863105
 20
1.482565082
 30
0.0
 10
24.8481297857
 20
1.5336758595
 30
0.0
 10
24.801504563
 20
1.6403701324
 30
0.0
 10
24.700415455
 20
1.7967494766
 30
0.0
 10
24.5659707241
 20
1.9572526605
 30
0.0
 10
24.4028084328
 20
2.1161726057
 30
0.0
 10
24.2166286134
 20
2.2679154998
 30
0.0
 10
24.0140551066
 20
2.4070245248
 30
0.0
 10
23.8023699577
 20
2.5284981578
 30
0.0
 10
23.6560945351
 20
2.5967693796
 30
0.0
 10
23.5828936987
 20
2.6267187713
 30
0.0
  0
SPLINE
  5
3D3
100
AcDbEntity
  8
RACCORDO
100
AcDbSpline
 62
250
  6
CONTINUOUS
 70
0
 71
3
 72
12
 73
8
 74
0
 42
0.0000001
 43
0.0000001
 44
0.0000000001
 40
0.0
 40
0.0
 40
0.0
 40
0.0
 40
0.2532030814
 40
0.5194605429
 40
0.6502361226
 40
0.7754531171
 40
1.0
 40
1.0
 40
1.0
 40
1.0
 10
-4.2630227324
 20
5.3712097714
 30
0.0
 10
-4.2030981539
 20
5.358288932
 30
0.0
 10
-4.0757734461
 20
5.3509136202
 30
0.0
 10
-3.9195321013
 20
5.3798027384
 30
0.0
 10
-3.801079565
 20
5.4251053385
 30
0.0
 10
-3.6987019923
 20
5.480518669
 30
0.0
 10
-3.6324534704
 20
5.5367030959
 30
0.0
 10
-3.5993949332
 20
5.5798605972
 30
0.0
  0
SPLINE
  5
3D4
100
AcDbEntity
  8
RACCORDO
100
AcDbSpline
 62
250
  6
CONTINUOUS
 70
0
 71
3
 72
12
 73
8
 74
0
 42
0.0000001
 43
0.0000001
 44
0.0000000001
 40
0.0
 40
0.0
 40
0.0
 40
0.0
 40
0.2632303178
 40
0.5282580003
 40
0.6561431912
 40
0.7782526895
 40
1.0
 40
1.0
 40
1.0
 40
1.0
 10
0.8750360335
 20
2.0603600232
 30
0.0
 10
0.8389392166
 20
2.1075763289
 30
0.0
 10
0.7793287464
 20
2.2126060823
 30
0.0
 10
0.7390112763
 20
2.3568069835
 30
0.0
 10
0.7301944705
 20
2.4731539097
 30
0.0
 10
0.737168852
 20
2.5795633089
 30
0.0
 10
0.7602717734
 20
2.655994638
 30
0.0
 10
0.7847224287
 20
2.6996856962
 30
0.0
  0
SPLINE
  5
3D5
100
AcDbEntity
  8
RACCORDO
100
AcDbSpline
 62
250
  6
CONTINUOUS
 70
0
 71
3
 72
12
 73
8
 74
0
 42
0.0000001
 43
0.0000001
 44
0.0000000001
 40
0.0
 40
0.0
 40
0.0
 40
0.0
 40
0.2766127797
 40
0.5339659803
 40
0.7724551132
 40
0.8870303665
 40
1.0
 40
1.0
 40
1.0
 40
1.0
 10
1.1608852989
 20
2.1953787798
 30
0.0
 10
1.1201201732
 20
2.2110139479
 30
0.0
 10
1.0443996572
 20
2.2502085233
 30
0.0
 10
0.9530093177
 20
2.3331715741
 30
0.0
 10
0.9036357596
 20
2.4182084669
 30
0.0
 10
0.8848365349
 20
2.4896835413
 30
0.0
 10
0.8821728548
 20
2.5257492716
 30
0.0
 10
0.8825241447
 20
2.5435769817
 30
0.0
  0
SPLINE
  5
3D6
100
AcDbEntity
  8
RACCORDO
100
AcDbSpline
 62
250
  6
CONTINUOUS
 70
0
 71
3
 72
12
 73
8
 74
0
 42
0.0000001
 43
0.0000001
 44
0.0000000001
 40
0.0
 40
0.0
 40
0.0
 40
0.0
 40
0.2761182202
 40
0.5336753714
 40
0.7723823509
 40
0.8870127388
 40
1.0
 40
1.0
 40
1.0
 40
1.0
 10
-4.4365296501
 20
5.8004907431
 30
0.0
 10
-4.4034431072
 20
5.7680132549
 30
0.0
 10
-4.3317553121
 20
5.7123977875
 30
0.0
 10
-4.2103255442
 20
5.662210344
 30
0.0
 10
-4.1058003111
 20
5.6543622792
 30
0.0
 10
-4.0287143
 20
5.67019411
 30
0.0
 10
-3.99313535
 20
5.684906858
 30
0.0
 10
-3.9763843406
 20
5.6938133181
 30
0.0
  0
SPLINE
  5
3D7
100
AcDbEntity
  8
RACCORDO
100
AcDbSpline
 62
250
  6
CONTINUOUS
 70
0
 71
3
 72
16
 73
12
 74
0
 42
0.0000001
 43
0.0000001
 44
0.0000000001
 40
0.0
 40
0.0
 40
0.0
 40
0.0
 40
0.0928093466
 40
0.2020873369
 40
0.324786447
 40
0.4572235992
 40
0.5952997592
 40
0.7346861633
 40
0.8710015343
 40
0.9366732537
 40
1.0
 40
1.0
 40
1.0
 40
1.0
 10
23.3828489654
 20
-0.2020814236
 30
0.0
 10
23.3622871486
 20
-0.1534626299
 30
0.0
 10
23.3108567075
 20
-0.0504034425
 30
0.0
 10
23.2147086358
 20
0.1074898217
 30
0.0
 10
23.095916114
 20
0.2774869649
 30
0.0
 10
22.958218389
 20
0.4538369248
 30
0.0
 10
22.8061702017
 20
0.6306856523
 30
0.0
 10
22.6448051606
 20
0.802107534
 30
0.0
 10
22.5053813518
 20
0.9373621178
 30
0.0
 10
22.3931631341
 20
1.0382713617
 30
0.0
 10
22.337397
 20
1.0859736356
 30
0.0
 10
22.3096019837
 20
1.1088821646
 30
0.0
  0
SPLINE
  5
3D8
100
AcDbEntity
  8
RACCORDO
100
AcDbSpline
 62
250
  6
CONTINUOUS
 70
0
 71
3
 72
9
 73
5
 74
0
 42
0.0000001
 43
0.0000001
 44
0.0000000001
 40
0.0
 40
0.0
 40
0.0
 40
0.0
 40
0.2515104066
 40
1.0
 40
1.0
 40
1.0
 40
1.0
 10
23.3245786078
 20
-11.7559171372
 30
0.0
 10
19.4764258715
 20
-10.6988287186
 30
0.0
 10
4.2064503167
 20
-6.3868153032
 30
0.0
 10
-10.9400335241
 20
-1.636596524
 30
0.0
 10
-22.1901211006
 20
2.1687696889
 30
0.0
  0
SPLINE
  5
3D9
100
AcDbEntity
  8
RACCORDO
100
AcDbSpline
 62
250
  6
CONTINUOUS
 70
0
 71
3
 72
11
 73
7
 74
0
 42
0.0000001
 43
0.0000001
 44
0.0000000001
 40
0.0
 40
0.0
 40
0.0
 40
0.0
 40
0.1827006894
 40
0.4097971522
 40
0.6831835338
 40
1.0
 40
1.0
 40
1.0
 40
1.0
 10
6.3573862852
 20
-4.985574185
 30
0.0
 10
6.3361876512
 20
-4.974327107
 30
0.0
 10
6.2838556269
 20
-4.9583289227
 30
0.0
 10
6.194063009
 20
-4.9513772033
 30
0.0
 10
6.0866600571
 20
-4.9586361964
 30
0.0
 10
6.0101874218
 20
-4.9720540375
 30
0.0
 10
5.9695084197
 20
-4.9808229157
 30
0.0
  0
SPLINE
  5
3DA
100
AcDbEntity
  8
RACCORDO
100
AcDbSpline
 62
250
  6
CONTINUOUS
 70
0
 71
3
 72
9
 73
5
 74
0
 42
0.0000001
 43
0.0000001
 44
0.0000000001
 40
0.0
 40
0.0
 40
0.0
 40
0.0
 40
0.5432387605
 40
1.0
 40
1.0
 40
1.0
 40
1.0
 10
-4.2630226556
 20
5.3712098743
 30
0.0
 10
-4.2762292599
 20
5.4107932073
 30
0.0
 10
-4.3011344996
 20
5.4834572686
 30
0.0
 10
-4.3281805516
 20
5.5553924137
 30
0.0
 10
-4.3416911857
 20
5.587772442
 30
0.0
  0
SPLINE
  5
3DB
100
AcDbEntity
  8
RACCORDO
100
AcDbSpline
 62
250
  6
CONTINUOUS
 70
0
 71
3
 72
10
 73
6
 74
0
 42
0.0000001
 43
0.0000001
 44
0.0000000001
 40
0.0
 40
0.0
 40
0.0
 40
0.0
 40
0.2336560658
 40
0.6091210832
 40
1.0
 40
1.0
 40
1.0
 40
1.0
 10
-18.3195432318
 20
3.7264981618
 30
0.0
 10
-18.254095576
 20
3.7266074053
 30
0.0
 10
-18.0832144614
 20
3.7085026798
 30
0.0
 10
-17.8156455942
 20
3.6162268543
 30
0.0
 10
-17.6326066043
 20
3.499948906
 30
0.0
 10
-17.5475023024
 20
3.4310684762
 30
0.0
  0
SPLINE
  5
3DC
100
AcDbEntity
  8
RACCORDO
100
AcDbSpline
 62
250
  6
CONTINUOUS
 70
0
 71
3
 72
9
 73
5
 74
0
 42
0.0000001
 43
0.0000001
 44
0.0000000001
 40
0.0
 40
0.0
 40
0.0
 40
0.0
 40
0.2406910271
 40
1.0
 40
1.0
 40
1.0
 40
1.0
 10
-18.702903373
 20
2.9071292548
 30
0.0
 10
-18.65280383
 20
2.8955377142
 30
0.0
 10
-18.4481536063
 20
2.8328103755
 30
0.0
 10
-18.2606837171
 20
2.717986505
 30
0.0
 10
-18.1380528647
 20
2.6117864843
 30
0.0
  0
SPLINE
  5
3DD
100
AcDbEntity
  8
RACCORDO
100
AcDbSpline
 62
250
  6
CONTINUOUS
 70
0
 71
3
 72
13
 73
9
 74
0
 42
0.0000001
 43
0.0000001
 44
0.0000000001
 40
0.0
 40
0.0
 40
0.0
 40
0.0
 40
0.2749547167
 40
0.5308498033
 40
0.6524300596
 40
0.7704446436
 40
0.8858947001
 40
1.0
 40
1.0
 40
1.0
 40
1.0
 10
-22.1901211006
 20
2.1687696889
 30
0.0
 10
-22.2787440047
 20
2.198746576
 30
0.0
 10
-22.4447106471
 20
2.2741087619
 30
0.0
 10
-22.6214945205
 20
2.4127685178
 30
0.0
 10
-22.7297573236
 20
2.5427059681
 30
0.0
 10
-22.7928003651
 20
2.6463237769
 30
0.0
 10
-22.8379697386
 20
2.7561364479
 30
0.0
 10
-22.855727771
 20
2.8326203778
 30
0.0
 10
-22.8613834476
 20
2.871031464
 30
0.0
  0
SPLINE
  5
3DE
100
AcDbEntity
  8
RACCORDO
100
AcDbSpline
 62
250
  6
CONTINUOUS
 70
0
 71
3
 72
28
 73
24
 74
0
 42
0.0000001
 43
0.0000001
 44
0.0000000001
 40
0.0
 40
0.0
 40
0.0
 40
0.0
 40
0.0694877824
 40
0.1437565135
 40
0.2215757923
 40
0.3016058419
 40
0.3824419018
 40
0.4626560646
 40
0.5408382541
 40
0.6156378415
 40
0.6858077484
 40
0.7502542826
 40
0.8080991837
 40
0.8343634998
 40
0.8587950463
 40
0.8813933565
 40
0.9022000704
 40
0.9213100434
 40
0.9388849686
 40
0.955167672
 40
0.9704917894
 40
0.9852768285
 40
1.0
 40
1.0
 40
1.0
 40
1.0
 10
31.3542689539
 20
2.4768887337
 30
0.0
 10
31.2552389266
 20
2.3218237784
 30
0.0
 10
31.0629141512
 20
1.9929138379
 30
0.0
 10
30.7999021765
 20
1.4681151172
 30
0.0
 10
30.5566045426
 20
0.903368082
 30
0.0
 10
30.3379902925
 20
0.3100860934
 30
0.0
 10
30.1484912409
 20
-0.2997650161
 30
0.0
 10
29.9919420351
 20
-0.9138511591
 30
0.0
 10
29.8714857808
 20
-1.5197611217
 30
0.0
 10
29.789512862
 20
-2.1052593266
 30
0.0
 10
29.7475934877
 20
-2.6586043699
 30
0.0
 10
29.7464992482
 20
-3.1686950033
 30
0.0
 10
29.7804713862
 20
-3.5613364351
 30
0.0
 10
29.83021136
 20
-3.8445638339
 30
0.0
 10
29.8762947016
 20
-4.0332479493
 30
0.0
 10
29.9321234987
 20
-4.2041807547
 30
0.0
 10
29.9974737172
 20
-4.3565438547
 30
0.0
 10
30.0721032879
 20
-4.4896061675
 30
0.0
 10
30.1557828371
 20
-4.6026975505
 30
0.0
 10
30.2482740279
 20
-4.695152642
 30
0.0
 10
30.3492811545
 20
-4.7662541769
 30
0.0
 10
30.4582053305
 20
-4.8152560427
 30
0.0
 10
30.534979071
 20
-4.8326860936
 30
0.0
 10
30.5736459757
 20
-4.8376476897
 30
0.0
  0
SPLINE
  5
3DF
100
AcDbEntity
  8
RACCORDO
100
AcDbSpline
 62
250
  6
CONTINUOUS
 70
0
 71
3
 72
11
 73
7
 74
0
 42
0.0000001
 43
0.0000001
 44
0.0000000001
 40
0.0
 40
0.0
 40
0.0
 40
0.0
 40
0.2452370178
 40
0.4991883236
 40
0.7535671242
 40
1.0
 40
1.0
 40
1.0
 40
1.0
 10
24.6656229286
 20
-11.5446212501
 30
0.0
 10
24.5704809273
 20
-11.6074284049
 30
0.0
 10
24.3610532842
 20
-11.7124529456
 30
0.0
 10
24.0199662029
 20
-11.8018245687
 30
0.0
 10
23.6673719813
 20
-11.8216308331
 30
0.0
 10
23.4350456295
 20
-11.7862624528
 30
0.0
 10
23.3245786078
 20
-11.7559171372
 30
0.0
  0
SPLINE
  5
3E0
100
AcDbEntity
  8
RACCORDO
100
AcDbSpline
 62
250
  6
CONTINUOUS
 70
0
 71
3
 72
11
 73
7
 74
0
 42
0.0000001
 43
0.0000001
 44
0.0000000001
 40
0.0
 40
0.0
 40
0.0
 40
0.0
 40
0.2452368375
 40
0.4991883247
 40
0.753567307
 40
1.0
 40
1.0
 40
1.0
 40
1.0
 10
24.6646441954
 20
-11.5379739959
 30
0.0
 10
24.5695022734
 20
-11.6007810983
 30
0.0
 10
24.3600745272
 20
-11.7058053769
 30
0.0
 10
24.0189874374
 20
-11.7951771216
 30
0.0
 10
23.6663931709
 20
-11.8149832735
 30
0.0
 10
23.4340668035
 20
-11.7796151731
 30
0.0
 10
23.3235998746
 20
-11.749269883
 30
0.0
  0
SPLINE
  5
3E1
100
AcDbEntity
  8
RACCORDO
100
AcDbSpline
 62
250
  6
CONTINUOUS
 70
0
 71
3
 72
9
 73
5
 74
0
 42
0.0000001
 43
0.0000001
 44
0.0000000001
 40
0.0
 40
0.0
 40
0.0
 40
0.0
 40
0.2508952035
 40
1.0
 40
1.0
 40
1.0
 40
1.0
 10
7.2869688682
 20
-7.1712424475
 30
0.0
 10
5.0579050782
 20
-6.510621905
 30
0.0
 10
-3.8153735319
 20
-3.8400601865
 30
0.0
 10
-12.6434080184
 20
-1.0190687331
 30
0.0
 10
-19.2275642271
 20
1.1794384173
 30
0.0
  0
SPLINE
  5
3E2
100
AcDbEntity
  8
0
100
AcDbSpline
 62
7
  6
CONTINUOUS
 70
0
 71
3
 72
8
 73
4
 74
0
 42
0.0000001
 43
0.0000001
 44
0.0000000001
 40
0.0
 40
0.0
 40
0.0
 40
0.0
 40
1.0
 40
1.0
 40
1.0
 40
1.0
 10
13.4428296821
 20
0.2143181556
 30
0.0
 10
13.8359360392
 20
0.1018049911
 30
0.0
 10
14.229125463
 20
-0.0104183525
 30
0.0
 10
14.6223972138
 20
-0.1223520395
 30
0.0
  0
LINE
  5
3E3
100
AcDbEntity
  8
0
100
AcDbLine
 62
7
  6
CONTINUOUS
 10
14.6223972138
 20
-0.1223520395
 11
14.6615350166
 21
-0.4494589972
  0
SPLINE
  5
3E4
100
AcDbEntity
  8
RACCORDO
100
AcDbSpline
 62
250
  6
CONTINUOUS
 70
0
 71
3
 72
11
 73
7
 74
0
 42
0.0000001
 43
0.0000001
 44
0.0000000001
 40
0.0
 40
0.0
 40
0.0
 40
0.0
 40
0.2733928434
 40
0.5319551544
 40
0.774523085
 40
1.0
 40
1.0
 40
1.0
 40
1.0
 10
-18.1380528697
 20
2.611786479
 30
0.0
 10
-18.2476640774
 20
2.4894502429
 30
0.0
 10
-18.4577157596
 20
2.2484819192
 30
0.0
 10
-18.7502944439
 20
1.8864367223
 30
0.0
 10
-19.0080444392
 20
1.5338579334
 30
0.0
 10
-19.1595934937
 20
1.2966220989
 30
0.0
 10
-19.2275642271
 20
1.1794384173
 30
0.0
  0
SPLINE
  5
3E5
100
AcDbEntity
  8
RACCORDO
100
AcDbSpline
 62
250
  6
CONTINUOUS
 70
0
 71
3
 72
11
 73
7
 74
0
 42
0.0000001
 43
0.0000001
 44
0.0000000001
 40
0.0
 40
0.0
 40
0.0
 40
0.0
 40
0.2258190544
 40
0.4678171415
 40
0.7263060824
 40
1.0
 40
1.0
 40
1.0
 40
1.0
 10
0.8750360218
 20
2.0603600158
 30
0.0
 10
0.7377097829
 20
2.0078484521
 30
0.0
 10
0.4408159321
 20
1.9298870009
 30
0.0
 10
-0.0330425388
 20
1.8958531758
 30
0.0
 10
-0.5369576298
 20
1.9415133082
 30
0.0
 10
-0.8751650616
 20
2.0224179172
 30
0.0
 10
-1.0454777437
 20
2.0748250667
 30
0.0
  0
LINE
  5
3E6
100
AcDbEntity
  8
0
100
AcDbLine
 62
7
  6
CONTINUOUS
 10
9.4714730912
 20
-4.5693806822
 11
10.0460679298
 21
-4.737334209
  0
SPLINE
  5
3E7
100
AcDbEntity
  8
RACCORDO
100
AcDbSpline
 62
250
  6
CONTINUOUS
 70
0
 71
3
 72
28
 73
24
 74
0
 42
0.0000001
 43
0.0000001
 44
0.0000000001
 40
0.0
 40
0.0
 40
0.0
 40
0.0
 40
0.0684017426
 40
0.1414165724
 40
0.217902379
 40
0.2966154438
 40
0.3762499551
 40
0.4554750388
 40
0.5329709137
 40
0.6074654189
 40
0.6777723482
 40
0.7428339908
 40
0.8017725192
 40
0.8287471541
 40
0.8539822333
 40
0.87745642
 40
0.8991812491
 40
0.9192093536
 40
0.9376449906
 40
0.9546565052
 40
0.9704885714
 40
0.9854688015
 40
1.0
 40
1.0
 40
1.0
 40
1.0
 10
30.5634345441
 20
3.227482492
 30
0.0
 10
30.4500973528
 20
3.0500148393
 30
0.0
 10
30.229734194
 20
2.6740916582
 30
0.0
 10
29.9274730608
 20
2.0748459909
 30
0.0
 10
29.6468881528
 20
1.4303798089
 30
0.0
 10
29.3934020947
 20
0.7530210787
 30
0.0
 10
29.1718794486
 20
0.0557002821
 30
0.0
 10
28.9865657571
 20
-0.6482337194
 30
0.0
 10
28.840988752
 20
-1.3453116816
 30
0.0
 10
28.7378933677
 20
-2.0222032327
 30
0.0
 10
28.679170013
 20
-2.6660356662
 30
0.0
 10
28.6658687901
 20
-3.2645565656
 30
0.0
 10
28.6934313336
 20
-3.7292515008
 30
0.0
 10
28.7405230321
 20
-4.0683201183
 30
0.0
 10
28.7860473062
 20
-4.2969741279
 30
0.0
 10
28.8425913074
 20
-4.5064924674
 30
0.0
 10
28.9099242499
 20
-4.6959157756
 30
0.0
 10
28.9877831645
 20
-4.864383205
 30
0.0
 10
29.0759055019
 20
-5.0111235926
 30
0.0
 10
29.174027823
 20
-5.1354177165
 30
0.0
 10
29.2818961392
 20
-5.2365490946
 30
0.0
 10
29.3990673699
 20
-5.3137236743
 30
0.0
 10
29.4835321536
 20
-5.3489151629
 30
0.0
 10
29.5262946126
 20
-5.3620473747
 30
0.0
  0
SPLINE
  5
3E8
100
AcDbEntity
  8
RACCORDO
100
AcDbSpline
 62
250
  6
CONTINUOUS
 70
0
 71
3
 72
11
 73
7
 74
0
 42
0.0000001
 43
0.0000001
 44
0.0000000001
 40
0.0
 40
0.0
 40
0.0
 40
0.0
 40
0.242893953
 40
0.4910787866
 40
0.7438414232
 40
1.0
 40
1.0
 40
1.0
 40
1.0
 10
5.3512024983
 20
-3.7016088371
 30
0.0
 10
5.0929297376
 20
-3.166193007
 30
0.0
 10
4.5082045397
 20
-2.1128864751
 30
0.0
 10
3.4595969378
 20
-0.6210656937
 30
0.0
 10
2.2471490378
 20
0.7838281028
 30
0.0
 10
1.3466904233
 20
1.6473623328
 30
0.0
 10
0.8750360218
 20
2.0603600158
 30
0.0
  0
LINE
  5
3E9
100
AcDbEntity
  8
0
100
AcDbLine
 62
7
  6
CONTINUOUS
 10
7.628274445
 20
-4.0275685537
 11
8.202090433
 21
-4.1967416342
  0
LINE
  5
3EA
100
AcDbEntity
  8
0
100
AcDbLine
 62
7
  6
CONTINUOUS
 10
10.4292587478
 20
-4.8490900926
 11
11.0042507362
 21
-5.0164084018
  0
SPLINE
  5
3EB
100
AcDbEntity
  8
RACCORDO
100
AcDbSpline
 62
250
  6
CONTINUOUS
 70
0
 71
3
 72
28
 73
24
 74
0
 42
0.0000001
 43
0.0000001
 44
0.0000000001
 40
0.0
 40
0.0
 40
0.0
 40
0.0
 40
0.0684017579
 40
0.1414165676
 40
0.2179023682
 40
0.2966154296
 40
0.376249939
 40
0.455475022
 40
0.5329708976
 40
0.6074654044
 40
0.6777723358
 40
0.7428339806
 40
0.8017725112
 40
0.8287471425
 40
0.8539822268
 40
0.8774564095
 40
0.8991812434
 40
0.9192093439
 40
0.937644985
 40
0.954656496
 40
0.9704885653
 40
0.9854687912
 40
1.0
 40
1.0
 40
1.0
 40
1.0
 10
29.1554183503
 20
4.1358727286
 30
0.0
 10
29.0260428451
 20
3.9332916785
 30
0.0
 10
28.7744962034
 20
3.5041718361
 30
0.0
 10
28.4294622939
 20
2.8201272619
 30
0.0
 10
28.1091719911
 20
2.0844631201
 30
0.0
 10
27.8198152546
 20
1.3112517637
 30
0.0
 10
27.5669450444
 20
0.5152535026
 30
0.0
 10
27.3554076936
 20
-0.2882938085
 30
0.0
 10
27.1892301424
 20
-1.0840148995
 30
0.0
 10
27.0715457655
 20
-1.8566930216
 30
0.0
 10
27.0045124723
 20
-2.5916338569
 30
0.0
 10
26.9893290065
 20
-3.274851145
 30
0.0
 10
27.0207918314
 20
-3.8053048254
 30
0.0
 10
27.0745475626
 20
-4.1923548541
 30
0.0
 10
27.1265138294
 20
-4.4533655885
 30
0.0
 10
27.1910594687
 20
-4.6925327391
 30
0.0
 10
27.2679205177
 20
-4.9087612811
 30
0.0
 10
27.3567973469
 20
-5.1010683926
 30
0.0
 10
27.4573896824
 20
-5.2685740167
 30
0.0
 10
27.569397378
 20
-5.4104568257
 30
0.0
 10
27.6925299493
 20
-5.525899405
 30
0.0
 10
27.8262821674
 20
-5.6139946561
 30
0.0
 10
27.9226993837
 20
-5.6541665623
 30
0.0
 10
27.9715132691
 20
-5.6691567932
 30
0.0
  0
SPLINE
  5
3EC
100
AcDbEntity
  8
RACCORDO
100
AcDbSpline
 62
250
  6
CONTINUOUS
 70
0
 71
3
 72
10
 73
6
 74
0
 42
0.0000001
 43
0.0000001
 44
0.0000000001
 40
0.0
 40
0.0
 40
0.0
 40
0.0
 40
0.2514267224
 40
0.501594925
 40
1.0
 40
1.0
 40
1.0
 40
1.0
 10
5.9695084045
 20
-4.9808229332
 30
0.0
 10
5.9157545576
 20
-4.8745679846
 30
0.0
 10
5.8107188896
 20
-4.6614761916
 30
0.0
 10
5.605765573
 20
-4.2345101919
 30
0.0
 10
5.4537527564
 20
-3.9142182292
 30
0.0
 10
5.3512024983
 20
-3.7016088371
 30
0.0
  0
SPLINE
  5
3ED
100
AcDbEntity
  8
RACCORDO
100
AcDbSpline
 62
250
  6
CONTINUOUS
 70
0
 71
3
 72
9
 73
5
 74
0
 42
0.0000001
 43
0.0000001
 44
0.0000000001
 40
0.0
 40
0.0
 40
0.0
 40
0.0
 40
0.2506245508
 40
1.0
 40
1.0
 40
1.0
 40
1.0
 10
5.9695084045
 20
-4.9808229332
 30
0.0
 10
4.4061145261
 20
-4.5148817295
 30
0.0
 10
-1.8263440991
 20
-2.6372491131
 30
0.0
 10
-8.036460573
 20
-0.6854316368
 30
0.0
 10
-12.6763925099
 20
0.8191762712
 30
0.0
  0
SPLINE
  5
3EE
100
AcDbEntity
  8
RACCORDO
100
AcDbSpline
 62
250
  6
CONTINUOUS
 70
0
 71
3
 72
10
 73
6
 74
0
 42
0.0000001
 43
0.0000001
 44
0.0000000001
 40
0.0
 40
0.0
 40
0.0
 40
0.0
 40
0.4984845358
 40
0.7489385997
 40
1.0
 40
1.0
 40
1.0
 40
1.0
 10
-17.5475027896
 20
3.4310679451
 30
0.0
 10
-17.6437369761
 20
3.2935683981
 30
0.0
 10
-17.7876809884
 20
3.0865277757
 30
0.0
 10
-17.9843413761
 20
2.813241344
 30
0.0
 10
-18.0859530974
 20
2.6783489754
 30
0.0
 10
-18.1380528697
 20
2.611786479
 30
0.0
  0
SPLINE
  5
3EF
100
AcDbEntity
  8
0
100
AcDbSpline
 62
7
  6
CONTINUOUS
 70
0
 71
3
 72
8
 73
4
 74
0
 42
0.0000001
 43
0.0000001
 44
0.0000000001
 40
0.0
 40
0.0
 40
0.0
 40
0.0
 40
1.0
 40
1.0
 40
1.0
 40
1.0
 10
11.5794637628
 20
-5.1833405654
 30
0.0
 10
11.8694381194
 20
-5.2673803441
 30
0.0
 10
12.1594583827
 20
-5.3512618858
 30
0.0
 10
12.449524253
 20
-5.4349852567
 30
0.0
  0
SPLINE
  5
3F0
100
AcDbEntity
  8
0
100
AcDbSpline
 62
7
  6
CONTINUOUS
 70
0
 71
3
 72
8
 73
4
 74
0
 42
0.0000001
 43
0.0000001
 44
0.0000000001
 40
0.0
 40
0.0
 40
0.0
 40
0.0
 40
1.0
 40
1.0
 40
1.0
 40
1.0
 10
13.5250547695
 20
-5.744637179
 30
0.0
 10
13.8154427244
 20
-5.8280299978
 30
0.0
 10
14.1058761753
 20
-5.9112645544
 30
0.0
 10
14.3963548232
 20
-5.9943409149
 30
0.0
  0
SPLINE
  5
3F1
100
AcDbEntity
  8
0
100
AcDbSpline
 62
7
  6
CONTINUOUS
 70
0
 71
3
 72
15
 73
11
 74
0
 42
0.0000001
 43
0.0000001
 44
0.0000000001
 40
0.0
 40
0.0
 40
0.0
 40
0.0
 40
0.1554269312
 40
0.3034976601
 40
0.442567042
 40
0.5716030845
 40
0.6903973946
 40
0.7997965787
 40
0.9018915346
 40
1.0
 40
1.0
 40
1.0
 40
1.0
 10
15.5002342051
 20
-0.7458570244
 30
0.0
 10
15.579140813
 20
-0.821506239
 30
0.0
 10
15.7261764713
 20
-0.9768424496
 30
0.0
 10
15.9151566596
 20
-1.2249586206
 30
0.0
 10
16.0639136906
 20
-1.4779595921
 30
0.0
 10
16.1688797646
 20
-1.7300784066
 30
0.0
 10
16.227384712
 20
-1.9757168301
 30
0.0
 10
16.2374183653
 20
-2.2094829799
 30
0.0
 10
16.1977523925
 20
-2.4256150413
 30
0.0
 10
16.1375072132
 20
-2.5549560983
 30
0.0
 10
16.1003694476
 20
-2.6131088359
 30
0.0
  0
LINE
  5
3F2
100
AcDbEntity
  8
0
100
AcDbLine
 62
7
  6
CONTINUOUS
 10
15.8988955461
 20
-7.6892819502
 11
16.0879236618
 21
-7.1204449844
  0
LINE
  5
3F3
100
AcDbEntity
  8
0
100
AcDbLine
 62
7
  6
CONTINUOUS
 10
15.8988955461
 20
-7.6892819502
 11
16.4583693506
 21
-7.848083173
  0
SPLINE
  5
3F4
100
AcDbEntity
  8
RACCORDO
100
AcDbSpline
 62
250
  6
CONTINUOUS
 70
0
 71
3
 72
21
 73
17
 74
0
 42
0.0000001
 43
0.0000001
 44
0.0000000001
 40
0.0
 40
0.0
 40
0.0
 40
0.0
 40
0.149903843
 40
0.2222513748
 40
0.292526831
 40
0.3605796278
 40
0.4263417721
 40
0.5510555231
 40
0.6104256446
 40
0.6681049958
 40
0.7244305566
 40
0.7797887264
 40
0.8345979934
 40
0.8892899997
 40
0.9442902058
 40
1.0
 40
1.0
 40
1.0
 40
1.0
 10
-4.2630228057
 20
5.3712098617
 30
0.0
 10
-4.9284340944
 20
5.67025157
 30
0.0
 10
-5.9415505604
 20
6.0587705188
 30
0.0
 10
-7.313670791
 20
6.4409200555
 30
0.0
 10
-8.318109685
 20
6.6505200296
 30
0.0
 10
-9.3031390613
 20
6.7850842426
 30
0.0
 10
-10.5596601485
 20
6.8622999188
 30
0.0
 10
-11.7806651905
 20
6.7941656319
 30
0.0
 10
-12.9367808212
 20
6.5681473808
 30
0.0
 10
-13.7470479506
 20
6.3279260442
 30
0.0
 10
-14.5113198105
 20
6.015601105
 30
0.0
 10
-15.2270836351
 20
5.6327303514
 30
0.0
 10
-15.8920019437
 20
5.1810911609
 30
0.0
 10
-16.5039994863
 20
4.6626511774
 30
0.0
 10
-17.0610996479
 20
4.0797123015
 30
0.0
 10
-17.3920336936
 20
3.653179067
 30
0.0
 10
-17.5475027896
 20
3.4310679451
 30
0.0
  0
LINE
  5
3F5
100
AcDbEntity
  8
0
100
AcDbLine
 62
7
  6
CONTINUOUS
 10
15.6583660146
 20
-8.4153136833
 11
15.780473639
 21
-8.0463975199
  0
SPLINE
  5
3F6
100
AcDbEntity
  8
RACCORDO
100
AcDbSpline
 62
250
  6
CONTINUOUS
 70
0
 71
3
 72
15
 73
11
 74
0
 42
0.0000001
 43
0.0000001
 44
0.0000000001
 40
0.0
 40
0.0
 40
0.0
 40
0.0
 40
0.1264480564
 40
0.2570802455
 40
0.3896725851
 40
0.5218063701
 40
0.6510314378
 40
0.7750335179
 40
0.8918266112
 40
1.0
 40
1.0
 40
1.0
 40
1.0
 10
-1.0454777437
 20
2.0748250667
 30
0.0
 10
-1.2390075695
 20
2.1343787776
 30
0.0
 10
-1.6240905995
 20
2.2841606932
 30
0.0
 10
-2.172780749
 20
2.584553503
 30
0.0
 10
-2.6880729701
 20
2.955050509
 30
0.0
 10
-3.1539549089
 20
3.3826049445
 30
0.0
 10
-3.5564407366
 20
3.8523802638
 30
0.0
 10
-3.8835899204
 20
4.3484684324
 30
0.0
 10
-4.1256229023
 20
4.8541334866
 30
0.0
 10
-4.2294835757
 20
5.201266021
 30
0.0
 10
-4.2630228057
 20
5.3712098617
 30
0.0
  0
LINE
  5
3F7
100
AcDbEntity
  8
0
100
AcDbLine
 62
7
  6
CONTINUOUS
 10
15.7068796066
 20
-6.3679834365
 11
16.2841239523
 21
-6.5318283007
  0
SPLINE
  5
3F8
100
AcDbEntity
  8
0
100
AcDbSpline
 62
7
  6
CONTINUOUS
 70
0
 71
3
 72
11
 73
7
 74
0
 42
0.0000001
 43
0.0000001
 44
0.0000000001
 40
0.0
 40
0.0
 40
0.0
 40
0.0
 40
0.2766006879
 40
0.531930904
 40
0.7706369046
 40
1.0
 40
1.0
 40
1.0
 40
1.0
 10
15.1310712742
 20
-2.7185048198
 30
0.0
 10
15.1952951676
 20
-2.7089525907
 30
0.0
 10
15.3177555475
 20
-2.6811704993
 30
0.0
 10
15.484815053
 20
-2.6086719614
 30
0.0
 10
15.6234958
 20
-2.5081429991
 30
0.0
 10
15.6949249408
 20
-2.4228449765
 30
0.0
 10
15.7239049422
 20
-2.3774678833
 30
0.0
  0
LINE
  5
3F9
100
AcDbEntity
  8
0
100
AcDbLine
 62
7
  6
CONTINUOUS
 10
9.4847955297
 20
-4.5485199051
 11
10.0593905498
 21
-4.7164731476
  0
SPLINE
  5
3FA
100
AcDbEntity
  8
RACCORDO
100
AcDbSpline
 62
250
  6
CONTINUOUS
 70
0
 71
3
 72
30
 73
26
 74
0
 42
0.0000001
 43
0.0000001
 44
0.0000000001
 40
0.0
 40
0.0
 40
0.0
 40
0.0
 40
0.0165298703
 40
0.0321196078
 40
0.0472842203
 40
0.062590411
 40
0.0785869454
 40
0.0957419834
 40
0.1144131466
 40
0.1348481145
 40
0.1572005515
 40
0.1815490914
 40
0.2079138109
 40
0.2362689683
 40
0.2665524633
 40
0.2986728025
 40
0.3679275461
 40
0.4429028496
 40
0.5222214923
 40
0.6043508038
 40
0.6876635634
 40
0.7704939214
 40
0.8511917037
 40
0.9281773706
 40
1.0
 40
1.0
 40
1.0
 40
1.0
 10
29.2787619122
 20
-5.2863705146
 30
0.0
 10
29.2258164922
 20
-5.2988220545
 30
0.0
 10
29.1207314684
 20
-5.3149889182
 30
0.0
 10
28.9642509839
 20
-5.3092908846
 30
0.0
 10
28.8160776592
 20
-5.2723813601
 30
0.0
 10
28.6778376903
 20
-5.2045288088
 30
0.0
 10
28.550750582
 20
-5.1066773782
 30
0.0
 10
28.4355052483
 20
-4.9799807331
 30
0.0
 10
28.3324654372
 20
-4.8254937062
 30
0.0
 10
28.241928165
 20
-4.6441830364
 30
0.0
 10
28.1642115583
 20
-4.4370467183
 30
0.0
 10
28.0996478449
 20
-4.2051964375
 30
0.0
 10
28.0485510689
 20
-3.9498900667
 30
0.0
 10
28.0111930547
 20
-3.6725371445
 30
0.0
 10
27.9877745224
 20
-3.3746864112
 30
0.0
 10
27.9750359943
 20
-2.9415220883
 30
0.0
 10
27.9968368612
 20
-2.3609730194
 30
0.0
 10
28.0774499863
 20
-1.6293193054
 30
0.0
 10
28.2115512203
 20
-0.8625478433
 30
0.0
 10
28.3961389884
 20
-0.0781916171
 30
0.0
 10
28.6270504347
 20
0.7058383491
 30
0.0
 10
28.8990064895
 20
1.4715976212
 30
0.0
 10
29.2057720132
 20
2.2016105387
 30
0.0
 10
29.540255419
 20
2.8791831542
 30
0.0
 10
29.7866004161
 20
3.3029641675
 30
0.0
 10
29.913799528
 20
3.5021373388
 30
0.0
  0
SPLINE
  5
3FB
100
AcDbEntity
  8
0
100
AcDbSpline
 62
7
  6
CONTINUOUS
 70
0
 71
3
 72
9
 73
5
 74
0
 42
0.0000001
 43
0.0000001
 44
0.0000000001
 40
0.0
 40
0.0
 40
0.0
 40
0.0
 40
0.2498329484
 40
1.0
 40
1.0
 40
1.0
 40
1.0
 10
18.2939557806
 20
-7.9847117603
 30
0.0
 10
18.2878710417
 20
-7.9411435244
 30
0.0
 10
18.2635493916
 20
-7.7667493648
 30
0.0
 10
18.2393619742
 20
-7.5923364848
 30
0.0
 10
18.2212926245
 20
-7.4614873154
 30
0.0
  0
LINE
  5
3FC
100
AcDbEntity
  8
0
100
AcDbLine
 62
7
  6
CONTINUOUS
 10
18.2939557806
 20
-7.9847117603
 11
18.9975080007
 21
-8.1820226698
  0
SPLINE
  5
3FD
100
AcDbEntity
  8
0
100
AcDbSpline
 62
7
  6
CONTINUOUS
 70
0
 71
3
 72
9
 73
5
 74
0
 42
0.0000001
 43
0.0000001
 44
0.0000000001
 40
0.0
 40
0.0
 40
0.0
 40
0.0
 40
0.2499574744
 40
1.0
 40
1.0
 40
1.0
 40
1.0
 10
17.5964683794
 20
-6.9026547898
 30
0.0
 10
17.7092462504
 20
-6.9344227223
 30
0.0
 10
18.1604612314
 20
-7.0614210926
 30
0.0
 10
18.6117831303
 20
-7.1880395915
 30
0.0
 10
18.9503534681
 20
-7.2827952455
 30
0.0
  0
SPLINE
  5
3FE
100
AcDbEntity
  8
RACCORDO
100
AcDbSpline
 62
250
  6
CONTINUOUS
 70
0
 71
3
 72
19
 73
15
 74
0
 42
0.0000001
 43
0.0000001
 44
0.0000000001
 40
0.0
 40
0.0
 40
0.0
 40
0.0
 40
0.1441050721
 40
0.2809160049
 40
0.4105826306
 40
0.5339596898
 40
0.5937749637
 40
0.6526123447
 40
0.7107258451
 40
0.7683851822
 40
0.8258682276
 40
0.8834534594
 40
0.9414115705
 40
1.0
 40
1.0
 40
1.0
 40
1.0
 10
-7.6855583817
 20
6.8141769048
 30
0.0
 10
-8.2357339169
 20
6.9419172683
 30
0.0
 10
-9.3220385225
 20
7.1364884635
 30
0.0
 10
-10.9319737856
 20
7.2369810893
 30
0.0
 10
-12.4612017776
 20
7.1374651963
 30
0.0
 10
-13.6663066777
 20
6.8855795087
 30
0.0
 10
-14.5668746389
 20
6.5848216402
 30
0.0
 10
-15.2053000963
 20
6.3137435989
 30
0.0
 10
-15.8120788776
 20
5.9955698885
 30
0.0
 10
-16.3859714925
 20
5.6310860472
 30
0.0
 10
-16.9257503531
 20
5.2211723651
 30
0.0
 10
-17.4302590628
 20
4.7667955475
 30
0.0
 10
-17.898340215
 20
4.2690932733
 30
0.0
 10
-18.1835381836
 20
3.9115238269
 30
0.0
 10
-18.3195436339
 20
3.726499348
 30
0.0
  0
LINE
  5
3FF
100
AcDbEntity
  8
0
100
AcDbLine
 62
7
  6
CONTINUOUS
 10
14.5820484115
 20
-2.6460429911
 11
14.9591139717
 21
-2.7534542256
  0
LINE
  5
400
100
AcDbEntity
  8
0
100
AcDbLine
 62
7
  6
CONTINUOUS
 10
10.4425814943
 20
-4.8282288332
 11
11.0175736805
 21
-4.9955468327
  0
LINE
  5
401
100
AcDbEntity
  8
0
100
AcDbLine
 62
7
  6
CONTINUOUS
 10
14.9591139717
 20
-2.7534542256
 11
15.000047649
 21
-3.0756256614
  0
SPLINE
  5
402
100
AcDbEntity
  8
RACCORDO
100
AcDbSpline
 62
250
  6
CONTINUOUS
 70
0
 71
3
 72
9
 73
5
 74
0
 42
0.0000001
 43
0.0000001
 44
0.0000000001
 40
0.0
 40
0.0
 40
0.0
 40
0.0
 40
0.4986164017
 40
1.0
 40
1.0
 40
1.0
 40
1.0
 10
-18.3843668447
 20
3.5955372783
 30
0.0
 10
-18.4396120317
 20
3.4822102262
 30
0.0
 10
-18.546958451
 20
3.2532441472
 30
0.0
 10
-18.6504908437
 20
3.0225627572
 30
0.0
 10
-18.7029033723
 20
2.9071292482
 30
0.0
  0
SPLINE
  5
403
100
AcDbEntity
  8
RACCORDO
100
AcDbSpline
 62
250
  6
CONTINUOUS
 70
0
 71
3
 72
9
 73
5
 74
0
 42
0.0000001
 43
0.0000001
 44
0.0000000001
 40
0.0
 40
0.0
 40
0.0
 40
0.0
 40
0.5109941479
 40
1.0
 40
1.0
 40
1.0
 40
1.0
 10
-18.7029033723
 20
2.9071292482
 30
0.0
 10
-18.830394594
 20
2.6264003704
 30
0.0
 10
-19.0485917541
 20
2.0620142301
 30
0.0
 10
-19.1859337131
 20
1.4715418892
 30
0.0
 10
-19.2275642219
 20
1.1794383857
 30
0.0
  0
SPLINE
  5
404
100
AcDbEntity
  8
RACCORDO
100
AcDbSpline
 62
250
  6
CONTINUOUS
 70
0
 71
3
 72
18
 73
14
 74
0
 42
0.0000001
 43
0.0000001
 44
0.0000000001
 40
0.0
 40
0.0
 40
0.0
 40
0.0
 40
0.2239586884
 40
0.4220373741
 40
0.592798587
 40
0.7350051896
 40
0.8475272
 40
0.8923582524
 40
0.9294399398
 40
0.9586998341
 40
0.9800974901
 40
0.9936897218
 40
1.0
 40
1.0
 40
1.0
 40
1.0
 10
1.1608852634
 20
2.1953787256
 30
0.0
 10
1.1546642987
 20
2.1813838283
 30
0.0
 10
1.1429462035
 20
2.1550089576
 30
0.0
 10
1.1265172771
 20
2.1179494141
 30
0.0
 10
1.1124178851
 20
2.0859712537
 30
0.0
 10
1.1007987315
 20
2.0592974036
 30
0.0
 10
1.0927716765
 20
2.0404439772
 30
0.0
 10
1.0877494435
 20
2.0281409136
 30
0.0
 10
1.0849768959
 20
2.0210432899
 30
0.0
 10
1.0829392222
 20
2.0154468325
 30
0.0
 10
1.0815758536
 20
2.0111569559
 30
0.0
 10
1.0810016499
 20
2.0085933954
 30
0.0
 10
1.0808899838
 20
2.0069676698
 30
0.0
 10
1.0812180382
 20
2.0066873243
 30
0.0
  0
SPLINE
  5
405
100
AcDbEntity
  8
RACCORDO
100
AcDbSpline
 62
250
  6
CONTINUOUS
 70
0
 71
3
 72
9
 73
5
 74
0
 42
0.0000001
 43
0.0000001
 44
0.0000000001
 40
0.0
 40
0.0
 40
0.0
 40
0.0
 40
0.4836314451
 40
1.0
 40
1.0
 40
1.0
 40
1.0
 10
7.2869687676
 20
-7.17124245
 30
0.0
 10
7.1458775529
 20
-6.8152608467
 30
0.0
 10
6.8440892531
 20
-6.083165358
 30
0.0
 10
6.5255765946
 20
-5.3582191617
 30
0.0
 10
6.3573863196
 20
-4.985574164
 30
0.0
  0
SPLINE
  5
406
100
AcDbEntity
  8
RACCORDO
100
AcDbSpline
 62
250
  6
CONTINUOUS
 70
0
 71
3
 72
9
 73
5
 74
0
 42
0.0000001
 43
0.0000001
 44
0.0000000001
 40
0.0
 40
0.0
 40
0.0
 40
0.0
 40
0.498950519
 40
1.0
 40
1.0
 40
1.0
 40
1.0
 10
6.3573863196
 20
-4.985574164
 30
0.0
 10
6.2729032895
 20
-4.7983855129
 30
0.0
 10
6.104003976
 20
-4.4230275605
 30
0.0
 10
5.9284881906
 20
-4.0506729633
 30
0.0
 10
5.8381357373
 20
-3.8652841547
 30
0.0
  0
LINE
  5
407
100
AcDbEntity
  8
0
100
AcDbLine
 62
7
  6
CONTINUOUS
 10
13.7517570097
 20
-2.4088483771
 11
14.1287409869
 21
-2.5166592675
  0
SPLINE
  5
408
100
AcDbEntity
  8
0
100
AcDbSpline
 62
7
  6
CONTINUOUS
 70
0
 71
3
 72
24
 73
20
 74
0
 42
0.0000001
 43
0.0000001
 44
0.0000000001
 40
0.0
 40
0.0
 40
0.0
 40
0.0
 40
0.0221464253
 40
0.0446378631
 40
0.0915416088
 40
0.1423819817
 40
0.1980157907
 40
0.2586357507
 40
0.3239019868
 40
0.3930766479
 40
0.4651388739
 40
0.5388817168
 40
0.6129975538
 40
0.6861578
 40
0.7570914999
 40
0.8246669862
 40
0.887981447
 40
0.9464643844
 40
1.0
 40
1.0
 40
1.0
 40
1.0
 10
16.3238087402
 20
-2.7527969375
 30
0.0
 10
16.30053392
 20
-2.7870888813
 30
0.0
 10
16.2486645383
 20
-2.8529860154
 30
0.0
 10
16.1248975295
 20
-2.9720816587
 30
0.0
 10
15.9325996243
 20
-3.0938393293
 30
0.0
 10
15.6595022767
 20
-3.1885332031
 30
0.0
 10
15.3484086943
 20
-3.2332649468
 30
0.0
 10
15.0075556347
 20
-3.2275725734
 30
0.0
 10
14.6457846272
 20
-3.172049416
 30
0.0
 10
14.2726713044
 20
-3.0683132607
 30
0.0
 10
13.898231239
 20
-2.9192037799
 30
0.0
 10
13.5326211078
 20
-2.7287593178
 30
0.0
 10
13.1858134202
 20
-2.5021415873
 30
0.0
 10
12.8672883108
 20
-2.2454968449
 30
0.0
 10
12.5857454426
 20
-1.9657630441
 30
0.0
 10
12.3488538035
 20
-1.6704751764
 30
0.0
 10
12.1630511391
 20
-1.3673967181
 30
0.0
 10
12.0334714449
 20
-1.0645948268
 30
0.0
 10
11.9851246259
 20
-0.8590410769
 30
0.0
 10
11.9728629722
 20
-0.7596082406
 30
0.0
  0
SPLINE
  5
409
100
AcDbEntity
  8
0
100
AcDbSpline
 62
7
  6
CONTINUOUS
 70
0
 71
3
 72
11
 73
7
 74
0
 42
0.0000001
 43
0.0000001
 44
0.0000000001
 40
0.0
 40
0.0
 40
0.0
 40
0.0
 40
0.2377500379
 40
0.4805911173
 40
0.7333874398
 40
1.0
 40
1.0
 40
1.0
 40
1.0
 10
12.0967390079
 20
-0.0917082167
 30
0.0
 10
12.0662034498
 20
-0.1395219933
 30
0.0
 10
12.0136741721
 20
-0.2423897741
 30
0.0
 10
11.9645139511
 20
-0.4113269322
 30
0.0
 10
11.9450703051
 20
-0.5930254942
 30
0.0
 10
11.9517480652
 20
-0.7173369644
 30
0.0
 10
11.9595345241
 20
-0.7804784278
 30
0.0
  0
ELLIPSE
  5
40A
100
AcDbEntity
  8
0
100
AcDbEllipse
 62
7
  6
CONTINUOUS
 10
456.8979177601
 20
-71.4587570399
 30
0.0
 11
451.4826081503
 21
-286.3086173389
 31
0.0
 40
0.563583542
 41
-2.4970396344
 42
-2.4966378031
  0
ELLIPSE
  5
40B
100
AcDbEntity
  8
0
100
AcDbEllipse
 62
7
  6
CONTINUOUS
 10
28.3853208168
 20
0.5183455209
 30
0.0
 11
1.8110225079
 21
5.3176894277
 31
0.0
 40
0.3826154863
 41
-1.6593832703
 42
-1.556902805
  0
ENDSEC
  0
SECTION
  2
OBJECTS
  0
DICTIONARY
  5
C
100
AcDbDictionary
280
0
281
1
  3
ACAD_GROUP
350
D
  3
ACAD_MLINESTYLE
350
17
  3
ACAD_LAYOUT
350
1A
  3
ACAD_PLOTSETTINGS
350
19
  3
ACAD_PLOTSTYLENAME
350
E
  0
DICTIONARY
  5
D
102
{ACAD_REACTORS
330
C
102
}
100
AcDbDictionary
280
0
281
1
  0
ACDBDICTIONARYWDFLT
  5
E
102
{ACAD_REACTORS
330
C
102
}
100
AcDbDictionary
281
1
  3
Normal
350
F
100
AcDbDictionaryWithDefault
340
F
  0
DICTIONARY
  5
17
102
{ACAD_REACTORS
330
C
102
}
100
AcDbDictionary
280
0
281
1
  3
Standard
350
18
  0
DICTIONARY
  5
19
102
{ACAD_REACTORS
330
C
102
}
100
AcDbDictionary
281
1
  0
DICTIONARY
  5
1A
102
{ACAD_REACTORS
330
C
102
}
100
AcDbDictionary
281
1
  3
Model
350
40C
  3
Layout1
350
40D
  0
ACDBPLACEHOLDER
  5
F
102
{ACAD_REACTORS
330
E
102
}
  0
MLINESTYLE
  5
18
102
{ACAD_REACTORS
330
17
102
}
100
AcDbMlineStyle
  2
STANDARD
 70
0
  3

 62
256
 51
90.0
 52
90.0
 71
2
 49
0.5
 62
256
  6
BYLAYER
 49
-0.5
 62
256
  6
BYLAYER
  0
LAYOUT
  5
40C
102
{ACAD_REACTORS
330
1A
102
}
100
AcDbPlotSettings
  1

  2
none_device
  4
ANSI_C_(22.00_x_17.00_Inches)
  6

 40
0.0
 41
0.0
 42
0.0
 43
0.0
 44
558.8
 45
431.8
 46
0.0
 47
0.0
 48
0.0
 49
0.0
140
0.0
141
0.0
142
1.0
143
1.0
 70
1024
 72
1
 73
0
 74
0
  7

 75
0
147
1.0
148
0.0
149
0.0
100
AcDbLayout
  1
Model
 70
0
 71
0
 10
0.0
 20
0.0
 11
558.8
 21
431.8
 12
0.0
 22
0.0
 32
0.0
 14
0.0
 24
0.0
 34
0.0
 15
0.0
 25
0.0
 35
0.0
146
0.0
 13
0.0
 23
0.0
 33
0.0
 16
1.0
 26
0.0
 36
0.0
 17
0.0
 27
1.0
 37
0.0
 76
0
330
216
345
0
346
0
  0
LAYOUT
  5
40D
102
{ACAD_REACTORS
330
1A
102
}
100
AcDbPlotSettings
  1

  2
none_device
  4
ANSI_C_(22.00_x_17.00_Inches)
  6

 40
0.0
 41
0.0
 42
0.0
 43
0.0
 44
558.8
 45
431.8
 46
0.0
 47
0.0
 48
0.0
 49
0.0
140
0.0
141
0.0
142
1.0
143
1.0
 70
0
 72
1
 73
0
 74
0
  7

 75
0
147
1.0
148
0.0
149
0.0
100
AcDbLayout
  1
Layout1
 70
0
 71
1
 10
0.0
 20
0.0
 11
558.8
 21
431.8
 12
0.0
 22
0.0
 32
0.0
 14
0.0
 24
0.0
 34
0.0
 15
0.0
 25
0.0
 35
0.0
146
0.0
 13
0.0
 23
0.0
 33
0.0
 16
1.0
 26
0.0
 36
0.0
 17
0.0
 27
1.0
 37
0.0
 76
0
330
217
345
0
346
0
  0
ENDSEC
  0
EOF
