  0
SECTION
  2
HEADER
  9
$ACADVER
  1
AC1024
  9
$DWGCODEPAGE
  3
ANSI_1252
  9
$EXTMAX
 10
297.0
 20
210.0
 30
0.0
  9
$EXTMIN
 10
0.0
 20
0.0
 30
0.0
  9
$LIMMIN
 10
0.0
 20
0.0
  9
$LIMMAX
 10
297.0
 20
210.0
  9
$VIEWCTR
 10
148.5
 20
105.0
  9
$VIEWSIZE
 40
210.0
  9
$CLAYER
  8
0
  9
$LTSCALE
 40
16.335
  9
$CELTYPE
  6
BYLAYER
  9
$DIMSCALE
 40
1.0
  9
$DIMASZ
 40
3.0
  9
$DIMEXO
 40
0.5
  9
$DIMDLI
 40
11.286
  9
$DIMEXE
 40
1.5
  9
$DIMCEN
 40
2.673
  9
$DIMLFAC
 40
1.0
  9
$DIMBLK
  1
_FILLED
  9
$DIMALT
 70
0
  9
$DIMALTF
 40
0.0393700787
  9
$DIMTXT
 40
3.0
  9
$DIMTOL
 70
1
  9
$DIMLIM
 70
0
  9
$DIMTFAC
 40
1.0
  9
$DIMTP
 40
0.01
  9
$DIMTM
 40
0.01
  9
$DIMGAP
 40
0.625
  9
$DIMDSEP
 70
44
  9
$AUNITS
 70
0
  9
$PDMODE
 70
3
  9
$PDSIZE
 40
3.0
  9
$HANDSEED
  5
624
  9
$TILEMODE
 70
1
  9
$MEASUREMENT
 70
1
  9
$INSUNITS
 70
4
  0
ENDSEC
  0
SECTION
  2
CLASSES
  0
CLASS
  1
ACDBDICTIONARYWDFLT
  2
AcDbDictionaryWithDefault
  3
AutoCAD 2000
 90
0
 91
1
280
0
281
0
  0
CLASS
  1
ACDBPLACEHOLDER
  2
AcDbPlaceHolder
  3
AutoCAD 2000
 90
0
 91
1
280
0
281
0
  0
CLASS
  1
LAYOUT
  2
AcDbLayout
  3
AutoCAD 2000
 90
0
 91
0
280
0
281
0
  0
ENDSEC
  0
SECTION
  2
TABLES
  0
TABLE
  2
VPORT
  5
8
100
AcDbSymbolTable
 70
2
  0
VPORT
  5
1F4
100
AcDbSymbolTableRecord
100
AcDbViewportTableRecord
  2
*ACTIVE
 70
0
 10
0.0
 20
0.0
 11
1.0
 21
1.0
 12
148.5
 22
105.0
 13
0.0
 23
0.0
 14
1.0
 24
1.0
 15
0.0
 25
0.0
 16
0.0
 26
0.0
 36
1.0
 17
0.0
 27
0.0
 37
0.0
 40
210.0
 41
1.4142857143
 42
50.0
 43
0.0
 44
0.0
 50
0.0
 51
0.0
 71
0
 72
100
 73
1
 74
1
 75
0
 76
0
 77
0
 78
0
  0
ENDTAB
  0
TABLE
  2
LTYPE
  5
5
100
AcDbSymbolTable
 70
6
  0
LTYPE
  5
14
100
AcDbSymbolTableRecord
100
AcDbLinetypeTableRecord
  2
BYBLOCK
 70
0
  3

 72
65
 73
0
 40
0.0
  0
LTYPE
  5
15
100
AcDbSymbolTableRecord
100
AcDbLinetypeTableRecord
  2
BYLAYER
 70
0
  3

 72
65
 73
0
 40
0.0
  0
LTYPE
  5
16
100
AcDbSymbolTableRecord
100
AcDbLinetypeTableRecord
  2
CONTINUOUS
 70
64
  3
Solid line
 72
65
 73
0
 40
0.0
  0
LTYPE
  5
1F5
100
AcDbSymbolTableRecord
100
AcDbLinetypeTableRecord
  2
CENTER
 70
64
  3
____ _ ____ _ ____ _ ____ _ ____ _ ____ _ ____
 72
65
 73
4
 40
0.6
 49
0.375
 74
0
 49
-0.075
 74
0
 49
0.075
 74
0
 49
-0.075
 74
0
  0
LTYPE
  5
1F6
100
AcDbSymbolTableRecord
100
AcDbLinetypeTableRecord
  2
HIDDEN
 70
64
  3
- - - - - - - - - - - - - - - - - - - -
 72
65
 73
2
 40
0.2
 49
0.1
 74
0
 49
-0.1
 74
0
  0
LTYPE
  5
1F7
100
AcDbSymbolTableRecord
100
AcDbLinetypeTableRecord
  2
PHANTOM
 70
64
  3
_____ _ _ _____ _ _ _____ _ _ _____
 72
65
 73
6
 40
0.8
 49
0.45
 74
0
 49
-0.05
 74
0
 49
0.1
 74
0
 49
-0.05
 74
0
 49
0.1
 74
0
 49
-0.05
 74
0
  0
LTYPE
  5
1F8
100
AcDbSymbolTableRecord
100
AcDbLinetypeTableRecord
  2
DOT
 70
64
  3
. . . . . . . . . . . . . . . . . . . .
 72
65
 73
2
 40
0.2
 49
0.1
 74
0
 49
-0.1
 74
0
  0
LTYPE
  5
1F9
100
AcDbSymbolTableRecord
100
AcDbLinetypeTableRecord
  2
DASHED
 70
64
  3
- - - - - - - - - - - - - - - - - - - -
 72
65
 73
2
 40
0.2
 49
0.1
 74
0
 49
-0.1
 74
0
  0
ENDTAB
  0
TABLE
  2
LAYER
  5
2
100
AcDbSymbolTable
 70
36
  0
LAYER
  5
10
100
AcDbSymbolTableRecord
100
AcDbLayerTableRecord
  2
0
 70
0
 62
7
  6
CONTINUOUS
370
-3
390
F
  0
LAYER
  5
1FA
100
AcDbSymbolTableRecord
100
AcDbLayerTableRecord
  2
DEFAULT_1
 70
0
 62
7
  6
CENTER
370
-3
390
F
  0
LAYER
  5
1FB
100
AcDbSymbolTableRecord
100
AcDbLayerTableRecord
  2
DEFAULT_2
 70
0
 62
7
  6
HIDDEN
370
-3
390
F
  0
LAYER
  5
1FC
100
AcDbSymbolTableRecord
100
AcDbLayerTableRecord
  2
DEFAULT_3
 70
0
 62
7
  6
PHANTOM
370
-3
390
F
  0
LAYER
  5
1FD
100
AcDbSymbolTableRecord
100
AcDbLayerTableRecord
  2
ASSI
 70
0
 62
7
  6
CONTINUOUS
370
-3
390
F
  0
LAYER
  5
1FE
100
AcDbSymbolTableRecord
100
AcDbLayerTableRecord
  2
COLOR5
 70
0
 62
7
  6
CONTINUOUS
370
-3
390
F
  0
LAYER
  5
1FF
100
AcDbSymbolTableRecord
100
AcDbLayerTableRecord
  2
COORDINATE
 70
0
 62
7
  6
CONTINUOUS
370
-3
390
F
  0
LAYER
  5
200
100
AcDbSymbolTableRecord
100
AcDbLayerTableRecord
  2
COORD_ORIGINE
 70
0
 62
7
  6
CONTINUOUS
370
-3
390
F
  0
LAYER
  5
201
100
AcDbSymbolTableRecord
100
AcDbLayerTableRecord
  2
COPY_PUBLISH
 70
0
 62
7
  6
CONTINUOUS
370
-3
390
F
  0
LAYER
  5
202
100
AcDbSymbolTableRecord
100
AcDbLayerTableRecord
  2
COSMETIC
 70
0
 62
7
  6
CONTINUOUS
370
-3
390
F
  0
LAYER
  5
203
100
AcDbSymbolTableRecord
100
AcDbLayerTableRecord
  2
COSMETICHE
 70
0
 62
7
  6
CONTINUOUS
370
-3
390
F
  0
LAYER
  5
204
100
AcDbSymbolTableRecord
100
AcDbLayerTableRecord
  2
COSMETICI
 70
0
 62
7
  6
CONTINUOUS
370
-3
390
F
  0
LAYER
  5
205
100
AcDbSymbolTableRecord
100
AcDbLayerTableRecord
  2
CURVE
 70
0
 62
7
  6
CONTINUOUS
370
-3
390
F
  0
LAYER
  5
206
100
AcDbSymbolTableRecord
100
AcDbLayerTableRecord
  2
DRAFT
 70
0
 62
7
  6
CONTINUOUS
370
-3
390
F
  0
LAYER
  5
207
100
AcDbSymbolTableRecord
100
AcDbLayerTableRecord
  2
IMPORT_IGES
 70
0
 62
7
  6
CONTINUOUS
370
-3
390
F
  0
LAYER
  5
208
100
AcDbSymbolTableRecord
100
AcDbLayerTableRecord
  2
INTF_1
 70
0
 62
7
  6
CONTINUOUS
370
-3
390
F
  0
LAYER
  5
209
100
AcDbSymbolTableRecord
100
AcDbLayerTableRecord
  2
INTF_11
 70
0
 62
7
  6
CONTINUOUS
370
-3
390
F
  0
LAYER
  5
20A
100
AcDbSymbolTableRecord
100
AcDbLayerTableRecord
  2
INTF_52
 70
0
 62
7
  6
CONTINUOUS
370
-3
390
F
  0
LAYER
  5
20B
100
AcDbSymbolTableRecord
100
AcDbLayerTableRecord
  2
INTF_GREEN
 70
0
 62
7
  6
CONTINUOUS
370
-3
390
F
  0
LAYER
  5
20C
100
AcDbSymbolTableRecord
100
AcDbLayerTableRecord
  2
INTF_MAGENTA
 70
0
 62
7
  6
CONTINUOUS
370
-3
390
F
  0
LAYER
  5
20D
100
AcDbSymbolTableRecord
100
AcDbLayerTableRecord
  2
INTF_YELLOW
 70
0
 62
7
  6
CONTINUOUS
370
-3
390
F
  0
LAYER
  5
20E
100
AcDbSymbolTableRecord
100
AcDbLayerTableRecord
  2
NOTE
 70
0
 62
7
  6
CONTINUOUS
370
-3
390
F
  0
LAYER
  5
20F
100
AcDbSymbolTableRecord
100
AcDbLayerTableRecord
  2
PIANI
 70
0
 62
7
  6
CONTINUOUS
370
-3
390
F
  0
LAYER
  5
210
100
AcDbSymbolTableRecord
100
AcDbLayerTableRecord
  2
PIANI_ORIGINE
 70
0
 62
7
  6
CONTINUOUS
370
-3
390
F
  0
LAYER
  5
211
100
AcDbSymbolTableRecord
100
AcDbLayerTableRecord
  2
PUNTI
 70
0
 62
7
  6
CONTINUOUS
370
-3
390
F
  0
LAYER
  5
212
100
AcDbSymbolTableRecord
100
AcDbLayerTableRecord
  2
RACCORDO
 70
0
 62
7
  6
CONTINUOUS
370
-3
390
F
  0
LAYER
  5
213
100
AcDbSymbolTableRecord
100
AcDbLayerTableRecord
  2
SIMBOLI
 70
0
 62
7
  6
CONTINUOUS
370
-3
390
F
  0
LAYER
  5
214
100
AcDbSymbolTableRecord
100
AcDbLayerTableRecord
  2
SMUSSO
 70
0
 62
7
  6
CONTINUOUS
370
-3
390
F
  0
LAYER
  5
215
100
AcDbSymbolTableRecord
100
AcDbLayerTableRecord
  2
SNAPLINE
 70
0
 62
7
  6
CONTINUOUS
370
-3
390
F
  0
LAYER
  5
216
100
AcDbSymbolTableRecord
100
AcDbLayerTableRecord
  2
SUPERFICI
 70
0
 62
7
  6
CONTINUOUS
370
-3
390
F
  0
LAYER
  5
217
100
AcDbSymbolTableRecord
100
AcDbLayerTableRecord
  2
TRASH
 70
0
 62
7
  6
CONTINUOUS
370
-3
390
F
  0
LAYER
  5
218
100
AcDbSymbolTableRecord
100
AcDbLayerTableRecord
  2
XSEC_DATUMS
 70
0
 62
7
  6
CONTINUOUS
370
-3
390
F
  0
ENDTAB
  0
TABLE
  2
STYLE
  5
3
100
AcDbSymbolTable
 70
1
  0
STYLE
  5
11
100
AcDbSymbolTableRecord
100
AcDbTextStyleTableRecord
  2
STANDARD
 70
0
 40
0.0
 41
0.8
 50
0.0
 71
0
 42
0.2
  3
txt
  4

  0
STYLE
  5
219
100
AcDbSymbolTableRecord
100
AcDbTextStyleTableRecord
  2
TEXTSTYLE_1
 70
0
 40
0.0
 41
0.8
 50
0.0
 71
0
 42
0.2
  3
gdt
  4

  0
ENDTAB
  0
TABLE
  2
VIEW
  5
6
100
AcDbSymbolTable
 70
0
  0
ENDTAB
  0
TABLE
  2
UCS
  5
7
100
AcDbSymbolTable
 70
0
  0
ENDTAB
  0
TABLE
  2
APPID
  5
9
100
AcDbSymbolTable
 70
1
  0
APPID
  5
21A
100
AcDbSymbolTableRecord
100
AcDbRegAppTableRecord
  2
ACAD
 70
0
  0
ENDTAB
  0
TABLE
  2
BLOCK_RECORD
  5
1
100
AcDbSymbolTable
 70
0
  0
BLOCK_RECORD
  5
21B
100
AcDbSymbolTableRecord
100
AcDbBlockTableRecord
  2
*Model_Space
  0
BLOCK_RECORD
  5
21C
100
AcDbSymbolTableRecord
100
AcDbBlockTableRecord
  2
*Paper_Space
  0
BLOCK_RECORD
  5
21D
100
AcDbSymbolTableRecord
100
AcDbBlockTableRecord
  2
_FILLED
  0
ENDTAB
  0
TABLE
  2
DIMSTYLE
  5
A
100
AcDbSymbolTable
 70
1
100
AcDbDimStyleTable
 71
0
  0
DIMSTYLE
105
21E
100
AcDbSymbolTableRecord
100
AcDbDimStyleTableRecord
  2
STANDARD
 70
0
  3

  4

 40
1.0
 41
3.0
 42
0.5
 43
0.38
 44
1.5
 45
0.0
 46
0.0
 47
0.01
 48
0.01
140
3.0
141
0.09
142
0.0
143
25.4
144
1.0
145
0.0
146
1.0
147
0.625
 71
1
 72
0
 73
0
 74
0
 75
0
 76
0
 77
1
 78
8
 79
2
170
0
171
1
172
0
173
0
174
0
175
0
176
0
177
0
178
0
270
2
179
2
271
2
272
2
273
2
274
2
275
0
280
0
281
0
282
0
283
1
284
8
285
0
286
0
287
3
288
0
340
11
278
44
341
21D
342
21D
343
21D
344
21D
  0
ENDTAB
  0
ENDSEC
  0
SECTION
  2
BLOCKS
  0
BLOCK
  5
20
100
AcDbEntity
  8
0
100
AcDbBlockBegin
  2
*Model_Space
 70
0
 10
0.0
 20
0.0
 30
0.0
  3
*Model_Space
  1

  0
ENDBLK
  5
21
100
AcDbEntity
  8
0
100
AcDbBlockEnd
  0
BLOCK
  5
1C
100
AcDbEntity
  8
0
100
AcDbBlockBegin
  2
*Paper_Space
 70
0
 10
0.0
 20
0.0
 30
0.0
  3
*Paper_Space
  1

  0
ENDBLK
  5
1D
100
AcDbEntity
  8
0
100
AcDbBlockEnd
  0
BLOCK
  5
21F
100
AcDbEntity
  8
0
100
AcDbBlockBegin
  2
_FILLED
 70
64
 10
0.0
 20
0.0
  3
_FILLED
  1

  0
SOLID
  5
220
100
AcDbEntity
  8
0
  6
BYBLOCK
 62
0
100
AcDbTrace
 10
0.0
 20
0.0
 11
-1.0
 21
0.3166666667
 12
-1.0
 22
-0.3166666667
 13
-1.0
 23
-0.3166666667
  0
ENDBLK
  5
221
100
AcDbEntity
  8
0
  6
BYBLOCK
 62
0
100
AcDbBlockEnd
  0
ENDSEC
  0
SECTION
  2
ENTITIES
  0
LWPOLYLINE
  5
222
100
AcDbEntity
  8
0
100
AcDbPolyline
 62
7
  6
CONTINUOUS
 90
17
 70
0
 10
0.1632394151
 20
-41.1680707256
 10
-0.1867342217
 20
-41.1692228916
 10
-0.619821364
 20
-41.1477756653
 10
-1.0485369636
 20
-41.1035513904
 10
-1.4704743772
 20
-41.0366426143
 10
-1.8831541721
 20
-40.9471272379
 10
-2.2833400991
 20
-40.8352916736
 10
-2.6678894297
 20
-40.701554885
 10
-3.0354425465
 20
-40.5456768263
 10
-3.3819781866
 20
-40.368460875
 10
-3.7017152518
 20
-40.1724093048
 10
-3.9936671085
 20
-39.9578764669
 10
-4.255432476
 20
-39.7261447911
 10
-4.4817185929
 20
-39.4824249796
 10
-4.6714212093
 20
-39.2300358015
 10
-4.826000999
 20
-38.9693647468
 10
-4.8431005441
 20
-38.9311705806
  0
LWPOLYLINE
  5
223
100
AcDbEntity
  8
0
100
AcDbPolyline
 62
250
  6
CONTINUOUS
 90
17
 70
0
 10
-0.6959608549
 20
-40.8047518222
 10
-0.7540427893
 20
-40.8006710755
 10
-1.0437363529
 20
-40.7705930206
 10
-1.3384972134
 20
-40.7295730793
 10
-1.6371039187
 20
-40.6768323253
 10
-1.9389913926
 20
-40.6114023974
 10
-2.2421683454
 20
-40.5325307369
 10
-2.5446356448
 20
-40.4394832976
 10
-2.8452839132
 20
-40.3311595586
 10
-3.1413386674
 20
-40.2069093632
 10
-3.4298363041
 20
-40.0661894814
 10
-3.7086246197
 20
-39.9079561349
 10
-3.973848505
 20
-39.7319421765
 10
-4.2215568393
 20
-39.5380123232
 10
-4.4484380731
 20
-39.3253542471
 10
-4.6495167078
 20
-39.0943824256
 10
-4.6504617112
 20
-39.0930021738
  0
LWPOLYLINE
  5
224
100
AcDbEntity
  8
0
100
AcDbPolyline
 62
250
  6
CONTINUOUS
 90
9
 70
0
 10
0.9963560501
 20
-41.3183406509
 10
1.3889546038
 20
-41.3860275855
 10
1.7521535392
 20
-41.3996996635
 10
2.0822291939
 20
-41.3636430648
 10
2.3766687216
 20
-41.2807274064
 10
2.6332968455
 20
-41.1510095702
 10
2.8501702107
 20
-40.9765182602
 10
3.0261423268
 20
-40.7621022891
 10
3.1608458081
 20
-40.5115176655
  0
LWPOLYLINE
  5
225
100
AcDbEntity
  8
0
100
AcDbPolyline
 62
7
  6
CONTINUOUS
 90
10
 70
0
 10
-1.8576983326
 20
-40.2818635527
 10
-2.187054111
 20
-40.2124201214
 10
-2.6593523189
 20
-40.0837701608
 10
-3.1133038474
 20
-39.9296796865
 10
-3.5469376019
 20
-39.7501025029
 10
-3.9557663342
 20
-39.5460002368
 10
-4.3338134223
 20
-39.319845036
 10
-4.6798067888
 20
-39.0719797283
 10
-4.9905518534
 20
-38.8040224655
 10
-5.2599708206
 20
-38.5216318944
  0
LINE
  5
226
100
AcDbEntity
  8
0
100
AcDbLine
 62
250
  6
CONTINUOUS
 10
0.5787264307
 20
-41.1936712231
 11
0.9963560501
 21
-41.3183406509
  0
LWPOLYLINE
  5
227
100
AcDbEntity
  8
0
100
AcDbPolyline
 62
250
  6
CONTINUOUS
 90
10
 70
0
 10
3.3304965562
 20
-40.141758512
 10
3.4542706867
 20
-40.179443574
 10
3.5798105384
 20
-40.2067217712
 10
3.7069098558
 20
-40.2243445239
 10
3.8333134701
 20
-40.2323183594
 10
3.9572865996
 20
-40.2305826875
 10
4.0782346967
 20
-40.2190578645
 10
4.1953879888
 20
-40.1975627928
 10
4.3078371526
 20
-40.1661408318
 10
4.4146270426
 20
-40.1249017492
  0
LWPOLYLINE
  5
228
100
AcDbEntity
  8
0
100
AcDbPolyline
 62
250
  6
CONTINUOUS
 90
10
 70
0
 10
3.1632717601
 20
-40.5087936913
 10
3.291444923
 20
-40.5502689226
 10
3.4223385367
 20
-40.5810455753
 10
3.5546308833
 20
-40.6008963149
 10
3.6871142873
 20
-40.6095956217
 10
3.818319032
 20
-40.6068972334
 10
3.9465701726
 20
-40.5928392674
 10
4.070503877
 20
-40.567734385
 10
4.1890106076
 20
-40.5318650711
 10
4.3008696707
 20
-40.4855191312
  0
LWPOLYLINE
  5
229
100
AcDbEntity
  8
0
100
AcDbPolyline
 62
7
  6
CONTINUOUS
 90
9
 70
0
 10
0.8065012044
 20
-41.4251469052
 10
1.1803384335
 20
-41.5488465307
 10
1.524128496
 20
-41.6322743997
 10
1.8646820237
 20
-41.6853061158
 10
2.1983086205
 20
-41.7070923979
 10
2.518094239
 20
-41.6976838531
 10
2.8209879417
 20
-41.6588229818
 10
3.107389476
 20
-41.5919883964
 10
3.2850071509
 20
-41.533922528
  0
LINE
  5
22A
100
AcDbEntity
  8
0
100
AcDbLine
 62
250
  6
CONTINUOUS
 10
0.5095035151
 20
-41.1688042846
 11
0.5787264307
 21
-41.1936712231
  0
LINE
  5
22B
100
AcDbEntity
  8
0
100
AcDbLine
 62
250
  6
CONTINUOUS
 10
0.4198066037
 20
-41.1360996468
 11
0.5095035151
 21
-41.1688042846
  0
LWPOLYLINE
  5
22C
100
AcDbEntity
  8
0
100
AcDbPolyline
 62
250
  6
CONTINUOUS
 90
3
 70
0
 10
0.3529079076
 20
-41.1111122766
 10
0.3675358881
 20
-41.1165656496
 10
0.3821257965
 20
-41.1219268457
  0
LINE
  5
22D
100
AcDbEntity
  8
0
100
AcDbLine
 62
250
  6
CONTINUOUS
 10
0.4103992854
 20
-41.1326048074
 11
0.4198066037
 21
-41.1360996468
  0
LINE
  5
22E
100
AcDbEntity
  8
0
100
AcDbLine
 62
7
  6
CONTINUOUS
 10
0.8088147898
 20
-41.4260185188
 11
0.8065012044
 21
-41.4251469052
  0
LINE
  5
22F
100
AcDbEntity
  8
0
100
AcDbLine
 62
250
  6
CONTINUOUS
 10
0.3821257965
 20
-41.1219268457
 11
0.4103992854
 21
-41.1326048074
  0
LINE
  5
230
100
AcDbEntity
  8
0
100
AcDbLine
 62
250
  6
CONTINUOUS
 10
0.3235402471
 20
-41.0999450553
 11
0.3529079076
 21
-41.1111122766
  0
LINE
  5
231
100
AcDbEntity
  8
0
100
AcDbLine
 62
250
  6
CONTINUOUS
 10
0.2940342834
 20
-41.0884991868
 11
0.3235402471
 21
-41.0999450553
  0
LINE
  5
232
100
AcDbEntity
  8
0
100
AcDbLine
 62
250
  6
CONTINUOUS
 10
0.2490525986
 20
-41.0714582168
 11
0.1806397965
 21
-41.044760739
  0
LINE
  5
233
100
AcDbEntity
  8
0
100
AcDbLine
 62
250
  6
CONTINUOUS
 10
0.2495500186
 20
-41.0710009093
 11
0.2940342834
 21
-41.0884991868
  0
LINE
  5
234
100
AcDbEntity
  8
0
100
AcDbLine
 62
250
  6
CONTINUOUS
 10
0.1806397965
 20
-41.044760739
 11
0.1120964382
 21
-41.0176262269
  0
LINE
  5
235
100
AcDbEntity
  8
0
100
AcDbLine
 62
250
  6
CONTINUOUS
 10
0.1120964382
 20
-41.0176262269
 11
0.0434224956
 21
-40.9901059849
  0
LINE
  5
236
100
AcDbEntity
  8
0
100
AcDbLine
 62
250
  6
CONTINUOUS
 10
0.0434224956
 20
-40.9901059849
 11
-0.1371189475
 21
-40.9166095075
  0
LWPOLYLINE
  5
237
100
AcDbEntity
  8
0
100
AcDbPolyline
 62
250
  6
CONTINUOUS
 90
5
 70
0
 10
-3.5218625459
 20
-39.4647359884
 10
-3.649429437
 20
-39.4122825826
 10
-3.9904362911
 20
-39.2493020168
 10
-4.3209962202
 20
-39.0654874933
 10
-4.5530350828
 20
-38.9146766494
  0
LWPOLYLINE
  5
238
100
AcDbEntity
  8
0
100
AcDbPolyline
 62
250
  6
CONTINUOUS
 90
7
 70
0
 10
-0.1371189475
 20
-40.9166095075
 10
-0.4998103482
 20
-40.7670649444
 10
-0.6817796975
 20
-40.691242938
 10
-0.8633514827
 20
-40.6147503665
 10
-1.0449552152
 20
-40.5372676105
 10
-1.2269478306
 20
-40.4585360745
 10
-1.4093828098
 20
-40.3784248859
  0
LINE
  5
239
100
AcDbEntity
  8
0
100
AcDbLine
 62
250
  6
CONTINUOUS
 10
-1.4093828098
 20
-40.3784248859
 11
-1.6260225998
 21
-40.2816167026
  0
LINE
  5
23A
100
AcDbEntity
  8
0
100
AcDbLine
 62
250
  6
CONTINUOUS
 10
-1.6260225998
 20
-40.2816167026
 11
-1.8275149496
 21
-40.1900276199
  0
LINE
  5
23B
100
AcDbEntity
  8
0
100
AcDbLine
 62
250
  6
CONTINUOUS
 10
-1.8275149496
 20
-40.1900276199
 11
-2.0332284944
 21
-40.0955598275
  0
LWPOLYLINE
  5
23C
100
AcDbEntity
  8
0
100
AcDbPolyline
 62
250
  6
CONTINUOUS
 90
7
 70
0
 10
-2.0332284944
 20
-40.0955598275
 10
-2.3100498008
 20
-39.9670610259
 10
-2.4484391048
 20
-39.9020786845
 10
-2.5868917107
 20
-39.8364790614
 10
-2.7254370667
 20
-39.7701792282
 10
-2.8640887998
 20
-39.7031400722
 10
-3.0028338357
 20
-39.6353806556
  0
LINE
  5
23D
100
AcDbEntity
  8
0
100
AcDbLine
 62
250
  6
CONTINUOUS
 10
-3.0028338357
 20
-39.6353806556
 11
-3.2378430033
 21
-39.5191145854
  0
LINE
  5
23E
100
AcDbEntity
  8
0
100
AcDbLine
 62
250
  6
CONTINUOUS
 10
-3.2378430033
 20
-39.5191145854
 11
-3.4292254326
 21
-39.4230913786
  0
LINE
  5
23F
100
AcDbEntity
  8
0
100
AcDbLine
 62
250
  6
CONTINUOUS
 10
-3.4292254326
 20
-39.4230913786
 11
-3.6322428951
 21
-39.3199656745
  0
LINE
  5
240
100
AcDbEntity
  8
0
100
AcDbLine
 62
250
  6
CONTINUOUS
 10
-3.6322428951
 20
-39.3199656745
 11
-3.8137753785
 21
-39.2266710976
  0
LWPOLYLINE
  5
241
100
AcDbEntity
  8
0
100
AcDbPolyline
 62
250
  6
CONTINUOUS
 90
5
 70
0
 10
0.8065012044
 20
-41.4251469052
 10
0.7367651071
 20
-41.388927779
 10
0.676282062
 20
-41.338332115
 10
0.6234722929
 20
-41.2730944002
 10
0.5789078418
 20
-41.1938946799
  0
LINE
  5
242
100
AcDbEntity
  8
0
100
AcDbLine
 62
250
  6
CONTINUOUS
 10
-3.8137753785
 20
-39.2266710976
 11
-3.9700081979
 21
-39.1455206247
  0
LINE
  5
243
100
AcDbEntity
  8
0
100
AcDbLine
 62
250
  6
CONTINUOUS
 10
-3.9700081979
 20
-39.1455206247
 11
-4.1604483492
 21
-39.0454619137
  0
LINE
  5
244
100
AcDbEntity
  8
0
100
AcDbLine
 62
250
  6
CONTINUOUS
 10
-4.1604483492
 20
-39.0454619137
 11
-4.3024059949
 21
-38.9700171548
  0
LINE
  5
245
100
AcDbEntity
  8
0
100
AcDbLine
 62
250
  6
CONTINUOUS
 10
-4.3024059949
 20
-38.9700171548
 11
-4.506463384
 21
-38.8602368249
  0
LINE
  5
246
100
AcDbEntity
  8
0
100
AcDbLine
 62
250
  6
CONTINUOUS
 10
-4.506463384
 20
-38.8602368249
 11
-4.7105321741
 21
-38.7489162652
  0
LINE
  5
247
100
AcDbEntity
  8
0
100
AcDbLine
 62
250
  6
CONTINUOUS
 10
-4.7105321741
 20
-38.7489162652
 11
-4.9144783601
 21
-38.6361867876
  0
LINE
  5
248
100
AcDbEntity
  8
0
100
AcDbLine
 62
250
  6
CONTINUOUS
 10
-4.9144783601
 20
-38.6361867876
 11
-5.0890937149
 21
-38.5385242964
  0
LWPOLYLINE
  5
249
100
AcDbEntity
  8
0
100
AcDbPolyline
 62
7
  6
CONTINUOUS
 90
20
 70
0
 10
-5.1721514298
 20
-38.5677892167
 10
-4.7840774985
 20
-38.7871652484
 10
-4.4008617805
 20
-38.9986604967
 10
-4.021708625
 20
-39.2030242279
 10
-3.6478267812
 20
-39.3999040527
 10
-3.2825005196
 20
-39.5879320961
 10
-2.9262920548
 20
-39.7672283464
 10
-2.5791615724
 20
-39.9382079397
 10
-2.2435766677
 20
-40.1000617642
 10
-1.9221719377
 20
-40.2519747319
 10
-1.6128405994
 20
-40.3953752588
 10
-1.3109101317
 20
-40.5327614131
 10
-1.0153977438
 20
-40.6648136418
 10
-0.7275008655
 20
-40.7911579285
 10
-0.4457721023
 20
-40.9125843581
 10
-0.1702924004
 20
-41.0292853401
 10
0.0983234695
 20
-41.141411263
 10
0.361534778
 20
-41.2495059994
 10
0.6208738113
 20
-41.3534605702
 10
0.8088607742
 20
-41.4260536551
  0
LINE
  5
24A
100
AcDbEntity
  8
0
100
AcDbLine
 62
250
  6
CONTINUOUS
 10
-5.0890937149
 20
-38.5385242964
 11
-5.2611665417
 21
-38.4412092895
  0
LINE
  5
24B
100
AcDbEntity
  8
0
100
AcDbLine
 62
250
  6
CONTINUOUS
 10
-5.2611665417
 20
-38.4412092895
 11
-5.4296754624
 21
-38.3449954901
  0
LINE
  5
24C
100
AcDbEntity
  8
0
100
AcDbLine
 62
250
  6
CONTINUOUS
 10
-5.5968070558
 20
-38.2482613535
 11
-5.4296754624
 21
-38.3449954901
  0
LINE
  5
24D
100
AcDbEntity
  8
0
100
AcDbLine
 62
250
  6
CONTINUOUS
 10
-5.822203586
 20
-38.1160375996
 11
-5.5968070558
 21
-38.2482613535
  0
LINE
  5
24E
100
AcDbEntity
  8
0
100
AcDbLine
 62
250
  6
CONTINUOUS
 10
-5.9940445181
 20
-38.0140077822
 11
-5.822203586
 21
-38.1160375996
  0
LINE
  5
24F
100
AcDbEntity
  8
0
100
AcDbLine
 62
250
  6
CONTINUOUS
 10
-6.1819536807
 20
-37.9011730311
 11
-5.9940445181
 21
-38.0140077822
  0
LINE
  5
250
100
AcDbEntity
  8
0
100
AcDbLine
 62
250
  6
CONTINUOUS
 10
-6.3788993666
 20
-37.7814522731
 11
-6.1819536807
 21
-37.9011730311
  0
LINE
  5
251
100
AcDbEntity
  8
0
100
AcDbLine
 62
250
  6
CONTINUOUS
 10
-6.5742509851
 20
-37.6611360097
 11
-6.3788993666
 21
-37.7814522731
  0
LINE
  5
252
100
AcDbEntity
  8
0
100
AcDbLine
 62
250
  6
CONTINUOUS
 10
-6.7288045383
 20
-37.5647858921
 11
-6.5742509851
 21
-37.6611360097
  0
LWPOLYLINE
  5
253
100
AcDbEntity
  8
0
100
AcDbPolyline
 62
250
  6
CONTINUOUS
 90
10
 70
0
 10
-3.5713392304
 20
-33.97957674
 10
-3.9378516579
 20
-33.9568473324
 10
-4.3154470587
 20
-33.9122680326
 10
-4.7034210096
 20
-33.844222839
 10
-5.1015195998
 20
-33.751419338
 10
-5.5093263185
 20
-33.6325278997
 10
-5.9264074152
 20
-33.4857860821
 10
-6.3522974608
 20
-33.309455062
 10
-6.7861582217
 20
-33.1021802361
 10
-7.2266909303
 20
-32.8627767918
  0
LINE
  5
254
100
AcDbEntity
  8
0
100
AcDbLine
 62
250
  6
CONTINUOUS
 10
-6.9083333363
 20
-37.4515702185
 11
-6.7288045383
 21
-37.5647858921
  0
LINE
  5
255
100
AcDbEntity
  8
0
100
AcDbLine
 62
250
  6
CONTINUOUS
 10
-7.0711860109
 20
-37.3476999827
 11
-6.9083333363
 21
-37.4515702185
  0
LINE
  5
256
100
AcDbEntity
  8
0
100
AcDbLine
 62
250
  6
CONTINUOUS
 10
-7.2400426118
 20
-37.2388594968
 11
-7.0711860109
 21
-37.3476999827
  0
LINE
  5
257
100
AcDbEntity
  8
0
100
AcDbLine
 62
250
  6
CONTINUOUS
 10
-7.4112983824
 20
-37.1273141229
 11
-7.2400426118
 21
-37.2388594968
  0
LINE
  5
258
100
AcDbEntity
  8
0
100
AcDbLine
 62
250
  6
CONTINUOUS
 10
-7.5860567096
 20
-37.0122509084
 11
-7.4112983824
 21
-37.1273141229
  0
LINE
  5
259
100
AcDbEntity
  8
0
100
AcDbLine
 62
250
  6
CONTINUOUS
 10
-7.7170222682
 20
-36.9251643086
 11
-7.5860567096
 21
-37.0122509084
  0
LWPOLYLINE
  5
25A
100
AcDbEntity
  8
0
100
AcDbPolyline
 62
250
  6
CONTINUOUS
 90
7
 70
0
 10
-8.4589159101
 20
-36.4167827978
 10
-8.3370331432
 20
-36.5020782881
 10
-8.2144052864
 20
-36.5872232522
 10
-8.0910872788
 20
-36.6721200431
 10
-7.9670976417
 20
-36.7567267227
 10
-7.8424138438
 20
-36.841067813
 10
-7.7170222682
 20
-36.9251643086
  0
LINE
  5
25B
100
AcDbEntity
  8
0
100
AcDbLine
 62
250
  6
CONTINUOUS
 10
-8.7003310236
 20
-36.2460583856
 11
-8.4589159101
 21
-36.4167827978
  0
LINE
  5
25C
100
AcDbEntity
  8
0
100
AcDbLine
 62
250
  6
CONTINUOUS
 10
-8.9347722684
 20
-36.0782668766
 11
-8.7003310236
 21
-36.2460583856
  0
LINE
  5
25D
100
AcDbEntity
  8
0
100
AcDbLine
 62
250
  6
CONTINUOUS
 10
-9.0775701244
 20
-35.974932073
 11
-8.9347722684
 21
-36.0782668766
  0
LWPOLYLINE
  5
25E
100
AcDbEntity
  8
0
100
AcDbPolyline
 62
250
  6
CONTINUOUS
 90
9
 70
0
 10
-10.2850922116
 20
-35.0572969288
 10
-10.1388941375
 20
-35.1717489638
 10
-9.9907277961
 20
-35.2871281591
 10
-9.8412769789
 20
-35.4026640032
 10
-9.6909398578
 20
-35.5178114744
 10
-9.539459665
 20
-35.6326472023
 10
-9.3866868163
 20
-35.7472050497
 10
-9.2327304842
 20
-35.8613219883
 10
-9.0775701244
 20
-35.974932073
  0
LINE
  5
25F
100
AcDbEntity
  8
0
100
AcDbLine
 62
250
  6
CONTINUOUS
 10
-10.44838043
 20
-34.9282563363
 11
-10.2850922116
 21
-35.0572969288
  0
LINE
  5
260
100
AcDbEntity
  8
0
100
AcDbLine
 62
250
  6
CONTINUOUS
 10
-10.5214907851
 20
-34.869669409
 11
-10.44838043
 21
-34.9282563363
  0
LINE
  5
261
100
AcDbEntity
  8
0
100
AcDbLine
 62
250
  6
CONTINUOUS
 10
-10.5951241068
 20
-34.809421985
 11
-10.6423628394
 21
-34.7711853209
  0
LWPOLYLINE
  5
262
100
AcDbEntity
  8
0
100
AcDbPolyline
 62
250
  6
CONTINUOUS
 90
3
 70
0
 10
-10.5942936271
 20
-34.8106460052
 10
-10.5761137517
 20
-34.8254550213
 10
-10.5214907851
 20
-34.869669409
  0
LWPOLYLINE
  5
263
100
AcDbEntity
  8
0
100
AcDbPolyline
 62
7
  6
CONTINUOUS
 90
26
 70
0
 10
-10.6526411071
 20
-34.8217383817
 10
-10.4811417901
 20
-34.961712838
 10
-10.3101856279
 20
-35.0979608198
 10
-10.1384257
 20
-35.2327827285
 10
-9.9616294278
 20
-35.370117302
 10
-9.7781748705
 20
-35.5112589651
 10
-9.5897327745
 20
-35.6545806419
 10
-9.3979716315
 20
-35.7986057128
 10
-9.2031580044
 20
-35.9430949421
 10
-9.0047748532
 20
-36.0884024837
 10
-8.8029233064
 20
-36.2344214138
 10
-8.5980314327
 20
-36.3807727165
 10
-8.3897002248
 20
-36.5276534724
 10
-8.1768055957
 20
-36.6757687943
 10
-7.9592891243
 20
-36.8250579748
 10
-7.7370555651
 20
-36.9754839887
 10
-7.5088997522
 20
-37.1277429111
 10
-7.275200428
 20
-37.281450403
 10
-7.0354478232
 20
-37.4368079767
 10
-6.7870428244
 20
-37.5953214415
 10
-6.5303707071
 20
-37.7565349336
 10
-6.2648110531
 20
-37.9206235207
 10
-5.9861348609
 20
-38.0899086314
 10
-5.6927625004
 20
-38.2649613582
 10
-5.3858441711
 20
-38.4446927459
 10
-5.1721514298
 20
-38.5677892167
  0
LINE
  5
264
100
AcDbEntity
  8
0
100
AcDbLine
 62
250
  6
CONTINUOUS
 10
-10.6423628394
 20
-34.7711853209
 11
-10.6659222282
 21
-34.7519022339
  0
LINE
  5
265
100
AcDbEntity
  8
0
100
AcDbLine
 62
250
  6
CONTINUOUS
 10
-10.6659222282
 20
-34.7519022339
 11
-10.6894260516
 21
-34.732414402
  0
LINE
  5
266
100
AcDbEntity
  8
0
100
AcDbLine
 62
250
  6
CONTINUOUS
 10
-10.7011557548
 20
-34.7225789841
 11
-10.7233735287
 21
-34.7041039235
  0
LINE
  5
267
100
AcDbEntity
  8
0
100
AcDbLine
 62
250
  6
CONTINUOUS
 10
-10.6894260516
 20
-34.732414402
 11
-10.7011557548
 21
-34.7225789841
  0
LINE
  5
268
100
AcDbEntity
  8
0
100
AcDbLine
 62
7
  6
CONTINUOUS
 10
-10.7258856668
 20
-34.7600386869
 11
-10.6526411071
 21
-34.8217383817
  0
LINE
  5
269
100
AcDbEntity
  8
0
100
AcDbLine
 62
250
  6
CONTINUOUS
 10
-10.7233735287
 20
-34.7041039235
 11
-10.7344752141
 21
-34.694769816
  0
LINE
  5
26A
100
AcDbEntity
  8
0
100
AcDbLine
 62
250
  6
CONTINUOUS
 10
-10.7344752141
 20
-34.694769816
 11
-10.7742137151
 21
-34.6610633491
  0
LINE
  5
26B
100
AcDbEntity
  8
0
100
AcDbLine
 62
250
  6
CONTINUOUS
 10
-10.7175256033
 20
-34.7671966506
 11
-10.7258140827
 21
-34.7600889874
  0
LINE
  5
26C
100
AcDbEntity
  8
0
100
AcDbLine
 62
250
  6
CONTINUOUS
 10
-10.7742137151
 20
-34.6610633491
 11
-10.8138281043
 21
-34.6271341523
  0
LINE
  5
26D
100
AcDbEntity
  8
0
100
AcDbLine
 62
250
  6
CONTINUOUS
 10
-10.8138281043
 20
-34.6271341523
 11
-10.8533358086
 21
-34.5929417635
  0
LWPOLYLINE
  5
26E
100
AcDbEntity
  8
0
100
AcDbPolyline
 62
250
  6
CONTINUOUS
 90
10
 70
0
 10
-10.8533358086
 20
-34.5929417635
 10
-11.1693148026
 20
-34.2940347723
 10
-11.47155052
 20
-33.960533107
 10
-11.7579169288
 20
-33.5991542962
 10
-12.0258077596
 20
-33.2178393431
 10
-12.2745539015
 20
-32.8212950868
 10
-12.504954224
 20
-32.4103731295
 10
-12.7160475471
 20
-31.9887792174
 10
-12.9056717252
 20
-31.5632725281
 10
-13.0727960761
 20
-31.1384162969
  0
LWPOLYLINE
  5
26F
100
AcDbEntity
  8
0
100
AcDbPolyline
 62
250
  6
CONTINUOUS
 90
3
 70
0
 10
-10.741274883
 20
-34.7459778306
 10
-10.8032018822
 20
-34.6754759414
 10
-10.8532267027
 20
-34.5931234722
  0
LWPOLYLINE
  5
270
100
AcDbEntity
  8
0
100
AcDbPolyline
 62
250
  6
CONTINUOUS
 90
10
 70
0
 10
-6.3181435912
 20
-30.3086486967
 10
-5.5571346983
 20
-30.7034471104
 10
-4.78521917
 20
-31.0326442234
 10
-4.0033520693
 20
-31.2889962385
 10
-3.2046652311
 20
-31.4710867721
 10
-2.402890222
 20
-31.5612496298
 10
-1.6335481722
 20
-31.5455573997
 10
-0.9126012355
 20
-31.4318759427
 10
-0.2356361562
 20
-31.2328995228
 10
0.391156158
 20
-30.9561425234
  0
LWPOLYLINE
  5
271
100
AcDbEntity
  8
0
100
AcDbPolyline
 62
250
  6
CONTINUOUS
 90
13
 70
0
 10
-6.3181435915
 20
-30.3086486974
 10
-6.8822942907
 20
-29.9547541302
 10
-7.4538274808
 20
-29.5586028637
 10
-8.0297491679
 20
-29.1181152509
 10
-8.612476686
 20
-28.6293370732
 10
-9.1964105648
 20
-28.0906332473
 10
-9.7674104955
 20
-27.5073009049
 10
-10.3248274256
 20
-26.8814914827
 10
-10.8681886828
 20
-26.2158018639
 10
-11.3847978373
 20
-25.5239072432
 10
-11.8712618917
 20
-24.815341487
 10
-12.332117661
 20
-24.0918020233
 10
-12.7680636507
 20
-23.3581739295
  0
LWPOLYLINE
  5
272
100
AcDbEntity
  8
0
100
AcDbPolyline
 62
250
  6
CONTINUOUS
 90
10
 70
0
 10
-10.6025677967
 20
-29.9198334878
 10
-10.289358655
 20
-30.289566795
 10
-9.9606381934
 20
-30.6528054216
 10
-9.6165861017
 20
-31.0074228904
 10
-9.2570226059
 20
-31.3520839825
 10
-8.8819117695
 20
-31.6852393286
 10
-8.4911903553
 20
-32.0049125558
 10
-8.0847956066
 20
-32.3091323428
 10
-7.6630410244
 20
-32.5958790894
 10
-7.2266909317
 20
-32.8627767808
  0
LWPOLYLINE
  5
273
100
AcDbEntity
  8
0
100
AcDbPolyline
 62
250
  6
CONTINUOUS
 90
4
 70
0
 10
-5.4854845635
 20
-38.3128254686
 10
-5.4360516732
 20
-38.3833465458
 10
-5.3777166042
 20
-38.4418970229
 10
-5.3156980686
 20
-38.4852884987
  0
LWPOLYLINE
  5
274
100
AcDbEntity
  8
0
100
AcDbPolyline
 62
7
  6
CONTINUOUS
 90
8
 70
0
 10
-15.8857464845
 20
15.3684549528
 10
-15.9264244933
 20
15.3354546666
 10
-16.0253479563
 20
15.2388929961
 10
-16.1070682861
 20
15.13299674
 10
-16.171115476
 20
15.018222741
 10
-16.2157507874
 20
14.8968352911
 10
-16.2394956303
 20
14.773803814
 10
-16.2441308899
 20
14.6869345806
  0
LWPOLYLINE
  5
275
100
AcDbEntity
  8
0
100
AcDbPolyline
 62
250
  6
CONTINUOUS
 90
10
 70
0
 10
5.1526574306
 20
-27.0071913005
 10
5.3010685686
 20
-27.0489944962
 10
5.4558616058
 20
-27.0796390254
 10
5.614734807
 20
-27.0988305154
 10
5.7756190815
 20
-27.1062744913
 10
5.9359098406
 20
-27.1016438483
 10
6.0925857597
 20
-27.0850489601
 10
6.243285501
 20
-27.0569989364
 10
6.3861895898
 20
-27.0179351947
 10
6.5192666962
 20
-26.9683091389
  0
LWPOLYLINE
  5
276
100
AcDbEntity
  8
0
100
AcDbPolyline
 62
250
  6
CONTINUOUS
 90
10
 70
0
 10
5.1981341683
 20
-24.8963436104
 10
4.926359103
 20
-24.8137572971
 10
4.6665486021
 20
-24.7318884191
 10
4.4150720165
 20
-24.649872377
 10
4.1671419114
 20
-24.5662693965
 10
3.9225926213
 20
-24.4810705219
 10
3.6856569897
 20
-24.3958729034
 10
3.4562783536
 20
-24.3108284931
 10
3.2312163715
 20
-24.2248904465
 10
3.0061096859
 20
-24.1363349431
  0
LWPOLYLINE
  5
277
100
AcDbEntity
  8
0
100
AcDbPolyline
 62
250
  6
CONTINUOUS
 90
10
 70
0
 10
2.9839774883
 20
-25.4389984296
 10
2.6646770613
 20
-25.3083417244
 10
2.3460482341
 20
-25.1737639514
 10
2.0272401423
 20
-25.0361535297
 10
1.7079642493
 20
-24.895619903
 10
1.3879910551
 20
-24.7522796561
 10
1.0671583583
 20
-24.6062704561
 10
0.7455210325
 20
-24.4575941867
 10
0.4232413189
 20
-24.3061615155
 10
0.1005184406
 20
-24.1518925108
  0
LWPOLYLINE
  5
278
100
AcDbEntity
  8
0
100
AcDbPolyline
 62
250
  6
CONTINUOUS
 90
13
 70
0
 10
-12.3952272417
 20
-23.1475077535
 10
-12.0103417304
 20
-23.8309113759
 10
-11.5982188953
 20
-24.4985300677
 10
-11.1585966963
 20
-25.1502121384
 10
-10.6881269068
 20
-25.7896635546
 10
-10.1894229969
 20
-26.4127665136
 10
-9.6713300575
 20
-27.0077334588
 10
-9.133710568
 20
-27.5743892677
 10
-8.5762240338
 20
-28.1126623632
 10
-8.0078313284
 20
-28.6111711103
 10
-7.4315446065
 20
-29.0661555132
 10
-6.8441614288
 20
-29.4813169465
 10
-6.2455015889
 20
-29.8565758665
  0
LWPOLYLINE
  5
279
100
AcDbEntity
  8
0
100
AcDbPolyline
 62
250
  6
CONTINUOUS
 90
7
 70
0
 10
-12.7680636507
 20
-23.3581739295
 10
-12.9182675114
 20
-23.0837282114
 10
-13.0635845412
 20
-22.8076844786
 10
-13.2039148886
 20
-22.5303113689
 10
-13.3390010662
 20
-22.2522095921
 10
-13.4689319321
 20
-21.9733217005
 10
-13.594119308
 20
-21.6929144066
  0
LINE
  5
27A
100
AcDbEntity
  8
0
100
AcDbLine
 62
250
  6
CONTINUOUS
 10
-13.0747191626
 20
-31.1331812424
 11
-13.1025927383
 21
-31.0808352143
  0
LWPOLYLINE
  5
27B
100
AcDbEntity
  8
0
100
AcDbPolyline
 62
250
  6
CONTINUOUS
 90
10
 70
0
 10
-12.5408959263
 20
-26.951463336
 10
-12.3523862298
 20
-27.3070097088
 10
-12.157303852
 20
-27.6558658395
 10
-11.955645574
 20
-27.9981919292
 10
-11.7474641898
 20
-28.333977305
 10
-11.5326276878
 20
-28.663408431
 10
-11.3108861946
 20
-28.9867137685
 10
-11.0820546585
 20
-29.3039395478
 10
-10.84592106
 20
-29.6151346
 10
-10.6025716707
 20
-29.9199251667
  0
LINE
  5
27C
100
AcDbEntity
  8
0
100
AcDbLine
 62
250
  6
CONTINUOUS
 10
-13.2729726033
 20
-30.5551235097
 11
-13.2922215658
 21
-30.5116040842
  0
LWPOLYLINE
  5
27D
100
AcDbEntity
  8
0
100
AcDbPolyline
 62
7
  6
CONTINUOUS
 90
14
 70
0
 10
-13.1025927383
 20
-31.0808352143
 10
-12.9873289215
 20
-31.3869176517
 10
-12.8632013655
 20
-31.6868490408
 10
-12.7260385191
 20
-31.9906807777
 10
-12.5761302025
 20
-32.2963156333
 10
-12.41392949
 20
-32.6013229853
 10
-12.2397706222
 20
-32.9036746215
 10
-12.0540874616
 20
-33.2011595141
 10
-11.8579407895
 20
-33.4908195176
 10
-11.6517967973
 20
-33.7706252327
 10
-11.4355962948
 20
-34.0389568164
 10
-11.2097493243
 20
-34.2941290873
 10
-10.974242866
 20
-34.5342334551
 10
-10.7175256033
 20
-34.7671966506
  0
LINE
  5
27E
100
AcDbEntity
  8
0
100
AcDbLine
 62
250
  6
CONTINUOUS
 10
-13.0727960761
 20
-31.1384162969
 11
-13.0948129863
 21
-31.0779028678
  0
LINE
  5
27F
100
AcDbEntity
  8
0
100
AcDbLine
 62
250
  6
CONTINUOUS
 10
-13.0948129863
 20
-31.0779028678
 11
-13.1202751659
 21
-31.0068878712
  0
LINE
  5
280
100
AcDbEntity
  8
0
100
AcDbLine
 62
250
  6
CONTINUOUS
 10
-13.1202751659
 20
-31.0068878712
 11
-13.146277078
 21
-30.9332357472
  0
LINE
  5
281
100
AcDbEntity
  8
0
100
AcDbLine
 62
250
  6
CONTINUOUS
 10
-13.146277078
 20
-30.9332357472
 11
-13.1717377776
 21
-30.8599606935
  0
LINE
  5
282
100
AcDbEntity
  8
0
100
AcDbLine
 62
250
  6
CONTINUOUS
 10
-13.1717377776
 20
-30.8599606935
 11
-13.196654406
 21
-30.787055907
  0
LINE
  5
283
100
AcDbEntity
  8
0
100
AcDbLine
 62
250
  6
CONTINUOUS
 10
-13.196654406
 20
-30.787055907
 11
-13.2227582832
 21
-30.7092590926
  0
LINE
  5
284
100
AcDbEntity
  8
0
100
AcDbLine
 62
250
  6
CONTINUOUS
 10
-13.2227582832
 20
-30.7092590926
 11
-13.2481872982
 21
-30.6319681453
  0
LINE
  5
285
100
AcDbEntity
  8
0
100
AcDbLine
 62
250
  6
CONTINUOUS
 10
-13.2481872982
 20
-30.6319681453
 11
-13.2729726252
 21
-30.5551234406
  0
LINE
  5
286
100
AcDbEntity
  8
0
100
AcDbLine
 62
250
  6
CONTINUOUS
 10
-15.7366807425
 20
15.1672740379
 11
-15.7459760772
 21
15.1065021376
  0
LWPOLYLINE
  5
287
100
AcDbEntity
  8
0
100
AcDbPolyline
 62
7
  6
CONTINUOUS
 90
3
 70
0
 10
-15.5524176932
 20
14.6648909901
 10
-15.5266158412
 20
14.6957051662
 10
-15.493399889
 20
14.7230676591
  0
LINE
  5
288
100
AcDbEntity
  8
0
100
AcDbLine
 62
7
  6
CONTINUOUS
 10
-15.660177746
 20
14.5868001885
 11
-15.6912162405
 21
14.5506599362
  0
LWPOLYLINE
  5
289
100
AcDbEntity
  8
0
100
AcDbPolyline
 62
250
  6
CONTINUOUS
 90
5
 70
0
 10
-5.4191905453
 20
20.7951542918
 10
-5.3790197319
 20
20.8326223563
 10
-5.3404458007
 20
20.856473415
 10
-5.3043649617
 20
20.8663102586
 10
-5.2790933206
 20
20.8641551334
  0
LWPOLYLINE
  5
28A
100
AcDbEntity
  8
0
100
AcDbPolyline
 62
250
  6
CONTINUOUS
 90
5
 70
0
 10
-15.5832813038
 20
15.3790893472
 10
-15.6391064874
 20
15.3305398136
 10
-15.6832459476
 20
15.2792928758
 10
-15.7156996844
 20
15.225348534
 10
-15.7366807425
 20
15.1672740379
  0
LINE
  5
28B
100
AcDbEntity
  8
0
100
AcDbLine
 62
7
  6
CONTINUOUS
 10
-15.8865845816
 20
15.3696838661
 11
-15.8844123669
 21
15.3713727005
  0
LWPOLYLINE
  5
28C
100
AcDbEntity
  8
0
100
AcDbPolyline
 62
250
  6
CONTINUOUS
 90
8
 70
0
 10
-15.8089770953
 20
14.812074647
 10
-15.8782157685
 20
14.7611013242
 10
-15.9415065169
 20
14.7011185056
 10
-15.9967045519
 20
14.6336566124
 10
-16.0408375054
 20
14.5621410754
 10
-16.0728454783
 20
14.4889104247
 10
-16.0924521024
 20
14.4154390368
 10
-16.0991544462
 20
14.3433809627
  0
LWPOLYLINE
  5
28D
100
AcDbEntity
  8
0
100
AcDbPolyline
 62
7
  6
CONTINUOUS
 90
11
 70
0
 10
-9.0829712928
 20
17.0398967219
 10
-9.180553462
 20
16.972034264
 10
-9.2749605225
 20
16.8932905653
 10
-9.3661924742
 20
16.8036656259
 10
-9.4540676343
 20
16.7018869582
 10
-9.5387676856
 20
16.5892270497
 10
-9.6208376772
 20
16.4695033633
 10
-9.7002849851
 20
16.3431503764
 10
-9.7771022331
 20
16.2097336116
 10
-9.8518123425
 20
16.0717670986
 10
-9.9245896201
 20
15.9300888473
  0
LINE
  5
28E
100
AcDbEntity
  8
0
100
AcDbLine
 62
7
  6
CONTINUOUS
 10
-14.5333041397
 20
15.1242456424
 11
-15.4641254655
 21
14.4959822269
  0
LINE
  5
28F
100
AcDbEntity
  8
0
100
AcDbLine
 62
7
  6
CONTINUOUS
 10
-14.5283212183
 20
15.1276088949
 11
-14.445844614
 21
15.1832769718
  0
LWPOLYLINE
  5
290
100
AcDbEntity
  8
0
100
AcDbPolyline
 62
7
  6
CONTINUOUS
 90
6
 70
0
 10
-15.5023488482
 20
14.7171965452
 10
-15.5330603845
 20
14.6977295173
 10
-15.5645058868
 20
14.6750128605
 10
-15.5964045714
 20
14.6489771056
 10
-15.6284244402
 20
14.6195780825
 10
-15.660177746
 20
14.5868001885
  0
LWPOLYLINE
  5
291
100
AcDbEntity
  8
0
100
AcDbPolyline
 62
250
  6
CONTINUOUS
 90
9
 70
0
 10
-11.7528110572
 20
17.9869289802
 10
-12.2600598319
 20
17.6755313979
 10
-12.7593272029
 20
17.3598704144
 10
-13.2507628238
 20
17.0398454277
 10
-13.7342170411
 20
16.7155570398
 10
-14.2092408938
 20
16.3873070572
 10
-14.6756847284
 20
16.055196082
 10
-15.1336981984
 20
15.719123512
 10
-15.5832813038
 20
15.3790893472
  0
LWPOLYLINE
  5
292
100
AcDbEntity
  8
0
100
AcDbPolyline
 62
7
  6
CONTINUOUS
 90
9
 70
0
 10
-12.0084255058
 20
18.0064049934
 10
-12.5213811155
 20
17.6920004132
 10
-13.0264292079
 20
17.3731774606
 10
-13.5234611938
 20
17.0500013749
 10
-14.0123662301
 20
16.7225407618
 10
-14.4930318113
 20
16.3908675676
 10
-14.9653511115
 20
16.0550521475
 10
-15.4292224322
 20
15.7151632759
 10
-15.8844123669
 20
15.3713727005
  0
LINE
  5
293
100
AcDbEntity
  8
0
100
AcDbLine
 62
250
  6
CONTINUOUS
 10
-11.2375808788
 20
18.2940631614
 11
-11.7528110572
 21
17.9869289802
  0
LINE
  5
294
100
AcDbEntity
  8
0
100
AcDbLine
 62
7
  6
CONTINUOUS
 10
-11.4885239823
 20
18.3158273967
 11
-12.0084255058
 21
18.0064049934
  0
LINE
  5
295
100
AcDbEntity
  8
0
100
AcDbLine
 62
7
  6
CONTINUOUS
 10
-15.0912548222
 20
14.9593238984
 11
-15.493399889
 21
14.7230781243
  0
LINE
  5
296
100
AcDbEntity
  8
0
100
AcDbLine
 62
250
  6
CONTINUOUS
 10
-4.759811869
 20
19.7735954721
 11
-4.7554046532
 21
19.7761659811
  0
LWPOLYLINE
  5
297
100
AcDbEntity
  8
0
100
AcDbPolyline
 62
250
  6
CONTINUOUS
 90
6
 70
0
 10
-15.8844123669
 20
15.3713727005
 10
-15.8382493537
 20
15.3981831434
 10
-15.7817633597
 20
15.4139767835
 10
-15.7191038128
 20
15.4163841949
 10
-15.6521945951
 20
15.4053262692
 10
-15.5830773756
 20
15.3811427277
  0
LWPOLYLINE
  5
298
100
AcDbEntity
  8
0
100
AcDbPolyline
 62
7
  6
CONTINUOUS
 90
6
 70
0
 10
-9.9450355114
 20
18.0897030676
 10
-10.9011720764
 20
17.5376417982
 10
-11.8295446291
 20
16.9708395887
 10
-12.7294086363
 20
16.3897263232
 10
-13.6015086312
 20
15.7938721176
 10
-14.445844614
 20
15.1832769718
  0
LINE
  5
299
100
AcDbEntity
  8
0
100
AcDbLine
 62
250
  6
CONTINUOUS
 10
-13.6727536658
 20
14.627374584
 11
-13.817571376
 21
14.5437586532
  0
LINE
  5
29A
100
AcDbEntity
  8
0
100
AcDbLine
 62
250
  6
CONTINUOUS
 10
-4.9046295791
 20
19.6899795413
 11
-4.759811869
 21
19.7735954721
  0
LINE
  5
29B
100
AcDbEntity
  8
0
100
AcDbLine
 62
250
  6
CONTINUOUS
 10
-10.0505764996
 20
15.50144927
 11
-9.9023440238
 21
15.5870368437
  0
LINE
  5
29C
100
AcDbEntity
  8
0
100
AcDbLine
 62
7
  6
CONTINUOUS
 10
-10.0369646858
 20
15.4416745705
 11
-9.913281632
 21
15.5130876156
  0
LINE
  5
29D
100
AcDbEntity
  8
0
100
AcDbLine
 62
250
  6
CONTINUOUS
 10
-13.817571376
 20
14.5437586532
 11
-13.8219785917
 21
14.5412398198
  0
LWPOLYLINE
  5
29E
100
AcDbEntity
  8
RACCORDO
100
AcDbPolyline
 62
250
  6
CONTINUOUS
 90
8
 70
0
 10
-8.6587072232
 20
16.6724614258
 10
-8.5860809234
 20
16.7137914222
 10
-8.5059595806
 20
16.7549318792
 10
-8.4183431948
 20
16.795882797
 10
-8.3231761286
 20
16.8371606818
 10
-8.2205140193
 20
16.8782490273
 10
-8.1105237796
 20
16.9175983143
 10
-7.9929851378
 20
16.9551945645
  0
LINE
  5
29F
100
AcDbEntity
  8
0
100
AcDbLine
 62
7
  6
CONTINUOUS
 10
-5.1431682095
 20
20.6991721772
 11
-5.5453132762
 21
20.4710309084
  0
LWPOLYLINE
  5
2A0
100
AcDbEntity
  8
0
100
AcDbPolyline
 62
7
  6
CONTINUOUS
 90
10
 70
0
 10
-11.4865564153
 20
18.3169633744
 10
-10.9591835623
 20
18.6122299748
 10
-10.4234290036
 20
18.9033573736
 10
-9.8802438878
 20
19.1898112392
 10
-9.329745931
 20
19.4715326322
 10
-8.7720563912
 20
19.7484625086
 10
-8.2073004473
 20
20.020541694
 10
-7.6356027577
 20
20.2877131006
 10
-7.0570870342
 20
20.5499217696
 10
-6.4719826069
 20
20.8070685932
  0
LWPOLYLINE
  5
2A1
100
AcDbEntity
  8
0
100
AcDbPolyline
 62
250
  6
CONTINUOUS
 90
9
 70
0
 10
-11.2375808788
 20
18.2940631614
 10
-10.7147017118
 20
18.5863203057
 10
-10.1844334248
 20
18.8739720716
 10
-9.6467760179
 20
19.1570184592
 10
-9.1015580562
 20
19.4355442588
 10
-8.5489509745
 20
19.70946468
 10
-7.9894690777
 20
19.9785253518
 10
-7.4232838008
 20
20.2426414836
 10
-6.8502237087
 20
20.501897866
  0
LWPOLYLINE
  5
2A2
100
AcDbEntity
  8
RACCORDO
100
AcDbPolyline
 62
250
  6
CONTINUOUS
 90
43
 70
0
 10
-8.3051538326
 20
16.0600889907
 10
-8.245221904
 20
16.0934359108
 10
-8.1796682256
 20
16.127231729
 10
-8.1082303631
 20
16.1611900252
 10
-8.0304764305
 20
16.1950760075
 10
-7.946365331
 20
16.2284601989
 10
-7.8563134105
 20
16.2607682585
 10
-7.7602288907
 20
16.2916535628
 10
-7.6580574315
 20
16.320750871
 10
-7.5504352708
 20
16.3475269714
 10
-7.4374410323
 20
16.3716411533
 10
-7.3192287267
 20
16.3927373605
 10
-7.1967067543
 20
16.4103649568
 10
-7.0701559319
 20
16.4242293131
 10
-6.9399120203
 20
16.4340375218
 10
-6.807093559
 20
16.4394844152
 10
-6.6720929494
 20
16.4403658389
 10
-6.5354426526
 20
16.4364881538
 10
-6.3985385428
 20
16.4277474819
 10
-6.2618985891
 20
16.4140777176
 10
-6.126084987
 20
16.3954343887
 10
-5.9925365238
 20
16.371964235
 10
-5.8619729363
 20
16.3438063685
 10
-5.734680543
 20
16.3110354224
 10
-5.6113727595
 20
16.2738503711
 10
-5.4926194339
 20
16.2324630572
 10
-5.3787176687
 20
16.1870183454
 10
-5.2699387885
 20
16.1376469013
 10
-5.1666881821
 20
16.0845447983
 10
-5.0693408733
 20
16.0279176219
 10
-4.9781323992
 20
15.9679011796
 10
-4.8934145924
 20
15.9047094999
 10
-4.815530968
 20
15.8385799619
 10
-4.7447178681
 20
15.7696792291
 10
-4.6812194198
 20
15.6981751032
 10
-4.6254034499
 20
15.6244036175
 10
-4.5776244253
 20
15.5488058237
 10
-4.538000989
 20
15.4715512029
 10
-4.506757948
 20
15.3930560408
 10
-4.484134286
 20
15.3141760088
 10
-4.4700330091
 20
15.2352464232
 10
-4.4643152276
 20
15.1565542798
 10
-4.464163575
 20
15.1414711552
  0
LWPOLYLINE
  5
2A3
100
AcDbEntity
  8
0
100
AcDbPolyline
 62
7
  6
CONTINUOUS
 90
22
 70
0
 10
-9.0829712931
 20
17.0398967215
 10
-8.8971080801
 20
17.139157602
 10
-8.7013899803
 20
17.229254914
 10
-8.4958169938
 20
17.3101886576
 10
-8.2791385584
 20
17.3822955007
 10
-8.0526052362
 20
17.4452387754
 10
-7.8199687136
 20
17.4980084778
 10
-7.5811350092
 20
17.5404402765
 10
-7.3361981044
 20
17.572698503
 10
-7.0891916293
 20
17.5942661474
 10
-6.8400845531
 20
17.6049715422
 10
-6.5889079066
 20
17.6049863549
 10
-6.3397884124
 20
17.5943085784
 10
-6.0927413284
 20
17.5727610754
 10
-5.8477513967
 20
17.5405209831
 10
-5.6088995654
 20
17.4981177058
 10
-5.3763422516
 20
17.4454104243
 10
-5.1499230382
 20
17.3825399578
 10
-4.9332536225
 20
17.3104581682
 10
-4.7275379034
 20
17.2294823427
 10
-4.5315719819
 20
17.1392951939
 10
-4.345355858
 20
17.0398967221
  0
LWPOLYLINE
  5
2A4
100
AcDbEntity
  8
0
100
AcDbPolyline
 62
7
  6
CONTINUOUS
 90
5
 70
0
 10
-11.4884293971
 20
18.3156663459
 10
-11.4718221858
 20
18.3245276004
 10
-11.4221138037
 20
18.3381496308
 10
-11.3655351342
 20
18.3361954951
 10
-11.3015396455
 20
18.3200654781
  0
LINE
  5
2A5
100
AcDbEntity
  8
0
100
AcDbLine
 62
7
  6
CONTINUOUS
 10
-11.486480391
 20
18.316832612
 11
-11.4718221858
 21
18.3245276004
  0
LINE
  5
2A6
100
AcDbEntity
  8
0
100
AcDbLine
 62
7
  6
CONTINUOUS
 10
-5.771005002
 20
20.1839735233
 11
-5.8674187278
 21
20.1363525656
  0
LINE
  5
2A7
100
AcDbEntity
  8
0
100
AcDbLine
 62
7
  6
CONTINUOUS
 10
-5.765180053
 20
20.1868505996
 11
-4.6770660025
 21
20.7242951672
  0
LWPOLYLINE
  5
2A8
100
AcDbEntity
  8
0
100
AcDbPolyline
 62
7
  6
CONTINUOUS
 90
5
 70
0
 10
-5.8674187278
 20
20.1363525656
 10
-6.9249324089
 20
19.6488435512
 10
-7.9569156777
 20
19.1453039441
 10
-8.9633685341
 20
18.6257337443
 10
-9.9450355114
 20
18.0897030676
  0
LINE
  5
2A9
100
AcDbEntity
  8
0
100
AcDbLine
 62
250
  6
CONTINUOUS
 10
-6.8502237087
 20
20.501897866
 11
-6.2702888015
 21
20.7562944988
  0
LWPOLYLINE
  5
2AA
100
AcDbEntity
  8
0
100
AcDbPolyline
 62
7
  6
CONTINUOUS
 90
3
 70
0
 10
-5.0710576072
 20
20.7337983837
 10
-5.102289615
 20
20.7203258316
 10
-5.133147207
 20
20.7042436162
  0
LWPOLYLINE
  5
2AB
100
AcDbEntity
  8
0
100
AcDbPolyline
 62
250
  6
CONTINUOUS
 90
6
 70
0
 10
-6.4719826069
 20
20.8070685932
 10
-6.4666233909
 20
20.8092425203
 10
-6.4229087879
 20
20.8176621193
 10
-6.3746687715
 20
20.8117438745
 10
-6.3233641221
 20
20.7916760666
 10
-6.2705601781
 20
20.7580734442
  0
LWPOLYLINE
  5
2AC
100
AcDbEntity
  8
0
100
AcDbPolyline
 62
250
  6
CONTINUOUS
 90
3
 70
0
 10
-15.6586686415
 20
14.8830079698
 10
-15.7352585063
 20
14.8530598821
 10
-15.8089770953
 20
14.812074647
  0
LWPOLYLINE
  5
2AD
100
AcDbEntity
  8
0
100
AcDbPolyline
 62
250
  6
CONTINUOUS
 90
4
 70
0
 10
-6.2702888015
 20
20.7562944988
 10
-6.1874142573
 20
20.7878284497
 10
-6.0998072984
 20
20.8126502432
 10
-6.0074679248
 20
20.8307598793
  0
LWPOLYLINE
  5
2AE
100
AcDbEntity
  8
0
100
AcDbPolyline
 62
7
  6
CONTINUOUS
 90
3
 70
0
 10
-5.1431682095
 20
20.6991721772
 10
-5.1036023878
 20
20.7138200819
 10
-5.0593739431
 20
20.723451538
  0
LWPOLYLINE
  5
2AF
100
AcDbEntity
  8
RACCORDO
100
AcDbPolyline
 62
250
  6
CONTINUOUS
 90
51
 70
0
 10
-7.9929851378
 20
16.9551945645
 10
-7.8681183654
 20
16.9910517563
 10
-7.73675119
 20
17.0236623056
 10
-7.5986185119
 20
17.0529673548
 10
-7.4539854307
 20
17.0790257615
 10
-7.3044749731
 20
17.1005065143
 10
-7.1498617758
 20
17.117289461
 10
-6.9903712021
 20
17.1294947539
 10
-6.8283023679
 20
17.1361518385
 10
-6.6634489278
 20
17.1370821983
 10
-6.4960172271
 20
17.1324643498
 10
-6.3289254183
 20
17.1218632885
 10
-6.1621364668
 20
17.1050568325
 10
-5.9956874071
 20
17.0822671637
 10
-5.8326074956
 20
17.0537258227
 10
-5.6732311118
 20
17.0193180527
 10
-5.5172238762
 20
16.9791586106
 10
-5.3666119074
 20
16.9338233077
 10
-5.2216218744
 20
16.8832981756
 10
-5.0820271083
 20
16.8275971827
 10
-4.9491737203
 20
16.7673380461
 10
-4.823113237
 20
16.7024973208
 10
-4.7037941319
 20
16.6330984519
 10
-4.5924079369
 20
16.559829491
 10
-4.4889922181
 20
16.4826557648
 10
-4.3935094094
 20
16.4016119468
 10
-4.3070383434
 20
16.3174901089
 10
-4.2296085374
 20
16.2301507241
 10
-4.1611904742
 20
16.1397333195
 10
-4.102774435
 20
16.0474485484
 10
-4.0545766025
 20
15.9531060682
 10
-4.0163807939
 20
15.8568962215
 10
-3.9885287418
 20
15.7606006893
 10
-3.9714107158
 20
15.664258354
 10
-3.9646364464
 20
15.5678303331
 10
-3.9673768573
 20
15.4729816605
 10
-3.9799324515
 20
15.3798345508
 10
-4.0020027261
 20
15.2882667893
 10
-4.0318570965
 20
15.199576766
 10
-4.0696970474
 20
15.1138934795
 10
-4.1153210941
 20
15.0310879312
 10
-4.1663941971
 20
14.9520715146
 10
-4.2230100657
 20
14.8769983515
 10
-4.2850749905
 20
14.8057143202
 10
-4.3499728047
 20
14.738668449
 10
-4.4177202711
 20
14.6759860242
 10
-4.4883006268
 20
14.6175417594
 10
-4.5590474158
 20
14.5634088239
 10
-4.6290718195
 20
14.5136116074
 10
-4.6992626564
 20
14.46812572
 10
-4.7696199267
 20
14.4269511619
  0
LWPOLYLINE
  5
2B0
100
AcDbEntity
  8
0
100
AcDbPolyline
 62
250
  6
CONTINUOUS
 90
10
 70
0
 10
-14.6050188718
 20
-17.0182409819
 10
-14.625756641
 20
-17.0077629649
 10
-14.6459044573
 20
-16.9969887657
 10
-14.6654532663
 20
-16.9859240781
 10
-14.6843981378
 20
-16.9745718364
 10
-14.7027213801
 20
-16.9629420723
 10
-14.7203960821
 20
-16.9510519342
 10
-14.7374068446
 20
-16.9389125792
 10
-14.7537480293
 20
-16.9265284091
 10
-14.7694090334
 20
-16.9139070729
  0
LWPOLYLINE
  5
2B1
100
AcDbEntity
  8
0
100
AcDbPolyline
 62
250
  6
CONTINUOUS
 90
10
 70
0
 10
2.7356405219
 20
-27.0305203863
 10
2.7554756305
 20
-27.0434686404
 10
2.7758861327
 20
-27.0561123061
 10
2.7968612173
 20
-27.0684456067
 10
2.8183953167
 20
-27.0804654155
 10
2.8404694194
 20
-27.0921605721
 10
2.8630509813
 20
-27.1035138962
 10
2.886118804
 20
-27.1145154141
 10
2.9096645226
 20
-27.125161442
 10
2.9336736068
 20
-27.1354451176
  0
LWPOLYLINE
  5
2B2
100
AcDbEntity
  8
0
100
AcDbPolyline
 62
250
  6
CONTINUOUS
 90
10
 70
0
 10
-12.5382978066
 20
-16.8530280206
 10
-11.247920924
 20
-17.7271935723
 10
-9.9276829707
 20
-18.5863657394
 10
-8.5781064009
 20
-19.4302045239
 10
-7.1996477061
 20
-20.2584216853
 10
-5.7929268047
 20
-21.0706420038
 10
-4.3587424149
 20
-21.8664124102
 10
-2.8977578538
 20
-22.6453833866
 10
-1.410485208
 20
-23.4073000803
 10
0.1024743992
 20
-24.1518698452
  0
LWPOLYLINE
  5
2B3
100
AcDbEntity
  8
0
100
AcDbPolyline
 62
250
  6
CONTINUOUS
 90
10
 70
0
 10
-14.7674918029
 20
-15.189522539
 10
-14.5412023306
 20
-15.3738826038
 10
-14.3081218073
 20
-15.5578548953
 10
-14.0697889207
 20
-15.7419306919
 10
-13.8263932207
 20
-15.926276591
 10
-13.5781366251
 20
-16.1110251031
 10
-13.3252575649
 20
-16.2962698813
 10
-13.0677593028
 20
-16.4819792422
 10
-12.8054871201
 20
-16.6680595097
 10
-12.5383025804
 20
-16.854395655
  0
LWPOLYLINE
  5
2B4
100
AcDbEntity
  8
0
100
AcDbPolyline
 62
250
  6
CONTINUOUS
 90
10
 70
0
 10
-16.0990666075
 20
-12.5996067991
 10
-15.9560302514
 20
-12.7565274017
 10
-15.8142375057
 20
-12.906539205
 10
-15.6721908445
 20
-13.0517385536
 10
-15.5273974304
 20
-13.1948892111
 10
-15.3798407561
 20
-13.336087406
 10
-15.2322845182
 20
-13.4728905742
 10
-15.0849912885
 20
-13.6053317784
 10
-14.936148981
 20
-13.7352813826
 10
-14.7827722121
 20
-13.8652574822
  0
LWPOLYLINE
  5
2B5
100
AcDbEntity
  8
0
100
AcDbPolyline
 62
250
  6
CONTINUOUS
 90
5
 70
0
 10
-16.084397292
 20
-14.7451820664
 10
-16.1469917691
 20
-14.6651532646
 10
-16.1906894154
 20
-14.5811917608
 10
-16.2151091572
 20
-14.4945522027
 10
-16.2202177755
 20
-14.4454054891
  0
LINE
  5
2B6
100
AcDbEntity
  8
0
100
AcDbLine
 62
250
  6
CONTINUOUS
 10
-12.4128381287
 20
-23.1145449534
 11
-12.3952272417
 21
-23.1475077535
  0
LWPOLYLINE
  5
2B7
100
AcDbEntity
  8
0
100
AcDbPolyline
 62
250
  6
CONTINUOUS
 90
10
 70
0
 10
-12.4128572448
 20
-23.114558147
 10
-12.5470843238
 20
-22.8590321814
 10
-12.6762422287
 20
-22.6026194326
 10
-12.8003968321
 20
-22.3453458994
 10
-12.9191360613
 20
-22.0882546086
 10
-13.0329855874
 20
-21.8303578158
 10
-13.1433846994
 20
-21.568622402
 10
-13.2508135691
 20
-21.30203983
 10
-13.3548186751
 20
-21.0316400948
 10
-13.4554102234
 20
-20.7574345003
  0
LWPOLYLINE
  5
2B8
100
AcDbEntity
  8
0
100
AcDbPolyline
 62
250
  6
CONTINUOUS
 90
4
 70
0
 10
-13.594119308
 20
-21.6929144066
 10
-13.7147207107
 20
-21.4109409969
 10
-13.8306551241
 20
-21.1280474278
 10
-13.9420042861
 20
-20.8445299992
  0
LWPOLYLINE
  5
2B9
100
AcDbEntity
  8
0
100
AcDbPolyline
 62
250
  6
CONTINUOUS
 90
12
 70
0
 10
-13.4554102234
 20
-20.7574345003
 10
-13.5795622794
 20
-20.3967895902
 10
-13.6956311123
 20
-20.0451006675
 10
-13.8036948831
 20
-19.7024195787
 10
-13.9033113256
 20
-19.3690437047
 10
-13.9951077932
 20
-19.0447710146
 10
-14.0807582937
 20
-18.7288920149
 10
-14.1603147859
 20
-18.421507874
 10
-14.2338806991
 20
-18.122589212
 10
-14.303172218
 20
-17.83121387
 10
-14.367730887
 20
-17.5475544682
 10
-14.4875853944
 20
-17.0016584517
  0
LINE
  5
2BA
100
AcDbEntity
  8
0
100
AcDbLine
 62
250
  6
CONTINUOUS
 10
-13.2729726252
 20
-30.5551234406
 11
-13.2951156521
 21
-30.4848373668
  0
LWPOLYLINE
  5
2BB
100
AcDbEntity
  8
0
100
AcDbPolyline
 62
7
  6
CONTINUOUS
 90
6
 70
0
 10
-13.2921972303
 20
-30.5118659509
 10
-13.2745130509
 20
-30.5690358959
 10
-13.2313945797
 20
-30.7041053256
 10
-13.1851556676
 20
-30.843367798
 10
-13.1363080781
 20
-30.9853028373
 10
-13.1025927383
 20
-31.0808352143
  0
LINE
  5
2BC
100
AcDbEntity
  8
0
100
AcDbLine
 62
250
  6
CONTINUOUS
 10
-13.3124705396
 20
-30.4286802955
 11
-13.2932857252
 21
-30.4906490174
  0
LINE
  5
2BD
100
AcDbEntity
  8
0
100
AcDbLine
 62
250
  6
CONTINUOUS
 10
-13.3219411979
 20
-30.3976908212
 11
-13.3124705396
 21
-30.4286802955
  0
LINE
  5
2BE
100
AcDbEntity
  8
0
100
AcDbLine
 62
7
  6
CONTINUOUS
 10
-13.3982264239
 20
-30.1579785719
 11
-13.2932311575
 21
-30.5080739309
  0
LINE
  5
2BF
100
AcDbEntity
  8
0
100
AcDbLine
 62
250
  6
CONTINUOUS
 10
-13.3199843677
 20
-30.4018787198
 11
-13.4131722805
 21
-30.0863561525
  0
LINE
  5
2C0
100
AcDbEntity
  8
0
100
AcDbLine
 62
250
  6
CONTINUOUS
 10
-13.4131722805
 20
-30.0863561525
 11
-13.5118196914
 21
-29.7484229338
  0
LINE
  5
2C1
100
AcDbEntity
  8
0
100
AcDbLine
 62
250
  6
CONTINUOUS
 10
-13.5118196914
 20
-29.7484229338
 11
-13.6067570144
 21
-29.4193436559
  0
LINE
  5
2C2
100
AcDbEntity
  8
0
100
AcDbLine
 62
250
  6
CONTINUOUS
 10
-13.6067570144
 20
-29.4193436559
 11
-13.7000734186
 21
-29.0921753213
  0
LINE
  5
2C3
100
AcDbEntity
  8
0
100
AcDbLine
 62
250
  6
CONTINUOUS
 10
-13.7000734186
 20
-29.0921753213
 11
-13.8035585616
 21
-28.724280151
  0
LINE
  5
2C4
100
AcDbEntity
  8
0
100
AcDbLine
 62
250
  6
CONTINUOUS
 10
-13.8035585616
 20
-28.724280151
 11
-13.9060239866
 21
-28.3546864209
  0
LINE
  5
2C5
100
AcDbEntity
  8
0
100
AcDbLine
 62
250
  6
CONTINUOUS
 10
-13.9060239866
 20
-28.3546864209
 11
-14.0073962364
 21
-27.9834094326
  0
LWPOLYLINE
  5
2C6
100
AcDbEntity
  8
0
100
AcDbPolyline
 62
250
  6
CONTINUOUS
 90
3
 70
0
 10
-14.0073962364
 20
-27.9834094326
 10
-14.1076147575
 20
-27.6103998686
 10
-14.1572646558
 20
-27.4232593606
  0
LWPOLYLINE
  5
2C7
100
AcDbEntity
  8
0
100
AcDbPolyline
 62
250
  6
CONTINUOUS
 90
10
 70
0
 10
-14.6632616381
 20
-16.2280790665
 10
-14.6698134709
 20
-16.2035789282
 10
-14.6765832045
 20
-16.1796061309
 10
-14.6835704389
 20
-16.1561605329
 10
-14.6900073896
 20
-16.1338879291
 10
-14.6966623181
 20
-16.1121427594
 10
-14.7058324005
 20
-16.088985247
 10
-14.7182727032
 20
-16.0637646018
 10
-14.7332030243
 20
-16.0371217942
 10
-14.7506063548
 20
-16.0090503021
  0
LWPOLYLINE
  5
2C8
100
AcDbEntity
  8
0
100
AcDbPolyline
 62
250
  6
CONTINUOUS
 90
9
 70
0
 10
-14.1572646558
 20
-27.4232593606
 10
-14.2132541866
 20
-27.2100182621
 10
-14.2684386707
 20
-26.997695598
 10
-14.3228163371
 20
-26.7862879991
 10
-14.3763919552
 20
-26.5757794071
 10
-14.4291574383
 20
-26.3661771846
 10
-14.4810914143
 20
-26.1575154333
 10
-14.5321852592
 20
-25.9498050351
 10
-14.5824435834
 20
-25.7430311342
  0
LWPOLYLINE
  5
2C9
100
AcDbEntity
  8
0
100
AcDbPolyline
 62
250
  6
CONTINUOUS
 90
12
 70
0
 10
-13.7146607342
 20
-22.0325546948
 10
-13.4128553471
 20
-23.2131074633
 10
-13.0385230025
 20
-24.3729422176
 10
-12.5954721359
 20
-25.4993956766
 10
-12.0868561742
 20
-26.5819588679
 10
-11.5145222964
 20
-27.6113246799
 10
-10.8840133073
 20
-28.5764687215
 10
-10.2025562994
 20
-29.468417788
 10
-9.4746197814
 20
-30.281029314
 10
-8.7064959537
 20
-31.0073004322
 10
-7.906783107
 20
-31.639105516
 10
-7.0845135369
 20
-32.1699130737
  0
LINE
  5
2CA
100
AcDbEntity
  8
0
100
AcDbLine
 62
250
  6
CONTINUOUS
 10
-10.7178296988
 20
-34.3160949353
 11
-10.5951241068
 21
-34.809421985
  0
LWPOLYLINE
  5
2CB
100
AcDbEntity
  8
0
100
AcDbPolyline
 62
250
  6
CONTINUOUS
 90
10
 70
0
 10
-13.9419615813
 20
-20.8443046353
 10
-14.0433460939
 20
-20.4273639833
 10
-14.1385263229
 20
-20.0080113426
 10
-14.2268222275
 20
-19.5865065595
 10
-14.3067935589
 20
-19.1637412328
 10
-14.3789912567
 20
-18.7397003025
 10
-14.4455289972
 20
-18.3129959775
 10
-14.5065188724
 20
-17.8831230576
 10
-14.5598859754
 20
-17.4508545508
 10
-14.6050188718
 20
-17.0182409819
  0
LINE
  5
2CC
100
AcDbEntity
  8
0
100
AcDbLine
 62
250
  6
CONTINUOUS
 10
-14.5824435834
 20
-25.7430311342
 11
-14.6674113028
 21
-25.3874748236
  0
LINE
  5
2CD
100
AcDbEntity
  8
0
100
AcDbLine
 62
250
  6
CONTINUOUS
 10
-14.6674113028
 20
-25.3874748236
 11
-14.7371752422
 21
-25.0894869221
  0
LINE
  5
2CE
100
AcDbEntity
  8
0
100
AcDbLine
 62
250
  6
CONTINUOUS
 10
-14.7371752422
 20
-25.0894869221
 11
-14.8051752279
 21
-24.7933943929
  0
LWPOLYLINE
  5
2CF
100
AcDbEntity
  8
0
100
AcDbPolyline
 62
250
  6
CONTINUOUS
 90
3
 70
0
 10
-14.4875853944
 20
-17.0016584517
 10
-14.5471351458
 20
-16.7375758871
 10
-14.6632616381
 20
-16.2280790665
  0
LINE
  5
2D0
100
AcDbEntity
  8
0
100
AcDbLine
 62
250
  6
CONTINUOUS
 10
-14.8051752279
 20
-24.7933943929
 11
-14.8713284285
 21
-24.4993433807
  0
LINE
  5
2D1
100
AcDbEntity
  8
0
100
AcDbLine
 62
250
  6
CONTINUOUS
 10
-14.8713284285
 20
-24.4993433807
 11
-14.9356081656
 21
-24.2073772127
  0
LWPOLYLINE
  5
2D2
100
AcDbEntity
  8
0
100
AcDbPolyline
 62
250
  6
CONTINUOUS
 90
9
 70
0
 10
-14.9356081656
 20
-24.2073772127
 10
-15.1580938029
 20
-23.1418855827
 10
-15.3588232187
 20
-22.0838485925
 10
-15.5362932725
 20
-21.0341467179
 10
-15.6872171529
 20
-20.0013457104
 10
-15.8120945083
 20
-18.9790263112
 10
-15.9144096323
 20
-17.944844229
 10
-15.9937696271
 20
-16.8911566587
 10
-16.0500825443
 20
-15.8247949221
  0
LINE
  5
2D3
100
AcDbEntity
  8
0
100
AcDbLine
 62
250
  6
CONTINUOUS
 10
-13.9420042861
 20
-20.8445299992
 11
-13.7146607342
 21
-22.0325546948
  0
LWPOLYLINE
  5
2D4
100
AcDbEntity
  8
0
100
AcDbPolyline
 62
250
  6
CONTINUOUS
 90
4
 70
0
 10
-14.6048448807
 20
-17.0183105012
 10
-14.6146805601
 20
-16.9282085502
 10
-14.6246772849
 20
-16.8386129105
 10
-14.6554107714
 20
-16.5728131672
  0
LWPOLYLINE
  5
2D5
100
AcDbEntity
  8
0
100
AcDbPolyline
 62
250
  6
CONTINUOUS
 90
5
 70
0
 10
-16.2441434675
 20
-12.2550294052
 10
-16.2374742434
 20
-12.3309629546
 10
-16.2108998944
 20
-12.4236897845
 10
-16.1645293017
 20
-12.5136692297
 10
-16.0991557171
 20
-12.5995054289
  0
LWPOLYLINE
  5
2D6
100
AcDbEntity
  8
0
100
AcDbPolyline
 62
250
  6
CONTINUOUS
 90
5
 70
0
 10
-15.7459760772
 20
15.1065021376
 10
-15.7429465545
 20
15.0473310841
 10
-15.7273791297
 20
14.9911936276
 10
-15.6994868475
 20
14.9366570177
 10
-15.6592697078
 20
14.8837212546
  0
LWPOLYLINE
  5
2D7
100
AcDbEntity
  8
0
100
AcDbPolyline
 62
7
  6
CONTINUOUS
 90
19
 70
0
 10
-16.2202641496
 20
-14.4454340034
 10
-16.1413280947
 20
-16.0543107923
 10
-16.0018416254
 20
-17.7587229805
 10
-15.8276798813
 20
-19.2665651019
 10
-15.6434907297
 20
-20.5447979365
 10
-15.4632560601
 20
-21.6238953587
 10
-15.2817020848
 20
-22.6006384466
 10
-15.1017727752
 20
-23.4912913894
 10
-14.9321940437
 20
-24.2775918972
 10
-14.7663472942
 20
-25.0072357928
 10
-14.6045778107
 20
-25.6881098609
 10
-14.4509432385
 20
-26.31082707
 10
-14.3016444979
 20
-26.8969778072
 10
-14.1569539481
 20
-27.4496414853
 10
-14.0185929613
 20
-27.965397548
 10
-13.8841263741
 20
-28.4558522666
 10
-13.7526107662
 20
-28.9263684436
 10
-13.626440489
 20
-29.3704928977
 10
-13.3982264239
 20
-30.1579785719
  0
LINE
  5
2D8
100
AcDbEntity
  8
0
100
AcDbLine
 62
250
  6
CONTINUOUS
 10
-16.2202177755
 20
-14.4454054891
 11
-16.2202699306
 21
-14.444071775
  0
LWPOLYLINE
  5
2D9
100
AcDbEntity
  8
0
100
AcDbPolyline
 62
250
  6
CONTINUOUS
 90
3
 70
0
 10
-14.7506063548
 20
-16.0090503021
 10
-14.7558177879
 20
-15.8451385642
 10
-14.7579028123
 20
-15.762973555
  0
LINE
  5
2DA
100
AcDbEntity
  8
0
100
AcDbLine
 62
250
  6
CONTINUOUS
 10
-16.0894516752
 20
-14.5739479508
 11
-16.0500825443
 21
-15.8247949221
  0
LWPOLYLINE
  5
2DB
100
AcDbEntity
  8
0
100
AcDbPolyline
 62
250
  6
CONTINUOUS
 90
3
 70
0
 10
-16.0914955835
 20
-14.4892402362
 10
-16.0909020749
 20
-14.5174504376
 10
-16.0894516752
 20
-14.5739479508
  0
LINE
  5
2DC
100
AcDbEntity
  8
0
100
AcDbLine
 62
250
  6
CONTINUOUS
 10
-14.7579028123
 20
-15.762973555
 11
-14.7674918029
 21
-15.189522539
  0
LINE
  5
2DD
100
AcDbEntity
  8
0
100
AcDbLine
 62
250
  6
CONTINUOUS
 10
-14.7827722121
 20
-13.8652574822
 11
-14.7645901922
 21
-15.1885705402
  0
LINE
  5
2DE
100
AcDbEntity
  8
0
100
AcDbLine
 62
250
  6
CONTINUOUS
 10
-16.1001263608
 20
-13.9207917927
 11
-16.0914955835
 21
-14.4892402362
  0
LINE
  5
2DF
100
AcDbEntity
  8
0
100
AcDbLine
 62
250
  6
CONTINUOUS
 10
-16.1020655521
 20
-13.7268887092
 11
-16.1001263608
 21
-13.9207917927
  0
LINE
  5
2E0
100
AcDbEntity
  8
0
100
AcDbLine
 62
250
  6
CONTINUOUS
 10
-16.1031013459
 20
-13.5152652128
 11
-16.1020655521
 21
-13.7268887092
  0
LWPOLYLINE
  5
2E1
100
AcDbEntity
  8
0
100
AcDbPolyline
 62
7
  6
CONTINUOUS
 90
7
 70
0
 10
-16.2461888536
 20
-12.6457896356
 10
-16.2459719791
 20
-12.974432112
 10
-16.2440456408
 20
-13.2928006635
 10
-16.2403473007
 20
-13.6017710929
 10
-16.2348979246
 20
-13.9036614689
 10
-16.2279072967
 20
-14.1989059391
 10
-16.2202699306
 20
-14.444071775
  0
LINE
  5
2E2
100
AcDbEntity
  8
0
100
AcDbLine
 62
7
  6
CONTINUOUS
 10
-16.2441434683
 20
14.6892578226
 11
-16.2441434675
 21
-12.2550294052
  0
LINE
  5
2E3
100
AcDbEntity
  8
0
100
AcDbLine
 62
250
  6
CONTINUOUS
 10
-16.0991557171
 20
-12.5995054289
 11
-16.0991557179
 21
14.3433823861
  0
LINE
  5
2E4
100
AcDbEntity
  8
0
100
AcDbLine
 62
250
  6
CONTINUOUS
 10
-15.493399889
 20
14.7230781243
 11
-15.493399889
 21
14.4512585119
  0
LINE
  5
2E5
100
AcDbEntity
  8
0
100
AcDbLine
 62
7
  6
CONTINUOUS
 10
-15.4641254655
 20
14.4959822269
 11
-15.4641254655
 21
14.4261677601
  0
LINE
  5
2E6
100
AcDbEntity
  8
0
100
AcDbLine
 62
7
  6
CONTINUOUS
 10
-15.0912548222
 20
14.9593238984
 11
-15.0912548222
 21
14.7476534955
  0
LINE
  5
2E7
100
AcDbEntity
  8
0
100
AcDbLine
 62
7
  6
CONTINUOUS
 10
-14.8163500474
 20
15.1712508135
 11
-14.8163500474
 21
14.9332021158
  0
LINE
  5
2E8
100
AcDbEntity
  8
0
100
AcDbLine
 62
7
  6
CONTINUOUS
 10
-13.3923214831
 20
13.1201077522
 11
-13.3923214831
 21
13.078181531
  0
LINE
  5
2E9
100
AcDbEntity
  8
0
100
AcDbLine
 62
250
  6
CONTINUOUS
 10
-16.1029750254
 20
-13.1727739499
 11
-16.1031013459
 21
-13.5152652128
  0
LINE
  5
2EA
100
AcDbEntity
  8
0
100
AcDbLine
 62
250
  6
CONTINUOUS
 10
-16.1012509235
 20
-12.8291867986
 11
-16.1029750254
 21
-13.1727739499
  0
LINE
  5
2EB
100
AcDbEntity
  8
0
100
AcDbLine
 62
250
  6
CONTINUOUS
 10
-14.7534201117
 20
-16.00631177
 11
-14.7546681403
 21
-16.2227523744
  0
LINE
  5
2EC
100
AcDbEntity
  8
0
100
AcDbLine
 62
7
  6
CONTINUOUS
 10
-16.2440640809
 20
-12.2505986079
 11
-16.2461888536
 21
-12.6457896356
  0
LINE
  5
2ED
100
AcDbEntity
  8
0
100
AcDbLine
 62
250
  6
CONTINUOUS
 10
-16.0991488582
 20
-12.5995138892
 11
-16.1012509235
 21
-12.8291867986
  0
LWPOLYLINE
  5
2EE
100
AcDbEntity
  8
0
100
AcDbPolyline
 62
250
  6
CONTINUOUS
 90
10
 70
0
 10
-14.7694090357
 20
-16.9139071437
 10
-14.7807863883
 20
-17.8730202853
 10
-14.7440220509
 20
-18.9003261175
 10
-14.6478206926
 20
-19.9880627578
 10
-14.4817802015
 20
-21.1315446213
 10
-14.2402077934
 20
-22.3105439063
 10
-13.9263000457
 20
-23.4942442045
 10
-13.5410813374
 20
-24.6671900756
 10
-13.0794141093
 20
-25.8237077179
 10
-12.5408548736
 20
-26.9512414563
  0
LINE
  5
2EF
100
AcDbEntity
  8
0
100
AcDbLine
 62
250
  6
CONTINUOUS
 10
-14.7546681403
 20
-16.2227523744
 11
-14.7573530261
 21
-16.4258927416
  0
LINE
  5
2F0
100
AcDbEntity
  8
0
100
AcDbLine
 62
250
  6
CONTINUOUS
 10
-14.7573530261
 20
-16.4258927416
 11
-14.7612167376
 21
-16.6189115531
  0
LWPOLYLINE
  5
2F1
100
AcDbEntity
  8
0
100
AcDbPolyline
 62
250
  6
CONTINUOUS
 90
3
 70
0
 10
-14.7612167376
 20
-16.6189115531
 10
-14.7663793618
 20
-16.8152919725
 10
-14.7694090357
 20
-16.9139071437
  0
LWPOLYLINE
  5
2F2
100
AcDbEntity
  8
0
100
AcDbPolyline
 62
7
  6
CONTINUOUS
 90
4
 70
0
 10
-15.5812677393
 20
14.5715438506
 10
-15.5796617675
 20
14.5949783328
 10
-15.5702112076
 20
14.6314244058
 10
-15.5524176932
 20
14.6648909901
  0
LWPOLYLINE
  5
2F3
100
AcDbEntity
  8
0
100
AcDbPolyline
 62
7
  6
CONTINUOUS
 90
8
 70
0
 10
-10.0036437149
 20
16.0381787415
 10
-9.9498913644
 20
16.173063598
 10
-9.8619758947
 20
16.3334949424
 10
-9.7495709937
 20
16.4901267412
 10
-9.6152143175
 20
16.6394351982
 10
-9.4597517513
 20
16.7802457145
 10
-9.2823374098
 20
16.9137328889
 10
-9.0829712931
 20
17.0398967215
  0
LWPOLYLINE
  5
2F4
100
AcDbEntity
  8
0
100
AcDbPolyline
 62
7
  6
CONTINUOUS
 90
3
 70
0
 10
-9.9245896201
 20
15.9300888473
 10
-9.9952597591
 20
15.7838608477
 10
-10.0615225718
 20
15.6381414711
  0
LWPOLYLINE
  5
2F5
100
AcDbEntity
  8
RACCORDO
100
AcDbPolyline
 62
250
  6
CONTINUOUS
 90
7
 70
0
 10
-8.8399612282
 20
14.3222973714
 10
-8.8582164706
 20
14.3103908489
 10
-8.8761662536
 20
14.2959512058
 10
-8.8935102292
 20
14.2792200563
 10
-8.909958186
 20
14.2604773573
 10
-8.9252349055
 20
14.2400367248
 10
-8.937625794
 20
14.2205362778
  0
LWPOLYLINE
  5
2F6
100
AcDbEntity
  8
0
100
AcDbPolyline
 62
7
  6
CONTINUOUS
 90
4
 70
0
 10
-8.3051538326
 20
14.6720895201
 10
-8.4064141837
 20
14.6095498844
 10
-8.499686307
 20
14.5439284066
 10
-8.5243560366
 20
14.5240548736
  0
LWPOLYLINE
  5
2F7
100
AcDbEntity
  8
RACCORDO
100
AcDbPolyline
 62
7
  6
CONTINUOUS
 90
13
 70
0
 10
-5.0196320068
 20
14.4517217508
 10
-4.9309313343
 20
14.5060334774
 10
-4.8495861805
 20
14.5621337815
 10
-4.775944516
 20
14.6195202153
 10
-4.7106215335
 20
14.6773221078
 10
-4.6532804714
 20
14.735372241
 10
-4.6031871736
 20
14.7941372174
 10
-4.56070799
 20
14.853033584
 10
-4.526078953
 20
14.9114479331
 10
-4.4989971567
 20
14.9697034716
 10
-4.4795846566
 20
15.027645161
 10
-4.4680029607
 20
15.0848315283
 10
-4.464163575
 20
15.1414711552
  0
LWPOLYLINE
  5
2F8
100
AcDbEntity
  8
0
100
AcDbPolyline
 62
250
  6
CONTINUOUS
 90
10
 70
0
 10
-12.0454476649
 20
11.8880481613
 10
-12.101670846
 20
11.8538468839
 10
-12.1584507767
 20
11.8097612803
 10
-12.2142739252
 20
11.7559102843
 10
-12.267738611
 20
11.6920242152
 10
-12.3159730099
 20
11.6194521733
 10
-12.3557143068
 20
11.5418833925
 10
-12.3854780947
 20
11.4623323835
 10
-12.4043584235
 20
11.3824222663
 10
-12.4109966031
 20
11.30467861
  0
LINE
  5
2F9
100
AcDbEntity
  8
0
100
AcDbLine
 62
250
  6
CONTINUOUS
 10
-2.185284422
 20
18.2870948972
 11
-2.1808766057
 21
18.2896688394
  0
LINE
  5
2FA
100
AcDbEntity
  8
0
100
AcDbLine
 62
250
  6
CONTINUOUS
 10
1.3502494988
 20
16.2457219391
 11
1.3546573002
 21
16.2482958069
  0
LINE
  5
2FB
100
AcDbEntity
  8
0
100
AcDbLine
 62
7
  6
CONTINUOUS
 10
0.4841603266
 20
15.5244572996
 11
0.3409723466
 21
15.4417823545
  0
LINE
  5
2FC
100
AcDbEntity
  8
0
100
AcDbLine
 62
250
  6
CONTINUOUS
 10
-7.7075088369
 20
11.0158857964
 11
-7.7114311865
 21
11.0136439258
  0
LINE
  5
2FD
100
AcDbEntity
  8
0
100
AcDbLine
 62
250
  6
CONTINUOUS
 10
-11.243042728
 20
13.0572587717
 11
-11.2474287579
 21
13.0547549717
  0
LWPOLYLINE
  5
2FE
100
AcDbEntity
  8
RACCORDO
100
AcDbPolyline
 62
250
  6
CONTINUOUS
 90
58
 70
0
 10
-4.7696199267
 20
14.4269511619
 10
-4.8422462266
 20
14.3856211656
 10
-4.9223675694
 20
14.3444807085
 10
-5.0099839552
 20
14.3035297908
 10
-5.1051510214
 20
14.2622519059
 10
-5.2078131306
 20
14.2211635605
 10
-5.3178033703
 20
14.1818142734
 10
-5.4353420122
 20
14.1442180232
 10
-5.5602087845
 20
14.1083608314
 10
-5.6915759599
 20
14.0757502821
 10
-5.8297086381
 20
14.0464452329
 10
-5.9743417192
 20
14.0203868263
 10
-6.1238521769
 20
13.9989060734
 10
-6.2784653741
 20
13.9821231267
 10
-6.4379559478
 20
13.9699178338
 10
-6.600024782
 20
13.9632607492
 10
-6.7648782222
 20
13.9623303894
 10
-6.9323099228
 20
13.9669482379
 10
-7.0994017316
 20
13.9775492992
 10
-7.2661906832
 20
13.9943557552
 10
-7.4326397429
 20
14.017145424
 10
-7.5957196543
 20
14.045686765
 10
-7.7550960382
 20
14.080094535
 10
-7.9111032738
 20
14.1202539771
 10
-8.0617152426
 20
14.16558928
 10
-8.2067052755
 20
14.2161144122
 10
-8.3463000417
 20
14.271815405
 10
-8.4791534297
 20
14.3320745416
 10
-8.6052139129
 20
14.3969152669
 10
-8.724533018
 20
14.4663141359
 10
-8.8359192131
 20
14.5395830967
 10
-8.9393349318
 20
14.6167568229
 10
-9.0348177406
 20
14.6978006409
 10
-9.1212888065
 20
14.7819224788
 10
-9.1987186125
 20
14.8692618636
 10
-9.2671366757
 20
14.9596792682
 10
-9.325552715
 20
15.0519640393
 10
-9.3737505475
 20
15.1463065195
 10
-9.4119463561
 20
15.2425163662
 10
-9.4397984081
 20
15.3388118984
 10
-9.4569164341
 20
15.4351542337
 10
-9.4636907036
 20
15.5315822546
 10
-9.4609502927
 20
15.6264309272
 10
-9.4483946984
 20
15.719578037
 10
-9.4263244238
 20
15.8111457984
 10
-9.3964700535
 20
15.8998358218
 10
-9.3586301025
 20
15.9855191082
 10
-9.3130060558
 20
16.0683246565
 10
-9.2619329528
 20
16.1473410731
 10
-9.2053170843
 20
16.2224142362
 10
-9.1432521594
 20
16.2936982675
 10
-9.0783543453
 20
16.3607441387
 10
-9.0106068788
 20
16.4234265635
 10
-8.9400265231
 20
16.4818708283
 10
-8.8692797341
 20
16.5360037638
 10
-8.7992553305
 20
16.5858009803
 10
-8.7290644935
 20
16.6312868677
 10
-8.6587072232
 20
16.6724614258
  0
LINE
  5
2FF
100
AcDbEntity
  8
0
100
AcDbLine
 62
7
  6
CONTINUOUS
 10
-8.1968389846
 20
14.7305559777
 11
-8.3051538326
 21
14.6720895201
  0
LWPOLYLINE
  5
300
100
AcDbEntity
  8
0
100
AcDbPolyline
 62
250
  6
CONTINUOUS
 90
6
 70
0
 10
-0.2459633497
 20
18.7009225227
 10
-0.1996482253
 20
18.7259254059
 10
-0.1526718596
 20
18.7417473508
 10
-0.1063038922
 20
18.746900238
 10
-0.0616532936
 20
18.739666512
 10
-0.0445766952
 20
18.732779133
  0
LWPOLYLINE
  5
301
100
AcDbEntity
  8
RACCORDO
100
AcDbPolyline
 62
250
  6
CONTINUOUS
 90
7
 70
0
 10
-4.5883659217
 20
16.7771152163
 10
-4.5701106945
 20
16.7862893837
 10
-4.5521609228
 20
16.7925776994
 10
-4.5348169542
 20
16.7958749418
 10
-4.5183690001
 20
16.7961259375
 10
-4.5030922794
 20
16.7933264851
 10
-4.4883610897
 20
16.7870234519
  0
LWPOLYLINE
  5
302
100
AcDbEntity
  8
0
100
AcDbPolyline
 62
7
  6
CONTINUOUS
 90
20
 70
0
 10
-8.2697602274
 20
14.6894609203
 10
-8.1143525128
 20
14.7452125553
 10
-7.9523024974
 20
14.7952244361
 10
-7.7856771856
 20
14.8388586436
 10
-7.6144179688
 20
14.876033481
 10
-7.4385834556
 20
14.9068306451
 10
-7.2604164766
 20
14.9308573073
 10
-7.0798871533
 20
14.9480267389
 10
-6.8970253641
 20
14.9584256686
 10
-6.714163575
 20
14.9619214545
 10
-6.5313017858
 20
14.9584256686
 10
-6.3484399966
 20
14.9480267388
 10
-6.1679106733
 20
14.9308573073
 10
-5.9897436943
 20
14.906830645
 10
-5.8139091812
 20
14.8760334808
 10
-5.6426499644
 20
14.8388586434
 10
-5.4760246526
 20
14.7952244359
 10
-5.3139746372
 20
14.7452125551
 10
-5.1585669225
 20
14.68946092
 10
-5.1446753356
 20
14.6837087511
  0
LWPOLYLINE
  5
303
100
AcDbEntity
  8
DRAFT
100
AcDbPolyline
 62
7
  6
CONTINUOUS
 90
3
 70
0
 10
-8.2403714131
 20
14.5936053085
 10
-8.3858731434
 20
14.5420713875
 10
-8.488216177
 20
14.5008385126
  0
LWPOLYLINE
  5
304
100
AcDbEntity
  8
0
100
AcDbPolyline
 62
250
  6
CONTINUOUS
 90
10
 70
0
 10
-13.9420408849
 20
-20.8444370819
 10
-13.8771961094
 20
-20.8274073466
 10
-13.8142922258
 20
-20.8120522754
 10
-13.7536418157
 20
-20.7984488042
 10
-13.6954937546
 20
-20.786661813
 10
-13.6402398329
 20
-20.7767862009
 10
-13.5883549652
 20
-20.7689059436
 10
-13.5401317094
 20
-20.7630467056
 10
-13.4957400497
 20
-20.7592167575
 10
-13.4554102234
 20
-20.7574345003
  0
LINE
  5
305
100
AcDbEntity
  8
0
100
AcDbLine
 62
7
  6
CONTINUOUS
 10
-5.4172802377
 20
-14.6562524557
 11
-5.6705389397
 21
-14.7171002601
  0
LWPOLYLINE
  5
306
100
AcDbEntity
  8
0
100
AcDbPolyline
 62
7
  6
CONTINUOUS
 90
3
 70
0
 10
-5.7742454532
 20
-14.4780636891
 10
-5.5667251363
 20
-14.4344931344
 10
-5.4262351959
 20
-14.3723768959
  0
LWPOLYLINE
  5
307
100
AcDbEntity
  8
0
100
AcDbPolyline
 62
7
  6
CONTINUOUS
 90
4
 70
0
 10
-5.7564579565
 20
-15.1473444615
 10
-5.404421892
 20
-15.1310345184
 10
-5.1040373539
 20
-15.0372110953
 10
-5.0496724879
 20
-15.0088737344
  0
LINE
  5
308
100
AcDbEntity
  8
0
100
AcDbLine
 62
7
  6
CONTINUOUS
 10
-5.6705389397
 20
-14.7171002601
 11
-5.9514579922
 21
-14.7033437253
  0
LINE
  5
309
100
AcDbEntity
  8
0
100
AcDbLine
 62
7
  6
CONTINUOUS
 10
-5.621037685
 20
-14.6885188589
 11
-5.9019587551
 21
-14.6747634919
  0
LWPOLYLINE
  5
30A
100
AcDbEntity
  8
0
100
AcDbPolyline
 62
250
  6
CONTINUOUS
 90
10
 70
0
 10
-14.7013126702
 20
-16.2245727427
 10
-14.6968611176
 20
-16.2248878888
 10
-14.6924724444
 20
-16.2252215266
 10
-14.6881413487
 20
-16.2255733682
 10
-14.6838622077
 20
-16.2259431628
 10
-14.6796305265
 20
-16.2263306425
 10
-14.6754483248
 20
-16.2267364093
 10
-14.67132214
 20
-16.2271620001
 10
-14.6672578545
 20
-16.2276090362
 10
-14.6632616355
 20
-16.2280790764
  0
LINE
  5
30B
100
AcDbEntity
  8
0
100
AcDbLine
 62
7
  6
CONTINUOUS
 10
-5.9514579922
 20
-14.7033437253
 11
-6.2574620409
 21
-14.620865985
  0
LINE
  5
30C
100
AcDbEntity
  8
0
100
AcDbLine
 62
7
  6
CONTINUOUS
 10
-5.9019587551
 20
-14.6747634919
 11
-6.2079641381
 21
-14.5922865239
  0
LWPOLYLINE
  5
30D
100
AcDbEntity
  8
0
100
AcDbPolyline
 62
7
  6
CONTINUOUS
 90
3
 70
0
 10
-6.2574620409
 20
-14.620865985
 10
-6.5617911539
 20
-14.4769637712
 10
-6.8643795158
 20
-14.2663055041
  0
LWPOLYLINE
  5
30E
100
AcDbEntity
  8
0
100
AcDbPolyline
 62
7
  6
CONTINUOUS
 90
3
 70
0
 10
-6.2079641381
 20
-14.5922865239
 10
-6.512293678
 20
-14.4483845496
 10
-6.8148815542
 20
-14.2377259944
  0
LWPOLYLINE
  5
30F
100
AcDbEntity
  8
0
100
AcDbPolyline
 62
7
  6
CONTINUOUS
 90
3
 70
0
 10
-6.0740621699
 20
-14.0958031656
 10
-6.3217837642
 20
-13.9541818343
 10
-6.3712255081
 20
-13.9257977977
  0
LINE
  5
310
100
AcDbEntity
  8
0
100
AcDbLine
 62
7
  6
CONTINUOUS
 10
-6.0740621699
 20
-14.4813575762
 11
-6.391284123
 21
-14.2998254599
  0
LINE
  5
311
100
AcDbEntity
  8
0
100
AcDbLine
 62
7
  6
CONTINUOUS
 10
-6.024563585
 20
-14.067223303
 11
-6.3217278767
 21
-13.8972184857
  0
LINE
  5
312
100
AcDbEntity
  8
0
100
AcDbLine
 62
7
  6
CONTINUOUS
 10
-6.391284123
 20
-14.2998254599
 11
-6.7070965479
 21
-14.117479499
  0
LINE
  5
313
100
AcDbEntity
  8
0
100
AcDbLine
 62
7
  6
CONTINUOUS
 10
-6.7070965479
 20
-14.117479499
 11
-7.0214994446
 21
-13.9343196933
  0
LWPOLYLINE
  5
314
100
AcDbEntity
  8
0
100
AcDbPolyline
 62
7
  6
CONTINUOUS
 90
3
 70
0
 10
-6.7269452272
 20
-13.7204102218
 10
-6.9724934077
 20
-13.5774221657
 10
-7.0214994446
 20
-13.5487652827
  0
LINE
  5
315
100
AcDbEntity
  8
0
100
AcDbLine
 62
7
  6
CONTINUOUS
 10
-6.7269452272
 20
-13.6630872375
 11
-6.97200086
 21
-13.5201854203
  0
LWPOLYLINE
  5
316
100
AcDbEntity
  8
0
100
AcDbPolyline
 62
7
  6
CONTINUOUS
 90
6
 70
0
 10
-6.4256244193
 20
-14.939770446
 10
-6.3249506592
 20
-15.0126105723
 10
-6.2255472918
 20
-15.0905884567
 10
-6.127420392
 20
-15.1737074091
 10
-6.030302417
 20
-15.2622385772
 10
-5.934472038
 20
-15.3559168913
  0
LINE
  5
317
100
AcDbEntity
  8
0
100
AcDbLine
 62
7
  6
CONTINUOUS
 10
-6.8643795158
 20
-14.2663055041
 11
-7.1652919488
 21
-13.9942350845
  0
LINE
  5
318
100
AcDbEntity
  8
0
100
AcDbLine
 62
7
  6
CONTINUOUS
 10
-6.8148815542
 20
-14.2377259944
 11
-7.1157925854
 21
-13.965654767
  0
LWPOLYLINE
  5
319
100
AcDbEntity
  8
0
100
AcDbPolyline
 62
250
  6
CONTINUOUS
 90
10
 70
0
 10
2.8906684474
 20
-26.3819621606
 10
2.8852240406
 20
-26.3765635039
 10
2.8797592866
 20
-26.3712078963
 10
2.8742733849
 20
-26.3658915267
 10
2.8687650449
 20
-26.3606101524
 10
2.8632339708
 20
-26.3553607395
 10
2.8576805354
 20
-26.3501452715
 10
2.8521037911
 20
-26.3449685126
 10
2.8465017822
 20
-26.3398343514
 10
2.8408730854
 20
-26.3347470859
  0
LWPOLYLINE
  5
31A
100
AcDbEntity
  8
0
100
AcDbPolyline
 62
7
  6
CONTINUOUS
 90
8
 70
0
 10
-5.934472038
 20
-15.3559168913
 10
-5.8407577547
 20
-15.453943184
 10
-5.7491872801
 20
-15.5563596747
 10
-5.6597503616
 20
-15.6631340681
 10
-5.5732242642
 20
-15.7733588282
 10
-5.4898763498
 20
-15.8867362595
 10
-5.4094609638
 20
-16.0035766627
 10
-5.3319880558
 20
-16.123885846
  0
LWPOLYLINE
  5
31B
100
AcDbEntity
  8
0
100
AcDbPolyline
 62
7
  6
CONTINUOUS
 90
4
 70
0
 10
-7.5050735932
 20
-14.0455535246
 10
-7.1757321584
 20
-14.3962492275
 10
-6.8160611763
 20
-14.694408093
 10
-6.4256244193
 20
-14.939770446
  0
LINE
  5
31C
100
AcDbEntity
  8
0
100
AcDbLine
 62
7
  6
CONTINUOUS
 10
-7.1652919488
 20
-13.9942350845
 11
-7.4386325153
 21
-13.684448013
  0
LINE
  5
31D
100
AcDbEntity
  8
0
100
AcDbLine
 62
7
  6
CONTINUOUS
 10
-7.1157925854
 20
-13.965654767
 11
-7.3891310793
 21
-13.6558665036
  0
LWPOLYLINE
  5
31E
100
AcDbEntity
  8
0
100
AcDbPolyline
 62
7
  6
CONTINUOUS
 90
3
 70
0
 10
-5.4866158137
 20
-15.3667090124
 10
-5.5943414185
 20
-15.2408198893
 10
-5.683697295
 20
-15.1439734369
  0
LINE
  5
31F
100
AcDbEntity
  8
0
100
AcDbLine
 62
7
  6
CONTINUOUS
 10
-7.8135784543
 20
-13.6279896523
 11
-7.5050735932
 21
-14.0455535246
  0
LWPOLYLINE
  5
320
100
AcDbEntity
  8
0
100
AcDbPolyline
 62
7
  6
CONTINUOUS
 90
10
 70
0
 10
-7.1681710707
 20
-13.3587229622
 10
-7.360411002
 20
-13.0856542445
 10
-7.5179732262
 20
-12.8096718118
 10
-7.6410941323
 20
-12.5309097316
 10
-7.7316801183
 20
-12.2405211321
 10
-7.7881422252
 20
-11.9475313492
 10
-7.8054100544
 20
-11.6788460581
 10
-7.7817944852
 20
-11.4434343529
 10
-7.718973363
 20
-11.2323208492
 10
-7.6168368547
 20
-11.0454441721
  0
LWPOLYLINE
  5
321
100
AcDbEntity
  8
0
100
AcDbPolyline
 62
7
  6
CONTINUOUS
 90
9
 70
0
 10
-7.1186716853
 20
-13.3301426375
 10
-7.31091024
 20
-13.0570731213
 10
-7.4684710489
 20
-12.7810898737
 10
-7.5915906678
 20
-12.502327055
 10
-7.6821756074
 20
-12.2119378527
 10
-7.7386370213
 20
-11.9189476668
 10
-7.7559046331
 20
-11.6502622474
 10
-7.7322893634
 20
-11.414850714
 10
-7.6694690083
 20
-11.2037376526
  0
LWPOLYLINE
  5
322
100
AcDbEntity
  8
0
100
AcDbPolyline
 62
7
  6
CONTINUOUS
 90
7
 70
0
 10
-7.4386325153
 20
-13.684448013
 10
-7.6824195032
 20
-13.3331885581
 10
-7.8992428829
 20
-12.9445634002
 10
-8.0705366622
 20
-12.5543252515
 10
-8.1903849607
 20
-12.1745430736
 10
-8.2653202785
 20
-11.7934908721
 10
-8.2954953155
 20
-11.4112528349
  0
LWPOLYLINE
  5
323
100
AcDbEntity
  8
0
100
AcDbPolyline
 62
7
  6
CONTINUOUS
 90
7
 70
0
 10
-7.3891310793
 20
-13.6558665036
 10
-7.6329155761
 20
-13.3046056109
 10
-7.8497362197
 20
-12.9159788766
 10
-8.0210274815
 20
-12.5257392842
 10
-8.1408738301
 20
-12.1459559897
 10
-8.2158078562
 20
-11.7649030398
 10
-8.245982369
 20
-11.3826646801
  0
LWPOLYLINE
  5
324
100
AcDbEntity
  8
0
100
AcDbPolyline
 62
250
  6
CONTINUOUS
 90
10
 70
0
 10
0.1860219053
 20
-30.4117633612
 10
0.2218348279
 20
-30.4674315268
 10
0.2546765678
 20
-30.5249325527
 10
0.2844154797
 20
-30.584002893
 10
0.3109349476
 20
-30.644416
 10
0.3340844385
 20
-30.7058712759
 10
0.3537308694
 20
-30.7680085575
 10
0.3698163256
 20
-30.8305623519
 10
0.382306943
 20
-30.8933475099
 10
0.3911561305
 20
-30.9561425387
  0
LWPOLYLINE
  5
325
100
AcDbEntity
  8
0
100
AcDbPolyline
 62
250
  6
CONTINUOUS
 90
10
 70
0
 10
-1.1152080636
 20
-33.5482667274
 10
-0.7865421154
 20
-34.232498334
 10
-0.3882483054
 20
-34.9399494567
 10
0.060805257
 20
-35.6576236069
 10
0.5447752547
 20
-36.375379511
 10
1.0581231381
 20
-37.0947664906
 10
1.6068217506
 20
-37.8295302282
 10
2.18755388
 20
-38.5780609035
 10
2.783757827
 20
-39.3220961284
 10
3.3767770514
 20
-40.0423795036
  0
LWPOLYLINE
  5
326
100
AcDbEntity
  8
0
100
AcDbPolyline
 62
250
  6
CONTINUOUS
 90
10
 70
0
 10
-3.5713126582
 20
-33.9796859981
 10
-3.3031937578
 20
-34.7571772707
 10
-2.9715844173
 20
-35.5559780847
 10
-2.5907042335
 20
-36.3665600032
 10
-2.1677127283
 20
-37.1877855423
 10
-1.7111621285
 20
-38.0117015504
 10
-1.2336778139
 20
-38.8213332217
 10
-0.7438281069
 20
-39.6065779036
 10
-0.2455310847
 20
-40.3626689063
 10
0.2495500186
 20
-41.0710009093
  0
LWPOLYLINE
  5
327
100
AcDbEntity
  8
0
100
AcDbPolyline
 62
250
  6
CONTINUOUS
 90
13
 70
0
 10
-14.7012412983
 20
-16.2246311178
 10
-14.7038000119
 20
-16.2077591019
 10
-14.706401789
 20
-16.191226659
 10
-14.7090453104
 20
-16.1750332988
 10
-14.7117031639
 20
-16.159187897
 10
-14.7144004348
 20
-16.1436806794
 10
-14.7172131313
 20
-16.1284826153
 10
-14.7198003953
 20
-16.1140239097
 10
-14.7225015694
 20
-16.0998736393
 10
-14.7263909711
 20
-16.0847027867
 10
-14.7317914406
 20
-16.0680546377
 10
-14.7382968542
 20
-16.0503534456
 10
-14.7458527457
 20
-16.0315781916
  0
LWPOLYLINE
  5
328
100
AcDbEntity
  8
0
100
AcDbPolyline
 62
250
  6
CONTINUOUS
 90
5
 70
0
 10
-14.6554107714
 20
-16.5728131672
 10
-14.6662147297
 20
-16.485158181
 10
-14.6775230768
 20
-16.3979249765
 10
-14.689209809
 20
-16.3110849552
 10
-14.7012412983
 20
-16.2246311178
  0
LWPOLYLINE
  5
329
100
AcDbEntity
  8
0
100
AcDbPolyline
 62
250
  6
CONTINUOUS
 90
10
 70
0
 10
-7.2266902057
 20
-32.8627762148
 10
-7.2324083571
 20
-32.7942386974
 10
-7.2325606669
 20
-32.7225063489
 10
-7.2272224707
 20
-32.647649873
 10
-7.2163816742
 20
-32.5701210876
 10
-7.2000841209
 20
-32.4907227668
 10
-7.1785400602
 20
-32.4104116235
 10
-7.1519834286
 20
-32.3298987577
 10
-7.1205752507
 20
-32.2495761797
 10
-7.0844957755
 20
-32.1699187449
  0
LWPOLYLINE
  5
32A
100
AcDbEntity
  8
RACCORDO
100
AcDbPolyline
 62
250
  6
CONTINUOUS
 90
6
 70
0
 10
-9.9202207055
 20
15.4121139267
 10
-9.91804536
 20
15.3173542328
 10
-9.9079599382
 20
15.2259180851
 10
-9.8909448529
 20
15.1386271225
 10
-9.8679017272
 20
15.0554221101
 10
-9.8421647475
 20
14.9832958645
  0
LWPOLYLINE
  5
32B
100
AcDbEntity
  8
0
100
AcDbPolyline
 62
250
  6
CONTINUOUS
 90
10
 70
0
 10
-12.5382978066
 20
-16.8530280206
 10
-12.5370414499
 20
-17.5576058295
 10
-12.5325955512
 20
-18.2597820758
 10
-12.524971742
 20
-18.9595461097
 10
-12.5141868059
 20
-19.6566007783
 10
-12.5002500063
 20
-20.3512236919
 10
-12.4831500456
 20
-21.0442606415
 10
-12.4628780599
 20
-21.7359802026
 10
-12.4394406588
 20
-22.4260803167
 10
-12.4128381287
 20
-23.1145449534
  0
LINE
  5
32C
100
AcDbEntity
  8
0
100
AcDbLine
 62
250
  6
CONTINUOUS
 10
-12.5382978066
 20
-16.8530280206
 11
-12.5382978068
 21
11.3965343005
  0
LINE
  5
32D
100
AcDbEntity
  8
0
100
AcDbLine
 62
7
  6
CONTINUOUS
 10
-10.4618295153
 20
17.7913126867
 11
-10.4618295153
 21
17.8461540465
  0
LINE
  5
32E
100
AcDbEntity
  8
0
100
AcDbLine
 62
7
  6
CONTINUOUS
 10
-9.7205419476
 20
3.0146771378
 11
-9.7205486912
 21
-0.2513548269
  0
LINE
  5
32F
100
AcDbEntity
  8
0
100
AcDbLine
 62
7
  6
CONTINUOUS
 10
-9.1787592747
 20
2.6742318172
 11
-9.1787660751
 21
-0.5917920155
  0
LINE
  5
330
100
AcDbEntity
  8
0
100
AcDbLine
 62
7
  6
CONTINUOUS
 10
-9.1539924033
 20
2.6885318984
 11
-9.1539992035
 21
-0.5774919343
  0
LINE
  5
331
100
AcDbEntity
  8
0
100
AcDbLine
 62
7
  6
CONTINUOUS
 10
-8.6324629113
 20
2.3364171415
 11
-8.6324629112
 21
-0.9296109304
  0
LINE
  5
332
100
AcDbEntity
  8
DRAFT
100
AcDbLine
 62
7
  6
CONTINUOUS
 10
-9.9262895121
 20
15.1282637943
 11
-9.9202207064
 21
15.4121139
  0
LWPOLYLINE
  5
333
100
AcDbEntity
  8
RACCORDO
100
AcDbPolyline
 62
250
  6
CONTINUOUS
 90
17
 70
0
 10
-8.964163575
 20
15.1414711557
 10
-8.961551778
 20
15.2040485177
 10
-8.9512653655
 20
15.2803752436
 10
-8.933520846
 20
15.3551461046
 10
-8.908862355
 20
15.4277279975
 10
-8.8778057226
 20
15.4979361015
 10
-8.8408701542
 20
15.5656129015
 10
-8.7988468844
 20
15.630240986
 10
-8.752358212
 20
15.6917376552
 10
-8.7019965877
 20
15.7500660075
 10
-8.6486867629
 20
15.8048690121
 10
-8.5930606139
 20
15.8561840035
 10
-8.535716063
 20
15.9040700728
 10
-8.4776413546
 20
15.9482957424
 10
-8.4195735215
 20
15.988889685
 10
-8.3619143605
 20
16.0261028757
 10
-8.3051538326
 20
16.0600889907
  0
LINE
  5
334
100
AcDbEntity
  8
RACCORDO
100
AcDbLine
 62
7
  6
CONTINUOUS
 10
-9.9124155367
 20
15.5256905738
 11
-9.9202207062
 21
15.4121138985
  0
LWPOLYLINE
  5
335
100
AcDbEntity
  8
0
100
AcDbPolyline
 62
7
  6
CONTINUOUS
 90
3
 70
0
 10
1.1679374968
 20
14.7436658148
 10
1.1320043032
 20
14.7006108368
 10
1.124220422
 20
14.6812167201
  0
LWPOLYLINE
  5
336
100
AcDbEntity
  8
0
100
AcDbPolyline
 62
7
  6
CONTINUOUS
 90
4
 70
0
 10
2.7600234713
 20
14.4218598573
 10
2.8035875213
 20
14.4617268513
 10
2.8282890004
 20
14.5007186822
 10
2.8342135356
 20
14.5348958313
  0
LWPOLYLINE
  5
337
100
AcDbEntity
  8
0
100
AcDbPolyline
 62
7
  6
CONTINUOUS
 90
4
 70
0
 10
2.2858634895
 20
14.6065100589
 10
2.2401615761
 20
14.5681528594
 10
2.2097667015
 20
14.5244732469
 10
2.2012251345
 20
14.4913821201
  0
LWPOLYLINE
  5
338
100
AcDbEntity
  8
0
100
AcDbPolyline
 62
7
  6
CONTINUOUS
 90
4
 70
0
 10
-1.5876394114
 20
10.7934808826
 10
-1.6888997624
 20
10.7309412468
 10
-1.7821718858
 20
10.665319769
 10
-1.8068416153
 20
10.645446236
  0
LWPOLYLINE
  5
339
100
AcDbEntity
  8
0
100
AcDbPolyline
 62
7
  6
CONTINUOUS
 90
12
 70
0
 10
1.2582241955
 20
15.0333329643
 10
1.3588800923
 20
15.0942918083
 10
1.4644907519
 20
15.1418340494
 10
1.5750561744
 20
15.1759596878
 10
1.6964223095
 20
15.1985826805
 10
1.8227432075
 20
15.2077890704
 10
1.936481019
 20
15.197836986
 10
2.0381990058
 20
15.162395877
 10
2.1273339062
 20
15.1077962937
 10
2.1846580856
 20
15.047288015
 10
2.2007555963
 20
14.9823890881
 10
2.2084134825
 20
14.965614973
  0
LWPOLYLINE
  5
33A
100
AcDbEntity
  8
0
100
AcDbPolyline
 62
7
  6
CONTINUOUS
 90
12
 70
0
 10
3.9374918116
 20
13.4863574218
 10
4.0381477084
 20
13.5473162658
 10
4.1437583681
 20
13.594858507
 10
4.2543237906
 20
13.6289841453
 10
4.3756899257
 20
13.651607138
 10
4.5020108237
 20
13.660813528
 10
4.6157486352
 20
13.6508614435
 10
4.717466622
 20
13.6154203346
 10
4.8066015224
 20
13.5608207513
 10
4.8639257018
 20
13.5003124726
 10
4.8800232124
 20
13.4354135457
 10
4.8876810987
 20
13.4186394305
  0
LWPOLYLINE
  5
33B
100
AcDbEntity
  8
0
100
AcDbPolyline
 62
7
  6
CONTINUOUS
 90
12
 70
0
 10
1.9033046347
 20
14.6649160328
 10
1.8085693431
 20
14.607729993
 10
1.7087421458
 20
14.5621960276
 10
1.6038230429
 20
14.5283141368
 10
1.4894578798
 20
14.5035962378
 10
1.3700008111
 20
14.4905304132
 10
1.2585143001
 20
14.496580911
 10
1.150822595
 20
14.5279431584
 10
1.0511014477
 20
14.5784217282
 10
0.9849405772
 20
14.6368945868
 10
0.964043831
 20
14.7033593814
 10
0.9568702882
 20
14.722806069
  0
LWPOLYLINE
  5
33C
100
AcDbEntity
  8
0
100
AcDbPolyline
 62
7
  6
CONTINUOUS
 90
12
 70
0
 10
1.9033046347
 20
14.5995984106
 10
1.8085254549
 20
14.5423977097
 10
1.7086702181
 20
14.4968552431
 10
1.6037389245
 20
14.4629710108
 10
1.4893838185
 20
14.4382603962
 10
1.3699526557
 20
14.4252080158
 10
1.2584887023
 20
14.4312677198
 10
1.1508111255
 20
14.4626311156
 10
1.0511007581
 20
14.5131065956
 10
0.9849433646
 20
14.5715731871
 10
0.9640363772
 20
14.6380249658
 10
0.9568702194
 20
14.6574854727
  0
LWPOLYLINE
  5
33D
100
AcDbEntity
  8
0
100
AcDbPolyline
 62
7
  6
CONTINUOUS
 90
12
 70
0
 10
4.5825722509
 20
13.1179404903
 10
4.4878369593
 20
13.0607544505
 10
4.388009762
 20
13.0152204852
 10
4.283090659
 20
12.9813385943
 10
4.168725496
 20
12.9566206953
 10
4.0492684272
 20
12.9435548707
 10
3.9377819163
 20
12.9496053686
 10
3.8300902112
 20
12.9809676159
 10
3.7303690639
 20
13.0314461857
 10
3.6642081934
 20
13.0899190443
 10
3.6433114472
 20
13.156383839
 10
3.6361379044
 20
13.1758305265
  0
LWPOLYLINE
  5
33E
100
AcDbEntity
  8
0
100
AcDbPolyline
 62
7
  6
CONTINUOUS
 90
12
 70
0
 10
4.5825722509
 20
13.0526228682
 10
4.487793071
 20
12.9954221672
 10
4.3879378343
 20
12.9498797006
 10
4.2830065406
 20
12.9159954683
 10
4.1686514347
 20
12.8912848537
 10
4.0492202719
 20
12.8782324734
 10
3.9377563184
 20
12.8842921773
 10
3.8300787417
 20
12.9156555731
 10
3.7303683743
 20
12.9661310531
 10
3.6642109808
 20
13.0245976447
 10
3.6433039934
 20
13.0910494233
 10
3.6361378356
 20
13.1105099302
  0
LINE
  5
33F
100
AcDbEntity
  8
0
100
AcDbLine
 62
250
  6
CONTINUOUS
 10
4.5331537472
 20
14.4090196765
 11
4.5366377688
 21
14.4110493246
  0
LINE
  5
340
100
AcDbEntity
  8
0
100
AcDbLine
 62
7
  6
CONTINUOUS
 10
1.1106078044
 20
15.0912087614
 11
1.2482885544
 21
15.1707039009
  0
LINE
  5
341
100
AcDbEntity
  8
0
100
AcDbLine
 62
7
  6
CONTINUOUS
 10
1.1106078044
 20
15.0258911392
 11
1.2482885544
 21
15.1053862788
  0
LINE
  5
342
100
AcDbEntity
  8
0
100
AcDbLine
 62
7
  6
CONTINUOUS
 10
1.6916206123
 20
14.358263675
 11
1.5759683485
 21
14.2914875074
  0
LINE
  5
343
100
AcDbEntity
  8
0
100
AcDbLine
 62
7
  6
CONTINUOUS
 10
3.2859639703
 20
14.428219077
 11
3.1703124136
 21
14.3614433176
  0
LINE
  5
344
100
AcDbEntity
  8
0
100
AcDbLine
 62
7
  6
CONTINUOUS
 10
-12.2730193098
 20
4.7271326182
 11
-12.2978585207
 21
4.7127907691
  0
LINE
  5
345
100
AcDbEntity
  8
0
100
AcDbLine
 62
7
  6
CONTINUOUS
 10
-11.7534441956
 20
4.3738567661
 11
-11.778267156
 21
4.3595242998
  0
LINE
  5
346
100
AcDbEntity
  8
0
100
AcDbLine
 62
7
  6
CONTINUOUS
 10
5.38008828
 20
13.2190979461
 11
4.390163535
 21
12.6475278051
  0
LINE
  5
347
100
AcDbEntity
  8
0
100
AcDbLine
 62
7
  6
CONTINUOUS
 10
4.7298913542
 20
12.7037707697
 11
5.5012474914
 21
13.1491421359
  0
LINE
  5
348
100
AcDbEntity
  8
0
100
AcDbLine
 62
7
  6
CONTINUOUS
 10
4.8319857451
 20
12.6974011693
 11
5.5012474914
 21
13.0838245138
  0
LINE
  5
349
100
AcDbEntity
  8
0
100
AcDbLine
 62
7
  6
CONTINUOUS
 10
-10.5886356545
 20
3.6022292312
 11
-10.6134284513
 21
3.5879141811
  0
LINE
  5
34A
100
AcDbEntity
  8
0
100
AcDbLine
 62
250
  6
CONTINUOUS
 10
-4.5264521507
 20
9.1781167746
 11
-4.5303744997
 21
9.1758749025
  0
LWPOLYLINE
  5
34B
100
AcDbEntity
  8
RACCORDO
100
AcDbPolyline
 62
250
  6
CONTINUOUS
 90
58
 70
0
 10
-1.941192802
 20
12.7938527882
 10
-1.8685665021
 20
12.8351827846
 10
-1.7884451593
 20
12.8763232417
 10
-1.7008287735
 20
12.9172741594
 10
-1.6056617073
 20
12.9585520442
 10
-1.5029995981
 20
12.9996403897
 10
-1.3930093584
 20
13.0389896767
 10
-1.2754707165
 20
13.076585927
 10
-1.1506039441
 20
13.1124431187
 10
-1.0192367687
 20
13.145053668
 10
-0.8811040906
 20
13.1743587172
 10
-0.7364710094
 20
13.2004171239
 10
-0.5869605518
 20
13.2218978768
 10
-0.4323473546
 20
13.2386808235
 10
-0.2728567808
 20
13.2508861163
 10
-0.1107879466
 20
13.2575432009
 10
0.0540654935
 20
13.2584735607
 10
0.2214971942
 20
13.2538557122
 10
0.3885890029
 20
13.2432546509
 10
0.5553779545
 20
13.226448195
 10
0.7218270142
 20
13.2036585261
 10
0.8849069256
 20
13.1751171851
 10
1.0442833095
 20
13.1407094151
 10
1.2002905451
 20
13.100549973
 10
1.3509025139
 20
13.0552146701
 10
1.4958925469
 20
13.004689538
 10
1.635487313
 20
12.9489885451
 10
1.768340701
 20
12.8887294085
 10
1.8944011843
 20
12.8238886833
 10
2.0137202893
 20
12.7544898143
 10
2.1251064844
 20
12.6812208534
 10
2.2285222031
 20
12.6040471273
 10
2.3240050119
 20
12.5230033092
 10
2.4104760779
 20
12.4388814713
 10
2.4879058838
 20
12.3515420866
 10
2.556323947
 20
12.261124682
 10
2.6147399863
 20
12.1688399108
 10
2.6629378188
 20
12.0744974307
 10
2.7011336274
 20
11.978287584
 10
2.7289856794
 20
11.8819920517
 10
2.7461037054
 20
11.7856497164
 10
2.7528779749
 20
11.6892216955
 10
2.750137564
 20
11.5943730229
 10
2.7375819698
 20
11.5012259132
 10
2.7155116952
 20
11.4096581517
 10
2.6856573248
 20
11.3209681284
 10
2.6478173738
 20
11.2352848419
 10
2.6021933272
 20
11.1524792936
 10
2.5511202241
 20
11.073462877
 10
2.4945043556
 20
10.998389714
 10
2.4324394307
 20
10.9271056827
 10
2.3675416166
 20
10.8600598114
 10
2.2997941502
 20
10.7973773866
 10
2.2292137945
 20
10.7389331219
 10
2.1584670054
 20
10.6848001864
 10
2.0884426018
 20
10.6350029698
 10
2.0182517648
 20
10.5895170825
 10
1.9478944946
 20
10.5483425244
  0
LWPOLYLINE
  5
34C
100
AcDbEntity
  8
0
100
AcDbPolyline
 62
7
  6
CONTINUOUS
 90
8
 70
0
 10
1.7797361566
 20
14.7366604051
 10
1.8442462315
 20
14.7729055213
 10
1.9009723324
 20
14.8103991548
 10
1.9499144593
 20
14.8491413057
 10
1.994758909
 20
14.8899253958
 10
2.0318193847
 20
14.9319580032
 10
2.0500369967
 20
14.9728588625
 10
2.0507573473
 20
14.9855924133
  0
LWPOLYLINE
  5
34D
100
AcDbEntity
  8
0
100
AcDbPolyline
 62
7
  6
CONTINUOUS
 90
8
 70
0
 10
4.4590037728
 20
13.1896848627
 10
4.5235138476
 20
13.2259299788
 10
4.5802399485
 20
13.2634236123
 10
4.6291820755
 20
13.3021657632
 10
4.6740265251
 20
13.3429498533
 10
4.7110870009
 20
13.3849824608
 10
4.7293046129
 20
13.42588332
 10
4.7300249635
 20
13.4386168709
  0
LWPOLYLINE
  5
34E
100
AcDbEntity
  8
RACCORDO
100
AcDbPolyline
 62
250
  6
CONTINUOUS
 90
43
 70
0
 10
-1.5876394114
 20
12.1814803531
 10
-1.5277074827
 20
12.2148272732
 10
-1.4621538043
 20
12.2486230914
 10
-1.3907159418
 20
12.2825813877
 10
-1.3129620092
 20
12.31646737
 10
-1.2288509097
 20
12.3498515613
 10
-1.1387989892
 20
12.382159621
 10
-1.0427144694
 20
12.4130449252
 10
-0.9405430103
 20
12.4421422334
 10
-0.8329208495
 20
12.4689183339
 10
-0.719926611
 20
12.4930325157
 10
-0.6017143054
 20
12.5141287229
 10
-0.479192333
 20
12.5317563192
 10
-0.3526415106
 20
12.5456206756
 10
-0.222397599
 20
12.5554288842
 10
-0.0895791377
 20
12.5608757776
 10
0.0454214719
 20
12.5617572014
 10
0.1820717687
 20
12.5578795162
 10
0.3189758784
 20
12.5491388443
 10
0.4556158322
 20
12.5354690801
 10
0.5914294342
 20
12.5168257511
 10
0.7249778975
 20
12.4933555974
 10
0.8555414849
 20
12.465197731
 10
0.9828338783
 20
12.4324267848
 10
1.1061416618
 20
12.3952417335
 10
1.2248949874
 20
12.3538544197
 10
1.3387967525
 20
12.3084097078
 10
1.4475756328
 20
12.2590382637
 10
1.5508262392
 20
12.2059361607
 10
1.648173548
 20
12.1493089844
 10
1.7393820221
 20
12.089292542
 10
1.8240998289
 20
12.0261008623
 10
1.9019834533
 20
11.9599713243
 10
1.9727965531
 20
11.8910705916
 10
2.0362950014
 20
11.8195664656
 10
2.0921109713
 20
11.74579498
 10
2.139889996
 20
11.6701971862
 10
2.1795134323
 20
11.5929425653
 10
2.2107564733
 20
11.5144474032
 10
2.2333801353
 20
11.4355673713
 10
2.2474814121
 20
11.3566377856
 10
2.2531991936
 20
11.2779456422
 10
2.2533508463
 20
11.2628625177
  0
LWPOLYLINE
  5
34F
100
AcDbEntity
  8
0
100
AcDbPolyline
 62
7
  6
CONTINUOUS
 90
8
 70
0
 10
1.3866190394
 20
14.9643917372
 10
1.3199904359
 20
14.9278706203
 10
1.2619257888
 20
14.8899521526
 10
1.2124250981
 20
14.8506363341
 10
1.1679284649
 20
14.8089711693
 10
1.131995788
 20
14.7659086537
 10
1.1153067644
 20
14.7243047736
 10
1.1150261638
 20
14.7161382761
  0
LWPOLYLINE
  5
350
100
AcDbEntity
  8
0
100
AcDbPolyline
 62
7
  6
CONTINUOUS
 90
5
 70
0
 10
1.3866190394
 20
14.8990741151
 10
1.3199946556
 20
14.8625536035
 10
1.261932673
 20
14.8246371982
 10
1.2124330916
 20
14.7853248992
 10
1.1679374968
 20
14.7436658148
  0
LWPOLYLINE
  5
351
100
AcDbEntity
  8
0
100
AcDbPolyline
 62
7
  6
CONTINUOUS
 90
8
 70
0
 10
4.0658866555
 20
13.4174161947
 10
3.999258052
 20
13.3808950778
 10
3.9411934049
 20
13.3429766101
 10
3.8916927143
 20
13.3036607916
 10
3.847196081
 20
13.2619956268
 10
3.8112634042
 20
13.2189331112
 10
3.7945743805
 20
13.1773292312
 10
3.7942937799
 20
13.1691627337
  0
LWPOLYLINE
  5
352
100
AcDbEntity
  8
0
100
AcDbPolyline
 62
7
  6
CONTINUOUS
 90
5
 70
0
 10
4.0658866555
 20
13.3520985726
 10
3.9992622718
 20
13.315578061
 10
3.9412002892
 20
13.2776616557
 10
3.8917007078
 20
13.2383493567
 10
3.847205113
 20
13.1966902724
  0
LINE
  5
353
100
AcDbEntity
  8
0
100
AcDbLine
 62
7
  6
CONTINUOUS
 10
-1.4793245634
 20
10.8519473402
 11
-1.5876394114
 21
10.7934808826
  0
LWPOLYLINE
  5
354
100
AcDbEntity
  8
0
100
AcDbPolyline
 62
7
  6
CONTINUOUS
 90
3
 70
0
 10
2.348868414
 20
14.5747015951
 10
2.2855466273
 20
14.5409793935
 10
2.2399366928
 20
14.5025698895
  0
LINE
  5
355
100
AcDbEntity
  8
0
100
AcDbLine
 62
7
  6
CONTINUOUS
 10
2.3492612558
 20
14.6401785349
 11
2.2858634895
 21
14.6065100589
  0
LINE
  5
356
100
AcDbEntity
  8
0
100
AcDbLine
 62
7
  6
CONTINUOUS
 10
2.0647354049
 20
14.0092795347
 11
2.6663998371
 21
14.2469704705
  0
LINE
  5
357
100
AcDbEntity
  8
0
100
AcDbLine
 62
7
  6
CONTINUOUS
 10
2.0647354049
 20
13.9439619126
 11
2.6663998371
 21
14.1816528484
  0
LINE
  5
358
100
AcDbEntity
  8
0
100
AcDbLine
 62
7
  6
CONTINUOUS
 10
2.4023113165
 20
14.2549695047
 11
2.0838386017
 21
14.1318019236
  0
LWPOLYLINE
  5
359
100
AcDbEntity
  8
0
100
AcDbPolyline
 62
7
  6
CONTINUOUS
 90
11
 70
0
 10
3.2102393998
 20
13.6579113366
 10
3.1107027799
 20
13.6197266975
 10
3.0120689896
 20
13.5973653027
 10
2.9143380288
 20
13.5908271521
 10
2.8132234022
 20
13.6021471258
 10
2.7130116051
 20
13.6292903437
 10
2.6265621235
 20
13.6661521662
 10
2.5531690474
 20
13.7134346448
 10
2.4935382868
 20
13.7704357279
 10
2.4626470576
 20
13.8289446214
 10
2.4588632135
 20
13.8588578484
  0
LWPOLYLINE
  5
35A
100
AcDbEntity
  8
0
100
AcDbPolyline
 62
7
  6
CONTINUOUS
 90
11
 70
0
 10
3.2102393998
 20
13.5925937145
 10
3.1107084586
 20
13.5544108315
 10
3.0120800902
 20
13.5320494104
 10
2.9143542944
 20
13.5255094511
 10
2.8132458299
 20
13.536825178
 10
2.7130399382
 20
13.5639623667
 10
2.6265923432
 20
13.6008183445
 10
2.5531972878
 20
13.6480963675
 10
2.4935605292
 20
13.7050931795
 10
2.4626550627
 20
13.7635963394
 10
2.4588632017
 20
13.7935389142
  0
LWPOLYLINE
  5
35B
100
AcDbEntity
  8
0
100
AcDbPolyline
 62
7
  6
CONTINUOUS
 90
16
 70
0
 10
3.9385704972
 20
13.9860946253
 10
3.8636872833
 20
13.9575156853
 10
3.7832875154
 20
13.9358444468
 10
3.6973711934
 20
13.92108091
 10
3.6040392108
 20
13.9149694187
 10
3.5051906743
 20
13.915765629
 10
3.4065229034
 20
13.9182365091
 10
3.3092993333
 20
13.9219803304
 10
3.2122565289
 20
13.9273988215
 10
3.1173015051
 20
13.9304641367
 10
3.0229778145
 20
13.9316248894
 10
2.9307419045
 20
13.9304324662
 10
2.8468701326
 20
13.9215131805
 10
2.7687739833
 20
13.9026432787
 10
2.6990419721
 20
13.8760465144
 10
2.6517160031
 20
13.8430204624
  0
LWPOLYLINE
  5
35C
100
AcDbEntity
  8
0
100
AcDbPolyline
 62
7
  6
CONTINUOUS
 90
18
 70
0
 10
3.9385704972
 20
14.0514122474
 10
3.8636453262
 20
14.0228289401
 10
3.7832182238
 20
14.0011551719
 10
3.69728919
 20
13.9863909428
 10
3.6039598834
 20
13.9802817159
 10
3.5051286454
 20
13.9810820282
 10
3.4064904997
 20
13.9835554904
 10
3.3093100085
 20
13.9872966724
 10
3.2123226096
 20
13.9927110044
 10
3.1174296406
 20
13.995778388
 10
3.0231864764
 20
13.9969453179
 10
2.9310377421
 20
13.9957652994
 10
2.8472186514
 20
13.9868787506
 10
2.7691365416
 20
13.9680778326
 10
2.6993840755
 20
13.9415703844
 10
2.6519744548
 20
13.908620341
 10
2.6318405947
 20
13.865646451
 10
2.6228627691
 20
13.841829292
  0
LWPOLYLINE
  5
35D
100
AcDbEntity
  8
RACCORDO
100
AcDbPolyline
 62
250
  6
CONTINUOUS
 90
21
 70
0
 10
-1.184146714
 20
10.3526293138
 10
-1.1580913614
 20
10.3614841147
 10
-1.0133954831
 20
10.4057336191
 10
-0.8648593213
 20
10.4464053772
 10
-0.7139186109
 20
10.48310361
 10
-0.5605339353
 20
10.5157971623
 10
-0.4047447112
 20
10.5445171893
 10
-0.2481049238
 20
10.5689613773
 10
-0.0906192464
 20
10.5890900896
 10
0.0677169943
 20
10.6049429629
 10
0.2253638337
 20
10.6163365934
 10
0.3823272956
 20
10.6232342097
 10
0.538601356
 20
10.6256725832
 10
0.6926279791
 20
10.6235786242
 10
0.844438166
 20
10.6169035998
 10
0.9940009155
 20
10.605696243
 10
1.139665188
 20
10.590029663
 10
1.2814769155
 20
10.5698152169
 10
1.4193901661
 20
10.5451415476
 10
1.5516161043
 20
10.5163476933
 10
1.5781978258
 20
10.5094246228
  0
LINE
  5
35E
100
AcDbEntity
  8
0
100
AcDbLine
 62
7
  6
CONTINUOUS
 10
4.2802770199
 20
13.8731938555
 11
2.9751063943
 21
13.4502548554
  0
LINE
  5
35F
100
AcDbEntity
  8
0
100
AcDbLine
 62
7
  6
CONTINUOUS
 10
3.0725584366
 20
13.3939872675
 11
4.3777721958
 21
13.8169013629
  0
LINE
  5
360
100
AcDbEntity
  8
0
100
AcDbLine
 62
7
  6
CONTINUOUS
 10
3.0725584366
 20
13.3286696453
 11
4.3777721958
 21
13.7515837407
  0
LINE
  5
361
100
AcDbEntity
  8
0
100
AcDbLine
 62
7
  6
CONTINUOUS
 10
-7.1465451893
 20
-10.1811727732
 11
-6.8443704988
 21
-10.2658614318
  0
LWPOLYLINE
  5
362
100
AcDbEntity
  8
0
100
AcDbPolyline
 62
7
  6
CONTINUOUS
 90
4
 70
0
 10
-6.8443704988
 20
-10.2658614318
 10
-6.5412569719
 20
-10.410465425
 10
-6.2372806274
 20
-10.6203221895
 10
-5.9323867876
 20
-10.8900937155
  0
LWPOLYLINE
  5
363
100
AcDbEntity
  8
0
100
AcDbPolyline
 62
7
  6
CONTINUOUS
 90
3
 70
0
 10
-6.0850386312
 20
-11.3503800484
 10
-6.3236069945
 20
-11.2139670539
 10
-6.3712255081
 20
-11.1866290143
  0
LINE
  5
364
100
AcDbEntity
  8
0
100
AcDbLine
 62
7
  6
CONTINUOUS
 10
-6.0850386312
 20
-10.962706081
 11
-6.3949269075
 21
-10.7853342616
  0
LINE
  5
365
100
AcDbEntity
  8
0
100
AcDbLine
 62
7
  6
CONTINUOUS
 10
-6.0355400969
 20
-10.9341262476
 11
-6.345429315
 21
-10.756754972
  0
LINE
  5
366
100
AcDbEntity
  8
0
100
AcDbLine
 62
7
  6
CONTINUOUS
 10
-6.3949269075
 20
-10.7853342616
 11
-6.7034697998
 21
-10.6071856336
  0
LINE
  5
367
100
AcDbEntity
  8
0
100
AcDbLine
 62
7
  6
CONTINUOUS
 10
-6.345429315
 20
-10.756754972
 11
-6.6539722074
 21
-10.5786063441
  0
LWPOLYLINE
  5
368
100
AcDbEntity
  8
0
100
AcDbPolyline
 62
7
  6
CONTINUOUS
 90
3
 70
0
 10
-6.7269452273
 20
-10.9812414384
 10
-6.9634603758
 20
-10.8435312003
 10
-7.0106673081
 20
-10.8159341645
  0
LINE
  5
369
100
AcDbEntity
  8
0
100
AcDbLine
 62
7
  6
CONTINUOUS
 10
-6.7034697998
 20
-10.6071856336
 11
-7.0106673081
 21
-10.4282601971
  0
LINE
  5
36A
100
AcDbEntity
  8
0
100
AcDbLine
 62
7
  6
CONTINUOUS
 10
-6.6539722074
 20
-10.5786063441
 11
-6.9611687741
 21
-10.3996803639
  0
LWPOLYLINE
  5
36B
100
AcDbEntity
  8
0
100
AcDbPolyline
 62
7
  6
CONTINUOUS
 90
8
 70
0
 10
-5.9323867876
 20
-10.8900937155
 10
-5.6531527368
 20
-11.1964779518
 10
-5.4022588351
 20
-11.5436339947
 10
-5.1776325812
 20
-11.9277539278
 10
-4.9991785247
 20
-12.3138579343
 10
-4.8737937308
 20
-12.6904435679
 10
-4.7951751686
 20
-13.0693692825
 10
-4.7634686555
 20
-13.4507232398
  0
LWPOLYLINE
  5
36C
100
AcDbEntity
  8
0
100
AcDbPolyline
 62
7
  6
CONTINUOUS
 90
7
 70
0
 10
-5.1545566782
 20
-15.9374291492
 10
-5.2425060899
 20
-15.796084045
 10
-5.3354291062
 20
-15.6586202853
 10
-5.4333065854
 20
-15.5250266003
 10
-5.5361182934
 20
-15.3952911294
 10
-5.643842897
 20
-15.269401426
 10
-5.7564579565
 20
-15.1473444615
  0
LWPOLYLINE
  5
36D
100
AcDbEntity
  8
0
100
AcDbPolyline
 62
7
  6
CONTINUOUS
 90
5
 70
0
 10
-5.1050497625
 20
-15.9088444765
 10
-5.1930003198
 20
-15.7675000297
 10
-5.2859244663
 20
-15.6300369205
 10
-5.3838030469
 20
-15.496443871
 10
-5.4866158137
 20
-15.3667090124
  0
LINE
  5
36E
100
AcDbEntity
  8
0
100
AcDbLine
 62
7
  6
CONTINUOUS
 10
-5.2597623009
 20
-12.1135404666
 11
-5.4257840242
 21
-11.7940423676
  0
LINE
  5
36F
100
AcDbEntity
  8
0
100
AcDbLine
 62
7
  6
CONTINUOUS
 10
-5.2102567404
 20
-12.0849565726
 11
-5.3762804008
 21
-11.7654595959
  0
LINE
  5
370
100
AcDbEntity
  8
0
100
AcDbLine
 62
7
  6
CONTINUOUS
 10
-5.1296370068
 20
-12.4253577196
 11
-5.2597623009
 21
-12.1135404666
  0
LINE
  5
371
100
AcDbEntity
  8
0
100
AcDbLine
 62
7
  6
CONTINUOUS
 10
-5.0801297528
 20
-12.3967728403
 11
-5.2102567404
 21
-12.0849565726
  0
LWPOLYLINE
  5
372
100
AcDbEntity
  8
0
100
AcDbPolyline
 62
7
  6
CONTINUOUS
 90
9
 70
0
 10
-5.4699254621
 20
-12.2851180847
 10
-5.3644693398
 20
-12.5920017691
 10
-5.2994616409
 20
-12.8770274828
 10
-5.2750087146
 20
-13.1402586651
 10
-5.2929469905
 20
-13.3886377581
 10
-5.3514508393
 20
-13.6152287731
 10
-5.4450463843
 20
-13.7992256332
 10
-5.5718108005
 20
-13.933634651
 10
-5.6527548933
 20
-13.9873366755
  0
LWPOLYLINE
  5
373
100
AcDbEntity
  8
0
100
AcDbPolyline
 62
250
  6
CONTINUOUS
 90
10
 70
0
 10
-7.2266909303
 20
-32.8627767918
 10
-7.1312284456
 20
-33.522448927
 10
-7.0151738452
 20
-34.157700187
 10
-6.8755325291
 20
-34.7855577967
 10
-6.7048751622
 20
-35.4266533606
 10
-6.5023502047
 20
-36.0695281145
 10
-6.2797749348
 20
-36.674338847
 10
-6.0418584547
 20
-37.2358899663
 10
-5.7799165013
 20
-37.7779386939
 10
-5.4854659055
 20
-38.3128037881
  0
LWPOLYLINE
  5
374
100
AcDbEntity
  8
0
100
AcDbPolyline
 62
7
  6
CONTINUOUS
 90
4
 70
0
 10
-4.9557900244
 20
-13.3286838439
 10
-4.9775410356
 20
-13.0328634287
 10
-5.0355974819
 20
-12.7296071297
 10
-5.1296370068
 20
-12.4253577196
  0
LWPOLYLINE
  5
375
100
AcDbEntity
  8
0
100
AcDbPolyline
 62
7
  6
CONTINUOUS
 90
4
 70
0
 10
-4.906280263
 20
-13.3000975256
 10
-4.9280316059
 20
-13.0042772901
 10
-4.9860889086
 20
-12.7010214824
 10
-5.0801297528
 20
-12.3967728403
  0
LWPOLYLINE
  5
376
100
AcDbEntity
  8
RACCORDO
100
AcDbPolyline
 62
7
  6
CONTINUOUS
 90
40
 70
0
 10
-8.964163575
 20
15.1414711557
 10
-8.960552633
 20
15.0865451863
 10
-8.9496414811
 20
15.0310357781
 10
-8.9313156093
 20
14.9747338474
 10
-8.9056752932
 20
14.9180157044
 10
-8.8727831501
 20
14.8610040738
 10
-8.8323389916
 20
14.8034144723
 10
-8.7844815964
 20
14.7457695808
 10
-8.729556577
 20
14.6886777628
 10
-8.6670986225
 20
14.631903609
 10
-8.5971119914
 20
14.5757962408
 10
-8.5200181899
 20
14.5209699561
 10
-8.4355046041
 20
14.4674708119
 10
-8.3435624751
 20
14.415607811
 10
-8.2446729796
 20
14.3659283539
 10
-8.1390666722
 20
14.3187784599
 10
-8.0270046137
 20
14.2744922323
 10
-7.9089568923
 20
14.2334503017
 10
-7.7854542687
 20
14.1959996205
 10
-7.6569287053
 20
14.1624128771
 10
-7.523921591
 20
14.132958706
 10
-7.3871551033
 20
14.1078981288
 10
-7.2472117725
 20
14.0874161994
 10
-7.1046660758
 20
14.0716649929
 10
-6.9602514221
 20
14.0607780369
 10
-6.8145700268
 20
14.0548386347
 10
-6.6682718985
 20
14.0539026681
 10
-6.5221726481
 20
14.0579862128
 10
-6.3769038482
 20
14.0670652459
 10
-6.2331042828
 20
14.0810850214
 10
-6.0915966141
 20
14.0999309209
 10
-5.9530015589
 20
14.1234650975
 10
-5.8178943251
 20
14.1515245713
 10
-5.6870103833
 20
14.1838711418
 10
-5.5608964897
 20
14.2202608545
 10
-5.4400426958
 20
14.2604293471
 10
-5.3250714
 20
14.3040209885
 10
-5.2164660768
 20
14.3506690257
 10
-5.1145475618
 20
14.4000291412
 10
-5.0196320068
 20
14.4517217508
  0
LWPOLYLINE
  5
377
100
AcDbEntity
  8
0
100
AcDbPolyline
 62
250
  6
CONTINUOUS
 90
10
 70
0
 10
-6.2479021032
 20
-29.8551026279
 10
-6.2463467848
 20
-29.9017155324
 10
-6.2472282251
 20
-29.9497031134
 10
-6.2504987912
 20
-29.998879852
 10
-6.2560998484
 20
-30.0490781079
 10
-6.2639964373
 20
-30.1000977464
 10
-6.274180613
 20
-30.1517196476
 10
-6.2866276143
 20
-30.2037755876
 10
-6.301292349
 20
-30.2561343789
 10
-6.3181407432
 20
-30.3086487004
  0
LINE
  5
378
100
AcDbEntity
  8
0
100
AcDbLine
 62
7
  6
CONTINUOUS
 10
-8.0816156145
 20
0.8889036688
 11
-8.0816156145
 21
-1.2648224508
  0
LINE
  5
379
100
AcDbEntity
  8
0
100
AcDbLine
 62
7
  6
CONTINUOUS
 10
-8.0568607418
 20
0.7720900036
 11
-8.0568607418
 21
-1.2505292975
  0
LINE
  5
37A
100
AcDbEntity
  8
0
100
AcDbLine
 62
7
  6
CONTINUOUS
 10
-7.0214994446
 20
-13.5487652827
 11
-7.0214994446
 21
-13.9343196933
  0
LINE
  5
37B
100
AcDbEntity
  8
0
100
AcDbLine
 62
7
  6
CONTINUOUS
 10
-7.0106673081
 20
-10.4282601971
 11
-7.0106673081
 21
-10.8159341645
  0
LINE
  5
37C
100
AcDbEntity
  8
0
100
AcDbLine
 62
7
  6
CONTINUOUS
 10
-6.7269452273
 20
-10.9812414384
 11
-6.7269452272
 21
-11.9642781835
  0
LINE
  5
37D
100
AcDbEntity
  8
0
100
AcDbLine
 62
7
  6
CONTINUOUS
 10
-6.7269452272
 20
-12.4420790388
 11
-6.7269452272
 21
-13.7204102218
  0
LINE
  5
37E
100
AcDbEntity
  8
0
100
AcDbLine
 62
7
  6
CONTINUOUS
 10
-6.4637393905
 20
-0.0654453386
 11
-6.4637323134
 21
-2.2191755374
  0
LINE
  5
37F
100
AcDbEntity
  8
0
100
AcDbLine
 62
7
  6
CONTINUOUS
 10
-6.3712255081
 20
-11.1866290143
 11
-6.3712255081
 21
-12.1696657593
  0
LINE
  5
380
100
AcDbEntity
  8
0
100
AcDbLine
 62
7
  6
CONTINUOUS
 10
-6.3712255081
 20
-12.6431548352
 11
-6.3712255081
 21
-13.9257977977
  0
LINE
  5
381
100
AcDbEntity
  8
0
100
AcDbLine
 62
7
  6
CONTINUOUS
 10
-6.3217278768
 20
-11.2150444184
 11
-6.3217278768
 21
-12.1410864473
  0
LINE
  5
382
100
AcDbEntity
  8
0
100
AcDbLine
 62
7
  6
CONTINUOUS
 10
-6.3217278768
 20
-12.6431548352
 11
-6.3217278767
 21
-13.8972184857
  0
LINE
  5
383
100
AcDbEntity
  8
0
100
AcDbLine
 62
7
  6
CONTINUOUS
 10
-6.0850386312
 20
-10.962706081
 11
-6.0850386312
 21
-11.3503800484
  0
LINE
  5
384
100
AcDbEntity
  8
0
100
AcDbLine
 62
7
  6
CONTINUOUS
 10
-6.0740621699
 20
-14.0958031656
 11
-6.0740621699
 21
-14.4813575762
  0
LINE
  5
385
100
AcDbEntity
  8
0
100
AcDbLine
 62
7
  6
CONTINUOUS
 10
-6.0355400969
 20
-10.9341262476
 11
-6.0355400969
 21
-11.321800215
  0
LINE
  5
386
100
AcDbEntity
  8
0
100
AcDbLine
 62
7
  6
CONTINUOUS
 10
-6.024563585
 20
-14.067223303
 11
-6.024563585
 21
-14.4527777136
  0
LINE
  5
387
100
AcDbEntity
  8
0
100
AcDbLine
 62
7
  6
CONTINUOUS
 10
-5.9068046045
 20
20.1363525656
 11
-5.9068046045
 21
20.3155106894
  0
LINE
  5
388
100
AcDbEntity
  8
0
100
AcDbLine
 62
7
  6
CONTINUOUS
 10
-5.8952765072
 20
0.7218079466
 11
-5.8952765072
 21
-2.5442201252
  0
LINE
  5
389
100
AcDbEntity
  8
0
100
AcDbLine
 62
7
  6
CONTINUOUS
 10
-5.8705267984
 20
0.7360981183
 11
-5.8705267984
 21
-2.5299299535
  0
LINE
  5
38A
100
AcDbEntity
  8
0
100
AcDbLine
 62
7
  6
CONTINUOUS
 10
-5.5453132762
 20
20.2791346615
 11
-5.5453132762
 21
20.4710309084
  0
LINE
  5
38B
100
AcDbEntity
  8
0
100
AcDbLine
 62
250
  6
CONTINUOUS
 10
-5.1431682095
 20
20.494076562
 11
-5.1431682095
 21
20.6991721772
  0
LINE
  5
38C
100
AcDbEntity
  8
0
100
AcDbLine
 62
7
  6
CONTINUOUS
 10
-4.9710927542
 20
-13.5976083901
 11
-4.9557900244
 21
-13.3286838439
  0
LINE
  5
38D
100
AcDbEntity
  8
0
100
AcDbLine
 62
7
  6
CONTINUOUS
 10
-4.9215832222
 20
-13.5690222147
 11
-4.906280263
 21
-13.3000975256
  0
LWPOLYLINE
  5
38E
100
AcDbEntity
  8
0
100
AcDbPolyline
 62
250
  6
CONTINUOUS
 90
9
 70
0
 10
-10.6025716707
 20
-29.9199251667
 10
-10.6464209821
 20
-30.5172899036
 10
-10.6949682722
 20
-31.0965930437
 10
-10.7416179959
 20
-31.6603245517
 10
-10.7806464754
 20
-32.2147855421
 10
-10.8056100577
 20
-32.7606812963
 10
-10.8093618589
 20
-33.2924532656
 10
-10.7839837604
 20
-33.809517862
 10
-10.7178296988
 20
-34.3160949353
  0
LWPOLYLINE
  5
38F
100
AcDbEntity
  8
0
100
AcDbPolyline
 62
7
  6
CONTINUOUS
 90
5
 70
0
 10
-8.2954953155
 20
-11.4112528349
 10
-8.2623848935
 20
-11.0588030463
 10
-8.1845651249
 20
-10.7643550265
 10
-8.0618776641
 20
-10.5278214553
 10
-7.8876227629
 20
-10.3455504392
  0
LWPOLYLINE
  5
390
100
AcDbEntity
  8
0
100
AcDbPolyline
 62
7
  6
CONTINUOUS
 90
4
 70
0
 10
-8.245982369
 20
-11.3826646801
 10
-8.21287252
 20
-11.0302152315
 10
-8.1350540879
 20
-10.7357679793
 10
-8.0123686138
 20
-10.4992355434
  0
LWPOLYLINE
  5
391
100
AcDbEntity
  8
0
100
AcDbPolyline
 62
250
  6
CONTINUOUS
 90
10
 70
0
 10
-12.5408548736
 20
-26.9512414563
 10
-12.64811518
 20
-27.383774707
 10
-12.7649357748
 20
-27.7938052282
 10
-12.8841740344
 20
-28.1833548027
 10
-12.9996765825
 20
-28.554982772
 10
-13.1074368986
 20
-28.9157496616
 10
-13.204283676
 20
-29.2777835817
 10
-13.2821376208
 20
-29.6460549117
 10
-13.3273657474
 20
-30.0197352963
 10
-13.3199843677
 20
-30.4018787198
  0
LWPOLYLINE
  5
392
100
AcDbEntity
  8
0
100
AcDbPolyline
 62
7
  6
CONTINUOUS
 90
6
 70
0
 10
0.9568702882
 20
14.722806069
 10
0.9767073616
 20
14.777818465
 10
1.0134093457
 20
14.8491568625
 10
1.0709758421
 20
14.9136695824
 10
1.1525807921
 20
14.9750616164
 10
1.2582241955
 20
15.0333329643
  0
LWPOLYLINE
  5
393
100
AcDbEntity
  8
0
100
AcDbPolyline
 62
7
  6
CONTINUOUS
 90
6
 70
0
 10
2.2084134825
 20
14.965614973
 10
2.185042386
 20
14.9115814658
 10
2.1465386638
 20
14.8435607854
 10
2.088251166
 20
14.7812255927
 10
2.0071731563
 20
14.7216773418
 10
1.9033046347
 20
14.6649160328
  0
LINE
  5
394
100
AcDbEntity
  8
0
100
AcDbLine
 62
7
  6
CONTINUOUS
 10
2.2399366928
 20
14.5025698895
 11
2.2096580809
 21
14.4588419832
  0
LWPOLYLINE
  5
395
100
AcDbEntity
  8
0
100
AcDbPolyline
 62
7
  6
CONTINUOUS
 90
3
 70
0
 10
3.847205113
 20
13.1966902724
 10
3.8112719193
 20
13.1536352943
 10
3.8034880382
 20
13.1342411776
  0
LWPOLYLINE
  5
396
100
AcDbEntity
  8
RACCORDO
100
AcDbPolyline
 62
7
  6
CONTINUOUS
 90
13
 70
0
 10
1.6978824145
 20
10.5731131132
 10
1.786583087
 20
10.6274248399
 10
1.8679282408
 20
10.6835251439
 10
1.9415699052
 20
10.7409115778
 10
2.0068928877
 20
10.7987134702
 10
2.0642339499
 20
10.8567636035
 10
2.1143272477
 20
10.9155285798
 10
2.1568064313
 20
10.9744249464
 10
2.1914354682
 20
11.0328392956
 10
2.2185172645
 20
11.091094834
 10
2.2379297646
 20
11.1490365234
 10
2.2495114605
 20
11.2062228907
 10
2.2533508463
 20
11.2628625177
  0
LINE
  5
397
100
AcDbEntity
  8
0
100
AcDbLine
 62
250
  6
CONTINUOUS
 10
7.7142105295
 20
12.5712505992
 11
7.7186183309
 21
12.573824467
  0
LINE
  5
398
100
AcDbEntity
  8
0
100
AcDbLine
 62
7
  6
CONTINUOUS
 10
5.0011216602
 20
12.5805533248
 11
5.1181288016
 21
12.6481117818
  0
LINE
  5
399
100
AcDbEntity
  8
0
100
AcDbLine
 62
7
  6
CONTINUOUS
 10
5.0011216602
 20
12.5152357027
 11
5.1181288016
 21
12.5827941597
  0
LINE
  5
39A
100
AcDbEntity
  8
0
100
AcDbLine
 62
7
  6
CONTINUOUS
 10
-10.0544251474
 20
3.2574036715
 11
-10.0792068876
 21
3.2430950053
  0
LINE
  5
39B
100
AcDbEntity
  8
0
100
AcDbLine
 62
7
  6
CONTINUOUS
 10
-9.6957666876
 20
3.0289820624
 11
-9.7205419476
 21
3.0146771378
  0
LINE
  5
39C
100
AcDbEntity
  8
0
100
AcDbLine
 62
7
  6
CONTINUOUS
 10
-9.1539924033
 20
2.6885318984
 11
-9.1787592747
 21
2.6742318172
  0
LINE
  5
39D
100
AcDbEntity
  8
0
100
AcDbLine
 62
7
  6
CONTINUOUS
 10
-8.6077028341
 20
2.3507132997
 11
-8.6324629113
 21
2.3364171415
  0
LINE
  5
39E
100
AcDbEntity
  8
0
100
AcDbLine
 62
7
  6
CONTINUOUS
 10
-10.9098000537
 20
0.5462114661
 11
-10.9346003247
 21
0.5318921004
  0
LINE
  5
39F
100
AcDbEntity
  8
0
100
AcDbLine
 62
7
  6
CONTINUOUS
 10
-7.7732258088
 20
1.8449707928
 11
-7.7979786323
 21
1.8306788228
  0
LINE
  5
3A0
100
AcDbEntity
  8
0
100
AcDbLine
 62
7
  6
CONTINUOUS
 10
-6.728129794
 20
1.2284879798
 11
-6.7528786606
 21
1.2141982943
  0
LINE
  5
3A1
100
AcDbEntity
  8
0
100
AcDbLine
 62
7
  6
CONTINUOUS
 10
-9.1539992035
 20
-0.5774919343
 11
-9.1787660751
 21
-0.5917920155
  0
LINE
  5
3A2
100
AcDbEntity
  8
0
100
AcDbLine
 62
250
  6
CONTINUOUS
 10
-1.3435478062
 20
7.3414144565
 11
-1.3474701558
 21
7.3391725858
  0
LWPOLYLINE
  5
3A3
100
AcDbEntity
  8
RACCORDO
100
AcDbPolyline
 62
250
  6
CONTINUOUS
 90
58
 70
0
 10
1.9478944946
 20
10.5483425244
 10
1.8752681947
 20
10.507012528
 10
1.7951468519
 20
10.4658720709
 10
1.7075304661
 20
10.4249211532
 10
1.6123633999
 20
10.3836432684
 10
1.5097012907
 20
10.3425549229
 10
1.399711051
 20
10.3032056358
 10
1.2821724091
 20
10.2656093856
 10
1.1573056367
 20
10.2297521938
 10
1.0259384613
 20
10.1971416446
 10
0.8878057832
 20
10.1678365954
 10
0.743172702
 20
10.1417781887
 10
0.5936622444
 20
10.1202974358
 10
0.4390490471
 20
10.1035144891
 10
0.2795584734
 20
10.0913091963
 10
0.1174896392
 20
10.0846521117
 10
-0.0473638009
 20
10.0837217519
 10
-0.2147955016
 20
10.0883396003
 10
-0.3818873103
 20
10.0989406617
 10
-0.5486762619
 20
10.1157471176
 10
-0.7151253216
 20
10.1385367865
 10
-0.878205233
 20
10.1670781274
 10
-1.0375816169
 20
10.2014858974
 10
-1.1935888525
 20
10.2416453396
 10
-1.3442008213
 20
10.2869806424
 10
-1.4891908543
 20
10.3375057746
 10
-1.6287856204
 20
10.3932067675
 10
-1.7616390084
 20
10.4534659041
 10
-1.8876994917
 20
10.5183066293
 10
-2.0070185967
 20
10.5877054983
 10
-2.1184047918
 20
10.6609744592
 10
-2.2218205106
 20
10.7381481853
 10
-2.3173033193
 20
10.8191920034
 10
-2.4037743853
 20
10.9033138412
 10
-2.4812041912
 20
10.990653226
 10
-2.5496222544
 20
11.0810706306
 10
-2.6080382937
 20
11.1733554017
 10
-2.6562361262
 20
11.2676978819
 10
-2.6944319348
 20
11.3639077286
 10
-2.7222839868
 20
11.4602032608
 10
-2.7394020128
 20
11.5565455962
 10
-2.7461762823
 20
11.652973617
 10
-2.7434358714
 20
11.7478222897
 10
-2.7308802772
 20
11.8409693994
 10
-2.7088100026
 20
11.9325371609
 10
-2.6789556322
 20
12.0212271842
 10
-2.6411156812
 20
12.1069104707
 10
-2.5954916346
 20
12.189716019
 10
-2.5444185315
 20
12.2687324356
 10
-2.487802663
 20
12.3438055986
 10
-2.4257377381
 20
12.4150896299
 10
-2.360839924
 20
12.4821355012
 10
-2.2930924576
 20
12.544817926
 10
-2.2225121019
 20
12.6032621907
 10
-2.1517653129
 20
12.6573951262
 10
-2.0817409092
 20
12.7071923428
 10
-2.0115500722
 20
12.7526782301
 10
-1.941192802
 20
12.7938527882
  0
LWPOLYLINE
  5
3A4
100
AcDbEntity
  8
RACCORDO
100
AcDbPolyline
 62
250
  6
CONTINUOUS
 90
58
 70
0
 10
4.7763216193
 20
8.9152441507
 10
4.8489479192
 20
8.956574147
 10
4.929069262
 20
8.9977146041
 10
5.0166856478
 20
9.0386655218
 10
5.111852714
 20
9.0799434066
 10
5.2145148232
 20
9.1210317521
 10
5.3245050629
 20
9.1603810392
 10
5.4420437048
 20
9.1979772894
 10
5.5669104771
 20
9.2338344812
 10
5.6982776525
 20
9.2664450304
 10
5.8364103307
 20
9.2957500796
 10
5.9810434118
 20
9.3218084863
 10
6.1305538695
 20
9.3432892392
 10
6.2851670667
 20
9.3600721859
 10
6.4446576404
 20
9.3722774787
 10
6.6067264746
 20
9.3789345634
 10
6.7715799148
 20
9.3798649231
 10
6.9390116154
 20
9.3752470747
 10
7.1061034242
 20
9.3646460134
 10
7.2728923758
 20
9.3478395574
 10
7.4393414355
 20
9.3250498885
 10
7.6024213469
 20
9.2965085476
 10
7.7617977308
 20
9.2621007776
 10
7.9178049664
 20
9.2219413354
 10
8.0684169352
 20
9.1766060326
 10
8.2134069681
 20
9.1260809004
 10
8.3530017343
 20
9.0703799076
 10
8.4858551223
 20
9.010120771
 10
8.6119156055
 20
8.9452800457
 10
8.7312347106
 20
8.8758811767
 10
8.8426209057
 20
8.8026122159
 10
8.9460366244
 20
8.7254384897
 10
9.0415194332
 20
8.6443946717
 10
9.1279904991
 20
8.5602728338
 10
9.2054203051
 20
8.472933449
 10
9.2738383683
 20
8.3825160444
 10
9.3322544076
 20
8.2902312733
 10
9.3804522401
 20
8.1958887931
 10
9.4186480487
 20
8.0996789464
 10
9.4465001007
 20
8.0033834142
 10
9.4636181267
 20
7.9070410788
 10
9.4703923962
 20
7.810613058
 10
9.4676519853
 20
7.7157643854
 10
9.455096391
 20
7.6226172756
 10
9.4330261164
 20
7.5310495142
 10
9.4031717461
 20
7.4423594908
 10
9.3653317951
 20
7.3566762044
 10
9.3197077484
 20
7.273870656
 10
9.2686346454
 20
7.1948542395
 10
9.2120187769
 20
7.1197810764
 10
9.149953852
 20
7.0484970451
 10
9.0850560379
 20
6.9814511738
 10
9.0173085714
 20
6.918768749
 10
8.9467282157
 20
6.8603244843
 10
8.8759814267
 20
6.8061915488
 10
8.8059570231
 20
6.7563943323
 10
8.7357661861
 20
6.7109084449
 10
8.6654089158
 20
6.6697338868
  0
LWPOLYLINE
  5
3A5
100
AcDbEntity
  8
RACCORDO
100
AcDbPolyline
 62
250
  6
CONTINUOUS
 90
43
 70
0
 10
5.1298750099
 20
8.3028717155
 10
5.1898069385
 20
8.3362186356
 10
5.255360617
 20
8.3700144539
 10
5.3267984794
 20
8.4039727501
 10
5.404552412
 20
8.4378587324
 10
5.4886635115
 20
8.4712429238
 10
5.5787154321
 20
8.5035509834
 10
5.6747999519
 20
8.5344362877
 10
5.776971411
 20
8.5635335959
 10
5.8845935718
 20
8.5903096963
 10
5.9975878102
 20
8.6144238781
 10
6.1158001159
 20
8.6355200854
 10
6.2383220883
 20
8.6531476816
 10
6.3648729107
 20
8.667012038
 10
6.4951168223
 20
8.6768202467
 10
6.6279352836
 20
8.68226714
 10
6.7629358932
 20
8.6831485638
 10
6.89958619
 20
8.6792708786
 10
7.0364902997
 20
8.6705302067
 10
7.1731302534
 20
8.6568604425
 10
7.3089438555
 20
8.6382171136
 10
7.4424923187
 20
8.6147469599
 10
7.5730559062
 20
8.5865890934
 10
7.7003482996
 20
8.5538181472
 10
7.823656083
 20
8.5166330959
 10
7.9424094087
 20
8.4752457821
 10
8.0563111738
 20
8.4298010702
 10
8.1650900541
 20
8.3804296261
 10
8.2683406604
 20
8.3273275232
 10
8.3656879692
 20
8.2707003468
 10
8.4568964434
 20
8.2106839044
 10
8.5416142501
 20
8.1474922248
 10
8.6194978746
 20
8.0813626867
 10
8.6903109744
 20
8.012461954
 10
8.7538094227
 20
7.9409578281
 10
8.8096253926
 20
7.8671863424
 10
8.8574044173
 20
7.7915885486
 10
8.8970278536
 20
7.7143339277
 10
8.9282708945
 20
7.6358387657
 10
8.9508945566
 20
7.5569587337
 10
8.9649958334
 20
7.4780291481
 10
8.9707136149
 20
7.3993370047
 10
8.9708652676
 20
7.3842538801
  0
LWPOLYLINE
  5
3A6
100
AcDbEntity
  8
RACCORDO
100
AcDbPolyline
 62
250
  6
CONTINUOUS
 90
7
 70
0
 10
8.8466629208
 20
9.0198979412
 10
8.8649181632
 20
9.029072115
 10
8.8828679462
 20
9.0353604315
 10
8.9002119218
 20
9.0386576702
 10
8.9166598786
 20
9.0389086595
 10
8.9319365981
 20
9.0361091997
 10
8.9466677528
 20
9.0298061767
  0
LWPOLYLINE
  5
3A7
100
AcDbEntity
  8
0
100
AcDbPolyline
 62
250
  6
CONTINUOUS
 90
6
 70
0
 10
12.052202551
 20
11.6001102896
 10
12.1110904015
 20
11.620118997
 10
12.1694868605
 20
11.6299562232
 10
12.2258671178
 20
11.6287029392
 10
12.2787433394
 20
11.6153244311
 10
12.3175211728
 20
11.5947817404
  0
LINE
  5
3A8
100
AcDbEntity
  8
0
100
AcDbLine
 62
7
  6
CONTINUOUS
 10
-0.2409482049
 20
-5.5151495147
 11
-0.5859996252
 21
-5.3465418038
  0
LINE
  5
3A9
100
AcDbEntity
  8
0
100
AcDbLine
 62
7
  6
CONTINUOUS
 10
-0.5859996252
 20
-5.3465418038
 11
-0.9297146143
 21
-5.1770421343
  0
LINE
  5
3AA
100
AcDbEntity
  8
0
100
AcDbLine
 62
7
  6
CONTINUOUS
 10
-1.5376517227
 20
-3.6105790096
 11
-1.8009190384
 21
-3.4775448666
  0
LINE
  5
3AB
100
AcDbEntity
  8
0
100
AcDbLine
 62
7
  6
CONTINUOUS
 10
-1.8009190384
 20
-3.4775448666
 11
-2.0633938887
 21
-3.3439723129
  0
LINE
  5
3AC
100
AcDbEntity
  8
0
100
AcDbLine
 62
7
  6
CONTINUOUS
 10
-2.0634614301
 20
-4.6067723981
 11
-2.3630510221
 21
-4.4531598609
  0
LINE
  5
3AD
100
AcDbEntity
  8
0
100
AcDbLine
 62
7
  6
CONTINUOUS
 10
-2.3630510221
 20
-4.4531598609
 11
-2.6615848723
 21
-4.2988493662
  0
LINE
  5
3AE
100
AcDbEntity
  8
0
100
AcDbLine
 62
7
  6
CONTINUOUS
 10
-3.0578017962
 20
-4.0921217082
 11
-3.35361993
 21
-3.936311956
  0
LINE
  5
3AF
100
AcDbEntity
  8
0
100
AcDbLine
 62
7
  6
CONTINUOUS
 10
-3.35361993
 20
-3.936311956
 11
-3.6483555016
 21
-3.7798198404
  0
LINE
  5
3B0
100
AcDbEntity
  8
0
100
AcDbLine
 62
7
  6
CONTINUOUS
 10
-3.8338419487
 20
-3.0384052197
 11
-4.1421147693
 21
-2.8725369436
  0
LINE
  5
3B1
100
AcDbEntity
  8
0
100
AcDbLine
 62
7
  6
CONTINUOUS
 10
-4.0126418705
 20
-2.3218294857
 11
-4.2958270703
 21
-2.1687636414
  0
LINE
  5
3B2
100
AcDbEntity
  8
0
100
AcDbLine
 62
7
  6
CONTINUOUS
 10
-4.0205965836
 20
-2.2898924822
 11
-4.2710663952
 21
-2.1544671512
  0
LINE
  5
3B3
100
AcDbEntity
  8
0
100
AcDbLine
 62
7
  6
CONTINUOUS
 10
-4.1421147693
 20
-2.8725369436
 11
-4.4491719806
 21
-2.7059219082
  0
LINE
  5
3B4
100
AcDbEntity
  8
0
100
AcDbLine
 62
7
  6
CONTINUOUS
 10
-4.2958270703
 20
-2.1687636414
 11
-4.5779820967
 21
-2.0150649456
  0
LINE
  5
3B5
100
AcDbEntity
  8
0
100
AcDbLine
 62
7
  6
CONTINUOUS
 10
-4.2710663952
 20
-2.1544671512
 11
-4.5532242285
 21
-2.0007700628
  0
LINE
  5
3B6
100
AcDbEntity
  8
0
100
AcDbLine
 62
7
  6
CONTINUOUS
 10
-4.4491719806
 20
-2.7059219082
 11
-4.7550135825
 21
-2.5385601133
  0
LINE
  5
3B7
100
AcDbEntity
  8
0
100
AcDbLine
 62
7
  6
CONTINUOUS
 10
-4.9377967089
 20
-3.0801454795
 11
-5.2263510221
 21
-2.920137144
  0
LINE
  5
3B8
100
AcDbEntity
  8
0
100
AcDbLine
 62
7
  6
CONTINUOUS
 10
-5.2263510221
 20
-2.920137144
 11
-5.5137946259
 21
-2.7594637767
  0
LINE
  5
3B9
100
AcDbEntity
  8
0
100
AcDbLine
 62
7
  6
CONTINUOUS
 10
-5.8952765072
 20
-2.5442201252
 11
-6.1800672057
 21
-2.3820259504
  0
LINE
  5
3BA
100
AcDbEntity
  8
0
100
AcDbLine
 62
7
  6
CONTINUOUS
 10
-6.1800672057
 20
-2.3820259504
 11
-6.4637323134
 21
-2.2191755374
  0
LINE
  5
3BB
100
AcDbEntity
  8
0
100
AcDbLine
 62
7
  6
CONTINUOUS
 10
-6.9970191604
 20
-1.9094508752
 11
-7.2774106028
 21
-1.7447187298
  0
LINE
  5
3BC
100
AcDbEntity
  8
0
100
AcDbLine
 62
7
  6
CONTINUOUS
 10
-7.2774106028
 20
-1.7447187298
 11
-7.5566588918
 21
-1.5793404921
  0
LINE
  5
3BD
100
AcDbEntity
  8
0
100
AcDbLine
 62
7
  6
CONTINUOUS
 10
-8.0816156145
 20
-1.2648224508
 11
-8.3576198242
 21
-1.0975347702
  0
LINE
  5
3BE
100
AcDbEntity
  8
0
100
AcDbLine
 62
7
  6
CONTINUOUS
 10
-8.3576198242
 20
-1.0975347702
 11
-8.6324629112
 21
-0.9296109304
  0
LINE
  5
3BF
100
AcDbEntity
  8
0
100
AcDbLine
 62
7
  6
CONTINUOUS
 10
-9.1787660751
 20
-0.5917920155
 11
-9.4502473179
 21
-0.4218864489
  0
LINE
  5
3C0
100
AcDbEntity
  8
0
100
AcDbLine
 62
7
  6
CONTINUOUS
 10
-9.4502473179
 20
-0.4218864489
 11
-9.7205486912
 21
-0.2513548269
  0
LINE
  5
3C1
100
AcDbEntity
  8
0
100
AcDbLine
 62
7
  6
CONTINUOUS
 10
-10.9346003247
 20
0.5318921004
 11
-11.1986749671
 21
0.70610892
  0
LINE
  5
3C2
100
AcDbEntity
  8
0
100
AcDbLine
 62
7
  6
CONTINUOUS
 10
-11.1986749671
 20
0.70610892
 11
-11.4615296183
 21
0.8809299078
  0
LWPOLYLINE
  5
3C3
100
AcDbEntity
  8
0
100
AcDbPolyline
 62
250
  6
CONTINUOUS
 90
5
 70
0
 10
-16.0991557179
 20
14.3433823861
 10
-16.1647469457
 20
14.42983213
 10
-16.2111353643
 20
14.5203989578
 10
-16.2376004174
 20
14.6136627097
 10
-16.2441377074
 20
14.6870111634
  0
LWPOLYLINE
  5
3C4
100
AcDbEntity
  8
0
100
AcDbPolyline
 62
250
  6
CONTINUOUS
 90
10
 70
0
 10
1.6670843141
 20
-29.8569503435
 10
1.6524689482
 20
-29.7940413185
 10
1.6329901881
 20
-29.7311195413
 10
1.6087614594
 20
-29.6685079191
 10
1.5798608525
 20
-29.606460118
 10
1.546432073
 20
-29.5453802258
 10
1.5087644122
 20
-29.4857934607
 10
1.4671319656
 20
-29.4280526663
 10
1.4217137308
 20
-29.3723676108
 10
1.3727282981
 20
-29.3190158424
  0
LWPOLYLINE
  5
3C5
100
AcDbEntity
  8
RACCORDO
100
AcDbPolyline
 62
7
  6
CONTINUOUS
 90
40
 70
0
 10
-2.2466491537
 20
11.2628625181
 10
-2.2430382117
 20
11.2079365488
 10
-2.2321270598
 20
11.1524271405
 10
-2.2138011881
 20
11.0961252099
 10
-2.188160872
 20
11.0394070669
 10
-2.1552687288
 20
10.9823954363
 10
-2.1148245703
 20
10.9248058347
 10
-2.0669671751
 20
10.8671609432
 10
-2.0120421557
 20
10.8100691252
 10
-1.9495842013
 20
10.7532949714
 10
-1.8795975701
 20
10.6971876033
 10
-1.8025037686
 20
10.6423613185
 10
-1.7179901828
 20
10.5888621744
 10
-1.6260480538
 20
10.5369991734
 10
-1.5271585583
 20
10.4873197163
 10
-1.4215522509
 20
10.4401698224
 10
-1.3094901924
 20
10.3958835948
 10
-1.191442471
 20
10.3548416642
 10
-1.0679398475
 20
10.3173909829
 10
-0.939414284
 20
10.2838042395
 10
-0.8064071697
 20
10.2543500684
 10
-0.6696406821
 20
10.2292894912
 10
-0.5296973512
 20
10.2088075619
 10
-0.3871516545
 20
10.1930563553
 10
-0.2427370009
 20
10.1821693993
 10
-0.0970556055
 20
10.1762299972
 10
0.0492425228
 20
10.1752940305
 10
0.1953417732
 20
10.1793775753
 10
0.3406105731
 20
10.1884566084
 10
0.4844101385
 20
10.2024763839
 10
0.6259178071
 20
10.2213222833
 10
0.7645128624
 20
10.24485646
 10
0.8996200962
 20
10.2729159338
 10
1.0305040379
 20
10.3052625042
 10
1.1566179316
 20
10.341652217
 10
1.2774717255
 20
10.3818207096
 10
1.3924430213
 20
10.4254123509
 10
1.5010483445
 20
10.4720603882
 10
1.6029668594
 20
10.5214205037
 10
1.6978824145
 20
10.5731131132
  0
LWPOLYLINE
  5
3C6
100
AcDbEntity
  8
0
100
AcDbPolyline
 62
250
  6
CONTINUOUS
 90
10
 70
0
 10
0.1047706548
 20
-24.1529773009
 10
0.1058200372
 20
-24.8574356053
 10
0.1095335434
 20
-25.559188977
 10
0.1159014576
 20
-26.2582278725
 10
0.1249097613
 20
-26.9542567352
 10
0.1365507169
 20
-27.6475540567
 10
0.1508337607
 20
-28.3389645531
 10
0.1677662964
 20
-29.0287559567
 10
0.1873428031
 20
-29.716626838
 10
0.2095630418
 20
-30.4025611935
  0
LINE
  5
3C7
100
AcDbEntity
  8
0
100
AcDbLine
 62
7
  6
CONTINUOUS
 10
-2.6615848724
 20
-1.0328212944
 11
-2.6615848723
 21
-4.2988493662
  0
LINE
  5
3C8
100
AcDbEntity
  8
0
100
AcDbLine
 62
7
  6
CONTINUOUS
 10
-2.0717460655
 20
-1.9407255669
 11
-2.0717385616
 21
-2.7354978966
  0
LINE
  5
3C9
100
AcDbEntity
  8
0
100
AcDbLine
 62
7
  6
CONTINUOUS
 10
-2.0469507555
 20
-1.9533700963
 11
-2.0469435061
 21
-2.7211815423
  0
LINE
  5
3CA
100
AcDbEntity
  8
0
100
AcDbLine
 62
250
  6
CONTINUOUS
 10
0.1024743992
 20
-24.1518698452
 11
0.102474399
 21
4.097729772
  0
LINE
  5
3CB
100
AcDbEntity
  8
0
100
AcDbLine
 62
7
  6
CONTINUOUS
 10
0.3409723466
 20
15.3764647324
 11
0.3409723466
 21
15.4417823545
  0
LINE
  5
3CC
100
AcDbEntity
  8
0
100
AcDbLine
 62
7
  6
CONTINUOUS
 10
-2.0633938887
 20
-3.3439723129
 11
-2.0634614301
 21
-4.6067723981
  0
LINE
  5
3CD
100
AcDbEntity
  8
0
100
AcDbLine
 62
7
  6
CONTINUOUS
 10
-2.0386001062
 20
-3.3566194653
 11
-2.0386662067
 21
-4.5924559469
  0
LWPOLYLINE
  5
3CE
100
AcDbEntity
  8
RACCORDO
100
AcDbPolyline
 62
250
  6
CONTINUOUS
 90
17
 70
0
 10
-2.2466491537
 20
11.2628625181
 10
-2.2440373567
 20
11.3254398801
 10
-2.2337509442
 20
11.401766606
 10
-2.2160064248
 20
11.476537467
 10
-2.1913479338
 20
11.5491193599
 10
-2.1602913013
 20
11.619327464
 10
-2.123355733
 20
11.687004264
 10
-2.0813324631
 20
11.7516323484
 10
-2.0348437907
 20
11.8131290176
 10
-1.9844821665
 20
11.8714573699
 10
-1.9311723416
 20
11.9262603746
 10
-1.8755461926
 20
11.9775753659
 10
-1.8182016417
 20
12.0254614352
 10
-1.7601269333
 20
12.0696871049
 10
-1.7020591003
 20
12.1102810474
 10
-1.6443999392
 20
12.1474942381
 10
-1.5876394114
 20
12.1814803531
  0
LWPOLYLINE
  5
3CF
100
AcDbEntity
  8
0
100
AcDbPolyline
 62
7
  6
CONTINUOUS
 90
4
 70
0
 10
-4.7634686555
 20
-13.4507232398
 10
-4.7982580686
 20
-13.8041425963
 10
-4.8798925064
 20
-14.1007932086
 10
-5.0082207262
 20
-14.3405836552
  0
LWPOLYLINE
  5
3D0
100
AcDbEntity
  8
0
100
AcDbPolyline
 62
7
  6
CONTINUOUS
 90
15
 70
0
 10
2.0265304591
 20
14.4996614562
 10
2.032054598
 20
14.5385394046
 10
2.065648833
 20
14.5998970809
 10
2.127296661
 20
14.6599669281
 10
2.2074529855
 20
14.7086266538
 10
2.3101074803
 20
14.7443481944
 10
2.4312704717
 20
14.7686596136
 10
2.5494278421
 20
14.7760228096
 10
2.663075052
 20
14.7618857433
 10
2.7737166408
 20
14.7308004539
 10
2.8643521093
 20
14.6908849579
 10
2.9314519719
 20
14.642175076
 10
2.9785457143
 20
14.5846349876
 10
2.9992212937
 20
14.5262752471
 10
2.9996807329
 20
14.5145910132
  0
LWPOLYLINE
  5
3D1
100
AcDbEntity
  8
0
100
AcDbPolyline
 62
7
  6
CONTINUOUS
 90
4
 70
0
 10
2.9996807329
 20
14.5145910132
 10
2.9913413626
 20
14.4697660396
 10
2.9570432686
 20
14.4124371801
 10
2.8963270116
 20
14.3542886685
  0
LWPOLYLINE
  5
3D2
100
AcDbEntity
  8
0
100
AcDbPolyline
 62
7
  6
CONTINUOUS
 90
4
 70
0
 10
2.9996807265
 20
14.4492726024
 10
2.9913432389
 20
14.4044537194
 10
2.9570453649
 20
14.3471223414
 10
2.8963270116
 20
14.2889710464
  0
LWPOLYLINE
  5
3D3
100
AcDbEntity
  8
0
100
AcDbPolyline
 62
7
  6
CONTINUOUS
 90
9
 70
0
 10
2.4588632135
 20
13.8588578484
 10
2.4669153515
 20
13.890176736
 10
2.4999231767
 20
13.9529166609
 10
2.5573877738
 20
14.005307371
 10
2.6433587881
 20
14.0432126837
 10
2.7537865743
 20
14.0707687815
 10
2.8722394361
 20
14.0885271858
 10
2.9956214415
 20
14.0932809375
 10
3.2593167799
 20
14.0835677595
  0
LWPOLYLINE
  5
3D4
100
AcDbEntity
  8
0
100
AcDbPolyline
 62
7
  6
CONTINUOUS
 90
6
 70
0
 10
3.6361379044
 20
13.1758305265
 10
3.6559749777
 20
13.2308429225
 10
3.6926769618
 20
13.30218132
 10
3.7502434583
 20
13.36669404
 10
3.8318484082
 20
13.4280860739
 10
3.9374918116
 20
13.4863574218
  0
LWPOLYLINE
  5
3D5
100
AcDbEntity
  8
0
100
AcDbPolyline
 62
7
  6
CONTINUOUS
 90
6
 70
0
 10
2.2084136652
 20
14.9003036081
 10
2.1850827954
 20
14.8463304885
 10
2.1466030334
 20
14.7783126583
 10
2.0883108388
 20
14.715965715
 10
2.0072113726
 20
14.6563942991
 10
1.9033046347
 20
14.5995984106
  0
LWPOLYLINE
  5
3D6
100
AcDbEntity
  8
0
100
AcDbPolyline
 62
7
  6
CONTINUOUS
 90
6
 70
0
 10
4.8876812814
 20
13.3533280656
 10
4.8643504116
 20
13.299354946
 10
4.8258706496
 20
13.2313371158
 10
4.767578455
 20
13.1689901725
 10
4.6864789888
 20
13.1094187566
 10
4.5825722509
 20
13.0526228682
  0
LWPOLYLINE
  5
3D7
100
AcDbEntity
  8
0
100
AcDbPolyline
 62
7
  6
CONTINUOUS
 90
6
 70
0
 10
4.8876810987
 20
13.4186394305
 10
4.8643100021
 20
13.3646059234
 10
4.8258062799
 20
13.296585243
 10
4.7675187822
 20
13.2342500502
 10
4.6864407725
 20
13.1747017993
 10
4.5825722509
 20
13.1179404903
  0
LINE
  5
3D8
100
AcDbEntity
  8
0
100
AcDbLine
 62
7
  6
CONTINUOUS
 10
2.6517160031
 20
13.8430204624
 11
2.6368760017
 21
13.8110149099
  0
LINE
  5
3D9
100
AcDbEntity
  8
0
100
AcDbLine
 62
7
  6
CONTINUOUS
 10
-7.6694690083
 20
-11.2037376526
 11
-7.5986605556
 21
-11.0741801522
  0
LWPOLYLINE
  5
3DA
100
AcDbEntity
  8
0
100
AcDbPolyline
 62
250
  6
CONTINUOUS
 90
7
 70
0
 10
0.1089192766
 20
4.6325280035
 10
0.0647495277
 20
4.5631162351
 10
0.0253583616
 20
4.4867692383
 10
-0.0069594526
 20
4.4066581523
 10
-0.0310733966
 20
4.3255371196
 10
-0.0462702003
 20
4.2453098552
 10
-0.0515313758
 20
4.1684783172
  0
LINE
  5
3DB
100
AcDbEntity
  8
0
100
AcDbLine
 62
250
  6
CONTINUOUS
 10
0.1557756452
 20
4.6933891594
 11
0.1089192766
 21
4.6325280035
  0
LWPOLYLINE
  5
3DC
100
AcDbEntity
  8
0
100
AcDbPolyline
 62
250
  6
CONTINUOUS
 90
3
 70
0
 10
0.252727595
 20
4.7872413322
 10
0.2041379284
 20
4.7451934873
 10
0.1557756452
 20
4.6933891594
  0
LWPOLYLINE
  5
3DD
100
AcDbEntity
  8
RACCORDO
100
AcDbPolyline
 62
250
  6
CONTINUOUS
 90
7
 70
0
 10
4.5950676143
 20
6.5650800963
 10
4.5768123871
 20
6.5531735848
 10
4.5588626154
 20
6.538733954
 10
4.5415186468
 20
6.5220028163
 10
4.5250706927
 20
6.5032601268
 10
4.509793972
 20
6.4828195003
 10
4.5004103873
 20
6.468051873
  0
LWPOLYLINE
  5
3DE
100
AcDbEntity
  8
ASSI
100
AcDbPolyline
 62
7
  6
CONTINUOUS
 90
4
 70
0
 10
5.1298750099
 20
6.914872245
 10
5.0286146588
 20
6.8523326093
 10
4.9353425355
 20
6.7867111315
 10
4.910672806
 20
6.7668375984
  0
LWPOLYLINE
  5
3DF
100
AcDbEntity
  8
RACCORDO
100
AcDbPolyline
 62
7
  6
CONTINUOUS
 90
13
 70
0
 10
8.4153968358
 20
6.6945044757
 10
8.5040975083
 20
6.7488162023
 10
8.5854426621
 20
6.8049165064
 10
8.6590843265
 20
6.8623029402
 10
8.724407309
 20
6.9201048327
 10
8.7817483712
 20
6.9781549659
 10
8.8318416689
 20
7.0369199423
 10
8.8743208525
 20
7.0958163088
 10
8.9089498895
 20
7.154230658
 10
8.9360316858
 20
7.2124861964
 10
8.9554441859
 20
7.2704278858
 10
8.9670258818
 20
7.3276142531
 10
8.9708652676
 20
7.3842538801
  0
LWPOLYLINE
  5
3E0
100
AcDbEntity
  8
0
100
AcDbPolyline
 62
7
  6
CONTINUOUS
 90
8
 70
0
 10
5.1498699021
 20
2.8039128678
 10
5.110492286
 20
2.7802431534
 10
5.0663140494
 20
2.7601182166
 10
5.0186996304
 20
2.7438917118
 10
4.9689919649
 20
2.7306453118
 10
4.9187076525
 20
2.7215895205
 10
4.8694977939
 20
2.7199901322
 10
4.8227498177
 20
2.7266817181
  0
LINE
  5
3E1
100
AcDbEntity
  8
0
100
AcDbLine
 62
7
  6
CONTINUOUS
 10
5.1498699021
 20
2.8039128678
 11
5.5520149688
 21
3.040158642
  0
LINE
  5
3E2
100
AcDbEntity
  8
0
100
AcDbLine
 62
250
  6
CONTINUOUS
 10
11.2497444206
 20
10.5298776239
 11
11.2541522368
 21
10.5324515662
  0
LINE
  5
3E3
100
AcDbEntity
  8
0
100
AcDbLine
 62
250
  6
CONTINUOUS
 10
13.8242730686
 20
9.0433777424
 11
13.8286802843
 21
9.0459482514
  0
LINE
  5
3E4
100
AcDbEntity
  8
0
100
AcDbLine
 62
7
  6
CONTINUOUS
 10
-5.8705267984
 20
0.7360981183
 11
-5.8952765072
 21
0.7218079466
  0
LINE
  5
3E5
100
AcDbEntity
  8
0
100
AcDbLine
 62
7
  6
CONTINUOUS
 10
-8.0568607418
 20
-1.2505292975
 11
-8.0816156145
 21
-1.2648224508
  0
LINE
  5
3E6
100
AcDbEntity
  8
0
100
AcDbLine
 62
7
  6
CONTINUOUS
 10
-4.562171951
 20
0.0073251797
 11
-4.5869297365
 21
-0.0069696553
  0
LINE
  5
3E7
100
AcDbEntity
  8
0
100
AcDbLine
 62
7
  6
CONTINUOUS
 10
-6.9722698672
 20
-1.8951609436
 11
-6.9970191604
 21
-1.9094508752
  0
LINE
  5
3E8
100
AcDbEntity
  8
0
100
AcDbLine
 62
7
  6
CONTINUOUS
 10
-3.9788689095
 20
-0.3091794624
 11
-4.0036328477
 21
-0.3234778499
  0
LINE
  5
3E9
100
AcDbEntity
  8
0
100
AcDbLine
 62
250
  6
CONTINUOUS
 10
4.9113312717
 20
3.8971568544
 11
4.7665135616
 21
3.8135409235
  0
LINE
  5
3EA
100
AcDbEntity
  8
0
100
AcDbLine
 62
250
  6
CONTINUOUS
 10
13.6794553584
 20
8.9597618116
 11
13.8242730686
 21
9.0433777424
  0
LINE
  5
3EB
100
AcDbEntity
  8
0
100
AcDbLine
 62
7
  6
CONTINUOUS
 10
-5.8705267984
 20
-2.5299299535
 11
-5.8952765072
 21
-2.5442201252
  0
LINE
  5
3EC
100
AcDbEntity
  8
0
100
AcDbLine
 62
7
  6
CONTINUOUS
 10
-4.5532242285
 20
-2.0007700628
 11
-4.5779820967
 21
-2.0150649456
  0
LINE
  5
3ED
100
AcDbEntity
  8
0
100
AcDbLine
 62
7
  6
CONTINUOUS
 10
-2.6368010298
 20
-1.0185114143
 11
-2.6615848724
 21
-1.0328212944
  0
LINE
  5
3EE
100
AcDbEntity
  8
0
100
AcDbLine
 62
7
  6
CONTINUOUS
 10
-4.9130418754
 20
-3.0658523489
 11
-4.9377967089
 21
-3.0801454795
  0
LWPOLYLINE
  5
3EF
100
AcDbEntity
  8
0
100
AcDbPolyline
 62
7
  6
CONTINUOUS
 90
6
 70
0
 10
9.951737204
 20
5.497433328
 10
10.907873769
 20
6.0494945974
 10
11.8362463217
 20
6.616296807
 10
12.7361103289
 20
7.1974100724
 10
13.6082103238
 20
7.793264278
 10
14.4525463066
 20
8.4038594238
  0
LINE
  5
3F0
100
AcDbEntity
  8
0
100
AcDbLine
 62
250
  6
CONTINUOUS
 10
4.7665135616
 20
3.8135409235
 11
4.7621063458
 21
3.8110220902
  0
LINE
  5
3F1
100
AcDbEntity
  8
0
100
AcDbLine
 62
250
  6
CONTINUOUS
 10
2.1919861146
 20
5.3000414985
 11
2.1876000846
 21
5.2975376984
  0
LWPOLYLINE
  5
3F2
100
AcDbEntity
  8
RACCORDO
100
AcDbPolyline
 62
250
  6
CONTINUOUS
 90
58
 70
0
 10
8.6654089158
 20
6.6697338868
 10
8.592782616
 20
6.6284038904
 10
8.5126612732
 20
6.5872634334
 10
8.4250448874
 20
6.5463125156
 10
8.3298778211
 20
6.5050346308
 10
8.2272157119
 20
6.4639462853
 10
8.1172254722
 20
6.4245969983
 10
7.9996868304
 20
6.3870007481
 10
7.874820058
 20
6.3511435563
 10
7.7434528826
 20
6.318533007
 10
7.6053202045
 20
6.2892279578
 10
7.4606871233
 20
6.2631695511
 10
7.3111766657
 20
6.2416887983
 10
7.1565634684
 20
6.2249058516
 10
6.9970728947
 20
6.2127005587
 10
6.8350040605
 20
6.2060434741
 10
6.6701506203
 20
6.2051131143
 10
6.5027189197
 20
6.2097309628
 10
6.3356271109
 20
6.2203320241
 10
6.1688381594
 20
6.2371384801
 10
6.0023890997
 20
6.2599281489
 10
5.8393091882
 20
6.2884694899
 10
5.6799328044
 20
6.3228772599
 10
5.5239255688
 20
6.363036702
 10
5.3733136
 20
6.4083720049
 10
5.228323567
 20
6.458897137
 10
5.0887288009
 20
6.5145981299
 10
4.9558754129
 20
6.5748572665
 10
4.8298149296
 20
6.6396979918
 10
4.7104958245
 20
6.7090968607
 10
4.5991096295
 20
6.7823658216
 10
4.4956939107
 20
6.8595395478
 10
4.400211102
 20
6.9405833658
 10
4.313740036
 20
7.0247052037
 10
4.23631023
 20
7.1120445885
 10
4.1678921668
 20
7.2024619931
 10
4.1094761276
 20
7.2947467642
 10
4.0612782951
 20
7.3890892444
 10
4.0230824865
 20
7.4852990911
 10
3.9952304344
 20
7.5815946233
 10
3.9781124084
 20
7.6779369586
 10
3.971338139
 20
7.7743649795
 10
3.9740785499
 20
7.8692136521
 10
3.9866341441
 20
7.9623607618
 10
4.0087044187
 20
8.0539285233
 10
4.0385587891
 20
8.1426185466
 10
4.07639874
 20
8.2283018331
 10
4.1220227867
 20
8.3111073814
 10
4.1730958897
 20
8.390123798
 10
4.2297117583
 20
8.465196961
 10
4.2917766831
 20
8.5364809924
 10
4.3566744973
 20
8.6035268636
 10
4.4244219637
 20
8.6662092884
 10
4.4950023194
 20
8.7246535531
 10
4.5657491084
 20
8.7787864886
 10
4.6357735121
 20
8.8285837052
 10
4.705964349
 20
8.8740695925
 10
4.7763216193
 20
8.9152441507
  0
LINE
  5
3F3
100
AcDbEntity
  8
0
100
AcDbLine
 62
7
  6
CONTINUOUS
 10
15.0979565148
 20
8.5518656519
 11
15.5001015816
 21
8.7800069207
  0
LINE
  5
3F4
100
AcDbEntity
  8
0
100
AcDbLine
 62
7
  6
CONTINUOUS
 10
15.5333844544
 20
8.7982836032
 11
15.5001015816
 21
8.7799849993
  0
LWPOLYLINE
  5
3F5
100
AcDbEntity
  8
0
100
AcDbPolyline
 62
7
  6
CONTINUOUS
 90
6
 70
0
 10
15.5013742021
 20
8.7811852444
 10
15.5376223625
 20
8.8008486697
 10
15.5728668855
 20
8.81584288
 10
15.6067848019
 20
8.8265233501
 10
15.6390914152
 20
8.8332314344
 10
15.6695394303
 20
8.8362937925
  0
LINE
  5
3F6
100
AcDbEntity
  8
ASSI
100
AcDbLine
 62
7
  6
CONTINUOUS
 10
5.2381898579
 20
6.9733387026
 11
5.1298750099
 21
6.914872245
  0
LWPOLYLINE
  5
3F7
100
AcDbEntity
  8
0
100
AcDbPolyline
 62
7
  6
CONTINUOUS
 90
22
 70
0
 10
9.0896729857
 20
6.5472396741
 10
8.9038097727
 20
6.4479787936
 10
8.7080916729
 20
6.3578814816
 10
8.5025186864
 20
6.276947738
 10
8.285840251
 20
6.2048408949
 10
8.0593069288
 20
6.1418976202
 10
7.8266704062
 20
6.0891279179
 10
7.5878367018
 20
6.0466961191
 10
7.342899797
 20
6.0144378926
 10
7.0958933219
 20
5.9928702482
 10
6.8467862457
 20
5.9821648534
 10
6.5956095992
 20
5.9821500407
 10
6.346490105
 20
5.9928278173
 10
6.099443021
 20
6.0143753203
 10
5.8544530893
 20
6.0466154125
 10
5.615601258
 20
6.0890186898
 10
5.3830439442
 20
6.1417259713
 10
5.1566247308
 20
6.2045964378
 10
4.9399553151
 20
6.2766782274
 10
4.734239596
 20
6.357654053
 10
4.5382736745
 20
6.4478412017
 10
4.3520575506
 20
6.5472396736
  0
LWPOLYLINE
  5
3F8
100
AcDbEntity
  8
0
100
AcDbPolyline
 62
250
  6
CONTINUOUS
 90
5
 70
0
 10
8.5560035871
 20
3.8458338008
 10
7.996485714
 20
3.5663242213
 10
7.430222729
 20
3.291760512
 10
6.8570442841
 20
3.0220545905
 10
6.2769503792
 20
2.7572064569
  0
LINE
  5
3F9
100
AcDbEntity
  8
0
100
AcDbLine
 62
7
  6
CONTINUOUS
 10
4.6903767458
 20
2.8661055906
 11
5.7718061513
 21
3.4002484582
  0
LINE
  5
3FA
100
AcDbEntity
  8
0
100
AcDbLine
 62
7
  6
CONTINUOUS
 10
5.7778087898
 20
3.4032132995
 11
5.8741204203
 21
3.45078383
  0
LINE
  5
3FB
100
AcDbEntity
  8
0
100
AcDbLine
 62
7
  6
CONTINUOUS
 10
5.2859029966
 20
3.0172901366
 11
4.752694455
 21
2.7539261685
  0
LWPOLYLINE
  5
3FC
100
AcDbEntity
  8
0
100
AcDbPolyline
 62
7
  6
CONTINUOUS
 90
5
 70
0
 10
5.8741204203
 20
3.45078383
 10
6.9316341015
 20
3.9382928444
 10
7.9636173703
 20
4.4418324515
 10
8.9700702267
 20
4.9614026513
 10
9.951737204
 20
5.497433328
  0
LWPOLYLINE
  5
3FD
100
AcDbEntity
  8
0
100
AcDbPolyline
 62
250
  6
CONTINUOUS
 90
10
 70
0
 10
6.2769503792
 20
2.7572064569
 10
6.1941924814
 20
2.7243140951
 10
6.1066741734
 20
2.6981897765
 10
6.014395455
 20
2.678833501
 10
5.9149054903
 20
2.6661001512
 10
5.8106551153
 20
2.6601348446
 10
5.7089968383
 20
2.6613729332
 10
5.6123814953
 20
2.6699595343
 10
5.5183582503
 20
2.6857495307
 10
5.4269271032
 20
2.7087429223
  0
LWPOLYLINE
  5
3FE
100
AcDbEntity
  8
0
100
AcDbPolyline
 62
7
  6
CONTINUOUS
 90
5
 70
0
 10
-1.3125282428
 20
-3.0926246596
 10
-1.2352400884
 20
-3.1220169207
 10
-1.1618199389
 20
-3.1328065056
 10
-1.0952593284
 20
-3.1244677728
 10
-1.0784079367
 20
-3.1173378205
  0
LWPOLYLINE
  5
3FF
100
AcDbEntity
  8
0
100
AcDbPolyline
 62
7
  6
CONTINUOUS
 90
5
 70
0
 10
-1.3379884284
 20
-3.1066279163
 10
-1.2608830899
 20
-3.1361195211
 10
-1.1875278054
 20
-3.1471176888
 10
-1.1209145285
 20
-3.1390365388
 10
-1.0770338404
 20
-3.120585449
  0
LWPOLYLINE
  5
400
100
AcDbEntity
  8
0
100
AcDbPolyline
 62
7
  6
CONTINUOUS
 90
7
 70
0
 10
-1.2269113766
 20
-1.7364724997
 10
-1.4634963408
 20
-1.6178852568
 10
-1.6994399629
 20
-1.4988688387
 10
-1.9347422429
 20
-1.3794232454
 10
-2.1694031807
 20
-1.2595484769
 10
-2.4034227763
 20
-1.1392445332
 10
-2.6368010298
 20
-1.0185114143
  0
LWPOLYLINE
  5
401
100
AcDbEntity
  8
0
100
AcDbPolyline
 62
7
  6
CONTINUOUS
 90
7
 70
0
 10
-1.2527923999
 20
-1.7502706511
 10
-1.4894833449
 20
-1.6316166946
 10
-1.7254174101
 20
-1.5125943636
 10
-1.9605945954
 20
-1.3932036581
 10
-2.1950149009
 20
-1.273444578
 10
-2.4286783266
 20
-1.1533171235
 10
-2.6615848724
 20
-1.0328212944
  0
LINE
  5
402
100
AcDbEntity
  8
0
100
AcDbLine
 62
7
  6
CONTINUOUS
 10
-1.3379884284
 20
-3.1066254669
 11
-1.583258379
 21
-2.9833802898
  0
LINE
  5
403
100
AcDbEntity
  8
0
100
AcDbLine
 62
7
  6
CONTINUOUS
 10
-1.3125318144
 20
-3.0926247859
 11
-1.5583093155
 21
-2.9691302108
  0
LINE
  5
404
100
AcDbEntity
  8
0
100
AcDbLine
 62
7
  6
CONTINUOUS
 10
-1.3379884284
 20
-2.3118569701
 11
-1.5832608944
 21
-2.1886105248
  0
LINE
  5
405
100
AcDbEntity
  8
0
100
AcDbLine
 62
7
  6
CONTINUOUS
 10
-1.583258379
 20
-2.9833802898
 11
-1.8278417567
 21
-2.8596710997
  0
LINE
  5
406
100
AcDbEntity
  8
0
100
AcDbLine
 62
7
  6
CONTINUOUS
 10
-1.5583093155
 20
-2.9691302108
 11
-1.8031132127
 21
-2.8453157962
  0
LINE
  5
407
100
AcDbEntity
  8
0
100
AcDbLine
 62
7
  6
CONTINUOUS
 10
-1.5832608944
 20
-2.1886105248
 11
-1.8278467734
 21
-2.0649000571
  0
LINE
  5
408
100
AcDbEntity
  8
0
100
AcDbLine
 62
7
  6
CONTINUOUS
 10
-1.8278417567
 20
-2.8596710997
 11
-2.0717385616
 21
-2.7354978966
  0
LINE
  5
409
100
AcDbEntity
  8
0
100
AcDbLine
 62
7
  6
CONTINUOUS
 10
-1.8031132127
 20
-2.8453157962
 11
-2.0469435061
 21
-2.7211815423
  0
LINE
  5
40A
100
AcDbEntity
  8
0
100
AcDbLine
 62
7
  6
CONTINUOUS
 10
-1.8278467734
 20
-2.0649000571
 11
-2.0717460655
 21
-1.9407255669
  0
LINE
  5
40B
100
AcDbEntity
  8
0
100
AcDbLine
 62
7
  6
CONTINUOUS
 10
-3.9788689095
 20
-0.3091794624
 11
-4.2710689439
 21
-0.1512641088
  0
LINE
  5
40C
100
AcDbEntity
  8
0
100
AcDbLine
 62
7
  6
CONTINUOUS
 10
-4.0036328477
 20
-0.3234778499
 11
-4.2958296198
 21
-0.1655605985
  0
LINE
  5
40D
100
AcDbEntity
  8
0
100
AcDbLine
 62
7
  6
CONTINUOUS
 10
-4.2958296198
 20
-0.1655605985
 11
-4.5869297365
 21
-0.0069696553
  0
LINE
  5
40E
100
AcDbEntity
  8
0
100
AcDbLine
 62
7
  6
CONTINUOUS
 10
-4.2710689439
 20
-0.1512641088
 11
-4.562171951
 21
0.0073251797
  0
LINE
  5
40F
100
AcDbEntity
  8
0
100
AcDbLine
 62
7
  6
CONTINUOUS
 10
-5.8952765072
 20
0.7218079466
 11
-6.182289501
 21
0.885272877
  0
LINE
  5
410
100
AcDbEntity
  8
0
100
AcDbLine
 62
7
  6
CONTINUOUS
 10
-5.8705267984
 20
0.7360981183
 11
-6.1575404728
 21
0.8995626531
  0
LINE
  5
411
100
AcDbEntity
  8
0
100
AcDbLine
 62
7
  6
CONTINUOUS
 10
-6.182289501
 20
0.885272877
 11
-6.4681568854
 21
1.0494029929
  0
LINE
  5
412
100
AcDbEntity
  8
0
100
AcDbLine
 62
7
  6
CONTINUOUS
 10
-6.1575404728
 20
0.8995626531
 11
-6.443408138
 21
1.0636926069
  0
LINE
  5
413
100
AcDbEntity
  8
0
100
AcDbLine
 62
7
  6
CONTINUOUS
 10
-6.4681568854
 20
1.0494029929
 11
-6.7528786606
 21
1.2141982943
  0
LINE
  5
414
100
AcDbEntity
  8
0
100
AcDbLine
 62
7
  6
CONTINUOUS
 10
-6.443408138
 20
1.0636926069
 11
-6.728129794
 21
1.2284879798
  0
LWPOLYLINE
  5
415
100
AcDbEntity
  8
0
100
AcDbPolyline
 62
7
  6
CONTINUOUS
 90
14
 70
0
 10
-1.2527872089
 20
-1.7502656905
 10
-1.0834159499
 20
-1.850727203
 10
-0.9202172121
 20
-1.9812574265
 10
-0.7682115767
 20
-2.13730452
 10
-0.631893834
 20
-2.3129992265
 10
-0.5155568295
 20
-2.5027890066
 10
-0.4234732378
 20
-2.7017969139
 10
-0.3588427021
 20
-2.9042181321
 10
-0.3241710807
 20
-3.1021964829
 10
-0.3212204691
 20
-3.2878456991
 10
-0.3501054149
 20
-3.4547889886
 10
-0.4093452163
 20
-3.5979155673
 10
-0.496368614
 20
-3.7124446716
 10
-0.5931202081
 20
-3.7863835149
  0
LWPOLYLINE
  5
416
100
AcDbEntity
  8
0
100
AcDbPolyline
 62
7
  6
CONTINUOUS
 90
12
 70
0
 10
-1.2269113766
 20
-1.7364724997
 10
-1.0580173553
 20
-1.8368041821
 10
-0.8951741494
 20
-1.9671267073
 10
-0.7433864376
 20
-2.1229710385
 10
-0.6071252701
 20
-2.2985786532
 10
-0.4907502465
 20
-2.4884067307
 10
-0.3986390864
 20
-2.6874582082
 10
-0.3340069003
 20
-2.8898784712
 10
-0.2993343331
 20
-3.0878562677
 10
-0.2963836164
 20
-3.2735053876
 10
-0.3252694057
 20
-3.4404491008
 10
-0.3845108697
 20
-3.5835765789
  0
LINE
  5
417
100
AcDbEntity
  8
0
100
AcDbLine
 62
7
  6
CONTINUOUS
 10
-7.7979786323
 20
1.8306788228
 11
-8.0773170048
 21
1.998610785
  0
LINE
  5
418
100
AcDbEntity
  8
0
100
AcDbLine
 62
7
  6
CONTINUOUS
 10
-7.7732258088
 20
1.8449707928
 11
-8.0525621853
 21
2.01290393
  0
LINE
  5
419
100
AcDbEntity
  8
0
100
AcDbLine
 62
7
  6
CONTINUOUS
 10
-8.0773170048
 20
1.998610785
 11
-8.3554784311
 21
2.1671902246
  0
LINE
  5
41A
100
AcDbEntity
  8
0
100
AcDbLine
 62
7
  6
CONTINUOUS
 10
-8.0525621853
 20
2.01290393
 11
-8.3307211937
 21
2.1814847656
  0
LINE
  5
41B
100
AcDbEntity
  8
0
100
AcDbLine
 62
7
  6
CONTINUOUS
 10
-8.3554784311
 20
2.1671902246
 11
-8.6324629113
 21
2.3364171415
  0
LINE
  5
41C
100
AcDbEntity
  8
0
100
AcDbLine
 62
7
  6
CONTINUOUS
 10
-8.3307211937
 20
2.1814847656
 11
-8.6077028341
 21
2.3507132997
  0
LINE
  5
41D
100
AcDbEntity
  8
0
100
AcDbLine
 62
7
  6
CONTINUOUS
 10
-9.1787592747
 20
2.6742318172
 11
-9.4502405458
 21
2.8441414502
  0
LINE
  5
41E
100
AcDbEntity
  8
0
100
AcDbLine
 62
7
  6
CONTINUOUS
 10
-9.1539924033
 20
2.6885318984
 11
-9.4254696953
 21
2.8584438481
  0
LINE
  5
41F
100
AcDbEntity
  8
0
100
AcDbLine
 62
7
  6
CONTINUOUS
 10
-9.4502405458
 20
2.8441414502
 11
-9.7205419476
 21
3.0146771378
  0
LINE
  5
420
100
AcDbEntity
  8
0
100
AcDbLine
 62
7
  6
CONTINUOUS
 10
-9.4254696953
 20
2.8584438481
 11
-9.6957666876
 21
3.0289820624
  0
LINE
  5
421
100
AcDbEntity
  8
0
100
AcDbLine
 62
7
  6
CONTINUOUS
 10
-10.0792068876
 20
3.2430950053
 11
-10.346920191
 21
3.4151987027
  0
LINE
  5
422
100
AcDbEntity
  8
0
100
AcDbLine
 62
7
  6
CONTINUOUS
 10
-10.0544251474
 20
3.2574036715
 11
-10.3221331636
 21
3.4295104719
  0
LINE
  5
423
100
AcDbEntity
  8
0
100
AcDbLine
 62
7
  6
CONTINUOUS
 10
-10.346920191
 20
3.4151987027
 11
-10.6134284513
 21
3.5879141811
  0
LINE
  5
424
100
AcDbEntity
  8
0
100
AcDbLine
 62
7
  6
CONTINUOUS
 10
-10.3221331636
 20
3.4295104719
 11
-10.5886356545
 21
3.6022292312
  0
LINE
  5
425
100
AcDbEntity
  8
0
100
AcDbLine
 62
7
  6
CONTINUOUS
 10
-11.778267156
 20
4.3595242998
 11
-12.0386719782
 21
4.5358535326
  0
LINE
  5
426
100
AcDbEntity
  8
0
100
AcDbLine
 62
7
  6
CONTINUOUS
 10
-11.7534441956
 20
4.3738567661
 11
-12.0138411109
 21
4.5501905839
  0
LINE
  5
427
100
AcDbEntity
  8
0
100
AcDbLine
 62
7
  6
CONTINUOUS
 10
-12.0386719782
 20
4.5358535326
 11
-12.2978585207
 21
4.7127907691
  0
LINE
  5
428
100
AcDbEntity
  8
0
100
AcDbLine
 62
7
  6
CONTINUOUS
 10
-12.0138411109
 20
4.5501905839
 11
-12.2730193098
 21
4.7271326182
  0
LWPOLYLINE
  5
429
100
AcDbEntity
  8
0
100
AcDbPolyline
 62
7
  6
CONTINUOUS
 90
3
 70
0
 10
-14.9863740558
 20
13.235902788
 10
-14.587197063
 20
12.9013728195
 10
-14.1805210648
 20
12.5817980617
  0
LINE
  5
42A
100
AcDbEntity
  8
0
100
AcDbLine
 62
250
  6
CONTINUOUS
 10
-14.4269260914
 20
13.7018757784
 11
-14.7020134628
 21
13.9490818882
  0
LINE
  5
42B
100
AcDbEntity
  8
0
100
AcDbLine
 62
7
  6
CONTINUOUS
 10
-15.3741084933
 20
13.5873846244
 11
-14.9863740558
 21
13.235902788
  0
LINE
  5
42C
100
AcDbEntity
  8
0
100
AcDbLine
 62
250
  6
CONTINUOUS
 10
-15.5027453409
 20
14.7175880071
 11
-15.5388930503
 21
14.7549949437
  0
LINE
  5
42D
100
AcDbEntity
  8
0
100
AcDbLine
 62
250
  6
CONTINUOUS
 10
-15.5388930503
 20
14.7549949437
 11
-15.5740337684
 21
14.7918850294
  0
LINE
  5
42E
100
AcDbEntity
  8
0
100
AcDbLine
 62
250
  6
CONTINUOUS
 10
-15.5740337684
 20
14.7918850294
 11
-15.6083214505
 21
14.8284193164
  0
LWPOLYLINE
  5
42F
100
AcDbEntity
  8
0
100
AcDbPolyline
 62
250
  6
CONTINUOUS
 90
3
 70
0
 10
-15.6083214505
 20
14.8284193164
 10
-15.6423719182
 20
14.8652420145
 10
-15.6592697078
 20
14.8837212546
  0
LWPOLYLINE
  5
430
100
AcDbEntity
  8
0
100
AcDbPolyline
 62
7
  6
CONTINUOUS
 90
3
 70
0
 10
-16.0991557166
 20
14.3409356805
 10
-15.7457086093
 20
13.9557275891
 10
-15.3741084933
 20
13.5873846244
  0
LWPOLYLINE
  5
431
100
AcDbEntity
  8
0
100
AcDbPolyline
 62
7
  6
CONTINUOUS
 90
8
 70
0
 10
-9.862265829
 20
15.0113257904
 10
-9.9501412135
 20
15.1718284586
 10
-10.0129460594
 20
15.3361995624
 10
-10.0512378211
 20
15.5043533865
 10
-10.0641635293
 20
15.6724960866
 10
-10.0511466537
 20
15.840625855
 10
-10.0127637247
 20
16.0087444993
 10
-10.0036437149
 20
16.0381787415
  0
LINE
  5
432
100
AcDbEntity
  8
0
100
AcDbLine
 62
250
  6
CONTINUOUS
 10
-4.2390175958
 20
16.6430556435
 11
-4.345355858
 21
17.0398967221
  0
LWPOLYLINE
  5
433
100
AcDbEntity
  8
RACCORDO
100
AcDbPolyline
 62
7
  6
CONTINUOUS
 90
40
 70
0
 10
4.4708652676
 20
7.3842538806
 10
4.4744762096
 20
7.3293279112
 10
4.4853873614
 20
7.2738185029
 10
4.5037132332
 20
7.2175165723
 10
4.5293535493
 20
7.1607984293
 10
4.5622456925
 20
7.1037867987
 10
4.6026898509
 20
7.0461971972
 10
4.6505472461
 20
6.9885523056
 10
4.7054722656
 20
6.9314604877
 10
4.76793022
 20
6.8746863339
 10
4.8379168512
 20
6.8185789657
 10
4.9150106526
 20
6.7637526809
 10
4.9995242385
 20
6.7102535368
 10
5.0914663675
 20
6.6583905359
 10
5.1903558629
 20
6.6087110787
 10
5.2959621704
 20
6.5615611848
 10
5.4080242288
 20
6.5172749572
 10
5.5260719502
 20
6.4762330266
 10
5.6495745738
 20
6.4387823453
 10
5.7781001372
 20
6.405195602
 10
5.9111072516
 20
6.3757414308
 10
6.0478737392
 20
6.3506808536
 10
6.1878170701
 20
6.3301989243
 10
6.3303627668
 20
6.3144477178
 10
6.4747774204
 20
6.3035607618
 10
6.6204588158
 20
6.2976213596
 10
6.7667569441
 20
6.296685393
 10
6.9128561945
 20
6.3007689377
 10
7.0581249943
 20
6.3098479708
 10
7.2019245598
 20
6.3238677463
 10
7.3434322284
 20
6.3427136457
 10
7.4820272837
 20
6.3662478224
 10
7.6171345174
 20
6.3943072962
 10
7.7480184592
 20
6.4266538667
 10
7.8741323529
 20
6.4630435794
 10
7.9949861468
 20
6.503212072
 10
8.1099574425
 20
6.5468037134
 10
8.2185627657
 20
6.5934517506
 10
8.3204812807
 20
6.6428118661
 10
8.4153968358
 20
6.6945044757
  0
LWPOLYLINE
  5
434
100
AcDbEntity
  8
0
100
AcDbPolyline
 62
7
  6
CONTINUOUS
 90
8
 70
0
 10
2.2012251345
 20
14.4913821201
 10
2.2018202838
 20
14.4809110928
 10
2.2213396709
 20
14.4359609427
 10
2.2633075149
 20
14.3911282511
 10
2.31981319
 20
14.3563692524
 10
2.3882198208
 20
14.3350026915
 10
2.4711642828
 20
14.3237098235
 10
2.5686465758
 20
14.3224906485
  0
LINE
  5
435
100
AcDbEntity
  8
0
100
AcDbLine
 62
7
  6
CONTINUOUS
 10
0.9568325491
 20
14.7195515709
 11
0.9568325491
 21
14.6542339488
  0
LINE
  5
436
100
AcDbEntity
  8
0
100
AcDbLine
 62
7
  6
CONTINUOUS
 10
1.1106078044
 20
15.0258911392
 11
1.1106078044
 21
15.0912087614
  0
LINE
  5
437
100
AcDbEntity
  8
0
100
AcDbLine
 62
7
  6
CONTINUOUS
 10
1.2482885544
 20
15.1053862788
 11
1.2482885544
 21
15.1707039009
  0
LINE
  5
438
100
AcDbEntity
  8
0
100
AcDbLine
 62
7
  6
CONTINUOUS
 10
1.5759683485
 20
14.2261698852
 11
1.5759683485
 21
14.2914875074
  0
LINE
  5
439
100
AcDbEntity
  8
0
100
AcDbLine
 62
7
  6
CONTINUOUS
 10
2.0265243688
 20
14.5009067993
 11
2.0265243688
 21
14.4355891772
  0
LINE
  5
43A
100
AcDbEntity
  8
0
100
AcDbLine
 62
7
  6
CONTINUOUS
 10
2.0647354049
 20
13.9439619126
 11
2.0647354049
 21
14.0092795347
  0
LINE
  5
43B
100
AcDbEntity
  8
0
100
AcDbLine
 62
7
  6
CONTINUOUS
 10
2.2084657284
 20
14.9038791866
 11
2.2084657284
 21
14.9691968088
  0
LINE
  5
43C
100
AcDbEntity
  8
0
100
AcDbLine
 62
7
  6
CONTINUOUS
 10
2.2135251776
 20
4.1094874775
 11
2.2135251776
 21
4.06171895
  0
LINE
  5
43D
100
AcDbEntity
  8
0
100
AcDbLine
 62
7
  6
CONTINUOUS
 10
2.4588587462
 20
13.8578608522
 11
2.4588587462
 21
13.7925432301
  0
LINE
  5
43E
100
AcDbEntity
  8
0
100
AcDbLine
 62
7
  6
CONTINUOUS
 10
2.6663998371
 20
14.1816528484
 11
2.6663998371
 21
14.2469704705
  0
LINE
  5
43F
100
AcDbEntity
  8
0
100
AcDbLine
 62
7
  6
CONTINUOUS
 10
2.7600234713
 20
14.3565422352
 11
2.7600234713
 21
14.4218598573
  0
LINE
  5
440
100
AcDbEntity
  8
0
100
AcDbLine
 62
7
  6
CONTINUOUS
 10
2.8963270116
 20
14.2889710464
 11
2.8963270116
 21
14.3542886685
  0
LINE
  5
441
100
AcDbEntity
  8
0
100
AcDbLine
 62
7
  6
CONTINUOUS
 10
2.9751063943
 20
13.3849372332
 11
2.9751063943
 21
13.4502548554
  0
LINE
  5
442
100
AcDbEntity
  8
0
100
AcDbLine
 62
7
  6
CONTINUOUS
 10
2.999684753
 20
14.4502750389
 11
2.999684753
 21
14.515592661
  0
LINE
  5
443
100
AcDbEntity
  8
0
100
AcDbLine
 62
7
  6
CONTINUOUS
 10
3.0725584366
 20
13.3286696453
 11
3.0725584366
 21
13.3939872675
  0
LINE
  5
444
100
AcDbEntity
  8
0
100
AcDbLine
 62
7
  6
CONTINUOUS
 10
3.1703124136
 20
14.2961256954
 11
3.1703124136
 21
14.3614433176
  0
LINE
  5
445
100
AcDbEntity
  8
0
100
AcDbLine
 62
7
  6
CONTINUOUS
 10
3.2102393998
 20
13.5925937145
 11
3.2102393998
 21
13.6579113366
  0
LINE
  5
446
100
AcDbEntity
  8
0
100
AcDbLine
 62
7
  6
CONTINUOUS
 10
3.6361001653
 20
13.1725760285
 11
3.6361001653
 21
13.1072584063
  0
LINE
  5
447
100
AcDbEntity
  8
0
100
AcDbLine
 62
7
  6
CONTINUOUS
 10
3.9385704972
 20
13.9860946253
 11
3.9385704972
 21
14.0514122474
  0
LINE
  5
448
100
AcDbEntity
  8
0
100
AcDbLine
 62
7
  6
CONTINUOUS
 10
4.3777721958
 20
13.7515837407
 11
4.3777721958
 21
13.8169013629
  0
LINE
  5
449
100
AcDbEntity
  8
0
100
AcDbLine
 62
7
  6
CONTINUOUS
 10
4.390163535
 20
12.5822101829
 11
4.390163535
 21
12.6475278051
  0
LINE
  5
44A
100
AcDbEntity
  8
0
100
AcDbLine
 62
7
  6
CONTINUOUS
 10
4.4682540909
 20
12.5371216747
 11
4.4682540909
 21
12.6024392968
  0
LINE
  5
44B
100
AcDbEntity
  8
0
100
AcDbLine
 62
7
  6
CONTINUOUS
 10
4.6903767458
 20
2.8661055906
 11
4.6903767458
 21
2.789146738
  0
LINE
  5
44C
100
AcDbEntity
  8
0
100
AcDbLine
 62
7
  6
CONTINUOUS
 10
4.8877333445
 20
13.3569036442
 11
4.8877333445
 21
13.4222212663
  0
LINE
  5
44D
100
AcDbEntity
  8
0
100
AcDbLine
 62
7
  6
CONTINUOUS
 10
5.0011216602
 20
12.5152357027
 11
5.0011216602
 21
12.5805533248
  0
LINE
  5
44E
100
AcDbEntity
  8
0
100
AcDbLine
 62
250
  6
CONTINUOUS
 10
3.0061096859
 20
-24.1363349431
 11
2.9856201561
 21
-25.4373195329
  0
LINE
  5
44F
100
AcDbEntity
  8
0
100
AcDbLine
 62
250
  6
CONTINUOUS
 10
2.973720369
 20
-25.919467636
 11
2.9766052675
 21
-25.7577310754
  0
LINE
  5
450
100
AcDbEntity
  8
0
100
AcDbLine
 62
250
  6
CONTINUOUS
 10
2.9766052675
 20
-25.7577310754
 11
2.9839774883
 21
-25.4389984296
  0
LINE
  5
451
100
AcDbEntity
  8
0
100
AcDbLine
 62
250
  6
CONTINUOUS
 10
2.9683742643
 20
-26.2386537364
 11
2.9615385026
 21
-26.4518680538
  0
LINE
  5
452
100
AcDbEntity
  8
0
100
AcDbLine
 62
250
  6
CONTINUOUS
 10
2.9615385026
 20
-26.4518680538
 11
2.954188889
 21
-26.6523150656
  0
LWPOLYLINE
  5
453
100
AcDbEntity
  8
0
100
AcDbPolyline
 62
250
  6
CONTINUOUS
 90
5
 70
0
 10
2.9635847776
 20
-26.237002251
 10
2.9667698123
 20
-26.1585597103
 10
2.9695486487
 20
-26.0795429936
 10
2.9719214865
 20
-25.9999518982
 10
2.973720369
 20
-25.919467636
  0
LWPOLYLINE
  5
454
100
AcDbEntity
  8
RACCORDO
100
AcDbPolyline
 62
250
  6
CONTINUOUS
 90
17
 70
0
 10
4.4708652676
 20
7.3842538806
 10
4.4734770646
 20
7.4468312426
 10
4.4837634771
 20
7.5231579685
 10
4.5015079965
 20
7.5979288295
 10
4.5261664875
 20
7.6705107224
 10
4.55722312
 20
7.7407188264
 10
4.5941586883
 20
7.8083956264
 10
4.6361819582
 20
7.8730237108
 10
4.6826706305
 20
7.9345203801
 10
4.7330322548
 20
7.9928487323
 10
4.7863420796
 20
8.047651737
 10
4.8419682287
 20
8.0989667284
 10
4.8993127796
 20
8.1468527977
 10
4.957387488
 20
8.1910784673
 10
5.015455321
 20
8.2316724099
 10
5.073114482
 20
8.2688856006
 10
5.1298750099
 20
8.3028717155
  0
LINE
  5
455
100
AcDbEntity
  8
0
100
AcDbLine
 62
250
  6
CONTINUOUS
 10
2.954188889
 20
-26.6523150656
 11
2.942398391
 21
-26.9402088512
  0
LINE
  5
456
100
AcDbEntity
  8
0
100
AcDbLine
 62
250
  6
CONTINUOUS
 10
2.942398391
 20
-26.9402088512
 11
2.9336736036
 21
-27.1354451879
  0
LWPOLYLINE
  5
457
100
AcDbEntity
  8
0
100
AcDbPolyline
 62
250
  6
CONTINUOUS
 90
7
 70
0
 10
5.3110790497
 20
2.526699561
 10
5.278402802
 20
2.4490315995
 10
5.2502086442
 20
2.3659600381
 10
5.227751055
 20
2.281917093
 10
5.2114558577
 20
2.1996119952
 10
5.2015571594
 20
2.1205383457
 10
5.1983072943
 20
2.0464934759
  0
LINE
  5
458
100
AcDbEntity
  8
0
100
AcDbLine
 62
250
  6
CONTINUOUS
 10
5.3471599188
 20
2.5968138696
 11
5.3110790497
 21
2.526699561
  0
LWPOLYLINE
  5
459
100
AcDbEntity
  8
0
100
AcDbPolyline
 62
250
  6
CONTINUOUS
 90
3
 70
0
 10
5.4258938382
 20
2.7090482045
 10
5.3857303139
 20
2.6580826552
 10
5.3471599188
 20
2.5968138696
  0
LWPOLYLINE
  5
45A
100
AcDbEntity
  8
0
100
AcDbPolyline
 62
7
  6
CONTINUOUS
 90
7
 70
0
 10
4.9520535097
 20
2.6314946318
 10
4.9805432234
 20
2.6646013368
 10
5.0107447805
 20
2.6965572879
 10
5.0426131921
 20
2.7269030619
 10
5.0760916809
 20
2.7551364327
 10
5.1111104814
 20
2.7807113848
 10
5.1475852795
 20
2.8030372839
  0
LWPOLYLINE
  5
45B
100
AcDbEntity
  8
0
100
AcDbPolyline
 62
250
  6
CONTINUOUS
 90
9
 70
0
 10
15.5900443358
 20
8.1344701869
 10
15.6458032064
 20
8.1815556712
 10
15.6899004579
 20
8.2314245271
 10
15.7223360902
 20
8.2840767546
 10
15.7433380624
 20
8.3409139392
 10
15.7526784155
 20
8.4005344953
 10
15.7496732717
 20
8.4587336666
 10
15.7340946718
 20
8.5141098675
 10
15.7061705749
 20
8.5680646837
  0
LWPOLYLINE
  5
45C
100
AcDbEntity
  8
0
100
AcDbPolyline
 62
7
  6
CONTINUOUS
 90
13
 70
0
 10
-7.6576361065
 20
-10.5030201447
 10
-7.8151483643
 20
-10.6273751774
 10
-7.9389791706
 20
-10.7859821941
 10
-8.0293134913
 20
-10.9789445253
 10
-8.0870975308
 20
-11.212364348
 10
-8.1116056694
 20
-11.4802619145
 10
-8.1004432184
 20
-11.7645773025
 10
-8.0510990319
 20
-12.0663560635
 10
-7.9659842336
 20
-12.384497312
 10
-7.8500231185
 20
-12.69768564
 10
-7.7047466674
 20
-12.998754148
 10
-7.5282715376
 20
-13.2946724208
 10
-7.3203572598
 20
-13.585304404
  0
LWPOLYLINE
  5
45D
100
AcDbEntity
  8
0
100
AcDbPolyline
 62
7
  6
CONTINUOUS
 90
5
 70
0
 10
15.9841291139
 20
7.5490837584
 10
15.5302663265
 20
7.2162464254
 10
15.0677820673
 20
6.8873366327
 10
14.5967779473
 20
6.5624276655
 10
14.1173567921
 20
6.2415926446
  0
LINE
  5
45E
100
AcDbEntity
  8
0
100
AcDbLine
 62
7
  6
CONTINUOUS
 10
14.5349355741
 20
8.4594685522
 11
14.4525463066
 21
8.4038594238
  0
LINE
  5
45F
100
AcDbEntity
  8
0
100
AcDbLine
 62
7
  6
CONTINUOUS
 10
14.540070499
 20
8.4629344004
 11
15.4651734811
 21
9.0873381857
  0
LINE
  5
460
100
AcDbEntity
  8
0
100
AcDbLine
 62
7
  6
CONTINUOUS
 10
14.9557337454
 20
8.6005292194
 11
15.4651734811
 21
8.944378613
  0
LINE
  5
461
100
AcDbEntity
  8
0
100
AcDbLine
 62
7
  6
CONTINUOUS
 10
-7.8876227629
 20
-10.3455504392
 11
-7.7871859588
 21
-10.278178664
  0
LWPOLYLINE
  5
462
100
AcDbEntity
  8
0
100
AcDbPolyline
 62
250
  6
CONTINUOUS
 90
5
 70
0
 10
13.7406330239
 20
6.8393738589
 10
14.2156988249
 20
7.1572199265
 10
14.6822144306
 20
7.4789696316
 10
15.1403296009
 20
7.8047197184
 10
15.5900443358
 20
8.1344701869
  0
LWPOLYLINE
  5
463
100
AcDbEntity
  8
0
100
AcDbPolyline
 62
7
  6
CONTINUOUS
 90
11
 70
0
 10
-8.0199454028
 20
-9.8644732786
 10
-8.1232946584
 20
-9.9319001124
 10
-8.3396797338
 20
-10.1516218062
 10
-8.4935793528
 20
-10.4537613701
 10
-8.5909125706
 20
-10.8304276958
 10
-8.6226568126
 20
-11.2451047855
 10
-8.5822942609
 20
-11.7007582709
 10
-8.4763157178
 20
-12.194407786
 10
-8.315006323
 20
-12.6805055237
 10
-8.092456363
 20
-13.158299438
 10
-7.8135784543
 20
-13.6279896523
  0
LINE
  5
464
100
AcDbEntity
  8
0
100
AcDbLine
 62
250
  6
CONTINUOUS
 10
13.2571667876
 20
6.525528173
 11
13.7406330239
 21
6.8393738589
  0
LINE
  5
465
100
AcDbEntity
  8
0
100
AcDbLine
 62
7
  6
CONTINUOUS
 10
14.1173567921
 20
6.2415926446
 11
13.6296245571
 21
5.9249023807
  0
LWPOLYLINE
  5
466
100
AcDbEntity
  8
0
100
AcDbPolyline
 62
7
  6
CONTINUOUS
 90
13
 70
0
 10
-1.0770338404
 20
-3.120585449
 10
-1.0636154905
 20
-3.1120563091
 10
-1.0181012353
 20
-3.067363532
 10
-0.9866475053
 20
-3.0070903762
 10
-0.9706736099
 20
-2.9339079666
 10
-0.9706746856
 20
-2.8509013985
 10
-0.9866509673
 20
-2.7616679788
 10
-1.0181083755
 20
-2.6702069088
 10
-1.0636275751
 20
-2.5804863082
 10
-1.1209297463
 20
-2.4962394293
 10
-1.1875418771
 20
-2.4211622925
 10
-1.2608920328
 20
-2.3587461421
 10
-1.3379884284
 20
-2.3118577866
  0
LINE
  5
467
100
AcDbEntity
  8
0
100
AcDbLine
 62
7
  6
CONTINUOUS
 10
13.6296245571
 20
5.9249023807
 11
13.1336904162
 21
5.6124253019
  0
LINE
  5
468
100
AcDbEntity
  8
0
100
AcDbLine
 62
7
  6
CONTINUOUS
 10
13.1336904162
 20
5.6124253019
 11
12.6296640992
 21
5.3042303035
  0
LWPOLYLINE
  5
469
100
AcDbEntity
  8
0
100
AcDbPolyline
 62
250
  6
CONTINUOUS
 90
3
 70
0
 10
12.2665306067
 20
5.9108053875
 10
12.7657493952
 20
6.2159731011
 10
13.2571667876
 20
6.525528173
  0
LINE
  5
46A
100
AcDbEntity
  8
0
100
AcDbLine
 62
250
  6
CONTINUOUS
 10
11.7593606622
 20
5.6099282879
 11
12.2665306067
 21
5.9108053875
  0
LINE
  5
46B
100
AcDbEntity
  8
0
100
AcDbLine
 62
7
  6
CONTINUOUS
 10
12.6296640992
 20
5.3042303035
 11
12.1176557558
 21
5.0003867891
  0
LWPOLYLINE
  5
46C
100
AcDbEntity
  8
0
100
AcDbPolyline
 62
250
  6
CONTINUOUS
 90
6
 70
0
 10
11.2442395618
 20
5.3133418024
 10
10.7215135155
 20
5.0106883526
 10
10.1913609645
 20
4.712628444
 10
9.6537819089
 20
4.4191620766
 10
9.1086060004
 20
4.1302011681
 10
8.5560035871
 20
3.8458338008
  0
LINE
  5
46D
100
AcDbEntity
  8
0
100
AcDbLine
 62
7
  6
CONTINUOUS
 10
-2.0469435061
 20
-2.7211815423
 11
-2.0717385616
 21
-2.7354978966
  0
LINE
  5
46E
100
AcDbEntity
  8
0
100
AcDbLine
 62
7
  6
CONTINUOUS
 10
-3.0330246493
 20
-4.0778156942
 11
-3.0578017962
 21
-4.0921217082
  0
LINE
  5
46F
100
AcDbEntity
  8
0
100
AcDbLine
 62
7
  6
CONTINUOUS
 10
-2.0386662067
 20
-4.5924559469
 11
-2.0634614301
 21
-4.6067723981
  0
LINE
  5
470
100
AcDbEntity
  8
0
100
AcDbLine
 62
7
  6
CONTINUOUS
 10
-0.5687038972
 20
-3.7722858435
 11
-0.5935334374
 21
-3.7866221088
  0
LINE
  5
471
100
AcDbEntity
  8
0
100
AcDbLine
 62
7
  6
CONTINUOUS
 10
-0.2161091221
 20
-5.5008077396
 11
-0.2409482049
 21
-5.5151495147
  0
LINE
  5
472
100
AcDbEntity
  8
0
100
AcDbLine
 62
7
  6
CONTINUOUS
 10
12.1176557558
 20
5.0003867891
 11
11.597777948
 21
4.7009624857
  0
LINE
  5
473
100
AcDbEntity
  8
0
100
AcDbLine
 62
250
  6
CONTINUOUS
 10
11.2442395618
 20
5.3133418024
 11
11.7593606622
 21
5.6099282879
  0
LWPOLYLINE
  5
474
100
AcDbEntity
  8
0
100
AcDbPolyline
 62
7
  6
CONTINUOUS
 90
4
 70
0
 10
-0.5931202081
 20
-3.7863835149
 10
-0.6081972952
 20
-3.7947273134
 10
-0.7414713428
 20
-3.8424298684
 10
-0.8920153599
 20
-3.8543282343
  0
LINE
  5
475
100
AcDbEntity
  8
0
100
AcDbLine
 62
7
  6
CONTINUOUS
 10
-1.3125318144
 20
-3.0926247859
 11
-1.3379884284
 21
-3.1066254669
  0
LINE
  5
476
100
AcDbEntity
  8
0
100
AcDbLine
 62
7
  6
CONTINUOUS
 10
-1.2269113766
 20
-1.7364724997
 11
-1.2527923999
 21
-1.7502706511
  0
LWPOLYLINE
  5
477
100
AcDbEntity
  8
0
100
AcDbPolyline
 62
7
  6
CONTINUOUS
 90
10
 70
0
 10
6.5837977635
 20
2.1214502504
 10
7.169233344
 20
2.3886907696
 10
7.7478785289
 20
2.6609160696
 10
8.3196063928
 20
2.9380674814
 10
8.8842922893
 20
3.2200867864
 10
9.4418115842
 20
3.5069116557
 10
9.9920397801
 20
3.7984755987
 10
10.5348555599
 20
4.094714107
 10
11.0701407156
 20
4.3955647333
 10
11.597777948
 20
4.7009624857
  0
LWPOLYLINE
  5
478
100
AcDbEntity
  8
0
100
AcDbPolyline
 62
250
  6
CONTINUOUS
 90
10
 70
0
 10
5.1983097451
 20
2.0464927476
 10
5.3475667042
 20
2.0088918425
 10
5.5038356186
 20
1.9824468676
 10
5.6646568583
 20
1.9675738632
 10
5.8274961205
 20
1.9645161372
 10
5.989799289
 20
1.9733149734
 10
6.1490321136
 20
1.9938126259
 10
6.3026990286
 20
2.0256871869
 10
6.4483829458
 20
2.0684540119
 10
6.5837977602
 20
2.1214502514
  0
LINE
  5
479
100
AcDbEntity
  8
0
100
AcDbLine
 62
7
  6
CONTINUOUS
 10
5.1983097458
 20
2.0440460427
 11
4.5457189463
 21
2.2402232377
  0
LINE
  5
47A
100
AcDbEntity
  8
0
100
AcDbLine
 62
7
  6
CONTINUOUS
 10
4.8227498177
 20
2.7266817181
 11
4.7795539308
 21
2.7401624492
  0
LWPOLYLINE
  5
47B
100
AcDbEntity
  8
0
100
AcDbPolyline
 62
7
  6
CONTINUOUS
 90
3
 70
0
 10
4.5457189463
 20
2.2402232377
 10
3.9177927526
 20
2.4492368651
 10
3.3145697454
 20
2.669973173
  0
LINE
  5
47C
100
AcDbEntity
  8
0
100
AcDbLine
 62
250
  6
CONTINUOUS
 10
5.1482188882
 20
2.8029429565
 11
5.4269271032
 21
2.7087429223
  0
LWPOLYLINE
  5
47D
100
AcDbEntity
  8
0
100
AcDbPolyline
 62
7
  6
CONTINUOUS
 90
5
 70
0
 10
2.9517936977
 20
3.5833180784
 10
3.119398561
 20
3.5185286434
 10
3.3159928353
 20
3.4446004482
 10
3.5363890117
 20
3.3633933375
 10
3.7805870901
 20
3.2749073112
  0
LINE
  5
47E
100
AcDbEntity
  8
0
100
AcDbLine
 62
7
  6
CONTINUOUS
 10
3.3145697454
 20
2.669973173
 11
2.7346793906
 21
2.9004603295
  0
LWPOLYLINE
  5
47F
100
AcDbEntity
  8
0
100
AcDbPolyline
 62
7
  6
CONTINUOUS
 90
6
 70
0
 10
2.7346793906
 20
2.9004603295
 10
2.176282367
 20
3.1377649448
 10
1.6362039604
 20
3.3779582302
 10
1.1111633648
 20
3.618297083
 10
0.5998594639
 20
3.8581893518
 10
0.1028147496
 20
4.0978786008
  0
LWPOLYLINE
  5
480
100
AcDbEntity
  8
0
100
AcDbPolyline
 62
7
  6
CONTINUOUS
 90
6
 70
0
 10
2.2996101202
 20
3.8594563914
 10
2.427071105
 20
3.8025870874
 10
2.5456294401
 20
3.7504631024
 10
2.6724271507
 20
3.6966397355
 10
2.8079907365
 20
3.6408285979
 10
2.9517936977
 20
3.5833180784
  0
LINE
  5
481
100
AcDbEntity
  8
0
100
AcDbLine
 62
7
  6
CONTINUOUS
 10
2.162129407
 20
3.9213717263
 11
2.2996101202
 21
3.8594563914
  0
LINE
  5
482
100
AcDbEntity
  8
0
100
AcDbLine
 62
7
  6
CONTINUOUS
 10
0.2512662376
 20
4.7871678268
 11
1.1894874239
 21
4.363096397
  0
LINE
  5
483
100
AcDbEntity
  8
0
100
AcDbLine
 62
7
  6
CONTINUOUS
 10
1.1894874239
 20
4.363096397
 11
1.8466692433
 21
4.0649809175
  0
LINE
  5
484
100
AcDbEntity
  8
0
100
AcDbLine
 62
7
  6
CONTINUOUS
 10
1.8466692433
 20
4.0649809175
 11
2.162129407
 21
3.9213717263
  0
LINE
  5
485
100
AcDbEntity
  8
0
100
AcDbLine
 62
250
  6
CONTINUOUS
 10
-0.0227112665
 20
4.1550703506
 11
0.102474399
 21
4.097729772
  0
LINE
  5
486
100
AcDbEntity
  8
0
100
AcDbLine
 62
250
  6
CONTINUOUS
 10
-0.071836988
 20
4.1778823873
 11
-0.0227112665
 21
4.1550703506
  0
LWPOLYLINE
  5
487
100
AcDbEntity
  8
0
100
AcDbPolyline
 62
250
  6
CONTINUOUS
 90
5
 70
0
 10
-0.071836988
 20
4.1778823873
 10
-0.8027542092
 20
4.5349139027
 10
-1.5304827073
 20
4.8974309579
 10
-2.2548856189
 20
5.2654464524
 10
-2.9767057251
 20
5.6394329833
  0
LINE
  5
488
100
AcDbEntity
  8
0
100
AcDbLine
 62
250
  6
CONTINUOUS
 10
-0.5060471528
 20
5.1646740195
 11
0.2512662376
 21
4.7871678268
  0
LINE
  5
489
100
AcDbEntity
  8
0
100
AcDbLine
 62
7
  6
CONTINUOUS
 10
3.7805870901
 20
3.2749073112
 11
2.230737207
 21
4.05178094
  0
LINE
  5
48A
100
AcDbEntity
  8
0
100
AcDbLine
 62
7
  6
CONTINUOUS
 10
4.6903767458
 20
2.8661055906
 11
2.2135251776
 21
4.1094874775
  0
LINE
  5
48B
100
AcDbEntity
  8
0
100
AcDbLine
 62
7
  6
CONTINUOUS
 10
4.7795539308
 20
2.7401624492
 11
4.740920159
 21
2.7599597228
  0
LWPOLYLINE
  5
48C
100
AcDbEntity
  8
0
100
AcDbPolyline
 62
250
  6
CONTINUOUS
 90
3
 70
0
 10
-1.9873639893
 20
5.9195347402
 10
-1.2522572284
 20
5.5421296573
 10
-0.5060471528
 20
5.1646740195
  0
LINE
  5
48D
100
AcDbEntity
  8
0
100
AcDbLine
 62
250
  6
CONTINUOUS
 10
-2.7118590791
 20
6.2967035252
 11
-1.9873639893
 21
5.9195347402
  0
LINE
  5
48E
100
AcDbEntity
  8
0
100
AcDbLine
 62
250
  6
CONTINUOUS
 10
-2.9767057251
 20
5.6394329833
 11
-3.6949071443
 21
6.0189506597
  0
LINE
  5
48F
100
AcDbEntity
  8
0
100
AcDbLine
 62
250
  6
CONTINUOUS
 10
-3.4252508542
 20
6.6738217552
 11
-2.7118590791
 21
6.2967035252
  0
LWPOLYLINE
  5
490
100
AcDbEntity
  8
0
100
AcDbPolyline
 62
250
  6
CONTINUOUS
 90
5
 70
0
 10
-3.6949071443
 20
6.0189506597
 10
-4.4067535429
 20
6.4025977957
 10
-5.1113178243
 20
6.7898640934
 10
-5.8094039368
 20
7.181179935
 10
-6.5009433416
 20
7.5765096896
  0
LWPOLYLINE
  5
491
100
AcDbEntity
  8
0
100
AcDbPolyline
 62
7
  6
CONTINUOUS
 90
8
 70
0
 10
4.5345976682
 20
2.8779402283
 10
4.4300836056
 20
2.9360091231
 10
4.3246574624
 20
2.9934186484
 10
4.2183294411
 20
3.0502173918
 10
4.1111301492
 20
3.1065511153
 10
4.0030697895
 20
3.1624684063
 10
3.8941381592
 20
3.2179206775
 10
3.7843352585
 20
3.2729079288
  0
LWPOLYLINE
  5
492
100
AcDbEntity
  8
0
100
AcDbPolyline
 62
250
  6
CONTINUOUS
 90
5
 70
0
 10
-6.1515605697
 20
8.1879186445
 10
-5.4889734198
 20
7.8085879754
 10
-4.8138080245
 20
7.4297639803
 10
-4.1260643838
 20
7.0514466592
 10
-3.4252508542
 20
6.6738217552
  0
LINE
  5
493
100
AcDbEntity
  8
0
100
AcDbLine
 62
7
  6
CONTINUOUS
 10
2.230737207
 20
4.05178094
 11
-13.3256119791
 21
13.0338219932
  0
LINE
  5
494
100
AcDbEntity
  8
0
100
AcDbLine
 62
7
  6
CONTINUOUS
 10
2.2135251776
 20
4.1094874775
 11
-13.3923214831
 21
13.1201077522
  0
LWPOLYLINE
  5
495
100
AcDbEntity
  8
0
100
AcDbPolyline
 62
7
  6
CONTINUOUS
 90
3
 70
0
 10
4.740920159
 20
2.7599700929
 10
4.6382098527
 20
2.8192605516
 10
4.5345976682
 20
2.8779402283
  0
LINE
  5
496
100
AcDbEntity
  8
0
100
AcDbLine
 62
7
  6
CONTINUOUS
 10
-15.4202666081
 20
14.4008255043
 11
-15.5076807287
 21
14.451334595
  0
LINE
  5
497
100
AcDbEntity
  8
0
100
AcDbLine
 62
250
  6
CONTINUOUS
 10
-6.8085837838
 20
8.570518755
 11
-6.1515605697
 21
8.1879186445
  0
LINE
  5
498
100
AcDbEntity
  8
0
100
AcDbLine
 62
7
  6
CONTINUOUS
 10
-15.3323449622
 20
14.3489611657
 11
-15.4202666081
 21
14.4008255043
  0
LINE
  5
499
100
AcDbEntity
  8
0
100
AcDbLine
 62
250
  6
CONTINUOUS
 10
-7.464846882
 20
8.9604467058
 11
-6.8085837838
 21
8.570518755
  0
LINE
  5
49A
100
AcDbEntity
  8
0
100
AcDbLine
 62
7
  6
CONTINUOUS
 10
4.7434497208
 20
2.7585528286
 11
4.8182289645
 21
2.7136223951
  0
LINE
  5
49B
100
AcDbEntity
  8
0
100
AcDbLine
 62
250
  6
CONTINUOUS
 10
-8.1203498641
 20
9.3577024968
 11
-7.464846882
 21
8.9604467058
  0
LINE
  5
49C
100
AcDbEntity
  8
0
100
AcDbLine
 62
7
  6
CONTINUOUS
 10
4.8182289645
 20
2.7136223951
 11
4.8861612954
 21
2.6721249565
  0
LWPOLYLINE
  5
49D
100
AcDbEntity
  8
0
100
AcDbPolyline
 62
250
  6
CONTINUOUS
 90
5
 70
0
 10
-9.1979024045
 20
9.1963178199
 10
-8.5331206072
 20
8.7851184026
 10
-7.8624224332
 20
8.3783320363
 10
-7.1850076776
 20
7.9754503278
 10
-6.5009433416
 20
7.5765096896
  0
LINE
  5
49E
100
AcDbEntity
  8
0
100
AcDbLine
 62
7
  6
CONTINUOUS
 10
4.8861612954
 20
2.6721249565
 11
4.9520535097
 21
2.6314946318
  0
LWPOLYLINE
  5
49F
100
AcDbEntity
  8
0
100
AcDbPolyline
 62
250
  6
CONTINUOUS
 90
4
 70
0
 10
-10.0822981147
 20
10.5934369113
 10
-9.4283859808
 20
10.1748154863
 10
-8.7747479805
 20
9.7625950714
 10
-8.1203498641
 20
9.3577024968
  0
LINE
  5
4A0
100
AcDbEntity
  8
0
100
AcDbLine
 62
250
  6
CONTINUOUS
 10
-10.7368291318
 20
11.018150403
 11
-10.0822981147
 21
10.5934369113
  0
LWPOLYLINE
  5
4A1
100
AcDbEntity
  8
0
100
AcDbPolyline
 62
7
  6
CONTINUOUS
 90
7
 70
0
 10
-14.7930973957
 20
14.0094694587
 10
-14.8846999901
 20
14.069372567
 10
-14.9755831269
 20
14.1279513331
 10
-15.0656761619
 20
14.1852160592
 10
-15.1550497391
 20
14.2411564432
 10
-15.2439157912
 20
14.2957415794
 10
-15.3323449622
 20
14.3489611657
  0
LINE
  5
4A2
100
AcDbEntity
  8
0
100
AcDbLine
 62
7
  6
CONTINUOUS
 10
-13.3923214831
 20
13.1201077522
 11
-15.4641254655
 21
14.4959822269
  0
LINE
  5
4A3
100
AcDbEntity
  8
0
100
AcDbLine
 62
7
  6
CONTINUOUS
 10
-13.3256119791
 20
13.0338219932
 11
-14.7930973957
 21
14.0094694587
  0
LWPOLYLINE
  5
4A4
100
AcDbEntity
  8
0
100
AcDbPolyline
 62
7
  6
CONTINUOUS
 90
6
 70
0
 10
-15.5076807287
 20
14.4512585119
 10
-15.5361571942
 20
14.4701997874
 10
-15.558327617
 20
14.4944380231
 10
-15.5733768761
 20
14.5233910566
 10
-15.5806519677
 20
14.5575406415
 10
-15.5812677393
 20
14.5715438506
  0
LWPOLYLINE
  5
4A5
100
AcDbEntity
  8
0
100
AcDbPolyline
 62
250
  6
CONTINUOUS
 90
3
 70
0
 10
-12.0467135666
 20
11.8867804166
 10
-11.3916342825
 20
11.4492649047
 10
-10.7368291318
 20
11.018150403
  0
LWPOLYLINE
  5
4A6
100
AcDbEntity
  8
0
100
AcDbPolyline
 62
250
  6
CONTINUOUS
 90
6
 70
0
 10
-12.3904387606
 20
11.2903886797
 10
-11.7711151204
 20
10.8678553676
 10
-11.1423944788
 20
10.4472112967
 10
-10.5042544923
 20
10.0285354773
 10
-9.8558170697
 20
9.6113575899
 10
-9.1979024045
 20
9.1963178199
  0
LINE
  5
4A7
100
AcDbEntity
  8
0
100
AcDbLine
 62
250
  6
CONTINUOUS
 10
-12.9682458744
 20
12.5687510767
 11
-13.5676158735
 21
13.0045464737
  0
LWPOLYLINE
  5
4A8
100
AcDbEntity
  8
0
100
AcDbPolyline
 62
7
  6
CONTINUOUS
 90
4
 70
0
 10
-13.7695573154
 20
12.2726141126
 10
-13.3578328255
 20
11.971029492
 10
-12.9475569305
 20
11.6772087068
 10
-12.5383025804
 20
11.391455851
  0
LWPOLYLINE
  5
4A9
100
AcDbEntity
  8
0
100
AcDbPolyline
 62
250
  6
CONTINUOUS
 90
3
 70
0
 10
-12.0467135666
 20
11.8867804166
 10
-12.3571882809
 20
12.1166236376
 10
-12.9682458744
 20
12.5687510767
  0
LWPOLYLINE
  5
4AA
100
AcDbEntity
  8
0
100
AcDbPolyline
 62
250
  6
CONTINUOUS
 90
10
 70
0
 10
-12.3904387606
 20
11.2903886797
 10
-12.4140292632
 20
11.3079108668
 10
-12.4352593954
 20
11.3230545966
 10
-12.454131935
 20
11.3358185219
 10
-12.46989583
 20
11.3449364784
 10
-12.4833071546
 20
11.3516721985
 10
-12.4966271746
 20
11.3598202466
 10
-12.5106089175
 20
11.3706458285
 10
-12.5244991056
 20
11.3828838576
 10
-12.5382978068
 20
11.3965343005
  0
LINE
  5
4AB
100
AcDbEntity
  8
0
100
AcDbLine
 62
7
  6
CONTINUOUS
 10
-14.1805210648
 20
12.5817980617
 11
-13.7695573154
 21
12.2726141126
  0
LWPOLYLINE
  5
4AC
100
AcDbEntity
  8
0
100
AcDbPolyline
 62
250
  6
CONTINUOUS
 90
3
 70
0
 10
-13.5676158735
 20
13.0045464737
 10
-13.8601026765
 20
13.2280447282
 10
-14.1462891626
 20
13.4615300584
  0
LINE
  5
4AD
100
AcDbEntity
  8
0
100
AcDbLine
 62
250
  6
CONTINUOUS
 10
-14.1462891626
 20
13.4615300584
 11
-14.4269260914
 21
13.7018757784
  0
LWPOLYLINE
  5
4AE
100
AcDbEntity
  8
0
100
AcDbPolyline
 62
7
  6
CONTINUOUS
 90
13
 70
0
 10
1.1150261638
 20
14.7161382761
 10
1.1233292571
 20
14.6825342705
 10
1.1505954031
 20
14.6422224028
 10
1.1913813094
 20
14.6111009328
 10
1.2478335383
 20
14.5916995735
 10
1.3178055274
 20
14.5814886118
 10
1.3891336976
 20
14.5806106701
 10
1.4593012709
 20
14.5904081514
 10
1.5308250251
 20
14.6095386527
 10
1.5990917154
 20
14.6341175873
 10
1.6625635932
 20
14.6628500932
 10
1.7227784069
 20
14.6970310324
 10
1.7797361566
 20
14.7366604051
  0
LWPOLYLINE
  5
4AF
100
AcDbEntity
  8
0
100
AcDbPolyline
 62
250
  6
CONTINUOUS
 90
10
 70
0
 10
6.58378579
 20
2.1214593783
 10
6.5788282781
 20
2.1956371924
 10
6.5647422487
 20
2.2745991953
 10
6.5419608374
 20
2.3559316191
 10
6.5111705771
 20
2.4371430786
 10
6.4733242335
 20
2.5157612834
 10
6.4296104805
 20
2.5894079021
 10
6.3813735813
 20
2.6558434584
 10
6.3300739696
 20
2.7130365135
 10
6.2772767527
 20
2.7592455432
  0
LINE
  5
4B0
100
AcDbEntity
  8
0
100
AcDbLine
 62
7
  6
CONTINUOUS
 10
5.1181288016
 20
12.5827941597
 11
5.1181288016
 21
12.6481117818
  0
LINE
  5
4B1
100
AcDbEntity
  8
0
100
AcDbLine
 62
250
  6
CONTINUOUS
 10
5.198309745
 20
-24.8963950668
 11
5.1983097451
 21
2.0464927476
  0
LINE
  5
4B2
100
AcDbEntity
  8
0
100
AcDbLine
 62
7
  6
CONTINUOUS
 10
5.2859029966
 20
3.0172901366
 11
5.2859029966
 21
2.883827422
  0
LINE
  5
4B3
100
AcDbEntity
  8
0
100
AcDbLine
 62
7
  6
CONTINUOUS
 10
5.5012474914
 20
13.0838245138
 11
5.5012474914
 21
13.1491421359
  0
LINE
  5
4B4
100
AcDbEntity
  8
RACCORDO
100
AcDbLine
 62
250
  6
CONTINUOUS
 10
6.3739389389
 20
6.8103168464
 11
6.3739389389
 21
7.1918784198
  0
LINE
  5
4B5
100
AcDbEntity
  8
ASSI
100
AcDbLine
 62
7
  6
CONTINUOUS
 10
6.5033508462
 20
6.4982782887
 11
6.5033508461
 21
7.1992377776
  0
LINE
  5
4B6
100
AcDbEntity
  8
0
100
AcDbLine
 62
250
  6
CONTINUOUS
 10
6.5837977635
 20
-24.8261106745
 11
6.5837977635
 21
2.1214502504
  0
LINE
  5
4B7
100
AcDbEntity
  8
0
100
AcDbLine
 62
250
  6
CONTINUOUS
 10
5.1982950923
 20
-24.8963911066
 11
5.1965633751
 21
-25.1262778503
  0
LINE
  5
4B8
100
AcDbEntity
  8
0
100
AcDbLine
 62
250
  6
CONTINUOUS
 10
5.1965633751
 20
-25.1262778503
 11
5.1940519439
 21
-25.3547751523
  0
LINE
  5
4B9
100
AcDbEntity
  8
0
100
AcDbLine
 62
250
  6
CONTINUOUS
 10
5.1940519439
 20
-25.3547751523
 11
5.1908561625
 21
-25.5819780528
  0
LINE
  5
4BA
100
AcDbEntity
  8
0
100
AcDbLine
 62
250
  6
CONTINUOUS
 10
5.1908561625
 20
-25.5819780528
 11
5.1868840646
 21
-25.8078359626
  0
LINE
  5
4BB
100
AcDbEntity
  8
0
100
AcDbLine
 62
250
  6
CONTINUOUS
 10
5.1655594935
 20
-26.5776766733
 11
5.1617147452
 21
-26.7605775147
  0
LINE
  5
4BC
100
AcDbEntity
  8
0
100
AcDbLine
 62
250
  6
CONTINUOUS
 10
5.1868840646
 20
-25.8078359626
 11
5.1821816343
 21
-26.0161462804
  0
LINE
  5
4BD
100
AcDbEntity
  8
0
100
AcDbLine
 62
250
  6
CONTINUOUS
 10
5.1617147452
 20
-26.7605775147
 11
5.1609452075
 21
-26.7880007103
  0
LWPOLYLINE
  5
4BE
100
AcDbEntity
  8
0
100
AcDbPolyline
 62
250
  6
CONTINUOUS
 90
5
 70
0
 10
5.1821816343
 20
-26.0161462804
 10
5.176778259
 20
-26.205809858
 10
5.1738166731
 20
-26.2996339797
 10
5.1708669733
 20
-26.3928838453
 10
5.1655594935
 20
-26.5776766733
  0
LINE
  5
4BF
100
AcDbEntity
  8
0
100
AcDbLine
 62
250
  6
CONTINUOUS
 10
5.1609452075
 20
-26.7880007103
 11
5.1526574306
 21
-27.0071913005
  0
LWPOLYLINE
  5
4C0
100
AcDbEntity
  8
0
100
AcDbPolyline
 62
250
  6
CONTINUOUS
 90
9
 70
0
 10
6.5319329831
 20
-26.7284389582
 10
6.5425314943
 20
-26.489488864
 10
6.5510768808
 20
-26.251475801
 10
6.556701675
 20
-26.0150750371
 10
6.560304699
 20
-25.7796470569
 10
6.5645395789
 20
-25.543224869
 10
6.570288766
 20
-25.3051507398
 10
6.5766750204
 20
-25.0660888946
 10
6.5837018532
 20
-24.8260436226
  0
LWPOLYLINE
  5
4C1
100
AcDbEntity
  8
0
100
AcDbPolyline
 62
250
  6
CONTINUOUS
 90
6
 70
0
 10
4.9452965387
 20
-31.9143005298
 10
5.0029337055
 20
-30.9973627283
 10
5.0526439023
 20
-30.0509581609
 10
5.0950956779
 20
-29.0676031803
 10
5.1284263835
 20
-28.053000548
 10
5.152657432
 20
-27.0071912657
  0
LINE
  5
4C2
100
AcDbEntity
  8
0
100
AcDbLine
 62
250
  6
CONTINUOUS
 10
4.8711542582
 20
-32.8171511567
 11
4.9452965387
 21
-31.9143005298
  0
LWPOLYLINE
  5
4C3
100
AcDbEntity
  8
0
100
AcDbPolyline
 62
250
  6
CONTINUOUS
 90
10
 70
0
 10
2.9336736036
 20
-27.1354451879
 10
2.843929994
 20
-28.0493106349
 10
2.6646894723
 20
-28.9518979686
 10
2.390439962
 20
-29.8257409202
 10
2.0135288809
 20
-30.6557293508
 10
1.5364812381
 20
-31.4198064247
 10
0.9779069044
 20
-32.099746504
 10
0.3492674561
 20
-32.687303382
 10
-0.3503782066
 20
-33.1732935159
 10
-1.1152080636
 20
-33.5482667274
  0
LWPOLYLINE
  5
4C4
100
AcDbEntity
  8
0
100
AcDbPolyline
 62
250
  6
CONTINUOUS
 90
7
 70
0
 10
2.7521414054
 20
-26.9555938956
 10
2.8022386662
 20
-26.7347682176
 10
2.8190130915
 20
-26.6623264997
 10
2.8361820093
 20
-26.5908227015
 10
2.8538687737
 20
-26.520330911
 10
2.8719904449
 20
-26.4507018883
 10
2.8905639183
 20
-26.3819189728
  0
LWPOLYLINE
  5
4C5
100
AcDbEntity
  8
RACCORDO
100
AcDbPolyline
 62
250
  6
CONTINUOUS
 90
6
 70
0
 10
9.8472476135
 20
7.2237796294
 10
9.8767668402
 20
7.3050916008
 10
9.9038107331
 20
7.409000681
 10
9.9202352048
 20
7.5103807645
 10
9.9269130455
 20
7.6087597491
 10
9.9269223982
 20
7.6548966502
  0
LWPOLYLINE
  5
4C6
100
AcDbEntity
  8
0
100
AcDbPolyline
 62
250
  6
CONTINUOUS
 90
10
 70
0
 10
-7.0845135366
 20
-32.169913073
 10
-6.9856311477
 20
-31.9622817874
 10
-6.8909899557
 20
-31.7564671583
 10
-6.8001331661
 20
-31.5516029058
 10
-6.7123043125
 20
-31.3461545471
 10
-6.627498882
 20
-31.1401925752
 10
-6.5459907366
 20
-30.9343659931
 10
-6.4675632824
 20
-30.7280295531
 10
-6.3914997567
 20
-30.5191546962
 10
-6.3181435912
 20
-30.3086486967
  0
LWPOLYLINE
  5
4C7
100
AcDbEntity
  8
0
100
AcDbPolyline
 62
7
  6
CONTINUOUS
 90
7
 70
0
 10
9.956593057
 20
7.4140727977
 10
9.8686775873
 20
7.2536414532
 10
9.7562726863
 20
7.0970096544
 10
9.62191601
 20
6.9477011975
 10
9.4664534439
 20
6.8068906811
 10
9.2890391024
 20
6.6734035067
 10
9.0896729857
 20
6.5472396741
  0
LINE
  5
4C8
100
AcDbEntity
  8
0
100
AcDbLine
 62
7
  6
CONTINUOUS
 10
-5.0082207262
 20
-14.3405836552
 11
-5.1897065241
 21
-14.5270296102
  0
LWPOLYLINE
  5
4C9
100
AcDbEntity
  8
0
100
AcDbPolyline
 62
7
  6
CONTINUOUS
 90
5
 70
0
 10
-5.3884177723
 20
-14.3495049448
 10
-5.2395395838
 20
-14.2232264529
 10
-5.117910704
 20
-14.0510748767
 10
-5.0260277842
 20
-13.8378214534
 10
-4.9710927542
 20
-13.5976083901
  0
LWPOLYLINE
  5
4CA
100
AcDbEntity
  8
0
100
AcDbPolyline
 62
7
  6
CONTINUOUS
 90
5
 70
0
 10
-5.3389137361
 20
-14.3209219411
 10
-5.1900337788
 20
-14.194642424
 10
-5.0684032963
 20
-14.0224899232
 10
-4.9765190701
 20
-13.8092357504
 10
-4.9215832222
 20
-13.5690222147
  0
LWPOLYLINE
  5
4CB
100
AcDbEntity
  8
0
100
AcDbPolyline
 62
7
  6
CONTINUOUS
 90
19
 70
0
 10
-5.0496724879
 20
-15.0088737344
 10
-4.8559516878
 20
-14.866255452
 10
-4.6558316851
 20
-14.6083407745
 10
-4.5089345847
 20
-14.2738473176
 10
-4.43020125
 20
-13.8934173822
 10
-4.4263782731
 20
-13.4629396054
 10
-4.4909458267
 20
-12.9866638725
 10
-4.6187659331
 20
-12.5076658938
 10
-4.8162386861
 20
-12.0243947529
 10
-5.0761268337
 20
-11.537894314
 10
-5.3728641994
 20
-11.0951522203
 10
-5.7093788232
 20
-10.7011525331
 10
-6.0817360223
 20
-10.350325488
 10
-6.4547642193
 20
-10.0742436215
 10
-6.8282351606
 20
-9.8800020912
 10
-7.2022768548
 20
-9.7604716313
 10
-7.5433166111
 20
-9.7265050329
 10
-7.8493586107
 20
-9.7861608602
 10
-8.0199454028
 20
-9.8644732786
  0
LWPOLYLINE
  5
4CC
100
AcDbEntity
  8
0
100
AcDbPolyline
 62
7
  6
CONTINUOUS
 90
18
 70
0
 10
-5.0001641041
 20
-14.9802882368
 10
-4.8064404007
 20
-14.8376682728
 10
-4.6063169737
 20
-14.5797516367
 10
-4.459417104
 20
-14.2452566195
 10
-4.3806821993
 20
-13.8648257984
 10
-4.3768591462
 20
-13.4343479575
 10
-4.4414279773
 20
-12.9580729348
 10
-4.5692504832
 20
-12.4790763486
 10
-4.7667266493
 20
-11.9958072259
 10
-5.0266187603
 20
-11.5093091242
 10
-5.3233598937
 20
-11.0665692335
 10
-5.6598777893
 20
-10.6725714371
 10
-6.0322373626
 20
-10.3217457372
 10
-6.4052666089
 20
-10.045664432
 10
-6.778737232
 20
-9.8514226792
 10
-7.1527771983
 20
-9.7318911973
 10
-7.4938141327
 20
-9.6979229475
 10
-7.7998525759
 20
-9.7575766854
  0
LINE
  5
4CD
100
AcDbEntity
  8
0
100
AcDbLine
 62
7
  6
CONTINUOUS
 10
-5.1897065241
 20
-14.5270296102
 11
-5.2938969455
 21
-14.5965686201
  0
LINE
  5
4CE
100
AcDbEntity
  8
0
100
AcDbLine
 62
7
  6
CONTINUOUS
 10
-5.4262351959
 20
-14.3723768959
 11
-5.3884177723
 21
-14.3495049448
  0
LINE
  5
4CF
100
AcDbEntity
  8
0
100
AcDbLine
 62
7
  6
CONTINUOUS
 10
-7.6081324587
 20
-10.4744373588
 11
-7.6576361065
 21
-10.5030201447
  0
LINE
  5
4D0
100
AcDbEntity
  8
0
100
AcDbLine
 62
7
  6
CONTINUOUS
 10
-6.9611687741
 20
-10.3996803639
 11
-7.0106673081
 21
-10.4282601971
  0
LINE
  5
4D1
100
AcDbEntity
  8
0
100
AcDbLine
 62
7
  6
CONTINUOUS
 10
-6.0355400969
 20
-10.9341262476
 11
-6.0850386312
 21
-10.962706081
  0
LINE
  5
4D2
100
AcDbEntity
  8
0
100
AcDbLine
 62
7
  6
CONTINUOUS
 10
-6.0355400969
 20
-11.321800215
 11
-6.0850386312
 21
-11.3503800484
  0
LINE
  5
4D3
100
AcDbEntity
  8
0
100
AcDbLine
 62
7
  6
CONTINUOUS
 10
-5.3762804008
 20
-11.7654595959
 11
-5.4257840242
 21
-11.7940423676
  0
LINE
  5
4D4
100
AcDbEntity
  8
0
100
AcDbLine
 62
7
  6
CONTINUOUS
 10
-7.1186716853
 20
-13.3301426375
 11
-7.1681710707
 21
-13.3587229622
  0
LINE
  5
4D5
100
AcDbEntity
  8
0
100
AcDbLine
 62
7
  6
CONTINUOUS
 10
-6.97200086
 20
-13.5201854203
 11
-7.0214994446
 21
-13.5487652827
  0
LINE
  5
4D6
100
AcDbEntity
  8
0
100
AcDbLine
 62
7
  6
CONTINUOUS
 10
-6.3217278767
 20
-13.8972184857
 11
-6.3712255081
 21
-13.9257977977
  0
LINE
  5
4D7
100
AcDbEntity
  8
0
100
AcDbLine
 62
7
  6
CONTINUOUS
 10
-6.024563585
 20
-14.067223303
 11
-6.0740621699
 21
-14.0958031656
  0
LINE
  5
4D8
100
AcDbEntity
  8
0
100
AcDbLine
 62
7
  6
CONTINUOUS
 10
-6.024563585
 20
-14.4527777136
 11
-6.0740621699
 21
-14.4813575762
  0
LWPOLYLINE
  5
4D9
100
AcDbEntity
  8
0
100
AcDbPolyline
 62
7
  6
CONTINUOUS
 90
4
 70
0
 10
-7.7871859588
 20
-10.278178664
 10
-7.6678715356
 20
-10.2208440734
 10
-7.4216754985
 20
-10.1640740237
 10
-7.1465451893
 20
-10.1811727732
  0
LWPOLYLINE
  5
4DA
100
AcDbEntity
  8
0
100
AcDbPolyline
 62
250
  6
CONTINUOUS
 90
3
 70
0
 10
15.6653678848
 20
8.6211921882
 10
15.7419443626
 20
8.637630853
 10
15.8156567159
 20
8.6411927192
  0
LINE
  5
4DB
100
AcDbEntity
  8
0
100
AcDbLine
 62
7
  6
CONTINUOUS
 10
15.6695394303
 20
8.8362937925
 11
15.6979179409
 21
8.8360220972
  0
LWPOLYLINE
  5
4DC
100
AcDbEntity
  8
ASSI
100
AcDbPolyline
 62
7
  6
CONTINUOUS
 90
20
 70
0
 10
8.2903535069
 20
6.926491476
 10
8.27646192
 20
6.9322436449
 10
8.1210542054
 20
6.98799528
 10
7.95900419
 20
7.0380071608
 10
7.7923788782
 20
7.0816413683
 10
7.6211196614
 20
7.1188162057
 10
7.4452851482
 20
7.1496133698
 10
7.2671181692
 20
7.1736400321
 10
7.0865888459
 20
7.1908094637
 10
6.9037270567
 20
7.2012083934
 10
6.7208652676
 20
7.2047041793
 10
6.5380034784
 20
7.2012083935
 10
6.3551416892
 20
7.1908094638
 10
6.1746123659
 20
7.1736400322
 10
5.9964453869
 20
7.1496133699
 10
5.8206108738
 20
7.1188162058
 10
5.6493516569
 20
7.0816413684
 10
5.4827263452
 20
7.038007161
 10
5.3206763298
 20
6.9879952802
 10
5.1652686151
 20
6.9322436451
  0
LWPOLYLINE
  5
4DD
100
AcDbEntity
  8
0
100
AcDbPolyline
 62
250
  6
CONTINUOUS
 90
3
 70
0
 10
-14.6931345259
 20
15.0163671682
 10
-14.6196677324
 20
14.9797378017
 10
-14.5828075337
 20
14.9610867687
  0
LWPOLYLINE
  5
4DE
100
AcDbEntity
  8
0
100
AcDbPolyline
 62
250
  6
CONTINUOUS
 90
9
 70
0
 10
-14.3591129549
 20
14.8448436683
 10
-14.336869895
 20
14.8334134451
 10
-14.3150706822
 20
14.8220560911
 10
-14.2937153166
 20
14.8107716063
 10
-14.2728179019
 20
14.7995537289
 10
-14.2523643344
 20
14.7884087208
 10
-14.2323123025
 20
14.7773553679
 10
-14.2126477023
 20
14.7663999322
 10
-14.1933846377
 20
14.7555361519
  0
LINE
  5
4DF
100
AcDbEntity
  8
0
100
AcDbLine
 62
250
  6
CONTINUOUS
 10
-14.5828075337
 20
14.9610867687
 11
-14.5088896928
 21
14.9230844485
  0
LWPOLYLINE
  5
4E0
100
AcDbEntity
  8
0
100
AcDbPolyline
 62
250
  6
CONTINUOUS
 90
3
 70
0
 10
-14.5088896928
 20
14.9230844485
 10
-14.3968173215
 20
14.8646747699
 10
-14.3591129549
 20
14.8448436683
  0
LINE
  5
4E1
100
AcDbEntity
  8
0
100
AcDbLine
 62
7
  6
CONTINUOUS
 10
-15.6912162405
 20
14.5506599362
 11
-15.618562786
 21
14.5119710366
  0
LINE
  5
4E2
100
AcDbEntity
  8
0
100
AcDbLine
 62
7
  6
CONTINUOUS
 10
-15.618562786
 20
14.5119710366
 11
-15.5708560731
 21
14.4861562425
  0
LWPOLYLINE
  5
4E3
100
AcDbEntity
  8
0
100
AcDbPolyline
 62
7
  6
CONTINUOUS
 90
4
 70
0
 10
-15.5708560731
 20
14.4861562425
 10
-15.5379737467
 20
14.4681212946
 10
-15.5216692454
 20
14.4590979943
 10
-15.5053942678
 20
14.450037813
  0
LINE
  5
4E4
100
AcDbEntity
  8
0
100
AcDbLine
 62
250
  6
CONTINUOUS
 10
-14.1726288418
 20
14.7436750417
 11
-14.054035552
 21
14.6781573823
  0
LINE
  5
4E5
100
AcDbEntity
  8
0
100
AcDbLine
 62
250
  6
CONTINUOUS
 10
-14.054035552
 20
14.6781573823
 11
-13.9357340793
 21
14.6115662897
  0
LWPOLYLINE
  5
4E6
100
AcDbEntity
  8
RACCORDO
100
AcDbPolyline
 62
250
  6
CONTINUOUS
 90
71
 70
0
 10
4.5950676143
 20
6.5650800963
 10
4.6466155493
 20
6.5358762105
 10
4.7005364974
 20
6.5069500204
 10
4.7568304586
 20
6.4783015257
 10
4.8152349083
 20
6.4499416813
 10
4.8760123711
 20
6.4218595324
 10
4.9399504214
 20
6.3940222149
 10
5.0070311547
 20
6.3663681768
 10
5.0772724755
 20
6.33895897
 10
5.1515156709
 20
6.3119463858
 10
5.2297480573
 20
6.2852596611
 10
5.3119823185
 20
6.258969559
 10
5.3990977929
 20
6.2334401601
 10
5.4911100341
 20
6.208582556
 10
5.5880034885
 20
6.1844856551
 10
5.6906108346
 20
6.161780263
 10
5.7989948537
 20
6.1403590136
 10
5.9130927643
 20
6.120329273
 10
6.0335489007
 20
6.1026439453
 10
6.1605630996
 20
6.0871836781
 10
6.2939355242
 20
6.0740678237
 10
6.4337109975
 20
6.0646073438
 10
6.5804414245
 20
6.0587465171
 10
6.7335749002
 20
6.0565410648
 10
6.8915005331
 20
6.0594691114
 10
7.0546354065
 20
6.0676303836
 10
7.2225624372
 20
6.0809251547
 10
7.3924194837
 20
6.1005323699
 10
7.5648138363
 20
6.1268004267
 10
7.7391382046
 20
6.1593809276
 10
7.910708577
 20
6.1984076252
 10
8.0793788067
 20
6.2442948435
 10
8.2452950403
 20
6.2966282583
 10
8.4042117058
 20
6.3542986506
 10
8.5550723644
 20
6.4171519027
 10
8.6989334549
 20
6.4853421322
 10
8.8347187209
 20
6.5582224719
 10
8.9624193549
 20
6.6357624277
 10
9.0820441645
 20
6.7179924938
 10
9.1925433166
 20
6.8043572853
 10
9.2942210636
 20
6.8954486599
 10
9.3867731532
 20
6.9906747599
 10
9.4682369952
 20
7.0877046275
 10
9.5379409962
 20
7.1866707166
 10
9.5965567496
 20
7.2874405733
 10
9.6441364448
 20
7.3872858781
 10
9.6800496049
 20
7.4858799655
 10
9.7049267069
 20
7.5835495011
 10
9.7207113702
 20
7.6785461611
 10
9.7272001484
 20
7.7706192848
 10
9.724596488
 20
7.8600195329
 10
9.7154543486
 20
7.9457505642
 10
9.699850045
 20
8.0274948223
 10
9.6777072625
 20
8.1055698637
 10
9.651351016
 20
8.1799320161
 10
9.6209872289
 20
8.2504470747
 10
9.5864099779
 20
8.3172492444
 10
9.5493265083
 20
8.3806974678
 10
9.5099267527
 20
8.4407513945
 10
9.4680207785
 20
8.4974513748
 10
9.4247460334
 20
8.5512774023
 10
9.3802596544
 20
8.6022194116
 10
9.3344045045
 20
8.6502874681
 10
9.2878466198
 20
8.6959917612
 10
9.2407114718
 20
8.7393388123
 10
9.192873589
 20
8.7803221
 10
9.1446225934
 20
8.8194322497
 10
9.0960682689
 20
8.8566787494
 10
9.0471008316
 20
8.892052111
 10
8.9976805511
 20
8.926014495
 10
8.9477941841
 20
8.9587199547
  0
LINE
  5
4E7
100
AcDbEntity
  8
0
100
AcDbLine
 62
250
  6
CONTINUOUS
 10
-14.0465235089
 20
14.6704268604
 11
-13.9773597543
 21
14.6309738008
  0
LINE
  5
4E8
100
AcDbEntity
  8
0
100
AcDbLine
 62
250
  6
CONTINUOUS
 10
-14.1933846377
 20
14.7555361519
 11
-14.1417692952
 21
14.7260076229
  0
LINE
  5
4E9
100
AcDbEntity
  8
0
100
AcDbLine
 62
250
  6
CONTINUOUS
 10
5.1146409848
 20
3.6074398283
 11
5.128491335
 21
3.5994699477
  0
LINE
  5
4EA
100
AcDbEntity
  8
0
100
AcDbLine
 62
250
  6
CONTINUOUS
 10
-13.9357340793
 20
14.6115662897
 11
-13.817571376
 21
14.5437586532
  0
LINE
  5
4EB
100
AcDbEntity
  8
0
100
AcDbLine
 62
250
  6
CONTINUOUS
 10
5.4496925419
 20
3.5863138042
 11
4.9113312717
 21
3.8971568544
  0
LINE
  5
4EC
100
AcDbEntity
  8
0
100
AcDbLine
 62
7
  6
CONTINUOUS
 10
4.3520575506
 20
6.5472396736
 11
-9.0829712919
 21
14.3044569468
  0
LINE
  5
4ED
100
AcDbEntity
  8
RACCORDO
100
AcDbLine
 62
250
  6
CONTINUOUS
 10
-8.8399612282
 20
14.3222973714
 11
4.5950676143
 21
6.5650800963
  0
LINE
  5
4EE
100
AcDbEntity
  8
0
100
AcDbLine
 62
250
  6
CONTINUOUS
 10
-10.8494407007
 20
12.8300125795
 11
-7.0005046926
 21
10.6075255869
  0
LINE
  5
4EF
100
AcDbEntity
  8
0
100
AcDbLine
 62
250
  6
CONTINUOUS
 10
-7.0005046926
 20
10.6075255869
 11
-4.5264521077
 21
9.178116744
  0
LINE
  5
4F0
100
AcDbEntity
  8
0
100
AcDbLine
 62
250
  6
CONTINUOUS
 10
3.9105936186
 20
4.3069366011
 11
-4.5264521077
 21
9.178116744
  0
LINE
  5
4F1
100
AcDbEntity
  8
0
100
AcDbLine
 62
250
  6
CONTINUOUS
 10
4.8255319468
 20
3.7794209164
 11
3.9105936186
 21
4.3069366011
  0
LWPOLYLINE
  5
4F2
100
AcDbEntity
  8
0
100
AcDbPolyline
 62
250
  6
CONTINUOUS
 90
3
 70
0
 10
-13.817571376
 20
14.5437586532
 10
-13.533170606
 20
14.3791485112
 10
-10.8494407007
 20
12.8300125795
  0
LINE
  5
4F3
100
AcDbEntity
  8
0
100
AcDbLine
 62
250
  6
CONTINUOUS
 10
-13.9773597543
 20
14.6309738008
 11
5.1127565959
 21
3.6085351926
  0
LINE
  5
4F4
100
AcDbEntity
  8
0
100
AcDbLine
 62
250
  6
CONTINUOUS
 10
-14.1417692952
 20
14.7260076229
 11
-14.1096968717
 21
14.7074465477
  0
LINE
  5
4F5
100
AcDbEntity
  8
0
100
AcDbLine
 62
250
  6
CONTINUOUS
 10
5.1127565959
 20
3.6085351926
 11
5.1146409848
 21
3.6074398283
  0
LINE
  5
4F6
100
AcDbEntity
  8
0
100
AcDbLine
 62
250
  6
CONTINUOUS
 10
5.128491335
 20
3.5994699477
 11
5.1418495174
 21
3.591660674
  0
LINE
  5
4F7
100
AcDbEntity
  8
0
100
AcDbLine
 62
250
  6
CONTINUOUS
 10
4.9418658275
 20
3.7111779806
 11
4.8255319468
 21
3.7794209164
  0
LWPOLYLINE
  5
4F8
100
AcDbEntity
  8
0
100
AcDbPolyline
 62
250
  6
CONTINUOUS
 90
7
 70
0
 10
5.4496925419
 20
3.5863138042
 10
5.5028019035
 20
3.5549436078
 10
5.5565419369
 20
3.5239147896
 10
5.6109126423
 20
3.4932273497
 10
5.6659140196
 20
3.4628812881
 10
5.7215460688
 20
3.4328766047
 10
5.7778087898
 20
3.4032132995
  0
LWPOLYLINE
  5
4F9
100
AcDbEntity
  8
0
100
AcDbPolyline
 62
250
  6
CONTINUOUS
 90
3
 70
0
 10
-14.1096968717
 20
14.7074465477
 10
-14.0893046832
 20
14.6953770266
 10
-14.0465235089
 20
14.6704268604
  0
LWPOLYLINE
  5
4FA
100
AcDbEntity
  8
0
100
AcDbPolyline
 62
250
  6
CONTINUOUS
 90
6
 70
0
 10
5.1418495174
 20
3.591660674
 10
5.1556267136
 20
3.5834652167
 10
5.1626823609
 20
3.5792036612
 10
5.1698340783
 20
3.5748187571
 10
5.177099807
 20
3.5703195663
 10
5.2079821782
 20
3.5513117019
  0
LWPOLYLINE
  5
4FB
100
AcDbEntity
  8
0
100
AcDbPolyline
 62
250
  6
CONTINUOUS
 90
7
 70
0
 10
-14.5283212183
 20
15.1276088949
 10
-14.393247357
 20
15.046845458
 10
-14.2551652033
 20
14.9650384418
 10
-14.1140747574
 20
14.8821878463
 10
-13.9699760192
 20
14.7982936715
 10
-13.8228689886
 20
14.7133559174
 10
-13.6727536658
 20
14.627374584
  0
LWPOLYLINE
  5
4FC
100
AcDbEntity
  8
0
100
AcDbPolyline
 62
250
  6
CONTINUOUS
 90
3
 70
0
 10
5.112582684
 20
3.6086411025
 10
5.056140438
 20
3.6428573609
 10
4.9418658275
 20
3.7111779806
  0
LINE
  5
4FD
100
AcDbEntity
  8
0
100
AcDbLine
 62
250
  6
CONTINUOUS
 10
5.2079821782
 20
3.5513117019
 11
5.2595839889
 21
3.5189635574
  0
LWPOLYLINE
  5
4FE
100
AcDbEntity
  8
0
100
AcDbPolyline
 62
7
  6
CONTINUOUS
 90
6
 70
0
 10
-9.0829712919
 20
14.3044569468
 10
-9.2824689936
 20
14.4307203164
 10
-9.4599789426
 20
14.5643031056
 10
-9.6155011391
 20
14.7052053145
 10
-9.7498773604
 20
14.8546058426
 10
-9.862265829
 20
15.0113257904
  0
LINE
  5
4FF
100
AcDbEntity
  8
0
100
AcDbLine
 62
250
  6
CONTINUOUS
 10
5.3900629779
 20
3.4358438621
 11
5.2595839889
 21
3.5189635574
  0
LWPOLYLINE
  5
500
100
AcDbEntity
  8
0
100
AcDbPolyline
 62
250
  6
CONTINUOUS
 90
6
 70
0
 10
5.585042785
 20
3.3080017341
 10
5.5535170458
 20
3.3291867324
 10
5.5216029485
 20
3.35042054
 10
5.489300493
 20
3.3717031567
 10
5.4565835212
 20
3.3930171443
 10
5.3900629779
 20
3.4358438621
  0
LWPOLYLINE
  5
501
100
AcDbEntity
  8
0
100
AcDbPolyline
 62
7
  6
CONTINUOUS
 90
4
 70
0
 10
-4.9043729643
 20
14.5243496593
 10
-4.9290391091
 20
14.544208606
 10
-5.0227094986
 20
14.6101102834
 10
-5.1231733173
 20
14.6720895199
  0
LWPOLYLINE
  5
502
100
AcDbEntity
  8
0
100
AcDbPolyline
 62
7
  6
CONTINUOUS
 90
4
 70
0
 10
1.813141457
 20
10.6457410218
 10
1.7884753122
 20
10.6655999684
 10
1.6948049227
 20
10.7315016458
 10
1.594341104
 20
10.7934808823
  0
LWPOLYLINE
  5
503
100
AcDbEntity
  8
RACCORDO
100
AcDbPolyline
 62
250
  6
CONTINUOUS
 90
11
 70
0
 10
6.4779702897
 20
6.3034305891
 10
6.4525194209
 20
6.3383684591
 10
6.3987889929
 20
6.417921917
 10
6.3478528809
 20
6.5017436919
 10
6.2994846343
 20
6.5899097198
 10
6.2539107036
 20
6.6823440647
 10
6.2131021709
 20
6.7793553092
 10
6.1768138229
 20
6.8812406365
 10
6.1452908727
 20
6.9877028634
 10
6.121240042
 20
7.0981590218
 10
6.1117005378
 20
7.1651560738
  0
LWPOLYLINE
  5
504
100
AcDbEntity
  8
RACCORDO
100
AcDbPolyline
 62
7
  6
CONTINUOUS
 90
9
 70
0
 10
6.6284717796
 20
6.2975700953
 10
6.5776724226
 20
6.3713721022
 10
6.5076170247
 20
6.4897104648
 10
6.4479819224
 20
6.609476455
 10
6.398977829
 20
6.7303893736
 10
6.3609034789
 20
6.8519277731
 10
6.3339844426
 20
6.9736088802
 10
6.3183939308
 20
7.0952644323
 10
6.3147095929
 20
7.1869641266
  0
LINE
  5
505
100
AcDbEntity
  8
0
100
AcDbLine
 62
7
  6
CONTINUOUS
 10
2.0414507921
 20
14.9535817395
 11
2.0194861362
 21
14.9895625518
  0
LWPOLYLINE
  5
506
100
AcDbEntity
  8
0
100
AcDbPolyline
 62
7
  6
CONTINUOUS
 90
9
 70
0
 10
2.6228627691
 20
13.841829292
 10
2.6340495801
 20
13.8162299659
 10
2.6578158675
 20
13.7723785746
 10
2.708537898
 20
13.7348926548
 10
2.7808172305
 20
13.7029718289
 10
2.8576729982
 20
13.6862226527
 10
2.933444912
 20
13.6878473115
 10
3.0137932609
 20
13.70464362
 10
3.098718045
 20
13.7366115783
  0
LINE
  5
507
100
AcDbEntity
  8
0
100
AcDbLine
 62
7
  6
CONTINUOUS
 10
5.9674343626
 20
3.2290884058
 11
5.9407191723
 21
3.2910618671
  0
LINE
  5
508
100
AcDbEntity
  8
0
100
AcDbLine
 62
7
  6
CONTINUOUS
 10
5.9407191723
 20
3.2910618671
 11
5.9138535036
 21
3.3546029212
  0
LWPOLYLINE
  5
509
100
AcDbEntity
  8
0
100
AcDbPolyline
 62
7
  6
CONTINUOUS
 90
3
 70
0
 10
5.9138535036
 20
3.3546029212
 10
5.8872888123
 20
3.4186068647
 10
5.8741204203
 20
3.45078383
  0
LINE
  5
50A
100
AcDbEntity
  8
0
100
AcDbLine
 62
7
  6
CONTINUOUS
 10
2.8254088195
 20
14.4961722529
 11
2.8197487899
 21
14.5132739255
  0
LWPOLYLINE
  5
50B
100
AcDbEntity
  8
0
100
AcDbPolyline
 62
7
  6
CONTINUOUS
 90
9
 70
0
 10
2.8342135356
 20
14.5348958313
 10
2.8198219252
 20
14.5784823966
 10
2.7866533708
 20
14.6172542802
 10
2.7384692092
 20
14.6479343756
 10
2.6712134997
 20
14.6696409961
 10
2.5889421829
 20
14.6832558285
 10
2.507670045
 20
14.6842073075
 10
2.427966061
 20
14.6685245979
 10
2.3492612558
 20
14.6401785349
  0
LWPOLYLINE
  5
50C
100
AcDbEntity
  8
0
100
AcDbPolyline
 62
7
  6
CONTINUOUS
 90
13
 70
0
 10
3.7942937799
 20
13.1691627337
 10
3.8025968733
 20
13.135558728
 10
3.8298630193
 20
13.0952468604
 10
3.8706489256
 20
13.0641253903
 10
3.9271011544
 20
13.0447240311
 10
3.9970731436
 20
13.0345130694
 10
4.0684013138
 20
13.0336351277
 10
4.138568887
 20
13.0434326089
 10
4.2100926413
 20
13.0625631102
 10
4.2783593315
 20
13.0871420448
 10
4.3418312093
 20
13.1158745507
 10
4.4020460231
 20
13.15005549
 10
4.4590037728
 20
13.1896848627
  0
LWPOLYLINE
  5
50D
100
AcDbEntity
  8
0
100
AcDbPolyline
 62
7
  6
CONTINUOUS
 90
13
 70
0
 10
2.0507573473
 20
14.9855924133
 10
2.0441718153
 20
15.0144448965
 10
2.0194637703
 20
15.0548991822
 10
1.9805737608
 20
15.0863906853
 10
1.9247355235
 20
15.1066916879
 10
1.8547153217
 20
15.1180299079
 10
1.7834728451
 20
15.119257464
 10
1.7142039363
 20
15.1080514092
 10
1.6437127526
 20
15.0867346905
 10
1.5753714549
 20
15.0611282679
 10
1.510304097
 20
15.0331724615
 10
1.4473866252
 20
15.0009269513
 10
1.3866190394
 20
14.9643917372
  0
LWPOLYLINE
  5
50E
100
AcDbEntity
  8
0
100
AcDbPolyline
 62
7
  6
CONTINUOUS
 90
13
 70
0
 10
4.7300249635
 20
13.4386168709
 10
4.7234394315
 20
13.467469354
 10
4.6987313864
 20
13.5079236397
 10
4.6598413769
 20
13.5394151428
 10
4.6040031396
 20
13.5597161455
 10
4.5339829379
 20
13.5710543655
 10
4.4627404612
 20
13.5722819216
 10
4.3934715525
 20
13.5610758667
 10
4.3229803687
 20
13.539759148
 10
4.2546390711
 20
13.5141527255
 10
4.1895717132
 20
13.4861969191
 10
4.1266542413
 20
13.4539514088
 10
4.0658866555
 20
13.4174161947
  0
LWPOLYLINE
  5
50F
100
AcDbEntity
  8
RACCORDO
100
AcDbPolyline
 62
7
  6
CONTINUOUS
 90
5
 70
0
 10
9.9269223988
 20
7.6548966227
 10
9.9206066209
 20
7.755001157
 10
9.9058505641
 20
7.8553039547
 10
9.8825564454
 20
7.955472055
 10
9.8506639231
 20
8.0551554192
  0
LINE
  5
510
100
AcDbEntity
  8
DRAFT
100
AcDbLine
 62
7
  6
CONTINUOUS
 10
9.9329920941
 20
7.371004902
 11
9.9269223985
 21
7.6548966218
  0
LINE
  5
511
100
AcDbEntity
  8
0
100
AcDbLine
 62
7
  6
CONTINUOUS
 10
11.597777948
 20
-22.2935189662
 11
11.597777948
 21
4.7009581335
  0
LINE
  5
512
100
AcDbEntity
  8
0
100
AcDbLine
 62
7
  6
CONTINUOUS
 10
11.597777948
 20
-22.2935189662
 11
11.5618712209
 21
-24.2946586136
  0
LWPOLYLINE
  5
513
100
AcDbEntity
  8
0
100
AcDbPolyline
 62
7
  6
CONTINUOUS
 90
3
 70
0
 10
11.5618712209
 20
-24.2946586136
 10
11.4557196615
 20
-26.2453241925
 10
11.2793232699
 20
-28.145515703
  0
LWPOLYLINE
  5
514
100
AcDbEntity
  8
0
100
AcDbPolyline
 62
250
  6
CONTINUOUS
 90
4
 70
0
 10
4.5316220835
 20
-35.4475119768
 10
4.663531187
 20
-34.5866434285
 10
4.776376252
 20
-33.7096604135
 10
4.8711542582
 20
-32.8171511567
  0
LWPOLYLINE
  5
515
100
AcDbEntity
  8
0
100
AcDbPolyline
 62
250
  6
CONTINUOUS
 90
4
 70
0
 10
4.4510616325
 20
-35.9117042187
 10
4.47194338
 20
-35.7957049298
 10
4.4923129607
 20
-35.6796672354
 10
4.5316220835
 20
-35.4475119768
  0
LINE
  5
516
100
AcDbEntity
  8
0
100
AcDbLine
 62
250
  6
CONTINUOUS
 10
4.4078957651
 20
-36.1436109776
 11
4.4510616325
 21
-35.9117042187
  0
LWPOLYLINE
  5
517
100
AcDbEntity
  8
0
100
AcDbPolyline
 62
250
  6
CONTINUOUS
 90
3
 70
0
 10
4.3400458722
 20
-36.4913349002
 10
4.363093666
 20
-36.3754498843
 10
4.4078957651
 20
-36.1436109776
  0
LINE
  5
518
100
AcDbEntity
  8
0
100
AcDbLine
 62
7
  6
CONTINUOUS
 10
14.4185568537
 20
8.2651120465
 11
14.4525463066
 21
8.4038594238
  0
LWPOLYLINE
  5
519
100
AcDbEntity
  8
0
100
AcDbPolyline
 62
250
  6
CONTINUOUS
 90
10
 70
0
 10
4.0165290487
 20
-37.9165800745
 10
4.0559670956
 20
-37.7584376634
 10
4.0945219925
 20
-37.600238943
 10
4.1322071928
 20
-37.4419872895
 10
4.1690652997
 20
-37.2836939969
 10
4.2050800667
 20
-37.1253523781
 10
4.2401786206
 20
-36.9669421189
 10
4.2743478491
 20
-36.8084615505
 10
4.3076319292
 20
-36.6499239869
 10
4.3400458722
 20
-36.4913349002
  0
LINE
  5
51A
100
AcDbEntity
  8
0
100
AcDbLine
 62
7
  6
CONTINUOUS
 10
14.383982514
 20
8.1266821515
 11
14.4185568537
 21
8.2651120465
  0
LINE
  5
51B
100
AcDbEntity
  8
0
100
AcDbLine
 62
7
  6
CONTINUOUS
 10
14.3613556564
 20
8.0375837286
 11
14.383982514
 21
8.1266821515
  0
LWPOLYLINE
  5
51C
100
AcDbEntity
  8
0
100
AcDbPolyline
 62
250
  6
CONTINUOUS
 90
13
 70
0
 10
2.8905639183
 20
-26.3819189728
 10
2.8944562355
 20
-26.3687717012
 10
2.8983941845
 20
-26.3560152142
 10
2.9023788456
 20
-26.3436488835
 10
2.9063782523
 20
-26.3316473003
 10
2.9104263519
 20
-26.3200347751
 10
2.9146239953
 20
-26.3088843934
 10
2.9185208146
 20
-26.2981695163
 10
2.9225688305
 20
-26.2879161436
 10
2.9282358417
 20
-26.2782630439
 10
2.9360340989
 20
-26.2692356743
 10
2.9455062413
 20
-26.2607597228
 10
2.9566881757
 20
-26.2528034547
  0
LINE
  5
51D
100
AcDbEntity
  8
0
100
AcDbLine
 62
7
  6
CONTINUOUS
 10
-5.0107708441
 20
-14.9877471402
 11
-5.0490867621
 21
-15.0098702711
  0
LINE
  5
51E
100
AcDbEntity
  8
0
100
AcDbLine
 62
7
  6
CONTINUOUS
 10
-5.1050497625
 20
-15.9088444765
 11
-5.1545566782
 21
-15.9374291492
  0
LINE
  5
51F
100
AcDbEntity
  8
0
100
AcDbLine
 62
250
  6
CONTINUOUS
 10
-12.3952272182
 20
-23.1475077974
 11
-12.458804219
 21
-23.1843280837
  0
LINE
  5
520
100
AcDbEntity
  8
0
100
AcDbLine
 62
250
  6
CONTINUOUS
 10
-12.458804219
 20
-23.1843280837
 11
-12.5346201076
 21
-23.2275535037
  0
LINE
  5
521
100
AcDbEntity
  8
0
100
AcDbLine
 62
250
  6
CONTINUOUS
 10
-12.5346201076
 20
-23.2275535037
 11
-12.621290299
 21
-23.2763939501
  0
LINE
  5
522
100
AcDbEntity
  8
0
100
AcDbLine
 62
7
  6
CONTINUOUS
 10
-5.2938969455
 20
-14.5965686201
 11
-5.4172802377
 21
-14.6562524557
  0
LWPOLYLINE
  5
523
100
AcDbEntity
  8
0
100
AcDbPolyline
 62
7
  6
CONTINUOUS
 90
3
 70
0
 10
-5.6527548933
 20
-13.9873366755
 10
-5.7333580982
 20
-14.0252664142
 10
-5.9294563311
 20
-14.0739845993
  0
LWPOLYLINE
  5
524
100
AcDbEntity
  8
RACCORDO
100
AcDbPolyline
 62
250
  6
CONTINUOUS
 90
14
 70
0
 10
-0.5611402687
 20
10.2134095076
 10
-0.5073004063
 20
10.2253425795
 10
-0.3647136677
 20
10.2529507653
 10
-0.2208231043
 20
10.2767776543
 10
-0.0761268426
 20
10.2967904397
 10
0.0689052386
 20
10.312958886
 10
0.2138584276
 20
10.3251254359
 10
0.3582449226
 20
10.3332994354
 10
0.5015716734
 20
10.3374905813
 10
0.6434134633
 20
10.3375525751
 10
0.7833192745
 20
10.333536143
 10
0.9207620216
 20
10.3254937949
 10
1.0552086845
 20
10.3133057152
 10
1.0574266138
 20
10.3130309171
  0
LWPOLYLINE
  5
525
100
AcDbEntity
  8
0
100
AcDbPolyline
 62
7
  6
CONTINUOUS
 90
3
 70
0
 10
3.2593167799
 20
14.0835677595
 10
3.390104914
 20
14.0826640285
 10
3.6543247114
 20
14.0819806829
  0
LWPOLYLINE
  5
526
100
AcDbEntity
  8
0
100
AcDbPolyline
 62
7
  6
CONTINUOUS
 90
10
 70
0
 10
4.7298913542
 20
12.7037707697
 10
4.772728365
 20
12.7019143589
 10
4.8156826962
 20
12.6989457758
 10
4.8587543477
 20
12.6948650205
 10
4.9019995856
 20
12.6896318369
 10
4.9453621439
 20
12.6832864811
 10
4.9886732244
 20
12.6759497208
 10
5.0318765612
 20
12.6676618122
 10
5.0750284203
 20
12.6583824992
 10
5.1181288016
 20
12.6481117818
  0
LWPOLYLINE
  5
527
100
AcDbEntity
  8
0
100
AcDbPolyline
 62
7
  6
CONTINUOUS
 90
12
 70
0
 10
0.3690744246
 20
11.0694181013
 10
0.1862126355
 20
11.079817031
 10
0.0033508463
 20
11.0833128169
 10
-0.1795109429
 20
11.079817031
 10
-0.362372732
 20
11.0694181013
 10
-0.5429020553
 20
11.0522486698
 10
-0.7210690344
 20
11.0282220075
 10
-0.8969035475
 20
10.9974248434
 10
-1.0681627643
 20
10.960250006
 10
-1.2347880761
 20
10.9166157985
 10
-1.3968380915
 20
10.8666039178
 10
-1.5522458062
 20
10.8108522827
  0
LWPOLYLINE
  5
528
100
AcDbEntity
  8
0
100
AcDbPolyline
 62
250
  6
CONTINUOUS
 90
4
 70
0
 10
15.8156567159
 20
8.6411927192
 10
15.8848958405
 20
8.631888855
 10
15.9481951068
 20
8.6096359524
 10
16.0034043771
 20
8.5747204851
  0
LWPOLYLINE
  5
529
100
AcDbEntity
  8
0
100
AcDbPolyline
 62
7
  6
CONTINUOUS
 90
10
 70
0
 10
5.0011216602
 20
12.5152357027
 10
4.9396451404
 20
12.5267634685
 10
4.8785207566
 20
12.5361474582
 10
4.8177485089
 20
12.5433876717
 10
4.7570415746
 20
12.5486577378
 10
4.6966867764
 20
12.5517840277
 10
4.6375445821
 20
12.552245655
 10
4.5799018144
 20
12.5498689908
 10
4.5234716507
 20
12.5448276641
 10
4.4682540909
 20
12.5371216747
  0
LWPOLYLINE
  5
52A
100
AcDbEntity
  8
0
100
AcDbPolyline
 62
7
  6
CONTINUOUS
 90
10
 70
0
 10
5.0011216602
 20
12.5805533248
 10
4.9396696343
 20
12.5920779795
 10
4.8785635853
 20
12.6014601275
 10
4.8178035134
 20
12.6086997687
 10
4.7571025483
 20
12.6139711876
 10
4.6967475602
 20
12.6171000998
 10
4.6375991593
 20
12.6175636521
 10
4.5799442159
 20
12.6151875602
 10
4.5234958597
 20
12.6101461084
 10
4.4682540909
 20
12.6024392968
  0
LINE
  5
52B
100
AcDbEntity
  8
RACCORDO
100
AcDbLine
 62
250
  6
CONTINUOUS
 10
0.1724300021
 20
11.0800805154
 11
1.6290346667
 21
10.535617471
  0
LINE
  5
52C
100
AcDbEntity
  8
RACCORDO
100
AcDbLine
 62
7
  6
CONTINUOUS
 10
0.3589344571
 20
11.0699947384
 11
1.6939597298
 21
10.5709767536
  0
LWPOLYLINE
  5
52D
100
AcDbEntity
  8
0
100
AcDbPolyline
 62
7
  6
CONTINUOUS
 90
9
 70
0
 10
1.5728390857
 20
10.8051001135
 10
1.5589474988
 20
10.8108522825
 10
1.4035397841
 20
10.8666039176
 10
1.2414897687
 20
10.9166157984
 10
1.0748644569
 20
10.9602500059
 10
0.9036052401
 20
10.9974248433
 10
0.727770727
 20
11.0282220074
 10
0.5496037479
 20
11.0522486697
 10
0.3690744246
 20
11.0694181013
  0
LINE
  5
52E
100
AcDbEntity
  8
0
100
AcDbLine
 62
7
  6
CONTINUOUS
 10
-11.3015396455
 20
18.3200654781
 11
-11.2301273375
 21
18.28975958
  0
LWPOLYLINE
  5
52F
100
AcDbEntity
  8
DRAFT
100
AcDbPolyline
 62
7
  6
CONTINUOUS
 90
21
 70
0
 10
-5.0469672469
 20
14.4587803098
 10
-5.1829620244
 20
14.5168754703
 10
-5.3254129615
 20
14.5704274255
 10
-5.4737035292
 20
14.6192392769
 10
-5.6259841404
 20
14.6627203296
 10
-5.7820458693
 20
14.7007602935
 10
-5.9420976416
 20
14.7334694588
 10
-6.1049166473
 20
14.7605880016
 10
-6.2708765646
 20
14.7821011647
 10
-6.4396037154
 20
14.7980237054
 10
-6.6087542547
 20
14.8081400712
 10
-6.7779366375
 20
14.8123748002
 10
-6.9475424087
 20
14.8108033543
 10
-7.1164023589
 20
14.8034365665
 10
-7.284903638
 20
14.7901917602
 10
-7.4526590961
 20
14.771151612
 10
-7.6173380733
 20
14.746574985
 10
-7.7785662637
 20
14.7164540523
 10
-7.9367179733
 20
14.6807966409
 10
-8.09058546
 20
14.6398850943
 10
-8.2403714131
 20
14.5936053085
  0
LINE
  5
530
100
AcDbEntity
  8
DRAFT
100
AcDbLine
 62
7
  6
CONTINUOUS
 10
-5.0256065025
 20
14.4484679399
 11
-5.0469672469
 21
14.4587803098
  0
LINE
  5
531
100
AcDbEntity
  8
0
100
AcDbLine
 62
7
  6
CONTINUOUS
 10
2.7600234713
 20
14.3565422352
 11
2.8963270116
 21
14.2889710464
  0
LWPOLYLINE
  5
532
100
AcDbEntity
  8
ASSI
100
AcDbPolyline
 62
7
  6
CONTINUOUS
 90
24
 70
0
 10
8.3118555252
 20
6.9148722448
 10
8.2045112547
 20
6.9728787946
 10
8.0903735548
 20
7.0269629036
 10
7.9708982919
 20
7.0764347099
 10
7.8460170926
 20
7.121235131
 10
7.7157983302
 20
7.1614232495
 10
7.5819029904
 20
7.1964864519
 10
7.4442839769
 20
7.2263590891
 10
7.302988386
 20
7.2511068103
 10
7.1598184921
 20
7.2704139497
 10
7.0147502859
 20
7.2842108143
 10
6.8678077767
 20
7.2925670971
 10
6.7208652676
 20
7.2953762108
 10
6.5739227584
 20
7.2925670972
 10
6.4269802493
 20
7.2842108144
 10
6.281912043
 20
7.2704139497
 10
6.1387421492
 20
7.2511068104
 10
5.9974465583
 20
7.2263590893
 10
5.8598275447
 20
7.1964864521
 10
5.7259322049
 20
7.1614232496
 10
5.5957134425
 20
7.1212351312
 10
5.4708322433
 20
7.0764347101
 10
5.351842269
 20
7.0271928577
 10
5.2381898579
 20
6.9733387026
  0
LWPOLYLINE
  5
533
100
AcDbEntity
  8
0
100
AcDbPolyline
 62
7
  6
CONTINUOUS
 90
24
 70
0
 10
1.594341104
 20
10.7934808823
 10
1.4869968334
 20
10.8514874322
 10
1.3728591336
 20
10.9055715411
 10
1.2533838706
 20
10.9550433475
 10
1.1285026713
 20
10.9998437686
 10
0.9982839089
 20
11.0400318871
 10
0.8643885691
 20
11.0750950895
 10
0.7267695556
 20
11.1049677267
 10
0.5854739647
 20
11.1297154479
 10
0.4423040708
 20
11.1490225872
 10
0.2972358646
 20
11.1628194519
 10
0.1502933554
 20
11.1711757347
 10
0.0033508463
 20
11.1739848484
 10
-0.1435916629
 20
11.1711757347
 10
-0.290534172
 20
11.1628194519
 10
-0.4356023782
 20
11.1490225873
 10
-0.5787722721
 20
11.129715448
 10
-0.720067863
 20
11.1049677268
 10
-0.8576868765
 20
11.0750950896
 10
-0.9915822163
 20
11.0400318872
 10
-1.1218009787
 20
10.9998437687
 10
-1.246682178
 20
10.9550433477
 10
-1.3656721522
 20
10.9058014952
 10
-1.4793245634
 20
10.8519473402
  0
LWPOLYLINE
  5
534
100
AcDbEntity
  8
0
100
AcDbPolyline
 62
7
  6
CONTINUOUS
 90
24
 70
0
 10
-5.1231733173
 20
14.6720895199
 10
-5.2305175879
 20
14.7300960698
 10
-5.3446552877
 20
14.7841801787
 10
-5.4641305507
 20
14.8336519851
 10
-5.5890117499
 20
14.8784524061
 10
-5.7192305123
 20
14.9186405246
 10
-5.8531258522
 20
14.9537037271
 10
-5.9907448657
 20
14.9835763643
 10
-6.1320404566
 20
15.0083240855
 10
-6.2752103504
 20
15.0276312248
 10
-6.4202785567
 20
15.0414280895
 10
-6.5672210658
 20
15.0497843723
 10
-6.714163575
 20
15.052593486
 10
-6.8611060841
 20
15.0497843723
 10
-7.0080485933
 20
15.0414280895
 10
-7.1531167995
 20
15.0276312249
 10
-7.2962866934
 20
15.0083240855
 10
-7.4375822843
 20
14.9835763644
 10
-7.5752012978
 20
14.9537037272
 10
-7.7090966376
 20
14.9186405248
 10
-7.8393154
 20
14.8784524063
 10
-7.9641965993
 20
14.8336519852
 10
-8.0831865735
 20
14.7844101328
 10
-8.1968389846
 20
14.7305559777
  0
LWPOLYLINE
  5
535
100
AcDbEntity
  8
RACCORDO
100
AcDbPolyline
 62
7
  6
CONTINUOUS
 90
39
 70
0
 10
-4.4883610897
 20
16.7870234519
 10
-4.6313492973
 20
16.8646849365
 10
-4.7816212293
 20
16.9368265233
 10
-4.9386304743
 20
17.0032567084
 10
-5.1018570131
 20
17.0638130942
 10
-5.2706986171
 20
17.1183200162
 10
-5.4444389336
 20
17.1665963147
 10
-5.6224056352
 20
17.2085094472
 10
-5.8040227042
 20
17.2439713428
 10
-5.9886684425
 20
17.2728981062
 10
-6.17567095
 20
17.2952174219
 10
-6.3644051282
 20
17.3108830191
 10
-6.5543021089
 20
17.3198657721
 10
-6.7447139932
 20
17.3221442705
 10
-6.9349763173
 20
17.3177160798
 10
-7.1244930544
 20
17.3065941634
 10
-7.3126115772
 20
17.2888089622
 10
-7.4986818505
 20
17.2644101901
 10
-7.6821217976
 20
17.2334549316
 10
-7.8623203978
 20
17.1960174869
 10
-8.0386226026
 20
17.1522000138
 10
-8.2104081723
 20
17.1021188534
 10
-8.3771045891
 20
17.0458947747
 10
-8.5380930173
 20
16.9836827585
 10
-8.6927402681
 20
16.9156722272
 10
-8.8405832733
 20
16.841999544
 10
-8.9810083265
 20
16.762891145
 10
-9.1132703245
 20
16.6787081303
 10
-9.2370474548
 20
16.5895956073
 10
-9.3517893025
 20
16.4958733361
 10
-9.4566391314
 20
16.3982441471
 10
-9.5513010971
 20
16.2970724697
 10
-9.6356071053
 20
16.1926212022
 10
-9.7091463003
 20
16.0855349677
 10
-9.7717783187
 20
15.976257213
 10
-9.8234732504
 20
15.8651085535
 10
-9.8641317339
 20
15.7526401679
 10
-9.8937540003
 20
15.6393592608
 10
-9.9124155367
 20
15.5256905738
  0
LWPOLYLINE
  5
536
100
AcDbEntity
  8
0
100
AcDbPolyline
 62
7
  6
CONTINUOUS
 90
7
 70
0
 10
-8.4208842459
 20
17.0289766598
 10
-8.4904098587
 20
17.0672614828
 10
-8.5975301195
 20
17.1099719009
 10
-8.7102066507
 20
17.1295093241
 10
-8.8289052611
 20
17.1228114516
 10
-8.9531601418
 20
17.0929405842
 10
-9.0829712928
 20
17.0398967219
  0
LWPOLYLINE
  5
537
100
AcDbEntity
  8
RACCORDO
100
AcDbPolyline
 62
250
  6
CONTINUOUS
 90
73
 70
0
 10
-4.5883659217
 20
16.7771152163
 10
-4.6399138567
 20
16.806319102
 10
-4.6938348048
 20
16.8352452922
 10
-4.750128766
 20
16.8638937869
 10
-4.8085332157
 20
16.8922536313
 10
-4.8693106785
 20
16.9203357802
 10
-4.9332487288
 20
16.9481730977
 10
-5.0003294621
 20
16.9758271358
 10
-5.0705707829
 20
17.0032363426
 10
-5.1448139783
 20
17.0302489268
 10
-5.2230463648
 20
17.0569356515
 10
-5.3052806259
 20
17.0832257536
 10
-5.3923961003
 20
17.1087551525
 10
-5.4844083415
 20
17.1336127566
 10
-5.5813017959
 20
17.1577096575
 10
-5.683909142
 20
17.1804150495
 10
-5.7922931611
 20
17.201836299
 10
-5.9063910718
 20
17.2218660396
 10
-6.0268472081
 20
17.2395513673
 10
-6.153861407
 20
17.2550116345
 10
-6.2872338316
 20
17.2681274889
 10
-6.4270093049
 20
17.2775879688
 10
-6.5737397319
 20
17.2834487955
 10
-6.7268732076
 20
17.2856542478
 10
-6.8847988405
 20
17.2827262012
 10
-7.047933714
 20
17.274564929
 10
-7.2158607446
 20
17.2612701579
 10
-7.3857177911
 20
17.2416629427
 10
-7.5581121437
 20
17.2153948859
 10
-7.7324365121
 20
17.182814385
 10
-7.9040068844
 20
17.1437876874
 10
-8.0726771141
 20
17.0979004691
 10
-8.2385933477
 20
17.0455670542
 10
-8.3975100132
 20
16.987896662
 10
-8.5483706718
 20
16.9250434099
 10
-8.6922317623
 20
16.8568531804
 10
-8.8280170283
 20
16.7839728407
 10
-8.9557176623
 20
16.7064328849
 10
-9.0753424719
 20
16.6242028188
 10
-9.185841624
 20
16.5378380273
 10
-9.287519371
 20
16.4467466527
 10
-9.3800714606
 20
16.3515205527
 10
-9.4615353026
 20
16.254490685
 10
-9.5312393036
 20
16.1555245959
 10
-9.589855057
 20
16.0547547393
 10
-9.6374347522
 20
15.9549094345
 10
-9.6733479123
 20
15.856315347
 10
-9.6982250143
 20
15.7586458115
 10
-9.7140096777
 20
15.6636491515
 10
-9.7204984558
 20
15.5715760278
 10
-9.7178947954
 20
15.4821757797
 10
-9.708752656
 20
15.3964447484
 10
-9.6931483524
 20
15.3147004902
 10
-9.6710055699
 20
15.2366254489
 10
-9.6446493234
 20
15.1622632965
 10
-9.6142855363
 20
15.0917482379
 10
-9.5797082853
 20
15.0249460681
 10
-9.5426248157
 20
14.9614978448
 10
-9.5032250601
 20
14.9014439181
 10
-9.4613190859
 20
14.8447439378
 10
-9.4180443408
 20
14.7909179103
 10
-9.3735579618
 20
14.739975901
 10
-9.3277028119
 20
14.6919078445
 10
-9.2811449272
 20
14.6462035514
 10
-9.2340097792
 20
14.6028565003
 10
-9.1861718964
 20
14.5618732125
 10
-9.1379209008
 20
14.5227630629
 10
-9.0893665763
 20
14.4855165632
 10
-9.040399139
 20
14.4501432016
 10
-8.9909788585
 20
14.4161808176
 10
-8.9410924915
 20
14.3834753579
 10
-8.8907532814
 20
14.3521808758
 10
-8.8399612282
 20
14.3222973714
  0
LINE
  5
538
100
AcDbEntity
  8
0
100
AcDbLine
 62
7
  6
CONTINUOUS
 10
11.2363176527
 20
5.3179158134
 11
10.4685312079
 21
5.761226084
  0
LINE
  5
539
100
AcDbEntity
  8
0
100
AcDbLine
 62
7
  6
CONTINUOUS
 10
-10.4618295153
 20
17.8461540465
 11
-11.2301273375
 21
18.28975958
  0
LINE
  5
53A
100
AcDbEntity
  8
RACCORDO
100
AcDbLine
 62
250
  6
CONTINUOUS
 10
8.8466629206
 20
9.0198979404
 11
-4.588365922
 21
16.7771152174
  0
LINE
  5
53B
100
AcDbEntity
  8
RACCORDO
100
AcDbLine
 62
7
  6
CONTINUOUS
 10
8.9466677528
 20
9.0298061767
 11
-4.4883610897
 21
16.7870234519
  0
LINE
  5
53C
100
AcDbEntity
  8
0
100
AcDbLine
 62
7
  6
CONTINUOUS
 10
9.0896729845
 20
9.2826794488
 11
-4.345355858
 21
17.0398967221
  0
LINE
  5
53D
100
AcDbEntity
  8
0
100
AcDbLine
 62
7
  6
CONTINUOUS
 10
2.9751063943
 20
13.3849372332
 11
3.0725584366
 21
13.3286696453
  0
LINE
  5
53E
100
AcDbEntity
  8
0
100
AcDbLine
 62
7
  6
CONTINUOUS
 10
4.390163535
 20
12.5822101829
 11
4.4682540909
 21
12.5371216747
  0
LINE
  5
53F
100
AcDbEntity
  8
0
100
AcDbLine
 62
7
  6
CONTINUOUS
 10
1.5759683485
 20
14.2261698852
 11
2.0647354049
 21
13.9439619126
  0
LINE
  5
540
100
AcDbEntity
  8
0
100
AcDbLine
 62
7
  6
CONTINUOUS
 10
2.9751063943
 20
13.4502548554
 11
3.0725584366
 21
13.3939872675
  0
LINE
  5
541
100
AcDbEntity
  8
0
100
AcDbLine
 62
7
  6
CONTINUOUS
 10
4.390163535
 20
12.6475278051
 11
4.4682540909
 21
12.6024392968
  0
LINE
  5
542
100
AcDbEntity
  8
0
100
AcDbLine
 62
7
  6
CONTINUOUS
 10
1.5759683485
 20
14.2914875074
 11
2.0647354049
 21
14.0092795347
  0
LINE
  5
543
100
AcDbEntity
  8
0
100
AcDbLine
 62
7
  6
CONTINUOUS
 10
2.0838386017
 20
14.1318019236
 11
1.6916206123
 21
14.358263675
  0
LINE
  5
544
100
AcDbEntity
  8
0
100
AcDbLine
 62
7
  6
CONTINUOUS
 10
3.1703124136
 20
14.2961256954
 11
3.540969993
 21
14.0821126545
  0
LINE
  5
545
100
AcDbEntity
  8
0
100
AcDbLine
 62
7
  6
CONTINUOUS
 10
3.1703124136
 20
14.3614433176
 11
3.6543247114
 21
14.0819806829
  0
LWPOLYLINE
  5
546
100
AcDbEntity
  8
RACCORDO
100
AcDbPolyline
 62
250
  6
CONTINUOUS
 90
3
 70
0
 10
8.9477941841
 20
8.9587199547
 10
8.897454974
 20
8.9900144368
 10
8.8466629208
 20
9.0198979412
  0
LWPOLYLINE
  5
547
100
AcDbEntity
  8
0
100
AcDbPolyline
 62
7
  6
CONTINUOUS
 90
8
 70
0
 10
9.0896729845
 20
9.2826794488
 10
9.2891706862
 20
9.1564160792
 10
9.4666806352
 20
9.02283329
 10
9.6222028317
 20
8.8819310812
 10
9.756579053
 20
8.732530553
 10
9.8689675216
 20
8.5758106052
 10
9.9568429061
 20
8.415307937
 10
10.0103462434
 20
8.2809589637
  0
LWPOLYLINE
  5
548
100
AcDbEntity
  8
0
100
AcDbPolyline
 62
7
  6
CONTINUOUS
 90
10
 70
0
 10
11.2363176527
 20
5.3179158134
 10
11.3028746761
 20
5.2711499379
 10
11.3636027631
 20
5.2176045072
 10
11.4185019135
 20
5.1572795213
 10
11.4685984681
 20
5.0883972326
 10
11.5128660861
 20
5.0127353887
 10
11.5482257454
 20
4.9356272326
 10
11.5736511051
 20
4.8588505118
 10
11.5901685059
 20
4.7806274788
 10
11.597777948
 20
4.7009581335
  0
LINE
  5
549
100
AcDbEntity
  8
0
100
AcDbLine
 62
7
  6
CONTINUOUS
 10
3.2102393998
 20
13.6579113366
 11
3.098718045
 21
13.7366115783
  0
LINE
  5
54A
100
AcDbEntity
  8
0
100
AcDbLine
 62
7
  6
CONTINUOUS
 10
2.6663998371
 20
14.2469704705
 11
2.5686465758
 21
14.3224906485
  0
LWPOLYLINE
  5
54B
100
AcDbEntity
  8
ASSI
100
AcDbPolyline
 62
7
  6
CONTINUOUS
 90
4
 70
0
 10
8.5306558783
 20
6.7671323842
 10
8.5059897335
 20
6.7869913308
 10
8.412319344
 20
6.8528930083
 10
8.3118555252
 20
6.9148722448
  0
LWPOLYLINE
  5
54C
100
AcDbEntity
  8
0
100
AcDbPolyline
 62
7
  6
CONTINUOUS
 90
11
 70
0
 10
2.0194861362
 20
14.9895625518
 10
1.9806086118
 20
15.0210546651
 10
1.9247808055
 20
15.0413614814
 10
1.8547695211
 20
15.0527085207
 10
1.7835306243
 20
15.0539435979
 10
1.7142571841
 20
15.0427428133
 10
1.6437561315
 20
15.0214300667
 10
1.5754041249
 20
14.9958248721
 10
1.5103267171
 20
14.9678670677
 10
1.4473983552
 20
14.9356168153
 10
1.3866190394
 20
14.8990741151
  0
LWPOLYLINE
  5
54D
100
AcDbEntity
  8
0
100
AcDbPolyline
 62
7
  6
CONTINUOUS
 90
11
 70
0
 10
4.6987537524
 20
13.4425870094
 10
4.659876228
 20
13.4740791226
 10
4.6040484217
 20
13.4943859389
 10
4.5340371373
 20
13.5057329782
 10
4.4627982405
 20
13.5069680554
 10
4.3935248003
 20
13.4957672709
 10
4.3230237477
 20
13.4744545242
 10
4.2546717411
 20
13.4488493297
 10
4.1895943332
 20
13.4208915252
 10
4.1266659714
 20
13.3886412729
 10
4.0658866555
 20
13.3520985726
  0
LWPOLYLINE
  5
54E
100
AcDbEntity
  8
0
100
AcDbPolyline
 62
250
  6
CONTINUOUS
 90
3
 70
0
 10
9.8002791889
 20
8.1736347875
 10
9.8609553665
 20
8.1212018368
 10
10.0680811652
 20
7.8786806181
  0
LWPOLYLINE
  5
54F
100
AcDbEntity
  8
0
100
AcDbPolyline
 62
7
  6
CONTINUOUS
 90
8
 70
0
 10
2.8197487899
 20
14.5132739255
 10
2.7864832359
 20
14.5520646777
 10
2.7382085831
 20
14.5827406764
 10
2.6708699989
 20
14.6044066845
 10
2.5885223159
 20
14.6179579391
 10
2.5072115369
 20
14.6188457103
 10
2.4275215234
 20
14.6031053944
 10
2.348868414
 20
14.5747015951
  0
LWPOLYLINE
  5
550
100
AcDbEntity
  8
0
100
AcDbPolyline
 62
7
  6
CONTINUOUS
 90
6
 70
0
 10
10.0662213954
 20
7.854659288
 10
10.0481070333
 20
7.8779364439
 10
9.9924196456
 20
7.9425759382
 10
9.9321129037
 20
8.0062528471
 10
9.8669308679
 20
8.0692010612
 10
9.8323297298
 20
8.0998878648
  0
LINE
  5
551
100
AcDbEntity
  8
0
100
AcDbLine
 62
7
  6
CONTINUOUS
 10
4.7207184082
 20
13.406606197
 11
4.6987537524
 21
13.4425870094
  0
LWPOLYLINE
  5
552
100
AcDbEntity
  8
RACCORDO
100
AcDbPolyline
 62
7
  6
CONTINUOUS
 90
12
 70
0
 10
9.8506639231
 20
8.0551554192
 10
9.8101314227
 20
8.1540481187
 10
9.7609084264
 20
8.2519055743
 10
9.7028855074
 20
8.3485787151
 10
9.6361350992
 20
8.4436287538
 10
9.5609706538
 20
8.5364365616
 10
9.477494777
 20
8.6267812943
 10
9.3858534246
 20
8.7144115626
 10
9.2866344131
 20
8.7987424404
 10
9.1802540651
 20
8.8794745069
 10
9.0668408634
 20
8.9565530543
 10
8.9466677528
 20
9.0298061767
  0
LWPOLYLINE
  5
553
100
AcDbEntity
  8
0
100
AcDbPolyline
 62
7
  6
CONTINUOUS
 90
7
 70
0
 10
10.0103462434
 20
8.2809589637
 10
10.019647752
 20
8.2509368333
 10
10.0579395137
 20
8.0827830091
 10
10.0708652219
 20
7.914640309
 10
10.0578483463
 20
7.7465105406
 10
10.0194654173
 20
7.5783918963
 10
9.956593057
 20
7.4140727977
  0
LINE
  5
554
100
AcDbEntity
  8
0
100
AcDbLine
 62
250
  6
CONTINUOUS
 10
9.2021740951
 20
8.8628393919
 11
9.0896729845
 21
9.2826794488
  0
LWPOLYLINE
  5
555
100
AcDbEntity
  8
0
100
AcDbPolyline
 62
250
  6
CONTINUOUS
 90
4
 70
0
 10
15.9841134346
 20
7.5490907465
 10
15.978797204
 20
7.6230614409
 10
15.9615151817
 20
7.7001781176
 10
15.9328012003
 20
7.7780851497
  0
LINE
  5
556
100
AcDbEntity
  8
0
100
AcDbLine
 62
250
  6
CONTINUOUS
 10
15.9885062735
 20
-19.631815487
 11
15.9840129843
 21
-19.3984217891
  0
LWPOLYLINE
  5
557
100
AcDbEntity
  8
0
100
AcDbPolyline
 62
7
  6
CONTINUOUS
 90
8
 70
0
 10
16.2508351612
 20
7.9995828356
 10
16.250462148
 20
8.0245927187
 10
16.2421840113
 20
8.1148478846
 10
16.2226353811
 20
8.2059196275
 10
16.1912165157
 20
8.2971632878
 10
16.147788671
 20
8.3867414519
 10
16.0930625381
 20
8.4722721526
 10
16.03477099
 20
8.5446893719
  0
LINE
  5
558
100
AcDbEntity
  8
0
100
AcDbLine
 62
7
  6
CONTINUOUS
 10
14.9557337454
 20
8.6005292194
 11
14.9557337454
 21
8.4450448532
  0
LINE
  5
559
100
AcDbEntity
  8
0
100
AcDbLine
 62
7
  6
CONTINUOUS
 10
15.4651734811
 20
9.0873381857
 11
15.4651734811
 21
8.944378613
  0
LINE
  5
55A
100
AcDbEntity
  8
0
100
AcDbLine
 62
250
  6
CONTINUOUS
 10
15.5143824213
 20
8.8736495457
 11
15.5143824213
 21
8.980432237
  0
LINE
  5
55B
100
AcDbEntity
  8
0
100
AcDbLine
 62
250
  6
CONTINUOUS
 10
15.9841291139
 20
-19.3984771665
 11
15.9841291139
 21
7.5490837584
  0
LINE
  5
55C
100
AcDbEntity
  8
0
100
AcDbLine
 62
7
  6
CONTINUOUS
 10
16.2508451609
 20
8.001296128
 11
16.2508451601
 21
-18.9429911066
  0
LWPOLYLINE
  5
55D
100
AcDbEntity
  8
0
100
AcDbPolyline
 62
250
  6
CONTINUOUS
 90
4
 70
0
 10
15.987870688
 20
-20.33628861
 10
15.990770624
 20
-20.1006372019
 10
15.990759943
 20
-19.8658887484
 10
15.9885062735
 20
-19.631815487
  0
LINE
  5
55E
100
AcDbEntity
  8
0
100
AcDbLine
 62
250
  6
CONTINUOUS
 10
15.9669388669
 20
-21.2807848093
 11
15.987870688
 21
-20.33628861
  0
LWPOLYLINE
  5
55F
100
AcDbEntity
  8
0
100
AcDbPolyline
 62
250
  6
CONTINUOUS
 90
7
 70
0
 10
16.2508414181
 20
7.9995047132
 10
16.2504370027
 20
7.9825915724
 10
16.2361556341
 20
7.88943271
 10
16.2016874118
 20
7.7980898057
 10
16.1475752611
 20
7.7099953383
 10
16.0746731562
 20
7.6265533336
 10
15.9841291122
 20
7.5490837602
  0
LINE
  5
560
100
AcDbEntity
  8
0
100
AcDbLine
 62
250
  6
CONTINUOUS
 10
15.9612923636
 20
-21.5166018209
 11
15.9669388669
 21
-21.2807848093
  0
LWPOLYLINE
  5
561
100
AcDbEntity
  8
0
100
AcDbPolyline
 62
7
  6
CONTINUOUS
 90
7
 70
0
 10
16.2266378525
 20
-21.0705485939
 10
16.2349118561
 20
-20.8164538196
 10
16.2430242461
 20
-20.4802034839
 10
16.2487805004
 20
-20.1365236744
 10
16.2520687408
 20
-19.7829465196
 10
16.2530019703
 20
-19.414667664
 10
16.2507595631
 20
-18.9393191561
  0
LWPOLYLINE
  5
562
100
AcDbEntity
  8
0
100
AcDbPolyline
 62
7
  6
CONTINUOUS
 90
5
 70
0
 10
15.5879694481
 20
8.8736495457
 10
15.586309659
 20
8.8608188794
 10
15.5768944728
 20
8.8401071757
 10
15.5591593778
 20
8.8185973075
 10
15.5333844544
 20
8.7982836032
  0
LINE
  5
563
100
AcDbEntity
  8
0
100
AcDbLine
 62
7
  6
CONTINUOUS
 10
11.2793232699
 20
-28.145515703
 11
11.0321610891
 21
-29.9981915393
  0
LWPOLYLINE
  5
564
100
AcDbEntity
  8
0
100
AcDbPolyline
 62
7
  6
CONTINUOUS
 90
5
 70
0
 10
11.0321610891
 20
-29.9981915393
 10
10.7147540761
 20
-31.800393307
 10
10.3286651012
 20
-33.543245823
 10
9.8744151211
 20
-35.2237906928
 10
9.351483179
 20
-36.8449863107
  0
LINE
  5
565
100
AcDbEntity
  8
0
100
AcDbLine
 62
250
  6
CONTINUOUS
 10
4.3008422077
 20
-40.4855055547
 11
4.3246614778
 21
-40.4059098958
  0
LWPOLYLINE
  5
566
100
AcDbEntity
  8
0
100
AcDbPolyline
 62
250
  6
CONTINUOUS
 90
10
 70
0
 10
3.6780020611
 20
-39.1260583048
 10
3.7175441695
 20
-38.9951045757
 10
3.756608884
 20
-38.8633007535
 10
3.7951936333
 20
-38.7306473926
 10
3.8332970662
 20
-38.5971480708
 10
3.8709174391
 20
-38.4627940058
 10
3.908052286
 20
-38.3275648761
 10
3.9446998487
 20
-38.1914519505
 10
3.9808591831
 20
-38.0544580201
 10
4.0165290487
 20
-37.9165800745
  0
LWPOLYLINE
  5
567
100
AcDbEntity
  8
0
100
AcDbPolyline
 62
250
  6
CONTINUOUS
 90
7
 70
0
 10
4.3246614778
 20
-40.4059098958
 10
4.3492419338
 20
-40.3260258882
 10
4.361816559
 20
-40.2859773216
 10
4.3746369322
 20
-40.2458417252
 10
4.3877201864
 20
-40.2056145399
 10
4.4010500823
 20
-40.1653010849
 10
4.4146270513
 20
-40.1249017239
  0
LINE
  5
568
100
AcDbEntity
  8
0
100
AcDbLine
 62
250
  6
CONTINUOUS
 10
3.6238162871
 20
-39.2996407224
 11
3.6780020611
 21
-39.1260583048
  0
LWPOLYLINE
  5
569
100
AcDbEntity
  8
0
100
AcDbPolyline
 62
250
  6
CONTINUOUS
 90
10
 70
0
 10
4.4146270513
 20
-40.1249017239
 10
4.8134095684
 20
-38.8572655803
 10
5.1704051952
 20
-37.5368616315
 10
5.4843236438
 20
-36.1644853372
 10
5.7500812839
 20
-34.7387902325
 10
5.9699800488
 20
-33.262809151
 10
6.1552327825
 20
-31.744968315
 10
6.3103457974
 20
-30.189799622
 10
6.4315946304
 20
-28.5969291906
 10
6.5319329831
 20
-26.7284389582
  0
LINE
  5
56A
100
AcDbEntity
  8
0
100
AcDbLine
 62
250
  6
CONTINUOUS
 10
3.5685286999
 20
-39.4731614548
 11
3.6238162871
 21
-39.2996407224
  0
LINE
  5
56B
100
AcDbEntity
  8
0
100
AcDbLine
 62
250
  6
CONTINUOUS
 10
3.5123370561
 20
-39.6466637362
 11
3.5685286999
 21
-39.4731614548
  0
LWPOLYLINE
  5
56C
100
AcDbEntity
  8
0
100
AcDbPolyline
 62
250
  6
CONTINUOUS
 90
3
 70
0
 10
3.4227228141
 20
-39.9123172272
 10
3.4377484244
 20
-39.8685017733
 10
3.5123370561
 20
-39.6466637362
  0
LWPOLYLINE
  5
56D
100
AcDbEntity
  8
0
100
AcDbPolyline
 62
250
  6
CONTINUOUS
 90
3
 70
0
 10
3.3767770514
 20
-40.0423795036
 10
3.3922165531
 20
-39.9992533495
 10
3.4227228141
 20
-39.9123172272
  0
LWPOLYLINE
  5
56E
100
AcDbEntity
  8
0
100
AcDbPolyline
 62
250
  6
CONTINUOUS
 90
3
 70
0
 10
3.1608458081
 20
-40.5115176655
 10
3.1668556735
 20
-40.4968856628
 10
3.1801731545
 20
-40.4640266203
  0
LINE
  5
56F
100
AcDbEntity
  8
0
100
AcDbLine
 62
250
  6
CONTINUOUS
 10
3.1801731545
 20
-40.4640266203
 11
3.189079997
 21
-40.4424702892
  0
LINE
  5
570
100
AcDbEntity
  8
0
100
AcDbLine
 62
250
  6
CONTINUOUS
 10
3.189079997
 20
-40.4424702892
 11
3.1953991187
 21
-40.4273537196
  0
LWPOLYLINE
  5
571
100
AcDbEntity
  8
0
100
AcDbPolyline
 62
250
  6
CONTINUOUS
 90
10
 70
0
 10
1.6670723621
 20
-29.8567652071
 10
1.8212265108
 20
-29.5873693755
 10
1.9673712922
 20
-29.3073547712
 10
2.1050598102
 20
-29.0163305615
 10
2.2332054061
 20
-28.7137293403
 10
2.3516874516
 20
-28.399784504
 10
2.461620772
 20
-28.0749723578
 10
2.5631343422
 20
-27.7389268907
 10
2.6550451621
 20
-27.3905400358
 10
2.7521414054
 20
-26.9555938956
  0
LWPOLYLINE
  5
572
100
AcDbEntity
  8
0
100
AcDbPolyline
 62
250
  6
CONTINUOUS
 90
10
 70
0
 10
2.840873089
 20
-26.3347470797
 10
2.8498906243
 20
-26.3192364993
 10
2.8592420015
 20
-26.3045718294
 10
2.8689274696
 20
-26.2907528408
 10
2.8778579637
 20
-26.2773532071
 10
2.8871221483
 20
-26.2647995337
 10
2.8999913719
 20
-26.2543672405
 10
2.9175633567
 20
-26.2464753139
 10
2.9387573926
 20
-26.2406902573
 10
2.9635847776
 20
-26.237002251
  0
LWPOLYLINE
  5
573
100
AcDbEntity
  8
0
100
AcDbPolyline
 62
250
  6
CONTINUOUS
 90
13
 70
0
 10
1.6670769962
 20
-29.8570179039
 10
1.2019146284
 20
-30.6451983605
 10
0.6580467587
 20
-31.3374699893
 10
0.0457121976
 20
-31.927615638
 10
-0.624910916
 20
-32.4110476984
 10
-1.34501406
 20
-32.7841638775
 10
-2.1072030742
 20
-33.0429928971
 10
-2.902015043
 20
-33.1851744812
 10
-3.7204178797
 20
-33.2111232711
 10
-4.5561783449
 20
-33.1208757567
 10
-5.401747136
 20
-32.9154209809
 10
-6.2475884778
 20
-32.5971036996
 10
-7.0845135366
 20
-32.169913073
  0
LWPOLYLINE
  5
574
100
AcDbEntity
  8
0
100
AcDbPolyline
 62
250
  6
CONTINUOUS
 90
16
 70
0
 10
1.3727282981
 20
-29.3190158424
 10
1.5147301006
 20
-29.1120448345
 10
1.648695486
 20
-28.9047225358
 10
1.774537581
 20
-28.6970957624
 10
1.8914734382
 20
-28.4887544721
 10
2.0001261598
 20
-28.2802186317
 10
2.1025389609
 20
-28.0729250254
 10
2.1986191088
 20
-27.8669512792
 10
2.2883395087
 20
-27.662312088
 10
2.373870902
 20
-27.460329555
 10
2.454457804
 20
-27.2604753869
 10
2.5307602018
 20
-27.0633467783
 10
2.6071146284
 20
-26.8719239979
 10
2.6849806248
 20
-26.6871835639
 10
2.762900621
 20
-26.5081283911
 10
2.840873089
 20
-26.3347470797
  0
LINE
  5
575
100
AcDbEntity
  8
0
100
AcDbLine
 62
250
  6
CONTINUOUS
 10
-12.621290299
 20
-23.2763939501
 11
-12.7680636253
 21
-23.3581739754
  0
LWPOLYLINE
  5
576
100
AcDbEntity
  8
0
100
AcDbPolyline
 62
7
  6
CONTINUOUS
 90
13
 70
0
 10
1.1106078044
 20
15.0258911392
 10
1.0195773418
 20
15.0329228738
 10
0.9386128252
 20
15.0493906829
 10
0.8677142544
 20
15.0752945666
 10
0.8094554689
 20
15.113905672
 10
0.7612626292
 20
15.1619528519
 10
0.7154142178
 20
15.2096226645
 10
0.6742675567
 20
15.2570374889
 10
0.6354653237
 20
15.3040749459
 10
0.5842140347
 20
15.3405544567
 10
0.5155825281
 20
15.3630824949
 10
0.4345019654
 20
15.3750525867
 10
0.3409723466
 20
15.3764647324
  0
LWPOLYLINE
  5
577
100
AcDbEntity
  8
0
100
AcDbPolyline
 62
7
  6
CONTINUOUS
 90
13
 70
0
 10
1.1106078044
 20
15.0912087614
 10
1.0195612621
 20
15.0982509787
 10
0.9385889754
 20
15.1147224888
 10
0.8676909443
 20
15.1406232916
 10
0.8094450043
 20
15.1792197212
 10
0.7612733199
 20
15.2272454435
 10
0.7154423847
 20
15.2749014562
 10
0.6743067021
 20
15.3223174724
 10
0.6355117688
 20
15.3693637789
 10
0.5842605682
 20
15.4058522346
 10
0.5156207616
 20
15.4283867921
 10
0.4345246877
 20
15.4403634988
 10
0.3409723466
 20
15.4417823545
  0
LWPOLYLINE
  5
578
100
AcDbEntity
  8
0
100
AcDbPolyline
 62
7
  6
CONTINUOUS
 90
13
 70
0
 10
0.4841603266
 20
15.5244572996
 10
0.5883576478
 20
15.5099323015
 10
0.6774240186
 20
15.4876377502
 10
0.7513594392
 20
15.4575736459
 10
0.8049490393
 20
15.4164716287
 10
0.8434076892
 20
15.3676000585
 10
0.8823799992
 20
15.3207640146
 10
0.9237475575
 20
15.2766911184
 10
0.9656287758
 20
15.2346537487
 10
1.0180235002
 20
15.2022741205
 10
1.0842650123
 20
15.1820929724
 10
1.1610200304
 20
15.1715695659
 10
1.2482885544
 20
15.1707039009
  0
LWPOLYLINE
  5
579
100
AcDbEntity
  8
0
100
AcDbPolyline
 62
7
  6
CONTINUOUS
 90
7
 70
0
 10
2.292152696
 20
14.2123662605
 10
2.2805802528
 20
14.2147524637
 10
2.1828572618
 20
14.2487155158
 10
2.1091423437
 20
14.2915410388
 10
2.0580877429
 20
14.3466111494
 10
2.0310412149
 20
14.4105437308
 10
2.0265304608
 20
14.4343436537
  0
LWPOLYLINE
  5
57A
100
AcDbEntity
  8
0
100
AcDbPolyline
 62
7
  6
CONTINUOUS
 90
7
 70
0
 10
2.4023113165
 20
14.2549695047
 10
2.280577191
 20
14.2800685096
 10
2.1828529345
 20
14.3140325726
 10
2.1091385469
 20
14.3568616935
 10
2.0580861203
 20
14.4119401682
 10
2.0310435627
 20
14.475883701
 10
2.0265304591
 20
14.4996614562
  0
LINE
  5
57B
100
AcDbEntity
  8
0
100
AcDbLine
 62
250
  6
CONTINUOUS
 10
-5.2790933206
 20
20.8641551334
 11
-5.2759101985
 21
20.8632263952
  0
LINE
  5
57C
100
AcDbEntity
  8
0
100
AcDbLine
 62
250
  6
CONTINUOUS
 10
-5.3250286415
 20
20.7658637044
 11
-5.4204204221
 21
20.7955045093
  0
LINE
  5
57D
100
AcDbEntity
  8
0
100
AcDbLine
 62
250
  6
CONTINUOUS
 10
-5.2303296423
 20
20.7357887342
 11
-5.3250286415
 21
20.7658637044
  0
LINE
  5
57E
100
AcDbEntity
  8
0
100
AcDbLine
 62
250
  6
CONTINUOUS
 10
-5.1338227575
 20
20.7044739537
 11
-5.2303296423
 21
20.7357887342
  0
LWPOLYLINE
  5
57F
100
AcDbEntity
  8
0
100
AcDbPolyline
 62
7
  6
CONTINUOUS
 90
3
 70
0
 10
-4.7415057413
 20
20.6924668974
 10
-5.0469617086
 20
20.793072269
 10
-5.2792000649
 20
20.8642655612
  0
LINE
  5
580
100
AcDbEntity
  8
0
100
AcDbLine
 62
250
  6
CONTINUOUS
 10
-3.3827165501
 20
20.0809688701
 11
-3.8112460238
 21
20.2414233682
  0
LWPOLYLINE
  5
581
100
AcDbEntity
  8
0
100
AcDbPolyline
 62
7
  6
CONTINUOUS
 90
3
 70
0
 10
-4.9016140164
 20
20.7387697533
 10
-4.9235988173
 20
20.7470841233
 10
-4.9453518337
 20
20.755187352
  0
LWPOLYLINE
  5
582
100
AcDbEntity
  8
0
100
AcDbPolyline
 62
7
  6
CONTINUOUS
 90
3
 70
0
 10
-4.8571231183
 20
20.7215654277
 10
-4.8793988175
 20
20.7302430315
 10
-4.9016140164
 20
20.7387697533
  0
LWPOLYLINE
  5
583
100
AcDbEntity
  8
0
100
AcDbPolyline
 62
250
  6
CONTINUOUS
 90
3
 70
0
 10
-2.5621312332
 20
19.7513518429
 10
-2.9663449533
 20
19.917611695
 10
-3.3827165501
 20
20.0809688701
  0
LWPOLYLINE
  5
584
100
AcDbEntity
  8
0
100
AcDbPolyline
 62
7
  6
CONTINUOUS
 90
5
 70
0
 10
-4.7368295235
 20
20.6727840012
 10
-4.7623990488
 20
20.6834072478
 10
-4.7872512206
 20
20.6936027889
 10
-4.8113818822
 20
20.7033773534
 10
-4.8571231183
 20
20.7215654277
  0
LWPOLYLINE
  5
585
100
AcDbEntity
  8
0
100
AcDbPolyline
 62
7
  6
CONTINUOUS
 90
5
 70
0
 10
-2.1061885651
 20
19.6850915283
 10
-2.7684041614
 20
19.9678158024
 10
-3.4785628559
 20
20.2498907461
 10
-4.2367727324
 20
20.5262273824
 10
-4.3697657007
 20
20.570030118
  0
LINE
  5
586
100
AcDbEntity
  8
0
100
AcDbLine
 62
250
  6
CONTINUOUS
 10
-2.1755795769
 20
19.5818581332
 11
-2.5621312332
 21
19.7513518429
  0
LINE
  5
587
100
AcDbEntity
  8
0
100
AcDbLine
 62
250
  6
CONTINUOUS
 10
-0.2435512747
 20
18.7017783956
 11
-1.4224373334
 21
19.2351562253
  0
LINE
  5
588
100
AcDbEntity
  8
0
100
AcDbLine
 62
250
  6
CONTINUOUS
 10
-1.4224373334
 20
19.2351562253
 11
-2.1755795769
 21
19.5818581332
  0
LWPOLYLINE
  5
589
100
AcDbEntity
  8
0
100
AcDbPolyline
 62
7
  6
CONTINUOUS
 90
5
 70
0
 10
0.1149948093
 20
18.6552154203
 10
-0.3882348349
 20
18.8996408071
 10
-0.9190246201
 20
19.149640622
 10
-1.4903778084
 20
19.4113137343
 10
-2.1061885651
 20
19.6850915283
  0
LINE
  5
58A
100
AcDbEntity
  8
0
100
AcDbLine
 62
7
  6
CONTINUOUS
 10
2.7600234713
 20
14.4218598573
 11
2.8963270116
 21
14.3542886685
  0
LWPOLYLINE
  5
58B
100
AcDbEntity
  8
0
100
AcDbPolyline
 62
250
  6
CONTINUOUS
 90
6
 70
0
 10
14.6998362185
 20
8.5707692274
 10
14.6451524271
 20
8.5980158038
 10
14.5901024884
 20
8.625810321
 10
14.5346864024
 20
8.6541527788
 10
14.4789041692
 20
8.6830431774
 10
14.4227557886
 20
8.7124815168
  0
LINE
  5
58C
100
AcDbEntity
  8
0
100
AcDbLine
 62
250
  6
CONTINUOUS
 10
-0.2435512747
 20
18.7017783956
 11
0.5133108407
 21
18.3230310148
  0
LINE
  5
58D
100
AcDbEntity
  8
0
100
AcDbLine
 62
7
  6
CONTINUOUS
 10
-2.2941350364
 20
19.5280615136
 11
-4.6770660025
 21
20.7242951672
  0
LINE
  5
58E
100
AcDbEntity
  8
0
100
AcDbLine
 62
7
  6
CONTINUOUS
 10
-3.8112460238
 20
20.2414233682
 11
-2.313834754
 21
19.4888638446
  0
LWPOLYLINE
  5
58F
100
AcDbEntity
  8
0
100
AcDbPolyline
 62
250
  6
CONTINUOUS
 90
9
 70
0
 10
0.5133108407
 20
18.3230310148
 10
1.2591803255
 20
17.9444959183
 10
1.9940571797
 20
17.566173106
 10
2.7184688636
 20
17.1882572377
 10
3.431887917
 20
16.8105536536
 10
4.1327319592
 20
16.4324783744
 10
4.8204735297
 20
16.0538367403
 10
5.4956400891
 20
15.674823411
 10
6.1582316371
 20
15.2954383867
  0
LINE
  5
590
100
AcDbEntity
  8
0
100
AcDbLine
 62
250
  6
CONTINUOUS
 10
14.1472436444
 20
8.8610695023
 11
14.1417008997
 21
8.863924697
  0
LINE
  5
591
100
AcDbEntity
  8
0
100
AcDbLine
 62
250
  6
CONTINUOUS
 10
15.6589069388
 20
8.0993877522
 11
15.5897985617
 21
8.1361789224
  0
LINE
  5
592
100
AcDbEntity
  8
0
100
AcDbLine
 62
250
  6
CONTINUOUS
 10
14.4227557886
 20
8.7124815168
 11
14.3050963018
 21
8.7751598224
  0
LWPOLYLINE
  5
593
100
AcDbEntity
  8
0
100
AcDbPolyline
 62
250
  6
CONTINUOUS
 90
3
 70
0
 10
14.3050963018
 20
8.7751598224
 10
14.2123872686
 20
8.8253395004
 10
14.1812198323
 20
8.842370497
  0
LINE
  5
594
100
AcDbEntity
  8
0
100
AcDbLine
 62
250
  6
CONTINUOUS
 10
14.1793305344
 20
8.8434613539
 11
14.0932904418
 21
8.8908742053
  0
LWPOLYLINE
  5
595
100
AcDbEntity
  8
0
100
AcDbPolyline
 62
250
  6
CONTINUOUS
 90
7
 70
0
 10
-5.771005002
 20
20.1839735233
 10
-5.6311276379
 20
20.1059835686
 10
-5.4894428579
 20
20.0262566637
 10
-5.3459506621
 20
19.9447928085
 10
-5.2006510503
 20
19.861592003
 10
-5.0535440227
 20
19.7766542473
 10
-4.9046295791
 20
19.6899795413
  0
LINE
  5
596
100
AcDbEntity
  8
0
100
AcDbLine
 62
250
  6
CONTINUOUS
 10
14.0932904418
 20
8.8908742053
 11
13.9855768547
 21
8.9511393032
  0
LWPOLYLINE
  5
597
100
AcDbEntity
  8
0
100
AcDbPolyline
 62
250
  6
CONTINUOUS
 90
7
 70
0
 10
14.2178166286
 20
8.6489187615
 10
14.2721479021
 20
8.6182540817
 10
14.3258879293
 20
8.5872252599
 10
14.3790367101
 20
8.5558322961
 10
14.4315942444
 20
8.5240751901
 10
14.4835605324
 20
8.4919539422
 10
14.5349355741
 20
8.4594685522
  0
LINE
  5
598
100
AcDbEntity
  8
0
100
AcDbLine
 62
250
  6
CONTINUOUS
 10
13.9855768547
 20
8.9511393032
 11
13.8780250067
 21
9.0123679177
  0
LWPOLYLINE
  5
599
100
AcDbEntity
  8
0
100
AcDbPolyline
 62
7
  6
CONTINUOUS
 90
9
 70
0
 10
6.4052149121
 20
15.3182095703
 10
5.7205447657
 20
15.7098157092
 10
4.9434899786
 20
16.1453324603
 10
4.1583681224
 20
16.5760152882
 10
3.3652710523
 20
17.0018148546
 10
2.5642913363
 20
17.4226824762
 10
1.7555222905
 20
17.8385700965
 10
0.9390583092
 20
18.249430114
 10
0.1149948093
 20
18.6552154203
  0
LINE
  5
59A
100
AcDbEntity
  8
0
100
AcDbLine
 62
7
  6
CONTINUOUS
 10
5.5012474914
 20
13.1491421359
 11
5.38008828
 21
13.2190979461
  0
LINE
  5
59B
100
AcDbEntity
  8
0
100
AcDbLine
 62
7
  6
CONTINUOUS
 10
3.9385704972
 20
14.0514122474
 11
3.2859639703
 21
14.428219077
  0
LINE
  5
59C
100
AcDbEntity
  8
0
100
AcDbLine
 62
7
  6
CONTINUOUS
 10
4.3777721958
 20
13.8169013629
 11
4.2802770199
 21
13.8731938555
  0
LINE
  5
59D
100
AcDbEntity
  8
0
100
AcDbLine
 62
250
  6
CONTINUOUS
 10
14.2178166286
 20
8.6489187615
 11
13.6794553584
 21
8.9597618116
  0
LINE
  5
59E
100
AcDbEntity
  8
0
100
AcDbLine
 62
250
  6
CONTINUOUS
 10
14.1812198323
 20
8.842370497
 11
14.1793305344
 21
8.8434613539
  0
LINE
  5
59F
100
AcDbEntity
  8
0
100
AcDbLine
 62
250
  6
CONTINUOUS
 10
14.1165880589
 20
8.8797342026
 11
-4.7554046532
 21
19.7761401433
  0
LINE
  5
5A0
100
AcDbEntity
  8
0
100
AcDbLine
 62
250
  6
CONTINUOUS
 10
-5.1060549033
 20
19.978601203
 11
-5.1079442012
 21
19.9796920599
  0
LINE
  5
5A1
100
AcDbEntity
  8
0
100
AcDbLine
 62
7
  6
CONTINUOUS
 10
13.3117116244
 20
10.5174412389
 11
-2.2941350364
 21
19.5280615136
  0
LINE
  5
5A2
100
AcDbEntity
  8
0
100
AcDbLine
 62
250
  6
CONTINUOUS
 10
-4.7554046532
 20
19.7761401433
 11
-5.0432322247
 21
19.9423743016
  0
LWPOLYLINE
  5
5A3
100
AcDbEntity
  8
0
100
AcDbPolyline
 62
250
  6
CONTINUOUS
 90
3
 70
0
 10
10.4627285321
 20
10.984261385
 10
6.6537214218
 20
13.1838007905
 10
4.5331538003
 20
14.4090196517
  0
LINE
  5
5A4
100
AcDbEntity
  8
0
100
AcDbLine
 62
250
  6
CONTINUOUS
 10
-3.903891926
 20
19.2801997946
 11
4.5331538003
 21
14.4090196517
  0
LINE
  5
5A5
100
AcDbEntity
  8
0
100
AcDbLine
 62
250
  6
CONTINUOUS
 10
-4.8188103912
 20
19.8077039394
 11
-3.903891926
 21
19.2801997946
  0
LINE
  5
5A6
100
AcDbEntity
  8
0
100
AcDbLine
 62
250
  6
CONTINUOUS
 10
13.8780250067
 20
9.0123679177
 11
10.4627285321
 21
10.984261385
  0
LINE
  5
5A7
100
AcDbEntity
  8
0
100
AcDbLine
 62
250
  6
CONTINUOUS
 10
6.1582316371
 20
15.2954383867
 11
6.8152578258
 21
14.9128968883
  0
LWPOLYLINE
  5
5A8
100
AcDbEntity
  8
0
100
AcDbPolyline
 62
250
  6
CONTINUOUS
 90
5
 70
0
 10
-5.0859710037
 20
19.9661847603
 10
-5.0756076815
 20
19.9601043422
 10
-5.0650301109
 20
19.9541091264
 10
-5.054238292
 20
19.9481991129
 10
-5.0432322247
 20
19.9423743016
  0
LWPOLYLINE
  5
5A9
100
AcDbEntity
  8
0
100
AcDbPolyline
 62
250
  6
CONTINUOUS
 90
5
 70
0
 10
14.1363315471
 20
8.8668821273
 10
14.1311355867
 20
8.8699417929
 10
14.1261130186
 20
8.873103694
 10
14.1212638426
 20
8.8763678306
 10
14.1165880589
 20
8.8797342026
  0
LINE
  5
5AA
100
AcDbEntity
  8
0
100
AcDbLine
 62
250
  6
CONTINUOUS
 10
-4.9351641349
 20
19.875958415
 11
-4.8188103912
 21
19.8077039394
  0
LWPOLYLINE
  5
5AB
100
AcDbEntity
  8
0
100
AcDbPolyline
 62
250
  6
CONTINUOUS
 90
9
 70
0
 10
6.8152578258
 20
14.9128968883
 10
7.4715228855
 20
14.5231600764
 10
8.1270268164
 20
14.1262279509
 10
8.7814549586
 20
13.7218207055
 10
9.435121972
 20
13.3102181466
 10
10.0889718356
 20
12.8922596935
 10
10.7433192093
 20
12.4682251526
 10
11.3978494333
 20
12.0378347174
 10
12.0525625076
 20
11.6010883881
  0
LWPOLYLINE
  5
5AC
100
AcDbEntity
  8
0
100
AcDbPolyline
 62
250
  6
CONTINUOUS
 90
3
 70
0
 10
-5.1060549033
 20
19.978601203
 10
-5.0495358044
 20
19.944337606
 10
-4.9351641349
 20
19.875958415
  0
LINE
  5
5AD
100
AcDbEntity
  8
0
100
AcDbLine
 62
250
  6
CONTINUOUS
 10
-5.165128004
 20
20.0146649452
 11
-5.1079442012
 21
19.9796920599
  0
LINE
  5
5AE
100
AcDbEntity
  8
0
100
AcDbLine
 62
250
  6
CONTINUOUS
 10
-5.222782744
 20
20.0502854822
 11
-5.165128004
 21
20.0146649452
  0
LWPOLYLINE
  5
5AF
100
AcDbEntity
  8
0
100
AcDbPolyline
 62
250
  6
CONTINUOUS
 90
7
 70
0
 10
-5.222782744
 20
20.0502854822
 10
-5.3312050292
 20
20.1180934853
 10
-5.3812118388
 20
20.1498561067
 10
-5.43092885
 20
20.181841535
 10
-5.4803560626
 20
20.2140497702
 10
-5.5294934768
 20
20.2464808124
 10
-5.5783410924
 20
20.2791346615
  0
LINE
  5
5B0
100
AcDbEntity
  8
0
100
AcDbLine
 62
250
  6
CONTINUOUS
 10
-5.1060549033
 20
19.978601203
 11
-5.0961200777
 21
19.9723503805
  0
LINE
  5
5B1
100
AcDbEntity
  8
0
100
AcDbLine
 62
7
  6
CONTINUOUS
 10
13.3323136717
 20
10.4616920552
 11
14.6795841534
 21
9.5678445109
  0
LINE
  5
5B2
100
AcDbEntity
  8
0
100
AcDbLine
 62
7
  6
CONTINUOUS
 10
15.4651734811
 20
9.0873381857
 11
13.3117116244
 21
10.5174412389
  0
LWPOLYLINE
  5
5B3
100
AcDbEntity
  8
0
100
AcDbPolyline
 62
7
  6
CONTINUOUS
 90
10
 70
0
 10
12.3175211728
 20
11.5947817404
 10
12.1743565451
 20
11.6929845597
 10
11.4111606645
 20
12.2091764084
 10
10.6375858059
 20
12.7201837936
 10
9.8537401418
 20
13.2259380969
 10
9.0597318046
 20
13.7263723057
 10
8.255668954
 20
14.2214208695
 10
7.4416624563
 20
14.7110180184
 10
6.6178257882
 20
15.1950979216
 10
6.4051974709
 20
15.3182196404
  0
LINE
  5
5B4
100
AcDbEntity
  8
0
100
AcDbLine
 62
250
  6
CONTINUOUS
 10
15.7258095645
 20
8.0512036817
 11
15.6589069388
 21
8.0993877522
  0
LINE
  5
5B5
100
AcDbEntity
  8
0
100
AcDbLine
 62
7
  6
CONTINUOUS
 10
12.9834559916
 20
10.9177844622
 11
13.5556271912
 21
10.4998345528
  0
LWPOLYLINE
  5
5B6
100
AcDbEntity
  8
0
100
AcDbPolyline
 62
7
  6
CONTINUOUS
 90
3
 70
0
 10
12.0525625076
 20
11.6010883881
 10
12.3222711407
 20
11.4028602936
 10
12.9834559916
 20
10.9177844622
  0
LINE
  5
5B7
100
AcDbEntity
  8
0
100
AcDbLine
 62
7
  6
CONTINUOUS
 10
13.5556271912
 20
10.4998345528
 11
13.6631224419
 21
10.4206059876
  0
LWPOLYLINE
  5
5B8
100
AcDbEntity
  8
0
100
AcDbPolyline
 62
7
  6
CONTINUOUS
 90
8
 70
0
 10
13.6631224419
 20
10.4206059876
 10
13.7618671984
 20
10.3471562934
 10
13.8523874336
 20
10.2788434609
 10
13.9458967094
 20
10.2057997689
 10
14.0428945532
 20
10.1277215185
 10
14.1428814376
 20
10.0449124087
 10
14.2555723419
 20
9.9484158154
 10
14.3842055925
 20
9.8352461973
  0
LWPOLYLINE
  5
5B9
100
AcDbEntity
  8
0
100
AcDbPolyline
 62
7
  6
CONTINUOUS
 90
6
 70
0
 10
13.8161685689
 20
10.5201379205
 10
13.4742542283
 20
10.7747702908
 10
13.1412239762
 20
11.017438285
 10
12.8168650751
 20
11.249311615
 10
12.5031704615
 20
11.4680415588
 10
12.3234048418
 20
11.5906201543
  0
LINE
  5
5BA
100
AcDbEntity
  8
0
100
AcDbLine
 62
7
  6
CONTINUOUS
 10
15.45376384
 20
9.0259293609
 11
15.5143824213
 21
8.980432237
  0
LWPOLYLINE
  5
5BB
100
AcDbEntity
  8
0
100
AcDbPolyline
 62
7
  6
CONTINUOUS
 90
5
 70
0
 10
15.2664663591
 20
9.3275107902
 10
14.8971092508
 20
9.6574732287
 10
14.5316463484
 20
9.963399429
 10
14.1692932187
 20
10.2500166324
 10
13.8161685689
 20
10.5201379205
  0
LWPOLYLINE
  5
5BC
100
AcDbEntity
  8
0
100
AcDbPolyline
 62
7
  6
CONTINUOUS
 90
3
 70
0
 10
14.3842055925
 20
9.8352461973
 10
14.525542863
 20
9.7083890958
 10
14.6795841534
 20
9.5678445109
  0
LWPOLYLINE
  5
5BD
100
AcDbEntity
  8
0
100
AcDbPolyline
 62
7
  6
CONTINUOUS
 90
6
 70
0
 10
15.5143824213
 20
8.980432237
 10
15.5432610917
 20
8.9544716321
 10
15.5654976906
 20
8.9286257035
 10
15.5803919825
 20
8.9035345552
 10
15.5874223011
 20
8.8810657979
 10
15.5879694481
 20
8.8736495457
  0
LINE
  5
5BE
100
AcDbEntity
  8
0
100
AcDbLine
 62
250
  6
CONTINUOUS
 10
16.0034043771
 20
8.5747204851
 11
16.03477099
 21
8.5446893719
  0
LINE
  5
5BF
100
AcDbEntity
  8
0
100
AcDbLine
 62
7
  6
CONTINUOUS
 10
15.6350431395
 20
8.9704306196
 11
15.2664663591
 21
9.3275107902
  0
LINE
  5
5C0
100
AcDbEntity
  8
0
100
AcDbLine
 62
250
  6
CONTINUOUS
 10
15.5017525955
 20
8.7809435589
 11
15.6659009812
 21
8.620598115
  0
LINE
  5
5C1
100
AcDbEntity
  8
0
100
AcDbLine
 62
7
  6
CONTINUOUS
 10
15.9965747646
 20
8.5862676204
 11
15.6350431395
 21
8.9704306196
  0
LINE
  5
5C2
100
AcDbEntity
  8
0
100
AcDbLine
 62
7
  6
CONTINUOUS
 10
16.0341677518
 20
8.5443446517
 11
15.9965747646
 21
8.5862676204
  0
LINE
  5
5C3
100
AcDbEntity
  8
0
100
AcDbLine
 62
250
  6
CONTINUOUS
 10
15.7061705749
 20
8.5680646837
 11
15.6659009812
 21
8.620598115
  0
LWPOLYLINE
  5
5C4
100
AcDbEntity
  8
0
100
AcDbPolyline
 62
250
  6
CONTINUOUS
 90
5
 70
0
 10
15.9328012003
 20
7.7780851497
 10
15.893547942
 20
7.8544101803
 10
15.8449499481
 20
7.926820517
 10
15.7884650523
 20
7.9930932378
 10
15.7258095645
 20
8.0512036817
  0
LWPOLYLINE
  5
5C5
100
AcDbEntity
  8
0
100
AcDbPolyline
 62
250
  6
CONTINUOUS
 90
6
 70
0
 10
16.2266378525
 20
-21.0705485939
 10
16.2112184759
 20
-21.1688094222
 10
16.1761127899
 20
-21.262946829
 10
16.122204009
 20
-21.3530352018
 10
16.0503142536
 20
-21.4379907338
 10
15.9612923624
 20
-21.5166018556
  0
LINE
  5
5C6
100
AcDbEntity
  8
0
100
AcDbLine
 62
7
  6
CONTINUOUS
 10
9.351483179
 20
-36.8449863107
 11
8.7598692751
 21
-38.4068326769
  0
LWPOLYLINE
  5
5C7
100
AcDbEntity
  8
0
100
AcDbPolyline
 62
250
  6
CONTINUOUS
 90
9
 70
0
 10
3.1953991187
 20
-40.4273537196
 10
3.2020163978
 20
-40.4116207471
 10
3.2087012213
 20
-40.3959342049
 10
3.2154524952
 20
-40.3802933421
 10
3.2222665241
 20
-40.3646960388
 10
3.2291447425
 20
-40.349142849
 10
3.2360936314
 20
-40.3336369106
 10
3.2431144464
 20
-40.3181785965
 10
3.2502033
 20
-40.302765604
  0
LWPOLYLINE
  5
5C8
100
AcDbEntity
  8
0
100
AcDbPolyline
 62
250
  6
CONTINUOUS
 90
10
 70
0
 10
3.3792031144
 20
-40.0407222326
 10
3.3762701042
 20
-40.0475424928
 10
3.3733013936
 20
-40.0543352984
 10
3.3702965133
 20
-40.0611009077
 10
3.3672550316
 20
-40.0678396013
 10
3.3641766175
 20
-40.0745515413
 10
3.3610610437
 20
-40.0812367703
 10
3.3579080982
 20
-40.0878954013
 10
3.3547175791
 20
-40.0945276204
 10
3.3514893601
 20
-40.1011335436
  0
LWPOLYLINE
  5
5C9
100
AcDbEntity
  8
0
100
AcDbPolyline
 62
250
  6
CONTINUOUS
 90
6
 70
0
 10
4.3007456177
 20
-40.4855891515
 10
4.1423443788
 20
-40.8256673289
 10
3.9289372737
 20
-41.1116530104
 10
3.6630870907
 20
-41.3406941992
 10
3.347287086
 20
-41.5098896586
 10
3.2850568272
 20
-41.533904374
  0
LWPOLYLINE
  5
5CA
100
AcDbEntity
  8
0
100
AcDbPolyline
 62
250
  6
CONTINUOUS
 90
10
 70
0
 10
3.2502033
 20
-40.302765604
 10
3.2650879883
 20
-40.270937858
 10
3.2729077575
 20
-40.2545447617
 10
3.2808162701
 20
-40.2382162013
 10
3.2887929428
 20
-40.2219407177
 10
3.2968546118
 20
-40.2057269143
 10
3.3050547959
 20
-40.1896026696
 10
3.3134083398
 20
-40.1735746915
 10
3.3218909757
 20
-40.1576283318
 10
3.3304965795
 20
-40.1417584691
  0
LINE
  5
5CB
100
AcDbEntity
  8
0
100
AcDbLine
 62
250
  6
CONTINUOUS
 10
3.3304965795
 20
-40.1417584691
 11
3.3357394471
 21
-40.1319873501
  0
LWPOLYLINE
  5
5CC
100
AcDbEntity
  8
0
100
AcDbPolyline
 62
250
  6
CONTINUOUS
 90
7
 70
0
 10
3.3357394471
 20
-40.1319873501
 10
3.3410359451
 20
-40.1222596343
 10
3.3437029501
 20
-40.1174111784
 10
3.3464072528
 20
-40.1125866008
 10
3.3491570626
 20
-40.1077906175
 10
3.3519459566
 20
-40.1030199854
 10
3.3547748837
 20
-40.0982754901
  0
LINE
  5
5CD
100
AcDbEntity
  8
0
100
AcDbLine
 62
250
  6
CONTINUOUS
 10
-6.0074679248
 20
20.8307598793
 11
-5.9079380088
 21
20.8422669092
  0
LWPOLYLINE
  5
5CE
100
AcDbEntity
  8
0
100
AcDbPolyline
 62
7
  6
CONTINUOUS
 90
7
 70
0
 10
-5.0593739431
 20
20.723451538
 10
-5.0119006423
 20
20.7277623839
 10
-4.9627312669
 20
20.7254831059
 10
-4.9131881065
 20
20.7177407704
 10
-4.8643220562
 20
20.7079494671
 10
-4.8173455063
 20
20.6973592128
 10
-4.7736017311
 20
20.6851482151
  0
LINE
  5
5CF
100
AcDbEntity
  8
0
100
AcDbLine
 62
250
  6
CONTINUOUS
 10
-5.9079380088
 20
20.8422669092
 11
-5.8036756782
 21
20.8470617817
  0
LWPOLYLINE
  5
5D0
100
AcDbEntity
  8
0
100
AcDbPolyline
 62
7
  6
CONTINUOUS
 90
5
 70
0
 10
-4.9453518337
 20
20.755187352
 10
-4.9765488417
 20
20.7553936132
 10
-5.0080249782
 20
20.7516636244
 10
-5.0395853388
 20
20.7443522222
 10
-5.0710576072
 20
20.7337983837
  0
LWPOLYLINE
  5
5D1
100
AcDbEntity
  8
0
100
AcDbPolyline
 62
250
  6
CONTINUOUS
 90
5
 70
0
 10
-5.8036756782
 20
20.8470617817
 10
-5.7020553159
 20
20.8448158433
 10
-5.6055350496
 20
20.8354195429
 10
-5.5116567517
 20
20.8189824315
 10
-5.4204204221
 20
20.7955045093
  0
LWPOLYLINE
  5
5D2
100
AcDbEntity
  8
0
100
AcDbPolyline
 62
7
  6
CONTINUOUS
 90
9
 70
0
 10
-5.2759101985
 20
20.8632263952
 10
-5.3976037206
 20
20.895041408
 10
-5.5695832922
 20
20.9243189426
 10
-5.7466332338
 20
20.9371299756
 10
-5.9267657676
 20
20.9331335658
 10
-6.1021792279
 20
20.9125157858
 10
-6.2694809409
 20
20.8759014052
 10
-6.4296933506
 20
20.822683214
 10
-6.4731505971
 20
20.8046714415
  0
LWPOLYLINE
  5
5D3
100
AcDbEntity
  8
0
100
AcDbPolyline
 62
250
  6
CONTINUOUS
 90
10
 70
0
 10
13.025904851
 20
-35.152857847
 10
13.557645875
 20
-33.8084531279
 10
14.0437144693
 20
-32.4135240653
 10
14.482822572
 20
-30.9688648337
 10
14.8782728403
 20
-29.468286831
 10
15.2239815583
 20
-27.9196646593
 10
15.5060229503
 20
-26.345939265
 10
15.7205395008
 20
-24.7564717151
 10
15.8721984861
 20
-23.1460428428
 10
15.9612923636
 20
-21.5166018209
  0
LWPOLYLINE
  5
5D4
100
AcDbEntity
  8
0
100
AcDbPolyline
 62
7
  6
CONTINUOUS
 90
30
 70
0
 10
13.3217986387
 20
-34.7038966665
 10
13.395048495
 20
-34.5229544933
 10
13.4700160272
 20
-34.3349282996
 10
13.5482187413
 20
-34.1358386555
 10
13.6279378557
 20
-33.929469508
 10
13.7094524035
 20
-33.7147624666
 10
13.7927244566
 20
-33.4914815542
 10
13.877522487
 20
-33.2598187714
 10
13.9637837616
 20
-33.0194515021
 10
14.0503368783
 20
-32.7732511538
 10
14.1381508184
 20
-32.5180811909
 10
14.2302226772
 20
-32.2443899999
 10
14.3261145026
 20
-31.9522152819
 10
14.425585299
 20
-31.6408914613
 10
14.5315003698
 20
-31.2994147865
 10
14.6446089046
 20
-30.9223362857
 10
14.7626176382
 20
-30.5138422105
 10
14.8836176326
 20
-30.0771329627
 10
15.0052659366
 20
-29.6174497632
 10
15.1282718595
 20
-29.1284816355
 10
15.2547914727
 20
-28.5958647821
 10
15.3823628711
 20
-28.0222273494
 10
15.5099230979
 20
-27.403231827
 10
15.6398062631
 20
-26.713041778
 10
15.7661533899
 20
-25.9632051446
 10
15.8872572023
 20
-25.1394839614
 10
16.0056846717
 20
-24.1751387562
 10
16.1129349752
 20
-23.045940265
 10
16.1963919036
 20
-21.7744146314
 10
16.2270327085
 20
-21.0599689223
  0
LINE
  5
5D5
100
AcDbEntity
  8
0
100
AcDbLine
 62
250
  6
CONTINUOUS
 10
13.0077133687
 20
-35.1959215702
 11
13.025904851
 21
-35.152857847
  0
LWPOLYLINE
  5
5D6
100
AcDbEntity
  8
0
100
AcDbPolyline
 62
250
  6
CONTINUOUS
 90
4
 70
0
 10
12.9509977002
 20
-35.3266917784
 10
12.9702677041
 20
-35.282832246
 10
12.9891678023
 20
-35.2392464879
 10
13.0077133687
 20
-35.1959215702
  0
LINE
  5
5D7
100
AcDbEntity
  8
0
100
AcDbLine
 62
250
  6
CONTINUOUS
 10
12.9114356071
 20
-35.4151508972
 11
12.9509977002
 21
-35.3266917784
  0
LWPOLYLINE
  5
5D8
100
AcDbEntity
  8
0
100
AcDbPolyline
 62
7
  6
CONTINUOUS
 90
9
 70
0
 10
8.7598692751
 20
-38.4068326769
 10
8.689164439
 20
-38.5631179802
 10
8.6098697655
 20
-38.7086619419
 10
8.5219852547
 20
-38.8434645622
 10
8.4251989693
 20
-38.967858153
 10
8.3198228465
 20
-39.0815104023
 10
8.206792698
 20
-39.1834243741
 10
8.0860496349
 20
-39.2734933013
 10
7.989502033
 20
-39.3339856684
  0
LWPOLYLINE
  5
5D9
100
AcDbEntity
  8
0
100
AcDbPolyline
 62
7
  6
CONTINUOUS
 90
6
 70
0
 10
13.0775651112
 20
-35.2670648695
 10
13.1215787348
 20
-35.1710197155
 10
13.1651482641
 20
-35.0739669345
 10
13.2096308279
 20
-34.9723554436
 10
13.2527874348
 20
-34.8707845282
 10
13.3217986387
 20
-34.7038966665
  0
LWPOLYLINE
  5
5DA
100
AcDbEntity
  8
0
100
AcDbPolyline
 62
250
  6
CONTINUOUS
 90
3
 70
0
 10
12.8497992481
 20
-35.5494449032
 10
12.8706570205
 20
-35.5044613696
 10
12.9114356071
 20
-35.4151508972
  0
LINE
  5
5DB
100
AcDbEntity
  8
0
100
AcDbLine
 62
7
  6
CONTINUOUS
 10
13.0775651112
 20
-35.2670648695
 11
13.0634632786
 21
-35.297499129
  0
LINE
  5
5DC
100
AcDbEntity
  8
0
100
AcDbLine
 62
7
  6
CONTINUOUS
 10
12.9803765847
 20
-35.464572312
 11
13.0634632786
 21
-35.297499129
  0
LWPOLYLINE
  5
5DD
100
AcDbEntity
  8
0
100
AcDbPolyline
 62
250
  6
CONTINUOUS
 90
5
 70
0
 10
13.2568079747
 20
-34.8618036682
 10
13.21622633
 20
-34.9428960213
 10
13.1637723961
 20
-35.0193300363
 10
13.1002278999
 20
-35.0895246088
 10
13.0259048398
 20
-35.1528578738
  0
LWPOLYLINE
  5
5DE
100
AcDbEntity
  8
0
100
AcDbPolyline
 62
250
  6
CONTINUOUS
 90
7
 70
0
 10
15.9841291107
 20
-19.3984771651
 10
16.0747643997
 20
-19.3201999708
 10
16.1477213002
 20
-19.2359759006
 10
16.2018445703
 20
-19.1471286858
 10
16.2362852883
 20
-19.0550156747
 10
16.250465723
 20
-18.9611250511
 10
16.2508451601
 20
-18.9429911066
  0
LWPOLYLINE
  5
5DF
100
AcDbEntity
  8
0
100
AcDbPolyline
 62
7
  6
CONTINUOUS
 90
9
 70
0
 10
15.9841291139
 20
-19.3984771665
 10
15.5303497096
 20
-19.7364391732
 10
15.0679368223
 20
-20.0704926967
 10
14.5969911836
 20
-20.4005641
 10
14.1176231915
 20
-20.7265753972
 10
13.6299298152
 20
-21.0484600405
 10
13.1339932442
 20
-21.3661622647
 10
12.6299122801
 20
-21.6796163687
 10
12.1178036437
 20
-21.9887474028
  0
LWPOLYLINE
  5
5E0
100
AcDbEntity
  8
0
100
AcDbPolyline
 62
250
  6
CONTINUOUS
 90
10
 70
0
 10
0.205298848
 20
-30.4001233323
 10
0.3529238862
 20
-30.3073352468
 10
0.4957719435
 20
-30.2079753315
 10
0.6337975422
 20
-30.1020813612
 10
0.7664268078
 20
-29.9901270888
 10
0.8941372406
 20
-29.8717039888
 10
1.018482403
 20
-29.745506977
 10
1.1399750871
 20
-29.6111008412
 10
1.2580637737
 20
-29.4689352783
 10
1.3727282981
 20
-29.3190158424
  0
LINE
  5
5E1
100
AcDbEntity
  8
0
100
AcDbLine
 62
250
  6
CONTINUOUS
 10
0.2095630418
 20
-30.4025611935
 11
0.1902701578
 21
-30.4142162187
  0
LINE
  5
5E2
100
AcDbEntity
  8
0
100
AcDbLine
 62
7
  6
CONTINUOUS
 10
12.1178036437
 20
-21.9887474028
 11
11.597777948
 21
-22.2934864851
  0
LWPOLYLINE
  5
5E3
100
AcDbEntity
  8
0
100
AcDbPolyline
 62
250
  6
CONTINUOUS
 90
10
 70
0
 10
0.391156158
 20
-30.9561425234
 10
0.553088782
 20
-30.8619204994
 10
0.7102543665
 20
-30.7605264372
 10
0.8624828154
 20
-30.6520731099
 10
1.0094350521
 20
-30.5368167787
 10
1.1511321658
 20
-30.4147634781
 10
1.2879001927
 20
-30.2856059508
 10
1.4196915907
 20
-30.149360981
 10
1.5461443401
 20
-30.0064187219
 10
1.6670769962
 20
-29.8570179039
  0
LINE
  5
5E4
100
AcDbEntity
  8
0
100
AcDbLine
 62
7
  6
CONTINUOUS
 10
11.069988379
 20
-22.5937428044
 11
11.597777948
 21
-22.2934864851
  0
LWPOLYLINE
  5
5E5
100
AcDbEntity
  8
0
100
AcDbPolyline
 62
250
  6
CONTINUOUS
 90
10
 70
0
 10
0.1902701578
 20
-30.4142162187
 10
-0.3786544211
 20
-30.6949772146
 10
-0.9925898631
 20
-30.891402521
 10
-1.6509163837
 20
-31.0031778623
 10
-2.3621562756
 20
-31.0306086395
 10
-3.1159287936
 20
-30.9723655388
 10
-3.8840088864
 20
-30.8261074364
 10
-4.6572582762
 20
-30.5912037354
 10
-5.4445559428
 20
-30.2681144522
 10
-6.2455015889
 20
-29.8565758665
  0
LWPOLYLINE
  5
5E6
100
AcDbEntity
  8
0
100
AcDbPolyline
 62
7
  6
CONTINUOUS
 90
9
 70
0
 10
6.5837977635
 20
-24.8261106745
 10
7.1691274181
 20
-24.5641041336
 10
7.7476878175
 20
-24.2971127279
 10
8.3193514266
 20
-24.0251946184
 10
8.8839831788
 20
-23.7484135477
 10
9.4414678172
 20
-23.4668255044
 10
9.9917087599
 20
-23.1804779438
 10
10.5345922166
 20
-22.8894279128
 10
11.069988379
 20
-22.5937428044
  0
LWPOLYLINE
  5
5E7
100
AcDbEntity
  8
0
100
AcDbPolyline
 62
250
  6
CONTINUOUS
 90
10
 70
0
 10
6.583797761
 20
-24.8261106726
 10
6.4482259975
 20
-24.8784425953
 10
6.3023547031
 20
-24.9205671824
 10
6.1484764996
 20
-24.9518174115
 10
5.9889422205
 20
-24.9717031327
 10
5.826329321
 20
-24.9798907645
 10
5.663410064
 20
-24.9762590712
 10
5.502812603
 20
-24.9609152438
 10
5.3469733144
 20
-24.9341412378
 10
5.198309745
 20
-24.8963950668
  0
LWPOLYLINE
  5
5E8
100
AcDbEntity
  8
0
100
AcDbPolyline
 62
250
  6
CONTINUOUS
 90
3
 70
0
 10
13.0634632786
 20
-35.297499129
 10
13.0400788878
 20
-35.3423613036
 10
12.9882117676
 20
-35.4187616141
  0
LINE
  5
5E9
100
AcDbEntity
  8
0
100
AcDbLine
 62
250
  6
CONTINUOUS
 10
12.8499734118
 20
-35.5493721702
 11
12.6606462892
 21
-35.9073065652
  0
LWPOLYLINE
  5
5EA
100
AcDbEntity
  8
0
100
AcDbPolyline
 62
250
  6
CONTINUOUS
 90
3
 70
0
 10
12.6606462892
 20
-35.9073065652
 10
12.4329981378
 20
-36.2015148484
 10
12.2783751103
 20
-36.3469117226
  0
LWPOLYLINE
  5
5EB
100
AcDbEntity
  8
0
100
AcDbPolyline
 62
250
  6
CONTINUOUS
 90
10
 70
0
 10
-1.1150983527
 20
-33.5485756561
 10
-1.3717955391
 20
-33.6470651545
 10
-1.6325477055
 20
-33.7327281324
 10
-1.8973187206
 20
-33.8057437939
 10
-2.1659515395
 20
-33.8662226247
 10
-2.4385246152
 20
-33.9142295692
 10
-2.7152689238
 20
-33.9497154523
 10
-2.9962970673
 20
-33.9725546426
 10
-3.2817254748
 20
-33.9826063293
 10
-3.5713126582
 20
-33.9796859981
  0
LINE
  5
5EC
100
AcDbEntity
  8
0
100
AcDbLine
 62
250
  6
CONTINUOUS
 10
12.9882117676
 20
-35.4187616141
 11
12.9246122707
 21
-35.4880381536
  0
LWPOLYLINE
  5
5ED
100
AcDbEntity
  8
0
100
AcDbPolyline
 62
7
  6
CONTINUOUS
 90
6
 70
0
 10
12.2763163457
 20
-36.3486134517
 10
12.3570572257
 20
-36.2789961539
 10
12.5313105658
 20
-36.1066502327
 10
12.6944192987
 20
-35.912532747
 10
12.8443831649
 20
-35.6982005119
 10
12.9803765847
 20
-35.464572312
  0
LINE
  5
5EE
100
AcDbEntity
  8
0
100
AcDbLine
 62
7
  6
CONTINUOUS
 10
12.2783751103
 20
-36.3469117226
 11
12.2763163457
 21
-36.3486134517
  0
LINE
  5
5EF
100
AcDbEntity
  8
0
100
AcDbLine
 62
250
  6
CONTINUOUS
 10
12.4150969189
 20
-35.9043747156
 11
12.9246122707
 21
-35.4880381536
  0
LWPOLYLINE
  5
5F0
100
AcDbEntity
  8
0
100
AcDbPolyline
 62
250
  6
CONTINUOUS
 90
3
 70
0
 10
11.5303284493
 20
-36.5865118088
 10
11.9752400117
 20
-36.2500867149
 10
12.4150969189
 20
-35.9043747156
  0
LWPOLYLINE
  5
5F1
100
AcDbEntity
  8
0
100
AcDbPolyline
 62
7
  6
CONTINUOUS
 90
6
 70
0
 10
9.2873438226
 20
-38.5405972553
 10
9.9427880624
 20
-38.105231171
 10
10.5898387241
 20
-37.6514228554
 10
11.2277609322
 20
-37.1796569322
 10
11.8559421521
 20
-36.6903634856
 10
12.2785105398
 20
-36.346799821
  0
LINE
  5
5F2
100
AcDbEntity
  8
0
100
AcDbLine
 62
7
  6
CONTINUOUS
 10
8.6240351839
 20
-38.9572129326
 11
9.2873438226
 21
-38.5405972553
  0
LINE
  5
5F3
100
AcDbEntity
  8
0
100
AcDbLine
 62
7
  6
CONTINUOUS
 10
7.9891033247
 20
-39.3342158046
 11
8.6240351839
 21
-38.9572129326
  0
LWPOLYLINE
  5
5F4
100
AcDbEntity
  8
0
100
AcDbPolyline
 62
250
  6
CONTINUOUS
 90
7
 70
0
 10
8.7598656551
 20
-38.4068438996
 10
9.2332049189
 20
-38.1272925017
 10
9.7020288363
 20
-37.8381353696
 10
10.1662462744
 20
-37.5394232203
 10
10.6257547816
 20
-37.2312203387
 10
11.0804707811
 20
-36.9135736691
 10
11.5303284493
 20
-36.5865118088
  0
LINE
  5
5F5
100
AcDbEntity
  8
0
100
AcDbLine
 62
250
  6
CONTINUOUS
 10
8.7598656551
 20
-38.4068438996
 11
8.2818148214
 21
-38.6766132202
  0
LWPOLYLINE
  5
5F6
100
AcDbEntity
  8
0
100
AcDbPolyline
 62
250
  6
CONTINUOUS
 90
3
 70
0
 10
8.2818148214
 20
-38.6766132202
 10
7.7992370023
 20
-38.936783527
 10
7.3122125477
 20
-39.1873065246
  0
LWPOLYLINE
  5
5F7
100
AcDbEntity
  8
0
100
AcDbPolyline
 62
250
  6
CONTINUOUS
 90
7
 70
0
 10
7.3122125477
 20
-39.1873065246
 10
6.8208272168
 20
-39.4281378277
 10
6.3251525456
 20
-39.6592348202
 10
5.8252448301
 20
-39.8805555891
 10
5.3211717735
 20
-40.0920623206
 10
4.8130134965
 20
-40.2937224072
 10
4.3008422077
 20
-40.4855055547
  0
LWPOLYLINE
  5
5F8
100
AcDbEntity
  8
0
100
AcDbPolyline
 62
7
  6
CONTINUOUS
 90
10
 70
0
 10
3.286665017
 20
-41.5333203961
 10
3.3731982516
 20
-41.50149352
 10
4.0063145097
 20
-41.2593195749
 10
4.6340571248
 20
-41.0027509745
 10
5.2561868764
 20
-40.7319144424
 10
5.87244277
 20
-40.4469422701
 10
6.4825485392
 20
-40.1479657278
 10
7.0861560536
 20
-39.8351419921
 10
7.6828517185
 20
-39.508656514
 10
7.9893750901
 20
-39.334058957
  0
LINE
  5
5F9
100
AcDbEntity
  8
0
100
AcDbLine
 62
7
  6
CONTINUOUS
 10
3.2850568272
 20
-41.533904374
 11
3.2850071509
 21
-41.533922528
  0
ELLIPSE
  5
5FA
100
AcDbEntity
  8
0
100
AcDbEllipse
 62
7
  6
CONTINUOUS
 10
64.2107706919
 20
28.1382113198
 30
0.0
 11
-74.2381980906
 21
107.5089263905
 31
0.0
 40
0.6241538771
 41
1.5051490926
 42
1.5178382242
  0
ELLIPSE
  5
5FB
100
AcDbEntity
  8
0
100
AcDbEllipse
 62
7
  6
CONTINUOUS
 10
64.2107706919
 20
28.1423447883
 30
0.0
 11
100.0054239815
 21
48.981333379
 31
0.0
 40
0.0733805529
 41
-2.3896049977
 42
-2.3769784956
  0
ELLIPSE
  5
5FC
100
AcDbEntity
  8
0
100
AcDbEllipse
 62
7
  6
CONTINUOUS
 10
64.2107706919
 20
28.4067229135
 30
0.0
 11
-65.0137738963
 21
189.0491174469
 31
0.0
 40
0.4024019476
 41
-4.6254349229
 42
-4.6232626483
  0
ELLIPSE
  5
5FD
100
AcDbEntity
  8
0
100
AcDbEllipse
 62
7
  6
CONTINUOUS
 10
64.2107706917
 20
50.6628133785
 30
0.0
 11
-64.7421169495
 21
201.0758730885
 31
0.0
 40
0.3792556058
 41
-4.5626611139
 42
-4.5546256355
  0
ELLIPSE
  5
5FE
100
AcDbEntity
  8
0
100
AcDbEllipse
 62
7
  6
CONTINUOUS
 10
64.2107706918
 20
48.7996447713
 30
0.0
 11
-64.7210844767
 21
297.5815034343
 31
0.0
 40
0.2563230652
 41
-4.5995812865
 42
-4.5957032326
  0
ELLIPSE
  5
5FF
100
AcDbEntity
  8
0
100
AcDbEllipse
 62
7
  6
CONTINUOUS
 10
64.2107706919
 20
35.0478965876
 30
0.0
 11
87.4911960395
 21
216.5355422261
 31
0.0
 40
0.223983638
 41
-4.4601966674
 42
-4.4473552443
  0
ELLIPSE
  5
600
100
AcDbEntity
  8
0
100
AcDbEllipse
 62
7
  6
CONTINUOUS
 10
64.2107706918
 20
48.8000148995
 30
0.0
 11
-64.7211422577
 21
297.5899061955
 31
0.0
 40
0.256315663
 41
-4.59326285
 42
-4.5907362493
  0
ELLIPSE
  5
601
100
AcDbEntity
  8
0
100
AcDbEllipse
 62
7
  6
CONTINUOUS
 10
64.2107706919
 20
34.4712093395
 30
0.0
 11
-64.9460725989
 21
327.8873710927
 31
0.0
 40
0.2320477552
 41
-4.6558277826
 42
-4.6482653192
  0
ELLIPSE
  5
602
100
AcDbEntity
  8
0
100
AcDbEllipse
 62
7
  6
CONTINUOUS
 10
64.2107706918
 20
42.8442505848
 30
0.0
 11
85.4555281135
 21
246.7325726611
 31
0.0
 40
0.2107682445
 41
-4.4704367896
 42
-4.4629693041
  0
ELLIPSE
  5
603
100
AcDbEntity
  8
0
100
AcDbEllipse
 62
7
  6
CONTINUOUS
 10
64.210770692
 20
20.2349756445
 30
0.0
 11
-64.7210816303
 21
297.5810894791
 31
0.0
 40
0.2563234299
 41
1.5672099418
 42
1.5800888264
  0
ELLIPSE
  5
604
100
AcDbEntity
  8
0
100
AcDbEllipse
 62
7
  6
CONTINUOUS
 10
64.2107706917
 20
57.0805579878
 30
0.0
 11
87.4910988445
 21
216.5368525467
 31
0.0
 40
0.2239830924
 41
-4.3735511809
 42
-4.3646929847
  0
ELLIPSE
  5
605
100
AcDbEntity
  8
0
100
AcDbEllipse
 62
7
  6
CONTINUOUS
 10
-25.1833458068
 20
24.6466276326
 30
0.0
 11
48.3995228081
 21
0.3690279434
 31
0.0
 40
0.5824033911
 41
5.4057007298
 42
5.5359911129
  0
ELLIPSE
  5
606
100
AcDbEntity
  8
0
100
AcDbEllipse
 62
7
  6
CONTINUOUS
 10
-23.5645222215
 20
25.4114845998
 30
0.0
 11
48.3995228081
 21
0.3690279434
 31
0.0
 40
0.5824033911
 41
-0.9297576407
 42
-0.9203744239
  0
ELLIPSE
  5
607
100
AcDbEntity
  8
0
100
AcDbEllipse
 62
7
  6
CONTINUOUS
 10
64.2107706919
 20
28.6160120931
 30
0.0
 11
-74.2381872063
 21
107.5089665572
 31
0.0
 40
0.6241537559
 41
1.5045635244
 42
1.5178383864
  0
ELLIPSE
  5
608
100
AcDbEntity
  8
0
100
AcDbEllipse
 62
7
  6
CONTINUOUS
 10
64.2107706919
 20
28.4154625155
 30
0.0
 11
97.3877432638
 21
110.5592327651
 31
0.0
 40
0.2081573404
 41
2.1329245762
 42
2.1350968536
  0
ELLIPSE
  5
609
100
AcDbEntity
  8
0
100
AcDbEllipse
 62
7
  6
CONTINUOUS
 10
64.2107706919
 20
28.6158338957
 30
0.0
 11
100.0054238687
 21
48.9813250607
 31
0.0
 40
0.0733806295
 41
-2.3896050291
 42
-2.3763641273
  0
ELLIPSE
  5
60A
100
AcDbEntity
  8
0
100
AcDbEllipse
 62
7
  6
CONTINUOUS
 10
64.210770692
 20
23.447232011
 30
0.0
 11
99.3496959733
 21
84.2027758678
 31
0.0
 40
0.142335639
 41
2.2166166259
 42
2.2190794949
  0
ELLIPSE
  5
60B
100
AcDbEntity
  8
0
100
AcDbEllipse
 62
7
  6
CONTINUOUS
 10
64.2107706919
 20
28.4154625155
 30
0.0
 11
97.3196195259
 21
110.4818954335
 31
0.0
 40
0.2081573404
 41
2.1329307247
 42
2.1351045228
  0
ELLIPSE
  5
60C
100
AcDbEntity
  8
0
100
AcDbEllipse
 62
7
  6
CONTINUOUS
 10
64.2107706919
 20
28.6160120931
 30
0.0
 11
-74.1862568233
 21
107.4337629185
 31
0.0
 40
0.6241537559
 41
1.5045524725
 42
1.5171340776
  0
ELLIPSE
  5
60D
100
AcDbEntity
  8
0
100
AcDbEllipse
 62
7
  6
CONTINUOUS
 10
64.2107706917
 20
52.0822703089
 30
0.0
 11
-64.7421005759
 21
201.0768873659
 31
0.0
 40
0.3792537619
 41
-4.5541289554
 42
-4.5455879699
  0
ELLIPSE
  5
60E
100
AcDbEntity
  8
0
100
AcDbEllipse
 62
7
  6
CONTINUOUS
 10
64.2107706917
 20
52.0822703089
 30
0.0
 11
-64.7194487675
 21
201.0065350743
 31
0.0
 40
0.3792537619
 41
-4.5538639362
 42
-4.5455580418
  0
ELLIPSE
  5
60F
100
AcDbEntity
  8
0
100
AcDbEllipse
 62
7
  6
CONTINUOUS
 10
64.2107706919
 20
33.0130510059
 30
0.0
 11
87.4903464819
 21
216.5469957833
 31
0.0
 40
0.2239788682
 41
-4.4642147728
 42
-4.4603373857
  0
ELLIPSE
  5
610
100
AcDbEntity
  8
0
100
AcDbEllipse
 62
7
  6
CONTINUOUS
 10
64.2107706919
 20
33.0130510059
 30
0.0
 11
87.4597355725
 21
216.4712308478
 31
0.0
 40
0.2239788682
 41
-4.4629327442
 42
-4.4603468923
  0
ELLIPSE
  5
611
100
AcDbEntity
  8
0
100
AcDbEllipse
 62
7
  6
CONTINUOUS
 10
64.2107706919
 20
33.0134769542
 30
0.0
 11
87.4914307971
 21
216.5323774198
 31
0.0
 40
0.223984956
 41
-4.4578747616
 42
-4.4553492499
  0
ELLIPSE
  5
612
100
AcDbEntity
  8
0
100
AcDbEllipse
 62
7
  6
CONTINUOUS
 10
64.2107706917
 20
50.8340669648
 30
0.0
 11
-64.7210680763
 21
297.5791183261
 31
0.0
 40
0.2563251665
 41
-4.5955798854
 42
-4.5827299481
  0
ELLIPSE
  5
613
100
AcDbEntity
  8
0
100
AcDbEllipse
 62
7
  6
CONTINUOUS
 10
64.2107706917
 20
50.8340669648
 30
0.0
 11
-64.6984236267
 21
297.4750020689
 31
0.0
 40
0.2563251665
 41
-4.5955676186
 42
-4.582713176
  0
ELLIPSE
  5
614
100
AcDbEntity
  8
0
100
AcDbEllipse
 62
7
  6
CONTINUOUS
 10
64.2107706919
 20
36.749326898
 30
0.0
 11
-64.9460363368
 21
327.8827252272
 31
0.0
 40
0.2320511376
 41
-4.651733899
 42
-4.6442658169
  0
ELLIPSE
  5
615
100
AcDbEntity
  8
0
100
AcDbEllipse
 62
7
  6
CONTINUOUS
 10
64.2107706919
 20
36.749326898
 30
0.0
 11
-64.9233131758
 21
327.7680064178
 31
0.0
 40
0.2320511376
 41
-4.6517402582
 42
-4.6443957183
  0
ELLIPSE
  5
616
100
AcDbEntity
  8
0
100
AcDbEllipse
 62
7
  6
CONTINUOUS
 10
64.2107706918
 20
40.566262306
 30
0.0
 11
85.4553109238
 21
246.7361338606
 31
0.0
 40
0.2107666489
 41
-4.4745334396
 42
-4.4669722353
  0
ELLIPSE
  5
617
100
AcDbEntity
  8
0
100
AcDbEllipse
 62
7
  6
CONTINUOUS
 10
64.2107706918
 20
40.566262306
 30
0.0
 11
85.4254120277
 21
246.649806423
 31
0.0
 40
0.2107666489
 41
1.8090014825
 42
1.8162154171
  0
ELLIPSE
  5
618
100
AcDbEntity
  8
0
100
AcDbEllipse
 62
7
  6
CONTINUOUS
 10
64.2107706917
 20
55.045717973
 30
0.0
 11
87.4915339861
 21
216.5309863312
 31
0.0
 40
0.2239855353
 41
-4.3815522141
 42
-4.3686916662
  0
ELLIPSE
  5
619
100
AcDbEntity
  8
0
100
AcDbEllipse
 62
7
  6
CONTINUOUS
 10
64.2107706917
 20
55.045717973
 30
0.0
 11
87.4609226613
 21
216.455226997
 31
0.0
 40
0.2239855353
 41
-4.381534136
 42
-4.3686690718
  0
ELLIPSE
  5
61A
100
AcDbEntity
  8
0
100
AcDbEllipse
 62
7
  6
CONTINUOUS
 10
64.210770692
 20
22.2694509543
 30
0.0
 11
-64.7210845475
 21
297.5815137225
 31
0.0
 40
0.2563230562
 41
-4.7079512445
 42
-4.6990875633
  0
ELLIPSE
  5
61B
100
AcDbEntity
  8
0
100
AcDbEllipse
 62
7
  6
CONTINUOUS
 10
64.210770692
 20
22.2694509543
 30
0.0
 11
-64.698440092
 21
297.4773966272
 31
0.0
 40
0.2563230562
 41
-4.7079783668
 42
-4.6992396942
  0
ELLIPSE
  5
61C
100
AcDbEntity
  8
0
100
AcDbEllipse
 62
7
  6
CONTINUOUS
 10
22.2720010784
 20
-2.7534949038
 30
0.0
 11
48.3995228081
 21
0.3690279434
 31
0.0
 40
0.5824033911
 41
2.309109371
 42
2.4393997541
  0
ELLIPSE
  5
61D
100
AcDbEntity
  8
0
100
AcDbEllipse
 62
7
  6
CONTINUOUS
 10
23.5712239141
 20
-1.8041044693
 30
0.0
 11
48.3995228081
 21
0.3690279434
 31
0.0
 40
0.5824033911
 41
2.4822896006
 42
2.4916728174
  0
ELLIPSE
  5
61E
100
AcDbEntity
  8
0
100
AcDbEllipse
 62
7
  6
CONTINUOUS
 10
-23.5645222215
 20
25.4114845998
 30
0.0
 11
48.399554986
 21
-0.3626426205
 31
0.0
 40
0.5723275643
 41
-0.6505742341
 42
-0.6411910172
  0
ELLIPSE
  5
61F
100
AcDbEntity
  8
0
100
AcDbEllipse
 62
7
  6
CONTINUOUS
 10
-22.2652993858
 20
26.3314710643
 30
0.0
 11
48.399554986
 21
-0.3626426205
 31
0.0
 40
0.5723275643
 41
-0.8237544637
 42
-0.6934640806
  0
ELLIPSE
  5
620
100
AcDbEntity
  8
0
100
AcDbEllipse
 62
7
  6
CONTINUOUS
 10
23.5712239141
 20
-1.8041044693
 30
0.0
 11
48.399554986
 21
-0.3626426205
 31
0.0
 40
0.5723275643
 41
2.2205638318
 42
2.2299470486
  0
ELLIPSE
  5
621
100
AcDbEntity
  8
0
100
AcDbEllipse
 62
7
  6
CONTINUOUS
 10
25.1900474994
 20
-1.068651472
 30
0.0
 11
48.399554986
 21
-0.3626426205
 31
0.0
 40
0.5723275643
 41
8.5560222023
 42
8.6863125854
  0
ENDSEC
  0
SECTION
  2
OBJECTS
  0
DICTIONARY
  5
C
100
AcDbDictionary
280
0
281
1
  3
ACAD_GROUP
350
D
  3
ACAD_MLINESTYLE
350
17
  3
ACAD_LAYOUT
350
1A
  3
ACAD_PLOTSETTINGS
350
19
  3
ACAD_PLOTSTYLENAME
350
E
  0
DICTIONARY
  5
D
102
{ACAD_REACTORS
330
C
102
}
100
AcDbDictionary
280
0
281
1
  0
ACDBDICTIONARYWDFLT
  5
E
102
{ACAD_REACTORS
330
C
102
}
100
AcDbDictionary
281
1
  3
Normal
350
F
100
AcDbDictionaryWithDefault
340
F
  0
DICTIONARY
  5
17
102
{ACAD_REACTORS
330
C
102
}
100
AcDbDictionary
280
0
281
1
  3
Standard
350
18
  0
DICTIONARY
  5
19
102
{ACAD_REACTORS
330
C
102
}
100
AcDbDictionary
281
1
  0
DICTIONARY
  5
1A
102
{ACAD_REACTORS
330
C
102
}
100
AcDbDictionary
281
1
  3
Model
350
622
  3
Layout1
350
623
  0
ACDBPLACEHOLDER
  5
F
102
{ACAD_REACTORS
330
E
102
}
  0
MLINESTYLE
  5
18
102
{ACAD_REACTORS
330
17
102
}
100
AcDbMlineStyle
  2
STANDARD
 70
0
  3

 62
256
 51
90.0
 52
90.0
 71
2
 49
0.5
 62
256
  6
BYLAYER
 49
-0.5
 62
256
  6
BYLAYER
  0
LAYOUT
  5
622
102
{ACAD_REACTORS
330
1A
102
}
100
AcDbPlotSettings
  1

  2
none_device
  4
ISO_A4_(297.00_x_210.00_MM)
  6

 40
0.0
 41
0.0
 42
0.0
 43
0.0
 44
297.0
 45
210.0
 46
0.0
 47
0.0
 48
0.0
 49
0.0
140
0.0
141
0.0
142
1.0
143
1.0
 70
1024
 72
1
 73
0
 74
0
  7

 75
0
147
1.0
148
0.0
149
0.0
100
AcDbLayout
  1
Model
 70
0
 71
0
 10
0.0
 20
0.0
 11
297.0
 21
210.0
 12
0.0
 22
0.0
 32
0.0
 14
0.0
 24
0.0
 34
0.0
 15
0.0
 25
0.0
 35
0.0
146
0.0
 13
0.0
 23
0.0
 33
0.0
 16
1.0
 26
0.0
 36
0.0
 17
0.0
 27
1.0
 37
0.0
 76
0
330
21B
345
0
346
0
  0
LAYOUT
  5
623
102
{ACAD_REACTORS
330
1A
102
}
100
AcDbPlotSettings
  1

  2
none_device
  4
ISO_A4_(297.00_x_210.00_MM)
  6

 40
0.0
 41
0.0
 42
0.0
 43
0.0
 44
297.0
 45
210.0
 46
0.0
 47
0.0
 48
0.0
 49
0.0
140
0.0
141
0.0
142
1.0
143
1.0
 70
0
 72
1
 73
0
 74
0
  7

 75
0
147
1.0
148
0.0
149
0.0
100
AcDbLayout
  1
Layout1
 70
0
 71
1
 10
0.0
 20
0.0
 11
297.0
 21
210.0
 12
0.0
 22
0.0
 32
0.0
 14
0.0
 24
0.0
 34
0.0
 15
0.0
 25
0.0
 35
0.0
146
0.0
 13
0.0
 23
0.0
 33
0.0
 16
1.0
 26
0.0
 36
0.0
 17
0.0
 27
1.0
 37
0.0
 76
0
330
21C
345
0
346
0
  0
ENDSEC
  0
EOF
