  0
SECTION
  2
HEADER
  9
$ACADVER
  1
AC1024
  9
$DWGCODEPAGE
  3
ANSI_1252
  9
$EXTMAX
 10
420.0
 20
297.0
 30
0.0
  9
$EXTMIN
 10
0.0
 20
-0.0
 30
0.0
  9
$LIMMIN
 10
0.0
 20
-0.0
  9
$LIMMAX
 10
420.0
 20
297.0
  9
$VIEWCTR
 10
210.0
 20
148.5
  9
$VIEWSIZE
 40
297.0
  9
$CLAYER
  8
0
  9
$LTSCALE
 40
23.1
  9
$CELTYPE
  6
BYLAYER
  9
$DIMSCALE
 40
1.0
  9
$DIMASZ
 40
3.0
  9
$DIMEXO
 40
0.5
  9
$DIMDLI
 40
15.96
  9
$DIMEXE
 40
1.5
  9
$DIMCEN
 40
3.78
  9
$DIMLFAC
 40
1.0
  9
$DIMBLK
  1
_FILLED
  9
$DIMALT
 70
0
  9
$DIMALTF
 40
0.0393700787
  9
$DIMTXT
 40
3.0
  9
$DIMTOL
 70
1
  9
$DIMLIM
 70
0
  9
$DIMTFAC
 40
1.0
  9
$DIMTP
 40
0.01
  9
$DIMTM
 40
0.01
  9
$DIMGAP
 40
0.625
  9
$DIMDSEP
 70
44
  9
$AUNITS
 70
0
  9
$PDMODE
 70
3
  9
$PDSIZE
 40
3.0
  9
$HANDSEED
  5
68C
  9
$TILEMODE
 70
1
  9
$MEASUREMENT
 70
1
  9
$INSUNITS
 70
4
  0
ENDSEC
  0
SECTION
  2
CLASSES
  0
CLASS
  1
ACDBDICTIONARYWDFLT
  2
AcDbDictionaryWithDefault
  3
AutoCAD 2000
 90
0
 91
1
280
0
281
0
  0
CLASS
  1
ACDBPLACEHOLDER
  2
AcDbPlaceHolder
  3
AutoCAD 2000
 90
0
 91
1
280
0
281
0
  0
CLASS
  1
LAYOUT
  2
AcDbLayout
  3
AutoCAD 2000
 90
0
 91
0
280
0
281
0
  0
ENDSEC
  0
SECTION
  2
TABLES
  0
TABLE
  2
VPORT
  5
8
100
AcDbSymbolTable
 70
2
  0
VPORT
  5
1F4
100
AcDbSymbolTableRecord
100
AcDbViewportTableRecord
  2
*ACTIVE
 70
0
 10
0.0
 20
0.0
 11
1.0
 21
1.0
 12
210.0
 22
148.5
 13
0.0
 23
0.0
 14
1.0
 24
1.0
 15
0.0
 25
0.0
 16
0.0
 26
0.0
 36
1.0
 17
0.0
 27
0.0
 37
0.0
 40
297.0
 41
1.4141414141
 42
50.0
 43
0.0
 44
0.0
 50
0.0
 51
0.0
 71
0
 72
100
 73
1
 74
1
 75
0
 76
0
 77
0
 78
0
  0
ENDTAB
  0
TABLE
  2
LTYPE
  5
5
100
AcDbSymbolTable
 70
6
  0
LTYPE
  5
14
100
AcDbSymbolTableRecord
100
AcDbLinetypeTableRecord
  2
BYBLOCK
 70
0
  3

 72
65
 73
0
 40
0.0
  0
LTYPE
  5
15
100
AcDbSymbolTableRecord
100
AcDbLinetypeTableRecord
  2
BYLAYER
 70
0
  3

 72
65
 73
0
 40
0.0
  0
LTYPE
  5
16
100
AcDbSymbolTableRecord
100
AcDbLinetypeTableRecord
  2
CONTINUOUS
 70
64
  3
Solid line
 72
65
 73
0
 40
0.0
  0
LTYPE
  5
1F5
100
AcDbSymbolTableRecord
100
AcDbLinetypeTableRecord
  2
CENTER
 70
64
  3
____ _ ____ _ ____ _ ____ _ ____ _ ____ _ ____
 72
65
 73
4
 40
0.6
 49
0.375
 74
0
 49
-0.075
 74
0
 49
0.075
 74
0
 49
-0.075
 74
0
  0
LTYPE
  5
1F6
100
AcDbSymbolTableRecord
100
AcDbLinetypeTableRecord
  2
HIDDEN
 70
64
  3
- - - - - - - - - - - - - - - - - - - -
 72
65
 73
2
 40
0.2
 49
0.1
 74
0
 49
-0.1
 74
0
  0
LTYPE
  5
1F7
100
AcDbSymbolTableRecord
100
AcDbLinetypeTableRecord
  2
PHANTOM
 70
64
  3
_____ _ _ _____ _ _ _____ _ _ _____
 72
65
 73
6
 40
0.8
 49
0.45
 74
0
 49
-0.05
 74
0
 49
0.1
 74
0
 49
-0.05
 74
0
 49
0.1
 74
0
 49
-0.05
 74
0
  0
LTYPE
  5
1F8
100
AcDbSymbolTableRecord
100
AcDbLinetypeTableRecord
  2
DOT
 70
64
  3
. . . . . . . . . . . . . . . . . . . .
 72
65
 73
2
 40
0.2
 49
0.1
 74
0
 49
-0.1
 74
0
  0
LTYPE
  5
1F9
100
AcDbSymbolTableRecord
100
AcDbLinetypeTableRecord
  2
DASHED
 70
64
  3
- - - - - - - - - - - - - - - - - - - -
 72
65
 73
2
 40
0.2
 49
0.1
 74
0
 49
-0.1
 74
0
  0
ENDTAB
  0
TABLE
  2
LAYER
  5
2
100
AcDbSymbolTable
 70
36
  0
LAYER
  5
10
100
AcDbSymbolTableRecord
100
AcDbLayerTableRecord
  2
0
 70
0
 62
7
  6
CONTINUOUS
370
-3
390
F
  0
LAYER
  5
1FA
100
AcDbSymbolTableRecord
100
AcDbLayerTableRecord
  2
DEFAULT_1
 70
0
 62
7
  6
CENTER
370
-3
390
F
  0
LAYER
  5
1FB
100
AcDbSymbolTableRecord
100
AcDbLayerTableRecord
  2
DEFAULT_2
 70
0
 62
7
  6
HIDDEN
370
-3
390
F
  0
LAYER
  5
1FC
100
AcDbSymbolTableRecord
100
AcDbLayerTableRecord
  2
DEFAULT_3
 70
0
 62
7
  6
PHANTOM
370
-3
390
F
  0
LAYER
  5
1FD
100
AcDbSymbolTableRecord
100
AcDbLayerTableRecord
  2
ASSI
 70
0
 62
7
  6
CONTINUOUS
370
-3
390
F
  0
LAYER
  5
1FE
100
AcDbSymbolTableRecord
100
AcDbLayerTableRecord
  2
COLOR5
 70
0
 62
7
  6
CONTINUOUS
370
-3
390
F
  0
LAYER
  5
1FF
100
AcDbSymbolTableRecord
100
AcDbLayerTableRecord
  2
COORDINATE
 70
0
 62
7
  6
CONTINUOUS
370
-3
390
F
  0
LAYER
  5
200
100
AcDbSymbolTableRecord
100
AcDbLayerTableRecord
  2
COORD_ORIGINE
 70
0
 62
7
  6
CONTINUOUS
370
-3
390
F
  0
LAYER
  5
201
100
AcDbSymbolTableRecord
100
AcDbLayerTableRecord
  2
COPY-PUBBLISH
 70
0
 62
7
  6
CONTINUOUS
370
-3
390
F
  0
LAYER
  5
202
100
AcDbSymbolTableRecord
100
AcDbLayerTableRecord
  2
COSMETICI
 70
0
 62
7
  6
CONTINUOUS
370
-3
390
F
  0
LAYER
  5
203
100
AcDbSymbolTableRecord
100
AcDbLayerTableRecord
  2
CURVE
 70
0
 62
7
  6
CONTINUOUS
370
-3
390
F
  0
LAYER
  5
204
100
AcDbSymbolTableRecord
100
AcDbLayerTableRecord
  2
DRAFT
 70
0
 62
7
  6
CONTINUOUS
370
-3
390
F
  0
LAYER
  5
205
100
AcDbSymbolTableRecord
100
AcDbLayerTableRecord
  2
IGES
 70
0
 62
7
  6
CONTINUOUS
370
-3
390
F
  0
LAYER
  5
206
100
AcDbSymbolTableRecord
100
AcDbLayerTableRecord
  2
INTF_52
 70
0
 62
7
  6
CONTINUOUS
370
-3
390
F
  0
LAYER
  5
207
100
AcDbSymbolTableRecord
100
AcDbLayerTableRecord
  2
INTF_GREEN
 70
0
 62
7
  6
CONTINUOUS
370
-3
390
F
  0
LAYER
  5
208
100
AcDbSymbolTableRecord
100
AcDbLayerTableRecord
  2
INTF_RED
 70
0
 62
7
  6
CONTINUOUS
370
-3
390
F
  0
LAYER
  5
209
100
AcDbSymbolTableRecord
100
AcDbLayerTableRecord
  2
INTF_YELLOW
 70
0
 62
7
  6
CONTINUOUS
370
-3
390
F
  0
LAYER
  5
20A
100
AcDbSymbolTableRecord
100
AcDbLayerTableRecord
  2
NOTE
 70
0
 62
7
  6
CONTINUOUS
370
-3
390
F
  0
LAYER
  5
20B
100
AcDbSymbolTableRecord
100
AcDbLayerTableRecord
  2
PIANI
 70
0
 62
7
  6
CONTINUOUS
370
-3
390
F
  0
LAYER
  5
20C
100
AcDbSymbolTableRecord
100
AcDbLayerTableRecord
  2
PIANI-RIFERIMENTO
 70
0
 62
7
  6
CONTINUOUS
370
-3
390
F
  0
LAYER
  5
20D
100
AcDbSymbolTableRecord
100
AcDbLayerTableRecord
  2
PIANI_ORIGINE
 70
0
 62
7
  6
CONTINUOUS
370
-3
390
F
  0
LAYER
  5
20E
100
AcDbSymbolTableRecord
100
AcDbLayerTableRecord
  2
PUNTI
 70
0
 62
7
  6
CONTINUOUS
370
-3
390
F
  0
LAYER
  5
20F
100
AcDbSymbolTableRecord
100
AcDbLayerTableRecord
  2
RACCORDO
 70
0
 62
7
  6
CONTINUOUS
370
-3
390
F
  0
LAYER
  5
210
100
AcDbSymbolTableRecord
100
AcDbLayerTableRecord
  2
SIMBOLI
 70
0
 62
7
  6
CONTINUOUS
370
-3
390
F
  0
LAYER
  5
211
100
AcDbSymbolTableRecord
100
AcDbLayerTableRecord
  2
SMUSSO
 70
0
 62
7
  6
CONTINUOUS
370
-3
390
F
  0
LAYER
  5
212
100
AcDbSymbolTableRecord
100
AcDbLayerTableRecord
  2
SOLIDO
 70
0
 62
7
  6
CONTINUOUS
370
-3
390
F
  0
LAYER
  5
213
100
AcDbSymbolTableRecord
100
AcDbLayerTableRecord
  2
SUPERFICI
 70
0
 62
7
  6
CONTINUOUS
370
-3
390
F
  0
LAYER
  5
214
100
AcDbSymbolTableRecord
100
AcDbLayerTableRecord
  2
TRASH
 70
0
 62
7
  6
CONTINUOUS
370
-3
390
F
  0
LAYER
  5
215
100
AcDbSymbolTableRecord
100
AcDbLayerTableRecord
  2
XSEC_DATUMS
 70
0
 62
7
  6
CONTINUOUS
370
-3
390
F
  0
ENDTAB
  0
TABLE
  2
STYLE
  5
3
100
AcDbSymbolTable
 70
1
  0
STYLE
  5
11
100
AcDbSymbolTableRecord
100
AcDbTextStyleTableRecord
  2
STANDARD
 70
0
 40
0.0
 41
0.8
 50
0.0
 71
0
 42
0.2
  3
txt
  4

  0
STYLE
  5
216
100
AcDbSymbolTableRecord
100
AcDbTextStyleTableRecord
  2
TEXTSTYLE_1
 70
0
 40
0.0
 41
0.8
 50
0.0
 71
0
 42
0.2
  3
gdt
  4

  0
ENDTAB
  0
TABLE
  2
VIEW
  5
6
100
AcDbSymbolTable
 70
0
  0
ENDTAB
  0
TABLE
  2
UCS
  5
7
100
AcDbSymbolTable
 70
0
  0
ENDTAB
  0
TABLE
  2
APPID
  5
9
100
AcDbSymbolTable
 70
1
  0
APPID
  5
217
100
AcDbSymbolTableRecord
100
AcDbRegAppTableRecord
  2
ACAD
 70
0
  0
ENDTAB
  0
TABLE
  2
BLOCK_RECORD
  5
1
100
AcDbSymbolTable
 70
0
  0
BLOCK_RECORD
  5
218
100
AcDbSymbolTableRecord
100
AcDbBlockTableRecord
  2
*Model_Space
  0
BLOCK_RECORD
  5
219
100
AcDbSymbolTableRecord
100
AcDbBlockTableRecord
  2
*Paper_Space
  0
BLOCK_RECORD
  5
21A
100
AcDbSymbolTableRecord
100
AcDbBlockTableRecord
  2
_FILLED
  0
ENDTAB
  0
TABLE
  2
DIMSTYLE
  5
A
100
AcDbSymbolTable
 70
1
100
AcDbDimStyleTable
 71
0
  0
DIMSTYLE
105
21B
100
AcDbSymbolTableRecord
100
AcDbDimStyleTableRecord
  2
STANDARD
 70
0
  3

  4

 40
1.0
 41
3.0
 42
0.5
 43
0.38
 44
1.5
 45
0.0
 46
0.0
 47
0.01
 48
0.01
140
3.0
141
0.09
142
0.0
143
25.4
144
1.0
145
0.0
146
1.0
147
0.625
 71
1
 72
0
 73
0
 74
0
 75
0
 76
0
 77
1
 78
8
 79
2
170
0
171
1
172
0
173
0
174
0
175
0
176
0
177
0
178
0
270
2
179
2
271
2
272
2
273
2
274
2
275
0
280
0
281
0
282
0
283
1
284
8
285
0
286
0
287
3
288
0
340
11
278
44
341
21A
342
21A
343
21A
344
21A
  0
ENDTAB
  0
ENDSEC
  0
SECTION
  2
BLOCKS
  0
BLOCK
  5
20
100
AcDbEntity
  8
0
100
AcDbBlockBegin
  2
*Model_Space
 70
0
 10
0.0
 20
0.0
 30
0.0
  3
*Model_Space
  1

  0
ENDBLK
  5
21
100
AcDbEntity
  8
0
100
AcDbBlockEnd
  0
BLOCK
  5
1C
100
AcDbEntity
  8
0
100
AcDbBlockBegin
  2
*Paper_Space
 70
0
 10
0.0
 20
0.0
 30
0.0
  3
*Paper_Space
  1

  0
ENDBLK
  5
1D
100
AcDbEntity
  8
0
100
AcDbBlockEnd
  0
BLOCK
  5
21C
100
AcDbEntity
  8
0
100
AcDbBlockBegin
  2
_FILLED
 70
64
 10
0.0
 20
0.0
  3
_FILLED
  1

  0
SOLID
  5
21D
100
AcDbEntity
  8
0
  6
BYBLOCK
 62
0
100
AcDbTrace
 10
0.0
 20
0.0
 11
-1.0
 21
0.3166666667
 12
-1.0
 22
-0.3166666667
 13
-1.0
 23
-0.3166666667
  0
ENDBLK
  5
21E
100
AcDbEntity
  8
0
  6
BYBLOCK
 62
0
100
AcDbBlockEnd
  0
ENDSEC
  0
SECTION
  2
ENTITIES
  0
LWPOLYLINE
  5
21F
100
AcDbEntity
  8
0
100
AcDbPolyline
 62
250
  6
CONTINUOUS
 90
11
 70
0
 10
17.987020112
 20
-102.9129631888
 10
18.1848025624
 20
-102.9575575653
 10
18.3760793176
 20
-102.98742137
 10
18.5604791014
 20
-103.0028713126
 10
18.7379393492
 20
-103.0041374801
 10
18.9082214235
 20
-102.9915552609
 10
19.0706740358
 20
-102.9653295197
 10
19.2246569198
 20
-102.9254763935
 10
19.3697215096
 20
-102.8722676349
 10
19.5056252205
 20
-102.8061898202
 10
19.6321340216
 20
-102.7276501718
  0
LWPOLYLINE
  5
220
100
AcDbEntity
  8
0
100
AcDbPolyline
 62
250
  6
CONTINUOUS
 90
3
 70
0
 10
17.5743220027
 20
-102.7784483784
 10
17.7833665983
 20
-102.853349666
 10
17.987020112
 20
-102.9129631888
  0
LWPOLYLINE
  5
221
100
AcDbEntity
  8
0
100
AcDbPolyline
 62
250
  6
CONTINUOUS
 90
8
 70
0
 10
17.5743220027
 20
-102.7784483784
 10
17.5500780654
 20
-102.7693346086
 10
17.5252619946
 20
-102.7598730385
 10
17.499873044
 20
-102.7500509922
 10
17.4737447678
 20
-102.7398025054
 10
17.4470420972
 20
-102.7291645238
 10
17.4202624136
 20
-102.7182874788
 10
17.393571599
 20
-102.7072194731
  0
LWPOLYLINE
  5
222
100
AcDbEntity
  8
0
100
AcDbPolyline
 62
7
  6
CONTINUOUS
 90
11
 70
0
 10
17.8494054086
 20
-103.0678458503
 10
17.9009277613
 20
-103.088325098
 10
18.1669674885
 20
-103.1831345649
 10
18.4470004619
 20
-103.263137703
 10
18.747507432
 20
-103.3258890379
 10
19.059869951
 20
-103.3647995818
 10
19.3607749518
 20
-103.3755360767
 10
19.6415636495
 20
-103.3602147356
 10
19.9090784414
 20
-103.3208614688
 10
20.1632697498
 20
-103.2587570777
 10
20.3165738692
 20
-103.2084531446
  0
LINE
  5
223
100
AcDbEntity
  8
0
100
AcDbLine
 62
7
  6
CONTINUOUS
 10
17.7772395493
 20
-103.0384069686
 11
17.8519649006
 21
-103.0688835248
  0
LINE
  5
224
100
AcDbEntity
  8
0
100
AcDbLine
 62
7
  6
CONTINUOUS
 10
17.6551414391
 20
-102.9877320776
 11
17.7772395493
 21
-103.0384069686
  0
LINE
  5
225
100
AcDbEntity
  8
0
100
AcDbLine
 62
250
  6
CONTINUOUS
 10
17.3409183964
 20
-102.6860276128
 11
17.1019583538
 21
-102.5861288237
  0
LINE
  5
226
100
AcDbEntity
  8
0
100
AcDbLine
 62
7
  6
CONTINUOUS
 10
17.5038796323
 20
-102.9238630142
 11
17.6551414391
 21
-102.9877320776
  0
LINE
  5
227
100
AcDbEntity
  8
0
100
AcDbLine
 62
250
  6
CONTINUOUS
 10
17.393571599
 20
-102.7072194731
 11
17.3399923799
 21
-102.6845413171
  0
LINE
  5
228
100
AcDbEntity
  8
0
100
AcDbLine
 62
250
  6
CONTINUOUS
 10
17.1019583538
 20
-102.5861288237
 11
16.786714452
 21
-102.4525870017
  0
LINE
  5
229
100
AcDbEntity
  8
0
100
AcDbLine
 62
250
  6
CONTINUOUS
 10
16.786714452
 20
-102.4525870017
 11
16.5525622931
 21
-102.3520508671
  0
LINE
  5
22A
100
AcDbEntity
  8
0
100
AcDbLine
 62
250
  6
CONTINUOUS
 10
16.5525622931
 20
-102.3520508671
 11
16.3537208204
 21
-102.2657127191
  0
LINE
  5
22B
100
AcDbEntity
  8
0
100
AcDbLine
 62
250
  6
CONTINUOUS
 10
16.3537208204
 20
-102.2657127191
 11
16.1510449572
 21
-102.176853789
  0
LINE
  5
22C
100
AcDbEntity
  8
0
100
AcDbLine
 62
250
  6
CONTINUOUS
 10
16.1510449572
 20
-102.176853789
 11
15.914671521
 21
-102.0720633563
  0
LINE
  5
22D
100
AcDbEntity
  8
0
100
AcDbLine
 62
250
  6
CONTINUOUS
 10
15.914671521
 20
-102.0720633563
 11
15.6567767382
 21
-101.9563456238
  0
LINE
  5
22E
100
AcDbEntity
  8
0
100
AcDbLine
 62
250
  6
CONTINUOUS
 10
15.6567767382
 20
-101.9563456238
 11
15.3578014672
 21
-101.8204341949
  0
LINE
  5
22F
100
AcDbEntity
  8
0
100
AcDbLine
 62
250
  6
CONTINUOUS
 10
15.3578014672
 20
-101.8204341949
 11
15.1104369294
 21
-101.7065873754
  0
LINE
  5
230
100
AcDbEntity
  8
0
100
AcDbLine
 62
250
  6
CONTINUOUS
 10
15.1104369294
 20
-101.7065873754
 11
14.8357556336
 21
-101.5785086369
  0
LINE
  5
231
100
AcDbEntity
  8
0
100
AcDbLine
 62
250
  6
CONTINUOUS
 10
17.8128664856
 20
-103.0505705768
 11
17.8494054086
 21
-103.0678458503
  0
LINE
  5
232
100
AcDbEntity
  8
0
100
AcDbLine
 62
250
  6
CONTINUOUS
 10
14.8357556336
 20
-101.5785086369
 11
14.5783841676
 21
-101.4569808083
  0
LINE
  5
233
100
AcDbEntity
  8
0
100
AcDbLine
 62
250
  6
CONTINUOUS
 10
14.5783841676
 20
-101.4569808083
 11
14.2721681431
 21
-101.3104967146
  0
LWPOLYLINE
  5
234
100
AcDbEntity
  8
0
100
AcDbPolyline
 62
7
  6
CONTINUOUS
 90
10
 70
0
 10
14.5034691681
 20
-101.5597920356
 10
14.7138742853
 20
-101.6615944804
 10
15.0998721727
 20
-101.8458718431
 10
15.4814503739
 20
-102.024892871
 10
15.8585114685
 20
-102.1987914816
 10
16.2309590693
 20
-102.3677413588
 10
16.5986540774
 20
-102.5317761911
 10
16.9615820648
 20
-102.6909636702
 10
17.3196997352
 20
-102.8454229812
 10
17.5038798429
 20
-102.9238618753
  0
LWPOLYLINE
  5
235
100
AcDbEntity
  8
0
100
AcDbPolyline
 62
250
  6
CONTINUOUS
 90
9
 70
0
 10
14.2721681431
 20
-101.3104967146
 10
13.7568109146
 20
-101.0599568042
 10
13.2741501391
 20
-100.8192488855
 10
12.8237760269
 20
-100.5891480064
 10
12.4183498012
 20
-100.3768793334
 10
12.0443349205
 20
-100.1767990622
 10
11.6625210091
 20
-99.9694820723
 10
11.2601185224
 20
-99.7479364529
 10
10.850238762
 20
-99.5185169113
  0
LWPOLYLINE
  5
236
100
AcDbEntity
  8
0
100
AcDbPolyline
 62
250
  6
CONTINUOUS
 90
13
 70
0
 10
20.1985568318
 20
-102.0649048529
 10
20.2939704961
 20
-102.1142247724
 10
20.3919316064
 20
-102.1569429187
 10
20.4918499147
 20
-102.1928475802
 10
20.5930363815
 20
-102.2217022955
 10
20.6949924977
 20
-102.2433319446
 10
20.7974142057
 20
-102.2575528792
 10
20.8998796017
 20
-102.2641377199
 10
21.0014058633
 20
-102.2630245306
 10
21.1008460944
 20
-102.2542900761
 10
21.1972905679
 20
-102.2380681283
 10
21.2900480184
 20
-102.2144645951
 10
21.3783155173
 20
-102.1835909086
  0
LWPOLYLINE
  5
237
100
AcDbEntity
  8
0
100
AcDbPolyline
 62
250
  6
CONTINUOUS
 90
12
 70
0
 10
19.9851399027
 20
-102.3661304819
 10
20.082485438
 20
-102.4179077078
 10
20.1829397287
 20
-102.4627335997
 10
20.2858318569
 20
-102.500358869
 10
20.3905848183
 20
-102.5305572256
 10
20.4963996126
 20
-102.5530304617
 10
20.6022510118
 20
-102.5674875378
 10
20.7074183572
 20
-102.5737818074
 10
20.8112065089
 20
-102.5719362461
 10
20.9126400141
 20
-102.5620512554
 10
21.0109532632
 20
-102.5442736592
 10
21.1055750208
 20
-102.5187237439
  0
LINE
  5
238
100
AcDbEntity
  8
0
100
AcDbLine
 62
250
  6
CONTINUOUS
 10
10.850238762
 20
-99.5185169113
 11
10.432988823
 21
-99.2809841271
  0
LWPOLYLINE
  5
239
100
AcDbEntity
  8
0
100
AcDbPolyline
 62
7
  6
CONTINUOUS
 90
10
 70
0
 10
10.6298489332
 20
-99.5047046884
 10
10.9196934682
 20
-99.6708426138
 10
11.3836854253
 20
-99.9325367477
 10
11.8488586265
 20
-100.1897119825
 10
12.3148391496
 20
-100.4422212308
 10
12.7818346352
 20
-100.6901562845
 10
13.2505953144
 20
-100.9337183335
 10
13.7214608653
 20
-101.1732109634
 10
14.1941331796
 20
-101.4085474786
 10
14.502934393
 20
-101.5596334367
  0
LWPOLYLINE
  5
23A
100
AcDbEntity
  8
0
100
AcDbPolyline
 62
250
  6
CONTINUOUS
 90
9
 70
0
 10
7.2305022547
 20
-97.2917479779
 10
7.682122247
 20
-97.5904820652
 10
8.1072085079
 20
-97.8658610334
 10
8.4923351965
 20
-98.1100477051
 10
8.8498452922
 20
-98.3323407872
 10
9.218502369
 20
-98.5583363402
 10
9.6116128859
 20
-98.796109959
 10
10.0163747389
 20
-99.0370542751
 10
10.432988823
 20
-99.2809841271
  0
LWPOLYLINE
  5
23B
100
AcDbEntity
  8
SUPERFICI
100
AcDbPolyline
 62
7
  6
CONTINUOUS
 90
10
 70
0
 10
6.9247155637
 20
-97.1839958337
 10
7.2098486101
 20
-97.3760764667
 10
7.6487789894
 20
-97.6672330983
 10
8.0909350214
 20
-97.9549899846
 10
8.5366385235
 20
-98.23943755
 10
8.9854657627
 20
-98.5201812176
 10
9.4365374841
 20
-98.7970530766
 10
9.8894873619
 20
-99.0698899041
 10
10.3446473762
 20
-99.3388377027
 10
10.6295875223
 20
-99.5045537239
  0
LINE
  5
23C
100
AcDbEntity
  8
0
100
AcDbLine
 62
250
  6
CONTINUOUS
 10
6.7528708353
 20
-96.968948688
 11
7.2305022547
 21
-97.2917479779
  0
LINE
  5
23D
100
AcDbEntity
  8
SUPERFICI
100
AcDbLine
 62
250
  6
CONTINUOUS
 10
6.4720583934
 20
-96.7764899024
 11
6.7528708353
 21
-96.968948688
  0
LINE
  5
23E
100
AcDbEntity
  8
SUPERFICI
100
AcDbLine
 62
250
  6
CONTINUOUS
 10
6.2374621873
 20
-96.6139617629
 11
6.4720583934
 21
-96.7764899024
  0
LINE
  5
23F
100
AcDbEntity
  8
SUPERFICI
100
AcDbLine
 62
250
  6
CONTINUOUS
 10
5.9884597598
 20
-96.4396720829
 11
6.2374621873
 21
-96.6139617629
  0
LINE
  5
240
100
AcDbEntity
  8
SUPERFICI
100
AcDbLine
 62
250
  6
CONTINUOUS
 10
5.7653386778
 20
-96.281866402
 11
5.9884597598
 21
-96.4396720829
  0
LINE
  5
241
100
AcDbEntity
  8
SUPERFICI
100
AcDbLine
 62
250
  6
CONTINUOUS
 10
5.4972456015
 20
-96.0903596744
 11
5.7653386778
 21
-96.281866402
  0
LINE
  5
242
100
AcDbEntity
  8
0
100
AcDbLine
 62
7
  6
CONTINUOUS
 10
15.5060835941
 20
-93.9546447727
 11
15.2945873937
 21
-94.0090423019
  0
LWPOLYLINE
  5
243
100
AcDbEntity
  8
0
100
AcDbPolyline
 62
250
  6
CONTINUOUS
 90
4
 70
0
 10
15.2945873937
 20
-94.0090423019
 10
15.0365620632
 20
-94.0674799951
 10
14.7993170298
 20
-94.1113966049
 10
14.6725815319
 20
-94.1307836154
  0
LWPOLYLINE
  5
244
100
AcDbEntity
  8
0
100
AcDbPolyline
 62
250
  6
CONTINUOUS
 90
14
 70
0
 10
14.6508379478
 20
-93.3817775162
 10
15.133717321
 20
-93.2829471221
 10
15.6054872195
 20
-93.1487761445
 10
16.064604811
 20
-92.9794569825
 10
16.5089971102
 20
-92.7757446204
 10
16.9374252749
 20
-92.5382543656
 10
17.3484535501
 20
-92.2676637264
 10
17.7398970201
 20
-91.9652648107
 10
18.1104963178
 20
-91.6322642087
 10
18.459164328
 20
-91.2696807361
 10
18.7841811831
 20
-90.8790654891
 10
19.0842979989
 20
-90.4620342166
 10
19.3587241599
 20
-90.019961316
 10
19.606505988
 20
-89.5544650834
  0
LWPOLYLINE
  5
245
100
AcDbEntity
  8
0
100
AcDbPolyline
 62
7
  6
CONTINUOUS
 90
5
 70
0
 10
14.6725815319
 20
-94.1307836154
 10
14.5611638441
 20
-94.1470673825
 10
14.3214637567
 20
-94.1747402756
 10
14.0777685863
 20
-94.1946791075
 10
13.833951648
 20
-94.2064472126
  0
LWPOLYLINE
  5
246
100
AcDbEntity
  8
SUPERFICI
100
AcDbPolyline
 62
250
  6
CONTINUOUS
 90
4
 70
0
 10
1.9944230451
 20
-92.5438138545
 10
1.9744897425
 20
-92.5462097323
 10
1.9629140269
 20
-92.5441301607
 10
1.9603793917
 20
-92.5416376112
  0
LWPOLYLINE
  5
247
100
AcDbEntity
  8
0
100
AcDbPolyline
 62
250
  6
CONTINUOUS
 90
3
 70
0
 10
13.833951648
 20
-94.2064472126
 10
13.5760864108
 20
-94.2105752606
 10
13.3188844363
 20
-94.2059768813
  0
LWPOLYLINE
  5
248
100
AcDbEntity
  8
0
100
AcDbPolyline
 62
250
  6
CONTINUOUS
 90
10
 70
0
 10
13.3188844363
 20
-94.2059768813
 10
12.8305903298
 20
-94.1739275434
 10
12.3372109929
 20
-94.1112310836
 10
11.8398764492
 20
-94.01794589
 10
11.3389458374
 20
-93.8940616235
 10
10.8358184693
 20
-93.7396520821
 10
10.3331101425
 20
-93.5553238626
 10
9.8324321411
 20
-93.3417948048
 10
9.3343089119
 20
-93.0995678758
 10
8.839803104
 20
-92.8293559301
  0
LWPOLYLINE
  5
249
100
AcDbEntity
  8
0
100
AcDbPolyline
 62
250
  6
CONTINUOUS
 90
13
 70
0
 10
22.4249647156
 20
-96.8943659312
 10
22.5263825721
 20
-96.9360826672
 10
22.6307433332
 20
-96.971516666
 10
22.7373067384
 20
-97.0004538775
 10
22.8454476354
 20
-97.0226995563
 10
22.9542718769
 20
-97.0379950243
 10
23.0626163408
 20
-97.0461012055
 10
23.169670021
 20
-97.0469150959
 10
23.274784936
 20
-97.0405068771
 10
23.3770617941
 20
-97.027019532
 10
23.4757767865
 20
-97.0066214312
 10
23.5703655219
 20
-96.9794543018
 10
23.6601998082
 20
-96.9456653979
  0
LWPOLYLINE
  5
24A
100
AcDbEntity
  8
0
100
AcDbPolyline
 62
250
  6
CONTINUOUS
 90
12
 70
0
 10
8.9975421468
 20
-92.1485201575
 10
9.5157065771
 20
-92.4314041693
 10
10.0365257123
 20
-92.6815373156
 10
10.5586169856
 20
-92.8982281636
 10
11.0808205693
 20
-93.0809895966
 10
11.6020543318
 20
-93.2294057411
 10
12.1215782286
 20
-93.3431540706
 10
12.6381440436
 20
-93.4216888245
 10
13.1504120412
 20
-93.4648130105
 10
13.6574857148
 20
-93.4726829183
 10
14.1581798192
 20
-93.4450896587
 10
14.6508379478
 20
-93.3817775162
  0
LWPOLYLINE
  5
24B
100
AcDbEntity
  8
0
100
AcDbPolyline
 62
250
  6
CONTINUOUS
 90
25
 70
0
 10
8.9975421468
 20
-92.1485201574
 10
8.4825327009
 20
-91.8348625219
 10
7.9726365377
 20
-91.4898735728
 10
7.4693266199
 20
-91.1145106244
 10
6.9738270836
 20
-90.7096630307
 10
6.4872911727
 20
-90.2762055961
 10
6.0104610544
 20
-89.8146716045
 10
5.5445674593
 20
-89.3259466081
 10
5.0906453258
 20
-88.8112047216
 10
4.6490760005
 20
-88.2713400512
 10
4.2207683144
 20
-87.7073528009
 10
3.8071478343
 20
-87.120766748
 10
3.4094143233
 20
-86.5134815113
 10
3.028405892
 20
-85.8869270139
 10
2.6651611144
 20
-85.2427861266
 10
2.3209203695
 20
-84.5837269286
 10
1.9961702849
 20
-83.9113609923
 10
1.6915787089
 20
-83.2275804198
 10
1.408377038
 20
-82.535649855
 10
1.1467708943
 20
-81.8376217546
 10
0.9068769247
 20
-81.1352099713
 10
0.6894309824
 20
-80.4313835037
 10
0.4945503248
 20
-79.7285468939
 10
0.321827767
 20
-79.0282959271
 10
0.1710261747
 20
-78.332662623
  0
LINE
  5
24C
100
AcDbEntity
  8
SUPERFICI
100
AcDbLine
 62
250
  6
CONTINUOUS
 10
5.2673079221
 20
-95.9244090571
 11
5.4972456015
 21
-96.0903596744
  0
LINE
  5
24D
100
AcDbEntity
  8
SUPERFICI
100
AcDbLine
 62
250
  6
CONTINUOUS
 10
4.9667884871
 20
-95.7050534657
 11
5.2673079221
 21
-95.9244090571
  0
LWPOLYLINE
  5
24E
100
AcDbEntity
  8
0
100
AcDbPolyline
 62
250
  6
CONTINUOUS
 90
13
 70
0
 10
19.6318528573
 20
-102.7274447791
 10
19.7197813735
 20
-102.7921187193
 10
19.8109476467
 20
-102.8493610844
 10
19.9049893679
 20
-102.8989748416
 10
20.0014956264
 20
-102.9407466518
 10
20.0997195129
 20
-102.9743394665
 10
20.1987879197
 20
-102.9993874417
 10
20.297912171
 20
-103.0156131133
 10
20.3963154204
 20
-103.0229506773
 10
20.4931425337
 20
-103.0213959337
 10
20.5876598056
 20
-103.0109792304
 10
20.6794029971
 20
-102.9917658996
 10
20.7679294573
 20
-102.9638296752
  0
LWPOLYLINE
  5
24F
100
AcDbEntity
  8
SUPERFICI
100
AcDbPolyline
 62
250
  6
CONTINUOUS
 90
4
 70
0
 10
1.6227081145
 20
-91.7638925026
 10
1.5949737698
 20
-91.7434501735
 10
1.5757559087
 20
-91.7191788648
 10
1.5702193933
 20
-91.7082494914
  0
LINE
  5
250
100
AcDbEntity
  8
SUPERFICI
100
AcDbLine
 62
250
  6
CONTINUOUS
 10
4.7034204424
 20
-95.5105048672
 11
4.9667884871
 21
-95.7050534657
  0
LWPOLYLINE
  5
251
100
AcDbEntity
  8
SUPERFICI
100
AcDbPolyline
 62
7
  6
CONTINUOUS
 90
9
 70
0
 10
4.3995678321
 20
-95.3817250051
 10
4.6948772113
 20
-95.6021938699
 10
5.0016645526
 20
-95.8284454177
 10
5.3200676275
 20
-96.0602550097
 10
5.6501750577
 20
-96.2974285717
 10
5.992092733
 20
-96.5397938302
 10
6.3459568264
 20
-96.7870890206
 10
6.7119295583
 20
-97.0390339832
 10
6.9252914228
 20
-97.1841688477
  0
LINE
  5
252
100
AcDbEntity
  8
SUPERFICI
100
AcDbLine
 62
250
  6
CONTINUOUS
 10
4.4246852213
 20
-95.302185911
 11
4.7034204424
 21
-95.5105048672
  0
LINE
  5
253
100
AcDbEntity
  8
SUPERFICI
100
AcDbLine
 62
250
  6
CONTINUOUS
 10
4.2230847349
 20
-95.1500286064
 11
4.4246852213
 21
-95.302185911
  0
LINE
  5
254
100
AcDbEntity
  8
SUPERFICI
100
AcDbLine
 62
7
  6
CONTINUOUS
 10
4.1816291264
 20
-95.2175036141
 11
4.3995678321
 21
-95.3817250051
  0
LINE
  5
255
100
AcDbEntity
  8
SUPERFICI
100
AcDbLine
 62
250
  6
CONTINUOUS
 10
4.2230847349
 20
-95.1500286064
 11
4.0157484215
 21
-94.9922414729
  0
LWPOLYLINE
  5
256
100
AcDbEntity
  8
SUPERFICI
100
AcDbPolyline
 62
7
  6
CONTINUOUS
 90
3
 70
0
 10
4.0242987645
 20
-95.0967384708
 10
4.077186558
 20
-95.1376726523
 10
4.1816291264
 20
-95.2175036141
  0
LWPOLYLINE
  5
257
100
AcDbEntity
  8
SUPERFICI
100
AcDbPolyline
 62
250
  6
CONTINUOUS
 90
5
 70
0
 10
3.9009361256
 20
-94.9030329027
 10
3.9238243829
 20
-94.9210281013
 10
3.9467787276
 20
-94.938866861
 10
3.9696457371
 20
-94.9564129217
 10
4.0155607311
 20
-94.9911814774
  0
LINE
  5
258
100
AcDbEntity
  8
SUPERFICI
100
AcDbLine
 62
250
  6
CONTINUOUS
 10
3.8568858399
 20
-94.8679239517
 11
3.9009361256
 21
-94.9030329027
  0
LINE
  5
259
100
AcDbEntity
  8
SUPERFICI
100
AcDbLine
 62
250
  6
CONTINUOUS
 10
3.8150800218
 20
-94.8340345025
 11
3.8568858399
 21
-94.8679239517
  0
LWPOLYLINE
  5
25A
100
AcDbEntity
  8
SUPERFICI
100
AcDbPolyline
 62
250
  6
CONTINUOUS
 90
4
 70
0
 10
1.4004212939
 20
-91.2110969892
 10
1.3762022982
 20
-91.1913425103
 10
1.3602811357
 20
-91.1683064596
 10
1.3575294734
 20
-91.1618601478
  0
LWPOLYLINE
  5
25B
100
AcDbEntity
  8
SUPERFICI
100
AcDbPolyline
 62
250
  6
CONTINUOUS
 90
12
 70
0
 10
3.8150800218
 20
-94.8340345025
 10
3.6397552357
 20
-94.6870057263
 10
3.4677928654
 20
-94.5297433453
 10
3.299504552
 20
-94.3629730507
 10
3.1353603311
 20
-94.1876212383
 10
2.9755806398
 20
-94.0043462655
 10
2.8200934924
 20
-93.8133727799
 10
2.6690952015
 20
-93.6152873043
 10
2.5230476639
 20
-93.4109374431
 10
2.3822673043
 20
-93.2008917142
 10
2.2470567144
 20
-92.9858555795
 10
2.1176839051
 20
-92.7666104268
  0
LWPOLYLINE
  5
25C
100
AcDbEntity
  8
0
100
AcDbPolyline
 62
250
  6
CONTINUOUS
 90
13
 70
0
 10
23.4564292393
 20
-91.6047336235
 10
23.5648525356
 20
-91.645247909
 10
23.6772352331
 20
-91.6791827621
 10
23.7926900573
 20
-91.7063225241
 10
23.910462979
 20
-91.7264695004
 10
24.0294815397
 20
-91.7393619054
 10
24.1483496217
 20
-91.7447678883
 10
24.2660803028
 20
-91.7425976906
 10
24.3818077409
 20
-91.7329526177
 10
24.4943368709
 20
-91.7160300629
 10
24.602705698
 20
-91.6920529735
 10
24.7061644579
 20
-91.6612055114
 10
24.8038812038
 20
-91.6236807303
  0
LWPOLYLINE
  5
25D
100
AcDbEntity
  8
0
100
AcDbPolyline
 62
250
  6
CONTINUOUS
 90
16
 70
0
 10
23.6245052539
 20
-89.8836857273
 10
23.7102942458
 20
-89.9159490218
 10
23.801406678
 20
-89.9449154881
 10
23.8952154994
 20
-89.9695621091
 10
23.991118426
 20
-89.9896571663
 10
24.0888695364
 20
-90.005181013
 10
24.1873837597
 20
-90.0159338595
 10
24.2858378341
 20
-90.0218130689
 10
24.3838669757
 20
-90.0227592327
 10
24.4810411067
 20
-90.0187656975
 10
24.5770286274
 20
-90.0098829336
 10
24.6711330363
 20
-89.996189762
 10
24.7624401121
 20
-89.9778544323
 10
24.8503496244
 20
-89.955051797
 10
24.9345433079
 20
-89.9278927125
 10
25.0145778297
 20
-89.8965096322
  0
LWPOLYLINE
  5
25E
100
AcDbEntity
  8
0
100
AcDbPolyline
 62
250
  6
CONTINUOUS
 90
13
 70
0
 10
23.1109420627
 20
-93.9596667171
 10
23.2160940323
 20
-93.9999936466
 10
23.3245441817
 20
-94.0338849734
 10
23.4355071019
 20
-94.0611416141
 10
23.5483127842
 20
-94.0815812003
 10
23.6620182622
 20
-94.0949635563
 10
23.7754056956
 20
-94.1010727579
 10
23.8876124818
 20
-94.0998204416
 10
23.997873402
 20
-94.091290446
 10
24.1051355766
 20
-94.0756515592
 10
24.208551043
 20
-94.0530974593
 10
24.3074581988
 20
-94.0237884453
 10
24.4011212267
 20
-93.9878925018
  0
LWPOLYLINE
  5
25F
100
AcDbEntity
  8
0
100
AcDbPolyline
 62
250
  6
CONTINUOUS
 90
37
 70
0
 10
9.9823809986
 20
-89.4867082744
 10
10.2316219058
 20
-89.6223386364
 10
10.4808556743
 20
-89.7516764668
 10
10.730085764
 20
-89.8747214479
 10
10.9765320876
 20
-89.990722198
 10
11.2229733586
 20
-90.1004337374
 10
11.4778000779
 20
-90.2060881023
 10
11.7471085743
 20
-90.3093401668
 10
12.024943832
 20
-90.4084584719
 10
12.3016092662
 20
-90.5006010239
 10
12.5739172545
 20
-90.5851534237
 10
12.8450455242
 20
-90.662736648
 10
13.1147850715
 20
-90.7323955723
 10
13.3833182073
 20
-90.7939077699
 10
13.6504746922
 20
-90.8474894705
 10
13.9155145096
 20
-90.8928447391
 10
14.1794576146
 20
-90.9299269932
 10
14.4412964722
 20
-90.9587751376
 10
14.6972200265
 20
-90.9792380651
 10
14.9449055285
 20
-90.9911329106
 10
15.186625868
 20
-90.994669251
 10
15.4254579874
 20
-90.9902874298
 10
15.6643147973
 20
-90.9777874514
 10
15.9003024911
 20
-90.9573555155
 10
16.1277665652
 20
-90.9300235678
 10
16.3431069697
 20
-90.8964137528
 10
16.5498359373
 20
-90.855952051
 10
16.7529615915
 20
-90.8078793341
 10
16.9561588387
 20
-90.7509260066
 10
17.1557751635
 20
-90.6863444541
 10
17.3458140341
 20
-90.617166947
 10
17.5223578422
 20
-90.5452137228
 10
17.6892212363
 20
-90.4687231827
 10
17.85199947
 20
-90.3853587724
 10
18.0125756286
 20
-90.2943293165
 10
18.1690776569
 20
-90.1964153183
 10
18.3215077726
 20
-90.091613368
  0
LWPOLYLINE
  5
260
100
AcDbEntity
  8
0
100
AcDbPolyline
 62
250
  6
CONTINUOUS
 90
37
 70
0
 10
9.9823816752
 20
-89.4867173419
 10
9.7323345138
 20
-89.3340612976
 10
9.4822797743
 20
-89.1751134282
 10
9.2322177343
 20
-89.0098715755
 10
8.9850227898
 20
-88.8408495031
 10
8.7378134125
 20
-88.6655337564
 10
8.4820027494
 20
-88.4763529009
 10
8.2114923146
 20
-88.2679203596
 10
7.9325106085
 20
-88.0455396013
 10
7.6549516854
 20
-87.8176800183
 10
7.3820593265
 20
-87.58744062
 10
7.1105761092
 20
-87.3517268114
 10
6.840585896
 20
-87.1097525704
 10
6.5718770939
 20
-86.8610680389
 10
6.3046685336
 20
-86.6061140873
 10
6.0396872867
 20
-86.3454418545
 10
5.7758956788
 20
-86.0778167062
 10
5.5143405417
 20
-85.8044637153
 10
5.25884753
 20
-85.5296411183
 10
5.0116776974
 20
-85.2558126821
 10
4.7705209673
 20
-84.9805418344
 10
4.5323416389
 20
-84.7007395541
 10
4.2942421055
 20
-84.412850924
 10
4.0591392389
 20
-84.1204171584
 10
3.8326988908
 20
-83.8310064373
 10
3.6184290566
 20
-83.5493450033
 10
3.412738182
 20
-83.2707571975
 10
3.2106375949
 20
-82.9887118672
 10
3.0084587378
 20
-82.6976993917
 10
2.8098953912
 20
-82.4032138168
 10
2.6209890564
 20
-82.1152380246
 10
2.4455606847
 20
-81.8400604003
 10
2.2796903838
 20
-81.571453518
 10
2.1178021278
 20
-81.3006306669
 10
1.958056774
 20
-81.0246515045
 10
1.8023088445
 20
-80.7464482128
 10
1.6505629611
 20
-80.4660187698
  0
LWPOLYLINE
  5
261
100
AcDbEntity
  8
SUPERFICI
100
AcDbPolyline
 62
250
  6
CONTINUOUS
 90
4
 70
0
 10
-1.0818484862
 20
-83.321826598
 10
-1.1136607658
 20
-83.2866179232
 10
-1.1367477593
 20
-83.2484651858
 10
-1.1497887637
 20
-83.2125494011
  0
LWPOLYLINE
  5
262
100
AcDbEntity
  8
0
100
AcDbPolyline
 62
250
  6
CONTINUOUS
 90
10
 70
0
 10
4.6499493755
 20
-89.2006424245
 10
5.0788899111
 20
-89.6981928733
 10
5.5192569008
 20
-90.1746298399
 10
5.9701642202
 20
-90.6288476137
 10
6.4314327824
 20
-91.0605250912
 10
6.9019055983
 20
-91.4682600939
 10
7.3791623947
 20
-91.8497514547
 10
7.8616617295
 20
-92.2038966687
 10
8.3488964764
 20
-92.5306030858
 10
8.839803104
 20
-92.8293559302
  0
LWPOLYLINE
  5
263
100
AcDbEntity
  8
0
100
AcDbPolyline
 62
250
  6
CONTINUOUS
 90
15
 70
0
 10
23.9177664102
 20
-84.9895397833
 10
24.0123483992
 20
-85.0149874001
 10
24.1100885556
 20
-85.0360338612
 10
24.2103575377
 20
-85.0525487577
 10
24.312513998
 20
-85.0644283496
 10
24.4159090149
 20
-85.0715953021
 10
24.5198826683
 20
-85.0740068925
 10
24.6237668093
 20
-85.0716500225
 10
24.726895289
 20
-85.0645368424
 10
24.8286044455
 20
-85.0527169666
 10
24.9282477012
 20
-85.0362689765
 10
25.0251977528
 20
-85.0152923344
 10
25.1188371667
 20
-84.989920136
 10
25.208563155
 20
-84.9603197928
 10
25.2938012472
 20
-84.9266829138
  0
LWPOLYLINE
  5
264
100
AcDbEntity
  8
0
100
AcDbPolyline
 62
250
  6
CONTINUOUS
 90
16
 70
0
 10
23.8114163171
 20
-86.0661178422
 10
23.9013574124
 20
-86.0971632917
 10
23.9952186158
 20
-86.124052235
 10
24.0924541512
 20
-86.1466376566
 10
24.1927127414
 20
-86.1648030374
 10
24.2952045385
 20
-86.1783423889
 10
24.3986713671
 20
-86.1870600001
 10
24.5022261134
 20
-86.1908866332
 10
24.6055074868
 20
-86.1897892218
 10
24.7080338963
 20
-86.1837819895
 10
24.809408639
 20
-86.1729281525
 10
24.9088266908
 20
-86.1573283616
 10
25.0052337226
 20
-86.1371835512
 10
25.0979328682
 20
-86.1126943436
 10
25.186548668
 20
-86.0839865187
 10
25.2705660079
 20
-86.0512114539
  0
LWPOLYLINE
  5
265
100
AcDbEntity
  8
0
100
AcDbPolyline
 62
250
  6
CONTINUOUS
 90
16
 70
0
 10
23.7998806502
 20
-86.5053064913
 10
23.8897038441
 20
-86.5368404337
 10
23.9833824331
 20
-86.564185597
 10
24.0803788068
 20
-86.5871952361
 10
24.1803453465
 20
-86.6057532111
 10
24.2825066417
 20
-86.6196541165
 10
24.3856308178
 20
-86.628701559
 10
24.4888441837
 20
-86.6328246968
 10
24.5917936849
 20
-86.6319901851
 10
24.69401225
 20
-86.6262104643
 10
24.7951082622
 20
-86.615545718
 10
24.8942719526
 20
-86.6000936627
 10
24.990443776
 20
-86.5800536365
 10
25.0829247794
 20
-86.5556256943
 10
25.1713402843
 20
-86.526934479
 10
25.2551741563
 20
-86.4941304485
  0
LWPOLYLINE
  5
266
100
AcDbEntity
  8
0
100
AcDbPolyline
 62
250
  6
CONTINUOUS
 90
18
 70
0
 10
23.8278430155
 20
-84.9601676996
 10
23.6586198043
 20
-84.8997480948
 10
23.491194308
 20
-84.8390765712
 10
23.3244843948
 20
-84.7777818109
 10
23.1584463212
 20
-84.7158413581
 10
22.992926805
 20
-84.6531955955
 10
22.8283425032
 20
-84.5900053131
 10
22.6641090567
 20
-84.5260438361
 10
22.499986247
 20
-84.4612089535
 10
22.3370476175
 20
-84.3959235597
 10
22.1744157129
 20
-84.329836234
 10
22.0120872179
 20
-84.262937621
 10
21.8524647574
 20
-84.1962301876
 10
21.6962732025
 20
-84.1300572652
 10
21.5420867377
 20
-84.0638497377
 10
21.3890212662
 20
-83.9972397833
 10
21.2365099134
 20
-83.929982651
 10
21.08473757
 20
-83.8621656009
  0
LWPOLYLINE
  5
267
100
AcDbEntity
  8
0
100
AcDbPolyline
 62
250
  6
CONTINUOUS
 90
16
 70
0
 10
23.7356432169
 20
-88.0189880843
 10
23.8266428836
 20
-88.0527385873
 10
23.9220272651
 20
-88.0826597825
 10
24.0183133009
 20
-88.1071181198
 10
24.1163936645
 20
-88.1266080527
 10
24.216882206
 20
-88.1416002307
 10
24.3185700818
 20
-88.1518804223
 10
24.4204295387
 20
-88.1572761818
 10
24.5219401251
 20
-88.1576611954
 10
24.6225649077
 20
-88.1530035798
 10
24.7219446392
 20
-88.1433684828
 10
24.819338854
 20
-88.1288542058
 10
24.9137715624
 20
-88.1096544782
 10
25.0046041992
 20
-88.0859674631
 10
25.091500858
 20
-88.0579217863
 10
25.1739926404
 20
-88.025669191
  0
LWPOLYLINE
  5
268
100
AcDbEntity
  8
SUPERFICI
100
AcDbPolyline
 62
250
  6
CONTINUOUS
 90
7
 70
0
 10
-2.6404317868
 20
-74.718640257
 10
-2.6814869771
 20
-74.6776653104
 10
-2.7169394026
 20
-74.633554814
 10
-2.7454855189
 20
-74.5875552275
 10
-2.766830131
 20
-74.5399530254
 10
-2.7809660112
 20
-74.490874726
 10
-2.7865384632
 20
-74.4551726216
  0
LWPOLYLINE
  5
269
100
AcDbEntity
  8
SUPERFICI
100
AcDbPolyline
 62
250
  6
CONTINUOUS
 90
5
 70
0
 10
-2.4158136919
 20
-76.6664248104
 10
-2.4617134513
 20
-76.6178348976
 10
-2.4974493071
 20
-76.5662479544
 10
-2.5228159309
 20
-76.5120791773
 10
-2.5384498769
 20
-76.4503252514
  0
LWPOLYLINE
  5
26A
100
AcDbEntity
  8
SUPERFICI
100
AcDbPolyline
 62
250
  6
CONTINUOUS
 90
5
 70
0
 10
-1.9514233741
 20
-79.4889710192
 10
-1.9900850821
 20
-79.4462617336
 10
-2.0193041388
 20
-79.4006645861
 10
-2.0389331208
 20
-79.3525190993
 10
-2.0449215265
 20
-79.3285229402
  0
LWPOLYLINE
  5
26B
100
AcDbEntity
  8
SUPERFICI
100
AcDbPolyline
 62
250
  6
CONTINUOUS
 90
3
 70
0
 10
4.2086366065
 20
-88.6514721085
 10
4.4267992632
 20
-88.9278915291
 10
4.6499493755
 20
-89.2006424245
  0
LWPOLYLINE
  5
26C
100
AcDbEntity
  8
SUPERFICI
100
AcDbPolyline
 62
7
  6
CONTINUOUS
 90
5
 70
0
 10
3.4958637167
 20
-87.6759721371
 10
3.5903971168
 20
-87.8126841702
 10
3.7912271115
 20
-88.0947136115
 10
3.9971904137
 20
-88.3742796099
 10
4.2086366065
 20
-88.6514721085
  0
LWPOLYLINE
  5
26D
100
AcDbEntity
  8
SUPERFICI
100
AcDbPolyline
 62
250
  6
CONTINUOUS
 90
4
 70
0
 10
2.9875546678
 20
-86.9038010348
 10
3.1973211405
 20
-87.2316506669
 10
3.3926076785
 20
-87.5253055852
 10
3.4958637167
 20
-87.6759721371
  0
LINE
  5
26E
100
AcDbEntity
  8
SUPERFICI
100
AcDbLine
 62
7
  6
CONTINUOUS
 10
2.8160807569
 20
-86.6275961776
 11
2.9875546678
 21
-86.9038010348
  0
LINE
  5
26F
100
AcDbEntity
  8
SUPERFICI
100
AcDbLine
 62
7
  6
CONTINUOUS
 10
2.5769747909
 20
-86.2261585419
 11
2.8160807569
 21
-86.6275961776
  0
LINE
  5
270
100
AcDbEntity
  8
SUPERFICI
100
AcDbLine
 62
250
  6
CONTINUOUS
 10
2.1176839051
 20
-92.7666104268
 11
1.9943697407
 21
-92.5438261291
  0
LWPOLYLINE
  5
271
100
AcDbEntity
  8
SUPERFICI
100
AcDbPolyline
 62
7
  6
CONTINUOUS
 90
15
 70
0
 10
1.9603849157
 20
-92.5416363299
 10
2.0198787019
 20
-92.6525113402
 10
2.1874525354
 20
-92.9472225416
 10
2.3692939566
 20
-93.2415446114
 10
2.5736649994
 20
-93.5452882224
 10
2.7928331059
 20
-93.843290083
 10
2.9989238168
 20
-94.1002051409
 10
3.1768173724
 20
-94.3053463606
 10
3.3354928703
 20
-94.476189653
 10
3.4810700338
 20
-94.6233527957
 10
3.6124031699
 20
-94.7485388273
 10
3.7286182771
 20
-94.8534858276
 10
3.8385153777
 20
-94.9477625767
 10
3.9433726895
 20
-95.0333802735
 10
4.0242987645
 20
-95.0967384708
  0
LINE
  5
272
100
AcDbEntity
  8
SUPERFICI
100
AcDbLine
 62
250
  6
CONTINUOUS
 10
1.9943697407
 20
-92.5438261291
 11
1.9273126416
 21
-92.4160336542
  0
LINE
  5
273
100
AcDbEntity
  8
SUPERFICI
100
AcDbLine
 62
250
  6
CONTINUOUS
 10
1.9273126416
 20
-92.4160336542
 11
1.8622419979
 21
-92.2871893206
  0
LWPOLYLINE
  5
274
100
AcDbEntity
  8
SUPERFICI
100
AcDbPolyline
 62
250
  6
CONTINUOUS
 90
5
 70
0
 10
6.7528708354
 20
-96.9689486882
 10
6.7850542913
 20
-97.0327079209
 10
6.8238627882
 20
-97.0894738242
 10
6.8689853795
 20
-97.1388913957
 10
6.9249690755
 20
-97.1839502395
  0
LWPOLYLINE
  5
275
100
AcDbEntity
  8
SUPERFICI
100
AcDbPolyline
 62
250
  6
CONTINUOUS
 90
3
 70
0
 10
1.8622419979
 20
-92.2871893206
 10
1.7992028248
 20
-92.1574233756
 10
1.7382394568
 20
-92.0268668036
  0
LWPOLYLINE
  5
276
100
AcDbEntity
  8
SUPERFICI
100
AcDbPolyline
 62
250
  6
CONTINUOUS
 90
3
 70
0
 10
1.7382394568
 20
-92.0268668036
 10
1.6793944737
 20
-91.8956481154
 10
1.6227081145
 20
-91.7638925026
  0
LWPOLYLINE
  5
277
100
AcDbEntity
  8
SUPERFICI
100
AcDbPolyline
 62
7
  6
CONTINUOUS
 90
17
 70
0
 10
1.5820270345
 20
-91.7370041464
 10
1.6008426454
 20
-91.7820293955
 10
1.6203336908
 20
-91.8278991451
 10
1.6405134466
 20
-91.8747899015
 10
1.6613853393
 20
-91.9226496794
 10
1.6830095557
 20
-91.9715015425
 10
1.7054141177
 20
-92.0213315926
 10
1.7285679338
 20
-92.0720391058
 10
1.7524744104
 20
-92.1235989067
 10
1.7771581123
 20
-92.176013082
 10
1.8026165919
 20
-92.2292229772
 10
1.8288676282
 20
-92.2832204152
 10
1.8559223377
 20
-92.337986144
 10
1.8837637294
 20
-92.3934466023
 10
1.9123893162
 20
-92.4495596763
 10
1.9418427243
 20
-92.5063622936
 10
1.9603105433
 20
-92.5415073515
  0
LWPOLYLINE
  5
278
100
AcDbEntity
  8
SUPERFICI
100
AcDbPolyline
 62
250
  6
CONTINUOUS
 90
10
 70
0
 10
0.6509960014
 20
-78.2484217635
 10
0.6098060462
 20
-78.2500354407
 10
0.5650023595
 20
-78.2536886583
 10
0.5168130691
 20
-78.2593567744
 10
0.4654352246
 20
-78.2670202809
 10
0.4111291689
 20
-78.2766506651
 10
0.3542523616
 20
-78.2881842262
 10
0.2951238471
 20
-78.3015461279
 10
0.2339904506
 20
-78.3166765702
 10
0.1711314279
 20
-78.333509633
  0
LINE
  5
279
100
AcDbEntity
  8
SUPERFICI
100
AcDbLine
 62
250
  6
CONTINUOUS
 10
-0.7564875732
 20
-73.1304858392
 11
-0.7480857303
 21
-73.1319423187
  0
LWPOLYLINE
  5
27A
100
AcDbEntity
  8
SUPERFICI
100
AcDbPolyline
 62
250
  6
CONTINUOUS
 90
10
 70
0
 10
-0.4186154021
 20
-74.5974577714
 10
-0.4359331332
 20
-74.5924291756
 10
-0.4538146652
 20
-74.5877120874
 10
-0.472242247
 20
-74.5833098294
 10
-0.4911863452
 20
-74.5792281132
 10
-0.5106408182
 20
-74.5754672543
 10
-0.5306263959
 20
-74.5720226131
 10
-0.5511420585
 20
-74.5688940423
 10
-0.5721615584
 20
-74.5660854236
 10
-0.5936709243
 20
-74.5635983957
  0
LWPOLYLINE
  5
27B
100
AcDbEntity
  8
0
100
AcDbPolyline
 62
7
  6
CONTINUOUS
 90
3
 70
0
 10
9.989188127
 20
-75.9768868365
 10
9.858218204
 20
-75.9302963737
 10
9.7261229862
 20
-75.87146698
  0
LWPOLYLINE
  5
27C
100
AcDbEntity
  8
0
100
AcDbPolyline
 62
7
  6
CONTINUOUS
 90
8
 70
0
 10
9.7273507424
 20
-75.8945232544
 10
9.8812527913
 20
-75.9596010298
 10
10.0329625524
 20
-76.0077695104
 10
10.1815567951
 20
-76.0386639954
 10
10.3256312764
 20
-76.0519547002
 10
10.4633900819
 20
-76.0476181477
 10
10.5933955671
 20
-76.0260211931
 10
10.7152866193
 20
-75.9875675792
  0
LWPOLYLINE
  5
27D
100
AcDbEntity
  8
SUPERFICI
100
AcDbPolyline
 62
250
  6
CONTINUOUS
 90
10
 70
0
 10
-2.7675129892
 20
-73.1039569095
 10
-2.5859904073
 20
-73.1856106733
 10
-2.3967705003
 20
-73.2653141489
 10
-2.1990492003
 20
-73.3434978752
 10
-1.990128868
 20
-73.4211086496
 10
-1.7702851528
 20
-73.4977758496
 10
-1.5431363605
 20
-73.5720373441
 10
-1.3088723125
 20
-73.6436763895
 10
-1.063517049
 20
-73.7135443247
 10
-0.8042174709
 20
-73.7817657733
  0
LINE
  5
27E
100
AcDbEntity
  8
0
100
AcDbLine
 62
250
  6
CONTINUOUS
 10
21.08473757
 20
-83.8621656009
 11
20.9326755102
 21
-83.793307162
  0
LWPOLYLINE
  5
27F
100
AcDbEntity
  8
SUPERFICI
100
AcDbPolyline
 62
250
  6
CONTINUOUS
 90
10
 70
0
 10
-0.6768128176
 20
-73.8455357155
 10
-0.6922508548
 20
-73.8379593286
 10
-0.7073833138
 20
-73.8302155043
 10
-0.7222040483
 20
-73.8223078875
 10
-0.7367113307
 20
-73.8142376146
 10
-0.7508944815
 20
-73.8060107001
 10
-0.7647348423
 20
-73.7976385272
 10
-0.7782231834
 20
-73.7891277518
 10
-0.7913587312
 20
-73.7804798115
 10
-0.8041364784
 20
-73.7716986552
  0
LWPOLYLINE
  5
280
100
AcDbEntity
  8
0
100
AcDbPolyline
 62
7
  6
CONTINUOUS
 90
7
 70
0
 10
9.6982853709
 20
-76.2699266505
 10
9.6773204185
 20
-76.2591701276
 10
9.6563488085
 20
-76.2481647414
 10
9.6353726282
 20
-76.2369116122
 10
9.6143939651
 20
-76.2254118843
 10
9.5934149071
 20
-76.2136667264
 10
9.5724375419
 20
-76.2016773312
  0
LINE
  5
281
100
AcDbEntity
  8
0
100
AcDbLine
 62
7
  6
CONTINUOUS
 10
9.5724412843
 20
-75.8130516953
 11
9.7273507424
 21
-75.8945232544
  0
LINE
  5
282
100
AcDbEntity
  8
0
100
AcDbLine
 62
7
  6
CONTINUOUS
 10
9.7261229862
 20
-75.87146698
 11
9.5936544646
 21
-75.8008034448
  0
LWPOLYLINE
  5
283
100
AcDbEntity
  8
SUPERFICI
100
AcDbPolyline
 62
250
  6
CONTINUOUS
 90
10
 70
0
 10
-0.811796471
 20
-72.3445580247
 10
-1.0762958535
 20
-72.2034124708
 10
-1.3266675513
 20
-72.065301001
 10
-1.5662409807
 20
-71.9287013042
 10
-1.7996586158
 20
-71.7910454873
 10
-2.0268373084
 20
-71.6522961204
 10
-2.2437705703
 20
-71.5149140896
 10
-2.4503670416
 20
-71.3790844944
 10
-2.6495730761
 20
-71.2428943157
 10
-2.8447234244
 20
-71.1037483004
  0
LWPOLYLINE
  5
284
100
AcDbEntity
  8
0
100
AcDbPolyline
 62
7
  6
CONTINUOUS
 90
10
 70
0
 10
20.8956538301
 20
-85.4516347456
 10
20.8917043747
 20
-85.4493902389
 10
20.8876680969
 20
-85.4477294564
 10
20.8836557081
 20
-85.4467615689
 10
20.879750449
 20
-85.446512761
 10
20.8760070523
 20
-85.4469530853
 10
20.8724315332
 20
-85.4479641397
 10
20.8690243944
 20
-85.4494427029
 10
20.8657834629
 20
-85.4513591987
 10
20.8626755307
 20
-85.4536480368
  0
LINE
  5
285
100
AcDbEntity
  8
0
100
AcDbLine
 62
7
  6
CONTINUOUS
 10
10.0491208421
 20
-75.8119334132
 11
9.6517786
 21
-75.5834127169
  0
LINE
  5
286
100
AcDbEntity
  8
0
100
AcDbLine
 62
7
  6
CONTINUOUS
 10
9.6517786
 20
-75.5834127169
 11
9.2584191731
 21
-75.3559135726
  0
LINE
  5
287
100
AcDbEntity
  8
0
100
AcDbLine
 62
7
  6
CONTINUOUS
 10
9.2584191731
 20
-75.3559135726
 11
9.1016695574
 21
-75.2649036196
  0
LWPOLYLINE
  5
288
100
AcDbEntity
  8
SUPERFICI
100
AcDbPolyline
 62
7
  6
CONTINUOUS
 90
10
 70
0
 10
-0.7989456333
 20
-72.9254449126
 10
-0.7957885991
 20
-72.9273036039
 10
-0.792564813
 20
-72.9298346913
 10
-0.7893595529
 20
-72.9330341839
 10
-0.7862398835
 20
-72.9368414817
 10
-0.7832466023
 20
-72.9411714794
 10
-0.7803787132
 20
-72.9459028769
 10
-0.7776353936
 20
-72.9509326377
 10
-0.7750175259
 20
-72.9562319307
 10
-0.7724993669
 20
-72.9617692034
  0
LWPOLYLINE
  5
289
100
AcDbEntity
  8
0
100
AcDbPolyline
 62
250
  6
CONTINUOUS
 90
10
 70
0
 10
20.9096114817
 20
-84.8862267434
 10
21.2487070032
 20
-85.0935893223
 10
21.5766289606
 20
-85.2893773612
 10
21.8978684082
 20
-85.476583991
 10
22.2190616851
 20
-85.6591535638
 10
22.5407450315
 20
-85.8373102594
 10
22.8576665431
 20
-86.008169284
 10
23.1698377708
 20
-86.1718696564
 10
23.4820152411
 20
-86.3309459043
 10
23.8004437233
 20
-86.4883338691
  0
LWPOLYLINE
  5
28A
100
AcDbEntity
  8
0
100
AcDbPolyline
 62
7
  6
CONTINUOUS
 90
7
 70
0
 10
9.5724375419
 20
-76.2016773312
 10
9.3892292309
 20
-76.0864756745
 10
9.207560064
 20
-75.9534898683
 10
9.0288198335
 20
-75.8037151852
 10
8.85432308
 20
-75.6381732921
 10
8.685474933
 20
-75.4581980609
 10
8.5237301661
 20
-75.2654938785
  0
LINE
  5
28B
100
AcDbEntity
  8
0
100
AcDbLine
 62
7
  6
CONTINUOUS
 10
9.4182294653
 20
-75.7160913637
 11
9.5724412843
 21
-75.8130516953
  0
LINE
  5
28C
100
AcDbEntity
  8
0
100
AcDbLine
 62
7
  6
CONTINUOUS
 10
9.5936544646
 20
-75.8008034448
 11
9.4394616624
 21
-75.7038558141
  0
LWPOLYLINE
  5
28D
100
AcDbEntity
  8
0
100
AcDbPolyline
 62
250
  6
CONTINUOUS
 90
10
 70
0
 10
23.7283937619
 20
-88.4023613959
 10
23.4130665202
 20
-88.1971402985
 10
23.102031951
 20
-87.9880031092
 10
22.7925035988
 20
-87.7733072437
 10
22.4793636698
 20
-87.5494869662
 10
22.1623977627
 20
-87.316207018
 10
21.8458499679
 20
-87.0765449173
 10
21.5287448451
 20
-86.8298303137
 10
21.2046464876
 20
-86.5709028651
 10
20.8688573508
 20
-86.2955275479
  0
LWPOLYLINE
  5
28E
100
AcDbEntity
  8
0
100
AcDbPolyline
 62
250
  6
CONTINUOUS
 90
10
 70
0
 10
20.7316297696
 20
-86.2065021546
 10
20.7457630793
 20
-86.2159998928
 10
20.7602071656
 20
-86.2253331951
 10
20.7749552442
 20
-86.2344982403
 10
20.7900052082
 20
-86.243493951
 10
20.8053458535
 20
-86.2523137064
 10
20.8209559681
 20
-86.2609458689
 10
20.8368231576
 20
-86.269384609
 10
20.8529447573
 20
-86.2776293788
 10
20.8693134187
 20
-86.2856769937
  0
LWPOLYLINE
  5
28F
100
AcDbEntity
  8
0
100
AcDbPolyline
 62
250
  6
CONTINUOUS
 90
10
 70
0
 10
20.4511118835
 20
-86.647376747
 10
20.4717095181
 20
-86.6642400081
 10
20.4917550452
 20
-86.6814215285
 10
20.5112321488
 20
-86.6989049609
 10
20.5301131546
 20
-86.7166629856
 10
20.5483946105
 20
-86.7346903791
 10
20.5660975747
 20
-86.7530066297
 10
20.5832218062
 20
-86.771610862
 10
20.5997455325
 20
-86.7904792316
 10
20.6156581825
 20
-86.8095992067
  0
LWPOLYLINE
  5
290
100
AcDbEntity
  8
SUPERFICI
100
AcDbPolyline
 62
250
  6
CONTINUOUS
 90
19
 70
0
 10
-2.8528263044
 20
-69.5550836216
 10
-2.7481820013
 20
-69.6527916872
 10
-2.6431019084
 20
-69.7494614755
 10
-2.5369429022
 20
-69.8457178094
 10
-2.42966625
 20
-69.9415858539
 10
-2.3211684872
 20
-70.0371542339
 10
-2.2117275413
 20
-70.1321826952
 10
-2.1009507255
 20
-70.2270086969
 10
-1.9886611281
 20
-70.321770874
 10
-1.8755909797
 20
-70.4158494893
 10
-1.7611314867
 20
-70.5097512638
 10
-1.6452666369
 20
-70.6034780016
 10
-1.5297329571
 20
-70.695642275
 10
-1.4151251259
 20
-70.7858255243
 10
-1.3004574125
 20
-70.8748510297
 10
-1.185092903
 20
-70.9632291821
 10
-1.068607737
 20
-71.0512872685
 10
-0.9511529876
 20
-71.1389185675
 10
-0.8318947658
 20
-71.2267170587
  0
LWPOLYLINE
  5
291
100
AcDbEntity
  8
SUPERFICI
100
AcDbPolyline
 62
250
  6
CONTINUOUS
 90
8
 70
0
 10
-2.7829703501
 20
-72.707472967
 10
-2.8307863592
 20
-72.6610730386
 10
-2.8719942573
 20
-72.6121275635
 10
-2.9046859068
 20
-72.5621158017
 10
-2.9293968018
 20
-72.5107076008
 10
-2.9466205626
 20
-72.4577341707
 10
-2.9560981362
 20
-72.4038288251
 10
-2.9572254937
 20
-72.3904111041
  0
LWPOLYLINE
  5
292
100
AcDbEntity
  8
SUPERFICI
100
AcDbPolyline
 62
250
  6
CONTINUOUS
 90
8
 70
0
 10
-2.8443006412
 20
-71.1212901437
 10
-2.8934186075
 20
-71.0726012015
 10
-2.9353433759
 20
-71.0216506857
 10
-2.9698514384
 20
-70.9687313116
 10
-2.9967626035
 20
-70.9140316899
 10
-3.0157649874
 20
-70.8579742055
 10
-3.0265811649
 20
-70.8012339159
 10
-3.0291029457
 20
-70.7670954886
  0
LINE
  5
293
100
AcDbEntity
  8
SUPERFICI
100
AcDbLine
 62
250
  6
CONTINUOUS
 10
-2.8516458374
 20
-70.6711999208
 11
-2.9011879829
 21
-70.6217094953
  0
LWPOLYLINE
  5
294
100
AcDbEntity
  8
SUPERFICI
100
AcDbPolyline
 62
250
  6
CONTINUOUS
 90
7
 70
0
 10
-2.9011879829
 20
-70.6217094953
 10
-2.9435246009
 20
-70.5699595235
 10
-2.9784253582
 20
-70.5162511057
 10
-3.0057047787
 20
-70.4607776375
 10
-3.0250410452
 20
-70.403974992
 10
-3.036146611
 20
-70.3465399385
 10
-3.0389858663
 20
-70.3055799868
  0
LWPOLYLINE
  5
295
100
AcDbEntity
  8
0
100
AcDbPolyline
 62
250
  6
CONTINUOUS
 90
16
 70
0
 10
20.2164792866
 20
-102.0363465892
 10
19.8679661529
 20
-101.5385479923
 10
19.5055033043
 20
-101.0115424008
 10
19.1327578504
 20
-100.4594620348
 10
18.7495484889
 20
-99.8804084542
 10
18.3628112615
 20
-99.2829651072
 10
17.9869505258
 20
-98.6879669566
 10
17.6269390313
 20
-98.1025303907
 10
17.282237691
 20
-97.524952534
 10
16.9581237316
 20
-96.9631570355
 10
16.6587716313
 20
-96.4238448636
 10
16.3827286335
 20
-95.9037936923
 10
16.127122726
 20
-95.3958146682
 10
15.8930859593
 20
-94.8989554409
 10
15.6846563125
 20
-94.4169949876
 10
15.5060835941
 20
-93.9546447727
  0
LWPOLYLINE
  5
296
100
AcDbEntity
  8
SUPERFICI
100
AcDbPolyline
 62
250
  6
CONTINUOUS
 90
5
 70
0
 10
-2.9465697275
 20
-69.4492459484
 10
-2.9822891782
 20
-69.393234505
 10
-3.010072928
 20
-69.335813359
 10
-3.029746798
 20
-69.277349645
 10
-3.0296869119
 20
-69.2754370457
  0
LWPOLYLINE
  5
297
100
AcDbEntity
  8
0
100
AcDbPolyline
 62
250
  6
CONTINUOUS
 90
5
 70
0
 10
17.6209989078
 20
-102.8538812801
 10
17.6603077101
 20
-102.9159221659
 10
17.706245261
 20
-102.9698413592
 10
17.7573050255
 20
-103.0148772422
 10
17.8128664856
 20
-103.0505705768
  0
LWPOLYLINE
  5
298
100
AcDbEntity
  8
0
100
AcDbPolyline
 62
250
  6
CONTINUOUS
 90
8
 70
0
 10
17.3409183964
 20
-102.6860276128
 10
17.0573857914
 20
-102.2232620092
 10
16.7624400314
 20
-101.7264816636
 10
16.4580025921
 20
-101.1982266419
 10
16.1441732348
 20
-100.6373455303
 10
15.8248893001
 20
-100.0490978246
 10
15.507936656
 20
-99.4461842637
 10
15.1939853339
 20
-98.8280956825
  0
LWPOLYLINE
  5
299
100
AcDbEntity
  8
0
100
AcDbPolyline
 62
250
  6
CONTINUOUS
 90
37
 70
0
 10
1.2792740843
 20
-80.6552439947
 10
1.461626933
 20
-80.9776410364
 10
1.648220178
 20
-81.2975722891
 10
1.8390023584
 20
-81.6147592881
 10
2.0316867842
 20
-81.9251525002
 10
2.2283200195
 20
-82.2323620332
 10
2.4357582818
 20
-82.5471277319
 10
2.659288863
 20
-82.8753854329
 10
2.894426783
 20
-83.2092177984
 10
3.133445382
 20
-83.5386613794
 10
3.3721059377
 20
-83.8579702056
 10
3.6144325887
 20
-84.1725064847
 10
3.8650807218
 20
-84.4892072754
 10
4.1279055275
 20
-84.8115073739
 10
4.399708958
 20
-85.1340832518
 10
4.6746732491
 20
-85.4508739044
 10
4.9529797215
 20
-85.7623197776
 10
5.2346036899
 20
-86.0674610658
 10
5.5129038536
 20
-86.3595276248
 10
5.7833888079
 20
-86.6349988894
 10
6.0499098386
 20
-86.898720401
 10
6.3182727047
 20
-87.1565942488
 10
6.5945658596
 20
-87.4138874688
 10
6.8730017643
 20
-87.664712662
 10
7.1414056966
 20
-87.8989585935
 10
7.3914712771
 20
-88.1116022152
 10
7.6307550225
 20
-88.3107025656
 10
7.8708393727
 20
-88.5059625535
 10
8.1189309605
 20
-88.7034184054
 10
8.3679974143
 20
-88.896640211
 10
8.6081615022
 20
-89.076403909
 10
8.8318887679
 20
-89.2386241171
 10
9.0455622933
 20
-89.3895447031
 10
9.2600061242
 20
-89.5353447098
 10
9.4787206644
 20
-89.6775797082
 10
9.6977575792
 20
-89.8142473175
 10
9.9168833288
 20
-89.9452280431
  0
LWPOLYLINE
  5
29A
100
AcDbEntity
  8
0
100
AcDbPolyline
 62
250
  6
CONTINUOUS
 90
6
 70
0
 10
10.4329888227
 20
-99.280984127
 10
10.467062841
 20
-99.3441252689
 10
10.5070415685
 20
-99.3998891492
 10
10.5526365068
 20
-99.4480191388
 10
10.6035697887
 20
-99.4882602727
 10
10.6295875223
 20
-99.5045537239
  0
LWPOLYLINE
  5
29B
100
AcDbEntity
  8
0
100
AcDbPolyline
 62
250
  6
CONTINUOUS
 90
6
 70
0
 10
14.2721681432
 20
-101.3104967148
 10
14.3069667907
 20
-101.3757659263
 10
14.3475992006
 20
-101.4335849342
 10
14.3937463659
 20
-101.4835940819
 10
14.4451460509
 20
-101.5254724895
 10
14.503145671
 20
-101.5596344297
  0
LWPOLYLINE
  5
29C
100
AcDbEntity
  8
SUPERFICI
100
AcDbPolyline
 62
250
  6
CONTINUOUS
 90
5
 70
0
 10
4.1016883655
 20
-95.057813997
 10
4.1316414904
 20
-95.1242542493
 10
4.1688975257
 20
-95.1836316737
 10
4.2131389516
 20
-95.2355607339
 10
4.2593415222
 20
-95.2761250536
  0
LINE
  5
29D
100
AcDbEntity
  8
SUPERFICI
100
AcDbLine
 62
250
  6
CONTINUOUS
 10
1.5886121505
 20
-91.6823521854
 11
1.6227081145
 21
-91.7638925026
  0
LWPOLYLINE
  5
29E
100
AcDbEntity
  8
SUPERFICI
100
AcDbPolyline
 62
250
  6
CONTINUOUS
 90
10
 70
0
 10
0.1710261747
 20
-78.332662623
 10
0.2789677249
 20
-78.5943283609
 10
0.3907602234
 20
-78.8554159348
 10
0.5063699685
 20
-79.115724722
 10
0.6256907536
 20
-79.3749341427
 10
0.7487346471
 20
-79.6330185304
 10
0.8756429114
 20
-79.8902169435
 10
1.0064341737
 20
-80.1464986704
 10
1.1409915965
 20
-80.4015664916
 10
1.2792740843
 20
-80.6552439947
  0
LWPOLYLINE
  5
29F
100
AcDbEntity
  8
SUPERFICI
100
AcDbPolyline
 62
250
  6
CONTINUOUS
 90
5
 70
0
 10
3.808192072
 20
-94.8286763053
 10
3.8351415927
 20
-94.8941000438
 10
3.8735487736
 20
-94.9556203446
 10
3.9181843249
 20
-95.0087877797
 10
3.9615040279
 20
-95.0477388897
  0
LINE
  5
2A0
100
AcDbEntity
  8
SUPERFICI
100
AcDbLine
 62
7
  6
CONTINUOUS
 10
1.5462303035
 20
-91.6490918629
 11
1.5820270345
 21
-91.7370041464
  0
LWPOLYLINE
  5
2A1
100
AcDbEntity
  8
SUPERFICI
100
AcDbPolyline
 62
250
  6
CONTINUOUS
 90
3
 70
0
 10
1.4835879139
 20
-91.4242961957
 10
1.5341351187
 20
-91.5490972743
 10
1.5886121505
 20
-91.6823521854
  0
LINE
  5
2A2
100
AcDbEntity
  8
SUPERFICI
100
AcDbLine
 62
7
  6
CONTINUOUS
 10
1.5208349973
 20
-91.5860113915
 11
1.5462303035
 21
-91.6490918629
  0
LINE
  5
2A3
100
AcDbEntity
  8
SUPERFICI
100
AcDbLine
 62
7
  6
CONTINUOUS
 10
1.4965344144
 20
-91.5248143866
 11
1.5208349973
 21
-91.5860113915
  0
LINE
  5
2A4
100
AcDbEntity
  8
SUPERFICI
100
AcDbLine
 62
7
  6
CONTINUOUS
 10
1.4390056549
 20
-91.3782245823
 11
1.4965344144
 21
-91.5248143866
  0
LWPOLYLINE
  5
2A5
100
AcDbEntity
  8
SUPERFICI
100
AcDbPolyline
 62
250
  6
CONTINUOUS
 90
3
 70
0
 10
1.4314919777
 20
-91.2920718422
 10
1.4592347392
 20
-91.3631028148
 10
1.4835879139
 20
-91.4242961957
  0
LINE
  5
2A6
100
AcDbEntity
  8
SUPERFICI
100
AcDbLine
 62
7
  6
CONTINUOUS
 10
1.4169999614
 20
-91.3211366642
 11
1.4390056549
 21
-91.3782245823
  0
LINE
  5
2A7
100
AcDbEntity
  8
SUPERFICI
100
AcDbLine
 62
250
  6
CONTINUOUS
 10
1.3877715769
 20
-91.1779033983
 11
1.4314919777
 21
-91.2920718422
  0
LINE
  5
2A8
100
AcDbEntity
  8
SUPERFICI
100
AcDbLine
 62
7
  6
CONTINUOUS
 10
1.3960168497
 20
-91.2657341011
 11
1.4169999614
 21
-91.3211366642
  0
LINE
  5
2A9
100
AcDbEntity
  8
SUPERFICI
100
AcDbLine
 62
250
  6
CONTINUOUS
 10
1.3815573519
 20
-91.1613977573
 11
1.3877715769
 21
-91.1779033983
  0
LWPOLYLINE
  5
2AA
100
AcDbEntity
  8
SUPERFICI
100
AcDbPolyline
 62
7
  6
CONTINUOUS
 90
3
 70
0
 10
1.3576749299
 20
-91.1618212221
 10
1.3760951916
 20
-91.2122155474
 10
1.3960168497
 20
-91.2657341011
  0
LINE
  5
2AB
100
AcDbEntity
  8
SUPERFICI
100
AcDbLine
 62
7
  6
CONTINUOUS
 10
1.3006657611
 20
-91.0061653111
 11
1.3566353584
 21
-91.1593749615
  0
LINE
  5
2AC
100
AcDbEntity
  8
SUPERFICI
100
AcDbLine
 62
7
  6
CONTINUOUS
 10
1.1474692307
 20
-90.5811534128
 11
1.3006657611
 21
-91.0061653111
  0
LINE
  5
2AD
100
AcDbEntity
  8
SUPERFICI
100
AcDbLine
 62
7
  6
CONTINUOUS
 10
0.9798978914
 20
-90.1096072708
 11
1.1474692307
 21
-90.5811534128
  0
LINE
  5
2AE
100
AcDbEntity
  8
SUPERFICI
100
AcDbLine
 62
7
  6
CONTINUOUS
 10
0.8588725764
 20
-89.7644501061
 11
0.9798978914
 21
-90.1096072708
  0
LINE
  5
2AF
100
AcDbEntity
  8
SUPERFICI
100
AcDbLine
 62
7
  6
CONTINUOUS
 10
0.728716923
 20
-89.3886174812
 11
0.8588725764
 21
-89.7644501061
  0
LWPOLYLINE
  5
2B0
100
AcDbEntity
  8
SUPERFICI
100
AcDbPolyline
 62
7
  6
CONTINUOUS
 90
17
 70
0
 10
-1.1501490375
 20
-83.2126506387
 10
-1.005072553
 20
-83.759406415
 10
-0.8204185954
 20
-84.4325695193
 10
-0.6499613536
 20
-85.0339333893
 10
-0.4993551759
 20
-85.5509628241
 10
-0.3669824954
 20
-85.9953171853
 10
-0.2431921702
 20
-86.4029867069
 10
-0.1264210683
 20
-86.7810318632
 10
-0.019455383
 20
-87.1221215528
 10
0.0818615013
 20
-87.4408587075
 10
0.1780031767
 20
-87.7396072951
 10
0.2679208948
 20
-88.0158945807
 10
0.3538199164
 20
-88.2771302458
 10
0.4358858327
 20
-88.5243327832
 10
0.5136197556
 20
-88.7564131171
 10
0.5883392865
 20
-88.9776499662
 10
0.728716923
 20
-89.3886174812
  0
LWPOLYLINE
  5
2B1
100
AcDbEntity
  8
SUPERFICI
100
AcDbPolyline
 62
250
  6
CONTINUOUS
 90
22
 70
0
 10
-1.0818484862
 20
-83.321826598
 10
-0.9505882368
 20
-83.8217161062
 10
-0.8203840522
 20
-84.303662739
 10
-0.6917692178
 20
-84.7674003616
 10
-0.5639907228
 20
-85.2169291899
 10
-0.4387169476
 20
-85.6477859485
 10
-0.3203214269
 20
-86.0469408097
 10
-0.212863589
 20
-86.4029291396
 10
-0.1136190012
 20
-86.72661278
 10
-0.0166378528
 20
-87.0385393892
 10
0.0775994236
 20
-87.3377340446
 10
0.1692001272
 20
-87.6249933272
 10
0.2656213182
 20
-87.9237923736
 10
0.3695890079
 20
-88.2421034235
 10
0.4787154257
 20
-88.5720654768
 10
0.5930921365
 20
-88.9135316893
 10
0.7133916047
 20
-89.2680912158
 10
0.8392600683
 20
-89.634289856
 10
0.969179388
 20
-90.0073883169
 10
1.1026509763
 20
-90.3857872244
 10
1.2402869289
 20
-90.7710805286
 10
1.3821728416
 20
-91.1632490917
  0
LINE
  5
2B2
100
AcDbEntity
  8
SUPERFICI
100
AcDbLine
 62
250
  6
CONTINUOUS
 10
-1.1346062428
 20
-83.1169122087
 11
-1.0818484862
 21
-83.321826598
  0
LINE
  5
2B3
100
AcDbEntity
  8
SUPERFICI
100
AcDbLine
 62
7
  6
CONTINUOUS
 10
-1.2650746598
 20
-82.7657807772
 11
-1.1558700767
 21
-83.1887445678
  0
LINE
  5
2B4
100
AcDbEntity
  8
SUPERFICI
100
AcDbLine
 62
7
  6
CONTINUOUS
 10
-1.1558700767
 20
-83.1887445678
 11
-1.1497887637
 21
-83.2125494011
  0
LINE
  5
2B5
100
AcDbEntity
  8
SUPERFICI
100
AcDbLine
 62
250
  6
CONTINUOUS
 10
-2.5668376607
 20
-75.435738484
 11
-2.5558495342
 21
-75.5379154696
  0
LINE
  5
2B6
100
AcDbEntity
  8
SUPERFICI
100
AcDbLine
 62
250
  6
CONTINUOUS
 10
-2.6414371029
 20
-74.7177392592
 11
-2.5918365317
 21
-75.1835905489
  0
LWPOLYLINE
  5
2B7
100
AcDbEntity
  8
SUPERFICI
100
AcDbPolyline
 62
250
  6
CONTINUOUS
 90
3
 70
0
 10
-2.5918365317
 20
-75.1835905489
 10
-2.5812417762
 20
-75.2871950106
 10
-2.5668376607
 20
-75.435738484
  0
LINE
  5
2B8
100
AcDbEntity
  8
SUPERFICI
100
AcDbLine
 62
7
  6
CONTINUOUS
 10
-2.808784417
 20
-74.2374848875
 11
-2.7865384632
 21
-74.4551726216
  0
LINE
  5
2B9
100
AcDbEntity
  8
SUPERFICI
100
AcDbLine
 62
7
  6
CONTINUOUS
 10
-2.8238740652
 20
-74.0808014423
 11
-2.808784417
 21
-74.2374848875
  0
LWPOLYLINE
  5
2BA
100
AcDbEntity
  8
SUPERFICI
100
AcDbPolyline
 62
7
  6
CONTINUOUS
 90
5
 70
0
 10
-2.7876800703
 20
-74.4528764811
 10
-2.7871819031
 20
-74.4582097382
 10
-2.785509179
 20
-74.4751352629
 10
-2.7836646713
 20
-74.4925160226
 10
-2.7816574281
 20
-74.5104559092
  0
LINE
  5
2BB
100
AcDbEntity
  8
SUPERFICI
100
AcDbLine
 62
7
  6
CONTINUOUS
 10
-2.8693732855
 20
-73.5774344621
 11
-2.8238740652
 21
-74.0808014423
  0
LINE
  5
2BC
100
AcDbEntity
  8
SUPERFICI
100
AcDbLine
 62
250
  6
CONTINUOUS
 10
-2.7327285903
 20
-73.5730576211
 11
-2.6973481441
 21
-73.9997820139
  0
LWPOLYLINE
  5
2BD
100
AcDbEntity
  8
SUPERFICI
100
AcDbPolyline
 62
7
  6
CONTINUOUS
 90
3
 70
0
 10
-2.9024895756
 20
-73.1831284717
 10
-2.8913282862
 20
-73.3212236708
 10
-2.8693732855
 20
-73.5774344621
  0
LINE
  5
2BE
100
AcDbEntity
  8
SUPERFICI
100
AcDbLine
 62
250
  6
CONTINUOUS
 10
-2.6614751587
 20
-74.467927527
 11
-2.6414371029
 21
-74.7177392592
  0
LINE
  5
2BF
100
AcDbEntity
  8
SUPERFICI
100
AcDbLine
 62
250
  6
CONTINUOUS
 10
-2.74970091
 20
-73.353525043
 11
-2.7327285903
 21
-73.5730576211
  0
LINE
  5
2C0
100
AcDbEntity
  8
SUPERFICI
100
AcDbLine
 62
250
  6
CONTINUOUS
 10
-2.6973481441
 20
-73.9997820139
 11
-2.6614751587
 21
-74.467927527
  0
LINE
  5
2C1
100
AcDbEntity
  8
SUPERFICI
100
AcDbLine
 62
7
  6
CONTINUOUS
 10
-2.9212025281
 20
-72.9317250184
 11
-2.9024895756
 21
-73.1831284717
  0
LINE
  5
2C2
100
AcDbEntity
  8
SUPERFICI
100
AcDbLine
 62
250
  6
CONTINUOUS
 10
-2.7675129892
 20
-73.1039569095
 11
-2.74970091
 21
-73.353525043
  0
LWPOLYLINE
  5
2C3
100
AcDbEntity
  8
SUPERFICI
100
AcDbPolyline
 62
7
  6
CONTINUOUS
 90
3
 70
0
 10
-2.9479108001
 20
-72.5417726448
 10
-2.9381747966
 20
-72.6900626202
 10
-2.9212025281
 20
-72.9317250184
  0
LWPOLYLINE
  5
2C4
100
AcDbEntity
  8
SUPERFICI
100
AcDbPolyline
 62
7
  6
CONTINUOUS
 90
3
 70
0
 10
-2.9609538653
 20
-72.3303845924
 10
-2.9590791582
 20
-72.359986209
 10
-2.9479108001
 20
-72.5417726448
  0
LWPOLYLINE
  5
2C5
100
AcDbEntity
  8
0
100
AcDbPolyline
 62
7
  6
CONTINUOUS
 90
7
 70
0
 10
10.702193025
 20
-75.9881238109
 10
10.5959862706
 20
-76.0180099052
 10
10.4846633213
 20
-76.0353661811
 10
10.3678470183
 20
-76.0401810376
 10
10.2454119349
 20
-76.0321254243
 10
10.1186216803
 20
-76.0109635228
 10
9.989188127
 20
-75.9768868365
  0
LWPOLYLINE
  5
2C6
100
AcDbEntity
  8
0
100
AcDbPolyline
 62
7
  6
CONTINUOUS
 90
5
 70
0
 10
10.1931788204
 20
-75.4048767642
 10
10.2766558648
 20
-75.3938032272
 10
10.355973759
 20
-75.3731158534
 10
10.4306646857
 20
-75.3429359113
 10
10.4701365194
 20
-75.3220501193
  0
LWPOLYLINE
  5
2C7
100
AcDbEntity
  8
SUPERFICI
100
AcDbPolyline
 62
250
  6
CONTINUOUS
 90
4
 70
0
 10
-0.7316042785
 20
-73.1346339912
 10
-0.7275941145
 20
-73.135300077
 10
-0.7237047031
 20
-73.1360021387
 10
-0.7199914559
 20
-73.1367667923
  0
LWPOLYLINE
  5
2C8
100
AcDbEntity
  8
SUPERFICI
100
AcDbPolyline
 62
250
  6
CONTINUOUS
 90
3
 70
0
 10
-0.7480857303
 20
-73.1319423187
 10
-0.7439289602
 20
-73.1326444888
 10
-0.7316042785
 20
-73.1346339912
  0
LWPOLYLINE
  5
2C9
100
AcDbEntity
  8
0
100
AcDbPolyline
 62
7
  6
CONTINUOUS
 90
10
 70
0
 10
9.5724399011
 20
-71.7346282172
 10
9.4182497203
 20
-71.6532773651
 10
9.2652700915
 20
-71.5880179901
 10
9.1146784969
 20
-71.5393854712
 10
8.9674647504
 20
-71.5077458482
 10
8.8249604141
 20
-71.4934679712
 10
8.688759419
 20
-71.4966844772
 10
8.5602355474
 20
-71.517101864
 10
8.4398688017
 20
-71.5543781249
 10
8.3291007722
 20
-71.6077074672
  0
LWPOLYLINE
  5
2CA
100
AcDbEntity
  8
0
100
AcDbPolyline
 62
7
  6
CONTINUOUS
 90
8
 70
0
 10
9.5936514831
 20
-71.3337574249
 10
9.4110117043
 20
-71.237324468
 10
9.2300446116
 20
-71.1599213219
 10
9.0521186418
 20
-71.1021033558
 10
8.8786510205
 20
-71.064266974
 10
8.7108736354
 20
-71.0466625192
 10
8.5498394253
 20
-71.0494473821
 10
8.3967218031
 20
-71.0726236334
  0
LINE
  5
2CB
100
AcDbEntity
  8
0
100
AcDbLine
 62
7
  6
CONTINUOUS
 10
9.752635264
 20
-75.2559823045
 11
10.0491229503
 21
-75.4263777854
  0
LINE
  5
2CC
100
AcDbEntity
  8
0
100
AcDbLine
 62
7
  6
CONTINUOUS
 10
10.0703362724
 20
-75.4141294791
 11
9.7738484832
 21
-75.2437340577
  0
LINE
  5
2CD
100
AcDbEntity
  8
0
100
AcDbLine
 62
7
  6
CONTINUOUS
 10
10.0381797974
 20
-72.6809354364
 11
9.7526326949
 21
-72.5168150046
  0
LINE
  5
2CE
100
AcDbEntity
  8
0
100
AcDbLine
 62
7
  6
CONTINUOUS
 10
10.0593914786
 20
-72.2810141101
 11
9.671171213
 21
-72.0577197185
  0
LINE
  5
2CF
100
AcDbEntity
  8
0
100
AcDbLine
 62
7
  6
CONTINUOUS
 10
9.4956859012
 20
-71.9808936327
 11
10.038178161
 21
-72.2932624138
  0
LINE
  5
2D0
100
AcDbEntity
  8
0
100
AcDbLine
 62
7
  6
CONTINUOUS
 10
9.671171213
 20
-72.0577197185
 11
9.2868838666
 21
-71.8354759181
  0
LINE
  5
2D1
100
AcDbEntity
  8
0
100
AcDbLine
 62
7
  6
CONTINUOUS
 10
9.396910457
 20
-75.0260664148
 11
9.1228849855
 21
-74.8670996867
  0
LINE
  5
2D2
100
AcDbEntity
  8
0
100
AcDbLine
 62
7
  6
CONTINUOUS
 10
9.1125357963
 20
-71.758824433
 11
9.4956859012
 21
-71.9808936327
  0
LINE
  5
2D3
100
AcDbEntity
  8
0
100
AcDbLine
 62
7
  6
CONTINUOUS
 10
9.2868838666
 20
-71.8354759181
 11
9.1337491118
 21
-71.7465761305
  0
LINE
  5
2D4
100
AcDbEntity
  8
0
100
AcDbLine
 62
7
  6
CONTINUOUS
 10
9.1016716655
 20
-74.8793479918
 11
9.3969104235
 21
-75.0505976857
  0
LINE
  5
2D5
100
AcDbEntity
  8
0
100
AcDbLine
 62
7
  6
CONTINUOUS
 10
9.3969078544
 20
-72.3114303857
 11
9.1125374327
 21
-72.1464974556
  0
LINE
  5
2D6
100
AcDbEntity
  8
0
100
AcDbLine
 62
7
  6
CONTINUOUS
 10
9.7680009299
 20
-71.4426211649
 11
9.5936514831
 21
-71.3337574249
  0
LINE
  5
2D7
100
AcDbEntity
  8
0
100
AcDbLine
 62
7
  6
CONTINUOUS
 10
9.5724382892
 20
-71.3460056684
 11
9.747048526
 21
-71.4550619252
  0
LWPOLYLINE
  5
2D8
100
AcDbEntity
  8
0
100
AcDbPolyline
 62
7
  6
CONTINUOUS
 90
29
 70
0
 10
9.7474283306
 20
-71.4552991397
 10
9.9213137631
 20
-71.5804862621
 10
10.0928957382
 20
-71.7206778905
 10
10.2609477484
 20
-71.8747997336
 10
10.4243710746
 20
-72.0418368995
 10
10.5821798524
 20
-72.2208955271
 10
10.7332885555
 20
-72.4107631466
 10
10.876626883
 20
-72.6101466706
 10
11.0112447702
 20
-72.8179909156
 10
11.1363982816
 20
-73.0333253691
 10
11.2508734049
 20
-73.2542599274
 10
11.3532361918
 20
-73.478232201
 10
11.4425663273
 20
-73.7028173378
 10
11.5187641194
 20
-73.9272602488
 10
11.5816902772
 20
-74.1514517203
 10
11.6309475412
 20
-74.3747960087
 10
11.6657582735
 20
-74.5946824059
 10
11.6856050469
 20
-74.8080601666
 10
11.6905042846
 20
-75.012482292
 10
11.6807351387
 20
-75.2077150352
 10
11.6562701709
 20
-75.3940235226
 10
11.616796158
 20
-75.5709364722
 10
11.5625005592
 20
-75.7359427323
 10
11.4942683023
 20
-75.8864243157
 10
11.4131698637
 20
-76.0208515222
 10
11.3196171037
 20
-76.1392626264
 10
11.2137462663
 20
-76.2416045284
 10
11.0957720213
 20
-76.3272947815
 10
11.0671277819
 20
-76.3444696142
  0
LINE
  5
2D9
100
AcDbEntity
  8
0
100
AcDbLine
 62
7
  6
CONTINUOUS
 10
9.4394616624
 20
-75.7038558141
 11
9.286506917
 21
-75.5919041497
  0
LINE
  5
2DA
100
AcDbEntity
  8
0
100
AcDbLine
 62
7
  6
CONTINUOUS
 10
9.265211051
 20
-75.6040877721
 11
9.4182294653
 21
-75.7160913637
  0
LINE
  5
2DB
100
AcDbEntity
  8
0
100
AcDbLine
 62
7
  6
CONTINUOUS
 10
9.1145650508
 20
-75.4778608791
 11
9.265211051
 21
-75.6040877721
  0
LWPOLYLINE
  5
2DC
100
AcDbEntity
  8
0
100
AcDbPolyline
 62
7
  6
CONTINUOUS
 90
3
 70
0
 10
9.286506917
 20
-75.5919041497
 10
9.1359661778
 20
-75.4657802173
 10
8.9888523231
 20
-75.3262437908
  0
LWPOLYLINE
  5
2DD
100
AcDbEntity
  8
0
100
AcDbPolyline
 62
250
  6
CONTINUOUS
 90
3
 70
0
 10
20.8395570418
 20
-85.5997713379
 10
20.8302257538
 20
-85.5909889299
 10
20.8256635768
 20
-85.5866568892
  0
LINE
  5
2DE
100
AcDbEntity
  8
0
100
AcDbLine
 62
7
  6
CONTINUOUS
 10
8.9672624199
 20
-75.3381129725
 11
9.1145650508
 21
-75.4778608791
  0
LWPOLYLINE
  5
2DF
100
AcDbEntity
  8
0
100
AcDbPolyline
 62
250
  6
CONTINUOUS
 90
4
 70
0
 10
20.8124170203
 20
-85.5738818792
 10
20.8080530635
 20
-85.5697128526
 10
20.8036541204
 20
-85.5656293222
 10
20.799173243
 20
-85.561662791
  0
LINE
  5
2E0
100
AcDbEntity
  8
0
100
AcDbLine
 62
250
  6
CONTINUOUS
 10
20.8256635768
 20
-85.5866568892
 11
20.8124170203
 21
-85.5738818792
  0
LINE
  5
2E1
100
AcDbEntity
  8
0
100
AcDbLine
 62
7
  6
CONTINUOUS
 10
8.9888523231
 20
-75.3262437908
 11
8.846465211
 21
-75.1744963841
  0
LINE
  5
2E2
100
AcDbEntity
  8
0
100
AcDbLine
 62
7
  6
CONTINUOUS
 10
8.8246605332
 20
-75.1860777906
 11
8.9672624199
 21
-75.3381129725
  0
LWPOLYLINE
  5
2E3
100
AcDbEntity
  8
0
100
AcDbPolyline
 62
7
  6
CONTINUOUS
 90
10
 70
0
 10
10.3653232394
 20
-76.4787296897
 10
10.4385917476
 20
-76.5573921505
 10
10.5104229818
 20
-76.6387642069
 10
10.5806867503
 20
-76.7226930381
 10
10.6492463936
 20
-76.8090022522
 10
10.7159885076
 20
-76.897548532
 10
10.7808195083
 20
-76.9882262074
 10
10.8436278084
 20
-77.0808898658
 10
10.9042877007
 20
-77.1753503833
 10
10.9626865177
 20
-77.2714345616
  0
LWPOLYLINE
  5
2E4
100
AcDbEntity
  8
0
100
AcDbPolyline
 62
250
  6
CONTINUOUS
 90
10
 70
0
 10
19.3320071623
 20
-89.0346034797
 10
19.3782091964
 20
-89.0866761962
 10
19.4209042482
 20
-89.1408500889
 10
19.4598995655
 20
-89.1968575048
 10
19.495021658
 20
-89.2544649908
 10
19.5260520012
 20
-89.3133675422
 10
19.5527873363
 20
-89.3731777065
 10
19.5751170456
 20
-89.4335725656
 10
19.5929628714
 20
-89.4943046211
 10
19.6062295016
 20
-89.5550916818
  0
LINE
  5
2E5
100
AcDbEntity
  8
0
100
AcDbLine
 62
7
  6
CONTINUOUS
 10
8.846465211
 20
-75.1744963841
 11
8.710321773
 21
-75.0123078596
  0
LINE
  5
2E6
100
AcDbEntity
  8
0
100
AcDbLine
 62
7
  6
CONTINUOUS
 10
8.6884160033
 20
-75.0236849121
 11
8.8246605332
 21
-75.1860777906
  0
LWPOLYLINE
  5
2E7
100
AcDbEntity
  8
0
100
AcDbPolyline
 62
7
  6
CONTINUOUS
 90
18
 70
0
 10
8.9756403
 20
-74.6773882435
 10
8.892974112
 20
-74.5703856449
 10
8.8144783356
 20
-74.4585785968
 10
8.7406207877
 20
-74.3426285909
 10
8.6718518196
 20
-74.223215949
 10
8.6085716957
 20
-74.1010528897
 10
8.5511281845
 20
-73.9768793296
 10
8.4998626147
 20
-73.8514310196
 10
8.4550829437
 20
-73.7254494285
 10
8.4170319662
 20
-73.5996944681
 10
8.3859337224
 20
-73.4749125714
 10
8.3619776231
 20
-73.3518407415
 10
8.3452924705
 20
-73.2312163964
 10
8.335973635
 20
-73.1137567387
 10
8.3340813175
 20
-73.0001553714
 10
8.3396256658
 20
-72.8910866096
 10
8.3525689713
 20
-72.7871999088
 10
8.3728383165
 20
-72.6891089434
  0
LWPOLYLINE
  5
2E8
100
AcDbEntity
  8
0
100
AcDbPolyline
 62
7
  6
CONTINUOUS
 90
25
 70
0
 10
8.8014791273
 20
-74.9166577655
 10
8.6985301489
 20
-74.7831734377
 10
8.6007765922
 20
-74.6437029882
 10
8.5088005938
 20
-74.4990693861
 10
8.4231656783
 20
-74.3501172192
 10
8.3443669604
 20
-74.1977343461
 10
8.272828145
 20
-74.0428466866
 10
8.2089736507
 20
-73.886369817
 10
8.1531875499
 20
-73.7292260464
 10
8.1057647377
 20
-73.5723656478
 10
8.0669833669
 20
-73.4167180937
 10
8.0370806157
 20
-73.2631997784
 10
8.0162127535
 20
-73.1127310475
 10
8.004497694
 20
-72.9662052771
 10
8.0020123836
 20
-72.8244849872
 10
8.0087697241
 20
-72.6884098847
 10
8.02472219
 20
-72.5587893649
 10
8.0497812952
 20
-72.4363867398
 10
8.0838162124
 20
-72.3219160394
 10
8.1266176245
 20
-72.2160590439
 10
8.1779352873
 20
-72.1194401013
 10
8.2374987758
 20
-72.0326114441
 10
8.3049644098
 20
-71.9560816873
 10
8.3799172962
 20
-71.8903127073
 10
8.4619101062
 20
-71.8356958241
  0
LINE
  5
2E9
100
AcDbEntity
  8
0
100
AcDbLine
 62
7
  6
CONTINUOUS
 10
8.710321773
 20
-75.0123078596
 11
8.5817591767
 21
-74.841475836
  0
LWPOLYLINE
  5
2EA
100
AcDbEntity
  8
0
100
AcDbPolyline
 62
7
  6
CONTINUOUS
 90
22
 70
0
 10
8.5237301661
 20
-75.2654938785
 10
8.3705410513
 20
-75.0618783664
 10
8.2267895962
 20
-74.8486523055
 10
8.0930329704
 20
-74.626837056
 10
7.9700753888
 20
-74.3975098545
 10
7.8592745619
 20
-74.1629199085
 10
7.7618317071
 20
-73.9259171851
 10
7.6786607728
 20
-73.6891532671
 10
7.6099494184
 20
-73.4535988464
 10
7.5557462668
 20
-73.2196357228
 10
7.5164736956
 20
-72.9879984786
 10
7.4929326887
 20
-72.7616452308
 10
7.4854530552
 20
-72.5441641101
 10
7.4937664939
 20
-72.3382786421
 10
7.517530946
 20
-72.1441473672
 10
7.556811041
 20
-71.9614819809
 10
7.6118596291
 20
-71.7909080372
 10
7.6822868663
 20
-71.6350318559
 10
7.7670419688
 20
-71.4963373134
 10
7.8648868144
 20
-71.3761177683
 10
7.9752033457
 20
-71.27452595
 10
8.0933980559
 20
-71.1941761243
  0
LINE
  5
2EB
100
AcDbEntity
  8
0
100
AcDbLine
 62
7
  6
CONTINUOUS
 10
8.5599341031
 20
-74.8528667152
 11
8.6884160033
 21
-75.0236849121
  0
LINE
  5
2EC
100
AcDbEntity
  8
0
100
AcDbLine
 62
250
  6
CONTINUOUS
 10
17.5827436922
 20
-102.7819297751
 11
17.6209989078
 21
-102.8538812801
  0
LWPOLYLINE
  5
2ED
100
AcDbEntity
  8
0
100
AcDbPolyline
 62
250
  6
CONTINUOUS
 90
7
 70
0
 10
17.2417514849
 20
-102.6447217585
 10
17.2770532114
 20
-102.7142502263
 10
17.3182438495
 20
-102.775899441
 10
17.3649863925
 20
-102.829272615
 10
17.4169943409
 20
-102.8740106227
 10
17.4738731049
 20
-102.9096483303
 10
17.5038796323
 20
-102.9238630142
  0
LWPOLYLINE
  5
2EE
100
AcDbEntity
  8
0
100
AcDbPolyline
 62
250
  6
CONTINUOUS
 90
3
 70
0
 10
15.1939853339
 20
-98.8280956825
 10
14.886340021
 20
-98.1990183346
 10
14.5959358411
 20
-97.5795862784
  0
LWPOLYLINE
  5
2EF
100
AcDbEntity
  8
0
100
AcDbPolyline
 62
250
  6
CONTINUOUS
 90
7
 70
0
 10
14.5959358411
 20
-97.5795862784
 10
14.3269697282
 20
-96.9780261577
 10
14.0779353207
 20
-96.3898213554
 10
13.8505081612
 20
-95.8166894683
 10
13.6466123045
 20
-95.2604763346
 10
13.4683486157
 20
-94.7223375677
 10
13.3188844363
 20
-94.2059768813
  0
LWPOLYLINE
  5
2F0
100
AcDbEntity
  8
SUPERFICI
100
AcDbPolyline
 62
250
  6
CONTINUOUS
 90
10
 70
0
 10
-0.7724993669
 20
-72.9617692034
 10
-0.7655050108
 20
-72.9789675599
 10
-0.7590319916
 20
-72.996812451
 10
-0.7529954887
 20
-73.0152963304
 10
-0.7472380093
 20
-73.0343060046
 10
-0.7416235265
 20
-73.0537609918
 10
-0.7361090539
 20
-73.0737084619
 10
-0.7306586677
 20
-73.094200336
 10
-0.7252758796
 20
-73.1152329586
 10
-0.7199914559
 20
-73.1367667923
  0
LWPOLYLINE
  5
2F1
100
AcDbEntity
  8
SUPERFICI
100
AcDbPolyline
 62
250
  6
CONTINUOUS
 90
10
 70
0
 10
0.6509960014
 20
-78.2484217635
 10
0.7460526764
 20
-78.4969445861
 10
0.8451455635
 20
-78.7451277655
 10
0.9482854048
 20
-78.9929608688
 10
1.0555757242
 20
-79.2406476385
 10
1.1669426169
 20
-79.487957679
 10
1.2821314984
 20
-79.7342286401
 10
1.401069551
 20
-79.9792296547
 10
1.5238696233
 20
-80.2231591318
 10
1.6505577012
 20
-80.4659981087
  0
LINE
  5
2F2
100
AcDbEntity
  8
SUPERFICI
100
AcDbLine
 62
250
  6
CONTINUOUS
 10
-1.1855341842
 20
-82.9164270399
 11
-1.1346062428
 21
-83.1169122087
  0
LINE
  5
2F3
100
AcDbEntity
  8
SUPERFICI
100
AcDbLine
 62
7
  6
CONTINUOUS
 10
-1.3272879972
 20
-82.5190099111
 11
-1.2650746598
 21
-82.7657807772
  0
LWPOLYLINE
  5
2F4
100
AcDbEntity
  8
SUPERFICI
100
AcDbPolyline
 62
250
  6
CONTINUOUS
 90
10
 70
0
 10
-0.7842484749
 20
-72.9665100124
 10
-0.7799596689
 20
-72.9837384965
 10
-0.7763519611
 20
-73.0017445894
 10
-0.773145345
 20
-73.0199398707
 10
-0.7701366463
 20
-73.0379656189
 10
-0.7672159027
 20
-73.0561153001
 10
-0.7643912049
 20
-73.0744477812
 10
-0.7616668065
 20
-73.092962389
 10
-0.759029547
 20
-73.1116423308
 10
-0.7564875732
 20
-73.1304858392
  0
LWPOLYLINE
  5
2F5
100
AcDbEntity
  8
SUPERFICI
100
AcDbPolyline
 62
250
  6
CONTINUOUS
 90
3
 70
0
 10
-1.2817938605
 20
-82.5294472235
 10
-1.2346699625
 20
-82.7203597262
 10
-1.1855341842
 20
-82.9164270399
  0
LINE
  5
2F6
100
AcDbEntity
  8
SUPERFICI
100
AcDbLine
 62
7
  6
CONTINUOUS
 10
-1.4461509933
 20
-82.0362366852
 11
-1.3272879972
 21
-82.5190099111
  0
LINE
  5
2F7
100
AcDbEntity
  8
SUPERFICI
100
AcDbLine
 62
7
  6
CONTINUOUS
 10
-1.5308831724
 20
-81.6859877199
 11
-1.4461509933
 21
-82.0362366852
  0
LINE
  5
2F8
100
AcDbEntity
  8
SUPERFICI
100
AcDbLine
 62
7
  6
CONTINUOUS
 10
-1.5942041634
 20
-81.4176237725
 11
-1.5308831724
 21
-81.6859877199
  0
LWPOLYLINE
  5
2F9
100
AcDbEntity
  8
SUPERFICI
100
AcDbPolyline
 62
250
  6
CONTINUOUS
 90
5
 70
0
 10
-1.542362732
 20
-81.432902811
 10
-1.5006133993
 20
-81.6157200984
 10
-1.4578630611
 20
-81.7984419848
 10
-1.4152116134
 20
-81.9774598391
 10
-1.2817938605
 20
-82.5294472235
  0
LINE
  5
2FA
100
AcDbEntity
  8
SUPERFICI
100
AcDbLine
 62
7
  6
CONTINUOUS
 10
-1.6645311281
 20
-81.1113319977
 11
-1.5942041634
 21
-81.4176237725
  0
LWPOLYLINE
  5
2FB
100
AcDbEntity
  8
SUPERFICI
100
AcDbPolyline
 62
250
  6
CONTINUOUS
 90
10
 70
0
 10
-0.4186154044
 20
-74.5974577608
 10
-0.3196411864
 20
-75.03559568
 10
-0.2156105209
 20
-75.464927366
 10
-0.1065911749
 20
-75.8854845143
 10
0.0072472598
 20
-76.2964906616
 10
0.1259272858
 20
-76.6987961175
 10
0.2496823481
 20
-77.0948667276
 10
0.3785504166
 20
-77.4855425812
 10
0.5123515754
 20
-77.8700487053
 10
0.6509960014
 20
-78.2484217635
  0
LWPOLYLINE
  5
2FC
100
AcDbEntity
  8
SUPERFICI
100
AcDbPolyline
 62
250
  6
CONTINUOUS
 90
3
 70
0
 10
-0.7199914542
 20
-73.1367667993
 10
-0.6712274023
 20
-73.3617814136
 10
-0.6470352055
 20
-73.4769427257
  0
LINE
  5
2FD
100
AcDbEntity
  8
SUPERFICI
100
AcDbLine
 62
250
  6
CONTINUOUS
 10
-0.4739245876
 20
-74.3345721278
 11
-0.4186154044
 21
-74.5974577608
  0
LWPOLYLINE
  5
2FE
100
AcDbEntity
  8
SUPERFICI
100
AcDbPolyline
 62
7
  6
CONTINUOUS
 90
7
 70
0
 10
-2.0141441462
 20
-79.4827570906
 10
-1.9493931386
 20
-79.8006486255
 10
-1.8895671475
 20
-80.0870678865
 10
-1.8361812388
 20
-80.3370983252
 10
-1.7886810577
 20
-80.5554504934
 10
-1.7442725522
 20
-80.7564738483
 10
-1.6645311281
 20
-81.1113319977
  0
LINE
  5
2FF
100
AcDbEntity
  8
SUPERFICI
100
AcDbLine
 62
250
  6
CONTINUOUS
 10
-0.6470352055
 20
-73.4769427257
 11
-0.5993064569
 21
-73.7124749563
  0
LWPOLYLINE
  5
300
100
AcDbEntity
  8
SUPERFICI
100
AcDbPolyline
 62
250
  6
CONTINUOUS
 90
3
 70
0
 10
-0.5993064569
 20
-73.7124749563
 10
-0.525951874
 20
-74.079795464
 10
-0.4739245876
 20
-74.3345721278
  0
LINE
  5
301
100
AcDbEntity
  8
SUPERFICI
100
AcDbLine
 62
7
  6
CONTINUOUS
 10
-2.0141441462
 20
-79.4827570906
 11
-2.0451445256
 21
-79.3273964397
  0
LWPOLYLINE
  5
302
100
AcDbEntity
  8
SUPERFICI
100
AcDbPolyline
 62
250
  6
CONTINUOUS
 90
8
 70
0
 10
-1.9514233741
 20
-79.4889710192
 10
-1.8985366339
 20
-79.7592536784
 10
-1.8452409408
 20
-80.0248909859
 10
-1.7916308688
 20
-80.2858359835
 10
-1.7367077382
 20
-80.5469925544
 10
-1.6816037761
 20
-80.803386434
 10
-1.6298198953
 20
-81.0400685947
 10
-1.542362732
 20
-81.432902811
  0
LWPOLYLINE
  5
303
100
AcDbEntity
  8
SUPERFICI
100
AcDbPolyline
 62
250
  6
CONTINUOUS
 90
3
 70
0
 10
-2.035280056
 20
-79.0403028877
 10
-1.9957725145
 20
-79.2539923284
 10
-1.9514233741
 20
-79.4889710192
  0
LINE
  5
304
100
AcDbEntity
  8
SUPERFICI
100
AcDbLine
 62
250
  6
CONTINUOUS
 10
-2.1000403151
 20
-78.6810841319
 11
-2.035280056
 21
-79.0403028877
  0
LINE
  5
305
100
AcDbEntity
  8
SUPERFICI
100
AcDbLine
 62
250
  6
CONTINUOUS
 10
-2.1500503838
 20
-78.3957323735
 11
-2.1000403151
 21
-78.6810841319
  0
LINE
  5
306
100
AcDbEntity
  8
SUPERFICI
100
AcDbLine
 62
250
  6
CONTINUOUS
 10
-2.1948659076
 20
-78.1307542674
 11
-2.1500503838
 21
-78.3957323735
  0
LINE
  5
307
100
AcDbEntity
  8
SUPERFICI
100
AcDbLine
 62
250
  6
CONTINUOUS
 10
-2.2384650367
 20
-77.8638130694
 11
-2.1948659076
 21
-78.1307542674
  0
LWPOLYLINE
  5
308
100
AcDbEntity
  8
SUPERFICI
100
AcDbPolyline
 62
7
  6
CONTINUOUS
 90
8
 70
0
 10
-2.4854416909
 20
-76.809339201
 10
-2.406416789
 20
-77.3156096931
 10
-2.3303814419
 20
-77.7758192525
 10
-2.2583250113
 20
-78.1905294102
 10
-2.1915079488
 20
-78.55887477
 10
-2.1318501515
 20
-78.8782278936
 10
-2.0801890276
 20
-79.1479327617
 10
-2.0451445256
 20
-79.3273964397
  0
LINE
  5
309
100
AcDbEntity
  8
SUPERFICI
100
AcDbLine
 62
250
  6
CONTINUOUS
 10
-2.281634678
 20
-77.5897382674
 11
-2.2384650367
 21
-77.8638130694
  0
LINE
  5
30A
100
AcDbEntity
  8
SUPERFICI
100
AcDbLine
 62
250
  6
CONTINUOUS
 10
-2.3210568986
 20
-77.3308306187
 11
-2.281634678
 21
-77.5897382674
  0
LINE
  5
30B
100
AcDbEntity
  8
SUPERFICI
100
AcDbLine
 62
7
  6
CONTINUOUS
 10
-2.5441165454
 20
-76.4110596059
 11
-2.4854416909
 21
-76.809339201
  0
LINE
  5
30C
100
AcDbEntity
  8
SUPERFICI
100
AcDbLine
 62
7
  6
CONTINUOUS
 10
-2.5820685009
 20
-76.1421378837
 11
-2.5441165454
 21
-76.4110596059
  0
LWPOLYLINE
  5
30D
100
AcDbEntity
  8
SUPERFICI
100
AcDbPolyline
 62
250
  6
CONTINUOUS
 90
4
 70
0
 10
-2.4158136919
 20
-76.6664248104
 10
-2.3900537846
 20
-76.8536842979
 10
-2.3654478261
 20
-77.0276919338
 10
-2.3210568986
 20
-77.3308306187
  0
LINE
  5
30E
100
AcDbEntity
  8
SUPERFICI
100
AcDbLine
 62
7
  6
CONTINUOUS
 10
-2.6186466061
 20
-75.8727449627
 11
-2.5820685009
 21
-76.1421378837
  0
LWPOLYLINE
  5
30F
100
AcDbEntity
  8
SUPERFICI
100
AcDbPolyline
 62
250
  6
CONTINUOUS
 90
3
 70
0
 10
-2.4683915449
 20
-76.268444093
 10
-2.4442554431
 20
-76.4543615502
 10
-2.4158136919
 20
-76.6664248104
  0
LINE
  5
310
100
AcDbEntity
  8
SUPERFICI
100
AcDbLine
 62
7
  6
CONTINUOUS
 10
-2.6526082934
 20
-75.6123960507
 11
-2.6186466061
 21
-75.8727449627
  0
LINE
  5
311
100
AcDbEntity
  8
SUPERFICI
100
AcDbLine
 62
7
  6
CONTINUOUS
 10
-2.679557667
 20
-75.3979625932
 11
-2.6526082934
 21
-75.6123960507
  0
LINE
  5
312
100
AcDbEntity
  8
SUPERFICI
100
AcDbLine
 62
250
  6
CONTINUOUS
 10
-2.5045635599
 20
-75.9781989522
 11
-2.4683915449
 21
-76.268444093
  0
LINE
  5
313
100
AcDbEntity
  8
SUPERFICI
100
AcDbLine
 62
7
  6
CONTINUOUS
 10
-2.6982839921
 20
-75.2437450803
 11
-2.679557667
 21
-75.3979625932
  0
LINE
  5
314
100
AcDbEntity
  8
SUPERFICI
100
AcDbLine
 62
250
  6
CONTINUOUS
 10
-2.5366703244
 20
-75.7072165752
 11
-2.5045635599
 21
-75.9781989522
  0
LINE
  5
315
100
AcDbEntity
  8
SUPERFICI
100
AcDbLine
 62
7
  6
CONTINUOUS
 10
-2.7404583198
 20
-74.8737549983
 11
-2.7355122003
 21
-74.9167992374
  0
LINE
  5
316
100
AcDbEntity
  8
SUPERFICI
100
AcDbLine
 62
7
  6
CONTINUOUS
 10
-2.708151211
 20
-75.1589796967
 11
-2.6982839921
 21
-75.2437450803
  0
LINE
  5
317
100
AcDbEntity
  8
SUPERFICI
100
AcDbLine
 62
7
  6
CONTINUOUS
 10
-2.749825874
 20
-74.7918912488
 11
-2.7404583198
 21
-74.8737549983
  0
LINE
  5
318
100
AcDbEntity
  8
SUPERFICI
100
AcDbLine
 62
7
  6
CONTINUOUS
 10
-2.7816574281
 20
-74.5104559092
 11
-2.7741599878
 21
-74.5753886132
  0
LINE
  5
319
100
AcDbEntity
  8
SUPERFICI
100
AcDbLine
 62
7
  6
CONTINUOUS
 10
-2.7355122003
 20
-74.9167992374
 11
-2.708151211
 21
-75.1589796967
  0
LINE
  5
31A
100
AcDbEntity
  8
SUPERFICI
100
AcDbLine
 62
250
  6
CONTINUOUS
 10
-2.5558495342
 20
-75.5379154696
 11
-2.5366703244
 21
-75.7072165752
  0
LINE
  5
31B
100
AcDbEntity
  8
SUPERFICI
100
AcDbLine
 62
7
  6
CONTINUOUS
 10
-2.7741599878
 20
-74.5753886132
 11
-2.749825874
 21
-74.7918912488
  0
LWPOLYLINE
  5
31C
100
AcDbEntity
  8
SUPERFICI
100
AcDbPolyline
 62
250
  6
CONTINUOUS
 90
4
 70
0
 10
-0.7192327223
 20
-73.4419572035
 10
-0.6938627894
 20
-73.6819338615
 10
-0.6854451986
 20
-73.7634027828
 10
-0.6594578746
 20
-74.0068579592
  0
LWPOLYLINE
  5
31D
100
AcDbEntity
  8
SUPERFICI
100
AcDbPolyline
 62
7
  6
CONTINUOUS
 90
8
 70
0
 10
-3.0443787872
 20
-69.1629090006
 10
-3.0411524854
 20
-69.2157585338
 10
-3.0296869119
 20
-69.2754370457
 10
-3.0099981043
 20
-69.3343924784
 10
-2.9822108277
 20
-69.3922503277
 10
-2.9465010973
 20
-69.4486420442
 10
-2.9030977958
 20
-69.5032076928
 10
-2.8522782601
 20
-69.555599155
  0
LWPOLYLINE
  5
31E
100
AcDbEntity
  8
SUPERFICI
100
AcDbPolyline
 62
250
  6
CONTINUOUS
 90
8
 70
0
 10
-3.0443729076
 20
-44.7411479963
 10
-3.0411526216
 20
-44.7942034771
 10
-3.0296869833
 20
-44.854166591
 10
-3.0099981526
 20
-44.9133772039
 10
-2.982210896
 20
-44.971459617
 10
-2.9465012111
 20
-45.0280439206
 10
-2.9030979814
 20
-45.0827686741
 10
-2.8522785381
 20
-45.1352845698
  0
LINE
  5
31F
100
AcDbEntity
  8
SUPERFICI
100
AcDbLine
 62
7
  6
CONTINUOUS
 10
-2.9648448599
 20
-72.2673920566
 11
-2.9609538653
 21
-72.3303845924
  0
LINE
  5
320
100
AcDbEntity
  8
SUPERFICI
100
AcDbLine
 62
250
  6
CONTINUOUS
 10
-3.0411883047
 20
-69.218211428
 11
-3.0411524854
 21
-69.2157585338
  0
LINE
  5
321
100
AcDbEntity
  8
SUPERFICI
100
AcDbLine
 62
7
  6
CONTINUOUS
 10
-2.9762107762
 20
-72.0606040503
 11
-2.9648448599
 21
-72.2673920566
  0
LINE
  5
322
100
AcDbEntity
  8
SUPERFICI
100
AcDbLine
 62
250
  6
CONTINUOUS
 10
-2.8004019155
 20
-72.3538461064
 11
-2.7818026171
 21
-72.7085470242
  0
LINE
  5
323
100
AcDbEntity
  8
SUPERFICI
100
AcDbLine
 62
250
  6
CONTINUOUS
 10
-2.770099355
 20
-72.9721771277
 11
-2.7631572755
 21
-73.1059827229
  0
LINE
  5
324
100
AcDbEntity
  8
SUPERFICI
100
AcDbLine
 62
7
  6
CONTINUOUS
 10
-2.9919379693
 20
-71.7541551282
 11
-2.9762107762
 21
-72.0606040503
  0
LINE
  5
325
100
AcDbEntity
  8
SUPERFICI
100
AcDbLine
 62
250
  6
CONTINUOUS
 10
-2.77630953
 20
-72.8396958939
 11
-2.770099355
 21
-72.9721771277
  0
LINE
  5
326
100
AcDbEntity
  8
SUPERFICI
100
AcDbLine
 62
7
  6
CONTINUOUS
 10
-3.0015540495
 20
-71.5479861411
 11
-2.9919379693
 21
-71.7541551282
  0
LINE
  5
327
100
AcDbEntity
  8
SUPERFICI
100
AcDbLine
 62
250
  6
CONTINUOUS
 10
-2.7818026171
 20
-72.7085470242
 11
-2.77630953
 21
-72.8396958939
  0
LINE
  5
328
100
AcDbEntity
  8
SUPERFICI
100
AcDbLine
 62
7
  6
CONTINUOUS
 10
-3.0106490485
 20
-71.3313817399
 11
-3.0015540495
 21
-71.5479861411
  0
LINE
  5
329
100
AcDbEntity
  8
SUPERFICI
100
AcDbLine
 62
7
  6
CONTINUOUS
 10
-3.0173858267
 20
-71.1490863716
 11
-3.0106490485
 21
-71.3313817399
  0
LINE
  5
32A
100
AcDbEntity
  8
SUPERFICI
100
AcDbLine
 62
7
  6
CONTINUOUS
 10
-3.0266749684
 20
-70.8579210601
 11
-3.0173858267
 21
-71.1490863716
  0
LINE
  5
32B
100
AcDbEntity
  8
SUPERFICI
100
AcDbLine
 62
250
  6
CONTINUOUS
 10
-0.8114935433
 20
-72.3442314559
 11
-0.804922036
 21
-72.5994890619
  0
LINE
  5
32C
100
AcDbEntity
  8
SUPERFICI
100
AcDbLine
 62
7
  6
CONTINUOUS
 10
-3.0340369766
 20
-70.5662278574
 11
-3.0266749684
 21
-70.8579210601
  0
LWPOLYLINE
  5
32D
100
AcDbEntity
  8
SUPERFICI
100
AcDbPolyline
 62
250
  6
CONTINUOUS
 90
7
 70
0
 10
-2.8457975779
 20
-71.1174704249
 10
-2.8417411932
 20
-71.2932396486
 10
-2.8368440036
 20
-71.4693351373
 10
-2.8311073471
 20
-71.6457405643
 10
-2.8244350355
 20
-71.8225036233
 10
-2.8169295504
 20
-71.9995425304
 10
-2.8004019155
 20
-72.3538461064
  0
LINE
  5
32E
100
AcDbEntity
  8
SUPERFICI
100
AcDbLine
 62
250
  6
CONTINUOUS
 10
-0.8266637556
 20
-71.6493886525
 11
-0.8155187767
 21
-72.1085916964
  0
LINE
  5
32F
100
AcDbEntity
  8
SUPERFICI
100
AcDbLine
 62
250
  6
CONTINUOUS
 10
-0.8287214585
 20
-71.5475133196
 11
-0.8266637556
 21
-71.6493886525
  0
LINE
  5
330
100
AcDbEntity
  8
SUPERFICI
100
AcDbLine
 62
250
  6
CONTINUOUS
 10
-0.804922036
 20
-72.5994890619
 11
-0.7980702979
 21
-72.9251913587
  0
LINE
  5
331
100
AcDbEntity
  8
SUPERFICI
100
AcDbLine
 62
7
  6
CONTINUOUS
 10
-3.0390753178
 20
-70.3055830099
 11
-3.0340369766
 21
-70.5662278574
  0
LINE
  5
332
100
AcDbEntity
  8
SUPERFICI
100
AcDbLine
 62
250
  6
CONTINUOUS
 10
-2.8508768542
 20
-70.7433041884
 11
-2.8469846397
 21
-70.9600947548
  0
LWPOLYLINE
  5
333
100
AcDbEntity
  8
SUPERFICI
100
AcDbPolyline
 62
250
  6
CONTINUOUS
 90
3
 70
0
 10
-0.8155187767
 20
-72.1085916964
 10
-0.8127965296
 20
-72.2690787373
 10
-0.811796471
 20
-72.3445580247
  0
LINE
  5
334
100
AcDbEntity
  8
SUPERFICI
100
AcDbLine
 62
7
  6
CONTINUOUS
 10
-3.042516072
 20
-70.0436514918
 11
-3.0389939415
 21
-70.3051129431
  0
LWPOLYLINE
  5
335
100
AcDbEntity
  8
SUPERFICI
100
AcDbPolyline
 62
250
  6
CONTINUOUS
 90
3
 70
0
 10
-2.8469846397
 20
-70.9600947548
 10
-2.8464076109
 20
-71.0315954952
 10
-2.8447234244
 20
-71.1037483004
  0
LINE
  5
336
100
AcDbEntity
  8
0
100
AcDbLine
 62
7
  6
CONTINUOUS
 10
-1.4015601768
 20
-44.5911343473
 11
-1.4018605996
 21
-44.5515584732
  0
LWPOLYLINE
  5
337
100
AcDbEntity
  8
SUPERFICI
100
AcDbPolyline
 62
250
  6
CONTINUOUS
 90
7
 70
0
 10
-2.5461934366
 20
-44.3585608308
 10
-2.546519493
 20
-44.311969409
 10
-2.5384430052
 20
-44.2656009711
 10
-2.5224127244
 20
-44.2194321701
 10
-2.499242302
 20
-44.1750717634
 10
-2.4692029551
 20
-44.1330560035
 10
-2.4320234665
 20
-44.0928486379
  0
LINE
  5
338
100
AcDbEntity
  8
SUPERFICI
100
AcDbLine
 62
250
  6
CONTINUOUS
 10
-2.8528263044
 20
-69.5550836216
 11
-2.8520668474
 21
-69.6810027622
  0
LWPOLYLINE
  5
339
100
AcDbEntity
  8
SUPERFICI
100
AcDbPolyline
 62
250
  6
CONTINUOUS
 90
3
 70
0
 10
-0.8318947658
 20
-71.2267170587
 10
-0.8312592286
 20
-71.3362887327
 10
-0.8287214585
 20
-71.5475133196
  0
LWPOLYLINE
  5
33A
100
AcDbEntity
  8
SUPERFICI
100
AcDbPolyline
 62
250
  6
CONTINUOUS
 90
3
 70
0
 10
-2.8533660942
 20
-70.4241026642
 10
-2.8527826569
 20
-70.5475836341
 10
-2.8508768542
 20
-70.7433041884
  0
LWPOLYLINE
  5
33B
100
AcDbEntity
  8
SUPERFICI
100
AcDbPolyline
 62
250
  6
CONTINUOUS
 90
22
 70
0
 10
-0.8042174709
 20
-73.7817657733
 10
-0.8017574445
 20
-74.3662261181
 10
-0.7831325778
 20
-74.9578155269
 10
-0.7483077072
 20
-75.5542300029
 10
-0.6977424349
 20
-76.1503379774
 10
-0.6314960821
 20
-76.7470756684
 10
-0.5485186579
 20
-77.3512384195
 10
-0.4480417711
 20
-77.9629761025
 10
-0.3303468786
 20
-78.5788431958
 10
-0.195123103
 20
-79.2006307678
 10
-0.0417774016
 20
-79.8278262298
 10
0.1298130629
 20
-80.4581178098
 10
0.3194821848
 20
-81.0910106524
 10
0.5276625997
 20
-81.7258836329
 10
0.7545112796
 20
-82.3607000132
 10
0.9992612588
 20
-82.9931271672
 10
1.2623501828
 20
-83.623067649
 10
1.5434486818
 20
-84.2479741658
 10
1.8401352481
 20
-84.8623478812
 10
2.151162505
 20
-85.463836443
 10
2.476642852
 20
-86.0525571325
 10
2.5769747909
 20
-86.2261585419
  0
LINE
  5
33C
100
AcDbEntity
  8
SUPERFICI
100
AcDbLine
 62
250
  6
CONTINUOUS
 10
-0.7996054861
 20
-72.9382672493
 11
-0.7988505031
 21
-73.1280446755
  0
LINE
  5
33D
100
AcDbEntity
  8
SUPERFICI
100
AcDbLine
 62
7
  6
CONTINUOUS
 10
-3.0443789945
 20
-69.1629083978
 11
-3.044378992
 21
-44.7410808006
  0
LINE
  5
33E
100
AcDbEntity
  8
SUPERFICI
100
AcDbLine
 62
250
  6
CONTINUOUS
 10
-2.8522785381
 20
-45.1352845698
 11
-2.85227854
 21
-69.5555992542
  0
LINE
  5
33F
100
AcDbEntity
  8
0
100
AcDbLine
 62
7
  6
CONTINUOUS
 10
-1.1962717681
 20
-44.4137616079
 11
-1.1962717681
 21
-44.3878173956
  0
LINE
  5
340
100
AcDbEntity
  8
SUPERFICI
100
AcDbLine
 62
250
  6
CONTINUOUS
 10
-2.8520668474
 20
-69.6810027622
 11
-2.8521564419
 21
-69.9303283355
  0
LINE
  5
341
100
AcDbEntity
  8
SUPERFICI
100
AcDbLine
 62
250
  6
CONTINUOUS
 10
-2.8521564419
 20
-69.9303283355
 11
-2.8533660942
 21
-70.4241026642
  0
LWPOLYLINE
  5
342
100
AcDbEntity
  8
SUPERFICI
100
AcDbPolyline
 62
7
  6
CONTINUOUS
 90
5
 70
0
 10
-3.0443918239
 20
-69.1635591589
 10
-3.0452258575
 20
-69.3540911969
 10
-3.0453981998
 20
-69.5337938071
 10
-3.0449572228
 20
-69.7086710036
 10
-3.042516072
 20
-70.0436514918
  0
LINE
  5
343
100
AcDbEntity
  8
SUPERFICI
100
AcDbLine
 62
250
  6
CONTINUOUS
 10
-0.7988505031
 20
-73.1280446755
 11
-0.7993721377
 21
-73.3150699101
  0
LINE
  5
344
100
AcDbEntity
  8
SUPERFICI
100
AcDbLine
 62
250
  6
CONTINUOUS
 10
-0.8041364792
 20
-73.7716986546
 11
-0.8042174709
 21
-73.7817657733
  0
LINE
  5
345
100
AcDbEntity
  8
SUPERFICI
100
AcDbLine
 62
250
  6
CONTINUOUS
 10
-0.7993721377
 20
-73.3150699101
 11
-0.8019097648
 21
-73.5907728655
  0
LINE
  5
346
100
AcDbEntity
  8
SUPERFICI
100
AcDbLine
 62
250
  6
CONTINUOUS
 10
-0.8019097648
 20
-73.5907728655
 11
-0.8041364792
 21
-73.7716986546
  0
LWPOLYLINE
  5
347
100
AcDbEntity
  8
SUPERFICI
100
AcDbPolyline
 62
250
  6
CONTINUOUS
 90
16
 70
0
 10
-2.8522782416
 20
-45.13528447
 10
-2.8498700965
 20
-45.0915536163
 10
-2.8428267557
 20
-45.0470243659
 10
-2.8312672646
 20
-45.0020080399
 10
-2.8152983416
 20
-44.9567743796
 10
-2.7950910653
 20
-44.911745616
 10
-2.7709568262
 20
-44.867553873
 10
-2.7432713267
 20
-44.8248344818
 10
-2.7122578863
 20
-44.7839555121
 10
-2.6780628409
 20
-44.7451275809
 10
-2.6409765705
 20
-44.7086628633
 10
-2.6015306368
 20
-44.6751206396
 10
-2.5602835493
 20
-44.6450286863
 10
-2.517637065
 20
-44.61867461
 10
-2.4738564154
 20
-44.5962068321
 10
-2.429248338
 20
-44.5778113752
  0
LINE
  5
348
100
AcDbEntity
  8
SUPERFICI
100
AcDbLine
 62
250
  6
CONTINUOUS
 10
-2.8457975779
 20
-71.1174704249
 11
-2.8447234244
 21
-71.1037483004
  0
LWPOLYLINE
  5
349
100
AcDbEntity
  8
SUPERFICI
100
AcDbPolyline
 62
7
  6
CONTINUOUS
 90
13
 70
0
 10
-0.7996054863
 20
-72.9382672951
 10
-0.7979707608
 20
-72.9379458233
 10
-0.7960189051
 20
-72.938445056
 10
-0.7940435784
 20
-72.9397808497
 10
-0.7922406835
 20
-72.9419996853
 10
-0.7906810698
 20
-72.9449380989
 10
-0.7894297252
 20
-72.9481438079
 10
-0.7884949122
 20
-72.9511613887
 10
-0.7877281
 20
-72.9540426774
 10
-0.7869494473
 20
-72.9570588905
 10
-0.7860899257
 20
-72.9602185027
 10
-0.7851908792
 20
-72.9633674764
 10
-0.7842484749
 20
-72.9665100124
  0
LWPOLYLINE
  5
34A
100
AcDbEntity
  8
0
100
AcDbPolyline
 62
7
  6
CONTINUOUS
 90
13
 70
0
 10
20.8947386119
 20
-85.4643096834
 10
20.8926864225
 20
-85.4618594331
 10
20.8902303036
 20
-85.4598135566
 10
20.8877410577
 20
-85.458571562
 10
20.8854671406
 20
-85.4584364975
 10
20.8834973409
 20
-85.459337072
 10
20.8819114769
 20
-85.4609046123
 10
20.8807166017
 20
-85.4626925379
 10
20.879729451
 20
-85.4645611104
 10
20.8787325246
 20
-85.4665521263
 10
20.877642455
 20
-85.468586069
 10
20.8765088071
 20
-85.4705613904
 10
20.8753271765
 20
-85.4724775353
  0
LWPOLYLINE
  5
34B
100
AcDbEntity
  8
0
100
AcDbPolyline
 62
7
  6
CONTINUOUS
 90
12
 70
0
 10
8.5817591767
 20
-74.841475836
 10
8.461312082
 20
-74.6629505023
 10
8.3492470747
 20
-74.4773232729
 10
8.2462261451
 20
-74.2854994788
 10
8.1533666531
 20
-74.0893481952
 10
8.071550949
 20
-73.8909109011
 10
8.0014506129
 20
-73.6919641857
 10
7.9434607444
 20
-73.4937529438
 10
7.8978773298
 20
-73.2975495642
 10
7.8650298394
 20
-73.1047678385
 10
7.8452243596
 20
-72.9169462498
 10
7.8386248489
 20
-72.7355136972
  0
LWPOLYLINE
  5
34C
100
AcDbEntity
  8
0
100
AcDbPolyline
 62
7
  6
CONTINUOUS
 90
10
 70
0
 10
10.7868421412
 20
-77.4569749439
 10
10.68400082
 20
-77.2972631716
 10
10.5752665259
 20
-77.1428423401
 10
10.4612062451
 20
-76.9944978377
 10
10.3424550191
 20
-76.853051747
 10
10.2195895497
 20
-76.7191396835
 10
10.0931068309
 20
-76.5932431962
 10
9.9635988499
 20
-76.4759677843
 10
9.8317674993
 20
-76.3680033958
 10
9.6982853709
 20
-76.2699266505
  0
LINE
  5
34D
100
AcDbEntity
  8
0
100
AcDbLine
 62
7
  6
CONTINUOUS
 10
9.3969121682
 20
-73.7722654954
 11
8.998914318
 21
-73.1529454057
  0
LINE
  5
34E
100
AcDbEntity
  8
0
100
AcDbLine
 62
7
  6
CONTINUOUS
 10
9.396911106
 20
-73.2492542569
 11
9.0017823374
 21
-72.6342939771
  0
LINE
  5
34F
100
AcDbEntity
  8
0
100
AcDbLine
 62
7
  6
CONTINUOUS
 10
8.6691376144
 20
-72.1601598934
 11
9.3969112628
 21
-73.2944651628
  0
LWPOLYLINE
  5
350
100
AcDbEntity
  8
0
100
AcDbPolyline
 62
7
  6
CONTINUOUS
 90
3
 70
0
 10
8.998914318
 20
-73.1529454057
 10
8.6020653124
 20
-72.5330119847
 10
8.5030327679
 20
-72.3779331187
  0
LWPOLYLINE
  5
351
100
AcDbEntity
  8
0
100
AcDbPolyline
 62
7
  6
CONTINUOUS
 90
3
 70
0
 10
9.0017823374
 20
-72.6342939771
 10
8.5866982045
 20
-71.9857001242
 10
8.4831239681
 20
-71.8234472061
  0
LINE
  5
352
100
AcDbEntity
  8
0
100
AcDbLine
 62
7
  6
CONTINUOUS
 10
8.4619101062
 20
-71.8356958241
 11
8.6691376144
 21
-72.1601598934
  0
LWPOLYLINE
  5
353
100
AcDbEntity
  8
0
100
AcDbPolyline
 62
7
  6
CONTINUOUS
 90
7
 70
0
 10
10.9839007376
 20
-77.2591857369
 10
10.895452162
 20
-77.115695015
 10
10.8020265866
 20
-76.9760003806
 10
10.7040094271
 20
-76.8406813505
 10
10.601805058
 20
-76.7102989064
 10
10.4958351227
 20
-76.5853931856
 10
10.3992759368
 20
-76.4803409238
  0
LWPOLYLINE
  5
354
100
AcDbEntity
  8
0
100
AcDbPolyline
 62
7
  6
CONTINUOUS
 90
5
 70
0
 10
10.6938132169
 20
-73.1266885838
 10
10.7769680931
 20
-73.2767291618
 10
10.852995426
 20
-73.4297139114
 10
10.9214501622
 20
-73.5847372966
 10
10.9819436673
 20
-73.7408748326
  0
LWPOLYLINE
  5
355
100
AcDbEntity
  8
SUPERFICI
100
AcDbPolyline
 62
250
  6
CONTINUOUS
 90
8
 70
0
 10
4.0157484215
 20
-94.9922414729
 10
3.9720908029
 20
-94.6679766801
 10
3.9514003421
 20
-94.3295479071
 10
3.9507214593
 20
-93.9766792688
 10
3.9678676913
 20
-93.6068993144
 10
4.0008293187
 20
-93.2220337816
 10
4.0468253957
 20
-92.8286822634
 10
4.1038593628
 20
-92.4247959387
  0
LWPOLYLINE
  5
356
100
AcDbEntity
  8
SUPERFICI
100
AcDbPolyline
 62
250
  6
CONTINUOUS
 90
10
 70
0
 10
-0.593672067
 20
-74.5635992568
 10
-0.5364381829
 20
-74.9930858508
 10
-0.4716797261
 20
-75.4194804926
 10
-0.39985584
 20
-75.8423269762
 10
-0.3221405197
 20
-76.2595479076
 10
-0.238548371
 20
-76.6725889563
 10
-0.1474785127
 20
-77.0862961939
 10
-0.0483485101
 20
-77.5020558911
 10
0.0579315419
 20
-77.917881488
 10
0.1711351163
 20
-78.3335123401
  0
LINE
  5
357
100
AcDbEntity
  8
SUPERFICI
100
AcDbLine
 62
250
  6
CONTINUOUS
 10
-0.61335796
 20
-74.4057626829
 11
-0.593672067
 21
-74.5635992568
  0
LWPOLYLINE
  5
358
100
AcDbEntity
  8
SUPERFICI
100
AcDbPolyline
 62
250
  6
CONTINUOUS
 90
4
 70
0
 10
-0.7561515018
 20
-73.1328250306
 10
-0.7371680675
 20
-73.2856769612
 10
-0.7280422186
 20
-73.3633388734
 10
-0.7192327223
 20
-73.4419572035
  0
LINE
  5
359
100
AcDbEntity
  8
SUPERFICI
100
AcDbLine
 62
250
  6
CONTINUOUS
 10
-0.6323105951
 20
-74.2469413669
 11
-0.61335796
 21
-74.4057626829
  0
LINE
  5
35A
100
AcDbEntity
  8
SUPERFICI
100
AcDbLine
 62
250
  6
CONTINUOUS
 10
-0.6594578746
 20
-74.0068579592
 11
-0.6323105951
 21
-74.2469413669
  0
LWPOLYLINE
  5
35B
100
AcDbEntity
  8
SUPERFICI
100
AcDbPolyline
 62
250
  6
CONTINUOUS
 90
3
 70
0
 10
1.6505629611
 20
-80.4660187698
 10
1.5587836621
 20
-78.0920839588
 10
1.5072464974
 20
-75.6650985602
  0
LINE
  5
35C
100
AcDbEntity
  8
SUPERFICI
100
AcDbLine
 62
250
  6
CONTINUOUS
 10
1.5072464974
 20
-75.6650985602
 11
1.4959345698
 21
-73.1858628381
  0
LINE
  5
35D
100
AcDbEntity
  8
SUPERFICI
100
AcDbLine
 62
250
  6
CONTINUOUS
 10
1.4959345698
 20
-73.1858628381
 11
1.4959404148
 21
-48.3998166447
  0
LINE
  5
35E
100
AcDbEntity
  8
0
100
AcDbLine
 62
7
  6
CONTINUOUS
 10
3.8310314264
 20
-41.0229718406
 11
3.8310314264
 21
-41.1269823521
  0
LWPOLYLINE
  5
35F
100
AcDbEntity
  8
SUPERFICI
100
AcDbPolyline
 62
7
  6
CONTINUOUS
 90
4
 70
0
 10
-0.7992628206
 20
-72.932355861
 10
-0.7993905526
 20
-72.9352578882
 10
-0.7994646701
 20
-72.9367599506
 10
-0.7996054863
 20
-72.9382672951
  0
LINE
  5
360
100
AcDbEntity
  8
SUPERFICI
100
AcDbLine
 62
250
  6
CONTINUOUS
 10
1.3821983342
 20
-91.1616688162
 11
1.4021679866
 21
-90.8766275619
  0
LWPOLYLINE
  5
361
100
AcDbEntity
  8
DRAFT
100
AcDbPolyline
 62
7
  6
CONTINUOUS
 90
4
 70
0
 10
4.0430401825
 20
-43.2246653466
 10
4.0565930335
 20
-43.0489977777
 10
4.0966485075
 20
-42.8733300673
 10
4.106269451
 20
-42.8422772989
  0
LWPOLYLINE
  5
362
100
AcDbEntity
  8
SUPERFICI
100
AcDbPolyline
 62
7
  6
CONTINUOUS
 90
6
 70
0
 10
-0.7989456333
 20
-72.9254449126
 10
-0.7990948514
 20
-72.9267150243
 10
-0.7991626287
 20
-72.9280775636
 10
-0.7991982399
 20
-72.9294901653
 10
-0.7992269384
 20
-72.930922722
 10
-0.7992628206
 20
-72.932355861
  0
LWPOLYLINE
  5
363
100
AcDbEntity
  8
RACCORDO
100
AcDbPolyline
 62
7
  6
CONTINUOUS
 90
4
 70
0
 10
4.14514998
 20
-42.9875510017
 10
4.1056274996
 20
-43.1308956303
 10
4.0808306449
 20
-43.2747609416
 10
4.0705759913
 20
-43.4184197027
  0
LWPOLYLINE
  5
364
100
AcDbEntity
  8
DRAFT
100
AcDbPolyline
 62
7
  6
CONTINUOUS
 90
16
 70
0
 10
4.106269451
 20
-42.8422772989
 10
4.1623026056
 20
-42.7016239237
 10
4.2541363594
 20
-42.533970228
 10
4.3715687372
 20
-42.3702780991
 10
4.5119526444
 20
-42.2142366022
 10
4.6758096502
 20
-42.0660189416
 10
4.8626181855
 20
-41.925451913
 10
5.0681664483
 20
-41.7957049682
 10
5.2928802708
 20
-41.6770239774
 10
5.5363338209
 20
-41.5691630704
 10
5.7930378005
 20
-41.4745540888
 10
6.0632921892
 20
-41.3934981802
 10
6.3467970073
 20
-41.3256941971
 10
6.6371630185
 20
-41.2726705385
 10
6.9345476231
 20
-41.2347626852
 10
6.9410785201
 20
-41.2342662329
  0
LWPOLYLINE
  5
365
100
AcDbEntity
  8
RACCORDO
100
AcDbPolyline
 62
7
  6
CONTINUOUS
 90
3
 70
0
 10
4.2687803603
 20
-42.7051487762
 10
4.1995272496
 20
-42.8453870579
 10
4.14514998
 20
-42.9875510017
  0
LWPOLYLINE
  5
366
100
AcDbEntity
  8
SMUSSO
100
AcDbPolyline
 62
7
  6
CONTINUOUS
 90
9
 70
0
 10
5.1232383572
 20
-43.923768538
 10
5.149389896
 20
-43.8771861119
 10
5.2198175091
 20
-43.7756475926
 10
5.3019391603
 20
-43.6770810134
 10
5.3953823553
 20
-43.5819337636
 10
5.4997212286
 20
-43.4906397412
 10
5.6144772797
 20
-43.4036169987
 10
5.7391263748
 20
-43.3212616785
 10
5.8222170957
 20
-43.2720932352
  0
LINE
  5
367
100
AcDbEntity
  8
RACCORDO
100
AcDbLine
 62
250
  6
CONTINUOUS
 10
4.0579692268
 20
-43.4063701701
 11
4.0725940068
 21
-43.3901490637
  0
LINE
  5
368
100
AcDbEntity
  8
RACCORDO
100
AcDbLine
 62
7
  6
CONTINUOUS
 10
4.0646018851
 20
-43.4354586707
 11
4.0758515071
 21
-43.4233013228
  0
LWPOLYLINE
  5
369
100
AcDbEntity
  8
0
100
AcDbPolyline
 62
250
  6
CONTINUOUS
 90
7
 70
0
 10
-2.2150333979
 20
-44.9653951088
 10
-2.1985127256
 20
-44.9500462558
 10
-2.1810881455
 20
-44.9349125915
 10
-2.1627624284
 20
-44.9201124474
 10
-2.1435452553
 20
-44.9057726713
 10
-2.1234539531
 20
-44.8920290893
 10
-2.1025142543
 20
-44.8790269841
  0
LINE
  5
36A
100
AcDbEntity
  8
SUPERFICI
100
AcDbLine
 62
250
  6
CONTINUOUS
 10
-2.4320234665
 20
-44.0928486379
 11
-2.3877038363
 21
-44.0544496665
  0
LWPOLYLINE
  5
36B
100
AcDbEntity
  8
SUPERFICI
100
AcDbPolyline
 62
7
  6
CONTINUOUS
 90
10
 70
0
 10
-2.6874588704
 20
-44.0630217956
 10
-2.7649585196
 20
-44.129208053
 10
-2.8352636881
 20
-44.2025267366
 10
-2.8951293577
 20
-44.2795345565
 10
-2.9448618581
 20
-44.3597484428
 10
-2.9846312679
 20
-44.4427898442
 10
-3.0142221533
 20
-44.527540853
 10
-3.0337271498
 20
-44.6133878118
 10
-3.0433106791
 20
-44.7005415676
 10
-3.0443729076
 20
-44.7411479963
  0
LINE
  5
36C
100
AcDbEntity
  8
SUPERFICI
100
AcDbLine
 62
7
  6
CONTINUOUS
 10
-2.6853254578
 20
-44.0613795743
 11
-2.6874588704
 21
-44.0630217956
  0
LWPOLYLINE
  5
36D
100
AcDbEntity
  8
0
100
AcDbPolyline
 62
250
  6
CONTINUOUS
 90
9
 70
0
 10
-2.3877038363
 20
-44.0544496665
 10
-1.8556116867
 20
-43.6491544191
 10
-1.309360911
 20
-43.2461865349
 10
-0.7489515093
 20
-42.8455460141
 10
-0.174417591
 20
-42.4471729753
 10
0.4142749534
 20
-42.0511272998
 10
1.0172284524
 20
-41.6575886313
 10
1.6344770155
 20
-41.266616851
 10
2.2659865333
 20
-40.8781520776
  0
LWPOLYLINE
  5
36E
100
AcDbEntity
  8
SUPERFICI
100
AcDbPolyline
 62
7
  6
CONTINUOUS
 90
9
 70
0
 10
-2.6864400617
 20
-44.0598954264
 10
-2.133518662
 20
-43.6406434298
 10
-1.5698687783
 20
-43.2262170107
 10
-0.9957374692
 20
-42.8167983065
 10
-0.4112501065
 20
-42.4124733521
 10
0.1834577682
 20
-42.0133327213
 10
0.7882394757
 20
-41.6194713376
 10
1.4029538902
 20
-41.2309772572
 10
2.0274664593
 20
-40.8479318336
  0
LWPOLYLINE
  5
36F
100
AcDbEntity
  8
0
100
AcDbPolyline
 62
7
  6
CONTINUOUS
 90
4
 70
0
 10
-1.1632048041
 20
-44.4137616079
 10
-0.1097256752
 20
-43.6442279999
 10
0.9801943611
 20
-42.893970865
 10
2.1065553048
 20
-42.1629902031
  0
LINE
  5
370
100
AcDbEntity
  8
0
100
AcDbLine
 62
7
  6
CONTINUOUS
 10
2.1065553048
 20
-42.1629902031
 11
3.2703756227
 21
-41.4506979721
  0
LINE
  5
371
100
AcDbEntity
  8
0
100
AcDbLine
 62
250
  6
CONTINUOUS
 10
2.2659865333
 20
-40.8781520776
 11
2.9117570056
 21
-40.4921943113
  0
LINE
  5
372
100
AcDbEntity
  8
SUPERFICI
100
AcDbLine
 62
7
  6
CONTINUOUS
 10
2.0274664593
 20
-40.8479318336
 11
2.6607904532
 21
-40.4709141481
  0
LINE
  5
373
100
AcDbEntity
  8
0
100
AcDbLine
 62
7
  6
CONTINUOUS
 10
-1.1962717681
 20
-44.3878173956
 11
-1.4725712777
 21
-44.5501334276
  0
LWPOLYLINE
  5
374
100
AcDbEntity
  8
0
100
AcDbPolyline
 62
7
  6
CONTINUOUS
 90
6
 70
0
 10
3.2703756227
 20
-41.4506979721
 10
4.4706368481
 20
-40.7576822141
 10
5.7042835811
 20
-40.0857070557
 10
6.9702973551
 20
-39.4353605391
 10
8.2696966366
 20
-38.806054622
 10
9.6024814258
 20
-38.1977893045
  0
LINE
  5
375
100
AcDbEntity
  8
0
100
AcDbLine
 62
7
  6
CONTINUOUS
 10
9.6024814258
 20
-38.1977893045
 11
9.8411372214
 21
-38.0599924392
  0
LINE
  5
376
100
AcDbEntity
  8
0
100
AcDbLine
 62
7
  6
CONTINUOUS
 10
-1.1632048041
 20
-44.4137616079
 11
-1.4018605996
 21
-44.5515584732
  0
LINE
  5
377
100
AcDbEntity
  8
0
100
AcDbLine
 62
7
  6
CONTINUOUS
 10
10.5482440025
 20
-37.6165905692
 11
10.4433815907
 21
-37.6760801556
  0
LINE
  5
378
100
AcDbEntity
  8
0
100
AcDbLine
 62
7
  6
CONTINUOUS
 10
9.5648377117
 20
-38.1744876503
 11
9.8411641458
 21
-38.0177246598
  0
LINE
  5
379
100
AcDbEntity
  8
0
100
AcDbLine
 62
7
  6
CONTINUOUS
 10
3.3054225888
 20
-40.1100508832
 11
2.6627600674
 21
-40.4697769885
  0
LINE
  5
37A
100
AcDbEntity
  8
0
100
AcDbLine
 62
7
  6
CONTINUOUS
 10
2.6608600487
 20
-40.4710341871
 11
2.6772151975
 21
-40.4625999092
  0
LINE
  5
37B
100
AcDbEntity
  8
0
100
AcDbLine
 62
7
  6
CONTINUOUS
 10
2.6628304424
 20
-40.4698996011
 11
2.6772151975
 21
-40.4625999092
  0
LWPOLYLINE
  5
37C
100
AcDbEntity
  8
0
100
AcDbPolyline
 62
7
  6
CONTINUOUS
 90
9
 70
0
 10
8.7770120818
 20
-37.4399149279
 10
8.0631080069
 20
-37.7524136823
 10
7.3573799332
 20
-38.0711594061
 10
6.6600781461
 20
-38.396044173
 10
5.9713589769
 20
-38.7269985163
 10
5.291379177
 20
-39.0639506059
 10
4.6202954743
 20
-39.4068263072
 10
3.9582603838
 20
-39.7555512677
 10
3.3054225888
 20
-40.1100508832
  0
LWPOLYLINE
  5
37D
100
AcDbEntity
  8
0
100
AcDbPolyline
 62
250
  6
CONTINUOUS
 90
10
 70
0
 10
8.9821531214
 20
-37.4896367569
 10
8.2908814884
 20
-37.7906964252
 10
7.603728318
 20
-38.0998805213
 10
6.92069361
 20
-38.4171890454
 10
6.241674256
 20
-38.7426019554
 10
5.5667733644
 20
-39.0761392932
 10
4.8963002611
 20
-39.4178611852
 10
4.2303580544
 20
-39.7677876732
 10
3.5688436359
 20
-40.1258987152
 10
2.9117570056
 20
-40.4921943113
  0
LINE
  5
37E
100
AcDbEntity
  8
0
100
AcDbLine
 62
7
  6
CONTINUOUS
 10
8.777849734
 20
-37.4418933702
 11
8.7761684544
 21
-37.4426174357
  0
LWPOLYLINE
  5
37F
100
AcDbEntity
  8
0
100
AcDbPolyline
 62
7
  6
CONTINUOUS
 90
7
 70
0
 10
14.9970988824
 20
-64.4169604833
 10
15.0463633245
 20
-64.4397065749
 10
15.0949041289
 20
-64.4550035942
 10
15.1419146974
 20
-64.462498911
 10
15.1867283488
 20
-64.4619429408
 10
15.2284328473
 20
-64.4532398626
 10
15.2656549533
 20
-64.4368182073
  0
LINE
  5
380
100
AcDbEntity
  8
0
100
AcDbLine
 62
7
  6
CONTINUOUS
 10
15.0674642285
 20
-64.4273996331
 11
15.0183271377
 21
-64.4047035548
  0
LINE
  5
381
100
AcDbEntity
  8
0
100
AcDbLine
 62
7
  6
CONTINUOUS
 10
16.1229818551
 20
-66.9989500236
 11
15.7303364918
 21
-66.7913567025
  0
LINE
  5
382
100
AcDbEntity
  8
0
100
AcDbLine
 62
7
  6
CONTINUOUS
 10
15.7303364918
 20
-66.7913567025
 11
15.4169101459
 21
-66.6248480893
  0
LINE
  5
383
100
AcDbEntity
  8
0
100
AcDbLine
 62
7
  6
CONTINUOUS
 10
15.0183271377
 20
-64.4047011054
 11
14.6394032224
 21
-64.2012763894
  0
LINE
  5
384
100
AcDbEntity
  8
0
100
AcDbLine
 62
7
  6
CONTINUOUS
 10
15.1049236097
 20
-62.9646226963
 11
14.6186413412
 21
-62.70368016
  0
LINE
  5
385
100
AcDbEntity
  8
0
100
AcDbLine
 62
7
  6
CONTINUOUS
 10
14.9970999204
 20
-63.5725157026
 11
14.576127714
 21
-63.3464498126
  0
LINE
  5
386
100
AcDbEntity
  8
0
100
AcDbLine
 62
7
  6
CONTINUOUS
 10
14.4356555737
 20
-62.6287476188
 11
15.083694879
 21
-62.9768798993
  0
LWPOLYLINE
  5
387
100
AcDbEntity
  8
0
100
AcDbPolyline
 62
7
  6
CONTINUOUS
 90
3
 70
0
 10
14.7914403107
 20
-64.9486659459
 10
14.3391037156
 20
-64.7050119064
 10
14.2487930473
 20
-64.6561842011
  0
LINE
  5
388
100
AcDbEntity
  8
0
100
AcDbLine
 62
7
  6
CONTINUOUS
 10
14.2401675879
 20
-64.0095410224
 11
14.9970988824
 21
-64.4169580339
  0
LINE
  5
389
100
AcDbEntity
  8
0
100
AcDbLine
 62
7
  6
CONTINUOUS
 10
14.6394032224
 20
-64.2012763894
 11
14.2613919902
 21
-63.9972863185
  0
LINE
  5
38A
100
AcDbEntity
  8
0
100
AcDbLine
 62
7
  6
CONTINUOUS
 10
14.576127714
 20
-63.3464498126
 11
14.2401613249
 21
-63.1650947411
  0
LINE
  5
38B
100
AcDbEntity
  8
0
100
AcDbLine
 62
7
  6
CONTINUOUS
 10
14.6186413412
 20
-62.70368016
 11
14.133861185
 21
-62.4418067106
  0
LINE
  5
38C
100
AcDbEntity
  8
0
100
AcDbLine
 62
7
  6
CONTINUOUS
 10
14.2487224926
 20
-65.9979093086
 11
13.8355419359
 21
-65.7737499493
  0
LWPOLYLINE
  5
38D
100
AcDbEntity
  8
0
100
AcDbPolyline
 62
7
  6
CONTINUOUS
 90
3
 70
0
 10
13.6293683929
 20
-62.1912592445
 10
13.7902904838
 20
-62.2789628974
 10
14.4356555737
 20
-62.6287476188
  0
LINE
  5
38E
100
AcDbEntity
  8
0
100
AcDbLine
 62
7
  6
CONTINUOUS
 10
14.133861185
 20
-62.4418067106
 11
13.6505900897
 21
-62.1790061027
  0
LINE
  5
38F
100
AcDbEntity
  8
0
100
AcDbLine
 62
7
  6
CONTINUOUS
 10
13.8355419359
 20
-65.7737499493
 11
13.6293646088
 21
-65.661416868
  0
LINE
  5
390
100
AcDbEntity
  8
0
100
AcDbLine
 62
7
  6
CONTINUOUS
 10
13.2178883921
 20
-65.436280884
 11
12.8075470618
 21
-65.2104744216
  0
LINE
  5
391
100
AcDbEntity
  8
0
100
AcDbLine
 62
7
  6
CONTINUOUS
 10
12.8075470618
 20
-65.2104744216
 11
12.6027922887
 21
-65.0973195802
  0
LINE
  5
392
100
AcDbEntity
  8
0
100
AcDbLine
 62
7
  6
CONTINUOUS
 10
12.409147665
 20
-64.3075827654
 11
11.9795093369
 21
-64.0684656696
  0
LINE
  5
393
100
AcDbEntity
  8
0
100
AcDbLine
 62
7
  6
CONTINUOUS
 10
12.215463395
 20
-63.5165733203
 11
11.8484278444
 21
-63.3117847703
  0
LINE
  5
394
100
AcDbEntity
  8
0
100
AcDbLine
 62
7
  6
CONTINUOUS
 10
12.252917737
 20
-61.4090154063
 11
11.8452939621
 21
-61.181626215
  0
LINE
  5
395
100
AcDbEntity
  8
0
100
AcDbLine
 62
7
  6
CONTINUOUS
 10
11.6300723351
 20
-63.2136024084
 11
12.22227799
 21
-63.5444292429
  0
LINE
  5
396
100
AcDbEntity
  8
0
100
AcDbLine
 62
7
  6
CONTINUOUS
 10
11.8484278444
 20
-63.3117847703
 11
11.6512877546
 21
-63.201352891
  0
LINE
  5
397
100
AcDbEntity
  8
0
100
AcDbLine
 62
7
  6
CONTINUOUS
 10
11.6206854804
 20
-61.0799311542
 11
12.2317008494
 21
-61.4212657713
  0
LINE
  5
398
100
AcDbEntity
  8
0
100
AcDbLine
 62
7
  6
CONTINUOUS
 10
11.8452939621
 20
-61.181626215
 11
11.6419008793
 21
-61.0676816488
  0
LWPOLYLINE
  5
399
100
AcDbEntity
  8
0
100
AcDbPolyline
 62
7
  6
CONTINUOUS
 90
3
 70
0
 10
11.9795093369
 20
-64.0684656696
 10
11.5511082886
 20
-63.8286095335
 10
11.4442018033
 20
-63.7685302768
  0
LINE
  5
39A
100
AcDbEntity
  8
0
100
AcDbLine
 62
7
  6
CONTINUOUS
 10
11.2520768775
 20
-64.3427628295
 11
10.8472067124
 21
-64.1138097834
  0
LINE
  5
39B
100
AcDbEntity
  8
0
100
AcDbLine
 62
7
  6
CONTINUOUS
 10
10.8472067124
 20
-64.1138097834
 11
10.6451932286
 21
-63.9990850688
  0
LINE
  5
39C
100
AcDbEntity
  8
0
100
AcDbLine
 62
7
  6
CONTINUOUS
 10
10.2420261309
 20
-63.7691433389
 11
9.8399921805
 21
-63.5385449334
  0
LINE
  5
39D
100
AcDbEntity
  8
0
100
AcDbLine
 62
7
  6
CONTINUOUS
 10
10.2632433553
 20
-60.2867381572
 11
9.8908555637
 21
-60.0731890739
  0
LINE
  5
39E
100
AcDbEntity
  8
0
100
AcDbLine
 62
7
  6
CONTINUOUS
 10
9.8399921805
 20
-63.5385449334
 11
9.6393998011
 21
-63.4229992908
  0
LINE
  5
39F
100
AcDbEntity
  8
0
100
AcDbLine
 62
7
  6
CONTINUOUS
 10
9.4521696016
 20
-59.8446950089
 11
10.2420299136
 21
-60.2989865327
  0
LINE
  5
3A0
100
AcDbEntity
  8
0
100
AcDbLine
 62
7
  6
CONTINUOUS
 10
9.8908555637
 20
-60.0731890739
 11
9.4733828253
 21
-59.8324467721
  0
LINE
  5
3A1
100
AcDbEntity
  8
0
100
AcDbLine
 62
7
  6
CONTINUOUS
 10
9.3320098236
 20
-59.7751386915
 11
9.4521696016
 21
-59.8446950089
  0
LINE
  5
3A2
100
AcDbEntity
  8
0
100
AcDbLine
 62
7
  6
CONTINUOUS
 10
9.4733828253
 20
-59.8324467721
 11
9.3532230594
 21
-59.7628904351
  0
LWPOLYLINE
  5
3A3
100
AcDbEntity
  8
0
100
AcDbPolyline
 62
7
  6
CONTINUOUS
 90
5
 70
0
 10
15.083694879
 20
-62.9768777462
 10
15.1630195451
 20
-63.0228959813
 10
15.2417982635
 20
-63.0759164854
 10
15.3195097502
 20
-63.1355637465
 10
15.395640879
 20
-63.2013829781
  0
LINE
  5
3A4
100
AcDbEntity
  8
0
100
AcDbLine
 62
7
  6
CONTINUOUS
 10
9.0719970432
 20
-63.0943711817
 11
8.6732850926
 21
-62.8618688593
  0
LINE
  5
3A5
100
AcDbEntity
  8
0
100
AcDbLine
 62
7
  6
CONTINUOUS
 10
8.6732850926
 20
-62.8618688593
 11
8.4743572186
 21
-62.7453733003
  0
LINE
  5
3A6
100
AcDbEntity
  8
0
100
AcDbLine
 62
7
  6
CONTINUOUS
 10
8.237161561
 20
-59.1111385556
 11
7.8377798021
 21
-58.8753784569
  0
LINE
  5
3A7
100
AcDbEntity
  8
0
100
AcDbLine
 62
7
  6
CONTINUOUS
 10
7.9116600266
 20
-62.4140445867
 11
7.5162490776
 21
-62.1796167221
  0
LINE
  5
3A8
100
AcDbEntity
  8
0
100
AcDbLine
 62
7
  6
CONTINUOUS
 10
7.5177940477
 20
-58.710376225
 11
8.2159473704
 21
-59.1233873634
  0
LWPOLYLINE
  5
3A9
100
AcDbEntity
  8
0
100
AcDbPolyline
 62
7
  6
CONTINUOUS
 90
3
 70
0
 10
7.8377798021
 20
-58.8753784569
 10
7.439565689
 20
-58.6389607197
 10
7.3401950062
 20
-58.5797537668
  0
LINE
  5
3AA
100
AcDbEntity
  8
0
100
AcDbLine
 62
7
  6
CONTINUOUS
 10
7.5162490776
 20
-62.1796167221
 11
7.3189752806
 21
-62.0621603927
  0
LINE
  5
3AB
100
AcDbEntity
  8
0
100
AcDbLine
 62
7
  6
CONTINUOUS
 10
7.3189790636
 20
-58.5920035862
 11
7.5177940477
 21
-58.710376225
  0
LINE
  5
3AC
100
AcDbEntity
  8
0
100
AcDbLine
 62
7
  6
CONTINUOUS
 10
6.7288610076
 20
-61.7088100039
 11
6.3368549282
 21
-61.4724194097
  0
LINE
  5
3AD
100
AcDbEntity
  8
0
100
AcDbLine
 62
7
  6
CONTINUOUS
 10
6.7500893015
 20
-58.2264065963
 11
6.3580845265
 21
-57.9900092817
  0
LINE
  5
3AE
100
AcDbEntity
  8
0
100
AcDbLine
 62
7
  6
CONTINUOUS
 10
6.3368549282
 20
-61.4724194097
 11
6.1412872536
 21
-61.3539837683
  0
LINE
  5
3AF
100
AcDbEntity
  8
0
100
AcDbLine
 62
7
  6
CONTINUOUS
 10
6.1412979347
 20
-57.8838221634
 11
6.7288717183
 21
-58.2386573629
  0
LINE
  5
3B0
100
AcDbEntity
  8
0
100
AcDbLine
 62
7
  6
CONTINUOUS
 10
6.3580845265
 20
-57.9900092817
 11
6.1625175423
 21
-57.8715702279
  0
LINE
  5
3B1
100
AcDbEntity
  8
0
100
AcDbLine
 62
7
  6
CONTINUOUS
 10
5.7722262591
 20
-57.634194164
 11
5.3830562
 21
-57.3961523495
  0
LINE
  5
3B2
100
AcDbEntity
  8
0
100
AcDbLine
 62
7
  6
CONTINUOUS
 10
5.1676858491
 20
-57.2891471163
 11
5.7510050885
 21
-57.646447002
  0
LINE
  5
3B3
100
AcDbEntity
  8
0
100
AcDbLine
 62
7
  6
CONTINUOUS
 10
5.3830562
 20
-57.3961523495
 11
5.1889096848
 21
-57.2768927396
  0
LINE
  5
3B4
100
AcDbEntity
  8
0
100
AcDbLine
 62
7
  6
CONTINUOUS
 10
4.8158222058
 20
-60.5423006634
 11
4.4293769925
 21
-60.3026778496
  0
LINE
  5
3B5
100
AcDbEntity
  8
0
100
AcDbLine
 62
7
  6
CONTINUOUS
 10
4.4293769925
 20
-60.3026778496
 11
4.2365958923
 21
-60.1826294073
  0
LINE
  5
3B6
100
AcDbEntity
  8
0
100
AcDbLine
 62
7
  6
CONTINUOUS
 10
3.9084655174
 20
-56.481770419
 11
3.5247705851
 21
-56.2405628439
  0
LINE
  5
3B7
100
AcDbEntity
  8
0
100
AcDbLine
 62
7
  6
CONTINUOUS
 10
3.3121326827
 20
-56.1319844203
 11
3.8872344236
 21
-56.4940289865
  0
LINE
  5
3B8
100
AcDbEntity
  8
0
100
AcDbLine
 62
7
  6
CONTINUOUS
 10
3.5247705851
 20
-56.2405628439
 11
3.3333676791
 21
-56.1197235995
  0
LWPOLYLINE
  5
3B9
100
AcDbEntity
  8
0
100
AcDbPolyline
 62
7
  6
CONTINUOUS
 90
4
 70
0
 10
10.942664382
 20
-73.5724886555
 10
10.8742094958
 20
-73.4174651799
 10
10.7981820399
 20
-73.2644804387
 10
10.7150270812
 20
-73.1144399644
  0
LINE
  5
3BA
100
AcDbEntity
  8
0
100
AcDbLine
 62
7
  6
CONTINUOUS
 10
10.3476373497
 20
-75.8093902506
 11
10.1931788204
 21
-75.4048767642
  0
LWPOLYLINE
  5
3BB
100
AcDbEntity
  8
0
100
AcDbPolyline
 62
7
  6
CONTINUOUS
 90
18
 70
0
 10
10.9819436673
 20
-73.7408748326
 10
11.0341101758
 20
-73.8972096971
 10
11.077608813
 20
-74.0528381829
 10
11.1121796508
 20
-74.2068432358
 10
11.1376262582
 20
-74.3583108494
 10
11.1537809367
 20
-74.506356636
 10
11.1605422684
 20
-74.6501099086
 10
11.1578776707
 20
-74.7887174315
 10
11.1458046689
 20
-74.9213594256
 10
11.1243869033
 20
-75.047257016
 10
11.0937563017
 20
-75.1656636505
 10
11.0541144046
 20
-75.2758681163
 10
11.005687572
 20
-75.3772241346
 10
10.9487641592
 20
-75.469131809
 10
10.8837155403
 20
-75.5510280339
 10
10.8109197164
 20
-75.6224327826
 10
10.7308053287
 20
-75.6829252023
 10
10.6937799683
 20
-75.7057463231
  0
LINE
  5
3BC
100
AcDbEntity
  8
0
100
AcDbLine
 62
7
  6
CONTINUOUS
 10
4.5399213615
 20
-59.2382617962
 11
4.1919189408
 21
-57.7210030166
  0
LINE
  5
3BD
100
AcDbEntity
  8
0
100
AcDbLine
 62
7
  6
CONTINUOUS
 10
4.2365958923
 20
-60.1826294073
 11
3.8248865353
 21
-58.3827180936
  0
LINE
  5
3BE
100
AcDbEntity
  8
0
100
AcDbLine
 62
7
  6
CONTINUOUS
 10
3.8872344236
 20
-56.4940289865
 11
4.5258971936
 21
-59.2818833922
  0
LINE
  5
3BF
100
AcDbEntity
  8
0
100
AcDbLine
 62
7
  6
CONTINUOUS
 10
4.1919189408
 20
-57.7210030166
 11
3.9084655174
 21
-56.481770419
  0
LWPOLYLINE
  5
3C0
100
AcDbEntity
  8
0
100
AcDbPolyline
 62
7
  6
CONTINUOUS
 90
3
 70
0
 10
3.8248865353
 20
-58.3827180936
 10
3.4145160721
 20
-56.5822061212
 10
3.3121326827
 20
-56.1319844203
  0
LWPOLYLINE
  5
3C1
100
AcDbEntity
  8
0
100
AcDbPolyline
 62
250
  6
CONTINUOUS
 90
16
 70
0
 10
8.839803104
 20
-92.8293559302
 10
8.8770683952
 20
-93.2466686903
 10
8.9225670306
 20
-93.6705945812
 10
8.9773487579
 20
-94.1049302148
 10
9.0424806342
 20
-94.550109964
 10
9.1187575837
 20
-95.0046874952
 10
9.2063159807
 20
-95.4639170478
 10
9.3077856573
 20
-95.935557708
 10
9.4234067132
 20
-96.4142894089
 10
9.5483139897
 20
-96.8782416725
 10
9.6825438778
 20
-97.3289993723
 10
9.8271844749
 20
-97.7706947724
 10
9.9760745994
 20
-98.1867131744
 10
10.1260594877
 20
-98.5729649375
 10
10.278632079
 20
-98.9373876354
 10
10.432988823
 20
-99.2809841271
  0
LWPOLYLINE
  5
3C2
100
AcDbEntity
  8
RACCORDO
100
AcDbPolyline
 62
7
  6
CONTINUOUS
 90
25
 70
0
 10
5.0405275559
 20
-43.6125032356
 10
5.0461899297
 20
-43.6938437755
 10
5.0629795977
 20
-43.7747004681
 10
5.0905915214
 20
-43.855174418
 10
5.1283720007
 20
-43.9345548133
 10
5.1758378558
 20
-44.0127531364
 10
5.2332787371
 20
-44.0904904713
 10
5.3002543763
 20
-44.167106234
 10
5.3761439251
 20
-44.2419277556
 10
5.4619139743
 20
-44.3157265623
 10
5.5578070703
 20
-44.38825896
 10
5.663046978
 20
-44.4585631494
 10
5.7777495311
 20
-44.5264087643
 10
5.9017680297
 20
-44.5913711951
 10
6.0344639055
 20
-44.652820516
 10
6.1753599561
 20
-44.7102942789
 10
6.3239750098
 20
-44.763377467
 10
6.4796586312
 20
-44.8116435428
 10
6.6416785688
 20
-44.8547028693
 10
6.8094014672
 20
-44.8922452034
 10
6.9820540833
 20
-44.9239712903
 10
7.1586649047
 20
-44.949606001
 10
7.3383762361
 20
-44.9689565094
 10
7.5204392555
 20
-44.9818851106
 10
7.7040168485
 20
-44.9882827226
  0
LWPOLYLINE
  5
3C3
100
AcDbEntity
  8
0
100
AcDbPolyline
 62
250
  6
CONTINUOUS
 90
4
 70
0
 10
9.7315125205
 20
-85.2314709772
 10
9.801462897
 20
-86.66740277
 10
9.8851697853
 20
-88.0858078446
 10
9.9823816752
 20
-89.4867173419
  0
LWPOLYLINE
  5
3C4
100
AcDbEntity
  8
0
100
AcDbPolyline
 62
250
  6
CONTINUOUS
 90
10
 70
0
 10
9.9825966091
 20
-89.4865630217
 10
9.9844568903
 20
-89.533397476
 10
9.9841560623
 20
-89.5823680272
 10
9.9815879515
 20
-89.6329079898
 10
9.976612586
 20
-89.6844852806
 10
9.9691599549
 20
-89.7365230291
 10
9.9593449173
 20
-89.7886540386
 10
9.9473108559
 20
-89.8408144153
 10
9.9331231156
 20
-89.8930130158
 10
9.9168821824
 20
-89.9452275892
  0
LINE
  5
3C5
100
AcDbEntity
  8
0
100
AcDbLine
 62
250
  6
CONTINUOUS
 10
9.6756585848
 20
-83.7805465647
 11
9.7315125205
 21
-85.2314709772
  0
LWPOLYLINE
  5
3C6
100
AcDbEntity
  8
0
100
AcDbPolyline
 62
7
  6
CONTINUOUS
 90
12
 70
0
 10
7.8174099929
 20
-72.7477628892
 10
7.824003326
 20
-72.9291083101
 10
7.8437903121
 20
-73.1168379106
 10
7.8766073969
 20
-73.3095248704
 10
7.9221470521
 20
-73.5056248312
 10
7.9800816012
 20
-73.7037340019
 10
8.0501250332
 20
-73.9026063535
 10
8.1319007231
 20
-74.1010286509
 10
8.2247320109
 20
-74.2971937279
 10
8.3277043695
 20
-74.4889951311
 10
8.4396467924
 20
-74.6744923327
 10
8.5599341031
 20
-74.8528667152
  0
LINE
  5
3C7
100
AcDbEntity
  8
0
100
AcDbLine
 62
7
  6
CONTINUOUS
 10
6.1412872536
 20
-61.3539837683
 11
6.1412979347
 21
-57.8838221634
  0
LINE
  5
3C8
100
AcDbEntity
  8
0
100
AcDbLine
 62
7
  6
CONTINUOUS
 10
6.7288717183
 20
-58.2386573629
 11
6.7288610076
 21
-61.7088100039
  0
LINE
  5
3C9
100
AcDbEntity
  8
0
100
AcDbLine
 62
7
  6
CONTINUOUS
 10
6.7500785917
 20
-61.6965592367
 11
6.7500893015
 21
-58.2264065963
  0
LINE
  5
3CA
100
AcDbEntity
  8
0
100
AcDbLine
 62
7
  6
CONTINUOUS
 10
7.3189752806
 20
-62.0621603927
 11
7.3189790636
 21
-58.5920035862
  0
LINE
  5
3CB
100
AcDbEntity
  8
0
100
AcDbLine
 62
7
  6
CONTINUOUS
 10
7.9116622954
 20
-60.1257097848
 11
7.9116600266
 21
-62.4140445867
  0
LINE
  5
3CC
100
AcDbEntity
  8
0
100
AcDbLine
 62
7
  6
CONTINUOUS
 10
7.9328747131
 20
-62.4017954926
 11
7.9328768711
 21
-60.2246763274
  0
LINE
  5
3CD
100
AcDbEntity
  8
0
100
AcDbLine
 62
7
  6
CONTINUOUS
 10
9.1016695574
 20
-75.2649036196
 11
9.1016716655
 21
-74.8793479918
  0
LINE
  5
3CE
100
AcDbEntity
  8
0
100
AcDbLine
 62
7
  6
CONTINUOUS
 10
9.1125374327
 20
-72.1464974556
 11
9.1125357963
 21
-71.758824433
  0
LINE
  5
3CF
100
AcDbEntity
  8
0
100
AcDbLine
 62
7
  6
CONTINUOUS
 10
9.3969112628
 20
-73.2944651628
 11
9.3969078544
 21
-72.3114303857
  0
LINE
  5
3D0
100
AcDbEntity
  8
0
100
AcDbLine
 62
7
  6
CONTINUOUS
 10
9.3969104235
 20
-75.0505976857
 11
9.3969121682
 21
-73.7722654954
  0
LWPOLYLINE
  5
3D1
100
AcDbEntity
  8
RACCORDO
100
AcDbPolyline
 62
7
  6
CONTINUOUS
 90
41
 70
0
 10
5.0405275643
 20
-43.6126272556
 10
5.0407395248
 20
-43.5972758952
 10
5.0486680196
 20
-43.4904212357
 10
5.0692066384
 20
-43.384129072
 10
5.1021857318
 20
-43.2783915074
 10
5.1471574693
 20
-43.1746415021
 10
5.2042850035
 20
-43.0729063312
 10
5.2734051817
 20
-42.9731587195
 10
5.3535807161
 20
-42.8767498022
 10
5.4449620437
 20
-42.783725002
 10
5.5473987274
 20
-42.6940388962
 10
5.6595021679
 20
-42.6089063517
 10
5.7814036699
 20
-42.528389447
 10
5.9129719287
 20
-42.4524261037
 10
6.0524244308
 20
-42.3820449537
 10
6.1998677455
 20
-42.3173220041
 10
6.3551953036
 20
-42.2581812479
 10
6.516304883
 20
-42.205423296
 10
6.6832756479
 20
-42.1591346226
 10
6.8560284342
 20
-42.1192287536
 10
7.0322235279
 20
-42.086246877
 10
7.211908247
 20
-42.0602831688
 10
7.3950352736
 20
-42.041243453
 10
7.5791229393
 20
-42.0293863897
 10
7.7641849881
 20
-42.0248099445
 10
7.950207676
 20
-42.0274161518
 10
8.1346681026
 20
-42.0371697749
 10
8.3175450693
 20
-42.0541685246
 10
8.4988597747
 20
-42.0783146902
 10
8.6761529141
 20
-42.1092799023
 10
8.849370001
 20
-42.1471577625
 10
9.018565522
 20
-42.1918546693
 10
9.181443632
 20
-42.2427614495
 10
9.3379183444
 20
-42.2999642949
 10
9.4880756457
 20
-42.3633770137
 10
9.6298776509
 20
-42.4321318566
 10
9.7632043605
 20
-42.5062987509
 10
9.8881757739
 20
-42.5858077692
 10
10.0031140043
 20
-42.6695813801
 10
10.1078839722
 20
-42.7576772215
 10
10.2026207571
 20
-42.8500376554
  0
LWPOLYLINE
  5
3D2
100
AcDbEntity
  8
0
100
AcDbPolyline
 62
7
  6
CONTINUOUS
 90
9
 70
0
 10
7.8386248489
 20
-72.7355136972
 10
7.8435101222
 20
-72.5856954523
 10
7.8581221436
 20
-72.4429195576
 10
7.8822917504
 20
-72.3079226346
 10
7.915724459
 20
-72.1815931694
 10
7.9581929605
 20
-72.0643211749
 10
8.009689385
 20
-71.9561425066
 10
8.0700710661
 20
-71.8575724196
 10
8.1389849342
 20
-71.7693824781
  0
LWPOLYLINE
  5
3D3
100
AcDbEntity
  8
RACCORDO
100
AcDbPolyline
 62
250
  6
CONTINUOUS
 90
7
 70
0
 10
7.6955804026
 20
-45.0799764055
 10
7.6971072777
 20
-45.0520489071
 10
7.6986174238
 20
-45.0289001085
 10
7.7000942955
 20
-45.0107836313
 10
7.7015217117
 20
-44.9978979616
 10
7.7028840335
 20
-44.9903842753
 10
7.7040168485
 20
-44.9882827226
  0
LWPOLYLINE
  5
3D4
100
AcDbEntity
  8
SUPERFICI
100
AcDbPolyline
 62
250
  6
CONTINUOUS
 90
9
 70
0
 10
1.4021679866
 20
-90.8766275619
 10
1.4489465093
 20
-90.5859128091
 10
1.5176390281
 20
-90.2887131961
 10
1.6054494287
 20
-89.9816205229
 10
1.7085845818
 20
-89.6670233488
 10
1.8207645822
 20
-89.3538138027
 10
1.9380321668
 20
-89.0439521953
 10
2.0586484437
 20
-88.735042899
 10
2.2966170738
 20
-88.1313168221
  0
LINE
  5
3D5
100
AcDbEntity
  8
0
100
AcDbLine
 62
7
  6
CONTINUOUS
 10
4.5258971936
 20
-59.2818833922
 11
4.8107198443
 21
-58.3965410734
  0
LINE
  5
3D6
100
AcDbEntity
  8
0
100
AcDbLine
 62
7
  6
CONTINUOUS
 10
4.8107198443
 20
-58.3965410734
 11
5.1676858491
 21
-57.2891471163
  0
LINE
  5
3D7
100
AcDbEntity
  8
0
100
AcDbLine
 62
7
  6
CONTINUOUS
 10
4.8370478426
 20
-60.5300452467
 11
5.2518072141
 21
-59.2436601508
  0
LINE
  5
3D8
100
AcDbEntity
  8
0
100
AcDbLine
 62
7
  6
CONTINUOUS
 10
5.7510050885
 20
-57.646447002
 11
4.8158222058
 21
-60.5423006634
  0
LINE
  5
3D9
100
AcDbEntity
  8
0
100
AcDbLine
 62
7
  6
CONTINUOUS
 10
5.2518072141
 20
-59.2436601508
 11
5.7722262591
 21
-57.634194164
  0
LWPOLYLINE
  5
3DA
100
AcDbEntity
  8
RACCORDO
100
AcDbPolyline
 62
250
  6
CONTINUOUS
 90
16
 70
0
 10
11.0738649692
 20
-43.1760964662
 10
11.0579201332
 20
-43.2070709693
 10
11.0421499977
 20
-43.2421788235
 10
11.0267273439
 20
-43.2810353749
 10
11.0118211459
 20
-43.3232148983
 10
10.9975947186
 20
-43.3682552624
 10
10.9842039292
 20
-43.415662993
 10
10.9717954894
 20
-43.464918678
 10
10.9605053476
 20
-43.515482661
 10
10.9504571993
 20
-43.566800955
 10
10.9417611331
 20
-43.6183113054
 10
10.9345124237
 20
-43.6694493557
 10
10.9287904879
 20
-43.7196548332
 10
10.9246580153
 20
-43.7683776798
 10
10.9221602818
 20
-43.8150840777
 10
10.9213246523
 20
-43.8592623041
  0
LWPOLYLINE
  5
3DB
100
AcDbEntity
  8
RACCORDO
100
AcDbPolyline
 62
250
  6
CONTINUOUS
 90
8
 70
0
 10
5.2441133697
 20
-44.7240727753
 10
5.2233385774
 20
-44.7567675844
 10
5.2050516903
 20
-44.7909491817
 10
5.189558697
 20
-44.8260456172
 10
5.177118837
 20
-44.8614696331
 10
5.1679402627
 20
-44.8966284903
 10
5.1621765562
 20
-44.9309338866
 10
5.1599241599
 20
-44.9638118005
  0
LWPOLYLINE
  5
3DC
100
AcDbEntity
  8
SMUSSO
100
AcDbPolyline
 62
7
  6
CONTINUOUS
 90
3
 70
0
 10
5.5569238801
 20
-44.3875909255
 10
5.6477931174
 20
-44.323661009
 10
5.7755386896
 20
-44.2449204275
  0
LWPOLYLINE
  5
3DD
100
AcDbEntity
  8
RACCORDO
100
AcDbPolyline
 62
250
  6
CONTINUOUS
 90
6
 70
0
 10
5.3720238856
 20
-44.6006818054
 10
5.344641022
 20
-44.6185415892
 10
5.3177163475
 20
-44.6402010538
 10
5.291700384
 20
-44.6652977781
 10
5.2670284488
 20
-44.6934118265
 10
5.2441133697
 20
-44.7240727753
  0
LWPOLYLINE
  5
3DE
100
AcDbEntity
  8
SMUSSO
100
AcDbPolyline
 62
7
  6
CONTINUOUS
 90
25
 70
0
 10
5.8222170957
 20
-43.2720932352
 10
5.8731016379
 20
-43.2439470963
 10
6.0157921048
 20
-43.1720247539
 10
6.1665465558
 20
-43.1058216798
 10
6.324679825
 20
-43.0456376112
 10
6.4894756679
 20
-42.991744446
 10
6.6601863044
 20
-42.9443864639
 10
6.8360335866
 20
-42.9037792786
 10
7.016215903
 20
-42.8701075035
 10
7.1999126873
 20
-42.8435238117
 10
7.3862896167
 20
-42.8241482839
 10
7.5745006067
 20
-42.8120683739
 10
7.7636874923
 20
-42.8073385931
 10
7.9529928045
 20
-42.8099798133
 10
8.1415649767
 20
-42.8199802567
 10
8.3285500101
 20
-42.8372954548
 10
8.513094393
 20
-42.8618471987
 10
8.6943579255
 20
-42.8935242867
 10
8.8715165112
 20
-42.9321832449
 10
9.0437641009
 20
-42.9776487348
 10
9.2103155433
 20
-43.0297139464
 10
9.3704133571
 20
-43.0881424152
 10
9.5233292394
 20
-43.1526686867
 10
9.6683660222
 20
-43.2229987802
 10
9.7588380161
 20
-43.2720932352
  0
LWPOLYLINE
  5
3DF
100
AcDbEntity
  8
SMUSSO
100
AcDbPolyline
 62
7
  6
CONTINUOUS
 90
25
 70
0
 10
5.7755386896
 20
-44.2449204275
 10
5.9113771089
 20
-44.1714705893
 10
6.055528735
 20
-44.103163023
 10
6.2071122637
 20
-44.0404433731
 10
6.3654808328
 20
-43.9835800366
 10
6.5299552696
 20
-43.9328175924
 10
6.6998303541
 20
-43.8883741713
 10
6.8743787113
 20
-43.8504404315
 10
7.052853231
 20
-43.8191790887
 10
7.2344888832
 20
-43.7947244443
 10
7.4185079322
 20
-43.777181454
 10
7.6041223058
 20
-43.7666254882
 10
7.7905360668
 20
-43.7631019905
 10
7.9769512748
 20
-43.7666261872
 10
8.1625690924
 20
-43.7771831199
 10
8.3465922222
 20
-43.79472743
 10
8.5282328803
 20
-43.8191838851
 10
8.7067128482
 20
-43.8504475757
 10
8.8812647166
 20
-43.8883837286
 10
9.051141891
 20
-43.9328265449
 10
9.21561661
 20
-43.9835881063
 10
9.373980487
 20
-44.0404578949
 10
9.5255550581
 20
-44.1031938579
 10
9.6696941137
 20
-44.1715240655
 10
9.8057818823
 20
-44.2451552535
  0
LWPOLYLINE
  5
3E0
100
AcDbEntity
  8
RACCORDO
100
AcDbPolyline
 62
250
  6
CONTINUOUS
 90
7
 70
0
 10
10.2090312262
 20
-41.8078543889
 10
10.2364140606
 20
-41.7940931406
 10
10.2633387135
 20
-41.7846606672
 10
10.2893546634
 20
-41.7797148021
 10
10.3140265935
 20
-41.7793383058
 10
10.336941675
 20
-41.7835374814
 10
10.3590384742
 20
-41.7929920356
  0
LINE
  5
3E1
100
AcDbEntity
  8
SMUSSO
100
AcDbLine
 62
7
  6
CONTINUOUS
 10
5.6129140988
 20
-44.3481997067
 11
5.7180785764
 21
-44.2973743852
  0
LWPOLYLINE
  5
3E2
100
AcDbEntity
  8
SMUSSO
100
AcDbPolyline
 62
7
  6
CONTINUOUS
 90
13
 70
0
 10
5.7180785764
 20
-44.2973743852
 10
5.8817099008
 20
-44.2275292515
 10
6.0515368949
 20
-44.1637746783
 10
6.2275736679
 20
-44.1062041012
 10
6.4098061107
 20
-44.0547240847
 10
6.5962535241
 20
-44.0098391699
 10
6.7868427243
 20
-43.9716169166
 10
6.9816468949
 20
-43.9399897652
 10
7.1789048883
 20
-43.9152595784
 10
7.3786734358
 20
-43.8974517039
 10
7.580895806
 20
-43.886540794
 10
7.7836406562
 20
-43.8827526684
 10
7.9862642054
 20
-43.8861626005
  0
LWPOLYLINE
  5
3E3
100
AcDbEntity
  8
0
100
AcDbPolyline
 62
7
  6
CONTINUOUS
 90
8
 70
0
 10
2.6772151975
 20
-40.4625999092
 10
2.705920412
 20
-40.4525931604
 10
2.7365833352
 20
-40.4475920812
 10
2.7693899093
 20
-40.4474725353
 10
2.8039531217
 20
-40.4523056738
 10
2.8401439681
 20
-40.4621152136
 10
2.8780914528
 20
-40.4768774378
 10
2.9177955758
 20
-40.4965923462
  0
LWPOLYLINE
  5
3E4
100
AcDbEntity
  8
0
100
AcDbPolyline
 62
250
  6
CONTINUOUS
 90
13
 70
0
 10
24.0884958464
 20
-59.8881365756
 10
24.1580415255
 20
-59.9097943522
 10
24.2300626642
 20
-59.927117364
 10
24.3045592624
 20
-59.9401056108
 10
24.3824936643
 20
-59.9488576445
 10
24.4629035258
 20
-59.9532749134
 10
24.5429018147
 20
-59.9530617619
 10
24.6224445633
 20
-59.9479570473
 10
24.7015757393
 20
-59.9382219124
 10
24.777540214
 20
-59.9243441298
 10
24.8494196111
 20
-59.9064862904
 10
24.9181323068
 20
-59.8844858034
 10
24.9836783012
 20
-59.8583426687
  0
LINE
  5
3E5
100
AcDbEntity
  8
0
100
AcDbLine
 62
250
  6
CONTINUOUS
 10
23.1854335402
 20
-60.3068224242
 11
23.8269501284
 21
-60.5395365615
  0
LWPOLYLINE
  5
3E6
100
AcDbEntity
  8
SUPERFICI
100
AcDbPolyline
 62
250
  6
CONTINUOUS
 90
4
 70
0
 10
1.495947086
 20
-48.3997977268
 10
0.9324141397
 20
-48.0291933197
 10
0.3881514765
 20
-47.663500706
 10
-0.1372052399
 20
-47.3029982985
  0
LINE
  5
3E7
100
AcDbEntity
  8
SUPERFICI
100
AcDbLine
 62
250
  6
CONTINUOUS
 10
-0.1372052399
 20
-47.3029982985
 11
-0.6410720962
 21
-46.9491132293
  0
LWPOLYLINE
  5
3E8
100
AcDbEntity
  8
0
100
AcDbPolyline
 62
250
  6
CONTINUOUS
 90
6
 70
0
 10
-0.3445742968
 20
-46.2966809853
 10
-0.1912387612
 20
-46.406561411
 10
-0.041130019
 20
-46.5130166565
 10
0.1050793797
 20
-46.6156460737
 10
0.248061985
 20
-46.7148503106
 10
0.5233771163
 20
-46.9045306185
  0
LWPOLYLINE
  5
3E9
100
AcDbEntity
  8
SUPERFICI
100
AcDbPolyline
 62
250
  6
CONTINUOUS
 90
6
 70
0
 10
-0.6410720962
 20
-46.9491132293
 10
-1.1198877205
 20
-46.5963265463
 10
-1.5797404643
 20
-46.2387397965
 10
-2.0230964394
 20
-45.8747485744
 10
-2.4472025781
 20
-45.5068595819
 10
-2.8522782416
 20
-45.13528447
  0
LWPOLYLINE
  5
3EA
100
AcDbEntity
  8
0
100
AcDbPolyline
 62
7
  6
CONTINUOUS
 90
4
 70
0
 10
15.3914107272
 20
-63.1662589945
 10
15.2973535615
 20
-63.0890376132
 10
15.2015399734
 20
-63.0216087998
 10
15.1049236097
 20
-62.9646205432
  0
LINE
  5
3EB
100
AcDbEntity
  8
0
100
AcDbLine
 62
250
  6
CONTINUOUS
 10
-1.6612841127
 20
-45.2648474166
 11
-1.7307473045
 21
-45.2070104219
  0
LINE
  5
3EC
100
AcDbEntity
  8
0
100
AcDbLine
 62
250
  6
CONTINUOUS
 10
-1.7307473045
 20
-45.2070104219
 11
-1.7969339359
 21
-45.1513506088
  0
LWPOLYLINE
  5
3ED
100
AcDbEntity
  8
0
100
AcDbPolyline
 62
250
  6
CONTINUOUS
 90
11
 70
0
 10
-1.6612841127
 20
-45.2648474166
 10
-1.5637188283
 20
-45.3475332268
 10
-1.4588515626
 20
-45.4348106098
 10
-1.3466823157
 20
-45.5266795656
 10
-1.2280019841
 20
-45.6227812459
 10
-1.1020196712
 20
-45.7234744992
 10
-0.9663626872
 20
-45.82983587
 10
-0.8166615164
 20
-45.9450453547
 10
-0.6572856744
 20
-46.0659229571
 10
-0.498971018
 20
-46.1840052329
 10
-0.3445742968
 20
-46.2966809853
  0
LINE
  5
3EE
100
AcDbEntity
  8
0
100
AcDbLine
 62
250
  6
CONTINUOUS
 10
-1.7969339359
 20
-45.1513506088
 11
-1.890310654
 21
-45.0719450714
  0
LWPOLYLINE
  5
3EF
100
AcDbEntity
  8
0
100
AcDbPolyline
 62
250
  6
CONTINUOUS
 90
6
 70
0
 10
-1.9489285692
 20
-45.0216926337
 10
-2.0050214187
 20
-44.9735957547
 10
-2.0317336491
 20
-44.9500675668
 10
-2.0573564254
 20
-44.9267277825
 10
-2.0819897431
 20
-44.9036556173
 10
-2.1056336023
 20
-44.8808510712
  0
LINE
  5
3F0
100
AcDbEntity
  8
0
100
AcDbLine
 62
250
  6
CONTINUOUS
 10
-1.890310654
 20
-45.0719450714
 11
-1.9489285692
 21
-45.0216926337
  0
LINE
  5
3F1
100
AcDbEntity
  8
0
100
AcDbLine
 62
250
  6
CONTINUOUS
 10
-2.4311148823
 20
-44.5760457096
 11
-2.2612986413
 21
-44.7343937895
  0
LINE
  5
3F2
100
AcDbEntity
  8
0
100
AcDbLine
 62
250
  6
CONTINUOUS
 10
-2.2612986413
 20
-44.7343937895
 11
-2.1056336023
 21
-44.8808510712
  0
LWPOLYLINE
  5
3F3
100
AcDbEntity
  8
0
100
AcDbPolyline
 62
7
  6
CONTINUOUS
 90
26
 70
0
 10
15.395640879
 20
-63.2013829781
 10
15.4696883711
 20
-63.2729410134
 10
15.5411554378
 20
-63.3498456635
 10
15.6096031625
 20
-63.4316227917
 10
15.6745235965
 20
-63.5176620458
 10
15.735348775
 20
-63.6073171701
 10
15.7916527281
 20
-63.6999246526
 10
15.8430898683
 20
-63.7948653432
 10
15.889267134
 20
-63.8915193036
 10
15.9298739837
 20
-63.98921776
 10
15.9646446816
 20
-64.0872722102
 10
15.9933066196
 20
-64.1850241959
 10
16.0156620795
 20
-64.2817984116
 10
16.0315692342
 20
-64.3769164917
 10
16.040901874
 20
-64.4697270202
 10
16.0435895062
 20
-64.559592315
 10
16.0396220761
 20
-64.6458844632
 10
16.0290312101
 20
-64.7279996192
 10
16.0118798593
 20
-64.8053761537
 10
15.9882902203
 20
-64.8774788835
 10
15.9584491241
 20
-64.9437955311
 10
15.922548943
 20
-65.0038770846
 10
15.8808348109
 20
-65.0573125079
 10
15.8336327895
 20
-65.1037127438
 10
15.7812521265
 20
-65.1427684836
 10
15.7618756648
 20
-65.1545857378
  0
LWPOLYLINE
  5
3F4
100
AcDbEntity
  8
SUPERFICI
100
AcDbPolyline
 62
250
  6
CONTINUOUS
 90
6
 70
0
 10
-2.4311148823
 20
-44.5760457096
 10
-2.4689019614
 20
-44.5357308969
 10
-2.4992678496
 20
-44.4939369225
 10
-2.5222125469
 20
-44.4506637865
 10
-2.5379135872
 20
-44.4053518894
 10
-2.5461934366
 20
-44.3585608308
  0
LINE
  5
3F5
100
AcDbEntity
  8
0
100
AcDbLine
 62
7
  6
CONTINUOUS
 10
15.4169101459
 20
-66.6248480893
 11
14.9996627103
 21
-65.5076069275
  0
LINE
  5
3F6
100
AcDbEntity
  8
0
100
AcDbLine
 62
7
  6
CONTINUOUS
 10
14.9996627103
 20
-65.5076069275
 11
14.7914403107
 21
-64.9486659459
  0
LINE
  5
3F7
100
AcDbEntity
  8
0
100
AcDbLine
 62
7
  6
CONTINUOUS
 10
13.2391084731
 20
-65.4240286751
 11
12.800041843
 21
-63.6402680306
  0
LINE
  5
3F8
100
AcDbEntity
  8
0
100
AcDbLine
 62
7
  6
CONTINUOUS
 10
12.4503219958
 20
-62.3139742753
 11
13.2178883921
 21
-65.436280884
  0
LINE
  5
3F9
100
AcDbEntity
  8
0
100
AcDbLine
 62
7
  6
CONTINUOUS
 10
12.6027922887
 20
-65.0973195802
 11
12.409147665
 21
-64.3075827654
  0
LWPOLYLINE
  5
3FA
100
AcDbEntity
  8
0
100
AcDbPolyline
 62
7
  6
CONTINUOUS
 90
3
 70
0
 10
12.800041843
 20
-63.6402680306
 10
12.3621905915
 20
-61.8554037783
 10
12.252917737
 20
-61.4090154063
  0
LINE
  5
3FB
100
AcDbEntity
  8
0
100
AcDbLine
 62
7
  6
CONTINUOUS
 10
12.2317008494
 20
-61.4212657713
 11
12.4503219958
 21
-62.3139742753
  0
LINE
  5
3FC
100
AcDbEntity
  8
0
100
AcDbLine
 62
7
  6
CONTINUOUS
 10
12.22227799
 20
-63.5444292429
 11
11.9258687389
 21
-62.3315564684
  0
LWPOLYLINE
  5
3FD
100
AcDbEntity
  8
DRAFT
100
AcDbPolyline
 62
7
  6
CONTINUOUS
 90
3
 70
0
 10
4.0966475427
 20
-43.575999624
 10
4.0565925511
 20
-43.4003325561
 10
4.0430401825
 20
-43.2246653466
  0
LINE
  5
3FE
100
AcDbEntity
  8
0
100
AcDbLine
 62
7
  6
CONTINUOUS
 10
8.7865134855
 20
-61.6624947098
 11
8.4225608808
 21
-59.9734579456
  0
LINE
  5
3FF
100
AcDbEntity
  8
0
100
AcDbLine
 62
7
  6
CONTINUOUS
 10
8.2159473704
 20
-59.1233873634
 11
8.772862775
 21
-61.7097961812
  0
LINE
  5
400
100
AcDbEntity
  8
0
100
AcDbLine
 62
7
  6
CONTINUOUS
 10
8.4225608808
 20
-59.9734579456
 11
8.237161561
 21
-59.1111385556
  0
LINE
  5
401
100
AcDbEntity
  8
0
100
AcDbLine
 62
7
  6
CONTINUOUS
 10
8.4743572186
 20
-62.7453733003
 11
8.0989814814
 21
-60.999115045
  0
LINE
  5
402
100
AcDbEntity
  8
0
100
AcDbLine
 62
7
  6
CONTINUOUS
 10
8.0989814814
 20
-60.999115045
 11
7.9116622954
 21
-60.1257097848
  0
LWPOLYLINE
  5
403
100
AcDbEntity
  8
SMUSSO
100
AcDbPolyline
 62
7
  6
CONTINUOUS
 90
10
 70
0
 10
10.5980557272
 20
-44.381611193
 10
10.6000656292
 20
-44.4011521043
 10
10.6042689978
 20
-44.422948183
 10
10.6107245571
 20
-44.4469084201
 10
10.619472521
 20
-44.4729115245
 10
10.6305524598
 20
-44.5008822336
 10
10.6440183942
 20
-44.5307884708
 10
10.6599043405
 20
-44.5625409243
 10
10.6782067748
 20
-44.5959969473
 10
10.6989136795
 20
-44.6310348803
  0
LWPOLYLINE
  5
404
100
AcDbEntity
  8
RACCORDO
100
AcDbPolyline
 62
7
  6
CONTINUOUS
 90
37
 70
0
 10
14.1829157113
 20
-48.9200729488
 10
14.1890775958
 20
-49.0061281294
 10
14.2073563597
 20
-49.0916932449
 10
14.237426348
 20
-49.1768484239
 10
14.2785492533
 20
-49.2607611881
 10
14.3301929233
 20
-49.3433304001
 10
14.3927472391
 20
-49.4253950635
 10
14.4658574509
 20
-49.5063263278
 10
14.5487851693
 20
-49.585266962
 10
14.6423485958
 20
-49.6627977267
 10
14.746628429
 20
-49.7385551954
 10
14.8608121406
 20
-49.8115991226
 10
14.9850666372
 20
-49.881729362
 10
15.1192196545
 20
-49.948494941
 10
15.2625112178
 20
-50.0112083638
 10
15.4144107101
 20
-50.0693851876
 10
15.5743828609
 20
-50.1225875057
 10
15.741655108
 20
-50.1703513052
 10
15.9153348863
 20
-50.2122537206
 10
16.0946654558
 20
-50.2479708978
 10
16.2787807156
 20
-50.2772056539
 10
16.4665866219
 20
-50.2996898925
 10
16.6571829934
 20
-50.3152477543
 10
16.8496441738
 20
-50.3237479273
 10
17.0428129063
 20
-50.3251076038
 10
17.2357453116
 20
-50.3193117796
 10
17.4274921387
 20
-50.3063918732
 10
17.6168865776
 20
-50.2864538734
 10
17.8029942112
 20
-50.2596492896
 10
17.9849276057
 20
-50.2261720383
 10
18.1616111357
 20
-50.1863120497
 10
18.3321900782
 20
-50.1403845943
 10
18.4959023963
 20
-50.0887354599
 10
18.6518442463
 20
-50.0318213186
 10
18.799266491
 20
-49.9701299467
 10
18.9376135222
 20
-49.9041389504
 10
19.0663560091
 20
-49.8343733796
  0
LWPOLYLINE
  5
405
100
AcDbEntity
  8
0
100
AcDbPolyline
 62
7
  6
CONTINUOUS
 90
19
 70
0
 10
11.3495427152
 20
-74.787172055
 10
11.3427519897
 20
-74.6060887448
 10
11.322510841
 20
-74.41883215
 10
11.2889903739
 20
-74.2268283445
 10
11.2424788301
 20
-74.0316884938
 10
11.183341932
 20
-73.8347429868
 10
11.1119314853
 20
-73.6370212734
 10
11.0285335543
 20
-73.4396248741
 10
10.9338622923
 20
-73.2444700593
 10
10.8290997915
 20
-73.0537719445
 10
10.7155405399
 20
-72.8696206058
 10
10.5937278547
 20
-72.6926506895
 10
10.4637626771
 20
-72.5229222517
 10
10.3259595907
 20
-72.3612122533
 10
10.1817865806
 20
-72.2096163979
 10
10.0331003791
 20
-72.0701028068
 10
9.881330281
 20
-71.9439276628
 10
9.7273812812
 20
-71.8318197546
 10
9.5724399011
 20
-71.7346282172
  0
LINE
  5
406
100
AcDbEntity
  8
SMUSSO
100
AcDbLine
 62
250
  6
CONTINUOUS
 10
10.5906740042
 20
-43.6908199412
 11
10.5980557272
 21
-44.381611193
  0
LINE
  5
407
100
AcDbEntity
  8
SMUSSO
100
AcDbLine
 62
250
  6
CONTINUOUS
 10
10.9366687001
 20
-43.8592119735
 11
10.9392411331
 21
-44.6434563962
  0
LINE
  5
408
100
AcDbEntity
  8
0
100
AcDbLine
 62
7
  6
CONTINUOUS
 10
9.5648377117
 20
-38.1977893045
 11
9.5648377117
 21
-38.1744876503
  0
LINE
  5
409
100
AcDbEntity
  8
0
100
AcDbLine
 62
250
  6
CONTINUOUS
 10
9.5724382895
 20
-71.3460056697
 11
9.5724399017
 21
-71.7346282189
  0
LINE
  5
40A
100
AcDbEntity
  8
0
100
AcDbLine
 62
250
  6
CONTINUOUS
 10
9.5724411517
 20
-72.0252354038
 11
9.5724433356
 21
-75.5376314041
  0
LINE
  5
40B
100
AcDbEntity
  8
0
100
AcDbLine
 62
250
  6
CONTINUOUS
 10
9.5724318078
 20
-59.9141922862
 11
9.572430007
 21
-61.365603157
  0
LINE
  5
40C
100
AcDbEntity
  8
0
100
AcDbLine
 62
250
  6
CONTINUOUS
 10
9.572441285
 20
-75.813051695
 11
9.5724375419
 21
-76.201677331
  0
LINE
  5
40D
100
AcDbEntity
  8
0
100
AcDbLine
 62
250
  6
CONTINUOUS
 10
9.5936532039
 20
-71.7479348853
 11
9.5936543438
 21
-72.0129871602
  0
LINE
  5
40E
100
AcDbEntity
  8
0
100
AcDbLine
 62
250
  6
CONTINUOUS
 10
9.5936432042
 20
-61.3533549462
 11
9.5936514836
 21
-71.3337574252
  0
LINE
  5
40F
100
AcDbEntity
  8
0
100
AcDbLine
 62
250
  6
CONTINUOUS
 10
9.5936514493
 20
-53.3623128179
 11
9.5936450065
 21
-59.9019440439
  0
LWPOLYLINE
  5
410
100
AcDbEntity
  8
0
100
AcDbPolyline
 62
250
  6
CONTINUOUS
 90
6
 70
0
 10
9.5936505761
 20
-76.2137986661
 10
9.5936413302
 20
-77.7514365669
 10
9.5943811461
 20
-79.2965237296
 10
9.6067760031
 20
-80.8183164793
 10
9.6340259728
 20
-82.3120884485
 10
9.6756585848
 20
-83.7805465647
  0
LINE
  5
411
100
AcDbEntity
  8
0
100
AcDbLine
 62
250
  6
CONTINUOUS
 10
9.5936563529
 20
-75.549872616
 11
9.5936544646
 21
-75.8008034431
  0
LINE
  5
412
100
AcDbEntity
  8
0
100
AcDbLine
 62
7
  6
CONTINUOUS
 10
9.6393998011
 20
-63.4229992908
 11
9.6393942879
 21
-61.1346600002
  0
LINE
  5
413
100
AcDbEntity
  8
0
100
AcDbLine
 62
7
  6
CONTINUOUS
 10
9.7526326949
 20
-72.5168150046
 11
9.7526361033
 21
-73.4998497816
  0
LINE
  5
414
100
AcDbEntity
  8
0
100
AcDbLine
 62
7
  6
CONTINUOUS
 10
9.7526370036
 20
-73.9733383377
 11
9.752635264
 21
-75.2559823045
  0
LINE
  5
415
100
AcDbEntity
  8
0
100
AcDbLine
 62
7
  6
CONTINUOUS
 10
9.7738493222
 20
-73.4876015349
 11
9.7738459994
 21
-72.5290280001
  0
LINE
  5
416
100
AcDbEntity
  8
0
100
AcDbLine
 62
7
  6
CONTINUOUS
 10
9.7738484832
 20
-75.2437340577
 11
9.7738502222
 21
-73.9610900911
  0
LINE
  5
417
100
AcDbEntity
  8
SMUSSO
100
AcDbLine
 62
250
  6
CONTINUOUS
 10
9.8057818823
 20
-43.2988110884
 11
9.8057818823
 21
-44.2451552535
  0
LINE
  5
418
100
AcDbEntity
  8
0
100
AcDbLine
 62
7
  6
CONTINUOUS
 10
10.038178161
 20
-72.2932624138
 11
10.0381797974
 21
-72.6809354364
  0
LINE
  5
419
100
AcDbEntity
  8
0
100
AcDbLine
 62
7
  6
CONTINUOUS
 10
10.0491229503
 20
-75.4263777854
 11
10.0491208421
 21
-75.8119334132
  0
LINE
  5
41A
100
AcDbEntity
  8
0
100
AcDbLine
 62
7
  6
CONTINUOUS
 10
10.0593931146
 20
-72.6686871329
 11
10.0593914786
 21
-72.2810141101
  0
LINE
  5
41B
100
AcDbEntity
  8
0
100
AcDbLine
 62
7
  6
CONTINUOUS
 10
10.0703341648
 20
-75.7996851066
 11
10.0703362724
 21
-75.4141294791
  0
LINE
  5
41C
100
AcDbEntity
  8
0
100
AcDbLine
 62
7
  6
CONTINUOUS
 10
10.2420299136
 20
-60.2989865327
 11
10.2420261309
 21
-63.7691433389
  0
LINE
  5
41D
100
AcDbEntity
  8
0
100
AcDbLine
 62
7
  6
CONTINUOUS
 10
10.2632395736
 20
-63.7568949629
 11
10.2632433553
 21
-60.2867381572
  0
LINE
  5
41E
100
AcDbEntity
  8
0
100
AcDbLine
 62
7
  6
CONTINUOUS
 10
13.6293646088
 20
-65.661416868
 11
13.6293683929
 21
-62.1912592445
  0
LINE
  5
41F
100
AcDbEntity
  8
0
100
AcDbLine
 62
7
  6
CONTINUOUS
 10
9.8411641458
 20
-38.0177246598
 11
9.8408460932
 21
-38.0599902485
  0
LINE
  5
420
100
AcDbEntity
  8
DRAFT
100
AcDbLine
 62
250
  6
CONTINUOUS
 10
9.7867548391
 20
-44.6663394083
 11
9.7762126019
 21
-46.0419092035
  0
LWPOLYLINE
  5
421
100
AcDbEntity
  8
RACCORDO
100
AcDbPolyline
 62
7
  6
CONTINUOUS
 90
13
 70
0
 10
14.1829157113
 20
-48.9200754595
 10
14.1890150164
 20
-48.814088524
 10
14.2070738354
 20
-48.7085026747
 10
14.2368556297
 20
-48.6042710185
 10
14.2785128756
 20
-48.5014088663
 10
14.3318930968
 20
-48.3999009073
 10
14.3963022451
 20
-48.3010471298
 10
14.4718778516
 20
-48.2048867215
 10
14.5584823851
 20
-48.1113804949
 10
14.6550092033
 20
-48.0217108755
 10
14.7610894255
 20
-47.9362720055
 10
14.8770919324
 20
-47.8546697428
 10
15.003016724
 20
-47.7769040875
  0
LINE
  5
422
100
AcDbEntity
  8
SUPERFICI
100
AcDbLine
 62
250
  6
CONTINUOUS
 10
4.5920081961
 20
-89.5972498561
 11
4.6499493755
 21
-89.2006424245
  0
LWPOLYLINE
  5
423
100
AcDbEntity
  8
SUPERFICI
100
AcDbPolyline
 62
250
  6
CONTINUOUS
 90
8
 70
0
 10
4.1038593628
 20
-92.4247959387
 10
4.1697978419
 20
-92.0114211903
 10
4.2405584399
 20
-91.6005211503
 10
4.313153156
 20
-91.1961739715
 10
4.3863498613
 20
-90.7940213753
 10
4.4583670589
 20
-90.393784907
 10
4.5274763995
 20
-89.9952015526
 10
4.5920081961
 20
-89.5972498561
  0
LINE
  5
424
100
AcDbEntity
  8
0
100
AcDbLine
 62
7
  6
CONTINUOUS
 10
8.772862775
 20
-61.7097961812
 11
9.2075524849
 21
-60.205208101
  0
LINE
  5
425
100
AcDbEntity
  8
0
100
AcDbLine
 62
7
  6
CONTINUOUS
 10
9.2075524849
 20
-60.205208101
 11
9.3320098236
 21
-59.7751386915
  0
LINE
  5
426
100
AcDbEntity
  8
0
100
AcDbLine
 62
7
  6
CONTINUOUS
 10
9.0932103825
 20
-63.0821228655
 11
9.537947494
 21
-61.5455056724
  0
LINE
  5
427
100
AcDbEntity
  8
0
100
AcDbLine
 62
7
  6
CONTINUOUS
 10
9.6393942879
 20
-61.1346600002
 11
9.0719970432
 21
-63.0943711817
  0
LINE
  5
428
100
AcDbEntity
  8
0
100
AcDbLine
 62
7
  6
CONTINUOUS
 10
9.537947494
 20
-61.5455056724
 11
9.6393944346
 21
-61.1955605944
  0
LWPOLYLINE
  5
429
100
AcDbEntity
  8
RACCORDO
100
AcDbPolyline
 62
250
  6
CONTINUOUS
 90
16
 70
0
 10
26.2240954193
 20
-51.9236496511
 10
26.1743246017
 20
-51.9350918459
 10
26.1250988388
 20
-51.9508811506
 10
26.0769574335
 20
-51.9708446379
 10
26.0304278546
 20
-51.9947636256
 10
25.9860198513
 20
-52.0223761262
 10
25.9442198859
 20
-52.0533797445
 10
25.9054859417
 20
-52.0874348993
 10
25.8702424884
 20
-52.1241685117
 10
25.838875736
 20
-52.1631781648
 10
25.8117294079
 20
-52.2040365277
 10
25.7891010437
 20
-52.2462959363
 10
25.7712387019
 20
-52.2894932837
 10
25.7583381618
 20
-52.3331552399
 10
25.7505408146
 20
-52.3768034472
 10
25.7479321561
 20
-52.4199596539
  0
LWPOLYLINE
  5
42A
100
AcDbEntity
  8
SMUSSO
100
AcDbPolyline
 62
7
  6
CONTINUOUS
 90
10
 70
0
 10
25.974749796
 20
-53.4511090127
 10
26.0037770176
 20
-53.4447866783
 10
26.033843905
 20
-53.4392582152
 10
26.0647397432
 20
-53.4345166824
 10
26.0962370609
 20
-53.4305711686
 10
26.1281615736
 20
-53.4274301912
 10
26.1603989449
 20
-53.4250915601
 10
26.1927992282
 20
-53.4235669846
 10
26.2251719393
 20
-53.4228907999
 10
26.2573594471
 20
-53.4230969037
  0
LWPOLYLINE
  5
42B
100
AcDbEntity
  8
SMUSSO
100
AcDbPolyline
 62
7
  6
CONTINUOUS
 90
10
 70
0
 10
26.995973046
 20
-53.599026994
 10
27.1407464399
 20
-53.601930224
 10
27.2824771823
 20
-53.6129557775
 10
27.4211652733
 20
-53.6321036546
 10
27.5567677479
 20
-53.6595077273
 10
27.6893275709
 20
-53.6950341236
 10
27.8189736375
 20
-53.7382812271
 10
27.9457489126
 20
-53.7891151659
 10
28.0696104311
 20
-53.8476698119
 10
28.1433786812
 20
-53.8876672688
  0
LWPOLYLINE
  5
42C
100
AcDbEntity
  8
RACCORDO
100
AcDbPolyline
 62
250
  6
CONTINUOUS
 90
14
 70
0
 10
22.92669108
 20
-53.87422882
 10
22.9789311196
 20
-53.8755834438
 10
23.0305990643
 20
-53.8813956452
 10
23.0811288547
 20
-53.8916018061
 10
23.1299668522
 20
-53.9060901564
 10
23.1765780177
 20
-53.9247020266
 10
23.2204517552
 20
-53.9472336146
 10
23.2611073606
 20
-53.9734381616
 10
23.2980993049
 20
-54.003028622
 10
23.3310222178
 20
-54.0356808557
 10
23.3595153232
 20
-54.0710371973
 10
23.3832663201
 20
-54.1087102883
 10
23.4020148432
 20
-54.148287298
 10
23.4155554005
 20
-54.1893345768
  0
LWPOLYLINE
  5
42D
100
AcDbEntity
  8
RACCORDO
100
AcDbPolyline
 62
250
  6
CONTINUOUS
 90
35
 70
0
 10
26.1159101831
 20
-55.6954896959
 10
25.9090405549
 20
-55.6896083445
 10
25.7038010403
 20
-55.6759777681
 10
25.5002041418
 20
-55.6548177772
 10
25.3015463929
 20
-55.6268279046
 10
25.1078163232
 20
-55.5917117851
 10
24.9190254031
 20
-55.5497657839
 10
24.7385045765
 20
-55.5025785299
 10
24.5666478279
 20
-55.4499085389
 10
24.4030611729
 20
-55.391997295
 10
24.2498936017
 20
-55.3311578788
 10
24.1079502801
 20
-55.2675108174
 10
23.9764260424
 20
-55.2009355838
 10
23.8550543823
 20
-55.1333836768
 10
23.744235946
 20
-55.0651027647
 10
23.6435700873
 20
-54.9958451793
 10
23.5515883606
 20
-54.9268194153
 10
23.4683243455
 20
-54.8581782806
 10
23.3937444624
 20
-54.7897689673
 10
23.3262795274
 20
-54.7223415461
 10
23.2658919436
 20
-54.6560107866
 10
23.2126193079
 20
-54.5906619193
 10
23.1650052263
 20
-54.526700707
 10
23.1229834781
 20
-54.4642142701
 10
23.0866202841
 20
-54.4031154882
 10
23.0546579132
 20
-54.3435487632
 10
23.027017109
 20
-54.2855747118
 10
23.0037771279
 20
-54.2291327173
 10
22.9839180076
 20
-54.1741853308
 10
22.9673601441
 20
-54.1207787383
 10
22.9541831414
 20
-54.0688667538
 10
22.9436058487
 20
-54.0182733704
 10
22.9353678825
 20
-53.9689399192
 10
22.9297296262
 20
-53.920925069
 10
22.92669108
 20
-53.87422882
  0
LWPOLYLINE
  5
42E
100
AcDbEntity
  8
SMUSSO
100
AcDbPolyline
 62
7
  6
CONTINUOUS
 90
12
 70
0
 10
26.2573593834
 20
-53.4230955224
 10
26.4464030036
 20
-53.4299754115
 10
26.6342142954
 20
-53.4441965572
 10
26.8199389963
 20
-53.4656943464
 10
27.0027319172
 20
-53.4943709706
 10
27.1817620059
 20
-53.5300961199
 10
27.3562161108
 20
-53.5727077329
 10
27.5253012296
 20
-53.6220123884
 10
27.6882475348
 20
-53.6777858541
 10
27.8443131589
 20
-53.7397743897
 10
27.9927881011
 20
-53.8076961321
 10
28.1436143269
 20
-53.8872326618
  0
LWPOLYLINE
  5
42F
100
AcDbEntity
  8
RACCORDO
100
AcDbPolyline
 62
250
  6
CONTINUOUS
 90
54
 70
0
 10
22.8919664534
 20
-53.8475791546
 10
22.8082183044
 20
-53.8316905848
 10
22.7218675572
 20
-53.8127917558
 10
22.632914212
 20
-53.7908826674
 10
22.5409876897
 20
-53.7662072214
 10
22.4464585692
 20
-53.7385215161
 10
22.3504385874
 20
-53.7070938465
 10
22.2527622466
 20
-53.671908607
 10
22.1535950444
 20
-53.6329814032
 10
22.05454521
 20
-53.5896273468
 10
21.9554251365
 20
-53.5417939232
 10
21.8564224308
 20
-53.489533647
 10
21.7597081429
 20
-53.4323191741
 10
21.6650826501
 20
-53.3700337965
 10
21.572745575
 20
-53.3027942223
 10
21.4854668353
 20
-53.2304232315
 10
21.4030582287
 20
-53.1525941627
 10
21.3257079574
 20
-53.0696336773
 10
21.2567505459
 20
-52.982344539
 10
21.1963897624
 20
-52.8902085291
 10
21.1444218387
 20
-52.7937438664
 10
21.1035699943
 20
-52.6953079707
 10
21.0745554608
 20
-52.5949100738
 10
21.0566570066
 20
-52.4925409441
 10
21.0504341572
 20
-52.3905303062
 10
21.0562299851
 20
-52.2892822016
 10
21.0737014176
 20
-52.188392589
 10
21.1023787628
 20
-52.0889790688
 10
21.1422974033
 20
-51.9910820314
 10
21.1934219564
 20
-51.8946610864
 10
21.2551765814
 20
-51.8007126632
 10
21.3277120825
 20
-51.7091713072
 10
21.4108776555
 20
-51.620102473
 10
21.5036450476
 20
-51.5346989539
 10
21.6061726775
 20
-51.4530003326
 10
21.7183021265
 20
-51.3749670265
 10
21.8385298858
 20
-51.3016730814
 10
21.9669805277
 20
-51.2331929714
 10
22.10352948
 20
-51.1694522225
 10
22.2462995171
 20
-51.1113014584
 10
22.3953494123
 20
-51.0588327789
 10
22.5506203924
 20
-51.0119540843
 10
22.7100589125
 20
-50.9712396986
 10
22.8735484672
 20
-50.9367719577
 10
23.0412055618
 20
-50.9084685258
 10
23.211326167
 20
-50.8866567195
 10
23.3840242777
 20
-50.8713585561
 10
23.5591858989
 20
-50.8625520183
 10
23.7347650174
 20
-50.8604983711
 10
23.9114967043
 20
-50.8654273352
 10
24.0886458883
 20
-50.8771091899
 10
24.2619613429
 20
-50.8951160378
 10
24.4313443631
 20
-50.919865575
 10
24.5968936539
 20
-50.9509401055
  0
LWPOLYLINE
  5
430
100
AcDbEntity
  8
0
100
AcDbPolyline
 62
250
  6
CONTINUOUS
 90
3
 70
0
 10
24.0884958464
 20
-59.8881365756
 10
23.9950067869
 20
-59.8546897708
 10
23.5126897124
 20
-59.6837267487
  0
LWPOLYLINE
  5
431
100
AcDbEntity
  8
0
100
AcDbPolyline
 62
250
  6
CONTINUOUS
 90
4
 70
0
 10
23.5126897124
 20
-59.6837267487
 10
23.4621989793
 20
-59.6654886262
 10
23.4108703554
 20
-59.6465044416
 10
23.3588457068
 20
-59.6267231606
  0
LWPOLYLINE
  5
432
100
AcDbEntity
  8
0
100
AcDbPolyline
 62
250
  6
CONTINUOUS
 90
14
 70
0
 10
22.8991934739
 20
-59.44575936
 10
22.7631490732
 20
-59.3923322442
 10
22.6190263825
 20
-59.3347207461
 10
22.4668254017
 20
-59.2729248657
 10
22.3069390428
 20
-59.2072914866
 10
22.1389743938
 20
-59.1374737252
 10
21.9617527193
 20
-59.0624309312
 10
21.7705054495
 20
-58.9799845991
 10
21.5700011541
 20
-58.8923132344
 10
21.3733668068
 20
-58.8049117028
 10
21.1844871852
 20
-58.7191994002
 10
20.9994775118
 20
-58.6337569307
 10
20.8198104272
 20
-58.5498209721
 10
20.6461129177
 20
-58.4676555372
  0
LINE
  5
433
100
AcDbEntity
  8
0
100
AcDbLine
 62
250
  6
CONTINUOUS
 10
23.3588457068
 20
-59.6267231606
 11
23.0814725254
 21
-59.5183099453
  0
LINE
  5
434
100
AcDbEntity
  8
0
100
AcDbLine
 62
250
  6
CONTINUOUS
 10
23.0814725254
 20
-59.5183099453
 11
22.8991934739
 21
-59.44575936
  0
LINE
  5
435
100
AcDbEntity
  8
0
100
AcDbLine
 62
250
  6
CONTINUOUS
 10
20.6461129177
 20
-58.4676555372
 11
20.3143373478
 21
-58.3082888394
  0
LINE
  5
436
100
AcDbEntity
  8
0
100
AcDbLine
 62
250
  6
CONTINUOUS
 10
20.3143373478
 20
-58.3082888394
 11
20.0026129569
 21
-58.1572415907
  0
LINE
  5
437
100
AcDbEntity
  8
0
100
AcDbLine
 62
250
  6
CONTINUOUS
 10
20.0026129569
 20
-58.1572415907
 11
19.7116833712
 21
-58.0148905073
  0
LINE
  5
438
100
AcDbEntity
  8
0
100
AcDbLine
 62
250
  6
CONTINUOUS
 10
19.7116833712
 20
-58.0148905073
 11
19.4287013895
 21
-57.8749569453
  0
LWPOLYLINE
  5
439
100
AcDbEntity
  8
0
100
AcDbPolyline
 62
250
  6
CONTINUOUS
 90
3
 70
0
 10
19.4287013895
 20
-57.8749569453
 10
19.1066652235
 20
-57.7141739846
 10
18.9329136989
 20
-57.6266493891
  0
LWPOLYLINE
  5
43A
100
AcDbEntity
  8
0
100
AcDbPolyline
 62
250
  6
CONTINUOUS
 90
9
 70
0
 10
18.1841495405
 20
-58.0353566717
 10
18.8253403851
 20
-58.3603446827
 10
19.4579318337
 20
-58.6741528838
 10
20.0814489083
 20
-58.9769958044
 10
20.693422424
 20
-59.2673829813
 10
21.3033024525
 20
-59.5431955236
 10
21.921265049
 20
-59.8079258431
 10
22.5500848161
 20
-60.062995457
 10
23.1854335402
 20
-60.3068224242
  0
LINE
  5
43B
100
AcDbEntity
  8
0
100
AcDbLine
 62
250
  6
CONTINUOUS
 10
18.9329136989
 20
-57.6266493891
 11
18.5469689111
 21
-57.4302556504
  0
LINE
  5
43C
100
AcDbEntity
  8
0
100
AcDbLine
 62
250
  6
CONTINUOUS
 10
18.5469689111
 20
-57.4302556504
 11
18.181482431
 21
-57.2428647429
  0
LINE
  5
43D
100
AcDbEntity
  8
0
100
AcDbLine
 62
250
  6
CONTINUOUS
 10
18.181482431
 20
-57.2428647429
 11
17.7272792911
 21
-57.0082892559
  0
LINE
  5
43E
100
AcDbEntity
  8
0
100
AcDbLine
 62
250
  6
CONTINUOUS
 10
17.7272792911
 20
-57.0082892559
 11
17.2780244282
 21
-56.7748843761
  0
LINE
  5
43F
100
AcDbEntity
  8
0
100
AcDbLine
 62
250
  6
CONTINUOUS
 10
17.2780244282
 20
-56.7748843761
 11
16.8299710315
 21
-56.540693848
  0
LINE
  5
440
100
AcDbEntity
  8
0
100
AcDbLine
 62
250
  6
CONTINUOUS
 10
16.8299710315
 20
-56.540693848
 11
16.3860465916
 21
-56.3072438717
  0
LINE
  5
441
100
AcDbEntity
  8
0
100
AcDbLine
 62
250
  6
CONTINUOUS
 10
16.3860465916
 20
-56.3072438717
 11
15.905631593
 21
-56.0529820766
  0
LINE
  5
442
100
AcDbEntity
  8
0
100
AcDbLine
 62
250
  6
CONTINUOUS
 10
15.905631593
 20
-56.0529820766
 11
15.4973923168
 21
-55.8355902027
  0
LWPOLYLINE
  5
443
100
AcDbEntity
  8
0
100
AcDbPolyline
 62
250
  6
CONTINUOUS
 90
5
 70
0
 10
14.5002644416
 20
-56.0995135857
 10
15.4409746931
 20
-56.603202873
 10
16.3691072896
 20
-57.0937848217
 10
17.2836936353
 20
-57.5711280605
 10
18.1841495405
 20
-58.0353566717
  0
LINE
  5
444
100
AcDbEntity
  8
0
100
AcDbLine
 62
250
  6
CONTINUOUS
 10
15.4973923168
 20
-55.8355902027
 11
15.0447420916
 21
-55.5931030976
  0
LINE
  5
445
100
AcDbEntity
  8
0
100
AcDbLine
 62
250
  6
CONTINUOUS
 10
15.0447420916
 20
-55.5931030976
 11
14.5421626881
 21
-55.3220733979
  0
LINE
  5
446
100
AcDbEntity
  8
0
100
AcDbLine
 62
250
  6
CONTINUOUS
 10
14.5421626881
 20
-55.3220733979
 11
14.1804935061
 21
-55.1258403059
  0
LINE
  5
447
100
AcDbEntity
  8
0
100
AcDbLine
 62
250
  6
CONTINUOUS
 10
14.1804935061
 20
-55.1258403059
 11
13.8009649581
 21
-54.9188810796
  0
LINE
  5
448
100
AcDbEntity
  8
0
100
AcDbLine
 62
250
  6
CONTINUOUS
 10
13.8009649581
 20
-54.9188810796
 11
13.4053702236
 21
-54.7019398814
  0
LINE
  5
449
100
AcDbEntity
  8
0
100
AcDbLine
 62
250
  6
CONTINUOUS
 10
13.4053702236
 20
-54.7019398814
 11
13.0379036247
 21
-54.4994476685
  0
LINE
  5
44A
100
AcDbEntity
  8
0
100
AcDbLine
 62
250
  6
CONTINUOUS
 10
13.0379036247
 20
-54.4994476685
 11
12.7005941274
 21
-54.3125583375
  0
LINE
  5
44B
100
AcDbEntity
  8
0
100
AcDbLine
 62
250
  6
CONTINUOUS
 10
12.7005941274
 20
-54.3125583375
 11
12.3526073939
 21
-54.1188421261
  0
LINE
  5
44C
100
AcDbEntity
  8
0
100
AcDbLine
 62
250
  6
CONTINUOUS
 10
12.3526073939
 20
-54.1188421261
 11
12.0120113935
 21
-53.9283300795
  0
LINE
  5
44D
100
AcDbEntity
  8
0
100
AcDbLine
 62
250
  6
CONTINUOUS
 10
12.0120113935
 20
-53.9283300795
 11
11.559535378
 21
-53.6738811431
  0
LINE
  5
44E
100
AcDbEntity
  8
0
100
AcDbLine
 62
250
  6
CONTINUOUS
 10
11.559535378
 20
-53.6738811431
 11
11.1725226293
 21
-53.4548329013
  0
LINE
  5
44F
100
AcDbEntity
  8
0
100
AcDbLine
 62
250
  6
CONTINUOUS
 10
11.1725226293
 20
-53.4548329013
 11
10.7248415078
 21
-53.2001371905
  0
LWPOLYLINE
  5
450
100
AcDbEntity
  8
0
100
AcDbPolyline
 62
250
  6
CONTINUOUS
 90
6
 70
0
 10
9.5936498438
 20
-53.3623137448
 10
10.6018137201
 20
-53.9402766837
 10
11.5971023659
 20
-54.5028187639
 10
12.5790807818
 20
-55.0501630691
 10
13.5467492963
 20
-55.582215639
 10
14.5002644416
 20
-56.0995135857
  0
LINE
  5
451
100
AcDbEntity
  8
0
100
AcDbLine
 62
250
  6
CONTINUOUS
 10
10.7248415078
 20
-53.2001371905
 11
10.4173190201
 21
-53.0240490687
  0
LWPOLYLINE
  5
452
100
AcDbEntity
  8
0
100
AcDbPolyline
 62
250
  6
CONTINUOUS
 90
3
 70
0
 10
9.4553470169
 20
-52.4685503414
 10
9.6166848494
 20
-52.561569941
 10
9.9466954404
 20
-52.7502315319
  0
LINE
  5
453
100
AcDbEntity
  8
0
100
AcDbLine
 62
7
  6
CONTINUOUS
 10
-1.4725712777
 20
-44.5501334276
 11
24.1246942013
 21
-59.3296737061
  0
LINE
  5
454
100
AcDbEntity
  8
0
100
AcDbLine
 62
7
  6
CONTINUOUS
 10
-1.4018605996
 20
-44.5515584732
 11
24.1246942012
 21
-59.2902712923
  0
LWPOLYLINE
  5
455
100
AcDbEntity
  8
0
100
AcDbPolyline
 62
250
  6
CONTINUOUS
 90
10
 70
0
 10
-1.6612841127
 20
-45.2648474167
 10
-1.7241725116
 20
-45.2284576824
 10
-1.7867750859
 20
-45.1928113492
 10
-1.849081124
 20
-45.157933285
 10
-1.9111099167
 20
-45.1238719872
 10
-1.9728148194
 20
-45.09063086
 10
-2.0340850518
 20
-45.0581571817
 10
-2.0948736183
 20
-45.0264384745
 10
-2.1551955888
 20
-44.9955133326
 10
-2.2150333979
 20
-44.9653951088
  0
LINE
  5
456
100
AcDbEntity
  8
0
100
AcDbLine
 62
250
  6
CONTINUOUS
 10
9.5936498438
 20
-53.3623137448
 11
8.5925927421
 21
-52.7801776725
  0
LWPOLYLINE
  5
457
100
AcDbEntity
  8
0
100
AcDbPolyline
 62
250
  6
CONTINUOUS
 90
3
 70
0
 10
10.4173190201
 20
-53.0240490687
 10
10.1049389615
 20
-52.8428186954
 10
9.9466954404
 20
-52.7502315319
  0
LINE
  5
458
100
AcDbEntity
  8
0
100
AcDbLine
 62
250
  6
CONTINUOUS
 10
9.139673776
 20
-52.2846974191
 11
9.4553470169
 21
-52.4685503414
  0
LINE
  5
459
100
AcDbEntity
  8
0
100
AcDbLine
 62
250
  6
CONTINUOUS
 10
8.5925927421
 20
-52.7801776725
 11
7.6181242197
 21
-52.2054066506
  0
LINE
  5
45A
100
AcDbEntity
  8
0
100
AcDbLine
 62
250
  6
CONTINUOUS
 10
8.2923735689
 20
-51.7867271113
 11
9.139673776
 21
-52.2846974191
  0
LINE
  5
45B
100
AcDbEntity
  8
0
100
AcDbLine
 62
250
  6
CONTINUOUS
 10
7.6484483231
 20
-51.404161717
 11
8.2923735689
 21
-51.7867271113
  0
LINE
  5
45C
100
AcDbEntity
  8
0
100
AcDbLine
 62
250
  6
CONTINUOUS
 10
7.6181242197
 20
-52.2054066506
 11
6.6698650293
 21
-51.6382559534
  0
LINE
  5
45D
100
AcDbEntity
  8
0
100
AcDbLine
 62
250
  6
CONTINUOUS
 10
7.1440172586
 20
-51.1019934905
 11
7.6484483231
 21
-51.404161717
  0
LINE
  5
45E
100
AcDbEntity
  8
0
100
AcDbLine
 62
250
  6
CONTINUOUS
 10
6.6136909374
 20
-50.7819247715
 11
7.1440172586
 21
-51.1019934905
  0
LWPOLYLINE
  5
45F
100
AcDbEntity
  8
0
100
AcDbPolyline
 62
250
  6
CONTINUOUS
 90
7
 70
0
 10
6.6698650293
 20
-51.6382559534
 10
5.7479851542
 20
-51.0793069649
 10
4.8515610516
 20
-50.528473175
 10
3.9786134966
 20
-49.9849791753
 10
3.1282797837
 20
-49.4486969663
 10
2.3007937827
 20
-48.9201894655
 10
1.495947086
 20
-48.3997977268
  0
LINE
  5
460
100
AcDbEntity
  8
0
100
AcDbLine
 62
250
  6
CONTINUOUS
 10
6.0232165099
 20
-50.4225984026
 11
6.6136909374
 21
-50.7819247715
  0
LINE
  5
461
100
AcDbEntity
  8
0
100
AcDbLine
 62
250
  6
CONTINUOUS
 10
5.492801347
 20
-50.097140602
 11
6.0232165099
 21
-50.4225984026
  0
LINE
  5
462
100
AcDbEntity
  8
0
100
AcDbLine
 62
250
  6
CONTINUOUS
 10
4.8537519244
 20
-49.7016230083
 11
5.492801347
 21
-50.097140602
  0
LINE
  5
463
100
AcDbEntity
  8
0
100
AcDbLine
 62
250
  6
CONTINUOUS
 10
4.184770988
 20
-49.283491496
 11
4.8537519244
 21
-49.7016230083
  0
LINE
  5
464
100
AcDbEntity
  8
0
100
AcDbLine
 62
250
  6
CONTINUOUS
 10
3.5283906878
 20
-48.869145582
 11
4.184770988
 21
-49.283491496
  0
LINE
  5
465
100
AcDbEntity
  8
0
100
AcDbLine
 62
250
  6
CONTINUOUS
 10
2.7937724712
 20
-48.4005344492
 11
3.5283906878
 21
-48.869145582
  0
LINE
  5
466
100
AcDbEntity
  8
0
100
AcDbLine
 62
250
  6
CONTINUOUS
 10
2.3201826747
 20
-48.0957222183
 11
2.7937724712
 21
-48.4005344492
  0
LWPOLYLINE
  5
467
100
AcDbEntity
  8
0
100
AcDbPolyline
 62
250
  6
CONTINUOUS
 90
10
 70
0
 10
23.4529427592
 20
-59.7857628465
 10
23.3928929903
 20
-59.746869341
 10
23.3325217578
 20
-59.7082357301
 10
23.271824867
 20
-59.6698605993
 10
23.2108503493
 20
-59.6317005949
 10
23.1495448661
 20
-59.5937989066
 10
23.0877485008
 20
-59.5562658055
 10
23.0254020818
 20
-59.5191159968
 10
22.9625521075
 20
-59.4822880677
 10
22.8991934739
 20
-59.4457593601
  0
LWPOLYLINE
  5
468
100
AcDbEntity
  8
0
100
AcDbPolyline
 62
250
  6
CONTINUOUS
 90
3
 70
0
 10
1.6362448078
 20
-47.6510716624
 10
1.813261336
 20
-47.766791166
 10
2.3201826747
 20
-48.0957222183
  0
LINE
  5
469
100
AcDbEntity
  8
0
100
AcDbLine
 62
250
  6
CONTINUOUS
 10
1.3145500941
 20
-47.4385123648
 11
1.6362448078
 21
-47.6510716624
  0
LINE
  5
46A
100
AcDbEntity
  8
0
100
AcDbLine
 62
250
  6
CONTINUOUS
 10
1.0341507334
 20
-47.2513041106
 11
1.3145500941
 21
-47.4385123648
  0
LINE
  5
46B
100
AcDbEntity
  8
0
100
AcDbLine
 62
250
  6
CONTINUOUS
 10
0.7860969404
 20
-47.0837084506
 11
1.0341507334
 21
-47.2513041106
  0
LINE
  5
46C
100
AcDbEntity
  8
0
100
AcDbLine
 62
250
  6
CONTINUOUS
 10
0.5233771163
 20
-46.9045306185
 11
0.7860969404
 21
-47.0837084506
  0
LWPOLYLINE
  5
46D
100
AcDbEntity
  8
RACCORDO
100
AcDbPolyline
 62
250
  6
CONTINUOUS
 90
6
 70
0
 10
5.0158650677
 20
-44.3591992497
 10
5.0871230306
 20
-44.4139262742
 10
5.158477594
 20
-44.4653848932
 10
5.2295630906
 20
-44.5137522694
 10
5.3007451878
 20
-44.5588512401
 10
5.3720238856
 20
-44.6006818054
  0
LWPOLYLINE
  5
46E
100
AcDbEntity
  8
0
100
AcDbPolyline
 62
250
  6
CONTINUOUS
 90
16
 70
0
 10
24.9881303265
 20
-59.8540087385
 10
25.0198884755
 20
-59.8804335017
 10
25.051326151
 20
-59.9110443311
 10
25.0820966442
 20
-59.9454999293
 10
25.111858877
 20
-59.9834137334
 10
25.1402882984
 20
-60.0243676411
 10
25.1670792344
 20
-60.0679190581
 10
25.1919446063
 20
-60.1135929237
 10
25.2146028389
 20
-60.160880916
 10
25.2347887487
 20
-60.2092571461
 10
25.2522749651
 20
-60.2581793179
 10
25.2668798846
 20
-60.3071170457
 10
25.2784489875
 20
-60.355553042
 10
25.2868542359
 20
-60.4029605402
 10
25.2919997959
 20
-60.448809532
 10
25.2938272874
 20
-60.4925938126
  0
LWPOLYLINE
  5
46F
100
AcDbEntity
  8
RACCORDO
100
AcDbPolyline
 62
250
  6
CONTINUOUS
 90
16
 70
0
 10
7.7417360033
 20
-45.1000259697
 10
7.7403204347
 20
-45.0977954935
 10
7.7386137385
 20
-45.0956607743
 10
7.7366159147
 20
-45.0936218122
 10
7.7343086895
 20
-45.0916639224
 10
7.7317103368
 20
-45.0898017896
 10
7.7288756776
 20
-45.0880794679
 10
7.7257990366
 20
-45.0865015168
 10
7.7224860892
 20
-45.0850633767
 10
7.719008682
 20
-45.0837954227
 10
7.7153631299
 20
-45.0827020743
 10
7.711553118
 20
-45.081778912
 10
7.7076615491
 20
-45.0810430524
 10
7.7037160573
 20
-45.0805002008
 10
7.6996890084
 20
-45.0801446519
 10
7.6955804026
 20
-45.0799764055
  0
LWPOLYLINE
  5
470
100
AcDbEntity
  8
RACCORDO
100
AcDbPolyline
 62
7
  6
CONTINUOUS
 90
43
 70
0
 10
8.178948891
 20
-45.2656814494
 10
8.2166030195
 20
-45.3259360897
 10
8.2635070694
 20
-45.3871156651
 10
8.3195973366
 20
-45.4485343703
 10
8.3843380794
 20
-45.5092293059
 10
8.4574252799
 20
-45.5686842601
 10
8.5393059065
 20
-45.6269536602
 10
8.6298692115
 20
-45.6835710814
 10
8.7285274613
 20
-45.7378492616
 10
8.8355304875
 20
-45.7896145389
 10
8.9508859428
 20
-45.8385032566
 10
9.0737790699
 20
-45.8838412897
 10
9.2033468038
 20
-45.9250714765
 10
9.3389024825
 20
-45.9617926372
 10
9.4798462074
 20
-45.9936823161
 10
9.6253963043
 20
-46.0204239327
 10
9.7748707434
 20
-46.041770876
 10
9.9274314415
 20
-46.0574978346
 10
10.0820379715
 20
-46.0674237301
 10
10.2378870704
 20
-46.0714485419
 10
10.3941072001
 20
-46.069514205
 10
10.5495385995
 20
-46.0616315813
 10
10.7033023752
 20
-46.0478744372
 10
10.8546022797
 20
-46.0283565057
 10
11.0024128246
 20
-46.0032774212
 10
11.1459079876
 20
-45.9728760334
 10
11.2843879301
 20
-45.9374163997
 10
11.4170337297
 20
-45.8972476461
 10
11.5432408203
 20
-45.8527178171
 10
11.6623294392
 20
-45.804257727
 10
11.7734174541
 20
-45.7524816453
 10
11.8756639881
 20
-45.6981444831
 10
11.9691560089
 20
-45.6416093823
 10
12.0542394686
 20
-45.5830045309
 10
12.1302957011
 20
-45.5231040837
 10
12.1972671357
 20
-45.4623858589
 10
12.2556947982
 20
-45.4006811372
 10
12.3050520415
 20
-45.3388191737
 10
12.3451022251
 20
-45.2775541087
 10
12.3761719657
 20
-45.2168050935
 10
12.3981921669
 20
-45.1569667824
 10
12.4111586732
 20
-45.0985971665
 10
12.41540129
 20
-45.0414643122
  0
LWPOLYLINE
  5
471
100
AcDbEntity
  8
RACCORDO
100
AcDbPolyline
 62
7
  6
CONTINUOUS
 90
13
 70
0
 10
8.1789488786
 20
-45.265681427
 10
8.1543860205
 20
-45.2257513399
 10
8.1255696568
 20
-45.1872203088
 10
8.0925478628
 20
-45.150660676
 10
8.0548353513
 20
-45.1161210709
 10
8.0133192951
 20
-45.0848726597
 10
7.9704356022
 20
-45.0585368441
 10
7.9271081855
 20
-45.0370290017
 10
7.8830955998
 20
-45.0197150888
 10
7.8389667797
 20
-45.0064460081
 10
7.794736751
 20
-44.996911816
 10
7.7499044044
 20
-44.9908595552
 10
7.7040168485
 20
-44.9882827226
  0
LINE
  5
472
100
AcDbEntity
  8
0
100
AcDbLine
 62
7
  6
CONTINUOUS
 10
16.1442168524
 20
-66.9866892023
 11
15.7731291665
 21
-65.998790658
  0
LINE
  5
473
100
AcDbEntity
  8
0
100
AcDbLine
 62
7
  6
CONTINUOUS
 10
15.4556278294
 20
-65.2202365798
 11
16.1229818551
 21
-66.9989500236
  0
LINE
  5
474
100
AcDbEntity
  8
0
100
AcDbLine
 62
7
  6
CONTINUOUS
 10
15.7731291665
 20
-65.998790658
 11
15.4768586856
 21
-65.2079781496
  0
LWPOLYLINE
  5
475
100
AcDbEntity
  8
0
100
AcDbPolyline
 62
250
  6
CONTINUOUS
 90
10
 70
0
 10
18.5262121349
 20
-90.6134098054
 10
18.5162607602
 20
-90.5529699114
 10
18.5028394116
 20
-90.4925902287
 10
18.4860922149
 20
-90.4324416395
 10
18.4661312167
 20
-90.3726063734
 10
18.4431174056
 20
-90.3133509626
 10
18.417189243
 20
-90.2552243407
 10
18.3883349068
 20
-90.1986893384
 10
18.3564590742
 20
-90.1440290567
 10
18.3215054994
 20
-90.0916032956
  0
LWPOLYLINE
  5
476
100
AcDbEntity
  8
RACCORDO
100
AcDbPolyline
 62
7
  6
CONTINUOUS
 90
13
 70
0
 10
10.53935376
 20
-43.5661159848
 10
10.5441645178
 20
-43.5991236622
 10
10.5544015757
 20
-43.6310376007
 10
10.5700649336
 20
-43.6618578002
 10
10.5914318512
 20
-43.6918849514
 10
10.6182250688
 20
-43.7208183637
 10
10.6496128077
 20
-43.7477559645
 10
10.685741363
 20
-43.7726342143
 10
10.7264644396
 20
-43.7955166525
 10
10.7705113733
 20
-43.815691826
 10
10.8174586092
 20
-43.8329225835
 10
10.8677297023
 20
-43.8474460763
 10
10.9213246524
 20
-43.8592623041
  0
LWPOLYLINE
  5
477
100
AcDbEntity
  8
RACCORDO
100
AcDbPolyline
 62
250
  6
CONTINUOUS
 90
16
 70
0
 10
11.0391403426
 20
-43.1494468008
 10
11.0394299057
 20
-43.1518164216
 10
11.0400451542
 20
-43.1541406193
 10
11.0409860883
 20
-43.1564193941
 10
11.0422632175
 20
-43.1586697794
 10
11.0438660323
 20
-43.1608747417
 10
11.0457630031
 20
-43.1629831805
 10
11.0479617715
 20
-43.1649916229
 10
11.050454696
 20
-43.1669035419
 10
11.053187323
 20
-43.1686782558
 10
11.0561653148
 20
-43.1703121078
 10
11.059383009
 20
-43.1718087548
 10
11.0627689656
 20
-43.1731384852
 10
11.0662993711
 20
-43.1742913954
 10
11.069998039
 20
-43.175277389
 10
11.0738649692
 20
-43.1760964662
  0
LWPOLYLINE
  5
478
100
AcDbEntity
  8
0
100
AcDbPolyline
 62
250
  6
CONTINUOUS
 90
5
 70
0
 10
18.3215077726
 20
-90.091613368
 10
18.2399725445
 20
-87.7235933551
 10
18.1941877703
 20
-85.2999293147
 10
18.1841384388
 20
-82.8214225998
 10
18.1841436313
 20
-58.0353760297
  0
LINE
  5
479
100
AcDbEntity
  8
0
100
AcDbLine
 62
7
  6
CONTINUOUS
 10
14.2401613249
 20
-63.1650947411
 11
14.2401675879
 21
-64.0095410224
  0
LINE
  5
47A
100
AcDbEntity
  8
0
100
AcDbLine
 62
7
  6
CONTINUOUS
 10
14.2613919902
 20
-63.9972863185
 11
14.2613859029
 21
-63.1765716125
  0
LINE
  5
47B
100
AcDbEntity
  8
0
100
AcDbLine
 62
7
  6
CONTINUOUS
 10
14.2487930473
 20
-64.6561842011
 11
14.2487224926
 21
-65.9979093086
  0
LINE
  5
47C
100
AcDbEntity
  8
0
100
AcDbLine
 62
7
  6
CONTINUOUS
 10
14.2699469359
 20
-65.985654581
 11
14.2700162428
 21
-64.6676588137
  0
LWPOLYLINE
  5
47D
100
AcDbEntity
  8
0
100
AcDbPolyline
 62
7
  6
CONTINUOUS
 90
5
 70
0
 10
8.3728383165
 20
-72.6891089434
 10
8.4003248335
 20
-72.5973887752
 10
8.4348682723
 20
-72.5125816017
 10
8.4762579904
 20
-72.4351935409
 10
8.5091628798
 20
-72.3875324965
  0
LINE
  5
47E
100
AcDbEntity
  8
0
100
AcDbLine
 62
7
  6
CONTINUOUS
 10
10.6451932286
 20
-63.9990850688
 11
11.077918187
 21
-62.7021949461
  0
LINE
  5
47F
100
AcDbEntity
  8
0
100
AcDbLine
 62
7
  6
CONTINUOUS
 10
11.4442018033
 20
-63.7685302768
 11
11.2520768775
 21
-64.3427628295
  0
LWPOLYLINE
  5
480
100
AcDbEntity
  8
0
100
AcDbPolyline
 62
7
  6
CONTINUOUS
 90
3
 70
0
 10
11.077918187
 20
-62.7021949461
 10
11.5119666108
 20
-61.4044861667
 10
11.6206854804
 20
-61.0799311542
  0
LINE
  5
481
100
AcDbEntity
  8
0
100
AcDbLine
 62
7
  6
CONTINUOUS
 10
11.2732915625
 20
-64.3305137363
 11
11.4586069368
 21
-63.776625667
  0
LINE
  5
482
100
AcDbEntity
  8
0
100
AcDbLine
 62
7
  6
CONTINUOUS
 10
11.9258687389
 20
-62.3315564684
 11
11.6300723351
 21
-63.2136024084
  0
LINE
  5
483
100
AcDbEntity
  8
0
100
AcDbLine
 62
7
  6
CONTINUOUS
 10
11.6512877546
 20
-63.201352891
 11
11.9330719713
 21
-62.3610615773
  0
LWPOLYLINE
  5
484
100
AcDbEntity
  8
SUPERFICI
100
AcDbPolyline
 62
250
  6
CONTINUOUS
 90
6
 70
0
 10
2.2966170738
 20
-88.1313168221
 10
2.4102771654
 20
-87.8362753306
 10
2.5205396425
 20
-87.5395441264
 10
2.6264019646
 20
-87.238938373
 10
2.7257007675
 20
-86.9346564698
 10
2.8160807569
 20
-86.6275961776
  0
LWPOLYLINE
  5
485
100
AcDbEntity
  8
0
100
AcDbPolyline
 62
250
  6
CONTINUOUS
 90
16
 70
0
 10
9.9441179413
 20
-52.7517457202
 10
9.9072792358
 20
-52.7755950314
 10
9.8710967754
 20
-52.8034264232
 10
9.8358157799
 20
-52.8350230235
 10
9.8016721348
 20
-52.8701783698
 10
9.7689692832
 20
-52.9085896332
 10
9.7381127864
 20
-52.9497763829
 10
9.7094821759
 20
-52.9932751067
 10
9.6834534681
 20
-53.0386207294
 10
9.6603477076
 20
-53.0852540455
 10
9.6403763552
 20
-53.1326168831
 10
9.6237479432
 20
-53.1801483667
 10
9.6106724678
 20
-53.2272562371
 10
9.6012577994
 20
-53.2735264609
 10
9.5955625952
 20
-53.3186523573
 10
9.5936498438
 20
-53.3623137448
  0
LWPOLYLINE
  5
486
100
AcDbEntity
  8
SMUSSO
100
AcDbPolyline
 62
7
  6
CONTINUOUS
 90
4
 70
0
 10
14.9722092551
 20
-49.5345299748
 10
14.8918059628
 20
-49.5820007836
 10
14.7742688398
 20
-49.658871166
 10
14.7063259805
 20
-49.7092761738
  0
LINE
  5
487
100
AcDbEntity
  8
0
100
AcDbLine
 62
7
  6
CONTINUOUS
 10
3.3333676791
 20
-56.1197235995
 11
3.3121326827
 21
-56.1319844203
  0
LINE
  5
488
100
AcDbEntity
  8
0
100
AcDbLine
 62
7
  6
CONTINUOUS
 10
3.9084655174
 20
-56.481770419
 11
3.8872344236
 21
-56.4940289865
  0
LWPOLYLINE
  5
489
100
AcDbEntity
  8
RACCORDO
100
AcDbPolyline
 62
250
  6
CONTINUOUS
 90
61
 70
0
 10
14.6494633334
 20
-47.1645316524
 10
14.7227537737
 20
-47.1227692568
 10
14.8028627175
 20
-47.0808534234
 10
14.8897901649
 20
-47.0387841523
 10
14.9832912814
 20
-46.9962198764
 10
15.0836109014
 20
-46.9535021628
 10
15.191483528
 20
-46.9116557126
 10
15.3070095614
 20
-46.8705949043
 10
15.4300886014
 20
-46.8304053596
 10
15.5611539499
 20
-46.7923686437
 10
15.700381868
 20
-46.756401961
 10
15.8475960947
 20
-46.7225881073
 10
16.0027011484
 20
-46.6924570354
 10
16.1659724111
 20
-46.6659481185
 10
16.3371345009
 20
-46.6431219834
 10
16.5152657901
 20
-46.6256904633
 10
16.7009790404
 20
-46.6136812908
 10
16.8936614902
 20
-46.6070667333
 10
17.0905532273
 20
-46.6074754257
 10
17.2925756822
 20
-46.6152503003
 10
17.4988074245
 20
-46.6300484248
 10
17.7037242504
 20
-46.6524696369
 10
17.9070612321
 20
-46.6829634442
 10
18.1090832975
 20
-46.7210803392
 10
18.3050610263
 20
-46.766071637
 10
18.4940311607
 20
-46.8179697767
 10
18.6769569585
 20
-46.8767423192
 10
18.851998772
 20
-46.9415432627
 10
19.0189789785
 20
-47.0123402867
 10
19.1780752007
 20
-47.0891657117
 10
19.3279806591
 20
-47.1712704971
 10
19.4687008792
 20
-47.2586593901
 10
19.6002303356
 20
-47.3513276435
 10
19.7212456726
 20
-47.4485119758
 10
19.8318048667
 20
-47.5503387779
 10
19.9318499415
 20
-47.6566816588
 10
20.019883612
 20
-47.7663981644
 10
20.095807882
 20
-47.880060733
 10
20.1597207477
 20
-47.9970969263
 10
20.2104189128
 20
-48.1146469748
 10
20.2470883735
 20
-48.2328085788
 10
20.2705431335
 20
-48.351484038
 10
20.2820219072
 20
-48.4675204827
 10
20.2809773205
 20
-48.5803441415
 10
20.2679567476
 20
-48.6905287859
 10
20.2458410247
 20
-48.7966428596
 10
20.2146130423
 20
-48.8983670452
 10
20.17428991
 20
-48.9960206601
 10
20.127803793
 20
-49.0891301011
 10
20.0752616989
 20
-49.1775494323
 10
20.0165566202
 20
-49.2614245895
 10
19.9542996999
 20
-49.3407197771
 10
19.888635961
 20
-49.4153350603
 10
19.8194203806
 20
-49.4853703739
 10
19.748829032
 20
-49.5510897264
 10
19.6770085274
 20
-49.6124387028
 10
19.6038122547
 20
-49.6694717182
 10
19.5309764508
 20
-49.7226160271
 10
19.4590798614
 20
-49.7720140474
 10
19.3875437409
 20
-49.8175233612
 10
19.3163680892
 20
-49.8591439684
  0
LWPOLYLINE
  5
48A
100
AcDbEntity
  8
RACCORDO
100
AcDbPolyline
 62
7
  6
CONTINUOUS
 90
37
 70
0
 10
15.003016724
 20
-47.7769040875
 10
15.1377055041
 20
-47.7041952785
 10
15.2790381226
 20
-47.6372159359
 10
15.4270145795
 20
-47.5759660595
 10
15.5823168418
 20
-47.5202328727
 10
15.7442629426
 20
-47.4702291523
 10
15.9108069805
 20
-47.4265932283
 10
16.0820173908
 20
-47.3894041735
 10
16.2578257382
 20
-47.3585829152
 10
16.4359808157
 20
-47.3345305657
 10
16.6165099264
 20
-47.3173352105
 10
16.7993857673
 20
-47.3069087641
 10
16.9822752214
 20
-47.3033880834
 10
17.1651808921
 20
-47.3068621782
 10
17.3481001761
 20
-47.3172420386
 10
17.5286921469
 20
-47.3343974912
 10
17.7069272974
 20
-47.3584164613
 10
17.8828351348
 20
-47.3892110235
 10
18.0541632536
 20
-47.4263872279
 10
18.2208502701
 20
-47.4700268338
 10
18.3829575681
 20
-47.5200480819
 10
18.5384168944
 20
-47.5758117451
 10
18.6871425374
 20
-47.6373910492
 10
18.8292202086
 20
-47.7047127684
 10
18.9628387893
 20
-47.7769179973
 10
19.0878900204
 20
-47.8540688529
 10
19.2044821609
 20
-47.9361032182
 10
19.3111288685
 20
-48.0219758374
 10
19.4077037045
 20
-48.1117363361
 10
19.4943331077
 20
-48.2053350887
 10
19.5699100522
 20
-48.3015779627
 10
19.6342929518
 20
-48.4005006262
 10
19.6876233929
 20
-48.502067411
 10
19.7292191079
 20
-48.6049771798
 10
19.758927631
 20
-48.7092466387
 10
19.776901428
 20
-48.8148590816
 10
19.7829157113
 20
-48.9200704381
  0
LWPOLYLINE
  5
48B
100
AcDbEntity
  8
0
100
AcDbPolyline
 62
250
  6
CONTINUOUS
 90
9
 70
0
 10
24.0217134813
 20
-44.623518489
 10
24.058552246
 20
-44.6048273524
 10
24.0947347564
 20
-44.590876117
 10
24.1300157955
 20
-44.581731083
 10
24.1641594843
 20
-44.5774581785
 10
24.1968623783
 20
-44.578104984
 10
24.2277189061
 20
-44.5836594068
 10
24.2563495361
 20
-44.594096208
 10
24.2686619751
 20
-44.6005264133
  0
LWPOLYLINE
  5
48C
100
AcDbEntity
  8
SMUSSO
100
AcDbPolyline
 62
7
  6
CONTINUOUS
 90
3
 70
0
 10
14.9930007097
 20
-49.5516961068
 10
14.8284526477
 20
-49.625644758
 10
14.8130424446
 20
-49.6335128643
  0
LWPOLYLINE
  5
48D
100
AcDbEntity
  8
RACCORDO
100
AcDbPolyline
 62
250
  6
CONTINUOUS
 90
21
 70
0
 10
15.5306883623
 20
-50.1080559225
 10
15.6397697313
 20
-50.0707550664
 10
15.806170295
 20
-50.0195303743
 10
15.9771166433
 20
-49.9723572238
 10
16.1509566283
 20
-49.9297225672
 10
16.3277232614
 20
-49.8916651373
 10
16.5073835312
 20
-49.8581462014
 10
16.6881862547
 20
-49.8295365144
 10
16.8701697249
 20
-49.805879126
 10
17.0532956489
 20
-49.7871309864
 10
17.2356979651
 20
-49.7735337011
 10
17.4173931793
 20
-49.7651407596
 10
17.5983647857
 20
-49.7618986723
 10
17.7766972065
 20
-49.7638885756
 10
17.9523648417
 20
-49.7711685524
 10
18.1253932913
 20
-49.7836805197
 10
18.2939437768
 20
-49.8013313658
 10
18.4579861267
 20
-49.8241830371
 10
18.6175505125
 20
-49.8521735872
 10
18.7708886703
 20
-49.8850240649
 10
18.9053297374
 20
-49.9195381903
  0
LWPOLYLINE
  5
48E
100
AcDbEntity
  8
RACCORDO
100
AcDbPolyline
 62
250
  6
CONTINUOUS
 90
16
 70
0
 10
16.0916635174
 20
-50.2473730032
 10
16.217354329
 20
-50.2157377913
 10
16.3815928397
 20
-50.1791736332
 10
16.5480025368
 20
-50.1468018956
 10
16.7160805389
 20
-50.1188266173
 10
16.8852845349
 20
-50.0952922089
 10
17.0550332456
 20
-50.0762536755
 10
17.2247556725
 20
-50.0619078614
 10
17.3938913945
 20
-50.0522443454
 10
17.5618519237
 20
-50.0472588579
 10
17.7280223749
 20
-50.0471244191
 10
17.8918292436
 20
-50.0517706836
 10
18.0527118457
 20
-50.0611279356
 10
18.2100843095
 20
-50.0753341748
 10
18.363413221
 20
-50.0942635841
 10
18.4399952431
 20
-50.1063734489
  0
LWPOLYLINE
  5
48F
100
AcDbEntity
  8
RACCORDO
100
AcDbPolyline
 62
250
  6
CONTINUOUS
 90
34
 70
0
 10
26.27025102
 20
-51.9436992153
 10
26.351942174
 20
-51.9454710646
 10
26.4359869429
 20
-51.9487812678
 10
26.5223853268
 20
-51.953629825
 10
26.6110406472
 20
-51.9598610874
 10
26.7020495826
 20
-51.9676307038
 10
26.7957021683
 20
-51.9774056202
 10
26.8920813571
 20
-51.9891392356
 10
26.9911041962
 20
-52.0028781511
 10
27.0928118626
 20
-52.0192291159
 10
27.1973141065
 20
-52.0381462929
 10
27.3045011776
 20
-52.0596755193
 10
27.4140850026
 20
-52.0845610557
 10
27.5262222004
 20
-52.1127655128
 10
27.640756152
 20
-52.1443262799
 10
27.7569289264
 20
-52.1800997851
 10
27.8749412495
 20
-52.2200639682
 10
27.9945923953
 20
-52.2642408894
 10
28.114522255
 20
-52.3135531569
 10
28.2350250903
 20
-52.3680391428
 10
28.3558066395
 20
-52.427660475
 10
28.4746240086
 20
-52.4932246462
 10
28.59190794
 20
-52.56499806
 10
28.7072276913
 20
-52.6427143127
 10
28.8170481414
 20
-52.726381686
 10
28.9215012527
 20
-52.8164505936
 10
29.0204550629
 20
-52.9124706217
 10
29.1099785634
 20
-53.0130988102
 10
29.1896221942
 20
-53.1185325777
 10
29.2598355154
 20
-53.2285745057
 10
29.3180361985
 20
-53.341289378
 10
29.3637239066
 20
-53.4566654897
 10
29.3973989766
 20
-53.5747145456
 10
29.417980091
 20
-53.6935364444
  0
LWPOLYLINE
  5
490
100
AcDbEntity
  8
RACCORDO
100
AcDbPolyline
 62
7
  6
CONTINUOUS
 90
24
 70
0
 10
26.2556437657
 20
-52.6405048627
 10
26.4419288149
 20
-52.6473874921
 10
26.6253681968
 20
-52.6612673717
 10
26.8059619114
 20
-52.6821445015
 10
26.9845008259
 20
-52.7101750331
 10
27.160194073
 20
-52.7452028149
 10
27.3306690511
 20
-52.7867593923
 10
27.4958589507
 20
-52.8349344795
 10
27.6558305812
 20
-52.8896383623
 10
27.8084117693
 20
-52.9501334431
 10
27.953498417
 20
-53.0164959238
 10
28.0911946222
 20
-53.0886496024
 10
28.2196405053
 20
-53.1656282758
 10
28.3387175779
 20
-53.2475021696
 10
28.4485443284
 20
-53.3342010581
 10
28.5476163425
 20
-53.4245480606
 10
28.6357840583
 20
-53.5185928529
 10
28.7131970378
 20
-53.6162857592
 10
28.7787995527
 20
-53.7163008716
 10
28.8324293243
 20
-53.8186696055
 10
28.8742486313
 20
-53.9233605455
 10
28.9036885818
 20
-54.0289535366
 10
28.920579918
 20
-54.1354607439
 10
28.9253038583
 20
-54.227518642
  0
LWPOLYLINE
  5
491
100
AcDbEntity
  8
SMUSSO
100
AcDbPolyline
 62
7
  6
CONTINUOUS
 90
7
 70
0
 10
26.9959393969
 20
-53.5990075654
 10
26.8794016033
 20
-53.5830627181
 10
26.7618379383
 20
-53.5695878374
 10
26.6432484019
 20
-53.5585829232
 10
26.5236329942
 20
-53.5500479755
 10
26.402991715
 20
-53.5439829945
 10
26.2813245645
 20
-53.5403879799
  0
LWPOLYLINE
  5
492
100
AcDbEntity
  8
RACCORDO
100
AcDbPolyline
 62
250
  6
CONTINUOUS
 90
20
 70
0
 10
24.5968936539
 20
-50.9509401055
 10
24.7546541029
 20
-50.9866586437
 10
24.9036620887
 20
-51.0270894411
 10
25.0448812327
 20
-51.0721642464
 10
25.1772472872
 20
-51.1199973203
 10
25.3002737236
 20
-51.1704772916
 10
25.4144470704
 20
-51.2237155315
 10
25.520162665
 20
-51.2781604143
 10
25.6172432328
 20
-51.3337021144
 10
25.7058660484
 20
-51.3904504574
 10
25.7869582731
 20
-51.4471832943
 10
25.8604324053
 20
-51.503791932
 10
25.9263759465
 20
-51.5603850635
 10
25.9859785627
 20
-51.6160666184
 10
26.0392189848
 20
-51.6707442413
 10
26.0861184817
 20
-51.7245102875
 10
26.1279305264
 20
-51.7767457521
 10
26.165072943
 20
-51.8272443
 10
26.1971279073
 20
-51.8762122664
 10
26.2240954193
 20
-51.9236496511
  0
LWPOLYLINE
  5
493
100
AcDbEntity
  8
RACCORDO
100
AcDbPolyline
 62
250
  6
CONTINUOUS
 90
20
 70
0
 10
9.3689377687
 20
-46.0727355154
 10
9.2111773197
 20
-46.0370169771
 10
9.0621693339
 20
-45.9965861797
 10
8.9209501898
 20
-45.9515113744
 10
8.7885841354
 20
-45.9036783006
 10
8.665557699
 20
-45.8531983293
 10
8.5513843522
 20
-45.7999600894
 10
8.4456687576
 20
-45.7455152066
 10
8.3485881898
 20
-45.6899735064
 10
8.2599653742
 20
-45.6332251634
 10
8.1788731495
 20
-45.5764923266
 10
8.1053990173
 20
-45.5198836888
 10
8.0394554761
 20
-45.4632905573
 10
7.9798528599
 20
-45.4076090025
 10
7.9266124378
 20
-45.3529313796
 10
7.8797129409
 20
-45.2991653334
 10
7.8379008962
 20
-45.2469298688
 10
7.8007584796
 20
-45.1964313208
 10
7.7687035153
 20
-45.1474633544
 10
7.7417360033
 20
-45.1000259697
  0
LWPOLYLINE
  5
494
100
AcDbEntity
  8
SMUSSO
100
AcDbPolyline
 62
7
  6
CONTINUOUS
 90
10
 70
0
 10
25.974749796
 20
-53.4511090127
 10
26.0076177123
 20
-53.459289512
 10
26.0407666574
 20
-53.4679017122
 10
26.074204978
 20
-53.476948963
 10
26.1079467094
 20
-53.4864435673
 10
26.1419975113
 20
-53.4963820788
 10
26.1763524942
 20
-53.5067444323
 10
26.2110160579
 20
-53.5175272393
 10
26.2460041428
 20
-53.5287446384
 10
26.2813286008
 20
-53.5404029911
  0
LWPOLYLINE
  5
495
100
AcDbEntity
  8
SMUSSO
100
AcDbPolyline
 62
7
  6
CONTINUOUS
 90
19
 70
0
 10
25.2527465307
 20
-52.7386922554
 10
25.1047791536
 20
-52.6831341063
 10
24.9515999034
 20
-52.6334167807
 10
24.7931581506
 20
-52.5896129331
 10
24.6295045247
 20
-52.5516499089
 10
24.4626488814
 20
-52.5199878666
 10
24.2925413801
 20
-52.4946999223
 10
24.1192318614
 20
-52.4757129599
 10
23.9448797035
 20
-52.4632677891
 10
23.7694603877
 20
-52.4574469853
 10
23.5929984326
 20
-52.4581679731
 10
23.4177267719
 20
-52.4654238361
 10
23.2436685994
 20
-52.4792977729
 10
23.0708007212
 20
-52.4997065848
 10
22.9012864898
 20
-52.5263937587
 10
22.7351667401
 20
-52.5594385276
 10
22.5724006372
 20
-52.5987616585
 10
22.4150290279
 20
-52.6438689394
 10
22.2631226076
 20
-52.6948317757
  0
LWPOLYLINE
  5
496
100
AcDbEntity
  8
SUPERFICI
100
AcDbPolyline
 62
250
  6
CONTINUOUS
 90
10
 70
0
 10
-2.3843274148
 20
-44.0494946962
 10
-2.4260994369
 20
-44.0334640601
 10
-2.4673605108
 20
-44.0220995427
 10
-2.5076557853
 20
-44.0155226574
 10
-2.5465384253
 20
-44.0138017722
 10
-2.5835844212
 20
-44.0169509946
 10
-2.6183955994
 20
-44.0249341228
 10
-2.6505899589
 20
-44.0376624147
 10
-2.6798102937
 20
-44.0549963723
 10
-2.6853254578
 20
-44.0613795743
  0
LWPOLYLINE
  5
497
100
AcDbEntity
  8
SMUSSO
100
AcDbPolyline
 62
7
  6
CONTINUOUS
 90
22
 70
0
 10
19.0676018698
 20
-49.5928617051
 10
18.9045547926
 20
-49.5236186283
 10
18.7323049235
 20
-49.4592429561
 10
18.5516179338
 20
-49.4001522712
 10
18.3647908373
 20
-49.3475993221
 10
18.1716044133
 20
-49.3017466662
 10
17.9722778826
 20
-49.262431746
 10
17.7697659216
 20
-49.2304196381
 10
17.5640365298
 20
-49.2058992509
 10
17.3551217077
 20
-49.188681676
 10
17.1460721341
 20
-49.178965265
 10
16.9371630057
 20
-49.1768806097
 10
16.7281191256
 20
-49.1822971183
 10
16.5211655818
 20
-49.195021367
 10
16.3164243951
 20
-49.215085681
 10
16.1137735446
 20
-49.242457735
 10
15.9150720559
 20
-49.2768471296
 10
15.7202383127
 20
-49.3183171427
 10
15.5293539313
 20
-49.3668044964
 10
15.3445227866
 20
-49.421828958
 10
15.1657351298
 20
-49.4834939784
 10
14.9930007097
 20
-49.5516961068
  0
LWPOLYLINE
  5
498
100
AcDbEntity
  8
RACCORDO
100
AcDbPolyline
 62
250
  6
CONTINUOUS
 90
31
 70
0
 10
24.0770720836
 20
-55.3788976805
 10
24.1708810534
 20
-55.4197295127
 10
24.2711933957
 20
-55.4599073867
 10
24.3780505659
 20
-55.4995268566
 10
24.4914111086
 20
-55.5384923683
 10
24.6120660874
 20
-55.5758999452
 10
24.740111459
 20
-55.6118560824
 10
24.8754512667
 20
-55.6462542847
 10
25.0185887042
 20
-55.6778710897
 10
25.1697083153
 20
-55.7068167575
 10
25.3286255563
 20
-55.732981028
 10
25.4952899897
 20
-55.7548096589
 10
25.6703277283
 20
-55.7723676078
 10
25.8531126592
 20
-55.7855899172
 10
26.0417160075
 20
-55.7927274724
 10
26.2370789278
 20
-55.7935620114
 10
26.4382602653
 20
-55.7883117963
 10
26.6405077808
 20
-55.7758824985
 10
26.8436958561
 20
-55.7559024784
 10
27.0479501094
 20
-55.7287433757
 10
27.2488951563
 20
-55.6944257807
 10
27.4460386307
 20
-55.6527602287
 10
27.6398728987
 20
-55.6039361844
 10
27.8274996746
 20
-55.5485426325
 10
28.0086600687
 20
-55.4864945564
 10
28.1836129705
 20
-55.4178769727
 10
28.3502367629
 20
-55.3435339159
 10
28.5083324593
 20
-55.2634551692
 10
28.6580990462
 20
-55.1776509494
 10
28.7980118655
 20
-55.0869959417
 10
28.9280507258
 20
-54.9913818372
  0
LWPOLYLINE
  5
499
100
AcDbEntity
  8
SMUSSO
100
AcDbPolyline
 62
7
  6
CONTINUOUS
 90
4
 70
0
 10
9.8007032844
 20
-44.2695659093
 10
9.9256866244
 20
-44.3262997815
 10
10.0452306206
 20
-44.3861955101
 10
10.1593352728
 20
-44.4492530952
  0
LINE
  5
49A
100
AcDbEntity
  8
RACCORDO
100
AcDbLine
 62
250
  6
CONTINUOUS
 10
23.9888510561
 20
-55.3380292049
 11
24.0770720836
 21
-55.3788976805
  0
LINE
  5
49B
100
AcDbEntity
  8
SMUSSO
100
AcDbLine
 62
7
  6
CONTINUOUS
 10
19.1560758218
 20
-49.6355096207
 11
19.0676018698
 21
-49.5928617051
  0
LWPOLYLINE
  5
49C
100
AcDbEntity
  8
SMUSSO
100
AcDbPolyline
 62
7
  6
CONTINUOUS
 90
3
 70
0
 10
25.4061173229
 20
-52.8055648865
 10
25.3936440675
 20
-52.799413106
 10
25.2527465307
 20
-52.7386922554
  0
LWPOLYLINE
  5
49D
100
AcDbEntity
  8
0
100
AcDbPolyline
 62
7
  6
CONTINUOUS
 90
10
 70
0
 10
25.218833078
 20
-54.9429147789
 10
25.1106662597
 20
-54.8846941766
 10
24.9969480252
 20
-54.8312904336
 10
24.8776783745
 20
-54.7827035499
 10
24.7521860678
 20
-54.738737393
 10
24.6211423449
 20
-54.6995880954
 10
24.4865609249
 20
-54.6658440542
 10
24.3491130478
 20
-54.6377014017
 10
24.2081274737
 20
-54.6149640057
 10
24.0636042026
 20
-54.597631866
  0
LWPOLYLINE
  5
49E
100
AcDbEntity
  8
SMUSSO
100
AcDbPolyline
 62
7
  6
CONTINUOUS
 90
27
 70
0
 10
18.9936221927
 20
-49.5345336353
 10
18.8879331986
 20
-49.4775523402
 10
18.7562747487
 20
-49.4140288063
 10
18.6170737401
 20
-49.3546745315
 10
18.4705004016
 20
-49.2997608357
 10
18.3171182377
 20
-49.249699669
 10
18.1579476939
 20
-49.2049767623
 10
17.9935036962
 20
-49.1658437804
 10
17.824381769
 20
-49.1325334055
 10
17.6518737717
 20
-49.1053470084
 10
17.4766932338
 20
-49.0844043856
 10
17.2994682608
 20
-49.0697955663
 10
17.1214390208
 20
-49.0616104121
 10
16.9435316225
 20
-49.0598348401
 10
16.7662030253
 20
-49.0644130122
 10
16.5899937621
 20
-49.0752903597
 10
16.4156499256
 20
-49.0923844264
 10
16.2437437382
 20
-49.1156036616
 10
16.0745536446
 20
-49.1448990336
 10
15.9086364139
 20
-49.1801890153
 10
15.746720508
 20
-49.2213341427
 10
15.5893479053
 20
-49.268212409
 10
15.4370709004
 20
-49.3206851566
 10
15.2905548742
 20
-49.378549967
 10
15.1504796058
 20
-49.4415534115
 10
15.0173938819
 20
-49.5094547933
 10
14.9722092551
 20
-49.5345299748
  0
LWPOLYLINE
  5
49F
100
AcDbEntity
  8
DRAFT
100
AcDbPolyline
 62
7
  6
CONTINUOUS
 90
23
 70
0
 10
9.7867548391
 20
-44.6663394083
 10
9.63703715
 20
-44.5855953618
 10
9.4798853732
 20
-44.5113111297
 10
9.3152995085
 20
-44.4434867121
 10
9.1424973898
 20
-44.3818825028
 10
8.9622611834
 20
-44.326738108
 10
8.7769373879
 20
-44.2787723462
 10
8.5864535273
 20
-44.2380780878
 10
8.3908820776
 20
-44.2045624625
 10
8.1927869659
 20
-44.1786656772
 10
7.992138554
 20
-44.1604886458
 10
7.7889664801
 20
-44.1499304545
 10
7.5859235859
 20
-44.1471285693
 10
7.3830115613
 20
-44.1521844445
 10
7.1802287163
 20
-44.1649966257
 10
6.9802228237
 20
-44.1853982165
 10
6.7830268773
 20
-44.2134897826
 10
6.5886078832
 20
-44.2491707581
 10
6.3995146327
 20
-44.2919725485
 10
6.2158226816
 20
-44.3419872023
 10
6.0374564741
 20
-44.3991226711
 10
5.8667381335
 20
-44.4626342145
 10
5.7526748962
 20
-44.5115773244
  0
LWPOLYLINE
  5
4A0
100
AcDbEntity
  8
SMUSSO
100
AcDbPolyline
 62
7
  6
CONTINUOUS
 90
26
 70
0
 10
25.2482849144
 20
-52.7054320005
 10
25.1922533347
 20
-52.6747432932
 10
25.0832117659
 20
-52.6207363703
 10
24.9683943584
 20
-52.5709666677
 10
24.8482589883
 20
-52.5256230267
 10
24.7233065523
 20
-52.4848891388
 10
24.5940759744
 20
-52.4489357698
 10
24.4611074137
 20
-52.4179084433
 10
24.3249254534
 20
-52.3919279298
 10
24.1860938579
 20
-52.3711031664
 10
24.0452075051
 20
-52.3555247422
 10
23.9028512344
 20
-52.3452586002
 10
23.7596158301
 20
-52.3403496614
 10
23.6161149085
 20
-52.3408212579
 10
23.4729731807
 20
-52.3466720363
 10
23.3308018259
 20
-52.3578762428
 10
23.1901936682
 20
-52.3743863808
 10
23.0517397704
 20
-52.3961328022
 10
22.9160229262
 20
-52.4230239457
 10
22.7836173416
 20
-52.4549460124
 10
22.6550837939
 20
-52.4917635388
 10
22.5309670735
 20
-52.533319856
 10
22.4117877049
 20
-52.5794400441
 10
22.2980427054
 20
-52.6299317938
 10
22.1902089499
 20
-52.6845842926
 10
22.1525753508
 20
-52.7054320005
  0
LWPOLYLINE
  5
4A1
100
AcDbEntity
  8
SMUSSO
100
AcDbPolyline
 62
7
  6
CONTINUOUS
 90
9
 70
0
 10
11.8132560718
 20
-44.9482147272
 10
11.7937304072
 20
-44.9372752413
 10
11.6868561717
 20
-44.8818664487
 10
11.5740400778
 20
-44.8306157387
 10
11.4557580966
 20
-44.7837273442
 10
11.3325880955
 20
-44.7414131146
 10
11.2050883661
 20
-44.7038423863
 10
11.0737853388
 20
-44.6711497635
 10
10.9392411331
 20
-44.6434563962
  0
LWPOLYLINE
  5
4A2
100
AcDbEntity
  8
RACCORDO
100
AcDbPolyline
 62
250
  6
CONTINUOUS
 90
4
 70
0
 10
23.7568001964
 20
-55.215821232
 10
23.8285625407
 20
-55.2565938664
 10
23.9059128273
 20
-55.2973298574
 10
23.9888510561
 20
-55.3380292049
  0
LINE
  5
4A3
100
AcDbEntity
  8
SMUSSO
100
AcDbLine
 62
7
  6
CONTINUOUS
 10
19.0117459754
 20
-49.5449019348
 11
18.9936221927
 21
-49.5345336353
  0
LINE
  5
4A4
100
AcDbEntity
  8
0
100
AcDbLine
 62
7
  6
CONTINUOUS
 10
2.9177955758
 20
-40.4965923462
 11
3.8310314264
 21
-41.0229718406
  0
LINE
  5
4A5
100
AcDbEntity
  8
RACCORDO
100
AcDbLine
 62
250
  6
CONTINUOUS
 10
5.3720238856
 20
-44.6006818054
 11
23.7568001964
 21
-55.215821232
  0
LINE
  5
4A6
100
AcDbEntity
  8
0
100
AcDbLine
 62
7
  6
CONTINUOUS
 10
24.0636042026
 20
-54.597631866
 11
25.7792509512
 21
-55.5882247965
  0
LINE
  5
4A7
100
AcDbEntity
  8
0
100
AcDbLine
 62
7
  6
CONTINUOUS
 10
26.3579802479
 20
-55.6006440779
 11
25.218833078
 21
-54.9429147789
  0
LINE
  5
4A8
100
AcDbEntity
  8
DRAFT
100
AcDbLine
 62
7
  6
CONTINUOUS
 10
11.7150239099
 20
-45.7796978029
 11
9.7867548391
 21
-44.6663394083
  0
LINE
  5
4A9
100
AcDbEntity
  8
SMUSSO
100
AcDbLine
 62
7
  6
CONTINUOUS
 10
9.8057818823
 20
-44.2451552535
 11
12.0832643483
 21
-45.5601450858
  0
LINE
  5
4AA
100
AcDbEntity
  8
SMUSSO
100
AcDbLine
 62
7
  6
CONTINUOUS
 10
24.0523378114
 20
-52.4709380957
 11
28.1905581931
 21
-54.86029468
  0
LINE
  5
4AB
100
AcDbEntity
  8
0
100
AcDbLine
 62
7
  6
CONTINUOUS
 10
30.1347999962
 20
-56.2104381492
 11
31.0480359168
 21
-56.7386341669
  0
LWPOLYLINE
  5
4AC
100
AcDbEntity
  8
SMUSSO
100
AcDbPolyline
 62
7
  6
CONTINUOUS
 90
13
 70
0
 10
9.7588380161
 20
-43.2720932352
 10
9.8048642229
 20
-43.298812972
 10
9.9322030071
 20
-43.3797665084
 10
10.0498018407
 20
-43.4654901817
 10
10.157126227
 20
-43.5555939758
 10
10.2536885872
 20
-43.6496681134
 10
10.3390493765
 20
-43.7472836851
 10
10.4128210341
 20
-43.8479964049
 10
10.4746691192
 20
-43.9513484202
 10
10.524313102
 20
-44.0568693436
 10
10.5615281929
 20
-44.1640792039
 10
10.5861462025
 20
-44.2724906526
 10
10.5980561683
 20
-44.3816108221
  0
LWPOLYLINE
  5
4AD
100
AcDbEntity
  8
SMUSSO
100
AcDbPolyline
 62
7
  6
CONTINUOUS
 90
3
 70
0
 10
28.1905581931
 20
-54.86029468
 10
28.3180195573
 20
-54.9388334107
 10
28.4083684753
 20
-55.002374862
  0
LWPOLYLINE
  5
4AE
100
AcDbEntity
  8
0
100
AcDbPolyline
 62
7
  6
CONTINUOUS
 90
16
 70
0
 10
31.0480359168
 20
-56.7386341669
 10
31.0882053142
 20
-56.7651195156
 10
31.1265540051
 20
-56.7945611557
 10
31.1630819896
 20
-56.8269590871
 10
31.1979394115
 20
-56.8625410296
 10
31.230976127
 20
-56.9010792636
 10
31.2617417045
 20
-56.9418906297
 10
31.2903738719
 20
-56.9852717527
 10
31.3167349012
 20
-57.0309260079
 10
31.3399611773
 20
-57.0772803619
 10
31.3599192573
 20
-57.1243076154
 10
31.376742584
 20
-57.1720349678
 10
31.3899678705
 20
-57.2189709841
 10
31.399440688
 20
-57.2646185192
 10
31.4053154652
 20
-57.3094747183
 10
31.4075922024
 20
-57.3535395812
  0
LWPOLYLINE
  5
4AF
100
AcDbEntity
  8
RACCORDO
100
AcDbPolyline
 62
7
  6
CONTINUOUS
 90
19
 70
0
 10
26.4556163768
 20
-54.9031111703
 10
26.4215860227
 20
-54.8798651937
 10
26.3853502246
 20
-54.8587864168
 10
26.3469089825
 20
-54.8398748397
 10
26.3057617006
 20
-54.8229691438
 10
26.2624089746
 20
-54.8082306478
 10
26.2183525922
 20
-54.7961433067
 10
26.1738122314
 20
-54.7868506739
 10
26.128568214
 20
-54.7802091961
 10
26.0834632936
 20
-54.7762721686
 10
26.0384180646
 20
-54.7750655164
 10
25.9935119325
 20
-54.7765633145
 10
25.9498258671
 20
-54.7807410828
 10
25.9073017499
 20
-54.7877170571
 10
25.8659976994
 20
-54.7973730017
 10
25.8271690406
 20
-54.809329729
 10
25.7912342152
 20
-54.8234608431
 10
25.7577747814
 20
-54.83989274
 10
25.7267907392
 20
-54.8586254196
  0
LINE
  5
4B0
100
AcDbEntity
  8
RACCORDO
100
AcDbLine
 62
7
  6
CONTINUOUS
 10
26.4556163768
 20
-54.9031111703
 11
27.2447269378
 21
-55.4880647357
  0
LINE
  5
4B1
100
AcDbEntity
  8
RACCORDO
100
AcDbLine
 62
7
  6
CONTINUOUS
 10
24.6671579535
 20
-54.7133352533
 11
23.5953810116
 21
-53.8852023557
  0
LWPOLYLINE
  5
4B2
100
AcDbEntity
  8
RACCORDO
100
AcDbPolyline
 62
7
  6
CONTINUOUS
 90
5
 70
0
 10
8.1690569386
 20
-43.8956400392
 10
8.1875943965
 20
-43.9100971001
 10
8.2357735269
 20
-43.9413658793
 10
8.2885749283
 20
-43.9700759895
 10
8.34557339
 20
-43.9960608176
  0
LWPOLYLINE
  5
4B3
100
AcDbEntity
  8
RACCORDO
100
AcDbPolyline
 62
250
  6
CONTINUOUS
 90
5
 70
0
 10
8.1072012432
 20
-43.8924329447
 10
8.1286252238
 20
-43.909162397
 10
8.1818940952
 20
-43.9440097115
 10
8.2404768538
 20
-43.9760888907
 10
8.3041997634
 20
-44.0054328665
  0
LWPOLYLINE
  5
4B4
100
AcDbEntity
  8
SMUSSO
100
AcDbPolyline
 62
7
  6
CONTINUOUS
 90
4
 70
0
 10
19.26007188
 20
-49.7093306536
 10
19.238150894
 20
-49.6921999338
 10
19.1282497609
 20
-49.6162898008
 10
19.0117459754
 20
-49.5449019348
  0
LWPOLYLINE
  5
4B5
100
AcDbEntity
  8
RACCORDO
100
AcDbPolyline
 62
7
  6
CONTINUOUS
 90
12
 70
0
 10
23.5953810116
 20
-53.8852023557
 10
23.5459817111
 20
-53.8445788087
 10
23.5007911067
 20
-53.8023925793
 10
23.4598091983
 20
-53.7586436674
 10
23.4228045615
 20
-53.7129790778
 10
23.3900086208
 20
-53.6657518058
 10
23.3621156492
 20
-53.6180208374
 10
23.3393233871
 20
-53.5699971533
 10
23.3214340941
 20
-53.5214697729
 10
23.3085488231
 20
-53.4728647399
 10
23.3007067741
 20
-53.4239600808
 10
23.2984211954
 20
-53.3948565574
  0
LWPOLYLINE
  5
4B6
100
AcDbEntity
  8
RACCORDO
100
AcDbPolyline
 62
7
  6
CONTINUOUS
 90
3
 70
0
 10
10.2026207571
 20
-42.8500376554
 10
10.2860517112
 20
-42.9454122368
 10
10.3580235791
 20
-43.0438411858
  0
LWPOLYLINE
  5
4B7
100
AcDbEntity
  8
SMUSSO
100
AcDbPolyline
 62
7
  6
CONTINUOUS
 90
8
 70
0
 10
12.2933341604
 20
-45.3535057948
 10
12.2852729471
 20
-45.3419887073
 10
12.2230042936
 20
-45.2673726058
 10
12.1524561798
 20
-45.1952267228
 10
12.0739243509
 20
-45.1258621816
 10
11.9877268507
 20
-45.0595681033
 10
11.8941907882
 20
-44.9966089005
 10
11.8132560718
 20
-44.9482147272
  0
LWPOLYLINE
  5
4B8
100
AcDbEntity
  8
RACCORDO
100
AcDbPolyline
 62
7
  6
CONTINUOUS
 90
6
 70
0
 10
10.3580235791
 20
-43.0438411858
 10
10.4186896161
 20
-43.1452842822
 10
10.4672369408
 20
-43.2483704208
 10
10.5033945928
 20
-43.3526425666
 10
10.5274335325
 20
-43.4585577546
 10
10.53935376
 20
-43.5661159848
  0
LWPOLYLINE
  5
4B9
100
AcDbEntity
  8
RACCORDO
100
AcDbPolyline
 62
7
  6
CONTINUOUS
 90
16
 70
0
 10
23.4260517287
 20
-54.2571866456
 10
23.4216622733
 20
-54.2112439646
 10
23.4130520644
 20
-54.165269418
 10
23.4001545648
 20
-54.1197420876
 10
23.3830236096
 20
-54.0752689694
 10
23.3617197842
 20
-54.0322417385
 10
23.3362011054
 20
-53.9908444707
 10
23.3064248958
 20
-53.9513544292
 10
23.2728204316
 20
-53.9145741482
 10
23.2361065243
 20
-53.8812641897
 10
23.1963640485
 20
-53.8514191515
 10
23.1543094059
 20
-53.825485545
 10
23.1116591136
 20
-53.8041399025
 10
23.0690905478
 20
-53.7871416393
 10
23.0262187975
 20
-53.7739036614
 10
22.9829077418
 20
-53.7641541644
  0
LWPOLYLINE
  5
4BA
100
AcDbEntity
  8
RACCORDO
100
AcDbPolyline
 62
7
  6
CONTINUOUS
 90
19
 70
0
 10
21.5504301326
 20
-52.7986815854
 10
21.5546557936
 20
-52.8556998837
 10
21.5675706802
 20
-52.9139514937
 10
21.5895040219
 20
-52.9736686937
 10
21.6204393626
 20
-53.0342733008
 10
21.6603188952
 20
-53.0954006598
 10
21.7095348395
 20
-53.1572071597
 10
21.7678423562
 20
-53.2188973654
 10
21.8347816494
 20
-53.2796841761
 10
21.9111701321
 20
-53.3399111112
 10
21.9972608315
 20
-53.3992042498
 10
22.0923470608
 20
-53.4565960447
 10
22.1964151262
 20
-53.5116868863
 10
22.3092905361
 20
-53.5639897335
 10
22.4303084652
 20
-53.6128500042
 10
22.5588236638
 20
-53.6577283896
 10
22.6942147835
 20
-53.6981706105
 10
22.8358264209
 20
-53.7337706293
 10
22.9829077418
 20
-53.7641541644
  0
LINE
  5
4BB
100
AcDbEntity
  8
RACCORDO
100
AcDbLine
 62
250
  6
CONTINUOUS
 10
23.3560666792
 20
-53.6052755546
 11
23.3363748358
 21
-53.1902836036
  0
LINE
  5
4BC
100
AcDbEntity
  8
DRAFT
100
AcDbLine
 62
7
  6
CONTINUOUS
 10
23.6801182973
 20
-53.9506765521
 11
23.6162595517
 21
-52.4580729329
  0
LWPOLYLINE
  5
4BD
100
AcDbEntity
  8
RACCORDO
100
AcDbPolyline
 62
7
  6
CONTINUOUS
 90
6
 70
0
 10
23.2984211954
 20
-53.3948565574
 10
23.297868747
 20
-53.3749777691
 10
23.3000181944
 20
-53.3270097691
 10
23.3071496004
 20
-53.2804200689
 10
23.3192684809
 20
-53.2348446804
 10
23.3363748358
 20
-53.1902836036
  0
LWPOLYLINE
  5
4BE
100
AcDbEntity
  8
0
100
AcDbPolyline
 62
7
  6
CONTINUOUS
 90
5
 70
0
 10
20.8956538301
 20
-85.4516347456
 10
20.8956641532
 20
-85.4529969744
 10
20.8955665664
 20
-85.454342302
 10
20.8954240301
 20
-85.4556931666
 10
20.8951165105
 20
-85.4584185924
  0
LWPOLYLINE
  5
4BF
100
AcDbEntity
  8
0
100
AcDbPolyline
 62
250
  6
CONTINUOUS
 90
4
 70
0
 10
20.9326755102
 20
-83.793307162
 10
20.9320700864
 20
-83.9021623205
 10
20.9309262017
 20
-84.0078326612
 10
20.9292471852
 20
-84.1102917231
  0
LINE
  5
4C0
100
AcDbEntity
  8
0
100
AcDbLine
 62
250
  6
CONTINUOUS
 10
20.9105197812
 20
-84.811849318
 11
20.9096114817
 21
-84.8862267434
  0
LINE
  5
4C1
100
AcDbEntity
  8
0
100
AcDbLine
 62
250
  6
CONTINUOUS
 10
20.8995982251
 20
-85.2591296741
 11
20.8960875784
 21
-85.4511262249
  0
LINE
  5
4C2
100
AcDbEntity
  8
0
100
AcDbLine
 62
250
  6
CONTINUOUS
 10
20.9136040814
 20
-84.6547149047
 11
20.9105197812
 21
-84.811849318
  0
LINE
  5
4C3
100
AcDbEntity
  8
0
100
AcDbLine
 62
250
  6
CONTINUOUS
 10
20.9025181719
 20
-85.1330929798
 11
20.8995982251
 21
-85.2591296741
  0
LINE
  5
4C4
100
AcDbEntity
  8
0
100
AcDbLine
 62
250
  6
CONTINUOUS
 10
20.9292471852
 20
-84.1102917231
 11
20.9268314589
 21
-84.209584154
  0
LWPOLYLINE
  5
4C5
100
AcDbEntity
  8
RACCORDO
100
AcDbPolyline
 62
7
  6
CONTINUOUS
 90
41
 70
0
 10
21.5504301559
 20
-52.7988644605
 10
21.5514837017
 20
-52.7598236356
 10
21.5619094031
 20
-52.6710511127
 10
21.5833755886
 20
-52.5824781711
 10
21.6155536379
 20
-52.4954624453
 10
21.6586085201
 20
-52.4100277463
 10
21.712375266
 20
-52.3261502631
 10
21.7760303485
 20
-52.2451161968
 10
21.8497264813
 20
-52.1669691192
 10
21.9333109507
 20
-52.0916654584
 10
22.0255020879
 20
-52.0203607002
 10
22.1264328155
 20
-51.9531165466
 10
22.2359702109
 20
-51.8898712956
 10
22.3524338384
 20
-51.8315953261
 10
22.4759305754
 20
-51.7783653751
 10
22.6063535444
 20
-51.7301047056
 10
22.7417016766
 20
-51.6875534852
 10
22.8820505132
 20
-51.6507998716
 10
23.027324513
 20
-51.6197557069
 10
23.1752959843
 20
-51.594896686
 10
23.3260063285
 20
-51.5763180831
 10
23.4794141442
 20
-51.5639246238
 10
23.6331675353
 20
-51.5579061798
 10
23.7872741355
 20
-51.5583614676
 10
23.9417263112
 20
-51.5651917707
 10
24.0941492649
 20
-51.5782908104
 10
24.2445113562
 20
-51.5977564279
 10
24.3928442256
 20
-51.623490782
 10
24.5368679969
 20
-51.6550940716
 10
24.6765097249
 20
-51.6926548583
 10
24.8118423548
 20
-51.7360845805
 10
24.9408048468
 20
-51.784717751
 10
25.0633049842
 20
-51.8386371478
 10
25.1794349836
 20
-51.897759993
 10
25.2874104554
 20
-51.9611724654
 10
25.3871002053
 20
-52.0289381866
 10
25.4786354276
 20
-52.1009935351
 10
25.5606253146
 20
-52.1762338249
 10
25.6326062641
 20
-52.2542908274
 10
25.6950418785
 20
-52.3355327714
 10
25.7479321577
 20
-52.4199596567
  0
LINE
  5
4C6
100
AcDbEntity
  8
0
100
AcDbLine
 62
250
  6
CONTINUOUS
 10
20.9060383937
 20
-85.0087267063
 11
20.9025181719
 21
-85.1330929798
  0
LINE
  5
4C7
100
AcDbEntity
  8
0
100
AcDbLine
 62
250
  6
CONTINUOUS
 10
20.9268314589
 20
-84.209584154
 11
20.9136040814
 21
-84.6547149047
  0
LINE
  5
4C8
100
AcDbEntity
  8
0
100
AcDbLine
 62
250
  6
CONTINUOUS
 10
20.8947386125
 20
-85.4643096379
 11
20.8789920366
 21
-86.0171620178
  0
LINE
  5
4C9
100
AcDbEntity
  8
0
100
AcDbLine
 62
250
  6
CONTINUOUS
 10
20.9101906841
 20
-84.8860596922
 11
20.9060383937
 21
-85.0087267063
  0
LWPOLYLINE
  5
4CA
100
AcDbEntity
  8
0
100
AcDbPolyline
 62
250
  6
CONTINUOUS
 90
3
 70
0
 10
20.8789920366
 20
-86.0171620178
 10
20.8727510541
 20
-86.1968228567
 10
20.8693134198
 20
-86.2856769942
  0
LINE
  5
4CB
100
AcDbEntity
  8
0
100
AcDbLine
 62
250
  6
CONTINUOUS
 10
20.8693134198
 20
-86.2856769942
 11
20.8688573508
 21
-86.2955275479
  0
LWPOLYLINE
  5
4CC
100
AcDbEntity
  8
0
100
AcDbPolyline
 62
250
  6
CONTINUOUS
 90
22
 70
0
 10
20.8688573508
 20
-86.2955275479
 10
20.8297980095
 20
-86.8560151302
 10
20.7642576398
 20
-87.3990085863
 10
20.6739949895
 20
-87.9231990955
 10
20.5612807057
 20
-88.4250315007
 10
20.4271107274
 20
-88.9060513138
 10
20.2703369848
 20
-89.3717847461
 10
20.0905431703
 20
-89.8216976387
 10
19.8889408292
 20
-90.2532065111
 10
19.6656625461
 20
-90.6679994875
 10
19.4205135485
 20
-91.0651091046
 10
19.1540364897
 20
-91.4424659868
 10
18.8671987195
 20
-91.8002297221
 10
18.5600545108
 20
-92.1375607234
 10
18.2330734405
 20
-92.4526027471
 10
17.8880473104
 20
-92.7445005672
 10
17.5249976216
 20
-93.0129164614
 10
17.1449638716
 20
-93.2560935035
 10
16.7517232849
 20
-93.4721119276
 10
16.3472831812
 20
-93.6604986023
 10
15.9317681508
 20
-93.8213778476
 10
15.8045245928
 20
-93.8641340784
  0
LWPOLYLINE
  5
4CD
100
AcDbEntity
  8
RACCORDO
100
AcDbPolyline
 62
7
  6
CONTINUOUS
 90
13
 70
0
 10
19.0663560091
 20
-49.8343733796
 10
19.1775998605
 20
-49.7662432189
 10
19.280140687
 20
-49.6954815046
 10
19.3735243946
 20
-49.6226322005
 10
19.4569446504
 20
-49.5486967515
 10
19.5307446398
 20
-49.4738165753
 10
19.5957834853
 20
-49.3973002596
 10
19.6514620668
 20
-49.3198511203
 10
19.6974574416
 20
-49.2420162222
 10
19.7341292166
 20
-49.1629178746
 10
19.7610008966
 20
-49.0825535444
 10
19.7773794623
 20
-49.0016377512
 10
19.7829157113
 20
-48.9200729488
  0
LINE
  5
4CE
100
AcDbEntity
  8
0
100
AcDbLine
 62
7
  6
CONTINUOUS
 10
5.1889096848
 20
-57.2768927396
 11
5.1676858491
 21
-57.2891471163
  0
LINE
  5
4CF
100
AcDbEntity
  8
0
100
AcDbLine
 62
7
  6
CONTINUOUS
 10
5.7722262591
 20
-57.634194164
 11
5.7510050885
 21
-57.646447002
  0
LINE
  5
4D0
100
AcDbEntity
  8
0
100
AcDbLine
 62
7
  6
CONTINUOUS
 10
6.1625175423
 20
-57.8715702279
 11
6.1412979347
 21
-57.8838221634
  0
LINE
  5
4D1
100
AcDbEntity
  8
0
100
AcDbLine
 62
7
  6
CONTINUOUS
 10
6.7500893015
 20
-58.2264065963
 11
6.7288717183
 21
-58.2386573629
  0
LINE
  5
4D2
100
AcDbEntity
  8
0
100
AcDbLine
 62
7
  6
CONTINUOUS
 10
7.3401950062
 20
-58.5797537668
 11
7.3189790636
 21
-58.5920035862
  0
LINE
  5
4D3
100
AcDbEntity
  8
0
100
AcDbLine
 62
7
  6
CONTINUOUS
 10
4.8370478426
 20
-60.5300452467
 11
4.8158222058
 21
-60.5423006634
  0
LINE
  5
4D4
100
AcDbEntity
  8
0
100
AcDbLine
 62
7
  6
CONTINUOUS
 10
8.237161561
 20
-59.1111385556
 11
8.2159473704
 21
-59.1233873634
  0
LINE
  5
4D5
100
AcDbEntity
  8
0
100
AcDbLine
 62
7
  6
CONTINUOUS
 10
9.3532230594
 20
-59.7628904351
 11
9.3320098236
 21
-59.7751386915
  0
LWPOLYLINE
  5
4D6
100
AcDbEntity
  8
RACCORDO
100
AcDbPolyline
 62
250
  6
CONTINUOUS
 90
61
 70
0
 10
19.3163680892
 20
-49.8591439684
 10
19.2430776489
 20
-49.900906364
 10
19.1629687051
 20
-49.9428221974
 10
19.0760412577
 20
-49.9848914685
 10
18.9825401412
 20
-50.0274557444
 10
18.8822205212
 20
-50.0701734581
 10
18.7743478946
 20
-50.1120199083
 10
18.6588218612
 20
-50.1530807165
 10
18.5357428212
 20
-50.1932702613
 10
18.4046774727
 20
-50.2313069771
 10
18.2654495545
 20
-50.2672736598
 10
18.1182353279
 20
-50.3010875136
 10
17.9631302742
 20
-50.3312185855
 10
17.7998590114
 20
-50.3577275024
 10
17.6286969217
 20
-50.3805536375
 10
17.4505656325
 20
-50.3979851576
 10
17.2648523822
 20
-50.40999433
 10
17.0721699324
 20
-50.4166088875
 10
16.8752781953
 20
-50.4162001951
 10
16.6732557403
 20
-50.4084253205
 10
16.4670239981
 20
-50.3936271961
 10
16.2621071722
 20
-50.3712059839
 10
16.0587701905
 20
-50.3407121766
 10
15.856748125
 20
-50.3025952817
 10
15.6607703963
 20
-50.2576039839
 10
15.4718002618
 20
-50.2057058442
 10
15.2888744641
 20
-50.1469333016
 10
15.1138326506
 20
-50.0821323581
 10
14.9468524441
 20
-50.0113353341
 10
14.7877562219
 20
-49.9345099091
 10
14.6378507635
 20
-49.8524051237
 10
14.4971305433
 20
-49.7650162307
 10
14.365601087
 20
-49.6723479773
 10
14.24458575
 20
-49.575163645
 10
14.1340265558
 20
-49.473336843
 10
14.0339814811
 20
-49.366993962
 10
13.9459478106
 20
-49.2572774565
 10
13.8700235406
 20
-49.1436148879
 10
13.8061106748
 20
-49.0265786946
 10
13.7554125098
 20
-48.909028646
 10
13.7187430491
 20
-48.7908670421
 10
13.6952882891
 20
-48.6721915829
 10
13.6838095154
 20
-48.5561551382
 10
13.6848541021
 20
-48.4433314793
 10
13.697874675
 20
-48.3331468349
 10
13.7199903979
 20
-48.2270327612
 10
13.7512183803
 20
-48.1253085756
 10
13.7915415126
 20
-48.0276549607
 10
13.8380276296
 20
-47.9345455197
 10
13.8905697237
 20
-47.8461261885
 10
13.9492748024
 20
-47.7622510313
 10
14.0115317227
 20
-47.6829558437
 10
14.0771954616
 20
-47.6083405605
 10
14.146411042
 20
-47.538305247
 10
14.2170023906
 20
-47.4725858944
 10
14.2888228952
 20
-47.411236918
 10
14.3620191679
 20
-47.3542039026
 10
14.4348549718
 20
-47.3010595938
 10
14.5067515612
 20
-47.2516615734
 10
14.5782876817
 20
-47.2061522596
 10
14.6494633334
 20
-47.1645316524
  0
LINE
  5
4D7
100
AcDbEntity
  8
SMUSSO
100
AcDbLine
 62
7
  6
CONTINUOUS
 10
22.116610681
 20
-52.751578762
 11
21.9923451609
 21
-52.8067335061
  0
LINE
  5
4D8
100
AcDbEntity
  8
SMUSSO
100
AcDbLine
 62
7
  6
CONTINUOUS
 10
22.2631226076
 20
-52.6948317757
 11
22.116610681
 21
-52.751578762
  0
LWPOLYLINE
  5
4D9
100
AcDbEntity
  8
RACCORDO
100
AcDbPolyline
 62
250
  6
CONTINUOUS
 90
13
 70
0
 10
7.7417360033
 20
-45.1000259697
 10
7.7915068209
 20
-45.0930561611
 10
7.8407325838
 20
-45.0906350933
 10
7.8888739891
 20
-45.0927893496
 10
7.9354035679
 20
-45.0994953818
 10
7.9798115713
 20
-45.1106797788
 10
8.0216115367
 20
-45.1262201016
 10
8.0603454809
 20
-45.1459461917
 10
8.0955889342
 20
-45.1696419984
 10
8.1269556866
 20
-45.1970479771
 10
8.1541020147
 20
-45.227863952
 10
8.1767303789
 20
-45.2617523297
 10
8.1789488786
 20
-45.265681427
  0
LWPOLYLINE
  5
4DA
100
AcDbEntity
  8
SMUSSO
100
AcDbPolyline
 62
7
  6
CONTINUOUS
 90
10
 70
0
 10
10.6989136795
 20
-44.6310348803
 10
10.7209341768
 20
-44.6285161385
 10
10.7445401111
 20
-44.6270263616
 10
10.7695423734
 20
-44.6265283222
 10
10.7957344995
 20
-44.6269916812
 10
10.8229486949
 20
-44.6284033742
 10
10.8510662205
 20
-44.6307595687
 10
10.87993958
 20
-44.6340537069
 10
10.9093843607
 20
-44.6382835681
 10
10.9392411331
 20
-44.6434563962
  0
LWPOLYLINE
  5
4DB
100
AcDbEntity
  8
RACCORDO
100
AcDbPolyline
 62
250
  6
CONTINUOUS
 90
60
 70
0
 10
7.6955804026
 20
-45.0799764055
 10
7.6138892486
 20
-45.0782045562
 10
7.5298444797
 20
-45.074894353
 10
7.4434460958
 20
-45.0700457958
 10
7.3547907754
 20
-45.0638145334
 10
7.26378184
 20
-45.0560449171
 10
7.1701292543
 20
-45.0462700007
 10
7.0737500655
 20
-45.0345363853
 10
6.9747272264
 20
-45.0207974698
 10
6.87301956
 20
-45.0044465049
 10
6.7685173161
 20
-44.9855293279
 10
6.661330245
 20
-44.9640001015
 10
6.55174642
 20
-44.9391145652
 10
6.4396092222
 20
-44.910910108
 10
6.3250752705
 20
-44.8793493409
 10
6.2089024962
 20
-44.8435758358
 10
6.0908901731
 20
-44.8036116526
 10
5.9712390273
 20
-44.7594347315
 10
5.8513091676
 20
-44.7101224639
 10
5.7308063323
 20
-44.6556364781
 10
5.6100247831
 20
-44.5960151458
 10
5.491207414
 20
-44.5304509747
 10
5.3739234826
 20
-44.4586775609
 10
5.2586037313
 20
-44.3809613081
 10
5.1487832812
 20
-44.2972939349
 10
5.0443301699
 20
-44.2072250273
 10
4.9453763597
 20
-44.1112049992
 10
4.8558528592
 20
-44.0105768107
 10
4.7762092284
 20
-43.9051430431
 10
4.7059959072
 20
-43.7951011151
 10
4.6477952241
 20
-43.6823862429
 10
4.602107516
 20
-43.5670101312
 10
4.568432446
 20
-43.4489610752
 10
4.5478513316
 20
-43.3301391764
 10
4.5407310447
 20
-43.210564821
 10
4.5467047135
 20
-43.0902176228
 10
4.5657530391
 20
-42.9709365245
 10
4.5980888127
 20
-42.852870125
 10
4.6434992433
 20
-42.7358698254
 10
4.7013266591
 20
-42.6213287711
 10
4.771669139
 20
-42.5093134863
 10
4.8544286041
 20
-42.3997574467
 10
4.9486531462
 20
-42.2938542259
 10
5.0544805108
 20
-42.1916091541
 10
5.1717729524
 20
-42.0930169009
 10
5.299165326
 20
-41.9992550491
 10
5.4368317925
 20
-41.9103584556
 10
5.5845981909
 20
-41.8262922634
 10
5.7405768932
 20
-41.748129484
 10
5.9048182858
 20
-41.6759725655
 10
6.0772719821
 20
-41.6097190598
 10
6.2558991943
 20
-41.5501346343
 10
6.4407134953
 20
-41.4972951982
 10
6.6317013123
 20
-41.4511248425
 10
6.8267831379
 20
-41.4121615075
 10
7.0260916697
 20
-41.3804636749
 10
7.2294942102
 20
-41.3559728632
 10
7.4345131601
 20
-41.3390515679
 10
7.6414089951
 20
-41.3298339882
 10
7.8499212394
 20
-41.328185925
  0
LWPOLYLINE
  5
4DC
100
AcDbEntity
  8
SMUSSO
100
AcDbPolyline
 62
7
  6
CONTINUOUS
 90
3
 70
0
 10
7.9862642054
 20
-43.8861626005
 10
8.1894102346
 20
-43.896695317
 10
8.3930787437
 20
-43.9143508178
  0
LWPOLYLINE
  5
4DD
100
AcDbEntity
  8
RACCORDO
100
AcDbPolyline
 62
250
  6
CONTINUOUS
 90
6
 70
0
 10
8.7068751091
 20
-44.1017592067
 10
8.7639722787
 20
-44.1058805889
 10
8.8219305704
 20
-44.1079417129
 10
8.880406307
 20
-44.1079424054
 10
8.9383684565
 20
-44.1058821472
 10
8.9954733416
 20
-44.101760765
  0
LINE
  5
4DE
100
AcDbEntity
  8
RACCORDO
100
AcDbLine
 62
250
  6
CONTINUOUS
 10
8.6502953844
 20
-44.0955773932
 11
8.7068751091
 21
-44.1017592067
  0
LWPOLYLINE
  5
4DF
100
AcDbEntity
  8
RACCORDO
100
AcDbPolyline
 62
7
  6
CONTINUOUS
 90
10
 70
0
 10
8.6106141747
 20
-44.0703329968
 10
8.6629250617
 20
-44.0780110932
 10
8.7160805839
 20
-44.0838103696
 10
8.7698495596
 20
-44.0876970427
 10
8.8240091441
 20
-44.0896478984
 10
8.8783094631
 20
-44.089648921
 10
8.9324749568
 20
-44.0876997981
 10
8.986255591
 20
-44.0838139283
 10
9.0394282336
 20
-44.0780139255
 10
9.091761277
 20
-44.0703329974
  0
LINE
  5
4E0
100
AcDbEntity
  8
RACCORDO
100
AcDbLine
 62
250
  6
CONTINUOUS
 10
8.5942331046
 20
-44.0873351482
 11
8.6502953844
 21
-44.0955773932
  0
LWPOLYLINE
  5
4E1
100
AcDbEntity
  8
RACCORDO
100
AcDbPolyline
 62
250
  6
CONTINUOUS
 90
54
 70
0
 10
11.0738649692
 20
-43.1760964662
 10
11.1576131182
 20
-43.191985036
 10
11.2439638654
 20
-43.2108838651
 10
11.3329172106
 20
-43.2327929535
 10
11.4248437329
 20
-43.2574683994
 10
11.5193728533
 20
-43.2851541047
 10
11.6153928352
 20
-43.3165817743
 10
11.713069176
 20
-43.3517670138
 10
11.8122363782
 20
-43.3906942176
 10
11.9112862126
 20
-43.434048274
 10
12.0104062861
 20
-43.4818816977
 10
12.1094089918
 20
-43.5341419739
 10
12.2061232797
 20
-43.5913564467
 10
12.3007487725
 20
-43.6536418243
 10
12.3930858476
 20
-43.7208813985
 10
12.4803645873
 20
-43.7932523894
 10
12.5627731939
 20
-43.8710814581
 10
12.6401234652
 20
-43.9540419436
 10
12.7090808767
 20
-44.0413310818
 10
12.7694416602
 20
-44.1334670917
 10
12.8214095839
 20
-44.2299317545
 10
12.8622614283
 20
-44.3283676501
 10
12.8912759618
 20
-44.428765547
 10
12.9091744159
 20
-44.5311346768
 10
12.9153972653
 20
-44.6331453147
 10
12.9096014375
 20
-44.7343934192
 10
12.892130005
 20
-44.8352830319
 10
12.8634526598
 20
-44.9346965521
 10
12.8235340193
 20
-45.0325935895
 10
12.7724094662
 20
-45.1290145344
 10
12.7106548411
 20
-45.2229629576
 10
12.6381193401
 20
-45.3145043136
 10
12.5549537671
 20
-45.4035731479
 10
12.4621863749
 20
-45.4889766669
 10
12.3596587451
 20
-45.5706752882
 10
12.2475292961
 20
-45.6487085944
 10
12.1273015368
 20
-45.7220025395
 10
11.9988508949
 20
-45.7904826494
 10
11.8623019426
 20
-45.8542233983
 10
11.7195319055
 20
-45.9123741625
 10
11.5704820103
 20
-45.9648428419
 10
11.4152110302
 20
-46.0117215366
 10
11.2557725101
 20
-46.0524359223
 10
11.0922829554
 20
-46.0869036631
 10
10.9246258608
 20
-46.115207095
 10
10.7545052556
 20
-46.1370189013
 10
10.5818071449
 20
-46.1523170647
 10
10.4066455237
 20
-46.1611236026
 10
10.2310664052
 20
-46.1631772498
 10
10.0543347183
 20
-46.1582482857
 10
9.8771855343
 20
-46.1465664309
 10
9.7038700797
 20
-46.128559583
 10
9.5344870595
 20
-46.1038100458
 10
9.3689377687
 20
-46.0727355154
  0
LINE
  5
4E2
100
AcDbEntity
  8
RACCORDO
100
AcDbLine
 62
250
  6
CONTINUOUS
 10
8.5163549695
 20
-44.0721313993
 11
8.5942331046
 21
-44.0873351482
  0
LWPOLYLINE
  5
4E3
100
AcDbEntity
  8
RACCORDO
100
AcDbPolyline
 62
7
  6
CONTINUOUS
 90
19
 70
0
 10
10.9213246524
 20
-43.8592623041
 10
11.0675516025
 20
-43.8898019436
 10
11.2082609235
 20
-43.9258525596
 10
11.3434526153
 20
-43.967414152
 10
11.4737633779
 20
-44.0147538737
 10
11.5985565112
 20
-44.0676045718
 10
11.7159219155
 20
-44.1251647886
 10
11.8257511025
 20
-44.1875108395
 10
11.9281525605
 20
-44.2545664091
 10
12.0215416547
 20
-44.3253010931
 10
12.1057751367
 20
-44.3997693848
 10
12.180996255
 20
-44.4779167909
 10
12.2460501194
 20
-44.5585494277
 10
12.3007815251
 20
-44.6417072995
 10
12.3453456769
 20
-44.727350402
 10
12.3790532999
 20
-44.8141648391
 10
12.4017359542
 20
-44.9021696175
 10
12.4135620796
 20
-44.9913457305
 10
12.4154012667
 20
-45.0412814371
  0
LINE
  5
4E4
100
AcDbEntity
  8
SMUSSO
100
AcDbLine
 62
7
  6
CONTINUOUS
 10
8.9443471057
 20
-44.0011841051
 11
9.0985131389
 21
-44.0364479749
  0
LWPOLYLINE
  5
4E5
100
AcDbEntity
  8
SMUSSO
100
AcDbPolyline
 62
7
  6
CONTINUOUS
 90
5
 70
0
 10
9.0985131389
 20
-44.0364479749
 10
9.2481031707
 20
-44.075498417
 10
9.3931172012
 20
-44.1183354315
 10
9.5338430111
 20
-44.1651672571
 10
9.6699928197
 20
-44.215785655
  0
LWPOLYLINE
  5
4E6
100
AcDbEntity
  8
SMUSSO
100
AcDbPolyline
 62
7
  6
CONTINUOUS
 90
16
 70
0
 10
8.9446159049
 20
-44.0011302404
 10
8.9057511879
 20
-43.9894731511
 10
8.8666392509
 20
-43.9785914684
 10
8.8273859688
 20
-43.9684733551
 10
8.7879700168
 20
-43.9590722952
 10
8.7486309109
 20
-43.950412958
 10
8.7098611831
 20
-43.9426303962
 10
8.6720756674
 20
-43.9358363024
 10
8.6350431728
 20
-43.93001201
 10
8.5982959246
 20
-43.9250855038
 10
8.5616117724
 20
-43.9210145324
 10
8.5254557886
 20
-43.9178114932
 10
8.4903866134
 20
-43.9154832356
 10
8.456628431
 20
-43.9140810475
 10
8.4241069617
 20
-43.9136541578
 10
8.3928924513
 20
-43.9142507293
  0
LWPOLYLINE
  5
4E7
100
AcDbEntity
  8
SMUSSO
100
AcDbPolyline
 62
7
  6
CONTINUOUS
 90
10
 70
0
 10
10.6989136795
 20
-44.6310348803
 10
10.7416074007
 20
-44.6448861847
 10
10.7848100641
 20
-44.6593039356
 10
10.8285275446
 20
-44.6742882301
 10
10.8727680329
 20
-44.6898461556
 10
10.917535664
 20
-44.7059725522
 10
10.9628296826
 20
-44.7226495127
 10
11.0086534071
 20
-44.7398722498
 10
11.0550151227
 20
-44.7576495973
 10
11.1019210969
 20
-44.7759844207
  0
LWPOLYLINE
  5
4E8
100
AcDbEntity
  8
RACCORDO
100
AcDbPolyline
 62
7
  6
CONTINUOUS
 90
5
 70
0
 10
8.34557339
 20
-43.9960608176
 10
8.406740522
 20
-44.0192982479
 10
8.4717824154
 20
-44.0396006841
 10
8.5399416131
 20
-44.0566711692
 10
8.6106141745
 20
-44.0703329967
  0
LWPOLYLINE
  5
4E9
100
AcDbEntity
  8
RACCORDO
100
AcDbPolyline
 62
250
  6
CONTINUOUS
 90
4
 70
0
 10
8.3041997634
 20
-44.0054328665
 10
8.3715846596
 20
-44.0313033128
 10
8.4421388212
 20
-44.0534541208
 10
8.5163549695
 20
-44.0721313993
  0
LWPOLYLINE
  5
4EA
100
AcDbEntity
  8
SMUSSO
100
AcDbPolyline
 62
7
  6
CONTINUOUS
 90
6
 70
0
 10
11.8793995301
 20
-45.0070781846
 10
11.7342189477
 20
-44.9491706114
 10
11.5836868203
 20
-44.8970363676
 10
11.4284501822
 20
-44.8509151265
 10
11.2678619991
 20
-44.8105672146
 10
11.101922271
 20
-44.775992632
  0
LINE
  5
4EB
100
AcDbEntity
  8
SMUSSO
100
AcDbLine
 62
7
  6
CONTINUOUS
 10
9.6699928197
 20
-44.215785655
 11
9.8007032844
 21
-44.2695659093
  0
LINE
  5
4EC
100
AcDbEntity
  8
SMUSSO
100
AcDbLine
 62
7
  6
CONTINUOUS
 10
11.9737494276
 20
-45.050159888
 11
11.8793995301
 21
-45.0070781846
  0
LWPOLYLINE
  5
4ED
100
AcDbEntity
  8
0
100
AcDbPolyline
 62
250
  6
CONTINUOUS
 90
16
 70
0
 10
36.3501588374
 20
-53.293715876
 10
36.3919308595
 20
-53.3143587543
 10
36.4331919334
 20
-53.3392976766
 10
36.4734872079
 20
-53.3682537855
 10
36.5123698479
 20
-53.4009015808
 10
36.5494158438
 20
-53.4368803864
 10
36.584227022
 20
-53.475801016
 10
36.6164213815
 20
-53.517243216
 10
36.6456417163
 20
-53.5607423327
 10
36.671570437
 20
-53.6058027358
 10
36.6939226745
 20
-53.651915328
 10
36.7124576489
 20
-53.6985838914
 10
36.7269798742
 20
-53.7453147918
 10
36.737328292
 20
-53.7916003284
 10
36.743383765
 20
-53.8369239478
 10
36.7450769304
 20
-53.8807857866
  0
LWPOLYLINE
  5
4EE
100
AcDbEntity
  8
SMUSSO
100
AcDbPolyline
 62
7
  6
CONTINUOUS
 90
25
 70
0
 10
9.7584620922
 20
-43.2727946093
 10
9.6696798341
 20
-43.2252089243
 10
9.5255289694
 20
-43.1569015795
 10
9.3739458364
 20
-43.0941819338
 10
9.215578413
 20
-43.0373188225
 10
9.0511047273
 20
-42.9865563913
 10
8.8812301308
 20
-42.9421128642
 10
8.7066817971
 20
-42.904178897
 10
8.5282069791
 20
-42.8729172853
 10
8.3465714253
 20
-42.848462449
 10
8.1625529336
 20
-42.8309192992
 10
7.9769395419
 20
-42.8203631509
 10
7.7905277987
 20
-42.8168393983
 10
7.6041160579
 20
-42.8203631324
 10
7.418502673
 20
-42.8309192616
 10
7.2344841925
 20
-42.8484623909
 10
7.0528486537
 20
-42.8729172047
 10
6.8743738541
 20
-42.9041787913
 10
6.6998255414
 20
-42.9421127301
 10
6.5299509677
 20
-42.9865562252
 10
6.3654773057
 20
-43.0373186202
 10
6.2071099054
 20
-43.0941816907
 10
6.0555281193
 20
-43.1569007036
 10
5.91137846
 20
-43.2252073129
 10
5.8225930288
 20
-43.2727946277
  0
LWPOLYLINE
  5
4EF
100
AcDbEntity
  8
RACCORDO
100
AcDbPolyline
 62
7
  6
CONTINUOUS
 90
32
 70
0
 10
10.3590384742
 20
-41.7929920356
 10
10.177924972
 20
-41.6951556241
 10
9.9871045745
 20
-41.6050593036
 10
9.7873904384
 20
-41.5229560065
 10
9.5795322591
 20
-41.4490498061
 10
9.364433001
 20
-41.3835774421
 10
9.1432136354
 20
-41.3267898962
 10
8.9169137549
 20
-41.2788531125
 10
8.6863428672
 20
-41.239850911
 10
8.4523593631
 20
-41.209865213
 10
8.2159313347
 20
-41.1889702116
 10
7.9779863528
 20
-41.1772069724
 10
7.7393441999
 20
-41.1745924495
 10
7.5009487224
 20
-41.1811293944
 10
7.26375864
 20
-41.1967916616
 10
7.0286121766
 20
-41.2215376854
 10
6.7964347137
 20
-41.2552993491
 10
6.5681708642
 20
-41.2979775289
 10
6.3446575561
 20
-41.3494681231
 10
6.1267402901
 20
-41.4096494558
 10
5.9153695642
 20
-41.4783453405
 10
5.7114669499
 20
-41.5553490587
 10
5.5157254164
 20
-41.6405174178
 10
5.3291118316
 20
-41.7335698567
 10
5.1527854865
 20
-41.8340393747
 10
4.9872169003
 20
-41.9417798861
 10
4.8333098044
 20
-42.0563574867
 10
4.6924906129
 20
-42.1767347925
 10
4.5651756335
 20
-42.3024542195
 10
4.4516816531
 20
-42.4331198191
 10
4.3528090371
 20
-42.5675993064
 10
4.2687803603
 20
-42.7051487762
  0
LWPOLYLINE
  5
4F0
100
AcDbEntity
  8
RACCORDO
100
AcDbPolyline
 62
250
  6
CONTINUOUS
 90
59
 70
0
 10
10.2090312262
 20
-41.8078543889
 10
10.1372688818
 20
-41.7670817544
 10
10.0599185953
 20
-41.7263457634
 10
9.9769803665
 20
-41.6856464159
 10
9.888759339
 20
-41.6447779403
 10
9.7949503692
 20
-41.6039461081
 10
9.6946380269
 20
-41.5637682341
 10
9.5877808567
 20
-41.5241487643
 10
9.474420314
 20
-41.4851832525
 10
9.3537653352
 20
-41.4477756757
 10
9.2257199636
 20
-41.4118195385
 10
9.0903801559
 20
-41.3774213362
 10
8.9472427184
 20
-41.3458045311
 10
8.7961231073
 20
-41.3168588634
 10
8.6372058663
 20
-41.2906945929
 10
8.4705414328
 20
-41.2688659619
 10
8.2955036943
 20
-41.251308013
 10
8.1127187634
 20
-41.2380857037
 10
7.9241154151
 20
-41.2309481485
 10
7.7287524948
 20
-41.2301136094
 10
7.5275711573
 20
-41.2353638246
 10
7.3253236418
 20
-41.2477931224
 10
7.1221355665
 20
-41.2677731424
 10
6.9178813132
 20
-41.2949322451
 10
6.7169362663
 20
-41.3292498401
 10
6.5197927919
 20
-41.3709153921
 10
6.3259585238
 20
-41.4197394364
 10
6.138331748
 20
-41.4751329883
 10
5.9571713539
 20
-41.5371810644
 10
5.782218452
 20
-41.6057986481
 10
5.6155946597
 20
-41.6801417049
 10
5.4574989633
 20
-41.7602204517
 10
5.3077323764
 20
-41.8460246715
 10
5.167819557
 20
-41.9366796792
 10
5.0377806967
 20
-42.0322937836
 10
4.917595604
 20
-42.132758676
 10
4.8087283622
 20
-42.2368747443
 10
4.7113173157
 20
-42.3447848754
 10
4.6252241201
 20
-42.4563461825
 10
4.551497826
 20
-42.569930393
 10
4.4904470439
 20
-42.6858200148
 10
4.4417631632
 20
-42.8037325401
 10
4.4055694033
 20
-42.9211921728
 10
4.382499775
 20
-43.0382980157
 10
4.3719202675
 20
-43.1549509662
 10
4.3720520678
 20
-43.2683779198
 10
4.3833068091
 20
-43.3780648583
 10
4.4052728582
 20
-43.4845258
 10
4.434936502
 20
-43.5865296953
 10
4.4722070283
 20
-43.6836933152
 10
4.5171751493
 20
-43.7763998887
 10
4.567099289
 20
-43.8645680536
 10
4.6217854651
 20
-43.9480757039
 10
4.6814276598
 20
-44.0270449455
 10
4.7438662442
 20
-44.1017607336
 10
4.8089156046
 20
-44.1721668664
 10
4.8767613547
 20
-44.2383195458
 10
4.9458007075
 20
-44.3006723321
 10
5.0158650677
 20
-44.3591992497
  0
LINE
  5
4F1
100
AcDbEntity
  8
RACCORDO
100
AcDbLine
 62
250
  6
CONTINUOUS
 10
28.593807537
 20
-52.4229938154
 11
10.2090312262
 21
-41.8078543889
  0
LINE
  5
4F2
100
AcDbEntity
  8
RACCORDO
100
AcDbLine
 62
7
  6
CONTINUOUS
 10
28.7438147851
 20
-52.4081314621
 11
10.3590384742
 21
-41.7929920356
  0
LINE
  5
4F3
100
AcDbEntity
  8
0
100
AcDbLine
 62
7
  6
CONTINUOUS
 10
9.8411372214
 20
-38.0599924392
 11
35.3676920222
 21
-52.7987052584
  0
LINE
  5
4F4
100
AcDbEntity
  8
0
100
AcDbLine
 62
7
  6
CONTINUOUS
 10
9.8411641458
 20
-38.0177246598
 11
35.4384296247
 21
-52.7972649383
  0
LWPOLYLINE
  5
4F5
100
AcDbEntity
  8
SMUSSO
100
AcDbPolyline
 62
7
  6
CONTINUOUS
 90
9
 70
0
 10
28.1436143269
 20
-53.8872326618
 10
28.2643012942
 20
-53.9600780194
 10
28.3861038032
 20
-54.0438448128
 10
28.4978504917
 20
-54.1321617197
 10
28.5990330236
 20
-54.224627081
 10
28.6891910681
 20
-54.3208203365
 10
28.7679144323
 20
-54.4203039605
 10
28.8348449503
 20
-54.5226254854
 10
28.8429010267
 20
-54.5380071212
  0
LWPOLYLINE
  5
4F6
100
AcDbEntity
  8
RACCORDO
100
AcDbPolyline
 62
250
  6
CONTINUOUS
 90
3
 70
0
 10
28.736268332
 20
-52.5099233514
 10
28.6650862348
 20
-52.4648243807
 10
28.593807537
 20
-52.4229938154
  0
LWPOLYLINE
  5
4F7
100
AcDbEntity
  8
0
100
AcDbPolyline
 62
250
  6
CONTINUOUS
 90
6
 70
0
 10
8.9777010961
 20
-37.4892018336
 10
8.9459429471
 20
-37.4673893127
 10
8.9145052716
 20
-37.4503528882
 10
8.8837347784
 20
-37.4382765135
 10
8.8539725456
 20
-37.4312896196
 10
8.8255431242
 20
-37.4294637398
  0
LINE
  5
4F8
100
AcDbEntity
  8
RACCORDO
100
AcDbLine
 62
250
  6
CONTINUOUS
 10
29.90094408
 20
-54.2996285365
 11
29.9078621284
 21
-54.3073016975
  0
LWPOLYLINE
  5
4F9
100
AcDbEntity
  8
RACCORDO
100
AcDbPolyline
 62
7
  6
CONTINUOUS
 90
13
 70
0
 10
25.7479321577
 20
-52.4199596567
 10
25.7683971866
 20
-52.4509047441
 10
25.7935510208
 20
-52.4799306656
 10
25.8233936603
 20
-52.5070374211
 10
25.8583358278
 20
-52.5324695598
 10
25.8979668004
 20
-52.5559825326
 10
25.9410544104
 20
-52.576842692
 10
25.9877087255
 20
-52.5949655784
 10
26.0378196779
 20
-52.6104356515
 10
26.0898248953
 20
-52.6227726432
 10
26.1432035871
 20
-52.6318164643
 10
26.1984765438
 20
-52.6377272042
 10
26.2556437657
 20
-52.6405048627
  0
LWPOLYLINE
  5
4FA
100
AcDbEntity
  8
RACCORDO
100
AcDbPolyline
 62
250
  6
CONTINUOUS
 90
16
 70
0
 10
26.2240954193
 20
-51.9236496511
 10
26.2255109879
 20
-51.9258801273
 10
26.2272176841
 20
-51.9280148465
 10
26.2292155079
 20
-51.9300538087
 10
26.2315227331
 20
-51.9320116985
 10
26.2341210858
 20
-51.9338738312
 10
26.236955745
 20
-51.935596153
 10
26.240032386
 20
-51.9371741041
 10
26.2433453334
 20
-51.9386122442
 10
26.2468227406
 20
-51.9398801982
 10
26.2504682927
 20
-51.9409735466
 10
26.2542783046
 20
-51.9418967088
 10
26.2581698735
 20
-51.9426325685
 10
26.2621153653
 20
-51.94317542
 10
26.2661424141
 20
-51.943530969
 10
26.27025102
 20
-51.9436992153
  0
LWPOLYLINE
  5
4FB
100
AcDbEntity
  8
SMUSSO
100
AcDbPolyline
 62
7
  6
CONTINUOUS
 90
9
 70
0
 10
25.8038594697
 20
-53.2261007264
 10
25.7559087761
 20
-53.1484242126
 10
25.6992968022
 20
-53.0726173458
 10
25.6342333704
 20
-52.9990046775
 10
25.5609506922
 20
-52.9278896579
 10
25.4797429737
 20
-52.8595951158
 10
25.3909797976
 20
-52.7944562042
 10
25.2950155761
 20
-52.7327482186
 10
25.2482849144
 20
-52.7054320005
  0
LWPOLYLINE
  5
4FC
100
AcDbEntity
  8
SMUSSO
100
AcDbPolyline
 62
7
  6
CONTINUOUS
 90
10
 70
0
 10
25.8038594697
 20
-53.2261007264
 10
25.8145087943
 20
-53.2443153673
 10
25.8272452198
 20
-53.2644401594
 10
25.8420812971
 20
-53.2863830538
 10
25.859004503
 20
-53.3100325616
 10
25.8780121693
 20
-53.3353085381
 10
25.8991237103
 20
-53.3621574738
 10
25.9223251845
 20
-53.3904875059
 10
25.9475553695
 20
-53.4201744138
 10
25.974749796
 20
-53.4511090127
  0
LWPOLYLINE
  5
4FD
100
AcDbEntity
  8
RACCORDO
100
AcDbPolyline
 62
250
  6
CONTINUOUS
 90
3
 70
0
 10
23.4155554005
 20
-54.1893345768
 10
23.4237395861
 20
-54.231402424
 10
23.4260517285
 20
-54.2571866429
  0
LINE
  5
4FE
100
AcDbEntity
  8
0
100
AcDbLine
 62
250
  6
CONTINUOUS
 10
23.8023553879
 20
-86.5037799676
 11
23.8004437233
 21
-86.4883338691
  0
LWPOLYLINE
  5
4FF
100
AcDbEntity
  8
RACCORDO
100
AcDbPolyline
 62
250
  6
CONTINUOUS
 90
16
 70
0
 10
22.92669108
 20
-53.87422882
 10
22.9264015169
 20
-53.8718591993
 10
22.9257862683
 20
-53.8695350015
 10
22.9248453343
 20
-53.8672562267
 10
22.9235682051
 20
-53.8650058415
 10
22.9219653903
 20
-53.8628008792
 10
22.9200684195
 20
-53.8606924404
 10
22.9178696511
 20
-53.8586839979
 10
22.9153767266
 20
-53.856772079
 10
22.9126440996
 20
-53.8549973651
 10
22.9096661078
 20
-53.853363513
 10
22.9064484136
 20
-53.8518668661
 10
22.903062457
 20
-53.8505371356
 10
22.8995320515
 20
-53.8493842255
 10
22.8958333836
 20
-53.8483982318
 10
22.8919664534
 20
-53.8475791546
  0
LWPOLYLINE
  5
500
100
AcDbEntity
  8
RACCORDO
100
AcDbPolyline
 62
7
  6
CONTINUOUS
 90
49
 70
0
 10
23.4260517285
 20
-54.2571866427
 10
23.4354910652
 20
-54.3367849965
 10
23.4557528367
 20
-54.4166459962
 10
23.486784395
 20
-54.4967385954
 10
23.5281664059
 20
-54.5763257641
 10
23.5796056813
 20
-54.655190666
 10
23.6414708036
 20
-54.7338136304
 10
23.7135981484
 20
-54.811666903
 10
23.7953454868
 20
-54.8878679359
 10
23.8869886573
 20
-54.9624709081
 10
23.9882412865
 20
-55.0349623304
 10
24.0984971887
 20
-55.1046939603
 10
24.2180586359
 20
-55.1716207141
 10
24.346739177
 20
-55.2353376723
 10
24.4838287956
 20
-55.2952316477
 10
24.6291072033
 20
-55.3509727891
 10
24.7822862268
 20
-55.4022005195
 10
24.9425169798
 20
-55.4484048695
 10
25.1087439244
 20
-55.4891196885
 10
25.28013015
 20
-55.5240270447
 10
25.456011542
 20
-55.5528937354
 10
25.6355444937
 20
-55.5754935973
 10
25.8179817095
 20
-55.5916560202
 10
26.0024140966
 20
-55.6012352599
 10
26.1877381007
 20
-55.6041368572
 10
26.3730689566
 20
-55.6003345099
 10
26.5575559137
 20
-55.5898434341
 10
26.7401411248
 20
-55.5727415238
 10
26.9199388789
 20
-55.5491528624
 10
27.0961487182
 20
-55.5192350559
 10
27.2678496444
 20
-55.4832138082
 10
27.4343441258
 20
-55.4413194662
 10
27.5947837105
 20
-55.3938650103
 10
27.7480664736
 20
-55.3413265824
 10
27.893315803
 20
-55.2842229034
 10
28.0302244831
 20
-55.22291832
 10
28.1585344843
 20
-55.1577568875
 10
28.2775085934
 20
-55.0893733983
 10
28.386945009
 20
-55.0181862118
 10
28.4871132576
 20
-54.9442581558
 10
28.5773621102
 20
-54.8682933745
 10
28.6574259443
 20
-54.7908121892
 10
28.7276094893
 20
-54.7117223632
 10
28.7872395377
 20
-54.6319664767
 10
28.8361631201
 20
-54.5520782611
 10
28.8747805433
 20
-54.4714313783
 10
28.9027677423
 20
-54.3901448089
 10
28.9196509854
 20
-54.308916546
 10
28.9253038667
 20
-54.2276426621
  0
LINE
  5
501
100
AcDbEntity
  8
DRAFT
100
AcDbLine
 62
7
  6
CONTINUOUS
 10
27.85888183
 20
-54.6687889048
 11
27.8816415519
 21
-55.2888125472
  0
LINE
  5
502
100
AcDbEntity
  8
SMUSSO
100
AcDbLine
 62
250
  6
CONTINUOUS
 10
25.7962751329
 20
-52.4824050391
 11
25.8038594697
 21
-53.2261007264
  0
LINE
  5
503
100
AcDbEntity
  8
0
100
AcDbLine
 62
7
  6
CONTINUOUS
 10
24.12499329
 20
-59.3296714357
 11
24.1246942012
 21
-59.2902712923
  0
LINE
  5
504
100
AcDbEntity
  8
RACCORDO
100
AcDbLine
 62
250
  6
CONTINUOUS
 10
25.7267907387
 20
-54.8586254199
 11
25.7230512606
 21
-53.4355871023
  0
LINE
  5
505
100
AcDbEntity
  8
DRAFT
100
AcDbLine
 62
7
  6
CONTINUOUS
 10
27.9077611958
 20
-54.6970112381
 11
27.9084632511
 21
-55.2774402217
  0
LINE
  5
506
100
AcDbEntity
  8
RACCORDO
100
AcDbLine
 62
250
  6
CONTINUOUS
 10
26.4556163768
 20
-54.9031111703
 11
26.4550779856
 21
-53.8582501589
  0
LINE
  5
507
100
AcDbEntity
  8
SMUSSO
100
AcDbLine
 62
250
  6
CONTINUOUS
 10
26.2571135578
 20
-52.6405044009
 11
26.2573594471
 21
-53.4230969037
  0
LINE
  5
508
100
AcDbEntity
  8
0
100
AcDbLine
 62
250
  6
CONTINUOUS
 10
23.8269499765
 20
-60.5395367448
 11
23.8269499754
 21
-84.9598514297
  0
LINE
  5
509
100
AcDbEntity
  8
0
100
AcDbLine
 62
7
  6
CONTINUOUS
 10
24.3633499968
 20
-59.152474427
 11
24.3633499968
 21
-59.1894720032
  0
LINE
  5
50A
100
AcDbEntity
  8
0
100
AcDbLine
 62
250
  6
CONTINUOUS
 10
25.2938410641
 20
-84.9176935439
 11
25.2938410652
 21
-60.4926043933
  0
LINE
  5
50B
100
AcDbEntity
  8
0
100
AcDbLine
 62
7
  6
CONTINUOUS
 10
25.2938408655
 20
-84.9176933931
 11
25.2938012472
 21
-84.9266829138
  0
LINE
  5
50C
100
AcDbEntity
  8
RACCORDO
100
AcDbLine
 62
250
  6
CONTINUOUS
 10
26.2559629689
 20
-52.5493221015
 11
26.2556437657
 21
-52.6405048627
  0
LINE
  5
50D
100
AcDbEntity
  8
RACCORDO
100
AcDbLine
 62
250
  6
CONTINUOUS
 10
26.2569066279
 20
-52.449512548
 11
26.2559629689
 21
-52.5493221015
  0
LWPOLYLINE
  5
50E
100
AcDbEntity
  8
0
100
AcDbPolyline
 62
250
  6
CONTINUOUS
 90
4
 70
0
 10
23.8174994894
 20
-85.7002629103
 10
23.8161476242
 20
-85.8227456376
 10
23.8140895145
 20
-85.9447014115
 10
23.8099116411
 20
-86.1369093274
  0
LINE
  5
50F
100
AcDbEntity
  8
0
100
AcDbLine
 62
250
  6
CONTINUOUS
 10
25.2937998087
 20
-84.9266818163
 11
25.2905537836
 21
-85.1780230985
  0
LINE
  5
510
100
AcDbEntity
  8
RACCORDO
100
AcDbLine
 62
250
  6
CONTINUOUS
 10
26.2584335005
 20
-52.3454383501
 11
26.2569066279
 21
-52.449512548
  0
LINE
  5
511
100
AcDbEntity
  8
0
100
AcDbLine
 62
250
  6
CONTINUOUS
 10
25.2905537836
 20
-85.1780230985
 11
25.2862122731
 21
-85.4285446373
  0
LINE
  5
512
100
AcDbEntity
  8
RACCORDO
100
AcDbLine
 62
250
  6
CONTINUOUS
 10
26.2604768556
 20
-52.2416480378
 11
26.2584335005
 21
-52.3454383501
  0
LINE
  5
513
100
AcDbEntity
  8
0
100
AcDbLine
 62
250
  6
CONTINUOUS
 10
25.2862122731
 20
-85.4285446373
 11
25.2807753216
 21
-85.6782385359
  0
LINE
  5
514
100
AcDbEntity
  8
RACCORDO
100
AcDbLine
 62
250
  6
CONTINUOUS
 10
26.2629473891
 20
-52.1426777423
 11
26.2604768556
 21
-52.2416480378
  0
LINE
  5
515
100
AcDbEntity
  8
0
100
AcDbLine
 62
250
  6
CONTINUOUS
 10
25.2807753216
 20
-85.6782385359
 11
25.2742429425
 21
-85.9270975804
  0
LWPOLYLINE
  5
516
100
AcDbEntity
  8
0
100
AcDbPolyline
 62
250
  6
CONTINUOUS
 90
5
 70
0
 10
23.8278430155
 20
-84.9601676996
 10
23.8242971329
 20
-85.083600991
 10
23.8219007254
 20
-85.2071451951
 10
23.8203357002
 20
-85.3306910135
 10
23.8174994894
 20
-85.7002629103
  0
LWPOLYLINE
  5
517
100
AcDbEntity
  8
0
100
AcDbPolyline
 62
250
  6
CONTINUOUS
 90
6
 70
0
 10
23.8099116411
 20
-86.1369093274
 10
23.807874254
 20
-86.207339013
 10
23.8054710842
 20
-86.2774935458
 10
23.8035246361
 20
-86.3477648014
 10
23.8028256879
 20
-86.4185288086
 10
23.8004437233
 20
-86.4883338691
  0
LWPOLYLINE
  5
518
100
AcDbEntity
  8
0
100
AcDbPolyline
 62
250
  6
CONTINUOUS
 90
5
 70
0
 10
23.8023553879
 20
-86.5037799676
 10
23.7973302112
 20
-86.6743056115
 10
23.79152387
 20
-86.8442210157
 10
23.7849378927
 20
-87.0135115083
 10
23.7774060317
 20
-87.1820732561
  0
LINE
  5
519
100
AcDbEntity
  8
0
100
AcDbLine
 62
250
  6
CONTINUOUS
 10
23.7336183036
 20
-88.0182187476
 11
23.7300682512
 21
-88.1441462218
  0
LWPOLYLINE
  5
51A
100
AcDbEntity
  8
0
100
AcDbPolyline
 62
250
  6
CONTINUOUS
 90
16
 70
0
 10
23.8269501284
 20
-60.5395365615
 10
23.8282999505
 20
-60.4951946454
 10
23.8324665713
 20
-60.4490044129
 10
23.8394014579
 20
-60.4013178983
 10
23.849070094
 20
-60.3524465313
 10
23.8613773128
 20
-60.3028563735
 10
23.8761139266
 20
-60.2532385595
 10
23.8930495624
 20
-60.2043123316
 10
23.9120472894
 20
-60.1564956396
 10
23.9329972969
 20
-60.1100201896
 10
23.9557208428
 20
-60.0652626149
 10
23.9798914141
 20
-60.0229005883
 10
24.0051481259
 20
-59.9835759925
 10
24.0312537952
 20
-59.9476714569
 10
24.0580754273
 20
-59.9154117548
 10
24.0854481279
 20
-59.8870648074
  0
LINE
  5
51B
100
AcDbEntity
  8
0
100
AcDbLine
 62
250
  6
CONTINUOUS
 10
25.2742429425
 20
-85.9270975804
 11
25.2658213914
 21
-86.1991579003
  0
LINE
  5
51C
100
AcDbEntity
  8
0
100
AcDbLine
 62
250
  6
CONTINUOUS
 10
23.7300682512
 20
-88.1441462218
 11
23.7257347188
 21
-88.2705396511
  0
LINE
  5
51D
100
AcDbEntity
  8
0
100
AcDbLine
 62
250
  6
CONTINUOUS
 10
25.2658213914
 20
-86.1991579003
 11
25.2570559144
 21
-86.4450539715
  0
LINE
  5
51E
100
AcDbEntity
  8
0
100
AcDbLine
 62
250
  6
CONTINUOUS
 10
25.2570559144
 20
-86.4450539715
 11
25.2482269864
 21
-86.6660480443
  0
LINE
  5
51F
100
AcDbEntity
  8
0
100
AcDbLine
 62
250
  6
CONTINUOUS
 10
23.7257347188
 20
-88.2705396511
 11
23.7206011832
 21
-88.3973729375
  0
LINE
  5
520
100
AcDbEntity
  8
0
100
AcDbLine
 62
250
  6
CONTINUOUS
 10
25.2482269864
 20
-86.6660480443
 11
25.2327768094
 21
-87.0085888304
  0
LWPOLYLINE
  5
521
100
AcDbEntity
  8
RACCORDO
100
AcDbPolyline
 62
250
  6
CONTINUOUS
 90
5
 70
0
 10
26.27025102
 20
-51.9436992153
 10
26.2687241449
 20
-51.9760994308
 10
26.2672139988
 20
-52.0126173741
 10
26.2657371271
 20
-52.0528529448
 10
26.2629473891
 20
-52.1426777423
  0
LINE
  5
522
100
AcDbEntity
  8
0
100
AcDbLine
 62
250
  6
CONTINUOUS
 10
23.7774060317
 20
-87.1820732561
 11
23.7518201515
 21
-87.6847663504
  0
LINE
  5
523
100
AcDbEntity
  8
0
100
AcDbLine
 62
250
  6
CONTINUOUS
 10
23.6492726157
 20
-89.4379171065
 11
23.6264147603
 21
-89.8844677115
  0
LINE
  5
524
100
AcDbEntity
  8
0
100
AcDbLine
 62
250
  6
CONTINUOUS
 10
25.2327768094
 20
-87.0085888304
 11
25.2152529698
 21
-87.3493855354
  0
LINE
  5
525
100
AcDbEntity
  8
0
100
AcDbLine
 62
250
  6
CONTINUOUS
 10
23.7518201515
 20
-87.6847663504
 11
23.7336183036
 21
-88.0182187476
  0
LINE
  5
526
100
AcDbEntity
  8
0
100
AcDbLine
 62
250
  6
CONTINUOUS
 10
25.2152529698
 20
-87.3493855354
 11
25.1956563127
 21
-87.6884184953
  0
LWPOLYLINE
  5
527
100
AcDbEntity
  8
0
100
AcDbPolyline
 62
250
  6
CONTINUOUS
 90
3
 70
0
 10
23.5769490628
 20
-90.3906065619
 10
23.5683346342
 20
-90.5258594164
 10
23.5641882741
 20
-90.5766512861
  0
LINE
  5
528
100
AcDbEntity
  8
0
100
AcDbLine
 62
250
  6
CONTINUOUS
 10
25.1956563127
 20
-87.6884184953
 11
25.1739879056
 21
-88.0256668003
  0
LWPOLYLINE
  5
529
100
AcDbEntity
  8
0
100
AcDbPolyline
 62
250
  6
CONTINUOUS
 90
10
 70
0
 10
25.1739879056
 20
-88.0256668003
 10
25.1592796556
 20
-88.236576349
 10
25.1438193969
 20
-88.4467381629
 10
25.1276075127
 20
-88.6561471616
 10
25.1106443935
 20
-88.8647982829
 10
25.0929304724
 20
-89.0726864655
 10
25.0744662253
 20
-89.2798066486
 10
25.0552521236
 20
-89.4861537958
 10
25.0352886342
 20
-89.6917228955
 10
25.0145762548
 20
-89.8965089424
  0
LWPOLYLINE
  5
52A
100
AcDbEntity
  8
0
100
AcDbPolyline
 62
7
  6
CONTINUOUS
 90
3
 70
0
 10
20.8948768093
 20
-85.4612559699
 10
20.8947664153
 20
-85.4627370867
 10
20.8947386119
 20
-85.4643096834
  0
LINE
  5
52B
100
AcDbEntity
  8
0
100
AcDbLine
 62
250
  6
CONTINUOUS
 10
23.7283937619
 20
-88.4023613959
 11
23.711277277
 21
-88.6317622142
  0
LWPOLYLINE
  5
52C
100
AcDbEntity
  8
0
100
AcDbPolyline
 62
250
  6
CONTINUOUS
 90
4
 70
0
 10
23.6679855729
 20
-89.1498174516
 10
23.6626000088
 20
-89.2196857096
 10
23.657742582
 20
-89.2922874912
 10
23.6492726157
 20
-89.4379171065
  0
LINE
  5
52D
100
AcDbEntity
  8
0
100
AcDbLine
 62
250
  6
CONTINUOUS
 10
23.711277277
 20
-88.6317622142
 11
23.6950871358
 21
-88.832147203
  0
LINE
  5
52E
100
AcDbEntity
  8
0
100
AcDbLine
 62
250
  6
CONTINUOUS
 10
23.6950871358
 20
-88.832147203
 11
23.6679855729
 21
-89.1498174516
  0
LINE
  5
52F
100
AcDbEntity
  8
0
100
AcDbLine
 62
7
  6
CONTINUOUS
 10
20.8951165105
 20
-85.4584185924
 11
20.8948768093
 21
-85.4612559699
  0
LINE
  5
530
100
AcDbEntity
  8
0
100
AcDbLine
 62
250
  6
CONTINUOUS
 10
23.5641882741
 20
-90.5766512861
 11
23.5564363857
 21
-90.6618565041
  0
LWPOLYLINE
  5
531
100
AcDbEntity
  8
0
100
AcDbPolyline
 62
250
  6
CONTINUOUS
 90
3
 70
0
 10
23.5958516187
 20
-90.1805341286
 10
23.5845188495
 20
-90.2974900792
 10
23.5769490628
 20
-90.3906065619
  0
LINE
  5
532
100
AcDbEntity
  8
0
100
AcDbLine
 62
250
  6
CONTINUOUS
 10
23.5564363857
 20
-90.6618565041
 11
23.5397406089
 21
-90.8345461626
  0
LINE
  5
533
100
AcDbEntity
  8
0
100
AcDbLine
 62
250
  6
CONTINUOUS
 10
23.5397406089
 20
-90.8345461626
 11
23.5224693985
 21
-91.005881587
  0
LINE
  5
534
100
AcDbEntity
  8
0
100
AcDbLine
 62
250
  6
CONTINUOUS
 10
23.6264147603
 20
-89.8844677115
 11
23.5958516187
 21
-90.1805341286
  0
LWPOLYLINE
  5
535
100
AcDbEntity
  8
0
100
AcDbPolyline
 62
250
  6
CONTINUOUS
 90
3
 70
0
 10
23.5224693985
 20
-91.005881587
 10
23.4955665896
 20
-91.2597081151
 10
23.4776063033
 20
-91.4213196454
  0
LINE
  5
536
100
AcDbEntity
  8
0
100
AcDbLine
 62
250
  6
CONTINUOUS
 10
20.7901718999
 20
-85.8612178562
 11
20.7316297696
 21
-86.2065021546
  0
LINE
  5
537
100
AcDbEntity
  8
0
100
AcDbLine
 62
250
  6
CONTINUOUS
 10
20.7316097836
 20
-86.2065272803
 11
20.7072813576
 21
-86.3437454037
  0
LWPOLYLINE
  5
538
100
AcDbEntity
  8
0
100
AcDbPolyline
 62
250
  6
CONTINUOUS
 90
7
 70
0
 10
20.7072813576
 20
-86.3437454037
 10
20.6821992135
 20
-86.4792024047
 10
20.6693697708
 20
-86.5462646374
 10
20.6563020158
 20
-86.61283766
 10
20.6429853082
 20
-86.6789088814
 10
20.6294365484
 20
-86.7444950794
 10
20.6156594424
 20
-86.809601455
  0
LWPOLYLINE
  5
539
100
AcDbEntity
  8
0
100
AcDbPolyline
 62
250
  6
CONTINUOUS
 90
5
 70
0
 10
20.8391324925
 20
-85.6016713565
 10
20.8265010197
 20
-85.6648453806
 10
20.8141285789
 20
-85.7291255436
 10
20.802005427
 20
-85.7945185491
 10
20.7901718999
 20
-85.8612178562
  0
LWPOLYLINE
  5
53A
100
AcDbEntity
  8
0
100
AcDbPolyline
 62
250
  6
CONTINUOUS
 90
10
 70
0
 10
9.9168833288
 20
-89.9452280431
 10
9.8311962434
 20
-90.1956465456
 10
9.7421305272
 20
-90.4422342546
 10
9.6489192405
 20
-90.6876312418
 10
9.550970958
 20
-90.9333794236
 10
9.4483395883
 20
-91.1792174328
 10
9.3418393504
 20
-91.4232394895
 10
9.2315984727
 20
-91.6652751437
 10
9.1170397499
 20
-91.9066626438
 10
8.9975421468
 20
-92.1485201574
  0
LWPOLYLINE
  5
53B
100
AcDbEntity
  8
RACCORDO
100
AcDbPolyline
 62
250
  6
CONTINUOUS
 90
7
 70
0
 10
22.8919664534
 20
-53.8475791546
 10
22.9079112894
 20
-53.8210773786
 10
22.9236814249
 20
-53.7993386958
 10
22.9391040786
 20
-53.7826012761
 10
22.9540102767
 20
-53.7710484938
 10
22.968236704
 20
-53.764806919
 10
22.9829077418
 20
-53.7641541644
  0
LWPOLYLINE
  5
53C
100
AcDbEntity
  8
RACCORDO
100
AcDbPolyline
 62
250
  6
CONTINUOUS
 90
8
 70
0
 10
23.6288897476
 20
-55.3392121046
 10
23.6081149478
 20
-55.3719069091
 10
23.5898280491
 20
-55.4060885099
 10
23.5743350422
 20
-55.4411849571
 10
23.5618951692
 20
-55.4766089899
 10
23.5527165841
 20
-55.5117678676
 10
23.5469528701
 20
-55.5460732876
 10
23.5447004708
 20
-55.578951227
  0
LINE
  5
53D
100
AcDbEntity
  8
0
100
AcDbLine
 62
7
  6
CONTINUOUS
 10
8.9544268946
 20
-74.6896365979
 11
8.8014791273
 21
-74.9166577655
  0
LINE
  5
53E
100
AcDbEntity
  8
0
100
AcDbLine
 62
7
  6
CONTINUOUS
 10
8.9501391068
 20
-74.7152293281
 11
8.9756403
 21
-74.6773882435
  0
LWPOLYLINE
  5
53F
100
AcDbEntity
  8
0
100
AcDbPolyline
 62
7
  6
CONTINUOUS
 90
22
 70
0
 10
8.5030327679
 20
-72.3779331187
 10
8.4550440715
 20
-72.4474422426
 10
8.4136542611
 20
-72.5248304459
 10
8.3791107491
 20
-72.6096377959
 10
8.351624179
 20
-72.7013581922
 10
8.3313548132
 20
-72.7994494256
 10
8.3184115311
 20
-72.9033363845
 10
8.3128672461
 20
-73.0124053799
 10
8.3147596595
 20
-73.126006956
 10
8.3240786145
 20
-73.2434667589
 10
8.3407638957
 20
-73.3640911597
 10
8.364720121
 20
-73.4871629685
 10
8.3958184806
 20
-73.6119447864
 10
8.4338695578
 20
-73.7376996124
 10
8.4786493043
 20
-73.8636810127
 10
8.5299149217
 20
-73.9891290949
 10
8.5873584434
 20
-74.1133023811
 10
8.6506385428
 20
-74.2354651389
 10
8.7194074751
 20
-74.35487751
 10
8.7932649904
 20
-74.4708272949
 10
8.8717607345
 20
-74.5826341547
 10
8.9544268946
 20
-74.6896365979
  0
LWPOLYLINE
  5
540
100
AcDbEntity
  8
0
100
AcDbPolyline
 62
7
  6
CONTINUOUS
 90
8
 70
0
 10
8.1320225762
 20
-71.7658660328
 10
8.0502274341
 20
-71.8678434415
 10
7.9801574743
 20
-71.9840478905
 10
7.9221971548
 20
-72.1136769506
 10
7.8766360772
 20
-72.255946069
 10
7.843803181
 20
-72.4098729016
 10
7.8240063516
 20
-72.5742246334
 10
7.8174099929
 20
-72.7477628892
  0
LWPOLYLINE
  5
541
100
AcDbEntity
  8
0
100
AcDbPolyline
 62
7
  6
CONTINUOUS
 90
20
 70
0
 10
15.8602189697
 20
-65.0867928655
 10
15.9165110254
 20
-65.0281165272
 10
15.9644166117
 20
-64.9590885667
 10
16.0034553265
 20
-64.8804117055
 10
16.0331361265
 20
-64.7930381721
 10
16.0531605846
 20
-64.6980114066
 10
16.0634158697
 20
-64.5962246768
 10
16.063803763
 20
-64.488512466
 10
16.0542539195
 20
-64.3758295199
 10
16.0348413966
 20
-64.2594501072
 10
16.0058165876
 20
-64.1407481015
 10
15.9674927056
 20
-64.0210508115
 10
15.9202629947
 20
-63.90151668
 10
15.8646702856
 20
-63.7832977097
 10
15.8012815432
 20
-63.6676706993
 10
15.7307173774
 20
-63.5557920824
 10
15.6536787382
 20
-63.4486135463
 10
15.5707658334
 20
-63.3471243547
 10
15.4829087419
 20
-63.2525942135
 10
15.3914107272
 20
-63.1662589945
  0
LWPOLYLINE
  5
542
100
AcDbEntity
  8
RACCORDO
100
AcDbPolyline
 62
250
  6
CONTINUOUS
 90
6
 70
0
 10
23.7568001964
 20
-55.215821232
 10
23.729417362
 20
-55.2336809945
 10
23.7024927091
 20
-55.2553404355
 10
23.6764767592
 20
-55.2804371371
 10
23.6518048291
 20
-55.3085511674
 10
23.6288897476
 20
-55.3392121046
  0
LWPOLYLINE
  5
543
100
AcDbEntity
  8
SMUSSO
100
AcDbPolyline
 62
7
  6
CONTINUOUS
 90
8
 70
0
 10
22.1525753508
 20
-52.7054320005
 10
22.0887459147
 20
-52.7431655896
 10
21.9940870247
 20
-52.8054254471
 10
21.9066339747
 20
-52.8710986331
 10
21.8267519841
 20
-52.9399097742
 10
21.7547743053
 20
-53.0115717498
 10
21.6910039917
 20
-53.0857838554
 10
21.672753928
 20
-53.1110168563
  0
LINE
  5
544
100
AcDbEntity
  8
0
100
AcDbLine
 62
7
  6
CONTINUOUS
 10
6.7500785917
 20
-61.6965592367
 11
6.7288610076
 21
-61.7088100039
  0
LINE
  5
545
100
AcDbEntity
  8
0
100
AcDbLine
 62
7
  6
CONTINUOUS
 10
10.2632433553
 20
-60.2867381572
 11
10.2420299136
 21
-60.2989865327
  0
LINE
  5
546
100
AcDbEntity
  8
0
100
AcDbLine
 62
7
  6
CONTINUOUS
 10
7.9328747131
 20
-62.4017954926
 11
7.9116600266
 21
-62.4140445867
  0
LINE
  5
547
100
AcDbEntity
  8
0
100
AcDbLine
 62
7
  6
CONTINUOUS
 10
11.6419008793
 20
-61.0676816488
 11
11.6206854804
 21
-61.0799311542
  0
LINE
  5
548
100
AcDbEntity
  8
0
100
AcDbLine
 62
7
  6
CONTINUOUS
 10
9.0932103825
 20
-63.0821228655
 11
9.0719970432
 21
-63.0943711817
  0
LINE
  5
549
100
AcDbEntity
  8
0
100
AcDbLine
 62
7
  6
CONTINUOUS
 10
12.252917737
 20
-61.4090154063
 11
12.2317008494
 21
-61.4212657713
  0
LINE
  5
54A
100
AcDbEntity
  8
0
100
AcDbLine
 62
7
  6
CONTINUOUS
 10
10.2632395736
 20
-63.7568949629
 11
10.2420261309
 21
-63.7691433389
  0
LINE
  5
54B
100
AcDbEntity
  8
0
100
AcDbLine
 62
7
  6
CONTINUOUS
 10
11.6512877546
 20
-63.201352891
 11
11.6300723351
 21
-63.2136024084
  0
LINE
  5
54C
100
AcDbEntity
  8
0
100
AcDbLine
 62
7
  6
CONTINUOUS
 10
13.6505900897
 20
-62.1790061027
 11
13.6293683929
 21
-62.1912592445
  0
LWPOLYLINE
  5
54D
100
AcDbEntity
  8
RACCORDO
100
AcDbPolyline
 62
250
  6
CONTINUOUS
 90
7
 70
0
 10
28.593807537
 20
-52.4229938154
 10
28.6211904006
 20
-52.4092325547
 10
28.6481150751
 20
-52.39980008
 10
28.6741310385
 20
-52.3948542219
 10
28.6988029737
 20
-52.394477738
 10
28.7217180529
 20
-52.3986769277
 10
28.7438147851
 20
-52.4081314621
  0
LINE
  5
54E
100
AcDbEntity
  8
RACCORDO
100
AcDbLine
 62
250
  6
CONTINUOUS
 10
9.1860023416
 20
-44.0721353347
 11
9.2110628988
 21
-44.0658290629
  0
LINE
  5
54F
100
AcDbEntity
  8
RACCORDO
100
AcDbLine
 62
250
  6
CONTINUOUS
 10
9.1081423507
 20
-44.0873351482
 11
9.1860023416
 21
-44.0721353347
  0
LWPOLYLINE
  5
550
100
AcDbEntity
  8
RACCORDO
100
AcDbPolyline
 62
7
  6
CONTINUOUS
 90
3
 70
0
 10
9.0917612771
 20
-44.0703329974
 10
9.162576987
 20
-44.0566394767
 10
9.1693529441
 20
-44.0549406891
  0
LINE
  5
551
100
AcDbEntity
  8
RACCORDO
100
AcDbLine
 62
250
  6
CONTINUOUS
 10
9.0520646397
 20
-44.095578432
 11
9.1081423507
 21
-44.0873351482
  0
LINE
  5
552
100
AcDbEntity
  8
RACCORDO
100
AcDbLine
 62
250
  6
CONTINUOUS
 10
8.9954733416
 20
-44.101760765
 11
9.0520646397
 21
-44.095578432
  0
LWPOLYLINE
  5
553
100
AcDbEntity
  8
RACCORDO
100
AcDbPolyline
 62
250
  6
CONTINUOUS
 90
16
 70
0
 10
11.0391403426
 20
-43.1494468008
 10
10.986900303
 20
-43.1525645633
 10
10.9352323583
 20
-43.1601205988
 10
10.8847025679
 20
-43.1720321814
 10
10.8358645704
 20
-43.188168851
 10
10.7892534049
 20
-43.2083538783
 10
10.7453796674
 20
-43.2323662315
 10
10.704724062
 20
-43.2599429294
 10
10.6677321177
 20
-43.2907818881
 10
10.6348092048
 20
-43.3245452862
 10
10.6063160994
 20
-43.3608632824
 10
10.5825651025
 20
-43.3993379776
 10
10.5638165794
 20
-43.4395477541
 10
10.5502760221
 20
-43.4810520269
 10
10.5420918365
 20
-43.5233960869
 10
10.5393537599
 20
-43.5661159818
  0
LWPOLYLINE
  5
554
100
AcDbEntity
  8
RACCORDO
100
AcDbPolyline
 62
250
  6
CONTINUOUS
 90
35
 70
0
 10
7.8499212394
 20
-41.328185925
 10
8.0567908677
 20
-41.3340672764
 10
8.2620303823
 20
-41.3476978527
 10
8.4656272808
 20
-41.3688578437
 10
8.6642850297
 20
-41.3968477163
 10
8.8580150994
 20
-41.4319638358
 10
9.0468060195
 20
-41.4739098369
 10
9.2273268461
 20
-41.521097091
 10
9.3991835947
 20
-41.573767082
 10
9.5627702497
 20
-41.6316783259
 10
9.7159378208
 20
-41.6925177421
 10
9.8578811425
 20
-41.7561648034
 10
9.9894053801
 20
-41.8227400371
 10
10.1107770403
 20
-41.890291944
 10
10.2215954766
 20
-41.9585728561
 10
10.3222613353
 20
-42.0278304415
 10
10.414243062
 20
-42.0968562055
 10
10.4975070771
 20
-42.1654973402
 10
10.5720869602
 20
-42.2339066536
 10
10.6395518952
 20
-42.3013340747
 10
10.699939479
 20
-42.3676648342
 10
10.7532121147
 20
-42.4330137015
 10
10.8008261963
 20
-42.4969749138
 10
10.8428479445
 20
-42.5594613507
 10
10.8792111385
 20
-42.6205601326
 10
10.9111735094
 20
-42.6801268577
 10
10.9388143136
 20
-42.738100909
 10
10.9620542947
 20
-42.7945429035
 10
10.981913415
 20
-42.8494902901
 10
10.9984712785
 20
-42.9028968826
 10
11.0116482812
 20
-42.9548088671
 10
11.0222255739
 20
-43.0054022504
 10
11.0304635401
 20
-43.0547357017
 10
11.0361017964
 20
-43.1027505518
 10
11.0391403426
 20
-43.1494468008
  0
LWPOLYLINE
  5
555
100
AcDbEntity
  8
0
100
AcDbPolyline
 62
250
  6
CONTINUOUS
 90
8
 70
0
 10
10.0455982929
 20
-37.4095614197
 10
10.0328341257
 20
-37.4060149774
 10
10.0101105798
 20
-37.4040836981
 10
9.9859400085
 20
-37.4072728471
 10
9.9606832967
 20
-37.415579354
 10
9.9345776274
 20
-37.4289219095
 10
9.9077559953
 20
-37.4472190042
 10
9.8803832947
 20
-37.4703843464
  0
LWPOLYLINE
  5
556
100
AcDbEntity
  8
0
100
AcDbPolyline
 62
250
  6
CONTINUOUS
 90
13
 70
0
 10
9.8773355762
 20
-37.469300676
 10
9.8077898971
 20
-37.4473228808
 10
9.7357687584
 20
-37.429580126
 10
9.6612721602
 20
-37.4160724116
 10
9.5833377583
 20
-37.4066932775
 10
9.5029278968
 20
-37.4015491838
 10
9.4229296079
 20
-37.4009595106
 10
9.3433868593
 20
-37.4051813216
 10
9.2642556833
 20
-37.4139575532
 10
9.1882912086
 20
-37.4268363936
 10
9.1164118115
 20
-37.4436672391
 10
9.0476991158
 20
-37.4646006936
 10
8.9821531214
 20
-37.4896367569
  0
LWPOLYLINE
  5
557
100
AcDbEntity
  8
0
100
AcDbPolyline
 62
7
  6
CONTINUOUS
 90
12
 70
0
 10
10.045945608
 20
-37.40968818
 10
9.9933553325
 20
-37.3919029381
 10
9.863758914
 20
-37.356456172
 10
9.7297348591
 20
-37.3310514612
 10
9.591887075
 20
-37.3156993412
 10
9.4522211194
 20
-37.3105896169
 10
9.3125081371
 20
-37.3157043491
 10
9.1748713715
 20
-37.3309923429
 10
9.0419222523
 20
-37.3561703401
 10
8.913990667
 20
-37.3911597804
 10
8.7908594034
 20
-37.4363706463
 10
8.7761684544
 20
-37.4426174357
  0
LINE
  5
558
100
AcDbEntity
  8
0
100
AcDbLine
 62
250
  6
CONTINUOUS
 10
9.8773355762
 20
-37.469300676
 11
10.0785123996
 21
-37.541651872
  0
LINE
  5
559
100
AcDbEntity
  8
0
100
AcDbLine
 62
250
  6
CONTINUOUS
 10
10.0785123996
 20
-37.541651872
 11
10.2671944044
 21
-37.6105783652
  0
LINE
  5
55A
100
AcDbEntity
  8
0
100
AcDbLine
 62
7
  6
CONTINUOUS
 10
11.028344619
 20
-37.7751683535
 11
10.04557442
 21
-37.4095852474
  0
LINE
  5
55B
100
AcDbEntity
  8
0
100
AcDbLine
 62
250
  6
CONTINUOUS
 10
10.2671944044
 20
-37.6105783652
 11
10.4433815907
 21
-37.6760801556
  0
LWPOLYLINE
  5
55C
100
AcDbEntity
  8
0
100
AcDbPolyline
 62
250
  6
CONTINUOUS
 90
14
 70
0
 10
11.0666379487
 20
-37.9159047367
 10
11.2094499226
 20
-37.9724656754
 10
11.3602085958
 20
-38.0332459348
 10
11.5189139682
 20
-38.098245515
 10
11.6849430711
 20
-38.1670086083
 10
11.8589188733
 20
-38.2399910222
 10
12.0427102809
 20
-38.3185601802
 10
12.2418150095
 20
-38.4052446698
 10
12.4507353436
 20
-38.4975159034
 10
12.6548470422
 20
-38.589155541
 10
12.8496420803
 20
-38.6785058115
 10
13.039628483
 20
-38.7672244859
 10
13.2237060849
 20
-38.8540665376
 10
13.4011811726
 20
-38.9386435378
  0
LINE
  5
55D
100
AcDbEntity
  8
0
100
AcDbLine
 62
7
  6
CONTINUOUS
 10
12.2123769464
 20
-38.2586226105
 11
11.028344619
 21
-37.7751683535
  0
LINE
  5
55E
100
AcDbEntity
  8
0
100
AcDbLine
 62
250
  6
CONTINUOUS
 10
13.4011811726
 20
-38.9386435378
 11
13.7393859204
 21
-39.1020879289
  0
LINE
  5
55F
100
AcDbEntity
  8
0
100
AcDbLine
 62
250
  6
CONTINUOUS
 10
13.7393859204
 20
-39.1020879289
 11
14.0572902911
 21
-39.2571019842
  0
LINE
  5
560
100
AcDbEntity
  8
0
100
AcDbLine
 62
250
  6
CONTINUOUS
 10
14.0572902911
 20
-39.2571019842
 11
14.3571971143
 21
-39.4047834318
  0
LINE
  5
561
100
AcDbEntity
  8
0
100
AcDbLine
 62
250
  6
CONTINUOUS
 10
14.3571971143
 20
-39.4047834318
 11
14.6544755518
 21
-39.5527571172
  0
LWPOLYLINE
  5
562
100
AcDbEntity
  8
0
100
AcDbPolyline
 62
250
  6
CONTINUOUS
 90
3
 70
0
 10
14.6544755518
 20
-39.5527571172
 10
15.0049053755
 20
-39.7290194612
 10
15.192207805
 20
-39.824028524
  0
LINE
  5
563
100
AcDbEntity
  8
0
100
AcDbLine
 62
250
  6
CONTINUOUS
 10
15.192207805
 20
-39.824028524
 11
15.5995080581
 21
-40.0327202022
  0
LINE
  5
564
100
AcDbEntity
  8
0
100
AcDbLine
 62
250
  6
CONTINUOUS
 10
15.5995080581
 20
-40.0327202022
 11
15.9615701265
 21
-40.2193560703
  0
LINE
  5
565
100
AcDbEntity
  8
0
100
AcDbLine
 62
250
  6
CONTINUOUS
 10
15.9615701265
 20
-40.2193560703
 11
16.4890164311
 21
-40.4930722284
  0
LINE
  5
566
100
AcDbEntity
  8
0
100
AcDbLine
 62
250
  6
CONTINUOUS
 10
16.4890164311
 20
-40.4930722284
 11
16.9449787203
 21
-40.7312162103
  0
LINE
  5
567
100
AcDbEntity
  8
0
100
AcDbLine
 62
250
  6
CONTINUOUS
 10
16.9449787203
 20
-40.7312162103
 11
17.4126412022
 21
-40.9769647085
  0
LINE
  5
568
100
AcDbEntity
  8
0
100
AcDbLine
 62
250
  6
CONTINUOUS
 10
17.4126412022
 20
-40.9769647085
 11
17.8863948382
 21
-41.2275203839
  0
LINE
  5
569
100
AcDbEntity
  8
0
100
AcDbLine
 62
250
  6
CONTINUOUS
 10
17.8863948382
 20
-41.2275203839
 11
18.2924170341
 21
-41.4435354194
  0
LINE
  5
56A
100
AcDbEntity
  8
0
100
AcDbLine
 62
250
  6
CONTINUOUS
 10
18.2924170341
 20
-41.4435354194
 11
18.7407494902
 21
-41.6834446588
  0
LINE
  5
56B
100
AcDbEntity
  8
0
100
AcDbLine
 62
250
  6
CONTINUOUS
 10
18.7407494902
 20
-41.6834446588
 11
19.2456151906
 21
-41.9553824875
  0
LINE
  5
56C
100
AcDbEntity
  8
0
100
AcDbLine
 62
250
  6
CONTINUOUS
 10
19.2456151906
 20
-41.9553824875
 11
19.6080567105
 21
-42.1517599586
  0
LINE
  5
56D
100
AcDbEntity
  8
0
100
AcDbLine
 62
250
  6
CONTINUOUS
 10
19.6080567105
 20
-42.1517599586
 11
19.9887497489
 21
-42.3590745396
  0
LINE
  5
56E
100
AcDbEntity
  8
0
100
AcDbLine
 62
250
  6
CONTINUOUS
 10
19.9887497489
 20
-42.3590745396
 11
20.407467163
 21
-42.5884019209
  0
LINE
  5
56F
100
AcDbEntity
  8
0
100
AcDbLine
 62
250
  6
CONTINUOUS
 10
20.407467163
 20
-42.5884019209
 11
20.7964963523
 21
-42.8025168426
  0
LINE
  5
570
100
AcDbEntity
  8
0
100
AcDbLine
 62
250
  6
CONTINUOUS
 10
20.7964963523
 20
-42.8025168426
 11
21.1493438116
 21
-42.9978278154
  0
LINE
  5
571
100
AcDbEntity
  8
0
100
AcDbLine
 62
250
  6
CONTINUOUS
 10
21.1493438116
 20
-42.9978278154
 11
21.5096680917
 21
-43.1982305605
  0
LINE
  5
572
100
AcDbEntity
  8
0
100
AcDbLine
 62
250
  6
CONTINUOUS
 10
21.5096680917
 20
-43.1982305605
 11
21.8683897933
 21
-43.3987473299
  0
LINE
  5
573
100
AcDbEntity
  8
0
100
AcDbLine
 62
250
  6
CONTINUOUS
 10
21.8683897933
 20
-43.3987473299
 11
22.3505295341
 21
-43.6697240471
  0
LINE
  5
574
100
AcDbEntity
  8
0
100
AcDbLine
 62
250
  6
CONTINUOUS
 10
22.3505295341
 20
-43.6697240471
 11
22.7518859513
 21
-43.8968196529
  0
LINE
  5
575
100
AcDbEntity
  8
0
100
AcDbLine
 62
250
  6
CONTINUOUS
 10
22.7518859513
 20
-43.8968196529
 11
23.21285275
 21
-44.1590202579
  0
LWPOLYLINE
  5
576
100
AcDbEntity
  8
0
100
AcDbPolyline
 62
7
  6
CONTINUOUS
 90
11
 70
0
 10
24.2686649183
 20
-44.6005281127
 10
23.1325622813
 20
-43.9497214092
 10
21.8547217974
 20
-43.2298983467
 10
20.5932116358
 20
-42.5316165794
 10
19.3488588718
 20
-41.8545564956
 10
18.1223339764
 20
-41.1983283092
 10
16.9141588263
 20
-40.5624814855
 10
15.725350182
 20
-39.9467457587
 10
14.5503429998
 20
-39.3540921191
 10
13.3839840664
 20
-38.7880801798
 10
12.2123769464
 20
-38.2586226105
  0
LINE
  5
577
100
AcDbEntity
  8
0
100
AcDbLine
 62
250
  6
CONTINUOUS
 10
24.337541083
 20
-44.8069425047
 11
24.0191359822
 21
-44.6249807321
  0
LINE
  5
578
100
AcDbEntity
  8
0
100
AcDbLine
 62
250
  6
CONTINUOUS
 10
23.21285275
 20
-44.1590202579
 11
23.531251058
 21
-44.3412997606
  0
LINE
  5
579
100
AcDbEntity
  8
0
100
AcDbLine
 62
7
  6
CONTINUOUS
 10
10.5482440025
 20
-37.6165905692
 11
11.0666379487
 21
-37.9159047367
  0
LINE
  5
57A
100
AcDbEntity
  8
0
100
AcDbLine
 62
7
  6
CONTINUOUS
 10
35.6271155353
 20
-52.0968166801
 11
36.1455094815
 21
-52.3961308477
  0
LINE
  5
57B
100
AcDbEntity
  8
0
100
AcDbLine
 62
250
  6
CONTINUOUS
 10
24.6469725767
 20
-44.9859018664
 11
24.337541083
 21
-44.8069425047
  0
LWPOLYLINE
  5
57C
100
AcDbEntity
  8
0
100
AcDbPolyline
 62
250
  6
CONTINUOUS
 90
3
 70
0
 10
23.531251058
 20
-44.3412997606
 10
23.8549856792
 20
-44.5290133604
 10
24.0191359822
 20
-44.6249807321
  0
LINE
  5
57D
100
AcDbEntity
  8
0
100
AcDbLine
 62
250
  6
CONTINUOUS
 10
25.5016851543
 20
-45.4869587845
 11
24.6469725767
 21
-44.9859018664
  0
LINE
  5
57E
100
AcDbEntity
  8
0
100
AcDbLine
 62
250
  6
CONTINUOUS
 10
26.0597466422
 20
-45.8173438064
 11
25.5016851543
 21
-45.4869587845
  0
LINE
  5
57F
100
AcDbEntity
  8
0
100
AcDbLine
 62
250
  6
CONTINUOUS
 10
26.5580800062
 20
-46.1145466333
 11
26.0597466422
 21
-45.8173438064
  0
LINE
  5
580
100
AcDbEntity
  8
0
100
AcDbLine
 62
250
  6
CONTINUOUS
 10
27.0492055129
 20
-46.4094975611
 11
26.5580800062
 21
-46.1145466333
  0
LINE
  5
581
100
AcDbEntity
  8
0
100
AcDbLine
 62
250
  6
CONTINUOUS
 10
27.5894841931
 20
-46.7364959242
 11
27.0492055129
 21
-46.4094975611
  0
LINE
  5
582
100
AcDbEntity
  8
0
100
AcDbLine
 62
250
  6
CONTINUOUS
 10
28.1345787632
 20
-47.0689263643
 11
27.5894841931
 21
-46.7364959242
  0
LINE
  5
583
100
AcDbEntity
  8
0
100
AcDbLine
 62
250
  6
CONTINUOUS
 10
28.6368510475
 20
-47.3775955654
 11
28.1345787632
 21
-47.0689263643
  0
LINE
  5
584
100
AcDbEntity
  8
0
100
AcDbLine
 62
250
  6
CONTINUOUS
 10
29.2297125095
 20
-47.7448610049
 11
28.6368510475
 21
-47.3775955654
  0
LINE
  5
585
100
AcDbEntity
  8
0
100
AcDbLine
 62
250
  6
CONTINUOUS
 10
29.9715786593
 20
-48.2089751068
 11
29.2297125095
 21
-47.7448610049
  0
LINE
  5
586
100
AcDbEntity
  8
0
100
AcDbLine
 62
250
  6
CONTINUOUS
 10
30.6895642274
 20
-48.6630354088
 11
29.9715786593
 21
-48.2089751068
  0
LINE
  5
587
100
AcDbEntity
  8
0
100
AcDbLine
 62
250
  6
CONTINUOUS
 10
31.3973442991
 20
-49.1153650464
 11
30.6895642274
 21
-48.6630354088
  0
LINE
  5
588
100
AcDbEntity
  8
0
100
AcDbLine
 62
250
  6
CONTINUOUS
 10
31.8040294288
 20
-49.377376837
 11
31.3973442991
 21
-49.1153650464
  0
LINE
  5
589
100
AcDbEntity
  8
0
100
AcDbLine
 62
250
  6
CONTINUOUS
 10
32.1289332167
 20
-49.5881996824
 11
31.8040294288
 21
-49.377376837
  0
LINE
  5
58A
100
AcDbEntity
  8
0
100
AcDbLine
 62
250
  6
CONTINUOUS
 10
32.4694714542
 20
-49.8108105941
 11
32.1289332167
 21
-49.5881996824
  0
LINE
  5
58B
100
AcDbEntity
  8
0
100
AcDbLine
 62
250
  6
CONTINUOUS
 10
32.7644213616
 20
-50.0061662258
 11
32.4694714542
 21
-49.8108105941
  0
LINE
  5
58C
100
AcDbEntity
  8
0
100
AcDbLine
 62
250
  6
CONTINUOUS
 10
33.0251968995
 20
-50.1806209078
 11
32.7644213616
 21
-50.0061662258
  0
LINE
  5
58D
100
AcDbEntity
  8
0
100
AcDbLine
 62
250
  6
CONTINUOUS
 10
33.2632287728
 20
-50.3415764954
 11
33.0251968995
 21
-50.1806209078
  0
LINE
  5
58E
100
AcDbEntity
  8
0
100
AcDbLine
 62
250
  6
CONTINUOUS
 10
33.519051677
 20
-50.5161357086
 11
33.2632287728
 21
-50.3415764954
  0
LWPOLYLINE
  5
58F
100
AcDbEntity
  8
0
100
AcDbPolyline
 62
250
  6
CONTINUOUS
 90
10
 70
0
 10
36.7333587838
 20
-52.8243082231
 10
36.7091027493
 20
-52.8044838444
 10
36.6780893088
 20
-52.7855429736
 10
36.6438942635
 20
-52.770907586
 10
36.6068079931
 20
-52.7606834496
 10
36.5673620594
 20
-52.7550527958
 10
36.5261149718
 20
-52.7541266602
 10
36.4834684876
 20
-52.7579187564
 10
36.439687838
 20
-52.766423927
 10
36.3950797606
 20
-52.7796377787
  0
LWPOLYLINE
  5
590
100
AcDbEntity
  8
0
100
AcDbPolyline
 62
7
  6
CONTINUOUS
 90
12
 70
0
 10
36.0967022654
 20
-52.2527988182
 10
35.2560417538
 20
-51.5655476154
 10
34.3369675848
 20
-50.8869336988
 10
33.3562629563
 20
-50.2129339699
 10
32.3302392055
 20
-49.5345687556
 10
31.2642208375
 20
-48.8483104758
 10
30.1629918465
 20
-48.1506486559
 10
29.0263574155
 20
-47.4423472932
 10
27.8535030908
 20
-46.7236871601
 10
26.643745067
 20
-45.9950505153
 10
25.3965202942
 20
-45.2569094439
 10
24.2686619759
 20
-44.6005264138
  0
LWPOLYLINE
  5
591
100
AcDbEntity
  8
0
100
AcDbPolyline
 62
250
  6
CONTINUOUS
 90
16
 70
0
 10
35.6271155353
 20
-52.0968166801
 10
35.5342066166
 20
-52.0184836776
 10
35.4340434119
 20
-51.9354905232
 10
35.3266259212
 20
-51.847837217
 10
35.2125531273
 20
-51.7557516595
 10
35.0912260475
 20
-51.6590059502
 10
34.9608477329
 20
-51.5569163872
 10
34.8176365329
 20
-51.4467346305
 10
34.6653740982
 20
-51.3312090201
 10
34.5136084324
 20
-51.2179008741
 10
34.3648101828
 20
-51.1090460897
 10
34.2165087021
 20
-51.0024087697
 10
34.0708400521
 20
-50.8988425411
 10
33.9282629552
 20
-50.7987085699
 10
33.7883186891
 20
-50.7016456901
 10
33.519051677
 20
-50.5161357086
  0
LINE
  5
592
100
AcDbEntity
  8
0
100
AcDbLine
 62
250
  6
CONTINUOUS
 10
36.0962893022
 20
-52.5053635965
 11
36.0406470696
 21
-52.455620434
  0
LINE
  5
593
100
AcDbEntity
  8
0
100
AcDbLine
 62
7
  6
CONTINUOUS
 10
36.733297633
 20
-52.8243227593
 11
36.0967022654
 21
-52.2527988182
  0
LINE
  5
594
100
AcDbEntity
  8
0
100
AcDbLine
 62
250
  6
CONTINUOUS
 10
36.1534279241
 20
-52.5569275678
 11
36.0962893022
 21
-52.5053635965
  0
LINE
  5
595
100
AcDbEntity
  8
0
100
AcDbLine
 62
250
  6
CONTINUOUS
 10
36.2721943359
 20
-52.6655179371
 11
36.1534279241
 21
-52.5569275678
  0
LINE
  5
596
100
AcDbEntity
  8
0
100
AcDbLine
 62
250
  6
CONTINUOUS
 10
36.3969463049
 20
-52.781391542
 11
36.2721943359
 21
-52.6655179371
  0
LINE
  5
597
100
AcDbEntity
  8
0
100
AcDbLine
 62
7
  6
CONTINUOUS
 10
36.7351574745
 20
-52.8259996873
 11
36.7333587838
 21
-52.8243082231
  0
LWPOLYLINE
  5
598
100
AcDbEntity
  8
DRAFT
100
AcDbPolyline
 62
7
  6
CONTINUOUS
 90
3
 70
0
 10
29.8595619741
 20
-53.7432089483
 10
29.8691838798
 20
-53.7742641076
 10
29.9092388715
 20
-53.9499311755
  0
LINE
  5
599
100
AcDbEntity
  8
DRAFT
100
AcDbLine
 62
7
  6
CONTINUOUS
 10
29.9092388715
 20
-53.9499311755
 11
29.9227912401
 21
-54.1255983849
  0
LINE
  5
59A
100
AcDbEntity
  8
RACCORDO
100
AcDbLine
 62
7
  6
CONTINUOUS
 10
29.8952554313
 20
-54.0335591291
 11
29.8878993851
 21
-53.9156588526
  0
LWPOLYLINE
  5
59B
100
AcDbEntity
  8
RACCORDO
100
AcDbPolyline
 62
250
  6
CONTINUOUS
 90
3
 70
0
 10
29.417980091
 20
-53.6935364444
 10
29.4251003778
 20
-53.8131107998
 10
29.4191267091
 20
-53.933457998
  0
LINE
  5
59C
100
AcDbEntity
  8
DRAFT
100
AcDbLine
 62
7
  6
CONTINUOUS
 10
29.9016871374
 20
-54.3343828033
 11
29.8952554313
 21
-54.0335591289
  0
LINE
  5
59D
100
AcDbEntity
  8
SMUSSO
100
AcDbLine
 62
250
  6
CONTINUOUS
 10
28.1905581931
 20
-54.86029468
 11
28.1905581931
 21
-53.9139451653
  0
LINE
  5
59E
100
AcDbEntity
  8
0
100
AcDbLine
 62
7
  6
CONTINUOUS
 10
31.4075922024
 20
-57.3535395812
 11
31.4075922024
 21
-81.8358896002
  0
LWPOLYLINE
  5
59F
100
AcDbEntity
  8
0
100
AcDbPolyline
 62
7
  6
CONTINUOUS
 90
5
 70
0
 10
31.4075922024
 20
-81.8358896002
 10
31.3868364009
 20
-83.2599829102
 10
31.3251775241
 20
-84.6557497114
 10
31.2226155721
 20
-86.0231900037
 10
31.078948317
 20
-87.3637416325
  0
LWPOLYLINE
  5
5A0
100
AcDbEntity
  8
DRAFT
100
AcDbPolyline
 62
7
  6
CONTINUOUS
 90
28
 70
0
 10
29.9227912401
 20
-54.1255983849
 10
29.9092383891
 20
-54.3012659538
 10
29.869182915
 20
-54.4769336643
 10
29.803528817
 20
-54.6486398079
 10
29.7116950632
 20
-54.8162935036
 10
29.5942626854
 20
-54.9799856324
 10
29.4538787782
 20
-55.1360271294
 10
29.2900217724
 20
-55.2842447899
 10
29.1032132371
 20
-55.4248118186
 10
28.8976649743
 20
-55.5545587634
 10
28.6729511518
 20
-55.6732397542
 10
28.4294976017
 20
-55.7811006612
 10
28.1727936221
 20
-55.8757096427
 10
27.9025392334
 20
-55.9567655513
 10
27.6190344152
 20
-56.0245695345
 10
27.3286684041
 20
-56.077593193
 10
27.0312837995
 20
-56.1155010464
 10
26.7270380019
 20
-56.1386285751
 10
26.4227924494
 20
-56.1464538214
 10
26.1185475195
 20
-56.1386288536
 10
25.8143028347
 20
-56.1155016034
 10
25.5169187005
 20
-56.0775939084
 10
25.226551832
 20
-56.0245702074
 10
24.9430455141
 20
-55.9567660616
 10
24.6727899066
 20
-55.8757099922
 10
24.4179150627
 20
-55.7819115062
 10
24.1762909292
 20
-55.6748610966
 10
23.947917506
 20
-55.5545587634
  0
LINE
  5
5A1
100
AcDbEntity
  8
DRAFT
100
AcDbLine
 62
7
  6
CONTINUOUS
 10
28.0164229987
 20
-55.2290983099
 11
28.0569939578
 21
-54.7831763645
  0
LWPOLYLINE
  5
5A2
100
AcDbEntity
  8
0
100
AcDbPolyline
 62
250
  6
CONTINUOUS
 90
10
 70
0
 10
25.0145762548
 20
-89.8965089424
 10
24.9941350196
 20
-90.0912495383
 10
24.9729501609
 20
-90.2852920731
 10
24.9510222073
 20
-90.4786321324
 10
24.9283517025
 20
-90.6712650968
 10
24.904939216
 20
-90.863186797
 10
24.8807853331
 20
-91.0543935057
 10
24.8558906445
 20
-91.2448810687
 10
24.8302557566
 20
-91.4346449118
 10
24.803881296
 20
-91.6236806909
  0
LINE
  5
5A3
100
AcDbEntity
  8
0
100
AcDbLine
 62
250
  6
CONTINUOUS
 10
23.4776063033
 20
-91.4213196454
 11
23.4374770051
 21
-91.7661768809
  0
LINE
  5
5A4
100
AcDbEntity
  8
0
100
AcDbLine
 62
250
  6
CONTINUOUS
 10
23.4374770051
 20
-91.7661768809
 11
23.4021898144
 21
-92.0528342779
  0
LINE
  5
5A5
100
AcDbEntity
  8
0
100
AcDbLine
 62
250
  6
CONTINUOUS
 10
23.4021898144
 20
-92.0528342779
 11
23.3722328025
 21
-92.283552871
  0
LINE
  5
5A6
100
AcDbEntity
  8
0
100
AcDbLine
 62
250
  6
CONTINUOUS
 10
23.3722328025
 20
-92.283552871
 11
23.3417651248
 21
-92.508610089
  0
LINE
  5
5A7
100
AcDbEntity
  8
0
100
AcDbLine
 62
250
  6
CONTINUOUS
 10
23.3417651248
 20
-92.508610089
 11
23.3093345777
 21
-92.738054604
  0
LWPOLYLINE
  5
5A8
100
AcDbEntity
  8
0
100
AcDbPolyline
 62
250
  6
CONTINUOUS
 90
10
 70
0
 10
24.803881296
 20
-91.6236806909
 10
24.7650095151
 20
-91.892598619
 10
24.7246626765
 20
-92.1599880212
 10
24.6828428938
 20
-92.4258365114
 10
24.6395522795
 20
-92.6901313472
 10
24.5947931718
 20
-92.9528606694
 10
24.5485681012
 20
-93.2140134783
 10
24.5008795045
 20
-93.4735779916
 10
24.4517297572
 20
-93.7315416695
 10
24.401121377
 20
-93.9878924378
  0
LWPOLYLINE
  5
5A9
100
AcDbEntity
  8
0
100
AcDbPolyline
 62
250
  6
CONTINUOUS
 90
3
 70
0
 10
23.3093345777
 20
-92.738054604
 10
23.277004787
 20
-92.9547552925
 10
23.2596274667
 20
-93.0669619063
  0
LWPOLYLINE
  5
5AA
100
AcDbEntity
  8
RACCORDO
100
AcDbPolyline
 62
250
  6
CONTINUOUS
 90
25
 70
0
 10
29.4191267091
 20
-53.933457998
 10
29.4000783835
 20
-54.0527390964
 10
29.3677426099
 20
-54.1708054958
 10
29.3223321793
 20
-54.2878057954
 10
29.2645047635
 20
-54.4023468497
 10
29.1941622836
 20
-54.5143621346
 10
29.1114028185
 20
-54.6239181741
 10
29.0171782764
 20
-54.7298213949
 10
28.9113509117
 20
-54.8320664668
 10
28.7940584702
 20
-54.9306587199
 10
28.6666660966
 20
-55.0244205718
 10
28.5289996301
 20
-55.1133171653
 10
28.3812332316
 20
-55.1973833574
 10
28.2252545294
 20
-55.2755461368
 10
28.0610131368
 20
-55.3477030553
 10
27.8885594405
 20
-55.4139565611
 10
27.7099322283
 20
-55.4735409865
 10
27.5251179272
 20
-55.5263804226
 10
27.3341301103
 20
-55.5725507784
 10
27.1390482847
 20
-55.6115141134
 10
26.9397397529
 20
-55.6432119459
 10
26.7363372124
 20
-55.6677027576
 10
26.5313182624
 20
-55.6846240529
 10
26.3244224275
 20
-55.6938416326
 10
26.1159101831
 20
-55.6954896959
  0
LINE
  5
5AB
100
AcDbEntity
  8
0
100
AcDbLine
 62
250
  6
CONTINUOUS
 10
23.2596274667
 20
-93.0669619063
 11
23.2216362592
 21
-93.3015028308
  0
LWPOLYLINE
  5
5AC
100
AcDbEntity
  8
0
100
AcDbPolyline
 62
250
  6
CONTINUOUS
 90
4
 70
0
 10
23.2216362592
 20
-93.3015028308
 10
23.1731039827
 20
-93.5953078963
 10
23.1437707038
 20
-93.7692495103
 10
23.1109420627
 20
-93.9596667171
  0
LWPOLYLINE
  5
5AD
100
AcDbEntity
  8
0
100
AcDbPolyline
 62
250
  6
CONTINUOUS
 90
7
 70
0
 10
23.1109420627
 20
-93.9596667171
 10
23.070452923
 20
-94.1760353136
 10
23.0294904248
 20
-94.3872491228
 10
22.9881210912
 20
-94.593354202
 10
22.94547982
 20
-94.7981783101
 10
22.9025171507
 20
-94.9979497457
 10
22.8622228972
 20
-95.1814671457
  0
LWPOLYLINE
  5
5AE
100
AcDbEntity
  8
0
100
AcDbPolyline
 62
250
  6
CONTINUOUS
 90
4
 70
0
 10
22.8622228972
 20
-95.1814671457
 10
22.7952661208
 20
-95.4851446885
 10
22.7628080307
 20
-95.62511554
 10
22.7283875291
 20
-95.7632799507
  0
LWPOLYLINE
  5
5AF
100
AcDbEntity
  8
0
100
AcDbPolyline
 62
250
  6
CONTINUOUS
 90
10
 70
0
 10
20.6156594424
 20
-86.809601455
 10
20.5360297127
 20
-87.1600647137
 10
20.4475678632
 20
-87.4979918709
 10
20.3508432832
 20
-87.8235205826
 10
20.2469846579
 20
-88.1359029935
 10
20.1359658748
 20
-88.4365781292
 10
20.016367635
 20
-88.7286482472
 10
19.887765235
 20
-89.0129181093
 10
19.7509847753
 20
-89.288403613
 10
19.6062275781
 20
-89.5550911487
  0
LINE
  5
5B0
100
AcDbEntity
  8
0
100
AcDbLine
 62
250
  6
CONTINUOUS
 10
20.6277352066
 20
-86.0753194543
 11
20.5424697514
 21
-86.356041167
  0
LWPOLYLINE
  5
5B1
100
AcDbEntity
  8
0
100
AcDbPolyline
 62
250
  6
CONTINUOUS
 90
3
 70
0
 10
20.5424697514
 20
-86.356041167
 10
20.482232302
 20
-86.5490915653
 10
20.451111886
 20
-86.6473767392
  0
LWPOLYLINE
  5
5B2
100
AcDbEntity
  8
0
100
AcDbPolyline
 62
250
  6
CONTINUOUS
 90
10
 70
0
 10
20.451111886
 20
-86.6473767392
 10
20.3423679597
 20
-86.9655808051
 10
20.2299194534
 20
-87.2699201305
 10
20.113711824
 20
-87.560434046
 10
19.9937669551
 20
-87.8364566437
 10
19.8699374946
 20
-88.0987401614
 10
19.7419252045
 20
-88.3494434577
 10
19.609599696
 20
-88.5893094134
 10
19.472980944
 20
-88.8176784703
 10
19.3320071623
 20
-89.0346034797
  0
LWPOLYLINE
  5
5B3
100
AcDbEntity
  8
0
100
AcDbPolyline
 62
250
  6
CONTINUOUS
 90
10
 70
0
 10
8.997541557
 20
-92.1485199391
 10
8.9609537007
 20
-92.2259068939
 10
8.92874649
 20
-92.3040915332
 10
8.9010905672
 20
-92.3826358889
 10
8.878137156
 20
-92.4611682104
 10
8.8601077496
 20
-92.5390002304
 10
8.8472073974
 20
-92.6152145402
 10
8.8395110299
 20
-92.6892095197
 10
8.8370323108
 20
-92.7607105803
 10
8.8398012788
 20
-92.829357172
  0
LINE
  5
5B4
100
AcDbEntity
  8
0
100
AcDbLine
 62
7
  6
CONTINUOUS
 10
10.9626865177
 20
-77.2714345616
 11
10.7868421412
 21
-77.4569749439
  0
LWPOLYLINE
  5
5B5
100
AcDbEntity
  8
0
100
AcDbPolyline
 62
7
  6
CONTINUOUS
 90
17
 70
0
 10
10.8321328065
 20
-75.6101848723
 10
10.9049286607
 20
-75.5387803707
 10
10.9699773744
 20
-75.4568843956
 10
11.0269009311
 20
-75.3649769656
 10
11.0753279475
 20
-75.2636211625
 10
11.1149700576
 20
-75.1534168578
 10
11.1456008842
 20
-75.035010323
 10
11.1670188664
 20
-74.9091127758
 10
11.1790920634
 20
-74.7764707647
 10
11.181756825
 20
-74.6378631549
 10
11.1749956138
 20
-74.4941097262
 10
11.1588409981
 20
-74.3460636941
 10
11.1333943871
 20
-74.1945957645
 10
11.0988234895
 20
-74.0405903918
 10
11.0553247363
 20
-73.8849615842
 10
11.003158061
 20
-73.7286264077
 10
10.942664382
 20
-73.5724886555
  0
LWPOLYLINE
  5
5B6
100
AcDbEntity
  8
RACCORDO
100
AcDbPolyline
 62
250
  6
CONTINUOUS
 90
28
 70
0
 10
28.9280507258
 20
-54.9913818372
 10
29.0482358186
 20
-54.8909169449
 10
29.1571030604
 20
-54.7868008766
 10
29.2545141069
 20
-54.6788907455
 10
29.3406073025
 20
-54.5673294384
 10
29.4143335965
 20
-54.4537452278
 10
29.4753843787
 20
-54.337855606
 10
29.5240682594
 20
-54.2199430808
 10
29.5602620193
 20
-54.102483448
 10
29.5833316476
 20
-53.9853776051
 10
29.5939111551
 20
-53.8687246547
 10
29.5937793548
 20
-53.7552977011
 10
29.5825246135
 20
-53.6456107626
 10
29.5605585644
 20
-53.5391498209
 10
29.5308949206
 20
-53.4371459255
 10
29.4936243943
 20
-53.3399823056
 10
29.4486562733
 20
-53.2472757321
 10
29.3987321335
 20
-53.1591075673
 10
29.3440459575
 20
-53.075599917
 10
29.2844037628
 20
-52.9966306754
 10
29.2219651783
 20
-52.9219148873
 10
29.156915818
 20
-52.8515087544
 10
29.0890700678
 20
-52.785356075
 10
29.0200307151
 20
-52.7230032887
 10
28.9499663548
 20
-52.6644763712
 10
28.878708392
 20
-52.6097493467
 10
28.8073538286
 20
-52.5582907276
 10
28.736268332
 20
-52.5099233514
  0
LWPOLYLINE
  5
5B7
100
AcDbEntity
  8
0
100
AcDbPolyline
 62
250
  6
CONTINUOUS
 90
3
 70
0
 10
36.3535352589
 20
-53.2935297592
 10
35.8214431093
 20
-53.6864976661
 10
35.2751923336
 20
-54.0770370391
  0
LWPOLYLINE
  5
5B8
100
AcDbEntity
  8
0
100
AcDbPolyline
 62
7
  6
CONTINUOUS
 90
19
 70
0
 10
15.2656549533
 20
-64.4368182073
 10
15.2986096158
 20
-64.4126210037
 10
15.3260578587
 20
-64.3816072248
 10
15.34797371
 20
-64.3439831503
 10
15.3639876372
 20
-64.3002191396
 10
15.373743243
 20
-64.2511076783
 10
15.3770147756
 20
-64.1975962987
 10
15.3737339548
 20
-64.1406207502
 10
15.3639741558
 20
-64.0811475553
 10
15.3479589475
 20
-64.0203076424
 10
15.3260400945
 20
-63.9593196816
 10
15.2985864437
 20
-63.8990645424
 10
15.2659326804
 20
-63.8401920736
 10
15.2283789517
 20
-63.7835029548
 10
15.1866460103
 20
-63.730285277
 10
15.1418186269
 20
-63.6818163058
 10
15.0948201523
 20
-63.6389804413
 10
15.0463118362
 20
-63.6023573056
 10
14.9970999204
 20
-63.5725173355
  0
LWPOLYLINE
  5
5B9
100
AcDbEntity
  8
0
100
AcDbPolyline
 62
7
  6
CONTINUOUS
 90
5
 70
0
 10
35.1290362266
 20
-52.9365021237
 10
34.0755576664
 20
-53.7060353572
 10
32.9856380666
 20
-54.4562922171
 10
31.8592774271
 20
-55.1872727033
 10
31.2867000816
 20
-55.5377068848
  0
LWPOLYLINE
  5
5BA
100
AcDbEntity
  8
0
100
AcDbPolyline
 62
250
  6
CONTINUOUS
 90
4
 70
0
 10
35.2751923336
 20
-54.0770370391
 10
34.7147829319
 20
-54.4651478781
 10
34.1402490136
 20
-54.8508893691
 10
33.5515564691
 20
-55.2342023262
  0
LWPOLYLINE
  5
5BB
100
AcDbEntity
  8
0
100
AcDbPolyline
 62
7
  6
CONTINUOUS
 90
3
 70
0
 10
8.3291007722
 20
-71.6077074672
 10
8.2248683376
 20
-71.6791111976
 10
8.1320225762
 20
-71.7658660328
  0
LINE
  5
5BC
100
AcDbEntity
  8
0
100
AcDbLine
 62
250
  6
CONTINUOUS
 10
33.5515564691
 20
-55.2342023262
 11
32.9486029701
 21
-55.6149091915
  0
LWPOLYLINE
  5
5BD
100
AcDbEntity
  8
0
100
AcDbPolyline
 62
7
  6
CONTINUOUS
 90
7
 70
0
 10
33.2781729429
 20
-56.2427878616
 10
33.8818390442
 20
-55.8618309685
 10
34.4753450086
 20
-55.4756728459
 10
35.0585542858
 20
-55.0843996822
 10
35.6313344105
 20
-54.6881006709
 10
36.1935568897
 20
-54.2868679183
 10
36.745094806
 20
-53.880793743
  0
LWPOLYLINE
  5
5BE
100
AcDbEntity
  8
0
100
AcDbPolyline
 62
250
  6
CONTINUOUS
 90
7
 70
0
 10
23.5654471248
 20
-59.6993862569
 10
23.543888563
 20
-59.7127498117
 10
23.523455654
 20
-59.726775615
 10
23.5041502772
 20
-59.741263558
 10
23.4859689939
 20
-59.7560316049
 10
23.4689037871
 20
-59.7709145527
 10
23.4529427592
 20
-59.7857628465
  0
LWPOLYLINE
  5
5BF
100
AcDbEntity
  8
0
100
AcDbPolyline
 62
250
  6
CONTINUOUS
 90
3
 70
0
 10
32.9486029701
 20
-55.6149091915
 10
32.331354407
 20
-55.992950779
 10
31.6998448893
 20
-56.3683862747
  0
LINE
  5
5C0
100
AcDbEntity
  8
0
100
AcDbLine
 62
7
  6
CONTINUOUS
 10
32.664484005
 20
-56.6184567574
 11
33.2781729429
 21
-56.2427878616
  0
LINE
  5
5C1
100
AcDbEntity
  8
0
100
AcDbLine
 62
7
  6
CONTINUOUS
 10
32.0409101084
 20
-56.9887502569
 11
32.664484005
 21
-56.6184567574
  0
LINE
  5
5C2
100
AcDbEntity
  8
0
100
AcDbLine
 62
7
  6
CONTINUOUS
 10
24.1246942013
 20
-59.3296737061
 11
24.4009937109
 21
-59.167357674
  0
LWPOLYLINE
  5
5C3
100
AcDbEntity
  8
0
100
AcDbPolyline
 62
7
  6
CONTINUOUS
 90
7
 70
0
 10
31.4075922024
 20
-57.3535830796
 10
30.7646761121
 20
-57.7256317713
 10
30.11231
 20
-58.0920500416
 10
29.4506415665
 20
-58.4527565082
 10
28.7798196743
 20
-58.8076730094
 10
28.099997107
 20
-59.1567188224
 10
27.4113306586
 20
-59.4998107623
  0
LINE
  5
5C4
100
AcDbEntity
  8
0
100
AcDbLine
 62
7
  6
CONTINUOUS
 10
11.2732915625
 20
-64.3305137363
 11
11.2520768775
 21
-64.3427628295
  0
LINE
  5
5C5
100
AcDbEntity
  8
0
100
AcDbLine
 62
250
  6
CONTINUOUS
 10
15.1049236097
 20
-62.9646226963
 11
15.083694879
 21
-62.9768798993
  0
LINE
  5
5C6
100
AcDbEntity
  8
0
100
AcDbLine
 62
7
  6
CONTINUOUS
 10
14.2613919902
 20
-63.9972863185
 11
14.2401675879
 21
-64.0095410224
  0
LINE
  5
5C7
100
AcDbEntity
  8
0
100
AcDbLine
 62
7
  6
CONTINUOUS
 10
13.2391084731
 20
-65.4240286751
 11
13.2178883921
 21
-65.436280884
  0
LINE
  5
5C8
100
AcDbEntity
  8
0
100
AcDbLine
 62
250
  6
CONTINUOUS
 10
15.0183271377
 20
-64.4047011054
 11
14.9970988824
 21
-64.4169580339
  0
LINE
  5
5C9
100
AcDbEntity
  8
0
100
AcDbLine
 62
7
  6
CONTINUOUS
 10
24.3633499968
 20
-59.152474427
 11
24.1246942012
 21
-59.2902712923
  0
LINE
  5
5CA
100
AcDbEntity
  8
0
100
AcDbLine
 62
7
  6
CONTINUOUS
 10
35.1290362266
 20
-52.9365021237
 11
35.3676920222
 21
-52.7987052584
  0
LINE
  5
5CB
100
AcDbEntity
  8
0
100
AcDbLine
 62
7
  6
CONTINUOUS
 10
14.2699469359
 20
-65.985654581
 11
14.2487224926
 21
-65.9979093086
  0
LINE
  5
5CC
100
AcDbEntity
  8
0
100
AcDbLine
 62
7
  6
CONTINUOUS
 10
15.7831081252
 20
-65.1423263813
 11
15.7618754209
 21
-65.1545858786
  0
LINE
  5
5CD
100
AcDbEntity
  8
0
100
AcDbLine
 62
7
  6
CONTINUOUS
 10
8.1146143008
 20
-71.1819261305
 11
8.0933999251
 21
-71.1941750451
  0
LINE
  5
5CE
100
AcDbEntity
  8
0
100
AcDbLine
 62
7
  6
CONTINUOUS
 10
31.4075922024
 20
-57.3535830796
 11
32.0409101084
 21
-56.9887502569
  0
LINE
  5
5CF
100
AcDbEntity
  8
0
100
AcDbLine
 62
7
  6
CONTINUOUS
 10
36.1455094815
 20
-52.3961308477
 11
36.0406470696
 21
-52.455620434
  0
LINE
  5
5D0
100
AcDbEntity
  8
0
100
AcDbLine
 62
7
  6
CONTINUOUS
 10
35.4384296247
 20
-52.7972649383
 11
35.1621031906
 21
-52.9540279288
  0
LWPOLYLINE
  5
5D1
100
AcDbEntity
  8
0
100
AcDbPolyline
 62
7
  6
CONTINUOUS
 90
7
 70
0
 10
36.0406470696
 20
-52.455620434
 10
36.0588064892
 20
-52.445867219
 10
36.0766929683
 20
-52.4372195174
 10
36.0943065072
 20
-52.4296773295
 10
36.1116471056
 20
-52.423240655
 10
36.1287147637
 20
-52.4179094941
 10
36.1455094815
 20
-52.4136838467
  0
LWPOLYLINE
  5
5D2
100
AcDbEntity
  8
0
100
AcDbPolyline
 62
7
  6
CONTINUOUS
 90
6
 70
0
 10
15.7618756648
 20
-65.1545857378
 10
15.7240447248
 20
-65.1742174625
 10
15.662451168
 20
-65.1978171809
 10
15.5969001568
 20
-65.2134028619
 10
15.5278062308
 20
-65.2208894641
 10
15.4556278294
 20
-65.2202365798
  0
LWPOLYLINE
  5
5D3
100
AcDbEntity
  8
0
100
AcDbPolyline
 62
7
  6
CONTINUOUS
 90
3
 70
0
 10
27.4113306586
 20
-59.4998107623
 10
26.7139773135
 20
-59.8368708979
 10
26.0080940874
 20
-60.1678264865
  0
LWPOLYLINE
  5
5D4
100
AcDbEntity
  8
0
100
AcDbPolyline
 62
250
  6
CONTINUOUS
 90
9
 70
0
 10
25.6749499342
 20
-59.54495566
 10
26.3621031046
 20
-59.2233430527
 10
27.0451378126
 20
-58.8935048467
 10
27.7241571666
 20
-58.555460389
 10
28.3990580581
 20
-58.2091903327
 10
29.0695311615
 20
-57.8546366376
 10
29.7354733682
 20
-57.4917799568
 10
30.3969877867
 20
-57.1206396371
 10
31.6998448893
 20
-56.3683862747
  0
LINE
  5
5D5
100
AcDbEntity
  8
0
100
AcDbLine
 62
7
  6
CONTINUOUS
 10
24.3888829611
 20
-59.1408215198
 11
24.3633499968
 21
-59.152474427
  0
LINE
  5
5D6
100
AcDbEntity
  8
0
100
AcDbLine
 62
7
  6
CONTINUOUS
 10
26.0080940874
 20
-60.1678264865
 11
25.2938408705
 21
-60.4926042474
  0
LINE
  5
5D7
100
AcDbEntity
  8
0
100
AcDbLine
 62
250
  6
CONTINUOUS
 10
24.9836783012
 20
-59.8583426687
 11
25.6749499342
 21
-59.54495566
  0
LWPOLYLINE
  5
5D8
100
AcDbEntity
  8
0
100
AcDbPolyline
 62
250
  6
CONTINUOUS
 90
16
 70
0
 10
25.2938410652
 20
-60.4926043933
 10
25.2085211713
 20
-60.5274877071
 10
25.1187159327
 20
-60.5583022819
 10
25.0250026102
 20
-60.5848550431
 10
24.9279850394
 20
-60.6069824483
 10
24.8282841147
 20
-60.6245451413
 10
24.7265333222
 20
-60.6374279127
 10
24.6233821865
 20
-60.645551438
 10
24.5194937526
 20
-60.6488670982
 10
24.4155344084
 20
-60.6473504551
 10
24.3121734278
 20
-60.6410141184
 10
24.2100680826
 20
-60.6299023005
 10
24.1098611619
 20
-60.6140824798
 10
24.0121906946
 20
-60.5936547551
 10
23.9176853061
 20
-60.5687528009
 10
23.8269499765
 20
-60.5395367448
  0
LWPOLYLINE
  5
5D9
100
AcDbEntity
  8
RACCORDO
100
AcDbPolyline
 62
250
  6
CONTINUOUS
 90
19
 70
0
 10
28.0916421632
 20
-55.9000489523
 10
28.1697092058
 20
-55.8733366633
 10
28.3594994704
 20
-55.7989054628
 10
28.5408788561
 20
-55.7179103129
 10
28.7130594972
 20
-55.630731656
 10
28.8755315306
 20
-55.5376577326
 10
29.0278678325
 20
-55.4389334835
 10
29.1695579841
 20
-55.3348572819
 10
29.2999464753
 20
-55.225875705
 10
29.4184375027
 20
-55.1124775028
 10
29.5246617336
 20
-54.9950048277
 10
29.6181254715
 20
-54.8739910348
 10
29.6982578753
 20
-54.750273657
 10
29.7650047433
 20
-54.6240829377
 10
29.8180610334
 20
-54.4961709205
 10
29.8570539731
 20
-54.3682410925
 10
29.8823693668
 20
-54.2406528551
 10
29.8943640125
 20
-54.1140527811
 10
29.8952554304
 20
-54.033559088
  0
LWPOLYLINE
  5
5DA
100
AcDbEntity
  8
0
100
AcDbPolyline
 62
250
  6
CONTINUOUS
 90
3
 70
0
 10
8.8255431242
 20
-37.4294637398
 10
8.7987521882
 20
-37.4328160807
 10
8.777849734
 20
-37.4418933702
  0
LWPOLYLINE
  5
5DB
100
AcDbEntity
  8
0
100
AcDbPolyline
 62
250
  6
CONTINUOUS
 90
13
 70
0
 10
36.3969463049
 20
-52.781391542
 10
36.434733384
 20
-52.8213863362
 10
36.4650992722
 20
-52.8627605675
 10
36.4880439694
 20
-52.9055142359
 10
36.5037450098
 20
-52.9501990326
 10
36.5120248592
 20
-52.9962632664
 10
36.5123509156
 20
-53.0420518635
 10
36.5042744278
 20
-53.0875373978
 10
36.488244147
 20
-53.1327472954
 10
36.4650737246
 20
-53.17610876
 10
36.4350343776
 20
-53.2170975261
 10
36.3978548891
 20
-53.2562378591
 10
36.3535352589
 20
-53.2935297592
  0
LWPOLYLINE
  5
5DC
100
AcDbEntity
  8
RACCORDO
100
AcDbPolyline
 62
7
  6
CONTINUOUS
 90
15
 70
0
 10
29.8878993851
 20
-53.9156588526
 10
29.8707459911
 20
-53.797410139
 10
29.8436529095
 20
-53.6792232573
 10
29.8065325594
 20
-53.5615541662
 10
29.7593083416
 20
-53.4447577175
 10
29.7018592804
 20
-53.3290655445
 10
29.6339886829
 20
-53.2146277078
 10
29.5557603543
 20
-53.1020245597
 10
29.4675405385
 20
-52.9920508046
 10
29.3693894869
 20
-52.884945743
 10
29.2614655701
 20
-52.7810424474
 10
29.1445672651
 20
-52.6811556672
 10
29.0192275134
 20
-52.5856674418
 10
28.8855412956
 20
-52.494593915
 10
28.7438147851
 20
-52.4081314621
  0
LWPOLYLINE
  5
5DD
100
AcDbEntity
  8
0
100
AcDbPolyline
 62
7
  6
CONTINUOUS
 90
9
 70
0
 10
37.0101990135
 20
-53.4319980867
 10
37.0092746706
 20
-53.3926256332
 10
36.9983935971
 20
-53.2969045856
 10
36.9747871291
 20
-53.2006973279
 10
36.9377728446
 20
-53.1046820532
 10
36.8873168971
 20
-53.0110353108
 10
36.8245317333
 20
-52.9225958762
 10
36.7500787734
 20
-52.8403829575
 10
36.7351574745
 20
-52.8259996873
  0
LINE
  5
5DE
100
AcDbEntity
  8
0
100
AcDbLine
 62
250
  6
CONTINUOUS
 10
36.745121596
 20
-78.314832135
 11
36.7463913711
 21
-78.5635660509
  0
LINE
  5
5DF
100
AcDbEntity
  8
0
100
AcDbLine
 62
7
  6
CONTINUOUS
 10
36.7450948018
 20
-78.3058828882
 11
36.7451234886
 21
-78.3148329704
  0
LWPOLYLINE
  5
5E0
100
AcDbEntity
  8
0
100
AcDbPolyline
 62
7
  6
CONTINUOUS
 90
3
 70
0
 10
37.0112295604
 20
-78.2182178216
 10
37.0110571943
 20
-78.0410849413
 10
37.0102222447
 20
-77.8523915174
  0
LINE
  5
5E1
100
AcDbEntity
  8
0
100
AcDbLine
 62
7
  6
CONTINUOUS
 10
35.1290362266
 20
-52.9781682856
 11
35.1290362266
 21
-52.9365021237
  0
LINE
  5
5E2
100
AcDbEntity
  8
0
100
AcDbLine
 62
7
  6
CONTINUOUS
 10
36.1455094815
 20
-52.4136838467
 11
36.1455094815
 21
-52.3961308477
  0
LINE
  5
5E3
100
AcDbEntity
  8
0
100
AcDbLine
 62
250
  6
CONTINUOUS
 10
36.7450950631
 20
-78.3058830028
 11
36.7450950596
 21
-53.8807938548
  0
LINE
  5
5E4
100
AcDbEntity
  8
0
100
AcDbLine
 62
7
  6
CONTINUOUS
 10
37.0102104171
 20
-77.8516093289
 11
37.0102104145
 21
-53.4297817316
  0
LINE
  5
5E5
100
AcDbEntity
  8
0
100
AcDbLine
 62
250
  6
CONTINUOUS
 10
36.7463913711
 20
-78.5635660509
 11
36.7462580738
 21
-78.81165782
  0
LINE
  5
5E6
100
AcDbEntity
  8
0
100
AcDbLine
 62
7
  6
CONTINUOUS
 10
37.0098056559
 20
-78.5559522609
 11
37.0112295604
 21
-78.2182178216
  0
LINE
  5
5E7
100
AcDbEntity
  8
0
100
AcDbLine
 62
250
  6
CONTINUOUS
 10
37.0101508034
 20
-77.8587843251
 11
37.010157324
 21
-77.8622788462
  0
LINE
  5
5E8
100
AcDbEntity
  8
0
100
AcDbLine
 62
7
  6
CONTINUOUS
 10
35.3673996289
 20
-52.8375610272
 11
35.3676920222
 21
-52.7987052584
  0
LINE
  5
5E9
100
AcDbEntity
  8
0
100
AcDbLine
 62
250
  6
CONTINUOUS
 10
36.7462580738
 20
-78.81165782
 11
36.7447217857
 21
-79.0590995246
  0
LINE
  5
5EA
100
AcDbEntity
  8
0
100
AcDbLine
 62
250
  6
CONTINUOUS
 10
36.7447217857
 20
-79.0590995246
 11
36.7417826468
 21
-79.3058838772
  0
LWPOLYLINE
  5
5EB
100
AcDbEntity
  8
0
100
AcDbPolyline
 62
7
  6
CONTINUOUS
 90
3
 70
0
 10
37.0048095217
 20
-78.9699452866
 10
37.0063754761
 20
-78.8718998217
 10
37.0098056559
 20
-78.5559522609
  0
LINE
  5
5EC
100
AcDbEntity
  8
0
100
AcDbLine
 62
250
  6
CONTINUOUS
 10
36.7417826468
 20
-79.3058838772
 11
36.7369401608
 21
-79.5758776897
  0
LINE
  5
5ED
100
AcDbEntity
  8
0
100
AcDbLine
 62
250
  6
CONTINUOUS
 10
36.7369401608
 20
-79.5758776897
 11
36.7335897901
 21
-79.7224899868
  0
LINE
  5
5EE
100
AcDbEntity
  8
0
100
AcDbLine
 62
7
  6
CONTINUOUS
 10
31.078948317
 20
-87.3637416325
 11
30.8943779867
 21
-88.6759667526
  0
LWPOLYLINE
  5
5EF
100
AcDbEntity
  8
0
100
AcDbPolyline
 62
250
  6
CONTINUOUS
 90
10
 70
0
 10
24.401121377
 20
-93.9878924378
 10
24.3307703265
 20
-94.3277853334
 10
24.2574088453
 20
-94.6649316309
 10
24.1810439431
 20
-94.9993018303
 10
24.1016830924
 20
-95.3308642046
 10
24.0193336889
 20
-95.6595922111
 10
23.9340027978
 20
-95.9854642761
 10
23.8456979924
 20
-96.3084540153
 10
23.7544276054
 20
-96.6285304554
 10
23.6602000123
 20
-96.9456652921
  0
LWPOLYLINE
  5
5F0
100
AcDbEntity
  8
0
100
AcDbPolyline
 62
250
  6
CONTINUOUS
 90
6
 70
0
 10
22.6579793711
 20
-96.032983291
 10
22.5866201139
 20
-96.3107703107
 10
22.5490757026
 20
-96.4527963929
 10
22.5094577956
 20
-96.597618441
 10
22.4681037016
 20
-96.7448211192
 10
22.4249647156
 20
-96.8943659312
  0
LINE
  5
5F1
100
AcDbEntity
  8
0
100
AcDbLine
 62
250
  6
CONTINUOUS
 10
22.7283875291
 20
-95.7632799507
 11
22.6579793711
 21
-96.032983291
  0
LWPOLYLINE
  5
5F2
100
AcDbEntity
  8
0
100
AcDbPolyline
 62
250
  6
CONTINUOUS
 90
22
 70
0
 10
22.4249647156
 20
-96.8943659312
 10
22.3173466267
 20
-97.2563300806
 10
22.2094089385
 20
-97.6007765808
 10
22.101600065
 20
-97.9280061174
 10
21.9932011836
 20
-98.2411690886
 10
21.885728013
 20
-98.5376406777
 10
21.783265296
 20
-98.8092747605
 10
21.689527031
 20
-99.0490949822
 10
21.6022350213
 20
-99.265074729
 10
21.5163546723
 20
-99.4714194015
 10
21.4323830183
 20
-99.6677184539
 10
21.3502230901
 20
-99.8546505254
 10
21.2632122392
 20
-100.0475382098
 10
21.1688360566
 20
-100.2513279937
 10
21.0691371603
 20
-100.4607169277
 10
20.963908615
 20
-100.6753858177
 10
20.8524380221
 20
-100.8961242157
 10
20.7349648592
 20
-101.1218204505
 10
20.61279425
 20
-101.3493653459
 10
20.4863189652
 20
-101.5776741867
 10
20.3549036399
 20
-101.8076206551
 10
20.2183818961
 20
-102.0390401267
  0
LWPOLYLINE
  5
5F3
100
AcDbEntity
  8
0
100
AcDbPolyline
 62
250
  6
CONTINUOUS
 90
6
 70
0
 10
20.7991732411
 20
-85.561662796
 10
20.7696266194
 20
-85.6421100441
 10
20.7404657196
 20
-85.7246246707
 10
20.7116932697
 20
-85.8092048596
 10
20.6834945127
 20
-85.8959931831
 10
20.6277352066
 20
-86.0753194543
  0
LWPOLYLINE
  5
5F4
100
AcDbEntity
  8
0
100
AcDbPolyline
 62
250
  6
CONTINUOUS
 90
10
 70
0
 10
20.8753271765
 20
-85.4724775353
 10
20.8698494167
 20
-85.4840669267
 10
20.8652254296
 20
-85.4973201421
 10
20.8611032403
 20
-85.5112838631
 10
20.8572305903
 20
-85.5253364067
 10
20.8534689818
 20
-85.5396277816
 10
20.8498236874
 20
-85.5542245703
 10
20.8462975904
 20
-85.5691302203
 10
20.8428735728
 20
-85.5843104568
 10
20.8395570418
 20
-85.5997713379
  0
LWPOLYLINE
  5
5F5
100
AcDbEntity
  8
0
100
AcDbPolyline
 62
250
  6
CONTINUOUS
 90
9
 70
0
 10
36.7450950596
 20
-53.8807938548
 10
36.8047247912
 20
-53.8319850716
 10
36.8573308453
 20
-53.7805731508
 10
36.9025788287
 20
-53.7268913956
 10
36.9401810542
 20
-53.6712910174
 10
36.9699006072
 20
-53.6141279487
 10
36.9915512755
 20
-53.5557602633
 10
37.0049963832
 20
-53.4965625788
 10
37.0101990135
 20
-53.4319980867
  0
LWPOLYLINE
  5
5F6
100
AcDbEntity
  8
0
100
AcDbPolyline
 62
7
  6
CONTINUOUS
 90
28
 70
0
 10
11.1165554442
 20
-76.3153138724
 10
11.234499618
 20
-76.2297430301
 10
11.3403071357
 20
-76.1275942155
 10
11.4338055246
 20
-76.0094398077
 10
11.5149001827
 20
-75.8752849303
 10
11.5831871643
 20
-75.725051691
 10
11.6375734873
 20
-75.5602830378
 10
11.6771612417
 20
-75.3836167523
 10
11.701771148
 20
-75.1974541391
 10
11.7116918793
 20
-75.002359909
 10
11.7069750159
 20
-74.7984509676
 10
11.6874680882
 20
-74.586361413
 10
11.6532347222
 20
-74.3682077842
 10
11.6046810642
 20
-74.1463035949
 10
11.5424882234
 20
-73.9231284456
 10
11.4670031378
 20
-73.6993359079
 10
11.3781009483
 20
-73.4745484305
 10
11.2755602904
 20
-73.2491534718
 10
11.1603251571
 20
-73.0260229898
 10
11.0341276787
 20
-72.8084610671
 10
10.8981306074
 20
-72.5983196212
 10
10.7531494771
 20
-72.3967241775
 10
10.6008453587
 20
-72.2056068629
 10
10.4428364377
 20
-72.0266318265
 10
10.2798906562
 20
-71.8603536391
 10
10.1124257662
 20
-71.7069718232
 10
9.9413220519
 20
-71.567313551
 10
9.7680009299
 20
-71.4426211649
  0
LWPOLYLINE
  5
5F7
100
AcDbEntity
  8
0
100
AcDbPolyline
 62
7
  6
CONTINUOUS
 90
10
 70
0
 10
10.8268193836
 20
-75.9335975345
 10
10.9337001666
 20
-75.8605008956
 10
11.0283917988
 20
-75.7725050937
 10
11.1118141316
 20
-75.6694350536
 10
11.1832545482
 20
-75.5523946243
 10
11.2424201999
 20
-75.4221374308
 10
11.2889561777
 20
-75.2794217614
 10
11.3224952025
 20
-75.1252010187
 10
11.3427481514
 20
-74.9607081798
 10
11.3495427152
 20
-74.787172055
  0
LWPOLYLINE
  5
5F8
100
AcDbEntity
  8
0
100
AcDbPolyline
 62
7
  6
CONTINUOUS
 90
19
 70
0
 10
10.4701365194
 20
-75.3220501193
 10
10.5002982414
 20
-75.3034351892
 10
10.5644542139
 20
-75.2548521709
 10
10.6227249908
 20
-75.1974906186
 10
10.6747658494
 20
-75.1316901604
 10
10.7202722247
 20
-75.0578386078
 10
10.7589516604
 20
-74.9763868342
 10
10.7905732477
 20
-74.8878186005
 10
10.81495445
 20
-74.7926561453
 10
10.8319374178
 20
-74.6914713627
 10
10.8414178807
 20
-74.58486618
 10
10.843344537
 20
-74.4734698245
 10
10.8377048883
 20
-74.3579435357
 10
10.8245275792
 20
-74.2389750781
 10
10.8038945906
 20
-74.1172675649
 10
10.7759396318
 20
-73.9935361247
 10
10.7408312339
 20
-73.8685127909
 10
10.6987717593
 20
-73.7429421431
 10
10.650008615
 20
-73.6175698161
  0
LINE
  5
5F9
100
AcDbEntity
  8
0
100
AcDbLine
 62
7
  6
CONTINUOUS
 10
16.1442168524
 20
-66.9866892023
 11
16.1229818551
 21
-66.9989500236
  0
LINE
  5
5FA
100
AcDbEntity
  8
0
100
AcDbLine
 62
7
  6
CONTINUOUS
 10
8.4831239681
 20
-71.8234472061
 11
8.4619101062
 21
-71.8356958241
  0
LINE
  5
5FB
100
AcDbEntity
  8
0
100
AcDbLine
 62
7
  6
CONTINUOUS
 10
9.1337491118
 20
-71.7465761305
 11
9.1125357963
 21
-71.758824433
  0
LINE
  5
5FC
100
AcDbEntity
  8
0
100
AcDbLine
 62
7
  6
CONTINUOUS
 10
10.0593914786
 20
-72.2810141101
 11
10.038178161
 21
-72.2932624138
  0
LINE
  5
5FD
100
AcDbEntity
  8
0
100
AcDbLine
 62
7
  6
CONTINUOUS
 10
10.0593931146
 20
-72.6686871329
 11
10.0381797974
 21
-72.6809354364
  0
LINE
  5
5FE
100
AcDbEntity
  8
0
100
AcDbLine
 62
7
  6
CONTINUOUS
 10
9.7738493222
 20
-73.4876015349
 11
9.7526361033
 21
-73.4998497816
  0
LINE
  5
5FF
100
AcDbEntity
  8
0
100
AcDbLine
 62
7
  6
CONTINUOUS
 10
10.7150270812
 20
-73.1144399644
 11
10.6938132169
 21
-73.1266885838
  0
LINE
  5
600
100
AcDbEntity
  8
0
100
AcDbLine
 62
7
  6
CONTINUOUS
 10
8.9756403
 20
-74.6773882435
 11
8.9544268946
 21
-74.6896365979
  0
LINE
  5
601
100
AcDbEntity
  8
0
100
AcDbLine
 62
7
  6
CONTINUOUS
 10
8.8226926465
 20
-74.9044093453
 11
8.8014791273
 21
-74.9166577655
  0
LINE
  5
602
100
AcDbEntity
  8
0
100
AcDbLine
 62
7
  6
CONTINUOUS
 10
9.1228849855
 20
-74.8670996867
 11
9.1016716655
 21
-74.8793479918
  0
LINE
  5
603
100
AcDbEntity
  8
0
100
AcDbLine
 62
7
  6
CONTINUOUS
 10
9.7738484832
 20
-75.2437340577
 11
9.752635264
 21
-75.2559823045
  0
LINE
  5
604
100
AcDbEntity
  8
0
100
AcDbLine
 62
7
  6
CONTINUOUS
 10
10.0703362724
 20
-75.4141294791
 11
10.0491229503
 21
-75.4263777854
  0
LINE
  5
605
100
AcDbEntity
  8
0
100
AcDbLine
 62
7
  6
CONTINUOUS
 10
10.2143922258
 20
-75.3926284098
 11
10.1931788204
 21
-75.4048767642
  0
LWPOLYLINE
  5
606
100
AcDbEntity
  8
0
100
AcDbPolyline
 62
7
  6
CONTINUOUS
 90
10
 70
0
 10
8.0933980559
 20
-71.1941761243
 10
8.2306372636
 20
-71.1286366949
 10
8.3737183086
 20
-71.0852753057
 10
8.526230679
 20
-71.061896064
 10
8.687359527
 20
-71.0588087665
 10
8.8556613164
 20
-71.0762276014
 10
9.0296808606
 20
-71.114018791
 10
9.2080243556
 20
-71.1718655756
 10
9.3894031087
 20
-71.249383648
 10
9.5724382892
 20
-71.3460056684
  0
LINE
  5
607
100
AcDbEntity
  8
0
100
AcDbLine
 62
7
  6
CONTINUOUS
 10
36.9998901711
 20
-79.2191924053
 11
37.0049021652
 21
-78.969489711
  0
LINE
  5
608
100
AcDbEntity
  8
0
100
AcDbLine
 62
250
  6
CONTINUOUS
 10
36.7335897901
 20
-79.7224899868
 11
36.7297359836
 21
-79.8688622608
  0
LWPOLYLINE
  5
609
100
AcDbEntity
  8
0
100
AcDbPolyline
 62
250
  6
CONTINUOUS
 90
10
 70
0
 10
36.7297359836
 20
-79.8688622608
 10
36.7245946979
 20
-80.0397371604
 10
36.7187580936
 20
-80.2102834968
 10
36.7122262762
 20
-80.3804985796
 10
36.7049993622
 20
-80.550379583
 10
36.6970774725
 20
-80.7199239686
 10
36.6884607269
 20
-80.8891294822
 10
36.6791492558
 20
-81.0579935919
 10
36.6691432057
 20
-81.2265134913
 10
36.6584427282
 20
-81.3946865197
  0
LINE
  5
60A
100
AcDbEntity
  8
0
100
AcDbLine
 62
7
  6
CONTINUOUS
 10
36.9895111516
 20
-79.5921083163
 11
36.9998901711
 21
-79.2191924053
  0
LINE
  5
60B
100
AcDbEntity
  8
0
100
AcDbLine
 62
7
  6
CONTINUOUS
 10
36.9805366517
 20
-79.8485117536
 11
36.9895111516
 21
-79.5921083163
  0
LINE
  5
60C
100
AcDbEntity
  8
0
100
AcDbLine
 62
7
  6
CONTINUOUS
 10
36.973931906
 20
-80.0104048188
 11
36.9805366517
 21
-79.8485117536
  0
LINE
  5
60D
100
AcDbEntity
  8
0
100
AcDbLine
 62
7
  6
CONTINUOUS
 10
36.9632816059
 20
-80.2414086776
 11
36.973931906
 21
-80.0104048188
  0
LINE
  5
60E
100
AcDbEntity
  8
0
100
AcDbLine
 62
7
  6
CONTINUOUS
 10
36.9520239017
 20
-80.4596427025
 11
36.9632816059
 21
-80.2414086776
  0
LINE
  5
60F
100
AcDbEntity
  8
0
100
AcDbLine
 62
7
  6
CONTINUOUS
 10
36.9365189943
 20
-80.7345122604
 11
36.9520239017
 21
-80.4596427025
  0
LINE
  5
610
100
AcDbEntity
  8
0
100
AcDbLine
 62
7
  6
CONTINUOUS
 10
36.9285299453
 20
-80.8636875961
 11
36.9365189943
 21
-80.7345122604
  0
LWPOLYLINE
  5
611
100
AcDbEntity
  8
0
100
AcDbPolyline
 62
250
  6
CONTINUOUS
 90
10
 70
0
 10
36.6584427282
 20
-81.3946865197
 10
36.6440484648
 20
-81.6054147765
 10
36.6285104586
 20
-81.8156214808
 10
36.6118290926
 20
-82.0253015524
 10
36.594004777
 20
-82.2344499178
 10
36.5750379227
 20
-82.4430615284
 10
36.5549289411
 20
-82.6511313605
 10
36.5336782801
 20
-82.8586543916
 10
36.5112864231
 20
-83.0656256002
 10
36.4877538634
 20
-83.2720399839
  0
LINE
  5
612
100
AcDbEntity
  8
0
100
AcDbLine
 62
250
  6
CONTINUOUS
 10
36.9226780504
 20
-80.9531109976
 11
36.9226204695
 21
-80.9539314438
  0
LWPOLYLINE
  5
613
100
AcDbEntity
  8
0
100
AcDbPolyline
 62
250
  6
CONTINUOUS
 90
9
 70
0
 10
37.0049961334
 20
-77.918766668
 10
37.0049723158
 20
-77.922897136
 10
36.9914998313
 20
-77.9831078912
 10
36.9698290992
 20
-78.0425260168
 10
36.9401004449
 20
-78.1007757462
 10
36.9025018223
 20
-78.1574858223
 10
36.8572717063
 20
-78.21229515
 10
36.8047002537
 20
-78.2648555658
 10
36.7451234886
 20
-78.3148329704
  0
LWPOLYLINE
  5
614
100
AcDbEntity
  8
0
100
AcDbPolyline
 62
250
  6
CONTINUOUS
 90
4
 70
0
 10
37.0048095217
 20
-78.9699452866
 10
36.9991961314
 20
-79.0338287278
 10
36.9853068396
 20
-79.0950384624
 10
36.9632208285
 20
-79.1554693173
  0
LWPOLYLINE
  5
615
100
AcDbEntity
  8
0
100
AcDbPolyline
 62
7
  6
CONTINUOUS
 90
7
 70
0
 10
36.8455461432
 20
-81.9311451947
 10
36.862183237
 20
-81.7480669083
 10
36.8757148108
 20
-81.5882641153
 10
36.8877829845
 20
-81.4377416642
 10
36.8996088928
 20
-81.2829650636
 10
36.9114195343
 20
-81.1192887307
 10
36.9285299453
 20
-80.8636875961
  0
LWPOLYLINE
  5
616
100
AcDbEntity
  8
0
100
AcDbPolyline
 62
250
  6
CONTINUOUS
 90
9
 70
0
 10
36.9948719869
 20
-79.4150106833
 10
36.9891996542
 20
-79.4738833544
 10
36.9751701968
 20
-79.5352237849
 10
36.9529898931
 20
-79.5957372384
 10
36.9228570381
 20
-79.6549393878
 10
36.8851510547
 20
-79.7121987294
 10
36.8402372957
 20
-79.7671008012
 10
36.7883408168
 20
-79.8194239668
 10
36.7297359905
 20
-79.8688622555
  0
LINE
  5
617
100
AcDbEntity
  8
0
100
AcDbLine
 62
7
  6
CONTINUOUS
 10
36.8100921282
 20
-82.2959674755
 11
36.8455461432
 21
-81.9311451947
  0
LINE
  5
618
100
AcDbEntity
  8
0
100
AcDbLine
 62
7
  6
CONTINUOUS
 10
36.7833324487
 20
-82.5556571166
 11
36.8100921282
 21
-82.2959674755
  0
LWPOLYLINE
  5
619
100
AcDbEntity
  8
0
100
AcDbPolyline
 62
7
  6
CONTINUOUS
 90
3
 70
0
 10
36.7504442199
 20
-82.847916601
 10
36.7596745193
 20
-82.7681322096
 10
36.7833324487
 20
-82.5556571166
  0
LWPOLYLINE
  5
61A
100
AcDbEntity
  8
0
100
AcDbPolyline
 62
7
  6
CONTINUOUS
 90
4
 70
0
 10
36.7476603458
 20
-82.8777852041
 10
36.7496030302
 20
-82.8613960626
 10
36.7514710357
 20
-82.8447706479
 10
36.7520819954
 20
-82.8390883821
  0
LWPOLYLINE
  5
61B
100
AcDbEntity
  8
0
100
AcDbPolyline
 62
250
  6
CONTINUOUS
 90
7
 70
0
 10
36.4877538634
 20
-83.2720399839
 10
36.4642040494
 20
-83.4685754343
 10
36.4396634288
 20
-83.6645555438
 10
36.4141325263
 20
-83.8599759007
 10
36.3876119399
 20
-84.0548318539
 10
36.3601021759
 20
-84.2491192708
 10
36.3316036379
 20
-84.442834529
  0
LWPOLYLINE
  5
61C
100
AcDbEntity
  8
0
100
AcDbPolyline
 62
250
  6
CONTINUOUS
 90
9
 70
0
 10
36.9226204695
 20
-80.9539314438
 10
36.9169819448
 20
-81.000919395
 10
36.9024182376
 20
-81.0627701699
 10
36.8799217301
 20
-81.1235048858
 10
36.8496993188
 20
-81.1826748492
 10
36.8121282499
 20
-81.2396924483
 10
36.7675693808
 20
-81.2941787917
 10
36.7162503505
 20
-81.3459371216
 10
36.6584454776
 20
-81.3946900569
  0
LINE
  5
61D
100
AcDbEntity
  8
0
100
AcDbLine
 62
7
  6
CONTINUOUS
 10
36.7122579951
 20
-83.1601533969
 11
36.7476603458
 21
-82.8777852041
  0
LINE
  5
61E
100
AcDbEntity
  8
0
100
AcDbLine
 62
7
  6
CONTINUOUS
 10
36.6694139209
 20
-83.4927586094
 11
36.7122579951
 21
-83.1601533969
  0
LINE
  5
61F
100
AcDbEntity
  8
0
100
AcDbLine
 62
7
  6
CONTINUOUS
 10
36.6582038421
 20
-83.5762400563
 11
36.6694139209
 21
-83.4927586094
  0
LINE
  5
620
100
AcDbEntity
  8
0
100
AcDbLine
 62
7
  6
CONTINUOUS
 10
36.6366748259
 20
-83.7308605493
 11
36.6582038421
 21
-83.5762400563
  0
LINE
  5
621
100
AcDbEntity
  8
0
100
AcDbLine
 62
7
  6
CONTINUOUS
 10
36.6105069471
 20
-83.9122027454
 11
36.6366748259
 21
-83.7308605493
  0
LINE
  5
622
100
AcDbEntity
  8
0
100
AcDbLine
 62
7
  6
CONTINUOUS
 10
36.584783007
 20
-84.084400991
 11
36.6105069471
 21
-83.9122027454
  0
LWPOLYLINE
  5
623
100
AcDbEntity
  8
0
100
AcDbPolyline
 62
250
  6
CONTINUOUS
 90
4
 70
0
 10
36.3316036379
 20
-84.442834529
 10
36.3021168523
 20
-84.6359735112
 10
36.2716424792
 20
-84.8285316124
 10
36.2401811393
 20
-85.0205044919
  0
LINE
  5
624
100
AcDbEntity
  8
0
100
AcDbLine
 62
7
  6
CONTINUOUS
 10
36.5615002189
 20
-84.2355049565
 11
36.584783007
 21
-84.084400991
  0
LWPOLYLINE
  5
625
100
AcDbEntity
  8
0
100
AcDbPolyline
 62
250
  6
CONTINUOUS
 90
9
 70
0
 10
36.7504442199
 20
-82.847916601
 10
36.7444762707
 20
-82.8858983406
 10
36.7286768292
 20
-82.9471343303
 10
36.7054822136
 20
-83.0070658382
 10
36.6750827788
 20
-83.0652596255
 10
36.6378279524
 20
-83.1211543269
 10
36.5940460871
 20
-83.1743886425
 10
36.5439391571
 20
-83.2247730491
 10
36.4877547613
 20
-83.2720410646
  0
LINE
  5
626
100
AcDbEntity
  8
0
100
AcDbLine
 62
7
  6
CONTINUOUS
 10
36.5333911341
 20
-84.4124419009
 11
36.5615002189
 21
-84.2355049565
  0
LINE
  5
627
100
AcDbEntity
  8
0
100
AcDbLine
 62
7
  6
CONTINUOUS
 10
36.5108580444
 20
-84.5503025389
 11
36.5333911341
 21
-84.4124419009
  0
LWPOLYLINE
  5
628
100
AcDbEntity
  8
0
100
AcDbPolyline
 62
250
  6
CONTINUOUS
 90
8
 70
0
 10
36.2401811393
 20
-85.0205044919
 10
36.1934043223
 20
-85.2939866888
 10
36.144590119
 20
-85.5662650412
 10
36.0937406199
 20
-85.8373271765
 10
36.0408582004
 20
-86.1071602004
 10
35.9859448854
 20
-86.3757524346
 10
35.9290023162
 20
-86.6430933929
 10
35.8700326135
 20
-86.9091714754
  0
LWPOLYLINE
  5
629
100
AcDbEntity
  8
0
100
AcDbPolyline
 62
7
  6
CONTINUOUS
 90
10
 70
0
 10
30.8943779867
 20
-88.6759667526
 10
30.6695112647
 20
-89.9555518277
 10
30.40421556
 20
-91.2023893355
 10
30.0986234636
 20
-92.4165867985
 10
29.7537394319
 20
-93.5941532481
 10
29.3694341939
 20
-94.7349681124
 10
28.9458370206
 20
-95.8391519634
 10
28.4843401813
 20
-96.9030755486
 10
27.9854077657
 20
-97.9255291172
 10
27.4485756842
 20
-98.90772242
  0
LWPOLYLINE
  5
62A
100
AcDbEntity
  8
0
100
AcDbPolyline
 62
250
  6
CONTINUOUS
 90
10
 70
0
 10
23.6602000123
 20
-96.9456652921
 10
23.460328551
 20
-97.5777573951
 10
23.2469725576
 20
-98.1970094209
 10
23.0202946289
 20
-98.8032648671
 10
22.7807882208
 20
-99.3953871276
 10
22.528337753
 20
-99.9742659107
 10
22.2620057035
 20
-100.5425959362
 10
21.9813875439
 20
-101.1009646538
 10
21.6868246433
 20
-101.6480736887
 10
21.3783158314
 20
-102.1835907823
  0
LINE
  5
62B
100
AcDbEntity
  8
0
100
AcDbLine
 62
7
  6
CONTINUOUS
 10
10.0703341648
 20
-75.7996851066
 11
10.0491208421
 21
-75.8119334132
  0
LINE
  5
62C
100
AcDbEntity
  8
0
100
AcDbLine
 62
7
  6
CONTINUOUS
 10
10.7150007374
 20
-75.693493717
 11
10.6937868737
 21
-75.705742336
  0
LINE
  5
62D
100
AcDbEntity
  8
0
100
AcDbLine
 62
7
  6
CONTINUOUS
 10
11.0883351818
 20
-76.3322247273
 11
11.0671208067
 21
-76.3444736416
  0
LINE
  5
62E
100
AcDbEntity
  8
0
100
AcDbLine
 62
7
  6
CONTINUOUS
 10
10.9839007376
 20
-77.2591857369
 11
10.9626865177
 21
-77.2714345616
  0
LINE
  5
62F
100
AcDbEntity
  8
0
100
AcDbLine
 62
7
  6
CONTINUOUS
 10
10.8080561221
 20
-77.4447262572
 11
10.7868421412
 21
-77.4569749439
  0
LWPOLYLINE
  5
630
100
AcDbEntity
  8
SUPERFICI
100
AcDbPolyline
 62
250
  6
CONTINUOUS
 90
4
 70
0
 10
1.5114155946
 20
-80.537198541
 10
1.5863212706
 20
-80.4974172435
 10
1.6197133358
 20
-80.4804418281
 10
1.6505602798
 20
-80.4660084618
  0
LWPOLYLINE
  5
631
100
AcDbEntity
  8
0
100
AcDbPolyline
 62
7
  6
CONTINUOUS
 90
5
 70
0
 10
10.6937799683
 20
-75.7057463231
 10
10.6438877188
 20
-75.7321237274
 10
10.5506915798
 20
-75.7697312428
 10
10.4517479661
 20
-75.7955368122
 10
10.3476373497
 20
-75.8093902506
  0
LWPOLYLINE
  5
632
100
AcDbEntity
  8
SUPERFICI
100
AcDbPolyline
 62
250
  6
CONTINUOUS
 90
3
 70
0
 10
1.4253263803
 20
-80.5817692682
 10
1.4696812064
 20
-80.559069153
 10
1.5114155946
 20
-80.537198541
  0
LWPOLYLINE
  5
633
100
AcDbEntity
  8
0
100
AcDbPolyline
 62
7
  6
CONTINUOUS
 90
6
 70
0
 10
11.0671277819
 20
-76.3444696142
 10
10.9667630963
 20
-76.395220375
 10
10.8281315644
 20
-76.4445627242
 10
10.6810721837
 20
-76.4749748758
 10
10.5264389804
 20
-76.4863754793
 10
10.3653232394
 20
-76.4787296897
  0
LINE
  5
634
100
AcDbEntity
  8
SUPERFICI
100
AcDbLine
 62
250
  6
CONTINUOUS
 10
1.2792740314
 20
-80.6552438993
 11
1.4253263803
 21
-80.5817692682
  0
LINE
  5
635
100
AcDbEntity
  8
0
100
AcDbLine
 62
7
  6
CONTINUOUS
 10
10.7152866193
 20
-75.9875675792
 11
10.8268193836
 21
-75.9335975345
  0
LINE
  5
636
100
AcDbEntity
  8
0
100
AcDbLine
 62
7
  6
CONTINUOUS
 10
10.4841382362
 20
-73.209918253
 11
10.6938132169
 21
-73.1266885838
  0
LINE
  5
637
100
AcDbEntity
  8
0
100
AcDbLine
 62
7
  6
CONTINUOUS
 10
10.650008615
 20
-73.6175698161
 11
10.450115664
 21
-73.6969068214
  0
LINE
  5
638
100
AcDbEntity
  8
0
100
AcDbLine
 62
7
  6
CONTINUOUS
 10
10.2747627792
 20
-73.2929737391
 11
10.4841382362
 21
-73.209918253
  0
LINE
  5
639
100
AcDbEntity
  8
0
100
AcDbLine
 62
7
  6
CONTINUOUS
 10
10.450115664
 20
-73.6969068214
 11
10.1507870198
 21
-73.8156153179
  0
LINE
  5
63A
100
AcDbEntity
  8
0
100
AcDbLine
 62
7
  6
CONTINUOUS
 10
9.9612616618
 20
-73.41723019
 11
10.2747627792
 21
-73.2929737391
  0
LINE
  5
63B
100
AcDbEntity
  8
0
100
AcDbLine
 62
7
  6
CONTINUOUS
 10
10.1507870198
 20
-73.8156153179
 11
9.9515755284
 21
-73.8945561409
  0
LINE
  5
63C
100
AcDbEntity
  8
0
100
AcDbLine
 62
7
  6
CONTINUOUS
 10
9.7526361033
 20
-73.4998497816
 11
9.9612616618
 21
-73.41723019
  0
LINE
  5
63D
100
AcDbEntity
  8
0
100
AcDbLine
 62
7
  6
CONTINUOUS
 10
9.9515755284
 20
-73.8945561409
 11
9.7526370036
 21
-73.9733383377
  0
LINE
  5
63E
100
AcDbEntity
  8
0
100
AcDbLine
 62
7
  6
CONTINUOUS
 10
36.5108580444
 20
-84.5503025389
 11
36.4995732162
 21
-84.618034589
  0
LWPOLYLINE
  5
63F
100
AcDbEntity
  8
0
100
AcDbPolyline
 62
250
  6
CONTINUOUS
 90
3
 70
0
 10
35.8700326135
 20
-86.9091714754
 10
35.8090384094
 20
-87.1739739943
 10
35.7460221898
 20
-87.4374888935
  0
LWPOLYLINE
  5
640
100
AcDbEntity
  8
0
100
AcDbPolyline
 62
7
  6
CONTINUOUS
 90
8
 70
0
 10
36.029031597
 20
-86.9405191177
 10
36.0755828628
 20
-86.7424429712
 10
36.1250809143
 20
-86.5261261511
 10
36.1804215407
 20
-86.2769803115
 10
36.2499721816
 20
-85.9507388629
 10
36.3344118999
 20
-85.5311954419
 10
36.4279475725
 20
-85.0313733515
 10
36.4995732327
 20
-84.6180345914
  0
LWPOLYLINE
  5
641
100
AcDbEntity
  8
0
100
AcDbPolyline
 62
250
  6
CONTINUOUS
 90
7
 70
0
 10
36.4995732162
 20
-84.618034589
 10
36.4824623953
 20
-84.6890117776
 10
36.4537515498
 20
-84.7627635595
 10
36.4147507171
 20
-84.833332506
 10
36.3659083088
 20
-84.9001272136
 10
36.3075890884
 20
-84.9626883298
 10
36.2401812087
 20
-85.020504438
  0
LINE
  5
642
100
AcDbEntity
  8
0
100
AcDbLine
 62
7
  6
CONTINUOUS
 10
36.029031597
 20
-86.9405191177
 11
35.9985699063
 21
-87.0673241454
  0
LWPOLYLINE
  5
643
100
AcDbEntity
  8
0
100
AcDbPolyline
 62
250
  6
CONTINUOUS
 90
8
 70
0
 10
35.7460221898
 20
-87.4374888935
 10
35.6591547359
 20
-87.7869181533
 10
35.5690178092
 20
-88.1337503829
 10
35.4756183988
 20
-88.4779560938
 10
35.3789648926
 20
-88.8195030307
 10
35.2790637299
 20
-89.158365203
 10
35.1759191487
 20
-89.4945226693
 10
35.0695377655
 20
-89.8279495981
  0
LWPOLYLINE
  5
644
100
AcDbEntity
  8
0
100
AcDbPolyline
 62
250
  6
CONTINUOUS
 90
7
 70
0
 10
35.9985699063
 20
-87.0673241454
 10
35.9845947135
 20
-87.1151745118
 10
35.9548201165
 20
-87.1874992688
 10
35.9156977359
 20
-87.2563809896
 10
35.8676337641
 20
-87.3212892188
 10
35.8109578323
 20
-87.3818119296
 10
35.7460223029
 20
-87.4374888054
  0
LWPOLYLINE
  5
645
100
AcDbEntity
  8
0
100
AcDbPolyline
 62
7
  6
CONTINUOUS
 90
11
 70
0
 10
35.5054679027
 20
-88.875747108
 10
35.5422479131
 20
-88.7537468655
 10
35.5807941263
 20
-88.623701004
 10
35.6214247577
 20
-88.4842430818
 10
35.6659673853
 20
-88.3289184139
 10
35.7134871689
 20
-88.1602648226
 10
35.7644994905
 20
-87.9754129538
 10
35.8226376436
 20
-87.7594742201
 10
35.8885955892
 20
-87.5070914807
 10
35.9604278595
 20
-87.2226579083
 10
35.998569931
 20
-87.0673241507
  0
LWPOLYLINE
  5
646
100
AcDbEntity
  8
0
100
AcDbPolyline
 62
7
  6
CONTINUOUS
 90
3
 70
0
 10
35.4067272174
 20
-89.1941358733
 10
35.438023084
 20
-89.0944903076
 10
35.5054679027
 20
-88.875747108
  0
LWPOLYLINE
  5
647
100
AcDbEntity
  8
0
100
AcDbPolyline
 62
250
  6
CONTINUOUS
 90
10
 70
0
 10
19.3320071623
 20
-89.0346034797
 10
19.2355921286
 20
-89.1725729374
 10
19.1350909003
 20
-89.3055129761
 10
19.0305218635
 20
-89.4334175764
 10
18.9218159146
 20
-89.5563908079
 10
18.8090890109
 20
-89.6743118989
 10
18.6926385628
 20
-89.7868372142
 10
18.5725816502
 20
-89.8938455312
 10
18.4488586653
 20
-89.9954356847
 10
18.3215030997
 20
-90.0915930458
  0
LWPOLYLINE
  5
648
100
AcDbEntity
  8
0
100
AcDbPolyline
 62
250
  6
CONTINUOUS
 90
10
 70
0
 10
19.606505988
 20
-89.5544650834
 10
19.5024640657
 20
-89.693734221
 10
19.3942283356
 20
-89.8277802534
 10
19.2819027464
 20
-89.9564820353
 10
19.1656555113
 20
-90.0796774335
 10
19.0455324388
 20
-90.1973602626
 10
18.921447144
 20
-90.3096381403
 10
18.7934302796
 20
-90.4164872986
 10
18.6616491657
 20
-90.5177745867
 10
18.5262120831
 20
-90.6134098403
  0
LWPOLYLINE
  5
649
100
AcDbEntity
  8
0
100
AcDbPolyline
 62
250
  6
CONTINUOUS
 90
10
 70
0
 10
20.8626755307
 20
-85.4536480368
 10
20.8540805164
 20
-85.4618452863
 10
20.8461646185
 20
-85.4713821969
 10
20.8388201305
 20
-85.4821400599
 10
20.8318456623
 20
-85.4937984671
 10
20.8250677867
 20
-85.5060982619
 10
20.8184330966
 20
-85.5190309578
 10
20.8118969926
 20
-85.5326019826
 10
20.8054640994
 20
-85.5468123789
 10
20.799173243
 20
-85.561662791
  0
LINE
  5
64A
100
AcDbEntity
  8
0
100
AcDbLine
 62
7
  6
CONTINUOUS
 10
35.3489058731
 20
-89.3758538312
 11
35.4067272174
 21
-89.1941358733
  0
LINE
  5
64B
100
AcDbEntity
  8
0
100
AcDbLine
 62
7
  6
CONTINUOUS
 10
35.2959856371
 20
-89.5395042096
 11
35.3489058731
 21
-89.3758538312
  0
LINE
  5
64C
100
AcDbEntity
  8
0
100
AcDbLine
 62
7
  6
CONTINUOUS
 10
35.2468191084
 20
-89.6890344242
 11
35.2959856371
 21
-89.5395042096
  0
LINE
  5
64D
100
AcDbEntity
  8
0
100
AcDbLine
 62
250
  6
CONTINUOUS
 10
35.0695377655
 20
-89.8279495981
 11
34.9599288266
 21
-90.1586144882
  0
LINE
  5
64E
100
AcDbEntity
  8
0
100
AcDbLine
 62
7
  6
CONTINUOUS
 10
35.2008463701
 20
-89.8263658874
 11
35.2468191084
 21
-89.6890344242
  0
LINE
  5
64F
100
AcDbEntity
  8
0
100
AcDbLine
 62
250
  6
CONTINUOUS
 10
34.9599288266
 20
-90.1586144882
 11
34.8471006856
 21
-90.4864890481
  0
LINE
  5
650
100
AcDbEntity
  8
0
100
AcDbLine
 62
7
  6
CONTINUOUS
 10
35.1369407859
 20
-90.0132114552
 11
35.2008463701
 21
-89.8263658874
  0
LINE
  5
651
100
AcDbEntity
  8
0
100
AcDbLine
 62
7
  6
CONTINUOUS
 10
35.1369407859
 20
-90.0132114552
 11
35.0852135884
 21
-90.162743333
  0
LWPOLYLINE
  5
652
100
AcDbEntity
  8
0
100
AcDbPolyline
 62
250
  6
CONTINUOUS
 90
9
 70
0
 10
34.8471006856
 20
-90.4864890481
 10
34.6095723698
 20
-91.140323747
 10
34.3610654215
 20
-91.7798714936
 10
34.10174286
 20
-92.4049755416
 10
33.832336417
 20
-93.0143617075
 10
33.5524930054
 20
-93.6090568331
 10
33.2605617109
 20
-94.1921675418
 10
32.9559003077
 20
-94.7644185269
 10
32.6390882637
 20
-95.3243739384
  0
LWPOLYLINE
  5
653
100
AcDbEntity
  8
0
100
AcDbPolyline
 62
250
  6
CONTINUOUS
 90
6
 70
0
 10
35.0852135884
 20
-90.162743333
 10
35.0523656595
 20
-90.2402793751
 10
35.0129299012
 20
-90.3086151187
 10
34.9653677304
 20
-90.3726756186
 10
34.9099831032
 20
-90.4321012291
 10
34.8471008654
 20
-90.4864889323
  0
LWPOLYLINE
  5
654
100
AcDbEntity
  8
0
100
AcDbPolyline
 62
250
  6
CONTINUOUS
 90
6
 70
0
 10
36.9632208285
 20
-79.1554693173
 10
36.933138071
 20
-79.2146416707
 10
36.8954379419
 20
-79.2719286542
 10
36.8504864601
 20
-79.3269171937
 10
36.798510899
 20
-79.3793850585
 10
36.739787052
 20
-79.4290269661
  0
LINE
  5
655
100
AcDbEntity
  8
0
100
AcDbLine
 62
250
  6
CONTINUOUS
 10
21.3783158314
 20
-102.1835907823
 11
21.3179222853
 21
-102.2847718872
  0
LINE
  5
656
100
AcDbEntity
  8
0
100
AcDbLine
 62
250
  6
CONTINUOUS
 10
21.3179222853
 20
-102.2847718872
 11
21.2570890804
 21
-102.385437754
  0
LINE
  5
657
100
AcDbEntity
  8
0
100
AcDbLine
 62
250
  6
CONTINUOUS
 10
21.2570890804
 20
-102.385437754
 11
21.1958169826
 21
-102.4855871522
  0
LWPOLYLINE
  5
658
100
AcDbEntity
  8
0
100
AcDbPolyline
 62
250
  6
CONTINUOUS
 90
10
 70
0
 10
21.1958905087
 20
-102.4854644706
 10
21.1562607984
 20
-102.5476385319
 10
21.1145907077
 20
-102.6076180206
 10
21.0709012675
 20
-102.6653801662
 10
21.0252021908
 20
-102.7209145473
 10
20.9775261877
 20
-102.7741843981
 10
20.9279319788
 20
-102.8251321984
 10
20.8764570254
 20
-102.8737287301
 10
20.8231145112
 20
-102.9199674874
 10
20.7679297702
 20
-102.9638298969
  0
LINE
  5
659
100
AcDbEntity
  8
0
100
AcDbLine
 62
250
  6
CONTINUOUS
 10
20.0154160538
 20
-102.3217578171
 11
19.9851399027
 21
-102.3661304819
  0
LWPOLYLINE
  5
65A
100
AcDbEntity
  8
0
100
AcDbPolyline
 62
250
  6
CONTINUOUS
 90
8
 70
0
 10
20.1979358375
 20
-102.0645064281
 10
20.1666907905
 20
-102.1095408295
 10
20.1386227425
 20
-102.1483473401
 10
20.1140988308
 20
-102.181319704
 10
20.095818021
 20
-102.205077385
 10
20.0817298004
 20
-102.2237203499
 10
20.0646360702
 20
-102.248376282
 10
20.0154160538
 20
-102.3217578171
  0
LWPOLYLINE
  5
65B
100
AcDbEntity
  8
0
100
AcDbPolyline
 62
250
  6
CONTINUOUS
 90
7
 70
0
 10
20.21842602
 20
-102.0375696449
 10
20.2152186493
 20
-102.0421747828
 10
20.2119719086
 20
-102.0467607471
 10
20.2086840618
 20
-102.0513271335
 10
20.2053533935
 20
-102.0558735424
 10
20.2019782085
 20
-102.0603995789
 10
20.1985568318
 20
-102.0649048529
  0
LINE
  5
65C
100
AcDbEntity
  8
0
100
AcDbLine
 62
250
  6
CONTINUOUS
 10
32.6390882637
 20
-95.3243739384
 11
32.3101245957
 21
-95.8717014095
  0
LWPOLYLINE
  5
65D
100
AcDbEntity
  8
0
100
AcDbPolyline
 62
7
  6
CONTINUOUS
 90
9
 70
0
 10
32.562220125
 20
-95.5527310039
 10
32.7496306111
 20
-95.2410885426
 10
32.9642876986
 20
-94.8707822311
 10
33.182312791
 20
-94.4789963382
 10
33.4241068406
 20
-94.02453975
 10
33.7485331232
 20
-93.3796412554
 10
34.1643212618
 20
-92.4872532553
 10
34.6342447747
 20
-91.3708836081
 10
35.0853888606
 20
-90.1628003078
  0
LINE
  5
65E
100
AcDbEntity
  8
0
100
AcDbLine
 62
7
  6
CONTINUOUS
 10
27.4485756842
 20
-98.90772242
 11
26.8738439366
 21
-99.8496554571
  0
LINE
  5
65F
100
AcDbEntity
  8
0
100
AcDbLine
 62
7
  6
CONTINUOUS
 10
32.4678144389
 20
-95.7057999056
 11
32.562220125
 21
-95.5527310039
  0
LINE
  5
660
100
AcDbEntity
  8
0
100
AcDbLine
 62
7
  6
CONTINUOUS
 10
32.4925841648
 20
-95.6658972243
 11
32.490311775
 21
-95.6695453997
  0
LINE
  5
661
100
AcDbEntity
  8
0
100
AcDbLine
 62
250
  6
CONTINUOUS
 10
32.3101245957
 20
-95.8717014095
 11
32.2453914511
 21
-95.9753881442
  0
LINE
  5
662
100
AcDbEntity
  8
0
100
AcDbLine
 62
7
  6
CONTINUOUS
 10
32.4325753053
 20
-95.7621101983
 11
32.4678144389
 21
-95.7057999056
  0
LINE
  5
663
100
AcDbEntity
  8
0
100
AcDbLine
 62
250
  6
CONTINUOUS
 10
32.2453914511
 20
-95.9753881442
 11
32.1802225117
 21
-96.0785574098
  0
LINE
  5
664
100
AcDbEntity
  8
0
100
AcDbLine
 62
7
  6
CONTINUOUS
 10
32.381206749
 20
-95.8432293828
 11
32.4325753053
 21
-95.7621101983
  0
LWPOLYLINE
  5
665
100
AcDbEntity
  8
0
100
AcDbPolyline
 62
250
  6
CONTINUOUS
 90
3
 70
0
 10
32.490311775
 20
-95.6695453997
 10
32.481556004
 20
-95.6832108081
 10
32.4314051181
 20
-95.7516311835
  0
LINE
  5
666
100
AcDbEntity
  8
0
100
AcDbLine
 62
7
  6
CONTINUOUS
 10
32.3252438914
 20
-95.930835428
 11
32.381206749
 21
-95.8432293828
  0
LINE
  5
667
100
AcDbEntity
  8
0
100
AcDbLine
 62
250
  6
CONTINUOUS
 10
32.1802225117
 20
-96.0785574098
 11
32.1146185075
 21
-96.1812079964
  0
LINE
  5
668
100
AcDbEntity
  8
0
100
AcDbLine
 62
7
  6
CONTINUOUS
 10
32.2805753727
 20
-96.0000050742
 11
32.3252438914
 21
-95.930835428
  0
LINE
  5
669
100
AcDbEntity
  8
0
100
AcDbLine
 62
7
  6
CONTINUOUS
 10
32.2804446993
 20
-96.0004831202
 11
32.27812549
 21
-96.0040369948
  0
LWPOLYLINE
  5
66A
100
AcDbEntity
  8
0
100
AcDbPolyline
 62
7
  6
CONTINUOUS
 90
7
 70
0
 10
26.8738439366
 20
-99.8496554571
 10
26.801528907
 20
-99.9544866379
 10
26.7242958644
 20
-100.0524961143
 10
26.6421448089
 20
-100.1436838861
 10
26.5549083854
 20
-100.228197462
 10
26.4627539489
 20
-100.3058893333
 10
26.3661835651
 20
-100.3763169741
  0
LWPOLYLINE
  5
66B
100
AcDbEntity
  8
0
100
AcDbPolyline
 62
7
  6
CONTINUOUS
 90
10
 70
0
 10
36.7450948018
 20
-78.3058828882
 10
36.8047244673
 20
-78.2566240401
 10
36.8573304883
 20
-78.2047706596
 10
36.9025784679
 20
-78.1506584551
 10
36.9401807389
 20
-78.0946406852
 10
36.9699003492
 20
-78.0370759464
 10
36.9915510333
 20
-77.9783255864
 10
37.0049961334
 20
-77.918766668
 10
37.0101508034
 20
-77.8587843251
 10
37.0102102098
 20
-77.851609925
  0
LWPOLYLINE
  5
66C
100
AcDbEntity
  8
0
100
AcDbPolyline
 62
250
  6
CONTINUOUS
 90
7
 70
0
 10
33.2778836445
 20
-80.70615035
 10
33.881484723
 20
-80.3188741678
 10
34.4749466675
 20
-79.9263898106
 10
35.0581688867
 20
-79.5287617584
 10
35.6310280211
 20
-79.1260705862
 10
36.1933800082
 20
-78.7184139693
 10
36.7450948069
 20
-78.3058828904
  0
LWPOLYLINE
  5
66D
100
AcDbEntity
  8
0
100
AcDbPolyline
 62
250
  6
CONTINUOUS
 90
40
 70
0
 10
18.5262120831
 20
-90.6134098403
 10
18.3612653831
 20
-90.7192016021
 10
18.1922824775
 20
-90.8180308111
 10
18.0194821195
 20
-90.909859538
 10
17.8451670735
 20
-90.9936051518
 10
17.6675464322
 20
-91.0704863885
 10
17.4803564437
 20
-91.1431384576
 10
17.2795217139
 20
-91.2117954757
 10
17.0688355335
 20
-91.2741706607
 10
16.8537618554
 20
-91.3289980214
 10
16.6372996292
 20
-91.3755401038
 10
16.4168927618
 20
-91.414391348
 10
16.1897560101
 20
-91.4466151623
 10
15.9544696453
 20
-91.4717386559
 10
15.7125772346
 20
-91.4888993005
 10
15.4656277111
 20
-91.4983623803
 10
15.2122957253
 20
-91.4998650637
 10
14.9540872684
 20
-91.4926518784
 10
14.6968763081
 20
-91.4772258809
 10
14.4428956428
 20
-91.4543073361
 10
14.1901713701
 20
-91.4240349595
 10
13.9382951291
 20
-91.3867419408
 10
13.6868671474
 20
-91.342694735
 10
13.4363646581
 20
-91.2920768851
 10
13.1876847779
 20
-91.2351305803
 10
12.9395561688
 20
-91.1716914355
 10
12.6935298401
 20
-91.1025552152
 10
12.4547265588
 20
-91.0301221372
 10
12.227289142
 20
-90.9571851648
 10
12.0071206895
 20
-90.8831096185
 10
11.7869528447
 20
-90.804914225
 10
11.5614636655
 20
-90.7207737022
 10
11.3357128679
 20
-90.6322672057
 10
11.1181342673
 20
-90.541616883
 10
10.9146526455
 20
-90.4524157361
 10
10.7192935089
 20
-90.3632158214
 10
10.5227983181
 20
-90.2686579457
 10
10.3220642983
 20
-90.1665418562
 10
10.1201086617
 20
-90.0587543508
 10
9.91688333
 20
-89.9452280394
  0
LWPOLYLINE
  5
66E
100
AcDbEntity
  8
0
100
AcDbPolyline
 62
250
  6
CONTINUOUS
 90
4
 70
0
 10
31.4075922024
 20
-81.8358862868
 10
32.0407907273
 20
-81.4647456282
 10
32.6642684783
 20
-81.0881387401
 10
33.2778836445
 20
-80.70615035
  0
LWPOLYLINE
  5
66F
100
AcDbEntity
  8
0
100
AcDbPolyline
 62
250
  6
CONTINUOUS
 90
9
 70
0
 10
31.4075922024
 20
-81.8358862868
 10
30.7647991392
 20
-82.2014871792
 10
30.1125388988
 20
-82.5614754187
 10
29.450958224
 20
-82.9157691252
 10
28.7802194145
 20
-83.264280823
 10
28.1004603626
 20
-83.6069383119
 10
27.4117927436
 20
-83.9436835118
 10
26.7143561085
 20
-84.2744451964
 10
26.0083196249
 20
-84.5991401858
  0
LINE
  5
670
100
AcDbEntity
  8
0
100
AcDbLine
 62
250
  6
CONTINUOUS
 10
26.0083196249
 20
-84.5991401858
 11
25.2938408693
 21
-84.917693396
  0
LWPOLYLINE
  5
671
100
AcDbEntity
  8
0
100
AcDbPolyline
 62
7
  6
CONTINUOUS
 90
16
 70
0
 10
25.2938408655
 20
-84.9176933931
 10
25.2085206753
 20
-84.9521267751
 10
25.1187151667
 20
-84.9825000269
 10
25.0250015894
 20
-85.0086224837
 10
24.9279837097
 20
-85.0303327017
 10
24.8282824713
 20
-85.0474939389
 10
24.7265315392
 20
-85.0599941254
 10
24.623380579
 20
-85.067756311
 10
24.5194924947
 20
-85.0707338877
 10
24.4155334318
 20
-85.0689048693
 10
24.312172527
 20
-85.0622840117
 10
24.2100671852
 20
-85.0509170291
 10
24.1098603583
 20
-85.0348726871
 10
24.0121901264
 20
-85.014252485
 10
23.9176850625
 20
-84.9891915719
 10
23.8269501472
 20
-84.9598512681
  0
LWPOLYLINE
  5
672
100
AcDbEntity
  8
0
100
AcDbPolyline
 62
250
  6
CONTINUOUS
 90
9
 70
0
 10
32.1146981754
 20
-96.1810817687
 10
32.0717439156
 20
-96.2451753831
 10
32.0272158596
 20
-96.3068050252
 10
31.9811363866
 20
-96.3659471458
 10
31.9335182074
 20
-96.4225895927
 10
31.8843923884
 20
-96.476696549
 10
31.8338126402
 20
-96.5282133873
 10
31.7818158554
 20
-96.5771112179
 10
31.7292482944
 20
-96.6226944363
  0
LWPOLYLINE
  5
673
100
AcDbEntity
  8
0
100
AcDbPolyline
 62
250
  6
CONTINUOUS
 90
4
 70
0
 10
32.27812549
 20
-96.0040369948
 10
32.2336918123
 20
-96.0644050749
 10
32.1777074284
 20
-96.1258132582
 10
32.114658601
 20
-96.1811447338
  0
LWPOLYLINE
  5
674
100
AcDbEntity
  8
0
100
AcDbPolyline
 62
250
  6
CONTINUOUS
 90
3
 70
0
 10
32.4314051181
 20
-95.7516311835
 10
32.3741313804
 20
-95.814653778
 10
32.3101248421
 20
-95.8717012122
  0
LINE
  5
675
100
AcDbEntity
  8
0
100
AcDbLine
 62
7
  6
CONTINUOUS
 10
15.8045245928
 20
-93.8641340784
 11
15.5060835941
 21
-93.9546447727
  0
LWPOLYLINE
  5
676
100
AcDbEntity
  8
0
100
AcDbPolyline
 62
7
  6
CONTINUOUS
 90
9
 70
0
 10
31.7292482944
 20
-96.6226944363
 10
31.7847132025
 20
-96.5752203924
 10
31.8820973183
 20
-96.4850886717
 10
31.9722757355
 20
-96.3931402314
 10
32.0554375655
 20
-96.3002027126
 10
32.1321586452
 20
-96.2066408052
 10
32.2032800602
 20
-96.1123184783
 10
32.2692256426
 20
-96.0174432862
 10
32.27812549
 20
-96.0040369948
  0
LINE
  5
677
100
AcDbEntity
  8
0
100
AcDbLine
 62
7
  6
CONTINUOUS
 10
31.7292482944
 20
-96.6226944363
 11
31.7291861147
 21
-96.6227461712
  0
LINE
  5
678
100
AcDbEntity
  8
0
100
AcDbLine
 62
250
  6
CONTINUOUS
 10
32.1146185075
 20
-96.1812079964
 11
31.6970732353
 21
-96.5248026072
  0
LWPOLYLINE
  5
679
100
AcDbEntity
  8
0
100
AcDbPolyline
 62
250
  6
CONTINUOUS
 90
12
 70
0
 10
31.6970732353
 20
-96.5248026072
 10
31.2758585608
 20
-96.8616385547
 10
30.851036723
 20
-97.1916683714
 10
30.4226793504
 20
-97.5148368435
 10
29.9908367307
 20
-97.8311090709
 10
29.5555368429
 20
-98.1404695211
 10
29.1168406444
 20
-98.4428707274
 10
28.6748015596
 20
-98.7382773377
 10
28.2294331624
 20
-99.0266925792
 10
27.7807753047
 20
-99.3080920084
 10
27.3288950325
 20
-99.5824244528
 10
26.8738444787
 20
-99.8496544646
  0
LWPOLYLINE
  5
67A
100
AcDbEntity
  8
0
100
AcDbPolyline
 62
250
  6
CONTINUOUS
 90
7
 70
0
 10
19.6321340216
 20
-102.7276501718
 10
19.6991135116
 20
-102.6772487436
 10
19.7628835674
 20
-102.622795415
 10
19.8234060585
 20
-102.5643724264
 10
19.8806448939
 20
-102.5020643253
 10
19.9345663336
 20
-102.4359555563
 10
19.9851399027
 20
-102.3661304819
  0
LWPOLYLINE
  5
67B
100
AcDbEntity
  8
0
100
AcDbPolyline
 62
250
  6
CONTINUOUS
 90
4
 70
0
 10
20.7679297702
 20
-102.9638298969
 10
20.6131227567
 20
-103.0682905318
 10
20.4464726188
 20
-103.1554983549
 10
20.3165738692
 20
-103.2084531446
  0
LINE
  5
67C
100
AcDbEntity
  8
0
100
AcDbLine
 62
7
  6
CONTINUOUS
 10
26.3661835651
 20
-100.3763169741
 11
26.2660720276
 21
-100.438948406
  0
LWPOLYLINE
  5
67D
100
AcDbEntity
  8
0
100
AcDbPolyline
 62
7
  6
CONTINUOUS
 90
9
 70
0
 10
26.7721888687
 20
-100.1414882425
 10
27.4512448188
 20
-99.725654258
 10
28.1237656911
 20
-99.2943798083
 10
28.7894435112
 20
-98.8478045118
 10
29.4480643236
 20
-98.3860234546
 10
30.0994131246
 20
-97.9091377699
 10
30.7432358321
 20
-97.4172793906
 10
31.3792743484
 20
-96.910596869
 10
31.729215283
 20
-96.6227188972
  0
LINE
  5
67E
100
AcDbEntity
  8
0
100
AcDbLine
 62
7
  6
CONTINUOUS
 10
26.2660951941
 20
-100.4389350302
 11
26.7721888687
 21
-100.1414882425
  0
LWPOLYLINE
  5
67F
100
AcDbEntity
  8
0
100
AcDbPolyline
 62
250
  6
CONTINUOUS
 90
3
 70
0
 10
25.9548244535
 20
-100.3623731453
 10
26.4157895735
 20
-100.1096401009
 10
26.8738444797
 20
-99.849654464
  0
LWPOLYLINE
  5
680
100
AcDbEntity
  8
0
100
AcDbPolyline
 62
250
  6
CONTINUOUS
 90
11
 70
0
 10
21.1055750208
 20
-102.5187237439
 10
21.6833013794
 20
-102.3066289747
 10
22.1683226317
 20
-102.120215656
 10
22.6508384701
 20
-101.92636007
 10
23.1307983053
 20
-101.7250775702
 10
23.60816514
 20
-101.5163836537
 10
24.0829147656
 20
-101.3002929205
 10
24.5550035897
 20
-101.0768182695
 10
25.0243795376
 20
-100.8459852627
 10
25.4910025725
 20
-100.6078280813
 10
25.9548244535
 20
-100.3623731453
  0
LWPOLYLINE
  5
681
100
AcDbEntity
  8
0
100
AcDbPolyline
 62
7
  6
CONTINUOUS
 90
10
 70
0
 10
20.3145383076
 20
-103.2091918317
 10
20.7092302658
 20
-103.0641243608
 10
21.4461004557
 20
-102.7793479259
 10
22.1777772245
 20
-102.4782739677
 10
22.903990016
 20
-102.1610022599
 10
23.6244818863
 20
-101.8276329911
 10
24.3390482706
 20
-101.4782491641
 10
25.047485823
 20
-101.1129351147
 10
25.7495046959
 20
-100.7318337205
 10
26.2660860073
 20
-100.4389403345
  0
LINE
  5
682
100
AcDbEntity
  8
0
100
AcDbLine
 62
7
  6
CONTINUOUS
 10
20.3165738692
 20
-103.2084531446
 11
20.3145148232
 21
-103.2091978939
  0
ELLIPSE
  5
683
100
AcDbEntity
  8
0
100
AcDbEllipse
 62
7
  6
CONTINUOUS
 10
23.5312508078
 20
-56.8565882653
 30
0.0
 11
1.9751306737
 21
1.8173922308
 31
0.0
 40
0.6946229957
 41
0.7729846693
 42
0.9675878659
  0
ELLIPSE
  5
684
100
AcDbEntity
  8
RACCORDO
100
AcDbEllipse
 62
7
  6
CONTINUOUS
 10
17.0115715888
 20
-51.310216584
 30
0.0
 11
6.5314325975
 21
-1.2150601507
 31
0.0
 40
0.6665616934
 41
-0.1568151074
 42
0.0150115866
  0
ELLIPSE
  5
685
100
AcDbEntity
  8
RACCORDO
100
AcDbEllipse
 62
7
  6
CONTINUOUS
 10
24.7622048076
 20
-54.2211770984
 30
0.0
 11
1.2796364167
 21
-0.1817461242
 31
0.0
 40
0.6510236437
 41
-1.0009090868
 42
-0.6296318029
  0
ELLIPSE
  5
686
100
AcDbEntity
  8
0
100
AcDbEllipse
 62
7
  6
CONTINUOUS
 10
-11.0188146688
 20
-32.4488568175
 30
0.0
 11
58.1994648799
 21
-0.4360702587
 31
0.0
 40
0.5723275643
 41
-0.7811099195
 42
-0.6499913552
  0
ELLIPSE
  5
687
100
AcDbEntity
  8
0
100
AcDbEllipse
 62
7
  6
CONTINUOUS
 10
44.9846460914
 20
-64.7845531723
 30
0.0
 11
58.1994648799
 21
-0.4360702587
 31
0.0
 40
0.5723275643
 41
2.2293641698
 42
2.3604827341
  0
ELLIPSE
  5
688
100
AcDbEntity
  8
0
100
AcDbEllipse
 62
7
  6
CONTINUOUS
 10
-11.0188146688
 20
-32.4488568175
 30
0.0
 11
58.1994261866
 21
0.4437484776
 31
0.0
 40
0.5824033911
 41
-0.9209573028
 42
-0.7898387384
  0
ELLIPSE
  5
689
100
AcDbEntity
  8
0
100
AcDbEllipse
 62
7
  6
CONTINUOUS
 10
44.9846460914
 20
-64.7845531723
 30
0.0
 11
58.1994261866
 21
0.4437484776
 31
0.0
 40
0.5824033911
 41
2.3517539151
 42
2.4828724795
  0
ENDSEC
  0
SECTION
  2
OBJECTS
  0
DICTIONARY
  5
C
100
AcDbDictionary
280
0
281
1
  3
ACAD_GROUP
350
D
  3
ACAD_MLINESTYLE
350
17
  3
ACAD_LAYOUT
350
1A
  3
ACAD_PLOTSETTINGS
350
19
  3
ACAD_PLOTSTYLENAME
350
E
  0
DICTIONARY
  5
D
102
{ACAD_REACTORS
330
C
102
}
100
AcDbDictionary
280
0
281
1
  0
ACDBDICTIONARYWDFLT
  5
E
102
{ACAD_REACTORS
330
C
102
}
100
AcDbDictionary
281
1
  3
Normal
350
F
100
AcDbDictionaryWithDefault
340
F
  0
DICTIONARY
  5
17
102
{ACAD_REACTORS
330
C
102
}
100
AcDbDictionary
280
0
281
1
  3
Standard
350
18
  0
DICTIONARY
  5
19
102
{ACAD_REACTORS
330
C
102
}
100
AcDbDictionary
281
1
  0
DICTIONARY
  5
1A
102
{ACAD_REACTORS
330
C
102
}
100
AcDbDictionary
281
1
  3
Model
350
68A
  3
Layout1
350
68B
  0
ACDBPLACEHOLDER
  5
F
102
{ACAD_REACTORS
330
E
102
}
  0
MLINESTYLE
  5
18
102
{ACAD_REACTORS
330
17
102
}
100
AcDbMlineStyle
  2
STANDARD
 70
0
  3

 62
256
 51
90.0
 52
90.0
 71
2
 49
0.5
 62
256
  6
BYLAYER
 49
-0.5
 62
256
  6
BYLAYER
  0
LAYOUT
  5
68A
102
{ACAD_REACTORS
330
1A
102
}
100
AcDbPlotSettings
  1

  2
none_device
  4
ISO_A3_(420.00_x_297.00_MM)
  6

 40
0.0
 41
0.0
 42
0.0
 43
0.0
 44
420.0
 45
297.0
 46
0.0
 47
0.0
 48
0.0
 49
0.0
140
0.0
141
0.0
142
1.0
143
1.0
 70
1024
 72
1
 73
0
 74
0
  7

 75
0
147
1.0
148
0.0
149
0.0
100
AcDbLayout
  1
Model
 70
0
 71
0
 10
0.0
 20
0.0
 11
420.0
 21
297.0
 12
0.0
 22
0.0
 32
0.0
 14
0.0
 24
0.0
 34
0.0
 15
0.0
 25
0.0
 35
0.0
146
0.0
 13
0.0
 23
0.0
 33
0.0
 16
1.0
 26
0.0
 36
0.0
 17
0.0
 27
1.0
 37
0.0
 76
0
330
218
345
0
346
0
  0
LAYOUT
  5
68B
102
{ACAD_REACTORS
330
1A
102
}
100
AcDbPlotSettings
  1

  2
none_device
  4
ISO_A3_(420.00_x_297.00_MM)
  6

 40
0.0
 41
0.0
 42
0.0
 43
0.0
 44
420.0
 45
297.0
 46
0.0
 47
0.0
 48
0.0
 49
0.0
140
0.0
141
0.0
142
1.0
143
1.0
 70
0
 72
1
 73
0
 74
0
  7

 75
0
147
1.0
148
0.0
149
0.0
100
AcDbLayout
  1
Layout1
 70
0
 71
1
 10
0.0
 20
0.0
 11
420.0
 21
297.0
 12
0.0
 22
0.0
 32
0.0
 14
0.0
 24
0.0
 34
0.0
 15
0.0
 25
0.0
 35
0.0
146
0.0
 13
0.0
 23
0.0
 33
0.0
 16
1.0
 26
0.0
 36
0.0
 17
0.0
 27
1.0
 37
0.0
 76
0
330
219
345
0
346
0
  0
ENDSEC
  0
EOF
