  0
SECTION
  2
HEADER
  9
$ACADVER
  1
AC1024
  9
$DWGCODEPAGE
  3
ANSI_1252
  9
$EXTMAX
 10
297.0
 20
210.0
 30
0.0
  9
$EXTMIN
 10
0.0
 20
0.0
 30
0.0
  9
$LIMMIN
 10
0.0
 20
0.0
  9
$LIMMAX
 10
297.0
 20
210.0
  9
$VIEWCTR
 10
148.5
 20
105.0
  9
$VIEWSIZE
 40
210.0
  9
$CLAYER
  8
0
  9
$LTSCALE
 40
16.335
  9
$CELTYPE
  6
BYLAYER
  9
$DIMSCALE
 40
1.0
  9
$DIMASZ
 40
3.0
  9
$DIMEXO
 40
0.5
  9
$DIMDLI
 40
11.286
  9
$DIMEXE
 40
1.5
  9
$DIMCEN
 40
2.673
  9
$DIMLFAC
 40
1.0
  9
$DIMBLK
  1
_FILLED
  9
$DIMALT
 70
0
  9
$DIMALTF
 40
0.0393700787
  9
$DIMTXT
 40
3.0
  9
$DIMTOL
 70
1
  9
$DIMLIM
 70
0
  9
$DIMTFAC
 40
1.0
  9
$DIMTP
 40
0.01
  9
$DIMTM
 40
0.01
  9
$DIMGAP
 40
0.625
  9
$DIMDSEP
 70
44
  9
$AUNITS
 70
0
  9
$PDMODE
 70
3
  9
$PDSIZE
 40
3.0
  9
$HANDSEED
  5
54A
  9
$TILEMODE
 70
1
  9
$MEASUREMENT
 70
1
  9
$INSUNITS
 70
4
  0
ENDSEC
  0
SECTION
  2
CLASSES
  0
CLASS
  1
ACDBDICTIONARYWDFLT
  2
AcDbDictionaryWithDefault
  3
AutoCAD 2000
 90
0
 91
1
280
0
281
0
  0
CLASS
  1
ACDBPLACEHOLDER
  2
AcDbPlaceHolder
  3
AutoCAD 2000
 90
0
 91
1
280
0
281
0
  0
CLASS
  1
LAYOUT
  2
AcDbLayout
  3
AutoCAD 2000
 90
0
 91
0
280
0
281
0
  0
ENDSEC
  0
SECTION
  2
TABLES
  0
TABLE
  2
VPORT
  5
8
100
AcDbSymbolTable
 70
2
  0
VPORT
  5
1F4
100
AcDbSymbolTableRecord
100
AcDbViewportTableRecord
  2
*ACTIVE
 70
0
 10
0.0
 20
0.0
 11
1.0
 21
1.0
 12
148.5
 22
105.0
 13
0.0
 23
0.0
 14
1.0
 24
1.0
 15
0.0
 25
0.0
 16
0.0
 26
0.0
 36
1.0
 17
0.0
 27
0.0
 37
0.0
 40
210.0
 41
1.4142857143
 42
50.0
 43
0.0
 44
0.0
 50
0.0
 51
0.0
 71
0
 72
100
 73
1
 74
1
 75
0
 76
0
 77
0
 78
0
  0
ENDTAB
  0
TABLE
  2
LTYPE
  5
5
100
AcDbSymbolTable
 70
6
  0
LTYPE
  5
14
100
AcDbSymbolTableRecord
100
AcDbLinetypeTableRecord
  2
BYBLOCK
 70
0
  3

 72
65
 73
0
 40
0.0
  0
LTYPE
  5
15
100
AcDbSymbolTableRecord
100
AcDbLinetypeTableRecord
  2
BYLAYER
 70
0
  3

 72
65
 73
0
 40
0.0
  0
LTYPE
  5
16
100
AcDbSymbolTableRecord
100
AcDbLinetypeTableRecord
  2
CONTINUOUS
 70
64
  3
Solid line
 72
65
 73
0
 40
0.0
  0
LTYPE
  5
1F5
100
AcDbSymbolTableRecord
100
AcDbLinetypeTableRecord
  2
CENTER
 70
64
  3
____ _ ____ _ ____ _ ____ _ ____ _ ____ _ ____
 72
65
 73
4
 40
0.6
 49
0.375
 74
0
 49
-0.075
 74
0
 49
0.075
 74
0
 49
-0.075
 74
0
  0
LTYPE
  5
1F6
100
AcDbSymbolTableRecord
100
AcDbLinetypeTableRecord
  2
HIDDEN
 70
64
  3
- - - - - - - - - - - - - - - - - - - -
 72
65
 73
2
 40
0.2
 49
0.1
 74
0
 49
-0.1
 74
0
  0
LTYPE
  5
1F7
100
AcDbSymbolTableRecord
100
AcDbLinetypeTableRecord
  2
PHANTOM
 70
64
  3
_____ _ _ _____ _ _ _____ _ _ _____
 72
65
 73
6
 40
0.8
 49
0.45
 74
0
 49
-0.05
 74
0
 49
0.1
 74
0
 49
-0.05
 74
0
 49
0.1
 74
0
 49
-0.05
 74
0
  0
LTYPE
  5
1F8
100
AcDbSymbolTableRecord
100
AcDbLinetypeTableRecord
  2
DOT
 70
64
  3
. . . . . . . . . . . . . . . . . . . .
 72
65
 73
2
 40
0.2
 49
0.1
 74
0
 49
-0.1
 74
0
  0
LTYPE
  5
1F9
100
AcDbSymbolTableRecord
100
AcDbLinetypeTableRecord
  2
DASHED
 70
64
  3
- - - - - - - - - - - - - - - - - - - -
 72
65
 73
2
 40
0.2
 49
0.1
 74
0
 49
-0.1
 74
0
  0
ENDTAB
  0
TABLE
  2
LAYER
  5
2
100
AcDbSymbolTable
 70
36
  0
LAYER
  5
10
100
AcDbSymbolTableRecord
100
AcDbLayerTableRecord
  2
0
 70
0
 62
7
  6
CONTINUOUS
370
-3
390
F
  0
LAYER
  5
1FA
100
AcDbSymbolTableRecord
100
AcDbLayerTableRecord
  2
DEFAULT_1
 70
0
 62
7
  6
CENTER
370
-3
390
F
  0
LAYER
  5
1FB
100
AcDbSymbolTableRecord
100
AcDbLayerTableRecord
  2
DEFAULT_2
 70
0
 62
7
  6
HIDDEN
370
-3
390
F
  0
LAYER
  5
1FC
100
AcDbSymbolTableRecord
100
AcDbLayerTableRecord
  2
DEFAULT_3
 70
0
 62
7
  6
PHANTOM
370
-3
390
F
  0
LAYER
  5
1FD
100
AcDbSymbolTableRecord
100
AcDbLayerTableRecord
  2
ASSI
 70
0
 62
7
  6
CONTINUOUS
370
-3
390
F
  0
LAYER
  5
1FE
100
AcDbSymbolTableRecord
100
AcDbLayerTableRecord
  2
COORDINATE
 70
0
 62
7
  6
CONTINUOUS
370
-3
390
F
  0
LAYER
  5
1FF
100
AcDbSymbolTableRecord
100
AcDbLayerTableRecord
  2
COORD_ORIGINE
 70
0
 62
7
  6
CONTINUOUS
370
-3
390
F
  0
LAYER
  5
200
100
AcDbSymbolTableRecord
100
AcDbLayerTableRecord
  2
COPY-PUBBLISH
 70
0
 62
7
  6
CONTINUOUS
370
-3
390
F
  0
LAYER
  5
201
100
AcDbSymbolTableRecord
100
AcDbLayerTableRecord
  2
COPY_PUBLISH
 70
0
 62
7
  6
CONTINUOUS
370
-3
390
F
  0
LAYER
  5
202
100
AcDbSymbolTableRecord
100
AcDbLayerTableRecord
  2
COSMETIC
 70
0
 62
7
  6
CONTINUOUS
370
-3
390
F
  0
LAYER
  5
203
100
AcDbSymbolTableRecord
100
AcDbLayerTableRecord
  2
COSMETICHE
 70
0
 62
7
  6
CONTINUOUS
370
-3
390
F
  0
LAYER
  5
204
100
AcDbSymbolTableRecord
100
AcDbLayerTableRecord
  2
COSMETICI
 70
0
 62
7
  6
CONTINUOUS
370
-3
390
F
  0
LAYER
  5
205
100
AcDbSymbolTableRecord
100
AcDbLayerTableRecord
  2
CURVE
 70
0
 62
7
  6
CONTINUOUS
370
-3
390
F
  0
LAYER
  5
206
100
AcDbSymbolTableRecord
100
AcDbLayerTableRecord
  2
DRAFT
 70
0
 62
7
  6
CONTINUOUS
370
-3
390
F
  0
LAYER
  5
207
100
AcDbSymbolTableRecord
100
AcDbLayerTableRecord
  2
IMPORT_IGES
 70
0
 62
7
  6
CONTINUOUS
370
-3
390
F
  0
LAYER
  5
208
100
AcDbSymbolTableRecord
100
AcDbLayerTableRecord
  2
INTF_1
 70
0
 62
7
  6
CONTINUOUS
370
-3
390
F
  0
LAYER
  5
209
100
AcDbSymbolTableRecord
100
AcDbLayerTableRecord
  2
INTF_11
 70
0
 62
7
  6
CONTINUOUS
370
-3
390
F
  0
LAYER
  5
20A
100
AcDbSymbolTableRecord
100
AcDbLayerTableRecord
  2
INTF_2
 70
0
 62
7
  6
CONTINUOUS
370
-3
390
F
  0
LAYER
  5
20B
100
AcDbSymbolTableRecord
100
AcDbLayerTableRecord
  2
INTF_3
 70
0
 62
7
  6
CONTINUOUS
370
-3
390
F
  0
LAYER
  5
20C
100
AcDbSymbolTableRecord
100
AcDbLayerTableRecord
  2
INTF_4
 70
0
 62
7
  6
CONTINUOUS
370
-3
390
F
  0
LAYER
  5
20D
100
AcDbSymbolTableRecord
100
AcDbLayerTableRecord
  2
INTF_MAGENTA
 70
0
 62
7
  6
CONTINUOUS
370
-3
390
F
  0
LAYER
  5
20E
100
AcDbSymbolTableRecord
100
AcDbLayerTableRecord
  2
NOTE
 70
0
 62
7
  6
CONTINUOUS
370
-3
390
F
  0
LAYER
  5
20F
100
AcDbSymbolTableRecord
100
AcDbLayerTableRecord
  2
PIANI
 70
0
 62
7
  6
CONTINUOUS
370
-3
390
F
  0
LAYER
  5
210
100
AcDbSymbolTableRecord
100
AcDbLayerTableRecord
  2
PIANI-RIFERIMENTO
 70
0
 62
7
  6
CONTINUOUS
370
-3
390
F
  0
LAYER
  5
211
100
AcDbSymbolTableRecord
100
AcDbLayerTableRecord
  2
PIANI_ORIGINE
 70
0
 62
7
  6
CONTINUOUS
370
-3
390
F
  0
LAYER
  5
212
100
AcDbSymbolTableRecord
100
AcDbLayerTableRecord
  2
PIANI_SFORMI
 70
0
 62
7
  6
CONTINUOUS
370
-3
390
F
  0
LAYER
  5
213
100
AcDbSymbolTableRecord
100
AcDbLayerTableRecord
  2
PUNTI
 70
0
 62
7
  6
CONTINUOUS
370
-3
390
F
  0
LAYER
  5
214
100
AcDbSymbolTableRecord
100
AcDbLayerTableRecord
  2
RACCORDO
 70
0
 62
7
  6
CONTINUOUS
370
-3
390
F
  0
LAYER
  5
215
100
AcDbSymbolTableRecord
100
AcDbLayerTableRecord
  2
RGB__255__255__255__
 70
0
 62
7
  6
CONTINUOUS
370
-3
390
F
  0
LAYER
  5
216
100
AcDbSymbolTableRecord
100
AcDbLayerTableRecord
  2
SIMBOLI
 70
0
 62
7
  6
CONTINUOUS
370
-3
390
F
  0
LAYER
  5
217
100
AcDbSymbolTableRecord
100
AcDbLayerTableRecord
  2
SMUSSO
 70
0
 62
7
  6
CONTINUOUS
370
-3
390
F
  0
LAYER
  5
218
100
AcDbSymbolTableRecord
100
AcDbLayerTableRecord
  2
SUPERFICI
 70
0
 62
7
  6
CONTINUOUS
370
-3
390
F
  0
LAYER
  5
219
100
AcDbSymbolTableRecord
100
AcDbLayerTableRecord
  2
TRASH
 70
0
 62
7
  6
CONTINUOUS
370
-3
390
F
  0
LAYER
  5
21A
100
AcDbSymbolTableRecord
100
AcDbLayerTableRecord
  2
WHITE
 70
0
 62
7
  6
CONTINUOUS
370
-3
390
F
  0
LAYER
  5
21B
100
AcDbSymbolTableRecord
100
AcDbLayerTableRecord
  2
XSEC_DATUMS
 70
0
 62
7
  6
CONTINUOUS
370
-3
390
F
  0
ENDTAB
  0
TABLE
  2
STYLE
  5
3
100
AcDbSymbolTable
 70
1
  0
STYLE
  5
11
100
AcDbSymbolTableRecord
100
AcDbTextStyleTableRecord
  2
STANDARD
 70
0
 40
0.0
 41
0.8
 50
0.0
 71
0
 42
0.2
  3
txt
  4

  0
STYLE
  5
21C
100
AcDbSymbolTableRecord
100
AcDbTextStyleTableRecord
  2
TEXTSTYLE_1
 70
0
 40
0.0
 41
0.8
 50
0.0
 71
0
 42
0.2
  3
gdt
  4

  0
ENDTAB
  0
TABLE
  2
VIEW
  5
6
100
AcDbSymbolTable
 70
0
  0
ENDTAB
  0
TABLE
  2
UCS
  5
7
100
AcDbSymbolTable
 70
0
  0
ENDTAB
  0
TABLE
  2
APPID
  5
9
100
AcDbSymbolTable
 70
1
  0
APPID
  5
21D
100
AcDbSymbolTableRecord
100
AcDbRegAppTableRecord
  2
ACAD
 70
0
  0
ENDTAB
  0
TABLE
  2
BLOCK_RECORD
  5
1
100
AcDbSymbolTable
 70
0
  0
BLOCK_RECORD
  5
21E
100
AcDbSymbolTableRecord
100
AcDbBlockTableRecord
  2
*Model_Space
  0
BLOCK_RECORD
  5
21F
100
AcDbSymbolTableRecord
100
AcDbBlockTableRecord
  2
*Paper_Space
  0
BLOCK_RECORD
  5
220
100
AcDbSymbolTableRecord
100
AcDbBlockTableRecord
  2
_FILLED
  0
ENDTAB
  0
TABLE
  2
DIMSTYLE
  5
A
100
AcDbSymbolTable
 70
1
100
AcDbDimStyleTable
 71
0
  0
DIMSTYLE
105
221
100
AcDbSymbolTableRecord
100
AcDbDimStyleTableRecord
  2
STANDARD
 70
0
  3

  4

 40
1.0
 41
3.0
 42
0.5
 43
0.38
 44
1.5
 45
0.0
 46
0.0
 47
0.01
 48
0.01
140
3.0
141
0.09
142
0.0
143
25.4
144
1.0
145
0.0
146
1.0
147
0.625
 71
1
 72
0
 73
0
 74
0
 75
0
 76
0
 77
1
 78
8
 79
2
170
0
171
1
172
0
173
0
174
0
175
0
176
0
177
0
178
0
270
2
179
2
271
2
272
2
273
2
274
2
275
0
280
0
281
0
282
0
283
1
284
8
285
0
286
0
287
3
288
0
340
11
278
44
341
220
342
220
343
220
344
220
  0
ENDTAB
  0
ENDSEC
  0
SECTION
  2
BLOCKS
  0
BLOCK
  5
20
100
AcDbEntity
  8
0
100
AcDbBlockBegin
  2
*Model_Space
 70
0
 10
0.0
 20
0.0
 30
0.0
  3
*Model_Space
  1

  0
ENDBLK
  5
21
100
AcDbEntity
  8
0
100
AcDbBlockEnd
  0
BLOCK
  5
1C
100
AcDbEntity
  8
0
100
AcDbBlockBegin
  2
*Paper_Space
 70
0
 10
0.0
 20
0.0
 30
0.0
  3
*Paper_Space
  1

  0
ENDBLK
  5
1D
100
AcDbEntity
  8
0
100
AcDbBlockEnd
  0
BLOCK
  5
222
100
AcDbEntity
  8
0
100
AcDbBlockBegin
  2
_FILLED
 70
64
 10
0.0
 20
0.0
  3
_FILLED
  1

  0
SOLID
  5
223
100
AcDbEntity
  8
0
  6
BYBLOCK
 62
0
100
AcDbTrace
 10
0.0
 20
0.0
 11
-1.0
 21
0.1333333333
 12
-1.0
 22
-0.1333333333
 13
-1.0
 23
-0.1333333333
  0
ENDBLK
  5
224
100
AcDbEntity
  8
0
  6
BYBLOCK
 62
0
100
AcDbBlockEnd
  0
ENDSEC
  0
SECTION
  2
ENTITIES
  0
LWPOLYLINE
  5
225
100
AcDbEntity
  8
0
100
AcDbPolyline
 62
7
  6
CONTINUOUS
 90
7
 70
0
 10
16.6007879268
 20
-36.5564485369
 10
16.6226346193
 20
-36.5513237528
 10
16.6436835053
 20
-36.5455908757
 10
16.6639345847
 20
-36.5392499054
 10
16.6833878575
 20
-36.5323008421
 10
16.7020433238
 20
-36.5247436857
 10
16.7199009835
 20
-36.5165784361
  0
LWPOLYLINE
  5
226
100
AcDbEntity
  8
0
100
AcDbPolyline
 62
7
  6
CONTINUOUS
 90
7
 70
0
 10
16.6007879268
 20
-36.5564485369
 10
16.5747982366
 20
-36.5565250919
 10
16.5485016086
 20
-36.5541435552
 10
16.5220107779
 20
-36.5492603894
 10
16.4954227012
 20
-36.5418332858
 10
16.4688688426
 20
-36.5318472022
 10
16.4493087703
 20
-36.5228024476
  0
LWPOLYLINE
  5
227
100
AcDbEntity
  8
ASSI
100
AcDbPolyline
 62
7
  6
CONTINUOUS
 90
43
 70
0
 10
17.8448569392
 20
-21.687140684
 10
17.7359755713
 20
-21.7141317325
 10
17.6225831886
 20
-21.7304500394
 10
17.5060864202
 20
-21.7358931764
 10
17.3864465964
 20
-21.7303256773
 10
17.263702387
 20
-21.7138830085
 10
17.1393764302
 20
-21.6867691407
 10
17.013449023
 20
-21.6488511483
 10
16.8859398686
 20
-21.600261957
 10
16.7584307141
 20
-21.5416043142
 10
16.6309215597
 20
-21.4727528025
 10
16.5034124052
 20
-21.3938328394
 10
16.3774849981
 20
-21.3058234246
 10
16.2531590413
 20
-21.2086113356
 10
16.1304148318
 20
-21.1023097951
 10
16.010775008
 20
-20.9882374703
 10
15.8942782396
 20
-20.8662975649
 10
15.7808858569
 20
-20.7365868753
 10
15.6720044891
 20
-20.600714459
 10
15.5676903274
 20
-20.4586035624
 10
15.4678871806
 20
-20.310330939
 10
15.3738331039
 20
-20.1577359064
 10
15.2855997102
 20
-20.0007646225
 10
15.2031153866
 20
-19.8394709294
 10
15.1274033485
 20
-19.6758556705
 10
15.0585479549
 20
-19.5098899275
 10
14.996464847
 20
-19.3416026188
 10
14.9419241637
 20
-19.1730813435
 10
14.8950198573
 20
-19.0043231873
 10
14.8556579756
 20
-18.8353310646
 10
14.8243268017
 20
-18.6682013176
 10
14.8011263699
 20
-18.5029571451
 10
14.7859566458
 20
-18.3395753484
 10
14.7790058094
 20
-18.1800826739
 10
14.7803762391
 20
-18.0245275665
 10
14.7899655566
 20
-17.8728615812
 10
14.8076548066
 20
-17.7269661303
 10
14.8335448858
 20
-17.5869130942
 10
14.8675348975
 20
-17.4526305925
 10
14.9092031966
 20
-17.3257843956
 10
14.9584092348
 20
-17.2069297605
 10
15.0152935604
 20
-17.0955114301
 10
15.0798561735
 20
-16.9915294047
  0
LINE
  5
228
100
AcDbEntity
  8
ASSI
100
AcDbLine
 62
7
  6
CONTINUOUS
 10
16.4493139307
 20
-36.5228050278
 11
1.4882487847
 21
-29.0422724548
  0
LINE
  5
229
100
AcDbEntity
  8
ASSI
100
AcDbLine
 62
250
  6
CONTINUOUS
 10
16.1900852355
 20
-36.1877270764
 11
1.4875842942
 21
-28.8364766057
  0
LWPOLYLINE
  5
22A
100
AcDbEntity
  8
0
100
AcDbPolyline
 62
7
  6
CONTINUOUS
 90
14
 70
0
 10
16.4493087703
 20
-36.5228024476
 10
16.4425144914
 20
-36.5193150392
 10
16.4164693688
 20
-36.5042349854
 10
16.3908486784
 20
-36.4866203232
 10
16.3658272041
 20
-36.4665187093
 10
16.3414910659
 20
-36.4439427955
 10
16.3179740016
 20
-36.4189534911
 10
16.2955181134
 20
-36.3916886825
 10
16.2741831843
 20
-36.3621862676
 10
16.2540975797
 20
-36.3305717496
 10
16.2355749266
 20
-36.2971568599
 10
16.2187439122
 20
-36.2621464819
 10
16.2035692947
 20
-36.2256182787
 10
16.1900852355
 20
-36.1877270764
  0
LWPOLYLINE
  5
22B
100
AcDbEntity
  8
0
100
AcDbPolyline
 62
7
  6
CONTINUOUS
 90
5
 70
0
 10
1.4882570302
 20
-29.0422765775
 10
1.4852777271
 20
-29.040696657
 10
1.4748449932
 20
-29.0334227976
 10
1.4661632417
 20
-29.0242776048
 10
1.4593836473
 20
-29.0134972575
  0
LINE
  5
22C
100
AcDbEntity
  8
0
100
AcDbLine
 62
250
  6
CONTINUOUS
 10
21.8852378622
 20
-16.1830510424
 11
21.1850497292
 21
-16.3765300972
  0
LINE
  5
22D
100
AcDbEntity
  8
ASSI
100
AcDbLine
 62
7
  6
CONTINUOUS
 10
15.6784287639
 20
-34.6152749019
 11
1.9992407657
 21
-27.7756809028
  0
LWPOLYLINE
  5
22E
100
AcDbEntity
  8
ASSI
100
AcDbPolyline
 62
250
  6
CONTINUOUS
 90
9
 70
0
 10
26.4824548471
 20
23.6589326827
 10
26.5402867126
 20
23.6789523598
 10
26.5975419803
 20
23.6942128013
 10
26.6539904579
 20
23.7046526531
 10
26.7094052605
 20
23.7102299459
 10
26.7635635284
 20
23.7109222415
 10
26.8162473386
 20
23.7067267797
 10
26.867244779
 20
23.6976605061
 10
26.916350963
 20
23.6837599175
  0
LWPOLYLINE
  5
22F
100
AcDbEntity
  8
ASSI
100
AcDbPolyline
 62
7
  6
CONTINUOUS
 90
10
 70
0
 10
23.6649310571
 20
23.0325485452
 10
22.2667363257
 20
22.5756521144
 10
20.786960024
 20
22.0628767913
 10
19.2884287048
 20
21.513350045
 10
17.7712297559
 20
20.9261945304
 10
16.2355463449
 20
20.3004898076
 10
14.6816719356
 20
19.6352732866
 10
13.1099508401
 20
18.9295180238
 10
11.5207811743
 20
18.1821422067
 10
10.1147605367
 20
17.490983482
  0
LWPOLYLINE
  5
230
100
AcDbEntity
  8
ASSI
100
AcDbPolyline
 62
250
  6
CONTINUOUS
 90
22
 70
0
 10
24.1315330167
 20
22.9523985073
 10
23.256751495
 20
22.6682501236
 10
22.4080921146
 20
22.3836364222
 10
21.5855933367
 20
22.0989176448
 10
20.7904796111
 20
21.8143788292
 10
20.021594536
 20
21.5304325753
 10
19.2753995128
 20
21.2475871538
 10
18.5492577618
 20
20.9652038511
 10
17.8458545571
 20
20.6844766157
 10
17.1696327907
 20
20.4087069873
 10
16.5232804325
 20
20.1394279129
 10
15.904151697
 20
19.8758189743
 10
15.3086872789
 20
19.6176838466
 10
14.7397545697
 20
19.3667278836
 10
14.194513246
 20
19.1218176463
 10
13.6608362125
 20
18.8783123919
 10
13.1393977558
 20
18.6368334577
 10
12.6295377961
 20
18.3969983785
 10
12.1171222428
 20
18.1523608238
 10
11.5974421029
 20
17.9006703413
 10
11.0752155415
 20
17.644048965
 10
10.5504477304
 20
17.3824497657
  0
LINE
  5
231
100
AcDbEntity
  8
ASSI
100
AcDbLine
 62
250
  6
CONTINUOUS
 10
24.5144926436
 20
23.0729844792
 11
24.1315330167
 21
22.9523985073
  0
LINE
  5
232
100
AcDbEntity
  8
ASSI
100
AcDbLine
 62
7
  6
CONTINUOUS
 10
24.0517296174
 20
23.1541738674
 11
23.6649309798
 21
23.0325485206
  0
LINE
  5
233
100
AcDbEntity
  8
ASSI
100
AcDbLine
 62
7
  6
CONTINUOUS
 10
24.3825386103
 20
23.256554188
 11
24.0517296174
 21
23.1541738674
  0
LINE
  5
234
100
AcDbEntity
  8
ASSI
100
AcDbLine
 62
250
  6
CONTINUOUS
 10
24.8994780211
 20
23.1921480964
 11
24.5144926436
 21
23.0729844792
  0
LINE
  5
235
100
AcDbEntity
  8
ASSI
100
AcDbLine
 62
250
  6
CONTINUOUS
 10
35.8100764941
 20
23.3786026463
 11
35.572682593
 21
23.3073773826
  0
LWPOLYLINE
  5
236
100
AcDbEntity
  8
ASSI
100
AcDbPolyline
 62
250
  6
CONTINUOUS
 90
12
 70
0
 10
35.572682593
 20
23.3073773826
 10
35.1086691122
 20
23.1696047243
 10
34.8732336219
 20
23.1002044932
 10
34.631595944
 20
23.0299377095
 10
34.3852796561
 20
22.959361813
 10
34.1314039998
 20
22.8873329758
 10
33.8692543632
 20
22.8144068556
 10
33.5996728382
 20
22.741283681
 10
33.3221380967
 20
22.6673850637
 10
33.0365659839
 20
22.5931433179
 10
32.7433096182
 20
22.5198705047
 10
32.4425486589
 20
22.4484956016
  0
LWPOLYLINE
  5
237
100
AcDbEntity
  8
ASSI
100
AcDbPolyline
 62
7
  6
CONTINUOUS
 90
6
 70
0
 10
25.3953967101
 20
23.5601586264
 10
25.2145662171
 20
23.5070877266
 10
25.0326800815
 20
23.4532061651
 10
24.8497408589
 20
23.3985085313
 10
24.6657509346
 20
23.3429895171
 10
24.3825386103
 20
23.256554188
  0
LWPOLYLINE
  5
238
100
AcDbEntity
  8
ASSI
100
AcDbPolyline
 62
7
  6
CONTINUOUS
 90
34
 70
0
 10
17.8584036559
 20
-10.4245960641
 10
17.748513807
 20
-10.4532732047
 10
17.6339271422
 20
-10.4709928604
 10
17.5161052543
 20
-10.4775290111
 10
17.3950067008
 20
-10.4727383979
 10
17.2706729242
 20
-10.4567642797
 10
17.1446898451
 20
-10.4298104117
 10
17.0170363364
 20
-10.3917361455
 10
16.8877335253
 20
-10.3426821296
 10
16.7584307141
 20
-10.283274065
 10
16.629127903
 20
-10.2133793184
 10
16.4998250918
 20
-10.1331305232
 10
16.3721715831
 20
-10.0435512807
 10
16.2461885041
 20
-9.9445220696
 10
16.1218547275
 20
-9.8361624113
 10
16.0007561739
 20
-9.7198544709
 10
15.882934286
 20
-9.5954964324
 10
15.7683476213
 20
-9.4631901118
 10
15.6584577724
 20
-9.3246231224
 10
15.5533249048
 20
-9.1797152662
 10
15.4528888531
 20
-9.0285467411
 10
15.3584307141
 20
-8.8730457544
 10
15.2700270639
 20
-8.713156808
 10
15.1876013264
 20
-8.5489354001
 10
15.1122048707
 20
-8.3824762318
 10
15.0439277406
 20
-8.2137506379
 10
14.9826798922
 20
-8.0427872837
 10
14.9292425633
 20
-7.8717668663
 10
14.8837158051
 20
-7.7006886548
 10
14.8459995663
 20
-7.5295533802
 10
14.8165749307
 20
-7.3605439324
 10
14.7956022595
 20
-7.1943879416
 10
14.7829211916
 20
-7.0303577777
 10
14.7785317268
 20
-6.8684534408
  0
LWPOLYLINE
  5
239
100
AcDbEntity
  8
ASSI
100
AcDbPolyline
 62
7
  6
CONTINUOUS
 90
9
 70
0
 10
-4.7553916022
 20
-13.255896595
 10
-4.7821201552
 20
-13.2562871439
 10
-4.8059865849
 20
-13.2553442749
 10
-4.8268112643
 20
-13.253075084
 10
-4.8444374596
 20
-13.2494966497
 10
-4.8587325096
 20
-13.2446359041
 10
-4.8695888244
 20
-13.2385294306
 10
-4.8769246953
 20
-13.2312231883
 10
-4.8802283978
 20
-13.2245256417
  0
LWPOLYLINE
  5
23A
100
AcDbEntity
  8
ASSI
100
AcDbPolyline
 62
250
  6
CONTINUOUS
 90
22
 70
0
 10
23.0037632046
 20
-12.3929759075
 10
23.0293415601
 20
-12.3934853086
 10
23.0567337713
 20
-12.3930142343
 10
23.0857883462
 20
-12.39156529
 10
23.1163445994
 20
-12.3891464891
 10
23.1482335406
 20
-12.3857712086
 10
23.1812788088
 20
-12.3814581154
 10
23.2152976482
 20
-12.3762310631
 10
23.2501019188
 20
-12.3701189597
 10
23.2854991365
 20
-12.3631556079
 10
23.3212935381
 20
-12.3553795184
 10
23.3572871639
 20
-12.3468336966
 10
23.3932809523
 20
-12.337565405
 10
23.4290758407
 20
-12.3276259014
 10
23.4644738666
 20
-12.3170701561
 10
23.4992792624
 20
-12.3059565473
 10
23.5332995381
 20
-12.2943465384
 10
23.5663465454
 20
-12.2823043382
 10
23.5982375191
 20
-12.2698965457
 10
23.6287960871
 20
-12.2571917818
 10
23.6578532463
 20
-12.2442603098
 10
23.6852482969
 20
-12.2311736468
  0
LWPOLYLINE
  5
23B
100
AcDbEntity
  8
0
100
AcDbPolyline
 62
7
  6
CONTINUOUS
 90
4
 70
0
 10
21.3668326773
 20
-18.2027688443
 10
21.3012987972
 20
-18.194691391
 10
21.2367230233
 20
-18.1714780142
 10
21.172864339
 20
-18.1334533129
  0
LWPOLYLINE
  5
23C
100
AcDbEntity
  8
ASSI
100
AcDbPolyline
 62
7
  6
CONTINUOUS
 90
5
 70
0
 10
17.7193245516
 20
-21.4862862649
 10
17.7897314735
 20
-21.5004742678
 10
17.9138301698
 20
-21.5173067337
 10
18.0353019584
 20
-21.5231592766
 10
18.0932330532
 20
-21.52063752
  0
LINE
  5
23D
100
AcDbEntity
  8
ASSI
100
AcDbLine
 62
7
  6
CONTINUOUS
 10
19.8400138928
 20
-29.0333306943
 11
9.517364028
 21
-23.8720057618
  0
LWPOLYLINE
  5
23E
100
AcDbEntity
  8
ASSI
100
AcDbPolyline
 62
7
  6
CONTINUOUS
 90
10
 70
0
 10
-5.1542839087
 20
-6.4182749394
 10
-5.1095418785
 20
-6.9470816731
 10
-5.0527587636
 20
-7.4791120304
 10
-4.9839345639
 20
-8.0143660111
 10
-4.9030161513
 20
-8.553188749
 10
-4.810056654
 20
-9.0952351104
 10
-4.7052154569
 20
-9.6394696941
 10
-4.5885456883
 20
-10.1855473663
 10
-4.4599942199
 20
-10.7338132607
 10
-4.3195610517
 20
-11.2842673774
  0
LWPOLYLINE
  5
23F
100
AcDbEntity
  8
ASSI
100
AcDbPolyline
 62
250
  6
CONTINUOUS
 90
12
 70
0
 10
-6.2647308983
 20
-5.3347334676
 10
-6.2380277437
 20
-5.8125939957
 10
-6.2018741708
 20
-6.2936476442
 10
-6.1562701796
 20
-6.7778944133
 10
-6.1011727294
 20
-7.2656592106
 10
-6.0366248609
 20
-7.7566171284
 10
-5.9627556959
 20
-8.2497934433
 10
-5.8795326473
 20
-8.7452359259
 10
-5.7869883023
 20
-9.2428968056
 10
-5.6853495441
 20
-9.7416580474
 10
-5.5746920008
 20
-10.241146973
 10
-5.4549400444
 20
-10.7417362608
  0
LWPOLYLINE
  5
240
100
AcDbEntity
  8
ASSI
100
AcDbPolyline
 62
7
  6
CONTINUOUS
 90
10
 70
0
 10
-6.2647294969
 20
-3.1980854414
 10
-6.289363737
 20
-3.4212235328
 10
-6.3078632416
 20
-3.6485118625
 10
-6.3202075563
 20
-3.879706753
 10
-6.3263830379
 20
-4.1145616921
 10
-6.326382734
 20
-4.3528238971
 10
-6.3202067255
 20
-4.5942344155
 10
-6.3078621494
 20
-4.8385334355
 10
-6.2893628569
 20
-5.0854607294
 10
-6.2647294969
 20
-5.334752115
  0
LWPOLYLINE
  5
241
100
AcDbEntity
  8
ASSI
100
AcDbPolyline
 62
7
  6
CONTINUOUS
 90
7
 70
0
 10
-6.2647308983
 20
-3.1981026874
 10
-6.25354605
 20
-3.1151689345
 10
-6.2414737046
 20
-3.0328682026
 10
-6.2285138619
 20
-2.9512004916
 10
-6.2146665221
 20
-2.8701658015
 10
-6.1999316851
 20
-2.7897641323
 10
-6.184309351
 20
-2.7099954841
  0
LWPOLYLINE
  5
242
100
AcDbEntity
  8
ASSI
100
AcDbPolyline
 62
250
  6
CONTINUOUS
 90
13
 70
0
 10
-5.3260936749
 20
1.7719525322
 10
-5.4549393358
 20
1.3991117339
 10
-5.5746908141
 20
1.0182761723
 10
-5.6853481098
 20
0.6294458472
 10
-5.7869869274
 20
0.2323235375
 10
-5.8795315623
 20
-0.1727935355
 10
-5.9627549013
 20
-0.585013708
 10
-6.0366242989
 20
-1.0043217516
 10
-6.1011724006
 20
-1.4307328947
 10
-6.1562700291
 20
-1.8634011578
 10
-6.2018741253
 20
-2.3020445477
 10
-6.2380277484
 20
-2.7469450576
 10
-6.2647308983
 20
-3.1981026874
  0
LWPOLYLINE
  5
243
100
AcDbEntity
  8
ASSI
100
AcDbPolyline
 62
7
  6
CONTINUOUS
 90
10
 70
0
 10
-5.4427335211
 20
2.1187830502
 10
-5.3816985624
 20
2.285824411
 10
-5.3197412106
 20
2.451979782
 10
-5.2568635065
 20
2.6172439501
 10
-5.1930673415
 20
2.7816121812
 10
-5.1283549735
 20
2.9450788873
 10
-5.06272905
 20
3.1076376527
 10
-4.9961919179
 20
3.2692829784
 10
-4.9287455997
 20
3.4300102562
 10
-4.8603923196
 20
3.5898144697
  0
LWPOLYLINE
  5
244
100
AcDbEntity
  8
ASSI
100
AcDbPolyline
 62
250
  6
CONTINUOUS
 90
10
 70
0
 10
-4.7552794409
 20
3.2139501412
 10
-4.8221530901
 20
3.0576119135
 10
-4.8881770442
 20
2.9002719583
 10
-4.9533513033
 20
2.7419302756
 10
-5.0176928891
 20
2.5825458051
 10
-5.0811847799
 20
2.4221596071
 10
-5.1437759104
 20
2.2608948627
 10
-5.2054492589
 20
2.0987926323
 10
-5.266221847
 20
1.9358118554
 10
-5.3260936749
 20
1.7719525322
  0
LINE
  5
245
100
AcDbEntity
  8
ASSI
100
AcDbLine
 62
7
  6
CONTINUOUS
 10
-4.8603923196
 20
3.5898144697
 11
-4.8599895539
 21
3.5907419723
  0
LWPOLYLINE
  5
246
100
AcDbEntity
  8
ASSI
100
AcDbPolyline
 62
7
  6
CONTINUOUS
 90
13
 70
0
 10
-4.8599892485
 20
3.5907418269
 10
-4.4357715347
 20
4.5259018178
 10
-3.9899236233
 20
5.43801916
 10
-3.5227618175
 20
6.3264746708
 10
-3.0345308393
 20
7.190841023
 10
-2.5255174769
 20
8.030646127
 10
-1.9960576678
 20
8.8453807342
 10
-1.4464599771
 20
9.6346222964
 10
-0.8770278324
 20
10.3979850087
 10
-0.288116092
 20
11.1350441611
 10
0.3199272401
 20
11.8454189158
 10
0.9467654987
 20
12.5287689173
 10
1.5895965364
 20
13.1823550361
  0
LWPOLYLINE
  5
247
100
AcDbEntity
  8
0
100
AcDbPolyline
 62
7
  6
CONTINUOUS
 90
4
 70
0
 10
1.5260548397
 20
13.0980566152
 10
1.5424952167
 20
13.1244053849
 10
1.5601693596
 20
13.148772307
 10
1.5789645336
 20
13.171088184
  0
LINE
  5
248
100
AcDbEntity
  8
0
100
AcDbLine
 62
7
  6
CONTINUOUS
 10
1.5789645336
 20
13.171088184
 11
1.5895696753
 21
13.1823618684
  0
LWPOLYLINE
  5
249
100
AcDbEntity
  8
ASSI
100
AcDbPolyline
 62
7
  6
CONTINUOUS
 90
13
 70
0
 10
1.9992407657
 20
10.9788730838
 10
1.4402208711
 20
10.38473673
 10
0.8969228364
 20
9.7692325554
 10
0.3693466616
 20
9.1323605599
 10
-0.1427308286
 20
8.4738150355
 10
-0.6390864588
 20
7.7939016902
 10
-1.1190507027
 20
7.0935376487
 10
-1.5826013964
 20
6.3726952672
 10
-2.0297607038
 20
5.6314021895
 10
-2.4599255893
 20
4.8706584714
 10
-2.8728950412
 20
4.0907974649
 10
-3.2688700713
 20
3.2914858181
 10
-3.6478506796
 20
2.4727235309
  0
LWPOLYLINE
  5
24A
100
AcDbEntity
  8
ASSI
100
AcDbPolyline
 62
250
  6
CONTINUOUS
 90
13
 70
0
 10
1.4875842942
 20
12.5513252582
 10
0.876509714
 20
11.9239274602
 10
0.2828618038
 20
11.2717459476
 10
-0.2933594365
 20
10.5947807205
 10
-0.8511835427
 20
9.8950262845
 10
-1.391580979
 20
9.1704881339
 10
-1.9174631374
 20
8.4151827514
 10
-2.4304848741
 20
7.6275349427
 10
-2.9289913328
 20
6.8091199022
 10
-3.4109293365
 20
5.9586796952
 10
-3.875614493
 20
5.0757950103
 10
-4.3237311944
 20
4.160885159
 10
-4.7552794409
 20
3.2139501412
  0
LWPOLYLINE
  5
24B
100
AcDbEntity
  8
0
100
AcDbPolyline
 62
7
  6
CONTINUOUS
 90
6
 70
0
 10
1.5895696753
 20
13.1823618684
 10
1.6006798559
 20
13.1925359733
 10
1.6133617964
 20
13.202661513
 10
1.6272599231
 20
13.2123881494
 10
1.6423742359
 20
13.2217158825
 10
1.658704735
 20
13.2306447124
  0
LWPOLYLINE
  5
24C
100
AcDbEntity
  8
0
100
AcDbPolyline
 62
7
  6
CONTINUOUS
 90
7
 70
0
 10
11.0991980004
 20
16.7842542515
 10
11.0893989268
 20
16.7787141786
 10
11.0809078347
 20
16.773034451
 10
11.0737247241
 20
16.7672150686
 10
11.0678627665
 20
16.761175293
 10
11.0633087905
 20
16.7549958627
 10
11.0605797379
 20
16.7501123376
  0
LINE
  5
24D
100
AcDbEntity
  8
0
100
AcDbLine
 62
7
  6
CONTINUOUS
 10
10.0510337032
 20
17.5228468987
 11
1.658704735
 21
13.2306447124
  0
LINE
  5
24E
100
AcDbEntity
  8
0
100
AcDbLine
 62
7
  6
CONTINUOUS
 10
10.6066017178
 20
17.2450628914
 11
10.3039126059
 21
17.0937183355
  0
LINE
  5
24F
100
AcDbEntity
  8
0
100
AcDbLine
 62
7
  6
CONTINUOUS
 10
11.0991980004
 20
16.7842542515
 11
11.2652845118
 21
16.8672975072
  0
LINE
  5
250
100
AcDbEntity
  8
ASSI
100
AcDbLine
 62
7
  6
CONTINUOUS
 10
22.9600291844
 20
16.9159748802
 11
22.415702718
 21
16.6666282597
  0
LINE
  5
251
100
AcDbEntity
  8
ASSI
100
AcDbLine
 62
7
  6
CONTINUOUS
 10
22.9600291844
 20
16.872645701
 11
22.415702718
 21
16.6233040584
  0
LINE
  5
252
100
AcDbEntity
  8
ASSI
100
AcDbLine
 62
7
  6
CONTINUOUS
 10
26.0004614629
 20
18.2675107921
 11
25.4561349966
 21
18.0306906968
  0
LINE
  5
253
100
AcDbEntity
  8
ASSI
100
AcDbLine
 62
7
  6
CONTINUOUS
 10
26.0004614629
 20
18.2241447767
 11
25.4561349966
 21
17.9873324048
  0
LWPOLYLINE
  5
254
100
AcDbEntity
  8
ASSI
100
AcDbPolyline
 62
7
  6
CONTINUOUS
 90
11
 70
0
 10
35.7827362659
 20
23.6341405368
 10
35.3732212191
 20
23.5034904646
 10
34.9691077138
 20
23.3758996251
 10
34.5706834096
 20
23.2519358651
 10
34.1782420639
 20
23.1321302741
 10
33.792124704
 20
23.0169722503
 10
33.4126409379
 20
22.9069079907
 10
33.040070648
 20
22.8023143672
 10
32.6747390418
 20
22.7035551201
 10
32.3170647701
 20
22.6109583357
 10
32.0250187758
 20
22.5386773386
  0
LWPOLYLINE
  5
255
100
AcDbEntity
  8
ASSI
100
AcDbPolyline
 62
7
  6
CONTINUOUS
 90
43
 70
0
 10
17.8448569392
 20
-2.2015690989
 10
17.7359755713
 20
-2.2285601474
 10
17.6225831886
 20
-2.2448784542
 10
17.5060864202
 20
-2.2503215913
 10
17.3864465964
 20
-2.2447540922
 10
17.263702387
 20
-2.2283114233
 10
17.1393764302
 20
-2.2011975555
 10
17.013449023
 20
-2.1632795632
 10
16.8859398686
 20
-2.1146903719
 10
16.7584307141
 20
-2.0560327291
 10
16.6309215597
 20
-1.9871812174
 10
16.5034124052
 20
-1.9082612542
 10
16.3774849981
 20
-1.8202518395
 10
16.2531590413
 20
-1.7230397505
 10
16.1304148318
 20
-1.6167382099
 10
16.010775008
 20
-1.5026658852
 10
15.8942782396
 20
-1.3807259797
 10
15.7808858569
 20
-1.2510152902
 10
15.6720044891
 20
-1.1151428738
 10
15.5676903274
 20
-0.9730319772
 10
15.4678871806
 20
-0.8247593538
 10
15.3738331039
 20
-0.6721643212
 10
15.2855997102
 20
-0.5151930373
 10
15.2031153866
 20
-0.3538993442
 10
15.1274033485
 20
-0.1902840854
 10
15.0585479549
 20
-0.0243183424
 10
14.996464847
 20
0.1439689664
 10
14.9419241637
 20
0.3124902416
 10
14.8950198573
 20
0.4812483978
 10
14.8556579756
 20
0.6502405206
 10
14.8243268017
 20
0.8173702675
 10
14.8011263699
 20
0.98261444
 10
14.7859566458
 20
1.1459962367
 10
14.7790058094
 20
1.3054889112
 10
14.7803762391
 20
1.4610440187
 10
14.7899655566
 20
1.612710004
 10
14.8076548066
 20
1.7586054549
 10
14.8335448858
 20
1.8986584909
 10
14.8675348975
 20
2.0329409926
 10
14.9092031966
 20
2.1597871895
 10
14.9584092348
 20
2.2786418247
 10
15.0152935604
 20
2.390060155
 10
15.0798561735
 20
2.4940421805
  0
LWPOLYLINE
  5
256
100
AcDbEntity
  8
ASSI
100
AcDbPolyline
 62
7
  6
CONTINUOUS
 90
19
 70
0
 10
22.4330611319
 20
-10.3805052231
 10
22.4624506418
 20
-10.3787841957
 10
22.4942799158
 20
-10.3757456426
 10
22.5283093968
 20
-10.3714124327
 10
22.5642829685
 20
-10.3658171789
 10
22.6019298821
 20
-10.3590019926
 10
22.6409667949
 20
-10.3510181671
 10
22.6810999026
 20
-10.341925791
 10
22.7220271502
 20
-10.3317932965
 10
22.7634405055
 20
-10.3206969439
 10
22.8050282781
 20
-10.3087202479
 10
22.8464774646
 20
-10.2959533491
 10
22.8874761041
 20
-10.2824923352
 10
22.9277156272
 20
-10.2684385184
 10
22.9668931777
 20
-10.2538976723
 10
23.0047138918
 20
-10.238979236
 10
23.0408931177
 20
-10.2237954908
 10
23.0751585587
 20
-10.2084607145
 10
23.1072523216
 20
-10.1930903217
  0
LWPOLYLINE
  5
257
100
AcDbEntity
  8
ASSI
100
AcDbPolyline
 62
250
  6
CONTINUOUS
 90
11
 70
0
 10
-5.3260936749
 20
-11.2434259106
 10
-5.3497167121
 20
-11.2419388504
 10
-5.3712537865
 20
-11.2394823563
 10
-5.390585788
 20
-11.2360700139
 10
-5.4076058015
 20
-11.231720695
 10
-5.4222196985
 20
-11.2264584534
 10
-5.4343466574
 20
-11.2203123918
 10
-5.4439196103
 20
-11.2133165009
 10
-5.4508856144
 20
-11.2055094712
 10
-5.4552061446
 20
-11.1969344792
 10
-5.4557850455
 20
-11.1950021957
  0
LWPOLYLINE
  5
258
100
AcDbEntity
  8
ASSI
100
AcDbPolyline
 62
7
  6
CONTINUOUS
 90
6
 70
0
 10
17.7021659511
 20
-10.2240997082
 10
17.7815083459
 20
-10.2398428772
 10
17.882228444
 20
-10.2536631396
 10
17.9812493372
 20
-10.2602277917
 10
18.078299482
 20
-10.2595187903
 10
18.0984010701
 20
-10.2578267782
  0
LWPOLYLINE
  5
259
100
AcDbEntity
  8
ASSI
100
AcDbPolyline
 62
7
  6
CONTINUOUS
 90
5
 70
0
 10
18.3240899209
 20
-9.8744007589
 10
18.276060695
 20
-9.8641249867
 10
18.1489569538
 20
-9.8262592876
 10
18.0202039101
 20
-9.7774138387
 10
17.889801564
 20
-9.7175886401
  0
LWPOLYLINE
  5
25A
100
AcDbEntity
  8
ASSI
100
AcDbPolyline
 62
250
  6
CONTINUOUS
 90
15
 70
0
 10
15.9052260172
 20
-13.3300734309
 10
15.7634185802
 20
-13.2916811813
 10
15.6240373326
 20
-13.2649289729
 10
15.4871115246
 20
-13.2499480453
 10
15.3526119061
 20
-13.2466071588
 10
15.2220569524
 20
-13.2549466256
 10
15.0954901102
 20
-13.2750970459
 10
14.9728679329
 20
-13.3069278194
 10
14.855578556
 20
-13.3500874575
 10
14.743680637
 20
-13.4047035819
 10
14.6371155185
 20
-13.4706485708
 10
14.5370953632
 20
-13.5471880706
 10
14.4436924543
 20
-13.6344436888
 10
14.3568345086
 20
-13.7322938178
 10
14.2775168397
 20
-13.8396392804
  0
LWPOLYLINE
  5
25B
100
AcDbEntity
  8
0
100
AcDbPolyline
 62
250
  6
CONTINUOUS
 90
19
 70
0
 10
-2.1436541507
 20
-6.3167005676
 10
-2.2169838615
 20
-6.2955087759
 10
-2.2873941479
 20
-6.2688558206
 10
-2.3549259714
 20
-6.2368229512
 10
-2.4201657033
 20
-6.1990319592
 10
-2.4826046903
 20
-6.1560003407
 10
-2.5407157051
 20
-6.1091989666
 10
-2.5945192916
 20
-6.0585742366
 10
-2.6442402082
 20
-6.0043989551
 10
-2.6887764037
 20
-5.94870517
 10
-2.7279641635
 20
-5.8917963421
 10
-2.7622850946
 20
-5.8335889104
 10
-2.791646788
 20
-5.775551772
 10
-2.8160586258
 20
-5.7178435974
 10
-2.8357503389
 20
-5.6604498548
 10
-2.8509387515
 20
-5.6045629095
 10
-2.8617350629
 20
-5.5506017169
 10
-2.8681469705
 20
-5.4982136848
 10
-2.8702044686
 20
-5.4474152041
  0
LWPOLYLINE
  5
25C
100
AcDbEntity
  8
0
100
AcDbPolyline
 62
7
  6
CONTINUOUS
 90
3
 70
0
 10
-2.099074394
 20
-6.4803395382
 10
-2.2081166228
 20
-6.4465754851
 10
-2.310983697
 20
-6.4029074783
  0
LWPOLYLINE
  5
25D
100
AcDbEntity
  8
0
100
AcDbPolyline
 62
7
  6
CONTINUOUS
 90
10
 70
0
 10
-2.2617578058
 20
-6.567480502
 10
-2.3607864021
 20
-6.5344420263
 10
-2.4555309565
 20
-6.4930765532
 10
-2.5460271985
 20
-6.4435320546
 10
-2.6331564769
 20
-6.3852128523
 10
-2.7161081378
 20
-6.3189670863
 10
-2.7925797112
 20
-6.247216129
 10
-2.8620611361
 20
-6.1709622102
 10
-2.9256288424
 20
-6.0896597827
 10
-2.9835474329
 20
-6.0034952387
  0
LINE
  5
25E
100
AcDbEntity
  8
ASSI
100
AcDbLine
 62
250
  6
CONTINUOUS
 10
16.047853417
 20
-13.3796716909
 11
15.9052260172
 21
-13.3300734309
  0
LWPOLYLINE
  5
25F
100
AcDbEntity
  8
ASSI
100
AcDbPolyline
 62
7
  6
CONTINUOUS
 90
3
 70
0
 10
17.8168373941
 20
-21.414312212
 10
17.9627724192
 20
-21.4872794715
 10
18.0460892713
 20
-21.5226897019
  0
LINE
  5
260
100
AcDbEntity
  8
ASSI
100
AcDbLine
 62
7
  6
CONTINUOUS
 10
23.8619788806
 20
-20.926406334
 11
22.8319534383
 21
-20.4113936129
  0
LINE
  5
261
100
AcDbEntity
  8
ASSI
100
AcDbLine
 62
7
  6
CONTINUOUS
 10
-5.1542839087
 20
-6.4182749394
 11
-6.184309351
 21
-5.9032622182
  0
LWPOLYLINE
  5
262
100
AcDbEntity
  8
0
100
AcDbPolyline
 62
250
  6
CONTINUOUS
 90
3
 70
0
 10
21.1482246851
 20
-17.9832791987
 10
21.1092429517
 20
-17.9620944345
 10
21.0706320523
 20
-17.934427313
  0
LWPOLYLINE
  5
263
100
AcDbEntity
  8
0
100
AcDbPolyline
 62
7
  6
CONTINUOUS
 90
7
 70
0
 10
-2.310983697
 20
-6.4029074783
 10
-2.4077888252
 20
-6.3495890233
 10
-2.4997184014
 20
-6.2857484767
 10
-2.5858285017
 20
-6.2126869134
 10
-2.6632711118
 20
-6.1340420751
 10
-2.7318996372
 20
-6.0502085986
 10
-2.7926292292
 20
-5.9614104397
  0
LINE
  5
264
100
AcDbEntity
  8
ASSI
100
AcDbLine
 62
7
  6
CONTINUOUS
 10
17.6717239363
 20
-21.3308734662
 11
17.8168373941
 21
-21.414312212
  0
LWPOLYLINE
  5
265
100
AcDbEntity
  8
0
100
AcDbPolyline
 62
250
  6
CONTINUOUS
 90
10
 70
0
 10
-2.099074394
 20
-6.4803395382
 10
-2.1076893854
 20
-6.4693480243
 10
-2.115488357
 20
-6.4563147548
 10
-2.1224196836
 20
-6.4413259959
 10
-2.1284374734
 20
-6.4244809596
 10
-2.1335018987
 20
-6.4058911381
 10
-2.1375794571
 20
-6.3856795651
 10
-2.140643159
 20
-6.3639800141
 10
-2.1426727087
 20
-6.3409361134
 10
-2.1436546639
 20
-6.3167003862
  0
LWPOLYLINE
  5
266
100
AcDbEntity
  8
ASSI
100
AcDbPolyline
 62
7
  6
CONTINUOUS
 90
13
 70
0
 10
1.4593824033
 20
-29.0134965018
 10
0.8576219686
 20
-27.7986939882
 10
0.2377803788
 20
-26.502898981
 10
-0.3633106823
 20
-25.1991959148
 10
-0.9453320946
 20
-23.8882754409
 10
-1.5079761984
 20
-22.5708284878
 10
-2.0509467477
 20
-21.2475456867
 10
-2.5739550786
 20
-19.9191265668
 10
-3.0767233206
 20
-18.5862722132
 10
-3.558986466
 20
-17.2496791811
 10
-4.0204880592
 20
-15.9100506982
 10
-4.4609806132
 20
-14.568096619
 10
-4.8802283978
 20
-13.2245256417
  0
LINE
  5
267
100
AcDbEntity
  8
0
100
AcDbLine
 62
7
  6
CONTINUOUS
 10
1.4593836473
 20
-29.0134972575
 11
1.4542226236
 21
-29.0003085743
  0
LWPOLYLINE
  5
268
100
AcDbEntity
  8
ASSI
100
AcDbPolyline
 62
7
  6
CONTINUOUS
 90
13
 70
0
 10
-3.6478506796
 20
-13.6224399046
 10
-3.2688700713
 20
-14.8201828001
 10
-2.8728950412
 20
-16.015469477
 10
-2.4599255893
 20
-17.2082999354
 10
-2.0297607038
 20
-18.399208539
 10
-1.5826013964
 20
-19.5876609241
 10
-1.1190507027
 20
-20.7720539994
 10
-0.6390864588
 20
-21.9523822847
 10
-0.1427308286
 20
-23.1286512602
 10
0.3693466616
 20
-24.2992742749
 10
0.8969228364
 20
-25.463722445
 10
1.4402208711
 20
-26.6225246544
 10
1.9992407657
 20
-27.7756809028
  0
LWPOLYLINE
  5
269
100
AcDbEntity
  8
ASSI
100
AcDbPolyline
 62
250
  6
CONTINUOUS
 90
13
 70
0
 10
-4.7552781553
 20
-13.2562421026
 10
-4.3314629235
 20
-14.6108775458
 10
-3.8914149305
 20
-15.951063948
 10
-3.4351341765
 20
-17.2768013094
 10
-2.9634680362
 20
-18.5850607077
 10
-2.4755691348
 20
-19.8788710652
 10
-1.9688953479
 20
-21.1673191482
 10
-1.4432318962
 20
-22.4522152423
 10
-0.8987935591
 20
-23.7317490618
 10
-0.3336825501
 20
-25.0095765169
 10
0.2527337262
 20
-26.2869162443
 10
0.8598226743
 20
-27.5625496072
 10
1.4875842942
 20
-28.8364766057
  0
LWPOLYLINE
  5
26A
100
AcDbEntity
  8
ASSI
100
AcDbPolyline
 62
7
  6
CONTINUOUS
 90
10
 70
0
 10
-4.8802283978
 20
-13.2245256417
 10
-4.9476261842
 20
-12.9995508951
 10
-5.0142947613
 20
-12.7740061142
 10
-5.080067963
 20
-12.5484401
 10
-5.1449436034
 20
-12.3228601451
 10
-5.2089195546
 20
-12.0972734388
 10
-5.271993745
 20
-11.8716870657
 10
-5.3341641002
 20
-11.646108214
 10
-5.3954285447
 20
-11.4205441769
 10
-5.4557850455
 20
-11.1950021957
  0
LWPOLYLINE
  5
26B
100
AcDbEntity
  8
ASSI
100
AcDbPolyline
 62
7
  6
CONTINUOUS
 90
10
 70
0
 10
-4.3195610517
 20
-11.2842673774
 10
-4.2499366784
 20
-11.5440437444
 10
-4.1790571671
 20
-11.8038344556
 10
-4.1069225178
 20
-12.063639511
 10
-4.0335292505
 20
-12.3234711761
 10
-3.9588808451
 20
-12.5833171855
 10
-3.8829877414
 20
-12.8431407427
 10
-3.8058534192
 20
-13.1029295822
 10
-3.7274743986
 20
-13.3626959695
 10
-3.6478506796
 20
-13.6224399046
  0
LWPOLYLINE
  5
26C
100
AcDbEntity
  8
ASSI
100
AcDbPolyline
 62
250
  6
CONTINUOUS
 90
10
 70
0
 10
-5.3260936749
 20
-11.2434259106
 10
-5.266221911
 20
-11.4671568288
 10
-5.2054493713
 20
-11.6909100191
 10
-5.1437760559
 20
-11.9146854816
 10
-5.0811849913
 20
-12.1385411372
 10
-5.0176931509
 20
-12.3624190648
 10
-4.9533514551
 20
-12.5861455015
 10
-4.8881768773
 20
-12.8096625262
 10
-4.822152444
 20
-13.0330280599
 10
-4.7552781553
 20
-13.2562421026
  0
LINE
  5
26D
100
AcDbEntity
  8
ASSI
100
AcDbLine
 62
250
  6
CONTINUOUS
 10
-5.4549400444
 20
-10.7417362608
 11
-5.3260936749
 21
-11.2434259106
  0
LWPOLYLINE
  5
26E
100
AcDbEntity
  8
ASSI
100
AcDbPolyline
 62
7
  6
CONTINUOUS
 90
25
 70
0
 10
-5.4557850775
 20
-11.1950021784
 10
-5.6108928012
 20
-10.5870186052
 10
-5.7530192864
 20
-9.9798905964
 10
-5.8820316039
 20
-9.3741442345
 10
-5.9978059534
 20
-8.770312293
 10
-6.1002320871
 20
-8.1689118509
 10
-6.1892121059
 20
-7.5704420576
 10
-6.2646556861
 20
-6.9754101439
 10
-6.3264798898
 20
-6.3843453093
 10
-6.3746138205
 20
-5.7977720226
 10
-6.4089996552
 20
-5.2161855375
 10
-6.4295883945
 20
-4.6401053284
 10
-6.4363431988
 20
-4.0700800978
 10
-6.4292415171
 20
-3.5066036648
 10
-6.4082715303
 20
-2.9501644605
 10
-6.3734353045
 20
-2.4012869295
 10
-6.3247433218
 20
-1.8604246145
 10
-6.2622198455
 20
-1.3280670002
 10
-6.1859138488
 20
-0.8047709094
 10
-6.0958731939
 20
-0.2909654957
 10
-5.9921623911
 20
0.2128878073
 10
-5.8748894907
 20
0.7062138889
 10
-5.7441613426
 20
1.1885518459
 10
-5.6000712551
 20
1.6595416983
 10
-5.4427335544
 20
2.1187830611
  0
LWPOLYLINE
  5
26F
100
AcDbEntity
  8
ASSI
100
AcDbPolyline
 62
7
  6
CONTINUOUS
 90
7
 70
0
 10
-6.184309351
 20
-5.9032622182
 10
-6.1999316851
 20
-5.8078712359
 10
-6.2146665221
 20
-5.7127347297
 10
-6.2285138619
 20
-5.6178526998
 10
-6.2414737046
 20
-5.5232251462
 10
-6.25354605
 20
-5.4288520688
 10
-6.2647308983
 20
-5.3347334676
  0
LINE
  5
270
100
AcDbEntity
  8
0
100
AcDbLine
 62
250
  6
CONTINUOUS
 10
-2.9835474329
 20
-6.0034952387
 11
-2.9835474329
 21
-4.6791535319
  0
LWPOLYLINE
  5
271
100
AcDbEntity
  8
0
100
AcDbPolyline
 62
250
  6
CONTINUOUS
 90
19
 70
0
 10
-2.8702044686
 20
-5.4474152041
 10
-2.8681507527
 20
-5.3985244749
 10
-2.8617560787
 20
-5.3519169376
 10
-2.8509906251
 20
-5.3075762957
 10
-2.8358458615
 20
-5.265059763
 10
-2.8162121106
 20
-5.2247441525
 10
-2.7918765023
 20
-5.1878240648
 10
-2.7626281368
 20
-5.15425898
 10
-2.728440773
 20
-5.1239465088
 10
-2.6893558318
 20
-5.0979709197
 10
-2.6448798954
 20
-5.0762777744
 10
-2.5951861123
 20
-5.0587003197
 10
-2.5413545794
 20
-5.0461699228
 10
-2.4831211962
 20
-5.0388304501
 10
-2.420498704
 20
-5.0363144592
 10
-2.3551044303
 20
-5.0388600575
 10
-2.2874798654
 20
-5.0465214314
 10
-2.2170096224
 20
-5.059107775
 10
-2.1436541748
 20
-5.0765389792
  0
LWPOLYLINE
  5
272
100
AcDbEntity
  8
0
100
AcDbPolyline
 62
7
  6
CONTINUOUS
 90
16
 70
0
 10
-2.9832203168
 20
-5.3414874605
 10
-2.9794636157
 20
-5.2620886116
 10
-2.9681711826
 20
-5.1879774597
 10
-2.9492361933
 20
-5.1190997174
 10
-2.9224024135
 20
-5.0545407116
 10
-2.887505482
 20
-4.9949926488
 10
-2.8444879894
 20
-4.9427585189
 10
-2.7926338286
 20
-4.8977573751
 10
-2.7319021409
 20
-4.8596069356
 10
-2.6632716703
 20
-4.8301476448
 10
-2.5858273393
 20
-4.8094358011
 10
-2.4997156874
 20
-4.7967965173
 10
-2.4077853349
 20
-4.7931146235
 10
-2.3109804618
 20
-4.7985966092
 10
-2.2081145343
 20
-4.8126066435
 10
-2.099074394
 20
-4.834891271
  0
LWPOLYLINE
  5
273
100
AcDbEntity
  8
0
100
AcDbPolyline
 62
250
  6
CONTINUOUS
 90
10
 70
0
 10
-2.099074394
 20
-4.834891271
 10
-2.1076896145
 20
-4.8618769901
 10
-2.1154887489
 20
-4.8892520835
 10
-2.122420177
 20
-4.9168353632
 10
-2.1284380226
 20
-4.9444442639
 10
-2.1335024553
 20
-4.9718960492
 10
-2.1375799535
 20
-4.9990090218
 10
-2.1406435299
 20
-5.0256037278
 10
-2.1426729099
 20
-5.0515041454
 10
-2.1436546629
 20
-5.0765388469
  0
LWPOLYLINE
  5
274
100
AcDbEntity
  8
ASSI
100
AcDbPolyline
 62
7
  6
CONTINUOUS
 90
10
 70
0
 10
-4.3195610517
 20
0.8062613758
 10
-4.4599942199
 20
0.3962404273
 10
-4.5885456883
 20
-0.0234739988
 10
-4.7052154569
 20
-0.4528819024
 10
-4.810056654
 20
-0.8922752889
 10
-4.9030161513
 20
-1.341362153
 10
-4.9839345639
 20
-1.7992664783
 10
-5.0527587636
 20
-2.2656962594
 10
-5.1095418785
 20
-2.7409435017
 10
-5.1542839087
 20
-3.2250082053
  0
LWPOLYLINE
  5
275
100
AcDbEntity
  8
ASSI
100
AcDbPolyline
 62
7
  6
CONTINUOUS
 90
10
 70
0
 10
-3.6478506796
 20
2.4727235309
 10
-3.7274743986
 20
2.2926033148
 10
-3.8058534192
 20
2.111215948
 10
-3.8829877414
 20
1.9285614307
 10
-3.9588808451
 20
1.7446309773
 10
-4.0335292505
 20
1.5594333733
 10
-4.1069225178
 20
1.3729949754
 10
-4.1790571671
 20
1.1853245694
 10
-4.2499366784
 20
0.9964133695
 10
-4.3195610517
 20
0.8062613758
  0
LWPOLYLINE
  5
276
100
AcDbEntity
  8
ASSI
100
AcDbPolyline
 62
7
  6
CONTINUOUS
 90
6
 70
0
 10
5.5896836569
 20
9.1836516382
 10
5.5499303308
 20
9.1175848481
 10
5.1259116407
 20
8.3662378074
 10
4.7187194988
 20
7.5961927082
 10
4.3281592295
 20
6.8071259141
 10
3.9542308327
 20
5.9990374251
  0
LINE
  5
277
100
AcDbEntity
  8
ASSI
100
AcDbLine
 62
7
  6
CONTINUOUS
 10
-5.1542839087
 20
-3.2250082053
 11
2.4631875105
 21
0.3591356698
  0
LINE
  5
278
100
AcDbEntity
  8
ASSI
100
AcDbLine
 62
250
  6
CONTINUOUS
 10
3.2870950374
 20
4.3439245216
 11
-4.319560792
 21
0.8062620679
  0
LINE
  5
279
100
AcDbEntity
  8
ASSI
100
AcDbLine
 62
250
  6
CONTINUOUS
 10
3.9542320109
 20
5.9990361903
 11
-3.6478495015
 21
2.4727222961
  0
LINE
  5
27A
100
AcDbEntity
  8
ASSI
100
AcDbLine
 62
7
  6
CONTINUOUS
 10
26.0253373986
 20
15.3833210769
 11
25.4810106145
 21
15.1339743115
  0
LINE
  5
27B
100
AcDbEntity
  8
ASSI
100
AcDbLine
 62
7
  6
CONTINUOUS
 10
26.0253373986
 20
15.3399918978
 11
25.4810106145
 21
15.0906501101
  0
LINE
  5
27C
100
AcDbEntity
  8
ASSI
100
AcDbLine
 62
7
  6
CONTINUOUS
 10
27.182976882
 20
16.2472813403
 11
26.642554175
 21
16.0059374938
  0
LINE
  5
27D
100
AcDbEntity
  8
ASSI
100
AcDbLine
 62
7
  6
CONTINUOUS
 10
27.182976882
 20
16.2039356848
 11
26.642554175
 21
15.9625981408
  0
LINE
  5
27E
100
AcDbEntity
  8
ASSI
100
AcDbLine
 62
7
  6
CONTINUOUS
 10
29.0657693594
 20
16.7348568439
 11
28.521442893
 21
16.4980367486
  0
LINE
  5
27F
100
AcDbEntity
  8
ASSI
100
AcDbLine
 62
7
  6
CONTINUOUS
 10
29.0657693594
 20
16.6914908285
 11
28.521442893
 21
16.4546784566
  0
LWPOLYLINE
  5
280
100
AcDbEntity
  8
ASSI
100
AcDbPolyline
 62
250
  6
CONTINUOUS
 90
16
 70
0
 10
53.8452594496
 20
19.6394220965
 10
53.9261380955
 20
19.6695101008
 10
54.0085015472
 20
19.6959389064
 10
54.0919849282
 20
19.7185914315
 10
54.1762184009
 20
19.7373673234
 10
54.2608288043
 20
19.7521834033
 10
54.3454413073
 20
19.7629740345
 10
54.4296810698
 20
19.7696914137
 10
54.5131749031
 20
19.7723057821
 10
54.5955529225
 20
19.7708055578
 10
54.6764501863
 20
19.765197387
 10
54.7555083139
 20
19.7555061142
 10
54.8323770728
 20
19.7417746722
 10
54.9067159286
 20
19.7240638921
 10
54.9781955538
 20
19.7024522339
 10
55.0464992878
 20
19.6770354386
  0
LWPOLYLINE
  5
281
100
AcDbEntity
  8
ASSI
100
AcDbPolyline
 62
250
  6
CONTINUOUS
 90
7
 70
0
 10
38.6075553785
 20
16.1374811596
 10
38.8301186263
 20
16.216393279
 10
39.0523264335
 20
16.2944193592
 10
39.2741837818
 20
16.3715609336
 10
39.495695653
 20
16.4478195359
 10
39.7168670284
 20
16.5231966994
 10
39.9377028892
 20
16.5976939576
  0
LWPOLYLINE
  5
282
100
AcDbEntity
  8
ASSI
100
AcDbPolyline
 62
7
  6
CONTINUOUS
 90
9
 70
0
 10
39.6460106817
 20
19.0455817155
 10
39.3238728065
 20
18.9322666962
 10
39.0035116261
 20
18.8310269418
 10
38.6849271404
 20
18.7418624524
 10
38.3678590494
 20
18.6647194798
 10
38.0525676531
 20
18.5996517722
 10
37.7398338519
 20
18.5468205737
 10
37.4299179459
 20
18.5062796325
 10
37.3046643654
 20
18.4947451097
  0
LWPOLYLINE
  5
283
100
AcDbEntity
  8
ASSI
100
AcDbPolyline
 62
7
  6
CONTINUOUS
 90
12
 70
0
 10
45.9692440705
 20
15.2091080177
 10
45.9913242416
 20
15.2161315469
 10
46.0118128812
 20
15.2240170165
 10
46.0307098854
 20
15.232764379
 10
46.048171093
 20
15.242399248
 10
46.0640405524
 20
15.2528966355
 10
46.0778500498
 20
15.264177345
 10
46.0896392127
 20
15.2762615385
 10
46.0993674383
 20
15.2891229052
 10
46.1064452171
 20
15.3026050232
 10
46.1107224695
 20
15.3167624085
 10
46.1123542603
 20
15.3320310171
  0
LWPOLYLINE
  5
284
100
AcDbEntity
  8
ASSI
100
AcDbPolyline
 62
7
  6
CONTINUOUS
 90
15
 70
0
 10
44.3482724568
 20
14.901359973
 10
44.3736207094
 20
14.9093857608
 10
44.3988998069
 20
14.9175399123
 10
44.4241442853
 20
14.9258076727
 10
44.4493178296
 20
14.9341995451
 10
44.4743307706
 20
14.9427820205
 10
44.4991946604
 20
14.9515485209
 10
44.5238964733
 20
14.960502447
 10
44.5483099223
 20
14.9697262795
 10
44.5724409611
 20
14.9792187233
 10
44.596282423
 20
14.9889788721
 10
44.6196885142
 20
14.9990905192
 10
44.6426103026
 20
15.0095811389
 10
44.6650956533
 20
15.0204215958
 10
44.6871440319
 20
15.0316110308
  0
LWPOLYLINE
  5
285
100
AcDbEntity
  8
0
100
AcDbPolyline
 62
250
  6
CONTINUOUS
 90
30
 70
0
 10
-1.7716914514
 20
-5.1634729323
 10
-1.6681157925
 20
-5.1829490927
 10
-1.5598314742
 20
-5.2012612457
 10
-1.4468680877
 20
-5.2182091427
 10
-1.3292367743
 20
-5.2336168583
 10
-1.2065216428
 20
-5.2473732592
 10
-1.0789165147
 20
-5.2592463031
 10
-0.946403432
 20
-5.2689962269
 10
-0.8082705242
 20
-5.276412312
 10
-0.6646948095
 20
-5.2812044757
 10
-0.5158865617
 20
-5.283017704
 10
-0.3612435964
 20
-5.2814167158
 10
-0.2007436253
 20
-5.275935973
 10
-0.0351709938
 20
-5.2661651389
 10
0.1347663019
 20
-5.2517357822
 10
0.309081571
 20
-5.2322109091
 10
0.4865176929
 20
-5.2072906941
 10
0.6644224951
 20
-5.1770172597
 10
0.8423037794
 20
-5.1411794885
 10
1.0190932204
 20
-5.0996024463
 10
1.1914692628
 20
-5.0527654357
 10
1.3582250131
 20
-5.000862897
 10
1.5192526207
 20
-4.9438516436
 10
1.6732517847
 20
-4.8822164147
 10
1.8196151174
 20
-4.8162667663
 10
1.9580680275
 20
-4.7461946044
 10
2.0879666529
 20
-4.6724097251
 10
2.2088478279
 20
-4.5952290787
 10
2.32038685
 20
-4.5148558021
 10
2.4221944027
 20
-4.4315431253
  0
LWPOLYLINE
  5
286
100
AcDbEntity
  8
0
100
AcDbPolyline
 62
7
  6
CONTINUOUS
 90
19
 70
0
 10
-2.099074394
 20
-4.834891271
 10
-1.8409856975
 20
-4.8915722215
 10
-1.5741882678
 20
-4.9371023328
 10
-1.3006045999
 20
-4.9711505015
 10
-1.0221918675
 20
-4.9934688629
 10
-0.7409726881
 20
-5.0038917336
 10
-0.4590216038
 20
-5.0023432604
 10
-0.1784033106
 20
-4.9888400255
 10
0.0988891329
 20
-4.9634823934
 10
0.3709009115
 20
-4.9264489114
 10
0.6357013006
 20
-4.877996695
 10
0.8913427019
 20
-4.8184768715
 10
1.1359262497
 20
-4.7483333356
 10
1.3676521513
 20
-4.6680921432
 10
1.5848991189
 20
-4.5783235874
 10
1.7861678371
 20
-4.4796445643
 10
1.9700160066
 20
-4.3727499226
 10
2.1350850659
 20
-4.2584171391
 10
2.2801728547
 20
-4.1374676832
  0
LWPOLYLINE
  5
287
100
AcDbEntity
  8
0
100
AcDbPolyline
 62
250
  6
CONTINUOUS
 90
5
 70
0
 10
-2.1436541748
 20
-5.0765389792
 10
-2.05696225
 20
-5.0992980169
 10
-1.9660818152
 20
-5.1214818836
 10
-1.870961879
 20
-5.1429366681
 10
-1.7716914514
 20
-5.1634729323
  0
LINE
  5
288
100
AcDbEntity
  8
0
100
AcDbLine
 62
250
  6
CONTINUOUS
 10
2.2801728547
 20
-4.0075638727
 11
1.5772524553
 21
-3.8165776742
  0
LINE
  5
289
100
AcDbEntity
  8
0
100
AcDbLine
 62
250
  6
CONTINUOUS
 10
4.5959913652
 20
-1.8767344132
 11
3.8930709657
 21
-1.6857482147
  0
LINE
  5
28A
100
AcDbEntity
  8
0
100
AcDbLine
 62
250
  6
CONTINUOUS
 10
4.6459000997
 20
-1.8260682422
 11
3.9429797003
 21
-1.6350820437
  0
LINE
  5
28B
100
AcDbEntity
  8
RACCORDO
100
AcDbLine
 62
7
  6
CONTINUOUS
 10
16.7328819749
 20
-6.4438102109
 11
16.4267535948
 21
-6.3400930565
  0
LWPOLYLINE
  5
28C
100
AcDbEntity
  8
ASSI
100
AcDbPolyline
 62
250
  6
CONTINUOUS
 90
25
 70
0
 10
16.0479853254
 20
-5.1524813226
 10
15.9054367422
 20
-5.1028975905
 10
15.7637047024
 20
-5.0645060806
 10
15.6243944493
 20
-5.0377416117
 10
15.487533557
 20
-5.0227363534
 10
15.3530944513
 20
-5.019358136
 10
15.2225996529
 20
-5.0276452692
 10
15.0960936985
 20
-5.0477305662
 10
14.9735320514
 20
-5.0794812138
 10
14.8563036223
 20
-5.1225370811
 10
14.7444705023
 20
-5.1770251566
 10
14.6379706004
 20
-5.2428184519
 10
14.5380065538
 20
-5.3191758708
 10
14.4446472883
 20
-5.4062269255
 10
14.3578238783
 20
-5.503842104
 10
14.2785321841
 20
-5.6108917737
 10
14.206870078
 20
-5.7274540217
 10
14.1427396878
 20
-5.8534507611
 10
14.086843257
 20
-5.9875180985
 10
14.0392585229
 20
-6.1299240984
 10
13.9999077482
 20
-6.2804006963
 10
13.9692599644
 20
-6.436779806
 10
13.9474715152
 20
-6.5983387319
 10
13.9343860569
 20
-6.7658001695
 10
13.9300035894
 20
-6.9391641189
  0
LWPOLYLINE
  5
28D
100
AcDbEntity
  8
ASSI
100
AcDbPolyline
 62
7
  6
CONTINUOUS
 90
8
 70
0
 10
22.0845462319
 20
-13.5481942195
 10
22.0696573698
 20
-13.5429765816
 10
22.0556344061
 20
-13.5393048834
 10
22.0424773408
 20
-13.5371791251
 10
22.0301127372
 20
-13.5365806627
 10
22.0186140319
 20
-13.5375281401
 10
22.0082015354
 20
-13.5400774891
 10
22.0010004036
 20
-13.5430282919
  0
LWPOLYLINE
  5
28E
100
AcDbEntity
  8
RACCORDO
100
AcDbPolyline
 62
250
  6
CONTINUOUS
 90
3
 70
0
 10
18.3688359527
 20
-9.7372465905
 10
18.3082345401
 20
-9.7142226243
 10
18.1751826756
 20
-9.6530069756
  0
LWPOLYLINE
  5
28F
100
AcDbEntity
  8
0
100
AcDbPolyline
 62
7
  6
CONTINUOUS
 90
4
 70
0
 10
18.0312229203
 20
-9.646877962
 10
18.1616252663
 20
-9.7067031606
 10
18.29037831
 20
-9.7555486094
 10
18.3580644329
 20
-9.7757131014
  0
LINE
  5
290
100
AcDbEntity
  8
ASSI
100
AcDbLine
 62
7
  6
CONTINUOUS
 10
17.889801564
 20
-10.1939026122
 11
18.0327517964
 21
-10.2598515397
  0
LWPOLYLINE
  5
291
100
AcDbEntity
  8
ASSI
100
AcDbPolyline
 62
7
  6
CONTINUOUS
 90
6
 70
0
 10
17.2621987415
 20
-10.0639218293
 10
17.3672087712
 20
-10.1130590568
 10
17.4719309271
 20
-10.1553260176
 10
17.5760781739
 20
-10.1906068705
 10
17.6793649929
 20
-10.218804909
 10
17.7021659511
 20
-10.2240997082
  0
LINE
  5
292
100
AcDbEntity
  8
ASSI
100
AcDbLine
 62
7
  6
CONTINUOUS
 10
-6.184309351
 20
-2.7099954841
 11
-5.1542839087
 21
-3.2250082053
  0
LINE
  5
293
100
AcDbEntity
  8
ASSI
100
AcDbLine
 62
7
  6
CONTINUOUS
 10
22.8319534383
 20
-17.2181268788
 11
23.8619788806
 21
-17.7331395999
  0
LINE
  5
294
100
AcDbEntity
  8
ASSI
100
AcDbLine
 62
7
  6
CONTINUOUS
 10
5.939696962
 20
-4.5089025544
 11
4.5572203605
 21
-3.8176642537
  0
LINE
  5
295
100
AcDbEntity
  8
ASSI
100
AcDbLine
 62
7
  6
CONTINUOUS
 10
2.6256836004
 20
-2.8518958737
 11
2.4631875105
 21
-2.7706478287
  0
LINE
  5
296
100
AcDbEntity
  8
ASSI
100
AcDbLine
 62
7
  6
CONTINUOUS
 10
2.0865252375
 20
-1.8721825734
 11
3.0989316256
 21
-2.3783857675
  0
LINE
  5
297
100
AcDbEntity
  8
ASSI
100
AcDbLine
 62
7
  6
CONTINUOUS
 10
5.7024981882
 20
-2.9700435827
 11
5.939696962
 21
-3.0886429696
  0
LINE
  5
298
100
AcDbEntity
  8
ASSI
100
AcDbLine
 62
7
  6
CONTINUOUS
 10
17.7430932086
 20
-10.1148770211
 11
17.889801564
 21
-10.1939026122
  0
LINE
  5
299
100
AcDbEntity
  8
RACCORDO
100
AcDbLine
 62
250
  6
CONTINUOUS
 10
18.1751826756
 20
-9.6530069756
 11
18.0421313626
 21
-9.5811709849
  0
LWPOLYLINE
  5
29A
100
AcDbEntity
  8
ASSI
100
AcDbPolyline
 62
7
  6
CONTINUOUS
 90
32
 70
0
 10
17.889801564
 20
-9.7175886401
 10
17.7593992179
 20
-9.6470114926
 10
17.6306461743
 20
-9.5671038978
 10
17.503542433
 20
-9.4778658558
 10
17.377559354
 20
-9.3788366447
 10
17.2532255774
 20
-9.2704769863
 10
17.1321270238
 20
-9.1541690459
 10
17.0143051359
 20
-9.0298110074
 10
16.8997184712
 20
-8.8975046869
 10
16.7898286223
 20
-8.7589376975
 10
16.6846957547
 20
-8.6140298412
 10
16.584259703
 20
-8.4628613161
 10
16.489801564
 20
-8.3073603294
 10
16.4013979138
 20
-8.1474713831
 10
16.3189721763
 20
-7.9832499751
 10
16.2435757206
 20
-7.8167908069
 10
16.1752985905
 20
-7.648065213
 10
16.1140507421
 20
-7.4771018587
 10
16.0606134132
 20
-7.3060814414
 10
16.015086655
 20
-7.1350032299
 10
15.9773704162
 20
-6.9638679552
 10
15.9479457806
 20
-6.7948585075
 10
15.926918962
 20
-6.6280021181
 10
15.9141837467
 20
-6.4632715556
 10
15.9099025767
 20
-6.3027680158
 10
15.9141837467
 20
-6.146545646
 10
15.926918962
 20
-5.9945502989
 10
15.9479457806
 20
-5.848720728
 10
15.9773704162
 20
-5.7091359159
 10
16.015086655
 20
-5.5757168801
 10
16.0606134132
 20
-5.4501654268
 10
16.0852165882
 20
-5.3960287892
  0
LINE
  5
29B
100
AcDbEntity
  8
0
100
AcDbLine
 62
7
  6
CONTINUOUS
 10
21.172864339
 20
-18.1334533129
 11
21.1458372885
 21
-18.1125573604
  0
LINE
  5
29C
100
AcDbEntity
  8
0
100
AcDbLine
 62
250
  6
CONTINUOUS
 10
21.0706320523
 20
-17.934427313
 11
21.0325404431
 21
-17.9002580499
  0
LWPOLYLINE
  5
29D
100
AcDbEntity
  8
ASSI
100
AcDbPolyline
 62
250
  6
CONTINUOUS
 90
22
 70
0
 10
23.0037632046
 20
-25.4083543504
 10
23.0293415581
 20
-25.4314679878
 10
23.0567337676
 20
-25.453476138
 10
23.0857883412
 20
-25.4742570855
 10
23.1163445936
 20
-25.4936959019
 10
23.1482335342
 20
-25.5116850815
 10
23.1812788025
 20
-25.5281251356
 10
23.2152976424
 20
-25.5429251431
 10
23.2501019138
 20
-25.556003253
 10
23.2854991328
 20
-25.5672871371
 10
23.3212935361
 20
-25.5767143904
 10
23.357287164
 20
-25.5842328756
 10
23.3932809547
 20
-25.589801012
 10
23.4290758456
 20
-25.5933880052
 10
23.4644738744
 20
-25.5949740174
 10
23.4992792731
 20
-25.5945502774
 10
23.5332995518
 20
-25.5921191284
 10
23.5663465621
 20
-25.587694016
 10
23.5982375387
 20
-25.5812994131
 10
23.6287961096
 20
-25.5729706848
 10
23.6578532714
 20
-25.562753893
 10
23.6852483244
 20
-25.5507055412
  0
LWPOLYLINE
  5
29E
100
AcDbEntity
  8
ASSI
100
AcDbPolyline
 62
7
  6
CONTINUOUS
 90
19
 70
0
 10
22.4325837117
 20
-26.8512223982
 10
22.4620146157
 20
-26.8795766956
 10
22.4938849723
 20
-26.9063871097
 10
22.5279549148
 20
-26.9314518563
 10
22.5639680214
 20
-26.9545822901
 10
22.6016532458
 20
-26.9756043237
 10
22.6407269564
 20
-26.9943597384
 10
22.6808950717
 20
-27.0107073746
 10
22.7218552733
 20
-27.0245241948
 10
22.7632992811
 20
-27.035706209
 10
22.8049151739
 20
-27.0441692576
 10
22.8463897368
 20
-27.049849645
 10
22.8874108186
 20
-27.0527046186
 10
22.927669681
 20
-27.052712691
 10
22.9668633226
 20
-27.0498738015
 10
23.0046967592
 20
-27.0442093164
 10
23.0408852438
 20
-27.0357618685
 10
23.07515641
 20
-27.0245950361
 10
23.1072523216
 20
-27.0107928645
  0
LINE
  5
29F
100
AcDbEntity
  8
RACCORDO
100
AcDbLine
 62
250
  6
CONTINUOUS
 10
16.5296159299
 20
-18.0184370813
 11
16.5113932301
 21
-18.0005563692
  0
LWPOLYLINE
  5
2A0
100
AcDbEntity
  8
0
100
AcDbPolyline
 62
250
  6
CONTINUOUS
 90
10
 70
0
 10
2.2801728547
 20
-4.1374676832
 10
2.3078761737
 20
-4.1648125412
 10
2.333193775
 20
-4.1944185582
 10
2.3558154271
 20
-4.2259157542
 10
2.3754679823
 20
-4.2589072725
 10
2.3919080658
 20
-4.2929843988
 10
2.4049248637
 20
-4.3277317174
 10
2.4143569884
 20
-4.3627187988
 10
2.4200946193
 20
-4.3975055256
 10
2.4220700446
 20
-4.4316576825
  0
LWPOLYLINE
  5
2A1
100
AcDbEntity
  8
ASSI
100
AcDbPolyline
 62
250
  6
CONTINUOUS
 90
14
 70
0
 10
-5.3260936749
 20
1.7719525322
 10
-5.3497167145
 20
1.7960438266
 10
-5.3712537915
 20
1.820979543
 10
-5.3905857957
 20
1.8466217752
 10
-5.4076058122
 20
1.8728287096
 10
-5.4222197122
 20
1.8994554095
 10
-5.434346674
 20
1.9263546168
 10
-5.4439196299
 20
1.9533775664
 10
-5.4508856369
 20
1.9803748084
 10
-5.4552061696
 20
2.0071970357
 10
-5.4568573336
 20
2.0336959086
 10
-5.4558299972
 20
2.059724876
 10
-5.4521298418
 20
2.0851399854
 10
-5.4457773313
 20
2.1098006794
  0
LWPOLYLINE
  5
2A2
100
AcDbEntity
  8
ASSI
100
AcDbPolyline
 62
250
  6
CONTINUOUS
 90
3
 70
0
 10
14.3426100341
 20
-16.9227806058
 10
14.3126291631
 20
-16.8919446993
 10
14.285135973
 20
-16.8595161033
  0
LINE
  5
2A3
100
AcDbEntity
  8
RACCORDO
100
AcDbLine
 62
250
  6
CONTINUOUS
 10
16.5817085019
 20
-18.0760418814
 11
16.5296159299
 21
-18.0184370813
  0
LWPOLYLINE
  5
2A4
100
AcDbEntity
  8
ASSI
100
AcDbPolyline
 62
7
  6
CONTINUOUS
 90
13
 70
0
 10
-4.754914182
 20
3.21482058
 10
-4.7816841268
 20
3.244505357
 10
-4.805591633
 20
3.2752971963
 10
-4.8264567648
 20
3.3069643483
 10
-4.8441224844
 20
3.3392684756
 10
-4.8584558336
 20
3.3719664468
 10
-4.8693489351
 20
3.404812166
 10
-4.8767198036
 20
3.4375584257
 10
-4.8805129637
 20
3.4699587666
 10
-4.8806998667
 20
3.5017693332
 10
-4.8772791059
 20
3.5327507086
 10
-4.8702764272
 20
3.5626697168
 10
-4.8603923196
 20
3.5898144697
  0
LWPOLYLINE
  5
2A5
100
AcDbEntity
  8
RACCORDO
100
AcDbPolyline
 62
7
  6
CONTINUOUS
 90
3
 70
0
 10
16.5761937557
 20
-18.1054143161
 10
16.5318629764
 20
-18.0560445491
 10
16.5241973291
 20
-18.0484434928
  0
LINE
  5
2A6
100
AcDbEntity
  8
0
100
AcDbLine
 62
7
  6
CONTINUOUS
 10
-2.7926292292
 20
-5.9614104397
 11
-2.8444818508
 21
-5.8711704225
  0
LWPOLYLINE
  5
2A7
100
AcDbEntity
  8
ASSI
100
AcDbPolyline
 62
7
  6
CONTINUOUS
 90
16
 70
0
 10
-2.9835474329
 20
-6.0034952387
 10
-3.0366012545
 20
-5.9019559113
 10
-3.0823977441
 20
-5.7996290709
 10
-3.1209369016
 20
-5.6965147175
 10
-3.1524690047
 20
-5.5915221689
 10
-3.1767437758
 20
-5.4857421072
 10
-3.1930103823
 20
-5.382446579
 10
-3.2010185468
 20
-5.281713234
 10
-3.2010185468
 20
-5.1834644226
 10
-3.1930103823
 20
-5.0907392421
 10
-3.1767437758
 20
-5.0037103205
 10
-3.1524690047
 20
-4.9222050299
 10
-3.1209369016
 20
-4.8487445843
 10
-3.0823977441
 20
-4.7841693884
 10
-3.0366012545
 20
-4.7276390376
 10
-2.9835474329
 20
-4.6791535319
  0
LWPOLYLINE
  5
2A8
100
AcDbEntity
  8
0
100
AcDbPolyline
 62
7
  6
CONTINUOUS
 90
7
 70
0
 10
-2.8444818508
 20
-5.8711704225
 10
-2.8874983975
 20
-5.7799380285
 10
-2.9223948664
 20
-5.6877269623
 10
-2.9492290971
 20
-5.597395809
 10
-2.9681655741
 20
-5.5099728776
 10
-2.9794603697
 20
-5.4246523074
 10
-2.9832203168
 20
-5.3414883903
  0
LWPOLYLINE
  5
2A9
100
AcDbEntity
  8
ASSI
100
AcDbPolyline
 62
7
  6
CONTINUOUS
 90
13
 70
0
 10
3.9542308327
 20
-9.9015929063
 10
4.3281592295
 20
-11.083609792
 10
4.7187194988
 20
-12.2632368554
 10
5.1259116407
 20
-13.4404740965
 10
5.5499303308
 20
-14.6158398273
 10
5.9905808934
 20
-15.7888157357
 10
6.4472793014
 20
-16.9578468861
 10
6.9200509685
 20
-18.1229363827
 10
7.4088704808
 20
-19.2840811212
 10
7.9130775699
 20
-20.4397168532
 10
8.4324521459
 20
-21.5893221626
 10
8.9672142987
 20
-22.7334184655
 10
9.517364028
 20
-23.8720057618
  0
LWPOLYLINE
  5
2AA
100
AcDbEntity
  8
0
100
AcDbPolyline
 62
7
  6
CONTINUOUS
 90
9
 70
0
 10
1.4542226236
 20
-29.0003085743
 10
1.4511836149
 20
-28.9855582977
 10
1.4501083243
 20
-28.968983788
 10
1.4511087437
 20
-28.9506490472
 10
1.4542610294
 20
-28.9306534745
 10
1.4594568657
 20
-28.9090978295
 10
1.4666842922
 20
-28.8861166719
 10
1.4760487145
 20
-28.8618579886
 10
1.4875842942
 20
-28.8364766057
  0
LWPOLYLINE
  5
2AB
100
AcDbEntity
  8
ASSI
100
AcDbPolyline
 62
7
  6
CONTINUOUS
 90
6
 70
0
 10
2.9369164595
 20
-2.2973781844
 10
2.9232890289
 20
-2.1688217571
 10
2.8761342783
 20
-1.6064454268
 10
2.8422614993
 20
-1.0524731209
 10
2.8216450696
 20
-0.5060217307
 10
2.8142849891
 20
0.0329087436
  0
LINE
  5
2AC
100
AcDbEntity
  8
ASSI
100
AcDbLine
 62
7
  6
CONTINUOUS
 10
3.9709629322
 20
-1.4989947954
 11
3.980305042
 21
-1.5936226556
  0
LINE
  5
2AD
100
AcDbEntity
  8
ASSI
100
AcDbLine
 62
7
  6
CONTINUOUS
 10
2.4631875105
 20
-2.7706478287
 11
2.4812208125
 21
-2.9848188825
  0
LWPOLYLINE
  5
2AE
100
AcDbEntity
  8
ASSI
100
AcDbPolyline
 62
7
  6
CONTINUOUS
 90
3
 70
0
 10
3.9058585992
 20
-0.5780509146
 10
3.9338968415
 20
-1.0363823185
 10
3.9709629322
 20
-1.4989947954
  0
LWPOLYLINE
  5
2AF
100
AcDbEntity
  8
ASSI
100
AcDbPolyline
 62
7
  6
CONTINUOUS
 90
3
 70
0
 10
4.4778772156
 20
-0.6482091828
 10
4.4844822398
 20
-0.7963775345
 10
4.4969975928
 20
-1.019702739
  0
LWPOLYLINE
  5
2B0
100
AcDbEntity
  8
ASSI
100
AcDbPolyline
 62
7
  6
CONTINUOUS
 90
6
 70
0
 10
3.5295487328
 20
-0.1740449414
 10
3.5313955878
 20
-0.2426565133
 10
3.5355267779
 20
-0.3699845961
 10
3.5403762511
 20
-0.4977926891
 10
3.5459426404
 20
-0.6260869042
 10
3.5522259457
 20
-0.7548672413
  0
LWPOLYLINE
  5
2B1
100
AcDbEntity
  8
ASSI
100
AcDbPolyline
 62
7
  6
CONTINUOUS
 90
10
 70
0
 10
2.6393079311
 20
0.1203972726
 10
2.6436586539
 20
-0.1565068019
 10
2.6566723357
 20
-0.4377434056
 10
2.6782908767
 20
-0.72205586
 10
2.7085527909
 20
-1.0094583232
 10
2.7474195643
 20
-1.2999366371
 10
2.7947175771
 20
-1.5921930025
 10
2.8503889561
 20
-1.8857948196
 10
2.9144915744
 20
-2.1811746883
 10
2.9436815672
 20
-2.3007607383
  0
LINE
  5
2B2
100
AcDbEntity
  8
0
100
AcDbLine
 62
250
  6
CONTINUOUS
 10
2.2801728547
 20
-5.912819761
 11
2.2801728547
 21
-5.801086789
  0
LINE
  5
2B3
100
AcDbEntity
  8
0
100
AcDbLine
 62
250
  6
CONTINUOUS
 10
2.2801728547
 20
-4.1374676832
 11
2.2801728547
 21
-4.0075638727
  0
LINE
  5
2B4
100
AcDbEntity
  8
0
100
AcDbLine
 62
250
  6
CONTINUOUS
 10
2.4221944027
 20
-4.431549344
 11
2.4221944027
 21
-5.5660098289
  0
LINE
  5
2B5
100
AcDbEntity
  8
ASSI
100
AcDbLine
 62
7
  6
CONTINUOUS
 10
5.939696962
 20
-1.3791190559
 11
5.939696962
 21
-4.5089025544
  0
LINE
  5
2B6
100
AcDbEntity
  8
ASSI
100
AcDbLine
 62
7
  6
CONTINUOUS
 10
2.8163569231
 20
0.1825509635
 11
2.8142849891
 21
0.0329087436
  0
LINE
  5
2B7
100
AcDbEntity
  8
ASSI
100
AcDbLine
 62
7
  6
CONTINUOUS
 10
2.6416941951
 20
0.2698823275
 11
2.6393079311
 21
0.1203972726
  0
LINE
  5
2B8
100
AcDbEntity
  8
ASSI
100
AcDbLine
 62
7
  6
CONTINUOUS
 10
4.0697841584
 20
-0.6600136942
 11
4.0759387856
 21
-0.4472399677
  0
LWPOLYLINE
  5
2B9
100
AcDbEntity
  8
ASSI
100
AcDbPolyline
 62
7
  6
CONTINUOUS
 90
10
 70
0
 10
3.2871800112
 20
4.3442022161
 10
3.1483673209
 20
3.9388523279
 10
3.0213316696
 20
3.5239324653
 10
2.9060730572
 20
3.0994426281
 10
2.8025415464
 20
2.6651012784
 10
2.7107870745
 20
2.2211899542
 10
2.6309594538
 20
1.7685532698
 10
2.5631086216
 20
1.3074727633
 10
2.5071846405
 20
0.8376668967
 10
2.4631875105
 20
0.3591356698
  0
LWPOLYLINE
  5
2BA
100
AcDbEntity
  8
ASSI
100
AcDbPolyline
 62
7
  6
CONTINUOUS
 90
10
 70
0
 10
3.2871800112
 20
4.3442022161
 10
3.3564717653
 20
4.5334004062
 10
3.4269604687
 20
4.7212415437
 10
3.4986461211
 20
4.9077256285
 10
3.5715163204
 20
5.0928191277
 10
3.6455834689
 20
5.2765555742
 10
3.7208847736
 20
5.4590355673
 10
3.797432637
 20
5.64029264
 10
3.8752146567
 20
5.8202932593
 10
3.9542308327
 20
5.9990374251
  0
LWPOLYLINE
  5
2BB
100
AcDbEntity
  8
0
100
AcDbPolyline
 62
7
  6
CONTINUOUS
 90
9
 70
0
 10
11.3336489854
 20
16.9322636438
 10
11.3314620624
 20
16.9265896216
 10
11.3266186773
 20
16.9173938248
 10
11.3202641753
 20
16.9084632336
 10
11.3123663461
 20
16.8997216098
 10
11.3029199856
 20
16.8912282915
 10
11.291923359
 20
16.8830030579
 10
11.2793782011
 20
16.8750261299
 10
11.2652845118
 20
16.8672975072
  0
LWPOLYLINE
  5
2BC
100
AcDbEntity
  8
0
100
AcDbPolyline
 62
250
  6
CONTINUOUS
 90
3
 70
0
 10
11.0991980004
 20
16.7842542515
 10
11.0691654544
 20
16.719700519
 10
11.0668869154
 20
16.7152625377
  0
LWPOLYLINE
  5
2BD
100
AcDbEntity
  8
0
100
AcDbPolyline
 62
7
  6
CONTINUOUS
 90
11
 70
0
 10
11.0605797379
 20
16.7501123376
 10
11.0600232816
 20
16.7489189931
 10
11.058046434
 20
16.7429675149
 10
11.0573380536
 20
16.7371185974
 10
11.0577380435
 20
16.7315459639
 10
11.0592435381
 20
16.7262871504
 10
11.0618574031
 20
16.7213046208
 10
11.0654281383
 20
16.71665949
 10
11.0699052437
 20
16.7123721298
 10
11.0753392193
 20
16.7084221684
 10
11.0817300652
 20
16.7048096058
  0
LWPOLYLINE
  5
2BE
100
AcDbEntity
  8
ASSI
100
AcDbPolyline
 62
7
  6
CONTINUOUS
 90
5
 70
0
 10
11.2126988624
 20
16.6393252072
 10
11.2484609397
 20
16.7145693464
 10
11.2838294724
 20
16.7971113911
 10
11.3158206221
 20
16.8806628486
 10
11.3337098187
 20
16.9322585693
  0
LWPOLYLINE
  5
2BF
100
AcDbEntity
  8
0
100
AcDbPolyline
 62
250
  6
CONTINUOUS
 90
5
 70
0
 10
11.1752167515
 20
16.6583378793
 10
11.1885572821
 20
16.6851748851
 10
11.2160161068
 20
16.7450481411
 10
11.2415918501
 20
16.8057556818
 10
11.2652845118
 20
16.8672975072
  0
LINE
  5
2C0
100
AcDbEntity
  8
0
100
AcDbLine
 62
7
  6
CONTINUOUS
 10
4.7216952637
 20
-0.7701182068
 11
3.9429797003
 21
-1.6350820437
  0
LINE
  5
2C1
100
AcDbEntity
  8
0
100
AcDbLine
 62
7
  6
CONTINUOUS
 10
5.3249892194
 20
-1.0717651846
 11
4.6459000997
 21
-1.8260682422
  0
LWPOLYLINE
  5
2C2
100
AcDbEntity
  8
0
100
AcDbPolyline
 62
7
  6
CONTINUOUS
 90
10
 70
0
 10
3.9429797003
 20
-1.6350820437
 10
3.9373362026
 20
-1.6412830898
 10
3.9317451457
 20
-1.6473129241
 10
3.9262065296
 20
-1.6531715467
 10
3.9207575811
 20
-1.6588211658
 10
3.9153610735
 20
-1.6642995732
 10
3.9099053262
 20
-1.6697201442
 10
3.9043531124
 20
-1.6751206707
 10
3.8987416589
 20
-1.6804633609
 10
3.8930709657
 20
-1.6857482147
  0
LWPOLYLINE
  5
2C3
100
AcDbEntity
  8
0
100
AcDbPolyline
 62
250
  6
CONTINUOUS
 90
8
 70
0
 10
2.3505918679
 20
-5.7409974725
 10
2.3558908766
 20
-5.7360042349
 10
2.3755705736
 20
-5.713749521
 10
2.3920374202
 20
-5.688609519
 10
2.4050817844
 20
-5.6609009215
 10
2.4145419016
 20
-5.6309673165
 10
2.4203060042
 20
-5.5991748002
 10
2.4223052708
 20
-5.565915091
  0
LWPOLYLINE
  5
2C4
100
AcDbEntity
  8
0
100
AcDbPolyline
 62
7
  6
CONTINUOUS
 90
10
 70
0
 10
4.5959913652
 20
-1.8767344132
 10
4.6016620583
 20
-1.8714495594
 10
4.6072735118
 20
-1.8661068692
 10
4.6128257256
 20
-1.8607063427
 10
4.6182814729
 20
-1.8552857717
 10
4.6236779806
 20
-1.8498073643
 10
4.629126929
 20
-1.8441577452
 10
4.6346655451
 20
-1.8382991226
 10
4.640256602
 20
-1.8322692883
 10
4.6459000997
 20
-1.8260682422
  0
LINE
  5
2C5
100
AcDbEntity
  8
0
100
AcDbLine
 62
7
  6
CONTINUOUS
 10
1.5772524553
 20
-3.8165776742
 11
3.8930709657
 21
-1.6857482147
  0
LINE
  5
2C6
100
AcDbEntity
  8
0
100
AcDbLine
 62
7
  6
CONTINUOUS
 10
2.2801728547
 20
-4.0075638727
 11
4.5959913652
 21
-1.8767344132
  0
LINE
  5
2C7
100
AcDbEntity
  8
0
100
AcDbLine
 62
7
  6
CONTINUOUS
 10
2.2801728547
 20
-4.1374676832
 11
5.5109651324
 21
-1.1647531412
  0
LINE
  5
2C8
100
AcDbEntity
  8
0
100
AcDbLine
 62
7
  6
CONTINUOUS
 10
2.2801728547
 20
-5.912819761
 11
4.5959913652
 21
-3.7819903015
  0
LINE
  5
2C9
100
AcDbEntity
  8
0
100
AcDbLine
 62
7
  6
CONTINUOUS
 10
5.7817323642
 20
-2.9074733963
 11
5.939696962
 21
-2.7621271107
  0
LWPOLYLINE
  5
2CA
100
AcDbEntity
  8
0
100
AcDbPolyline
 62
7
  6
CONTINUOUS
 90
10
 70
0
 10
5.7817323642
 20
-2.9074733963
 10
5.776061671
 20
-2.9126239716
 10
5.7704502175
 20
-2.9176076955
 10
5.7648980037
 20
-2.9224245679
 10
5.7594422564
 20
-2.9270438744
 10
5.7540457488
 20
-2.9314963294
 10
5.7485968003
 20
-2.9358740763
 10
5.7430581842
 20
-2.9402078295
 10
5.7374671273
 20
-2.9444668747
 10
5.7318236296
 20
-2.9486512117
  0
LWPOLYLINE
  5
2CB
100
AcDbEntity
  8
0
100
AcDbPolyline
 62
7
  6
CONTINUOUS
 90
4
 70
0
 10
2.350160751
 20
-5.7413881751
 10
2.8420568867
 20
-5.297317055
 10
3.4315393283
 20
-4.766444715
 10
4.0451120035
 20
-4.2152411501
  0
LINE
  5
2CC
100
AcDbEntity
  8
0
100
AcDbLine
 62
250
  6
CONTINUOUS
 10
3.3252411263
 20
-4.7515358543
 11
2.4221944027
 21
-5.5660098289
  0
LINE
  5
2CD
100
AcDbEntity
  8
0
100
AcDbLine
 62
250
  6
CONTINUOUS
 10
4.1745197436
 20
-3.9884008191
 11
3.3252411263
 21
-4.7515358543
  0
LINE
  5
2CE
100
AcDbEntity
  8
0
100
AcDbLine
 62
7
  6
CONTINUOUS
 10
4.0451120035
 20
-4.2152411501
 11
4.6859267342
 21
-3.6409283591
  0
LINE
  5
2CF
100
AcDbEntity
  8
0
100
AcDbLine
 62
7
  6
CONTINUOUS
 10
4.6859267342
 20
-3.6409283591
 11
5.6597724079
 21
-2.7707715617
  0
LINE
  5
2D0
100
AcDbEntity
  8
0
100
AcDbLine
 62
7
  6
CONTINUOUS
 10
5.6597724079
 20
-2.7707715617
 11
5.939696962
 21
-2.5210339741
  0
LWPOLYLINE
  5
2D1
100
AcDbEntity
  8
0
100
AcDbPolyline
 62
250
  6
CONTINUOUS
 90
3
 70
0
 10
5.939696962
 20
-2.4098125408
 10
5.7112152328
 20
-2.6136158963
 10
4.1745197436
 20
-3.9884008191
  0
LINE
  5
2D2
100
AcDbEntity
  8
0
100
AcDbLine
 62
250
  6
CONTINUOUS
 10
-1.8700304324
 20
-4.3134590531
 11
-2.2617578059
 21
-4.6622246136
  0
LINE
  5
2D3
100
AcDbEntity
  8
0
100
AcDbLine
 62
250
  6
CONTINUOUS
 10
5.055764393
 20
-2.1338371896
 11
5.9239920103
 21
-1.3712665801
  0
LINE
  5
2D4
100
AcDbEntity
  8
0
100
AcDbLine
 62
7
  6
CONTINUOUS
 10
2.2969982606
 20
-5.7879725638
 11
2.3505918679
 21
-5.7409974725
  0
LINE
  5
2D5
100
AcDbEntity
  8
0
100
AcDbLine
 62
250
  6
CONTINUOUS
 10
4.3566591355
 20
-2.7461289097
 11
5.055764393
 21
-2.1338371896
  0
LINE
  5
2D6
100
AcDbEntity
  8
0
100
AcDbLine
 62
250
  6
CONTINUOUS
 10
3.6148440449
 20
-3.394097489
 11
4.3566591355
 21
-2.7461289097
  0
LWPOLYLINE
  5
2D7
100
AcDbEntity
  8
0
100
AcDbPolyline
 62
250
  6
CONTINUOUS
 90
3
 70
0
 10
2.4221944027
 20
-4.431549344
 10
2.8304040609
 20
-4.0769717226
 10
3.6148440449
 20
-3.394097489
  0
LINE
  5
2D8
100
AcDbEntity
  8
0
100
AcDbLine
 62
250
  6
CONTINUOUS
 10
2.4221944027
 20
-5.5660161356
 11
2.3138888371
 21
-5.6576828121
  0
LWPOLYLINE
  5
2D9
100
AcDbEntity
  8
0
100
AcDbPolyline
 62
7
  6
CONTINUOUS
 90
22
 70
0
 10
2.2801728547
 20
-4.0075638727
 10
2.1513154518
 20
-4.1159574927
 10
2.0080875027
 20
-4.2182355169
 10
1.8504890074
 20
-4.3143979453
 10
1.6771870616
 20
-4.4050210707
 10
1.4895145696
 20
-4.4895286002
 10
1.2914702442
 20
-4.5661916549
 10
1.0835824108
 20
-4.6346650383
 10
0.8653227439
 20
-4.6952939467
 10
0.63910498
 20
-4.7473850906
 10
0.403865199
 20
-4.7909766935
 10
0.160667321
 20
-4.8260305318
 10
-0.0848831575
 20
-4.8517386455
 10
-0.3318448833
 20
-4.8678502239
 10
-0.5811592095
 20
-4.8746160776
 10
-0.830044699
 20
-4.8719806791
 10
-1.0793161093
 20
-4.85979242
 10
-1.3281586829
 20
-4.8382029088
 10
-1.5713467104
 20
-4.8076114427
 10
-1.8071382884
 20
-4.7681511211
 10
-2.0372753202
 20
-4.7196888447
 10
-2.2617578059
 20
-4.6622246136
  0
LWPOLYLINE
  5
2DA
100
AcDbEntity
  8
0
100
AcDbPolyline
 62
7
  6
CONTINUOUS
 90
6
 70
0
 10
2.2801728547
 20
-5.912819761
 10
2.1513154518
 20
-6.0212133811
 10
2.0080875027
 20
-6.1234914053
 10
1.8504890074
 20
-6.2196538336
 10
1.6771870616
 20
-6.310276959
 10
1.4895145696
 20
-6.3947844886
  0
LWPOLYLINE
  5
2DB
100
AcDbEntity
  8
0
100
AcDbPolyline
 62
7
  6
CONTINUOUS
 90
19
 70
0
 10
1.5772524553
 20
-3.8165776742
 10
1.4610335573
 20
-3.9126424084
 10
1.3307674871
 20
-4.002006265
 10
1.1864542445
 20
-4.0846692439
 10
1.0267652295
 20
-4.1611650831
 10
0.8530290422
 20
-4.2309600447
 10
0.6692314828
 20
-4.2924529148
 10
0.4751399477
 20
-4.3454517619
 10
0.2709870405
 20
-4.3901485175
 10
0.061456372
 20
-4.4255177631
 10
-0.1535763833
 20
-4.4513438607
 10
-0.3739868999
 20
-4.4678424483
 10
-0.59471859
 20
-4.4746350204
 10
-0.8157788787
 20
-4.4714971888
 10
-1.0371603408
 20
-4.4586533418
 10
-1.2537841135
 20
-4.4363981387
 10
-1.4639572425
 20
-4.4048297995
 10
-1.6693726822
 20
-4.3638501043
 10
-1.8700304324
 20
-4.3134590531
  0
LINE
  5
2DC
100
AcDbEntity
  8
0
100
AcDbLine
 62
7
  6
CONTINUOUS
 10
2.1424530717
 20
-5.9084297118
 11
2.2969982606
 21
-5.7879725638
  0
LWPOLYLINE
  5
2DD
100
AcDbEntity
  8
ASSI
100
AcDbPolyline
 62
7
  6
CONTINUOUS
 90
14
 70
0
 10
25.5900002754
 20
16.5322144436
 10
25.54787032
 20
16.5004244244
 10
25.5090523062
 20
16.4677781816
 10
25.4735462766
 20
16.4342768148
 10
25.4412869822
 20
16.3998476578
 10
25.4123397511
 20
16.3645654329
 10
25.3869005038
 20
16.3286527008
 10
25.3649930045
 20
16.2920989812
 10
25.3465935887
 20
16.254917561
 10
25.3318270557
 20
16.2173673826
 10
25.3207214856
 20
16.1794709457
 10
25.31324891
 20
16.1412090705
 10
25.3094500714
 20
16.1027787028
 10
25.3089365919
 20
16.0821784952
  0
LINE
  5
2DE
100
AcDbEntity
  8
ASSI
100
AcDbLine
 62
250
  6
CONTINUOUS
 10
15.8699005763
 20
3.4600187769
 11
15.5590059256
 21
3.2292942872
  0
LWPOLYLINE
  5
2DF
100
AcDbEntity
  8
0
100
AcDbPolyline
 62
7
  6
CONTINUOUS
 90
10
 70
0
 10
4.6459000997
 20
-3.7408124861
 10
4.640256602
 20
-3.7449968231
 10
4.6346655451
 20
-3.7492558682
 10
4.629126929
 20
-3.7535896215
 10
4.6236779806
 20
-3.7579673684
 10
4.6182814729
 20
-3.7624198234
 10
4.6128257256
 20
-3.7670391299
 10
4.6072735118
 20
-3.7718560023
 10
4.6016620583
 20
-3.7768397262
 10
4.5959913652
 20
-3.7819903015
  0
LINE
  5
2E0
100
AcDbEntity
  8
0
100
AcDbLine
 62
250
  6
CONTINUOUS
 10
2.3138888371
 20
-5.6576828121
 11
2.1946420229
 21
-5.746035121
  0
LINE
  5
2E1
100
AcDbEntity
  8
0
100
AcDbLine
 62
7
  6
CONTINUOUS
 10
4.6459000997
 20
-3.7408124861
 11
5.7318236296
 21
-2.9486512117
  0
LWPOLYLINE
  5
2E2
100
AcDbEntity
  8
0
100
AcDbPolyline
 62
7
  6
CONTINUOUS
 90
19
 70
0
 10
16.6007879268
 20
5.6601764874
 10
16.5747982366
 20
5.6414578685
 10
16.5485016086
 20
5.6214021889
 10
16.5220107779
 20
5.6000786461
 10
16.4954227012
 20
5.5775756946
 10
16.4688688426
 20
5.5539759498
 10
16.4425144914
 20
5.5293561832
 10
16.4164693688
 20
5.5038433956
 10
16.3908486784
 20
5.4775469819
 10
16.3658272041
 20
5.4505306909
 10
16.3414910659
 20
5.4229288361
 10
16.3179740016
 20
5.394900523
 10
16.2955181134
 20
5.3665604238
 10
16.2741831843
 20
5.3380584282
 10
16.2540975797
 20
5.3095961961
 10
16.2355749266
 20
5.2813771427
 10
16.2187439122
 20
5.2535941911
 10
16.2035692947
 20
5.2264304102
 10
16.1900852355
 20
5.2000747876
  0
LWPOLYLINE
  5
2E3
100
AcDbEntity
  8
0
100
AcDbPolyline
 62
250
  6
CONTINUOUS
 90
6
 70
0
 10
2.1946420229
 20
-5.746035121
 10
2.064914731
 20
-5.830768718
 10
1.9250776713
 20
-5.9116046606
 10
1.7756934024
 20
-5.9881942648
 10
1.6175767961
 20
-6.0601500954
 10
1.4504127026
 20
-6.1275386918
  0
LWPOLYLINE
  5
2E4
100
AcDbEntity
  8
0
100
AcDbPolyline
 62
7
  6
CONTINUOUS
 90
7
 70
0
 10
24.1806734524
 20
10.2435165255
 10
24.1708743787
 20
10.2379764527
 10
24.1623832866
 20
10.232296725
 10
24.1552001761
 20
10.2264773427
 10
24.1493382185
 20
10.2204375671
 10
24.1447842425
 20
10.2142581367
 10
24.1420551898
 20
10.2093746116
  0
LINE
  5
2E5
100
AcDbEntity
  8
0
100
AcDbLine
 62
7
  6
CONTINUOUS
 10
-2.9835474329
 20
-4.6791535319
 11
-2.9564667611
 21
-4.6640181354
  0
LINE
  5
2E6
100
AcDbEntity
  8
ASSI
100
AcDbLine
 62
250
  6
CONTINUOUS
 10
39.3744060653
 20
16.5607885305
 11
39.7582018139
 21
16.7755568336
  0
LWPOLYLINE
  5
2E7
100
AcDbEntity
  8
ASSI
100
AcDbPolyline
 62
250
  6
CONTINUOUS
 90
4
 70
0
 10
38.6075553785
 20
16.1374811596
 10
38.7991682292
 20
16.2424444221
 10
38.990849685
 20
16.3480057476
 10
39.3744060653
 20
16.5607885305
  0
LWPOLYLINE
  5
2E8
100
AcDbEntity
  8
0
100
AcDbPolyline
 62
7
  6
CONTINUOUS
 90
3
 70
0
 10
-2.3344470837
 20
-4.3353420441
 10
-2.4982665801
 20
-4.4241871673
 10
-2.5929937117
 20
-4.4747615971
  0
LWPOLYLINE
  5
2E9
100
AcDbEntity
  8
0
100
AcDbPolyline
 62
7
  6
CONTINUOUS
 90
9
 70
0
 10
-2.3341274424
 20
-4.3359216817
 10
-2.3183625565
 20
-4.3275793826
 10
-2.2634394207
 20
-4.3046314646
 10
-2.204395752
 20
-4.2893998479
 10
-2.1416083665
 20
-4.2814925952
 10
-2.0765885576
 20
-4.2800671714
 10
-2.0099012966
 20
-4.2848363329
 10
-1.941040223
 20
-4.2959868438
 10
-1.8700304324
 20
-4.3134590531
  0
LINE
  5
2EA
100
AcDbEntity
  8
ASSI
100
AcDbLine
 62
250
  6
CONTINUOUS
 10
37.9132619778
 20
15.7718262261
 11
38.6075553785
 21
16.1374811596
  0
LINE
  5
2EB
100
AcDbEntity
  8
0
100
AcDbLine
 62
7
  6
CONTINUOUS
 10
-2.5929937117
 20
-4.4747615971
 11
-2.7858373812
 21
-4.5760897909
  0
LINE
  5
2EC
100
AcDbEntity
  8
ASSI
100
AcDbLine
 62
250
  6
CONTINUOUS
 10
37.0616028815
 20
15.3320790372
 11
37.9132619778
 21
15.7718262261
  0
LINE
  5
2ED
100
AcDbEntity
  8
ASSI
100
AcDbLine
 62
250
  6
CONTINUOUS
 10
38.6954452933
 20
17.1571167364
 11
39.0841373786
 21
17.358091417
  0
LINE
  5
2EE
100
AcDbEntity
  8
0
100
AcDbLine
 62
7
  6
CONTINUOUS
 10
-2.7858373812
 20
-4.5760897909
 11
-2.9564334294
 21
-4.6640831021
  0
LINE
  5
2EF
100
AcDbEntity
  8
ASSI
100
AcDbLine
 62
250
  6
CONTINUOUS
 10
38.3072113449
 20
16.9577443037
 11
38.6954452933
 21
17.1571167364
  0
LWPOLYLINE
  5
2F0
100
AcDbEntity
  8
ASSI
100
AcDbPolyline
 62
250
  6
CONTINUOUS
 90
3
 70
0
 10
34.6407950198
 20
14.0832997237
 10
35.4238626923
 20
14.4842600278
 10
37.0616028815
 20
15.3320790372
  0
LINE
  5
2F1
100
AcDbEntity
  8
ASSI
100
AcDbLine
 62
250
  6
CONTINUOUS
 10
37.3002480367
 20
16.4462371882
 11
38.3072113449
 21
16.9577443037
  0
LINE
  5
2F2
100
AcDbEntity
  8
RACCORDO
100
AcDbLine
 62
250
  6
CONTINUOUS
 10
16.5671771626
 20
1.5448789878
 11
16.5044869863
 21
1.5132119603
  0
LWPOLYLINE
  5
2F3
100
AcDbEntity
  8
ASSI
100
AcDbPolyline
 62
250
  6
CONTINUOUS
 90
3
 70
0
 10
27.190126429
 20
10.3251955895
 10
27.7853379023
 20
10.6253000453
 10
29.6773991675
 20
11.5778344641
  0
LWPOLYLINE
  5
2F4
100
AcDbEntity
  8
ASSI
100
AcDbPolyline
 62
250
  6
CONTINUOUS
 90
3
 70
0
 10
25.5188916158
 20
9.4814848123
 10
26.0571052409
 20
9.7525905373
 10
27.190126429
 20
10.3251955895
  0
LWPOLYLINE
  5
2F5
100
AcDbEntity
  8
ASSI
100
AcDbPolyline
 62
250
  6
CONTINUOUS
 90
3
 70
0
 10
30.3414816444
 20
11.9115635505
 10
32.4157510009
 20
12.9564456844
 10
34.6407950198
 20
14.0832997237
  0
LINE
  5
2F6
100
AcDbEntity
  8
RACCORDO
100
AcDbLine
 62
250
  6
CONTINUOUS
 10
16.4006096182
 20
2.2727304704
 11
16.3814520147
 21
2.2631000429
  0
LINE
  5
2F7
100
AcDbEntity
  8
ASSI
100
AcDbLine
 62
250
  6
CONTINUOUS
 10
29.6773991675
 20
11.5778344641
 11
30.3414816444
 21
11.9115635505
  0
LINE
  5
2F8
100
AcDbEntity
  8
ASSI
100
AcDbLine
 62
7
  6
CONTINUOUS
 10
2.964963176
 20
0.108247837
 11
2.8142849891
 21
0.0329087436
  0
LINE
  5
2F9
100
AcDbEntity
  8
0
100
AcDbLine
 62
7
  6
CONTINUOUS
 10
24.1806734524
 20
10.2435165255
 11
24.3467599637
 21
10.3265597812
  0
LINE
  5
2FA
100
AcDbEntity
  8
0
100
AcDbLine
 62
7
  6
CONTINUOUS
 10
24.7487373415
 20
10.1739950795
 11
24.4460482296
 21
10.0226505236
  0
LINE
  5
2FB
100
AcDbEntity
  8
ASSI
100
AcDbLine
 62
7
  6
CONTINUOUS
 10
3.9058585992
 20
-0.5780509146
 11
3.5522259457
 21
-0.7548672413
  0
LINE
  5
2FC
100
AcDbEntity
  8
ASSI
100
AcDbLine
 62
250
  6
CONTINUOUS
 10
15.5590059
 20
3.2292943446
 11
15.0652876115
 21
2.9824352003
  0
LINE
  5
2FD
100
AcDbEntity
  8
ASSI
100
AcDbLine
 62
250
  6
CONTINUOUS
 10
15.5590059
 20
2.7768930142
 11
15.1097075599
 21
2.5522438442
  0
LINE
  5
2FE
100
AcDbEntity
  8
ASSI
100
AcDbLine
 62
250
  6
CONTINUOUS
 10
14.9384348172
 20
2.4233315024
 11
15.0798561735
 21
2.4940421805
  0
LINE
  5
2FF
100
AcDbEntity
  8
0
100
AcDbLine
 62
250
  6
CONTINUOUS
 10
15.9099025767
 20
1.9244733201
 11
16.0513239329
 21
1.9951839982
  0
LWPOLYLINE
  5
300
100
AcDbEntity
  8
ASSI
100
AcDbPolyline
 62
250
  6
CONTINUOUS
 90
3
 70
0
 10
24.8048915346
 20
10.2552278636
 10
26.4776827462
 20
11.0861293487
 10
27.0735114672
 20
11.3813192458
  0
LWPOLYLINE
  5
301
100
AcDbEntity
  8
ASSI
100
AcDbPolyline
 62
250
  6
CONTINUOUS
 90
4
 70
0
 10
33.9404063206
 20
14.7688834066
 10
34.725218237
 20
15.1583926479
 10
35.5346483479
 20
15.5625452866
 10
37.3002480367
 20
16.4462371882
  0
LWPOLYLINE
  5
302
100
AcDbEntity
  8
ASSI
100
AcDbPolyline
 62
250
  6
CONTINUOUS
 90
19
 70
0
 10
15.0798561735
 20
2.9532980764
 10
14.9064217336
 20
2.8667223866
 10
14.8726036775
 20
2.850636811
 10
14.8371272373
 20
2.834304977
 10
14.8000142522
 20
2.8175541148
 10
14.761458138
 20
2.8005424855
 10
14.7219674753
 20
2.7837117722
 10
14.6819334028
 20
2.7669991723
 10
14.6414922018
 20
2.7503905891
 10
14.600965372
 20
2.7343548602
 10
14.5608190692
 20
2.7188512174
 10
14.5213217125
 20
2.7038176065
 10
14.4826006215
 20
2.6896977852
 10
14.4450920977
 20
2.676446725
 10
14.4091565707
 20
2.6639885874
 10
14.3748504364
 20
2.6527494003
 10
14.3424544605
 20
2.6428273921
 10
14.3124397951
 20
2.633965139
 10
14.285135973
 20
2.6260554819
  0
LWPOLYLINE
  5
303
100
AcDbEntity
  8
ASSI
100
AcDbPolyline
 62
250
  6
CONTINUOUS
 90
3
 70
0
 10
27.0735114672
 20
11.3813192458
 10
28.9678566262
 20
12.3172903251
 10
31.004393985
 20
13.3210033258
  0
LINE
  5
304
100
AcDbEntity
  8
ASSI
100
AcDbLine
 62
250
  6
CONTINUOUS
 10
31.7106712261
 20
13.6686318549
 11
33.9404063206
 21
14.7688834066
  0
LINE
  5
305
100
AcDbEntity
  8
ASSI
100
AcDbLine
 62
250
  6
CONTINUOUS
 10
31.004393985
 20
13.3210033258
 11
31.7106712261
 21
13.6686318549
  0
LINE
  5
306
100
AcDbEntity
  8
ASSI
100
AcDbLine
 62
7
  6
CONTINUOUS
 10
3.9284696365
 20
-0.3735053932
 11
3.543200616
 21
-0.5628886877
  0
LINE
  5
307
100
AcDbEntity
  8
0
100
AcDbLine
 62
7
  6
CONTINUOUS
 10
16.7199009835
 20
5.7000465881
 11
25.3043053561
 21
9.8962110722
  0
LINE
  5
308
100
AcDbEntity
  8
ASSI
100
AcDbLine
 62
7
  6
CONTINUOUS
 10
2.0865252375
 20
-1.8721825734
 11
-6.184309351
 21
-5.9032622182
  0
LINE
  5
309
100
AcDbEntity
  8
ASSI
100
AcDbLine
 62
7
  6
CONTINUOUS
 10
3.0989316256
 20
-2.3783857675
 11
3.1868277105
 21
-2.3355763109
  0
LINE
  5
30A
100
AcDbEntity
  8
ASSI
100
AcDbLine
 62
7
  6
CONTINUOUS
 10
-3.1788543197
 20
-5.4723398192
 11
-5.1542839087
 21
-6.4182749394
  0
LINE
  5
30B
100
AcDbEntity
  8
ASSI
100
AcDbLine
 62
7
  6
CONTINUOUS
 10
2.4631875105
 20
-2.7706478287
 11
-1.0575598309
 21
-4.4565575663
  0
LINE
  5
30C
100
AcDbEntity
  8
0
100
AcDbLine
 62
7
  6
CONTINUOUS
 10
-2.9564667611
 20
-4.6640181354
 11
-2.9256288424
 21
-4.6495123855
  0
LWPOLYLINE
  5
30D
100
AcDbEntity
  8
0
100
AcDbPolyline
 62
7
  6
CONTINUOUS
 90
7
 70
0
 10
16.7199009835
 20
5.7000465881
 10
16.7020526681
 20
5.6918844568
 10
16.6834028084
 20
5.6843291712
 10
16.6639514045
 20
5.6773807315
 10
16.6436984562
 20
5.6710391377
 10
16.6226439636
 20
5.6653043896
 10
16.6007879268
 20
5.6601764874
  0
LWPOLYLINE
  5
30E
100
AcDbEntity
  8
ASSI
100
AcDbPolyline
 62
250
  6
CONTINUOUS
 90
19
 70
0
 10
14.9384348172
 20
2.4233315024
 10
14.9066436037
 20
2.4094304143
 10
14.8727913898
 20
2.3984824084
 10
14.8371270428
 20
2.3905810465
 10
14.7999054493
 20
2.3857965076
 10
14.7614128678
 20
2.3841787597
 10
14.7219675558
 20
2.3857492265
 10
14.6818701555
 20
2.3905002036
 10
14.6414245934
 20
2.3983998794
 10
14.600965236
 20
2.4093842892
 10
14.5608132457
 20
2.4233631732
 10
14.5212617482
 20
2.4402313926
 10
14.4826003101
 20
2.4598652087
 10
14.4451179483
 20
2.482119836
 10
14.4091074393
 20
2.5068234951
 10
14.3748505027
 20
2.5337832085
 10
14.3426100341
 20
2.5627909794
 10
14.3126291631
 20
2.5936268859
 10
14.285135973
 20
2.6260554819
  0
LWPOLYLINE
  5
30F
100
AcDbEntity
  8
0
100
AcDbPolyline
 62
7
  6
CONTINUOUS
 90
5
 70
0
 10
1.4205450465
 20
-6.2930881883
 10
1.5914077222
 20
-6.2210902175
 10
1.7887145157
 20
-6.1252654587
 10
1.9726562981
 20
-6.0209893133
 10
2.1424530717
 20
-5.9084297118
  0
LWPOLYLINE
  5
310
100
AcDbEntity
  8
0
100
AcDbPolyline
 62
7
  6
CONTINUOUS
 90
17
 70
0
 10
1.4895145696
 20
-6.3947844886
 10
1.2914702442
 20
-6.4714475432
 10
1.0835824108
 20
-6.5399209266
 10
0.8653227439
 20
-6.600549835
 10
0.63910498
 20
-6.652640979
 10
0.403865199
 20
-6.6962325818
 10
0.160667321
 20
-6.7312864201
 10
-0.0848831574
 20
-6.7569945339
 10
-0.3318448832
 20
-6.7731061122
 10
-0.5811592094
 20
-6.7798719659
 10
-0.8300446989
 20
-6.7772365674
 10
-1.0793161092
 20
-6.7650483084
 10
-1.3281586828
 20
-6.7434587971
 10
-1.5713467103
 20
-6.7128673311
 10
-1.8071382883
 20
-6.6734070095
 10
-2.0372753202
 20
-6.6249447331
 10
-2.2617578058
 20
-6.567480502
  0
LWPOLYLINE
  5
311
100
AcDbEntity
  8
0
100
AcDbPolyline
 62
7
  6
CONTINUOUS
 90
15
 70
0
 10
1.4205450466
 20
-6.2930858453
 10
1.3676519571
 20
-6.3135370672
 10
1.1359266562
 20
-6.3937776762
 10
0.8913414121
 20
-6.4639204005
 10
0.6356971108
 20
-6.5234391159
 10
0.3708950375
 20
-6.5718903269
 10
0.0988839471
 20
-6.6089236944
 10
-0.1784062981
 20
-6.6342817489
 10
-0.4590213206
 20
-6.6477848879
 10
-0.7409667746
 20
-6.6493316362
 10
-1.022179405
 20
-6.6389068922
 10
-1.3005892002
 20
-6.6165887121
 10
-1.5741748961
 20
-6.582542969
 10
-1.8409775901
 20
-6.5370163436
 10
-2.099074394
 20
-6.4803395382
  0
LWPOLYLINE
  5
312
100
AcDbEntity
  8
ASSI
100
AcDbPolyline
 62
7
  6
CONTINUOUS
 90
22
 70
0
 10
45.2190186064
 20
14.6616726583
 10
45.24293944
 20
14.6703869912
 10
45.2656384413
 20
14.6790353128
 10
45.2871120393
 20
14.6876022274
 10
45.3073657448
 20
14.6960210525
 10
45.3263873841
 20
14.7043290907
 10
45.3441476258
 20
14.7126701702
 10
45.3605942945
 20
14.7210570614
 10
45.3757749307
 20
14.7294559867
 10
45.3898108705
 20
14.7379459756
 10
45.4027063505
 20
14.7465306097
 10
45.4144539823
 20
14.7551917164
 10
45.4251584748
 20
14.7639795239
 10
45.4348547131
 20
14.772877124
 10
45.44350556
 20
14.7818907909
 10
45.4511082307
 20
14.7911081359
 10
45.4577426368
 20
14.8005117109
 10
45.4633272739
 20
14.810111332
 10
45.4676174988
 20
14.8200367931
 10
45.4706617207
 20
14.8303181131
 10
45.4724101902
 20
14.8409186918
 10
45.4726768676
 20
14.8470912277
  0
LWPOLYLINE
  5
313
100
AcDbEntity
  8
ASSI
100
AcDbPolyline
 62
7
  6
CONTINUOUS
 90
10
 70
0
 10
45.2492908366
 20
14.7177314542
 10
45.1539206423
 20
14.6837511289
 10
45.0893494801
 20
14.6619398117
 10
45.0253051002
 20
14.6414341746
 10
44.9616622657
 20
14.6222574879
 10
44.8985454902
 20
14.6043366645
 10
44.8363283964
 20
14.5874996202
 10
44.775134076
 20
14.5716698934
 10
44.7148357456
 20
14.5568692965
 10
44.6554312541
 20
14.5430710681
  0
LWPOLYLINE
  5
314
100
AcDbEntity
  8
0
100
AcDbPolyline
 62
250
  6
CONTINUOUS
 90
27
 70
0
 10
1.4504127026
 20
-6.1275386918
 10
1.2755290611
 20
-6.189657819
 10
1.0967114791
 20
-6.2453324511
 10
0.9151786477
 20
-6.2946649992
 10
0.7317344676
 20
-6.3378658214
 10
0.5501199512
 20
-6.3745384911
 10
0.3722084699
 20
-6.4049271956
 10
0.1979628618
 20
-6.4296587016
 10
0.0282857788
 20
-6.4491680909
 10
-0.1357937068
 20
-6.4638640008
 10
-0.2941696829
 20
-6.4742164957
 10
-0.4474751416
 20
-6.4807292469
 10
-0.5954526113
 20
-6.4838242481
 10
-0.7377311661
 20
-6.4838563202
 10
-0.8748810015
 20
-6.4810948226
 10
-1.0067747997
 20
-6.475808807
 10
-1.1332267365
 20
-6.468316845
 10
-1.2547697309
 20
-6.4588586633
 10
-1.3713443985
 20
-6.4476580525
 10
-1.4828869773
 20
-6.4349427385
 10
-1.5899401879
 20
-6.4208800714
 10
-1.6925124562
 20
-6.4056548129
 10
-1.7905818783
 20
-6.3894285093
 10
-1.8846507743
 20
-6.372283305
 10
-1.9749043931
 20
-6.3543376716
 10
-2.0612227851
 20
-6.3357646656
 10
-2.1436541507
 20
-6.3167005676
  0
LWPOLYLINE
  5
315
100
AcDbEntity
  8
0
100
AcDbPolyline
 62
7
  6
CONTINUOUS
 90
9
 70
0
 10
-2.9256288424
 20
-4.6495123855
 10
-2.8620611361
 20
-4.6271870311
 10
-2.7925797113
 20
-4.6119910768
 10
-2.7161081378
 20
-4.6036207244
 10
-2.633156477
 20
-4.6019230893
 10
-2.5460271986
 20
-4.6070248347
 10
-2.4555309566
 20
-4.6189271661
 10
-2.3607864021
 20
-4.6373764165
 10
-2.2617578059
 20
-4.6622246136
  0
LWPOLYLINE
  5
316
100
AcDbEntity
  8
ASSI
100
AcDbPolyline
 62
7
  6
CONTINUOUS
 90
10
 70
0
 10
44.087600763
 20
14.8269863136
 10
44.1146593594
 20
14.8338569735
 10
44.1414584602
 20
14.8408727168
 10
44.1679960535
 20
14.8480277786
 10
44.194225314
 20
14.8553220937
 10
44.2201890964
 20
14.8627440698
 10
44.2460203182
 20
14.8702720719
 10
44.2717445226
 20
14.8778922486
 10
44.2973331964
 20
14.8856101028
 10
44.3482724568
 20
14.901359973
  0
LWPOLYLINE
  5
317
100
AcDbEntity
  8
ASSI
100
AcDbPolyline
 62
7
  6
CONTINUOUS
 90
7
 70
0
 10
44.7942430769
 20
15.4659086512
 10
44.8626379403
 20
15.482023294
 10
44.9916134611
 20
15.5143293093
 10
45.120867937
 20
15.5486188991
 10
45.250401368
 20
15.5848920635
 10
45.380213754
 20
15.6231488025
 10
45.5103050952
 20
15.6633891162
  0
LWPOLYLINE
  5
318
100
AcDbEntity
  8
ASSI
100
AcDbPolyline
 62
7
  6
CONTINUOUS
 90
7
 70
0
 10
44.7339413746
 20
15.4960595024
 10
44.862640121
 20
15.526271012
 10
44.9916169502
 20
15.5584722585
 10
45.1208718622
 20
15.5926632418
 10
45.250404857
 20
15.628843962
 10
45.3802159347
 20
15.667014419
 10
45.5103050952
 20
15.7071746128
  0
LWPOLYLINE
  5
319
100
AcDbEntity
  8
ASSI
100
AcDbPolyline
 62
7
  6
CONTINUOUS
 90
10
 70
0
 10
44.6554312541
 20
14.4967337061
 10
44.7150962627
 20
14.5107266414
 10
44.775591339
 20
14.5257113232
 10
44.8369178567
 20
14.5417116562
 10
44.8992013246
 20
14.558703181
 10
44.9623184235
 20
14.5767591291
 10
45.0258963578
 20
14.5960477888
 10
45.0898104398
 20
14.616638942
 10
45.1541847261
 20
14.638506488
 10
45.2190186064
 20
14.6616726583
  0
LINE
  5
31A
100
AcDbEntity
  8
ASSI
100
AcDbLine
 62
7
  6
CONTINUOUS
 10
45.4334703662
 20
14.9682895794
 11
45.4501818667
 21
14.971612409
  0
LWPOLYLINE
  5
31B
100
AcDbEntity
  8
ASSI
100
AcDbPolyline
 62
7
  6
CONTINUOUS
 90
5
 70
0
 10
17.7193245516
 20
-2.0007146797
 10
17.7897314735
 20
-2.0149026827
 10
17.9138301698
 20
-2.0317351485
 10
18.0353019584
 20
-2.0375876914
 10
18.0932330532
 20
-2.0350659349
  0
LINE
  5
31C
100
AcDbEntity
  8
ASSI
100
AcDbLine
 62
7
  6
CONTINUOUS
 10
3.9058585992
 20
-0.5780509146
 11
4.0697841584
 21
-0.6600136942
  0
LINE
  5
31D
100
AcDbEntity
  8
ASSI
100
AcDbLine
 62
7
  6
CONTINUOUS
 10
2.6393079311
 20
0.1203972726
 11
2.8142849891
 21
0.0329087436
  0
LINE
  5
31E
100
AcDbEntity
  8
ASSI
100
AcDbLine
 62
7
  6
CONTINUOUS
 10
33.2316542016
 20
-15.1757758626
 11
33.2368538478
 21
-15.1783756857
  0
LINE
  5
31F
100
AcDbEntity
  8
ASSI
100
AcDbLine
 62
7
  6
CONTINUOUS
 10
5.939696962
 20
-1.3791190559
 11
2.4631875105
 21
0.3591356698
  0
LWPOLYLINE
  5
320
100
AcDbEntity
  8
ASSI
100
AcDbPolyline
 62
7
  6
CONTINUOUS
 90
3
 70
0
 10
17.8168373941
 20
-1.9287406268
 10
17.9627724192
 20
-2.0017078864
 10
18.0460892713
 20
-2.0371181167
  0
LWPOLYLINE
  5
321
100
AcDbEntity
  8
RACCORDO
100
AcDbPolyline
 62
250
  6
CONTINUOUS
 90
29
 70
0
 10
18.0421313626
 20
-9.5811709849
 10
17.9096301136
 20
-9.4990100705
 10
17.7782415687
 20
-9.4068696828
 10
17.6486029073
 20
-9.305203232
 10
17.521183513
 20
-9.1943852567
 10
17.3962979722
 20
-9.0746547123
 10
17.2743425509
 20
-8.9463028822
 10
17.1560226317
 20
-8.809981416
 10
17.042093561
 20
-8.6665265541
 10
16.9331163639
 20
-8.5166598213
 10
16.8294800609
 20
-8.3609315899
 10
16.7316262474
 20
-8.2000069937
 10
16.6399755596
 20
-8.0345791359
 10
16.5549200632
 20
-7.8653572959
 10
16.4768201913
 20
-7.6930585943
 10
16.4060090368
 20
-7.5184150939
 10
16.3427949589
 20
-7.3421841773
 10
16.2874539584
 20
-7.1651358058
 10
16.2402248325
 20
-6.9880393962
 10
16.2013062901
 20
-6.8116464569
 10
16.1708622785
 20
-6.6367007163
 10
16.1490234427
 20
-6.4639445009
 10
16.1358862712
 20
-6.2941293363
 10
16.1315080514
 20
-6.1279982524
 10
16.1359058301
 20
-5.9662729664
 10
16.1490589693
 20
-5.8096378976
 10
16.1709119551
 20
-5.6587522097
 10
16.2013739146
 20
-5.5142562629
 10
16.2216014565
 20
-5.4428438472
  0
LWPOLYLINE
  5
322
100
AcDbEntity
  8
RACCORDO
100
AcDbPolyline
 62
250
  6
CONTINUOUS
 90
24
 70
0
 10
17.7930643897
 20
-9.5094244341
 10
17.6776948121
 20
-9.4285178493
 10
17.5498594556
 20
-9.3282653039
 10
17.4242127187
 20
-9.2189884924
 10
17.301064292
 20
-9.100922984
 10
17.1808047012
 20
-8.9743560368
 10
17.064129841
 20
-8.8399303013
 10
16.9517848798
 20
-8.698470397
 10
16.8443231553
 20
-8.5506877799
 10
16.7421281275
 20
-8.3971251597
 10
16.6456351502
 20
-8.2384384352
 10
16.5552589762
 20
-8.0753110918
 10
16.471386262
 20
-7.9084425396
 10
16.394372453
 20
-7.7385399161
 10
16.3245460183
 20
-7.5663250953
 10
16.2622110181
 20
-7.3925449309
 10
16.2076396095
 20
-7.2179586802
 10
16.161067267
 20
-7.0433250622
 10
16.1226899379
 20
-6.8693851327
 10
16.0926692905
 20
-6.6968722757
 10
16.0711341532
 20
-6.5265184935
 10
16.0581796722
 20
-6.3590648606
 10
16.053862338
 20
-6.1952440739
 10
16.0578322282
 20
-6.0492541321
  0
LWPOLYLINE
  5
323
100
AcDbEntity
  8
0
100
AcDbPolyline
 62
7
  6
CONTINUOUS
 90
24
 70
0
 10
18.4071588953
 20
-9.5747732903
 10
18.2761982411
 20
-9.4828273551
 10
18.1254684859
 20
-9.3643459775
 10
17.9767120031
 20
-9.2347013863
 10
17.8318262337
 20
-9.0955472433
 10
17.6908607607
 20
-8.946761733
 10
17.553766001
 20
-8.7884666708
 10
17.4222906461
 20
-8.6226811657
 10
17.2965066795
 20
-8.4493092662
 10
17.1763421177
 20
-8.2684469237
 10
17.0633297014
 20
-8.0824011004
 10
16.9575610485
 20
-7.8911053967
 10
16.8589445412
 20
-7.6946262122
 10
16.7687380674
 20
-7.4954697073
 10
16.6870493581
 20
-7.293601586
 10
16.6137706824
 20
-7.0890561444
 10
16.5498367353
 20
-6.8844424307
 10
16.495367221
 20
-6.6797595705
 10
16.4502424353
 20
-6.4750084383
 10
16.4150379605
 20
-6.2728007062
 10
16.3898808741
 20
-6.0731689546
 10
16.3746440986
 20
-5.8760806031
 10
16.3695219845
 20
-5.6840495823
 10
16.3743032937
 20
-5.5095768446
  0
LWPOLYLINE
  5
324
100
AcDbEntity
  8
ASSI
100
AcDbPolyline
 62
7
  6
CONTINUOUS
 90
21
 70
0
 10
22.1264507202
 20
-14.144249347
 10
22.0964674619
 20
-14.1214690147
 10
22.0617290323
 20
-14.0931771082
 10
22.0285156227
 20
-14.0642121188
 10
21.996917639
 20
-14.0345757337
 10
21.967331905
 20
-14.004300716
 10
21.9398573858
 20
-13.9732044372
 10
21.9143951162
 20
-13.9414695258
 10
21.8910450237
 20
-13.909676631
 10
21.8699141957
 20
-13.8780108376
 10
21.8508955448
 20
-13.8462870608
 10
21.8337677362
 20
-13.8145306946
 10
21.818478492
 20
-13.7828759916
 10
21.8050800901
 20
-13.7511886992
 10
21.7935080292
 20
-13.7190914546
 10
21.7837609461
 20
-13.6864988141
 10
21.775840204
 20
-13.6534962215
 10
21.7696853904
 20
-13.6199626446
 10
21.765276368
 20
-13.5858577397
 10
21.7626332743
 20
-13.5512218505
 10
21.7617561091
 20
-13.5160549772
  0
LWPOLYLINE
  5
325
100
AcDbEntity
  8
ASSI
100
AcDbPolyline
 62
7
  6
CONTINUOUS
 90
13
 70
0
 10
22.2361960489
 20
-14.0940777279
 10
22.199726058
 20
-14.0662297246
 10
22.1649681086
 20
-14.0377704705
 10
22.1318972818
 20
-14.0087749376
 10
22.1005384966
 20
-13.9791681539
 10
22.0710867605
 20
-13.9487729652
 10
22.0435090391
 20
-13.9172588685
 10
22.0178383668
 20
-13.8849563668
 10
21.9943688553
 20
-13.8526798146
 10
21.9732465218
 20
-13.8205774193
 10
21.9543253491
 20
-13.7885009737
 10
21.9374613966
 20
-13.7568202098
 10
21.9227258035
 20
-13.7259336331
  0
LINE
  5
326
100
AcDbEntity
  8
ASSI
100
AcDbLine
 62
7
  6
CONTINUOUS
 10
21.7334668665
 20
-12.0725169031
 11
21.9739514038
 21
-12.2652772113
  0
LINE
  5
327
100
AcDbEntity
  8
ASSI
100
AcDbLine
 62
7
  6
CONTINUOUS
 10
21.9268103715
 20
-12.0894411385
 11
21.8395328837
 21
-12.0194838946
  0
LINE
  5
328
100
AcDbEntity
  8
ASSI
100
AcDbLine
 62
7
  6
CONTINUOUS
 10
21.9030573939
 20
-12.0023806772
 11
21.7334668665
 21
-11.8664021642
  0
LWPOLYLINE
  5
329
100
AcDbEntity
  8
RACCORDO
100
AcDbPolyline
 62
250
  6
CONTINUOUS
 90
18
 70
0
 10
18.4417187439
 20
-8.864652629
 10
18.3247758098
 20
-8.7607062709
 10
18.193897459
 20
-8.6373212834
 10
18.0652818938
 20
-8.5088265628
 10
17.9389270428
 20
-8.3752893696
 10
17.816151139
 20
-8.2380281098
 10
17.6969762665
 20
-8.0969845352
 10
17.5813803411
 20
-7.9522168939
 10
17.470615343
 20
-7.805218336
 10
17.3647325798
 20
-7.6559610804
 10
17.2636807438
 20
-7.5044729082
 10
17.1685578915
 20
-7.352330312
 10
17.0794205449
 20
-7.1995060009
 10
16.9962121821
 20
-7.0460272659
 10
16.9198612932
 20
-6.8935524727
 10
16.8506773752
 20
-6.74263441
 10
16.7883509313
 20
-6.5927202891
 10
16.7328819614
 20
-6.44381011
  0
LINE
  5
32A
100
AcDbEntity
  8
0
100
AcDbLine
 62
7
  6
CONTINUOUS
 10
21.0957447288
 20
-18.0671437311
 11
21.145861684
 21
-18.1132424605
  0
LWPOLYLINE
  5
32B
100
AcDbEntity
  8
0
100
AcDbPolyline
 62
7
  6
CONTINUOUS
 90
10
 70
0
 10
21.8852378622
 20
-16.1830510424
 10
21.9312353972
 20
-16.2270203328
 10
21.9792012748
 20
-16.2785329261
 10
22.0289623386
 20
-16.3375815603
 10
22.0809264176
 20
-16.4045597747
 10
22.1344012254
 20
-16.4790528926
 10
22.187345925
 20
-16.5599333677
 10
22.2387551446
 20
-16.6469282589
 10
22.2889065821
 20
-16.7405220054
 10
22.3375032177
 20
-16.8408136192
  0
LWPOLYLINE
  5
32C
100
AcDbEntity
  8
RACCORDO
100
AcDbPolyline
 62
250
  6
CONTINUOUS
 90
16
 70
0
 10
18.3793842634
 20
-8.410846048
 10
18.2784850669
 20
-8.3118436733
 10
18.1600414009
 20
-8.1890693782
 10
18.0444599492
 20
-8.0623852127
 10
17.932068402
 20
-7.9322347394
 10
17.8232209183
 20
-7.7990855052
 10
17.7184453168
 20
-7.6633387544
 10
17.6180389325
 20
-7.5254961805
 10
17.5222957071
 20
-7.3860537355
 10
17.4317090408
 20
-7.2454245244
 10
17.3465160263
 20
-7.1041222865
 10
17.2669611073
 20
-6.962681126
 10
17.1935098578
 20
-6.8215547673
 10
17.1264279327
 20
-6.6812486415
 10
17.0657887245
 20
-6.5423169966
 10
17.0117287709
 20
-6.4052851481
  0
LWPOLYLINE
  5
32D
100
AcDbEntity
  8
0
100
AcDbPolyline
 62
250
  6
CONTINUOUS
 90
34
 70
0
 10
21.0325404257
 20
-16.6597403836
 10
21.0707752665
 20
-16.6979156889
 10
21.1095785293
 20
-16.7398959854
 10
21.148805236
 20
-16.7856997544
 10
21.1886908962
 20
-16.8359504403
 10
21.2287537875
 20
-16.8900584264
 10
21.2676750668
 20
-16.9462604249
 10
21.3051048542
 20
-17.0046947126
 10
21.3409693694
 20
-17.06534241
 10
21.3742242545
 20
-17.1262608888
 10
21.4044332512
 20
-17.187370946
 10
21.4316216433
 20
-17.2488982161
 10
21.4554076081
 20
-17.3093751368
 10
21.4755213658
 20
-17.368636532
 10
21.4919597065
 20
-17.4269584062
 10
21.5047722025
 20
-17.4835249549
 10
21.5139011929
 20
-17.5382282365
 10
21.519281026
 20
-17.5912299827
 10
21.5209861397
 20
-17.6421035972
 10
21.5190783061
 20
-17.6908897878
 10
21.5134968374
 20
-17.7375473625
 10
21.5041640292
 20
-17.7815129132
 10
21.4911451696
 20
-17.8229269443
 10
21.4745008313
 20
-17.8615940976
 10
21.4541833006
 20
-17.8964318156
 10
21.430170877
 20
-17.9274667102
 10
21.4027622016
 20
-17.9545599388
 10
21.3724180635
 20
-17.9763722789
 10
21.3391211138
 20
-17.9926668717
 10
21.3032927524
 20
-18.0035372684
 10
21.2660138817
 20
-18.0081607636
 10
21.2274127566
 20
-18.0062539904
 10
21.1877610488
 20
-17.9979890248
 10
21.1482246851
 20
-17.9832791987
  0
LINE
  5
32E
100
AcDbEntity
  8
0
100
AcDbLine
 62
7
  6
CONTINUOUS
 10
21.0957447315
 20
-18.0671437338
 11
21.0951948558
 21
-18.0665888818
  0
LWPOLYLINE
  5
32F
100
AcDbEntity
  8
0
100
AcDbPolyline
 62
7
  6
CONTINUOUS
 90
9
 70
0
 10
21.2489507555
 20
-16.4371633878
 10
21.3148257761
 20
-16.5041371701
 10
21.3822531688
 20
-16.5774906053
 10
21.4516655713
 20
-16.6584942299
 10
21.521920526
 20
-16.7459560121
 10
21.589944418
 20
-16.8363588061
 10
21.6541866984
 20
-16.9287138123
 10
21.7149723972
 20
-17.0244180927
 10
21.7718177927
 20
-17.1236563317
  0
LWPOLYLINE
  5
330
100
AcDbEntity
  8
0
100
AcDbPolyline
 62
7
  6
CONTINUOUS
 90
3
 70
0
 10
21.0488410367
 20
-18.1446521252
 10
21.1138283881
 20
-18.2138292018
 10
21.1850497264
 20
-18.2817859829
  0
LINE
  5
331
100
AcDbEntity
  8
0
100
AcDbLine
 62
7
  6
CONTINUOUS
 10
21.0172961561
 20
-17.9835041553
 11
21.0951948558
 21
-18.0665888818
  0
LWPOLYLINE
  5
332
100
AcDbEntity
  8
0
100
AcDbPolyline
 62
250
  6
CONTINUOUS
 90
4
 70
0
 10
21.0325404431
 20
-17.9002580499
 10
20.9448296227
 20
-17.8057642801
 10
20.8674866872
 20
-17.708753352
 10
20.8009482428
 20
-17.609487802
  0
LWPOLYLINE
  5
333
100
AcDbEntity
  8
0
100
AcDbPolyline
 62
7
  6
CONTINUOUS
 90
10
 70
0
 10
21.1104211084
 20
-16.4350734855
 10
21.172861966
 20
-16.5026200575
 10
21.2367179465
 20
-16.5771265877
 10
21.3012907174
 20
-16.6586886123
 10
21.3668204884
 20
-16.7491396307
 10
21.4318994406
 20
-16.8468474701
 10
21.4930642008
 20
-16.9468562486
 10
21.5488930894
 20
-17.0492063364
 10
21.5992604209
 20
-17.154369526
 10
21.642352992
 20
-17.2581891912
  0
LWPOLYLINE
  5
334
100
AcDbEntity
  8
0
100
AcDbPolyline
 62
250
  6
CONTINUOUS
 90
6
 70
0
 10
21.0951948558
 20
-18.0665888818
 10
21.0801517924
 20
-18.0495438391
 10
21.0675832893
 20
-18.0317310224
 10
21.056840065
 20
-18.0125224866
 10
21.0479930697
 20
-17.9920450878
 10
21.04110073
 20
-17.9704340612
  0
LINE
  5
335
100
AcDbEntity
  8
RACCORDO
100
AcDbLine
 62
250
  6
CONTINUOUS
 10
16.6168857907
 20
-18.1192282108
 11
16.5817085019
 21
-18.0760418814
  0
LWPOLYLINE
  5
336
100
AcDbEntity
  8
ASSI
100
AcDbPolyline
 62
250
  6
CONTINUOUS
 90
9
 70
0
 10
18.1321912116
 20
-18.8494819626
 10
18.133735047
 20
-18.8515258097
 10
18.1392278205
 20
-18.8540201472
 10
18.1481963807
 20
-18.8550390688
 10
18.160492908
 20
-18.8544004311
 10
18.1761976625
 20
-18.8524619339
 10
18.1951980587
 20
-18.8492377154
 10
18.2171546939
 20
-18.8444044775
 10
18.2417759616
 20
-18.8378360976
  0
LWPOLYLINE
  5
337
100
AcDbEntity
  8
RACCORDO
100
AcDbPolyline
 62
7
  6
CONTINUOUS
 90
3
 70
0
 10
16.6400632011
 20
-18.1872211168
 10
16.6087086834
 20
-18.1453507769
 10
16.5761937559
 20
-18.1054143163
  0
LINE
  5
338
100
AcDbEntity
  8
RACCORDO
100
AcDbLine
 62
250
  6
CONTINUOUS
 10
16.6505351522
 20
-18.1641509107
 11
16.6168857907
 21
-18.1192282108
  0
LINE
  5
339
100
AcDbEntity
  8
ASSI
100
AcDbLine
 62
250
  6
CONTINUOUS
 10
18.2169778823
 20
-18.8040599462
 11
18.2417759616
 21
-18.8378360976
  0
LWPOLYLINE
  5
33A
100
AcDbEntity
  8
0
100
AcDbPolyline
 62
7
  6
CONTINUOUS
 90
3
 70
0
 10
20.9374797681
 20
-18.0024976334
 10
20.9900876722
 20
-18.0742547531
 10
21.0488410367
 20
-18.1446521252
  0
LINE
  5
33B
100
AcDbEntity
  8
ASSI
100
AcDbLine
 62
250
  6
CONTINUOUS
 10
18.1950625392
 20
-18.7691912757
 11
18.2169778823
 21
-18.8040599462
  0
LWPOLYLINE
  5
33C
100
AcDbEntity
  8
DRAFT
100
AcDbPolyline
 62
7
  6
CONTINUOUS
 90
13
 70
0
 10
16.88175306
 20
-19.0001607126
 10
16.9810867366
 20
-19.1936368201
 10
17.0874486345
 20
-19.3819110007
 10
17.2014135981
 20
-19.5658203573
 10
17.322406783
 20
-19.7445277869
 10
17.4487036562
 20
-19.9155219808
 10
17.5801924849
 20
-20.0784988198
 10
17.7169850019
 20
-20.2337624231
 10
17.8576918728
 20
-20.3797138399
 10
18.0026267229
 20
-20.5164792842
 10
18.151475927
 20
-20.643932542
 10
18.3019092747
 20
-20.7600960202
 10
18.4071861047
 20
-20.8326147058
  0
LWPOLYLINE
  5
33D
100
AcDbEntity
  8
ASSI
100
AcDbPolyline
 62
7
  6
CONTINUOUS
 90
10
 70
0
 10
3.9542308327
 20
-9.9015929063
 10
3.8752146567
 20
-9.6438325645
 10
3.797432637
 20
-9.3860499255
 10
3.7208847736
 20
-9.1282449894
 10
3.6455834689
 20
-8.8704636915
 10
3.5715163204
 20
-8.6126600965
 10
3.4986461211
 20
-8.3546963981
 10
3.4269604687
 20
-8.0965266608
 10
3.3564717653
 20
-7.8381968199
 10
3.2871800112
 20
-7.5797068757
  0
LWPOLYLINE
  5
33E
100
AcDbEntity
  8
0
100
AcDbPolyline
 62
7
  6
CONTINUOUS
 90
16
 70
0
 10
1.4875842942
 20
12.5513252582
 10
1.4760487145
 20
12.5901907003
 10
1.4666842922
 20
12.6296240011
 10
1.4594568657
 20
12.6694361731
 10
1.4542610294
 20
12.7095144712
 10
1.4511087437
 20
12.7495956486
 10
1.4501083243
 20
12.7892653184
 10
1.4511836149
 20
12.8282957163
 10
1.4542226236
 20
12.8665630572
 10
1.4592485646
 20
12.9038200107
 10
1.4661632417
 20
12.9398897003
 10
1.4748449932
 20
12.9746555834
 10
1.4852777271
 20
13.0079745654
 10
1.4973653306
 20
13.0397277058
 10
1.5109789918
 20
13.0697975493
 10
1.5260548397
 20
13.0980566152
  0
LWPOLYLINE
  5
33F
100
AcDbEntity
  8
ASSI
100
AcDbPolyline
 62
7
  6
CONTINUOUS
 90
3
 70
0
 10
3.0213316696
 20
-6.4935887832
 10
3.1483673209
 20
-7.0355442972
 10
3.2871800112
 20
-7.5797068757
  0
LWPOLYLINE
  5
340
100
AcDbEntity
  8
ASSI
100
AcDbPolyline
 62
7
  6
CONTINUOUS
 90
3
 70
0
 10
2.8051923623
 20
-5.4297391446
 10
2.9060730572
 20
-5.9538403337
 10
3.0213316696
 20
-6.4935887832
  0
LWPOLYLINE
  5
341
100
AcDbEntity
  8
ASSI
100
AcDbPolyline
 62
7
  6
CONTINUOUS
 90
16
 70
0
 10
2.0865252375
 20
-1.8721825734
 10
2.0639264781
 20
-1.7326085125
 10
2.043266905
 20
-1.5935145121
 10
2.0245535727
 20
-1.4549480688
 10
2.0077928715
 20
-1.3169564992
 10
1.9929905245
 20
-1.1795869238
 10
1.9801515865
 20
-1.0428862503
 10
1.9692804415
 20
-0.9069011584
 10
1.9603808017
 20
-0.771678083
 10
1.9534557061
 20
-0.6372631992
 10
1.9485075195
 20
-0.503702406
 10
1.9455379315
 20
-0.3710413106
 10
1.9445479562
 20
-0.2393252132
 10
1.9455379315
 20
-0.1085990911
 10
1.9485075195
 20
0.0210924163
 10
1.9522642996
 20
0.1187381436
  0
LINE
  5
342
100
AcDbEntity
  8
0
100
AcDbLine
 62
7
  6
CONTINUOUS
 10
10.6066017178
 20
17.2450628914
 11
10.6066017178
 21
16.9451521517
  0
LWPOLYLINE
  5
343
100
AcDbEntity
  8
ASSI
100
AcDbPolyline
 62
250
  6
CONTINUOUS
 90
15
 70
0
 10
14.0000839287
 20
4.9784515023
 10
13.9990946375
 20
4.9746491061
 10
13.9686140566
 20
4.8175972267
 10
13.9469667933
 20
4.6541393299
 10
13.9340515179
 20
4.4843452496
 10
13.9300151979
 20
4.3101457102
 10
13.9349593091
 20
4.1314899022
 10
13.9487823756
 20
3.948428635
 10
13.9713269372
 20
3.7630450613
 10
14.002699574
 20
3.5752960095
 10
14.0427937058
 20
3.3852246512
 10
14.0911321318
 20
3.1950436526
 10
14.1475557848
 20
3.0054905693
 10
14.2122237318
 20
2.8158278457
 10
14.285135973
 20
2.6260554819
  0
LWPOLYLINE
  5
344
100
AcDbEntity
  8
ASSI
100
AcDbPolyline
 62
7
  6
CONTINUOUS
 90
36
 70
0
 10
15.4393245516
 20
2.5592853203
 10
15.3891747111
 20
2.4347976321
 10
15.3478632288
 20
2.3051866783
 10
15.3145136297
 20
2.1686505429
 10
15.2892648446
 20
2.0257548114
 10
15.2722215299
 20
1.8770891907
 10
15.2634544113
 20
1.7232667604
 10
15.2630000562
 20
1.5649244584
 10
15.2708603942
 20
1.4027161587
 10
15.2870030512
 20
1.2373110234
 10
15.3113612512
 20
1.0693930845
 10
15.343834188
 20
0.8996561719
 10
15.3842878007
 20
0.7288001998
 10
15.4325552466
 20
0.5575295943
 10
15.4884373002
 20
0.3865512698
 10
15.5517033097
 20
0.2165709253
 10
15.6220924892
 20
0.048289367
 10
15.6993145627
 20
-0.1175991237
 10
15.7830507517
 20
-0.2804094644
 10
15.8729553964
 20
-0.4394693962
 10
15.9686575072
 20
-0.5941224098
 10
16.0697620784
 20
-0.7437300392
 10
16.1758515559
 20
-0.8876743401
 10
16.2864879581
 20
-1.0253610402
 10
16.4012147068
 20
-1.1562219193
 10
16.519558233
 20
-1.2797167904
 10
16.641030046
 20
-1.3953358852
 10
16.765128766
 20
-1.5026019672
 10
16.8913421709
 20
-1.6010722749
 10
17.0191493244
 20
-1.6903403573
 10
17.1480226523
 20
-1.7700377039
 10
17.2774301335
 20
-1.8398352948
 10
17.4068376149
 20
-1.8994450267
 10
17.5357109406
 20
-1.9486208476
 10
17.6635180859
 20
-1.9871597542
 10
17.7193245516
 20
-2.0007146797
  0
LINE
  5
345
100
AcDbEntity
  8
ASSI
100
AcDbLine
 62
7
  6
CONTINUOUS
 10
15.8699005763
 20
3.4600187769
 11
15.5800026278
 21
2.8150698026
  0
LWPOLYLINE
  5
346
100
AcDbEntity
  8
ASSI
100
AcDbPolyline
 62
7
  6
CONTINUOUS
 90
3
 70
0
 10
15.5800026278
 20
2.8150698026
 10
15.5746374264
 20
2.8038032407
 10
15.5590059
 20
2.7768930142
  0
LINE
  5
347
100
AcDbEntity
  8
RACCORDO
100
AcDbLine
 62
250
  6
CONTINUOUS
 10
16.1315080456
 20
2.0990516973
 11
16.3695219845
 21
2.5431917537
  0
LWPOLYLINE
  5
348
100
AcDbEntity
  8
RACCORDO
100
AcDbPolyline
 62
250
  6
CONTINUOUS
 90
10
 70
0
 10
16.1315080456
 20
2.0990516973
 10
16.1265030909
 20
2.0906928408
 10
16.1205345552
 20
2.0824936322
 10
16.1136226341
 20
2.074481815
 10
16.1057907153
 20
2.0666844988
 10
16.0970652995
 20
2.059128067
 10
16.087475911
 20
2.0518380886
 10
16.0770549972
 20
2.0448392305
 10
16.065837819
 20
2.0381551745
 10
16.0538623321
 20
2.0318085374
  0
LWPOLYLINE
  5
349
100
AcDbEntity
  8
ASSI
100
AcDbPolyline
 62
7
  6
CONTINUOUS
 90
3
 70
0
 10
15.5590059
 20
2.7768930142
 10
15.4949650226
 20
2.6711371011
 10
15.4393245516
 20
2.5592853203
  0
LWPOLYLINE
  5
34A
100
AcDbEntity
  8
ASSI
100
AcDbPolyline
 62
250
  6
CONTINUOUS
 90
45
 70
0
 10
14.9384348172
 20
2.4233315024
 10
14.8742149965
 20
2.3201776409
 10
14.8172516513
 20
2.2086045662
 10
14.7677819602
 20
2.0890768351
 10
14.7260119003
 20
1.9620921252
 10
14.6921153899
 20
1.828179163
 10
14.666233564
 20
1.6878955224
 10
14.648474187
 20
1.5418253022
 10
14.6389112036
 20
1.3905766955
 10
14.6375844315
 20
1.2347794579
 10
14.6444994012
 20
1.0750821857
 10
14.659627324
 20
0.9121499039
 10
14.6829051623
 20
0.7466613156
 10
14.7142359097
 20
0.5793056685
 10
14.7534890942
 20
0.4107795962
 10
14.800501319
 20
0.2417845123
 10
14.8550768027
 20
0.073024154
 10
14.9169883339
 20
-0.0947989218
 10
14.9859783784
 20
-0.2609865247
 10
15.0617599286
 20
-0.4248470485
 10
15.1440173693
 20
-0.5856978252
 10
15.2324079623
 20
-0.7428685709
 10
15.3265634913
 20
-0.8957045894
 10
15.4260920758
 20
-1.0435698091
 10
15.530579547
 20
-1.1858488765
 10
15.6395910587
 20
-1.3219495559
 10
15.7526725733
 20
-1.4513048754
 10
15.8693529572
 20
-1.5733758691
 10
15.9891464382
 20
-1.6876543274
 10
16.1115541563
 20
-1.793664362
 10
16.2360658991
 20
-1.8909641883
 10
16.3621628305
 20
-1.9791485516
 10
16.4893202696
 20
-2.0578507105
 10
16.6170093601
 20
-2.1267434083
 10
16.7446984503
 20
-2.1855398005
 10
16.8718558876
 20
-2.2339950798
 10
16.9979528151
 20
-2.2719076467
 10
17.1224645503
 20
-2.2991195619
 10
17.244872259
 20
-2.3155172454
 10
17.3646657326
 20
-2.3210322697
 10
17.4813461118
 20
-2.3156416629
 10
17.5944276236
 20
-2.2993678616
 10
17.7034391363
 20
-2.2722786972
 10
17.8079266138
 20
-2.2344871023
 10
17.8692074253
 20
-2.2062684114
  0
LWPOLYLINE
  5
34B
100
AcDbEntity
  8
ASSI
100
AcDbPolyline
 62
250
  6
CONTINUOUS
 90
52
 70
0
 10
14.285135973
 20
2.6260554819
 10
14.2122234392
 20
2.509194715
 10
14.1475552941
 20
2.3841994192
 10
14.0911315377
 20
2.2510695946
 10
14.042793132
 20
2.109226786
 10
14.0026991149
 20
1.9592494484
 10
13.9713266009
 20
1.8028729473
 10
13.9487821455
 20
1.6400338357
 10
13.9349591932
 20
1.4707955605
 10
13.9300151922
 20
1.2970838277
 10
13.9340516055
 20
1.118848024
 10
13.9469669702
 20
0.9361387628
 10
13.9686143452
 20
0.75103359
 10
13.9990950388
 20
0.5635010001
 10
14.0383077427
 20
0.3735724986
 10
14.0858015914
 20
0.1834201489
 10
14.1416732308
 20
-0.0069583454
 10
14.2058260151
 20
-0.1975606879
 10
14.2775191406
 20
-0.3862079261
 10
14.3568374604
 20
-0.5728719298
 10
14.4436961214
 20
-0.7575808291
 10
14.5370997609
 20
-0.9382400627
 10
14.6371206836
 20
-1.1148003147
 10
14.7436865848
 20
-1.2873109009
 10
14.8555851876
 20
-1.4538252076
 10
14.9728751025
 20
-1.6142741992
 10
15.0954977191
 20
-1.7687269112
 10
15.2220649291
 20
-1.9154438357
 10
15.3526201659
 20
-2.0543378301
 10
15.4871199961
 20
-2.185496037
 10
15.6240460121
 20
-2.3074403767
 10
15.7634275108
 20
-2.4200689011
 10
15.9052351953
 20
-2.5234835582
 10
16.047862768
 20
-2.6165121127
 10
16.1913214133
 20
-2.699037122
 10
16.3355999468
 20
-2.7711760287
 10
16.4790585175
 20
-2.8321089248
 10
16.6216859173
 20
-2.8817071848
 10
16.7634933544
 20
-2.9200994344
 10
16.902874602
 20
-2.9468516428
 10
17.0398004099
 20
-2.9618325704
 10
17.1743000285
 20
-2.9651734569
 10
17.3048549822
 20
-2.9568339901
 10
17.4314218244
 20
-2.9366835698
 10
17.5540440017
 20
-2.9048527963
 10
17.6713333786
 20
-2.8616931582
 10
17.7832312975
 20
-2.8070770338
 10
17.8897964161
 20
-2.7411320449
 10
17.9898165714
 20
-2.6645925451
 10
18.0832194803
 20
-2.5773369269
 10
18.1700774259
 20
-2.4794867979
 10
18.2493950949
 20
-2.3721413353
  0
LWPOLYLINE
  5
34C
100
AcDbEntity
  8
ASSI
100
AcDbPolyline
 62
7
  6
CONTINUOUS
 90
9
 70
0
 10
44.6871440319
 20
15.0316110308
 10
44.7021729104
 20
15.0407903518
 10
44.7148667922
 20
15.0502954544
 10
44.7252227271
 20
15.0601129163
 10
44.7331708589
 20
15.0702472398
 10
44.738775733
 20
15.0806693343
 10
44.7422364225
 20
15.091317154
 10
44.7436634652
 20
15.1021358337
 10
44.743695967
 20
15.1038609203
  0
LWPOLYLINE
  5
34D
100
AcDbEntity
  8
ASSI
100
AcDbPolyline
 62
250
  6
CONTINUOUS
 90
43
 70
0
 10
51.35958208
 20
12.9899788911
 10
51.5507676895
 20
13.0933011917
 10
51.731384102
 20
13.2000463473
 10
51.9012960544
 20
13.3095029118
 10
52.0593887847
 20
13.4206835681
 10
52.2065690503
 20
13.5332166283
 10
52.3457685299
 20
13.6475297247
 10
52.4766478112
 20
13.7625626466
 10
52.5994402386
 20
13.8785142123
 10
52.7179544398
 20
13.9981695795
 10
52.8328137529
 20
14.1216326241
 10
52.9433194968
 20
14.2485974485
 10
53.0512888591
 20
14.3816939868
 10
53.1579085835
 20
14.5224732566
 10
53.2618923692
 20
14.669592008
 10
53.3613465745
 20
14.8213914614
 10
53.4561821854
 20
14.9781914159
 10
53.5464084067
 20
15.1395652672
 10
53.6303141704
 20
15.3024385419
 10
53.7073448707
 20
15.4659783294
 10
53.7780425413
 20
15.6305570974
 10
53.8423791073
 20
15.7946999864
 10
53.9000714569
 20
15.9573525504
 10
53.9514351684
 20
16.1190670051
 10
53.9973435119
 20
16.2807977335
 10
54.0379022155
 20
16.4419848842
 10
54.0730317541
 20
16.6028585295
 10
54.103299082
 20
16.7656987358
 10
54.1289755581
 20
16.9310049491
 10
54.1497800252
 20
17.0981474699
 10
54.1654268316
 20
17.2678098882
 10
54.176026251
 20
17.4398539271
 10
54.1814577593
 20
17.6143130158
 10
54.1810796388
 20
17.792163458
 10
54.1751644605
 20
17.9728403936
 10
54.1634231062
 20
18.1568365637
 10
54.1443484973
 20
18.3467770274
 10
54.118370524
 20
18.5427576052
 10
54.0850031964
 20
18.7447090673
 10
54.0413374733
 20
18.955074698
 10
53.9863726597
 20
19.174699537
 10
53.92102732
 20
19.4028054731
 10
53.8452594496
 20
19.6394220965
  0
LWPOLYLINE
  5
34E
100
AcDbEntity
  8
ASSI
100
AcDbPolyline
 62
250
  6
CONTINUOUS
 90
15
 70
0
 10
15.3648112905
 20
-5.4247174778
 10
15.3115714535
 20
-5.4532797938
 10
15.2170095657
 20
-5.514470642
 10
15.1284426782
 20
-5.58600137
 10
15.0462500594
 20
-5.667565667
 10
14.9707836942
 20
-5.7588142322
 10
14.9023667607
 20
-5.859356276
 10
14.8412921929
 20
-5.9687612889
 10
14.7878214713
 20
-6.0865608808
 10
14.7421835598
 20
-6.2122506894
 10
14.7045739269
 20
-6.3452924526
 10
14.6751536499
 20
-6.4851164043
 10
14.6540487157
 20
-6.6311237719
 10
14.6413494953
 20
-6.7826893525
 10
14.6371103706
 20
-6.9391641189
  0
LINE
  5
34F
100
AcDbEntity
  8
ASSI
100
AcDbLine
 62
250
  6
CONTINUOUS
 10
3.9542296546
 20
-9.901592963
 11
-3.6478518577
 21
-13.6224399613
  0
LINE
  5
350
100
AcDbEntity
  8
ASSI
100
AcDbLine
 62
250
  6
CONTINUOUS
 10
-4.319560792
 20
-11.2842683292
 11
3.2870950374
 21
-7.5793442074
  0
LWPOLYLINE
  5
351
100
AcDbEntity
  8
ASSI
100
AcDbPolyline
 62
7
  6
CONTINUOUS
 90
46
 70
0
 10
15.3648112905
 20
-5.4247174778
 10
15.4379608024
 20
-5.3929485739
 10
15.5131648752
 20
-5.3693262511
 10
15.5901915668
 20
-5.3533295539
 10
15.6682481579
 20
-5.3445166075
 10
15.7473282368
 20
-5.3423203872
 10
15.8284078321
 20
-5.3463953104
 10
15.9112427734
 20
-5.3565893331
 10
15.9952347688
 20
-5.372674096
 10
16.0810500871
 20
-5.3946976336
 10
16.1684777647
 20
-5.4226299065
 10
16.2569889194
 20
-5.4563090274
 10
16.3469549337
 20
-5.4959187006
 10
16.4381606788
 20
-5.5414680938
 10
16.5301577229
 20
-5.5928245323
 10
16.6230643254
 20
-5.6501625377
 10
16.716723544
 20
-5.7135376698
 10
16.8106518694
 20
-5.7827669287
 10
16.9045214446
 20
-5.8577295798
 10
16.9980137972
 20
-5.9382837226
 10
17.0908218362
 20
-6.0242704356
 10
17.1826631472
 20
-6.1155301461
 10
17.2732463024
 20
-6.2118729946
 10
17.3622666935
 20
-6.3130694515
 10
17.4494442187
 20
-6.4188904645
 10
17.5345306781
 20
-6.5291244787
 10
17.6172170331
 20
-6.6434564521
 10
17.6971596957
 20
-6.7614767211
 10
17.7740915139
 20
-6.8828365376
 10
17.8477999752
 20
-7.0072406042
 10
17.9180536111
 20
-7.1343341438
 10
17.9846590225
 20
-7.2637985126
 10
18.0474024324
 20
-7.3952426048
 10
18.1060536929
 20
-7.5281846277
 10
18.1604428094
 20
-7.6622121377
 10
18.2104440637
 20
-7.7969755069
 10
18.2559274816
 20
-7.9320719067
 10
18.2967916923
 20
-8.0671295482
 10
18.3329420436
 20
-8.2017422152
 10
18.3642912571
 20
-8.3354447507
 10
18.3907985352
 20
-8.4678692076
 10
18.4124342285
 20
-8.5986142523
 10
18.429177024
 20
-8.7271593462
 10
18.4410539138
 20
-8.8530866677
 10
18.4481244675
 20
-8.9760921706
 10
18.4504617358
 20
-9.0958398018
  0
LINE
  5
352
100
AcDbEntity
  8
ASSI
100
AcDbLine
 62
7
  6
CONTINUOUS
 10
17.933495329
 20
-2.1694522542
 11
17.8448569392
 21
-2.2015690989
  0
LINE
  5
353
100
AcDbEntity
  8
ASSI
100
AcDbLine
 62
7
  6
CONTINUOUS
 10
26.1875096366
 20
16.745014963
 11
26.199694816
 21
16.7481744764
  0
LWPOLYLINE
  5
354
100
AcDbEntity
  8
ASSI
100
AcDbPolyline
 62
7
  6
CONTINUOUS
 90
33
 70
0
 10
26.199694816
 20
16.7481744764
 10
26.2705482244
 20
16.7645060759
 10
26.342982919
 20
16.7792086853
 10
26.4171613861
 20
16.7923100951
 10
26.4929212036
 20
16.8037845538
 10
26.5697750588
 20
16.8135532297
 10
26.6477382947
 20
16.8216048579
 10
26.7267956652
 20
16.827953523
 10
26.8064140033
 20
16.8325591509
 10
26.8865562122
 20
16.8354121745
 10
26.9672595088
 20
16.8365254727
 10
27.0481022175
 20
16.8358931645
 10
27.1291427705
 20
16.833504353
 10
27.2103228625
 20
16.8293733081
 10
27.2910457277
 20
16.8235322827
 10
27.3712419716
 20
16.8159784941
 10
27.4509811209
 20
16.806718136
 10
27.5298748021
 20
16.7957971562
 10
27.6079896775
 20
16.7831956021
 10
27.6852592033
 20
16.7689364181
 10
27.7610951999
 20
16.7531299666
 10
27.8354227926
 20
16.7357814739
 10
27.908316957
 20
16.7168882183
 10
27.9794142878
 20
16.6965485971
 10
28.048749026
 20
16.6747426616
 10
28.1162870014
 20
16.6514920935
 10
28.1815621857
 20
16.6269575789
 10
28.244542227
 20
16.6011354744
 10
28.3052595134
 20
16.5740303024
 10
28.3633451178
 20
16.5458147876
 10
28.4186760638
 20
16.5165464889
 10
28.4713753257
 20
16.4861677978
 10
28.521442893
 20
16.4546784566
  0
LWPOLYLINE
  5
355
100
AcDbEntity
  8
ASSI
100
AcDbPolyline
 62
7
  6
CONTINUOUS
 90
10
 70
0
 10
42.595632775
 20
15.5729703076
 10
42.8969148975
 20
15.5887828264
 10
43.2007049127
 20
15.616554575
 10
43.5070028204
 20
15.6562855535
 10
43.8160598191
 20
15.7080271321
 10
44.1276247105
 20
15.7717279405
 10
44.4409438993
 20
15.8472338685
 10
44.7557661872
 20
15.9344935459
 10
45.0723427726
 20
16.0335583428
 10
45.3906736554
 20
16.1444282593
  0
LWPOLYLINE
  5
356
100
AcDbEntity
  8
ASSI
100
AcDbPolyline
 62
7
  6
CONTINUOUS
 90
7
 70
0
 10
43.1835891722
 20
15.232654747
 10
43.365502528
 20
15.2410643492
 10
43.5484342199
 20
15.2538564506
 10
43.7323842479
 20
15.2710310514
 10
43.9173526119
 20
15.2925881514
 10
44.103339312
 20
15.3185277506
 10
44.2903443482
 20
15.3488498492
  0
LWPOLYLINE
  5
357
100
AcDbEntity
  8
ASSI
100
AcDbPolyline
 62
7
  6
CONTINUOUS
 90
7
 70
0
 10
43.1835891722
 20
15.278992109
 10
43.3654848537
 20
15.2871062306
 10
43.548405941
 20
15.2996198281
 10
43.7323524341
 20
15.3165329014
 10
43.917324333
 20
15.3378454507
 10
44.1033216377
 20
15.3635574759
 10
44.2903443482
 20
15.3936689769
  0
LINE
  5
358
100
AcDbEntity
  8
ASSI
100
AcDbLine
 62
7
  6
CONTINUOUS
 10
1.9992407657
 20
10.9788730838
 11
15.6784287639
 21
4.1392790847
  0
LINE
  5
359
100
AcDbEntity
  8
ASSI
100
AcDbLine
 62
250
  6
CONTINUOUS
 10
1.4875842942
 20
12.5513252582
 11
16.1900852355
 21
5.2000747876
  0
LINE
  5
35A
100
AcDbEntity
  8
0
100
AcDbLine
 62
7
  6
CONTINUOUS
 10
1.5789645336
 20
13.171088184
 11
16.6007879268
 21
5.6601764874
  0
LINE
  5
35B
100
AcDbEntity
  8
ASSI
100
AcDbLine
 62
7
  6
CONTINUOUS
 10
17.6717239363
 20
-1.845301881
 11
17.8168373941
 21
-1.9287406268
  0
LWPOLYLINE
  5
35C
100
AcDbEntity
  8
0
100
AcDbPolyline
 62
7
  6
CONTINUOUS
 90
18
 70
0
 10
18.0629974195
 20
-1.0826597145
 10
17.9767120031
 20
-1.0074600503
 10
17.8318262337
 20
-0.8683059073
 10
17.6908607607
 20
-0.719520397
 10
17.553766001
 20
-0.5612253349
 10
17.4222906461
 20
-0.3954398297
 10
17.2965066795
 20
-0.2220679303
 10
17.1763421177
 20
-0.0412055878
 10
17.0633297014
 20
0.1448402356
 10
16.9575610485
 20
0.3361359393
 10
16.8589445412
 20
0.5326151238
 10
16.7687380674
 20
0.7317716287
 10
16.6870493581
 20
0.9336397499
 10
16.6137706824
 20
1.1381851916
 10
16.5498367353
 20
1.3427989052
 10
16.495367221
 20
1.5474817654
 10
16.4502424353
 20
1.7522328976
 10
16.4150379605
 20
1.9544406297
  0
LWPOLYLINE
  5
35D
100
AcDbEntity
  8
ASSI
100
AcDbPolyline
 62
7
  6
CONTINUOUS
 90
13
 70
0
 10
22.3234595189
 20
-14.0269026316
 10
22.3061773306
 20
-14.0052901176
 10
22.2903121057
 20
-13.9831518493
 10
22.2758638445
 20
-13.9604878267
 10
22.2628199658
 20
-13.9373618956
 10
22.2511930507
 20
-13.9137102102
 10
22.2410208423
 20
-13.8893412328
 10
22.2322638736
 20
-13.8642049622
 10
22.2249616116
 20
-13.8383513994
 10
22.2192701999
 20
-13.8117390109
 10
22.2152416865
 20
-13.7843539518
 10
22.2128240236
 20
-13.7562100669
 10
22.212017211
 20
-13.7273073561
  0
LWPOLYLINE
  5
35E
100
AcDbEntity
  8
0
100
AcDbPolyline
 62
250
  6
CONTINUOUS
 90
3
 70
0
 10
20.8009482428
 20
-17.609487802
 10
20.74543362
 20
-17.5080654678
 10
20.701282283
 20
-17.404994315
  0
LINE
  5
35F
100
AcDbEntity
  8
DRAFT
100
AcDbLine
 62
7
  6
CONTINUOUS
 10
16.7894476048
 20
-18.8014826781
 11
16.88175306
 21
-19.0001607126
  0
LWPOLYLINE
  5
360
100
AcDbEntity
  8
ASSI
100
AcDbPolyline
 62
7
  6
CONTINUOUS
 90
14
 70
0
 10
21.7718177927
 20
-17.1236563317
 10
21.8134925593
 20
-17.2148648308
 10
21.8493998816
 20
-17.3061880595
 10
21.8795397595
 20
-17.3976260177
 10
21.9040569326
 20
-17.4899098325
 10
21.9228066614
 20
-17.5823083768
 10
21.9353547272
 20
-17.6726282698
 10
21.9415563903
 20
-17.7608198383
 10
21.9415563903
 20
-17.8469327554
 10
21.9353547272
 20
-17.9289226608
 10
21.9228066614
 20
-18.0066944881
 10
21.9040569326
 20
-18.0803433036
 10
21.8795397595
 20
-18.1481099452
 10
21.8493998816
 20
-18.2094080255
  0
LWPOLYLINE
  5
361
100
AcDbEntity
  8
ASSI
100
AcDbPolyline
 62
7
  6
CONTINUOUS
 90
16
 70
0
 10
22.3375032177
 20
-16.8408136192
 10
22.3791779843
 20
-16.9320221183
 10
22.4150853065
 20
-17.023345347
 10
22.4452251844
 20
-17.1147833053
 10
22.4697423576
 20
-17.20706712
 10
22.4884920864
 20
-17.2994656643
 10
22.5010401521
 20
-17.3897855574
 10
22.5072418152
 20
-17.4779771258
 10
22.5072418152
 20
-17.564090043
 10
22.5010401521
 20
-17.6460799483
 10
22.4884920864
 20
-17.7238517756
 10
22.4697423576
 20
-17.7975005911
 10
22.4452251844
 20
-17.8652672327
 10
22.4150853065
 20
-17.926565313
 10
22.3791779843
 20
-17.9819812195
 10
22.3375032177
 20
-18.031514952
  0
LWPOLYLINE
  5
362
100
AcDbEntity
  8
RACCORDO
100
AcDbPolyline
 62
250
  6
CONTINUOUS
 90
7
 70
0
 10
16.8177695187
 20
-18.465703594
 10
16.794832919
 20
-18.4130310494
 10
16.769853326
 20
-18.3612054157
 10
16.7426590508
 20
-18.3099302066
 10
16.7134217823
 20
-18.2595019086
 10
16.6826565865
 20
-18.2108099811
 10
16.6505351522
 20
-18.1641509107
  0
LWPOLYLINE
  5
363
100
AcDbEntity
  8
0
100
AcDbPolyline
 62
7
  6
CONTINUOUS
 90
4
 70
0
 10
20.7059807237
 20
-17.4631960167
 10
20.7808243453
 20
-17.6400665476
 10
20.8846931397
 20
-17.8143479405
 10
21.0172961561
 20
-17.9835041553
  0
LWPOLYLINE
  5
364
100
AcDbEntity
  8
RACCORDO
100
AcDbPolyline
 62
7
  6
CONTINUOUS
 90
8
 70
0
 10
16.8155423492
 20
-18.5184460024
 10
16.7960345149
 20
-18.4685152845
 10
16.7745019373
 20
-18.4190975004
 10
16.7510361861
 20
-18.3704106991
 10
16.725734716
 20
-18.3226606818
 10
16.6987134722
 20
-18.2760650794
 10
16.6701100048
 20
-18.2308512654
 10
16.6400632011
 20
-18.1872211168
  0
LINE
  5
365
100
AcDbEntity
  8
RACCORDO
100
AcDbLine
 62
250
  6
CONTINUOUS
 10
16.838663125
 20
-18.5192230497
 11
16.8177695187
 21
-18.465703594
  0
LWPOLYLINE
  5
366
100
AcDbEntity
  8
ASSI
100
AcDbPolyline
 62
7
  6
CONTINUOUS
 90
28
 70
0
 10
18.1321897935
 20
-18.8494784809
 10
18.1867453143
 20
-18.989866088
 10
18.2364264773
 20
-19.1307878895
 10
18.2811058168
 20
-19.2717983541
 10
18.3206857413
 20
-19.4124839037
 10
18.3550728061
 20
-19.5523745828
 10
18.3841864577
 20
-19.6909352287
 10
18.4079932989
 20
-19.8277042436
 10
18.4264937059
 20
-19.9622812752
 10
18.4397028371
 20
-20.0942131284
 10
18.4476649639
 20
-20.2230480129
 10
18.4504562557
 20
-20.3484319003
 10
18.4481708026
 20
-20.4700387568
 10
18.4409312244
 20
-20.5874053288
 10
18.4288798461
 20
-20.7002650887
 10
18.4121409453
 20
-20.8085307995
 10
18.3909208131
 20
-20.9116751228
 10
18.3653898334
 20
-21.0095601295
 10
18.3355493281
 20
-21.1025192632
 10
18.3016863758
 20
-21.1898945519
 10
18.263916366
 20
-21.2716442687
 10
18.2217865658
 20
-21.348621088
 10
18.1754780637
 20
-21.4201562374
 10
18.125044802
 20
-21.4858995153
 10
18.0694953721
 20
-21.5465587506
 10
18.0083148775
 20
-21.6017299603
 10
17.9416558821
 20
-21.6503504842
 10
17.8692074253
 20
-21.6918399966
  0
LWPOLYLINE
  5
367
100
AcDbEntity
  8
ASSI
100
AcDbPolyline
 62
7
  6
CONTINUOUS
 90
22
 70
0
 10
15.0798561735
 20
-16.5322735087
 10
15.0152935604
 20
-16.3637288702
 10
14.9584092348
 20
-16.1954262143
 10
14.9092031966
 20
-16.0273655409
 10
14.8675348975
 20
-15.8588510449
 10
14.8335448858
 20
-15.6905785315
 10
14.8076548066
 20
-15.5246354163
 10
14.7899655566
 20
-15.3610507153
 10
14.7803762391
 20
-15.1997954126
 10
14.7790058094
 20
-15.0428698753
 10
14.7859566458
 20
-14.8903280372
 10
14.8011263699
 20
-14.7421159646
 10
14.8243268017
 20
-14.600072224
 10
14.8556579756
 20
-14.464273651
 10
14.8950198573
 20
-14.3346434099
 10
14.9419241637
 20
-14.2127895601
 10
14.996464847
 20
-14.0988089681
 10
15.0585479549
 20
-13.9926047673
 10
15.1274033485
 20
-13.8954944179
 10
15.2031153866
 20
-13.8075911971
 10
15.2855997102
 20
-13.7287818276
 10
15.3738331039
 20
-13.6600439374
  0
LWPOLYLINE
  5
368
100
AcDbEntity
  8
ASSI
100
AcDbPolyline
 62
250
  6
CONTINUOUS
 90
13
 70
0
 10
14.9384348172
 20
-16.6029841868
 10
14.9545763453
 20
-16.6462012231
 10
14.9679783601
 20
-16.689735135
 10
14.9785246336
 20
-16.7332083767
 10
14.9861237036
 20
-16.776243929
 10
14.9907096676
 20
-16.8184685684
 10
14.9922427541
 20
-16.8595161037
 10
14.9907096675
 20
-16.8990305524
 10
14.9861237035
 20
-16.9366692276
 10
14.9785246334
 20
-16.9721057098
 10
14.96797836
 20
-17.0050326779
 10
14.9545763452
 20
-17.0351645747
 10
14.9384348172
 20
-17.0622400828
  0
LWPOLYLINE
  5
369
100
AcDbEntity
  8
ASSI
100
AcDbPolyline
 62
7
  6
CONTINUOUS
 90
13
 70
0
 10
15.0798561735
 20
-16.5322735087
 10
15.096149634
 20
-16.5761167345
 10
15.1095129061
 20
-16.6195247978
 10
15.1199459898
 20
-16.6624976985
 10
15.1274883127
 20
-16.7053984609
 10
15.1321004471
 20
-16.7478640608
 10
15.1336641104
 20
-16.7888054251
 10
15.1321004471
 20
-16.8281831262
 10
15.1274883127
 20
-16.8660365916
 10
15.1199459898
 20
-16.9013950312
 10
15.1095129061
 20
-16.9339348482
 10
15.096149634
 20
-16.9639796394
 10
15.0798561735
 20
-16.9915294047
  0
LWPOLYLINE
  5
36A
100
AcDbEntity
  8
ASSI
100
AcDbPolyline
 62
7
  6
CONTINUOUS
 90
12
 70
0
 10
15.5590059
 20
-16.2562772406
 10
15.5746374254
 20
-16.2988189905
 10
15.5876096112
 20
-16.3416368136
 10
15.5978136702
 20
-16.3843716316
 10
15.6051640294
 20
-16.4266650614
 10
15.6095990473
 20
-16.4681624229
 10
15.6110815312
 20
-16.5085157127
 10
15.6095990485
 20
-16.5473865208
 10
15.6051640312
 20
-16.5844488685
 10
15.5978136721
 20
-16.6193919429
 10
15.5876096128
 20
-16.6519227046
 10
15.5800026278
 20
-16.6705017825
  0
LINE
  5
36B
100
AcDbEntity
  8
RACCORDO
100
AcDbLine
 62
250
  6
CONTINUOUS
 10
16.8644362079
 20
-18.5959249865
 11
16.838663125
 21
-18.5192230497
  0
LINE
  5
36C
100
AcDbEntity
  8
DRAFT
100
AcDbLine
 62
7
  6
CONTINUOUS
 10
16.5432318147
 20
-18.1196321614
 11
16.5888208944
 21
-18.2711653873
  0
LINE
  5
36D
100
AcDbEntity
  8
DRAFT
100
AcDbLine
 62
7
  6
CONTINUOUS
 10
16.5029057271
 20
-17.968813245
 11
16.5432318147
 21
-18.1196321614
  0
LWPOLYLINE
  5
36E
100
AcDbEntity
  8
ASSI
100
AcDbPolyline
 62
7
  6
CONTINUOUS
 90
8
 70
0
 10
15.2801908723
 20
4.3383980305
 10
15.2892654006
 20
4.2501692135
 10
15.3145143293
 20
4.0820250502
 10
15.3478639964
 20
3.9121398479
 10
15.389175457
 20
3.7412180928
 10
15.4382770045
 20
3.5699663118
 10
15.4949653996
 20
3.3990900714
 10
15.5590059
 20
3.2292943446
  0
LINE
  5
36F
100
AcDbEntity
  8
0
100
AcDbLine
 62
250
  6
CONTINUOUS
 10
20.6480646982
 20
-17.1971859543
 11
20.6388208516
 21
-17.0934192626
  0
LINE
  5
370
100
AcDbEntity
  8
RACCORDO
100
AcDbLine
 62
7
  6
CONTINUOUS
 10
16.7552823404
 20
1.096515861
 11
16.7706187727
 21
0.7276194355
  0
LWPOLYLINE
  5
371
100
AcDbEntity
  8
DRAFT
100
AcDbPolyline
 62
7
  6
CONTINUOUS
 90
22
 70
0
 10
16.7438023513
 20
-17.1274380306
 10
16.7487392772
 20
-17.307226038
 10
16.7629873092
 20
-17.4893709095
 10
16.7865464473
 20
-17.6738726452
 10
16.8196003428
 20
-17.8615563247
 10
16.8619653443
 20
-18.0515968683
 10
16.9130904981
 20
-18.241519037
 10
16.9730923578
 20
-18.43132668
 10
17.0418543697
 20
-18.6210159482
 10
17.1184759184
 20
-18.8081000543
 10
17.2030592706
 20
-18.9925414496
 10
17.2955021596
 20
-19.1743776829
 10
17.3945971698
 20
-19.3512346136
 10
17.5004313309
 20
-19.5230470975
 10
17.6129176132
 20
-19.6898802788
 10
17.7305875122
 20
-19.8495554493
 10
17.8535114565
 20
-20.0019808906
 10
17.9816190174
 20
-20.1472483212
 10
18.1132304045
 20
-20.2834541889
 10
18.2483878081
 20
-20.4104758198
 10
18.3870490379
 20
-20.5284358878
 10
18.4419770071
 20
-20.5704513124
  0
LWPOLYLINE
  5
372
100
AcDbEntity
  8
ASSI
100
AcDbPolyline
 62
7
  6
CONTINUOUS
 90
29
 70
0
 10
15.9099025767
 20
-17.561098265
 10
15.9142920415
 20
-17.723002602
 10
15.9269731094
 20
-17.8870327659
 10
15.9479457806
 20
-18.0531887567
 10
15.9773704162
 20
-18.2221982044
 10
16.015086655
 20
-18.3933334791
 10
16.0606134132
 20
-18.5644116906
 10
16.1140507421
 20
-18.7354321079
 10
16.1752985905
 20
-18.9063954622
 10
16.2435757206
 20
-19.0751210561
 10
16.3189721763
 20
-19.2415802243
 10
16.4013979138
 20
-19.4058016323
 10
16.489801564
 20
-19.5656905786
 10
16.584259703
 20
-19.7211915653
 10
16.6846957547
 20
-19.8723600904
 10
16.7898286223
 20
-20.0172679467
 10
16.8997184712
 20
-20.1558349361
 10
17.0143051359
 20
-20.2881412566
 10
17.1321270238
 20
-20.4124992951
 10
17.2532255774
 20
-20.5288072355
 10
17.377559354
 20
-20.6371668939
 10
17.503542433
 20
-20.736196105
 10
17.6311959417
 20
-20.8257753475
 10
17.7604987529
 20
-20.9060241427
 10
17.889801564
 20
-20.9759188893
 10
18.0191043752
 20
-21.0353269538
 10
18.1484071863
 20
-21.0843809697
 10
18.276060695
 20
-21.1224552359
 10
18.3238596333
 20
-21.1326817384
  0
LWPOLYLINE
  5
373
100
AcDbEntity
  8
0
100
AcDbPolyline
 62
7
  6
CONTINUOUS
 90
28
 70
0
 10
16.0513239329
 20
-17.4903875869
 10
16.0557133977
 20
-17.6522919239
 10
16.0683944657
 20
-17.8163220878
 10
16.0893671368
 20
-17.9824780786
 10
16.1187917724
 20
-18.1514875263
 10
16.1565080112
 20
-18.322622801
 10
16.2020347694
 20
-18.4937010125
 10
16.2554720984
 20
-18.6647214298
 10
16.3167199467
 20
-18.835684784
 10
16.3849970769
 20
-19.0044103779
 10
16.4603935326
 20
-19.1708695462
 10
16.54281927
 20
-19.3350909542
 10
16.6312229203
 20
-19.4949799005
 10
16.7256810592
 20
-19.6504808872
 10
16.8261171109
 20
-19.8016494123
 10
16.9312499785
 20
-19.9465572685
 10
17.0411398274
 20
-20.0851242579
 10
17.1557264922
 20
-20.2174305785
 10
17.2735483801
 20
-20.341788617
 10
17.3946469336
 20
-20.4580965574
 10
17.5189807102
 20
-20.5664562158
 10
17.6449637893
 20
-20.6654854268
 10
17.772617298
 20
-20.7550646693
 10
17.9019201091
 20
-20.8353134646
 10
18.0312229203
 20
-20.9052082112
 10
18.1605257314
 20
-20.9646162757
 10
18.2898285425
 20
-21.0136702916
 10
18.3575833114
 20
-21.0338790045
  0
LWPOLYLINE
  5
374
100
AcDbEntity
  8
ASSI
100
AcDbPolyline
 62
7
  6
CONTINUOUS
 90
29
 70
0
 10
15.9099025767
 20
1.9244733201
 10
15.9142920415
 20
1.7625689832
 10
15.9269731094
 20
1.5985388193
 10
15.9479457806
 20
1.4323828285
 10
15.9773704162
 20
1.2633733807
 10
16.015086655
 20
1.0922381061
 10
16.0606134132
 20
0.9211598946
 10
16.1140507421
 20
0.7501394772
 10
16.1752985905
 20
0.579176123
 10
16.2435757206
 20
0.4104505291
 10
16.3189721763
 20
0.2439913608
 10
16.4013979138
 20
0.0797699529
 10
16.489801564
 20
-0.0801189935
 10
16.584259703
 20
-0.2356199802
 10
16.6846957547
 20
-0.3867885053
 10
16.7898286223
 20
-0.5316963615
 10
16.8997184712
 20
-0.6702633509
 10
17.0143051359
 20
-0.8025696715
 10
17.1321270238
 20
-0.92692771
 10
17.2532255774
 20
-1.0432356504
 10
17.377559354
 20
-1.1515953087
 10
17.503542433
 20
-1.2506245198
 10
17.6311959417
 20
-1.3402037623
 10
17.7604987529
 20
-1.4204525575
 10
17.889801564
 20
-1.4903473041
 10
18.0191043752
 20
-1.5497553687
 10
18.1484071863
 20
-1.5988093846
 10
18.276060695
 20
-1.6368836508
 10
18.2989305512
 20
-1.6417766181
  0
LWPOLYLINE
  5
375
100
AcDbEntity
  8
0
100
AcDbPolyline
 62
7
  6
CONTINUOUS
 90
27
 70
0
 10
16.0513239329
 20
1.9951839982
 10
16.0557133977
 20
1.8332796613
 10
16.0683944657
 20
1.6692494974
 10
16.0893671368
 20
1.5030935066
 10
16.1187917724
 20
1.3340840589
 10
16.1565080112
 20
1.1629487842
 10
16.2020347694
 20
0.9918705727
 10
16.2554720984
 20
0.8208501553
 10
16.3167199467
 20
0.6498868011
 10
16.3849970769
 20
0.4811612072
 10
16.4603935326
 20
0.3147020389
 10
16.54281927
 20
0.150480631
 10
16.6312229203
 20
-0.0094083154
 10
16.7256810592
 20
-0.1649093021
 10
16.8261171109
 20
-0.3160778271
 10
16.9312499785
 20
-0.4609856834
 10
17.0411398274
 20
-0.5995526728
 10
17.1557264922
 20
-0.7318589934
 10
17.2735483801
 20
-0.8562170318
 10
17.3946469336
 20
-0.9725249723
 10
17.5189807102
 20
-1.0808846306
 10
17.6449637893
 20
-1.1799138417
 10
17.772617298
 20
-1.2694930842
 10
17.9019201091
 20
-1.3497418794
 10
18.0312229203
 20
-1.419636626
 10
18.1605257314
 20
-1.4790446906
 10
18.2435533583
 20
-1.5105431437
  0
LINE
  5
376
100
AcDbEntity
  8
0
100
AcDbLine
 62
7
  6
CONTINUOUS
 10
16.3747736655
 20
2.3494847791
 11
16.3695219845
 21
2.5431917537
  0
LWPOLYLINE
  5
377
100
AcDbEntity
  8
ASSI
100
AcDbPolyline
 62
250
  6
CONTINUOUS
 90
36
 70
0
 10
14.6371103706
 20
-6.9391641189
 10
14.6413494954
 20
-7.0998780118
 10
14.6540487161
 20
-7.2641428147
 10
14.6751536507
 20
-7.4312551183
 10
14.7045739284
 20
-7.6004993489
 10
14.742183562
 20
-7.771150747
 10
14.7878214744
 20
-7.9424784684
 10
14.8412921967
 20
-8.1137487825
 10
14.9023667651
 20
-8.2842283633
 10
14.970783699
 20
-8.4531873403
 10
15.0462500643
 20
-8.6199022701
 10
15.1284426832
 20
-8.783659185
 10
15.2170095709
 20
-8.9437567998
 10
15.311571459
 20
-9.0995095355
 10
15.411723428
 20
-9.2502504533
 10
15.5170366131
 20
-9.3953340602
 10
15.6270600469
 20
-9.5341390863
 10
15.7413225923
 20
-9.6660711477
 10
15.8593349615
 20
-9.7905652939
 10
15.9805918086
 20
-9.9070884225
 10
16.1045738925
 20
-10.0151415631
 10
16.2307503033
 20
-10.1142620157
 10
16.3585807346
 20
-10.2040253313
 10
16.4875177969
 20
-10.2840471297
 10
16.6170093617
 20
-10.353984745
 10
16.7465009265
 20
-10.4135386939
 10
16.8754379887
 20
-10.4624539571
 10
17.0032684199
 20
-10.5005210721
 10
17.1294448306
 20
-10.5275770298
 10
17.2534269144
 20
-10.5435059725
 10
17.3746837613
 20
-10.5482396902
 10
17.4926961303
 20
-10.5417579126
 10
17.6069586754
 20
-10.5240883959
 10
17.7169821089
 20
-10.495306803
 10
17.8222952936
 20
-10.4555363806
 10
17.8692074253
 20
-10.4335097474
  0
LWPOLYLINE
  5
378
100
AcDbEntity
  8
RACCORDO
100
AcDbPolyline
 62
250
  6
CONTINUOUS
 90
23
 70
0
 10
16.0548208806
 20
-17.4902958339
 10
16.0581313109
 20
-17.6164649617
 10
16.0709218405
 20
-17.7827630884
 10
16.0921822316
 20
-17.9519536939
 10
16.1218061527
 20
-18.1232250777
 10
16.1596800555
 20
-18.2959454932
 10
16.2057289631
 20
-18.4696721322
 10
16.2598714865
 20
-18.6438843909
 10
16.3218650327
 20
-18.8176191194
 10
16.3913323504
 20
-18.9897707894
 10
16.4678816444
 20
-19.1594203097
 10
16.5512501915
 20
-19.326032379
 10
16.6411856431
 20
-19.4890890006
 10
16.7373848203
 20
-19.6479849443
 10
16.8393926723
 20
-19.8019165115
 10
16.9466972828
 20
-19.9500920139
 10
17.0588153217
 20
-20.0918452683
 10
17.1752863724
 20
-20.2265953476
 10
17.2955859452
 20
-20.3537366015
 10
17.4191773332
 20
-20.4727089108
 10
17.5455451944
 20
-20.5830231131
 10
17.6741756251
 20
-20.6842311149
 10
17.7920247197
 20
-20.7671094362
  0
LWPOLYLINE
  5
379
100
AcDbEntity
  8
RACCORDO
100
AcDbPolyline
 62
250
  6
CONTINUOUS
 90
27
 70
0
 10
16.1315080456
 20
-17.3865198879
 10
16.1358374972
 20
-17.5515158484
 10
16.1488085393
 20
-17.7201590273
 10
16.1703687523
 20
-17.8917357195
 10
16.2004102002
 20
-18.0654228624
 10
16.2388178163
 20
-18.2405795959
 10
16.2855158615
 20
-18.4167564836
 10
16.3404219923
 20
-18.5934254597
 10
16.4032900388
 20
-18.7696100515
 10
16.4737372043
 20
-18.9441893557
 10
16.5513660451
 20
-19.1162313643
 10
16.6359102327
 20
-19.2851931211
 10
16.7271139532
 20
-19.4505492693
 10
16.8246698028
 20
-19.611686037
 10
16.9281162733
 20
-19.7677884167
 10
17.0369341948
 20
-19.9180535644
 10
17.1506334033
 20
-20.0618059006
 10
17.2687470031
 20
-20.1984563012
 10
17.3907431179
 20
-20.3273905732
 10
17.5160774762
 20
-20.4480406989
 10
17.6442274643
 20
-20.5599106171
 10
17.7746719287
 20
-20.6625459147
 10
17.906871668
 20
-20.7555164367
 10
18.0402384523
 20
-20.8384026761
 10
18.1741671726
 20
-20.9108291647
 10
18.3080606315
 20
-20.9724799403
 10
18.3690225557
 20
-20.9956323817
  0
LWPOLYLINE
  5
37A
100
AcDbEntity
  8
RACCORDO
100
AcDbPolyline
 62
250
  6
CONTINUOUS
 90
23
 70
0
 10
16.0548220592
 20
1.9952758954
 10
16.0581419774
 20
1.8689010308
 10
16.0709642335
 20
1.702391056
 10
16.0922768694
 20
1.532985096
 10
16.1219711478
 20
1.3615061109
 10
16.1599335153
 20
1.1885801908
 10
16.2060954882
 20
1.0146270414
 10
16.2603812808
 20
0.8401605748
 10
16.3225479162
 20
0.6661569115
 10
16.3922183814
 20
0.4937283052
 10
16.4690227124
 20
0.3237537398
 10
16.5526809277
 20
0.1568196466
 10
16.6428650299
 20
-0.0064199805
 10
16.7392129741
 20
-0.165296423
 10
16.8412947275
 20
-0.3190880201
 10
16.9486431686
 20
-0.4670895558
 10
17.0607750796
 20
-0.6086424299
 10
17.1772258477
 20
-0.7431674112
 10
17.2975240933
 20
-0.8701193527
 10
17.4211749009
 20
-0.9889682447
 10
17.5476287392
 20
-1.0991783819
 10
17.6763115261
 20
-1.2002488078
 10
17.7928664364
 20
-1.282060243
  0
LWPOLYLINE
  5
37B
100
AcDbEntity
  8
RACCORDO
100
AcDbPolyline
 62
250
  6
CONTINUOUS
 90
26
 70
0
 10
16.1315080456
 20
2.0990516973
 10
16.1358483005
 20
1.9338472209
 10
16.1488515126
 20
1.7649892014
 10
16.1704647129
 20
1.5931941285
 10
16.2005775343
 20
1.4192964908
 10
16.2390748982
 20
1.2439313961
 10
16.285887626
 20
1.0675248214
 10
16.3409390393
 20
0.8905980359
 10
16.4039825926
 20
0.7141406895
 10
16.4746357537
 20
0.539280527
 10
16.5525232319
 20
0.3669088886
 10
16.6373611858
 20
0.1976205695
 10
16.728817073
 20
0.0320788345
 10
16.8265237858
 20
-0.129038162
 10
16.9300451925
 20
-0.2849986027
 10
17.0389075562
 20
-0.4350873339
 10
17.1526208295
 20
-0.5786364663
 10
17.270713859
 20
-0.715058596
 10
17.3927086258
 20
-0.8438008871
 10
17.5181032393
 20
-0.9643258558
 10
17.6463404142
 20
-1.0760902419
 10
17.7768379695
 20
-1.1785860233
 10
17.9090129346
 20
-1.2713613796
 10
18.0423177923
 20
-1.3540379786
 10
18.1762118169
 20
-1.4262798933
 10
18.2156357389
 20
-1.4443836652
  0
LWPOLYLINE
  5
37C
100
AcDbEntity
  8
ASSI
100
AcDbPolyline
 62
250
  6
CONTINUOUS
 90
44
 70
0
 10
13.9300035894
 20
-6.9391641189
 10
13.9343863403
 20
-7.1169128309
 10
13.9474720187
 20
-7.2974612875
 10
13.9692606245
 20
-7.4808094885
 10
13.9999084869
 20
-7.6678361975
 10
14.0392592768
 20
-7.857662651
 10
14.0868440067
 20
-8.0476525583
 10
14.1427403959
 20
-8.2376158303
 10
14.2068707252
 20
-8.4277425561
 10
14.2785328499
 20
-8.6159667111
 10
14.3578247288
 20
-8.8023082391
 10
14.4446484031
 20
-8.9867471963
 10
14.5380078525
 20
-9.1671577277
 10
14.6379719093
 20
-9.3434790519
 10
14.7444717411
 20
-9.5157719502
 10
14.8563048301
 20
-9.6820929117
 10
14.9735333298
 20
-9.8423771455
 10
15.0960950866
 20
-9.9966894424
 10
15.2226011228
 20
-10.1432806643
 10
15.3530959422
 20
-10.2820624898
 10
15.4875350409
 20
-10.4131232402
 10
15.6243959292
 20
-10.5349787421
 10
15.7637061941
 20
-10.6475244148
 10
15.9054382486
 20
-10.7508648389
 10
16.0479868424
 20
-10.843829582
 10
16.1913612529
 20
-10.9263006804
 10
16.3355522028
 20
-10.9983960979
 10
16.4789266092
 20
-11.0592992931
 10
16.6214751924
 20
-11.1088830252
 10
16.7632072322
 20
-11.1472745351
 10
16.9025174853
 20
-11.174039004
 10
17.0393783776
 20
-11.1890442623
 10
17.1738174833
 20
-11.1924224797
 10
17.3043122817
 20
-11.1841353465
 10
17.4308182361
 20
-11.1640500495
 10
17.5533798832
 20
-11.1322994019
 10
17.6706083123
 20
-11.0892435346
 10
17.7824414323
 20
-11.0347554591
 10
17.8889413342
 20
-10.9689621638
 10
17.9889053808
 20
-10.8926047449
 10
18.0822646462
 20
-10.8055536902
 10
18.1690880563
 20
-10.7079385117
 10
18.2483797505
 20
-10.600888842
 10
18.3200418566
 20
-10.484326594
  0
LWPOLYLINE
  5
37D
100
AcDbEntity
  8
ASSI
100
AcDbPolyline
 62
250
  6
CONTINUOUS
 90
28
 70
0
 10
18.5969083452
 20
-9.2726164968
 10
18.5925255943
 20
-9.0948677848
 10
18.5794399159
 20
-8.9143193282
 10
18.5576513101
 20
-8.7309711273
 10
18.5270034477
 20
-8.5439444182
 10
18.4876526578
 20
-8.3541179647
 10
18.4400679278
 20
-8.1641280575
 10
18.3841715387
 20
-7.9741647854
 10
18.3200412094
 20
-7.7840380596
 10
18.2483790847
 20
-7.5958139046
 10
18.1690872058
 20
-7.4094723766
 10
18.0822635315
 20
-7.2250334194
 10
17.9889040821
 20
-7.044622888
 10
17.8889400253
 20
-6.8683015638
 10
17.7824401935
 20
-6.6960086655
 10
17.6706071045
 20
-6.529687704
 10
17.5533786048
 20
-6.3694034702
 10
17.4308168479
 20
-6.2150911733
 10
17.3043108118
 20
-6.0684999514
 10
17.1738159924
 20
-5.9297181259
 10
17.0393768937
 20
-5.7986573755
 10
16.9025160054
 20
-5.6768018736
 10
16.7632057405
 20
-5.5642562009
 10
16.621473686
 20
-5.4609157768
 10
16.4789250922
 20
-5.3679510337
 10
16.3355506817
 20
-5.2854799353
 10
16.1913597318
 20
-5.2133845178
 10
16.0479853254
 20
-5.1524813226
  0
LWPOLYLINE
  5
37E
100
AcDbEntity
  8
RACCORDO
100
AcDbPolyline
 62
250
  6
CONTINUOUS
 90
6
 70
0
 10
16.7328819749
 20
-6.4438102109
 10
16.729204644
 20
-6.2688627948
 10
16.7329850578
 20
-6.0982012607
 10
16.7442232163
 20
-5.9318256086
 10
16.7630251063
 20
-5.7691726062
 10
16.7662031659
 20
-5.7500063021
  0
LWPOLYLINE
  5
37F
100
AcDbEntity
  8
DRAFT
100
AcDbPolyline
 62
7
  6
CONTINUOUS
 90
8
 70
0
 10
16.3695219845
 20
-16.9423798315
 10
16.3723248646
 20
-17.0840659875
 10
16.3805613025
 20
-17.2274996015
 10
16.3942312982
 20
-17.3726806735
 10
16.4133917068
 20
-17.5199535865
 10
16.4379856732
 20
-17.6689739575
 10
16.4678426317
 20
-17.818708638
 10
16.5029057271
 20
-17.968813245
  0
LWPOLYLINE
  5
380
100
AcDbEntity
  8
RACCORDO
100
AcDbPolyline
 62
250
  6
CONTINUOUS
 90
4
 70
0
 10
17.0117287709
 20
-6.4052851481
 10
17.0111439949
 20
-6.2431166799
 10
17.0173557587
 20
-6.0840399473
 10
17.027316825
 20
-5.9654329983
  0
LWPOLYLINE
  5
381
100
AcDbEntity
  8
DRAFT
100
AcDbPolyline
 62
7
  6
CONTINUOUS
 90
25
 70
0
 10
16.5888208944
 20
-18.2711653873
 10
16.588850772
 20
-18.2948083799
 10
16.5895477876
 20
-18.3188550037
 10
16.5909226622
 20
-18.3433068696
 10
16.5929411828
 20
-18.3682070721
 10
16.5956607261
 20
-18.3935168255
 10
16.5992319656
 20
-18.4191203254
 10
16.603707086
 20
-18.4451589473
 10
16.6090662388
 20
-18.4715094026
 10
16.615351706
 20
-18.4976729842
 10
16.6226352461
 20
-18.5236966981
 10
16.6308755904
 20
-18.5495747638
 10
16.6399353764
 20
-18.5747430438
 10
16.6498600266
 20
-18.5991694109
 10
16.6606208503
 20
-18.6229381209
 10
16.6719526538
 20
-18.6456615045
 10
16.6838575631
 20
-18.6672784216
 10
16.6963320754
 20
-18.6878935912
 10
16.7090863923
 20
-18.7073585945
 10
16.7220535919
 20
-18.7255835161
 10
16.7352846669
 20
-18.7426827447
 10
16.7486588913
 20
-18.7588030819
 10
16.7621304087
 20
-18.7739957875
 10
16.7757292065
 20
-18.7882207131
 10
16.7894476048
 20
-18.8014826781
  0
LINE
  5
382
100
AcDbEntity
  8
ASSI
100
AcDbLine
 62
7
  6
CONTINUOUS
 10
15.9099025767
 20
3.6617907589
 11
15.9099025767
 21
1.9244733201
  0
LINE
  5
383
100
AcDbEntity
  8
ASSI
100
AcDbLine
 62
7
  6
CONTINUOUS
 10
15.9099025767
 20
-14.5300093518
 11
15.9099025767
 21
-17.561098265
  0
LINE
  5
384
100
AcDbEntity
  8
0
100
AcDbLine
 62
7
  6
CONTINUOUS
 10
16.0513239329
 20
3.370064253
 11
16.0513239329
 21
1.9951839982
  0
LINE
  5
385
100
AcDbEntity
  8
0
100
AcDbLine
 62
7
  6
CONTINUOUS
 10
16.0513239329
 20
-14.4592986737
 11
16.0513239329
 21
-17.4903875869
  0
LINE
  5
386
100
AcDbEntity
  8
RACCORDO
100
AcDbLine
 62
250
  6
CONTINUOUS
 10
16.1315080456
 20
3.2046590297
 11
16.1315080456
 21
2.0990516973
  0
LINE
  5
387
100
AcDbEntity
  8
RACCORDO
100
AcDbLine
 62
250
  6
CONTINUOUS
 10
16.1315080456
 20
-14.3554309746
 11
16.1315080456
 21
-17.3865198879
  0
LINE
  5
388
100
AcDbEntity
  8
0
100
AcDbLine
 62
7
  6
CONTINUOUS
 10
16.3695219845
 20
-13.9112909182
 11
16.3695219845
 21
-16.9423798315
  0
LINE
  5
389
100
AcDbEntity
  8
0
100
AcDbLine
 62
7
  6
CONTINUOUS
 10
16.3695219845
 20
2.5431917537
 11
16.3695219845
 21
2.7044231943
  0
LINE
  5
38A
100
AcDbEntity
  8
DRAFT
100
AcDbLine
 62
7
  6
CONTINUOUS
 10
16.7438023513
 20
-13.9608361451
 11
16.7438023513
 21
-17.1274380306
  0
LWPOLYLINE
  5
38B
100
AcDbEntity
  8
ASSI
100
AcDbPolyline
 62
7
  6
CONTINUOUS
 90
19
 70
0
 10
18.4504617358
 20
-9.0958398018
 10
18.4484899372
 20
-9.2034306007
 10
18.4426229814
 20
-9.3078886825
 10
18.4329475814
 20
-9.4089437583
 10
18.4195846604
 20
-9.5062410711
 10
18.4026463373
 20
-9.5996615453
 10
18.3822018455
 20
-9.689258269
 10
18.3584170517
 20
-9.7746541607
 10
18.3314069067
 20
-9.855767647
 10
18.3010981907
 20
-9.9329504804
 10
18.267713356
 20
-10.0057031482
 10
18.2313004216
 20
-10.0740109731
 10
18.1913634689
 20
-10.1386250914
 10
18.1479553159
 20
-10.199099825
 10
18.1011153626
 20
-10.2550674295
 10
18.050072489
 20
-10.306957594
 10
17.9944143017
 20
-10.3544574037
 10
17.9342134946
 20
-10.3967933304
 10
17.8692074253
 20
-10.4335097474
  0
LWPOLYLINE
  5
38C
100
AcDbEntity
  8
ASSI
100
AcDbPolyline
 62
7
  6
CONTINUOUS
 90
14
 70
0
 10
14.7785317268
 20
-6.8684534408
 10
14.7829211916
 20
-6.7109385686
 10
14.7956022595
 20
-6.5595894726
 10
14.8165749307
 20
-6.414406153
 10
14.8459995663
 20
-6.2748213409
 10
14.8837158051
 20
-6.141402305
 10
14.9292425633
 20
-6.0158508517
 10
14.9826798922
 20
-5.8982677633
 10
15.0439277406
 20
-5.7885522574
 10
15.1122048707
 20
-5.6881037937
 10
15.1876013264
 20
-5.5970410811
 10
15.2700270639
 20
-5.5152454106
 10
15.3584307141
 20
-5.4437601145
 10
15.4352045261
 20
-5.3941456274
  0
LINE
  5
38D
100
AcDbEntity
  8
0
100
AcDbLine
 62
7
  6
CONTINUOUS
 10
16.3743875786
 20
-13.7366902604
 11
16.3695219845
 21
-13.9112909182
  0
LWPOLYLINE
  5
38E
100
AcDbEntity
  8
ASSI
100
AcDbPolyline
 62
250
  6
CONTINUOUS
 90
12
 70
0
 10
14.6573005482
 20
4.6498431925
 10
14.6444994011
 20
4.5247721306
 10
14.6375844316
 20
4.3719898355
 10
14.6389112034
 20
4.2148658263
 10
14.6484741866
 20
4.0540542329
 10
14.6662335639
 20
3.8902246327
 10
14.6921153898
 20
3.7240591657
 10
14.7260119002
 20
3.5562496931
 10
14.76778196
 20
3.3874949234
 10
14.8172516511
 20
3.218497501
 10
14.8742149964
 20
3.0499610808
 10
14.9384348172
 20
2.8825873983
  0
LWPOLYLINE
  5
38F
100
AcDbEntity
  8
RACCORDO
100
AcDbPolyline
 62
7
  6
CONTINUOUS
 90
5
 70
0
 10
16.8857293934
 20
-19.0079055734
 10
16.8885470532
 20
-18.9858625989
 10
16.8914995292
 20
-18.9238055126
 10
16.8898763321
 20
-18.8594457601
 10
16.8837496371
 20
-18.793279626
  0
LWPOLYLINE
  5
390
100
AcDbEntity
  8
RACCORDO
100
AcDbPolyline
 62
250
  6
CONTINUOUS
 90
8
 70
0
 10
16.9133734656
 20
-19.0617490198
 10
16.9171748774
 20
-19.0325729239
 10
16.920717157
 20
-18.9647648979
 10
16.9192053721
 20
-18.8941116231
 10
16.9127549086
 20
-18.8207422567
 10
16.9014654807
 20
-18.7463949056
 10
16.8853703265
 20
-18.6716489385
 10
16.8644362079
 20
-18.5959249865
  0
LWPOLYLINE
  5
391
100
AcDbEntity
  8
ASSI
100
AcDbPolyline
 62
7
  6
CONTINUOUS
 90
29
 70
0
 10
15.5902299226
 20
2.7803486107
 10
15.5596471
 20
2.6215639503
 10
15.5379413793
 20
2.4563494984
 10
15.52501298
 20
2.2847774359
 10
15.5210083127
 20
2.1087814837
 10
15.5260286943
 20
1.9283115323
 10
15.5399728078
 20
1.7434176914
 10
15.5626831127
 20
1.5561840112
 10
15.5942586131
 20
1.3665851999
 10
15.6346003049
 20
1.1746465493
 10
15.683253636
 20
0.9825279851
 10
15.7403122502
 20
0.7902276654
 10
15.8056825037
 20
0.5977474321
 10
15.8786289135
 20
0.4072527367
 10
15.9592371996
 20
0.2187654401
 10
16.0474216421
 20
0.0322636815
 10
16.1421895979
 20
-0.1501526703
 10
16.2436156524
 20
-0.3284376479
 10
16.3516252204
 20
-0.5026372186
 10
16.4650019029
 20
-0.6707894159
 10
16.5838062511
 20
-0.8328256403
 10
16.7079777138
 20
-0.9888144913
 10
16.8361182389
 20
-1.1369998
 10
16.968272611
 20
-1.2772933268
 10
17.1043960455
 20
-1.4097833114
 10
17.2429561359
 20
-1.5329783041
 10
17.383980443
 20
-1.6467733198
 10
17.527441406
 20
-1.7512733435
 10
17.6717239363
 20
-1.845301881
  0
LWPOLYLINE
  5
392
100
AcDbEntity
  8
ASSI
100
AcDbPolyline
 62
7
  6
CONTINUOUS
 90
29
 70
0
 10
15.5902299226
 20
-16.7052229744
 10
15.5596471
 20
-16.8640076349
 10
15.5379413793
 20
-17.0292220867
 10
15.52501298
 20
-17.2007941493
 10
15.5210083127
 20
-17.3767901014
 10
15.5260286943
 20
-17.5572600528
 10
15.5399728078
 20
-17.7421538938
 10
15.5626831127
 20
-17.929387574
 10
15.5942586131
 20
-18.1189863853
 10
15.6346003049
 20
-18.3109250358
 10
15.683253636
 20
-18.5030436
 10
15.7403122502
 20
-18.6953439198
 10
15.8056825037
 20
-18.8878241531
 10
15.8786289135
 20
-19.0783188485
 10
15.9592371996
 20
-19.266806145
 10
16.0474216421
 20
-19.4533079036
 10
16.1421895979
 20
-19.6357242554
 10
16.2436156524
 20
-19.814009233
 10
16.3516252204
 20
-19.9882088038
 10
16.4650019029
 20
-20.1563610011
 10
16.5838062511
 20
-20.3183972255
 10
16.7079777138
 20
-20.4743860764
 10
16.8361182389
 20
-20.6225713852
 10
16.968272611
 20
-20.762864912
 10
17.1043960455
 20
-20.8953548966
 10
17.2429561359
 20
-21.0185498892
 10
17.383980443
 20
-21.1323449049
 10
17.527441406
 20
-21.2368449287
 10
17.6717239363
 20
-21.3308734662
  0
LWPOLYLINE
  5
393
100
AcDbEntity
  8
ASSI
100
AcDbPolyline
 62
7
  6
CONTINUOUS
 90
30
 70
0
 10
15.6029675355
 20
-5.3965774422
 10
15.5759294333
 20
-5.5148903425
 10
15.5490517031
 20
-5.6775420491
 10
15.5310994592
 20
-5.8456696677
 10
15.5221740968
 20
-6.0193354236
 10
15.5221742206
 20
-6.1984770914
 10
15.5310998283
 20
-6.3810683094
 10
15.5490523176
 20
-6.5671482545
 10
15.5759302907
 20
-6.7566777497
 10
15.611429552
 20
-6.9475129027
 10
15.6556479566
 20
-7.139668344
 10
15.7084876494
 20
-7.333129443
 10
15.7693508694
 20
-7.5257084152
 10
15.8383285521
 20
-7.7173950283
 10
15.915329762
 20
-7.9081995147
 10
15.9994839312
 20
-8.0959647874
 10
16.0908722871
 20
-8.2806565697
 10
16.1894136022
 20
-8.4623091383
 10
16.2939936264
 20
-8.6388682366
 10
16.4046813044
 20
-8.8102764658
 10
16.5214076916
 20
-8.9765912247
 10
16.6428517034
 20
-9.1359304531
 10
16.7690671943
 20
-9.2882148333
 10
16.9000003099
 20
-9.4335236829
 10
17.0341684023
 20
-9.5702128956
 10
17.1716085372
 20
-9.6981842494
 10
17.3122836489
 20
-9.8175359662
 10
17.4545998919
 20
-9.926918605
 10
17.5980259846
 20
-10.0258823521
 10
17.7430932086
 20
-10.1148770211
  0
LWPOLYLINE
  5
394
100
AcDbEntity
  8
ASSI
100
AcDbPolyline
 62
7
  6
CONTINUOUS
 90
43
 70
0
 10
22.2506417496
 20
17.6466963389
 10
22.2627546795
 20
17.6949877295
 10
22.2807518677
 20
17.7429089422
 10
22.3043811377
 20
17.7898505016
 10
22.3335949093
 20
17.8356764193
 10
22.3684405684
 20
17.8805171796
 10
22.4088084272
 20
17.9241643525
 10
22.4546795071
 20
17.9666574952
 10
22.5060725876
 20
18.007951718
 10
22.5629346462
 20
18.0477128476
 10
22.6256083167
 20
18.0860712203
 10
22.693750775
 20
18.1228917429
 10
22.7662809079
 20
18.1574449546
 10
22.8433616636
 20
18.1896349415
 10
22.9248300664
 20
18.2195577292
 10
23.0091162747
 20
18.2467762941
 10
23.0959027782
 20
18.2711440921
 10
23.1855072314
 20
18.2928124559
 10
23.2773126375
 20
18.3117938543
 10
23.3712674481
 20
18.328112461
 10
23.4674233791
 20
18.3417492463
 10
23.5653183652
 20
18.352652753
 10
23.665254446
 20
18.3608352496
 10
23.7669297712
 20
18.3662899217
 10
23.8689764988
 20
18.3689381385
 10
23.9714049563
 20
18.3687146326
 10
24.0742050814
 20
18.365691818
 10
24.1759785125
 20
18.359999171
 10
24.2764282167
 20
18.351636664
 10
24.3758515102
 20
18.3406116556
 10
24.4737415742
 20
18.3270651517
 10
24.5701779979
 20
18.310993838
 10
24.6650814219
 20
18.2924068207
 10
24.7577066007
 20
18.2714635951
 10
24.8480843303
 20
18.2481409647
 10
24.9361839903
 20
18.2224664672
 10
25.0211682018
 20
18.1946754721
 10
25.1030482963
 20
18.1647240729
 10
25.1818130444
 20
18.1326586708
 10
25.2565912083
 20
18.0988496657
 10
25.3270923801
 20
18.0634206411
 10
25.3936069815
 20
18.0262483494
 10
25.4561349966
 20
17.9873324048
  0
LINE
  5
395
100
AcDbEntity
  8
ASSI
100
AcDbLine
 62
7
  6
CONTINUOUS
 10
15.6251076648
 20
2.9154170025
 11
15.5902299226
 21
2.7803486107
  0
LINE
  5
396
100
AcDbEntity
  8
ASSI
100
AcDbLine
 62
7
  6
CONTINUOUS
 10
15.6251076648
 20
-16.5701545827
 11
15.5902299226
 21
-16.7052229744
  0
LWPOLYLINE
  5
397
100
AcDbEntity
  8
ASSI
100
AcDbPolyline
 62
7
  6
CONTINUOUS
 90
15
 70
0
 10
15.6056684965
 20
-13.6136014417
 10
15.5942570195
 20
-13.6564842479
 10
15.5626818375
 20
-13.8145081561
 10
15.5399719293
 20
-13.9790320354
 10
15.526028253
 20
-14.1499821791
 10
15.5210082879
 20
-14.3254319135
 10
15.5250133631
 20
-14.5054323978
 10
15.5379421496
 20
-14.689932473
 10
15.5596481399
 20
-14.8768519887
 10
15.5902310821
 20
-15.0662184587
 10
15.6295912281
 20
-15.2580043694
 10
15.6772828258
 20
-15.4500470288
 10
15.733157291
 20
-15.6416255398
 10
15.7973632079
 20
-15.8334607996
 10
15.8699005763
 20
-16.0255528082
  0
LWPOLYLINE
  5
398
100
AcDbEntity
  8
RACCORDO
100
AcDbPolyline
 62
250
  6
CONTINUOUS
 90
6
 70
0
 10
16.221621772
 20
-13.669927842
 10
16.2005769483
 20
-13.7447469194
 10
16.1704643813
 20
-13.8885301789
 10
16.1488513646
 20
-14.0387114544
 10
16.1358482634
 20
-14.1945662239
 10
16.1315080456
 20
-14.3554309746
  0
LWPOLYLINE
  5
399
100
AcDbEntity
  8
0
100
AcDbPolyline
 62
7
  6
CONTINUOUS
 90
31
 70
0
 10
16.1842083708
 20
-5.4286155135
 10
16.1565080112
 20
-5.5050062019
 10
16.1187917724
 20
-5.6384252378
 10
16.0893671368
 20
-5.7780100499
 10
16.0683403183
 20
-5.9238396208
 10
16.055605103
 20
-6.0758349679
 10
16.0513239329
 20
-6.2320573377
 10
16.055605103
 20
-6.3925608775
 10
16.0683403183
 20
-6.55729144
 10
16.0893671368
 20
-6.7241478294
 10
16.1187917724
 20
-6.8931572771
 10
16.1565080112
 20
-7.0642925518
 10
16.2020347694
 20
-7.2353707633
 10
16.2554720984
 20
-7.4063911806
 10
16.3167199467
 20
-7.5773545348
 10
16.3849970769
 20
-7.7460801287
 10
16.4603935326
 20
-7.912539297
 10
16.54281927
 20
-8.076760705
 10
16.6312229203
 20
-8.2366496513
 10
16.7256810592
 20
-8.392150638
 10
16.8261171109
 20
-8.5433191631
 10
16.9312499785
 20
-8.6882270193
 10
17.0411398274
 20
-8.8267940087
 10
17.1557264922
 20
-8.9591003293
 10
17.2735483801
 20
-9.0834583678
 10
17.3946469336
 20
-9.1997663082
 10
17.5189807102
 20
-9.3081259666
 10
17.6449637893
 20
-9.4071551776
 10
17.7720675305
 20
-9.4963932197
 10
17.9008205742
 20
-9.5763008145
 10
18.0312229203
 20
-9.646877962
  0
LWPOLYLINE
  5
39A
100
AcDbEntity
  8
0
100
AcDbPolyline
 62
7
  6
CONTINUOUS
 90
7
 70
0
 10
16.1841836051
 20
-13.6559251471
 10
16.1565080112
 20
-13.7322475379
 10
16.1187917724
 20
-13.8656665737
 10
16.0893671368
 20
-14.0052513859
 10
16.0683944657
 20
-14.1504347055
 10
16.0557133977
 20
-14.3017838015
 10
16.0513239329
 20
-14.4592986737
  0
LWPOLYLINE
  5
39B
100
AcDbEntity
  8
0
100
AcDbPolyline
 62
7
  6
CONTINUOUS
 90
9
 70
0
 10
24.4151244373
 20
10.3915259178
 10
24.4129375143
 20
10.3858518956
 10
24.4080941293
 20
10.3766560988
 10
24.4017396273
 20
10.3677255076
 10
24.3938417981
 20
10.3589838838
 10
24.3843954375
 20
10.3504905655
 10
24.373398811
 20
10.342265332
 10
24.360853653
 20
10.3342884039
 10
24.3467599637
 20
10.3265597812
  0
LWPOLYLINE
  5
39C
100
AcDbEntity
  8
ASSI
100
AcDbPolyline
 62
7
  6
CONTINUOUS
 90
10
 70
0
 10
18.3130024851
 20
-1.6751244401
 10
18.3016863758
 20
-1.7043229668
 10
18.263916366
 20
-1.7860726836
 10
18.2217865658
 20
-1.8630495028
 10
18.1754780637
 20
-1.9345846523
 10
18.125044802
 20
-2.0003279301
 10
18.0694953721
 20
-2.0609871654
 10
18.0083148775
 20
-2.1161583752
 10
17.9416558821
 20
-2.1647788991
 10
17.8692074253
 20
-2.2062684114
  0
LWPOLYLINE
  5
39D
100
AcDbEntity
  8
ASSI
100
AcDbPolyline
 62
7
  6
CONTINUOUS
 90
39
 70
0
 10
15.4321144373
 20
-5.6839966806
 10
15.389005791
 20
-5.789268571
 10
15.353940699
 20
-5.893011287
 10
15.3241060519
 20
-6.0014504674
 10
15.2995835892
 20
-6.1142889455
 10
15.2804404989
 20
-6.2312175415
 10
15.2667292505
 20
-6.3519158158
 10
15.2584874386
 20
-6.4760528993
 10
15.2557376577
 20
-6.6032885064
 10
15.258487444
 20
-6.7332738884
 10
15.2667292599
 20
-6.8656527687
 10
15.2804405115
 20
-7.0000622815
 10
15.2995836064
 20
-7.1361339714
 10
15.324106075
 20
-7.2734949215
 10
15.3539407275
 20
-7.4117687538
 10
15.3890058223
 20
-7.5505765556
 10
15.4292052417
 20
-7.6895377809
 10
15.4744287653
 20
-7.8282714115
 10
15.5245524055
 20
-7.9663971147
 10
15.5794387949
 20
-8.1035363722
 10
15.6389375281
 20
-8.2393133814
 10
15.702885545
 20
-8.3733560208
 10
15.771107557
 20
-8.5052968505
 10
15.8434165634
 20
-8.6347742056
 10
15.9196143842
 20
-8.7614332162
 10
15.9994921559
 20
-8.8849266953
 10
16.0828308844
 20
-9.0049160765
 10
16.1694020831
 20
-9.1210724103
 10
16.2589685129
 20
-9.2330774033
 10
16.3512847897
 20
-9.3406241945
 10
16.4460979913
 20
-9.4434181052
 10
16.5431481464
 20
-9.541177253
 10
16.6421690464
 20
-9.6336334915
 10
16.7428891439
 20
-9.7205333178
 10
16.8450324926
 20
-9.8016386907
 10
16.9483193081
 20
-9.8767274607
 10
17.0524665542
 20
-9.9455938464
 10
17.1571887104
 20
-10.008049034
 10
17.2621987415
 20
-10.0639218293
  0
LWPOLYLINE
  5
39E
100
AcDbEntity
  8
ASSI
100
AcDbPolyline
 62
7
  6
CONTINUOUS
 90
17
 70
0
 10
15.4393245516
 20
-13.8951973516
 10
15.4325542368
 20
-13.9104654758
 10
15.3842868824
 20
-14.0334689499
 10
15.3438333732
 20
-14.1638716767
 10
15.3113605712
 20
-14.3011360223
 10
15.2870025343
 20
-14.4446961378
 10
15.2708600695
 20
-14.593958987
 10
15.2629999527
 20
-14.7483072191
 10
15.263454541
 20
-14.9071040183
 10
15.2722218869
 20
-15.069693588
 10
15.2892654006
 20
-15.2354023717
 10
15.3145143293
 20
-15.403546535
 10
15.3478639964
 20
-15.5734317373
 10
15.389175457
 20
-15.7443534924
 10
15.4382770045
 20
-15.9156052733
 10
15.4949653996
 20
-16.0864815138
 10
15.5590059
 20
-16.2562772406
  0
LWPOLYLINE
  5
39F
100
AcDbEntity
  8
0
100
AcDbPolyline
 62
250
  6
CONTINUOUS
 90
3
 70
0
 10
24.1806734524
 20
10.2435165255
 10
24.1506409063
 20
10.178962793
 10
24.1483623674
 20
10.1745248117
  0
LWPOLYLINE
  5
3A0
100
AcDbEntity
  8
0
100
AcDbPolyline
 62
7
  6
CONTINUOUS
 90
11
 70
0
 10
24.1420551898
 20
10.2093746116
 10
24.1414987336
 20
10.2081812671
 10
24.139521886
 20
10.2022297889
 10
24.1388135055
 20
10.1963808715
 10
24.1392134954
 20
10.1908082379
 10
24.1407189901
 20
10.1855494244
 10
24.1433328551
 20
10.1805668948
 10
24.1469035903
 20
10.1759217641
 10
24.1513806957
 20
10.1716344038
 10
24.1568146713
 20
10.1676844424
 10
24.1632055172
 20
10.1640718798
  0
LWPOLYLINE
  5
3A1
100
AcDbEntity
  8
ASSI
100
AcDbPolyline
 62
7
  6
CONTINUOUS
 90
5
 70
0
 10
24.2941743143
 20
10.0985874812
 10
24.3299363917
 20
10.1738316205
 10
24.3653049243
 20
10.2563736651
 10
24.3972960741
 20
10.3399251226
 10
24.4151852707
 20
10.3915208433
  0
LWPOLYLINE
  5
3A2
100
AcDbEntity
  8
0
100
AcDbPolyline
 62
250
  6
CONTINUOUS
 90
5
 70
0
 10
24.2566922034
 20
10.1176001533
 10
24.270032734
 20
10.1444371592
 10
24.2974915588
 20
10.2043104151
 10
24.323067302
 20
10.2650179558
 10
24.3467599637
 20
10.3265597812
  0
LWPOLYLINE
  5
3A3
100
AcDbEntity
  8
ASSI
100
AcDbPolyline
 62
250
  6
CONTINUOUS
 90
5
 70
0
 10
18.2493950949
 20
-2.3721413353
 10
18.3210876342
 20
-2.2551876221
 10
18.3852398969
 20
-2.1287385753
 10
18.441111128
 20
-1.9942321226
 10
18.4419162578
 20
-1.9918137244
  0
LWPOLYLINE
  5
3A4
100
AcDbEntity
  8
ASSI
100
AcDbPolyline
 62
250
  6
CONTINUOUS
 90
19
 70
0
 10
14.2775168397
 20
-13.8396392804
 10
14.2058243003
 20
-13.9565929936
 10
14.1416720377
 20
-14.0830420404
 10
14.0858008065
 20
-14.2175484931
 10
14.0383072063
 20
-14.3602067831
 10
13.9990946375
 20
-14.510922479
 10
13.9686140566
 20
-14.6679743584
 10
13.9469667933
 20
-14.8314322552
 10
13.9340515179
 20
-15.0012263355
 10
13.9300151979
 20
-15.175425875
 10
13.9349593091
 20
-15.354081683
 10
13.9487823756
 20
-15.5371429501
 10
13.9713269372
 20
-15.7225265239
 10
14.002699574
 20
-15.9102755756
 10
14.0427937058
 20
-16.100346934
 10
14.0911321318
 20
-16.2905279325
 10
14.1475557848
 20
-16.4800810159
 10
14.2122237318
 20
-16.6697437395
 10
14.285135973
 20
-16.8595161033
  0
LWPOLYLINE
  5
3A5
100
AcDbEntity
  8
ASSI
100
AcDbPolyline
 62
7
  6
CONTINUOUS
 90
4
 70
0
 10
15.5794387509
 20
-5.4267417036
 10
15.5245523676
 20
-5.5089945723
 10
15.4744287317
 20
-5.5969966378
 10
15.4321144373
 20
-5.6839966806
  0
LWPOLYLINE
  5
3A6
100
AcDbEntity
  8
ASSI
100
AcDbPolyline
 62
7
  6
CONTINUOUS
 90
3
 70
0
 10
15.6416200148
 20
-5.3475230467
 10
15.638937479
 20
-5.3504634249
 10
15.5794387509
 20
-5.4267417036
  0
LINE
  5
3A7
100
AcDbEntity
  8
ASSI
100
AcDbLine
 62
7
  6
CONTINUOUS
 10
15.3738331039
 20
-13.6600439374
 11
15.4370577956
 21
-13.6206917476
  0
LWPOLYLINE
  5
3A8
100
AcDbEntity
  8
ASSI
100
AcDbPolyline
 62
250
  6
CONTINUOUS
 90
43
 70
0
 10
52.1570844586
 20
12.170911187
 10
52.3678446788
 20
12.2869508497
 10
52.5668928161
 20
12.4053944064
 10
52.7542423557
 20
12.5262422088
 10
52.9289075098
 20
12.6497381665
 10
53.0918956364
 20
12.7756439106
 10
53.2462011088
 20
12.9032309643
 10
53.3914373571
 20
13.0313621948
 10
53.5279925269
 20
13.1611876177
 10
53.6599940914
 20
13.2953213495
 10
53.7880901986
 20
13.4334252566
 10
53.9115758086
 20
13.5756670901
 10
54.0324990662
 20
13.725246362
 10
54.1521559026
 20
13.8835001114
 10
54.2691133654
 20
14.0486796928
 10
54.3813085254
 20
14.2193077563
 10
54.4886371269
 20
14.3959693887
 10
54.5910723063
 20
14.5777492595
 10
54.6867127945
 20
14.7610842541
 10
54.7749240858
 20
14.945530319
 10
54.8562781378
 20
15.131450796
 10
54.9307424783
 20
15.3166776194
 10
54.9979640033
 20
15.500329747
 10
55.0582821958
 20
15.6833478906
 10
55.112719023
 20
15.86632942
 10
55.1613361334
 20
16.0486174395
 10
55.2040405598
 20
16.2308566925
 10
55.241583127
 20
16.4154709952
 10
55.2742126085
 20
16.6028117425
 10
55.3015803055
 20
16.7922942391
 10
55.3234952311
 20
16.984805409
 10
55.3399985715
 20
17.1799913863
 10
55.3509278577
 20
17.3778966114
 10
55.3557493451
 20
17.5799056956
 10
55.3546246717
 20
17.7849730183
 10
55.3472282418
 20
17.9936954778
 10
55.3322088774
 20
18.2096868096
 10
55.3098296534
 20
18.4322366941
 10
55.27952507
 20
18.6611606339
 10
55.2385517449
 20
18.9004534751
 10
55.18579361
 20
19.1508373088
 10
55.1218579344
 20
19.4099866845
 10
55.0464992851
 20
19.6770354447
  0
LWPOLYLINE
  5
3A9
100
AcDbEntity
  8
RACCORDO
100
AcDbPolyline
 62
7
  6
CONTINUOUS
 90
13
 70
0
 10
17.0117367254
 20
-6.4052879794
 10
16.9919975484
 20
-6.41577493
 10
16.9703625052
 20
-6.4254444659
 10
16.947153013
 20
-6.434063799
 10
16.9227038579
 20
-6.441367312
 10
16.8974106714
 20
-6.4472185442
 10
16.8717239736
 20
-6.4516153343
 10
16.8460602145
 20
-6.4544538934
 10
16.820832337
 20
-6.4556131653
 10
16.7964956028
 20
-6.4551199553
 10
16.7734721743
 20
-6.4529842533
 10
16.7521439474
 20
-6.4491956378
 10
16.7328828996
 20
-6.4438093519
  0
LWPOLYLINE
  5
3AA
100
AcDbEntity
  8
ASSI
100
AcDbPolyline
 62
250
  6
CONTINUOUS
 90
24
 70
0
 10
15.3648112905
 20
-13.6519588137
 10
15.3265635087
 20
-13.6720767595
 10
15.2324079724
 20
-13.7307572515
 10
15.1440173753
 20
-13.7995374061
 10
15.0617599317
 20
-13.8781307441
 10
14.985978378
 20
-13.9662097215
 10
14.9169883281
 20
-14.0634072883
 10
14.8550767919
 20
-14.1693188443
 10
14.8005013067
 20
-14.2835037273
 10
14.753489084
 20
-14.4054865872
 10
14.714235903
 20
-14.5347594708
 10
14.6829051585
 20
-14.6707843643
 10
14.6596273226
 20
-14.812995106
 10
14.6444994011
 20
-14.9607994545
 10
14.6375844316
 20
-15.1135817496
 10
14.6389112034
 20
-15.2707057589
 10
14.6484741866
 20
-15.4315173523
 10
14.6662335639
 20
-15.5953469524
 10
14.6921153898
 20
-15.7615124195
 10
14.7260119002
 20
-15.929321892
 10
14.76778196
 20
-16.0980766618
 10
14.8172516511
 20
-16.2670740842
 10
14.8742149964
 20
-16.4356105043
 10
14.9384348172
 20
-16.6029841868
  0
LWPOLYLINE
  5
3AB
100
AcDbEntity
  8
ASSI
100
AcDbPolyline
 62
250
  6
CONTINUOUS
 90
10
 70
0
 10
43.9830299287
 20
1.1077323665
 10
45.174478892
 20
1.718074086
 10
46.3512274953
 20
2.3162915313
 10
47.514192917
 20
2.9026720011
 10
48.6637191902
 20
3.4772195686
 10
49.8012495827
 20
4.040499471
 10
50.9286468469
 20
4.5934203908
 10
52.0459684402
 20
5.1361276189
 10
53.1521361055
 20
5.6682180797
 10
54.2466318277
 20
6.1895646173
  0
LINE
  5
3AC
100
AcDbEntity
  8
ASSI
100
AcDbLine
 62
7
  6
CONTINUOUS
 10
31.6634985554
 20
-5.9465199038
 11
23.1072523216
 21
-10.1930903217
  0
LWPOLYLINE
  5
3AD
100
AcDbEntity
  8
ASSI
100
AcDbPolyline
 62
250
  6
CONTINUOUS
 90
10
 70
0
 10
54.2466318277
 20
6.1895646173
 10
55.0840016554
 20
6.5843898875
 10
55.9230611949
 20
6.9764078255
 10
56.7628495976
 20
7.3653933294
 10
57.6024338419
 20
7.7511506869
 10
58.4406863961
 20
8.1334117421
 10
59.2763560626
 20
8.5118514015
 10
60.1089072393
 20
8.8863017219
 10
60.9382726245
 20
9.2567104424
 10
61.7643202495
 20
9.6229965612
  0
LWPOLYLINE
  5
3AE
100
AcDbEntity
  8
ASSI
100
AcDbPolyline
 62
7
  6
CONTINUOUS
 90
55
 70
0
 10
15.3648112905
 20
-13.6519588137
 10
15.4397456748
 20
-13.6195284789
 10
15.51712601
 20
-13.5955524348
 10
15.5967412205
 20
-13.5795582459
 10
15.6778208835
 20
-13.5711466128
 10
15.7603358235
 20
-13.5698002595
 10
15.845190751
 20
-13.5752262561
 10
15.9321375633
 20
-13.587307355
 10
16.0205057702
 20
-13.6058291694
 10
16.1107684194
 20
-13.6308250677
 10
16.2025598513
 20
-13.6622078424
 10
16.2953994572
 20
-13.6998075014
 10
16.3897778542
 20
-13.7438766046
 10
16.4855890229
 20
-13.794510809
 10
16.5821962127
 20
-13.8515049283
 10
16.679398795
 20
-13.9148501047
 10
16.7767839761
 20
-13.9843859988
 10
16.8740470106
 20
-14.0599931568
 10
16.9711925837
 20
-14.1418029557
 10
17.0680723836
 20
-14.2298659302
 10
17.164124702
 20
-14.3238412553
 10
17.2587674109
 20
-14.423277035
 10
17.351558327
 20
-14.5277811177
 10
17.4422966129
 20
-14.6371926257
 10
17.5307922722
 20
-14.7513697412
 10
17.6168178494
 20
-14.8701275976
 10
17.6999853957
 20
-14.9930348031
 10
17.7798908211
 20
-15.1195633821
 10
17.8562392425
 20
-15.249284757
 10
17.9288179611
 20
-15.381868516
 10
17.9973858835
 20
-15.5169018452
 10
18.0617397259
 20
-15.6540048389
 10
18.1216655648
 20
-15.7927326946
 10
18.1769421286
 20
-15.9325564615
 10
18.2274068476
 20
-16.0730161631
 10
18.2729365141
 20
-16.2137013435
 10
18.3134084149
 20
-16.3541411768
 10
18.3487387487
 20
-16.4939224722
 10
18.3788508441
 20
-16.632580225
 10
18.403678053
 20
-16.769554847
 10
18.4232053193
 20
-16.9043751763
 10
18.4374555768
 20
-17.0366663848
 10
18.4464661671
 20
-17.1660032651
 10
18.4503006742
 20
-17.2919005042
 10
18.4490566988
 20
-17.4140613565
 10
18.4428351524
 20
-17.5323087944
 10
18.4317764739
 20
-17.6460768091
 10
18.4160196029
 20
-17.7552089898
 10
18.3955954498
 20
-17.860011445
 10
18.370590442
 20
-17.9601915624
 10
18.3411841458
 20
-18.0552173624
 10
18.3075028205
 20
-18.1448790698
 10
18.2697383036
 20
-18.2288347829
 10
18.2281495252
 20
-18.3067100572
 10
18.1829924547
 20
-18.3782550832
  0
LINE
  5
3AF
100
AcDbEntity
  8
ASSI
100
AcDbLine
 62
7
  6
CONTINUOUS
 10
17.9369171399
 20
-10.3948920049
 11
17.8584036559
 21
-10.4245960641
  0
LWPOLYLINE
  5
3B0
100
AcDbEntity
  8
ASSI
100
AcDbPolyline
 62
250
  6
CONTINUOUS
 90
7
 70
0
 10
26.482420058
 20
23.6589500773
 10
26.2509485499
 20
23.5931537713
 10
26.0129765431
 20
23.5245702652
 10
25.7685020973
 20
23.4531677581
 10
25.5175232705
 20
23.3789135077
 10
25.2600381246
 20
23.301773832
 10
24.8994780211
 20
23.1921480964
  0
LWPOLYLINE
  5
3B1
100
AcDbEntity
  8
ASSI
100
AcDbPolyline
 62
7
  6
CONTINUOUS
 90
4
 70
0
 10
26.0438974326
 20
23.7463612741
 10
25.9315280862
 20
23.7145620074
 10
25.7538800885
 20
23.6638903901
 10
25.3953967101
 20
23.5601586264
  0
LINE
  5
3B2
100
AcDbEntity
  8
ASSI
100
AcDbLine
 62
250
  6
CONTINUOUS
 10
26.0439387805
 20
23.7463727683
 11
26.0513103739
 21
23.7483800118
  0
LINE
  5
3B3
100
AcDbEntity
  8
ASSI
100
AcDbLine
 62
7
  6
CONTINUOUS
 10
32.0250187857
 20
22.5386773334
 11
32.0249015276
 21
22.5386489419
  0
LWPOLYLINE
  5
3B4
100
AcDbEntity
  8
ASSI
100
AcDbPolyline
 62
7
  6
CONTINUOUS
 90
8
 70
0
 10
32.0249015276
 20
22.5386489419
 10
31.7429600149
 20
22.471939543
 10
31.4073678699
 20
22.3968955217
 10
31.081887561
 20
22.3290719042
 10
30.766723032
 20
22.2685353588
 10
30.462378861
 20
22.2153423649
 10
30.1696918855
 20
22.169563268
 10
30.0011748371
 20
22.1464898738
  0
LWPOLYLINE
  5
3B5
100
AcDbEntity
  8
ASSI
100
AcDbPolyline
 62
250
  6
CONTINUOUS
 90
9
 70
0
 10
32.4425486589
 20
22.4484956016
 10
32.1296130596
 20
22.3767783233
 10
31.8242907041
 20
22.3106832934
 10
31.5267381141
 20
22.2502224446
 10
31.237704961
 20
22.1955128053
 10
30.9567420299
 20
22.1464085181
 10
30.6822330157
 20
22.1026827243
 10
30.4135856172
 20
22.0644628748
 10
30.2146118691
 20
22.0397713578
  0
LWPOLYLINE
  5
3B6
100
AcDbEntity
  8
ASSI
100
AcDbPolyline
 62
250
  6
CONTINUOUS
 90
10
 70
0
 10
26.0513103739
 20
23.7483800118
 10
26.0962441006
 20
23.7576147485
 10
26.1424961899
 20
23.762075685
 10
26.1895783203
 20
23.7616497274
 10
26.2374314278
 20
23.7563849029
 10
26.2860446233
 20
23.7463544662
 10
26.3349549377
 20
23.7314891892
 10
26.3839610432
 20
23.711838023
 10
26.4331462273
 20
23.68759537
 10
26.4824548471
 20
23.6589326827
  0
LWPOLYLINE
  5
3B7
100
AcDbEntity
  8
ASSI
100
AcDbPolyline
 62
7
  6
CONTINUOUS
 90
16
 70
0
 10
43.1903939552
 20
25.581975971
 10
42.817227204
 20
25.5286881946
 10
42.3635977257
 20
25.4543853397
 10
41.9102214193
 20
25.3702952829
 10
41.4576456282
 20
25.2772362554
 10
41.0061829394
 20
25.1760121266
 10
40.5559577532
 20
25.0674151108
 10
40.1073840596
 20
24.9523171048
 10
39.6608832667
 20
24.8316168962
 10
39.2165974727
 20
24.7061463836
 10
38.7748733987
 20
24.5767894324
 10
38.3361196373
 20
24.4444495664
 10
37.9005975977
 20
24.3099722365
 10
37.4686502396
 20
24.174211319
 10
37.0406076802
 20
24.0379888285
 10
35.7827362659
 20
23.6341405368
  0
LWPOLYLINE
  5
3B8
100
AcDbEntity
  8
ASSI
100
AcDbPolyline
 62
7
  6
CONTINUOUS
 90
11
 70
0
 10
37.3814477
 20
18.4563534424
 10
37.5067050978
 20
18.469888623
 10
37.7396857391
 20
18.5017779924
 10
37.9742682895
 20
18.5405498227
 10
38.2100684584
 20
18.586149478
 10
38.4470937117
 20
18.6385952534
 10
38.6853365834
 20
18.6978688538
 10
38.9243903851
 20
18.7638607579
 10
39.164119554
 20
18.8365344586
 10
39.4046596528
 20
18.9159264631
 10
39.6460106817
 20
19.0020367713
  0
LWPOLYLINE
  5
3B9
100
AcDbEntity
  8
ASSI
100
AcDbPolyline
 62
7
  6
CONTINUOUS
 90
9
 70
0
 10
36.7143327336
 20
18.7899109256
 10
36.8395863141
 20
18.8014454484
 10
37.1495022201
 20
18.8419863896
 10
37.4622360213
 20
18.8948175881
 10
37.7775274176
 20
18.9598852958
 10
38.0945955086
 20
19.0370282683
 10
38.4131799943
 20
19.1261927577
 10
38.7335411747
 20
19.2274325121
 10
39.0556790499
 20
19.3407475314
  0
LWPOLYLINE
  5
3BA
100
AcDbEntity
  8
ASSI
100
AcDbPolyline
 62
250
  6
CONTINUOUS
 90
7
 70
0
 10
55.0464992856
 20
19.6770354447
 10
55.3195214475
 20
19.6916288527
 10
55.5918761051
 20
19.7045273488
 10
55.8635621039
 20
19.71572886
 10
56.1345783027
 20
19.7252313361
 10
56.4049235743
 20
19.7330327497
 10
56.6745968052
 20
19.7391310965
  0
LWPOLYLINE
  5
3BB
100
AcDbEntity
  8
0
100
AcDbPolyline
 62
7
  6
CONTINUOUS
 90
16
 70
0
 10
23.6682307703
 20
10.4115592532
 10
23.6754607922
 20
10.4083620713
 10
23.6833658268
 20
10.4056439282
 10
23.6919458739
 20
10.4034048237
 10
23.701239924
 20
10.4016193298
 10
23.7112089866
 20
10.4003128745
 10
23.7217360912
 20
10.3995617427
 10
23.7329047557
 20
10.3993655637
 10
23.7446314621
 20
10.3997247082
 10
23.7565486851
 20
10.4007165728
 10
23.7686893888
 20
10.4023601586
 10
23.7810206091
 20
10.4046364647
 10
23.7930759284
 20
10.4075658846
 10
23.8046998739
 20
10.4111552162
 10
23.8160479184
 20
10.4153976616
 10
23.8271200618
 20
10.4202932208
  0
LWPOLYLINE
  5
3BC
100
AcDbEntity
  8
0
100
AcDbPolyline
 62
7
  6
CONTINUOUS
 90
16
 70
0
 10
10.5867553184
 20
16.9522969792
 10
10.5939853403
 20
16.9490997973
 10
10.6018903748
 20
16.9463816542
 10
10.610470422
 20
16.9441425497
 10
10.619764472
 20
16.9423570558
 10
10.6297335347
 20
16.9410506005
 10
10.6402606392
 20
16.9402994687
 10
10.6514293038
 20
16.9401032897
 10
10.6631560102
 20
16.9404624341
 10
10.6750732332
 20
16.9414542987
 10
10.6872139369
 20
16.9430978846
 10
10.6995451572
 20
16.9453741907
 10
10.7116004764
 20
16.9483036105
 10
10.723224422
 20
16.9518929421
 10
10.7345724664
 20
16.9561353876
 10
10.7456446098
 20
16.9610309468
  0
LWPOLYLINE
  5
3BD
100
AcDbEntity
  8
ASSI
100
AcDbPolyline
 62
7
  6
CONTINUOUS
 90
8
 70
0
 10
22.3501169367
 20
-13.8435599129
 10
22.3470305937
 20
-13.8361613227
 10
22.3382821877
 20
-13.8110257959
 10
22.3309949241
 20
-13.7851871095
 10
22.325316615
 20
-13.7585974072
 10
22.3212965314
 20
-13.7312407367
 10
22.3188854025
 20
-13.7031330501
 10
22.3187015516
 20
-13.6965189051
  0
LWPOLYLINE
  5
3BE
100
AcDbEntity
  8
ASSI
100
AcDbPolyline
 62
7
  6
CONTINUOUS
 90
9
 70
0
 10
21.9227258035
 20
-13.7259336331
 10
21.9100474308
 20
-13.6954427383
 10
21.8990689203
 20
-13.6645217418
 10
21.8896844168
 20
-13.6330913118
 10
21.8819997755
 20
-13.6012307803
 10
21.875975205
 20
-13.5683523589
 10
21.8715974413
 20
-13.5342601186
 10
21.8688797484
 20
-13.4991499884
 10
21.8678221263
 20
-13.4630219686
  0
LWPOLYLINE
  5
3BF
100
AcDbEntity
  8
0
100
AcDbPolyline
 62
7
  6
CONTINUOUS
 90
5
 70
0
 10
21.5818775562
 20
-15.7393768502
 10
21.6279349358
 20
-15.8546573008
 10
21.6937484841
 20
-15.9665834341
 10
21.7795161262
 20
-16.0760480146
 10
21.8852378622
 20
-16.1830510424
  0
LWPOLYLINE
  5
3C0
100
AcDbEntity
  8
ASSI
100
AcDbPolyline
 62
7
  6
CONTINUOUS
 90
11
 70
0
 10
15.0798561735
 20
2.9532980764
 10
15.0152935604
 20
3.1218427149
 10
14.9584092348
 20
3.2901453709
 10
14.9092031966
 20
3.4582060442
 10
14.8675348975
 20
3.6267205402
 10
14.8335448858
 20
3.7949930536
 10
14.8076548066
 20
3.9609361689
 10
14.7899655566
 20
4.1245208698
 10
14.7803762391
 20
4.2857761726
 10
14.7790058094
 20
4.4427017098
 10
14.7855232287
 20
4.5857318523
  0
LWPOLYLINE
  5
3C1
100
AcDbEntity
  8
ASSI
100
AcDbPolyline
 62
250
  6
CONTINUOUS
 90
13
 70
0
 10
14.9384348172
 20
2.8825873983
 10
14.9545763453
 20
2.839370362
 10
14.9679783601
 20
2.7958364502
 10
14.9785246336
 20
2.7523632084
 10
14.9861237036
 20
2.7093276561
 10
14.9907096676
 20
2.6671030168
 10
14.9922427541
 20
2.6260554815
 10
14.9907096675
 20
2.5865410327
 10
14.9861237035
 20
2.5489023575
 10
14.9785246334
 20
2.5134658754
 10
14.96797836
 20
2.4805389072
 10
14.9545763452
 20
2.4504070105
 10
14.9384348172
 20
2.4233315024
  0
LWPOLYLINE
  5
3C2
100
AcDbEntity
  8
ASSI
100
AcDbPolyline
 62
7
  6
CONTINUOUS
 90
13
 70
0
 10
15.0798561735
 20
2.9532980764
 10
15.096149634
 20
2.9094548506
 10
15.1095129061
 20
2.8660467874
 10
15.1199459898
 20
2.8230738867
 10
15.1274883127
 20
2.7801731242
 10
15.1321004471
 20
2.7377075243
 10
15.1336641104
 20
2.69676616
 10
15.1321004471
 20
2.657388459
 10
15.1274883127
 20
2.6195349935
 10
15.1199459898
 20
2.5841765539
 10
15.1095129061
 20
2.5516367369
 10
15.096149634
 20
2.5215919458
 10
15.0798561735
 20
2.4940421805
  0
LWPOLYLINE
  5
3C3
100
AcDbEntity
  8
ASSI
100
AcDbPolyline
 62
7
  6
CONTINUOUS
 90
12
 70
0
 10
15.5590059
 20
3.2292943446
 10
15.5746374254
 20
3.1867525947
 10
15.5876096112
 20
3.1439347715
 10
15.5978136702
 20
3.1011999536
 10
15.6051640294
 20
3.0589065237
 10
15.6095990473
 20
3.0174091622
 10
15.6110815312
 20
2.9770558724
 10
15.6095990485
 20
2.9381850643
 10
15.6051640312
 20
2.9011227167
 10
15.5978136721
 20
2.8661796422
 10
15.5876096128
 20
2.8336488805
 10
15.5800026278
 20
2.8150698026
  0
LWPOLYLINE
  5
3C4
100
AcDbEntity
  8
0
100
AcDbPolyline
 62
7
  6
CONTINUOUS
 90
15
 70
0
 10
21.642352992
 20
-17.2581891912
 10
21.6772290495
 20
-17.3604189575
 10
21.7038293495
 20
-17.461728187
 10
21.721748921
 20
-17.5593173068
 10
21.7307481572
 20
-17.6530361462
 10
21.7307508862
 20
-17.7431841787
 10
21.7217553836
 20
-17.8275652277
 10
21.7038354181
 20
-17.9063485638
 10
21.6772330466
 20
-17.9792155906
 10
21.6423569961
 20
-18.043167295
 10
21.5992692217
 20
-18.0980673728
 10
21.5489083574
 20
-18.1436293145
 10
21.4930827875
 20
-18.1766121752
 10
21.431916058
 20
-18.196236272
 10
21.3668326773
 20
-18.2027688443
  0
LWPOLYLINE
  5
3C5
100
AcDbEntity
  8
ASSI
100
AcDbPolyline
 62
7
  6
CONTINUOUS
 90
13
 70
0
 10
21.3255202093
 20
-10.0139619135
 10
20.946539601
 20
-8.8162190181
 10
20.5505645709
 20
-7.6209323412
 10
20.137595119
 20
-6.4281018828
 10
19.7074302334
 20
-5.2371932791
 10
19.2602709261
 20
-4.048740894
 10
18.7967202323
 20
-2.8643478188
 10
18.3167559885
 20
-1.6840195334
 10
17.8204003583
 20
-0.5077505579
 10
17.308322868
 20
0.6628724567
 10
16.7807466933
 20
1.8273206269
 10
16.2374486586
 20
2.9861228362
 10
15.6784287639
 20
4.1392790847
  0
LWPOLYLINE
  5
3C6
100
AcDbEntity
  8
ASSI
100
AcDbPolyline
 62
250
  6
CONTINUOUS
 90
13
 70
0
 10
22.4329475494
 20
-10.3801592568
 10
22.0099014729
 20
-9.0279179046
 10
21.5706917184
 20
-7.6901074276
 10
21.1153182858
 20
-6.3667278258
 10
20.6446153487
 20
-5.0607785064
 10
20.1577487335
 20
-3.7692600622
 10
19.6522159201
 20
-2.4831742722
 10
19.128365646
 20
-1.2018485303
 10
18.5858491737
 20
0.0740445574
 10
18.0211177698
 20
1.3514853928
 10
17.4329885232
 20
2.6328007766
 10
16.8226443451
 20
3.9156639082
 10
16.1900852355
 20
5.2000747876
  0
LINE
  5
3C7
100
AcDbEntity
  8
0
100
AcDbLine
 62
250
  6
CONTINUOUS
 10
20.701282283
 20
-17.404994315
 11
20.6688392673
 21
-17.3011943829
  0
LWPOLYLINE
  5
3C8
100
AcDbEntity
  8
0
100
AcDbPolyline
 62
250
  6
CONTINUOUS
 90
13
 70
0
 10
23.1072523216
 20
-10.1930903217
 10
22.6768452801
 20
-8.814585444
 10
22.2281260555
 20
-7.4496143129
 10
21.7619127902
 20
-6.0988748685
 10
21.2804231224
 20
-4.766828877
 10
20.7831703782
 20
-3.4502694011
 10
20.2663896649
 20
-2.1384351884
 10
19.730104469
 20
-0.8313694865
 10
19.1748572007
 20
0.4696214874
 10
18.5967485516
 20
1.7731790573
 10
17.9942466658
 20
3.0815670031
 10
17.3686449606
 20
4.3908151131
 10
16.7199009835
 20
5.7000465881
  0
LWPOLYLINE
  5
3C9
100
AcDbEntity
  8
ASSI
100
AcDbPolyline
 62
7
  6
CONTINUOUS
 90
10
 70
0
 10
21.9972305813
 20
-12.3521344407
 10
21.9276062081
 20
-12.0923580738
 10
21.8567266968
 20
-11.8325673626
 10
21.7845920474
 20
-11.5727623072
 10
21.7111987801
 20
-11.312930642
 10
21.6365503748
 20
-11.0530846327
 10
21.560657271
 20
-10.7932610755
 10
21.4835229488
 20
-10.533472236
 10
21.4051439282
 20
-10.2737058486
 10
21.3255202093
 20
-10.0139619135
  0
LWPOLYLINE
  5
3CA
100
AcDbEntity
  8
ASSI
100
AcDbPolyline
 62
250
  6
CONTINUOUS
 90
10
 70
0
 10
23.0037632046
 20
-12.3929759075
 10
22.9438914407
 20
-12.1692449893
 10
22.883118901
 20
-11.945491799
 10
22.8214455855
 20
-11.7217163366
 10
22.7588545259
 20
-11.497860698
 10
22.6953626906
 20
-11.2739827873
 10
22.6310209847
 20
-11.0502563166
 10
22.5658463768
 20
-10.82673919
 10
22.4998218984
 20
-10.6033735034
 10
22.4329475494
 20
-10.3801592568
  0
LWPOLYLINE
  5
3CB
100
AcDbEntity
  8
ASSI
100
AcDbPolyline
 62
250
  6
CONTINUOUS
 90
10
 70
0
 10
23.6852482969
 20
-12.2311736468
 10
23.6246612336
 20
-12.0047700574
 10
23.5631607082
 20
-11.7783367061
 10
23.5007487267
 20
-11.5518809779
 10
23.4374273246
 20
-11.3254102587
 10
23.3731985671
 20
-11.0989319348
 10
23.308064549
 20
-10.8724533927
 10
23.2420273946
 20
-10.645982019
 10
23.1750892578
 20
-10.4195252001
 10
23.1072523216
 20
-10.1930903217
  0
LINE
  5
3CC
100
AcDbEntity
  8
0
100
AcDbLine
 62
7
  6
CONTINUOUS
 10
20.6589989691
 20
-17.2846035481
 11
20.7059807237
 21
-17.4631960167
  0
LWPOLYLINE
  5
3CD
100
AcDbEntity
  8
ASSI
100
AcDbPolyline
 62
7
  6
CONTINUOUS
 90
5
 70
0
 10
15.6477011498
 20
4.1546428917
 10
15.6772828258
 20
4.0355245563
 10
15.733157291
 20
3.8439460453
 10
15.7973632079
 20
3.6521107855
 10
15.8699005763
 20
3.4600187769
  0
LWPOLYLINE
  5
3CE
100
AcDbEntity
  8
0
100
AcDbPolyline
 62
250
  6
CONTINUOUS
 90
4
 70
0
 10
21.04110073
 20
-17.9704340612
 10
21.0362085647
 20
-17.9478321295
 10
21.0333488836
 20
-17.9243885606
 10
21.0325405733
 20
-17.9002581804
  0
LWPOLYLINE
  5
3CF
100
AcDbEntity
  8
0
100
AcDbPolyline
 62
7
  6
CONTINUOUS
 90
10
 70
0
 10
16.457129083
 20
1.9632521133
 10
16.4842779536
 20
1.8330160993
 10
16.5179072453
 20
1.7022008911
 10
16.5580169582
 20
1.5708064889
 10
16.6048832158
 20
1.4381538869
 10
16.6582298945
 20
1.3049220907
 10
16.7172286238
 20
1.1731481175
 10
16.78160328
 20
1.0435109729
 10
16.8516299867
 20
0.9153316513
 10
16.9273087439
 20
0.7886101526
  0
LINE
  5
3D0
100
AcDbEntity
  8
0
100
AcDbLine
 62
250
  6
CONTINUOUS
 10
20.6688392673
 20
-17.3011943829
 11
20.6480646982
 21
-17.1971859543
  0
LINE
  5
3D1
100
AcDbEntity
  8
0
100
AcDbLine
 62
7
  6
CONTINUOUS
 10
16.3727133357
 20
2.4254795403
 11
16.457129083
 21
1.9632521133
  0
LINE
  5
3D2
100
AcDbEntity
  8
0
100
AcDbLine
 62
7
  6
CONTINUOUS
 10
16.9273087439
 20
0.7886101526
 11
16.7100870158
 21
1.9780308912
  0
LWPOLYLINE
  5
3D3
100
AcDbEntity
  8
0
100
AcDbPolyline
 62
7
  6
CONTINUOUS
 90
7
 70
0
 10
20.7667655489
 20
-17.606842784
 10
20.7708714195
 20
-17.6300095177
 10
20.7910557081
 20
-17.7057668523
 10
20.8178938209
 20
-17.7811548278
 10
20.8512314996
 20
-17.8557408636
 10
20.891105851
 20
-17.9295202183
 10
20.9374797681
 20
-18.0024976334
  0
LWPOLYLINE
  5
3D4
100
AcDbEntity
  8
RACCORDO
100
AcDbPolyline
 62
7
  6
CONTINUOUS
 90
5
 70
0
 10
16.8837496371
 20
-18.793279626
 10
16.8731595837
 20
-18.7255437063
 10
16.858155544
 20
-18.656687026
 10
16.8388891149
 20
-18.5874530059
 10
16.8155423493
 20
-18.5184460027
  0
LWPOLYLINE
  5
3D5
100
AcDbEntity
  8
0
100
AcDbPolyline
 62
7
  6
CONTINUOUS
 90
3
 70
0
 10
16.4150379605
 20
1.9544406297
 10
16.3899456575
 20
2.1532344044
 10
16.3747736655
 20
2.3494847791
  0
LWPOLYLINE
  5
3D6
100
AcDbEntity
  8
ASSI
100
AcDbPolyline
 62
7
  6
CONTINUOUS
 90
10
 70
0
 10
22.8319534383
 20
-17.2181268788
 10
22.7872114081
 20
-16.689320145
 10
22.7304282932
 20
-16.1572897878
 10
22.6616040936
 20
-15.6220358071
 10
22.580685681
 20
-15.0832130692
 10
22.4877261836
 20
-14.5411667077
 10
22.3828849865
 20
-13.9969321241
 10
22.2662152179
 20
-13.4508544519
 10
22.1376637495
 20
-12.9025885574
 10
21.9972305813
 20
-12.3521344407
  0
LWPOLYLINE
  5
3D7
100
AcDbEntity
  8
0
100
AcDbPolyline
 62
7
  6
CONTINUOUS
 90
3
 70
0
 10
21.5496205071
 20
-15.532731777
 10
21.5557742704
 20
-15.6216348469
 10
21.5818775562
 20
-15.7393768502
  0
LWPOLYLINE
  5
3D8
100
AcDbEntity
  8
ASSI
100
AcDbPolyline
 62
250
  6
CONTINUOUS
 90
13
 70
0
 10
23.942400428
 20
-18.3016683506
 10
23.9156972734
 20
-17.8238078225
 10
23.8795437005
 20
-17.3427541739
 10
23.8339397093
 20
-16.8585074049
 10
23.7788422591
 20
-16.3707426076
 10
23.7142943906
 20
-15.8797846898
 10
23.6404252256
 20
-15.3866083749
 10
23.557202177
 20
-14.8911658923
 10
23.4646578319
 20
-14.3935050126
 10
23.3630190738
 20
-13.8947437708
 10
23.2523615305
 20
-13.3952548452
 10
23.1326095741
 20
-12.8946655574
 10
23.0037632046
 20
-12.3929759075
  0
LWPOLYLINE
  5
3D9
100
AcDbEntity
  8
ASSI
100
AcDbPolyline
 62
7
  6
CONTINUOUS
 90
18
 70
0
 10
21.4790523804
 20
17.5891410978
 10
21.4808196958
 20
17.5435713212
 10
21.4893972517
 20
17.4788079856
 10
21.5051466781
 20
17.4143027874
 10
21.528018392
 20
17.3499834962
 10
21.557853864
 20
17.286291407
 10
21.5947390706
 20
17.2231754283
 10
21.6385883091
 20
17.1606963074
 10
21.6889855342
 20
17.0994633295
 10
21.7459704275
 20
17.0395254867
 10
21.8095035166
 20
16.9808414613
 10
21.879050017
 20
16.9238848406
 10
21.9546480456
 20
16.8686730822
 10
22.03625961
 20
16.8151934175
 10
22.123235743
 20
16.7638734227
 10
22.2153601338
 20
16.7148560698
 10
22.3128491275
 20
16.6679996909
 10
22.415702718
 20
16.6233040584
  0
LWPOLYLINE
  5
3DA
100
AcDbEntity
  8
ASSI
100
AcDbPolyline
 62
7
  6
CONTINUOUS
 90
18
 70
0
 10
24.5443602769
 20
16.0564871496
 10
24.5461275922
 20
16.0109173729
 10
24.5547051482
 20
15.9461540374
 10
24.5704545745
 20
15.8816488392
 10
24.5933262884
 20
15.8173295479
 10
24.6231617604
 20
15.7536374588
 10
24.660046967
 20
15.6905214801
 10
24.7038962055
 20
15.6280423592
 10
24.7542934306
 20
15.5668093813
 10
24.8112783239
 20
15.5068715385
 10
24.8748114131
 20
15.4481875131
 10
24.9443579135
 20
15.3912308924
 10
25.019955942
 20
15.3360191339
 10
25.1015675064
 20
15.2825394692
 10
25.1885436394
 20
15.2312194745
 10
25.2806680303
 20
15.1822021216
 10
25.3781570239
 20
15.1353457427
 10
25.4810106145
 20
15.0906501101
  0
LWPOLYLINE
  5
3DB
100
AcDbEntity
  8
ASSI
100
AcDbPolyline
 62
7
  6
CONTINUOUS
 90
28
 70
0
 10
21.9625596236
 20
-13.6346118621
 10
21.9631387374
 20
-13.6504240947
 10
21.9649636404
 20
-13.666417214
 10
21.9680343326
 20
-13.68259122
 10
21.9723740335
 20
-13.6990747037
 10
21.9779595236
 20
-13.7157390741
 10
21.9847211442
 20
-13.732198558
 10
21.9927072378
 20
-13.7483295151
 10
22.001869462
 20
-13.7642555856
 10
22.0119931312
 20
-13.779961917
 10
22.023062928
 20
-13.7954572518
 10
22.0350941698
 20
-13.8107328476
 10
22.0479181235
 20
-13.8257476245
 10
22.0614918555
 20
-13.8404871218
 10
22.0758582993
 20
-13.8549658003
 10
22.0909775227
 20
-13.8691859626
 10
22.1068742439
 20
-13.8831202751
 10
22.1235237447
 20
-13.8967960713
 10
22.1408119383
 20
-13.9102976542
 10
22.1587151487
 20
-13.92363188
 10
22.1772570521
 20
-13.9367918923
 10
22.19639459
 20
-13.9498414257
 10
22.2161201691
 20
-13.9627662954
 10
22.2364413829
 20
-13.975580686
 10
22.2573379526
 20
-13.9883908861
 10
22.2788031187
 20
-14.0012323252
 10
22.3008436408
 20
-14.0140695737
 10
22.3234595189
 20
-14.0269026316
  0
LWPOLYLINE
  5
3DC
100
AcDbEntity
  8
0
100
AcDbPolyline
 62
7
  6
CONTINUOUS
 90
7
 70
0
 10
20.7496204591
 20
-15.6623841093
 10
20.7515487412
 20
-15.7203830689
 10
20.7740353615
 20
-15.8684287752
 10
20.8216066132
 20
-16.0149728184
 10
20.8939084935
 20
-16.1589476134
 10
20.9904144328
 20
-16.2993194394
 10
21.1104211084
 20
-16.4350734855
  0
LWPOLYLINE
  5
3DD
100
AcDbEntity
  8
ASSI
100
AcDbPolyline
 62
7
  6
CONTINUOUS
 90
18
 70
0
 10
22.2437119012
 20
17.614830489
 10
22.2443595827
 20
17.5919478003
 10
22.2499101226
 20
17.5433002946
 10
22.2611964244
 20
17.4951276501
 10
22.2781904173
 20
17.4472947742
 10
22.3006328611
 20
17.4000568
 10
22.3285315283
 20
17.353380627
 10
22.3618788211
 20
17.3073051176
 10
22.4003924384
 20
17.2621932122
 10
22.4441266339
 20
17.2180296571
 10
22.4930272814
 20
17.1748340204
 10
22.5466495023
 20
17.1330212502
 10
22.6050901552
 20
17.0925857451
 10
22.6682524536
 20
17.0535355868
 10
22.7354010388
 20
17.0163058201
 10
22.8062907945
 20
16.9810415757
 10
22.8811668468
 20
16.9475980568
 10
22.9600291844
 20
16.9159748802
  0
LWPOLYLINE
  5
3DE
100
AcDbEntity
  8
0
100
AcDbPolyline
 62
250
  6
CONTINUOUS
 90
21
 70
0
 10
20.6382476214
 20
-15.8596797292
 10
20.639390073
 20
-15.9041349635
 10
20.6438646598
 20
-15.9582641733
 10
20.6514138356
 20
-16.0105945386
 10
20.6617101389
 20
-16.0610498754
 10
20.674498239
 20
-16.1098018942
 10
20.6895133726
 20
-16.1568445027
 10
20.7064945346
 20
-16.2021482581
 10
20.725268527
 20
-16.2458550509
 10
20.7456226921
 20
-16.2879623454
 10
20.7673485743
 20
-16.3284647506
 10
20.7903398276
 20
-16.3675008978
 10
20.8144278252
 20
-16.4050714821
 10
20.8394444795
 20
-16.4411844259
 10
20.8653263194
 20
-16.4759889962
 10
20.8919197513
 20
-16.5094851255
 10
20.9190862772
 20
-16.5416950844
 10
20.9468262756
 20
-16.5727981641
 10
20.9750747584
 20
-16.602859908
 10
21.0036805229
 20
-16.6318363759
 10
21.0325404257
 20
-16.6597403836
  0
LWPOLYLINE
  5
3DF
100
AcDbEntity
  8
0
100
AcDbPolyline
 62
7
  6
CONTINUOUS
 90
13
 70
0
 10
20.7496204612
 20
-15.5325382617
 10
20.7505404881
 20
-15.5721270024
 10
20.7573790419
 20
-15.6486249966
 10
20.7708714199
 20
-15.7247536316
 10
20.7910557088
 20
-15.8005109663
 10
20.8178938219
 20
-15.8758989418
 10
20.8512315008
 20
-15.9504849776
 10
20.8911058524
 20
-16.0242643324
 10
20.9374797699
 20
-16.0972417476
 10
20.9900876742
 20
-16.1689988673
 10
21.048841039
 20
-16.2393962394
 10
21.1138283907
 20
-16.308573316
 10
21.2489507555
 20
-16.4371633878
  0
LWPOLYLINE
  5
3E0
100
AcDbEntity
  8
ASSI
100
AcDbPolyline
 62
7
  6
CONTINUOUS
 90
22
 70
0
 10
25.3089365919
 20
16.0821784952
 10
25.3093475453
 20
16.0641510726
 10
25.3129188648
 20
16.0253583087
 10
25.3201372197
 20
15.9866890828
 10
25.3310172623
 20
15.9481783429
 10
25.3455444464
 20
15.9097945386
 10
25.3636481695
 20
15.8717268233
 10
25.385368887
 20
15.8339452109
 10
25.4106662338
 20
15.7964826644
 10
25.4393483783
 20
15.7596228267
 10
25.4714133884
 20
15.7234011016
 10
25.50686327
 20
15.6877845727
 10
25.545512097
 20
15.6529543587
 10
25.5874005305
 20
15.6188955628
 10
25.6324879597
 20
15.5856248035
 10
25.6804665462
 20
15.5533703158
 10
25.7313484925
 20
15.5221468904
 10
25.7851216213
 20
15.4919406092
 10
25.841441519
 20
15.4629364361
 10
25.9001933806
 20
15.4351960096
 10
25.9614920096
 20
15.4086576418
 10
26.0253373986
 20
15.3833210769
  0
LWPOLYLINE
  5
3E1
100
AcDbEntity
  8
0
100
AcDbPolyline
 62
7
  6
CONTINUOUS
 90
3
 70
0
 10
20.6382354739
 20
-17.0579728518
 10
20.6389887015
 20
-17.1035830912
 10
20.6589989691
 20
-17.2846035481
  0
LINE
  5
3E2
100
AcDbEntity
  8
ASSI
100
AcDbLine
 62
7
  6
CONTINUOUS
 10
21.7334668665
 20
-11.8664021642
 11
21.7334668665
 21
-12.0725169031
  0
LINE
  5
3E3
100
AcDbEntity
  8
0
100
AcDbLine
 62
250
  6
CONTINUOUS
 10
21.7718177927
 20
-18.3143576645
 11
21.7718177927
 21
-17.1236563317
  0
LINE
  5
3E4
100
AcDbEntity
  8
ASSI
100
AcDbLine
 62
7
  6
CONTINUOUS
 10
21.8395328837
 20
-12.0194838946
 11
21.8395328837
 21
-11.9514464147
  0
LINE
  5
3E5
100
AcDbEntity
  8
ASSI
100
AcDbLine
 62
7
  6
CONTINUOUS
 10
22.0845462319
 20
-13.5481942195
 11
22.0845462319
 21
-13.2977852284
  0
LINE
  5
3E6
100
AcDbEntity
  8
ASSI
100
AcDbLine
 62
7
  6
CONTINUOUS
 10
22.415702718
 20
16.6666282597
 11
22.415702718
 21
16.6233040584
  0
LINE
  5
3E7
100
AcDbEntity
  8
ASSI
100
AcDbLine
 62
7
  6
CONTINUOUS
 10
22.9600291844
 20
16.9159748802
 11
22.9600291844
 21
16.872645701
  0
LINE
  5
3E8
100
AcDbEntity
  8
ASSI
100
AcDbLine
 62
7
  6
CONTINUOUS
 10
25.4561349966
 20
18.0306906968
 11
25.4561349966
 21
17.9873324048
  0
LINE
  5
3E9
100
AcDbEntity
  8
ASSI
100
AcDbLine
 62
7
  6
CONTINUOUS
 10
25.4810106145
 20
15.1339743115
 11
25.4810106145
 21
15.0906501101
  0
LINE
  5
3EA
100
AcDbEntity
  8
ASSI
100
AcDbLine
 62
7
  6
CONTINUOUS
 10
25.5900002754
 20
16.5322144436
 11
25.5900002754
 21
16.4888750906
  0
LINE
  5
3EB
100
AcDbEntity
  8
ASSI
100
AcDbLine
 62
7
  6
CONTINUOUS
 10
26.0004614629
 20
18.2675107921
 11
26.0004614629
 21
18.2241447767
  0
LINE
  5
3EC
100
AcDbEntity
  8
ASSI
100
AcDbLine
 62
7
  6
CONTINUOUS
 10
26.0253373986
 20
15.3833210769
 11
26.0253373986
 21
15.3399918978
  0
LINE
  5
3ED
100
AcDbEntity
  8
0
100
AcDbLine
 62
7
  6
CONTINUOUS
 10
20.6382499654
 20
-15.8576663591
 11
20.6382476214
 21
-17.0609922947
  0
LWPOLYLINE
  5
3EE
100
AcDbEntity
  8
ASSI
100
AcDbPolyline
 62
7
  6
CONTINUOUS
 90
48
 70
0
 10
21.4790508376
 20
17.6324700708
 10
21.479361416
 20
17.6517982349
 10
21.4850331355
 20
17.7162325745
 10
21.4978800764
 20
17.7800784489
 10
21.5178578293
 20
17.8434174619
 10
21.5448428674
 20
17.9058438286
 10
21.5789404981
 20
17.9674342528
 10
21.6200450552
 20
18.02810153
 10
21.6677166169
 20
18.0871963767
 10
21.7219287358
 20
18.1446121467
 10
21.7827075751
 20
18.2004481062
 10
21.8496922113
 20
18.254366625
 10
21.9230505838
 20
18.3064357274
 10
22.0026144997
 20
18.3565815075
 10
22.0875189436
 20
18.404256755
 10
22.177662022
 20
18.4493633477
 10
22.2731455279
 20
18.4919983582
 10
22.3734100927
 20
18.5319108457
 10
22.4786688319
 20
18.5691439949
 10
22.5887085996
 20
18.6036555715
 10
22.7023307608
 20
18.6350699958
 10
22.8193768932
 20
18.6633151368
 10
22.9400055751
 20
18.6884689428
 10
23.0634937991
 20
18.7103842919
 10
23.190062207
 20
18.7290708599
 10
23.319490388
 20
18.7445263155
 10
23.4503938695
 20
18.7565883445
 10
23.5825932147
 20
18.7652175862
 10
23.7162682377
 20
18.7704639312
 10
23.850573442
 20
18.7723013355
 10
23.9856923395
 20
18.7707085406
 10
24.1214418277
 20
18.7657175416
 10
24.2564265579
 20
18.7573837429
 10
24.3904846504
 20
18.745694637
 10
24.523778437
 20
18.730673987
 10
24.6553989333
 20
18.7124326155
 10
24.7854556575
 20
18.6909323754
 10
24.913839496
 20
18.6662211398
 10
25.0393135307
 20
18.6385389942
 10
25.1617836216
 20
18.6078749241
 10
25.2813442385
 20
18.5742476714
 10
25.3970413695
 20
18.537941717
 10
25.5088432264
 20
18.4989429156
 10
25.6167818022
 20
18.4572701341
 10
25.7199987285
 20
18.4132566936
 10
25.8182079022
 20
18.3670141501
 10
25.9116954837
 20
18.3184322597
 10
26.0004614629
 20
18.2675107921
  0
LWPOLYLINE
  5
3EF
100
AcDbEntity
  8
ASSI
100
AcDbPolyline
 62
7
  6
CONTINUOUS
 90
48
 70
0
 10
24.5443587341
 20
16.0998161226
 10
24.5446693125
 20
16.1191442867
 10
24.5503410319
 20
16.1835786263
 10
24.5631879728
 20
16.2474245007
 10
24.5831657258
 20
16.3107635137
 10
24.6101507638
 20
16.3731898804
 10
24.6442483945
 20
16.4347803046
 10
24.6853529517
 20
16.4954475818
 10
24.7330245134
 20
16.5545424284
 10
24.7872366323
 20
16.6119581985
 10
24.8480154716
 20
16.667794158
 10
24.9150001078
 20
16.7217126768
 10
24.9883584802
 20
16.7737817792
 10
25.0679223962
 20
16.8239275593
 10
25.1528268401
 20
16.8716028068
 10
25.2429699185
 20
16.9167093995
 10
25.3384534243
 20
16.9593444099
 10
25.4387179891
 20
16.9992568974
 10
25.5439767284
 20
17.0364900467
 10
25.654016496
 20
17.0710016233
 10
25.7676386572
 20
17.1024160476
 10
25.8846847897
 20
17.1306611886
 10
26.0053134715
 20
17.1558149946
 10
26.1288016955
 20
17.1777303437
 10
26.2553701035
 20
17.1964169117
 10
26.3847982845
 20
17.2118723673
 10
26.5157017659
 20
17.2239343962
 10
26.6479011112
 20
17.232563638
 10
26.7815761341
 20
17.237809983
 10
26.9158813384
 20
17.2396473873
 10
27.051000236
 20
17.2380545924
 10
27.1867497242
 20
17.2330635933
 10
27.3217344544
 20
17.2247297947
 10
27.4557925468
 20
17.2130406888
 10
27.5890863334
 20
17.1980200388
 10
27.7207068298
 20
17.1797786673
 10
27.8507635539
 20
17.1582784271
 10
27.9791473925
 20
17.1335671916
 10
28.1046214272
 20
17.105885046
 10
28.2270915181
 20
17.0752209759
 10
28.3466521349
 20
17.0415937232
 10
28.462349266
 20
17.0052877688
 10
28.5741511229
 20
16.9662889674
 10
28.6820896987
 20
16.9246161859
 10
28.785306625
 20
16.8806027453
 10
28.8835157987
 20
16.8343602019
 10
28.9770033801
 20
16.7857783115
 10
29.0657693594
 20
16.7348568439
  0
LWPOLYLINE
  5
3F0
100
AcDbEntity
  8
ASSI
100
AcDbPolyline
 62
7
  6
CONTINUOUS
 90
10
 70
0
 10
22.212017211
 20
-13.7273073561
 10
22.213022379
 20
-13.6991780986
 10
22.2157818642
 20
-13.6723900693
 10
22.2202956665
 20
-13.6469432681
 10
22.2265346007
 20
-13.6226759199
 10
22.2345278521
 20
-13.5997497998
 10
22.2443629759
 20
-13.5786502338
 10
22.2560827641
 20
-13.5594234929
 10
22.2696444247
 20
-13.5420233061
 10
22.2828887973
 20
-13.5288958292
  0
LWPOLYLINE
  5
3F1
100
AcDbEntity
  8
ASSI
100
AcDbPolyline
 62
7
  6
CONTINUOUS
 90
11
 70
0
 10
21.8678221263
 20
-13.4630219686
 10
21.8688055658
 20
-13.4405403505
 10
21.8709631165
 20
-13.4180011188
 10
21.8742947783
 20
-13.3954042735
 10
21.8787740593
 20
-13.3722846787
 10
21.8844274513
 20
-13.3491074703
 10
21.8913344307
 20
-13.3272680564
 10
21.8994000624
 20
-13.3069620988
 10
21.9087192813
 20
-13.2879939356
 10
21.9196563681
 20
-13.2711719897
 10
21.9219297786
 20
-13.2685705886
  0
LWPOLYLINE
  5
3F2
100
AcDbEntity
  8
ASSI
100
AcDbPolyline
 62
7
  6
CONTINUOUS
 90
14
 70
0
 10
21.7617561091
 20
-13.5160549772
 10
21.7629720932
 20
-13.4921384842
 10
21.7652952318
 20
-13.4686627341
 10
21.7687255249
 20
-13.4456277268
 10
21.7731930198
 20
-13.4227956194
 10
21.7787676693
 20
-13.4004042548
 10
21.7856593316
 20
-13.3791671624
 10
21.793825494
 20
-13.3589843431
 10
21.8033086693
 20
-13.3399557961
 10
21.814446254
 20
-13.3230950477
 10
21.8272853625
 20
-13.3087693441
 10
21.8417788804
 20
-13.2966114391
 10
21.8581228619
 20
-13.2865331214
 10
21.8614364946
 20
-13.284824057
  0
LWPOLYLINE
  5
3F3
100
AcDbEntity
  8
ASSI
100
AcDbPolyline
 62
7
  6
CONTINUOUS
 90
10
 70
0
 10
23.9423990265
 20
-20.4383163767
 10
23.9685625419
 20
-20.2144136478
 10
23.9882089941
 20
-19.9865518443
 10
24.0013179286
 20
-19.7549746439
 10
24.0078756905
 20
-19.5199285645
 10
24.0078753394
 20
-19.2816663833
 10
24.0013169913
 20
-19.0404470346
 10
23.9882077954
 20
-18.7965303245
 10
23.9685615909
 20
-18.5501764867
 10
23.9423990265
 20
-18.3016497031
  0
LWPOLYLINE
  5
3F4
100
AcDbEntity
  8
ASSI
100
AcDbPolyline
 62
7
  6
CONTINUOUS
 90
12
 70
0
 10
25.3132627937
 20
16.0979753352
 10
25.3207425674
 20
16.1362262289
 10
25.3318543931
 20
16.1741128398
 10
25.3466270804
 20
16.2116566413
 10
25.3650317079
 20
16.2488328361
 10
25.3869411885
 20
16.2853791145
 10
25.4123776899
 20
16.3212798891
 10
25.4413189451
 20
16.3565479524
 10
25.4735712374
 20
16.3909642947
 10
25.5090699731
 20
16.424455374
 10
25.5478796667
 20
16.4570926729
 10
25.5900002754
 20
16.4888750906
  0
LWPOLYLINE
  5
3F5
100
AcDbEntity
  8
0
100
AcDbPolyline
 62
7
  6
CONTINUOUS
 90
3
 70
0
 10
20.685845106
 20
-15.5342968682
 10
20.6467453033
 20
-15.7213856686
 10
20.6382477233
 20
-15.8575575641
  0
LWPOLYLINE
  5
3F6
100
AcDbEntity
  8
0
100
AcDbPolyline
 62
250
  6
CONTINUOUS
 90
10
 70
0
 10
21.5650267745
 20
-15.5186381641
 10
21.6005451945
 20
-15.4019099649
 10
21.6564010857
 20
-15.2871890244
 10
21.7321640114
 20
-15.175359416
 10
21.8272501258
 20
-15.0672829312
 10
21.9409267263
 20
-14.9637923955
 10
22.0723178521
 20
-14.8656853204
 10
22.2204109622
 20
-14.7737177862
 10
22.3840647697
 20
-14.6885985622
 10
22.5040365646
 20
-14.6362724568
  0
LWPOLYLINE
  5
3F7
100
AcDbEntity
  8
ASSI
100
AcDbPolyline
 62
250
  6
CONTINUOUS
 90
7
 70
0
 10
18.4400686776
 20
-10.2242625172
 10
18.4876534117
 20
-10.0818565173
 10
18.5270041863
 20
-9.9313799194
 10
18.5576519702
 20
-9.7750008097
 10
18.5794404193
 20
-9.6134418838
 10
18.5925258777
 20
-9.4459804462
 10
18.5969083452
 20
-9.2726164968
  0
LINE
  5
3F8
100
AcDbEntity
  8
0
100
AcDbLine
 62
7
  6
CONTINUOUS
 10
20.7572590299
 20
-15.3490561117
 11
20.685845106
 21
-15.5342968682
  0
LWPOLYLINE
  5
3F9
100
AcDbEntity
  8
ASSI
100
AcDbPolyline
 62
7
  6
CONTINUOUS
 90
36
 70
0
 10
15.4393245516
 20
-16.9262862649
 10
15.3891747111
 20
-17.050773953
 10
15.3478632288
 20
-17.1803849068
 10
15.3145136297
 20
-17.3169210423
 10
15.2892648446
 20
-17.4598167737
 10
15.2722215299
 20
-17.6084823944
 10
15.2634544113
 20
-17.7623048247
 10
15.2630000562
 20
-17.9206471267
 10
15.2708603942
 20
-18.0828554264
 10
15.2870030512
 20
-18.2482605618
 10
15.3113612512
 20
-18.4161785007
 10
15.343834188
 20
-18.5859154132
 10
15.3842878007
 20
-18.7567713854
 10
15.4325552466
 20
-18.9280419909
 10
15.4884373002
 20
-19.0990203154
 10
15.5517033097
 20
-19.2690006599
 10
15.6220924892
 20
-19.4372822182
 10
15.6993145627
 20
-19.6031707088
 10
15.7830507517
 20
-19.7659810495
 10
15.8729553964
 20
-19.9250409814
 10
15.9686575072
 20
-20.079693995
 10
16.0697620784
 20
-20.2293016244
 10
16.1758515559
 20
-20.3732459252
 10
16.2864879581
 20
-20.5109326253
 10
16.4012147068
 20
-20.6417935045
 10
16.519558233
 20
-20.7652883756
 10
16.641030046
 20
-20.8809074704
 10
16.765128766
 20
-20.9881735524
 10
16.8913421709
 20
-21.08664386
 10
17.0191493244
 20
-21.1759119424
 10
17.1480226523
 20
-21.255609289
 10
17.2774301335
 20
-21.3254068799
 10
17.4068376149
 20
-21.3850166119
 10
17.5357109406
 20
-21.4341924327
 10
17.6635180859
 20
-21.4727313393
 10
17.7193245516
 20
-21.4862862649
  0
LINE
  5
3FA
100
AcDbEntity
  8
ASSI
100
AcDbLine
 62
250
  6
CONTINUOUS
 10
18.3841722468
 20
-10.3583298546
 11
18.4400686776
 21
-10.2242625172
  0
LINE
  5
3FB
100
AcDbEntity
  8
ASSI
100
AcDbLine
 62
7
  6
CONTINUOUS
 10
15.8699005763
 20
-16.0255528082
 11
15.5800026278
 21
-16.6705017825
  0
LWPOLYLINE
  5
3FC
100
AcDbEntity
  8
ASSI
100
AcDbPolyline
 62
7
  6
CONTINUOUS
 90
8
 70
0
 10
16.0850232234
 20
-13.6236956038
 10
16.0606134132
 20
-13.6774067627
 10
16.015086655
 20
-13.802958216
 10
15.9773704162
 20
-13.9363772519
 10
15.9479457806
 20
-14.075962064
 10
15.9269731094
 20
-14.2211453836
 10
15.9142920415
 20
-14.3724944796
 10
15.9099025767
 20
-14.5300093518
  0
LWPOLYLINE
  5
3FD
100
AcDbEntity
  8
ASSI
100
AcDbPolyline
 62
7
  6
CONTINUOUS
 90
3
 70
0
 10
15.5800026278
 20
-16.6705017825
 10
15.5746374264
 20
-16.6817683444
 10
15.5590059
 20
-16.7086785709
  0
LINE
  5
3FE
100
AcDbEntity
  8
ASSI
100
AcDbLine
 62
250
  6
CONTINUOUS
 10
18.3200418566
 20
-10.484326594
 11
18.3841722468
 21
-10.3583298546
  0
LINE
  5
3FF
100
AcDbEntity
  8
RACCORDO
100
AcDbLine
 62
250
  6
CONTINUOUS
 10
16.1315080456
 20
-14.3554309746
 11
16.3695219845
 21
-13.9112909182
  0
LINE
  5
400
100
AcDbEntity
  8
RACCORDO
100
AcDbLine
 62
250
  6
CONTINUOUS
 10
16.1315080456
 20
-17.3865198879
 11
16.3695219845
 21
-16.9423798315
  0
LINE
  5
401
100
AcDbEntity
  8
RACCORDO
100
AcDbLine
 62
250
  6
CONTINUOUS
 10
16.1315080456
 20
-14.3554309746
 11
16.1265030908
 21
-14.3637898313
  0
LWPOLYLINE
  5
402
100
AcDbEntity
  8
RACCORDO
100
AcDbPolyline
 62
250
  6
CONTINUOUS
 90
10
 70
0
 10
16.1315080456
 20
-17.3865198879
 10
16.1265030909
 20
-17.3948787444
 10
16.1205345552
 20
-17.4030779529
 10
16.1136226341
 20
-17.4110897701
 10
16.1057907153
 20
-17.4188870864
 10
16.0970652996
 20
-17.4264435181
 10
16.087475911
 20
-17.4337334966
 10
16.0770549971
 20
-17.4407323547
 10
16.065837819
 20
-17.4474164106
 10
16.0538623321
 20
-17.4537630477
  0
LWPOLYLINE
  5
403
100
AcDbEntity
  8
ASSI
100
AcDbPolyline
 62
7
  6
CONTINUOUS
 90
3
 70
0
 10
15.5590059
 20
-16.7086785709
 10
15.4949650226
 20
-16.8144344841
 10
15.4393245516
 20
-16.9262862649
  0
LWPOLYLINE
  5
404
100
AcDbEntity
  8
ASSI
100
AcDbPolyline
 62
250
  6
CONTINUOUS
 90
12
 70
0
 10
39.7579834533
 20
16.7755897269
 10
39.7899329205
 20
16.827848295
 10
39.817605226
 20
16.8776173649
 10
39.8410580655
 20
16.924339392
 10
39.8606182522
 20
16.9672117962
 10
39.8762105193
 20
17.006035919
 10
39.8872977307
 20
17.0411775823
 10
39.8940561353
 20
17.0721834793
 10
39.8966898067
 20
17.0986540256
 10
39.8946809856
 20
17.1209964632
 10
39.8883298349
 20
17.138792883
 10
39.8792907697
 20
17.1505154271
  0
LWPOLYLINE
  5
405
100
AcDbEntity
  8
ASSI
100
AcDbPolyline
 62
250
  6
CONTINUOUS
 90
45
 70
0
 10
14.9384348172
 20
-17.0622400828
 10
14.8742149965
 20
-17.1653939442
 10
14.8172516513
 20
-17.276967019
 10
14.7677819602
 20
-17.3964947501
 10
14.7260119003
 20
-17.52347946
 10
14.6921153899
 20
-17.6573924222
 10
14.666233564
 20
-17.7976760628
 10
14.648474187
 20
-17.943746283
 10
14.6389112036
 20
-18.0949948896
 10
14.6375844315
 20
-18.2507921273
 10
14.6444994012
 20
-18.4104893994
 10
14.659627324
 20
-18.5734216813
 10
14.6829051623
 20
-18.7389102696
 10
14.7142359097
 20
-18.9062659167
 10
14.7534890942
 20
-19.074791989
 10
14.800501319
 20
-19.2437870728
 10
14.8550768027
 20
-19.4125474311
 10
14.9169883339
 20
-19.580370507
 10
14.9859783784
 20
-19.7465581098
 10
15.0617599286
 20
-19.9104186336
 10
15.1440173693
 20
-20.0712694103
 10
15.2324079623
 20
-20.2284401561
 10
15.3265634913
 20
-20.3812761745
 10
15.4260920758
 20
-20.5291413942
 10
15.530579547
 20
-20.6714204616
 10
15.6395910587
 20
-20.8075211411
 10
15.7526725733
 20
-20.9368764605
 10
15.8693529572
 20
-21.0589474542
 10
15.9891464382
 20
-21.1732259125
 10
16.1115541563
 20
-21.2792359472
 10
16.2360658991
 20
-21.3765357734
 10
16.3621628305
 20
-21.4647201367
 10
16.4893202696
 20
-21.5434222956
 10
16.6170093601
 20
-21.6123149935
 10
16.7446984503
 20
-21.6711113857
 10
16.8718558876
 20
-21.7195666649
 10
16.9979528151
 20
-21.7574792318
 10
17.1224645503
 20
-21.7846911471
 10
17.244872259
 20
-21.8010888306
 10
17.3646657326
 20
-21.8066038549
 10
17.4813461118
 20
-21.801213248
 10
17.5944276236
 20
-21.7849394468
 10
17.7034391363
 20
-21.7578502823
 10
17.8079266138
 20
-21.7200586874
 10
17.8692074253
 20
-21.6918399966
  0
LWPOLYLINE
  5
406
100
AcDbEntity
  8
ASSI
100
AcDbPolyline
 62
250
  6
CONTINUOUS
 90
52
 70
0
 10
14.285135973
 20
-16.8595161033
 10
14.2122234392
 20
-16.9763768701
 10
14.1475552941
 20
-17.1013721659
 10
14.0911315377
 20
-17.2345019906
 10
14.042793132
 20
-17.3763447992
 10
14.0026991149
 20
-17.5263221367
 10
13.9713266009
 20
-17.6826986378
 10
13.9487821455
 20
-17.8455377495
 10
13.9349591932
 20
-18.0147760247
 10
13.9300151922
 20
-18.1884877574
 10
13.9340516055
 20
-18.3667235611
 10
13.9469669702
 20
-18.5494328224
 10
13.9686143452
 20
-18.7345379951
 10
13.9990950388
 20
-18.9220705851
 10
14.0383077427
 20
-19.1119990866
 10
14.0858015914
 20
-19.3021514362
 10
14.1416732308
 20
-19.4925299305
 10
14.2058260151
 20
-19.6831322731
 10
14.2775191406
 20
-19.8717795113
 10
14.3568374604
 20
-20.0584435149
 10
14.4436961214
 20
-20.2431524142
 10
14.5370997609
 20
-20.4238116478
 10
14.6371206836
 20
-20.6003718998
 10
14.7436865848
 20
-20.7728824861
 10
14.8555851876
 20
-20.9393967927
 10
14.9728751025
 20
-21.0998457843
 10
15.0954977191
 20
-21.2542984963
 10
15.2220649291
 20
-21.4010154209
 10
15.3526201659
 20
-21.5399094152
 10
15.4871199961
 20
-21.6710676221
 10
15.6240460121
 20
-21.7930119618
 10
15.7634275108
 20
-21.9056404862
 10
15.9052351953
 20
-22.0090551434
 10
16.047862768
 20
-22.1020836979
 10
16.1913214133
 20
-22.1846087072
 10
16.3355999468
 20
-22.2567476138
 10
16.4790585175
 20
-22.31768051
 10
16.6216859173
 20
-22.36727877
 10
16.7634933544
 20
-22.4056710196
 10
16.902874602
 20
-22.4324232279
 10
17.0398004099
 20
-22.4474041556
 10
17.1743000285
 20
-22.450745042
 10
17.3048549822
 20
-22.4424055752
 10
17.4314218244
 20
-22.422255155
 10
17.5540440017
 20
-22.3904243815
 10
17.6713333786
 20
-22.3472647434
 10
17.7832312975
 20
-22.292648619
 10
17.8897964161
 20
-22.22670363
 10
17.9898165714
 20
-22.1501641303
 10
18.0832194803
 20
-22.0629085121
 10
18.1700774259
 20
-21.9650583831
 10
18.2493950949
 20
-21.8577129205
  0
LWPOLYLINE
  5
407
100
AcDbEntity
  8
ASSI
100
AcDbPolyline
 62
250
  6
CONTINUOUS
 90
37
 70
0
 10
18.2417759616
 20
-18.8378360976
 10
18.3146884954
 20
-18.7209753307
 10
18.3793566405
 20
-18.595980035
 10
18.4357803968
 20
-18.4628502103
 10
18.4841188026
 20
-18.3210074017
 10
18.5242128197
 20
-18.1710300641
 10
18.5555853337
 20
-18.014653563
 10
18.5781297891
 20
-17.8518144514
 10
18.5919527414
 20
-17.6825761762
 10
18.5968967424
 20
-17.5088644434
 10
18.592860329
 20
-17.3306286397
 10
18.5799449644
 20
-17.1479193785
 10
18.5582975893
 20
-16.9628142057
 10
18.5278168958
 20
-16.7752816158
 10
18.4886041919
 20
-16.5853531143
 10
18.4411103432
 20
-16.3952007646
 10
18.3852387037
 20
-16.2048222703
 10
18.3210859194
 20
-16.0142199278
 10
18.2493927939
 20
-15.8255726896
 10
18.1700744742
 20
-15.6389086859
 10
18.0832158131
 20
-15.4541997866
 10
17.9898121736
 20
-15.273540553
 10
17.889791251
 20
-15.096980301
 10
17.7832253498
 20
-14.9244697148
 10
17.671326747
 20
-14.7579554082
 10
17.5540368321
 20
-14.5975064165
 10
17.4314142155
 20
-14.4430537045
 10
17.3048470054
 20
-14.29633678
 10
17.1742917687
 20
-14.1574427856
 10
17.0397919385
 20
-14.0262845787
 10
16.9028659224
 20
-13.904340239
 10
16.7634844238
 20
-13.7917117146
 10
16.6216767393
 20
-13.6882970575
 10
16.4790491666
 20
-13.595268503
 10
16.3355905213
 20
-13.5127434937
 10
16.1913119878
 20
-13.440604587
 10
16.047853417
 20
-13.3796716909
  0
LWPOLYLINE
  5
408
100
AcDbEntity
  8
ASSI
100
AcDbPolyline
 62
250
  6
CONTINUOUS
 90
13
 70
0
 10
18.1829924547
 20
-18.3782550832
 10
18.1744578653
 20
-18.3914799762
 10
18.1591260307
 20
-18.4204390163
 10
18.1471131184
 20
-18.4512451496
 10
18.1385149388
 20
-18.4836666963
 10
18.1334040937
 20
-18.5174362073
 10
18.13181768
 20
-18.5522842934
 10
18.1337637826
 20
-18.5879552103
 10
18.1392278794
 20
-18.6241876969
 10
18.1481713754
 20
-18.6607117572
 10
18.1605267368
 20
-18.69724299
 10
18.176197628
 20
-18.7334957261
 10
18.1950625392
 20
-18.7691912757
  0
LWPOLYLINE
  5
409
100
AcDbEntity
  8
ASSI
100
AcDbPolyline
 62
7
  6
CONTINUOUS
 90
4
 70
0
 10
15.6220911726
 20
-13.5907618465
 10
15.5517020969
 20
-13.688654418
 10
15.4884361919
 20
-13.7953689596
 10
15.4393245516
 20
-13.8951973516
  0
LWPOLYLINE
  5
40A
100
AcDbEntity
  8
RACCORDO
100
AcDbPolyline
 62
250
  6
CONTINUOUS
 90
9
 70
0
 10
16.1265030908
 20
-14.3637898313
 10
16.120534555
 20
-14.3719890399
 10
16.1136226338
 20
-14.3800008571
 10
16.1057907151
 20
-14.3877981733
 10
16.0970652995
 20
-14.3953546049
 10
16.087475911
 20
-14.4026445833
 10
16.0770549972
 20
-14.4096434415
 10
16.0658378191
 20
-14.4163274977
 10
16.0538623321
 20
-14.422674135
  0
LWPOLYLINE
  5
40B
100
AcDbEntity
  8
ASSI
100
AcDbPolyline
 62
250
  6
CONTINUOUS
 90
16
 70
0
 10
49.6823618695
 20
23.9437072729
 10
49.7378359442
 20
24.0146377965
 10
49.7956885666
 20
24.0817917768
 10
49.8556238922
 20
24.144825804
 10
49.9173354261
 20
24.2034175366
 10
49.9805075899
 20
24.2572673501
 10
50.0448173363
 20
24.3060998689
 10
50.1099357999
 20
24.3496653748
 10
50.1755299801
 20
24.3877410839
 10
50.2412644441
 20
24.4201322854
 10
50.3068030413
 20
24.4466733386
 10
50.3718106218
 20
24.4672285184
 10
50.4359547513
 20
24.4816927094
 10
50.498907411
 20
24.4899919455
 10
50.5603466756
 20
24.4920837872
 10
50.6199583584
 20
24.487957538
  0
LINE
  5
40C
100
AcDbEntity
  8
ASSI
100
AcDbLine
 62
7
  6
CONTINUOUS
 10
15.6353358648
 20
-13.5755542333
 11
15.6220911726
 21
-13.5907618465
  0
LINE
  5
40D
100
AcDbEntity
  8
ASSI
100
AcDbLine
 62
250
  6
CONTINUOUS
 10
15.8699005763
 20
-16.0255528082
 11
15.5590059256
 21
-16.256277298
  0
LWPOLYLINE
  5
40E
100
AcDbEntity
  8
0
100
AcDbPolyline
 62
7
  6
CONTINUOUS
 90
6
 70
0
 10
22.0405483045
 20
-16.170028149
 10
22.1483512015
 20
-16.1037528599
 10
22.2677688125
 20
-16.0387430017
 10
22.4000142378
 20
-15.9751003154
 10
22.5458007233
 20
-15.9134048092
 10
22.6921281046
 20
-15.8594246689
  0
LWPOLYLINE
  5
40F
100
AcDbEntity
  8
ASSI
100
AcDbPolyline
 62
7
  6
CONTINUOUS
 90
10
 70
0
 10
22.0010004036
 20
-13.5430282919
 10
21.9989726129
 20
-13.5442640088
 10
21.9908298992
 20
-13.5500524001
 10
21.9837016088
 20
-13.5573926977
 10
21.977546464
 20
-13.5662427917
 10
21.9724057425
 20
-13.576644792
 10
21.9683314929
 20
-13.5886750627
 10
21.9653410646
 20
-13.6023590587
 10
21.9634171082
 20
-13.6176713251
 10
21.9625596236
 20
-13.6346118621
  0
LWPOLYLINE
  5
410
100
AcDbEntity
  8
ASSI
100
AcDbPolyline
 62
250
  6
CONTINUOUS
 90
10
 70
0
 10
31.5534386832
 20
-5.5776102587
 10
32.9865730103
 20
-4.7772298592
 10
34.4082570427
 20
-3.9908064873
 10
35.8178174696
 20
-3.2185241781
 10
37.2146652452
 20
-2.4605238356
 10
38.5980883716
 20
-1.7170158285
 10
39.9672561101
 20
-0.988274148
 10
41.3214935217
 20
-0.2744889439
 10
42.6602769678
 20
0.4242275142
 10
43.9830299287
 20
1.1077323665
  0
LWPOLYLINE
  5
411
100
AcDbEntity
  8
ASSI
100
AcDbPolyline
 62
250
  6
CONTINUOUS
 90
10
 70
0
 10
32.2458077731
 20
-7.9912222114
 10
33.674873025
 20
-7.2040637406
 10
35.0908351178
 20
-6.4271049408
 10
36.4931626477
 20
-5.660519442
 10
37.8813583786
 20
-4.9044642565
 10
39.2548972097
 20
-4.1591135653
 10
40.6132274873
 20
-3.4246575868
 10
41.9558528848
 20
-2.7012581513
 10
43.2823308275
 20
-1.9890499402
 10
44.5922114689
 20
-1.2881734424
  0
LWPOLYLINE
  5
412
100
AcDbEntity
  8
ASSI
100
AcDbPolyline
 62
250
  6
CONTINUOUS
 90
10
 70
0
 10
44.5922114689
 20
-1.2881734424
 10
45.7711317413
 20
-0.6589042944
 10
46.9361550326
 20
-0.0380898178
 10
48.0880195926
 20
0.5744807664
 10
49.2270634597
 20
1.17880758
 10
50.3543915849
 20
1.7753061774
 10
51.4713233546
 20
2.364646067
 10
52.5778346008
 20
2.9469225114
 10
53.6731035672
 20
3.52181628
 10
54.7567004836
 20
4.0892151001
  0
LWPOLYLINE
  5
413
100
AcDbEntity
  8
ASSI
100
AcDbPolyline
 62
250
  6
CONTINUOUS
 90
4
 70
0
 10
54.7567004836
 20
4.0892151001
 10
55.5901086875
 20
4.5242352644
 10
56.4234771425
 20
4.9579815026
 10
57.2560068241
 20
5.3903104448
  0
LINE
  5
414
100
AcDbEntity
  8
ASSI
100
AcDbLine
 62
7
  6
CONTINUOUS
 10
9.517364028
 20
-23.8720057618
 11
1.9992407657
 21
-27.7756809028
  0
LINE
  5
415
100
AcDbEntity
  8
ASSI
100
AcDbLine
 62
250
  6
CONTINUOUS
 10
57.2560068241
 20
5.3903104448
 11
58.9151291369
 21
6.2500929781
  0
LINE
  5
416
100
AcDbEntity
  8
ASSI
100
AcDbLine
 62
250
  6
CONTINUOUS
 10
58.9151291369
 20
6.2500929781
 11
62.1931060871
 21
7.9477106628
  0
LINE
  5
417
100
AcDbEntity
  8
0
100
AcDbLine
 62
250
  6
CONTINUOUS
 10
15.9099025767
 20
-14.5300093518
 11
16.0513239329
 21
-14.4592986737
  0
LINE
  5
418
100
AcDbEntity
  8
ASSI
100
AcDbLine
 62
7
  6
CONTINUOUS
 10
21.7334668665
 20
-12.0725169031
 11
21.8395328837
 21
-12.0194838946
  0
LINE
  5
419
100
AcDbEntity
  8
ASSI
100
AcDbLine
 62
250
  6
CONTINUOUS
 10
15.5590059
 20
-16.2562772406
 11
15.0652876115
 21
-16.5031363848
  0
LINE
  5
41A
100
AcDbEntity
  8
ASSI
100
AcDbLine
 62
250
  6
CONTINUOUS
 10
21.7617561091
 20
-13.5160549772
 11
21.8678221263
 21
-13.4630219686
  0
LINE
  5
41B
100
AcDbEntity
  8
ASSI
100
AcDbLine
 62
250
  6
CONTINUOUS
 10
15.5590059
 20
-16.7086785709
 11
15.1097075599
 21
-16.9333277409
  0
LINE
  5
41C
100
AcDbEntity
  8
ASSI
100
AcDbLine
 62
250
  6
CONTINUOUS
 10
14.9384348172
 20
-17.0622400828
 11
15.0798561735
 21
-16.9915294047
  0
LINE
  5
41D
100
AcDbEntity
  8
ASSI
100
AcDbLine
 62
7
  6
CONTINUOUS
 10
22.0845462319
 20
-13.5012553592
 11
22.001036601
 21
-13.5430101746
  0
LINE
  5
41E
100
AcDbEntity
  8
ASSI
100
AcDbLine
 62
250
  6
CONTINUOUS
 10
22.212017211
 20
-13.7273073561
 11
22.3143480067
 21
-13.6761419582
  0
LINE
  5
41F
100
AcDbEntity
  8
ASSI
100
AcDbLine
 62
7
  6
CONTINUOUS
 10
22.3234595189
 20
-14.0269026316
 11
22.3829302812
 21
-13.9971672505
  0
LINE
  5
420
100
AcDbEntity
  8
0
100
AcDbLine
 62
250
  6
CONTINUOUS
 10
15.9099025767
 20
-17.561098265
 11
16.0513239329
 21
-17.4903875869
  0
LINE
  5
421
100
AcDbEntity
  8
0
100
AcDbLine
 62
7
  6
CONTINUOUS
 10
22.3375032177
 20
-16.8408136192
 11
21.7718177927
 21
-17.1236563317
  0
LINE
  5
422
100
AcDbEntity
  8
0
100
AcDbLine
 62
7
  6
CONTINUOUS
 10
22.3375032177
 20
-18.031514952
 11
21.7718177927
 21
-18.3143576645
  0
LINE
  5
423
100
AcDbEntity
  8
ASSI
100
AcDbLine
 62
250
  6
CONTINUOUS
 10
32.2429726176
 20
-7.98980466
 11
23.6852482969
 21
-12.2311736468
  0
LWPOLYLINE
  5
424
100
AcDbEntity
  8
ASSI
100
AcDbPolyline
 62
250
  6
CONTINUOUS
 90
19
 70
0
 10
15.0798561735
 20
-16.5322735087
 10
14.9064217336
 20
-16.6188491985
 10
14.8726036775
 20
-16.6349347742
 10
14.8371272373
 20
-16.6512666081
 10
14.8000142522
 20
-16.6680174703
 10
14.761458138
 20
-16.6850290997
 10
14.7219674753
 20
-16.7018598129
 10
14.6819334028
 20
-16.7185724128
 10
14.6414922018
 20
-16.7351809961
 10
14.600965372
 20
-16.751216725
 10
14.5608190692
 20
-16.7667203678
 10
14.5213217125
 20
-16.7817539787
 10
14.4826006215
 20
-16.7958737999
 10
14.4450920977
 20
-16.8091248601
 10
14.4091565707
 20
-16.8215829977
 10
14.3748504364
 20
-16.8328221848
 10
14.3424544605
 20
-16.8427441931
 10
14.3124397951
 20
-16.8516064461
 10
14.285135973
 20
-16.8595161033
  0
LINE
  5
425
100
AcDbEntity
  8
DRAFT
100
AcDbLine
 62
250
  6
CONTINUOUS
 10
16.7438023513
 20
-17.1274380306
 11
18.3139432011
 21
-16.3562570104
  0
LWPOLYLINE
  5
426
100
AcDbEntity
  8
0
100
AcDbPolyline
 62
7
  6
CONTINUOUS
 90
5
 70
0
 10
21.673316412
 20
-18.3771142639
 10
21.8276561744
 20
-18.3067685693
 10
21.9089561383
 20
-18.2703645608
 10
21.9882632105
 20
-18.2353034819
 10
22.0657312264
 20
-18.2014961952
  0
LWPOLYLINE
  5
427
100
AcDbEntity
  8
ASSI
100
AcDbPolyline
 62
250
  6
CONTINUOUS
 90
17
 70
0
 10
14.9384348172
 20
-17.0622400828
 10
14.9066436037
 20
-17.0761411708
 10
14.8727913898
 20
-17.0870891767
 10
14.8371270428
 20
-17.0949905386
 10
14.7999054493
 20
-17.0997750775
 10
14.7614128678
 20
-17.1013928254
 10
14.7219675558
 20
-17.0998223586
 10
14.6818701555
 20
-17.0950713816
 10
14.6414245934
 20
-17.0871717057
 10
14.600965236
 20
-17.076187296
 10
14.5608132457
 20
-17.0622084119
 10
14.5212617482
 20
-17.0453401925
 10
14.4826003101
 20
-17.0257063765
 10
14.4451179483
 20
-17.0034517491
 10
14.4091074393
 20
-16.97874809
 10
14.3748505027
 20
-16.9517883766
 10
14.3426100341
 20
-16.9227806058
  0
LWPOLYLINE
  5
428
100
AcDbEntity
  8
0
100
AcDbPolyline
 62
7
  6
CONTINUOUS
 90
12
 70
0
 10
22.4828094121
 20
-14.5156435625
 10
22.3849565657
 20
-14.5582701142
 10
22.2220755044
 20
-14.643048312
 10
22.073364655
 20
-14.7352697604
 10
21.9422067644
 20
-14.8328366851
 10
21.8290041628
 20
-14.9358716092
 10
21.7333545201
 20
-15.0442520097
 10
21.6574335922
 20
-15.1555125419
 10
21.6016935798
 20
-15.2697192212
 10
21.5656822822
 20
-15.3868060324
 10
21.5502188536
 20
-15.5041095849
 10
21.5496205071
 20
-15.532731777
  0
LWPOLYLINE
  5
429
100
AcDbEntity
  8
ASSI
100
AcDbPolyline
 62
7
  6
CONTINUOUS
 90
10
 70
0
 10
21.8614364946
 20
-13.284824057
 10
21.8763749604
 20
-13.278360464
 10
21.8964775225
 20
-13.2722673939
 10
21.9184536418
 20
-13.2686874804
 10
21.9425019425
 20
-13.2678788099
 10
21.9684238003
 20
-13.269583296
 10
21.9956464361
 20
-13.2734602499
 10
22.0239789234
 20
-13.2793961084
 10
22.0536121887
 20
-13.2875044345
 10
22.0845462319
 20
-13.2977852284
  0
LWPOLYLINE
  5
42A
100
AcDbEntity
  8
0
100
AcDbPolyline
 62
7
  6
CONTINUOUS
 90
9
 70
0
 10
21.6734876022
 20
-18.377485773
 10
21.6541866978
 20
-18.3857740095
 10
21.5899444169
 20
-18.4052654933
 10
21.5219205246
 20
-18.4138231002
 10
21.4516655694
 20
-18.4110997574
 10
21.3822531666
 20
-18.3966049941
 10
21.3148257736
 20
-18.3701949694
 10
21.2489507528
 20
-18.3319350195
 10
21.1850497264
 20
-18.2817859829
  0
LINE
  5
42B
100
AcDbEntity
  8
0
100
AcDbLine
 62
7
  6
CONTINUOUS
 10
22.0657312264
 20
-18.2014961952
 11
22.1886753809
 21
-18.1487597868
  0
LWPOLYLINE
  5
42C
100
AcDbEntity
  8
0
100
AcDbPolyline
 62
250
  6
CONTINUOUS
 90
5
 70
0
 10
22.5973697539
 20
-15.1943096363
 10
22.4091164714
 20
-15.2682663594
 10
22.2013936861
 20
-15.3683419382
 10
22.014572034
 20
-15.4787742948
 10
21.8511273467
 20
-15.5984694775
  0
LWPOLYLINE
  5
42D
100
AcDbEntity
  8
0
100
AcDbPolyline
 62
250
  6
CONTINUOUS
 90
6
 70
0
 10
22.634213029
 20
-15.4396430988
 10
22.4091164714
 20
-15.5280739805
 10
22.2013936861
 20
-15.6281495593
 10
22.014572034
 20
-15.7385819159
 10
21.8511273467
 20
-15.8582770986
 10
21.7130840847
 20
-15.9856061976
  0
LWPOLYLINE
  5
42E
100
AcDbEntity
  8
0
100
AcDbPolyline
 62
250
  6
CONTINUOUS
 90
5
 70
0
 10
22.7343130333
 20
-16.1936879258
 10
22.5620179238
 20
-16.2564319511
 10
22.3840645357
 20
-16.3340469409
 10
22.2204106749
 20
-16.4191662166
 10
22.1311869293
 20
-16.4745752152
  0
LWPOLYLINE
  5
42F
100
AcDbEntity
  8
0
100
AcDbPolyline
 62
7
  6
CONTINUOUS
 90
5
 70
0
 10
22.7476766068
 20
-16.3188981542
 10
22.560880257
 20
-16.3868903134
 10
22.3849565663
 20
-16.4635260023
 10
22.2220755051
 20
-16.5483041999
 10
22.1916307605
 20
-16.5671841838
  0
LWPOLYLINE
  5
430
100
AcDbEntity
  8
0
100
AcDbPolyline
 62
7
  6
CONTINUOUS
 90
11
 70
0
 10
22.5285319279
 20
-14.779104797
 10
22.4782519462
 20
-14.797351646
 10
22.3012286881
 20
-14.8740487236
 10
22.142144144
 20
-14.9558836128
 10
22.0014503757
 20
-15.0418089886
 10
21.8792647651
 20
-15.1309553159
 10
21.7770729481
 20
-15.2211753249
 10
21.694450566
 20
-15.3114285885
 10
21.6302012021
 20
-15.4019618968
 10
21.5847123982
 20
-15.4915667088
 10
21.5581844468
 20
-15.578411464
  0
LWPOLYLINE
  5
431
100
AcDbEntity
  8
0
100
AcDbPolyline
 62
7
  6
CONTINUOUS
 90
25
 70
0
 10
22.3935071746
 20
-14.0520723006
 10
22.3108790318
 20
-14.0781767734
 10
22.1855976722
 20
-14.1217075064
 10
22.064032998
 20
-14.1680377299
 10
21.9464096992
 20
-14.2170737175
 10
21.8334018465
 20
-14.2685342896
 10
21.7250356148
 20
-14.322433426
 10
21.6212848292
 20
-14.378757147
 10
21.5227450365
 20
-14.4371823339
 10
21.429446251
 20
-14.4977208693
 10
21.3413584583
 20
-14.5603608707
 10
21.258987162
 20
-14.6247435708
 10
21.1823645609
 20
-14.6908795648
 10
21.1114584561
 20
-14.7587582575
 10
21.0466777547
 20
-14.8279890965
 10
20.9880580306
 20
-14.898579832
 10
20.9355637099
 20
-14.9705227137
 10
20.8894969775
 20
-15.0434039385
 10
20.8498950265
 20
-15.1172289359
 10
20.8167206639
 20
-15.1919922764
 10
20.790164495
 20
-15.2672638675
 10
20.7702648456
 20
-15.3430467473
 10
20.7569833899
 20
-15.4193378778
 10
20.7503957567
 20
-15.4956980521
 10
20.7496204612
 20
-15.5325382617
  0
LWPOLYLINE
  5
432
100
AcDbEntity
  8
ASSI
100
AcDbPolyline
 62
250
  6
CONTINUOUS
 90
26
 70
0
 10
42.9456715739
 20
25.0892160344
 10
42.6897600134
 20
25.0606095332
 10
42.436762992
 20
25.0290669619
 10
42.1866705408
 20
24.9946372586
 10
41.9404105876
 20
24.9574149907
 10
41.697040003
 20
24.9174007169
 10
41.4537295622
 20
24.8745342
 10
41.2088109783
 20
24.8286423099
 10
40.9639050796
 20
24.7800880479
 10
40.7211195663
 20
24.7296121523
 10
40.4813539803
 20
24.6774163482
 10
40.2437074685
 20
24.623402509
 10
40.007603006
 20
24.5678277302
 10
39.7738080872
 20
24.5110371971
 10
39.541557528
 20
24.452798512
 10
39.3079586152
 20
24.3925601945
 10
39.0729725829
 20
24.33060063
 10
38.8366106957
 20
24.2668860162
 10
38.5960206848
 20
24.2005284106
 10
38.3498828679
 20
24.1314496446
 10
38.0994577918
 20
24.0601821048
 10
37.8457513482
 20
23.986827401
 10
37.5876533181
 20
23.9111724628
 10
37.3262433726
 20
23.8339252822
 10
37.0658467765
 20
23.7564386506
 10
35.8100764941
 20
23.3786026463
  0
LWPOLYLINE
  5
433
100
AcDbEntity
  8
ASSI
100
AcDbPolyline
 62
7
  6
CONTINUOUS
 90
43
 70
0
 10
45.6923587186
 20
14.8748656441
 10
45.7141819593
 20
14.8714217807
 10
45.7366373473
 20
14.8680065354
 10
45.7597439479
 20
14.8646276732
 10
45.7835585197
 20
14.8613691083
 10
45.8080709108
 20
14.8582350892
 10
45.8332922287
 20
14.8552270965
 10
45.8593114042
 20
14.8524265796
 10
45.8861666864
 20
14.8498391061
 10
45.9138212419
 20
14.8474677539
 10
45.942251649
 20
14.8453919114
 10
45.9714621791
 20
14.8436218036
 10
46.0014503356
 20
14.8421583557
 10
46.0321827466
 20
14.8410683298
 10
46.0636544508
 20
14.8403394364
 10
46.0958724963
 20
14.8399975603
 10
46.1288218292
 20
14.840168763
 10
46.1625345188
 20
14.8408493173
 10
46.1969812076
 20
14.8420612754
 10
46.2320551394
 20
14.8439724009
 10
46.2677888082
 20
14.8465929017
 10
46.304153085
 20
14.8499363985
 10
46.3409491625
 20
14.8541786663
 10
46.3781914329
 20
14.8593301218
 10
46.4158693389
 20
14.8654092605
 10
46.4537469474
 20
14.872606588
 10
46.4918588158
 20
14.8809174388
 10
46.5301746084
 20
14.8903808773
 10
46.5683613692
 20
14.9012560866
 10
46.6066597652
 20
14.913534012
 10
46.6448338838
 20
14.9272660363
 10
46.6818355877
 20
14.9428007325
 10
46.7179854247
 20
14.9603072921
 10
46.7529668627
 20
14.9796585278
 10
46.7847728722
 20
15.000733162
 10
46.8131517494
 20
15.0237968713
 10
46.8383533296
 20
15.0485805351
 10
46.8591167521
 20
15.0741078412
 10
46.8748611914
 20
15.1003227542
 10
46.8861592308
 20
15.1272160567
 10
46.8934760655
 20
15.1538426961
 10
46.8965810489
 20
15.1799979339
 10
46.8966788861
 20
15.188179025
  0
LINE
  5
434
100
AcDbEntity
  8
ASSI
100
AcDbLine
 62
7
  6
CONTINUOUS
 10
45.6966785096
 20
14.9186504396
 11
45.6531968833
 21
14.9258590375
  0
LINE
  5
435
100
AcDbEntity
  8
ASSI
100
AcDbLine
 62
7
  6
CONTINUOUS
 10
45.6506636684
 20
14.8817862551
 11
45.6923587186
 21
14.8748656441
  0
LINE
  5
436
100
AcDbEntity
  8
ASSI
100
AcDbLine
 62
7
  6
CONTINUOUS
 10
45.6116241407
 20
14.888510818
 11
45.6506636684
 21
14.8817862551
  0
LINE
  5
437
100
AcDbEntity
  8
ASSI
100
AcDbLine
 62
7
  6
CONTINUOUS
 10
45.6531968833
 20
14.9258590375
 11
45.612407483
 21
14.932889485
  0
LWPOLYLINE
  5
438
100
AcDbEntity
  8
ASSI
100
AcDbPolyline
 62
7
  6
CONTINUOUS
 90
5
 70
0
 10
45.612407483
 20
14.932889485
 10
45.5740781535
 20
14.9398314533
 10
45.5558053383
 20
14.9432715253
 10
45.5382154096
 20
14.9468275947
 10
45.5212199878
 20
14.9505083911
  0
LWPOLYLINE
  5
439
100
AcDbEntity
  8
ASSI
100
AcDbPolyline
 62
7
  6
CONTINUOUS
 90
6
 70
0
 10
45.5078920507
 20
14.9089712108
 10
45.5239000164
 20
14.9053348394
 10
45.5404247033
 20
14.9018238991
 10
45.5574148944
 20
14.8984164542
 10
45.5749222748
 20
14.8951370782
 10
45.6116241407
 20
14.888510818
  0
LWPOLYLINE
  5
43A
100
AcDbEntity
  8
ASSI
100
AcDbPolyline
 62
7
  6
CONTINUOUS
 90
5
 70
0
 10
45.5212199878
 20
14.9505083911
 10
45.5049068682
 20
14.9543019075
 10
45.4896130908
 20
14.9583013933
 10
45.4754507279
 20
14.9625364143
 10
45.4623070555
 20
14.9669737994
  0
LWPOLYLINE
  5
43B
100
AcDbEntity
  8
ASSI
100
AcDbPolyline
 62
7
  6
CONTINUOUS
 90
18
 70
0
 10
25.4810106145
 20
15.1339743115
 10
25.3781879675
 20
15.1786531205
 10
25.2807191497
 20
15.2254981806
 10
25.188604167
 20
15.2745097196
 10
25.1016221028
 20
15.3258316971
 10
25.0199938394
 20
15.37931885
 10
24.9443820597
 20
15.4345367275
 10
24.8748298416
 20
15.4914960396
 10
24.8112939826
 20
15.5501813883
 10
24.7543077263
 20
15.6101184901
 10
24.7039110521
 20
15.6713469062
 10
24.6600637716
 20
15.7338194067
 10
24.6231788688
 20
15.7969312873
 10
24.5933404586
 20
15.8606250742
 10
24.5704641522
 20
15.9249485823
 10
24.5547101807
 20
15.9894552739
 10
24.5461287456
 20
16.054213776
 10
24.5443587341
 20
16.0998161226
  0
LWPOLYLINE
  5
43C
100
AcDbEntity
  8
ASSI
100
AcDbPolyline
 62
7
  6
CONTINUOUS
 90
18
 70
0
 10
22.415702718
 20
16.6666282597
 10
22.3128800711
 20
16.7113070687
 10
22.2154112533
 20
16.7581521288
 10
22.1232962706
 20
16.8071636678
 10
22.0363142063
 20
16.8584856454
 10
21.954685943
 20
16.9119727982
 10
21.8790741633
 20
16.9671906758
 10
21.8095219452
 20
17.0241499878
 10
21.7459860861
 20
17.0828353365
 10
21.6889998299
 20
17.1427724384
 10
21.6386031557
 20
17.2040008545
 10
21.5947558752
 20
17.2664733549
 10
21.5578709723
 20
17.3295852356
 10
21.5280325621
 20
17.3932790224
 10
21.5051562557
 20
17.4576025305
 10
21.4894022842
 20
17.5221092221
 10
21.4808208491
 20
17.5868677242
 10
21.4790508376
 20
17.6324700708
  0
LWPOLYLINE
  5
43D
100
AcDbEntity
  8
ASSI
100
AcDbPolyline
 62
7
  6
CONTINUOUS
 90
10
 70
0
 10
10.5504478302
 20
17.3824497131
 10
10.5051596751
 20
17.403746741
 10
10.460081589
 20
17.4222025315
 10
10.4152135721
 20
17.4378170847
 10
10.3703849478
 20
17.4506334648
 10
10.3257663926
 20
17.4606086075
 10
10.2818699355
 20
17.4676133198
 10
10.2387869429
 20
17.4716001249
 10
10.1964260483
 20
17.4726164996
 10
10.1553460538
 20
17.4706907234
  0
LINE
  5
43E
100
AcDbEntity
  8
0
100
AcDbLine
 62
7
  6
CONTINUOUS
 10
10.3039126059
 20
17.0937183355
 11
10.5867553184
 21
16.9522969792
  0
LINE
  5
43F
100
AcDbEntity
  8
0
100
AcDbLine
 62
7
  6
CONTINUOUS
 10
11.0817300652
 20
16.7048096058
 11
23.6682307703
 21
10.4115592532
  0
LINE
  5
440
100
AcDbEntity
  8
0
100
AcDbLine
 62
7
  6
CONTINUOUS
 10
24.1632055172
 20
10.1640718798
 11
24.4460482296
 21
10.0226505236
  0
LINE
  5
441
100
AcDbEntity
  8
0
100
AcDbLine
 62
7
  6
CONTINUOUS
 10
10.0510337032
 20
17.5228468987
 11
10.6066017178
 21
17.2450628914
  0
LINE
  5
442
100
AcDbEntity
  8
0
100
AcDbLine
 62
7
  6
CONTINUOUS
 10
24.7487373415
 20
10.1739950795
 11
25.3043053561
 21
9.8962110722
  0
LINE
  5
443
100
AcDbEntity
  8
0
100
AcDbLine
 62
7
  6
CONTINUOUS
 10
10.5504478302
 20
17.3824497131
 11
24.8048912726
 21
10.255227988
  0
LINE
  5
444
100
AcDbEntity
  8
ASSI
100
AcDbLine
 62
7
  6
CONTINUOUS
 10
25.5900002754
 20
16.4888750906
 11
26.642554175
 21
15.9625981408
  0
LINE
  5
445
100
AcDbEntity
  8
ASSI
100
AcDbLine
 62
7
  6
CONTINUOUS
 10
25.5900002754
 20
16.5322144436
 11
26.642554175
 21
16.0059374938
  0
LWPOLYLINE
  5
446
100
AcDbEntity
  8
ASSI
100
AcDbPolyline
 62
7
  6
CONTINUOUS
 90
10
 70
0
 10
25.1999931946
 20
9.948367153
 10
25.158913043
 20
9.9913730758
 10
25.1165521428
 20
10.0327175888
 10
25.0734691449
 20
10.0718137687
 10
25.029572681
 20
10.1087055058
 10
24.9849541194
 20
10.14334891
 10
24.9401254944
 20
10.175361144
 10
24.8952574839
 20
10.2046145955
 10
24.85017941
 20
10.2312368768
 10
24.8048912726
 20
10.255227988
  0
LWPOLYLINE
  5
447
100
AcDbEntity
  8
ASSI
100
AcDbPolyline
 62
7
  6
CONTINUOUS
 90
7
 70
0
 10
23.8619788806
 20
-17.7331395999
 10
23.8776012148
 20
-17.8285305823
 10
23.8923360518
 20
-17.9236670884
 10
23.9061833916
 20
-18.0185491183
 10
23.9191432342
 20
-18.113176672
 10
23.9312155797
 20
-18.2075497494
 10
23.942400428
 20
-18.3016683506
  0
LINE
  5
448
100
AcDbEntity
  8
ASSI
100
AcDbLine
 62
7
  6
CONTINUOUS
 10
26.642554175
 20
16.0059374938
 11
26.642554175
 21
15.9625981408
  0
LINE
  5
449
100
AcDbEntity
  8
ASSI
100
AcDbLine
 62
7
  6
CONTINUOUS
 10
27.182976882
 20
16.2472813403
 11
27.182976882
 21
16.2039356848
  0
LINE
  5
44A
100
AcDbEntity
  8
ASSI
100
AcDbLine
 62
7
  6
CONTINUOUS
 10
28.521442893
 20
16.4980367486
 11
28.521442893
 21
16.4546784566
  0
LINE
  5
44B
100
AcDbEntity
  8
ASSI
100
AcDbLine
 62
7
  6
CONTINUOUS
 10
29.0657693594
 20
16.7348568439
 11
29.0657693594
 21
16.6914908285
  0
LWPOLYLINE
  5
44C
100
AcDbEntity
  8
ASSI
100
AcDbPolyline
 62
7
  6
CONTINUOUS
 90
7
 70
0
 10
23.942400428
 20
-20.4382991307
 10
23.9312155797
 20
-20.5212328836
 10
23.9191432342
 20
-20.6035336156
 10
23.9061833916
 20
-20.6852013266
 10
23.8923360518
 20
-20.7662360167
 10
23.8776012148
 20
-20.8466376858
 10
23.8619788806
 20
-20.926406334
  0
LWPOLYLINE
  5
44D
100
AcDbEntity
  8
ASSI
100
AcDbPolyline
 62
7
  6
CONTINUOUS
 90
10
 70
0
 10
21.9972305813
 20
-24.4426631939
 10
22.1376637495
 20
-24.0326422454
 10
22.2662152179
 20
-23.6129278194
 10
22.3828849865
 20
-23.1835199158
 10
22.4877261836
 20
-22.7441265292
 10
22.580685681
 20
-22.2950396652
 10
22.6616040936
 20
-21.8371353398
 10
22.7304282932
 20
-21.3707055587
 10
22.7872114081
 20
-20.8954583164
 10
22.8319534383
 20
-20.4113936129
  0
LWPOLYLINE
  5
44E
100
AcDbEntity
  8
ASSI
100
AcDbPolyline
 62
250
  6
CONTINUOUS
 90
25
 70
0
 10
23.6852483244
 20
-25.5507055412
 10
23.8413618806
 20
-25.0949154474
 10
23.9843719755
 20
-24.6270951611
 10
24.114150714
 20
-24.1476630578
 10
24.2305820337
 20
-23.657047898
 10
24.3335618092
 20
-23.1556884428
 10
24.4229979449
 20
-22.6440330613
 10
24.4988104574
 20
-22.1225393301
 10
24.5609315466
 20
-21.5916736265
 10
24.6093056567
 20
-21.0519107107
 10
24.6438895265
 20
-20.5037332989
 10
24.6646522275
 20
-19.9476316294
 10
24.6715751916
 20
-19.3841030274
 10
24.6646522275
 20
-18.8136514612
 10
24.6438895265
 20
-18.2367870907
 10
24.6093056566
 20
-17.6540258089
 10
24.5609315464
 20
-17.0658887829
 10
24.4988104572
 20
-16.47290199
 10
24.4229979447
 20
-15.8755957464
 10
24.333561809
 20
-15.2745042295
 10
24.2305820336
 20
-14.6701649993
 10
24.1141507139
 20
-14.0631185203
 10
23.9843719755
 20
-13.4539076788
 10
23.8413618806
 20
-12.8430772978
 10
23.6852483244
 20
-12.231173648
  0
LWPOLYLINE
  5
44F
100
AcDbEntity
  8
ASSI
100
AcDbPolyline
 62
250
  6
CONTINUOUS
 90
13
 70
0
 10
23.0037632046
 20
-25.4083543504
 10
23.1326088655
 20
-25.0355135521
 10
23.2523603438
 20
-24.6546779904
 10
23.3630176395
 20
-24.2658476654
 10
23.464656457
 20
-23.8687253557
 10
23.557201092
 20
-23.4636082827
 10
23.640424431
 20
-23.0513881102
 10
23.7142938286
 20
-22.6320800665
 10
23.7788419302
 20
-22.2056689235
 10
23.8339395587
 20
-21.7730006604
 10
23.879543655
 20
-21.3343572705
 10
23.9156972781
 20
-20.8894567606
 10
23.942400428
 20
-20.4382991307
  0
LWPOLYLINE
  5
450
100
AcDbEntity
  8
ASSI
100
AcDbPolyline
 62
250
  6
CONTINUOUS
 90
10
 70
0
 10
22.4329489756
 20
-26.8503519472
 10
22.4998226226
 20
-26.6940137249
 10
22.565846575
 20
-26.5366737737
 10
22.631020833
 20
-26.3783320937
 10
22.6953624184
 20
-26.2189476241
 10
22.7588543094
 20
-26.0585614257
 10
22.8214454401
 20
-25.8972966808
 10
22.8831187885
 20
-25.7351944504
 10
22.9438913767
 20
-25.5722136736
 10
23.0037632046
 20
-25.4083543504
  0
LWPOLYLINE
  5
451
100
AcDbEntity
  8
ASSI
100
AcDbPolyline
 62
250
  6
CONTINUOUS
 90
10
 70
0
 10
23.1072523216
 20
-27.0107928645
 10
23.1750892578
 20
-26.8521949223
 10
23.2420273946
 20
-26.6926762401
 10
23.308064549
 20
-26.5322420208
 10
23.3731985671
 20
-26.3708974969
 10
23.4374273246
 20
-26.2086479305
 10
23.5007487267
 20
-26.0454986134
 10
23.5631607082
 20
-25.8814548667
 10
23.6246612336
 20
-25.7165220406
 10
23.6852482969
 20
-25.5507055145
  0
LWPOLYLINE
  5
452
100
AcDbEntity
  8
ASSI
100
AcDbPolyline
 62
7
  6
CONTINUOUS
 90
10
 70
0
 10
21.3255202093
 20
-26.1091253491
 10
21.4051439282
 20
-25.9290051329
 10
21.4835229488
 20
-25.7476177662
 10
21.560657271
 20
-25.5649632489
 10
21.6365503748
 20
-25.3810327955
 10
21.7111987801
 20
-25.1958351914
 10
21.7845920474
 20
-25.0093967936
 10
21.8567266968
 20
-24.8217263875
 10
21.9276062081
 20
-24.6328151876
 10
21.9972305813
 20
-24.4426631939
  0
LWPOLYLINE
  5
453
100
AcDbEntity
  8
ASSI
100
AcDbPolyline
 62
250
  6
CONTINUOUS
 90
19
 70
0
 10
18.2493950949
 20
-21.8577129205
 10
18.3210876342
 20
-21.7407592073
 10
18.3852398969
 20
-21.6143101605
 10
18.441111128
 20
-21.4798037078
 10
18.4886047283
 20
-21.3371454177
 10
18.5278172971
 20
-21.1864297218
 10
18.558297878
 20
-21.0293778425
 10
18.5799451413
 20
-20.8659199456
 10
18.5928604167
 20
-20.6961258653
 10
18.5968967367
 20
-20.5219263259
 10
18.5919526255
 20
-20.3432705179
 10
18.578129559
 20
-20.1602092507
 10
18.5555849974
 20
-19.974825677
 10
18.5242123606
 20
-19.7870766253
 10
18.4841182287
 20
-19.5970052669
 10
18.4357798028
 20
-19.4068242683
 10
18.3793561498
 20
-19.217271185
 10
18.3146882028
 20
-19.0276084614
 10
18.2417759616
 20
-18.8378360976
  0
LWPOLYLINE
  5
454
100
AcDbEntity
  8
ASSI
100
AcDbPolyline
 62
7
  6
CONTINUOUS
 90
3
 70
0
 10
21.8493998816
 20
-18.2094080255
 10
21.8134925593
 20
-18.264823932
 10
21.7718177927
 20
-18.3143576645
  0
LWPOLYLINE
  5
455
100
AcDbEntity
  8
0
100
AcDbPolyline
 62
250
  6
CONTINUOUS
 90
10
 70
0
 10
21.1104211084
 20
-16.4350734855
 10
21.094461797
 20
-16.4583544067
 10
21.0801504593
 20
-16.4824380522
 10
21.0675815973
 20
-16.5071653575
 10
21.0568381898
 20
-16.532372991
 10
21.0479911891
 20
-16.5578944806
 10
21.04109905
 20
-16.5835613103
 10
21.036207286
 20
-16.6092039705
 10
21.033348172
 20
-16.6346530812
 10
21.0325405735
 20
-16.6597405565
  0
LINE
  5
456
100
AcDbEntity
  8
0
100
AcDbLine
 62
250
  6
CONTINUOUS
 10
21.7130840847
 20
-15.7257985765
 11
21.6207368929
 21
-15.8366407826
  0
LWPOLYLINE
  5
457
100
AcDbEntity
  8
0
100
AcDbPolyline
 62
7
  6
CONTINUOUS
 90
4
 70
0
 10
22.3375032177
 20
-18.031514952
 10
22.2889065818
 20
-18.0819353586
 10
22.238755144
 20
-18.1212369064
 10
22.1886690451
 20
-18.1487450037
  0
LINE
  5
458
100
AcDbEntity
  8
0
100
AcDbLine
 62
250
  6
CONTINUOUS
 10
21.8511273467
 20
-15.5984694775
 11
21.7130840847
 21
-15.7257985765
  0
LWPOLYLINE
  5
459
100
AcDbEntity
  8
0
100
AcDbPolyline
 62
7
  6
CONTINUOUS
 90
3
 70
0
 10
21.9420192111
 20
-16.2386015286
 10
21.9439353968
 20
-16.2371003968
 10
22.0405483045
 20
-16.170028149
  0
LWPOLYLINE
  5
45A
100
AcDbEntity
  8
0
100
AcDbPolyline
 62
7
  6
CONTINUOUS
 90
3
 70
0
 10
21.7718177927
 20
-18.3143576645
 10
21.7149723969
 20
-18.3554098384
 10
21.6734876022
 20
-18.377485773
  0
LWPOLYLINE
  5
45B
100
AcDbEntity
  8
ASSI
100
AcDbPolyline
 62
7
  6
CONTINUOUS
 90
8
 70
0
 10
54.371355317
 20
-3.0099690619
 10
53.2943744376
 20
-3.720263849
 10
52.2064610153
 20
-4.4263080994
 10
51.107551342
 20
-5.1281418513
 10
49.9977091258
 20
-5.8257250665
 10
48.877125491
 20
-6.5189376297
 10
47.7458641456
 20
-7.2077395025
 10
46.6038613815
 20
-7.8921707234
  0
LINE
  5
45C
100
AcDbEntity
  8
ASSI
100
AcDbLine
 62
7
  6
CONTINUOUS
 10
46.6038613815
 20
-7.8921707234
 11
45.4511171987
 21
-8.5722312923
  0
LINE
  5
45D
100
AcDbEntity
  8
ASSI
100
AcDbLine
 62
7
  6
CONTINUOUS
 10
45.4511171987
 20
-8.5722312923
 11
44.1454474153
 21
-9.3297449264
  0
LWPOLYLINE
  5
45E
100
AcDbEntity
  8
ASSI
100
AcDbPolyline
 62
7
  6
CONTINUOUS
 90
3
 70
0
 10
44.1454474153
 20
-9.3297449264
 10
42.8268366055
 20
-10.0814238487
 10
41.4952847693
 20
-10.8272680592
  0
LWPOLYLINE
  5
45F
100
AcDbEntity
  8
ASSI
100
AcDbPolyline
 62
7
  6
CONTINUOUS
 90
3
 70
0
 10
41.4952847693
 20
-10.8272680592
 10
40.1506940678
 20
-11.5673304724
 10
38.7931623398
 20
-12.3015581737
  0
LWPOLYLINE
  5
460
100
AcDbEntity
  8
ASSI
100
AcDbPolyline
 62
7
  6
CONTINUOUS
 90
3
 70
0
 10
38.7931623398
 20
-12.3015581737
 10
37.4229831022
 20
-13.0297924201
 10
36.0402541938
 20
-13.751980297
  0
LINE
  5
461
100
AcDbEntity
  8
ASSI
100
AcDbLine
 62
7
  6
CONTINUOUS
 10
22.8319534383
 20
-20.4113936129
 11
23.999250705
 21
-19.7914933909
  0
LINE
  5
462
100
AcDbEntity
  8
ASSI
100
AcDbLine
 62
7
  6
CONTINUOUS
 10
36.0402541938
 20
-13.751980297
 11
34.6448777756
 21
-14.4681747189
  0
LINE
  5
463
100
AcDbEntity
  8
ASSI
100
AcDbLine
 62
7
  6
CONTINUOUS
 10
34.6448777756
 20
-14.4681747189
 11
33.2368538478
 21
-15.1783756857
  0
LINE
  5
464
100
AcDbEntity
  8
ASSI
100
AcDbLine
 62
7
  6
CONTINUOUS
 10
17.933495329
 20
-21.6550238394
 11
17.8448569392
 21
-21.687140684
  0
LWPOLYLINE
  5
465
100
AcDbEntity
  8
ASSI
100
AcDbPolyline
 62
7
  6
CONTINUOUS
 90
11
 70
0
 10
46.4666070708
 20
25.6498743742
 10
46.1123511182
 20
25.679199437
 10
45.7615883274
 20
25.6991609041
 10
45.4146167216
 20
25.7101862292
 10
45.0717780252
 20
25.7126804671
 10
44.7333829086
 20
25.7070520622
 10
44.399673341
 20
25.6937203527
 10
44.0708903699
 20
25.6731136534
 10
43.7473735065
 20
25.645676171
 10
43.4294765439
 20
25.6118582231
 10
43.1903994666
 20
25.5819767035
  0
LINE
  5
466
100
AcDbEntity
  8
ASSI
100
AcDbLine
 62
7
  6
CONTINUOUS
 10
46.5661992767
 20
25.6399435033
 11
46.4666070708
 21
25.6498743742
  0
LWPOLYLINE
  5
467
100
AcDbEntity
  8
ASSI
100
AcDbPolyline
 62
7
  6
CONTINUOUS
 90
4
 70
0
 10
47.4308773123
 20
25.5431155503
 10
47.1757728364
 20
25.5732292038
 10
46.9201639776
 20
25.6021013852
 10
46.566240254
 20
25.6399392658
  0
LINE
  5
468
100
AcDbEntity
  8
ASSI
100
AcDbLine
 62
7
  6
CONTINUOUS
 10
47.4308773123
 20
25.5431155503
 11
47.5823619152
 21
25.5246173648
  0
LINE
  5
469
100
AcDbEntity
  8
ASSI
100
AcDbLine
 62
250
  6
CONTINUOUS
 10
50.6199535498
 20
24.4879598743
 11
50.8444890969
 21
24.4596497035
  0
LINE
  5
46A
100
AcDbEntity
  8
ASSI
100
AcDbLine
 62
250
  6
CONTINUOUS
 10
50.8444890969
 20
24.4596497035
 11
51.0686215549
 21
24.4301859361
  0
LWPOLYLINE
  5
46B
100
AcDbEntity
  8
ASSI
100
AcDbPolyline
 62
250
  6
CONTINUOUS
 90
10
 70
0
 10
47.5823619152
 20
25.5246173648
 10
47.848720992
 20
25.4876172541
 10
48.2455201595
 20
25.4177128481
 10
48.6450262562
 20
25.3297858992
 10
49.0471003341
 20
25.2238173804
 10
49.4511541799
 20
25.0998759062
 10
49.8558151081
 20
24.9583491661
 10
50.2603659075
 20
24.7995188111
 10
50.6647603727
 20
24.6234195165
 10
51.0686215549
 20
24.4301859361
  0
LWPOLYLINE
  5
46C
100
AcDbEntity
  8
ASSI
100
AcDbPolyline
 62
7
  6
CONTINUOUS
 90
4
 70
0
 10
45.4665701404
 20
14.9210411901
 10
45.4777767068
 20
14.9173091729
 10
45.4925060105
 20
14.9129401188
 10
45.5078920507
 20
14.9089712108
  0
LINE
  5
46D
100
AcDbEntity
  8
ASSI
100
AcDbLine
 62
7
  6
CONTINUOUS
 10
45.4623070555
 20
14.9669737994
 11
45.4501818667
 21
14.971612409
  0
LWPOLYLINE
  5
46E
100
AcDbEntity
  8
ASSI
100
AcDbPolyline
 62
7
  6
CONTINUOUS
 90
10
 70
0
 10
45.5103050952
 20
15.6633891162
 10
45.5707708453
 20
15.6401114116
 10
45.6295169247
 20
15.6163680609
 10
45.6865428833
 20
15.5921551554
 10
45.7419651709
 20
15.5674500055
 10
45.7956667647
 20
15.5422702848
 10
45.8472971563
 20
15.5166739193
 10
45.8967395357
 20
15.4906804476
 10
45.9441108038
 20
15.464271131
 10
45.989411194
 20
15.4374480205
  0
LWPOLYLINE
  5
46F
100
AcDbEntity
  8
ASSI
100
AcDbPolyline
 62
7
  6
CONTINUOUS
 90
30
 70
0
 10
45.3906736554
 20
16.1444282593
 10
45.5410033042
 20
16.0853078572
 10
45.611518456
 20
16.0570235026
 10
45.6787533149
 20
16.0296559413
 10
45.7428879541
 20
16.0031338273
 10
45.8044629739
 20
15.9772475893
 10
45.8634793186
 20
15.9519902977
 10
45.9199358205
 20
15.9273662008
 10
45.9743699596
 20
15.9031830622
 10
46.0267998837
 20
15.8794380128
 10
46.0772073297
 20
15.8561325143
 10
46.1260751939
 20
15.8330812204
 10
46.1734224837
 20
15.810292422
 10
46.2192301496
 20
15.7877573104
 10
46.2639240202
 20
15.7652651177
 10
46.3075336267
 20
15.7428260719
 10
46.3500294522
 20
15.7204301214
 10
46.391748772
 20
15.6978362943
 10
46.432809989
 20
15.6749977312
 10
46.4730947862
 20
15.6519623465
 10
46.5125853929
 20
15.628631739
 10
46.5513945843
 20
15.6049807502
 10
46.589409784
 20
15.5810369455
 10
46.6262752695
 20
15.5567819194
 10
46.662053392
 20
15.532200178
 10
46.696682223
 20
15.5073122239
 10
46.7296197749
 20
15.4821554464
 10
46.7606856921
 20
15.4567458543
 10
46.7900611765
 20
15.4310771664
 10
46.8177467301
 20
15.4051550223
  0
LWPOLYLINE
  5
470
100
AcDbEntity
  8
ASSI
100
AcDbPolyline
 62
250
  6
CONTINUOUS
 90
3
 70
0
 10
26.916350963
 20
23.6837599175
 10
26.9633686473
 20
23.6650808761
 10
26.9782484511
 20
23.6579530668
  0
LWPOLYLINE
  5
471
100
AcDbEntity
  8
ASSI
100
AcDbPolyline
 62
250
  6
CONTINUOUS
 90
16
 70
0
 10
51.35958208
 20
12.9899788911
 10
51.4249381626
 20
12.9618543001
 10
51.4895902174
 20
12.9291749252
 10
51.5532811078
 20
12.8920707417
 10
51.6157575189
 20
12.8506893229
 10
51.6767709662
 20
12.805195254
 10
51.7360787838
 20
12.7557694772
 10
51.7934450858
 20
12.7026085702
 10
51.8486417111
 20
12.645923968
 10
51.901449133
 20
12.5859411226
 10
51.9516573266
 20
12.5228985874
 10
51.9990665886
 20
12.4570471091
 10
52.0434883441
 20
12.3886486384
 10
52.0847459135
 20
12.3179752307
 10
52.1226752096
 20
12.2453079591
 10
52.1571253781
 20
12.1709358401
  0
LWPOLYLINE
  5
472
100
AcDbEntity
  8
ASSI
100
AcDbPolyline
 62
250
  6
CONTINUOUS
 90
13
 70
0
 10
39.0840609702
 20
17.3581296212
 10
39.1478004172
 20
17.3305791785
 10
39.2106981372
 20
17.2987057515
 10
39.2726569192
 20
17.2626381452
 10
39.3336929182
 20
17.2224935087
 10
39.3935796725
 20
17.178390578
 10
39.4518504945
 20
17.1305135716
 10
39.508372725
 20
17.0790967276
 10
39.5630565286
 20
17.0242982655
 10
39.6154966369
 20
16.9662868306
 10
39.6654834351
 20
16.905306706
 10
39.71301057
 20
16.8416457101
 10
39.7579834533
 20
16.7755897269
  0
LWPOLYLINE
  5
473
100
AcDbEntity
  8
ASSI
100
AcDbPolyline
 62
250
  6
CONTINUOUS
 90
13
 70
0
 10
37.9194416685
 20
16.7600156425
 10
37.9847973181
 20
16.7307343139
 10
38.0495553736
 20
16.6967385578
 10
38.1134460238
 20
16.658170016
 10
38.1762030712
 20
16.6151893829
 10
38.2375650416
 20
16.5679757353
 10
38.2972762733
 20
16.5167257869
 10
38.3550879824
 20
16.4616530682
 10
38.4107592993
 20
16.4029870373
 10
38.464058272
 20
16.3409721236
 10
38.5147628333
 20
16.2758667092
 10
38.5626617248
 20
16.2079420529
 10
38.6075553785
 20
16.1374811596
  0
LWPOLYLINE
  5
474
100
AcDbEntity
  8
ASSI
100
AcDbPolyline
 62
250
  6
CONTINUOUS
 90
13
 70
0
 10
37.222439974
 20
16.4069450286
 10
37.28815481
 20
16.3770635358
 10
37.3532741985
 20
16.3423576452
 10
37.4175199128
 20
16.3029756401
 10
37.4806174588
 20
16.2590857825
 10
37.5422972484
 20
16.2108755949
 10
37.6022957504
 20
16.1585510582
 10
37.6603566176
 20
16.1023357325
 10
37.7162317811
 20
16.0424698013
 10
37.7696825107
 20
15.9792090457
 10
37.8204804347
 20
15.9128237513
 10
37.8684085157
 20
15.8435975537
 10
37.9132619778
 20
15.7718262261
  0
LWPOLYLINE
  5
475
100
AcDbEntity
  8
ASSI
100
AcDbPolyline
 62
250
  6
CONTINUOUS
 90
24
 70
0
 10
44.8894840396
 20
13.4642158543
 10
44.974238478
 20
13.422212676
 10
45.3025672091
 20
13.2666425383
 10
45.6277510411
 20
13.1240088138
 10
45.9495470543
 20
12.994425941
 10
46.2680650293
 20
12.8778061923
 10
46.58318337
 20
12.7741796971
 10
46.8947155212
 20
12.6835960007
 10
47.2026589685
 20
12.6059600301
 10
47.5069669695
 20
12.5412574151
 10
47.8073560898
 20
12.4895195236
 10
48.1034430074
 20
12.4506437144
 10
48.3941630048
 20
12.4245888444
 10
48.6801932274
 20
12.411205553
 10
48.9638134119
 20
12.4104008931
 10
49.245926285
 20
12.4223112304
 10
49.5253909941
 20
12.4471621685
 10
49.8014697733
 20
12.485184031
 10
50.074429077
 20
12.5365988017
 10
50.3436983482
 20
12.6014170976
 10
50.6072345089
 20
12.6793251374
 10
50.8642118538
 20
12.7700686489
 10
51.1150587511
 20
12.873656765
 10
51.35958208
 20
12.9899788911
  0
LINE
  5
476
100
AcDbEntity
  8
ASSI
100
AcDbLine
 62
7
  6
CONTINUOUS
 10
26.1304226601
 20
16.7735584513
 11
27.182976882
 21
16.2472813403
  0
LWPOLYLINE
  5
477
100
AcDbEntity
  8
ASSI
100
AcDbPolyline
 62
7
  6
CONTINUOUS
 90
17
 70
0
 10
44.8894840396
 20
13.4642158543
 10
44.8258642685
 20
13.4962565055
 10
44.5328184734
 20
13.6495562942
 10
44.234564128
 20
13.8150597215
 10
43.9314028215
 20
13.9928009868
 10
43.6235409744
 20
14.182807822
 10
43.3111836009
 20
14.3850826338
 10
42.9946178346
 20
14.5995377944
 10
42.6740503618
 20
14.8260756048
 10
42.3496805999
 20
15.0645681389
 10
42.0217610785
 20
15.3148141493
 10
41.6904669581
 20
15.5766160248
 10
41.355954872
 20
15.8497490295
 10
41.018415121
 20
16.1339254361
 10
40.6780174267
 20
16.4288261396
 10
40.3349173392
 20
16.7340980685
 10
40.0463953002
 20
16.9967338606
  0
LWPOLYLINE
  5
478
100
AcDbEntity
  8
ASSI
100
AcDbPolyline
 62
250
  6
CONTINUOUS
 90
10
 70
0
 10
24.1315330167
 20
22.9523985073
 10
24.0777725845
 20
22.9822546485
 10
24.0239271706
 20
23.0070311591
 10
23.9702268331
 20
23.0266221797
 10
23.9169010102
 20
23.0409440066
 10
23.8641775397
 20
23.0499354489
 10
23.8122816862
 20
23.0535580899
 10
23.7614351781
 20
23.0517964518
 10
23.7118552602
 20
23.0446580612
 10
23.6649310571
 20
23.0325485452
  0
LWPOLYLINE
  5
479
100
AcDbEntity
  8
ASSI
100
AcDbPolyline
 62
250
  6
CONTINUOUS
 90
10
 70
0
 10
24.9960447301
 20
23.2217141117
 10
24.9435304428
 20
23.2513677517
 10
24.890909662
 20
23.2760614146
 10
24.8384016295
 20
23.2956922154
 10
24.7862251176
 20
23.3101783633
 10
24.7345975172
 20
23.3194595025
 10
24.6837339324
 20
23.3234969635
 10
24.6338462839
 20
23.3222739245
 10
24.585142426
 20
23.3157954812
 10
24.5386929598
 20
23.3043542698
  0
LWPOLYLINE
  5
47A
100
AcDbEntity
  8
ASSI
100
AcDbPolyline
 62
7
  6
CONTINUOUS
 90
45
 70
0
 10
25.4561349966
 20
18.0306906968
 10
25.393613946
 20
18.0696028471
 10
25.3271061986
 20
18.1067719268
 10
25.2566117703
 20
18.1421983215
 10
25.1818396413
 20
18.1760054966
 10
25.1030808176
 20
18.2080696512
 10
25.0212083319
 20
18.2380197323
 10
24.9362336534
 20
18.2658090487
 10
24.8481452111
 20
18.2914817988
 10
24.75778146
 20
18.3148028338
 10
24.6651782098
 20
18.3357441391
 10
24.5702994755
 20
18.3543293934
 10
24.4738760123
 20
18.3704007571
 10
24.3759749921
 20
18.3839505325
 10
24.276529013
 20
18.3949806172
 10
24.1760669649
 20
18.4033474273
 10
24.0742985377
 20
18.4090418424
 10
23.9715137589
 20
18.4120656652
 10
23.8691120454
 20
18.4122921598
 10
23.7671181915
 20
18.4096514343
 10
23.6655071392
 20
18.4042062691
 10
23.5656035904
 20
18.3960304883
 10
23.4676972912
 20
18.3851330797
 10
23.3714983042
 20
18.3714995421
 10
23.2774618625
 20
18.3551698506
 10
23.1855163578
 20
18.3361572322
 10
23.0957332261
 20
18.3144431818
 10
23.0087823039
 20
18.2900209834
 10
22.9243525011
 20
18.2627343073
 10
22.8427547631
 20
18.2327346792
 10
22.7655920821
 20
18.2004799723
 10
22.6930481912
 20
18.1658808
 10
22.6249393901
 20
18.1290265891
 10
22.5623176809
 20
18.0906480081
 10
22.5055259118
 20
18.0508875524
 10
22.4542214276
 20
18.0096075696
 10
22.4084280675
 20
17.9671212772
 10
22.3681130743
 20
17.9234638206
 10
22.333309402
 20
17.8786053219
 10
22.3041394824
 20
17.8327623543
 10
22.2805615777
 20
17.7857991744
 10
22.2626176199
 20
17.7378570305
 10
22.250555588
 20
17.6895693726
 10
22.2445165056
 20
17.6409277895
 10
22.2437119012
 20
17.614830489
  0
LWPOLYLINE
  5
47B
100
AcDbEntity
  8
ASSI
100
AcDbPolyline
 62
7
  6
CONTINUOUS
 90
34
 70
0
 10
28.521442893
 20
16.4980367486
 10
28.4713553333
 20
16.5295397427
 10
28.4186261087
 20
16.5599336816
 10
28.3632552299
 20
16.5892188235
 10
28.3051150924
 20
16.6174548716
 10
28.2443333027
 20
16.6445821717
 10
28.1812926777
 20
16.6704217134
 10
28.1159638555
 20
16.6949666791
 10
28.0483761618
 20
16.7182230046
 10
27.9790004361
 20
16.7400306014
 10
27.9078689326
 20
16.7603678187
 10
27.8349493264
 20
16.7792545724
 10
27.7606155829
 20
16.7965929694
 10
27.6848030715
 20
16.8123840705
 10
27.6075763222
 20
16.826624318
 10
27.5295030399
 20
16.8392088485
 10
27.4506443851
 20
16.8501166738
 10
27.3709390789
 20
16.8593657931
 10
27.2907711706
 20
16.8669098886
 10
27.2100664162
 20
16.8727428733
 10
27.1288989273
 20
16.8768674208
 10
27.047875297
 20
16.8792505863
 10
26.9670610629
 20
16.8798780422
 10
26.886390561
 20
16.8787607528
 10
26.8062735976
 20
16.8759040922
 10
26.7266636064
 20
16.8712945133
 10
26.6476070331
 20
16.8649422406
 10
26.5696532243
 20
16.8568888328
 10
26.4928283127
 20
16.8471214863
 10
26.4171060692
 20
16.835650207
 10
26.3429573265
 20
16.8225514996
 10
26.2705390129
 20
16.8078503298
 10
26.1996941354
 20
16.7915196793
 10
26.1304226601
 20
16.7735584513
  0
LWPOLYLINE
  5
47C
100
AcDbEntity
  8
ASSI
100
AcDbPolyline
 62
7
  6
CONTINUOUS
 90
4
 70
0
 10
25.5188919791
 20
9.4814841889
 10
25.4895187247
 20
9.538400965
 10
25.4585365361
 20
9.5942037201
 10
25.4299713549
 20
9.6421368218
  0
LWPOLYLINE
  5
47D
100
AcDbEntity
  8
0
100
AcDbPolyline
 62
7
  6
CONTINUOUS
 90
13
 70
0
 10
25.3043053561
 20
9.8962110722
 10
25.9410492146
 20
8.6088284858
 10
26.558841795
 20
7.3143423582
 10
27.1576830973
 20
6.0127526892
 10
27.7378684491
 20
4.703366712
 10
28.2991025229
 20
3.3868771935
 10
28.8404993359
 20
2.065362435
 10
29.3620238279
 20
0.7388270686
 10
29.8637110591
 20
-0.5927335377
 10
30.3447802277
 20
-1.9272549787
 10
30.8049710663
 20
-3.2640491191
 10
31.2445438422
 20
-4.6038040942
 10
31.6634985554
 20
-5.9465199038
  0
LWPOLYLINE
  5
47E
100
AcDbEntity
  8
ASSI
100
AcDbPolyline
 62
7
  6
CONTINUOUS
 90
28
 70
0
 10
25.5188919791
 20
9.4814841889
 10
25.7871710562
 20
8.9380934069
 10
26.0521558359
 20
8.3932536407
 10
26.3138463181
 20
7.8469648902
 10
26.5722679604
 20
7.2991714452
 10
26.8273953053
 20
6.749929016
 10
27.0791519803
 20
6.1994047329
 10
27.3275361648
 20
5.6476022043
 10
27.5725496795
 20
5.0945178218
 10
27.8141216132
 20
4.540307891
 10
28.0522515146
 20
3.9849728498
 10
28.286939835
 20
3.4285122602
 10
28.518117018
 20
2.8710811139
 10
28.7457804491
 20
2.3126785999
 10
28.9699327427
 20
1.7533055291
 10
29.1905121849
 20
1.1931193262
 10
29.4075170522
 20
0.6321196229
 10
29.620949068
 20
0.0703067875
 10
29.8307516888
 20
-0.4921606501
 10
30.0369250773
 20
-1.0552832305
 10
30.2394690708
 20
-1.619060413
 10
30.4383266371
 20
-2.183332046
 10
30.6334974438
 20
-2.7480971431
 10
30.8249818234
 20
-3.3133566907
 10
31.0127237407
 20
-3.8789534954
 10
31.1967045172
 20
-4.4448351594
 10
31.3769428313
 20
-5.0110540805
 10
31.5534386832
 20
-5.5776102587
  0
LINE
  5
47F
100
AcDbEntity
  8
ASSI
100
AcDbLine
 62
7
  6
CONTINUOUS
 10
31.5534386832
 20
-5.5776102587
 11
31.6655693916
 21
-5.9458965262
  0
LWPOLYLINE
  5
480
100
AcDbEntity
  8
ASSI
100
AcDbPolyline
 62
7
  6
CONTINUOUS
 90
9
 70
0
 10
31.6655693916
 20
-5.9458965262
 10
31.7161406235
 20
-6.1138921904
 10
31.7956014419
 20
-6.3820655179
 10
31.8738057313
 20
-6.6502728768
 10
31.9507499196
 20
-6.9185018101
 10
32.0264232896
 20
-7.1867149472
 10
32.100822269
 20
-7.4548998313
 10
32.1739504301
 20
-7.7230689192
 10
32.245807773
 20
-7.9912222109
  0
LWPOLYLINE
  5
481
100
AcDbEntity
  8
ASSI
100
AcDbPolyline
 62
7
  6
CONTINUOUS
 90
10
 70
0
 10
31.6634985554
 20
-5.9465199038
 10
31.7315128384
 20
-6.1735449997
 10
31.7986216277
 20
-6.4005772862
 10
31.8648249233
 20
-6.6276167635
 10
31.9301248256
 20
-6.8546708378
 10
31.9945192343
 20
-7.0817321028
 10
32.058001848
 20
-7.3087783394
 10
32.1205705662
 20
-7.5358021413
 10
32.1822274894
 20
-7.7628109148
 10
32.2429726176
 20
-7.98980466
  0
LWPOLYLINE
  5
482
100
AcDbEntity
  8
ASSI
100
AcDbPolyline
 62
7
  6
CONTINUOUS
 90
25
 70
0
 10
32.245807773
 20
-7.9912222109
 10
32.3258683124
 20
-8.2988221646
 10
32.402610051
 20
-8.6060886969
 10
32.4760329889
 20
-8.913021808
 10
32.5461472424
 20
-9.2196920889
 10
32.6129426952
 20
-9.5260289484
 10
32.6763889979
 20
-9.8318206132
 10
32.7364851764
 20
-10.1370632514
 10
32.7932322049
 20
-10.4417606948
 10
32.8466026566
 20
-10.7457126658
 10
32.8965965739
 20
-11.0489191504
 10
32.9432139145
 20
-11.3513801627
 10
32.9864271249
 20
-11.6528954667
 10
33.0262362551
 20
-11.9534651037
 10
33.0626412552
 20
-12.2530890323
 10
33.0956144216
 20
-12.5515668929
 10
33.125155801
 20
-12.8488987464
 10
33.1512653467
 20
-13.1450845318
 10
33.1739152153
 20
-13.4399237074
 10
33.1931054468
 20
-13.733419914
 10
33.2088360012
 20
-14.0255695107
 10
33.2210789149
 20
-14.3161610327
 10
33.2298248666
 20
-14.6051239917
 10
33.2350831775
 20
-14.8925288761
 10
33.2368538478
 20
-15.1783756857
  0
LWPOLYLINE
  5
483
100
AcDbEntity
  8
ASSI
100
AcDbPolyline
 62
7
  6
CONTINUOUS
 90
10
 70
0
 10
32.2429726176
 20
-7.98980466
 10
32.4213922371
 20
-8.6934147174
 10
32.5822795126
 20
-9.3940834339
 10
32.7256344442
 20
-10.0918108098
 10
32.8516068657
 20
-10.7875966173
 10
32.9600469433
 20
-11.480441084
 10
33.0505051756
 20
-12.1673448925
 10
33.1228760811
 20
-12.8478264745
 10
33.1772651414
 20
-13.5223673984
 10
33.213539299
 20
-14.1894130513
  0
LINE
  5
484
100
AcDbEntity
  8
ASSI
100
AcDbLine
 62
7
  6
CONTINUOUS
 10
33.213539299
 20
-14.1894130513
 11
33.2316542016
 21
-14.8494866825
  0
LINE
  5
485
100
AcDbEntity
  8
ASSI
100
AcDbLine
 62
7
  6
CONTINUOUS
 10
33.2316542016
 20
-14.8494866825
 11
33.2316542016
 21
-15.5020650427
  0
LINE
  5
486
100
AcDbEntity
  8
ASSI
100
AcDbLine
 62
7
  6
CONTINUOUS
 10
37.1518718233
 20
20.2925035568
 11
37.1518718233
 21
20.2489585427
  0
LINE
  5
487
100
AcDbEntity
  8
ASSI
100
AcDbLine
 62
7
  6
CONTINUOUS
 10
38.8364356426
 20
19.4502216471
 11
38.8364356426
 21
19.406676633
  0
LINE
  5
488
100
AcDbEntity
  8
ASSI
100
AcDbLine
 62
7
  6
CONTINUOUS
 10
33.2368538478
 20
-15.1783756857
 11
33.2350831726
 21
-15.4624515867
  0
LWPOLYLINE
  5
489
100
AcDbEntity
  8
ASSI
100
AcDbPolyline
 62
7
  6
CONTINUOUS
 90
24
 70
0
 10
33.2350831726
 20
-15.4624515867
 10
33.2298248751
 20
-15.7445978032
 10
33.2210789551
 20
-16.0248143352
 10
33.2088360918
 20
-16.303162305
 10
33.1931056061
 20
-16.5795805904
 10
33.1739154609
 20
-16.8538858247
 10
33.1512657025
 20
-17.126074412
 10
33.1251562846
 20
-17.3961499483
 10
33.0956150308
 20
-17.663939855
 10
33.0626419915
 20
-17.9294441359
 10
33.0262371163
 20
-18.1926627871
 10
32.9864280786
 20
-18.453423219
 10
32.9432149198
 20
-18.711725493
 10
32.8965975985
 20
-18.9675695477
 10
32.8466036632
 20
-19.2207826084
 10
32.7932331482
 20
-19.4713647409
 10
32.7364860192
 20
-19.7193158795
 10
32.6763897216
 20
-19.9644630525
 10
32.6129432749
 20
-20.2068091133
 10
32.5461476596
 20
-20.4463512087
 10
32.476033263
 20
-20.6829078067
 10
32.4026102143
 20
-20.916418397
 10
32.3258683843
 20
-21.14694349
 10
32.245807773
 20
-21.3744830858
  0
LWPOLYLINE
  5
48A
100
AcDbEntity
  8
ASSI
100
AcDbPolyline
 62
7
  6
CONTINUOUS
 90
11
 70
0
 10
33.2316542016
 20
-15.5020650427
 10
33.213539299
 20
-16.1440237714
 10
33.1772651414
 20
-16.7747952666
 10
33.1228760811
 20
-17.3949471303
 10
33.0505051756
 20
-18.0030578068
 10
32.9600469433
 20
-18.599503383
 10
32.8516068657
 20
-19.1839077722
 10
32.7256344442
 20
-19.7537211581
 10
32.5822795126
 20
-20.3080936023
 10
32.4213922371
 20
-20.8478750434
 10
32.2429726176
 20
-21.3730654813
  0
LWPOLYLINE
  5
48B
100
AcDbEntity
  8
ASSI
100
AcDbPolyline
 62
250
  6
CONTINUOUS
 90
14
 70
0
 10
42.9456715739
 20
25.0892160344
 10
42.9552255273
 20
25.1549663866
 10
42.9665802593
 20
25.216899553
 10
42.9796854675
 20
25.2747411647
 10
42.994483095
 20
25.3282349788
 10
43.0109075871
 20
25.3771440135
 10
43.028886182
 20
25.4212515978
 10
43.0483392332
 20
25.4603623316
 10
43.0691805622
 20
25.4943029513
 10
43.0913178402
 20
25.5229230971
 10
43.1146529974
 20
25.5460959793
 10
43.1390826572
 20
25.5637189404
 10
43.164498595
 20
25.5757139093
 10
43.1903939552
 20
25.581975971
  0
LWPOLYLINE
  5
48C
100
AcDbEntity
  8
ASSI
100
AcDbPolyline
 62
7
  6
CONTINUOUS
 90
10
 70
0
 10
32.2429726176
 20
-21.3730654813
 10
32.1822274894
 20
-21.5393140982
 10
32.1205705662
 20
-21.7046659485
 10
32.058001848
 20
-21.8691210322
 10
31.9945192343
 20
-22.0326846552
 10
31.9301248256
 20
-22.1953515115
 10
31.8648249233
 20
-22.3571056834
 10
31.7986216277
 20
-22.5179418651
 10
31.7315128384
 20
-22.6778653623
 10
31.6634985554
 20
-22.8368761752
  0
LWPOLYLINE
  5
48D
100
AcDbEntity
  8
ASSI
100
AcDbPolyline
 62
7
  6
CONTINUOUS
 90
8
 70
0
 10
32.245807773
 20
-21.3744830858
 10
32.1739504301
 20
-21.5707790346
 10
32.100822269
 20
-21.7658199613
 10
32.0264232896
 20
-21.959605866
 10
31.9507499196
 20
-22.1521456332
 10
31.8738057313
 20
-22.3434303782
 10
31.7956014419
 20
-22.5334334476
 10
31.7161406235
 20
-22.7221459568
  0
LINE
  5
48E
100
AcDbEntity
  8
ASSI
100
AcDbLine
 62
7
  6
CONTINUOUS
 10
31.7161406235
 20
-22.7221459568
 11
31.635419704
 21
-22.9095767903
  0
LINE
  5
48F
100
AcDbEntity
  8
ASSI
100
AcDbLine
 62
7
  6
CONTINUOUS
 10
31.635419704
 20
-22.9095767903
 11
31.5534386832
 21
-23.0957259481
  0
LWPOLYLINE
  5
490
100
AcDbEntity
  8
ASSI
100
AcDbPolyline
 62
7
  6
CONTINUOUS
 90
28
 70
0
 10
31.5534386832
 20
-23.0957259481
 10
31.376942833
 20
-23.4857862708
 10
31.1967045209
 20
-23.8717668736
 10
31.0127237467
 20
-24.2536677566
 10
30.8249818322
 20
-24.6315226391
 10
30.6334974556
 20
-25.0052978017
 10
30.4383266521
 20
-25.3748920868
 10
30.2394690892
 20
-25.7403061481
 10
30.0369250993
 20
-26.1015393319
 10
29.8307517143
 20
-26.4584885188
 10
29.620949097
 20
-26.8111533311
 10
29.4075170846
 20
-27.1595341466
 10
29.1905122205
 20
-27.5035289791
 10
28.9699327812
 20
-27.8431357371
 10
28.7457804901
 20
-28.1783565122
 10
28.5181170612
 20
-28.5090955937
 10
28.28693988
 20
-28.8353495564
 10
28.0522515609
 20
-29.1571218255
 10
27.8141216607
 20
-29.4743269656
 10
27.5725497277
 20
-29.7869649634
 10
27.3275362136
 20
-30.0950358323
 10
27.07915203
 20
-30.3984541769
 10
26.8273953573
 20
-30.6972217839
 10
26.5722680151
 20
-30.9913368666
 10
26.3138463741
 20
-31.2807086702
 10
26.0521558913
 20
-31.5653069431
 10
25.7871711097
 20
-31.8451619368
 10
25.5188920294
 20
-32.1202736515
  0
LWPOLYLINE
  5
491
100
AcDbEntity
  8
0
100
AcDbPolyline
 62
7
  6
CONTINUOUS
 90
12
 70
0
 10
31.6634985554
 20
-22.8368761752
 10
31.2445438422
 20
-23.7606372716
 10
30.8049710663
 20
-24.6608194708
 10
30.3447802277
 20
-25.5374227727
 10
29.8637110591
 20
-26.390875045
 10
29.3620238279
 20
-27.2207484201
 10
28.8404993359
 20
-28.0257592945
 10
28.2991025229
 20
-28.80587724
 10
27.7378684491
 20
-29.5611326847
 10
27.1576830973
 20
-30.2903333102
 10
26.558841795
 20
-30.9930816768
 10
25.9410492146
 20
-31.6697752241
  0
LWPOLYLINE
  5
492
100
AcDbEntity
  8
ASSI
100
AcDbPolyline
 62
7
  6
CONTINUOUS
 90
13
 70
0
 10
15.6784287639
 20
-34.6152749019
 10
16.2374486586
 20
-34.0211385481
 10
16.7807466933
 20
-33.4056343735
 10
17.308322868
 20
-32.7687623781
 10
17.8204003583
 20
-32.1102168537
 10
18.3167559885
 20
-31.4303035084
 10
18.7967202323
 20
-30.7299394669
 10
19.2602709261
 20
-30.0090970854
 10
19.7074302334
 20
-29.2678040076
 10
20.137595119
 20
-28.5070602896
 10
20.5505645709
 20
-27.7271992831
 10
20.946539601
 20
-26.9278876362
 10
21.3255202093
 20
-26.1091253491
  0
LWPOLYLINE
  5
493
100
AcDbEntity
  8
ASSI
100
AcDbPolyline
 62
250
  6
CONTINUOUS
 90
13
 70
0
 10
16.1900852355
 20
-36.1877270764
 10
16.8010568728
 20
-35.5604468022
 10
17.3946262655
 20
-34.9083606482
 10
17.9707934135
 20
-34.2314686144
 10
18.528589705
 20
-33.5317682502
 10
19.0689837519
 20
-32.8072620063
 10
19.5948813893
 20
-32.0519572342
 10
20.1079440185
 20
-31.2642646167
 10
20.6065102382
 20
-30.4457734711
 10
21.0885016806
 20
-29.595259101
 10
21.5532255563
 20
-28.7123132742
 10
22.0013746546
 20
-27.797344223
 10
22.4329489756
 20
-26.8503519472
  0
LWPOLYLINE
  5
494
100
AcDbEntity
  8
0
100
AcDbPolyline
 62
250
  6
CONTINUOUS
 90
13
 70
0
 10
16.7199009835
 20
-36.5165784361
 10
17.3458799779
 20
-35.8800779724
 10
17.9543637901
 20
-35.2174785666
 10
18.5450265268
 20
-34.5290962071
 10
19.115922763
 20
-33.8173598943
 10
19.6684805196
 20
-33.0806560884
 10
20.2069602386
 20
-32.3126151896
 10
20.7318860282
 20
-31.51089457
 10
21.2410340265
 20
-30.6772195303
 10
21.733990253
 20
-29.8106616686
 10
22.2100063487
 20
-28.910742717
 10
22.6680580479
 20
-27.9775054097
 10
23.1072523216
 20
-27.0107928645
  0
LINE
  5
495
100
AcDbEntity
  8
ASSI
100
AcDbLine
 62
7
  6
CONTINUOUS
 10
62.0004036232
 20
2.3784366925
 11
62.7878423614
 21
2.974001572
  0
LINE
  5
496
100
AcDbEntity
  8
ASSI
100
AcDbLine
 62
7
  6
CONTINUOUS
 10
62.0004039138
 20
2.3784369469
 11
61.2056218124
 21
1.7853728595
  0
LINE
  5
497
100
AcDbEntity
  8
ASSI
100
AcDbLine
 62
7
  6
CONTINUOUS
 10
60.4034964795
 20
1.194809694
 11
61.2056216506
 21
1.7853727243
  0
LINE
  5
498
100
AcDbEntity
  8
ASSI
100
AcDbLine
 62
7
  6
CONTINUOUS
 10
59.5939959143
 20
0.6067243447
 11
60.4034964436
 21
1.1948096676
  0
LWPOLYLINE
  5
499
100
AcDbEntity
  8
ASSI
100
AcDbPolyline
 62
7
  6
CONTINUOUS
 90
3
 70
0
 10
59.5939959488
 20
0.6067243639
 10
58.7771521865
 20
0.0211399558
 10
57.9530614534
 20
-0.5618740081
  0
LINE
  5
49A
100
AcDbEntity
  8
ASSI
100
AcDbLine
 62
7
  6
CONTINUOUS
 10
57.9530614348
 20
-0.5618740211
 11
57.1217558118
 21
-1.142294371
  0
LINE
  5
49B
100
AcDbEntity
  8
ASSI
100
AcDbLine
 62
7
  6
CONTINUOUS
 10
57.1217558118
 20
-1.142294371
 11
56.2832032244
 21
-1.7201442724
  0
LINE
  5
49C
100
AcDbEntity
  8
ASSI
100
AcDbLine
 62
7
  6
CONTINUOUS
 10
56.2832032244
 20
-1.7201442724
 11
55.4374036535
 21
-2.2954237381
  0
LINE
  5
49D
100
AcDbEntity
  8
ASSI
100
AcDbLine
 62
7
  6
CONTINUOUS
 10
55.4374036535
 20
-2.2954237381
 11
54.371355317
 21
-3.0099690619
  0
LWPOLYLINE
  5
49E
100
AcDbEntity
  8
ASSI
100
AcDbPolyline
 62
250
  6
CONTINUOUS
 90
10
 70
0
 10
43.9830299287
 20
-16.4497167212
 10
45.174478892
 20
-15.6977964137
 10
46.3512274953
 20
-14.9336001241
 10
47.514192917
 20
-14.1565271709
 10
48.6637191902
 20
-13.3663769964
 10
49.8012495827
 20
-12.5622089814
 10
50.9286468469
 20
-11.7427800399
 10
52.0459684402
 20
-10.9081153549
 10
53.1521361055
 20
-10.0590790701
 10
54.2466318277
 20
-9.1961336128
  0
LWPOLYLINE
  5
49F
100
AcDbEntity
  8
ASSI
100
AcDbPolyline
 62
250
  6
CONTINUOUS
 90
10
 70
0
 10
44.5922114689
 20
-14.7360438659
 10
45.7711317413
 20
-13.9995835477
 10
46.9361550326
 20
-13.2525346276
 10
48.0880195926
 20
-12.4943958545
 10
49.2270634597
 20
-11.7249403126
 10
50.3543915849
 20
-10.9434339015
 10
51.4713233546
 20
-10.1490108671
 10
52.5778346008
 20
-9.341752305
 10
53.6731035672
 20
-8.5223159333
 10
54.7567004836
 20
-7.6910841172
  0
LINE
  5
4A0
100
AcDbEntity
  8
ASSI
100
AcDbLine
 62
250
  6
CONTINUOUS
 10
32.2429726451
 20
-21.373065508
 11
23.6852483244
 21
-25.5507055412
  0
LINE
  5
4A1
100
AcDbEntity
  8
ASSI
100
AcDbLine
 62
7
  6
CONTINUOUS
 10
31.6634985554
 20
-22.8368761752
 11
23.1072523216
 21
-27.0107928645
  0
LWPOLYLINE
  5
4A2
100
AcDbEntity
  8
ASSI
100
AcDbPolyline
 62
250
  6
CONTINUOUS
 90
10
 70
0
 10
32.2458077731
 20
-21.3744830855
 10
33.674873025
 20
-20.6982754757
 10
35.0908351178
 20
-20.005887039
 10
36.4931626477
 20
-19.2976764298
 10
37.8813583786
 20
-18.5739872962
 10
39.2548972097
 20
-17.8351804106
 10
40.6132274873
 20
-17.0816363462
 10
41.9558528848
 20
-16.3137114186
 10
43.2823308275
 20
-15.531735073
 10
44.5922114689
 20
-14.7360438659
  0
LWPOLYLINE
  5
4A3
100
AcDbEntity
  8
ASSI
100
AcDbPolyline
 62
250
  6
CONTINUOUS
 90
10
 70
0
 10
31.5534386832
 20
-23.0957259482
 10
32.9865730103
 20
-22.4323080737
 10
34.4082570427
 20
-21.7491647113
 10
35.8178174696
 20
-21.0467044863
 10
37.2146652452
 20
-20.325295357
 10
38.5980883716
 20
-19.5853709555
 10
39.9672561101
 20
-18.8274410064
 10
41.3214935217
 20
-18.0519445505
 10
42.6602769678
 20
-17.2592395937
 10
43.9830299287
 20
-16.4497167212
  0
LWPOLYLINE
  5
4A4
100
AcDbEntity
  8
ASSI
100
AcDbPolyline
 62
250
  6
CONTINUOUS
 90
4
 70
0
 10
47.8033196268
 20
25.4507241422
 10
47.3947841183
 20
25.5270724762
 10
46.9832335474
 20
25.5899975336
 10
46.5661992767
 20
25.6399435033
  0
LWPOLYLINE
  5
4A5
100
AcDbEntity
  8
ASSI
100
AcDbPolyline
 62
7
  6
CONTINUOUS
 90
34
 70
0
 10
45.0713100937
 20
15.3273751429
 10
45.0941084174
 20
15.3164868379
 10
45.1174754531
 20
15.3057864094
 10
45.1414112539
 20
15.2952741766
 10
45.1659053461
 20
15.2849268355
 10
45.1909683807
 20
15.2747687571
 10
45.2166321603
 20
15.264872147
 10
45.2428998513
 20
15.2552313988
 10
45.2697686936
 20
15.245854578
 10
45.2972617228
 20
15.23683515
 10
45.3254196923
 20
15.2281488741
 10
45.3542025952
 20
15.219824558
 10
45.3835125287
 20
15.2120364817
 10
45.4134179621
 20
15.2047932396
 10
45.4438516968
 20
15.1980941315
 10
45.4745125107
 20
15.1921006637
 10
45.5054236197
 20
15.1868505575
 10
45.5365634755
 20
15.1823166993
 10
45.5675636577
 20
15.1785630986
 10
45.598415308
 20
15.1756265674
 10
45.6291289417
 20
15.1734812308
 10
45.6593648302
 20
15.1720948313
 10
45.6890937317
 20
15.1714729598
 10
45.7183460978
 20
15.1716185305
 10
45.7468712398
 20
15.1724921342
 10
45.7746058546
 20
15.1741178178
 10
45.801614011
 20
15.1764774913
 10
45.8278356358
 20
15.1794656898
 10
45.8532244483
 20
15.1830976762
 10
45.8778270867
 20
15.1873616562
 10
45.9017224909
 20
15.1921091357
 10
45.9249369145
 20
15.1972905795
 10
45.9474441028
 20
15.2029566444
 10
45.9692440705
 20
15.2091080177
  0
LWPOLYLINE
  5
4A6
100
AcDbEntity
  8
ASSI
100
AcDbPolyline
 62
250
  6
CONTINUOUS
 90
11
 70
0
 10
39.5798545742
 20
17.3571500053
 10
39.564957307
 20
17.3642858193
 10
39.5179404316
 20
17.3829625003
 10
39.4688352661
 20
17.3968610317
 10
39.4178392176
 20
17.40592554
 10
39.3651572949
 20
17.410119585
 10
39.3110012839
 20
17.4094263064
 10
39.2555888968
 20
17.4038484913
 10
39.1991428963
 20
17.3934085628
 10
39.1418902004
 20
17.3781484905
 10
39.0840609702
 20
17.3581296212
  0
LINE
  5
4A7
100
AcDbEntity
  8
ASSI
100
AcDbLine
 62
7
  6
CONTINUOUS
 10
40.5327573776
 20
16.5580706866
 11
40.6803424396
 21
16.4842781556
  0
LINE
  5
4A8
100
AcDbEntity
  8
ASSI
100
AcDbLine
 62
7
  6
CONTINUOUS
 10
41.8000976464
 20
15.9244005522
 11
42.4222830244
 21
15.6133078632
  0
LINE
  5
4A9
100
AcDbEntity
  8
ASSI
100
AcDbLine
 62
7
  6
CONTINUOUS
 10
42.595632775
 20
15.5266329456
 11
43.1835891722
 21
15.232654747
  0
LINE
  5
4AA
100
AcDbEntity
  8
ASSI
100
AcDbLine
 62
7
  6
CONTINUOUS
 10
44.087600763
 20
14.7806489516
 11
44.6554312541
 21
14.4967337061
  0
LINE
  5
4AB
100
AcDbEntity
  8
ASSI
100
AcDbLine
 62
7
  6
CONTINUOUS
 10
40.4138661962
 20
16.6638536391
 11
40.6803424396
 21
16.5306155175
  0
LINE
  5
4AC
100
AcDbEntity
  8
ASSI
100
AcDbLine
 62
7
  6
CONTINUOUS
 10
41.8000976464
 20
15.9707379141
 11
42.4222830244
 21
15.659645225
  0
LINE
  5
4AD
100
AcDbEntity
  8
ASSI
100
AcDbLine
 62
7
  6
CONTINUOUS
 10
42.595632775
 20
15.5729703076
 11
43.1835891722
 21
15.278992109
  0
LINE
  5
4AE
100
AcDbEntity
  8
ASSI
100
AcDbLine
 62
7
  6
CONTINUOUS
 10
44.087600763
 20
14.8269863136
 11
44.6554312541
 21
14.5430710681
  0
LINE
  5
4AF
100
AcDbEntity
  8
ASSI
100
AcDbLine
 62
250
  6
CONTINUOUS
 10
26.482420058
 20
23.6589500773
 11
39.0841373786
 21
17.358091417
  0
LINE
  5
4B0
100
AcDbEntity
  8
ASSI
100
AcDbLine
 62
7
  6
CONTINUOUS
 10
41.4078230884
 20
16.4428805719
 11
42.1564468315
 21
16.0685687003
  0
LINE
  5
4B1
100
AcDbEntity
  8
ASSI
100
AcDbLine
 62
7
  6
CONTINUOUS
 10
26.9782484511
 20
23.6579530668
 11
39.5798545742
 21
17.3571500053
  0
LINE
  5
4B2
100
AcDbEntity
  8
ASSI
100
AcDbLine
 62
7
  6
CONTINUOUS
 10
41.4078230884
 20
16.4883641847
 11
42.2117561225
 21
16.0863976677
  0
LINE
  5
4B3
100
AcDbEntity
  8
ASSI
100
AcDbLine
 62
7
  6
CONTINUOUS
 10
41.9654524458
 20
16.4859904597
 11
42.5306527955
 21
16.2033902848
  0
LINE
  5
4B4
100
AcDbEntity
  8
ASSI
100
AcDbLine
 62
7
  6
CONTINUOUS
 10
44.2903443482
 20
15.3488498492
 11
44.6068661066
 21
15.19058897
  0
LINE
  5
4B5
100
AcDbEntity
  8
ASSI
100
AcDbLine
 62
7
  6
CONTINUOUS
 10
44.2903443482
 20
15.3936689769
 11
44.6068661066
 21
15.2354080978
  0
LINE
  5
4B6
100
AcDbEntity
  8
ASSI
100
AcDbLine
 62
7
  6
CONTINUOUS
 10
44.7339413746
 20
15.4960595024
 11
45.0713100937
 21
15.3273751429
  0
LINE
  5
4B7
100
AcDbEntity
  8
ASSI
100
AcDbLine
 62
7
  6
CONTINUOUS
 10
36.5105896123
 20
20.6131446622
 11
37.1518718233
 21
20.2925035568
  0
LINE
  5
4B8
100
AcDbEntity
  8
ASSI
100
AcDbLine
 62
7
  6
CONTINUOUS
 10
38.2465070617
 20
19.7451859376
 11
38.8364356426
 21
19.4502216471
  0
LINE
  5
4B9
100
AcDbEntity
  8
ASSI
100
AcDbLine
 62
7
  6
CONTINUOUS
 10
40.2189941557
 20
18.7589423905
 11
40.8088385909
 21
18.4640201729
  0
LINE
  5
4BA
100
AcDbEntity
  8
ASSI
100
AcDbLine
 62
7
  6
CONTINUOUS
 10
41.983266587
 20
17.8768061749
 11
42.567341738
 21
17.5847685994
  0
LINE
  5
4BB
100
AcDbEntity
  8
ASSI
100
AcDbLine
 62
7
  6
CONTINUOUS
 10
43.8115640017
 20
16.9626574675
 11
44.3826389945
 21
16.6771199711
  0
LINE
  5
4BC
100
AcDbEntity
  8
ASSI
100
AcDbLine
 62
7
  6
CONTINUOUS
 10
39.0556790499
 20
19.3407475314
 11
39.6460106817
 21
19.0455817155
  0
LWPOLYLINE
  5
4BD
100
AcDbEntity
  8
ASSI
100
AcDbPolyline
 62
7
  6
CONTINUOUS
 90
7
 70
0
 10
44.6068661066
 20
15.19058897
 10
44.6272111095
 20
15.1800574682
 10
44.6460308015
 20
15.1694516087
 10
44.6633253441
 20
15.1587722147
 10
44.6791702847
 20
15.147993699
 10
44.6934907369
 20
15.1371450025
 10
44.7060614024
 20
15.1263097033
  0
LWPOLYLINE
  5
4BE
100
AcDbEntity
  8
ASSI
100
AcDbPolyline
 62
250
  6
CONTINUOUS
 90
10
 70
0
 10
32.442548659
 20
22.4484956016
 10
32.3931994266
 20
22.4777153095
 10
32.34360266
 20
22.5021522643
 10
32.293955616
 20
22.5217092732
 10
32.2444557531
 20
22.5363085523
 10
32.1952999442
 20
22.5458920361
 10
32.1466836934
 20
22.5504216083
 10
32.0988003644
 20
22.5498792541
 10
32.0518404018
 20
22.5442671305
 10
32.0250187857
 20
22.5386773334
  0
LWPOLYLINE
  5
4BF
100
AcDbEntity
  8
ASSI
100
AcDbPolyline
 62
7
  6
CONTINUOUS
 90
10
 70
0
 10
45.989411194
 20
15.4812237824
 10
45.9441828734
 20
15.5080050723
 10
45.8968695505
 20
15.5343827869
 10
45.8474709907
 20
15.5603548722
 10
45.7958754825
 20
15.5859393865
 10
45.7421946454
 20
15.611117465
 10
45.6867634188
 20
15.6358332143
 10
45.6296936374
 20
15.6600696506
 10
45.5708740447
 20
15.6838488049
 10
45.5103050952
 20
15.7071746128
  0
LWPOLYLINE
  5
4C0
100
AcDbEntity
  8
ASSI
100
AcDbPolyline
 62
7
  6
CONTINUOUS
 90
10
 70
0
 10
45.989411194
 20
15.4374480205
 10
46.0110797294
 20
15.4235584415
 10
46.0308184672
 20
15.4093433963
 10
46.048627744
 20
15.3948058104
 10
46.0646532911
 20
15.37986826
 10
46.0787503628
 20
15.3646166577
 10
46.0904837247
 20
15.3493001304
 10
46.0998500669
 20
15.3339246235
 10
46.1068542999
 20
15.3184975897
 10
46.1089556708
 20
15.310914437
  0
LINE
  5
4C1
100
AcDbEntity
  8
ASSI
100
AcDbLine
 62
7
  6
CONTINUOUS
 10
39.6460106817
 20
19.0455817155
 11
39.6460106817
 21
19.0020367713
  0
LINE
  5
4C2
100
AcDbEntity
  8
ASSI
100
AcDbLine
 62
7
  6
CONTINUOUS
 10
40.6803424396
 20
16.5306155175
 11
40.6803424396
 21
16.4842781556
  0
LINE
  5
4C3
100
AcDbEntity
  8
ASSI
100
AcDbLine
 62
7
  6
CONTINUOUS
 10
40.8088385909
 20
18.4640201729
 11
40.8088385909
 21
18.4204751588
  0
LINE
  5
4C4
100
AcDbEntity
  8
ASSI
100
AcDbLine
 62
7
  6
CONTINUOUS
 10
41.4078230884
 20
16.4883641847
 11
41.4078230884
 21
16.4428805719
  0
LINE
  5
4C5
100
AcDbEntity
  8
ASSI
100
AcDbLine
 62
7
  6
CONTINUOUS
 10
41.8000976464
 20
15.9707379141
 11
41.8000976464
 21
15.9244005522
  0
LINE
  5
4C6
100
AcDbEntity
  8
ASSI
100
AcDbLine
 62
7
  6
CONTINUOUS
 10
42.4222830244
 20
15.659645225
 11
42.4222830244
 21
15.6133078632
  0
LINE
  5
4C7
100
AcDbEntity
  8
ASSI
100
AcDbLine
 62
7
  6
CONTINUOUS
 10
42.567341738
 20
17.5847685994
 11
42.567341738
 21
17.5412235853
  0
LINE
  5
4C8
100
AcDbEntity
  8
ASSI
100
AcDbLine
 62
7
  6
CONTINUOUS
 10
42.595632775
 20
15.5729703076
 11
42.595632775
 21
15.5266329456
  0
LINE
  5
4C9
100
AcDbEntity
  8
ASSI
100
AcDbLine
 62
7
  6
CONTINUOUS
 10
43.1835891722
 20
15.278992109
 11
43.1835891722
 21
15.232654747
  0
LINE
  5
4CA
100
AcDbEntity
  8
ASSI
100
AcDbLine
 62
7
  6
CONTINUOUS
 10
44.087600763
 20
14.8269863136
 11
44.087600763
 21
14.7806489516
  0
LINE
  5
4CB
100
AcDbEntity
  8
ASSI
100
AcDbLine
 62
7
  6
CONTINUOUS
 10
44.2903443482
 20
15.3936689769
 11
44.2903443482
 21
15.3488498492
  0
LINE
  5
4CC
100
AcDbEntity
  8
ASSI
100
AcDbLine
 62
7
  6
CONTINUOUS
 10
44.3826389945
 20
16.6771199711
 11
44.3826389945
 21
16.633574957
  0
LINE
  5
4CD
100
AcDbEntity
  8
ASSI
100
AcDbLine
 62
250
  6
CONTINUOUS
 10
44.6068661066
 20
15.2354080978
 11
44.6068661066
 21
15.19058897
  0
LINE
  5
4CE
100
AcDbEntity
  8
ASSI
100
AcDbLine
 62
7
  6
CONTINUOUS
 10
44.6554312541
 20
14.5430710681
 11
44.6554312541
 21
14.4967337061
  0
LINE
  5
4CF
100
AcDbEntity
  8
ASSI
100
AcDbLine
 62
250
  6
CONTINUOUS
 10
45.2190186376
 20
14.7068935024
 11
45.2190186376
 21
14.6616726696
  0
LINE
  5
4D0
100
AcDbEntity
  8
0
100
AcDbLine
 62
7
  6
CONTINUOUS
 10
25.9410492146
 20
-31.6697752241
 11
25.3043053561
 21
-32.320413952
  0
LWPOLYLINE
  5
4D1
100
AcDbEntity
  8
ASSI
100
AcDbPolyline
 62
250
  6
CONTINUOUS
 90
8
 70
0
 10
54.4713783337
 20
-10.889623375
 10
54.3672334229
 20
-10.9871696783
 10
54.2595063607
 20
-11.0859959273
 10
54.1476494047
 20
-11.186821737
 10
54.0328800161
 20
-11.2887219198
 10
53.9140813871
 20
-11.3929339677
 10
53.7871436108
 20
-11.5032132187
 10
53.6517431561
 20
-11.6197662538
  0
LWPOLYLINE
  5
4D2
100
AcDbEntity
  8
ASSI
100
AcDbPolyline
 62
250
  6
CONTINUOUS
 90
3
 70
0
 10
52.0873892969
 20
-12.9536271221
 10
52.1225924055
 20
-12.920922397
 10
52.1570404889
 20
-12.8821125394
  0
LINE
  5
4D3
100
AcDbEntity
  8
ASSI
100
AcDbLine
 62
250
  6
CONTINUOUS
 10
48.1035464048
 20
-16.3898797847
 11
46.7763342298
 21
-17.563998728
  0
LWPOLYLINE
  5
4D4
100
AcDbEntity
  8
ASSI
100
AcDbPolyline
 62
250
  6
CONTINUOUS
 90
15
 70
0
 10
46.7763342298
 20
-17.563998728
 10
46.0897712323
 20
-18.1699690028
 10
45.74083918
 20
-18.4767892663
 10
45.3880884637
 20
-18.7858154261
 10
45.0313240488
 20
-19.096888344
 10
44.6706500921
 20
-19.4096385977
 10
44.3064680861
 20
-19.7233086115
 10
43.9380310196
 20
-20.0381514785
 10
43.5636697798
 20
-20.3552243653
 10
43.1822546596
 20
-20.6749008744
 10
42.7944452967
 20
-20.9960332392
 10
42.401211736
 20
-21.3172918598
 10
42.001969461
 20
-21.6384892974
 10
41.5968208934
 20
-21.9588278644
 10
41.1877987961
 20
-22.2760280626
  0
LWPOLYLINE
  5
4D5
100
AcDbEntity
  8
ASSI
100
AcDbPolyline
 62
7
  6
CONTINUOUS
 90
11
 70
0
 10
47.9914077825
 20
-16.5000343676
 10
48.6809147817
 20
-15.8926877457
 10
49.0186485422
 20
-15.5961957652
 10
49.3521873096
 20
-15.3042384183
 10
49.6811776808
 20
-15.0172279148
 10
50.0052665448
 20
-14.735549316
 10
50.324968899
 20
-14.4587848134
 10
50.6398565681
 20
-14.1873254697
 10
50.9495273752
 20
-13.9214915161
 10
51.2544511485
 20
-13.6608084869
 10
51.5544374681
 20
-13.4053577308
  0
LWPOLYLINE
  5
4D6
100
AcDbEntity
  8
ASSI
100
AcDbPolyline
 62
7
  6
CONTINUOUS
 90
7
 70
0
 10
53.0724095176
 20
-12.120833091
 10
53.3244000774
 20
-11.906517327
 10
53.572627994
 20
-11.6937907946
 10
53.815359718
 20
-11.4832925912
 10
54.0514335593
 20
-11.2749794051
 10
54.2813352036
 20
-11.0670413212
 10
54.5058061444
 20
-10.8568509279
  0
LINE
  5
4D7
100
AcDbEntity
  8
ASSI
100
AcDbLine
 62
250
  6
CONTINUOUS
 10
53.6517431561
 20
-11.6197662538
 11
53.3533762028
 21
-11.8740282458
  0
LWPOLYLINE
  5
4D8
100
AcDbEntity
  8
ASSI
100
AcDbPolyline
 62
250
  6
CONTINUOUS
 90
12
 70
0
 10
51.6383236623
 20
-13.3206592934
 10
51.3720539819
 20
-13.5467825579
 10
51.1015312171
 20
-13.7774431478
 10
50.8263820372
 20
-14.0130743466
 10
50.5455124105
 20
-14.2546104055
 10
50.2582109256
 20
-14.5026755219
 10
49.9650693284
 20
-14.756809762
 10
49.6669327324
 20
-15.0162786751
 10
49.3637557308
 20
-15.2810955055
 10
49.0554219062
 20
-15.5513023393
 10
48.7426698589
 20
-15.8261890513
 10
48.1035464048
 20
-16.3898797847
  0
LINE
  5
4D9
100
AcDbEntity
  8
ASSI
100
AcDbLine
 62
7
  6
CONTINUOUS
 10
51.5544374681
 20
-13.4053577308
 11
52.0873847876
 21
-12.9536309353
  0
LWPOLYLINE
  5
4DA
100
AcDbEntity
  8
ASSI
100
AcDbPolyline
 62
7
  6
CONTINUOUS
 90
3
 70
0
 10
52.0874095832
 20
-12.9536099779
 10
52.5595766346
 20
-12.5546067347
 10
53.0724095176
 20
-12.120833091
  0
LINE
  5
4DB
100
AcDbEntity
  8
ASSI
100
AcDbLine
 62
250
  6
CONTINUOUS
 10
52.1570842143
 20
-12.8820750606
 11
51.6383236623
 21
-13.3206592934
  0
LINE
  5
4DC
100
AcDbEntity
  8
ASSI
100
AcDbLine
 62
250
  6
CONTINUOUS
 10
53.3533762028
 20
-11.8740282458
 11
53.0093760105
 21
-12.1645372428
  0
LINE
  5
4DD
100
AcDbEntity
  8
ASSI
100
AcDbLine
 62
250
  6
CONTINUOUS
 10
53.0093760105
 20
-12.1645372428
 11
52.1570846017
 21
-12.8820745774
  0
LWPOLYLINE
  5
4DE
100
AcDbEntity
  8
ASSI
100
AcDbPolyline
 62
250
  6
CONTINUOUS
 90
10
 70
0
 10
54.2466318277
 20
-9.1961336128
 10
55.0840016553
 20
-8.5196745954
 10
55.9230611947
 20
-7.8276518444
 10
56.7628495974
 20
-7.1206612767
 10
57.6024338415
 20
-6.3992802069
 10
58.4406863956
 20
-5.6642579651
 10
59.2763560621
 20
-4.9164748336
 10
60.1089072388
 20
-4.1562740452
 10
60.9382726243
 20
-3.3836363841
 10
61.8496441088
 20
-2.5169888017
  0
LWPOLYLINE
  5
4DF
100
AcDbEntity
  8
ASSI
100
AcDbPolyline
 62
250
  6
CONTINUOUS
 90
10
 70
0
 10
54.7567004836
 20
-7.6910841172
 10
55.590108685
 20
-7.037108444
 10
56.4234771376
 20
-6.37030236
 10
57.2560068167
 20
-5.6911950926
 10
58.0868320787
 20
-5.0003765734
 10
58.915129123
 20
-4.2984076721
 10
59.7401655786
 20
-3.585777612
 10
60.5616012949
 20
-2.8626912705
 10
61.3792849086
 20
-2.1292279939
 10
62.279589499
 20
-1.3063667463
  0
LWPOLYLINE
  5
4E0
100
AcDbEntity
  8
ASSI
100
AcDbPolyline
 62
7
  6
CONTINUOUS
 90
15
 70
0
 10
41.376104015
 20
-22.1308474982
 10
41.8058626227
 20
-21.7945462362
 10
42.2296730302
 20
-21.4565956784
 10
42.6484229067
 20
-21.1170397082
 10
43.0618957435
 20
-20.7767561524
 10
43.4698403886
 20
-20.4366194793
 10
43.8730651946
 20
-20.0965564233
 10
44.2713105085
 20
-19.7573505951
 10
44.6643019765
 20
-19.4197661363
 10
45.0527968956
 20
-19.0836320035
 10
45.436507246
 20
-18.7496463289
 10
45.8151503587
 20
-18.4184700722
 10
46.189447615
 20
-18.0898492752
 10
46.5590971493
 20
-17.7643971936
 10
47.9914077825
 20
-16.5000343676
  0
LINE
  5
4E1
100
AcDbEntity
  8
ASSI
100
AcDbLine
 62
7
  6
CONTINUOUS
 10
41.376104015
 20
-22.1308474982
 11
41.0978955235
 21
-22.3448622989
  0
LWPOLYLINE
  5
4E2
100
AcDbEntity
  8
ASSI
100
AcDbPolyline
 62
250
  6
CONTINUOUS
 90
16
 70
0
 10
37.9132619778
 20
-24.7167246369
 10
38.4050095109
 20
-24.3412452372
 10
38.8864065027
 20
-23.9403518848
 10
39.3569764349
 20
-23.5140728187
 10
39.8164899571
 20
-23.06217977
 10
40.2641882071
 20
-22.5849411957
 10
40.6988572635
 20
-22.0832562366
 10
41.1195507221
 20
-21.5579524964
 10
41.5263836832
 20
-21.0085873318
 10
41.9197574852
 20
-20.4342114853
 10
42.2990842936
 20
-19.8352832321
 10
42.6641092792
 20
-19.211762162
 10
43.0155312579
 20
-18.5616764093
 10
43.3531051812
 20
-17.8842751008
 10
43.6758157751
 20
-17.180278172
 10
43.9830299287
 20
-16.4497167212
  0
LWPOLYLINE
  5
4E3
100
AcDbEntity
  8
ASSI
100
AcDbPolyline
 62
7
  6
CONTINUOUS
 90
4
 70
0
 10
37.9996557633
 20
-24.6539852233
 10
39.3333324326
 20
-23.67380979
 10
40.8408669019
 20
-22.5407846446
 10
41.0978660939
 20
-22.3448847811
  0
LINE
  5
4E4
100
AcDbEntity
  8
ASSI
100
AcDbLine
 62
7
  6
CONTINUOUS
 10
37.9996571464
 20
-24.6539842172
 11
37.9118955062
 21
-24.7177188611
  0
LINE
  5
4E5
100
AcDbEntity
  8
ASSI
100
AcDbLine
 62
250
  6
CONTINUOUS
 10
37.9132619778
 20
-24.7167246369
 11
37.1981688011
 21
-25.2283085039
  0
LWPOLYLINE
  5
4E6
100
AcDbEntity
  8
ASSI
100
AcDbPolyline
 62
250
  6
CONTINUOUS
 90
3
 70
0
 10
37.1981688011
 20
-25.2283085039
 10
36.4942517567
 20
-25.7189628125
 10
35.801844908
 20
-26.1898010566
  0
LWPOLYLINE
  5
4E7
100
AcDbEntity
  8
ASSI
100
AcDbPolyline
 62
7
  6
CONTINUOUS
 90
4
 70
0
 10
25.4299712586
 20
-32.1920057988
 10
25.4585365585
 20
-32.1726377906
 10
25.4895187592
 20
-32.1478172025
 10
25.5188920294
 20
-32.1202736515
  0
LINE
  5
4E8
100
AcDbEntity
  8
ASSI
100
AcDbLine
 62
250
  6
CONTINUOUS
 10
35.801844908
 20
-26.1898010566
 11
35.1213220134
 21
-26.6419253014
  0
LWPOLYLINE
  5
4E9
100
AcDbEntity
  8
ASSI
100
AcDbPolyline
 62
250
  6
CONTINUOUS
 90
18
 70
0
 10
35.1213220134
 20
-26.6419253014
 10
34.4529073745
 20
-27.0763515305
 10
33.7966583739
 20
-27.493849714
 10
33.1508208727
 20
-27.8964065274
 10
32.5175734113
 20
-28.2835449401
 10
31.902849562
 20
-28.6522664979
 10
31.3092676044
 20
-29.0019545597
 10
30.7345720533
 20
-29.3348860371
 10
30.1773666226
 20
-29.6523645902
 10
29.6409334296
 20
-29.9532044107
 10
29.1222243334
 20
-30.23987001
 10
28.6102915585
 20
-30.5186769629
 10
28.1068152399
 20
-30.7889362101
 10
27.6102383978
 20
-31.0518486453
 10
27.1047075227
 20
-31.3158317368
 10
26.5849584167
 20
-31.583398715
 10
26.0563367456
 20
-31.8516052471
 10
25.5188916341
 20
-32.120273933
  0
LWPOLYLINE
  5
4EA
100
AcDbEntity
  8
ASSI
100
AcDbPolyline
 62
7
  6
CONTINUOUS
 90
10
 70
0
 10
25.4246973536
 20
-32.1973947897
 10
26.9259510378
 20
-31.4340864896
 10
28.473010104
 20
-30.6135446128
 10
29.9726954779
 20
-29.7838405947
 10
31.4248663105
 20
-28.9462485954
 10
32.8293186281
 20
-28.1019899237
 10
34.185762498
 20
-27.2522323122
 10
35.4938442715
 20
-26.3980692916
 10
36.753149766
 20
-25.5405329525
 10
37.9118955062
 20
-24.7177188611
  0
LINE
  5
4EB
100
AcDbEntity
  8
0
100
AcDbLine
 62
7
  6
CONTINUOUS
 10
25.3043053561
 20
-32.320413952
 11
16.7199009835
 21
-36.5165784361
  0
LWPOLYLINE
  5
4EC
100
AcDbEntity
  8
ASSI
100
AcDbPolyline
 62
250
  6
CONTINUOUS
 90
5
 70
0
 10
51.4348265955
 20
24.318650581
 10
51.3800581661
 20
24.3442173489
 10
51.280120358
 20
24.3821469553
 10
51.1761898196
 20
24.4108361428
 10
51.0686161804
 20
24.4301883988
  0
LWPOLYLINE
  5
4ED
100
AcDbEntity
  8
ASSI
100
AcDbPolyline
 62
250
  6
CONTINUOUS
 90
19
 70
0
 10
49.6823618695
 20
23.9437072729
 10
49.3154834111
 20
24.1173962666
 10
48.9468518145
 20
24.2767268264
 10
48.5764423338
 20
24.4217309246
 10
48.2037088034
 20
24.5521164251
 10
47.8291016148
 20
24.6683013931
 10
47.4540771821
 20
24.7714025504
 10
47.0794573725
 20
24.8615539936
 10
46.7042691694
 20
24.9388334603
 10
46.3272719339
 20
25.0042848277
 10
45.9470665294
 20
25.058438229
 10
45.5648474941
 20
25.1010795095
 10
45.1832656166
 20
25.1321448461
 10
44.8016992086
 20
25.1516107411
 10
44.4205467582
 20
25.1598978497
 10
44.0440210476
 20
25.1575745518
 10
43.6734792281
 20
25.1449416035
 10
43.3073923974
 20
25.1220828052
 10
42.9456715739
 20
25.0892160344
  0
LWPOLYLINE
  5
4EE
100
AcDbEntity
  8
ASSI
100
AcDbPolyline
 62
250
  6
CONTINUOUS
 90
8
 70
0
 10
50.6199535432
 20
24.4879598751
 10
50.2251548857
 20
24.6751481282
 10
49.8275619073
 20
24.8447199444
 10
49.4272569944
 20
24.9973860425
 10
49.0238598126
 20
25.1338782959
 10
48.6178654826
 20
25.2547028013
 10
48.2106585347
 20
25.3601975282
 10
47.8033196268
 20
25.4507241422
  0
LWPOLYLINE
  5
4EF
100
AcDbEntity
  8
ASSI
100
AcDbPolyline
 62
7
  6
CONTINUOUS
 90
11
 70
0
 10
51.4348755616
 20
24.3186260984
 10
51.071447494
 20
24.4938778253
 10
50.6508470238
 20
24.6806634041
 10
50.2316664047
 20
24.8498062101
 10
49.8142613972
 20
25.0014007245
 10
49.3989408358
 20
25.1355696115
 10
48.985993933
 20
25.2524418418
 10
48.5756824144
 20
25.3521427726
 10
48.1683147945
 20
25.4347759749
 10
47.7642478185
 20
25.5004333443
 10
47.5824363189
 20
25.5246093973
  0
LINE
  5
4F0
100
AcDbEntity
  8
ASSI
100
AcDbLine
 62
7
  6
CONTINUOUS
 10
51.4348755594
 20
24.3186261002
 11
51.4348265955
 21
24.318650581
  0
LINE
  5
4F1
100
AcDbEntity
  8
ASSI
100
AcDbLine
 62
250
  6
CONTINUOUS
 10
51.0686215549
 20
24.4301859361
 11
51.4714940595
 21
24.2200527197
  0
LINE
  5
4F2
100
AcDbEntity
  8
ASSI
100
AcDbLine
 62
7
  6
CONTINUOUS
 10
40.046393422
 20
16.9967355874
 11
39.879181935
 21
17.1506156075
  0
LWPOLYLINE
  5
4F3
100
AcDbEntity
  8
ASSI
100
AcDbPolyline
 62
250
  6
CONTINUOUS
 90
37
 70
0
 10
39.9377028892
 20
16.5976939576
 10
40.3569505058
 20
16.2095338459
 10
40.7670727298
 20
15.8390574156
 10
41.1683727536
 20
15.4867066944
 10
41.559753518
 20
15.1545655231
 10
41.9429333406
 20
14.8413312298
 10
42.3223197048
 20
14.5422416575
 10
42.699562703
 20
14.2560086998
 10
43.0733404247
 20
13.9843605023
 10
43.4434841614
 20
13.7269539367
 10
43.8100982271
 20
13.4839646391
 10
44.1734142257
 20
13.2555387541
 10
44.5334430689
 20
13.0412517889
 10
44.8904036428
 20
12.8411283583
 10
45.2443879393
 20
12.655354741
 10
45.5952080934
 20
12.48372019
 10
45.943116937
 20
12.326209175
 10
46.2881561213
 20
12.182953284
 10
46.6298160465
 20
12.053937731
 10
46.9682595745
 20
11.9391553564
 10
47.3035754513
 20
11.8386318665
 10
47.6351400924
 20
11.7523781496
 10
47.9632115367
 20
11.6803580059
 10
48.287759884
 20
11.6225359215
 10
48.6077382009
 20
11.5789034971
 10
48.9222501234
 20
11.549282847
 10
49.2324055702
 20
11.5336947865
 10
49.5401516112
 20
11.5323999217
 10
49.8465986158
 20
11.5450198086
 10
50.1507562584
 20
11.5716590317
 10
50.4514071815
 20
11.6132586881
 10
50.7490926448
 20
11.6698506132
 10
51.0433637259
 20
11.7409928929
 10
51.3315374637
 20
11.8268826595
 10
51.612749586
 20
11.9274176745
 10
51.8879292597
 20
12.0421891083
 10
52.1570842893
 20
12.1709115792
  0
LINE
  5
4F4
100
AcDbEntity
  8
ASSI
100
AcDbLine
 62
250
  6
CONTINUOUS
 10
39.7582018139
 20
16.7755568336
 11
39.9377028892
 21
16.5976939576
  0
LWPOLYLINE
  5
4F5
100
AcDbEntity
  8
ASSI
100
AcDbPolyline
 62
7
  6
CONTINUOUS
 90
6
 70
0
 10
44.7060614024
 20
15.1263097033
 10
44.716837561
 20
15.1154790192
 10
44.7258653783
 20
15.1046690031
 10
44.7330560195
 20
15.0940011372
 10
44.7383585334
 20
15.0834866239
 10
44.7390346566
 20
15.0814659879
  0
LWPOLYLINE
  5
4F6
100
AcDbEntity
  8
ASSI
100
AcDbPolyline
 62
7
  6
CONTINUOUS
 90
7
 70
0
 10
45.4334703662
 20
14.9682895794
 10
45.4453758694
 20
14.9558597155
 10
45.4551260518
 20
14.9431816549
 10
45.462722392
 20
14.9302633692
 10
45.4682461182
 20
14.9170242521
 10
45.4716198213
 20
14.9035652697
 10
45.4726224784
 20
14.891779346
  0
LWPOLYLINE
  5
4F7
100
AcDbEntity
  8
ASSI
100
AcDbPolyline
 62
7
  6
CONTINUOUS
 90
8
 70
0
 10
46.8177467301
 20
15.4051550223
 10
46.8373181465
 20
15.3838801311
 10
46.8541774285
 20
15.361443729
 10
46.8683260803
 20
15.3378623299
 10
46.8800805045
 20
15.3130910997
 10
46.8891282074
 20
15.2872163136
 10
46.894528113
 20
15.2604584902
 10
46.8963553817
 20
15.23184901
  0
LWPOLYLINE
  5
4F8
100
AcDbEntity
  8
ASSI
100
AcDbPolyline
 62
250
  6
CONTINUOUS
 90
12
 70
0
 10
40.0463953002
 20
16.9967338606
 10
40.0582876894
 20
16.9814749503
 10
40.0658174611
 20
16.9615822822
 10
40.0689343392
 20
16.9371657224
 10
40.0676230282
 20
16.9083450896
 10
40.0618899628
 20
16.8752618147
 10
40.0517632766
 20
16.8380782464
 10
40.0372926639
 20
16.7969768548
 10
40.0185491359
 20
16.7521593359
 10
39.9956246721
 20
16.7038456219
 10
39.9686317694
 20
16.6522728017
 10
39.9377028892
 20
16.5976939576
  0
LWPOLYLINE
  5
4F9
100
AcDbEntity
  8
ASSI
100
AcDbPolyline
 62
250
  6
CONTINUOUS
 90
16
 70
0
 10
37.9132619778
 20
15.7718262261
 10
38.4050095083
 20
14.8911527642
 10
38.8864064984
 20
13.9942601304
 10
39.3569764296
 20
13.0816434623
 10
39.8164899519
 20
12.1532843747
 10
40.2641882027
 20
11.2102090579
 10
40.6988572599
 20
10.2545541471
 10
41.1195507189
 20
9.2881157396
 10
41.5263836805
 20
8.3103088719
 10
41.919757483
 20
7.319731256
 10
42.2990842919
 20
6.3174286471
 10
42.6641092779
 20
5.3035947065
 10
43.0155312569
 20
4.2754577493
 10
43.3531051806
 20
3.232457794
 10
43.6758157748
 20
2.1763356637
 10
43.9830299287
 20
1.1077323665
  0
LWPOLYLINE
  5
4FA
100
AcDbEntity
  8
ASSI
100
AcDbPolyline
 62
250
  6
CONTINUOUS
 90
10
 70
0
 10
43.9830299287
 20
1.1077323665
 10
44.0558978696
 20
0.8435069795
 10
44.1274825428
 20
0.5787740936
 10
44.1977763997
 20
0.3135488558
 10
44.2667634402
 20
0.0478792849
 10
44.3344448341
 20
-0.2182520605
 10
44.4008372417
 20
-0.4849283842
 10
44.4659394214
 20
-0.7521673667
 10
44.52973391
 20
-1.0199208622
 10
44.5922114689
 20
-1.2881734424
  0
LWPOLYLINE
  5
4FB
100
AcDbEntity
  8
ASSI
100
AcDbPolyline
 62
250
  6
CONTINUOUS
 90
13
 70
0
 10
44.5922114689
 20
-1.2881734424
 10
44.7255891846
 20
-1.8917109865
 10
44.8483226331
 20
-2.4976676832
 10
44.9602377768
 20
-3.1056248315
 10
45.0611916269
 20
-3.7153637714
 10
45.1509663552
 20
-4.3262381666
 10
45.2293088501
 20
-4.9371780692
 10
45.2960736451
 20
-5.5477244266
 10
45.351116656
 20
-6.1574323684
 10
45.3942554522
 20
-6.7652546646
 10
45.4253694025
 20
-7.3705390147
 10
45.4443612216
 20
-7.9730197972
 10
45.4511171987
 20
-8.5722312923
  0
LWPOLYLINE
  5
4FC
100
AcDbEntity
  8
ASSI
100
AcDbPolyline
 62
7
  6
CONTINUOUS
 90
12
 70
0
 10
44.743695967
 20
15.1038609203
 10
44.7429424004
 20
15.1131615404
 10
44.7399352042
 20
15.1244705692
 10
44.7346322964
 20
15.1361045406
 10
44.7270403736
 20
15.148007745
 10
44.7170459218
 20
15.1601108484
 10
44.7045909672
 20
15.172427676
 10
44.6897312124
 20
15.1849330699
 10
44.6725236892
 20
15.197499327
 10
44.6529869598
 20
15.2100816105
 10
44.6311012024
 20
15.2227183922
 10
44.6068661066
 20
15.2354080978
  0
LWPOLYLINE
  5
4FD
100
AcDbEntity
  8
ASSI
100
AcDbPolyline
 62
7
  6
CONTINUOUS
 90
11
 70
0
 10
46.1123542603
 20
15.3320310171
 10
46.1111769498
 20
15.3465486141
 10
46.1070182367
 20
15.3618046168
 10
46.1000619115
 20
15.3773005922
 10
46.0907400778
 20
15.392730981
 10
46.0790682947
 20
15.4080545835
 10
46.0650293492
 20
15.4232987987
 10
46.0490062927
 20
15.4382617251
 10
46.0311264779
 20
15.4528732129
 10
46.0112615587
 20
15.4671948847
 10
45.989411194
 20
15.4812237824
  0
LINE
  5
4FE
100
AcDbEntity
  8
ASSI
100
AcDbLine
 62
7
  6
CONTINUOUS
 10
45.4501818667
 20
14.971612409
 11
45.4501818667
 21
14.9496105273
  0
LINE
  5
4FF
100
AcDbEntity
  8
ASSI
100
AcDbLine
 62
7
  6
CONTINUOUS
 10
45.5103050952
 20
15.7071746128
 11
45.5103050952
 21
15.6633891162
  0
LINE
  5
500
100
AcDbEntity
  8
ASSI
100
AcDbLine
 62
250
  6
CONTINUOUS
 10
45.9894111927
 20
15.481223783
 11
45.9894111927
 21
15.4374480212
  0
LWPOLYLINE
  5
501
100
AcDbEntity
  8
ASSI
100
AcDbPolyline
 62
7
  6
CONTINUOUS
 90
16
 70
0
 10
45.4726224784
 20
14.891779346
 10
45.4726071775
 20
14.8901674379
 10
45.4710973199
 20
14.8769359539
 10
45.4672058539
 20
14.8637900977
 10
45.4610361741
 20
14.8507318002
 10
45.4526119588
 20
14.8377728032
 10
45.4419155565
 20
14.8249313598
 10
45.4289886005
 20
14.8122200014
 10
45.4138393282
 20
14.7996402808
 10
45.3964670078
 20
14.7872264285
 10
45.3768999727
 20
14.775040263
 10
45.3549533969
 20
14.7631508543
 10
45.3308209217
 20
14.7515290871
 10
45.3050979694
 20
14.7400859162
 10
45.2779854815
 20
14.7288018752
 10
45.2492908366
 20
14.7177314542
  0
LWPOLYLINE
  5
502
100
AcDbEntity
  8
ASSI
100
AcDbPolyline
 62
7
  6
CONTINUOUS
 90
40
 70
0
 10
46.8963553817
 20
15.23184901
 10
46.8945341967
 20
15.2039547229
 10
46.8879325436
 20
15.1754245597
 10
46.8761457449
 20
15.1470355883
 10
46.859583965
 20
15.1188566782
 10
46.8383182838
 20
15.0918949823
 10
46.8117112712
 20
15.0662259838
 10
46.7804084181
 20
15.0418323681
 10
46.7463992487
 20
15.0195275509
 10
46.7095991393
 20
14.9995982957
 10
46.6700918584
 20
14.9817365008
 10
46.630112454
 20
14.9658050344
 10
46.5902311868
 20
14.9518729294
 10
46.5498712323
 20
14.9398105298
 10
46.5095447959
 20
14.929166744
 10
46.4692947212
 20
14.9198500928
 10
46.4290731732
 20
14.9119094497
 10
46.3892568352
 20
14.9051091155
 10
46.3498915862
 20
14.8994244508
 10
46.3109267017
 20
14.894842592
 10
46.2725942571
 20
14.8911483932
 10
46.2349148295
 20
14.8883231427
 10
46.19786364
 20
14.8863552385
 10
46.1616051994
 20
14.8850438693
 10
46.1261684225
 20
14.8843686409
 10
46.0915209354
 20
14.884326324
 10
46.0577358362
 20
14.8847455378
 10
46.0248350695
 20
14.8855911728
 10
45.9927940159
 20
14.8868808206
 10
45.9616163562
 20
14.8885250408
 10
45.9313018585
 20
14.8905160627
 10
45.9018485971
 20
14.8928480453
 10
45.8732580192
 20
14.8954364487
 10
45.8455403723
 20
14.8982819737
 10
45.8186837144
 20
14.9013735513
 10
45.7926565181
 20
14.9046109048
 10
45.7674710286
 20
14.907990655
 10
45.7431137932
 20
14.9115089565
 10
45.7195150603
 20
14.915066762
 10
45.6966785096
 20
14.9186504396
  0
LWPOLYLINE
  5
503
100
AcDbEntity
  8
ASSI
100
AcDbPolyline
 62
250
  6
CONTINUOUS
 90
5
 70
0
 10
45.351116656
 20
-10.7927695551
 10
45.3942554522
 20
-10.2510007721
 10
45.4253694025
 20
-9.7001737928
 10
45.4443612216
 20
-9.140466038
 10
45.4511171987
 20
-8.5722312923
  0
LWPOLYLINE
  5
504
100
AcDbEntity
  8
ASSI
100
AcDbPolyline
 62
250
  6
CONTINUOUS
 90
9
 70
0
 10
44.5922114689
 20
-14.7360438659
 10
44.7255891846
 20
-14.2851650569
 10
44.8483226331
 20
-13.8216764945
 10
44.9602377768
 20
-13.3458269207
 10
45.0611916269
 20
-12.8577032514
 10
45.1509663552
 20
-12.3577312194
 10
45.2293088501
 20
-11.8467095172
 10
45.2960736451
 20
-11.3249542722
 10
45.351116656
 20
-10.7927695551
  0
LWPOLYLINE
  5
505
100
AcDbEntity
  8
ASSI
100
AcDbPolyline
 62
250
  6
CONTINUOUS
 90
10
 70
0
 10
43.9830299287
 20
-16.4497167212
 10
44.0558978696
 20
-16.2661475534
 10
44.1274825428
 20
-16.0808685611
 10
44.1977763997
 20
-15.8938875196
 10
44.2667634402
 20
-15.7052356284
 10
44.3344448341
 20
-15.5148977703
 10
44.4008372417
 20
-15.3228106209
 10
44.4659394214
 20
-15.1289565425
 10
44.52973391
 20
-14.9333654738
 10
44.5922114689
 20
-14.7360438659
  0
LWPOLYLINE
  5
506
100
AcDbEntity
  8
ASSI
100
AcDbPolyline
 62
7
  6
CONTINUOUS
 90
9
 70
0
 10
63.0554249467
 20
3.2278218448
 10
63.1071050929
 20
3.2953771674
 10
63.1521178733
 20
3.363817225
 10
63.1903255267
 20
3.4329970349
 10
63.2218658142
 20
3.5030615799
 10
63.2466236455
 20
3.5737590735
 10
63.2646099035
 20
3.6452104305
 10
63.2758137053
 20
3.7172947362
 10
63.2801250006
 20
3.794989852
  0
LWPOLYLINE
  5
507
100
AcDbEntity
  8
ASSI
100
AcDbPolyline
 62
250
  6
CONTINUOUS
 90
10
 70
0
 10
52.1570842143
 20
-12.8820750606
 10
52.4271272506
 20
-12.5320508343
 10
52.6877919327
 20
-12.1674548129
 10
52.9388955745
 20
-11.7885209238
 10
53.1796757904
 20
-11.3964637054
 10
53.4105780399
 20
-10.9906044759
 10
53.6330088172
 20
-10.5680376859
 10
53.8470577146
 20
-10.1276267542
 10
54.0517440622
 20
-9.6703379549
 10
54.2466318277
 20
-9.1961336128
  0
LWPOLYLINE
  5
508
100
AcDbEntity
  8
ASSI
100
AcDbPolyline
 62
7
  6
CONTINUOUS
 90
5
 70
0
 10
63.0554253444
 20
3.2278219558
 10
62.9976061447
 20
3.1618380357
 10
62.9338239637
 20
3.0976544499
 10
62.8639027026
 20
3.0350422953
 10
62.7878423614
 20
2.974001572
  0
LWPOLYLINE
  5
509
100
AcDbEntity
  8
ASSI
100
AcDbPolyline
 62
7
  6
CONTINUOUS
 90
11
 70
0
 10
60.12539837
 20
-5.1975119916
 10
60.3517036276
 20
-4.9500325978
 10
60.5900607826
 20
-4.6695188191
 10
60.8204941204
 20
-4.3767753444
 10
61.0426190341
 20
-4.0720230006
 10
61.2561360314
 20
-3.7553545898
 10
61.4607612152
 20
-3.4268309141
 10
61.6561554061
 20
-3.0866125084
 10
61.8420142326
 20
-2.7348177944
 10
62.0180515462
 20
-2.371525879
 10
62.1576477908
 20
-2.0586301228
  0
LWPOLYLINE
  5
50A
100
AcDbEntity
  8
ASSI
100
AcDbPolyline
 62
7
  6
CONTINUOUS
 90
6
 70
0
 10
55.1816906887
 20
-10.2046388919
 10
56.2469340056
 20
-9.1611445204
 10
57.2997142653
 20
-8.1108523426
 10
58.3378407931
 20
-7.0565087281
 10
59.3630796319
 20
-5.9970184821
 10
60.1250705616
 20
-5.1978329111
  0
LINE
  5
50B
100
AcDbEntity
  8
ASSI
100
AcDbLine
 62
7
  6
CONTINUOUS
 10
55.1816906887
 20
-10.2046388919
 11
54.5056708925
 21
-10.856980884
  0
LINE
  5
50C
100
AcDbEntity
  8
ASSI
100
AcDbLine
 62
250
  6
CONTINUOUS
 10
54.5056708925
 20
-10.856980884
 11
54.4713783337
 21
-10.889623375
  0
LWPOLYLINE
  5
50D
100
AcDbEntity
  8
ASSI
100
AcDbPolyline
 62
250
  6
CONTINUOUS
 90
15
 70
0
 10
51.4714940595
 20
24.2200527197
 10
51.8727123077
 20
23.9933453813
 10
52.2719022092
 20
23.7503042659
 10
52.6689856331
 20
23.4909558656
 10
53.0632788821
 20
23.2157187201
 10
53.453509639
 20
22.9255292867
 10
53.8392374331
 20
22.6208349497
 10
54.220172821
 20
22.3018686582
 10
54.5952602649
 20
21.9694229771
 10
54.9647944468
 20
21.623280984
 10
55.3276138251
 20
21.2644151696
 10
55.6805627889
 20
20.8957062732
 10
56.0224373152
 20
20.518617488
 10
56.3538727567
 20
20.1329128046
 10
56.6745968052
 20
19.7391310965
  0
LWPOLYLINE
  5
50E
100
AcDbEntity
  8
ASSI
100
AcDbPolyline
 62
250
  6
CONTINUOUS
 90
10
 70
0
 10
54.7567004836
 20
-7.6910841172
 10
54.9000636487
 20
-7.1576445093
 10
55.0271794395
 20
-6.6062062618
 10
55.1377582242
 20
-6.0372886239
 10
55.2315446006
 20
-5.4511663306
 10
55.3081904541
 20
-4.8486357244
 10
55.3673314449
 20
-4.2310755191
 10
55.4087217505
 20
-3.5993920013
 10
55.4321575477
 20
-2.9539584734
 10
55.4374036535
 20
-2.2954237381
  0
LWPOLYLINE
  5
50F
100
AcDbEntity
  8
ASSI
100
AcDbPolyline
 62
250
  6
CONTINUOUS
 90
10
 70
0
 10
54.2466318277
 20
-9.1961336128
 10
54.3087401152
 20
-9.0356695752
 10
54.3695060593
 20
-8.8735048848
 10
54.4289210332
 20
-8.7096496601
 10
54.4869701744
 20
-8.5441320851
 10
54.543651313
 20
-8.376944741
 10
54.5989734372
 20
-8.208042954
 10
54.6529321586
 20
-8.0374171491
 10
54.7055112469
 20
-7.8650945026
 10
54.7567004836
 20
-7.6910841172
  0
LWPOLYLINE
  5
510
100
AcDbEntity
  8
ASSI
100
AcDbPolyline
 62
250
  6
CONTINUOUS
 90
10
 70
0
 10
61.7643202495
 20
-2.5986130987
 10
61.6081416535
 20
-2.9540777022
 10
61.4416753682
 20
-3.2973792587
 10
61.2650630861
 20
-3.6281176039
 10
61.0781602171
 20
-3.9463771228
 10
60.8813675337
 20
-4.2512157207
 10
60.6758029008
 20
-4.5408911375
 10
60.462191188
 20
-4.8146819757
 10
60.2404410924
 20
-5.0729553881
 10
60.1250705616
 20
-5.1978329111
  0
LWPOLYLINE
  5
511
100
AcDbEntity
  8
ASSI
100
AcDbPolyline
 62
250
  6
CONTINUOUS
 90
6
 70
0
 10
62.1576477908
 20
-2.0586301228
 10
62.1171588973
 20
-2.1450874174
 10
62.0617610279
 20
-2.2443419986
 10
61.9985824136
 20
-2.3395940172
 10
61.9278077913
 20
-2.4305649524
 10
61.8496441088
 20
-2.5169888017
  0
LWPOLYLINE
  5
512
100
AcDbEntity
  8
ASSI
100
AcDbPolyline
 62
250
  6
CONTINUOUS
 90
10
 70
0
 10
57.1741443346
 20
19.6639800288
 10
57.1421357858
 20
19.6951702344
 10
57.1043267251
 20
19.720313344
 10
57.060336319
 20
19.739912681
 10
57.0102869601
 20
19.7539137152
 10
56.9543178983
 20
19.7622774921
 10
56.8925848537
 20
19.7649807416
 10
56.8252595833
 20
19.7620159425
 10
56.752529403
 20
19.7533913437
 10
56.6745966667
 20
19.7391309411
  0
LWPOLYLINE
  5
513
100
AcDbEntity
  8
ASSI
100
AcDbPolyline
 62
7
  6
CONTINUOUS
 90
16
 70
0
 10
57.1741550251
 20
19.6639672319
 10
56.8911361295
 20
19.9922445522
 10
56.5512575511
 20
20.3695808691
 10
56.2009373807
 20
20.7403883323
 10
55.8399238922
 20
21.1043926527
 10
55.4687814062
 20
21.460466086
 10
55.0889910551
 20
21.8067356583
 10
54.7007112271
 20
22.1426660187
 10
54.304151247
 20
22.4676341906
 10
53.9009420178
 20
22.7799221174
 10
53.4913145262
 20
23.0790332869
 10
53.0754947014
 20
23.3644574265
 10
52.65514105
 20
23.6347691816
 10
52.2309991884
 20
23.8892994326
 10
51.8029378105
 20
24.1279316325
 10
51.4348265955
 20
24.318650581
  0
LWPOLYLINE
  5
514
100
AcDbEntity
  8
ASSI
100
AcDbPolyline
 62
250
  6
CONTINUOUS
 90
22
 70
0
 10
56.6745968052
 20
19.7391310965
 10
56.9872765063
 20
19.3363651987
 10
57.2948654264
 20
18.9226334255
 10
57.597036844
 20
18.4983027992
 10
57.8935909811
 20
18.0634662012
 10
58.184057269
 20
17.6187644411
 10
58.4677367253
 20
17.1654508913
 10
58.7442094545
 20
16.7041560768
 10
59.0133083657
 20
16.2351316885
 10
59.274765913
 20
15.7591450638
 10
59.5280093821
 20
15.277216063
 10
59.7730727843
 20
14.7892584503
 10
60.0105768968
 20
14.2943852736
 10
60.2404411032
 20
13.7927021101
 10
60.4621911978
 20
13.2850537903
 10
60.6758029101
 20
12.7716569504
 10
60.8813675438
 20
12.2520360642
 10
61.0781602284
 20
11.7276602477
 10
61.2650630969
 20
11.2017307646
 10
61.4416753764
 20
10.6757149295
 10
61.608141658
 20
10.1492850065
 10
61.7643202495
 20
9.6229965612
  0
LWPOLYLINE
  5
515
100
AcDbEntity
  8
ASSI
100
AcDbPolyline
 62
250
  6
CONTINUOUS
 90
10
 70
0
 10
52.1570842893
 20
12.1709115792
 10
52.4271272907
 20
11.5313918634
 10
52.6877919481
 20
10.8858735093
 10
52.9388955743
 20
10.2347724365
 10
53.1796757855
 20
9.5801194471
 10
53.4105780375
 20
8.9207390534
 10
53.6330088171
 20
8.2521430377
 10
53.8470577145
 20
7.5730262816
 10
54.0517440622
 20
6.8853736155
 10
54.2466318277
 20
6.1895646173
  0
LWPOLYLINE
  5
516
100
AcDbEntity
  8
ASSI
100
AcDbPolyline
 62
250
  6
CONTINUOUS
 90
19
 70
0
 10
53.8452594496
 20
19.6394220965
 10
53.7505592463
 20
19.891472196
 10
53.6392855622
 20
20.1454253135
 10
53.5115075652
 20
20.4011050169
 10
53.3674470282
 20
20.6589996827
 10
53.2070165716
 20
20.9183063955
 10
53.0298457229
 20
21.1768875822
 10
52.8358533548
 20
21.4346249244
 10
52.6253016889
 20
21.6913032205
 10
52.3983752078
 20
21.9445907776
 10
52.1548366677
 20
22.1945279641
 10
51.8951168989
 20
22.4407705241
 10
51.6204291978
 20
22.6803815572
 10
51.3305855213
 20
22.9131577076
 10
51.0259466395
 20
23.1390598137
 10
50.7085556671
 20
23.3553940344
 10
50.3791310653
 20
23.5612135507
 10
50.037057744
 20
23.757329231
 10
49.6823618695
 20
23.9437072729
  0
LWPOLYLINE
  5
517
100
AcDbEntity
  8
ASSI
100
AcDbPolyline
 62
250
  6
CONTINUOUS
 90
10
 70
0
 10
54.2466318277
 20
6.1895646173
 10
54.3087401152
 20
5.9579329955
 10
54.3695060593
 20
5.7258416942
 10
54.4289210332
 20
5.4933092271
 10
54.4869701744
 20
5.2603794274
 10
54.543651313
 20
5.0270458158
 10
54.5989734372
 20
4.7932513808
 10
54.6529321586
 20
4.5589895619
 10
54.7055112469
 20
4.3243044698
 10
54.7567004836
 20
4.0892151001
  0
LWPOLYLINE
  5
518
100
AcDbEntity
  8
ASSI
100
AcDbPolyline
 62
250
  6
CONTINUOUS
 90
10
 70
0
 10
54.7567004836
 20
4.0892151001
 10
54.9000636487
 20
3.3821132895
 10
55.0271794395
 20
2.6722818829
 10
55.1377582242
 20
1.9605201187
 10
55.2315446006
 20
1.2473337159
 10
55.3081904541
 20
0.5338713847
 10
55.3673314449
 20
-0.1780870345
 10
55.4087217505
 20
-0.8873798212
 10
55.4321575477
 20
-1.5934512783
 10
55.4374036535
 20
-2.2954237381
  0
LINE
  5
519
100
AcDbEntity
  8
ASSI
100
AcDbLine
 62
7
  6
CONTINUOUS
 10
63.2801250006
 20
3.794989852
 11
63.2799306531
 21
3.7996268049
  0
LWPOLYLINE
  5
51A
100
AcDbEntity
  8
ASSI
100
AcDbPolyline
 62
7
  6
CONTINUOUS
 90
10
 70
0
 10
63.2801257106
 20
3.7996268049
 10
63.272754769
 20
4.2732439522
 10
63.2498278563
 20
4.8215752224
 10
63.2117349083
 20
5.3721837754
 10
63.1587524825
 20
5.9245965576
 10
63.0911415888
 20
6.4782901774
 10
63.0091568884
 20
7.0326723591
 10
62.9130330642
 20
7.5872340691
 10
62.802989476
 20
8.1415052807
 10
62.696828544
 20
8.6199304164
  0
LINE
  5
51B
100
AcDbEntity
  8
ASSI
100
AcDbLine
 62
7
  6
CONTINUOUS
 10
63.280124064
 20
3.7996268035
 11
63.2800874577
 21
3.7893975643
  0
LINE
  5
51C
100
AcDbEntity
  8
ASSI
100
AcDbLine
 62
7
  6
CONTINUOUS
 10
63.2726323202
 20
3.3240064754
 11
63.2801255142
 21
3.7949898516
  0
LWPOLYLINE
  5
51D
100
AcDbEntity
  8
ASSI
100
AcDbPolyline
 62
250
  6
CONTINUOUS
 90
13
 70
0
 10
62.787843027
 20
2.9740021682
 10
62.781703517
 20
2.6031667501
 10
62.7685814705
 20
2.2363799378
 10
62.7484947708
 20
1.8738633648
 10
62.7216349966
 20
1.517921211
 10
62.6879330259
 20
1.166638013
 10
62.6466345686
 20
0.8141504465
 10
62.5975259017
 20
0.4621375134
 10
62.5401406592
 20
0.1098835436
 10
62.4723186829
 20
-0.2513057179
 10
62.3923415762
 20
-0.62333242
 10
62.2996447809
 20
-1.0018272043
 10
62.1931060871
 20
-1.3854410127
  0
LWPOLYLINE
  5
51E
100
AcDbEntity
  8
ASSI
100
AcDbPolyline
 62
7
  6
CONTINUOUS
 90
9
 70
0
 10
62.6468295109
 20
-0.7111825068
 10
62.7659623434
 20
-0.2918667614
 10
62.887025127
 20
0.1977526385
 10
62.9917891376
 20
0.6970649586
 10
63.0803078352
 20
1.2055754933
 10
63.1526387268
 20
1.7229176
 10
63.2088108753
 20
2.2487130952
 10
63.2488175492
 20
2.7825435776
 10
63.2726323202
 20
3.3240064754
  0
LWPOLYLINE
  5
51F
100
AcDbEntity
  8
ASSI
100
AcDbPolyline
 62
250
  6
CONTINUOUS
 90
10
 70
0
 10
62.1931060871
 20
-1.3854410127
 10
62.150626281
 20
-1.5263900693
 10
62.1068389215
 20
-1.6658314775
 10
62.0617524838
 20
-1.8037494229
 10
62.0153789146
 20
-1.9401193808
 10
61.9677233431
 20
-2.0749346081
 10
61.9187832218
 20
-2.2082053431
 10
61.8685624539
 20
-2.3399238365
 10
61.8170722524
 20
-2.4700651522
 10
61.7643202495
 20
-2.5986130987
  0
LWPOLYLINE
  5
520
100
AcDbEntity
  8
ASSI
100
AcDbPolyline
 62
250
  6
CONTINUOUS
 90
8
 70
0
 10
62.6468295821
 20
-0.7111825283
 10
62.6345668168
 20
-0.7496420141
 10
62.5958602161
 20
-0.8508684651
 10
62.5487598812
 20
-0.9490989115
 10
62.4934059587
 20
-1.0440410693
 10
62.429963154
 20
-1.1354124387
 10
62.3586202406
 20
-1.2229411447
 10
62.279589499
 20
-1.3063667463
  0
LWPOLYLINE
  5
521
100
AcDbEntity
  8
ASSI
100
AcDbPolyline
 62
7
  6
CONTINUOUS
 90
10
 70
0
 10
62.1576586345
 20
-2.0586057131
 10
62.1999046571
 20
-1.9589387567
 10
62.2647846985
 20
-1.8008687818
 10
62.3278116251
 20
-1.6410407415
 10
62.388973014
 20
-1.4794686904
 10
62.4482573059
 20
-1.3161634417
 10
62.5056530355
 20
-1.1511349455
 10
62.5611483498
 20
-0.9843936465
 10
62.6147301591
 20
-0.815952456
 10
62.6468441794
 20
-0.7111341866
  0
LWPOLYLINE
  5
522
100
AcDbEntity
  8
ASSI
100
AcDbPolyline
 62
250
  6
CONTINUOUS
 90
19
 70
0
 10
55.0464992856
 20
19.6770354447
 10
54.9472929268
 20
19.9674807016
 10
54.8306330292
 20
20.2595663195
 10
54.6964676067
 20
20.5527397492
 10
54.5448729145
 20
20.8467138031
 10
54.3757224226
 20
21.1405487408
 10
54.1887078985
 20
21.4327864128
 10
53.9837545892
 20
21.7229133665
 10
53.7610312917
 20
22.0102376472
 10
53.5206502784
 20
22.293225781
 10
53.2623763981
 20
22.5715794885
 10
52.9866191758
 20
22.8443151171
 10
52.6944522033
 20
23.1091922516
 10
52.385622307
 20
23.3658537345
 10
52.0604844765
 20
23.6135907755
 10
51.7210711517
 20
23.8501538417
 10
51.368123219
 20
24.0747059679
 10
51.0010631272
 20
24.2874525245
 10
50.6199535498
 20
24.4879598743
  0
LWPOLYLINE
  5
523
100
AcDbEntity
  8
ASSI
100
AcDbPolyline
 62
7
  6
CONTINUOUS
 90
22
 70
0
 10
62.2726170181
 20
10.2064990232
 10
62.1366142491
 20
10.6428512433
 10
61.9696863853
 20
11.1451470999
 10
61.7926210586
 20
11.6446085485
 10
61.6056269455
 20
12.1408798623
 10
61.4089187031
 20
12.6335856099
 10
61.2027380329
 20
13.1222853665
 10
60.9872747178
 20
13.6066554214
 10
60.76270832
 20
14.0863548097
 10
60.5292677492
 20
14.5609239584
 10
60.2871365781
 20
15.0300154935
 10
60.0365411658
 20
15.493264381
 10
59.7777756033
 20
15.9502005247
 10
59.5110742443
 20
16.4004870935
 10
59.2366953766
 20
16.8438083808
 10
58.9549692011
 20
17.2797439306
 10
58.6661374119
 20
17.7080074497
 10
58.3704207442
 20
18.1283205193
 10
58.068109809
 20
18.5402983972
 10
57.7594501768
 20
18.9436245019
 10
57.4446766352
 20
19.3379979387
 10
57.1741443346
 20
19.6639800288
  0
LWPOLYLINE
  5
524
100
AcDbEntity
  8
ASSI
100
AcDbPolyline
 62
250
  6
CONTINUOUS
 90
10
 70
0
 10
61.7643202495
 20
9.6229965612
 10
61.8170722525
 20
9.4370438451
 10
61.8685624539
 20
9.2509946011
 10
61.9187832218
 20
9.0648732044
 10
61.967723343
 20
8.8787149931
 10
62.0153789145
 20
8.6925335827
 10
62.0617524836
 20
8.5063209191
 10
62.1068389213
 20
8.3200908617
 10
62.1506262809
 20
8.1338791317
 10
62.1931060871
 20
7.9477106628
  0
LWPOLYLINE
  5
525
100
AcDbEntity
  8
ASSI
100
AcDbPolyline
 62
250
  6
CONTINUOUS
 90
14
 70
0
 10
62.2726172252
 20
10.2064990858
 10
62.2764481863
 20
10.1906631341
 10
62.2787260432
 20
10.1541326524
 10
62.2725887405
 20
10.1152184686
 10
62.2580542239
 20
10.0740343693
 10
62.235164993
 20
10.0307007783
 10
62.2039879768
 20
9.9853444049
 10
62.164614338
 20
9.9380978729
 10
62.1171592069
 20
9.889099333
 10
62.061761344
 20
9.8384920588
 10
61.9985827349
 20
9.7864240282
 10
61.9278081164
 20
9.7330474899
 10
61.8496444363
 20
9.6785185193
 10
61.7643202483
 20
9.6229965611
  0
LWPOLYLINE
  5
526
100
AcDbEntity
  8
ASSI
100
AcDbPolyline
 62
7
  6
CONTINUOUS
 90
10
 70
0
 10
62.6968310761
 20
8.6199197764
 10
62.6675348221
 20
8.7443560134
 10
62.6207523022
 20
8.9373772707
 10
62.5723991899
 20
9.1301765174
 10
62.5224871744
 20
9.3227328938
 10
62.4710275551
 20
9.5150264439
 10
62.4180322526
 20
9.7070346759
 10
62.3635126261
 20
9.8987370403
 10
62.3074799912
 20
10.0901126222
 10
62.2726161995
 20
10.2065024812
  0
LWPOLYLINE
  5
527
100
AcDbEntity
  8
ASSI
100
AcDbPolyline
 62
250
  6
CONTINUOUS
 90
13
 70
0
 10
62.1931060871
 20
7.9477106628
 10
62.2896955731
 20
7.4991500794
 10
62.3762090235
 20
7.0603402408
 10
62.4531076795
 20
6.6315402738
 10
62.5204505328
 20
6.2156213235
 10
62.5791842955
 20
5.8101078897
 10
62.6306518085
 20
5.4072935771
 10
62.6748046462
 20
5.0076229688
 10
62.7117062306
 20
4.6111632017
 10
62.7419455174
 20
4.2099054153
 10
62.7651751036
 20
3.8015698157
 10
62.7806451653
 20
3.3894250482
 10
62.787843027
 20
2.9740021671
  0
LWPOLYLINE
  5
528
100
AcDbEntity
  8
ASSI
100
AcDbPolyline
 62
250
  6
CONTINUOUS
 90
14
 70
0
 10
62.6968310231
 20
8.6199197641
 10
62.6990539765
 20
8.6093576887
 10
62.7035336963
 20
8.5615029052
 10
62.6992993004
 20
8.5117987202
 10
62.686363388
 20
8.4603930281
 10
62.6647644499
 20
8.4074387862
 10
62.6345667537
 20
8.3530935596
 10
62.5958601522
 20
8.297519052
 10
62.5487598169
 20
8.2408806251
 10
62.4934058943
 20
8.1833468061
 10
62.4299630897
 20
8.1250887866
 10
62.3586201768
 20
8.0662799128
 10
62.2795894359
 20
8.0070951702
 10
62.1931060225
 20
7.9477106626
  0
ARC
  5
529
100
AcDbEntity
  8
ASSI
100
AcDbCircle
 62
7
  6
CONTINUOUS
 10
26.396870777
 20
22.4951977185
 40
1.3
100
AcDbArc
 50
63.4335321899
 51
105.7574423487
  0
ARC
  5
52A
100
AcDbEntity
  8
ASSI
100
AcDbCircle
 62
7
  6
CONTINUOUS
 10
38.9984769
 20
16.194394657
 40
1.3
100
AcDbArc
 50
47.3481493449
 51
63.4349488229
  0
ARC
  5
52B
100
AcDbEntity
  8
ASSI
100
AcDbCircle
 62
7
  6
CONTINUOUS
 10
18.5953293522
 20
-18.6610594023
 40
0.5
100
AcDbArc
 50
145.5076208643
 51
202.1368525157
  0
ELLIPSE
  5
52C
100
AcDbEntity
  8
0
100
AcDbEllipse
 62
7
  6
CONTINUOUS
 10
18.9181930528
 20
1.8960143979
 30
0.0
 11
2.564563738
 21
-0.626393829
 31
0.0
 40
0.7575762484
 41
-2.2563068497
 42
-1.9951759657
  0
ELLIPSE
  5
52D
100
AcDbEntity
  8
ASSI
100
AcDbEllipse
 62
7
  6
CONTINUOUS
 10
37.3257400211
 20
35.1346316835
 30
0.0
 11
4.3960983773
 21
15.5812697213
 31
0.0
 40
0.4059528639
 41
-2.8530228008
 42
-2.6402482158
  0
ELLIPSE
  5
52E
100
AcDbEntity
  8
ASSI
100
AcDbEllipse
 62
7
  6
CONTINUOUS
 10
39.7806415291
 20
33.9071809295
 30
0.0
 11
11.708543162
 21
11.3997567209
 31
0.0
 40
0.7498726298
 41
-2.4835908795
 42
-2.3074593915
  0
ELLIPSE
  5
52F
100
AcDbEntity
  8
ASSI
100
AcDbEllipse
 62
7
  6
CONTINUOUS
 10
45.3794468932
 20
31.1077782475
 30
0.0
 11
12.2992842819
 21
10.9145609125
 31
0.0
 40
0.7568581445
 41
-2.5157127095
 42
-2.2682611646
  0
ELLIPSE
  5
530
100
AcDbEntity
  8
ASSI
100
AcDbEllipse
 62
7
  6
CONTINUOUS
 10
43.6255119926
 20
31.9847456977
 30
0.0
 11
13.6185877146
 21
9.7110378995
 31
0.0
 40
0.7662036724
 41
-2.318403421
 42
-2.1768619649
  0
ELLIPSE
  5
531
100
AcDbEntity
  8
ASSI
100
AcDbEllipse
 62
7
  6
CONTINUOUS
 10
41.5202809668
 20
33.0373612107
 30
0.0
 11
8.2796946572
 21
13.6668221017
 31
0.0
 40
0.6652266786
 41
-2.7217041798
 42
-2.5089176613
  0
ELLIPSE
  5
532
100
AcDbEntity
  8
ASSI
100
AcDbEllipse
 62
7
  6
CONTINUOUS
 10
44.7702052806
 20
31.4123990538
 30
0.0
 11
4.8103604159
 21
15.3813821805
 31
0.0
 40
0.4447897098
 41
-2.7998682433
 42
-2.7044037947
  0
ELLIPSE
  5
533
100
AcDbEntity
  8
ASSI
100
AcDbEllipse
 62
7
  6
CONTINUOUS
 10
44.7323818389
 20
31.4313107746
 30
0.0
 11
4.720444023
 21
15.4245254869
 31
0.0
 40
0.4365551779
 41
-2.8947823146
 42
-2.8417133585
  0
ELLIPSE
  5
534
100
AcDbEntity
  8
ASSI
100
AcDbEllipse
 62
7
  6
CONTINUOUS
 10
43.1825828879
 20
32.2062102501
 30
0.0
 11
6.4318925728
 21
14.6097262645
 31
0.0
 40
0.5710626944
 41
3.4739137835
 42
3.6036014216
  0
ELLIPSE
  5
535
100
AcDbEntity
  8
ASSI
100
AcDbEllipse
 62
7
  6
CONTINUOUS
 10
41.0336811357
 20
33.2806611262
 30
0.0
 11
4.0071200283
 21
15.7719605165
 31
0.0
 40
0.3676806676
 41
-2.8555926753
 42
-2.7309904608
  0
ELLIPSE
  5
536
100
AcDbEntity
  8
ASSI
100
AcDbEllipse
 62
7
  6
CONTINUOUS
 10
45.8314215152
 20
30.8817909365
 30
0.0
 11
11.635226692
 21
11.5223797503
 31
0.0
 40
0.7483745937
 41
-2.4726813424
 42
-2.3907135537
  0
ELLIPSE
  5
537
100
AcDbEntity
  8
ASSI
100
AcDbEllipse
 62
7
  6
CONTINUOUS
 10
40.4135995763
 20
33.5907019059
 30
0.0
 11
12.502627399
 21
10.8076721751
 31
0.0
 40
0.7584853482
 41
-2.4617638361
 42
-2.256829362
  0
ELLIPSE
  5
538
100
AcDbEntity
  8
ASSI
100
AcDbEllipse
 62
7
  6
CONTINUOUS
 10
41.9993400293
 20
32.7978316794
 30
0.0
 11
8.0116283466
 21
13.8688839175
 31
0.0
 40
0.653259147
 41
-2.7280813798
 42
-2.6184832801
  0
ELLIPSE
  5
539
100
AcDbEntity
  8
ASSI
100
AcDbEllipse
 62
7
  6
CONTINUOUS
 10
44.1595929283
 20
31.7177052299
 30
0.0
 11
13.7814775702
 21
9.6232675862
 31
0.0
 40
0.7666351499
 41
-2.3728486816
 42
-2.2675923463
  0
ELLIPSE
  5
53A
100
AcDbEntity
  8
ASSI
100
AcDbEllipse
 62
7
  6
CONTINUOUS
 10
38.0148718843
 20
34.7900657519
 30
0.0
 11
4.6769583464
 21
15.4454352342
 31
0.0
 40
0.4325321605
 41
-2.812969839
 42
-2.6368383509
  0
ELLIPSE
  5
53B
100
AcDbEntity
  8
ASSI
100
AcDbEllipse
 62
7
  6
CONTINUOUS
 10
40.4135995763
 20
33.5907019059
 30
0.0
 11
12.4635566883
 21
10.7738981996
 31
0.0
 40
0.7584853482
 41
-2.4699361753
 42
-2.2571619232
  0
ELLIPSE
  5
53C
100
AcDbEntity
  8
ASSI
100
AcDbEllipse
 62
7
  6
CONTINUOUS
 10
45.209956727
 20
31.1925233306
 30
0.0
 11
4.4664721045
 21
15.5470990295
 31
0.0
 40
0.4127051112
 41
-2.8980863273
 42
-2.6395072606
  0
ELLIPSE
  5
53D
100
AcDbEntity
  8
ASSI
100
AcDbEllipse
 62
7
  6
CONTINUOUS
 10
43.6492532513
 20
31.9728750684
 30
0.0
 11
6.1659998873
 21
14.7372206466
 31
0.0
 40
0.5533625784
 41
-2.8417866981
 42
-2.600222582
  0
ELLIPSE
  5
53E
100
AcDbEntity
  8
ASSI
100
AcDbEllipse
 62
7
  6
CONTINUOUS
 10
41.5583711163
 20
33.0183161359
 30
0.0
 11
4.0269226914
 21
15.7621746243
 31
0.0
 40
0.369663085
 41
-2.7844177472
 42
-2.6428762912
  0
ELLIPSE
  5
53F
100
AcDbEntity
  8
ASSI
100
AcDbEllipse
 62
7
  6
CONTINUOUS
 10
43.6492532513
 20
31.9728750684
 30
0.0
 11
6.1853290406
 21
14.7834188305
 31
0.0
 40
0.5533625784
 41
-2.835841903
 42
-2.5998900209
  0
ELLIPSE
  5
540
100
AcDbEntity
  8
ASSI
100
AcDbEllipse
 62
7
  6
CONTINUOUS
 10
45.8314215152
 20
30.8817909365
 30
0.0
 11
11.5988666086
 21
11.4863723135
 31
0.0
 40
0.7483745937
 41
-2.4796779439
 42
-2.3842134953
  0
ELLIPSE
  5
541
100
AcDbEntity
  8
ASSI
100
AcDbEllipse
 62
7
  6
CONTINUOUS
 10
38.0148718843
 20
34.7900657519
 30
0.0
 11
4.6916196579
 21
15.4938535265
 31
0.0
 40
0.4325321605
 41
-2.7977468342
 42
-2.6365057898
  0
ELLIPSE
  5
542
100
AcDbEntity
  8
ASSI
100
AcDbEllipse
 62
7
  6
CONTINUOUS
 10
41.5583711163
 20
33.0183161359
 30
0.0
 11
4.0395462735
 21
15.8115858301
 31
0.0
 40
0.369663085
 41
-2.7731354837
 42
-2.64254373
  0
ELLIPSE
  5
543
100
AcDbEntity
  8
ASSI
100
AcDbEllipse
 62
7
  6
CONTINUOUS
 10
45.8622593215
 20
30.8663720333
 30
0.0
 11
11.7733485733
 21
11.3480757644
 31
0.0
 40
0.7507275872
 41
-2.5617943292
 42
-2.5087253732
  0
ELLIPSE
  5
544
100
AcDbEntity
  8
ASSI
100
AcDbEllipse
 62
7
  6
CONTINUOUS
 10
45.8622593215
 20
30.8663720333
 30
0.0
 11
11.8102556221
 21
11.3836496696
 31
0.0
 40
0.7507275872
 41
-2.5606018959
 42
-2.5077192294
  0
ELLIPSE
  5
545
100
AcDbEntity
  8
ASSI
100
AcDbEllipse
 62
7
  6
CONTINUOUS
 10
44.1595929283
 20
31.7177052299
 30
0.0
 11
13.7384104528
 21
9.593194875
 31
0.0
 40
0.7666351499
 41
-2.3809584684
 42
-2.2570523068
  0
ELLIPSE
  5
546
100
AcDbEntity
  8
ASSI
100
AcDbEllipse
 62
7
  6
CONTINUOUS
 10
45.209956727
 20
31.1925233306
 30
0.0
 11
4.4804735844
 21
15.595836017
 31
0.0
 40
0.4127051112
 41
3.3862914132
 42
3.6440106078
  0
ELLIPSE
  5
547
100
AcDbEntity
  8
ASSI
100
AcDbEllipse
 62
7
  6
CONTINUOUS
 10
41.9993400293
 20
32.7978316794
 30
0.0
 11
7.9865920081
 21
13.8255436553
 31
0.0
 40
0.653259147
 41
-2.7361873129
 42
-2.6115818765
  0
ENDSEC
  0
SECTION
  2
OBJECTS
  0
DICTIONARY
  5
C
100
AcDbDictionary
280
0
281
1
  3
ACAD_GROUP
350
D
  3
ACAD_MLINESTYLE
350
17
  3
ACAD_LAYOUT
350
1A
  3
ACAD_PLOTSETTINGS
350
19
  3
ACAD_PLOTSTYLENAME
350
E
  0
DICTIONARY
  5
D
102
{ACAD_REACTORS
330
C
102
}
100
AcDbDictionary
280
0
281
1
  0
ACDBDICTIONARYWDFLT
  5
E
102
{ACAD_REACTORS
330
C
102
}
100
AcDbDictionary
281
1
  3
Normal
350
F
100
AcDbDictionaryWithDefault
340
F
  0
DICTIONARY
  5
17
102
{ACAD_REACTORS
330
C
102
}
100
AcDbDictionary
280
0
281
1
  3
Standard
350
18
  0
DICTIONARY
  5
19
102
{ACAD_REACTORS
330
C
102
}
100
AcDbDictionary
281
1
  0
DICTIONARY
  5
1A
102
{ACAD_REACTORS
330
C
102
}
100
AcDbDictionary
281
1
  3
Model
350
548
  3
Layout1
350
549
  0
ACDBPLACEHOLDER
  5
F
102
{ACAD_REACTORS
330
E
102
}
  0
MLINESTYLE
  5
18
102
{ACAD_REACTORS
330
17
102
}
100
AcDbMlineStyle
  2
STANDARD
 70
0
  3

 62
256
 51
90.0
 52
90.0
 71
2
 49
0.5
 62
256
  6
BYLAYER
 49
-0.5
 62
256
  6
BYLAYER
  0
LAYOUT
  5
548
102
{ACAD_REACTORS
330
1A
102
}
100
AcDbPlotSettings
  1

  2
none_device
  4
ISO_A4_(297.00_x_210.00_MM)
  6

 40
0.0
 41
0.0
 42
0.0
 43
0.0
 44
297.0
 45
210.0
 46
0.0
 47
0.0
 48
0.0
 49
0.0
140
0.0
141
0.0
142
1.0
143
1.0
 70
1024
 72
1
 73
0
 74
0
  7

 75
0
147
1.0
148
0.0
149
0.0
100
AcDbLayout
  1
Model
 70
0
 71
0
 10
0.0
 20
0.0
 11
297.0
 21
210.0
 12
0.0
 22
0.0
 32
0.0
 14
0.0
 24
0.0
 34
0.0
 15
0.0
 25
0.0
 35
0.0
146
0.0
 13
0.0
 23
0.0
 33
0.0
 16
1.0
 26
0.0
 36
0.0
 17
0.0
 27
1.0
 37
0.0
 76
0
330
21E
345
0
346
0
  0
LAYOUT
  5
549
102
{ACAD_REACTORS
330
1A
102
}
100
AcDbPlotSettings
  1

  2
none_device
  4
ISO_A4_(297.00_x_210.00_MM)
  6

 40
0.0
 41
0.0
 42
0.0
 43
0.0
 44
297.0
 45
210.0
 46
0.0
 47
0.0
 48
0.0
 49
0.0
140
0.0
141
0.0
142
1.0
143
1.0
 70
0
 72
1
 73
0
 74
0
  7

 75
0
147
1.0
148
0.0
149
0.0
100
AcDbLayout
  1
Layout1
 70
0
 71
1
 10
0.0
 20
0.0
 11
297.0
 21
210.0
 12
0.0
 22
0.0
 32
0.0
 14
0.0
 24
0.0
 34
0.0
 15
0.0
 25
0.0
 35
0.0
146
0.0
 13
0.0
 23
0.0
 33
0.0
 16
1.0
 26
0.0
 36
0.0
 17
0.0
 27
1.0
 37
0.0
 76
0
330
21F
345
0
346
0
  0
ENDSEC
  0
EOF
