  0
SECTION
  2
HEADER
  9
$ACADVER
  1
AC1024
  9
$DWGCODEPAGE
  3
ANSI_1252
  9
$EXTMAX
 10
297.0
 20
210.0
 30
0.0
  9
$EXTMIN
 10
0.0
 20
0.0
 30
0.0
  9
$LIMMIN
 10
0.0
 20
0.0
  9
$LIMMAX
 10
297.0
 20
210.0
  9
$VIEWCTR
 10
148.5
 20
105.0
  9
$VIEWSIZE
 40
210.0
  9
$CLAYER
  8
0
  9
$LTSCALE
 40
16.335
  9
$CELTYPE
  6
BYLAYER
  9
$DIMSCALE
 40
1.0
  9
$DIMASZ
 40
3.0
  9
$DIMEXO
 40
0.5
  9
$DIMDLI
 40
11.286
  9
$DIMEXE
 40
1.5
  9
$DIMCEN
 40
2.673
  9
$DIMLFAC
 40
1.0
  9
$DIMBLK
  1
_FILLED
  9
$DIMALT
 70
0
  9
$DIMALTF
 40
0.0393700787
  9
$DIMTXT
 40
3.0
  9
$DIMTOL
 70
1
  9
$DIMLIM
 70
0
  9
$DIMTFAC
 40
1.0
  9
$DIMTP
 40
0.01
  9
$DIMTM
 40
0.01
  9
$DIMGAP
 40
0.625
  9
$DIMDSEP
 70
44
  9
$AUNITS
 70
0
  9
$PDMODE
 70
3
  9
$PDSIZE
 40
3.0
  9
$HANDSEED
  5
3C3
  9
$TILEMODE
 70
1
  9
$MEASUREMENT
 70
1
  9
$INSUNITS
 70
4
  0
ENDSEC
  0
SECTION
  2
CLASSES
  0
CLASS
  1
ACDBDICTIONARYWDFLT
  2
AcDbDictionaryWithDefault
  3
AutoCAD 2000
 90
0
 91
1
280
0
281
0
  0
CLASS
  1
ACDBPLACEHOLDER
  2
AcDbPlaceHolder
  3
AutoCAD 2000
 90
0
 91
1
280
0
281
0
  0
CLASS
  1
LAYOUT
  2
AcDbLayout
  3
AutoCAD 2000
 90
0
 91
0
280
0
281
0
  0
ENDSEC
  0
SECTION
  2
TABLES
  0
TABLE
  2
VPORT
  5
8
100
AcDbSymbolTable
 70
2
  0
VPORT
  5
1F4
100
AcDbSymbolTableRecord
100
AcDbViewportTableRecord
  2
*ACTIVE
 70
0
 10
0.0
 20
0.0
 11
1.0
 21
1.0
 12
148.5
 22
105.0
 13
0.0
 23
0.0
 14
1.0
 24
1.0
 15
0.0
 25
0.0
 16
0.0
 26
0.0
 36
1.0
 17
0.0
 27
0.0
 37
0.0
 40
210.0
 41
1.4142857143
 42
50.0
 43
0.0
 44
0.0
 50
0.0
 51
0.0
 71
0
 72
100
 73
1
 74
1
 75
0
 76
0
 77
0
 78
0
  0
ENDTAB
  0
TABLE
  2
LTYPE
  5
5
100
AcDbSymbolTable
 70
6
  0
LTYPE
  5
14
100
AcDbSymbolTableRecord
100
AcDbLinetypeTableRecord
  2
BYBLOCK
 70
0
  3

 72
65
 73
0
 40
0.0
  0
LTYPE
  5
15
100
AcDbSymbolTableRecord
100
AcDbLinetypeTableRecord
  2
BYLAYER
 70
0
  3

 72
65
 73
0
 40
0.0
  0
LTYPE
  5
16
100
AcDbSymbolTableRecord
100
AcDbLinetypeTableRecord
  2
CONTINUOUS
 70
64
  3
Solid line
 72
65
 73
0
 40
0.0
  0
LTYPE
  5
1F5
100
AcDbSymbolTableRecord
100
AcDbLinetypeTableRecord
  2
CENTER
 70
64
  3
____ _ ____ _ ____ _ ____ _ ____ _ ____ _ ____
 72
65
 73
4
 40
0.6
 49
0.375
 74
0
 49
-0.075
 74
0
 49
0.075
 74
0
 49
-0.075
 74
0
  0
LTYPE
  5
1F6
100
AcDbSymbolTableRecord
100
AcDbLinetypeTableRecord
  2
HIDDEN
 70
64
  3
- - - - - - - - - - - - - - - - - - - -
 72
65
 73
2
 40
0.2
 49
0.1
 74
0
 49
-0.1
 74
0
  0
LTYPE
  5
1F7
100
AcDbSymbolTableRecord
100
AcDbLinetypeTableRecord
  2
PHANTOM
 70
64
  3
_____ _ _ _____ _ _ _____ _ _ _____
 72
65
 73
6
 40
0.8
 49
0.45
 74
0
 49
-0.05
 74
0
 49
0.1
 74
0
 49
-0.05
 74
0
 49
0.1
 74
0
 49
-0.05
 74
0
  0
LTYPE
  5
1F8
100
AcDbSymbolTableRecord
100
AcDbLinetypeTableRecord
  2
DOT
 70
64
  3
. . . . . . . . . . . . . . . . . . . .
 72
65
 73
2
 40
0.2
 49
0.1
 74
0
 49
-0.1
 74
0
  0
LTYPE
  5
1F9
100
AcDbSymbolTableRecord
100
AcDbLinetypeTableRecord
  2
DASHED
 70
64
  3
- - - - - - - - - - - - - - - - - - - -
 72
65
 73
2
 40
0.2
 49
0.1
 74
0
 49
-0.1
 74
0
  0
ENDTAB
  0
TABLE
  2
LAYER
  5
2
100
AcDbSymbolTable
 70
36
  0
LAYER
  5
10
100
AcDbSymbolTableRecord
100
AcDbLayerTableRecord
  2
0
 70
0
 62
7
  6
CONTINUOUS
370
-3
390
F
  0
LAYER
  5
1FA
100
AcDbSymbolTableRecord
100
AcDbLayerTableRecord
  2
DEFAULT_1
 70
0
 62
7
  6
CENTER
370
-3
390
F
  0
LAYER
  5
1FB
100
AcDbSymbolTableRecord
100
AcDbLayerTableRecord
  2
DEFAULT_2
 70
0
 62
7
  6
HIDDEN
370
-3
390
F
  0
LAYER
  5
1FC
100
AcDbSymbolTableRecord
100
AcDbLayerTableRecord
  2
DEFAULT_3
 70
0
 62
7
  6
PHANTOM
370
-3
390
F
  0
LAYER
  5
1FD
100
AcDbSymbolTableRecord
100
AcDbLayerTableRecord
  2
ALTRI_PIANI
 70
0
 62
7
  6
CONTINUOUS
370
-3
390
F
  0
LAYER
  5
1FE
100
AcDbSymbolTableRecord
100
AcDbLayerTableRecord
  2
ASSI
 70
0
 62
7
  6
CONTINUOUS
370
-3
390
F
  0
LAYER
  5
1FF
100
AcDbSymbolTableRecord
100
AcDbLayerTableRecord
  2
COLOR5
 70
0
 62
7
  6
CONTINUOUS
370
-3
390
F
  0
LAYER
  5
200
100
AcDbSymbolTableRecord
100
AcDbLayerTableRecord
  2
COORDINATE
 70
0
 62
7
  6
CONTINUOUS
370
-3
390
F
  0
LAYER
  5
201
100
AcDbSymbolTableRecord
100
AcDbLayerTableRecord
  2
COORD_ORIGINE
 70
0
 62
7
  6
CONTINUOUS
370
-3
390
F
  0
LAYER
  5
202
100
AcDbSymbolTableRecord
100
AcDbLayerTableRecord
  2
COSMETICHE
 70
0
 62
7
  6
CONTINUOUS
370
-3
390
F
  0
LAYER
  5
203
100
AcDbSymbolTableRecord
100
AcDbLayerTableRecord
  2
COSMETICI
 70
0
 62
7
  6
CONTINUOUS
370
-3
390
F
  0
LAYER
  5
204
100
AcDbSymbolTableRecord
100
AcDbLayerTableRecord
  2
CURVE
 70
0
 62
7
  6
CONTINUOUS
370
-3
390
F
  0
LAYER
  5
205
100
AcDbSymbolTableRecord
100
AcDbLayerTableRecord
  2
DRAFT
 70
0
 62
7
  6
CONTINUOUS
370
-3
390
F
  0
LAYER
  5
206
100
AcDbSymbolTableRecord
100
AcDbLayerTableRecord
  2
IGES
 70
0
 62
7
  6
CONTINUOUS
370
-3
390
F
  0
LAYER
  5
207
100
AcDbSymbolTableRecord
100
AcDbLayerTableRecord
  2
INTF_1
 70
0
 62
7
  6
CONTINUOUS
370
-3
390
F
  0
LAYER
  5
208
100
AcDbSymbolTableRecord
100
AcDbLayerTableRecord
  2
INTF_11
 70
0
 62
7
  6
CONTINUOUS
370
-3
390
F
  0
LAYER
  5
209
100
AcDbSymbolTableRecord
100
AcDbLayerTableRecord
  2
INTF_12
 70
0
 62
7
  6
CONTINUOUS
370
-3
390
F
  0
LAYER
  5
20A
100
AcDbSymbolTableRecord
100
AcDbLayerTableRecord
  2
INTF_2
 70
0
 62
7
  6
CONTINUOUS
370
-3
390
F
  0
LAYER
  5
20B
100
AcDbSymbolTableRecord
100
AcDbLayerTableRecord
  2
INTF_YELLOW
 70
0
 62
7
  6
CONTINUOUS
370
-3
390
F
  0
LAYER
  5
20C
100
AcDbSymbolTableRecord
100
AcDbLayerTableRecord
  2
NOTE
 70
0
 62
7
  6
CONTINUOUS
370
-3
390
F
  0
LAYER
  5
20D
100
AcDbSymbolTableRecord
100
AcDbLayerTableRecord
  2
PIANI
 70
0
 62
7
  6
CONTINUOUS
370
-3
390
F
  0
LAYER
  5
20E
100
AcDbSymbolTableRecord
100
AcDbLayerTableRecord
  2
PIANI_ORIGINE
 70
0
 62
7
  6
CONTINUOUS
370
-3
390
F
  0
LAYER
  5
20F
100
AcDbSymbolTableRecord
100
AcDbLayerTableRecord
  2
PIANI_SFORMI
 70
0
 62
7
  6
CONTINUOUS
370
-3
390
F
  0
LAYER
  5
210
100
AcDbSymbolTableRecord
100
AcDbLayerTableRecord
  2
PUNTI
 70
0
 62
7
  6
CONTINUOUS
370
-3
390
F
  0
LAYER
  5
211
100
AcDbSymbolTableRecord
100
AcDbLayerTableRecord
  2
RACCORDO
 70
0
 62
7
  6
CONTINUOUS
370
-3
390
F
  0
LAYER
  5
212
100
AcDbSymbolTableRecord
100
AcDbLayerTableRecord
  2
RGB__255__255__255__
 70
0
 62
7
  6
CONTINUOUS
370
-3
390
F
  0
LAYER
  5
213
100
AcDbSymbolTableRecord
100
AcDbLayerTableRecord
  2
RGB____0____0____0__
 70
0
 62
7
  6
CONTINUOUS
370
-3
390
F
  0
LAYER
  5
214
100
AcDbSymbolTableRecord
100
AcDbLayerTableRecord
  2
SIMBOLI
 70
0
 62
7
  6
CONTINUOUS
370
-3
390
F
  0
LAYER
  5
215
100
AcDbSymbolTableRecord
100
AcDbLayerTableRecord
  2
SMUSSO
 70
0
 62
7
  6
CONTINUOUS
370
-3
390
F
  0
LAYER
  5
216
100
AcDbSymbolTableRecord
100
AcDbLayerTableRecord
  2
SNAPLINE
 70
0
 62
7
  6
CONTINUOUS
370
-3
390
F
  0
LAYER
  5
217
100
AcDbSymbolTableRecord
100
AcDbLayerTableRecord
  2
SUPERFICI
 70
0
 62
7
  6
CONTINUOUS
370
-3
390
F
  0
LAYER
  5
218
100
AcDbSymbolTableRecord
100
AcDbLayerTableRecord
  2
TRASH
 70
0
 62
7
  6
CONTINUOUS
370
-3
390
F
  0
LAYER
  5
219
100
AcDbSymbolTableRecord
100
AcDbLayerTableRecord
  2
XSEC_DATUMS
 70
0
 62
7
  6
CONTINUOUS
370
-3
390
F
  0
ENDTAB
  0
TABLE
  2
STYLE
  5
3
100
AcDbSymbolTable
 70
1
  0
STYLE
  5
11
100
AcDbSymbolTableRecord
100
AcDbTextStyleTableRecord
  2
STANDARD
 70
0
 40
0.0
 41
0.8
 50
0.0
 71
0
 42
0.2
  3
txt
  4

  0
STYLE
  5
21A
100
AcDbSymbolTableRecord
100
AcDbTextStyleTableRecord
  2
TEXTSTYLE_1
 70
0
 40
0.0
 41
0.8
 50
0.0
 71
0
 42
0.2
  3
gdt
  4

  0
ENDTAB
  0
TABLE
  2
VIEW
  5
6
100
AcDbSymbolTable
 70
0
  0
ENDTAB
  0
TABLE
  2
UCS
  5
7
100
AcDbSymbolTable
 70
0
  0
ENDTAB
  0
TABLE
  2
APPID
  5
9
100
AcDbSymbolTable
 70
1
  0
APPID
  5
21B
100
AcDbSymbolTableRecord
100
AcDbRegAppTableRecord
  2
ACAD
 70
0
  0
ENDTAB
  0
TABLE
  2
BLOCK_RECORD
  5
1
100
AcDbSymbolTable
 70
0
  0
BLOCK_RECORD
  5
21C
100
AcDbSymbolTableRecord
100
AcDbBlockTableRecord
  2
*Model_Space
  0
BLOCK_RECORD
  5
21D
100
AcDbSymbolTableRecord
100
AcDbBlockTableRecord
  2
*Paper_Space
  0
BLOCK_RECORD
  5
21E
100
AcDbSymbolTableRecord
100
AcDbBlockTableRecord
  2
_FILLED
  0
ENDTAB
  0
TABLE
  2
DIMSTYLE
  5
A
100
AcDbSymbolTable
 70
1
100
AcDbDimStyleTable
 71
0
  0
DIMSTYLE
105
21F
100
AcDbSymbolTableRecord
100
AcDbDimStyleTableRecord
  2
STANDARD
 70
0
  3

  4

 40
1.0
 41
3.0
 42
0.5
 43
0.38
 44
1.5
 45
0.0
 46
0.0
 47
0.01
 48
0.01
140
3.0
141
0.09
142
0.0
143
25.4
144
1.0
145
0.0
146
1.0
147
0.625
 71
1
 72
0
 73
0
 74
0
 75
0
 76
0
 77
1
 78
8
 79
2
170
0
171
1
172
0
173
0
174
0
175
0
176
0
177
0
178
0
270
2
179
2
271
2
272
2
273
2
274
2
275
0
280
0
281
0
282
0
283
1
284
8
285
0
286
0
287
3
288
0
340
11
278
44
341
21E
342
21E
343
21E
344
21E
  0
ENDTAB
  0
ENDSEC
  0
SECTION
  2
BLOCKS
  0
BLOCK
  5
20
100
AcDbEntity
  8
0
100
AcDbBlockBegin
  2
*Model_Space
 70
0
 10
0.0
 20
0.0
 30
0.0
  3
*Model_Space
  1

  0
ENDBLK
  5
21
100
AcDbEntity
  8
0
100
AcDbBlockEnd
  0
BLOCK
  5
1C
100
AcDbEntity
  8
0
100
AcDbBlockBegin
  2
*Paper_Space
 70
0
 10
0.0
 20
0.0
 30
0.0
  3
*Paper_Space
  1

  0
ENDBLK
  5
1D
100
AcDbEntity
  8
0
100
AcDbBlockEnd
  0
BLOCK
  5
220
100
AcDbEntity
  8
0
100
AcDbBlockBegin
  2
_FILLED
 70
64
 10
0.0
 20
0.0
  3
_FILLED
  1

  0
SOLID
  5
221
100
AcDbEntity
  8
0
  6
BYBLOCK
 62
0
100
AcDbTrace
 10
0.0
 20
0.0
 11
-1.0
 21
0.3166666667
 12
-1.0
 22
-0.3166666667
 13
-1.0
 23
-0.3166666667
  0
ENDBLK
  5
222
100
AcDbEntity
  8
0
  6
BYBLOCK
 62
0
100
AcDbBlockEnd
  0
ENDSEC
  0
SECTION
  2
ENTITIES
  0
LINE
  5
223
100
AcDbEntity
  8
RACCORDO
100
AcDbLine
 62
7
  6
CONTINUOUS
 10
-3.1819904817
 20
45.0299962239
 11
-2.8284370911
 21
45.2341335206
  0
LINE
  5
224
100
AcDbEntity
  8
RACCORDO
100
AcDbLine
 62
7
  6
CONTINUOUS
 10
2.8284171584
 20
48.5003302672
 11
3.1819705489
 21
48.7044675639
  0
LINE
  5
225
100
AcDbEntity
  8
DRAFT
100
AcDbLine
 62
7
  6
CONTINUOUS
 10
-1.2520245421
 20
44.6750035105
 11
1.2297244122
 21
46.1079342531
  0
LINE
  5
226
100
AcDbEntity
  8
RACCORDO
100
AcDbLine
 62
7
  6
CONTINUOUS
 10
-5.626572013
 20
40.7986563038
 11
-5.5828295335
 21
40.8296687634
  0
LINE
  5
227
100
AcDbEntity
  8
RACCORDO
100
AcDbLine
 62
7
  6
CONTINUOUS
 10
-5.6264401931
 20
40.7974021029
 11
-5.5826858519
 21
40.8282901966
  0
LWPOLYLINE
  5
228
100
AcDbEntity
  8
RACCORDO
100
AcDbPolyline
 62
7
  6
CONTINUOUS
 90
13
 70
0
 10
-15.5532920103
 20
39.7832682042
 10
-15.6198989957
 20
39.5288395418
 10
-15.7485541451
 20
39.0062477705
 10
-15.8667601043
 20
38.486896455
 10
-15.9757197629
 20
37.9721125637
 10
-16.0765592785
 20
37.4630598403
 10
-16.1707408948
 20
36.9586155123
 10
-16.2591865258
 20
36.4597751781
 10
-16.3427105602
 20
35.9677157803
 10
-16.4223423735
 20
35.4816216085
 10
-16.498794109
 20
35.0018517163
 10
-16.5725260014
 20
34.5300921431
 10
-16.6440169359
 20
34.0675511113
  0
LINE
  5
229
100
AcDbEntity
  8
RACCORDO
100
AcDbLine
 62
7
  6
CONTINUOUS
 10
-15.548047053
 20
39.8028678235
 11
-15.5532354713
 21
39.7834829395
  0
LINE
  5
22A
100
AcDbEntity
  8
0
100
AcDbLine
 62
7
  6
CONTINUOUS
 10
-16.2243966627
 20
20.558169843
 11
-15.9963509913
 21
20.6898405556
  0
LINE
  5
22B
100
AcDbEntity
  8
ASSI
100
AcDbLine
 62
7
  6
CONTINUOUS
 10
-17.8384099068
 20
25.5773308351
 11
-17.6722490198
 21
27.8205892935
  0
LINE
  5
22C
100
AcDbEntity
  8
RACCORDO
100
AcDbLine
 62
7
  6
CONTINUOUS
 10
-17.6722613683
 20
27.8204519084
 11
-17.6727980583
 21
27.8144128574
  0
LWPOLYLINE
  5
22D
100
AcDbEntity
  8
RACCORDO
100
AcDbPolyline
 62
7
  6
CONTINUOUS
 90
11
 70
0
 10
-16.6440169359
 20
34.0675511113
 10
-16.7817107406
 20
33.1735305798
 10
-16.8483627539
 20
32.7447058449
 10
-16.9137683842
 20
32.3293627217
 10
-16.9779540081
 20
31.9282108986
 10
-17.0408405181
 20
31.542459123
 10
-17.1024005694
 20
31.1727697278
 10
-17.1624717229
 20
30.8196147372
 10
-17.2207767993
 20
30.4836720308
 10
-17.2770410469
 20
30.1655750209
 10
-17.3310598639
 20
29.8652953263
  0
LWPOLYLINE
  5
22E
100
AcDbEntity
  8
RACCORDO
100
AcDbPolyline
 62
7
  6
CONTINUOUS
 90
8
 70
0
 10
-17.47683544
 20
29.0678892897
 10
-17.5189008113
 20
28.83589625
 10
-17.5570947069
 20
28.6201508367
 10
-17.5910521149
 20
28.4199961189
 10
-17.6206931465
 20
28.2327983263
 10
-17.645320363
 20
28.0594033974
 10
-17.664793796
 20
27.8964471318
 10
-17.6727985115
 20
27.8142677985
  0
LINE
  5
22F
100
AcDbEntity
  8
RACCORDO
100
AcDbLine
 62
7
  6
CONTINUOUS
 10
-17.3310598639
 20
29.8652953263
 11
-17.47683544
 21
29.0678892897
  0
LINE
  5
230
100
AcDbEntity
  8
0
100
AcDbLine
 62
7
  6
CONTINUOUS
 10
10.5542565799
 20
29.727633695
 11
11.1553496698
 21
30.0746973116
  0
LINE
  5
231
100
AcDbEntity
  8
0
100
AcDbLine
 62
7
  6
CONTINUOUS
 10
12.5209743897
 20
30.8631919096
 11
13.9284612453
 21
31.6758571801
  0
LINE
  5
232
100
AcDbEntity
  8
0
100
AcDbLine
 62
7
  6
CONTINUOUS
 10
2.1152009001
 20
24.8550197272
 11
2.7162713626
 21
25.2020702791
  0
LINE
  5
233
100
AcDbEntity
  8
0
100
AcDbLine
 62
7
  6
CONTINUOUS
 10
4.0450452126
 20
25.9692876466
 11
4.6461156751
 21
26.3163381985
  0
LINE
  5
234
100
AcDbEntity
  8
0
100
AcDbLine
 62
7
  6
CONTINUOUS
 10
5.0468217743
 20
26.5477008782
 11
5.6478851657
 21
26.8947473473
  0
LINE
  5
235
100
AcDbEntity
  8
0
100
AcDbLine
 62
7
  6
CONTINUOUS
 10
6.2489259297
 20
27.2417807516
 11
7.1575722857
 21
27.7664217695
  0
LINE
  5
236
100
AcDbEntity
  8
0
100
AcDbLine
 62
7
  6
CONTINUOUS
 10
8.2800003561
 20
28.4144976701
 11
9.1886467121
 21
28.939138688
  0
LINE
  5
237
100
AcDbEntity
  8
0
100
AcDbLine
 62
7
  6
CONTINUOUS
 10
10.5896119213
 20
29.707219964
 11
11.1907050112
 21
30.0542835806
  0
LINE
  5
238
100
AcDbEntity
  8
0
100
AcDbLine
 62
7
  6
CONTINUOUS
 10
12.5563297311
 20
30.8427781786
 11
13.963816586
 21
31.6554434494
  0
LINE
  5
239
100
AcDbEntity
  8
0
100
AcDbLine
 62
7
  6
CONTINUOUS
 10
2.1505562415
 20
24.8346059962
 11
2.751626704
 21
25.1816565481
  0
LINE
  5
23A
100
AcDbEntity
  8
0
100
AcDbLine
 62
7
  6
CONTINUOUS
 10
4.080400554
 20
25.9488739156
 11
4.6814710165
 21
26.2959244675
  0
LINE
  5
23B
100
AcDbEntity
  8
0
100
AcDbLine
 62
7
  6
CONTINUOUS
 10
5.0821771157
 20
26.5272871471
 11
5.6832405071
 21
26.8743336162
  0
LINE
  5
23C
100
AcDbEntity
  8
0
100
AcDbLine
 62
7
  6
CONTINUOUS
 10
6.2842812711
 20
27.2213670206
 11
7.1929276271
 21
27.7460080385
  0
LINE
  5
23D
100
AcDbEntity
  8
0
100
AcDbLine
 62
7
  6
CONTINUOUS
 10
8.3153556975
 20
28.394083939
 11
9.2240020535
 21
28.918724957
  0
LINE
  5
23E
100
AcDbEntity
  8
0
100
AcDbLine
 62
7
  6
CONTINUOUS
 10
13.165574863
 20
30.5335555912
 11
13.8968584155
 21
30.9557894531
  0
LINE
  5
23F
100
AcDbEntity
  8
0
100
AcDbLine
 62
7
  6
CONTINUOUS
 10
13.2329954998
 20
29.6866464213
 11
13.9327053769
 21
30.0906501348
  0
LINE
  5
240
100
AcDbEntity
  8
0
100
AcDbLine
 62
7
  6
CONTINUOUS
 10
13.2371132717
 20
29.6478166441
 11
13.9683899604
 21
30.0700463035
  0
LINE
  5
241
100
AcDbEntity
  8
0
100
AcDbLine
 62
7
  6
CONTINUOUS
 10
10.7838769977
 20
27.523554852
 11
11.3264450619
 21
27.8368268523
  0
LINE
  5
242
100
AcDbEntity
  8
0
100
AcDbLine
 62
7
  6
CONTINUOUS
 10
13.3384935839
 20
28.9569525689
 11
13.8630912806
 21
29.259837945
  0
LINE
  5
243
100
AcDbEntity
  8
0
100
AcDbLine
 62
7
  6
CONTINUOUS
 10
10.7798949968
 20
27.4796390523
 11
11.3624838094
 21
27.8160185311
  0
LINE
  5
244
100
AcDbEntity
  8
0
100
AcDbLine
 62
7
  6
CONTINUOUS
 10
-16.2683308991
 20
20.4970867696
 11
-16.3176431136
 21
4.9556791951
  0
LINE
  5
245
100
AcDbEntity
  8
0
100
AcDbLine
 62
250
  6
CONTINUOUS
 10
-16.3012602101
 20
4.916162631
 11
-16.3009914883
 21
5.0010096944
  0
LINE
  5
246
100
AcDbEntity
  8
0
100
AcDbLine
 62
7
  6
CONTINUOUS
 10
-12.6572213496
 20
6.4106128192
 11
-12.1469109866
 21
7.7258474731
  0
LINE
  5
247
100
AcDbEntity
  8
DRAFT
100
AcDbLine
 62
7
  6
CONTINUOUS
 10
-12.2528855515
 20
6.1771543969
 11
-11.7348616542
 21
7.4879353528
  0
LINE
  5
248
100
AcDbEntity
  8
0
100
AcDbLine
 62
7
  6
CONTINUOUS
 10
-7.9941296845
 20
15.974063013
 11
-8.1547407523
 21
15.8813281954
  0
LINE
  5
249
100
AcDbEntity
  8
0
100
AcDbLine
 62
7
  6
CONTINUOUS
 10
10.72798595
 20
26.63856912
 11
11.6772619545
 21
27.1866691878
  0
LINE
  5
24A
100
AcDbEntity
  8
0
100
AcDbLine
 62
7
  6
CONTINUOUS
 10
12.0430357868
 20
26.5121649507
 11
12.6441093146
 21
26.8592063846
  0
LINE
  5
24B
100
AcDbEntity
  8
0
100
AcDbLine
 62
7
  6
CONTINUOUS
 10
13.0448130556
 20
27.0905785905
 11
13.6458842252
 21
27.4376295507
  0
LINE
  5
24C
100
AcDbEntity
  8
0
100
AcDbLine
 62
7
  6
CONTINUOUS
 10
6.7727669509
 20
23.469166889
 11
7.3738303424
 21
23.8162133582
  0
LINE
  5
24D
100
AcDbEntity
  8
0
100
AcDbLine
 62
7
  6
CONTINUOUS
 10
9.1114243419
 20
24.8194783563
 11
9.7124877333
 21
25.1665248254
  0
LINE
  5
24E
100
AcDbEntity
  8
0
100
AcDbLine
 62
7
  6
CONTINUOUS
 10
3.6039553578
 20
21.6395228131
 11
4.2050380756
 21
21.9865924176
  0
LINE
  5
24F
100
AcDbEntity
  8
0
100
AcDbLine
 62
7
  6
CONTINUOUS
 10
5.5706583184
 20
22.7750724539
 11
6.1717191158
 21
23.122129402
  0
LINE
  5
250
100
AcDbEntity
  8
0
100
AcDbLine
 62
7
  6
CONTINUOUS
 10
7.9420995355
 20
24.1443248682
 11
8.5431457195
 21
24.4913722898
  0
LINE
  5
251
100
AcDbEntity
  8
0
100
AcDbLine
 62
7
  6
CONTINUOUS
 10
10.1131938325
 20
25.3978875051
 11
10.7142548657
 21
25.7449435005
  0
LINE
  5
252
100
AcDbEntity
  8
0
100
AcDbLine
 62
7
  6
CONTINUOUS
 10
14.7728879836
 20
28.0883473961
 11
15.4498899281
 21
28.4792518106
  0
LINE
  5
253
100
AcDbEntity
  8
DRAFT
100
AcDbLine
 62
7
  6
CONTINUOUS
 10
-12.623136096
 20
16.1598217694
 11
-12.5631884459
 21
8.1934564317
  0
LINE
  5
254
100
AcDbEntity
  8
DRAFT
100
AcDbLine
 62
7
  6
CONTINUOUS
 10
-11.5656244976
 20
1.5293774254
 11
-11.6394667622
 21
15.652596357
  0
LINE
  5
255
100
AcDbEntity
  8
DRAFT
100
AcDbLine
 62
7
  6
CONTINUOUS
 10
-12.7168245384
 20
5.3022735703
 11
-12.7168245384
 21
16.2117189373
  0
LINE
  5
256
100
AcDbEntity
  8
0
100
AcDbLine
 62
7
  6
CONTINUOUS
 10
-12.6572213496
 20
5.7982601116
 11
-12.6572213496
 21
6.4106128192
  0
LINE
  5
257
100
AcDbEntity
  8
0
100
AcDbLine
 62
7
  6
CONTINUOUS
 10
-12.303667959
 20
7.6353379618
 11
-12.303667959
 21
7.321834117
  0
LINE
  5
258
100
AcDbEntity
  8
0
100
AcDbLine
 62
7
  6
CONTINUOUS
 10
-9.1175243877
 20
0.5567773296
 11
-9.1175243877
 21
-0.4468458244
  0
LINE
  5
259
100
AcDbEntity
  8
DRAFT
100
AcDbLine
 62
7
  6
CONTINUOUS
 10
-12.257513672
 20
5.5674739081
 11
-12.2528855515
 21
6.1771543969
  0
LINE
  5
25A
100
AcDbEntity
  8
DRAFT
100
AcDbLine
 62
7
  6
CONTINUOUS
 10
-12.5631884459
 20
8.1934564317
 11
-12.7168245384
 21
8.1047488774
  0
LINE
  5
25B
100
AcDbEntity
  8
0
100
AcDbLine
 62
7
  6
CONTINUOUS
 10
-12.1469109866
 20
7.7258474731
 11
-12.303667959
 21
7.6353379618
  0
LINE
  5
25C
100
AcDbEntity
  8
0
100
AcDbLine
 62
7
  6
CONTINUOUS
 10
-16.3505697216
 20
4.972383841
 11
-16.3175295801
 21
4.9914608047
  0
LINE
  5
25D
100
AcDbEntity
  8
DRAFT
100
AcDbLine
 62
7
  6
CONTINUOUS
 10
-11.7348616542
 20
7.4879353528
 11
-11.5971939972
 21
7.5674229326
  0
LINE
  5
25E
100
AcDbEntity
  8
RACCORDO
100
AcDbLine
 62
250
  6
CONTINUOUS
 10
5.0329852559
 20
15.8844172957
 11
16.6527553524
 21
22.5935269194
  0
LINE
  5
25F
100
AcDbEntity
  8
DRAFT
100
AcDbLine
 62
7
  6
CONTINUOUS
 10
-12.7168245384
 20
5.3022735703
 11
-12.257513672
 21
5.5674739081
  0
LINE
  5
260
100
AcDbEntity
  8
RACCORDO
100
AcDbLine
 62
250
  6
CONTINUOUS
 10
5.286184524
 20
15.0543626118
 11
16.906118055
 21
21.7635666006
  0
LINE
  5
261
100
AcDbEntity
  8
DRAFT
100
AcDbLine
 62
7
  6
CONTINUOUS
 10
-14.181919588
 20
3.0399934207
 11
-11.5813732554
 21
4.5415162806
  0
LINE
  5
262
100
AcDbEntity
  8
0
100
AcDbLine
 62
7
  6
CONTINUOUS
 10
-8.2192366331
 20
0.3210304367
 11
-8.218841738
 21
0.2772260178
  0
LINE
  5
263
100
AcDbEntity
  8
0
100
AcDbLine
 62
7
  6
CONTINUOUS
 10
-6.0500099664
 20
44.9906272449
 11
-6.0500099664
 21
44.3161529856
  0
LINE
  5
264
100
AcDbEntity
  8
0
100
AcDbLine
 62
7
  6
CONTINUOUS
 10
-5.3000099664
 20
46.2140556724
 11
-5.3000099664
 21
45.7488903604
  0
LINE
  5
265
100
AcDbEntity
  8
RACCORDO
100
AcDbLine
 62
7
  6
CONTINUOUS
 10
-4.2780059926
 20
41.846091696
 11
-4.2780059926
 21
42.5205659507
  0
LINE
  5
266
100
AcDbEntity
  8
RACCORDO
100
AcDbLine
 62
7
  6
CONTINUOUS
 10
-3.7476759067
 20
43.5850350158
 11
-3.7476759067
 21
44.0502003278
  0
LINE
  5
267
100
AcDbEntity
  8
RACCORDO
100
AcDbLine
 62
250
  6
CONTINUOUS
 10
-1.3435128506
 20
46.0930173766
 11
-1.3435128506
 21
44.6923675519
  0
LINE
  5
268
100
AcDbEntity
  8
RACCORDO
100
AcDbLine
 62
250
  6
CONTINUOUS
 10
-0.9192487819
 20
46.1403360239
 11
-0.9192487819
 21
44.8671440638
  0
LINE
  5
269
100
AcDbEntity
  8
RACCORDO
100
AcDbLine
 62
250
  6
CONTINUOUS
 10
-0.6364060695
 20
45.0304539011
 11
-0.6364060695
 21
46.1624492739
  0
LINE
  5
26A
100
AcDbEntity
  8
RACCORDO
100
AcDbLine
 62
7
  6
CONTINUOUS
 10
-0.5485381038
 20
45.0811877632
 11
-0.5485381038
 21
46.1668879116
  0
LINE
  5
26B
100
AcDbEntity
  8
0
100
AcDbLine
 62
7
  6
CONTINUOUS
 10
12.4925756537
 20
9.1183074294
 11
10.2298339539
 21
7.8118287308
  0
LINE
  5
26C
100
AcDbEntity
  8
DRAFT
100
AcDbLine
 62
7
  6
CONTINUOUS
 10
-12.6572213496
 20
5.7982601116
 11
-12.257513672
 21
5.5674739081
  0
LINE
  5
26D
100
AcDbEntity
  8
DRAFT
100
AcDbLine
 62
7
  6
CONTINUOUS
 10
-12.7168245384
 20
6.2409488391
 11
-12.6572213496
 21
6.2065347049
  0
LINE
  5
26E
100
AcDbEntity
  8
DRAFT
100
AcDbLine
 62
7
  6
CONTINUOUS
 10
-12.2528855515
 20
6.1771543969
 11
-12.6572213496
 21
6.4106128192
  0
LINE
  5
26F
100
AcDbEntity
  8
DRAFT
100
AcDbLine
 62
7
  6
CONTINUOUS
 10
-12.303667959
 20
7.6353379618
 11
-12.7168245384
 21
7.8738893927
  0
LINE
  5
270
100
AcDbEntity
  8
DRAFT
100
AcDbLine
 62
7
  6
CONTINUOUS
 10
-11.7348616542
 20
7.4879353528
 11
-12.1469109866
 21
7.7258474731
  0
LINE
  5
271
100
AcDbEntity
  8
RACCORDO
100
AcDbLine
 62
250
  6
CONTINUOUS
 10
-0.1568035947
 20
21.7924745841
 11
-0.157687701
 21
21.8027131574
  0
LINE
  5
272
100
AcDbEntity
  8
RACCORDO
100
AcDbLine
 62
250
  6
CONTINUOUS
 10
-0.1530660327
 20
21.7929023581
 11
-0.1539183949
 21
21.8031397321
  0
LINE
  5
273
100
AcDbEntity
  8
RACCORDO
100
AcDbLine
 62
250
  6
CONTINUOUS
 10
4.7275341442
 20
14.2729800348
 11
4.7104052677
 21
14.8612484089
  0
LINE
  5
274
100
AcDbEntity
  8
RACCORDO
100
AcDbLine
 62
250
  6
CONTINUOUS
 10
4.7270383618
 20
14.2734862884
 11
4.7104052677
 21
14.8612484089
  0
LINE
  5
275
100
AcDbEntity
  8
RACCORDO
100
AcDbLine
 62
250
  6
CONTINUOUS
 10
4.8344661497
 20
9.901902883
 11
4.8320521476
 21
10.0198991078
  0
LINE
  5
276
100
AcDbEntity
  8
RACCORDO
100
AcDbLine
 62
250
  6
CONTINUOUS
 10
4.902262072
 20
5.7088735064
 11
4.9012303704
 21
5.7922742876
  0
LINE
  5
277
100
AcDbEntity
  8
RACCORDO
100
AcDbLine
 62
250
  6
CONTINUOUS
 10
4.9029696506
 20
5.7081910784
 11
4.9019390925
 21
5.7915875885
  0
LINE
  5
278
100
AcDbEntity
  8
0
100
AcDbLine
 62
7
  6
CONTINUOUS
 10
2.8284171584
 20
48.5003302672
 11
2.8284171584
 21
47.520565935
  0
LINE
  5
279
100
AcDbEntity
  8
0
100
AcDbLine
 62
7
  6
CONTINUOUS
 10
4.3175044549
 20
-0.5472001991
 11
4.3175044549
 21
-8.2040630976
  0
LINE
  5
27A
100
AcDbEntity
  8
0
100
AcDbLine
 62
7
  6
CONTINUOUS
 10
5.2999900336
 20
45.7488903605
 11
5.2999900336
 21
46.2140556724
  0
LINE
  5
27B
100
AcDbEntity
  8
RACCORDO
100
AcDbLine
 62
7
  6
CONTINUOUS
 10
17.2878467201
 20
6.536853194
 11
14.166910333
 21
4.7348636386
  0
LINE
  5
27C
100
AcDbEntity
  8
RACCORDO
100
AcDbLine
 62
7
  6
CONTINUOUS
 10
9.9136271058
 20
2.2790712094
 11
5.5092559725
 21
-0.2639574833
  0
LINE
  5
27D
100
AcDbEntity
  8
DRAFT
100
AcDbLine
 62
7
  6
CONTINUOUS
 10
-12.5631884459
 20
8.1934564317
 11
-11.5975520775
 21
7.6359100949
  0
LINE
  5
27E
100
AcDbEntity
  8
0
100
AcDbLine
 62
7
  6
CONTINUOUS
 10
6.0499900336
 20
44.3161529856
 11
6.0499900336
 21
44.990627245
  0
LINE
  5
27F
100
AcDbEntity
  8
0
100
AcDbLine
 62
7
  6
CONTINUOUS
 10
9.1175044549
 20
1.8193999685
 11
9.1175044549
 21
-8.2040630976
  0
LINE
  5
280
100
AcDbEntity
  8
0
100
AcDbLine
 62
7
  6
CONTINUOUS
 10
-12.7538314032
 20
17.708087051
 11
-12.7679677711
 21
17.7160691823
  0
LINE
  5
281
100
AcDbEntity
  8
0
100
AcDbLine
 62
7
  6
CONTINUOUS
 10
-12.7549176198
 20
17.7074463553
 11
-12.7690410142
 21
17.715437511
  0
LINE
  5
282
100
AcDbEntity
  8
RACCORDO
100
AcDbLine
 62
7
  6
CONTINUOUS
 10
9.9136271058
 20
2.2790712094
 11
11.0506152426
 21
1.622588509
  0
LINE
  5
283
100
AcDbEntity
  8
0
100
AcDbLine
 62
250
  6
CONTINUOUS
 10
11.0506152426
 20
6.5214101698
 11
11.0506152426
 21
1.622588509
  0
LINE
  5
284
100
AcDbEntity
  8
0
100
AcDbLine
 62
250
  6
CONTINUOUS
 10
11.7245107287
 20
6.5038871155
 11
11.7245107287
 21
1.6050654547
  0
LINE
  5
285
100
AcDbEntity
  8
0
100
AcDbLine
 62
250
  6
CONTINUOUS
 10
14.0508125886
 20
7.847064654
 11
14.0508125886
 21
2.9482429932
  0
LINE
  5
286
100
AcDbEntity
  8
RACCORDO
100
AcDbLine
 62
7
  6
CONTINUOUS
 10
14.166910333
 20
8.0320261651
 11
14.166910333
 21
3.1332045043
  0
LINE
  5
287
100
AcDbEntity
  8
0
100
AcDbLine
 62
250
  6
CONTINUOUS
 10
13.9168455051
 20
8.4650762707
 11
13.916922413
 21
8.4650318923
  0
LINE
  5
288
100
AcDbEntity
  8
0
100
AcDbLine
 62
250
  6
CONTINUOUS
 10
9.8818055106
 20
7.1962662604
 11
11.0506152426
 21
6.5214101698
  0
LINE
  5
289
100
AcDbEntity
  8
0
100
AcDbLine
 62
250
  6
CONTINUOUS
 10
10.2298339539
 20
7.8118287308
 11
11.4041686332
 21
7.1337826048
  0
LINE
  5
28A
100
AcDbEntity
  8
0
100
AcDbLine
 62
250
  6
CONTINUOUS
 10
13.666910333
 20
8.4402613035
 11
12.4925756537
 21
9.1183074294
  0
LINE
  5
28B
100
AcDbEntity
  8
0
100
AcDbLine
 62
7
  6
CONTINUOUS
 10
13.916922413
 20
8.4650318923
 11
12.7442519268
 21
9.1421171341
  0
LINE
  5
28C
100
AcDbEntity
  8
ASSI
100
AcDbLine
 62
7
  6
CONTINUOUS
 10
1.2070831506
 20
46.0948614724
 11
1.2024691831
 21
46.1109931826
  0
LINE
  5
28D
100
AcDbEntity
  8
ASSI
100
AcDbLine
 62
7
  6
CONTINUOUS
 10
1.2078282729
 20
46.0955339864
 11
1.2032388266
 21
46.1116881874
  0
LINE
  5
28E
100
AcDbEntity
  8
0
100
AcDbLine
 62
7
  6
CONTINUOUS
 10
3.6039553578
 20
21.6395228131
 11
3.566693426
 21
21.6610373855
  0
LINE
  5
28F
100
AcDbEntity
  8
0
100
AcDbLine
 62
7
  6
CONTINUOUS
 10
5.5706583184
 20
22.7750724539
 11
5.5333963866
 21
22.7965870264
  0
LINE
  5
290
100
AcDbEntity
  8
0
100
AcDbLine
 62
7
  6
CONTINUOUS
 10
2.1505562415
 20
24.8346059962
 11
2.1152009001
 21
24.8550197272
  0
LINE
  5
291
100
AcDbEntity
  8
0
100
AcDbLine
 62
7
  6
CONTINUOUS
 10
2.751626704
 20
25.1816565481
 11
2.7162713626
 21
25.2020702791
  0
LINE
  5
292
100
AcDbEntity
  8
0
100
AcDbLine
 62
7
  6
CONTINUOUS
 10
6.7727669509
 20
23.469166889
 11
6.7355050298
 21
23.4906814553
  0
LINE
  5
293
100
AcDbEntity
  8
RACCORDO
100
AcDbLine
 62
250
  6
CONTINUOUS
 10
-9.9501013216
 20
39.247639765
 11
-9.9428711545
 21
39.2417099211
  0
LINE
  5
294
100
AcDbEntity
  8
0
100
AcDbLine
 62
7
  6
CONTINUOUS
 10
4.080400554
 20
25.9488739156
 11
4.0450452126
 21
25.9692876466
  0
LINE
  5
295
100
AcDbEntity
  8
0
100
AcDbLine
 62
7
  6
CONTINUOUS
 10
7.9420995355
 20
24.1443248682
 11
7.9048376143
 21
24.1658394344
  0
LINE
  5
296
100
AcDbEntity
  8
0
100
AcDbLine
 62
7
  6
CONTINUOUS
 10
4.6814710165
 20
26.2959244675
 11
4.6461156751
 21
26.3163381985
  0
LINE
  5
297
100
AcDbEntity
  8
0
100
AcDbLine
 62
7
  6
CONTINUOUS
 10
5.0821771157
 20
26.5272871471
 11
5.0468217743
 21
26.5477008782
  0
LINE
  5
298
100
AcDbEntity
  8
0
100
AcDbLine
 62
7
  6
CONTINUOUS
 10
9.1114243419
 20
24.8194783563
 11
9.0741624207
 21
24.8409929226
  0
LINE
  5
299
100
AcDbEntity
  8
0
100
AcDbLine
 62
7
  6
CONTINUOUS
 10
5.6832405071
 20
26.8743336162
 11
5.6478851657
 21
26.8947473473
  0
LINE
  5
29A
100
AcDbEntity
  8
0
100
AcDbLine
 62
7
  6
CONTINUOUS
 10
6.2842812711
 20
27.2213670206
 11
6.2489259297
 21
27.2417807516
  0
LINE
  5
29B
100
AcDbEntity
  8
0
100
AcDbLine
 62
7
  6
CONTINUOUS
 10
10.1131938325
 20
25.3978875051
 11
10.0759319113
 21
25.4194020713
  0
LINE
  5
29C
100
AcDbEntity
  8
0
100
AcDbLine
 62
7
  6
CONTINUOUS
 10
7.1929276271
 20
27.7460080385
 11
7.1575722857
 21
27.7664217695
  0
LINE
  5
29D
100
AcDbEntity
  8
RACCORDO
100
AcDbLine
 62
250
  6
CONTINUOUS
 10
-9.9503630332
 20
39.2475275261
 11
-9.9428711545
 21
39.2417099211
  0
LINE
  5
29E
100
AcDbEntity
  8
0
100
AcDbLine
 62
7
  6
CONTINUOUS
 10
8.3153556975
 20
28.394083939
 11
8.2800003561
 21
28.4144976701
  0
LINE
  5
29F
100
AcDbEntity
  8
0
100
AcDbLine
 62
7
  6
CONTINUOUS
 10
12.0430357868
 20
26.5121649507
 11
12.0057738754
 21
26.5336795114
  0
LINE
  5
2A0
100
AcDbEntity
  8
0
100
AcDbLine
 62
7
  6
CONTINUOUS
 10
9.2240020535
 20
28.918724957
 11
9.1886467121
 21
28.939138688
  0
LINE
  5
2A1
100
AcDbEntity
  8
0
100
AcDbLine
 62
7
  6
CONTINUOUS
 10
11.3624838094
 20
27.8160185311
 11
11.3264450619
 21
27.8368268523
  0
LINE
  5
2A2
100
AcDbEntity
  8
0
100
AcDbLine
 62
7
  6
CONTINUOUS
 10
13.0448130556
 20
27.0905785905
 11
13.0075511442
 21
27.1120931512
  0
LINE
  5
2A3
100
AcDbEntity
  8
0
100
AcDbLine
 62
7
  6
CONTINUOUS
 10
10.5896119213
 20
29.707219964
 11
10.5542565799
 21
29.727633695
  0
LINE
  5
2A4
100
AcDbEntity
  8
0
100
AcDbLine
 62
7
  6
CONTINUOUS
 10
11.1907050112
 20
30.0542835806
 11
11.1553496698
 21
30.0746973116
  0
LINE
  5
2A5
100
AcDbEntity
  8
0
100
AcDbLine
 62
7
  6
CONTINUOUS
 10
14.7728879836
 20
28.0883473961
 11
14.7356260722
 21
28.1098619568
  0
LINE
  5
2A6
100
AcDbEntity
  8
0
100
AcDbLine
 62
7
  6
CONTINUOUS
 10
12.5563297311
 20
30.8427781786
 11
12.5209743897
 21
30.8631919096
  0
LINE
  5
2A7
100
AcDbEntity
  8
0
100
AcDbLine
 62
7
  6
CONTINUOUS
 10
13.9683899604
 20
30.0700463035
 11
13.9327053769
 21
30.0906501348
  0
LINE
  5
2A8
100
AcDbEntity
  8
0
100
AcDbLine
 62
7
  6
CONTINUOUS
 10
13.963816586
 20
31.6554434494
 11
13.9284612453
 21
31.6758571801
  0
LINE
  5
2A9
100
AcDbEntity
  8
RACCORDO
100
AcDbLine
 62
7
  6
CONTINUOUS
 10
-2.341319386
 20
45.0156205051
 11
-2.2324214313
 21
44.9527441909
  0
LINE
  5
2AA
100
AcDbEntity
  8
RACCORDO
100
AcDbLine
 62
250
  6
CONTINUOUS
 10
-2.4617585175
 20
45.1866115355
 11
-1.805768581
 21
44.8078511677
  0
ARC
  5
2AB
100
AcDbEntity
  8
RACCORDO
100
AcDbCircle
 62
250
  6
CONTINUOUS
 10
-526.922427207
 20
-0.9199599288
 40
531.8670010721
100
AcDbArc
 50
1.1785877977
 51
1.6368937412
  0
ARC
  5
2AC
100
AcDbEntity
  8
RACCORDO
100
AcDbCircle
 62
250
  6
CONTINUOUS
 10
-513.5589045478
 20
-0.6635027686
 40
518.5010265947
100
AcDbArc
 50
0.7133235411
 51
1.1675869891
  0
ARC
  5
2AD
100
AcDbEntity
  8
RACCORDO
100
AcDbCircle
 62
250
  6
CONTINUOUS
 10
-496.0154209263
 20
-0.4631748467
 40
500.9564050649
100
AcDbArc
 50
0.0008283395
 51
0.7058541662
  0
ARC
  5
2AE
100
AcDbEntity
  8
0
100
AcDbCircle
 62
7
  6
CONTINUOUS
 10
-372.1434409443
 20
2.265291915
 40
382.0570682986
100
AcDbArc
 50
0.0020664332
 51
0.7395017302
  0
ARC
  5
2AF
100
AcDbEntity
  8
0
100
AcDbCircle
 62
7
  6
CONTINUOUS
 10
-254.356766136
 20
9.7184634235
 40
272.6567561703
100
AcDbArc
 50
359.9998677967
 51
3.3344462152
  0
ARC
  5
2B0
100
AcDbEntity
  8
0
100
AcDbCircle
 62
7
  6
CONTINUOUS
 10
341.7364873778
 20
3.321635596
 40
358.0908619777
100
AcDbArc
 50
179.048500668
 51
179.7358736217
  0
ARC
  5
2B1
100
AcDbEntity
  8
ASSI
100
AcDbCircle
 62
7
  6
CONTINUOUS
 10
254.3567462032
 20
9.7184634235
 40
272.6567561703
100
AcDbArc
 50
176.6655537848
 51
180.0001322033
  0
ARC
  5
2B2
100
AcDbEntity
  8
RACCORDO
100
AcDbCircle
 62
7
  6
CONTINUOUS
 10
38.5641810732
 20
-21.4810851058
 40
76.3648387235
100
AcDbArc
 50
124.2140368966
 51
125.317474737
  0
ARC
  5
2B3
100
AcDbEntity
  8
RACCORDO
100
AcDbCircle
 62
7
  6
CONTINUOUS
 10
26.1609097895
 20
1.5169034465
 40
50.1709152129
100
AcDbArc
 50
110.2883569775
 51
111.3859257489
  0
ARC
  5
2B4
100
AcDbEntity
  8
0
100
AcDbCircle
 62
7
  6
CONTINUOUS
 10
-6.7175243877
 20
0.1246833693
 40
2.5
100
AcDbArc
 50
200.0560726675
 51
339.9439273325
  0
ARC
  5
2B5
100
AcDbEntity
  8
0
100
AcDbCircle
 62
7
  6
CONTINUOUS
 10
6.7175044549
 20
-7.6325339039
 40
2.5
100
AcDbArc
 50
200.0560726675
 51
339.9439273325
  0
ARC
  5
2B6
100
AcDbEntity
  8
0
100
AcDbCircle
 62
7
  6
CONTINUOUS
 10
13.666910333
 20
8.0320261651
 40
0.5
100
AcDbArc
 50
0.0
 51
60.0085765407
  0
ARC
  5
2B7
100
AcDbEntity
  8
0
100
AcDbCircle
 62
7
  6
CONTINUOUS
 10
-8.2544599918
 20
0.5162962485
 40
0.2194667532
100
AcDbArc
 50
253.6576745777
 51
258.9761672833
  0
ARC
  5
2B8
100
AcDbEntity
  8
RACCORDO
100
AcDbCircle
 62
7
  6
CONTINUOUS
 10
-1.1175501845
 20
24.7449628053
 40
25.4774112741
100
AcDbArc
 50
253.8156421446
 51
253.9551851567
  0
ARC
  5
2B9
100
AcDbEntity
  8
RACCORDO
100
AcDbCircle
 62
7
  6
CONTINUOUS
 10
-24.3721258114
 20
38.8951939526
 40
22.7957480719
100
AcDbArc
 50
16.0210702552
 51
17.6923619217
  0
ARC
  5
2BA
100
AcDbEntity
  8
RACCORDO
100
AcDbCircle
 62
250
  6
CONTINUOUS
 10
-8.5564617175
 20
27.0367123856
 40
9.7991235425
100
AcDbArc
 50
220.4417160762
 51
221.0769546875
  0
ARC
  5
2BB
100
AcDbEntity
  8
RACCORDO
100
AcDbCircle
 62
250
  6
CONTINUOUS
 10
-8.6292120887
 20
26.9745610418
 40
9.7034397203
100
AcDbArc
 50
220.2012669544
 51
220.4410665599
  0
ARC
  5
2BC
100
AcDbEntity
  8
RACCORDO
100
AcDbCircle
 62
250
  6
CONTINUOUS
 10
7.2511681339
 20
23.908380569
 40
9.3971312784
100
AcDbArc
 50
248.5338530542
 51
254.3133317767
  0
ARC
  5
2BD
100
AcDbEntity
  8
RACCORDO
100
AcDbCircle
 62
250
  6
CONTINUOUS
 10
7.0979401159
 20
23.7439352122
 40
8.1262574692
100
AcDbArc
 50
249.3230084378
 51
255.2792065418
  0
ARC
  5
2BE
100
AcDbEntity
  8
RACCORDO
100
AcDbCircle
 62
250
  6
CONTINUOUS
 10
6.5986218775
 20
22.3808862885
 40
6.7810029969
100
AcDbArc
 50
184.9780187053
 51
186.1844750007
  0
ARC
  5
2BF
100
AcDbEntity
  8
RACCORDO
100
AcDbCircle
 62
250
  6
CONTINUOUS
 10
6.5715699211
 20
22.3780127962
 40
6.7537989168
100
AcDbArc
 50
186.1849631195
 51
186.6805288398
  0
ARC
  5
2C0
100
AcDbEntity
  8
RACCORDO
100
AcDbCircle
 62
250
  6
CONTINUOUS
 10
6.5583807021
 20
22.3764743325
 40
6.7405202749
100
AcDbArc
 50
186.6805826145
 51
187.0157343669
  0
ARC
  5
2C1
100
AcDbEntity
  8
RACCORDO
100
AcDbCircle
 62
7
  6
CONTINUOUS
 10
-6.4211339474
 20
34.8877294333
 40
4.1002549512
100
AcDbArc
 50
165.7301925254
 51
168.659986922
  0
ARC
  5
2C2
100
AcDbEntity
  8
RACCORDO
100
AcDbCircle
 62
7
  6
CONTINUOUS
 10
-6.4644532364
 20
35.5262388459
 40
3.7233315995
100
AcDbArc
 50
128.1494993651
 51
131.2896759368
  0
ARC
  5
2C3
100
AcDbEntity
  8
RACCORDO
100
AcDbCircle
 62
250
  6
CONTINUOUS
 10
-7.0584667671
 20
43.9650147749
 40
5.4272051416
100
AcDbArc
 50
208.9655726173
 51
211.0872571615
  0
ARC
  5
2C4
100
AcDbEntity
  8
RACCORDO
100
AcDbCircle
 62
250
  6
CONTINUOUS
 10
-7.1929412454
 20
43.8899748621
 40
5.2732113581
100
AcDbArc
 50
207.9080875763
 51
208.959820491
  0
ARC
  5
2C5
100
AcDbEntity
  8
RACCORDO
100
AcDbCircle
 62
250
  6
CONTINUOUS
 10
-3.4653620333
 20
44.4522070926
 40
2.7756698283
100
AcDbArc
 50
209.3597356712
 51
213.8964814895
  0
ARC
  5
2C6
100
AcDbEntity
  8
RACCORDO
100
AcDbCircle
 62
250
  6
CONTINUOUS
 10
-3.8929112933
 20
44.141912191
 40
2.3003621268
100
AcDbArc
 50
159.7551216326
 51
162.5428752427
  0
ARC
  5
2C7
100
AcDbEntity
  8
RACCORDO
100
AcDbCircle
 62
7
  6
CONTINUOUS
 10
-4.0026149756
 20
43.6097850704
 40
0.2585299775
100
AcDbArc
 50
328.8506414054
 51
333.5150672245
  0
ARC
  5
2C8
100
AcDbEntity
  8
RACCORDO
100
AcDbCircle
 62
7
  6
CONTINUOUS
 10
-4.5328831634
 20
41.8707733253
 40
0.2584455118
100
AcDbArc
 50
326.4075842765
 51
331.4710904367
  0
ARC
  5
2C9
100
AcDbEntity
  8
RACCORDO
100
AcDbCircle
 62
7
  6
CONTINUOUS
 10
-4.5298110419
 20
41.8692283053
 40
0.2550085377
100
AcDbArc
 50
331.4464127707
 51
336.5551134299
  0
ARC
  5
2CA
100
AcDbEntity
  8
RACCORDO
100
AcDbCircle
 62
7
  6
CONTINUOUS
 10
-3.9995780159
 20
43.6079194759
 40
0.2549658649
100
AcDbArc
 50
325.9622353125
 51
328.8564135423
  0
ARC
  5
2CB
100
AcDbEntity
  8
RACCORDO
100
AcDbCircle
 62
7
  6
CONTINUOUS
 10
-3.9957919582
 20
43.6064805548
 40
0.2509493488
100
AcDbArc
 50
333.4956381309
 51
338.2534609286
  0
ARC
  5
2CC
100
AcDbEntity
  8
RACCORDO
100
AcDbCircle
 62
7
  6
CONTINUOUS
 10
-4.5256198595
 20
41.8659381319
 40
0.2497199978
100
AcDbArc
 50
323.1951018774
 51
326.4096582653
  0
ARC
  5
2CD
100
AcDbEntity
  8
RACCORDO
100
AcDbCircle
 62
7
  6
CONTINUOUS
 10
-4.5170513755
 20
41.8636737671
 40
0.2410923031
100
AcDbArc
 50
336.5597063295
 51
339.8501456976
  0
ARC
  5
2CE
100
AcDbEntity
  8
RACCORDO
100
AcDbCircle
 62
7
  6
CONTINUOUS
 10
-3.9817812934
 20
43.6008552666
 40
0.2358516216
100
AcDbArc
 50
338.261715096
 51
341.3099886187
  0
ARC
  5
2CF
100
AcDbEntity
  8
RACCORDO
100
AcDbCircle
 62
250
  6
CONTINUOUS
 10
-3.1642170102
 20
48.1612190195
 40
11.2065603645
100
AcDbArc
 50
237.6369420608
 51
240.0182070289
  0
ARC
  5
2D0
100
AcDbEntity
  8
RACCORDO
100
AcDbCircle
 62
250
  6
CONTINUOUS
 10
-3.3978254989
 20
47.7906827603
 40
10.7685318661
100
AcDbArc
 50
236.870173623
 51
237.6315220977
  0
ARC
  5
2D1
100
AcDbEntity
  8
RACCORDO
100
AcDbCircle
 62
250
  6
CONTINUOUS
 10
-3.5302646186
 20
47.5877789839
 40
10.5262302716
100
AcDbArc
 50
236.0904292666
 51
236.8702522469
  0
ARC
  5
2D2
100
AcDbEntity
  8
RACCORDO
100
AcDbCircle
 62
250
  6
CONTINUOUS
 10
-3.6883892162
 20
47.3529404819
 40
10.243118171
100
AcDbArc
 50
235.045745341
 51
236.0916489009
  0
ARC
  5
2D3
100
AcDbEntity
  8
RACCORDO
100
AcDbCircle
 62
250
  6
CONTINUOUS
 10
-4.0664677427
 20
46.820224953
 40
9.5898908829
100
AcDbArc
 50
232.2098922005
 51
235.0736602753
  0
ARC
  5
2D4
100
AcDbEntity
  8
RACCORDO
100
AcDbCircle
 62
250
  6
CONTINUOUS
 10
-4.370380238
 20
46.4264573912
 40
9.0924827194
100
AcDbArc
 50
231.0764984587
 51
232.1430688141
  0
ARC
  5
2D5
100
AcDbEntity
  8
RACCORDO
100
AcDbCircle
 62
250
  6
CONTINUOUS
 10
-3.4567761403
 20
45.5991879572
 40
1.9648339071
100
AcDbArc
 50
159.5253748825
 51
166.2429408037
  0
ARC
  5
2D6
100
AcDbEntity
  8
RACCORDO
100
AcDbCircle
 62
250
  6
CONTINUOUS
 10
-3.5341085316
 20
45.6184939546
 40
1.8851289284
100
AcDbArc
 50
166.2539459732
 51
170.1640254278
  0
ARC
  5
2D7
100
AcDbEntity
  8
0
100
AcDbCircle
 62
7
  6
CONTINUOUS
 10
0.5308690876
 20
41.291851336
 40
6.4192945846
100
AcDbArc
 50
69.7922357185
 51
70.0544725024
  0
ARC
  5
2D8
100
AcDbEntity
  8
RACCORDO
100
AcDbCircle
 62
7
  6
CONTINUOUS
 10
0.9287472896
 20
44.1405876193
 40
5.3133818916
100
AcDbArc
 50
60.0429278838
 51
63.556967063
  0
ARC
  5
2D9
100
AcDbEntity
  8
RACCORDO
100
AcDbCircle
 62
7
  6
CONTINUOUS
 10
-2.3765873729
 20
43.9118073797
 40
1.3918508988
100
AcDbArc
 50
148.2692336852
 51
151.7308198761
  0
ARC
  5
2DA
100
AcDbEntity
  8
RACCORDO
100
AcDbCircle
 62
7
  6
CONTINUOUS
 10
-2.9118313613
 20
42.3852451034
 40
1.3860767361
100
AcDbArc
 50
150.8991793987
 51
151.9792720629
  0
ARC
  5
2DB
100
AcDbEntity
  8
RACCORDO
100
AcDbCircle
 62
7
  6
CONTINUOUS
 10
-2.9148725835
 20
42.3869674313
 40
1.3825817715
100
AcDbArc
 50
148.9928774573
 51
150.9002493397
  0
ARC
  5
2DC
100
AcDbEntity
  8
RACCORDO
100
AcDbCircle
 62
7
  6
CONTINUOUS
 10
-2.3858777699
 20
43.9167547519
 40
1.3813262348
100
AcDbArc
 50
151.7301984098
 51
153.2326333449
  0
ARC
  5
2DD
100
AcDbEntity
  8
RACCORDO
100
AcDbCircle
 62
7
  6
CONTINUOUS
 10
-2.3855506038
 20
43.9173674375
 40
1.3813032201
100
AcDbArc
 50
146.7673872694
 51
148.269854691
  0
ARC
  5
2DE
100
AcDbEntity
  8
RACCORDO
100
AcDbCircle
 62
7
  6
CONTINUOUS
 10
-2.9168336597
 20
42.3878737108
 40
1.380425923
100
AcDbArc
 50
151.978045209
 51
153.8392896682
  0
ARC
  5
2DF
100
AcDbEntity
  8
RACCORDO
100
AcDbCircle
 62
7
  6
CONTINUOUS
 10
-2.9292260614
 20
42.3939725557
 40
1.366614065
100
AcDbArc
 50
153.8397253991
 51
154.9992741884
  0
ARC
  5
2E0
100
AcDbEntity
  8
RACCORDO
100
AcDbCircle
 62
7
  6
CONTINUOUS
 10
-2.4059735834
 20
43.9268287624
 40
1.3588468172
100
AcDbArc
 50
153.2302708968
 51
155.2020932887
  0
ARC
  5
2E1
100
AcDbEntity
  8
RACCORDO
100
AcDbCircle
 62
7
  6
CONTINUOUS
 10
-2.4043346032
 20
43.9297416206
 40
1.3588097578
100
AcDbArc
 50
144.7978581753
 51
146.7697504418
  0
ARC
  5
2E2
100
AcDbEntity
  8
RACCORDO
100
AcDbCircle
 62
7
  6
CONTINUOUS
 10
-2.9484349644
 20
42.4028776313
 40
1.3454414406
100
AcDbArc
 50
154.9972487549
 51
156.7034568371
  0
ARC
  5
2E3
100
AcDbEntity
  8
RACCORDO
100
AcDbCircle
 62
7
  6
CONTINUOUS
 10
-2.9525212155
 20
42.4115869768
 40
1.3376314685
100
AcDbArc
 50
140.402563362
 51
149.0659948022
  0
ARC
  5
2E4
100
AcDbEntity
  8
RACCORDO
100
AcDbCircle
 62
7
  6
CONTINUOUS
 10
-2.9758024596
 20
42.4146767856
 40
1.315638762
100
AcDbArc
 50
156.7040490713
 51
158.0657138102
  0
ARC
  5
2E5
100
AcDbEntity
  8
RACCORDO
100
AcDbCircle
 62
7
  6
CONTINUOUS
 10
-3.0110042098
 20
42.4587810165
 40
1.2624872221
100
AcDbArc
 50
139.7590728678
 51
140.3611979235
  0
ARC
  5
2E6
100
AcDbEntity
  8
RACCORDO
100
AcDbCircle
 62
7
  6
CONTINUOUS
 10
-3.022802667
 20
42.4687805015
 40
1.247021351
100
AcDbArc
 50
138.7278073941
 51
139.7595835409
  0
ARC
  5
2E7
100
AcDbEntity
  8
RACCORDO
100
AcDbCircle
 62
250
  6
CONTINUOUS
 10
-1.2051081982
 20
47.863885132
 40
6.1640553569
100
AcDbArc
 50
242.4508908545
 51
242.6091107504
  0
ARC
  5
2E8
100
AcDbEntity
  8
RACCORDO
100
AcDbCircle
 62
250
  6
CONTINUOUS
 10
-1.2184109423
 20
47.8383815254
 40
6.1352908485
100
AcDbArc
 50
242.3076530979
 51
242.4508793555
  0
ARC
  5
2E9
100
AcDbEntity
  8
RACCORDO
100
AcDbCircle
 62
250
  6
CONTINUOUS
 10
-1.3449125204
 20
47.6020077617
 40
5.8672044577
100
AcDbArc
 50
240.0057366501
 51
242.3287760757
  0
ARC
  5
2EA
100
AcDbEntity
  8
RACCORDO
100
AcDbCircle
 62
250
  6
CONTINUOUS
 10
-1.4900473417
 20
46.6645694459
 40
5.7692458059
100
AcDbArc
 50
239.2780919243
 51
239.9996853938
  0
ARC
  5
2EB
100
AcDbEntity
  8
RACCORDO
100
AcDbCircle
 62
250
  6
CONTINUOUS
 10
-0.9205795941
 20
49.0005817861
 40
5.701374271
100
AcDbArc
 50
243.5025757787
 51
245.2802718513
  0
ARC
  5
2EC
100
AcDbEntity
  8
RACCORDO
100
AcDbCircle
 62
250
  6
CONTINUOUS
 10
-1.0493572925
 20
48.742299447
 40
5.4127682037
100
AcDbArc
 50
241.74476729
 51
243.5027403485
  0
ARC
  5
2ED
100
AcDbEntity
  8
RACCORDO
100
AcDbCircle
 62
250
  6
CONTINUOUS
 10
-1.184168004
 20
48.4914727152
 40
5.128008696
100
AcDbArc
 50
240.0064047269
 51
241.7448374055
  0
ARC
  5
2EE
100
AcDbEntity
  8
RACCORDO
100
AcDbCircle
 62
250
  6
CONTINUOUS
 10
-1.2002450709
 20
47.9977785103
 40
5.0952633897
100
AcDbArc
 50
240.002608022
 51
241.2861418406
  0
ARC
  5
2EF
100
AcDbEntity
  8
RACCORDO
100
AcDbCircle
 62
250
  6
CONTINUOUS
 10
-1.3274375877
 20
47.7544464838
 40
5.0083599875
100
AcDbArc
 50
238.6850162551
 51
240.0027125366
  0
ARC
  5
2F0
100
AcDbEntity
  8
RACCORDO
100
AcDbCircle
 62
250
  6
CONTINUOUS
 10
-0.0886855897
 20
56.7930895534
 40
20.4306226236
100
AcDbArc
 50
262.2489094177
 51
262.7019669855
  0
ARC
  5
2F1
100
AcDbEntity
  8
RACCORDO
100
AcDbCircle
 62
250
  6
CONTINUOUS
 10
3.1732819095
 20
48.1505793013
 40
11.192732257
100
AcDbArc
 50
301.3471320734
 51
301.5424855868
  0
ARC
  5
2F2
100
AcDbEntity
  8
RACCORDO
100
AcDbCircle
 62
250
  6
CONTINUOUS
 10
5.8110968792
 20
44.4723550347
 40
9.8925638225
100
AcDbArc
 50
311.2665629415
 51
312.0514910437
  0
ARC
  5
2F3
100
AcDbEntity
  8
RACCORDO
100
AcDbCircle
 62
7
  6
CONTINUOUS
 10
1.203006047
 20
44.6166673396
 40
4.7639551432
100
AcDbArc
 50
56.1807412547
 51
60.0415669092
  0
ARC
  5
2F4
100
AcDbEntity
  8
RACCORDO
100
AcDbCircle
 62
7
  6
CONTINUOUS
 10
1.3131633515
 20
44.7831979234
 40
4.5642913199
100
AcDbArc
 50
55.8051377027
 51
56.1660750587
  0
ARC
  5
2F5
100
AcDbEntity
  8
RACCORDO
100
AcDbCircle
 62
250
  6
CONTINUOUS
 10
1.3022929124
 20
45.4477944426
 40
3.7615024835
100
AcDbArc
 50
55.3995827064
 51
55.7795645915
  0
ARC
  5
2F6
100
AcDbEntity
  8
RACCORDO
100
AcDbCircle
 62
250
  6
CONTINUOUS
 10
1.3042998275
 20
45.4507608246
 40
3.7579209959
100
AcDbArc
 50
55.7794311697
 51
59.9999449942
  0
ARC
  5
2F7
100
AcDbEntity
  8
RACCORDO
100
AcDbCircle
 62
250
  6
CONTINUOUS
 10
3.8895150177
 20
44.1407115003
 40
2.3039490165
100
AcDbArc
 50
17.8438141123
 51
20.2970412412
  0
ARC
  5
2F8
100
AcDbEntity
  8
RACCORDO
100
AcDbCircle
 62
250
  6
CONTINUOUS
 10
3.953380076
 20
44.1612215801
 40
2.2368713985
100
AcDbArc
 50
14.7564241917
 51
17.8449998688
  0
ARC
  5
2F9
100
AcDbEntity
  8
RACCORDO
100
AcDbCircle
 62
250
  6
CONTINUOUS
 10
4.0473575478
 20
44.1847262685
 40
2.1400070021
100
AcDbArc
 50
8.1410917275
 51
14.788755902
  0
ARC
  5
2FA
100
AcDbEntity
  8
RACCORDO
100
AcDbCircle
 62
250
  6
CONTINUOUS
 10
3.4376180674
 20
45.5934467126
 40
1.984775257
100
AcDbArc
 50
13.4231009816
 51
20.4823233633
  0
ARC
  5
2FB
100
AcDbEntity
  8
RACCORDO
100
AcDbCircle
 62
7
  6
CONTINUOUS
 10
9.4478821644
 20
46.7331596612
 40
1.96474367
100
AcDbArc
 50
105.5451855604
 51
110.3575206011
  0
ARC
  5
2FC
100
AcDbEntity
  8
RACCORDO
100
AcDbCircle
 62
250
  6
CONTINUOUS
 10
3.4048028323
 20
46.23655347
 40
1.8973190564
100
AcDbArc
 50
341.9208524263
 51
348.4387180558
  0
ARC
  5
2FD
100
AcDbEntity
  8
RACCORDO
100
AcDbCircle
 62
250
  6
CONTINUOUS
 10
3.5333941628
 20
45.6182661579
 40
1.8858549151
100
AcDbArc
 50
10.1980232512
 51
13.3651334561
  0
ARC
  5
2FE
100
AcDbEntity
  8
RACCORDO
100
AcDbCircle
 62
250
  6
CONTINUOUS
 10
3.5026271596
 20
46.2160019979
 40
1.7973607317
100
AcDbArc
 50
348.4555797424
 51
359.9379555551
  0
ARC
  5
2FF
100
AcDbEntity
  8
RACCORDO
100
AcDbCircle
 62
7
  6
CONTINUOUS
 10
3.4438432938
 20
48.5017164677
 40
0.279073177
100
AcDbArc
 50
69.6427501111
 51
75.3064690774
  0
ARC
  5
300
100
AcDbEntity
  8
RACCORDO
100
AcDbCircle
 62
7
  6
CONTINUOUS
 10
3.4462176207
 20
48.5082936039
 40
0.2720808806
100
AcDbArc
 50
65.1892193008
 51
69.629699228
  0
ARC
  5
301
100
AcDbEntity
  8
RACCORDO
100
AcDbCircle
 62
7
  6
CONTINUOUS
 10
3.4475149637
 20
48.511159387
 40
0.2689352199
100
AcDbArc
 50
60.0022457509
 51
65.183903413
  0
ARC
  5
302
100
AcDbEntity
  8
ASSI
100
AcDbCircle
 62
7
  6
CONTINUOUS
 10
51.5208108899
 20
21.8244388538
 40
69.4366608383
100
AcDbArc
 50
161.987047752
 51
164.9941880594
  0
ARC
  5
303
100
AcDbEntity
  8
0
100
AcDbCircle
 62
7
  6
CONTINUOUS
 10
27.8364116894
 20
31.2727154868
 40
14.689445549
100
AcDbArc
 50
182.884290953
 51
186.3508701724
  0
SPLINE
  5
304
100
AcDbEntity
  8
0
100
AcDbSpline
 62
7
  6
CONTINUOUS
 70
0
 71
3
 72
9
 73
5
 74
0
 42
0.0000001
 43
0.0000001
 44
0.0000000001
 40
0.0
 40
0.0
 40
0.0
 40
0.0
 40
0.5052115425
 40
1.0
 40
1.0
 40
1.0
 40
1.0
 10
-9.0659107075
 20
-0.7326647715
 30
0.0
 10
-9.0827438886
 20
-0.6865394147
 30
0.0
 10
-9.1086664601
 20
-0.5923174795
 30
0.0
 10
-9.1175239412
 20
-0.4949337785
 30
0.0
 10
-9.1175186048
 20
-0.4468458246
 30
0.0
  0
SPLINE
  5
305
100
AcDbEntity
  8
0
100
AcDbSpline
 62
7
  6
CONTINUOUS
 70
0
 71
3
 72
9
 73
5
 74
0
 42
0.0000001
 43
0.0000001
 44
0.0000000001
 40
0.0
 40
0.0
 40
0.0
 40
0.0
 40
0.2538465283
 40
1.0
 40
1.0
 40
1.0
 40
1.0
 10
-4.3691400121
 20
-0.732664534
 30
0.0
 10
-4.3635522178
 20
-0.7173661967
 30
0.0
 10
-4.343163352
 20
-0.6565227514
 30
0.0
 10
-4.3295615853
 20
-0.5933787945
 30
0.0
 10
-4.323669405
 20
-0.545869306
 30
0.0
  0
SPLINE
  5
306
100
AcDbEntity
  8
0
100
AcDbSpline
 62
7
  6
CONTINUOUS
 70
0
 71
3
 72
11
 73
7
 74
0
 42
0.0000001
 43
0.0000001
 44
0.0000000001
 40
0.0
 40
0.0
 40
0.0
 40
0.0
 40
0.2808021969
 40
0.540087191
 40
0.7786397179
 40
1.0
 40
1.0
 40
1.0
 40
1.0
 10
-5.0204681128
 20
-1.4267048484
 30
0.0
 10
-4.9418620475
 20
-1.3813186915
 30
0.0
 10
-4.7956634696
 20
-1.2848115346
 30
0.0
 10
-4.6069957686
 20
-1.1166765378
 30
0.0
 10
-4.4615128374
 20
-0.9337368878
 30
0.0
 10
-4.3936890253
 20
-0.7998751486
 30
0.0
 10
-4.3691400121
 20
-0.732664534
 30
0.0
  0
SPLINE
  5
307
100
AcDbEntity
  8
0
100
AcDbSpline
 62
7
  6
CONTINUOUS
 70
0
 71
3
 72
17
 73
13
 74
0
 42
0.0000001
 43
0.0000001
 44
0.0000000001
 40
0.0
 40
0.0
 40
0.0
 40
0.0
 40
0.1242889116
 40
0.2604951483
 40
0.4028978099
 40
0.5447829925
 40
0.6795259637
 40
0.8016226131
 40
0.8569281505
 40
0.9081937534
 40
0.9556742208
 40
1.0
 40
1.0
 40
1.0
 40
1.0
 10
-5.0204681128
 20
-1.4267048484
 30
0.0
 10
-5.1816729813
 20
-1.5197825191
 30
0.0
 10
-5.5435841012
 20
-1.6741108661
 30
0.0
 10
-6.1345769399
 20
-1.8077552976
 30
0.0
 10
-6.7655744118
 20
-1.8485468428
 30
0.0
 10
-7.393291877
 20
-1.7933988807
 30
0.0
 10
-7.9747684321
 20
-1.6462367623
 30
0.0
 10
-8.4026957713
 20
-1.4482904561
 30
0.0
 10
-8.682694026
 20
-1.2495427102
 30
0.0
 10
-8.8510788858
 20
-1.0904956239
 30
0.0
 10
-8.9815280816
 20
-0.9192088041
 30
0.0
 10
-9.0431516277
 20
-0.7950279502
 30
0.0
 10
-9.0659107075
 20
-0.7326647715
 30
0.0
  0
SPLINE
  5
308
100
AcDbEntity
  8
0
100
AcDbSpline
 62
7
  6
CONTINUOUS
 70
0
 71
3
 72
9
 73
5
 74
0
 42
0.0000001
 43
0.0000001
 44
0.0000000001
 40
0.0
 40
0.0
 40
0.0
 40
0.0
 40
0.5052115425
 40
1.0
 40
1.0
 40
1.0
 40
1.0
 10
4.369118135
 20
-8.4898820447
 30
0.0
 10
4.352284954
 20
-8.443756688
 30
0.0
 10
4.3263623824
 20
-8.3495347527
 30
0.0
 10
4.3175049014
 20
-8.2521510518
 30
0.0
 10
4.3175102378
 20
-8.2040630979
 30
0.0
  0
SPLINE
  5
309
100
AcDbEntity
  8
0
100
AcDbSpline
 62
7
  6
CONTINUOUS
 70
0
 71
3
 72
9
 73
5
 74
0
 42
0.0000001
 43
0.0000001
 44
0.0000000001
 40
0.0
 40
0.0
 40
0.0
 40
0.0
 40
0.5052123856
 40
1.0
 40
1.0
 40
1.0
 40
1.0
 10
9.0658888305
 20
-8.4898818072
 30
0.0
 10
9.0827347251
 20
-8.4437608931
 30
0.0
 10
9.1086505164
 20
-8.3495334801
 30
0.0
 10
9.1174933356
 20
-8.2521510722
 30
0.0
 10
9.117498672
 20
-8.2040630974
 30
0.0
  0
SPLINE
  5
30A
100
AcDbEntity
  8
0
100
AcDbSpline
 62
7
  6
CONTINUOUS
 70
0
 71
3
 72
11
 73
7
 74
0
 42
0.0000001
 43
0.0000001
 44
0.0000000001
 40
0.0
 40
0.0
 40
0.0
 40
0.0
 40
0.2808021969
 40
0.540087191
 40
0.7786397179
 40
1.0
 40
1.0
 40
1.0
 40
1.0
 10
8.4145607297
 20
-9.1839221216
 30
0.0
 10
8.493166795
 20
-9.1385359647
 30
0.0
 10
8.639365373
 20
-9.0420288078
 30
0.0
 10
8.8280330739
 20
-8.8738938111
 30
0.0
 10
8.9735160052
 20
-8.690954161
 30
0.0
 10
9.0413398172
 20
-8.5570924218
 30
0.0
 10
9.0658888305
 20
-8.4898818072
 30
0.0
  0
SPLINE
  5
30B
100
AcDbEntity
  8
0
100
AcDbSpline
 62
7
  6
CONTINUOUS
 70
0
 71
3
 72
17
 73
13
 74
0
 42
0.0000001
 43
0.0000001
 44
0.0000000001
 40
0.0
 40
0.0
 40
0.0
 40
0.0
 40
0.1242889116
 40
0.2604951483
 40
0.4028978099
 40
0.5447829925
 40
0.6795259637
 40
0.8016226131
 40
0.8569281505
 40
0.9081937534
 40
0.9556742208
 40
1.0
 40
1.0
 40
1.0
 40
1.0
 10
8.4145607297
 20
-9.1839221216
 30
0.0
 10
8.2533558612
 20
-9.2769997923
 30
0.0
 10
7.8914447413
 20
-9.4313281393
 30
0.0
 10
7.3004519027
 20
-9.5649725708
 30
0.0
 10
6.6694544307
 20
-9.6057641161
 30
0.0
 10
6.0417369656
 20
-9.5506161539
 30
0.0
 10
5.4602604105
 20
-9.4034540355
 30
0.0
 10
5.0323330712
 20
-9.2055077293
 30
0.0
 10
4.7523348165
 20
-9.0067599834
 30
0.0
 10
4.5839499567
 20
-8.8477128972
 30
0.0
 10
4.453500761
 20
-8.6764260773
 30
0.0
 10
4.3918772148
 20
-8.5522452234
 30
0.0
 10
4.369118135
 20
-8.4898820447
 30
0.0
  0
SPLINE
  5
30C
100
AcDbEntity
  8
0
100
AcDbSpline
 62
7
  6
CONTINUOUS
 70
0
 71
3
 72
9
 73
5
 74
0
 42
0.0000001
 43
0.0000001
 44
0.0000000001
 40
0.0
 40
0.0
 40
0.0
 40
0.0
 40
0.2708175791
 40
1.0
 40
1.0
 40
1.0
 40
1.0
 10
-16.3012602101
 20
4.916162631
 30
0.0
 10
-16.3038481078
 20
4.9190915696
 30
0.0
 10
-16.3126375583
 20
4.9305132359
 30
0.0
 10
-16.3176741609
 20
4.9451555831
 30
0.0
 10
-16.3176492922
 20
4.9556791135
 30
0.0
  0
SPLINE
  5
30D
100
AcDbEntity
  8
0
100
AcDbSpline
 62
7
  6
CONTINUOUS
 70
0
 71
3
 72
9
 73
5
 74
0
 42
0.0000001
 43
0.0000001
 44
0.0000000001
 40
0.0
 40
0.0
 40
0.0
 40
0.0
 40
0.2388960521
 40
1.0
 40
1.0
 40
1.0
 40
1.0
 10
-16.3012602101
 20
4.916162631
 30
0.0
 10
-16.1518263027
 20
4.7470358776
 30
0.0
 10
-15.5029482201
 20
4.0597968253
 30
0.0
 10
-14.7687489358
 20
3.4554686895
 30
0.0
 10
-14.181919588
 20
3.0399934207
 30
0.0
  0
SPLINE
  5
30E
100
AcDbEntity
  8
0
100
AcDbSpline
 62
7
  6
CONTINUOUS
 70
0
 71
3
 72
9
 73
5
 74
0
 42
0.0000001
 43
0.0000001
 44
0.0000000001
 40
0.0
 40
0.0
 40
0.0
 40
0.0
 40
0.2423444067
 40
1.0
 40
1.0
 40
1.0
 40
1.0
 10
-11.5656244976
 20
1.5293774254
 30
0.0
 10
-11.3117185241
 20
1.4098206284
 30
0.0
 10
-10.2536322839
 20
0.9386628041
 30
0.0
 10
-9.1578589332
 20
0.5536105006
 30
0.0
 10
-8.3162125938
 20
0.3056964576
 30
0.0
  0
SPLINE
  5
30F
100
AcDbEntity
  8
0
100
AcDbSpline
 62
7
  6
CONTINUOUS
 70
0
 71
3
 72
8
 73
4
 74
0
 42
0.0000001
 43
0.0000001
 44
0.0000000001
 40
0.0
 40
0.0
 40
0.0
 40
0.0
 40
1.0
 40
1.0
 40
1.0
 40
1.0
 10
-8.2189116168
 20
0.2978811823
 30
0.0
 10
-8.2446016561
 20
0.2949440983
 30
0.0
 10
-8.2710514192
 20
0.2959048397
 30
0.0
 10
-8.2964258309
 20
0.3008791551
 30
0.0
  0
SPLINE
  5
310
100
AcDbEntity
  8
DRAFT
100
AcDbSpline
 62
7
  6
CONTINUOUS
 70
0
 71
3
 72
9
 73
5
 74
0
 42
0.0000001
 43
0.0000001
 44
0.0000000001
 40
0.0
 40
0.0
 40
0.0
 40
0.0
 40
0.2412951174
 40
1.0
 40
1.0
 40
1.0
 40
1.0
 10
-14.0434853903
 20
17.0406465834
 30
0.0
 10
-13.8601671311
 20
16.9129395068
 30
0.0
 10
-13.0885347158
 20
16.4008483242
 30
0.0
 10
-12.2731337999
 20
15.9558364235
 30
0.0
 10
-11.6394667622
 20
15.652596357
 30
0.0
  0
SPLINE
  5
311
100
AcDbEntity
  8
0
100
AcDbSpline
 62
7
  6
CONTINUOUS
 70
0
 71
3
 72
9
 73
5
 74
0
 42
0.0000001
 43
0.0000001
 44
0.0000000001
 40
0.0
 40
0.0
 40
0.0
 40
0.0
 40
0.5506150164
 40
1.0
 40
1.0
 40
1.0
 40
1.0
 10
-16.2243966627
 20
20.558169843
 30
0.0
 10
-16.2367751451
 20
20.5510226624
 30
0.0
 10
-16.2580296788
 20
20.5347343101
 30
0.0
 10
-16.2683095009
 20
20.5087524498
 30
0.0
 10
-16.268337001
 20
20.4970866891
 30
0.0
  0
SPLINE
  5
312
100
AcDbEntity
  8
0
100
AcDbSpline
 62
7
  6
CONTINUOUS
 70
0
 71
3
 72
9
 73
5
 74
0
 42
0.0000001
 43
0.0000001
 44
0.0000000001
 40
0.0
 40
0.0
 40
0.0
 40
0.0
 40
0.2375584081
 40
1.0
 40
1.0
 40
1.0
 40
1.0
 10
-16.268337001
 20
20.4970866891
 30
0.0
 10
-16.2683450705
 20
20.4936635308
 30
0.0
 10
-16.2668772905
 20
20.4792325027
 30
0.0
 10
-16.2592915675
 20
20.4659058255
 30
0.0
 10
-16.2520290081
 20
20.4576619676
 30
0.0
  0
LINE
  5
313
100
AcDbEntity
  8
0
100
AcDbLine
 62
250
  6
CONTINUOUS
 10
-16.3009914883
 20
5.0010096944
 11
-16.2520290081
 21
20.4576619676
  0
LINE
  5
314
100
AcDbEntity
  8
0
100
AcDbLine
 62
250
  6
CONTINUOUS
 10
-8.3162125938
 20
0.3056964576
 11
-8.3293271324
 21
15.8655259682
  0
SPLINE
  5
315
100
AcDbEntity
  8
0
100
AcDbSpline
 62
7
  6
CONTINUOUS
 70
0
 71
3
 72
9
 73
5
 74
0
 42
0.0000001
 43
0.0000001
 44
0.0000000001
 40
0.0
 40
0.0
 40
0.0
 40
0.0
 40
0.516274127
 40
1.0
 40
1.0
 40
1.0
 40
1.0
 10
-8.3293271324
 20
15.8655259682
 30
0.0
 10
-8.2998794183
 20
15.8567947144
 30
0.0
 10
-8.2392965502
 20
15.8517942017
 30
0.0
 10
-8.1796632257
 20
15.8669382717
 30
0.0
 10
-8.1547407523
 20
15.8813281954
 30
0.0
  0
SPLINE
  5
316
100
AcDbEntity
  8
0
100
AcDbSpline
 62
7
  6
CONTINUOUS
 70
0
 71
3
 72
9
 73
5
 74
0
 42
0.0000001
 43
0.0000001
 44
0.0000000001
 40
0.0
 40
0.0
 40
0.0
 40
0.0
 40
0.5153565067
 40
1.0
 40
1.0
 40
1.0
 40
1.0
 10
-8.3293271324
 20
15.8655259682
 30
0.0
 10
-9.1200737945
 20
16.0999825314
 30
0.0
 10
-10.6334706967
 20
16.6301351122
 30
0.0
 10
-12.0796856697
 20
17.3258077015
 30
0.0
 10
-12.7549176198
 20
17.7074463553
 30
0.0
  0
SPLINE
  5
317
100
AcDbEntity
  8
0
100
AcDbSpline
 62
7
  6
CONTINUOUS
 70
0
 71
3
 72
9
 73
5
 74
0
 42
0.0000001
 43
0.0000001
 44
0.0000000001
 40
0.0
 40
0.0
 40
0.0
 40
0.0
 40
0.522651374
 40
1.0
 40
1.0
 40
1.0
 40
1.0
 10
-12.7690410142
 20
17.715437511
 30
0.0
 10
-13.4433315374
 20
18.0973718347
 30
0.0
 10
-14.6874836299
 20
18.9145886869
 30
0.0
 10
-15.7841641348
 20
19.9265803809
 30
0.0
 10
-16.2520290081
 20
20.4576619676
 30
0.0
  0
LINE
  5
318
100
AcDbEntity
  8
0
100
AcDbLine
 62
250
  6
CONTINUOUS
 10
-8.1510003356
 20
11.3076386728
 11
-8.1547407523
 21
15.8813281954
  0
SPLINE
  5
319
100
AcDbEntity
  8
RACCORDO
100
AcDbSpline
 62
7
  6
CONTINUOUS
 70
0
 71
3
 72
11
 73
7
 74
0
 42
0.0000001
 43
0.0000001
 44
0.0000000001
 40
0.0
 40
0.0
 40
0.0
 40
0.0
 40
0.2691595938
 40
0.5226078312
 40
0.7643940704
 40
1.0
 40
1.0
 40
1.0
 40
1.0
 10
-16.3505697216
 20
4.972383841
 30
0.0
 10
-16.6591088821
 20
5.3267891184
 30
0.0
 10
-17.2115837063
 20
6.0580371328
 30
0.0
 10
-17.8350219488
 20
7.2453617233
 30
0.0
 10
-18.2145938728
 20
8.4713062851
 30
0.0
 10
-18.3000478374
 20
9.3070279413
 30
0.0
 10
-18.3000150467
 20
9.7183437555
 30
0.0
  0
SPLINE
  5
31A
100
AcDbEntity
  8
0
100
AcDbSpline
 62
7
  6
CONTINUOUS
 70
0
 71
3
 72
9
 73
5
 74
0
 42
0.0000001
 43
0.0000001
 44
0.0000000001
 40
0.0
 40
0.0
 40
0.0
 40
0.0
 40
0.5223581946
 40
1.0
 40
1.0
 40
1.0
 40
1.0
 10
-12.6208019416
 20
17.9436824481
 30
0.0
 10
-13.2642083854
 20
18.3151772649
 30
0.0
 10
-14.4514182981
 20
19.1083966308
 30
0.0
 10
-15.4969354789
 20
20.0858605143
 30
0.0
 10
-15.9433128575
 20
20.5979817314
 30
0.0
  0
SPLINE
  5
31B
100
AcDbEntity
  8
RACCORDO
100
AcDbSpline
 62
7
  6
CONTINUOUS
 70
0
 71
3
 72
11
 73
7
 74
0
 42
0.0000001
 43
0.0000001
 44
0.0000000001
 40
0.0
 40
0.0
 40
0.0
 40
0.0
 40
0.2440038433
 40
0.4896556688
 40
0.7409042864
 40
1.0
 40
1.0
 40
1.0
 40
1.0
 10
-6.0500099664
 20
44.9906272449
 30
0.0
 10
-6.0500099664
 20
45.1769561785
 30
0.0
 10
-6.008585194
 20
45.5521425912
 30
0.0
 10
-5.8263860158
 20
46.0918541174
 30
0.0
 10
-5.5370191142
 20
46.5951902007
 30
0.0
 10
-5.2852142418
 20
46.8953005229
 30
0.0
 10
-5.1470302266
 20
47.0369028092
 30
0.0
  0
SPLINE
  5
31C
100
AcDbEntity
  8
0
100
AcDbSpline
 62
7
  6
CONTINUOUS
 70
0
 71
3
 72
9
 73
5
 74
0
 42
0.0000001
 43
0.0000001
 44
0.0000000001
 40
0.0
 40
0.0
 40
0.0
 40
0.0
 40
0.2415665287
 40
1.0
 40
1.0
 40
1.0
 40
1.0
 10
3.5517917277
 20
46.9502563373
 30
0.0
 10
3.489657935
 20
46.984883265
 30
0.0
 10
3.2293514226
 20
47.122643326
 30
0.0
 10
2.9578360231
 20
47.2388709701
 30
0.0
 10
2.7482563149
 20
47.3160140868
 30
0.0
  0
SPLINE
  5
31D
100
AcDbEntity
  8
0
100
AcDbSpline
 62
7
  6
CONTINUOUS
 70
0
 71
3
 72
11
 73
7
 74
0
 42
0.0000001
 43
0.0000001
 44
0.0000000001
 40
0.0
 40
0.0
 40
0.0
 40
0.0
 40
0.2491016171
 40
0.5111470557
 40
0.7672734012
 40
1.0
 40
1.0
 40
1.0
 40
1.0
 10
2.7206612241
 20
47.3260997036
 30
0.0
 10
2.2178283413
 20
47.5085760224
 30
0.0
 10
1.1388357032
 20
47.7580141912
 30
0.0
 10
-0.5168734293
 20
47.8158238857
 30
0.0
 10
-2.11983453
 20
47.570372867
 30
0.0
 10
-3.1133179969
 20
47.1944111641
 30
0.0
 10
-3.5499526246
 20
46.9512942738
 30
0.0
  0
SPLINE
  5
31E
100
AcDbEntity
  8
0
100
AcDbSpline
 62
7
  6
CONTINUOUS
 70
0
 71
3
 72
16
 73
12
 74
0
 42
0.0000001
 43
0.0000001
 44
0.0000000001
 40
0.0
 40
0.0
 40
0.0
 40
0.0
 40
0.124213047
 40
0.2603207939
 40
0.4026416319
 40
0.544500217
 40
0.6793091571
 40
0.8015736911
 40
0.8569941997
 40
0.9083831694
 40
1.0
 40
1.0
 40
1.0
 40
1.0
 10
2.8284171584
 20
47.520565935
 30
0.0
 10
2.5605220431
 20
47.6752452171
 30
0.0
 10
1.9592356106
 20
47.93189389
 30
0.0
 10
0.9773057516
 20
48.1546808136
 30
0.0
 10
-0.0713413981
 20
48.2235717902
 30
0.0
 10
-1.1151228075
 20
48.1334198111
 30
0.0
 10
-2.0830487122
 20
47.8905357894
 30
0.0
 10
-2.7962157082
 20
47.5634071378
 30
0.0
 10
-3.2642884966
 20
47.2340397443
 30
0.0
 10
-3.6260967464
 20
46.8967173222
 30
0.0
 10
-3.8287513889
 20
46.590745492
 30
0.0
 10
-3.9090479552
 20
46.3771763648
 30
0.0
  0
SPLINE
  5
31F
100
AcDbEntity
  8
RACCORDO
100
AcDbSpline
 62
7
  6
CONTINUOUS
 70
0
 71
3
 72
18
 73
14
 74
0
 42
0.0000001
 43
0.0000001
 44
0.0000000001
 40
0.0
 40
0.0
 40
0.0
 40
0.0
 40
0.051714501
 40
0.1037581876
 40
0.1569326536
 40
0.2117603005
 40
0.2689042901
 40
0.3287660566
 40
0.4566449498
 40
0.5933539953
 40
0.7335861014
 40
0.8709444236
 40
1.0
 40
1.0
 40
1.0
 40
1.0
 10
-5.3000099664
 20
46.2140556724
 30
0.0
 10
-5.3000099664
 20
46.3919107054
 30
0.0
 10
-5.2581266067
 20
46.7501183651
 30
0.0
 10
-5.0745776555
 20
47.2619679661
 30
0.0
 10
-4.7851427469
 20
47.7343027401
 30
0.0
 10
-4.4030490075
 20
48.1582003407
 30
0.0
 10
-3.9419813804
 20
48.5312261584
 30
0.0
 10
-3.2197210041
 20
48.9684512968
 30
0.0
 10
-2.1685649713
 20
49.3698537966
 30
0.0
 10
-0.7915409883
 20
49.6159727255
 30
0.0
 10
0.6400911951
 20
49.6284621503
 30
0.0
 10
2.0273919032
 20
49.4071041838
 30
0.0
 10
2.8974781125
 20
49.0958155881
 30
0.0
 10
3.2948376518
 20
48.8980705172
 30
0.0
  0
SPLINE
  5
320
100
AcDbEntity
  8
0
100
AcDbSpline
 62
7
  6
CONTINUOUS
 70
0
 71
3
 72
11
 73
7
 74
0
 42
0.0000001
 43
0.0000001
 44
0.0000000001
 40
0.0
 40
0.0
 40
0.0
 40
0.0
 40
0.2427019924
 40
0.5000049588
 40
0.7573033154
 40
1.0
 40
1.0
 40
1.0
 40
1.0
 10
3.336145043
 20
45.5955736683
 30
0.0
 10
2.8231571888
 20
45.7950286214
 30
0.0
 10
1.7190574556
 20
46.088663934
 30
0.0
 10
-0.0000430984
 20
46.2323221812
 30
0.0
 10
-1.7191603287
 20
46.0887154188
 30
0.0
 10
-2.8231843516
 20
45.7949387923
 30
0.0
 10
-3.3361866051
 20
45.5955541026
 30
0.0
  0
SPLINE
  5
321
100
AcDbEntity
  8
RACCORDO
100
AcDbSpline
 62
7
  6
CONTINUOUS
 70
0
 71
3
 72
19
 73
15
 74
0
 42
0.0000001
 43
0.0000001
 44
0.0000000001
 40
0.0
 40
0.0
 40
0.0
 40
0.0
 40
0.0537011463
 40
0.1080774544
 40
0.1637350384
 40
0.2211232315
 40
0.3422480758
 40
0.4062483413
 40
0.4721603753
 40
0.6076316597
 40
0.7439270061
 40
0.8108068067
 40
0.8760324541
 40
1.0
 40
1.0
 40
1.0
 40
1.0
 10
-14.5125256023
 20
43.2964750886
 30
0.0
 10
-14.359116985
 20
43.7680748946
 30
0.0
 10
-13.9529968273
 20
44.6880266272
 30
0.0
 10
-13.0933706469
 20
45.9406925422
 30
0.0
 10
-12.0180737419
 20
47.0604476591
 30
0.0
 10
-10.3063640448
 20
48.3916025863
 30
0.0
 10
-8.2896593875
 20
49.4164324062
 30
0.0
 10
-6.0903509301
 20
50.1551233203
 30
0.0
 10
-3.7023839344
 20
50.7208715217
 30
0.0
 10
-0.5861520732
 20
51.0462972022
 30
0.0
 10
2.5507711477
 20
50.8758296075
 30
0.0
 10
4.9929433828
 20
50.4344757557
 30
0.0
 10
7.2758533459
 20
49.8120959984
 30
0.0
 10
8.8974155862
 20
49.1180772649
 30
0.0
 10
9.888848154
 20
48.5456365259
 30
0.0
  0
SPLINE
  5
322
100
AcDbEntity
  8
0
100
AcDbSpline
 62
7
  6
CONTINUOUS
 70
0
 71
3
 72
11
 73
7
 74
0
 42
0.0000001
 43
0.0000001
 44
0.0000000001
 40
0.0
 40
0.0
 40
0.0
 40
0.0
 40
0.2177822496
 40
0.4509432044
 40
0.7102335186
 40
1.0
 40
1.0
 40
1.0
 40
1.0
 10
-3.9999872496
 20
46.8672318938
 30
0.0
 10
-3.9999883526
 20
46.7148697144
 30
0.0
 10
-3.9437309279
 20
46.3972632944
 30
0.0
 10
-3.7029610715
 20
45.954844522
 30
0.0
 10
-3.3224707248
 20
45.5547736566
 30
0.0
 10
-3.0039974582
 20
45.3354998762
 30
0.0
 10
-2.8284370911
 20
45.2341335206
 30
0.0
  0
SPLINE
  5
323
100
AcDbEntity
  8
RACCORDO
100
AcDbSpline
 62
7
  6
CONTINUOUS
 70
0
 71
3
 72
10
 73
6
 74
0
 42
0.0000001
 43
0.0000001
 44
0.0000000001
 40
0.0
 40
0.0
 40
0.0
 40
0.0
 40
0.2324832636
 40
0.4728285572
 40
1.0
 40
1.0
 40
1.0
 40
1.0
 10
9.8886107432
 20
48.5457399534
 30
0.0
 10
9.8219224202
 20
48.5842058454
 30
0.0
 10
9.676599079
 20
48.6468287071
 30
0.0
 10
9.3487892084
 20
48.7070871985
 30
0.0
 10
9.0895409631
 20
48.6727449173
 30
0.0
 10
8.9213343044
 20
48.6260318279
 30
0.0
  0
SPLINE
  5
324
100
AcDbEntity
  8
RACCORDO
100
AcDbSpline
 62
250
  6
CONTINUOUS
 70
0
 71
3
 72
11
 73
7
 74
0
 42
0.0000001
 43
0.0000001
 44
0.0000000001
 40
0.0
 40
0.0
 40
0.0
 40
0.0
 40
0.2178702216
 40
0.4510924124
 40
0.7103148267
 40
1.0
 40
1.0
 40
1.0
 40
1.0
 10
-5.2999937399
 20
46.214055672
 30
0.0
 10
-5.3000108924
 20
46.0120931319
 30
0.0
 10
-5.2254316429
 20
45.5911089179
 30
0.0
 10
-4.9062165167
 20
45.0049204077
 30
0.0
 10
-4.4021263174
 20
44.4748927389
 30
0.0
 10
-3.9802293931
 20
44.1844737963
 30
0.0
 10
-3.7476759067
 20
44.0502003278
 30
0.0
  0
SPLINE
  5
325
100
AcDbEntity
  8
RACCORDO
100
AcDbSpline
 62
250
  6
CONTINUOUS
 70
0
 71
3
 72
12
 73
8
 74
0
 42
0.0000001
 43
0.0000001
 44
0.0000000001
 40
0.0
 40
0.0
 40
0.0
 40
0.0
 40
0.1081895796
 40
0.2184104458
 40
0.4514302376
 40
0.7104709156
 40
1.0
 40
1.0
 40
1.0
 40
1.0
 10
-6.0500093828
 20
44.3161529856
 30
0.0
 10
-6.0500074023
 20
44.2015837695
 30
0.0
 10
-6.030082412
 20
43.9698149503
 30
0.0
 10
-5.9096909322
 20
43.5052020263
 30
0.0
 10
-5.6006500812
 20
42.9355844522
 30
0.0
 10
-5.0251819171
 20
42.331140219
 30
0.0
 10
-4.5435266666
 20
41.9994000054
 30
0.0
 10
-4.2780059926
 20
41.846091696
 30
0.0
  0
SPLINE
  5
326
100
AcDbEntity
  8
RACCORDO
100
AcDbSpline
 62
250
  6
CONTINUOUS
 70
0
 71
3
 72
12
 73
8
 74
0
 42
0.0000001
 43
0.0000001
 44
0.0000000001
 40
0.0
 40
0.0
 40
0.0
 40
0.0
 40
0.1081650066
 40
0.2183691245
 40
0.451375231
 40
0.7104178823
 40
1.0
 40
1.0
 40
1.0
 40
1.0
 10
-6.0500035448
 20
44.9906272449
 30
0.0
 10
-6.0500035658
 20
44.8760841524
 30
0.0
 10
-6.0300882925
 20
44.6443593642
 30
0.0
 10
-5.9097368855
 20
44.1797971495
 30
0.0
 10
-5.6007393981
 20
43.6101918243
 30
0.0
 10
-5.0252776551
 20
43.0056807726
 30
0.0
 10
-4.5435750665
 20
42.6739022102
 30
0.0
 10
-4.2780059926
 20
42.5205659553
 30
0.0
  0
SPLINE
  5
327
100
AcDbEntity
  8
RACCORDO
100
AcDbSpline
 62
250
  6
CONTINUOUS
 70
0
 71
3
 72
15
 73
11
 74
0
 42
0.0000001
 43
0.0000001
 44
0.0000000001
 40
0.0
 40
0.0
 40
0.0
 40
0.0
 40
0.112209858
 40
0.2227177689
 40
0.3347397356
 40
0.4512836756
 40
0.5747842464
 40
0.7069055074
 40
0.8485840461
 40
1.0
 40
1.0
 40
1.0
 40
1.0
 10
-14.5125248056
 20
43.2964750022
 30
0.0
 10
-14.620810716
 20
42.9635618477
 30
0.0
 10
-14.7718745085
 20
42.2794711722
 30
0.0
 10
-14.7783790151
 20
41.2275615694
 30
0.0
 10
-14.5614315767
 20
40.1844007673
 30
0.0
 10
-14.1265411201
 20
39.1685795935
 30
0.0
 10
-13.4832623996
 20
38.195384113
 30
0.0
 10
-12.6432959547
 20
37.2778158035
 30
0.0
 10
-11.6200395137
 20
36.4280890135
 30
0.0
 10
-10.8504456236
 20
35.930177639
 30
0.0
 10
-10.4413419932
 20
35.6939663301
 30
0.0
  0
SPLINE
  5
328
100
AcDbEntity
  8
RACCORDO
100
AcDbSpline
 62
7
  6
CONTINUOUS
 70
0
 71
3
 72
9
 73
5
 74
0
 42
0.0000001
 43
0.0000001
 44
0.0000000001
 40
0.0
 40
0.0
 40
0.0
 40
0.0
 40
0.231474812
 40
1.0
 40
1.0
 40
1.0
 40
1.0
 10
-2.3413195841
 20
45.0156199426
 30
0.0
 10
-2.3555017046
 20
45.0238047144
 30
0.0
 10
-2.412212494
 20
45.0671799965
 30
0.0
 10
-2.4467565383
 20
45.134357143
 30
0.0
 10
-2.4617585175
 20
45.1866115355
 30
0.0
  0
SPLINE
  5
329
100
AcDbEntity
  8
RACCORDO
100
AcDbSpline
 62
7
  6
CONTINUOUS
 70
0
 71
3
 72
9
 73
5
 74
0
 42
0.0000001
 43
0.0000001
 44
0.0000000001
 40
0.0
 40
0.0
 40
0.0
 40
0.0
 40
0.2372578567
 40
1.0
 40
1.0
 40
1.0
 40
1.0
 10
-3.1819904817
 20
45.0299962239
 30
0.0
 10
-3.1969939761
 20
45.0213333943
 30
0.0
 10
-3.2589454571
 20
44.9826076275
 30
0.0
 10
-3.3158357294
 20
44.9360399361
 30
0.0
 10
-3.3562008728
 20
44.8976638107
 30
0.0
  0
SPLINE
  5
32A
100
AcDbEntity
  8
RACCORDO
100
AcDbSpline
 62
7
  6
CONTINUOUS
 70
0
 71
3
 72
9
 73
5
 74
0
 42
0.0000001
 43
0.0000001
 44
0.0000000001
 40
0.0
 40
0.0
 40
0.0
 40
0.0
 40
0.2436099473
 40
1.0
 40
1.0
 40
1.0
 40
1.0
 10
-3.3562008728
 20
44.8976638107
 30
0.0
 10
-3.3705317691
 20
44.8840390783
 30
0.0
 10
-3.4278407096
 20
44.8265260412
 30
0.0
 10
-3.4792536046
 20
44.7632111062
 30
0.0
 10
-3.514649784
 20
44.7130449827
 30
0.0
  0
SPLINE
  5
32B
100
AcDbEntity
  8
RACCORDO
100
AcDbSpline
 62
7
  6
CONTINUOUS
 70
0
 71
3
 72
9
 73
5
 74
0
 42
0.0000001
 43
0.0000001
 44
0.0000000001
 40
0.0
 40
0.0
 40
0.0
 40
0.0
 40
0.2557752385
 40
1.0
 40
1.0
 40
1.0
 40
1.0
 10
-3.6395249438
 20
44.4967548225
 30
0.0
 10
-3.6482309465
 20
44.4779081643
 30
0.0
 10
-3.6805476623
 20
44.4034500423
 30
0.0
 10
-3.7060274279
 20
44.3259529981
 30
0.0
 10
-3.7201825738
 20
44.2672289767
 30
0.0
  0
SPLINE
  5
32C
100
AcDbEntity
  8
RACCORDO
100
AcDbSpline
 62
7
  6
CONTINUOUS
 70
0
 71
3
 72
9
 73
5
 74
0
 42
0.0000001
 43
0.0000001
 44
0.0000000001
 40
0.0
 40
0.0
 40
0.0
 40
0.0
 40
0.2622417358
 40
1.0
 40
1.0
 40
1.0
 40
1.0
 10
-3.7201825738
 20
44.2672289767
 30
0.0
 10
-3.7246693205
 20
44.2486152649
 30
0.0
 10
-3.7399065084
 20
44.1772194345
 30
0.0
 10
-3.7476759067
 20
44.1040656413
 30
0.0
 10
-3.7476759067
 20
44.0502003278
 30
0.0
  0
SPLINE
  5
32D
100
AcDbEntity
  8
RACCORDO
100
AcDbSpline
 62
7
  6
CONTINUOUS
 70
0
 71
3
 72
9
 73
5
 74
0
 42
0.0000001
 43
0.0000001
 44
0.0000000001
 40
0.0
 40
0.0
 40
0.0
 40
0.0
 40
0.2426155494
 40
1.0
 40
1.0
 40
1.0
 40
1.0
 10
-3.831412236
 20
43.4169609536
 30
0.0
 10
-3.8426284583
 20
43.4076958223
 30
0.0
 10
-3.888010646
 20
43.3684863367
 30
0.0
 10
-3.9300860659
 20
43.3254948052
 30
0.0
 10
-3.960044416
 20
43.291361898
 30
0.0
  0
SPLINE
  5
32E
100
AcDbEntity
  8
RACCORDO
100
AcDbSpline
 62
7
  6
CONTINUOUS
 70
0
 71
3
 72
9
 73
5
 74
0
 42
0.0000001
 43
0.0000001
 44
0.0000000001
 40
0.0
 40
0.0
 40
0.0
 40
0.0
 40
0.25612877
 40
1.0
 40
1.0
 40
1.0
 40
1.0
 10
-4.1962059329
 20
42.906124356
 30
0.0
 10
-4.2028309086
 20
42.8896705227
 30
0.0
 10
-4.2273754981
 20
42.8249120475
 30
0.0
 10
-4.2466261462
 20
42.7580995828
 30
0.0
 10
-4.257284223
 20
42.7076994076
 30
0.0
  0
SPLINE
  5
32F
100
AcDbEntity
  8
RACCORDO
100
AcDbSpline
 62
7
  6
CONTINUOUS
 70
0
 71
3
 72
9
 73
5
 74
0
 42
0.0000001
 43
0.0000001
 44
0.0000000001
 40
0.0
 40
0.0
 40
0.0
 40
0.0
 40
0.2609418094
 40
1.0
 40
1.0
 40
1.0
 40
1.0
 10
-4.257284223
 20
42.7076994076
 30
0.0
 10
-4.260675719
 20
42.6916616181
 30
0.0
 10
-4.2722342992
 20
42.6299176285
 30
0.0
 10
-4.2780059926
 20
42.5669938735
 30
0.0
 10
-4.2780059926
 20
42.5205659507
 30
0.0
  0
SPLINE
  5
330
100
AcDbEntity
  8
RACCORDO
100
AcDbSpline
 62
250
  6
CONTINUOUS
 70
0
 71
3
 72
11
 73
7
 74
0
 42
0.0000001
 43
0.0000001
 44
0.0000000001
 40
0.0
 40
0.0
 40
0.0
 40
0.0
 40
0.268919159
 40
0.5217623812
 40
0.7633813605
 40
1.0
 40
1.0
 40
1.0
 40
1.0
 10
-16.0405223151
 20
20.7112373926
 30
0.0
 10
-16.3477492153
 20
21.0747764082
 30
0.0
 10
-16.8933685796
 20
21.8257123802
 30
0.0
 10
-17.4890204504
 20
23.0469280943
 30
0.0
 10
-17.8218626979
 20
24.3062749168
 30
0.0
 10
-17.8627750909
 20
25.1592384873
 30
0.0
 10
-17.8384143754
 20
25.5773309219
 30
0.0
  0
SPLINE
  5
331
100
AcDbEntity
  8
RACCORDO
100
AcDbSpline
 62
250
  6
CONTINUOUS
 70
0
 71
3
 72
13
 73
9
 74
0
 42
0.0000001
 43
0.0000001
 44
0.0000000001
 40
0.0
 40
0.0
 40
0.0
 40
0.0
 40
0.2902434885
 40
0.5470183958
 40
0.6652564419
 40
0.7786577799
 40
0.8894144072
 40
1.0
 40
1.0
 40
1.0
 40
1.0
 10
-3.9304953714
 20
43.4756896622
 30
0.0
 10
-4.1820015805
 20
43.6287241265
 30
0.0
 10
-4.6324642592
 20
43.9601375197
 30
0.0
 10
-5.071455104
 20
44.4849165494
 30
0.0
 10
-5.2924471617
 20
44.9306507145
 30
0.0
 10
-5.3922780294
 20
45.2652342595
 30
0.0
 10
-5.4288621104
 20
45.6046891891
 30
0.0
 10
-5.4106719728
 20
45.8300012834
 30
0.0
 10
-5.391527637
 20
45.9405270953
 30
0.0
  0
SPLINE
  5
332
100
AcDbEntity
  8
RACCORDO
100
AcDbSpline
 62
7
  6
CONTINUOUS
 70
0
 71
3
 72
9
 73
5
 74
0
 42
0.0000001
 43
0.0000001
 44
0.0000000001
 40
0.0
 40
0.0
 40
0.0
 40
0.0
 40
0.2329353182
 40
1.0
 40
1.0
 40
1.0
 40
1.0
 10
-3.7476759067
 20
43.5850350158
 30
0.0
 10
-3.7476759067
 20
43.5803096026
 30
0.0
 10
-3.7487310171
 20
43.5600269896
 30
0.0
 10
-3.7533846278
 20
43.5400188693
 30
0.0
 10
-3.7583670341
 20
43.5252771204
 30
0.0
  0
SPLINE
  5
333
100
AcDbEntity
  8
RACCORDO
100
AcDbSpline
 62
7
  6
CONTINUOUS
 70
0
 71
3
 72
9
 73
5
 74
0
 42
0.0000001
 43
0.0000001
 44
0.0000000001
 40
0.0
 40
0.0
 40
0.0
 40
0.0
 40
0.2596468802
 40
1.0
 40
1.0
 40
1.0
 40
1.0
 10
-3.7882957539
 20
43.4652050826
 30
0.0
 10
-3.7914364806
 20
43.4605564469
 30
0.0
 10
-3.8041276556
 20
43.4430723547
 30
0.0
 10
-3.8190791179
 20
43.4271486938
 30
0.0
 10
-3.831412236
 20
43.4169609536
 30
0.0
  0
SPLINE
  5
334
100
AcDbEntity
  8
RACCORDO
100
AcDbSpline
 62
7
  6
CONTINUOUS
 70
0
 71
3
 72
9
 73
5
 74
0
 42
0.0000001
 43
0.0000001
 44
0.0000000001
 40
0.0
 40
0.0
 40
0.0
 40
0.0
 40
0.2318097928
 40
1.0
 40
1.0
 40
1.0
 40
1.0
 10
-4.2780059926
 20
41.846091696
 30
0.0
 10
-4.2780059926
 20
41.8409235239
 30
0.0
 10
-4.2792823736
 20
41.8186339269
 30
0.0
 10
-4.2848200894
 20
41.796703274
 30
0.0
 10
-4.290715158
 20
41.7806230884
 30
0.0
  0
SPLINE
  5
335
100
AcDbEntity
  8
RACCORDO
100
AcDbSpline
 62
7
  6
CONTINUOUS
 70
0
 71
3
 72
9
 73
5
 74
0
 42
0.0000001
 43
0.0000001
 44
0.0000000001
 40
0.0
 40
0.0
 40
0.0
 40
0.0
 40
0.2637047948
 40
1.0
 40
1.0
 40
1.0
 40
1.0
 10
-4.3256740121
 20
41.7163328666
 30
0.0
 10
-4.3292989483
 20
41.7114902565
 30
0.0
 10
-4.3437198651
 20
41.6936623323
 30
0.0
 10
-4.3607301194
 20
41.6777675609
 30
0.0
 10
-4.3746976789
 20
41.6682718566
 30
0.0
  0
SPLINE
  5
336
100
AcDbEntity
  8
RACCORDO
100
AcDbSpline
 62
250
  6
CONTINUOUS
 70
0
 71
3
 72
9
 73
5
 74
0
 42
0.0000001
 43
0.0000001
 44
0.0000000001
 40
0.0
 40
0.0
 40
0.0
 40
0.0
 40
0.2530053701
 40
1.0
 40
1.0
 40
1.0
 40
1.0
 10
-6.0873226652
 20
44.8320025078
 30
0.0
 10
-6.0985694983
 20
44.7962220583
 30
0.0
 10
-6.1395132339
 20
44.6537261066
 30
0.0
 10
-6.1659384044
 20
44.507019519
 30
0.0
 10
-6.1767860824
 20
44.3968149487
 30
0.0
  0
SPLINE
  5
337
100
AcDbEntity
  8
RACCORDO
100
AcDbSpline
 62
250
  6
CONTINUOUS
 70
0
 71
3
 72
9
 73
5
 74
0
 42
0.0000001
 43
0.0000001
 44
0.0000000001
 40
0.0
 40
0.0
 40
0.0
 40
0.0
 40
0.488870662
 40
1.0
 40
1.0
 40
1.0
 40
1.0
 10
-6.1767860824
 20
44.3968149487
 30
0.0
 10
-6.1983994375
 20
44.1772388768
 30
0.0
 10
-6.1689682549
 20
43.7178342991
 30
0.0
 10
-5.9975665674
 20
43.2924054494
 30
0.0
 10
-5.8845208768
 20
43.0913200709
 30
0.0
  0
SPLINE
  5
338
100
AcDbEntity
  8
RACCORDO
100
AcDbSpline
 62
250
  6
CONTINUOUS
 70
0
 71
3
 72
9
 73
5
 74
0
 42
0.0000001
 43
0.0000001
 44
0.0000000001
 40
0.0
 40
0.0
 40
0.0
 40
0.0
 40
0.2297055537
 40
1.0
 40
1.0
 40
1.0
 40
1.0
 10
-5.769297155
 20
42.9042323025
 30
0.0
 10
-5.692491428
 20
42.7897113474
 30
0.0
 10
-5.3226499711
 20
42.3148402263
 30
0.0
 10
-4.8348971988
 20
41.9412362829
 30
0.0
 10
-4.4373915271
 20
41.704996942
 30
0.0
  0
SPLINE
  5
339
100
AcDbEntity
  8
RACCORDO
100
AcDbSpline
 62
250
  6
CONTINUOUS
 70
0
 71
3
 72
11
 73
7
 74
0
 42
0.0000001
 43
0.0000001
 44
0.0000000001
 40
0.0
 40
0.0
 40
0.0
 40
0.0
 40
0.2897536662
 40
0.548990221
 40
0.7821834823
 40
1.0
 40
1.0
 40
1.0
 40
1.0
 10
-3.7476759067
 20
43.5850350158
 30
0.0
 10
-3.9802848923
 20
43.7193405288
 30
0.0
 10
-4.4022448588
 20
44.0098114541
 30
0.0
 10
-4.9063297224
 20
44.5399145762
 30
0.0
 10
-5.2254825799
 20
45.126070719
 30
0.0
 10
-5.3000058304
 20
45.5469771557
 30
0.0
 10
-5.3000092473
 20
45.7488903604
 30
0.0
  0
SPLINE
  5
33A
100
AcDbEntity
  8
RACCORDO
100
AcDbSpline
 62
250
  6
CONTINUOUS
 70
0
 71
3
 72
23
 73
19
 74
0
 42
0.0000001
 43
0.0000001
 44
0.0000000001
 40
0.0
 40
0.0
 40
0.0
 40
0.0
 40
0.064831854
 40
0.1341837365
 40
0.2070886794
 40
0.2823492323
 40
0.358632866
 40
0.4345493821
 40
0.5087287899
 40
0.5799007944
 40
0.6469791958
 40
0.7091601736
 40
0.7660396809
 40
0.8177576323
 40
0.8651487874
 40
0.9098205841
 40
0.9539900171
 40
1.0
 40
1.0
 40
1.0
 40
1.0
 10
8.764392941
 20
48.5751857658
 30
0.0
 10
8.2610159954
 20
48.8658293054
 30
0.0
 10
7.1737771747
 20
49.3906359894
 30
0.0
 10
5.4122220305
 20
49.9890328048
 30
0.0
 10
3.5049933467
 20
50.4130473186
 30
0.0
 10
1.5035972577
 20
50.6511482289
 30
0.0
 10
-0.5383054833
 20
50.6970443338
 30
0.0
 10
-2.565702782
 20
50.5494767096
 30
0.0
 10
-4.524059941
 20
50.2124151638
 30
0.0
 10
-6.3608735883
 20
49.6948375341
 30
0.0
 10
-8.027235474
 20
49.0102983305
 30
0.0
 10
-9.4791608908
 20
48.1761512833
 30
0.0
 10
-10.6784202789
 20
47.212406362
 30
0.0
 10
-11.5921333649
 20
46.1404781782
 30
0.0
 10
-12.1905879117
 20
44.9836577833
 30
0.0
 10
-12.4457693744
 20
43.7721613734
 30
0.0
 10
-12.3412365967
 20
42.5509457904
 30
0.0
 10
-12.0459428986
 20
41.7863632846
 30
0.0
 10
-11.8528758588
 20
41.4218242539
 30
0.0
  0
SPLINE
  5
33B
100
AcDbEntity
  8
RACCORDO
100
AcDbSpline
 62
250
  6
CONTINUOUS
 70
0
 71
3
 72
9
 73
5
 74
0
 42
0.0000001
 43
0.0000001
 44
0.0000000001
 40
0.0
 40
0.0
 40
0.0
 40
0.0
 40
0.2355527164
 40
1.0
 40
1.0
 40
1.0
 40
1.0
 10
-11.70622725
 20
41.1627160501
 30
0.0
 10
-11.6073861399
 20
40.9987371476
 30
0.0
 10
-11.1517120897
 20
40.324336457
 30
0.0
 10
-10.566421462
 20
39.7430531892
 30
0.0
 10
-10.0830255029
 20
39.3526376253
 30
0.0
  0
SPLINE
  5
33C
100
AcDbEntity
  8
RACCORDO
100
AcDbSpline
 62
250
  6
CONTINUOUS
 70
0
 71
3
 72
24
 73
20
 74
0
 42
0.0000001
 43
0.0000001
 44
0.0000000001
 40
0.0
 40
0.0
 40
0.0
 40
0.0
 40
0.0321355564
 40
0.0655461424
 40
0.1000785336
 40
0.1356819998
 40
0.2094591313
 40
0.285557568
 40
0.4386419057
 40
0.5128093861
 40
0.583485166
 40
0.6495649042
 40
0.7103048289
 40
0.7654687431
 40
0.8155047731
 40
0.8617026322
 40
0.9061805441
 40
0.9515015004
 40
1.0
 40
1.0
 40
1.0
 40
1.0
 10
3.1833258777
 20
48.7052501137
 30
0.0
 10
3.089955779
 20
48.7591608385
 30
0.0
 10
2.894737931
 20
48.8609360132
 30
0.0
 10
2.5873694471
 20
48.9965339339
 30
0.0
 10
2.2614119431
 20
49.1173740076
 30
0.0
 10
1.7990309159
 20
49.2572306519
 30
0.0
 10
1.1888284189
 20
49.3863278559
 30
0.0
 10
0.1768205173
 20
49.4930400909
 30
0.0
 10
-0.8482600894
 20
49.4497179361
 30
0.0
 10
-1.8301329649
 20
49.2548418016
 30
0.0
 10
-2.506319508
 20
49.0405005893
 30
0.0
 10
-3.1100213613
 20
48.7627106962
 30
0.0
 10
-3.6242390367
 20
48.4288543531
 30
0.0
 10
-4.0342653819
 20
48.0472490154
 30
0.0
 10
-4.327305371
 20
47.6266486281
 30
0.0
 10
-4.4911834392
 20
47.177324638
 30
0.0
 10
-4.5154725623
 20
46.7145539833
 30
0.0
 10
-4.398532956
 20
46.2588989642
 30
0.0
 10
-4.2387144723
 20
45.9832778528
 30
0.0
 10
-4.142377402
 20
45.8521472813
 30
0.0
  0
SPLINE
  5
33D
100
AcDbEntity
  8
RACCORDO
100
AcDbSpline
 62
250
  6
CONTINUOUS
 70
0
 71
3
 72
10
 73
6
 74
0
 42
0.0000001
 43
0.0000001
 44
0.0000000001
 40
0.0
 40
0.0
 40
0.0
 40
0.0
 40
0.4728837016
 40
0.7297596356
 40
1.0
 40
1.0
 40
1.0
 40
1.0
 10
-4.142377402
 20
45.8521472813
 30
0.0
 10
-4.023757178
 20
45.6906856787
 30
0.0
 10
-3.8065507831
 20
45.465680384
 30
0.0
 10
-3.4706328085
 20
45.2072627574
 30
0.0
 10
-3.2821765711
 20
45.086650911
 30
0.0
 10
-3.1830222891
 20
45.0294004713
 30
0.0
  0
SPLINE
  5
33E
100
AcDbEntity
  8
0
100
AcDbSpline
 62
7
  6
CONTINUOUS
 70
0
 71
3
 72
17
 73
13
 74
0
 42
0.0000001
 43
0.0000001
 44
0.0000000001
 40
0.0
 40
0.0
 40
0.0
 40
0.0
 40
0.1286886159
 40
0.2702704008
 40
0.417425737
 40
0.5617702033
 40
0.6954397933
 40
0.8127065697
 40
0.8646710418
 40
0.9125068398
 40
0.9571385469
 40
1.0
 40
1.0
 40
1.0
 40
1.0
 10
2.8284171584
 20
48.5003302672
 30
0.0
 10
2.5323221334
 20
48.6712918237
 30
0.0
 10
1.861928534
 20
48.9479189079
 30
0.0
 10
0.7693028037
 20
49.1665274457
 30
0.0
 10
-0.3863557752
 20
49.1985533237
 30
0.0
 10
-1.5107402022
 20
49.0405450478
 30
0.0
 10
-2.5126630576
 20
48.7058338396
 30
0.0
 10
-3.2095133055
 20
48.281657507
 30
0.0
 10
-3.6184434374
 20
47.8711914822
 30
0.0
 10
-3.8356812813
 20
47.5516301348
 30
0.0
 10
-3.9695655296
 20
47.214558434
 30
0.0
 10
-3.9999864253
 20
46.9811084262
 30
0.0
 10
-3.9999872496
 20
46.8672318938
 30
0.0
  0
SPLINE
  5
33F
100
AcDbEntity
  8
RACCORDO
100
AcDbSpline
 62
7
  6
CONTINUOUS
 70
0
 71
3
 72
9
 73
5
 74
0
 42
0.0000001
 43
0.0000001
 44
0.0000000001
 40
0.0
 40
0.0
 40
0.0
 40
0.0
 40
0.2372054261
 40
1.0
 40
1.0
 40
1.0
 40
1.0
 10
3.5146298512
 20
48.7716629466
 30
0.0
 10
3.5024491927
 20
48.7748603713
 30
0.0
 10
3.4502016397
 20
48.7849359372
 30
0.0
 10
3.3958603718
 20
48.781405554
 30
0.0
 10
3.35618094
 20
48.7733089434
 30
0.0
  0
SPLINE
  5
340
100
AcDbEntity
  8
RACCORDO
100
AcDbSpline
 62
250
  6
CONTINUOUS
 70
0
 71
3
 72
17
 73
13
 74
0
 42
0.0000001
 43
0.0000001
 44
0.0000000001
 40
0.0
 40
0.0
 40
0.0
 40
0.0
 40
0.1557209529
 40
0.3128818727
 40
0.4669063461
 40
0.6124475252
 40
0.7438115793
 40
0.8553387375
 40
0.9020298702
 40
0.9419371352
 40
0.974663401
 40
1.0
 40
1.0
 40
1.0
 40
1.0
 10
-15.5532419987
 20
39.7834617859
 30
0.0
 10
-15.7160998701
 20
39.17401611
 30
0.0
 10
-15.9960241799
 20
37.9367757524
 30
0.0
 10
-16.3253343371
 20
36.0739645456
 30
0.0
 10
-16.6057128334
 20
34.245067209
 30
0.0
 10
-16.8649234228
 20
32.518720549
 30
0.0
 10
-17.1152683732
 20
30.9651428236
 30
0.0
 10
-17.322523036
 20
29.8104294014
 30
0.0
 10
-17.4716286913
 20
29.0217993939
 30
0.0
 10
-17.5613269885
 20
28.5467839603
 30
0.0
 10
-17.630078092
 20
28.1559417536
 30
0.0
 10
-17.6630408137
 20
27.9228425689
 30
0.0
 10
-17.6722458066
 20
27.8206168562
 30
0.0
  0
SPLINE
  5
341
100
AcDbEntity
  8
0
100
AcDbSpline
 62
7
  6
CONTINUOUS
 70
0
 71
3
 72
9
 73
5
 74
0
 42
0.0000001
 43
0.0000001
 44
0.0000000001
 40
0.0
 40
0.0
 40
0.0
 40
0.0
 40
0.2622496383
 40
1.0
 40
1.0
 40
1.0
 40
1.0
 10
2.8284171584
 20
47.520565935
 30
0.0
 10
2.8844150237
 20
47.4882334694
 30
0.0
 10
3.0946435745
 20
47.3594517804
 30
0.0
 10
3.2915493697
 20
47.2079016658
 30
0.0
 10
3.4231151228
 20
47.0822850423
 30
0.0
  0
SPLINE
  5
342
100
AcDbEntity
  8
0
100
AcDbSpline
 62
7
  6
CONTINUOUS
 70
0
 71
3
 72
9
 73
5
 74
0
 42
0.0000001
 43
0.0000001
 44
0.0000000001
 40
0.0
 40
0.0
 40
0.0
 40
0.0
 40
0.2589731339
 40
1.0
 40
1.0
 40
1.0
 40
1.0
 10
3.4231151228
 20
47.0822850423
 30
0.0
 10
3.4506187523
 20
47.0560250697
 30
0.0
 10
3.5545055307
 20
46.952253358
 30
0.0
 10
3.6487920939
 20
46.8386665579
 30
0.0
 10
3.7109947151
 20
46.7493891952
 30
0.0
  0
SPLINE
  5
343
100
AcDbEntity
  8
0
100
AcDbSpline
 62
7
  6
CONTINUOUS
 70
0
 71
3
 72
9
 73
5
 74
0
 42
0.0000001
 43
0.0000001
 44
0.0000000001
 40
0.0
 40
0.0
 40
0.0
 40
0.0
 40
0.2579968065
 40
1.0
 40
1.0
 40
1.0
 40
1.0
 10
3.7109947151
 20
46.7493891952
 30
0.0
 10
3.7316303167
 20
46.7197715995
 30
0.0
 10
3.8083843311
 20
46.6027831735
 30
0.0
 10
3.8714561422
 20
46.4766125131
 30
0.0
 10
3.9081201561
 20
46.3794851299
 30
0.0
  0
SPLINE
  5
344
100
AcDbEntity
  8
RACCORDO
100
AcDbSpline
 62
7
  6
CONTINUOUS
 70
0
 71
3
 72
9
 73
5
 74
0
 42
0.0000001
 43
0.0000001
 44
0.0000000001
 40
0.0
 40
0.0
 40
0.0
 40
0.0
 40
0.4569177743
 40
1.0
 40
1.0
 40
1.0
 40
1.0
 10
14.1668947005
 20
3.1332918759
 30
0.0
 10
14.1669260234
 20
3.0990128907
 30
0.0
 10
14.1414297357
 20
3.0234759631
 30
0.0
 10
14.0843169964
 20
2.9714263304
 30
0.0
 10
14.0508125886
 20
2.9482429932
 30
0.0
  0
SPLINE
  5
345
100
AcDbEntity
  8
RACCORDO
100
AcDbSpline
 62
7
  6
CONTINUOUS
 70
0
 71
3
 72
9
 73
5
 74
0
 42
0.0000001
 43
0.0000001
 44
0.0000000001
 40
0.0
 40
0.0
 40
0.0
 40
0.0
 40
0.5087801157
 40
1.0
 40
1.0
 40
1.0
 40
1.0
 10
17.6203257429
 20
6.8649459683
 30
0.0
 10
17.8389879035
 20
7.3151828001
 30
0.0
 10
18.1808647324
 20
8.2470041916
 30
0.0
 10
18.2999565808
 20
9.2340741329
 30
0.0
 10
18.2999951114
 20
9.7173248516
 30
0.0
  0
SPLINE
  5
346
100
AcDbEntity
  8
RACCORDO
100
AcDbSpline
 62
7
  6
CONTINUOUS
 70
0
 71
3
 72
11
 73
7
 74
0
 42
0.0000001
 43
0.0000001
 44
0.0000000001
 40
0.0
 40
0.0
 40
0.0
 40
0.0
 40
0.2429256364
 40
0.494254612
 40
0.7485072368
 40
1.0
 40
1.0
 40
1.0
 40
1.0
 10
-8.1592299298
 20
0.260003512
 30
0.0
 10
-7.1307550525
 20
-0.035778565
 30
0.0
 10
-4.9991875579
 20
-0.5076451605
 30
0.0
 10
-1.7146783972
 20
-0.860867062
 30
0.0
 10
1.6263933483
 20
-0.8656534683
 30
0.0
 10
3.8473578964
 20
-0.6329987967
 30
0.0
 10
4.9410192285
 20
-0.4559267041
 30
0.0
  0
SPLINE
  5
347
100
AcDbEntity
  8
0
100
AcDbSpline
 62
7
  6
CONTINUOUS
 70
0
 71
3
 72
9
 73
5
 74
0
 42
0.0000001
 43
0.0000001
 44
0.0000000001
 40
0.0
 40
0.0
 40
0.0
 40
0.0
 40
0.4836542061
 40
1.0
 40
1.0
 40
1.0
 40
1.0
 10
-12.6208019416
 20
17.9436824481
 30
0.0
 10
-11.9240830377
 20
17.5414056849
 30
0.0
 10
-10.4233781879
 20
16.8117423907
 30
0.0
 10
-8.8484960075
 20
16.2649697108
 30
0.0
 10
-8.0237169082
 20
16.0253062861
 30
0.0
  0
SPLINE
  5
348
100
AcDbEntity
  8
RACCORDO
100
AcDbSpline
 62
7
  6
CONTINUOUS
 70
0
 71
3
 72
11
 73
7
 74
0
 42
0.0000001
 43
0.0000001
 44
0.0000000001
 40
0.0
 40
0.0
 40
0.0
 40
0.0
 40
0.2440114363
 40
0.4897371667
 40
0.7409700438
 40
1.0
 40
1.0
 40
1.0
 40
1.0
 10
6.0499900336
 20
44.990627245
 30
0.0
 10
6.0499900336
 20
45.1765687047
 30
0.0
 10
6.0087463984
 20
45.5510239291
 30
0.0
 10
5.8272216619
 20
46.0897333756
 30
0.0
 10
5.538992419
 20
46.5922881592
 30
0.0
 10
5.2881030329
 20
46.8920050398
 30
0.0
 10
5.1504106022
 20
47.0334333744
 30
0.0
  0
SPLINE
  5
349
100
AcDbEntity
  8
RACCORDO
100
AcDbSpline
 62
7
  6
CONTINUOUS
 70
0
 71
3
 72
11
 73
7
 74
0
 42
0.0000001
 43
0.0000001
 44
0.0000000001
 40
0.0
 40
0.0
 40
0.0
 40
0.0
 40
0.2397482152
 40
0.4830973869
 40
0.7348294899
 40
1.0
 40
1.0
 40
1.0
 40
1.0
 10
5.2999900336
 20
46.2140556724
 30
0.0
 10
5.2999900336
 20
46.4417171642
 30
0.0
 10
5.2302053059
 20
46.9031501498
 30
0.0
 10
4.931569589
 20
47.5426792499
 30
0.0
 10
4.4712126293
 20
48.1066886684
 30
0.0
 10
4.0866098285
 20
48.4169485811
 30
0.0
 10
3.8783371169
 20
48.5584646433
 30
0.0
  0
SPLINE
  5
34A
100
AcDbEntity
  8
RACCORDO
100
AcDbSpline
 62
7
  6
CONTINUOUS
 70
0
 71
3
 72
11
 73
7
 74
0
 42
0.0000001
 43
0.0000001
 44
0.0000000001
 40
0.0
 40
0.0
 40
0.0
 40
0.0
 40
0.2407048389
 40
0.4855894735
 40
0.7377561142
 40
1.0
 40
1.0
 40
1.0
 40
1.0
 10
14.5125056696
 20
43.2964750886
 30
0.0
 10
14.3351804119
 20
43.8415980324
 30
0.0
 10
13.8463682028
 20
44.9022609402
 30
0.0
 10
12.7868984125
 20
46.3171913972
 30
0.0
 10
11.4521955339
 20
47.5497095627
 30
0.0
 10
10.4297022558
 20
48.233354146
 30
0.0
 10
9.888848154
 20
48.5456365259
 30
0.0
  0
SPLINE
  5
34B
100
AcDbEntity
  8
0
100
AcDbSpline
 62
7
  6
CONTINUOUS
 70
0
 71
3
 72
9
 73
5
 74
0
 42
0.0000001
 43
0.0000001
 44
0.0000000001
 40
0.0
 40
0.0
 40
0.0
 40
0.0
 40
0.5024716707
 40
1.0
 40
1.0
 40
1.0
 40
1.0
 10
17.8383898644
 20
25.5773327154
 30
0.0
 10
17.6623564821
 20
28.5980174741
 30
0.0
 10
16.9300174825
 20
34.5936106429
 30
0.0
 10
15.4392981434
 20
40.4473838296
 30
0.0
 10
14.5125056696
 20
43.2964750886
 30
0.0
  0
SPLINE
  5
34C
100
AcDbEntity
  8
0
100
AcDbSpline
 62
7
  6
CONTINUOUS
 70
0
 71
3
 72
17
 73
13
 74
0
 42
0.0000001
 43
0.0000001
 44
0.0000000001
 40
0.0
 40
0.0
 40
0.0
 40
0.0
 40
0.0428614531
 40
0.0874931602
 40
0.1353289582
 40
0.1872934303
 40
0.3045602067
 40
0.4382297967
 40
0.582574263
 40
0.7297295992
 40
0.8713113841
 40
1.0
 40
1.0
 40
1.0
 40
1.0
 10
3.9999673168
 20
46.8672318939
 30
0.0
 10
3.9999664925
 20
46.7533553616
 30
0.0
 10
3.9695455969
 20
46.5199053537
 30
0.0
 10
3.8356613485
 20
46.1828336529
 30
0.0
 10
3.6184235046
 20
45.8632723055
 30
0.0
 10
3.2094933727
 20
45.4528062807
 30
0.0
 10
2.5126431248
 20
45.0286299482
 30
0.0
 10
1.5107202694
 20
44.69391874
 30
0.0
 10
0.3863358424
 20
44.535910464
 30
0.0
 10
-0.7693227365
 20
44.5679363421
 30
0.0
 10
-1.8619484668
 20
44.7865448799
 30
0.0
 10
-2.5323420662
 20
45.0631719641
 30
0.0
 10
-2.8284370911
 20
45.2341335206
 30
0.0
  0
SPLINE
  5
34D
100
AcDbEntity
  8
RACCORDO
100
AcDbSpline
 62
7
  6
CONTINUOUS
 70
0
 71
3
 72
11
 73
7
 74
0
 42
0.0000001
 43
0.0000001
 44
0.0000000001
 40
0.0
 40
0.0
 40
0.0
 40
0.0
 40
0.2785673919
 40
0.53444022
 40
0.7721985455
 40
1.0
 40
1.0
 40
1.0
 40
1.0
 10
8.764392941
 20
48.5751857658
 30
0.0
 10
8.8654092556
 20
48.6125265886
 30
0.0
 10
9.0652073069
 20
48.6696335662
 30
0.0
 10
9.3646054368
 20
48.6966547635
 30
0.0
 10
9.643587288
 20
48.6590763157
 30
0.0
 10
9.8123205731
 20
48.5897440995
 30
0.0
 10
9.8886099118
 20
48.5457404686
 30
0.0
  0
SPLINE
  5
34E
100
AcDbEntity
  8
RACCORDO
100
AcDbSpline
 62
7
  6
CONTINUOUS
 70
0
 71
3
 72
11
 73
7
 74
0
 42
0.0000001
 43
0.0000001
 44
0.0000000001
 40
0.0
 40
0.0
 40
0.0
 40
0.0
 40
0.2895374041
 40
0.5491068666
 40
0.7822571917
 40
1.0
 40
1.0
 40
1.0
 40
1.0
 10
3.1819705489
 20
48.7044675639
 30
0.0
 10
3.2170545604
 20
48.7247246324
 30
0.0
 10
3.286903666
 20
48.7579178715
 30
0.0
 10
3.3942265646
 20
48.783896139
 30
0.0
 10
3.4949784618
 20
48.7813731787
 30
0.0
 10
3.5555862236
 20
48.7593047407
 30
0.0
 10
3.5819708243
 20
48.7440709028
 30
0.0
  0
SPLINE
  5
34F
100
AcDbEntity
  8
RACCORDO
100
AcDbSpline
 62
7
  6
CONTINUOUS
 70
0
 71
3
 72
9
 73
5
 74
0
 42
0.0000001
 43
0.0000001
 44
0.0000000001
 40
0.0
 40
0.0
 40
0.0
 40
0.0
 40
0.247112503
 40
1.0
 40
1.0
 40
1.0
 40
1.0
 10
7.8661825426
 20
48.2333212058
 30
0.0
 10
7.6385107234
 20
48.1441818587
 30
0.0
 10
6.7197795968
 20
47.7768498362
 30
0.0
 10
5.8114946426
 20
47.3834622059
 30
0.0
 10
5.1339581429
 20
47.0738461195
 30
0.0
  0
SPLINE
  5
350
100
AcDbEntity
  8
RACCORDO
100
AcDbSpline
 62
7
  6
CONTINUOUS
 70
0
 71
3
 72
11
 73
7
 74
0
 42
0.0000001
 43
0.0000001
 44
0.0000000001
 40
0.0
 40
0.0
 40
0.0
 40
0.0
 40
0.237237912
 40
0.4999946463
 40
0.7627528754
 40
1.0
 40
1.0
 40
1.0
 40
1.0
 10
-3.7476759067
 20
44.0502003278
 30
0.0
 10
-3.7476759067
 20
44.1429346527
 30
0.0
 10
-3.7129058257
 20
44.3385097474
 30
0.0
 10
-3.5916270291
 20
44.6132957457
 30
0.0
 10
-3.414292263
 20
44.855721894
 30
0.0
 10
-3.262302588
 20
44.9836250203
 30
0.0
 10
-3.1819904817
 20
45.0299962239
 30
0.0
  0
SPLINE
  5
351
100
AcDbEntity
  8
RACCORDO
100
AcDbSpline
 62
7
  6
CONTINUOUS
 70
0
 71
3
 72
9
 73
5
 74
0
 42
0.0000001
 43
0.0000001
 44
0.0000000001
 40
0.0
 40
0.0
 40
0.0
 40
0.0
 40
0.2481777916
 40
1.0
 40
1.0
 40
1.0
 40
1.0
 10
-12.6208019416
 20
17.9436824481
 30
0.0
 10
-12.6093941617
 20
18.2272644643
 30
0.0
 10
-12.5585370866
 20
19.3697200412
 30
0.0
 10
-12.4882799439
 20
20.5113050056
 30
0.0
 10
-12.4249841858
 20
21.3687414406
 30
0.0
  0
SPLINE
  5
352
100
AcDbEntity
  8
RACCORDO
100
AcDbSpline
 62
7
  6
CONTINUOUS
 70
0
 71
3
 72
9
 73
5
 74
0
 42
0.0000001
 43
0.0000001
 44
0.0000000001
 40
0.0
 40
0.0
 40
0.0
 40
0.0
 40
0.2436871539
 40
1.0
 40
1.0
 40
1.0
 40
1.0
 10
-12.4249841858
 20
21.3687414406
 30
0.0
 10
-12.3384699607
 20
22.5407070044
 30
0.0
 10
-11.9030607838
 20
27.3439042149
 30
0.0
 10
-11.1565002017
 20
32.117533094
 30
0.0
 10
-10.4413419932
 20
35.6939663301
 30
0.0
  0
SPLINE
  5
353
100
AcDbEntity
  8
RACCORDO
100
AcDbSpline
 62
7
  6
CONTINUOUS
 70
0
 71
3
 72
11
 73
7
 74
0
 42
0.0000001
 43
0.0000001
 44
0.0000000001
 40
0.0
 40
0.0
 40
0.0
 40
0.0
 40
0.2459534276
 40
0.5036020331
 40
0.7593719969
 40
1.0
 40
1.0
 40
1.0
 40
1.0
 10
-10.4413419932
 20
35.6939663301
 30
0.0
 10
-10.3884852606
 20
35.9582974569
 30
0.0
 10
-10.2251763557
 20
36.4892940666
 30
0.0
 10
-9.8500906162
 20
37.2360941543
 30
0.0
 10
-9.3640007099
 20
37.9087244727
 30
0.0
 10
-8.9718460888
 20
38.2914122783
 30
0.0
 10
-8.7644128738
 20
38.4542729759
 30
0.0
  0
SPLINE
  5
354
100
AcDbEntity
  8
RACCORDO
100
AcDbSpline
 62
7
  6
CONTINUOUS
 70
0
 71
3
 72
9
 73
5
 74
0
 42
0.0000001
 43
0.0000001
 44
0.0000000001
 40
0.0
 40
0.0
 40
0.0
 40
0.0
 40
0.2524964692
 40
1.0
 40
1.0
 40
1.0
 40
1.0
 10
-8.7644128738
 20
38.4542729759
 30
0.0
 10
-8.505099806
 20
38.6578657664
 30
0.0
 10
-7.473365295
 20
39.4581276456
 30
0.0
 10
-6.4225916953
 20
40.2338817442
 30
0.0
 10
-5.626572013
 20
40.7986563038
 30
0.0
  0
SPLINE
  5
355
100
AcDbEntity
  8
RACCORDO
100
AcDbSpline
 62
7
  6
CONTINUOUS
 70
0
 71
3
 72
11
 73
7
 74
0
 42
0.0000001
 43
0.0000001
 44
0.0000000001
 40
0.0
 40
0.0
 40
0.0
 40
0.0
 40
0.2319270932
 40
0.4882935102
 40
0.7508867237
 40
1.0
 40
1.0
 40
1.0
 40
1.0
 10
-4.2780059926
 20
42.5205659507
 30
0.0
 10
-4.2780059926
 20
42.6000682313
 30
0.0
 10
-4.2522566067
 20
42.7676192808
 30
0.0
 10
-4.1590565827
 20
43.0091815268
 30
0.0
 10
-4.01868264
 20
43.2337135229
 30
0.0
 10
-3.8972486614
 20
43.3625769454
 30
0.0
 10
-3.831412236
 20
43.4169609537
 30
0.0
  0
SPLINE
  5
356
100
AcDbEntity
  8
RACCORDO
100
AcDbSpline
 62
7
  6
CONTINUOUS
 70
0
 71
3
 72
9
 73
5
 74
0
 42
0.0000001
 43
0.0000001
 44
0.0000000001
 40
0.0
 40
0.0
 40
0.0
 40
0.0
 40
0.2247614227
 40
1.0
 40
1.0
 40
1.0
 40
1.0
 10
17.6203257429
 20
6.8649459683
 30
0.0
 10
17.6049031751
 20
6.8331901152
 30
0.0
 10
17.5220033227
 20
6.6987348383
 30
0.0
 10
17.3932967632
 20
6.5977387273
 30
0.0
 10
17.2878467201
 20
6.536853194
 30
0.0
  0
SPLINE
  5
357
100
AcDbEntity
  8
RACCORDO
100
AcDbSpline
 62
7
  6
CONTINUOUS
 70
0
 71
3
 72
9
 73
5
 74
0
 42
0.0000001
 43
0.0000001
 44
0.0000000001
 40
0.0
 40
0.0
 40
0.0
 40
0.0
 40
0.2584540023
 40
1.0
 40
1.0
 40
1.0
 40
1.0
 10
11.7245107287
 20
1.6050654547
 30
0.0
 10
11.9331131407
 20
1.7055686865
 30
0.0
 10
12.733215728
 20
2.1086600798
 30
0.0
 10
13.5044917486
 20
2.5702169054
 30
0.0
 10
14.0508125886
 20
2.9482429932
 30
0.0
  0
SPLINE
  5
358
100
AcDbEntity
  8
RACCORDO
100
AcDbSpline
 62
7
  6
CONTINUOUS
 70
0
 71
3
 72
11
 73
7
 74
0
 42
0.0000001
 43
0.0000001
 44
0.0000000001
 40
0.0
 40
0.0
 40
0.0
 40
0.0
 40
0.2426118639
 40
0.5053838917
 40
0.7652585029
 40
1.0
 40
1.0
 40
1.0
 40
1.0
 10
11.7245107287
 20
1.6050654547
 30
0.0
 10
11.6738220647
 20
1.5806439991
 30
0.0
 10
11.560321275
 20
1.5458447592
 30
0.0
 10
11.3821921459
 20
1.5320775176
 30
0.0
 10
11.2068030705
 20
1.5546229822
 30
0.0
 10
11.0977606782
 20
1.5953673254
 30
0.0
 10
11.0506152426
 20
1.622588509
 30
0.0
  0
SPLINE
  5
359
100
AcDbEntity
  8
RACCORDO
100
AcDbSpline
 62
7
  6
CONTINUOUS
 70
0
 71
3
 72
9
 73
5
 74
0
 42
0.0000001
 43
0.0000001
 44
0.0000000001
 40
0.0
 40
0.0
 40
0.0
 40
0.0
 40
0.2325264148
 40
1.0
 40
1.0
 40
1.0
 40
1.0
 10
5.5092559725
 20
-0.2639574833
 30
0.0
 10
5.4688695325
 20
-0.2872761076
 30
0.0
 10
5.289460957
 20
-0.3775890611
 30
0.0
 10
5.0929634145
 20
-0.4313257674
 30
0.0
 10
4.9410192285
 20
-0.4559267041
 30
0.0
  0
SPLINE
  5
35A
100
AcDbEntity
  8
RACCORDO
100
AcDbSpline
 62
7
  6
CONTINUOUS
 70
0
 71
3
 72
9
 73
5
 74
0
 42
0.0000001
 43
0.0000001
 44
0.0000000001
 40
0.0
 40
0.0
 40
0.0
 40
0.0
 40
0.5119848636
 40
1.0
 40
1.0
 40
1.0
 40
1.0
 10
-3.831412236
 20
43.4169609537
 30
0.0
 10
-3.8061878906
 20
43.4377974588
 30
0.0
 10
-3.7669012839
 20
43.4903688157
 30
0.0
 10
-3.7476759067
 20
43.5538493652
 30
0.0
 10
-3.7476759067
 20
43.5850350158
 30
0.0
  0
SPLINE
  5
35B
100
AcDbEntity
  8
RACCORDO
100
AcDbSpline
 62
7
  6
CONTINUOUS
 70
0
 71
3
 72
9
 73
5
 74
0
 42
0.0000001
 43
0.0000001
 44
0.0000000001
 40
0.0
 40
0.0
 40
0.0
 40
0.0
 40
0.5054501911
 40
1.0
 40
1.0
 40
1.0
 40
1.0
 10
-4.3746976789
 20
41.6682718566
 30
0.0
 10
-4.3457920792
 20
41.6879230366
 30
0.0
 10
-4.3004793785
 20
41.7434134787
 30
0.0
 10
-4.2780059926
 20
41.8118926165
 30
0.0
 10
-4.2780059926
 20
41.846091696
 30
0.0
  0
SPLINE
  5
35C
100
AcDbEntity
  8
0
100
AcDbSpline
 62
7
  6
CONTINUOUS
 70
0
 71
3
 72
9
 73
5
 74
0
 42
0.0000001
 43
0.0000001
 44
0.0000000001
 40
0.0
 40
0.0
 40
0.0
 40
0.0
 40
0.2540792432
 40
1.0
 40
1.0
 40
1.0
 40
1.0
 10
13.6458842252
 20
27.4376295507
 30
0.0
 10
13.6143384967
 20
27.5650907076
 30
0.0
 10
13.4954449192
 20
28.0680311987
 30
0.0
 10
13.3978899707
 20
28.5760680668
 30
0.0
 10
13.3384935839
 20
28.9569525689
 30
0.0
  0
SPLINE
  5
35D
100
AcDbEntity
  8
0
100
AcDbSpline
 62
7
  6
CONTINUOUS
 70
0
 71
3
 72
14
 73
10
 74
0
 42
0.0000001
 43
0.0000001
 44
0.0000000001
 40
0.0
 40
0.0
 40
0.0
 40
0.0
 40
0.284702288
 40
0.4295393263
 40
0.568698017
 40
0.6972260924
 40
0.8115929763
 40
0.9111815049
 40
1.0
 40
1.0
 40
1.0
 40
1.0
 10
14.4886169264
 20
29.7206615493
 30
0.0
 10
14.6214777764
 20
29.8809571113
 30
0.0
 10
14.7768805655
 20
30.1623888215
 30
0.0
 10
14.8960937099
 20
30.5614670938
 30
0.0
 10
14.9396192843
 20
30.8613045822
 30
0.0
 10
14.9350295666
 20
31.142033561
 30
0.0
 10
14.8819816096
 20
31.388904724
 30
0.0
 10
14.7804265432
 20
31.5893010542
 30
0.0
 10
14.6757302679
 20
31.6852591753
 30
0.0
 10
14.6194869672
 20
31.7177462625
 30
0.0
  0
SPLINE
  5
35E
100
AcDbEntity
  8
0
100
AcDbSpline
 62
7
  6
CONTINUOUS
 70
0
 71
3
 72
10
 73
6
 74
0
 42
0.0000001
 43
0.0000001
 44
0.0000000001
 40
0.0
 40
0.0
 40
0.0
 40
0.0
 40
0.5386562373
 40
0.7745989789
 40
1.0
 40
1.0
 40
1.0
 40
1.0
 10
13.8968503458
 20
30.955784884
 30
0.0
 10
13.9400047389
 20
30.9807016897
 30
0.0
 10
14.0099662558
 20
31.007611853
 30
0.0
 10
14.1035518273
 20
31.003253017
 30
0.0
 10
14.1442962887
 20
30.987835707
 30
0.0
 10
14.1623471693
 20
30.9773969665
 30
0.0
  0
SPLINE
  5
35F
100
AcDbEntity
  8
0
100
AcDbSpline
 62
7
  6
CONTINUOUS
 70
0
 71
3
 72
9
 73
5
 74
0
 42
0.0000001
 43
0.0000001
 44
0.0000000001
 40
0.0
 40
0.0
 40
0.0
 40
0.0
 40
0.5164335308
 40
1.0
 40
1.0
 40
1.0
 40
1.0
 10
9.7124877333
 20
25.1665248254
 30
0.0
 10
9.5556859201
 20
25.7999588036
 30
0.0
 10
9.3152592367
 20
27.0433365591
 30
0.0
 10
9.2241953945
 20
28.3077020199
 30
0.0
 10
9.2240020535
 20
28.918724957
 30
0.0
  0
SPLINE
  5
360
100
AcDbEntity
  8
0
100
AcDbSpline
 62
7
  6
CONTINUOUS
 70
0
 71
3
 72
9
 73
5
 74
0
 42
0.0000001
 43
0.0000001
 44
0.0000000001
 40
0.0
 40
0.0
 40
0.0
 40
0.0
 40
0.2573991947
 40
1.0
 40
1.0
 40
1.0
 40
1.0
 10
7.3738303424
 20
23.8162133582
 30
0.0
 10
7.3207151676
 20
24.0307833033
 30
0.0
 10
7.1291139711
 20
24.867910985
 30
0.0
 10
6.9976314805
 20
25.7192839913
 30
0.0
 10
6.9409564011
 20
26.3544828385
 30
0.0
  0
SPLINE
  5
361
100
AcDbEntity
  8
0
100
AcDbSpline
 62
7
  6
CONTINUOUS
 70
0
 71
3
 72
9
 73
5
 74
0
 42
0.0000001
 43
0.0000001
 44
0.0000000001
 40
0.0
 40
0.0
 40
0.0
 40
0.0
 40
0.5164334519
 40
1.0
 40
1.0
 40
1.0
 40
1.0
 10
6.1717191158
 20
23.122129402
 30
0.0
 10
6.0149183877
 20
23.7555641049
 30
0.0
 10
5.7744939347
 20
24.9989433708
 30
0.0
 10
5.6834326033
 20
26.2633100712
 30
0.0
 10
5.6832405071
 20
26.8743336162
 30
0.0
  0
SPLINE
  5
362
100
AcDbEntity
  8
0
100
AcDbSpline
 62
250
  6
CONTINUOUS
 70
0
 71
3
 72
9
 73
5
 74
0
 42
0.0000001
 43
0.0000001
 44
0.0000000001
 40
0.0
 40
0.0
 40
0.0
 40
0.0
 40
0.2584540217
 40
1.0
 40
1.0
 40
1.0
 40
1.0
 10
11.7245107287
 20
6.5038871155
 30
0.0
 10
11.9331131563
 20
6.6043903547
 30
0.0
 10
12.73321574
 20
7.0074817552
 30
0.0
 10
13.5044917629
 20
7.4690385761
 30
0.0
 10
14.0508125886
 20
7.847064654
 30
0.0
  0
SPLINE
  5
363
100
AcDbEntity
  8
0
100
AcDbSpline
 62
250
  6
CONTINUOUS
 70
0
 71
3
 72
9
 73
5
 74
0
 42
0.0000001
 43
0.0000001
 44
0.0000000001
 40
0.0
 40
0.0
 40
0.0
 40
0.0
 40
0.2584540207
 40
1.0
 40
1.0
 40
1.0
 40
1.0
 10
11.4041686332
 20
7.1337826048
 30
0.0
 10
11.6070715402
 20
7.2315398536
 30
0.0
 10
12.3853133977
 20
7.6236178275
 30
0.0
 10
13.1355163052
 20
8.0725638065
 30
0.0
 10
13.666910333
 20
8.4402613035
 30
0.0
  0
SPLINE
  5
364
100
AcDbEntity
  8
RACCORDO
100
AcDbSpline
 62
250
  6
CONTINUOUS
 70
0
 71
3
 72
17
 73
13
 74
0
 42
0.0000001
 43
0.0000001
 44
0.0000000001
 40
0.0
 40
0.0
 40
0.0
 40
0.0
 40
0.1296601267
 40
0.2689176233
 40
0.412077417
 40
0.5528847264
 40
0.6853876071
 40
0.8048907763
 40
0.8590223602
 40
0.909313272
 40
0.9560863374
 40
1.0
 40
1.0
 40
1.0
 40
1.0
 10
-3.3047795319
 20
43.8216572612
 30
0.0
 10
-2.9320780511
 20
43.6500194326
 30
0.0
 10
-2.1212708741
 20
43.3737668291
 30
0.0
 10
-0.8303729818
 20
43.1583947203
 30
0.0
 10
0.5136383358
 20
43.1351740253
 30
0.0
 10
1.8256445024
 20
43.3061251822
 30
0.0
 10
3.0228758037
 20
43.6603632162
 30
0.0
 10
3.8925781859
 20
44.1058158223
 30
0.0
 10
4.454624056
 20
44.5404663788
 30
0.0
 10
4.7898606023
 20
44.8844789044
 30
0.0
 10
5.0467237863
 20
45.2518327794
 30
0.0
 10
5.1653583537
 20
45.5156371242
 30
0.0
 10
5.2084488512
 20
45.6477575459
 30
0.0
  0
SPLINE
  5
365
100
AcDbEntity
  8
RACCORDO
100
AcDbSpline
 62
250
  6
CONTINUOUS
 70
0
 71
3
 72
16
 73
12
 74
0
 42
0.0000001
 43
0.0000001
 44
0.0000000001
 40
0.0
 40
0.0
 40
0.0
 40
0.0
 40
0.0584982673
 40
0.1200557388
 40
0.2507977875
 40
0.3880972127
 40
0.5267861619
 40
0.6614993303
 40
0.7873573096
 40
0.9007065209
 40
1.0
 40
1.0
 40
1.0
 40
1.0
 10
-3.1830778568
 20
45.0293683872
 30
0.0
 10
-3.0510436378
 20
44.9531334839
 30
0.0
 10
-2.7707812744
 20
44.8125992209
 30
0.0
 10
-2.1628404836
 20
44.5707574146
 30
0.0
 10
-1.3262109781
 20
44.3586464922
 30
0.0
 10
-0.2686243936
 20
44.2487386074
 30
0.0
 10
0.8046298089
 20
44.2856850307
 30
0.0
 10
1.8329476165
 20
44.4671252904
 30
0.0
 10
2.7596037521
 20
44.78367935
 30
0.0
 10
3.5336450366
 20
45.2179989109
 30
0.0
 10
3.9470556763
 20
45.5994881918
 30
0.0
 10
4.1058370432
 20
45.8038374353
 30
0.0
  0
SPLINE
  5
366
100
AcDbEntity
  8
RACCORDO
100
AcDbSpline
 62
250
  6
CONTINUOUS
 70
0
 71
3
 72
11
 73
7
 74
0
 42
0.0000001
 43
0.0000001
 44
0.0000000001
 40
0.0
 40
0.0
 40
0.0
 40
0.0
 40
0.2635581932
 40
0.5081005094
 40
0.7482621391
 40
1.0
 40
1.0
 40
1.0
 40
1.0
 10
4.1058370432
 20
45.8038374353
 30
0.0
 10
4.2143753866
 20
45.9435246595
 30
0.0
 10
4.3940949155
 20
46.2388976016
 30
0.0
 10
4.5212168986
 20
46.7332689297
 30
0.0
 10
4.4821661071
 20
47.2347926464
 30
0.0
 10
4.35256577
 20
47.5445135416
 30
0.0
 10
4.2679362444
 20
47.690756318
 30
0.0
  0
SPLINE
  5
367
100
AcDbEntity
  8
RACCORDO
100
AcDbSpline
 62
250
  6
CONTINUOUS
 70
0
 71
3
 72
9
 73
5
 74
0
 42
0.0000001
 43
0.0000001
 44
0.0000000001
 40
0.0
 40
0.0
 40
0.0
 40
0.0
 40
0.2447292367
 40
1.0
 40
1.0
 40
1.0
 40
1.0
 10
4.2679362444
 20
47.690756318
 30
0.0
 10
4.2549906951
 20
47.7131266795
 30
0.0
 10
4.2003079864
 20
47.8034956796
 30
0.0
 10
4.138702077
 20
47.8896325606
 30
0.0
 10
4.0890525924
 20
47.9520614235
 30
0.0
  0
SPLINE
  5
368
100
AcDbEntity
  8
RACCORDO
100
AcDbSpline
 62
250
  6
CONTINUOUS
 70
0
 71
3
 72
9
 73
5
 74
0
 42
0.0000001
 43
0.0000001
 44
0.0000000001
 40
0.0
 40
0.0
 40
0.0
 40
0.0
 40
0.2360477829
 40
1.0
 40
1.0
 40
1.0
 40
1.0
 10
4.0890525924
 20
47.9520614235
 30
0.0
 10
4.0458742687
 20
48.0063535007
 30
0.0
 10
3.8527259716
 20
48.2282476314
 30
0.0
 10
3.6230597113
 20
48.4165224683
 30
0.0
 10
3.4382611199
 20
48.5440083807
 30
0.0
  0
SPLINE
  5
369
100
AcDbEntity
  8
RACCORDO
100
AcDbSpline
 62
250
  6
CONTINUOUS
 70
0
 71
3
 72
9
 73
5
 74
0
 42
0.0000001
 43
0.0000001
 44
0.0000000001
 40
0.0
 40
0.0
 40
0.0
 40
0.0
 40
0.5011177896
 40
1.0
 40
1.0
 40
1.0
 40
1.0
 10
3.8122695282
 20
15.1631034381
 30
0.0
 10
3.9124183918
 20
15.3106644391
 30
0.0
 10
4.08094934
 20
15.6267627761
 30
0.0
 10
4.1921197863
 20
15.9673655121
 30
0.0
 10
4.228569275
 20
16.1411249556
 30
0.0
  0
SPLINE
  5
36A
100
AcDbEntity
  8
RACCORDO
100
AcDbSpline
 62
250
  6
CONTINUOUS
 70
0
 71
3
 72
11
 73
7
 74
0
 42
0.0000001
 43
0.0000001
 44
0.0000000001
 40
0.0
 40
0.0
 40
0.0
 40
0.0
 40
0.189151801
 40
0.4194354542
 40
0.6917529198
 40
1.0
 40
1.0
 40
1.0
 40
1.0
 10
17.2404598024
 20
22.09608663
 30
0.0
 10
17.224659751
 20
22.1430521306
 30
0.0
 10
17.1651622212
 20
22.2384092711
 30
0.0
 10
17.0355072828
 20
22.365895576
 30
0.0
 10
16.8606177416
 20
22.4881754976
 30
0.0
 10
16.725197619
 20
22.557877628
 30
0.0
 10
16.6527358721
 20
22.5935156718
 30
0.0
  0
SPLINE
  5
36B
100
AcDbEntity
  8
RACCORDO
100
AcDbSpline
 62
250
  6
CONTINUOUS
 70
0
 71
3
 72
11
 73
7
 74
0
 42
0.0000001
 43
0.0000001
 44
0.0000000001
 40
0.0
 40
0.0
 40
0.0
 40
0.0
 40
0.1768091459
 40
0.4031077912
 40
0.6797691561
 40
1.0
 40
1.0
 40
1.0
 40
1.0
 10
17.436594648
 20
23.0296044891
 30
0.0
 10
17.4205815941
 20
23.068788652
 30
0.0
 10
17.3624010644
 20
23.1487644002
 30
0.0
 10
17.2359857294
 20
23.2523168976
 30
0.0
 10
17.0647893715
 20
23.3513613652
 30
0.0
 10
16.9333385805
 20
23.4080770435
 30
0.0
 10
16.8616771336
 20
23.4353236481
 30
0.0
  0
SPLINE
  5
36C
100
AcDbEntity
  8
0
100
AcDbSpline
 62
7
  6
CONTINUOUS
 70
0
 71
3
 72
11
 73
7
 74
0
 42
0.0000001
 43
0.0000001
 44
0.0000000001
 40
0.0
 40
0.0
 40
0.0
 40
0.0
 40
0.2897664814
 40
0.5490567956
 40
0.7822177504
 40
1.0
 40
1.0
 40
1.0
 40
1.0
 10
2.8284171584
 20
48.5003302672
 30
0.0
 10
3.0039775254
 20
48.3989639115
 30
0.0
 10
3.322450792
 20
48.1796901312
 30
0.0
 10
3.7029411388
 20
47.7796192657
 30
0.0
 10
3.9437109951
 20
47.3372004933
 30
0.0
 10
3.9999684198
 20
47.0195940733
 30
0.0
 10
3.9999673168
 20
46.8672318939
 30
0.0
  0
SPLINE
  5
36D
100
AcDbEntity
  8
0
100
AcDbSpline
 62
7
  6
CONTINUOUS
 70
0
 71
3
 72
11
 73
7
 74
0
 42
0.0000001
 43
0.0000001
 44
0.0000000001
 40
0.0
 40
0.0
 40
0.0
 40
0.0
 40
0.2207266416
 40
0.4539695265
 40
0.7120372898
 40
1.0
 40
1.0
 40
1.0
 40
1.0
 10
14.6194869672
 20
31.7177462625
 30
0.0
 10
14.5756429735
 20
31.7430712991
 30
0.0
 10
14.475815559
 20
31.7799525841
 30
0.0
 10
14.3102554518
 20
31.784853378
 30
0.0
 10
14.1348795699
 20
31.7426627249
 30
0.0
 10
14.0210365975
 20
31.6884815661
 30
0.0
 10
13.9638314939
 20
31.6554520563
 30
0.0
  0
SPLINE
  5
36E
100
AcDbEntity
  8
RACCORDO
100
AcDbSpline
 62
250
  6
CONTINUOUS
 70
0
 71
3
 72
18
 73
14
 74
0
 42
0.0000001
 43
0.0000001
 44
0.0000000001
 40
0.0
 40
0.0
 40
0.0
 40
0.0
 40
0.0428227451
 40
0.0873826744
 40
0.1350923856
 40
0.1868772341
 40
0.2431617197
 40
0.3039295977
 40
0.43705235
 40
0.5809727081
 40
0.7280728214
 40
0.8701763131
 40
1.0
 40
1.0
 40
1.0
 40
1.0
 10
5.2999884111
 20
45.7488903605
 30
0.0
 10
5.2999903451
 20
45.5997210628
 30
0.0
 10
5.2605990644
 20
45.2940603113
 30
0.0
 10
5.0872384588
 20
44.8522378749
 30
0.0
 10
4.805640419
 20
44.4327571514
 30
0.0
 10
4.4235612458
 20
44.0438090485
 30
0.0
 10
3.949598136
 20
43.6921506681
 30
0.0
 10
3.1853134852
 20
43.2691868758
 30
0.0
 10
2.0632758811
 20
42.8846687948
 30
0.0
 10
0.5953716318
 20
42.6658873841
 30
0.0
 10
-0.9203614195
 20
42.6927202224
 30
0.0
 10
-2.3615960267
 20
42.9624749605
 30
0.0
 10
-3.2515881697
 20
43.3117837266
 30
0.0
 10
-3.6481911944
 20
43.5290797302
 30
0.0
  0
SPLINE
  5
36F
100
AcDbEntity
  8
0
100
AcDbSpline
 62
7
  6
CONTINUOUS
 70
0
 71
3
 72
9
 73
5
 74
0
 42
0.0000001
 43
0.0000001
 44
0.0000000001
 40
0.0
 40
0.0
 40
0.0
 40
0.0
 40
0.460145787
 40
1.0
 40
1.0
 40
1.0
 40
1.0
 10
14.4360344196
 20
31.7924912681
 30
0.0
 10
14.3562850363
 20
31.8073341034
 30
0.0
 10
14.174493878
 20
31.7955374487
 30
0.0
 10
14.0108952116
 20
31.723453519
 30
0.0
 10
13.9284763395
 20
31.6758658953
 30
0.0
  0
SPLINE
  5
370
100
AcDbEntity
  8
0
100
AcDbSpline
 62
7
  6
CONTINUOUS
 70
0
 71
3
 72
13
 73
9
 74
0
 42
0.0000001
 43
0.0000001
 44
0.0000000001
 40
0.0
 40
0.0
 40
0.0
 40
0.0
 40
0.0919847557
 40
0.1966904139
 40
0.317734016
 40
0.4527359289
 40
0.7386964194
 40
1.0
 40
1.0
 40
1.0
 40
1.0
 10
14.1623471693
 20
30.9773969665
 30
0.0
 10
14.1902925914
 20
30.9612362586
 30
0.0
 10
14.2415052115
 20
30.9109246169
 30
0.0
 10
14.2844260922
 20
30.8058190092
 30
0.0
 10
14.2979246077
 20
30.6786607452
 30
0.0
 10
14.2761355233
 20
30.4885050171
 30
0.0
 10
14.1840293234
 20
30.2625576625
 30
0.0
 10
14.0478179396
 20
30.1159073076
 30
0.0
 10
13.968401396
 20
30.0700531906
 30
0.0
  0
SPLINE
  5
371
100
AcDbEntity
  8
0
100
AcDbSpline
 62
7
  6
CONTINUOUS
 70
0
 71
3
 72
9
 73
5
 74
0
 42
0.0000001
 43
0.0000001
 44
0.0000000001
 40
0.0
 40
0.0
 40
0.0
 40
0.0
 40
0.2350787057
 40
1.0
 40
1.0
 40
1.0
 40
1.0
 10
14.1425046379
 20
30.9878443899
 30
0.0
 10
14.1522510036
 20
30.9809324492
 30
0.0
 10
14.1911651692
 20
30.9478748501
 30
0.0
 10
14.2175336873
 20
30.901829347
 30
0.0
 10
14.2310368502
 20
30.8653704305
 30
0.0
  0
SPLINE
  5
372
100
AcDbEntity
  8
0
100
AcDbSpline
 62
7
  6
CONTINUOUS
 70
0
 71
3
 72
11
 73
7
 74
0
 42
0.0000001
 43
0.0000001
 44
0.0000000001
 40
0.0
 40
0.0
 40
0.0
 40
0.0
 40
0.2259228581
 40
0.4888102115
 40
0.7576742512
 40
1.0
 40
1.0
 40
1.0
 40
1.0
 10
14.2310368502
 20
30.8653704305
 30
0.0
 10
14.2541175353
 20
30.803051937
 30
0.0
 10
14.2672328887
 20
30.6550777547
 30
0.0
 10
14.2163687929
 20
30.4355829895
 30
0.0
 10
14.1064567877
 20
30.2330552872
 30
0.0
 10
13.9944474687
 20
30.1262992448
 30
0.0
 10
13.9327179441
 20
30.090657391
 30
0.0
  0
SPLINE
  5
373
100
AcDbEntity
  8
RACCORDO
100
AcDbSpline
 62
250
  6
CONTINUOUS
 70
0
 71
3
 72
15
 73
11
 74
0
 42
0.0000001
 43
0.0000001
 44
0.0000000001
 40
0.0
 40
0.0
 40
0.0
 40
0.0
 40
0.0928449884
 40
0.1890784677
 40
0.2946239232
 40
0.4128217267
 40
0.5443931178
 40
0.6880315292
 40
0.8410745425
 40
1.0
 40
1.0
 40
1.0
 40
1.0
 10
5.3894558081
 20
45.9521582505
 30
0.0
 10
5.4259196821
 20
45.7493322979
 30
0.0
 10
5.4293828098
 20
45.3196898642
 30
0.0
 10
5.2080087465
 20
44.6925734713
 30
0.0
 10
4.7814517309
 20
44.1142705152
 30
0.0
 10
4.1739202058
 20
43.6025896323
 30
0.0
 10
3.4096699118
 20
43.1717930885
 30
0.0
 10
2.5170333111
 20
42.8359405514
 30
0.0
 10
1.5294841905
 20
42.6068521513
 30
0.0
 10
0.8392864583
 20
42.5316560221
 30
0.0
 10
0.4870153147
 20
42.5133009121
 30
0.0
  0
SPLINE
  5
374
100
AcDbEntity
  8
RACCORDO
100
AcDbSpline
 62
250
  6
CONTINUOUS
 70
0
 71
3
 72
11
 73
7
 74
0
 42
0.0000001
 43
0.0000001
 44
0.0000000001
 40
0.0
 40
0.0
 40
0.0
 40
0.0
 40
0.2650207235
 40
0.5250585851
 40
0.772228048
 40
1.0
 40
1.0
 40
1.0
 40
1.0
 10
0.4870153147
 20
42.5133009121
 30
0.0
 10
0.0930280126
 20
42.492772179
 30
0.0
 10
-0.6909664691
 20
42.5014008984
 30
0.0
 10
-1.8328745294
 20
42.6590256546
 30
0.0
 10
-2.8900719663
 20
42.9537859731
 30
0.0
 10
-3.5377723734
 20
43.2474169771
 30
0.0
 10
-3.831412236
 20
43.4169609537
 30
0.0
  0
SPLINE
  5
375
100
AcDbEntity
  8
RACCORDO
100
AcDbSpline
 62
250
  6
CONTINUOUS
 70
0
 71
3
 72
9
 73
5
 74
0
 42
0.0000001
 43
0.0000001
 44
0.0000000001
 40
0.0
 40
0.0
 40
0.0
 40
0.0
 40
0.2528590639
 40
1.0
 40
1.0
 40
1.0
 40
1.0
 10
17.436597133
 20
23.0296042742
 30
0.0
 10
17.4227580913
 20
22.950380803
 30
0.0
 10
17.3654567454
 20
22.6375275539
 30
0.0
 10
17.2976029452
 20
22.3265836009
 30
0.0
 10
17.2404319666
 20
22.095931395
 30
0.0
  0
SPLINE
  5
376
100
AcDbEntity
  8
RACCORDO
100
AcDbSpline
 62
250
  6
CONTINUOUS
 70
0
 71
3
 72
9
 73
5
 74
0
 42
0.0000001
 43
0.0000001
 44
0.0000000001
 40
0.0
 40
0.0
 40
0.0
 40
0.0
 40
0.2516523379
 40
1.0
 40
1.0
 40
1.0
 40
1.0
 10
17.2404319666
 20
22.095931395
 30
0.0
 10
17.3036766709
 20
20.8193905529
 30
0.0
 10
17.5241049979
 20
15.7452771622
 30
0.0
 10
17.6203355525
 20
10.6657176659
 30
0.0
 10
17.6203354247
 20
6.8649659043
 30
0.0
  0
SPLINE
  5
377
100
AcDbEntity
  8
0
100
AcDbSpline
 62
7
  6
CONTINUOUS
 70
0
 71
3
 72
10
 73
6
 74
0
 42
0.0000001
 43
0.0000001
 44
0.0000000001
 40
0.0
 40
0.0
 40
0.0
 40
0.0
 40
0.5455405025
 40
0.7799490265
 40
1.0
 40
1.0
 40
1.0
 40
1.0
 10
12.4925756537
 20
9.1183074294
 30
0.0
 10
12.5340289797
 20
9.1422420603
 30
0.0
 10
12.6004429402
 20
9.1685003655
 30
0.0
 10
12.6892646745
 20
9.1658209942
 30
0.0
 10
12.7275197862
 20
9.1517513562
 30
0.0
 10
12.7442406323
 20
9.1420971782
 30
0.0
  0
SPLINE
  5
378
100
AcDbEntity
  8
0
100
AcDbSpline
 62
250
  6
CONTINUOUS
 70
0
 71
3
 72
11
 73
7
 74
0
 42
0.0000001
 43
0.0000001
 44
0.0000000001
 40
0.0
 40
0.0
 40
0.0
 40
0.0
 40
0.2891365407
 40
0.5490310626
 40
0.7823308028
 40
1.0
 40
1.0
 40
1.0
 40
1.0
 10
13.666910333
 20
8.4402613035
 30
0.0
 10
13.688799512
 20
8.4528998412
 30
0.0
 10
13.7324510419
 20
8.4735811592
 30
0.0
 10
13.7994887126
 20
8.4899178297
 30
0.0
 10
13.8624673414
 20
8.4882988055
 30
0.0
 10
13.900361736
 20
8.4745821265
 30
0.0
 10
13.9168455213
 20
8.4650762988
 30
0.0
  0
SPLINE
  5
379
100
AcDbEntity
  8
0
100
AcDbSpline
 62
250
  6
CONTINUOUS
 70
0
 71
3
 72
11
 73
7
 74
0
 42
0.0000001
 43
0.0000001
 44
0.0000000001
 40
0.0
 40
0.0
 40
0.0
 40
0.0
 40
0.2425974948
 40
0.5056183241
 40
0.7655625172
 40
1.0
 40
1.0
 40
1.0
 40
1.0
 10
13.666910333
 20
8.4402613035
 30
0.0
 10
13.7205969665
 20
8.4143954465
 30
0.0
 10
13.823153131
 20
8.3406282034
 30
0.0
 10
13.9443635956
 20
8.1946688334
 30
0.0
 10
14.0272522183
 20
8.0262297844
 30
0.0
 10
14.0508125886
 20
7.9046529523
 30
0.0
 10
14.0508125886
 20
7.847064654
 30
0.0
  0
SPLINE
  5
37A
100
AcDbEntity
  8
0
100
AcDbSpline
 62
250
  6
CONTINUOUS
 70
0
 71
3
 72
11
 73
7
 74
0
 42
0.0000001
 43
0.0000001
 44
0.0000000001
 40
0.0
 40
0.0
 40
0.0
 40
0.0
 40
0.2317402078
 40
0.4942907579
 40
0.7599302906
 40
1.0
 40
1.0
 40
1.0
 40
1.0
 10
11.4041686332
 20
7.1337826048
 30
0.0
 10
11.450414807
 20
7.1017826171
 30
0.0
 10
11.536905023
 20
7.0160463287
 30
0.0
 10
11.6366539383
 20
6.8596402589
 30
0.0
 10
11.7048079341
 20
6.684909783
 30
0.0
 10
11.7245107287
 20
6.5621464488
 30
0.0
 10
11.7245107287
 20
6.5038871155
 30
0.0
  0
SPLINE
  5
37B
100
AcDbEntity
  8
0
100
AcDbSpline
 62
250
  6
CONTINUOUS
 70
0
 71
3
 72
11
 73
7
 74
0
 42
0.0000001
 43
0.0000001
 44
0.0000000001
 40
0.0
 40
0.0
 40
0.0
 40
0.0
 40
0.2372352988
 40
0.500038412
 40
0.7628255458
 40
1.0
 40
1.0
 40
1.0
 40
1.0
 10
11.4041686332
 20
7.1337826048
 30
0.0
 10
11.3539759164
 20
7.1048019593
 30
0.0
 10
11.2589827339
 20
7.0248517656
 30
0.0
 10
11.1481129661
 20
6.8733394426
 30
0.0
 10
11.0723468964
 20
6.7015774423
 30
0.0
 10
11.0506152426
 20
6.5793537956
 30
0.0
 10
11.0506152426
 20
6.5214101698
 30
0.0
  0
SPLINE
  5
37C
100
AcDbEntity
  8
0
100
AcDbSpline
 62
7
  6
CONTINUOUS
 70
0
 71
3
 72
11
 73
7
 74
0
 42
0.0000001
 43
0.0000001
 44
0.0000000001
 40
0.0
 40
0.0
 40
0.0
 40
0.0
 40
0.238167556
 40
0.5009716021
 40
0.7632364613
 40
1.0
 40
1.0
 40
1.0
 40
1.0
 10
9.8818055106
 20
7.1962662604
 30
0.0
 10
9.8810544324
 20
7.2545095836
 30
0.0
 10
9.9012208628
 20
7.3774051258
 30
0.0
 10
9.9752780838
 20
7.5503007812
 30
0.0
 10
10.0849566714
 20
7.7026807964
 30
0.0
 10
10.1796877442
 20
7.7828749378
 30
0.0
 10
10.2298339539
 20
7.8118287308
 30
0.0
  0
SPLINE
  5
37D
100
AcDbEntity
  8
RACCORDO
100
AcDbSpline
 62
250
  6
CONTINUOUS
 70
0
 71
3
 72
11
 73
7
 74
0
 42
0.0000001
 43
0.0000001
 44
0.0000000001
 40
0.0
 40
0.0
 40
0.0
 40
0.0
 40
0.2450445658
 40
0.4996229245
 40
0.7543207208
 40
1.0
 40
1.0
 40
1.0
 40
1.0
 10
4.7102819741
 20
14.8613189919
 30
0.0
 10
4.7513608702
 20
14.9393040583
 30
0.0
 10
4.8310597971
 20
15.10064436
 30
0.0
 10
4.925032979
 20
15.3557642772
 30
0.0
 10
4.9946399446
 20
15.6184566593
 30
0.0
 10
5.0255150421
 20
15.7963754341
 30
0.0
 10
5.0330047367
 20
15.8844285436
 30
0.0
  0
SPLINE
  5
37E
100
AcDbEntity
  8
RACCORDO
100
AcDbSpline
 62
250
  6
CONTINUOUS
 70
0
 71
3
 72
17
 73
13
 74
0
 42
0.0000001
 43
0.0000001
 44
0.0000000001
 40
0.0
 40
0.0
 40
0.0
 40
0.0
 40
0.1276411511
 40
0.2662023564
 40
0.4097174095
 40
0.5514696755
 40
0.6850000255
 40
0.8051524023
 40
0.8593865882
 40
0.9096304461
 40
0.9562528243
 40
1.0
 40
1.0
 40
1.0
 40
1.0
 10
-4.0409349077
 20
42.3908909499
 30
0.0
 10
-3.6176505109
 20
42.1715659389
 30
0.0
 10
-2.6817023632
 20
41.8142086845
 30
0.0
 10
-1.1733239761
 20
41.5226046113
 30
0.0
 10
0.4148369456
 20
41.4650892605
 30
0.0
 10
1.9750076975
 20
41.6461079799
 30
0.0
 10
3.4017982892
 20
42.0531059891
 30
0.0
 10
4.437251788
 20
42.577398949
 30
0.0
 10
5.101614272
 20
43.0936739361
 30
0.0
 10
5.4937463169
 20
43.502871173
 30
0.0
 10
5.7891911059
 20
43.9403978975
 30
0.0
 10
5.920549607
 20
44.2545136369
 30
0.0
 10
5.9662302535
 20
44.4113911082
 30
0.0
  0
SPLINE
  5
37F
100
AcDbEntity
  8
RACCORDO
100
AcDbSpline
 62
250
  6
CONTINUOUS
 70
0
 71
3
 72
9
 73
5
 74
0
 42
0.0000001
 43
0.0000001
 44
0.0000000001
 40
0.0
 40
0.0
 40
0.0
 40
0.0
 40
0.2532691065
 40
1.0
 40
1.0
 40
1.0
 40
1.0
 10
5.9662302535
 20
44.4113911082
 30
0.0
 10
5.9800699318
 20
44.4589196328
 30
0.0
 10
6.0283717744
 20
44.6483596892
 30
0.0
 10
6.0499835919
 20
44.8446755918
 30
0.0
 10
6.0499836114
 20
44.990627245
 30
0.0
  0
SPLINE
  5
380
100
AcDbEntity
  8
RACCORDO
100
AcDbSpline
 62
250
  6
CONTINUOUS
 70
0
 71
3
 72
28
 73
24
 74
0
 42
0.0000001
 43
0.0000001
 44
0.0000000001
 40
0.0
 40
0.0
 40
0.0
 40
0.0
 40
0.0686969033
 40
0.1372202716
 40
0.2051126691
 40
0.2724191987
 40
0.3399172317
 40
0.4089431323
 40
0.4806658782
 40
0.5551799091
 40
0.631146143
 40
0.7061683675
 40
0.7774699461
 40
0.8423643404
 40
0.871638447
 40
0.8984239714
 40
0.9224757079
 40
0.9435910071
 40
0.9616587952
 40
0.9767250386
 40
0.9891689791
 40
0.9946987122
 40
1.0
 40
1.0
 40
1.0
 40
1.0
 10
3.8122745224
 20
15.1630911517
 30
0.0
 10
3.1145704305
 20
15.4415787914
 30
0.0
 10
1.7838034456
 20
16.1790434606
 30
0.0
 10
0.1775770437
 20
17.7884341166
 30
0.0
 10
-0.8811811651
 20
19.7875632169
 30
0.0
 10
-1.2929309542
 20
21.9999501936
 30
0.0
 10
-1.038049279
 20
24.2456479903
 30
0.0
 10
-0.1655262551
 20
26.3763187999
 30
0.0
 10
1.2160432824
 20
28.3027471392
 30
0.0
 10
2.9644140531
 20
30.0027415707
 30
0.0
 10
4.9288568601
 20
31.4992132596
 30
0.0
 10
6.9649569462
 20
32.8289964537
 30
0.0
 10
8.9442144807
 20
34.019940779
 30
0.0
 10
10.5080646825
 20
34.930279256
 30
0.0
 10
11.6562711386
 20
35.5868897165
 30
0.0
 10
12.4206057773
 20
36.0150116014
 30
0.0
 10
13.1135386908
 20
36.3879259884
 30
0.0
 10
13.7326105634
 20
36.6963735358
 30
0.0
 10
14.2788237211
 20
36.9295854302
 30
0.0
 10
14.7559863684
 20
37.0772878256
 30
0.0
 10
15.1193281121
 20
37.1187455074
 30
0.0
 10
15.3729791353
 20
37.0864122768
 30
0.0
 10
15.4865700089
 20
37.0499800609
 30
0.0
 10
15.539764049
 20
37.0269338373
 30
0.0
  0
SPLINE
  5
381
100
AcDbEntity
  8
RACCORDO
100
AcDbSpline
 62
250
  6
CONTINUOUS
 70
0
 71
3
 72
11
 73
7
 74
0
 42
0.0000001
 43
0.0000001
 44
0.0000000001
 40
0.0
 40
0.0
 40
0.0
 40
0.0
 40
0.2423249117
 40
0.4929120639
 40
0.7470959232
 40
1.0
 40
1.0
 40
1.0
 40
1.0
 10
-8.0237169082
 20
16.0253062861
 30
0.0
 10
-7.0973850486
 20
15.7561337694
 30
0.0
 10
-5.1802287858
 20
15.3172762503
 30
0.0
 10
-2.22344201
 20
14.955883351
 30
0.0
 10
0.7965434353
 20
14.8861140328
 30
0.0
 10
2.813440877
 20
15.0370002251
 30
0.0
 10
3.8122745224
 20
15.1630911517
 30
0.0
  0
SPLINE
  5
382
100
AcDbEntity
  8
RACCORDO
100
AcDbSpline
 62
250
  6
CONTINUOUS
 70
0
 71
3
 72
9
 73
5
 74
0
 42
0.0000001
 43
0.0000001
 44
0.0000000001
 40
0.0
 40
0.0
 40
0.0
 40
0.0
 40
0.2426204564
 40
1.0
 40
1.0
 40
1.0
 40
1.0
 10
-10.4413419932
 20
35.6939663301
 30
0.0
 10
-10.2918485636
 20
35.6076506974
 30
0.0
 10
-9.669072198
 20
35.2634006136
 30
0.0
 10
-9.0218451295
 20
34.9639493566
 30
0.0
 10
-8.5229197519
 20
34.7603439262
 30
0.0
  0
SPLINE
  5
383
100
AcDbEntity
  8
RACCORDO
100
AcDbSpline
 62
250
  6
CONTINUOUS
 70
0
 71
3
 72
11
 73
7
 74
0
 42
0.0000001
 43
0.0000001
 44
0.0000000001
 40
0.0
 40
0.0
 40
0.0
 40
0.0
 40
0.2360859868
 40
0.4847954201
 40
0.7412332081
 40
1.0
 40
1.0
 40
1.0
 40
1.0
 10
-8.5229197519
 20
34.7603439262
 30
0.0
 10
-7.7756548611
 20
34.4553941349
 30
0.0
 10
-6.1971044593
 20
33.9338606582
 30
0.0
 10
-3.7100445847
 20
33.4233353355
 30
0.0
 10
-1.1056327201
 20
33.1751030109
 30
0.0
 10
0.6593103212
 20
33.1899036402
 30
0.0
 10
1.5423187256
 20
33.2434516634
 30
0.0
  0
SPLINE
  5
384
100
AcDbEntity
  8
RACCORDO
100
AcDbSpline
 62
250
  6
CONTINUOUS
 70
0
 71
3
 72
11
 73
7
 74
0
 42
0.0000001
 43
0.0000001
 44
0.0000000001
 40
0.0
 40
0.0
 40
0.0
 40
0.0
 40
0.2759886327
 40
0.5390624858
 40
0.7819782633
 40
1.0
 40
1.0
 40
1.0
 40
1.0
 10
1.5423187256
 20
33.2434516634
 30
0.0
 10
2.6095918363
 20
33.3081739978
 30
0.0
 10
4.6889882111
 20
33.5660652076
 30
0.0
 10
7.6278080384
 20
34.343017822
 30
0.0
 10
10.2097182572
 20
35.4684202754
 30
0.0
 10
11.7009943304
 20
36.4794957448
 30
0.0
 10
12.3358672158
 20
37.0366176109
 30
0.0
  0
SPLINE
  5
385
100
AcDbEntity
  8
RACCORDO
100
AcDbSpline
 62
250
  6
CONTINUOUS
 70
0
 71
3
 72
9
 73
5
 74
0
 42
0.0000001
 43
0.0000001
 44
0.0000000001
 40
0.0
 40
0.0
 40
0.0
 40
0.0
 40
0.2593943289
 40
1.0
 40
1.0
 40
1.0
 40
1.0
 10
12.4371182376
 20
37.1266991797
 30
0.0
 10
12.5483990499
 20
37.2270832614
 30
0.0
 10
12.968396852
 20
37.6238203696
 30
0.0
 10
13.3509585085
 20
38.061130294
 30
0.0
 10
13.6035388742
 20
38.4065221572
 30
0.0
  0
SPLINE
  5
386
100
AcDbEntity
  8
RACCORDO
100
AcDbSpline
 62
250
  6
CONTINUOUS
 70
0
 71
3
 72
11
 73
7
 74
0
 42
0.0000001
 43
0.0000001
 44
0.0000000001
 40
0.0
 40
0.0
 40
0.0
 40
0.0
 40
0.2650027005
 40
0.5139820226
 40
0.7556174988
 40
1.0
 40
1.0
 40
1.0
 40
1.0
 10
13.6035388742
 20
38.4065221572
 30
0.0
 10
13.8727453485
 20
38.7746494481
 30
0.0
 10
14.3300125678
 20
39.5406584323
 30
0.0
 10
14.7320866692
 20
40.7902701587
 30
0.0
 10
14.8086238833
 20
42.0663977664
 30
0.0
 10
14.6425979641
 20
42.8965333134
 30
0.0
 10
14.5124838519
 20
43.2964727223
 30
0.0
  0
SPLINE
  5
387
100
AcDbEntity
  8
RACCORDO
100
AcDbSpline
 62
250
  6
CONTINUOUS
 70
0
 71
3
 72
9
 73
5
 74
0
 42
0.0000001
 43
0.0000001
 44
0.0000000001
 40
0.0
 40
0.0
 40
0.0
 40
0.0
 40
0.5054588002
 40
1.0
 40
1.0
 40
1.0
 40
1.0
 10
17.436597133
 20
23.0296042742
 30
0.0
 10
17.5913521234
 20
23.4382892713
 30
0.0
 10
17.8195985496
 20
24.2793286567
 30
0.0
 10
17.8632682419
 20
25.1504900678
 30
0.0
 10
17.8383935728
 20
25.577330905
 30
0.0
  0
SPLINE
  5
388
100
AcDbEntity
  8
RACCORDO
100
AcDbSpline
 62
250
  6
CONTINUOUS
 70
0
 71
3
 72
9
 73
5
 74
0
 42
0.0000001
 43
0.0000001
 44
0.0000000001
 40
0.0
 40
0.0
 40
0.0
 40
0.0
 40
0.482077841
 40
1.0
 40
1.0
 40
1.0
 40
1.0
 10
-4.3746976789
 20
41.6682718566
 30
0.0
 10
-4.1004620244
 20
41.5099316267
 30
0.0
 10
-3.5046579574
 20
41.2271721117
 30
0.0
 10
-2.877777933
 20
41.0251118103
 30
0.0
 10
-2.5485970182
 20
40.9391871217
 30
0.0
  0
SPLINE
  5
389
100
AcDbEntity
  8
RACCORDO
100
AcDbSpline
 62
250
  6
CONTINUOUS
 70
0
 71
3
 72
11
 73
7
 74
0
 42
0.0000001
 43
0.0000001
 44
0.0000000001
 40
0.0
 40
0.0
 40
0.0
 40
0.0
 40
0.2555776127
 40
0.5175971654
 40
0.7703702147
 40
1.0
 40
1.0
 40
1.0
 40
1.0
 10
-2.5485970182
 20
40.9391871217
 30
0.0
 10
-1.9628510017
 20
40.78629234
 30
0.0
 10
-0.7437153867
 20
40.5948551706
 30
0.0
 10
1.0893354922
 20
40.6245226556
 30
0.0
 10
2.8296606677
 20
40.9582991868
 30
0.0
 10
3.8987840907
 20
41.3940632555
 30
0.0
 10
4.3700565162
 20
41.6656167481
 30
0.0
  0
SPLINE
  5
38A
100
AcDbEntity
  8
RACCORDO
100
AcDbSpline
 62
250
  6
CONTINUOUS
 70
0
 71
3
 72
9
 73
5
 74
0
 42
0.0000001
 43
0.0000001
 44
0.0000000001
 40
0.0
 40
0.0
 40
0.0
 40
0.0
 40
0.2726315654
 40
1.0
 40
1.0
 40
1.0
 40
1.0
 10
4.3700565162
 20
41.6656167481
 30
0.0
 10
4.5148478504
 20
41.7490474569
 30
0.0
 10
5.0318524364
 20
42.0768938494
 30
0.0
 10
5.4941549846
 20
42.5050759469
 30
0.0
 10
5.7473679468
 20
42.8720285938
 30
0.0
  0
SPLINE
  5
38B
100
AcDbEntity
  8
RACCORDO
100
AcDbSpline
 62
250
  6
CONTINUOUS
 70
0
 71
3
 72
9
 73
5
 74
0
 42
0.0000001
 43
0.0000001
 44
0.0000000001
 40
0.0
 40
0.0
 40
0.0
 40
0.0
 40
0.2540740251
 40
1.0
 40
1.0
 40
1.0
 40
1.0
 10
5.7473679468
 20
42.8720285938
 30
0.0
 10
5.7630126481
 20
42.894700674
 30
0.0
 10
5.8233398367
 20
42.9847871117
 30
0.0
 10
5.8785624475
 20
43.0783122101
 30
0.0
 10
5.9164069543
 20
43.1497819851
 30
0.0
  0
SPLINE
  5
38C
100
AcDbEntity
  8
RACCORDO
100
AcDbSpline
 62
250
  6
CONTINUOUS
 70
0
 71
3
 72
9
 73
5
 74
0
 42
0.0000001
 43
0.0000001
 44
0.0000000001
 40
0.0
 40
0.0
 40
0.0
 40
0.0
 40
0.509646155
 40
1.0
 40
1.0
 40
1.0
 40
1.0
 10
5.9164069543
 20
43.1497819851
 30
0.0
 10
6.0259991258
 20
43.3567480287
 30
0.0
 10
6.1873178085
 20
43.7956573688
 30
0.0
 10
6.1976599148
 20
44.2647135313
 30
0.0
 10
6.1657983099
 20
44.4877752852
 30
0.0
  0
SPLINE
  5
38D
100
AcDbEntity
  8
RACCORDO
100
AcDbSpline
 62
250
  6
CONTINUOUS
 70
0
 71
3
 72
9
 73
5
 74
0
 42
0.0000001
 43
0.0000001
 44
0.0000000001
 40
0.0
 40
0.0
 40
0.0
 40
0.0
 40
0.2451440595
 40
1.0
 40
1.0
 40
1.0
 40
1.0
 10
-8.7644128738
 20
38.4542729759
 30
0.0
 10
-8.6857656991
 20
38.4088630829
 30
0.0
 10
-8.3627854375
 20
38.2273819046
 30
0.0
 10
-8.0315566974
 20
38.0606636453
 30
0.0
 10
-7.778026833
 20
37.9426713507
 30
0.0
  0
SPLINE
  5
38E
100
AcDbEntity
  8
RACCORDO
100
AcDbSpline
 62
250
  6
CONTINUOUS
 70
0
 71
3
 72
9
 73
5
 74
0
 42
0.0000001
 43
0.0000001
 44
0.0000000001
 40
0.0
 40
0.0
 40
0.0
 40
0.0
 40
0.2439092717
 40
1.0
 40
1.0
 40
1.0
 40
1.0
 10
-7.778026833
 20
37.9426713507
 30
0.0
 10
-7.6439176123
 20
37.8802571861
 30
0.0
 10
-7.0899285432
 20
37.6333470962
 30
0.0
 10
-6.5204355534
 20
37.4216171361
 30
0.0
 10
-6.0843919899
 20
37.2797544431
 30
0.0
  0
SPLINE
  5
38F
100
AcDbEntity
  8
RACCORDO
100
AcDbSpline
 62
250
  6
CONTINUOUS
 70
0
 71
3
 72
9
 73
5
 74
0
 42
0.0000001
 43
0.0000001
 44
0.0000000001
 40
0.0
 40
0.0
 40
0.0
 40
0.0
 40
0.2432095533
 40
1.0
 40
1.0
 40
1.0
 40
1.0
 10
-6.0843919899
 20
37.2797544431
 30
0.0
 10
-5.8281281231
 20
37.1963813921
 30
0.0
 10
-4.7661263361
 20
36.879456162
 30
0.0
 10
-3.6750490183
 20
36.6622333388
 30
0.0
 10
-2.8441593856
 20
36.549134778
 30
0.0
  0
SPLINE
  5
390
100
AcDbEntity
  8
RACCORDO
100
AcDbSpline
 62
250
  6
CONTINUOUS
 70
0
 71
3
 72
11
 73
7
 74
0
 42
0.0000001
 43
0.0000001
 44
0.0000000001
 40
0.0
 40
0.0
 40
0.0
 40
0.0
 40
0.2634096257
 40
0.5250459424
 40
0.7736895949
 40
1.0
 40
1.0
 40
1.0
 40
1.0
 10
-2.6839989496
 20
36.5279794044
 30
0.0
 10
-1.6339909119
 20
36.3935027368
 30
0.0
 10
0.4824804212
 20
36.2861287213
 30
0.0
 10
3.5887910104
 20
36.5841962573
 30
0.0
 10
6.468598536
 20
37.3193592877
 30
0.0
 10
8.2192527103
 20
38.118498628
 30
0.0
 10
8.9959854806
 20
38.5916369697
 30
0.0
  0
SPLINE
  5
391
100
AcDbEntity
  8
RACCORDO
100
AcDbSpline
 62
250
  6
CONTINUOUS
 70
0
 71
3
 72
20
 73
16
 74
0
 42
0.0000001
 43
0.0000001
 44
0.0000000001
 40
0.0
 40
0.0
 40
0.0
 40
0.0
 40
0.1430071041
 40
0.2089412588
 40
0.2713542145
 40
0.33064752
 40
0.3874178976
 40
0.4424399707
 40
0.4966306712
 40
0.5509803482
 40
0.6064648271
 40
0.6639623654
 40
0.7241954628
 40
0.8545823166
 40
1.0
 40
1.0
 40
1.0
 40
1.0
 10
9.0285433794
 20
38.6115453619
 30
0.0
 10
9.54536483
 20
38.9287825576
 30
0.0
 10
10.2667581934
 20
39.4557302201
 30
0.0
 10
11.0753548042
 20
40.2772127122
 30
0.0
 10
11.5639035192
 20
40.9079767083
 30
0.0
 10
11.9455448473
 20
41.5643356849
 30
0.0
 10
12.2163040676
 20
42.2404199091
 30
0.0
 10
12.3727029791
 20
42.9298479406
 30
0.0
 10
12.4126088996
 20
43.6255348067
 30
0.0
 10
12.3355143255
 20
44.3200369438
 30
0.0
 10
12.1423812866
 20
45.0059359532
 30
0.0
 10
11.8359688016
 20
45.6764713344
 30
0.0
 10
11.2661712029
 20
46.5645732592
 30
0.0
 10
10.2685286046
 20
47.6013138361
 30
0.0
 10
9.2984110139
 20
48.2668504233
 30
0.0
 10
8.764392941
 20
48.5751857658
 30
0.0
  0
SPLINE
  5
392
100
AcDbEntity
  8
RACCORDO
100
AcDbSpline
 62
250
  6
CONTINUOUS
 70
0
 71
3
 72
9
 73
5
 74
0
 42
0.0000001
 43
0.0000001
 44
0.0000000001
 40
0.0
 40
0.0
 40
0.0
 40
0.0
 40
0.2516027447
 40
1.0
 40
1.0
 40
1.0
 40
1.0
 10
16.906118055
 20
21.7635666006
 30
0.0
 10
16.9696989204
 20
20.4876458696
 30
0.0
 10
17.1910563636
 20
15.4149673675
 30
0.0
 10
17.2878214421
 20
10.336798701
 30
0.0
 10
17.2878212494
 20
6.5368384875
 30
0.0
  0
SPLINE
  5
393
100
AcDbEntity
  8
RACCORDO
100
AcDbSpline
 62
250
  6
CONTINUOUS
 70
0
 71
3
 72
9
 73
5
 74
0
 42
0.0000001
 43
0.0000001
 44
0.0000000001
 40
0.0
 40
0.0
 40
0.0
 40
0.0
 40
0.2473595265
 40
1.0
 40
1.0
 40
1.0
 40
1.0
 10
5.5092818624
 20
-0.2639425348
 30
0.0
 10
5.5092817564
 20
0.9992588455
 30
0.0
 10
5.4902831739
 20
6.1059888007
 30
0.0
 10
5.3962258499
 20
11.2123971746
 30
0.0
 10
5.286184524
 20
15.0543626118
 30
0.0
  0
SPLINE
  5
394
100
AcDbEntity
  8
RACCORDO
100
AcDbSpline
 62
250
  6
CONTINUOUS
 70
0
 71
3
 72
9
 73
5
 74
0
 42
0.0000001
 43
0.0000001
 44
0.0000000001
 40
0.0
 40
0.0
 40
0.0
 40
0.0
 40
0.252808259
 40
1.0
 40
1.0
 40
1.0
 40
1.0
 10
16.8616768532
 20
23.4353235285
 30
0.0
 10
16.846536768
 20
23.3638103536
 30
0.0
 10
16.7842759948
 20
23.0814452742
 30
0.0
 10
16.7123473305
 20
22.8011925734
 30
0.0
 10
16.6527553524
 20
22.5935269194
 30
0.0
  0
SPLINE
  5
395
100
AcDbEntity
  8
RACCORDO
100
AcDbSpline
 62
250
  6
CONTINUOUS
 70
0
 71
3
 72
11
 73
7
 74
0
 42
0.0000001
 43
0.0000001
 44
0.0000000001
 40
0.0
 40
0.0
 40
0.0
 40
0.0
 40
0.2507206575
 40
0.5013895451
 40
0.751057878
 40
1.0
 40
1.0
 40
1.0
 40
1.0
 10
4.228565379
 20
16.1411232933
 30
0.0
 10
3.6585462469
 20
16.3566400375
 30
0.0
 10
2.564186606
 20
16.926380909
 30
0.0
 10
1.2076046301
 20
18.1819920383
 30
0.0
 10
0.2559600873
 20
19.7629621248
 30
0.0
 10
-0.0577650849
 20
20.9526269612
 30
0.0
 10
-0.1316709174
 20
21.5531743227
 30
0.0
  0
SPLINE
  5
396
100
AcDbEntity
  8
RACCORDO
100
AcDbSpline
 62
250
  6
CONTINUOUS
 70
0
 71
3
 72
27
 73
23
 74
0
 42
0.0000001
 43
0.0000001
 44
0.0000000001
 40
0.0
 40
0.0
 40
0.0
 40
0.0
 40
0.0689008161
 40
0.1388175094
 40
0.210439441
 40
0.2842074908
 40
0.3219162539
 40
0.3600793167
 40
0.4372827962
 40
0.5146423462
 40
0.5906857628
 40
0.6639170676
 40
0.7329371053
 40
0.7964589867
 40
0.8532837022
 40
0.9023139821
 40
0.9236299761
 40
0.9427341531
 40
0.9596518039
 40
0.9745486682
 40
0.9877825766
 40
1.0
 40
1.0
 40
1.0
 40
1.0
 10
-0.157687701
 20
21.8027131574
 30
0.0
 10
-0.2013765032
 20
22.3131589363
 30
0.0
 10
-0.17212164
 20
23.3548465016
 30
0.0
 10
0.2037075898
 20
24.8842981515
 30
0.0
 10
0.8799863376
 20
26.3450395102
 30
0.0
 10
1.6528270987
 20
27.4725595727
 30
0.0
 10
2.3727545075
 20
28.3216086755
 30
0.0
 10
3.1608709725
 20
29.143693088
 30
0.0
 10
4.2341491948
 20
30.0966938737
 30
0.0
 10
5.6017061378
 20
31.1328224822
 30
0.0
 10
6.9976063914
 20
32.0777729492
 30
0.0
 10
8.3722269994
 20
32.9412305345
 30
0.0
 10
9.6848352923
 20
33.7275090643
 30
0.0
 10
10.9033402464
 20
34.4332168332
 30
0.0
 10
12.0038136531
 20
35.0456401524
 30
0.0
 10
12.8443721514
 20
35.4798355291
 30
0.0
 10
13.4515259376
 20
35.751906353
 30
0.0
 10
13.8499201764
 20
35.9045744022
 30
0.0
 10
14.2137774028
 20
36.0112757256
 30
0.0
 10
14.5452642674
 20
36.066849264
 30
0.0
 10
14.8471565779
 20
36.0651739508
 30
0.0
 10
15.0333839077
 20
36.0200140931
 30
0.0
 10
15.117941971
 20
35.986812869
 30
0.0
  0
SPLINE
  5
397
100
AcDbEntity
  8
RACCORDO
100
AcDbSpline
 62
250
  6
CONTINUOUS
 70
0
 71
3
 72
18
 73
14
 74
0
 42
0.0000001
 43
0.0000001
 44
0.0000000001
 40
0.0
 40
0.0
 40
0.0
 40
0.0
 40
0.1285731138
 40
0.2700664611
 40
0.417155564
 40
0.5614798537
 40
0.6951867726
 40
0.7562343019
 40
0.8127542642
 40
0.8647173563
 40
0.9125397963
 40
0.9571548975
 40
1.0
 40
1.0
 40
1.0
 40
1.0
 10
-4.2780059926
 20
41.846091696
 30
0.0
 10
-3.8304446826
 20
41.5876754048
 30
0.0
 10
-2.8169936145
 20
41.1694301996
 30
0.0
 10
-1.1651559128
 20
40.8385868404
 30
0.0
 10
0.5828038121
 20
40.7900248839
 30
0.0
 10
2.2827597161
 20
41.028394743
 30
0.0
 10
3.5859048482
 20
41.4634521354
 30
0.0
 10
4.4754006632
 20
41.9469324462
 30
0.0
 10
5.0275111247
 20
42.3503959549
 30
0.0
 10
5.4729442068
 20
42.7977359533
 30
0.0
 10
5.8015059321
 20
43.2810871022
 30
0.0
 10
6.0039547686
 20
43.7908855123
 30
0.0
 10
6.049991991
 20
44.1439344371
 30
0.0
 10
6.0499887338
 20
44.3161529856
 30
0.0
  0
SPLINE
  5
398
100
AcDbEntity
  8
0
100
AcDbSpline
 62
7
  6
CONTINUOUS
 70
0
 71
3
 72
9
 73
5
 74
0
 42
0.0000001
 43
0.0000001
 44
0.0000000001
 40
0.0
 40
0.0
 40
0.0
 40
0.0
 40
0.5163855985
 40
1.0
 40
1.0
 40
1.0
 40
1.0
 10
5.5333963866
 20
22.7965870264
 30
0.0
 10
5.377187764
 20
23.4298619806
 30
0.0
 10
5.1376852011
 20
24.6729339526
 30
0.0
 10
5.047013104
 20
25.9368385047
 30
0.0
 10
5.0468217743
 20
26.5477008782
 30
0.0
  0
SPLINE
  5
399
100
AcDbEntity
  8
0
100
AcDbSpline
 62
7
  6
CONTINUOUS
 70
0
 71
3
 72
9
 73
5
 74
0
 42
0.0000001
 43
0.0000001
 44
0.0000000001
 40
0.0
 40
0.0
 40
0.0
 40
0.0
 40
0.2567634237
 40
1.0
 40
1.0
 40
1.0
 40
1.0
 10
9.0741624207
 20
24.8409929226
 30
0.0
 10
9.0249502336
 20
25.0404969499
 30
0.0
 10
8.8460321334
 20
25.8205360239
 30
0.0
 10
8.7190239566
 20
26.6128316562
 30
0.0
 10
8.6594425539
 20
27.2046414714
 30
0.0
  0
SPLINE
  5
39A
100
AcDbEntity
  8
0
100
AcDbSpline
 62
7
  6
CONTINUOUS
 70
0
 71
3
 72
9
 73
5
 74
0
 42
0.0000001
 43
0.0000001
 44
0.0000000001
 40
0.0
 40
0.0
 40
0.0
 40
0.0
 40
0.5163856437
 40
1.0
 40
1.0
 40
1.0
 40
1.0
 10
6.7355050298
 20
23.4906814553
 30
0.0
 10
6.5792961382
 20
24.1239539336
 30
0.0
 10
6.3397926057
 20
25.3670209627
 30
0.0
 10
6.2491185035
 20
26.6309206802
 30
0.0
 10
6.2489259297
 20
27.2417807516
 30
0.0
  0
SPLINE
  5
39B
100
AcDbEntity
  8
0
100
AcDbSpline
 62
7
  6
CONTINUOUS
 70
0
 71
3
 72
9
 73
5
 74
0
 42
0.0000001
 43
0.0000001
 44
0.0000000001
 40
0.0
 40
0.0
 40
0.0
 40
0.0
 40
0.516433552
 40
1.0
 40
1.0
 40
1.0
 40
1.0
 10
13.0448130556
 20
27.0905785905
 30
0.0
 10
12.8880116012
 20
27.7240125373
 30
0.0
 10
12.6475856533
 20
28.9673901548
 30
0.0
 10
12.5565226395
 20
30.2317554026
 30
0.0
 10
12.5563297311
 20
30.8427781786
 30
0.0
  0
SPLINE
  5
39C
100
AcDbEntity
  8
0
100
AcDbSpline
 62
7
  6
CONTINUOUS
 70
0
 71
3
 72
9
 73
5
 74
0
 42
0.0000001
 43
0.0000001
 44
0.0000000001
 40
0.0
 40
0.0
 40
0.0
 40
0.0
 40
0.5163856648
 40
1.0
 40
1.0
 40
1.0
 40
1.0
 10
13.0075511442
 20
27.1120931512
 30
0.0
 10
12.8513426097
 20
27.7453655985
 30
0.0
 10
12.6118398097
 20
28.9884324912
 30
0.0
 10
12.5211665325
 20
30.2523319979
 30
0.0
 10
12.5209743897
 20
30.8631919096
 30
0.0
  0
SPLINE
  5
39D
100
AcDbEntity
  8
0
100
AcDbSpline
 62
7
  6
CONTINUOUS
 70
0
 71
3
 72
9
 73
5
 74
0
 42
0.0000001
 43
0.0000001
 44
0.0000000001
 40
0.0
 40
0.0
 40
0.0
 40
0.0
 40
0.2573992553
 40
1.0
 40
1.0
 40
1.0
 40
1.0
 10
9.1114243419
 20
24.8194783563
 30
0.0
 10
9.0583085459
 20
25.034047925
 30
0.0
 10
8.8667049237
 20
25.871173982
 30
0.0
 10
8.7352197648
 20
26.7225455114
 30
0.0
 10
8.6785426224
 20
27.3577433456
 30
0.0
  0
SPLINE
  5
39E
100
AcDbEntity
  8
0
100
AcDbSpline
 62
7
  6
CONTINUOUS
 70
0
 71
3
 72
9
 73
5
 74
0
 42
0.0000001
 43
0.0000001
 44
0.0000000001
 40
0.0
 40
0.0
 40
0.0
 40
0.0
 40
0.5164335308
 40
1.0
 40
1.0
 40
1.0
 40
1.0
 10
6.7727669509
 20
23.469166889
 30
0.0
 10
6.6159651378
 20
24.1026008673
 30
0.0
 10
6.3755384544
 20
25.3459786228
 30
0.0
 10
6.2844746122
 20
26.6103440835
 30
0.0
 10
6.2842812711
 20
27.2213670206
 30
0.0
  0
SPLINE
  5
39F
100
AcDbEntity
  8
0
100
AcDbSpline
 62
250
  6
CONTINUOUS
 70
0
 71
3
 72
11
 73
7
 74
0
 42
0.0000001
 43
0.0000001
 44
0.0000000001
 40
0.0
 40
0.0
 40
0.0
 40
0.0
 40
0.2347124902
 40
0.4946134147
 40
0.757416592
 40
1.0
 40
1.0
 40
1.0
 40
1.0
 10
11.0506152426
 20
6.5214101698
 30
0.0
 10
11.0977549513
 20
6.4941922928
 30
0.0
 10
11.2067973547
 20
6.4534543238
 30
0.0
 10
11.3821907822
 20
6.430877546
 30
0.0
 10
11.5603261439
 20
6.4446756034
 30
0.0
 10
11.6738279037
 20
6.4794684731
 30
0.0
 10
11.7245107287
 20
6.5038871155
 30
0.0
  0
SPLINE
  5
3A0
100
AcDbEntity
  8
0
100
AcDbSpline
 62
250
  6
CONTINUOUS
 70
0
 71
3
 72
9
 73
5
 74
0
 42
0.0000001
 43
0.0000001
 44
0.0000000001
 40
0.0
 40
0.0
 40
0.0
 40
0.0
 40
0.5429348477
 40
1.0
 40
1.0
 40
1.0
 40
1.0
 10
14.0508125886
 20
7.847064654
 30
0.0
 10
14.0842952444
 20
7.8702329398
 30
0.0
 10
14.1413809914
 20
7.9222674712
 30
0.0
 10
14.1668945575
 20
7.9977490719
 30
0.0
 10
14.1669074191
 20
8.0320261655
 30
0.0
  0
SPLINE
  5
3A1
100
AcDbEntity
  8
RACCORDO
100
AcDbSpline
 62
250
  6
CONTINUOUS
 70
0
 71
3
 72
9
 73
5
 74
0
 42
0.0000001
 43
0.0000001
 44
0.0000000001
 40
0.0
 40
0.0
 40
0.0
 40
0.0
 40
0.5233582351
 40
1.0
 40
1.0
 40
1.0
 40
1.0
 10
4.7102819741
 20
14.8613189919
 30
0.0
 10
4.8151931179
 20
14.8788453945
 30
0.0
 10
5.0135257949
 20
14.9269297331
 30
0.0
 10
5.2018256958
 20
15.0069847693
 30
0.0
 10
5.2862866872
 20
15.0544215995
 30
0.0
  0
SPLINE
  5
3A2
100
AcDbEntity
  8
RACCORDO
100
AcDbSpline
 62
250
  6
CONTINUOUS
 70
0
 71
3
 72
9
 73
5
 74
0
 42
0.0000001
 43
0.0000001
 44
0.0000000001
 40
0.0
 40
0.0
 40
0.0
 40
0.0
 40
0.2226246426
 40
1.0
 40
1.0
 40
1.0
 40
1.0
 10
17.2404598024
 20
22.09608663
 30
0.0
 10
17.2251431266
 20
22.0642837793
 30
0.0
 10
17.1414850298
 20
21.928492292
 30
0.0
 10
17.0120308971
 20
21.8263906003
 30
0.0
 10
16.9060178226
 20
21.7635087277
 30
0.0
  0
SPLINE
  5
3A3
100
AcDbEntity
  8
0
100
AcDbSpline
 62
7
  6
CONTINUOUS
 70
0
 71
3
 72
9
 73
5
 74
0
 42
0.0000001
 43
0.0000001
 44
0.0000000001
 40
0.0
 40
0.0
 40
0.0
 40
0.0
 40
0.5164334853
 40
1.0
 40
1.0
 40
1.0
 40
1.0
 10
5.5706583184
 20
22.7750724539
 30
0.0
 10
5.4138567705
 20
23.4085089088
 30
0.0
 10
5.173431051
 20
24.6518916093
 30
0.0
 10
5.0823692124
 20
25.9162619071
 30
0.0
 10
5.0821771157
 20
26.5272871471
 30
0.0
  0
SPLINE
  5
3A4
100
AcDbEntity
  8
RACCORDO
100
AcDbSpline
 62
250
  6
CONTINUOUS
 70
0
 71
3
 72
9
 73
5
 74
0
 42
0.0000001
 43
0.0000001
 44
0.0000000001
 40
0.0
 40
0.0
 40
0.0
 40
0.0
 40
0.52264749
 40
1.0
 40
1.0
 40
1.0
 40
1.0
 10
16.6527358721
 20
22.5935156717
 30
0.0
 10
16.7270465572
 20
22.4607092381
 30
0.0
 10
16.8442798068
 20
22.19183329
 30
0.0
 10
16.9005771419
 20
21.902396225
 30
0.0
 10
16.9060178226
 20
21.7635087277
 30
0.0
  0
SPLINE
  5
3A5
100
AcDbEntity
  8
RACCORDO
100
AcDbSpline
 62
250
  6
CONTINUOUS
 70
0
 71
3
 72
9
 73
5
 74
0
 42
0.0000001
 43
0.0000001
 44
0.0000000001
 40
0.0
 40
0.0
 40
0.0
 40
0.0
 40
0.52264749
 40
1.0
 40
1.0
 40
1.0
 40
1.0
 10
5.0330047367
 20
15.8844285436
 30
0.0
 10
5.1073154218
 20
15.7516221099
 30
0.0
 10
5.2245486714
 20
15.4827461618
 30
0.0
 10
5.2808460065
 20
15.1933090968
 30
0.0
 10
5.2862866872
 20
15.0544215995
 30
0.0
  0
SPLINE
  5
3A6
100
AcDbEntity
  8
RACCORDO
100
AcDbSpline
 62
250
  6
CONTINUOUS
 70
0
 71
3
 72
20
 73
16
 74
0
 42
0.0000001
 43
0.0000001
 44
0.0000000001
 40
0.0
 40
0.0
 40
0.0
 40
0.0
 40
0.0116003636
 40
0.0236805336
 40
0.05087459
 40
0.0840943312
 40
0.1245208214
 40
0.1725155509
 40
0.2279529845
 40
0.2903806114
 40
0.3590814818
 40
0.5114058465
 40
0.6755770969
 40
0.8411934991
 40
1.0
 40
1.0
 40
1.0
 40
1.0
 10
15.539764049
 20
37.0269338373
 30
0.0
 10
15.5909365659
 20
37.0047634351
 30
0.0
 10
15.6913263397
 20
36.9494550027
 30
0.0
 10
15.8816072248
 20
36.7939606558
 30
0.0
 10
16.0921753345
 20
36.5104795178
 30
0.0
 10
16.2980079407
 20
36.0699900346
 30
0.0
 10
16.4825503402
 20
35.5141903043
 30
0.0
 10
16.6542049689
 20
34.8439399541
 30
0.0
 10
16.8191822811
 20
34.0636670748
 30
0.0
 10
16.9808672297
 20
33.1813707816
 30
0.0
 10
17.1997813795
 20
31.8363072467
 30
0.0
 10
17.4496507059
 20
30.0010075589
 30
0.0
 10
17.6627204381
 20
27.691821002
 30
0.0
 10
17.7103333434
 20
25.3407211263
 30
0.0
 10
17.5671099068
 20
23.7818283247
 30
0.0
 10
17.436597133
 20
23.0296042742
 30
0.0
  0
SPLINE
  5
3A7
100
AcDbEntity
  8
RACCORDO
100
AcDbSpline
 62
250
  6
CONTINUOUS
 70
0
 71
3
 72
19
 73
15
 74
0
 42
0.0000001
 43
0.0000001
 44
0.0000000001
 40
0.0
 40
0.0
 40
0.0
 40
0.0
 40
0.026027777
 40
0.05497225
 40
0.0892198964
 40
0.1300739724
 40
0.1780255949
 40
0.2330629805
 40
0.2948415314
 40
0.3627565137
 40
0.5135182838
 40
0.6766031329
 40
0.8416070632
 40
1.0
 40
1.0
 40
1.0
 40
1.0
 10
15.117941971
 20
35.986812869
 30
0.0
 10
15.2231910715
 20
35.9454874312
 30
0.0
 10
15.4314657938
 20
35.8186577481
 30
0.0
 10
15.6886545779
 20
35.5232227497
 30
0.0
 10
15.9091614334
 20
35.1263412858
 30
0.0
 10
16.1050316399
 20
34.6279447141
 30
0.0
 10
16.2842394041
 20
34.0288287807
 30
0.0
 10
16.4516460763
 20
33.3326511158
 30
0.0
 10
16.6099833716
 20
32.545764658
 30
0.0
 10
16.8159122325
 20
31.3448025083
 30
0.0
 10
17.0344703233
 20
29.7000668847
 30
0.0
 10
17.1940494752
 20
27.6243587472
 30
0.0
 10
17.1819731037
 20
25.5078858867
 30
0.0
 10
17.0040980846
 20
24.1085237605
 30
0.0
 10
16.8616768532
 20
23.4353235285
 30
0.0
  0
ELLIPSE
  5
3A8
100
AcDbEntity
  8
DRAFT
100
AcDbEllipse
 62
7
  6
CONTINUOUS
 10
-5.9126007312
 20
-596.0882394677
 30
0.0
 11
14.8368068528
 21
1947.2792148184
 31
0.0
 40
0.0069263409
 41
1.2505353252
 42
1.2581010544
  0
ELLIPSE
  5
3A9
100
AcDbEntity
  8
0
100
AcDbEllipse
 62
7
  6
CONTINUOUS
 10
22.9123882752
 20
25.8436547298
 30
0.0
 11
10.4407430675
 21
-9.4511024029
 31
0.0
 40
0.2536085948
 41
-2.2500337338
 42
-2.1158210589
  0
ELLIPSE
  5
3AA
100
AcDbEntity
  8
0
100
AcDbEllipse
 62
7
  6
CONTINUOUS
 10
20.7023571219
 20
24.5676104401
 30
0.0
 11
-1.9416173687
 21
13.8086308742
 31
0.0
 40
0.7095692397
 41
1.1634601716
 42
1.2599394132
  0
ELLIPSE
  5
3AB
100
AcDbEntity
  8
0
100
AcDbEllipse
 62
7
  6
CONTINUOUS
 10
20.7001772364
 20
24.5663518015
 30
0.0
 11
-9.2275520785
 21
10.1512247328
 31
0.0
 40
0.3767632557
 41
0.7039593936
 42
1.0254897444
  0
ELLIPSE
  5
3AC
100
AcDbEntity
  8
0
100
AcDbEllipse
 62
7
  6
CONTINUOUS
 10
20.7023841464
 20
24.5676260437
 30
0.0
 11
-1.941239701
 21
13.8087522928
 31
0.0
 40
0.7095724558
 41
1.3215811256
 42
1.3864334123
  0
ELLIPSE
  5
3AD
100
AcDbEntity
  8
0
100
AcDbEllipse
 62
7
  6
CONTINUOUS
 10
16.7025166339
 20
22.2581526721
 30
0.0
 11
-9.0043098215
 21
10.2837980934
 31
0.0
 40
0.3986954063
 41
0.7069117569
 42
0.9141907198
  0
ELLIPSE
  5
3AE
100
AcDbEntity
  8
0
100
AcDbEllipse
 62
7
  6
CONTINUOUS
 10
18.4279991198
 20
23.254424634
 30
0.0
 11
-2.6153189993
 21
13.5806320003
 31
0.0
 40
0.7026127717
 41
1.1322249568
 42
1.3459237023
  0
ELLIPSE
  5
3AF
100
AcDbEntity
  8
0
100
AcDbEllipse
 62
7
  6
CONTINUOUS
 10
14.1931724383
 20
20.809288783
 30
0.0
 11
-1.9412051924
 21
13.8087633869
 31
0.0
 40
0.7095727497
 41
1.0649067264
 42
1.3864362593
  0
ELLIPSE
  5
3B0
100
AcDbEntity
  8
0
100
AcDbEllipse
 62
7
  6
CONTINUOUS
 10
12.2610964397
 20
19.693732316
 30
0.0
 11
-9.2275322308
 21
10.1512364709
 31
0.0
 40
0.3767652265
 41
0.7039604309
 42
0.9233064646
  0
ELLIPSE
  5
3B1
100
AcDbEntity
  8
0
100
AcDbEllipse
 62
7
  6
CONTINUOUS
 10
13.5921019503
 20
20.4622382164
 30
0.0
 11
-1.9485694734
 21
13.86004953
 31
0.0
 40
0.7095714949
 41
1.0648965624
 42
1.2800186076
  0
ELLIPSE
  5
3B2
100
AcDbEntity
  8
0
100
AcDbEllipse
 62
7
  6
CONTINUOUS
 10
11.6600259755
 20
19.3466817632
 30
0.0
 11
-9.2618385564
 21
10.1889714982
 31
0.0
 40
0.3767649068
 41
0.7039590419
 42
1.0242558786
  0
ELLIPSE
  5
3B3
100
AcDbEntity
  8
0
100
AcDbEllipse
 62
7
  6
CONTINUOUS
 10
17.8269378334
 20
22.9073793803
 30
0.0
 11
-2.6249723635
 21
13.631142173
 31
0.0
 40
0.7026136121
 41
1.0243977495
 42
1.2268817739
  0
ELLIPSE
  5
3B4
100
AcDbEntity
  8
0
100
AcDbEllipse
 62
7
  6
CONTINUOUS
 10
16.1014482548
 20
21.9111033231
 30
0.0
 11
-9.0377525549
 21
10.3220460323
 31
0.0
 40
0.3986983603
 41
0.8259724339
 42
1.0272068497
  0
ELLIPSE
  5
3B5
100
AcDbEntity
  8
0
100
AcDbEllipse
 62
7
  6
CONTINUOUS
 10
20.0991506046
 20
24.2193265569
 30
0.0
 11
-9.2617646566
 21
10.1890152034
 31
0.0
 40
0.3767722176
 41
0.9627911854
 42
1.0242550537
  0
ELLIPSE
  5
3B6
100
AcDbEntity
  8
0
100
AcDbEllipse
 62
7
  6
CONTINUOUS
 10
22.2353688134
 20
25.4527521776
 30
0.0
 11
10.4407647886
 21
-9.4510901566
 31
0.0
 40
0.2536064044
 41
-2.2422913814
 42
-2.1158199632
  0
ELLIPSE
  5
3B7
100
AcDbEntity
  8
0
100
AcDbEllipse
 62
7
  6
CONTINUOUS
 10
20.1013108286
 20
24.2205738432
 30
0.0
 11
-1.9485379183
 21
13.8600596747
 31
0.0
 40
0.7095717626
 41
1.0648976273
 42
1.3851944203
  0
ELLIPSE
  5
3B8
100
AcDbEntity
  8
0
100
AcDbEllipse
 62
7
  6
CONTINUOUS
 10
20.0991085133
 20
24.2193022539
 30
0.0
 11
-9.2618337969
 21
10.188974313
 31
0.0
 40
0.3767653776
 41
0.8091297449
 42
0.8982846871
  0
ELLIPSE
  5
3B9
100
AcDbEntity
  8
0
100
AcDbEllipse
 62
7
  6
CONTINUOUS
 10
20.0991085133
 20
24.2193022539
 30
0.0
 11
-9.2275307087
 21
10.1512373711
 31
0.0
 40
0.3767653776
 41
0.8025385372
 42
0.8990177788
  0
ELLIPSE
  5
3BA
100
AcDbEntity
  8
0
100
AcDbEllipse
 62
7
  6
CONTINUOUS
 10
20.0991506046
 20
24.2193265569
 30
0.0
 11
-9.2274618245
 21
10.1512781101
 31
0.0
 40
0.3767722176
 41
0.960637672
 42
1.0254899587
  0
ELLIPSE
  5
3BB
100
AcDbEntity
  8
0
100
AcDbEllipse
 62
7
  6
CONTINUOUS
 10
20.1013108286
 20
24.2205738432
 30
0.0
 11
-1.9413211112
 21
13.8087261204
 31
0.0
 40
0.7095717626
 41
1.0648989777
 42
1.3864293285
  0
ELLIPSE
  5
3BC
100
AcDbEntity
  8
0
100
AcDbEllipse
 62
7
  6
CONTINUOUS
 10
22.2353688134
 20
25.4527521776
 30
0.0
 11
10.4795780406
 21
-9.4862243207
 31
0.0
 40
0.2536064044
 41
-2.2398340245
 42
-2.1170548682
  0
ELLIPSE
  5
3BD
100
AcDbEntity
  8
0
100
AcDbEllipse
 62
7
  6
CONTINUOUS
 10
17.8269378334
 20
22.9073793803
 30
0.0
 11
-2.6152502436
 21
13.5806564612
 31
0.0
 40
0.7026136121
 41
1.0243991029
 42
1.2316780659
  0
ELLIPSE
  5
3BE
100
AcDbEntity
  8
0
100
AcDbEllipse
 62
7
  6
CONTINUOUS
 10
16.1014482548
 20
21.9111033231
 30
0.0
 11
-9.0042793973
 21
10.2838162322
 31
0.0
 40
0.3986983603
 41
0.8147422287
 42
1.0284417579
  0
ELLIPSE
  5
3BF
100
AcDbEntity
  8
0
100
AcDbEllipse
 62
7
  6
CONTINUOUS
 10
13.5921019503
 20
20.4622382164
 30
0.0
 11
-1.9413525494
 21
13.8087160132
 31
0.0
 40
0.7095714949
 41
1.0648979158
 42
1.2842439495
  0
ELLIPSE
  5
3C0
100
AcDbEntity
  8
0
100
AcDbEllipse
 62
7
  6
CONTINUOUS
 10
11.6600259755
 20
19.3466817632
 30
0.0
 11
-9.2275354506
 21
10.1512345667
 31
0.0
 40
0.3767649068
 41
0.7039603953
 42
1.0254907904
  0
ENDSEC
  0
SECTION
  2
OBJECTS
  0
DICTIONARY
  5
C
100
AcDbDictionary
280
0
281
1
  3
ACAD_GROUP
350
D
  3
ACAD_MLINESTYLE
350
17
  3
ACAD_LAYOUT
350
1A
  3
ACAD_PLOTSETTINGS
350
19
  3
ACAD_PLOTSTYLENAME
350
E
  0
DICTIONARY
  5
D
102
{ACAD_REACTORS
330
C
102
}
100
AcDbDictionary
280
0
281
1
  0
ACDBDICTIONARYWDFLT
  5
E
102
{ACAD_REACTORS
330
C
102
}
100
AcDbDictionary
281
1
  3
Normal
350
F
100
AcDbDictionaryWithDefault
340
F
  0
DICTIONARY
  5
17
102
{ACAD_REACTORS
330
C
102
}
100
AcDbDictionary
280
0
281
1
  3
Standard
350
18
  0
DICTIONARY
  5
19
102
{ACAD_REACTORS
330
C
102
}
100
AcDbDictionary
281
1
  0
DICTIONARY
  5
1A
102
{ACAD_REACTORS
330
C
102
}
100
AcDbDictionary
281
1
  3
Model
350
3C1
  3
Layout1
350
3C2
  0
ACDBPLACEHOLDER
  5
F
102
{ACAD_REACTORS
330
E
102
}
  0
MLINESTYLE
  5
18
102
{ACAD_REACTORS
330
17
102
}
100
AcDbMlineStyle
  2
STANDARD
 70
0
  3

 62
256
 51
90.0
 52
90.0
 71
2
 49
0.5
 62
256
  6
BYLAYER
 49
-0.5
 62
256
  6
BYLAYER
  0
LAYOUT
  5
3C1
102
{ACAD_REACTORS
330
1A
102
}
100
AcDbPlotSettings
  1

  2
none_device
  4
ISO_A4_(297.00_x_210.00_MM)
  6

 40
0.0
 41
0.0
 42
0.0
 43
0.0
 44
297.0
 45
210.0
 46
0.0
 47
0.0
 48
0.0
 49
0.0
140
0.0
141
0.0
142
1.0
143
1.0
 70
1024
 72
1
 73
0
 74
0
  7

 75
0
147
1.0
148
0.0
149
0.0
100
AcDbLayout
  1
Model
 70
0
 71
0
 10
0.0
 20
0.0
 11
297.0
 21
210.0
 12
0.0
 22
0.0
 32
0.0
 14
0.0
 24
0.0
 34
0.0
 15
0.0
 25
0.0
 35
0.0
146
0.0
 13
0.0
 23
0.0
 33
0.0
 16
1.0
 26
0.0
 36
0.0
 17
0.0
 27
1.0
 37
0.0
 76
0
330
21C
345
0
346
0
  0
LAYOUT
  5
3C2
102
{ACAD_REACTORS
330
1A
102
}
100
AcDbPlotSettings
  1

  2
none_device
  4
ISO_A4_(297.00_x_210.00_MM)
  6

 40
0.0
 41
0.0
 42
0.0
 43
0.0
 44
297.0
 45
210.0
 46
0.0
 47
0.0
 48
0.0
 49
0.0
140
0.0
141
0.0
142
1.0
143
1.0
 70
0
 72
1
 73
0
 74
0
  7

 75
0
147
1.0
148
0.0
149
0.0
100
AcDbLayout
  1
Layout1
 70
0
 71
1
 10
0.0
 20
0.0
 11
297.0
 21
210.0
 12
0.0
 22
0.0
 32
0.0
 14
0.0
 24
0.0
 34
0.0
 15
0.0
 25
0.0
 35
0.0
146
0.0
 13
0.0
 23
0.0
 33
0.0
 16
1.0
 26
0.0
 36
0.0
 17
0.0
 27
1.0
 37
0.0
 76
0
330
21D
345
0
346
0
  0
ENDSEC
  0
EOF
