  0
SECTION
  2
HEADER
  9
$ACADVER
  1
AC1015
  9
$DWGCODEPAGE
  3
ANSI_1252
  9
$EXTMAX
 10
297.0
 20
210.0
 30
0.0
  9
$EXTMIN
 10
0.0
 20
0.0
 30
0.0
  9
$LIMMIN
 10
0.0
 20
0.0
  9
$LIMMAX
 10
297.0
 20
210.0
  9
$VIEWCTR
 10
148.5
 20
105.0
  9
$VIEWSIZE
 40
210.0
  9
$CLAYER
  8
0
  9
$LTSCALE
 40
16.335
  9
$CELTYPE
  6
BYLAYER
  9
$DIMSCALE
 40
1.0
  9
$DIMASZ
 40
3.0
  9
$DIMEXO
 40
0.5
  9
$DIMDLI
 40
11.286
  9
$DIMEXE
 40
1.5
  9
$DIMCEN
 40
2.673
  9
$DIMLFAC
 40
1.0
  9
$DIMBLK
  1
_FILLED
  9
$DIMTXT
 40
3.0
  9
$DIMTOL
 70
1
  9
$DIMLIM
 70
0
  9
$DIMTFAC
 40
1.0
  9
$DIMTP
 40
0.01
  9
$DIMTM
 40
0.01
  9
$DIMGAP
 40
0.625
  9
$DIMDSEP
 70
44
  9
$PDMODE
 70
3
  9
$PDSIZE
 40
3.0
  9
$HANDSEED
  5
39E
  9
$TILEMODE
 70
1
  9
$MEASUREMENT
 70
1
  9
$INSUNITS
 70
4
  0
ENDSEC
  0
SECTION
  2
CLASSES
  0
CLASS
  1
ACDBDICTIONARYWDFLT
  2
AcDbDictionaryWithDefault
  3
AutoCAD 2000
 90
0
280
0
281
0
  0
CLASS
  1
ACDBPLACEHOLDER
  2
AcDbPlaceHolder
  3
AutoCAD 2000
 90
0
280
0
281
0
  0
CLASS
  1
LAYOUT
  2
AcDbLayout
  3
AutoCAD 2000
 90
0
280
0
281
0
  0
ENDSEC
  0
SECTION
  2
TABLES
  0
TABLE
  2
VPORT
  5
8
100
AcDbSymbolTable
 70
2
  0
VPORT
  5
1F4
100
AcDbSymbolTableRecord
100
AcDbViewportTableRecord
  2
*ACTIVE
 70
0
 10
0.0
 20
0.0
 11
1.0
 21
1.0
 12
148.5
 22
105.0
 13
0.0
 23
0.0
 14
1.0
 24
1.0
 15
0.0
 25
0.0
 16
0.0
 26
0.0
 36
1.0
 17
0.0
 27
0.0
 37
0.0
 40
210.0
 41
1.4142857143
 42
50.0
 43
0.0
 44
0.0
 50
0.0
 51
0.0
 71
0
 72
100
 73
1
 74
1
 75
0
 76
0
 77
0
 78
0
  0
ENDTAB
  0
TABLE
  2
LTYPE
  5
5
100
AcDbSymbolTable
 70
6
  0
LTYPE
  5
14
100
AcDbSymbolTableRecord
100
AcDbLinetypeTableRecord
  2
BYBLOCK
 70
0
  3

 72
65
 73
0
 40
0.0
  0
LTYPE
  5
15
100
AcDbSymbolTableRecord
100
AcDbLinetypeTableRecord
  2
BYLAYER
 70
0
  3

 72
65
 73
0
 40
0.0
  0
LTYPE
  5
16
100
AcDbSymbolTableRecord
100
AcDbLinetypeTableRecord
  2
CONTINUOUS
 70
64
  3
Solid line
 72
65
 73
0
 40
0.0
  0
LTYPE
  5
1F5
100
AcDbSymbolTableRecord
100
AcDbLinetypeTableRecord
  2
CENTER
 70
64
  3
____ _ ____ _ ____ _ ____ _ ____ _ ____ _ ____
 72
65
 73
4
 40
0.6
 49
0.375
 74
0
 49
-0.075
 74
0
 49
0.075
 74
0
 49
-0.075
 74
0
  0
LTYPE
  5
1F6
100
AcDbSymbolTableRecord
100
AcDbLinetypeTableRecord
  2
HIDDEN
 70
64
  3
- - - - - - - - - - - - - - - - - - - -
 72
65
 73
2
 40
0.2
 49
0.1
 74
0
 49
-0.1
 74
0
  0
LTYPE
  5
1F7
100
AcDbSymbolTableRecord
100
AcDbLinetypeTableRecord
  2
PHANTOM
 70
64
  3
_____ _ _ _____ _ _ _____ _ _ _____
 72
65
 73
6
 40
0.8
 49
0.45
 74
0
 49
-0.05
 74
0
 49
0.1
 74
0
 49
-0.05
 74
0
 49
0.1
 74
0
 49
-0.05
 74
0
  0
LTYPE
  5
1F8
100
AcDbSymbolTableRecord
100
AcDbLinetypeTableRecord
  2
DOT
 70
64
  3
. . . . . . . . . . . . . . . . . . . .
 72
65
 73
2
 40
0.2
 49
0.1
 74
0
 49
-0.1
 74
0
  0
LTYPE
  5
1F9
100
AcDbSymbolTableRecord
100
AcDbLinetypeTableRecord
  2
DASHED
 70
64
  3
- - - - - - - - - - - - - - - - - - - -
 72
65
 73
2
 40
0.2
 49
0.1
 74
0
 49
-0.1
 74
0
  0
ENDTAB
  0
TABLE
  2
LAYER
  5
2
100
AcDbSymbolTable
 70
36
  0
LAYER
  5
10
100
AcDbSymbolTableRecord
100
AcDbLayerTableRecord
  2
0
 70
0
 62
7
  6
CONTINUOUS
370
-3
390
F
  0
LAYER
  5
1FA
100
AcDbSymbolTableRecord
100
AcDbLayerTableRecord
  2
DEFAULT_1
 70
0
 62
7
  6
CENTER
370
-3
390
F
  0
LAYER
  5
1FB
100
AcDbSymbolTableRecord
100
AcDbLayerTableRecord
  2
DEFAULT_2
 70
0
 62
7
  6
HIDDEN
370
-3
390
F
  0
LAYER
  5
1FC
100
AcDbSymbolTableRecord
100
AcDbLayerTableRecord
  2
DEFAULT_3
 70
0
 62
7
  6
PHANTOM
370
-3
390
F
  0
LAYER
  5
1FD
100
AcDbSymbolTableRecord
100
AcDbLayerTableRecord
  2
ASSI
 70
0
 62
7
  6
CONTINUOUS
370
-3
390
F
  0
LAYER
  5
1FE
100
AcDbSymbolTableRecord
100
AcDbLayerTableRecord
  2
COLOR5
 70
0
 62
7
  6
CONTINUOUS
370
-3
390
F
  0
LAYER
  5
1FF
100
AcDbSymbolTableRecord
100
AcDbLayerTableRecord
  2
COORDINATE
 70
0
 62
7
  6
CONTINUOUS
370
-3
390
F
  0
LAYER
  5
200
100
AcDbSymbolTableRecord
100
AcDbLayerTableRecord
  2
COORD_ORIGINE
 70
0
 62
7
  6
CONTINUOUS
370
-3
390
F
  0
LAYER
  5
201
100
AcDbSymbolTableRecord
100
AcDbLayerTableRecord
  2
COSMETICHE
 70
0
 62
7
  6
CONTINUOUS
370
-3
390
F
  0
LAYER
  5
202
100
AcDbSymbolTableRecord
100
AcDbLayerTableRecord
  2
CURVE
 70
0
 62
7
  6
CONTINUOUS
370
-3
390
F
  0
LAYER
  5
203
100
AcDbSymbolTableRecord
100
AcDbLayerTableRecord
  2
DRAFT
 70
0
 62
7
  6
CONTINUOUS
370
-3
390
F
  0
LAYER
  5
204
100
AcDbSymbolTableRecord
100
AcDbLayerTableRecord
  2
IGES
 70
0
 62
7
  6
CONTINUOUS
370
-3
390
F
  0
LAYER
  5
205
100
AcDbSymbolTableRecord
100
AcDbLayerTableRecord
  2
INTF_1
 70
0
 62
7
  6
CONTINUOUS
370
-3
390
F
  0
LAYER
  5
206
100
AcDbSymbolTableRecord
100
AcDbLayerTableRecord
  2
INTF_2
 70
0
 62
7
  6
CONTINUOUS
370
-3
390
F
  0
LAYER
  5
207
100
AcDbSymbolTableRecord
100
AcDbLayerTableRecord
  2
INTF_YELLOW
 70
0
 62
7
  6
CONTINUOUS
370
-3
390
F
  0
LAYER
  5
208
100
AcDbSymbolTableRecord
100
AcDbLayerTableRecord
  2
NOTE
 70
0
 62
7
  6
CONTINUOUS
370
-3
390
F
  0
LAYER
  5
209
100
AcDbSymbolTableRecord
100
AcDbLayerTableRecord
  2
PIANI
 70
0
 62
7
  6
CONTINUOUS
370
-3
390
F
  0
LAYER
  5
20A
100
AcDbSymbolTableRecord
100
AcDbLayerTableRecord
  2
PIANI_ORIGINE
 70
0
 62
7
  6
CONTINUOUS
370
-3
390
F
  0
LAYER
  5
20B
100
AcDbSymbolTableRecord
100
AcDbLayerTableRecord
  2
PUNTI
 70
0
 62
7
  6
CONTINUOUS
370
-3
390
F
  0
LAYER
  5
20C
100
AcDbSymbolTableRecord
100
AcDbLayerTableRecord
  2
RACCORDO
 70
0
 62
7
  6
CONTINUOUS
370
-3
390
F
  0
LAYER
  5
20D
100
AcDbSymbolTableRecord
100
AcDbLayerTableRecord
  2
RGB__255__255__255__
 70
0
 62
7
  6
CONTINUOUS
370
-3
390
F
  0
LAYER
  5
20E
100
AcDbSymbolTableRecord
100
AcDbLayerTableRecord
  2
RGB____0____0____0__
 70
0
 62
7
  6
CONTINUOUS
370
-3
390
F
  0
LAYER
  5
20F
100
AcDbSymbolTableRecord
100
AcDbLayerTableRecord
  2
SMUSSO
 70
0
 62
7
  6
CONTINUOUS
370
-3
390
F
  0
LAYER
  5
210
100
AcDbSymbolTableRecord
100
AcDbLayerTableRecord
  2
SNAPLINE
 70
0
 62
7
  6
CONTINUOUS
370
-3
390
F
  0
LAYER
  5
211
100
AcDbSymbolTableRecord
100
AcDbLayerTableRecord
  2
SUPERFICI
 70
0
 62
7
  6
CONTINUOUS
370
-3
390
F
  0
LAYER
  5
212
100
AcDbSymbolTableRecord
100
AcDbLayerTableRecord
  2
TRASH
 70
0
 62
7
  6
CONTINUOUS
370
-3
390
F
  0
LAYER
  5
213
100
AcDbSymbolTableRecord
100
AcDbLayerTableRecord
  2
XSEC_DATUMS
 70
0
 62
7
  6
CONTINUOUS
370
-3
390
F
  0
ENDTAB
  0
TABLE
  2
STYLE
  5
3
100
AcDbSymbolTable
 70
1
  0
STYLE
  5
11
100
AcDbSymbolTableRecord
100
AcDbTextStyleTableRecord
  2
STANDARD
 70
0
 40
0.0
 41
0.8
 50
0.0
 71
0
 42
0.2
  3
txt
  4

  0
STYLE
  5
214
100
AcDbSymbolTableRecord
100
AcDbTextStyleTableRecord
  2
TEXTSTYLE_1
 70
0
 40
0.0
 41
0.8
 50
0.0
 71
0
 42
0.2
  3
gdt
  4

  0
ENDTAB
  0
TABLE
  2
VIEW
  5
6
100
AcDbSymbolTable
 70
0
  0
ENDTAB
  0
TABLE
  2
UCS
  5
7
100
AcDbSymbolTable
 70
0
  0
ENDTAB
  0
TABLE
  2
APPID
  5
9
100
AcDbSymbolTable
 70
1
  0
APPID
  5
215
100
AcDbSymbolTableRecord
100
AcDbRegAppTableRecord
  2
ACAD
 70
0
  0
ENDTAB
  0
TABLE
  2
BLOCK_RECORD
  5
1
100
AcDbSymbolTable
 70
0
  0
BLOCK_RECORD
  5
216
100
AcDbSymbolTableRecord
100
AcDbBlockTableRecord
  2
*Model_Space
  0
BLOCK_RECORD
  5
217
100
AcDbSymbolTableRecord
100
AcDbBlockTableRecord
  2
*Paper_Space
  0
ENDTAB
  0
TABLE
  2
DIMSTYLE
  5
A
100
AcDbSymbolTable
 70
1
100
AcDbDimStyleTable
 71
0
  0
DIMSTYLE
105
218
100
AcDbSymbolTableRecord
100
AcDbDimStyleTableRecord
  2
STANDARD
 70
0
  3

  4

 40
1.0
 41
3.0
 42
0.5
 43
0.38
 44
1.5
 45
0.0
 46
0.0
 47
0.01
 48
0.01
140
3.0
141
0.09
142
0.0
143
25.4
144
1.0
145
0.0
146
1.0
147
0.625
 71
1.0
 72
0.0
 73
0
 74
0
 75
0
 76
0
 77
1
 78
8
170
0
171
2
172
0
173
0
174
0
175
0
176
0
177
0
178
0
270
2
271
2
272
2
273
2
274
2
275
0
280
0
281
0
282
0
283
1
284
8
285
0
286
0
287
3
288
0
340
11
278
44
  0
ENDTAB
  0
ENDSEC
  0
SECTION
  2
BLOCKS
  0
BLOCK
  5
20
100
AcDbEntity
  8
0
100
AcDbBlockBegin
  2
*Model_Space
 70
0
 10
0.0
 20
0.0
 30
0.0
  3
*Model_Space
  1

  0
ENDBLK
  5
21
100
AcDbEntity
  8
0
100
AcDbBlockEnd
  0
BLOCK
  5
1C
100
AcDbEntity
  8
0
100
AcDbBlockBegin
  2
*Paper_Space
 70
0
 10
0.0
 20
0.0
 30
0.0
  3
*Paper_Space
  1

  0
ENDBLK
  5
1D
100
AcDbEntity
  8
0
100
AcDbBlockEnd
  0
ENDSEC
  0
SECTION
  2
ENTITIES
  0
LINE
  5
219
100
AcDbEntity
  8
RACCORDO
100
AcDbLine
 62
7
  6
CONTINUOUS
 10
133.900604762
 20
160.1092113071
 11
133.8420645383
 21
160.0913570584
  0
LWPOLYLINE
  5
21A
100
AcDbEntity
  8
0
100
AcDbPolyline
 62
7
  6
CONTINUOUS
 90
22
 70
0
 10
126.7652550616
 20
157.9979463776
 10
126.841450383
 20
158.0426724445
 10
127.1338969963
 20
158.1888957512
 10
127.4467084689
 20
158.3221221466
 10
127.7802793114
 20
158.4420998532
 10
128.1342150132
 20
158.5490806485
 10
128.5017030795
 20
158.6410053844
 10
128.8830060486
 20
158.7175823929
 10
129.2778613824
 20
158.779103342
 10
129.6786689719
 20
158.8243840867
 10
130.085544125
 20
158.8531100199
 10
130.498371534
 20
158.8655957488
 10
130.9092051664
 20
158.8616009501
 10
131.3180063986
 20
158.8408063611
 10
131.7248138543
 20
158.8035312446
 10
132.1217973722
 20
158.7504930657
 10
132.5087666419
 20
158.6813864604
 10
132.8859119737
 20
158.5965167928
 10
133.245974138
 20
158.4975176198
 10
133.5865333916
 20
158.3849334605
 10
133.9100094778
 20
158.2582197958
 10
134.2164023964
 20
158.1173766259
  0
LINE
  5
21B
100
AcDbEntity
  8
RACCORDO
100
AcDbLine
 62
7
  6
CONTINUOUS
 10
127.4184649997
 20
156.883471437
 11
127.3584621342
 21
156.8494060554
  0
LINE
  5
21C
100
AcDbEntity
  8
RACCORDO
100
AcDbLine
 62
7
  6
CONTINUOUS
 10
133.7824260303
 20
160.0654519523
 11
133.4288726398
 21
159.888675257
  0
LINE
  5
21D
100
AcDbEntity
  8
RACCORDO
100
AcDbLine
 62
7
  6
CONTINUOUS
 10
127.7720183903
 20
157.0602481323
 11
127.4184649997
 21
156.883471437
  0
LINE
  5
21E
100
AcDbEntity
  8
RACCORDO
100
AcDbLine
 62
7
  6
CONTINUOUS
 10
133.8424288958
 20
160.0913894362
 11
133.7824260303
 21
160.0654519523
  0
LWPOLYLINE
  5
21F
100
AcDbEntity
  8
RACCORDO
100
AcDbPolyline
 62
7
  6
CONTINUOUS
 90
6
 70
0
 10
139.3648484224
 20
159.3006826874
 10
138.6371631735
 20
159.0903303852
 10
137.9079043446
 20
158.8658398337
 10
137.1770719355
 20
158.6272110326
 10
136.4446659463
 20
158.3744439822
 10
135.9026414247
 20
158.1773414693
  0
LINE
  5
220
100
AcDbEntity
  8
RACCORDO
100
AcDbLine
 62
7
  6
CONTINUOUS
 10
125.3541205478
 20
158.2343293344
 11
125.2150276757
 21
158.0927815147
  0
LINE
  5
221
100
AcDbEntity
  8
RACCORDO
100
AcDbLine
 62
7
  6
CONTINUOUS
 10
127.2439374013
 20
156.762409451
 11
127.3008627375
 21
156.8095741859
  0
LWPOLYLINE
  5
222
100
AcDbEntity
  8
RACCORDO
100
AcDbPolyline
 62
7
  6
CONTINUOUS
 90
3
 70
0
 10
126.7954898364
 20
155.2648034448
 10
126.7401708532
 20
155.2224767836
 10
126.6868226251
 20
155.1746106352
  0
LINE
  5
223
100
AcDbEntity
  8
RACCORDO
100
AcDbLine
 62
7
  6
CONTINUOUS
 10
126.2436285517
 20
153.4648373162
 11
126.2257578025
 21
153.4518074204
  0
LWPOLYLINE
  5
224
100
AcDbEntity
  8
RACCORDO
100
AcDbPolyline
 62
7
  6
CONTINUOUS
 90
7
 70
0
 10
121.8360426076
 20
150.53627978
 10
122.5637278565
 20
151.0536127267
 10
123.2929866854
 20
151.5583810041
 10
124.0238190945
 20
152.0505846122
 10
124.7562250837
 20
152.5302235509
 10
125.490204653
 20
152.9972978203
 10
126.2257578025
 20
153.4518074204
  0
LINE
  5
225
100
AcDbEntity
  8
RACCORDO
100
AcDbLine
 62
7
  6
CONTINUOUS
 10
127.3002862681
 20
156.8090520601
 11
127.3588264917
 21
156.8497380352
  0
LWPOLYLINE
  5
226
100
AcDbEntity
  8
RACCORDO
100
AcDbPolyline
 62
7
  6
CONTINUOUS
 90
13
 70
0
 10
126.2257578025
 20
153.4518074204
 10
126.2388964073
 20
153.4608611965
 10
126.2513749254
 20
153.4713760536
 10
126.263193357
 20
153.4833519915
 10
126.2745328077
 20
153.4970338362
 10
126.2852121719
 20
153.5121767619
 10
126.2946881316
 20
153.5280462907
 10
126.3028809245
 20
153.5446755398
 10
126.3098703131
 20
153.5620313921
 10
126.3153522668
 20
153.5792800187
 10
126.3192254423
 20
153.5961434765
 10
126.3215911829
 20
153.6128997087
 10
126.3224494888
 20
153.6295487151
  0
LINE
  5
227
100
AcDbEntity
  8
RACCORDO
100
AcDbLine
 62
7
  6
CONTINUOUS
 10
126.8527795747
 20
155.3015906188
 11
126.7954898364
 21
155.2648034448
  0
LWPOLYLINE
  5
228
100
AcDbEntity
  8
RACCORDO
100
AcDbPolyline
 62
7
  6
CONTINUOUS
 90
8
 70
0
 10
125.2150276757
 20
158.0927815147
 10
125.0333309141
 20
157.8703704122
 10
124.8828345057
 20
157.6447819147
 10
124.7613627987
 20
157.4155876502
 10
124.6679514997
 20
157.1833780717
 10
124.6020780523
 20
156.9494942907
 10
124.5631908259
 20
156.7157967574
 10
124.550445515
 20
156.4839577617
  0
LWPOLYLINE
  5
229
100
AcDbEntity
  8
0
100
AcDbPolyline
 62
7
  6
CONTINUOUS
 90
24
 70
0
 10
126.8416952624
 20
158.1187936668
 10
126.9759044256
 20
158.2807984578
 10
127.1363438999
 20
158.4352312101
 10
127.3236095361
 20
158.5819199165
 10
127.5371054835
 20
158.7210365843
 10
127.7720183903
 20
158.8494447725
 10
128.0288347665
 20
158.9669012259
 10
128.3070681022
 20
159.0736491995
 10
128.600445515
 20
159.1672820177
 10
128.9093110197
 20
159.2475017548
 10
129.2333206015
 20
159.3146063364
 10
129.5651693346
 20
159.3670828627
 10
129.9050352939
 20
159.4045990411
 10
130.2527404045
 20
159.4274871642
 10
130.600445515
 20
159.4352312101
 10
130.9481506255
 20
159.4274871642
 10
131.2958557361
 20
159.4045990411
 10
131.6357216954
 20
159.3670828627
 10
131.9675704285
 20
159.3146063364
 10
132.2915800103
 20
159.2475017548
 10
132.600445515
 20
159.1672820177
 10
132.8917319671
 20
159.0744514248
 10
133.167874342
 20
158.9685056764
 10
133.4288726398
 20
158.8494447725
  0
LINE
  5
22A
100
AcDbEntity
  8
RACCORDO
100
AcDbLine
 62
7
  6
CONTINUOUS
 10
127.1354792776
 20
156.6488584068
 11
127.1892597262
 21
156.7091821008
  0
LWPOLYLINE
  5
22B
100
AcDbEntity
  8
RACCORDO
100
AcDbPolyline
 62
7
  6
CONTINUOUS
 90
3
 70
0
 10
121.3777084572
 20
150.1389778828
 10
121.2319118759
 20
149.9811000518
 10
121.0897831152
 20
149.8106816368
  0
LWPOLYLINE
  5
22C
100
AcDbEntity
  8
RACCORDO
100
AcDbPolyline
 62
7
  6
CONTINUOUS
 90
5
 70
0
 10
121.2313892673
 20
149.9805253174
 10
121.3771715719
 20
150.1384281963
 10
121.5259524314
 20
150.2829861926
 10
121.6789094433
 20
150.4156033871
 10
121.8360426076
 20
150.53627978
  0
LWPOLYLINE
  5
22D
100
AcDbEntity
  8
RACCORDO
100
AcDbPolyline
 62
7
  6
CONTINUOUS
 90
4
 70
0
 10
126.6868226251
 20
155.1746106352
 10
126.6349145221
 20
155.1205681871
 10
126.5849771741
 20
155.0609862517
 10
126.5386024714
 20
154.9977752669
  0
LINE
  5
22E
100
AcDbEntity
  8
RACCORDO
100
AcDbLine
 62
7
  6
CONTINUOUS
 10
127.2445737368
 20
156.762979889
 11
127.1887948398
 21
156.7087782358
  0
LWPOLYLINE
  5
22F
100
AcDbEntity
  8
RACCORDO
100
AcDbPolyline
 62
7
  6
CONTINUOUS
 90
10
 70
0
 10
126.7690432454
 20
155.2455495896
 10
126.7849088277
 20
155.2594681497
 10
126.7992998648
 20
155.2749372146
 10
126.8122163564
 20
155.2919567846
 10
126.8238794241
 20
155.3109796234
 10
126.8340679465
 20
155.3315529672
 10
126.8421185591
 20
155.3523185245
 10
126.8478101407
 20
155.3728235313
 10
126.8513638125
 20
155.3935207517
 10
126.8527795747
 20
155.4144101854
  0
LWPOLYLINE
  5
230
100
AcDbEntity
  8
RACCORDO
100
AcDbPolyline
 62
7
  6
CONTINUOUS
 90
3
 70
0
 10
121.6791728421
 20
150.41585997
 10
121.526394792
 20
150.2834260043
 10
121.3777084572
 20
150.1389778828
  0
LWPOLYLINE
  5
231
100
AcDbEntity
  8
RACCORDO
100
AcDbPolyline
 62
7
  6
CONTINUOUS
 90
6
 70
0
 10
120.8307065256
 20
149.4489101612
 10
120.7129109072
 20
149.2565042441
 10
120.6039694467
 20
149.0582118356
 10
120.5035068342
 20
148.8528682728
 10
120.4118983796
 20
148.6416382185
 10
120.3315268906
 20
148.4301606355
  0
LINE
  5
232
100
AcDbEntity
  8
0
100
AcDbLine
 62
7
  6
CONTINUOUS
 10
126.7397704283
 20
157.9576567287
 11
126.8416952624
 21
158.1187936668
  0
LWPOLYLINE
  5
233
100
AcDbEntity
  8
RACCORDO
100
AcDbPolyline
 62
7
  6
CONTINUOUS
 90
9
 70
0
 10
126.5386024714
 20
154.9977752669
 10
126.495966899
 20
154.9309384474
 10
126.4568939719
 20
154.8604725784
 10
126.4224461244
 20
154.7882784538
 10
126.3927019861
 20
154.7141623451
 10
126.3675829274
 20
154.6383179809
 10
126.3479154938
 20
154.5632273404
 10
126.3339752004
 20
154.4897177503
 10
126.3254865321
 20
154.416961884
  0
LINE
  5
234
100
AcDbEntity
  8
RACCORDO
100
AcDbLine
 62
7
  6
CONTINUOUS
 10
127.0858527969
 20
156.5847499411
 11
127.0401263042
 21
156.5164519526
  0
LINE
  5
235
100
AcDbEntity
  8
RACCORDO
100
AcDbLine
 62
7
  6
CONTINUOUS
 10
120.9561997455
 20
149.6335485839
 11
120.830498739
 21
149.4485959779
  0
LINE
  5
236
100
AcDbEntity
  8
RACCORDO
100
AcDbLine
 62
7
  6
CONTINUOUS
 10
121.09020701
 20
149.811208065
 11
120.955885908
 21
149.6331093973
  0
LINE
  5
237
100
AcDbEntity
  8
RACCORDO
100
AcDbLine
 62
7
  6
CONTINUOUS
 10
127.1354792776
 20
156.6488584068
 11
127.0858527969
 21
156.5847499411
  0
LWPOLYLINE
  5
238
100
AcDbEntity
  8
RACCORDO
100
AcDbPolyline
 62
7
  6
CONTINUOUS
 90
5
 70
0
 10
126.5815677953
 20
155.0566174154
 10
126.6257555114
 20
155.1104006466
 10
126.6715242671
 20
155.1595418633
 10
126.719286845
 20
155.204591511
 10
126.7690432454
 20
155.2455495896
  0
LWPOLYLINE
  5
239
100
AcDbEntity
  8
RACCORDO
100
AcDbPolyline
 62
253
  6
CONTINUOUS
 90
12
 70
0
 10
142.6339178439
 20
147.7321662196
 10
143.0679289245
 20
147.9233073728
 10
143.4773838113
 20
148.0933650033
 10
143.8588183706
 20
148.2390892711
 10
144.2136306193
 20
148.3592612392
 10
144.5428048453
 20
148.4536905215
 10
144.8440169641
 20
148.5201368376
 10
145.1193642008
 20
148.5567004075
 10
145.3708368028
 20
148.5636769005
 10
145.5975316017
 20
148.5417068201
 10
145.801430937
 20
148.4893964591
 10
145.9857887608
 20
148.4065481352
  0
LWPOLYLINE
  5
23A
100
AcDbEntity
  8
RACCORDO
100
AcDbPolyline
 62
253
  6
CONTINUOUS
 90
8
 70
0
 10
114.7421689157
 20
149.4539247563
 10
114.6060521425
 20
148.8101045735
 10
114.4820466515
 20
148.1677013545
 10
114.3676375645
 20
147.5267254463
 10
114.261190689
 20
146.8894312811
 10
114.1607491636
 20
146.2556431855
 10
114.0647180836
 20
145.6263538759
 10
113.9723128119
 20
145.0055627292
  0
LINE
  5
23B
100
AcDbEntity
  8
RACCORDO
100
AcDbLine
 62
253
  6
CONTINUOUS
 10
114.8874321451
 20
150.0758846754
 11
114.7421689157
 21
149.4539247563
  0
LWPOLYLINE
  5
23C
100
AcDbEntity
  8
RACCORDO
100
AcDbPolyline
 62
7
  6
CONTINUOUS
 90
23
 70
0
 10
114.8922867748
 20
150.0955568385
 10
114.7513701164
 20
149.4963334053
 10
114.5961447853
 20
148.766948286
 10
114.4559175162
 20
148.0401036655
 10
114.3279338864
 20
147.3188382444
 10
114.2097414747
 20
146.6063643422
 10
114.0992108035
 20
145.9056630459
 10
113.9946378926
 20
145.2195222358
 10
113.8944903001
 20
144.5503470705
 10
113.7977955724
 20
143.9011324284
 10
113.704102073
 20
143.2753791564
 10
113.6129169782
 20
142.6752272999
 10
113.5242856571
 20
142.1027742055
 10
113.4386842138
 20
141.5608261479
 10
113.356535588
 20
141.0510921212
 10
113.2785673226
 20
140.5742585731
 10
113.2055882119
 20
140.1305717702
 10
113.1385302969
 20
139.7207213998
 10
113.0783823583
 20
139.3440575092
 10
113.0258046451
 20
138.997319486
 10
112.9820439971
 20
138.6806286134
 10
112.9479900558
 20
138.390875251
 10
112.9333798475
 20
138.2372181267
  0
LWPOLYLINE
  5
23D
100
AcDbEntity
  8
RACCORDO
100
AcDbPolyline
 62
253
  6
CONTINUOUS
 90
20
 70
0
 10
116.0028210394
 20
154.1303196846
 10
115.8961240302
 20
153.6932471925
 10
115.8425778667
 20
153.2667280596
 10
115.8384214267
 20
152.8405325997
 10
115.8825645524
 20
152.4203984636
 10
115.9728390886
 20
152.0081937579
 10
116.1071501217
 20
151.6045607089
 10
116.2819866606
 20
151.2131658953
 10
116.4941357042
 20
150.8350507953
 10
116.7405660186
 20
150.4707552514
 10
117.0165461846
 20
150.1227991074
 10
117.3184716036
 20
149.791500876
 10
117.6428470638
 20
149.4770412558
 10
117.9841095761
 20
149.1812753963
 10
118.3386120361
 20
148.903939207
 10
118.7028152596
 20
148.6447381283
 10
119.0706146561
 20
148.4050029697
 10
119.437555114
 20
148.1846142407
 10
119.80135543
 20
147.9822075232
 10
120.1591134882
 20
147.7969779935
  0
LINE
  5
23E
100
AcDbEntity
  8
RACCORDO
100
AcDbLine
 62
7
  6
CONTINUOUS
 10
114.8922386131
 20
150.095402245
 11
114.8874321451
 21
150.0758846754
  0
LINE
  5
23F
100
AcDbEntity
  8
ASSI
100
AcDbLine
 62
7
  6
CONTINUOUS
 10
115.4409576148
 20
152.1964882227
 11
114.8874047625
 21
150.0757732846
  0
LINE
  5
240
100
AcDbEntity
  8
ASSI
100
AcDbLine
 62
7
  6
CONTINUOUS
 10
116.0028210394
 20
154.1303196846
 11
115.4409576148
 21
152.1964882227
  0
LWPOLYLINE
  5
241
100
AcDbEntity
  8
RACCORDO
100
AcDbPolyline
 62
7
  6
CONTINUOUS
 90
3
 70
0
 10
120.3316217162
 20
148.4304516557
 10
120.4120655519
 20
148.6420933887
 10
120.5036039214
 20
148.853102705
  0
LINE
  5
242
100
AcDbEntity
  8
RACCORDO
100
AcDbLine
 62
253
  6
CONTINUOUS
 10
124.550445515
 20
156.2827394234
 11
124.5149156372
 21
156.1964015056
  0
LWPOLYLINE
  5
243
100
AcDbEntity
  8
RACCORDO
100
AcDbPolyline
 62
7
  6
CONTINUOUS
 90
4
 70
0
 10
114.6708285643
 20
131.4302452563
 10
114.6785564858
 20
131.4420211353
 10
114.6877887225
 20
131.4497014204
 10
114.6888927893
 20
131.4502871574
  0
LINE
  5
244
100
AcDbEntity
  8
RACCORDO
100
AcDbLine
 62
253
  6
CONTINUOUS
 10
136.2951122529
 20
154.4301686559
 11
136.4054135702
 21
154.5693228976
  0
LWPOLYLINE
  5
245
100
AcDbEntity
  8
RACCORDO
100
AcDbPolyline
 62
253
  6
CONTINUOUS
 90
12
 70
0
 10
134.7003296858
 20
157.547254605
 10
134.8181954312
 20
157.6901489949
 10
134.9156824262
 20
157.8375274202
 10
134.9933417172
 20
157.9886786714
 10
135.0502195936
 20
158.1392339178
 10
135.0849379606
 20
158.2889806447
 10
135.0988749129
 20
158.4381313668
 10
135.0952110246
 20
158.5829547982
 10
135.0733747676
 20
158.7227033465
 10
135.0339376698
 20
158.8581246041
 10
134.9817948889
 20
158.9877300612
 10
134.9170039343
 20
159.111180102
  0
LWPOLYLINE
  5
246
100
AcDbEntity
  8
RACCORDO
100
AcDbPolyline
 62
253
  6
CONTINUOUS
 90
18
 70
0
 10
133.4686028187
 20
142.1495181246
 10
133.9548579805
 20
142.5673622238
 10
134.463222903
 20
142.9755336816
 10
134.9944129598
 20
143.3762298914
 10
135.5447039686
 20
143.7699528316
 10
136.106549365
 20
144.1518329054
 10
136.6790552539
 20
144.5221348133
 10
137.260086566
 20
144.8827323775
 10
137.8410706633
 20
145.2303927201
 10
138.4206893955
 20
145.565143424
 10
138.9975736655
 20
145.8882265491
 10
139.5641356949
 20
146.1973465289
 10
140.1195196515
 20
146.492580419
 10
140.6625311609
 20
146.77426162
 10
141.1863778646
 20
147.0396107999
 10
141.6906646276
 20
147.288308916
 10
142.1749409566
 20
147.5202487467
 10
142.6339178439
 20
147.7321662196
  0
LINE
  5
247
100
AcDbEntity
  8
RACCORDO
100
AcDbLine
 62
253
  6
CONTINUOUS
 10
134.9456036236
 20
142.3814302896
 11
135.4196043848
 21
142.7530435137
  0
LINE
  5
248
100
AcDbEntity
  8
RACCORDO
100
AcDbLine
 62
253
  6
CONTINUOUS
 10
135.4196043848
 20
142.7530435137
 11
135.9114224959
 21
143.1179381264
  0
LWPOLYLINE
  5
249
100
AcDbEntity
  8
RACCORDO
100
AcDbPolyline
 62
253
  6
CONTINUOUS
 90
3
 70
0
 10
135.9114224959
 20
143.1179381264
 10
136.4140268873
 20
143.4714421459
 10
136.9265886407
 20
143.8147146924
  0
LWPOLYLINE
  5
24A
100
AcDbEntity
  8
RACCORDO
100
AcDbPolyline
 62
7
  6
CONTINUOUS
 90
7
 70
0
 10
114.6890333177
 20
131.4503575198
 10
114.6832386573
 20
131.4465796724
 10
114.676558438
 20
131.4395844231
 10
114.6708531229
 20
131.4303107705
 10
114.6661707876
 20
131.4189446362
 10
114.6625601679
 20
131.4057201755
 10
114.6600896483
 20
131.3908896344
  0
LINE
  5
24B
100
AcDbEntity
  8
RACCORDO
100
AcDbLine
 62
253
  6
CONTINUOUS
 10
136.9265886407
 20
143.8147146924
 11
137.4478777627
 21
144.1490303728
  0
LINE
  5
24C
100
AcDbEntity
  8
RACCORDO
100
AcDbLine
 62
253
  6
CONTINUOUS
 10
137.4478777627
 20
144.1490303728
 11
137.9699190083
 21
144.4704432896
  0
LWPOLYLINE
  5
24D
100
AcDbEntity
  8
RACCORDO
100
AcDbPolyline
 62
253
  6
CONTINUOUS
 90
3
 70
0
 10
137.9699190083
 20
144.4704432896
 10
138.4916614777
 20
144.7798606635
 10
139.0125071696
 20
145.0786124255
  0
LWPOLYLINE
  5
24E
100
AcDbEntity
  8
RACCORDO
100
AcDbPolyline
 62
253
  6
CONTINUOUS
 90
19
 70
0
 10
139.0125071696
 20
145.0786124255
 10
139.5251311526
 20
145.3634935834
 10
140.0289566524
 20
145.6350833853
 10
140.5236664414
 20
145.8941162887
 10
141.002481692
 20
146.1374097157
 10
141.4649833432
 20
146.3647492328
 10
141.911590965
 20
146.5763485055
 10
142.3369985548
 20
146.7693463906
 10
142.741026536
 20
146.9427611462
 10
143.1247494575
 20
147.0962594605
 10
143.4848998287
 20
147.2277416996
 10
143.8217272856
 20
147.3357001012
 10
144.1366341325
 20
147.4194013788
 10
144.4280541389
 20
147.4780127883
 10
144.6961646991
 20
147.5097244268
 10
144.942853495
 20
147.5139055342
 10
145.1687767699
 20
147.4920456957
 10
145.3737738132
 20
147.4431550847
 10
145.5598893477
 20
147.3664611217
  0
LWPOLYLINE
  5
24F
100
AcDbEntity
  8
RACCORDO
100
AcDbPolyline
 62
7
  6
CONTINUOUS
 90
4
 70
0
 10
114.6888927893
 20
131.4502871574
 10
114.6985206217
 20
131.4531222607
 10
114.7104649526
 20
131.4520605716
 10
114.7230238358
 20
131.4463120986
  0
LWPOLYLINE
  5
250
100
AcDbEntity
  8
ASSI
100
AcDbPolyline
 62
7
  6
CONTINUOUS
 90
10
 70
0
 10
112.7586785595
 20
135.7698048551
 10
112.6647219837
 20
133.9610779869
 10
112.5815147981
 20
132.1514286188
 10
112.509066077
 20
130.3409517225
 10
112.4473836189
 20
128.5297286038
 10
112.3964753879
 20
126.7178680327
 10
112.3563486972
 20
124.9055062301
 10
112.3270086683
 20
123.0927520229
 10
112.3084590483
 20
121.2796868486
 10
112.3007030794
 20
119.4664058874
  0
LWPOLYLINE
  5
251
100
AcDbEntity
  8
ASSI
100
AcDbPolyline
 62
7
  6
CONTINUOUS
 90
3
 70
0
 10
112.9344178489
 20
138.2493682451
 10
112.9028557846
 20
137.8756152792
 10
112.7586785595
 20
135.7698048551
  0
LINE
  5
252
100
AcDbEntity
  8
RACCORDO
100
AcDbLine
 62
7
  6
CONTINUOUS
 10
112.9343993003
 20
138.2491546356
 11
112.9333907617
 21
138.2374021382
  0
LINE
  5
253
100
AcDbEntity
  8
RACCORDO
100
AcDbLine
 62
253
  6
CONTINUOUS
 10
112.9539998986
 20
138.4407142131
 11
112.9343993003
 21
138.2491546356
  0
LWPOLYLINE
  5
254
100
AcDbEntity
  8
RACCORDO
100
AcDbPolyline
 62
253
  6
CONTINUOUS
 90
8
 70
0
 10
113.9723128119
 20
145.0055627292
 10
113.7930729091
 20
143.7879040119
 10
113.7060611531
 20
143.201527064
 10
113.6202342595
 20
142.6336411859
 10
113.5353500427
 20
142.0843135421
 10
113.4527614517
 20
141.5612737583
 10
113.3726871425
 20
141.0662936055
 10
113.2953239706
 20
140.5981865994
  0
LWPOLYLINE
  5
255
100
AcDbEntity
  8
RACCORDO
100
AcDbPolyline
 62
253
  6
CONTINUOUS
 90
6
 70
0
 10
113.2953239706
 20
140.5981865994
 10
113.1537386441
 20
139.752865429
 10
113.0912431953
 20
139.3760062437
 10
113.0362033699
 20
139.031501502
 10
112.9900096912
 20
138.7198946911
 10
112.9539998986
 20
138.4407142131
  0
LWPOLYLINE
  5
256
100
AcDbEntity
  8
RACCORDO
100
AcDbPolyline
 62
7
  6
CONTINUOUS
 90
3
 70
0
 10
114.660729357
 20
131.3960167296
 10
114.6647832963
 20
131.4147189157
 10
114.6708285643
 20
131.4302452563
  0
LINE
  5
257
100
AcDbEntity
  8
RACCORDO
100
AcDbLine
 62
7
  6
CONTINUOUS
 10
120.1591134882
 20
147.7969779935
 11
120.205521697
 21
148.0087682976
  0
LINE
  5
258
100
AcDbEntity
  8
RACCORDO
100
AcDbLine
 62
7
  6
CONTINUOUS
 10
120.2054145378
 20
148.0084623837
 11
120.2630244396
 21
148.219926185
  0
LINE
  5
259
100
AcDbEntity
  8
RACCORDO
100
AcDbLine
 62
253
  6
CONTINUOUS
 10
124.5149156372
 20
156.1964015056
 11
124.4715818504
 21
156.0612932388
  0
LINE
  5
25A
100
AcDbEntity
  8
RACCORDO
100
AcDbLine
 62
7
  6
CONTINUOUS
 10
120.3316217162
 20
148.4304516557
 11
120.2628522314
 21
148.219435274
  0
LINE
  5
25B
100
AcDbEntity
  8
RACCORDO
100
AcDbLine
 62
7
  6
CONTINUOUS
 10
126.9288540995
 20
156.2924922737
 11
126.9015086168
 21
156.2129076613
  0
LWPOLYLINE
  5
25C
100
AcDbEntity
  8
RACCORDO
100
AcDbPolyline
 62
7
  6
CONTINUOUS
 90
4
 70
0
 10
126.9287539251
 20
156.2921512273
 10
126.9609031774
 20
156.3692468936
 10
126.9979932264
 20
156.4438384053
 10
127.0399872194
 20
156.5162820173
  0
LWPOLYLINE
  5
25D
100
AcDbEntity
  8
RACCORDO
100
AcDbPolyline
 62
253
  6
CONTINUOUS
 90
13
 70
0
 10
136.4054135702
 20
154.5693228976
 10
136.4983692449
 20
154.7050366101
 10
136.5766718688
 20
154.8390725723
 10
136.6413989799
 20
154.9715686227
 10
136.693060568
 20
155.1016043064
 10
136.7327117566
 20
155.229549059
 10
136.7611045408
 20
155.3553971876
 10
136.7788517398
 20
155.4786195926
 10
136.7866635158
 20
155.5988647668
 10
136.7852805344
 20
155.7159642756
 10
136.7754361725
 20
155.8297264225
 10
136.7578969767
 20
155.9398075013
 10
136.7334657157
 20
156.0459215995
  0
LINE
  5
25E
100
AcDbEntity
  8
RACCORDO
100
AcDbLine
 62
253
  6
CONTINUOUS
 10
131.4065733896
 20
139.9309142705
 11
131.7675014342
 21
140.3935134294
  0
LINE
  5
25F
100
AcDbEntity
  8
RACCORDO
100
AcDbLine
 62
253
  6
CONTINUOUS
 10
131.7675014342
 20
140.3935134294
 11
132.1546164935
 21
140.8461615063
  0
LWPOLYLINE
  5
260
100
AcDbEntity
  8
RACCORDO
100
AcDbPolyline
 62
253
  6
CONTINUOUS
 90
3
 70
0
 10
132.886657053
 20
140.4138901235
 10
133.2547649447
 20
140.8229648338
 10
133.6455234222
 20
141.2237150849
  0
LINE
  5
261
100
AcDbEntity
  8
RACCORDO
100
AcDbLine
 62
253
  6
CONTINUOUS
 10
132.1546164935
 20
140.8461615063
 11
132.567381548
 21
141.2900751017
  0
LINE
  5
262
100
AcDbEntity
  8
RACCORDO
100
AcDbLine
 62
253
  6
CONTINUOUS
 10
132.567381548
 20
141.2900751017
 11
133.0056389979
 21
141.7240386453
  0
LINE
  5
263
100
AcDbEntity
  8
RACCORDO
100
AcDbLine
 62
253
  6
CONTINUOUS
 10
133.6455234222
 20
141.2237150849
 11
134.0580765393
 21
141.61692491
  0
LINE
  5
264
100
AcDbEntity
  8
RACCORDO
100
AcDbLine
 62
253
  6
CONTINUOUS
 10
133.0056389979
 20
141.7240386453
 11
133.4686028187
 21
142.1495181246
  0
LINE
  5
265
100
AcDbEntity
  8
RACCORDO
100
AcDbLine
 62
253
  6
CONTINUOUS
 10
134.2898584931
 20
141.8233881397
 11
134.4921422846
 21
142.0035590777
  0
LINE
  5
266
100
AcDbEntity
  8
RACCORDO
100
AcDbLine
 62
253
  6
CONTINUOUS
 10
134.0580765393
 20
141.61692491
 11
134.2898584931
 21
141.8233881397
  0
LINE
  5
267
100
AcDbEntity
  8
RACCORDO
100
AcDbLine
 62
253
  6
CONTINUOUS
 10
134.4921422846
 20
142.0035590777
 11
134.9456036236
 21
142.3814302896
  0
LINE
  5
268
100
AcDbEntity
  8
RACCORDO
100
AcDbLine
 62
253
  6
CONTINUOUS
 10
138.6098915696
 20
137.3083915164
 11
138.7861684003
 21
137.423205135
  0
LINE
  5
269
100
AcDbEntity
  8
RACCORDO
100
AcDbLine
 62
253
  6
CONTINUOUS
 10
138.7861684003
 20
137.423205135
 11
138.9680927556
 21
137.5237458398
  0
LWPOLYLINE
  5
26A
100
AcDbEntity
  8
RACCORDO
100
AcDbPolyline
 62
7
  6
CONTINUOUS
 90
11
 70
0
 10
138.8441710168
 20
137.1699745857
 10
138.8692291997
 20
137.1822792825
 10
139.0235468949
 20
137.2483883765
 10
139.1759092676
 20
137.2973709649
 10
139.3249467814
 20
137.329345354
 10
139.4703058066
 20
137.3448677273
 10
139.6126810342
 20
137.3444352648
 10
139.7518089804
 20
137.3282600529
 10
139.8881574067
 20
137.2965328718
 10
140.0235849187
 20
137.2486154063
 10
140.0994689523
 20
137.2142493144
  0
LWPOLYLINE
  5
26B
100
AcDbEntity
  8
RACCORDO
100
AcDbPolyline
 62
253
  6
CONTINUOUS
 90
43
 70
0
 10
138.9680927556
 20
137.5237458398
 10
139.1528720144
 20
137.6065089237
 10
139.3365780131
 20
137.6716134037
 10
139.5192838685
 20
137.71903992
 10
139.7021531492
 20
137.7486290523
 10
139.8843137992
 20
137.7604661112
 10
140.0628309508
 20
137.7548893517
 10
140.2375621279
 20
137.7316008033
 10
140.4091386054
 20
137.6907932563
 10
140.5757736468
 20
137.6335511522
 10
140.7375811342
 20
137.5597833637
 10
140.8950339584
 20
137.4694935544
 10
141.0468280351
 20
137.3639319249
 10
141.1930972465
 20
137.2432084583
 10
141.3343117603
 20
137.1071810232
 10
141.4696015454
 20
136.9567493397
 10
141.5993290497
 20
136.7919065547
 10
141.7237345746
 20
136.612701416
 10
141.8416834052
 20
136.420144563
 10
141.9534331762
 20
136.2144454625
 10
142.0592621389
 20
135.9955249856
 10
142.1579774547
 20
135.7639852477
 10
142.2500451967
 20
135.5194192742
 10
142.3354863199
 20
135.2624546446
 10
142.4122879411
 20
134.9952565346
 10
142.4805786616
 20
134.7165994418
 10
142.5405059542
 20
134.4279914445
 10
142.5897107771
 20
134.1356504885
 10
142.6274656643
 20
133.8389535503
 10
142.6542274213
 20
133.5387148477
 10
142.668871818
 20
133.2431600692
 10
142.6701197724
 20
132.9519961585
 10
142.6584645238
 20
132.6654538254
 10
142.6349579483
 20
132.3923362928
 10
142.5983794165
 20
132.1339100209
 10
142.5488982743
 20
131.8885580379
 10
142.4894356806
 20
131.6606190173
 10
142.4196428312
 20
131.4514152292
 10
142.3390329326
 20
131.2592207793
 10
142.2503666857
 20
131.0837991601
 10
142.1544168361
 20
130.9249841243
 10
142.0499411584
 20
130.7826675626
 10
141.9367661341
 20
130.6567409689
  0
LINE
  5
26C
100
AcDbEntity
  8
RACCORDO
100
AcDbLine
 62
7
  6
CONTINUOUS
 10
114.2519349583
 20
115.3492848869
 11
114.2545776981
 21
115.3000404553
  0
LWPOLYLINE
  5
26D
100
AcDbEntity
  8
RACCORDO
100
AcDbPolyline
 62
7
  6
CONTINUOUS
 90
9
 70
0
 10
112.3007030794
 20
119.4664058879
 10
112.3248765424
 20
118.9728341007
 10
112.3990757996
 20
118.4784573348
 10
112.5237736258
 20
117.984916198
 10
112.6993566243
 20
117.4936311018
 10
112.9259431348
 20
117.0063551119
 10
113.2032549443
 20
116.5250641636
 10
113.5309823145
 20
116.0512555861
 10
113.9089213113
 20
115.5860768214
  0
LINE
  5
26E
100
AcDbEntity
  8
RACCORDO
100
AcDbLine
 62
7
  6
CONTINUOUS
 10
114.2538379723
 20
115.3490735599
 11
114.252186332
 21
115.3925055927
  0
LWPOLYLINE
  5
26F
100
AcDbEntity
  8
RACCORDO
100
AcDbPolyline
 62
7
  6
CONTINUOUS
 90
9
 70
0
 10
116.4215342909
 20
113.7194631255
 10
116.4231777958
 20
113.6750673407
 10
116.4285644377
 20
113.6337731263
 10
116.4376942166
 20
113.5955804824
 10
116.45077994
 20
113.5600505417
 10
116.4676088005
 20
113.5276221714
 10
116.4875423754
 20
113.4996119732
 10
116.5105998748
 20
113.4762891975
 10
116.5350507918
 20
113.4584260612
  0
LINE
  5
270
100
AcDbEntity
  8
RACCORDO
100
AcDbLine
 62
7
  6
CONTINUOUS
 10
114.2519349583
 20
115.3492848869
 11
114.2663796678
 21
117.1525395873
  0
LWPOLYLINE
  5
271
100
AcDbEntity
  8
RACCORDO
100
AcDbPolyline
 62
7
  6
CONTINUOUS
 90
10
 70
0
 10
116.4215342909
 20
113.7194631255
 10
116.4363194551
 20
115.3030830596
 10
116.4570856792
 20
116.8897563862
 10
116.483832963
 20
118.4794831054
 10
116.5165618539
 20
120.0723096685
 10
116.5552718046
 20
121.6681896241
 10
116.5999611734
 20
123.2669836187
 10
116.6506294129
 20
124.8686452009
 10
116.7072770706
 20
126.4732208219
 10
116.7699041462
 20
128.0807104819
  0
LWPOLYLINE
  5
272
100
AcDbEntity
  8
RACCORDO
100
AcDbPolyline
 62
253
  6
CONTINUOUS
 90
11
 70
0
 10
112.7586785595
 20
135.7698048551
 10
112.7541640427
 20
135.384237993
 10
112.7859822953
 20
134.9739526844
 10
112.8554946179
 20
134.5649059726
 10
112.962548157
 20
134.157916431
 10
113.1069388502
 20
133.7537715031
 10
113.2883866165
 20
133.3533030087
 10
113.5065125518
 20
132.9573853309
 10
113.7608666119
 20
132.5668600583
 10
114.050921971
 20
132.1825568062
 10
114.3760765292
 20
131.8052915131
  0
LINE
  5
273
100
AcDbEntity
  8
RACCORDO
100
AcDbLine
 62
7
  6
CONTINUOUS
 10
114.2659866426
 20
117.1140305284
 11
114.2883225503
 21
118.9166796044
  0
LINE
  5
274
100
AcDbEntity
  8
RACCORDO
100
AcDbLine
 62
7
  6
CONTINUOUS
 10
114.2878302854
 20
118.8829056925
 11
114.3180149793
 21
120.684925644
  0
LINE
  5
275
100
AcDbEntity
  8
RACCORDO
100
AcDbLine
 62
7
  6
CONTINUOUS
 10
114.3174658867
 20
120.6559103792
 11
114.3554619492
 21
122.4574965731
  0
LINE
  5
276
100
AcDbEntity
  8
RACCORDO
100
AcDbLine
 62
7
  6
CONTINUOUS
 10
114.3548984623
 20
122.433264571
 11
114.4006584657
 21
124.2341735248
  0
LINE
  5
277
100
AcDbEntity
  8
RACCORDO
100
AcDbLine
 62
7
  6
CONTINUOUS
 10
114.4001229965
 20
124.2147482854
 11
114.4535895464
 21
126.0142998984
  0
LINE
  5
278
100
AcDbEntity
  8
RACCORDO
100
AcDbLine
 62
7
  6
CONTINUOUS
 10
114.4531244413
 20
125.9997015752
 11
114.5142501972
 21
127.797656827
  0
LINE
  5
279
100
AcDbEntity
  8
RACCORDO
100
AcDbLine
 62
7
  6
CONTINUOUS
 10
114.5138977807
 20
127.7879044581
 11
114.5826454123
 21
129.5844631776
  0
LINE
  5
27A
100
AcDbEntity
  8
RACCORDO
100
AcDbLine
 62
7
  6
CONTINUOUS
 10
114.5825517561
 20
129.5820164369
 11
114.6587751915
 21
131.3747189502
  0
LINE
  5
27B
100
AcDbEntity
  8
RACCORDO
100
AcDbLine
 62
7
  6
CONTINUOUS
 10
114.6600896483
 20
131.3908896344
 11
114.6587751915
 21
131.3747189502
  0
LINE
  5
27C
100
AcDbEntity
  8
RACCORDO
100
AcDbLine
 62
7
  6
CONTINUOUS
 10
114.6587751915
 20
131.3747189502
 11
114.660729357
 21
131.3960167296
  0
LINE
  5
27D
100
AcDbEntity
  8
RACCORDO
100
AcDbLine
 62
7
  6
CONTINUOUS
 10
119.7707948898
 20
145.6906186965
 11
120.1591134882
 21
147.7969779935
  0
LWPOLYLINE
  5
27E
100
AcDbEntity
  8
RACCORDO
100
AcDbPolyline
 62
253
  6
CONTINUOUS
 90
14
 70
0
 10
124.4715818504
 20
156.0612932388
 10
124.4404452438
 20
155.9264585267
 10
124.4212784282
 20
155.7921866301
 10
124.4138267309
 20
155.6587292298
 10
124.4175979355
 20
155.5294004534
 10
124.4314270811
 20
155.4051658459
 10
124.4542786833
 20
155.2854499755
 10
124.4849034646
 20
155.1711954577
 10
124.5219239358
 20
155.0630955989
 10
124.5643903685
 20
154.9605822984
 10
124.6117850276
 20
154.8626638764
 10
124.6632731899
 20
154.7694142552
 10
124.7181187833
 20
154.6807649523
 10
124.776423134
 20
154.5955339533
  0
LINE
  5
27F
100
AcDbEntity
  8
RACCORDO
100
AcDbLine
 62
7
  6
CONTINUOUS
 10
126.9016567173
 20
156.2135058452
 11
126.8801865935
 21
156.1345483776
  0
LINE
  5
280
100
AcDbEntity
  8
RACCORDO
100
AcDbLine
 62
253
  6
CONTINUOUS
 10
131.0729316301
 20
139.4577155619
 11
131.4065733896
 21
139.9309142705
  0
LINE
  5
281
100
AcDbEntity
  8
RACCORDO
100
AcDbLine
 62
253
  6
CONTINUOUS
 10
132.2188220936
 20
139.5712801133
 11
132.5411566365
 21
139.9968205863
  0
LINE
  5
282
100
AcDbEntity
  8
RACCORDO
100
AcDbLine
 62
253
  6
CONTINUOUS
 10
132.5411566365
 20
139.9968205863
 11
132.886657053
 21
140.4138901235
  0
LINE
  5
283
100
AcDbEntity
  8
RACCORDO
100
AcDbLine
 62
253
  6
CONTINUOUS
 10
135.5956111417
 20
127.4861634727
 11
140.9233953227
 21
130.1500555633
  0
LINE
  5
284
100
AcDbEntity
  8
RACCORDO
100
AcDbLine
 62
253
  6
CONTINUOUS
 10
141.9367661341
 20
130.6567409689
 11
147.2645503151
 21
133.3206330595
  0
LWPOLYLINE
  5
285
100
AcDbEntity
  8
RACCORDO
100
AcDbPolyline
 62
253
  6
CONTINUOUS
 90
16
 70
0
 10
141.2204375637
 20
130.5796428507
 10
141.196663487
 20
130.5679833346
 10
141.1718449457
 20
130.556433164
 10
141.1459855417
 20
130.54502526
 10
141.1191434739
 20
130.5337847667
 10
141.0912695956
 20
130.522755401
 10
141.0622076211
 20
130.5120024637
 10
141.0319811701
 20
130.5015571888
 10
141.0005805353
 20
130.491471022
 10
140.9678011551
 20
130.4818472753
 10
140.9336311121
 20
130.4727078254
 10
140.8981029097
 20
130.4641298257
 10
140.8610802315
 20
130.4563006265
 10
140.8225264011
 20
130.4493134662
 10
140.7825048287
 20
130.4431720538
 10
140.7410307966
 20
130.4379272519
  0
LWPOLYLINE
  5
286
100
AcDbEntity
  8
RACCORDO
100
AcDbPolyline
 62
253
  6
CONTINUOUS
 90
16
 70
0
 10
141.5008029282
 20
130.2652758251
 10
141.4731209563
 20
130.2517458515
 10
141.4441057243
 20
130.2387843367
 10
141.4137552321
 20
130.2263904484
 10
141.3821294205
 20
130.2144694225
 10
141.3491600388
 20
130.2031124897
 10
141.3146484076
 20
130.192595876
 10
141.2785951216
 20
130.1828787638
 10
141.2409748603
 20
130.173990628
 10
141.2015390318
 20
130.1663077758
 10
141.1602207642
 20
130.1597651214
 10
141.1170318609
 20
130.154398941
 10
141.071820679
 20
130.1507256079
 10
141.0244967591
 20
130.1488927948
 10
140.9750421227
 20
130.1486842622
 10
140.9233953227
 20
130.1500555633
  0
LWPOLYLINE
  5
287
100
AcDbEntity
  8
RACCORDO
100
AcDbPolyline
 62
7
  6
CONTINUOUS
 90
3
 70
0
 10
114.2687685829
 20
115.2710912438
 10
114.2593653893
 20
115.3086021103
 10
114.2538379723
 20
115.3490735599
  0
LWPOLYLINE
  5
288
100
AcDbEntity
  8
RACCORDO
100
AcDbPolyline
 62
7
  6
CONTINUOUS
 90
6
 70
0
 10
114.2545776981
 20
115.3000404553
 10
114.2624696607
 20
115.2555569285
 10
114.2756108461
 20
115.2158343065
 10
114.2943582722
 20
115.1802601891
 10
114.3183549211
 20
115.1494469765
 10
114.3212058658
 20
115.1464911213
  0
LWPOLYLINE
  5
289
100
AcDbEntity
  8
0
100
AcDbPolyline
 62
7
  6
CONTINUOUS
 90
4
 70
0
 10
121.4829310937
 20
107.5767273582
 10
121.4862202103
 20
107.5139242107
 10
121.5008203298
 20
107.4304841461
 10
121.5172035805
 20
107.374654764
  0
LINE
  5
28A
100
AcDbEntity
  8
RACCORDO
100
AcDbLine
 62
7
  6
CONTINUOUS
 10
118.0139448099
 20
115.4593261155
 11
118.0139448099
 21
116.4051616044
  0
LINE
  5
28B
100
AcDbEntity
  8
0
100
AcDbLine
 62
7
  6
CONTINUOUS
 10
121.4829310937
 20
111.3388016855
 11
121.4829310937
 21
107.5767273582
  0
LINE
  5
28C
100
AcDbEntity
  8
DRAFT
100
AcDbLine
 62
7
  6
CONTINUOUS
 10
117.8833224016
 20
115.5246373196
 11
117.9004402934
 21
127.4589548606
  0
LWPOLYLINE
  5
28D
100
AcDbEntity
  8
RACCORDO
100
AcDbPolyline
 62
7
  6
CONTINUOUS
 90
4
 70
0
 10
119.0260751312
 20
117.2083620213
 10
119.0219535402
 20
115.6073224557
 10
119.0238121067
 20
114.0093367338
 10
119.0316508308
 20
112.4144048556
  0
LWPOLYLINE
  5
28E
100
AcDbEntity
  8
RACCORDO
100
AcDbPolyline
 62
7
  6
CONTINUOUS
 90
7
 70
0
 10
119.1763911053
 20
126.8774670024
 10
119.1363871825
 20
125.258665766
 10
119.1023637639
 20
123.6427780254
 10
119.0743208495
 20
122.0298037806
 10
119.0522585548
 20
120.419696249
 10
119.0361767642
 20
118.8125022133
 10
119.0260751312
 20
117.2083620213
  0
LWPOLYLINE
  5
28F
100
AcDbEntity
  8
RACCORDO
100
AcDbPolyline
 62
7
  6
CONTINUOUS
 90
13
 70
0
 10
117.9796535398
 20
129.2143925067
 10
118.0474421185
 20
130.7241167181
 10
118.1360128555
 20
132.2416698348
 10
118.245365751
 20
133.767051857
 10
118.3755459195
 20
135.3007184201
 10
118.5265082464
 20
136.8422138887
 10
118.698117388
 20
138.3901713561
 10
118.8904012358
 20
139.9446502359
 10
119.1033318982
 20
141.5055911146
 10
119.3366903566
 20
143.0714488444
 10
119.5904036045
 20
144.6417083762
 10
119.8645446484
 20
146.2168847593
 10
120.1591134882
 20
147.7969779935
  0
LWPOLYLINE
  5
290
100
AcDbEntity
  8
RACCORDO
100
AcDbPolyline
 62
7
  6
CONTINUOUS
 90
9
 70
0
 10
117.9796535398
 20
129.2143925067
 10
118.0747651494
 20
131.2303513909
 10
118.2067511888
 20
133.2593966418
 10
118.3756116581
 20
135.3015282594
 10
118.5814955948
 20
137.3579371203
 10
118.8242539612
 20
139.4274323479
 10
119.103439645
 20
141.506441312
 10
119.4189036087
 20
143.593773136
 10
119.7707948898
 20
145.6906186965
  0
LINE
  5
291
100
AcDbEntity
  8
RACCORDO
100
AcDbLine
 62
7
  6
CONTINUOUS
 10
126.8652681776
 20
156.0587017369
 11
126.8559919626
 21
155.9825041113
  0
LWPOLYLINE
  5
292
100
AcDbEntity
  8
RACCORDO
100
AcDbPolyline
 62
7
  6
CONTINUOUS
 90
8
 70
0
 10
126.3206706478
 20
153.6064094773
 10
126.3164209554
 20
153.5837016742
 10
126.3097004118
 20
153.561425306
 10
126.300202775
 20
153.5390255505
 10
126.2882342869
 20
153.5170572299
 10
126.274713673
 20
153.4971848099
 10
126.2599471752
 20
153.4799631127
 10
126.2436285517
 20
153.4648373162
  0
LINE
  5
293
100
AcDbEntity
  8
RACCORDO
100
AcDbLine
 62
7
  6
CONTINUOUS
 10
126.8803530468
 20
156.1352614412
 11
126.8651276356
 21
156.0580841034
  0
LWPOLYLINE
  5
294
100
AcDbEntity
  8
RACCORDO
100
AcDbPolyline
 62
253
  6
CONTINUOUS
 90
6
 70
0
 10
135.8952143855
 20
156.5857706397
 10
135.9604724267
 20
156.7645776192
 10
136.0017565376
 20
156.946119404
 10
136.0184640944
 20
157.128230364
 10
136.0111965815
 20
157.3053510367
 10
135.9822794004
 20
157.4755558048
  0
LWPOLYLINE
  5
295
100
AcDbEntity
  8
0
100
AcDbPolyline
 62
7
  6
CONTINUOUS
 90
18
 70
0
 10
137.2259224357
 20
134.3447368191
 10
137.3076557648
 20
134.4523962828
 10
137.3942784698
 20
134.5761734668
 10
137.4766469958
 20
134.703958403
 10
137.5544852989
 20
134.8352874846
 10
137.6275298468
 20
134.9696781239
 10
137.695571473
 20
135.1067130165
 10
137.7584277306
 20
135.2460143762
 10
137.8159031419
 20
135.3871648536
 10
137.8677804838
 20
135.5296583652
 10
137.913864056
 20
135.6729839863
 10
137.9539789886
 20
135.8166225451
 10
137.9879962728
 20
135.9601560353
 10
138.0158057439
 20
136.1032355531
 10
138.0372917046
 20
136.2455099156
 10
138.052313582
 20
136.3864003396
 10
138.0607629537
 20
136.5252465728
 10
138.0609126181
 20
136.5364706762
  0
LWPOLYLINE
  5
296
100
AcDbEntity
  8
0
100
AcDbPolyline
 62
253
  6
CONTINUOUS
 90
18
 70
0
 10
137.2262253573
 20
134.362433415
 10
137.2772748598
 20
134.4278834629
 10
137.3611214603
 20
134.5442516914
 10
137.4412399633
 20
134.6646786948
 10
137.517351775
 20
134.7887457145
 10
137.5891922593
 20
134.9160213558
 10
137.656511713
 20
135.0460632108
 10
137.7190761606
 20
135.1784193067
 10
137.7766681202
 20
135.3126295838
 10
137.8290873318
 20
135.448227393
 10
137.8761515214
 20
135.5847412332
 10
137.9176970648
 20
135.7216964798
 10
137.9535795459
 20
135.8586170425
 10
137.9836742246
 20
135.9950269234
 10
138.0078764773
 20
136.1304518728
 10
138.0261021744
 20
136.2644211111
 10
138.0382879633
 20
136.3964689685
 10
138.0439624388
 20
136.5170216664
  0
LINE
  5
297
100
AcDbEntity
  8
RACCORDO
100
AcDbLine
 62
253
  6
CONTINUOUS
 10
135.8476164085
 20
126.6365676641
 11
147.5165555819
 21
132.4710372508
  0
LINE
  5
298
100
AcDbEntity
  8
0
100
AcDbLine
 62
7
  6
CONTINUOUS
 10
118.0139448099
 20
115.4593261155
 11
118.2034135009
 21
115.554060461
  0
LINE
  5
299
100
AcDbEntity
  8
RACCORDO
100
AcDbLine
 62
7
  6
CONTINUOUS
 10
116.7742204775
 20
113.4653408489
 11
118.5316639145
 21
114.3440625674
  0
LWPOLYLINE
  5
29A
100
AcDbEntity
  8
0
100
AcDbPolyline
 62
7
  6
CONTINUOUS
 90
33
 70
0
 10
121.5172035805
 20
107.374654764
 10
121.5270258535
 20
107.3477565637
 10
121.5647091106
 20
107.2661445041
 10
121.6136865123
 20
107.1860455728
 10
121.6737194454
 20
107.107850004
 10
121.7445154357
 20
107.0319387585
 10
121.825729572
 20
106.9586816683
 10
121.9169661874
 20
106.8884356346
 10
122.0177807862
 20
106.8215428889
 10
122.1276822098
 20
106.7583293261
 10
122.2461350296
 20
106.6991029162
 10
122.3725621552
 20
106.6441522044
 10
122.5063476465
 20
106.593744905
 10
122.6468397139
 20
106.5481265973
 10
122.7933538944
 20
106.5075195292
 10
122.9451763854
 20
106.472121534
 10
123.101567523
 20
106.4421050675
 10
123.2617653855
 20
106.4176163666
 10
123.4249895048
 20
106.398774738
 10
123.5904446696
 20
106.3856719762
 10
123.7573247987
 20
106.3783719165
 10
123.9248168692
 20
106.376910124
 10
124.0921048763
 20
106.3812937205
 10
124.2583738098
 20
106.3915013495
 10
124.4228136242
 20
106.4074832804
 10
124.5846231851
 20
106.429161651
 10
124.7430141726
 20
106.4564308464
 10
124.8972149219
 20
106.4891580137
 10
125.0464741823
 20
106.5271837096
 10
125.1900647778
 20
106.5703226766
 10
125.3272871493
 20
106.6183647461
 10
125.4574727633
 20
106.6710758619
 10
125.5799873686
 20
106.7281992208
  0
LINE
  5
29B
100
AcDbEntity
  8
RACCORDO
100
AcDbLine
 62
7
  6
CONTINUOUS
 10
118.0308106654
 20
116.2566938245
 11
118.2034135009
 21
115.554060461
  0
LINE
  5
29C
100
AcDbEntity
  8
0
100
AcDbLine
 62
7
  6
CONTINUOUS
 10
118.6177062219
 20
113.9938006748
 11
118.2387688399
 21
115.5363827914
  0
LWPOLYLINE
  5
29D
100
AcDbEntity
  8
RACCORDO
100
AcDbPolyline
 62
7
  6
CONTINUOUS
 90
7
 70
0
 10
118.0308106654
 20
116.2566938245
 10
118.0299000579
 20
116.2607430045
 10
118.0289626025
 20
116.2647645694
 10
118.0279982992
 20
116.2687585191
 10
118.0270071479
 20
116.2727248538
 10
118.0259891487
 20
116.2766635733
 10
118.0249443015
 20
116.2805746777
  0
LWPOLYLINE
  5
29E
100
AcDbEntity
  8
RACCORDO
100
AcDbPolyline
 62
7
  6
CONTINUOUS
 90
7
 70
0
 10
118.0249443015
 20
116.2805746777
 10
118.0237188028
 20
116.2905104678
 10
118.0222502042
 20
116.3002650274
 10
118.0205385055
 20
116.3098383565
 10
118.018583707
 20
116.319230455
 10
118.0163858084
 20
116.3284413229
 10
118.0139448099
 20
116.3374709603
  0
LINE
  5
29F
100
AcDbEntity
  8
RACCORDO
100
AcDbLine
 62
7
  6
CONTINUOUS
 10
122.3802916766
 20
111.246424222
 11
122.3781029423
 21
111.2862008949
  0
LINE
  5
2A0
100
AcDbEntity
  8
RACCORDO
100
AcDbLine
 62
7
  6
CONTINUOUS
 10
122.3777357651
 20
111.3297308761
 11
122.3800226466
 21
111.2859812227
  0
LINE
  5
2A1
100
AcDbEntity
  8
RACCORDO
100
AcDbLine
 62
7
  6
CONTINUOUS
 10
122.5578468274
 20
127.4251831322
 11
122.5572089555
 21
127.4423072582
  0
LWPOLYLINE
  5
2A2
100
AcDbEntity
  8
RACCORDO
100
AcDbPolyline
 62
253
  6
CONTINUOUS
 90
32
 70
0
 10
124.5504483376
 20
155.7656246959
 10
124.5542545378
 20
155.6612216764
 10
124.5677780243
 20
155.5397329685
 10
124.5901245481
 20
155.4226631223
 10
124.6200724441
 20
155.3109339189
 10
124.6562746691
 20
155.205223341
 10
124.697802486
 20
155.1049758442
 10
124.744149603
 20
155.0092216676
 10
124.7944997464
 20
154.9180330993
 10
124.8481331132
 20
154.8313431707
 10
124.90514879
 20
154.7479959929
 10
124.9652941744
 20
154.6676869088
 10
125.0278981925
 20
154.5907079936
 10
125.0927022283
 20
154.5168215299
 10
125.1593728057
 20
154.4459330495
 10
125.2274648047
 20
154.3780811329
 10
125.2966126703
 20
154.3132239843
 10
125.3663897132
 20
154.2513816199
 10
125.4365295087
 20
154.1924382707
 10
125.5069584198
 20
154.1361490124
 10
125.5773804835
 20
154.0824775059
 10
125.6475470693
 20
154.031358124
 10
125.7175301486
 20
153.9825149869
 10
125.7871177195
 20
153.9359000401
 10
125.8561055963
 20
153.8914653011
 10
125.9246446887
 20
153.8489512869
 10
125.9925643263
 20
153.8083215529
 10
126.0597201937
 20
153.7695273714
 10
126.1263606496
 20
153.7323084921
 10
126.1925013979
 20
153.6965592367
 10
126.257900315
 20
153.6623178004
 10
126.3224494888
 20
153.6295487151
  0
LINE
  5
2A3
100
AcDbEntity
  8
RACCORDO
100
AcDbLine
 62
7
  6
CONTINUOUS
 10
122.3667688611
 20
113.1023449906
 11
122.3781029423
 21
111.2862008949
  0
LINE
  5
2A4
100
AcDbEntity
  8
RACCORDO
100
AcDbLine
 62
7
  6
CONTINUOUS
 10
122.3635481845
 20
114.8790667872
 11
122.366925743
 21
113.0635609783
  0
LINE
  5
2A5
100
AcDbEntity
  8
RACCORDO
100
AcDbLine
 62
253
  6
CONTINUOUS
 10
124.550445515
 20
155.7685467282
 11
124.5504483376
 21
155.7656246959
  0
LINE
  5
2A6
100
AcDbEntity
  8
0
100
AcDbLine
 62
7
  6
CONTINUOUS
 10
124.550445515
 20
155.7685467282
 11
124.550445515
 21
156.4839577617
  0
LINE
  5
2A7
100
AcDbEntity
  8
0
100
AcDbLine
 62
7
  6
CONTINUOUS
 10
125.300445515
 20
157.175423596
 11
125.300445515
 21
157.7816413716
  0
LINE
  5
2A8
100
AcDbEntity
  8
0
100
AcDbLine
 62
7
  6
CONTINUOUS
 10
126.2829310937
 20
110.3494759852
 11
126.2829310937
 21
107.5767273582
  0
LINE
  5
2A9
100
AcDbEntity
  8
RACCORDO
100
AcDbLine
 62
7
  6
CONTINUOUS
 10
126.3224494888
 20
153.6295487151
 11
126.3224494888
 21
154.3449597416
  0
LINE
  5
2AA
100
AcDbEntity
  8
RACCORDO
100
AcDbLine
 62
7
  6
CONTINUOUS
 10
122.3680737355
 20
116.659896266
 11
122.3635371502
 21
114.8450522603
  0
LINE
  5
2AB
100
AcDbEntity
  8
RACCORDO
100
AcDbLine
 62
7
  6
CONTINUOUS
 10
122.3803474024
 20
118.4450538465
 11
122.3679371637
 21
116.630674741
  0
LINE
  5
2AC
100
AcDbEntity
  8
RACCORDO
100
AcDbLine
 62
7
  6
CONTINUOUS
 10
122.4003672969
 20
120.2343191092
 11
122.3801276781
 21
118.4206499636
  0
LINE
  5
2AD
100
AcDbEntity
  8
RACCORDO
100
AcDbLine
 62
7
  6
CONTINUOUS
 10
122.4281277531
 20
122.027030795
 11
122.400106799
 21
120.2147563849
  0
LWPOLYLINE
  5
2AE
100
AcDbEntity
  8
0
100
AcDbPolyline
 62
7
  6
CONTINUOUS
 90
5
 70
0
 10
126.2829310937
 20
107.5767273582
 10
126.2825655621
 20
107.5557844705
 10
126.2737983692
 20
107.4721404669
 10
126.2533831112
 20
107.3890060001
 10
126.2486586069
 20
107.374654764
  0
LINE
  5
2AF
100
AcDbEntity
  8
RACCORDO
100
AcDbLine
 62
7
  6
CONTINUOUS
 10
122.4636268827
 20
123.8229684843
 11
122.4278688426
 21
122.0123293753
  0
LWPOLYLINE
  5
2B0
100
AcDbEntity
  8
0
100
AcDbPolyline
 62
7
  6
CONTINUOUS
 90
31
 70
0
 10
126.6006243749
 20
158.4740190689
 10
126.6014937784
 20
158.5143831907
 10
126.6210266298
 20
158.6758414547
 10
126.6659658872
 20
158.8349717703
 10
126.7368037267
 20
158.9917290402
 10
126.8330479724
 20
159.1461583618
 10
126.952846131
 20
159.2952873055
 10
127.0966544921
 20
159.4390131918
 10
127.2640167662
 20
159.5774387002
 10
127.4517115926
 20
159.7078994399
 10
127.6601328559
 20
159.8302411164
 10
127.8888866715
 20
159.9446180242
 10
128.1335700245
 20
160.0488286559
 10
128.3944915039
 20
160.142676069
 10
128.6713425206
 20
160.2263572061
 10
128.9587942932
 20
160.2982613866
 10
129.2570521806
 20
160.358160466
 10
129.5659108238
 20
160.4062825888
 10
129.8794253637
 20
160.4417015085
 10
130.197685995
 20
160.4641711373
 10
130.5206025229
 20
160.4739375629
 10
130.8419595047
 20
160.4708128031
 10
131.1617267286
 20
160.4545471281
 10
131.4799344064
 20
160.4253902675
 10
131.7904577304
 20
160.3839034277
 10
132.0931478383
 20
160.3298477508
 10
132.3881535924
 20
160.2634620947
 10
132.6697967717
 20
160.1860242392
 10
132.9361846359
 20
160.0979601111
 10
133.1892099252
 20
159.9988437837
 10
133.4288726398
 20
159.888675257
  0
LINE
  5
2B1
100
AcDbEntity
  8
RACCORDO
100
AcDbLine
 62
7
  6
CONTINUOUS
 10
122.5068073644
 20
125.6198886337
 11
122.4634119147
 21
123.8131473918
  0
LINE
  5
2B2
100
AcDbEntity
  8
RACCORDO
100
AcDbLine
 62
7
  6
CONTINUOUS
 10
122.5578468274
 20
127.4251831322
 11
122.5067379096
 21
125.6174319774
  0
LWPOLYLINE
  5
2B3
100
AcDbEntity
  8
RACCORDO
100
AcDbPolyline
 62
7
  6
CONTINUOUS
 90
11
 70
0
 10
126.3224494888
 20
154.3449597416
 10
126.3248372964
 20
154.4093226713
 10
126.3317172405
 20
154.4745759415
 10
126.3430893212
 20
154.5407195524
 10
126.3591477792
 20
154.608414644
 10
126.3796983738
 20
154.6770000762
 10
126.4041583832
 20
154.7444924282
 10
126.4325593148
 20
154.8106796105
 10
126.4648696613
 20
154.8757737127
 10
126.5004121786
 20
154.9384275826
 10
126.5393739015
 20
154.9987426151
  0
LINE
  5
2B4
100
AcDbEntity
  8
RACCORDO
100
AcDbLine
 62
7
  6
CONTINUOUS
 10
126.3254865321
 20
154.416961884
 11
126.3224494888
 21
154.3449597416
  0
LINE
  5
2B5
100
AcDbEntity
  8
RACCORDO
100
AcDbLine
 62
7
  6
CONTINUOUS
 10
126.8560770203
 20
155.982884057
 11
126.8527795747
 21
155.9078084015
  0
LINE
  5
2B6
100
AcDbEntity
  8
RACCORDO
100
AcDbLine
 62
7
  6
CONTINUOUS
 10
126.3224494888
 20
153.6295487151
 11
126.3206706478
 21
153.6064094773
  0
LWPOLYLINE
  5
2B7
100
AcDbEntity
  8
RACCORDO
100
AcDbPolyline
 62
253
  6
CONTINUOUS
 90
5
 70
0
 10
136.5666620201
 20
155.982270452
 10
136.6076732028
 20
156.1248910841
 10
136.6350478912
 20
156.2682761869
 10
136.6487358086
 20
156.4120471805
 10
136.650445515
 20
156.4839577585
  0
LWPOLYLINE
  5
2B8
100
AcDbEntity
  8
RACCORDO
100
AcDbPolyline
 62
253
  6
CONTINUOUS
 90
10
 70
0
 10
134.3957742486
 20
126.8046529487
 10
134.4584841958
 20
126.9045900977
 10
134.5182287506
 20
127.0087374091
 10
134.5744849991
 20
127.1161833447
 10
134.6267605585
 20
127.225987495
 10
134.6745978869
 20
127.3371888109
 10
134.7175782872
 20
127.4488140145
 10
134.7553255721
 20
127.5598861179
 10
134.7875093566
 20
127.6694329744
 10
134.8138479496
 20
127.7764957869
  0
LWPOLYLINE
  5
2B9
100
AcDbEntity
  8
RACCORDO
100
AcDbPolyline
 62
253
  6
CONTINUOUS
 90
7
 70
0
 10
141.6128016235
 20
130.8738126653
 10
141.5592160792
 20
130.8180821481
 10
141.5008355058
 20
130.7646605695
 10
141.4377040561
 20
130.7138180728
 10
141.3698782948
 20
130.6658366998
 10
141.2974281007
 20
130.621010054
 10
141.2204375637
 20
130.5796428507
  0
LWPOLYLINE
  5
2BA
100
AcDbEntity
  8
RACCORDO
100
AcDbPolyline
 62
7
  6
CONTINUOUS
 90
8
 70
0
 10
143.1142443386
 20
119.6092977242
 10
143.1475619868
 20
119.6237870532
 10
143.1805799615
 20
119.633817312
 10
143.2129359765
 20
119.6392727406
 10
143.2442976998
 20
119.6400848051
 10
143.2742963048
 20
119.6362348952
 10
143.30254044
 20
119.6277840543
 10
143.3166652831
 20
119.6214911136
  0
LWPOLYLINE
  5
2BB
100
AcDbEntity
  8
RACCORDO
100
AcDbPolyline
 62
7
  6
CONTINUOUS
 90
4
 70
0
 10
114.3212058658
 20
115.1464911213
 10
114.3465297395
 20
115.1252318699
 10
114.379098519
 20
115.1079818129
 10
114.3937148131
 20
115.1037449428
  0
LINE
  5
2BC
100
AcDbEntity
  8
RACCORDO
100
AcDbLine
 62
253
  6
CONTINUOUS
 10
114.5620308735
 20
115.0979613047
 11
114.252186332
 21
115.3925055927
  0
LINE
  5
2BD
100
AcDbEntity
  8
RACCORDO
100
AcDbLine
 62
7
  6
CONTINUOUS
 10
114.4804122917
 20
115.0189988441
 11
114.3289977733
 21
115.1670053367
  0
LWPOLYLINE
  5
2BE
100
AcDbEntity
  8
RACCORDO
100
AcDbPolyline
 62
253
  6
CONTINUOUS
 90
11
 70
0
 10
114.2519349583
 20
115.3492848869
 10
113.8678242124
 20
115.7557261173
 10
113.5241083429
 20
116.1711012368
 10
113.2216145086
 20
116.5944071657
 10
112.9610815218
 20
117.0246014608
 10
112.7431204105
 20
117.4606652519
 10
112.5682330175
 20
117.9016082612
 10
112.4368451063
 20
118.346416789
 10
112.3493113704
 20
118.7939696315
 10
112.3058631845
 20
119.2431015324
 10
112.3007030794
 20
119.466405888
  0
LWPOLYLINE
  5
2BF
100
AcDbEntity
  8
RACCORDO
100
AcDbPolyline
 62
7
  6
CONTINUOUS
 90
5
 70
0
 10
114.329001309
 20
115.1670106093
 10
114.3202328243
 20
115.1763221433
 10
114.2995883424
 20
115.2039971665
 10
114.2822405743
 20
115.2360639136
 10
114.2687685829
 20
115.2710912438
  0
LINE
  5
2C0
100
AcDbEntity
  8
RACCORDO
100
AcDbLine
 62
7
  6
CONTINUOUS
 10
113.9089213113
 20
115.5860768214
 11
114.3211045995
 21
115.1463412622
  0
LWPOLYLINE
  5
2C1
100
AcDbEntity
  8
RACCORDO
100
AcDbPolyline
 62
7
  6
CONTINUOUS
 90
5
 70
0
 10
122.557208093
 20
127.4423304121
 10
122.5542815824
 20
127.4598594683
 10
122.5490832585
 20
127.4774884008
 10
122.5416181194
 20
127.4949282723
 10
122.5319982874
 20
127.5118644984
  0
LWPOLYLINE
  5
2C2
100
AcDbEntity
  8
RACCORDO
100
AcDbPolyline
 62
7
  6
CONTINUOUS
 90
4
 70
0
 10
122.3800226466
 20
111.2859812227
 10
122.386170626
 20
111.2451994919
 10
122.3961797031
 20
111.2073856837
 10
122.4102511314
 20
111.1720586351
  0
LWPOLYLINE
  5
2C3
100
AcDbEntity
  8
RACCORDO
100
AcDbPolyline
 62
253
  6
CONTINUOUS
 90
4
 70
0
 10
124.550445515
 20
156.4839577617
 10
124.5587315943
 20
156.3256914512
 10
124.5835840712
 20
156.1677780792
 10
124.6249369638
 20
156.0107248501
  0
LWPOLYLINE
  5
2C4
100
AcDbEntity
  8
RACCORDO
100
AcDbPolyline
 62
7
  6
CONTINUOUS
 90
11
 70
0
 10
125.300445515
 20
157.1754236007
 10
125.3041531293
 20
157.0763188976
 10
125.3337791857
 20
156.8786805355
 10
125.3928502548
 20
156.6827392127
 10
125.4810302957
 20
156.4895686892
 10
125.5978393539
 20
156.3002191061
 10
125.7426442578
 20
156.1157341434
 10
125.9146319768
 20
155.9371635789
 10
126.112823219
 20
155.7655258933
 10
126.336098013
 20
155.6017860582
 10
126.5832116318
 20
155.4468525111
  0
LWPOLYLINE
  5
2C5
100
AcDbEntity
  8
RACCORDO
100
AcDbPolyline
 62
253
  6
CONTINUOUS
 90
4
 70
0
 10
125.300445515
 20
157.7816413716
 10
125.3041222862
 20
157.6829496091
 10
125.3337481056
 20
157.4850362477
 10
125.3929309153
 20
157.2887438939
  0
LINE
  5
2C6
100
AcDbEntity
  8
RACCORDO
100
AcDbLine
 62
7
  6
CONTINUOUS
 10
126.8527795747
 20
155.3015906188
 11
126.8527795747
 21
155.9078084015
  0
LWPOLYLINE
  5
2C7
100
AcDbEntity
  8
RACCORDO
100
AcDbPolyline
 62
253
  6
CONTINUOUS
 90
3
 70
0
 10
135.8824386642
 20
157.5633821385
 10
135.8997443132
 20
157.7385361301
 10
135.900445515
 20
157.7816413716
  0
LWPOLYLINE
  5
2C8
100
AcDbEntity
  8
0
100
AcDbPolyline
 62
7
  6
CONTINUOUS
 90
13
 70
0
 10
126.2486586069
 20
107.374654764
 10
126.1898101545
 20
107.2194586915
 10
126.1202802795
 20
107.0674780916
 10
126.0402728342
 20
106.9196650394
 10
125.9499425719
 20
106.7767220147
 10
125.849906522
 20
106.6398938042
 10
125.7413500602
 20
106.5107373353
 10
125.6239915047
 20
106.3888693919
 10
125.4997343839
 20
106.2761292331
 10
125.3737084702
 20
106.1760612842
 10
125.2485800859
 20
106.0889053159
 10
125.1240621106
 20
106.0127852942
 10
125.0009650825
 20
105.9468771633
  0
LWPOLYLINE
  5
2C9
100
AcDbEntity
  8
0
100
AcDbPolyline
 62
7
  6
CONTINUOUS
 90
10
 70
0
 10
126.2486586069
 20
107.374654764
 10
126.2214192492
 20
107.306786093
 10
126.178062508
 20
107.2258813125
 10
126.1235241173
 20
107.1466858187
 10
126.0580697826
 20
107.0695854441
 10
125.9820183909
 20
106.9949558139
 10
125.8957404568
 20
106.9231605162
 10
125.7996563178
 20
106.8545493304
 10
125.6942340863
 20
106.7894565234
 10
125.5799873686
 20
106.7281992208
  0
LWPOLYLINE
  5
2CA
100
AcDbEntity
  8
RACCORDO
100
AcDbPolyline
 62
253
  6
CONTINUOUS
 90
10
 70
0
 10
135.2685578822
 20
126.4689316248
 10
135.3225882205
 20
126.5746489926
 10
135.373111488
 20
126.6845489201
 10
135.4196771227
 20
126.7976511551
 10
135.4618698985
 20
126.9129470418
 10
135.4993134666
 20
127.0294080844
 10
135.5316737726
 20
127.1459951108
 10
135.5586622279
 20
127.2616681445
 10
135.5800382203
 20
127.3753956862
 10
135.5956111408
 20
127.4861634744
  0
LWPOLYLINE
  5
2CB
100
AcDbEntity
  8
RACCORDO
100
AcDbPolyline
 62
253
  6
CONTINUOUS
 90
7
 70
0
 10
141.9367661341
 20
130.6567409689
 10
141.8809872134
 20
130.5769664051
 10
141.8180294404
 20
130.5027442233
 10
141.7482666049
 20
130.4343211181
 10
141.6720036184
 20
130.3718685632
 10
141.589467808
 20
130.3154986622
 10
141.5008029282
 20
130.2652758251
  0
LWPOLYLINE
  5
2CC
100
AcDbEntity
  8
RACCORDO
100
AcDbPolyline
 62
253
  6
CONTINUOUS
 90
7
 70
0
 10
144.6487353685
 20
118.4877273616
 10
144.6814142838
 20
118.5099763689
 10
144.7083516849
 20
118.5339753554
 10
144.7291394474
 20
118.5593607273
 10
144.7434626192
 20
118.5857478875
 10
144.7511041921
 20
118.6127370512
 10
144.75242321
 20
118.6310322963
  0
LWPOLYLINE
  5
2CD
100
AcDbEntity
  8
RACCORDO
100
AcDbPolyline
 62
253
  6
CONTINUOUS
 90
13
 70
0
 10
141.9690050901
 20
117.8484649705
 10
141.9274719101
 20
117.8243643452
 10
141.8866493742
 20
117.7940080176
 10
141.8472359676
 20
117.7579153929
 10
141.8099060643
 20
117.716704026
 10
141.7752983895
 20
117.6710790547
 10
141.7440050901
 20
117.6218211349
 10
141.716561603
 20
117.5697730834
 10
141.693437494
 20
117.5158254567
 10
141.675028423
 20
117.4609013136
 10
141.6616493742
 20
117.4059404215
 10
141.653529267
 20
117.3518831765
 10
141.6508070386
 20
117.2996545131
  0
LINE
  5
2CE
100
AcDbEntity
  8
RACCORDO
100
AcDbLine
 62
7
  6
CONTINUOUS
 10
140.7807919607
 20
118.4425715353
 11
143.1142443386
 21
119.6092977242
  0
LWPOLYLINE
  5
2CF
100
AcDbEntity
  8
0
100
AcDbPolyline
 62
7
  6
CONTINUOUS
 90
37
 70
0
 10
125.0009650825
 20
105.9468771633
 10
124.8903503919
 20
105.8949096827
 10
124.7798339104
 20
105.8493716415
 10
124.6695052204
 20
105.8099088699
 10
124.5584441311
 20
105.7759382818
 10
124.4473762836
 20
105.7474982639
 10
124.3386074368
 20
105.7248240961
 10
124.231946382
 20
105.7074273518
 10
124.1263054028
 20
105.6948195534
 10
124.0224561801
 20
105.6868416273
 10
123.9192903089
 20
105.6832095537
 10
123.8162047913
 20
105.6838357865
 10
123.7148857288
 20
105.6885993839
 10
123.6151064603
 20
105.6973325484
 10
123.5156132901
 20
105.710076841
 10
123.416866147
 20
105.7267726173
 10
123.3188520934
 20
105.7474133981
 10
123.2207661769
 20
105.7722320472
 10
123.1221504989
 20
105.8015142923
 10
123.023059683
 20
105.835473916
 10
122.9232231035
 20
105.8744909909
 10
122.8218394945
 20
105.9193010394
 10
122.7186124098
 20
105.9706246438
 10
122.6142305833
 20
106.0287866069
 10
122.5095237611
 20
106.0939855197
 10
122.4044235992
 20
106.1670047772
 10
122.3000616205
 20
106.2478678749
 10
122.1990956391
 20
106.3350549488
 10
122.1028501333
 20
106.4275785995
 10
122.0109690171
 20
106.5259122583
 10
121.923537809
 20
106.6302771288
 10
121.8411340106
 20
106.7403555888
 10
121.7642065866
 20
106.8559159561
 10
121.6928174818
 20
106.9773737548
 10
121.6274162365
 20
107.1046815291
 10
121.5687037397
 20
107.2372436774
 10
121.5172035805
 20
107.374654764
  0
LWPOLYLINE
  5
2D0
100
AcDbEntity
  8
RACCORDO
100
AcDbPolyline
 62
253
  6
CONTINUOUS
 90
5
 70
0
 10
136.0703193909
 20
110.81117696
 10
135.9882159258
 20
110.7734943179
 10
135.8999898001
 20
110.7394812671
 10
135.8062910021
 20
110.7093842108
 10
135.7077717883
 20
110.6834023578
  0
LWPOLYLINE
  5
2D1
100
AcDbEntity
  8
RACCORDO
100
AcDbPolyline
 62
253
  6
CONTINUOUS
 90
10
 70
0
 10
141.9689872038
 20
117.8484739137
 10
142.2492729802
 20
117.9672081126
 10
142.5243993893
 20
118.0887145618
 10
142.7943664309
 20
118.2129932613
 10
143.0592991503
 20
118.3401066444
 10
143.3190725024
 20
118.4699922777
 10
143.5733113516
 20
118.6024628619
 10
143.8218906529
 20
118.7374559638
 10
144.0649354513
 20
118.8750340165
 10
144.302445747
 20
119.01519702
  0
LWPOLYLINE
  5
2D2
100
AcDbEntity
  8
RACCORDO
100
AcDbPolyline
 62
253
  6
CONTINUOUS
 90
10
 70
0
 10
142.2563118707
 20
117.2915156126
 10
142.5435444065
 20
117.4131961755
 10
142.8256971191
 20
117.5378125858
 10
143.1026500001
 20
117.6653118395
 10
143.3742852484
 20
117.795639704
 10
143.6404873339
 20
117.9287407483
 10
143.9011430454
 20
118.0645583663
 10
144.1561415214
 20
118.2030347924
 10
144.4053742982
 20
118.3441111257
 10
144.6487353685
 20
118.4877273616
  0
LWPOLYLINE
  5
2D3
100
AcDbEntity
  8
RACCORDO
100
AcDbPolyline
 62
253
  6
CONTINUOUS
 90
9
 70
0
 10
135.4405579841
 20
110.4151359751
 10
135.4520173856
 20
110.4197351037
 10
135.4638672319
 20
110.4320644164
 10
135.4742567489
 20
110.4517409919
 10
135.4830079118
 20
110.4784276849
 10
135.489970768
 20
110.5116672257
 10
135.4950260087
 20
110.5508900623
 10
135.4980870121
 20
110.5954241238
 10
135.499101327
 20
110.6445063298
  0
LWPOLYLINE
  5
2D4
100
AcDbEntity
  8
RACCORDO
100
AcDbPolyline
 62
7
  6
CONTINUOUS
 90
5
 70
0
 10
135.6235371254
 20
110.4495238823
 10
135.7102881881
 20
110.4726712541
 10
135.7950696725
 20
110.5002081313
 10
135.8775629301
 20
110.5323545314
 10
135.9537355535
 20
110.5675265466
  0
LINE
  5
2D5
100
AcDbEntity
  8
RACCORDO
100
AcDbLine
 62
253
  6
CONTINUOUS
 10
123.054195861
 20
111.124767375
 11
122.3781029423
 21
111.2862008949
  0
LINE
  5
2D6
100
AcDbEntity
  8
RACCORDO
100
AcDbLine
 62
7
  6
CONTINUOUS
 10
122.4605238142
 20
111.0730650247
 11
122.2267405134
 21
111.1326900688
  0
LWPOLYLINE
  5
2D7
100
AcDbEntity
  8
RACCORDO
100
AcDbPolyline
 62
253
  6
CONTINUOUS
 90
6
 70
0
 10
122.3777357651
 20
111.3297308761
 10
121.7886286624
 20
111.4846582364
 10
121.2110805892
 20
111.650225
 10
120.6458622095
 20
111.8262175162
 10
120.0937285245
 20
112.012408138
 10
119.5554178528
 20
112.2085555068
  0
LWPOLYLINE
  5
2D8
100
AcDbEntity
  8
RACCORDO
100
AcDbPolyline
 62
7
  6
CONTINUOUS
 90
9
 70
0
 10
122.2267405134
 20
111.1326900688
 10
121.8229303396
 20
111.2415301949
 10
121.4244393413
 20
111.3555357813
 10
121.0315258946
 20
111.474645372
 10
120.6444318279
 20
111.5987987484
 10
120.2633811841
 20
111.7279385788
 10
119.8886088836
 20
111.86200134
 10
119.5203617109
 20
112.0009156922
 10
119.1775709816
 20
112.1369936173
  0
LWPOLYLINE
  5
2D9
100
AcDbEntity
  8
RACCORDO
100
AcDbPolyline
 62
7
  6
CONTINUOUS
 90
4
 70
0
 10
122.5348290505
 20
111.0343410787
 10
122.5169635903
 20
111.0396775679
 10
122.4897169235
 20
111.0521342941
 10
122.4647207278
 20
111.0690932965
  0
LINE
  5
2DA
100
AcDbEntity
  8
RACCORDO
100
AcDbLine
 62
253
  6
CONTINUOUS
 10
119.5554178528
 20
112.2085555068
 11
119.0316508308
 21
112.4144048556
  0
LWPOLYLINE
  5
2DB
100
AcDbEntity
  8
RACCORDO
100
AcDbPolyline
 62
7
  6
CONTINUOUS
 90
8
 70
0
 10
116.5350507918
 20
113.4584260612
 10
116.5653329648
 20
113.443407013
 10
116.5965161953
 20
113.4344780773
 10
116.6301080881
 20
113.4304761642
 10
116.6648015149
 20
113.4315452562
 10
116.7001607663
 20
113.4377333476
 10
116.7366215518
 20
113.4489924441
 10
116.7741838712
 20
113.4653225458
  0
LWPOLYLINE
  5
2DC
100
AcDbEntity
  8
RACCORDO
100
AcDbPolyline
 62
7
  6
CONTINUOUS
 90
10
 70
0
 10
119.1775684999
 20
112.1369881826
 10
119.1514672342
 20
112.1500320212
 10
119.1248459234
 20
112.1691661732
 10
119.1012881935
 20
112.1927390642
 10
119.0808095277
 20
112.2210218078
 10
119.0633944429
 20
112.2537432903
 10
119.0497048406
 20
112.2895751704
 10
119.0399613547
 20
112.3280746678
 10
119.0339433515
 20
112.3696845629
 10
119.0316508308
 20
112.4144048556
  0
LINE
  5
2DD
100
AcDbEntity
  8
0
100
AcDbLine
 62
7
  6
CONTINUOUS
 10
119.024889068
 20
113.7902092518
 11
118.6177062219
 21
113.9938006748
  0
LINE
  5
2DE
100
AcDbEntity
  8
0
100
AcDbLine
 62
7
  6
CONTINUOUS
 10
117.8833224016
 20
115.5246373196
 11
118.0139448099
 21
115.4593261155
  0
LINE
  5
2DF
100
AcDbEntity
  8
0
100
AcDbLine
 62
7
  6
CONTINUOUS
 10
118.2387688399
 20
115.5363827914
 11
118.2034135009
 21
115.554060461
  0
LINE
  5
2E0
100
AcDbEntity
  8
RACCORDO
100
AcDbLine
 62
7
  6
CONTINUOUS
 10
116.5350414723
 20
113.4584090721
 11
116.2564972862
 21
113.63379464
  0
LWPOLYLINE
  5
2E1
100
AcDbEntity
  8
RACCORDO
100
AcDbPolyline
 62
253
  6
CONTINUOUS
 90
6
 70
0
 10
116.4215342909
 20
113.7194631255
 10
116.0098228347
 20
113.9813550637
 10
115.6175214368
 20
114.2505158184
 10
115.2451389138
 20
114.5265847788
 10
114.8931572258
 20
114.8091925202
 10
114.5620308735
 20
115.0979613047
  0
LWPOLYLINE
  5
2E2
100
AcDbEntity
  8
RACCORDO
100
AcDbPolyline
 62
7
  6
CONTINUOUS
 90
8
 70
0
 10
116.2564972862
 20
113.63379464
 10
115.9743060997
 20
113.8208353021
 10
115.701294038
 20
114.0116773237
 10
115.4375909828
 20
114.2062585834
 10
115.1834150039
 20
114.404449396
 10
114.9390517308
 20
114.6060499257
 10
114.7046839565
 20
114.8109234977
 10
114.4804122917
 20
115.0189988441
  0
LWPOLYLINE
  5
2E3
100
AcDbEntity
  8
RACCORDO
100
AcDbPolyline
 62
7
  6
CONTINUOUS
 90
7
 70
0
 10
122.4647207278
 20
111.0690932965
 10
122.4426765236
 20
111.0899547188
 10
122.4236590109
 20
111.1148768852
 10
122.4075934897
 20
111.1437014714
 10
122.3949573803
 20
111.1753536484
 10
122.3859098226
 20
111.2094751398
 10
122.3802916766
 20
111.246424222
  0
LWPOLYLINE
  5
2E4
100
AcDbEntity
  8
0
100
AcDbPolyline
 62
7
  6
CONTINUOUS
 90
4
 70
0
 10
134.9179599363
 20
100.8592129369
 10
134.9212490529
 20
100.7964097894
 10
134.9358491723
 20
100.7129697248
 10
134.9522324231
 20
100.6571403427
  0
LINE
  5
2E5
100
AcDbEntity
  8
RACCORDO
100
AcDbLine
 62
253
  6
CONTINUOUS
 10
135.3124911363
 20
124.8350508222
 11
135.268686753
 21
126.4686124955
  0
LWPOLYLINE
  5
2E6
100
AcDbEntity
  8
RACCORDO
100
AcDbPolyline
 62
253
  6
CONTINUOUS
 90
9
 70
0
 10
135.4991013271
 20
110.6445063298
 10
135.4943697914
 20
112.5246232324
 10
135.4838647197
 20
114.375026981
 10
135.4677746717
 20
116.1953662651
 10
135.4461565008
 20
117.9852791868
 10
135.4193458992
 20
119.7444643821
 10
135.3879529926
 20
121.4726797192
 10
135.3523134194
 20
123.1696466601
 10
135.3124911363
 20
124.8350508222
  0
LINE
  5
2E7
100
AcDbEntity
  8
0
100
AcDbLine
 62
7
  6
CONTINUOUS
 10
133.4288726398
 20
159.888675257
 11
133.4288726398
 21
158.8494447725
  0
LINE
  5
2E8
100
AcDbEntity
  8
0
100
AcDbLine
 62
7
  6
CONTINUOUS
 10
134.9179599363
 20
110.3494085127
 11
134.9179599363
 21
100.8592129369
  0
LINE
  5
2E9
100
AcDbEntity
  8
0
100
AcDbLine
 62
7
  6
CONTINUOUS
 10
135.900445515
 20
157.7816413716
 11
135.900445515
 21
157.2882431556
  0
LWPOLYLINE
  5
2EA
100
AcDbEntity
  8
RACCORDO
100
AcDbPolyline
 62
253
  6
CONTINUOUS
 90
10
 70
0
 10
147.8518276608
 20
132.760566514
 10
147.8300622699
 20
132.7253018213
 10
147.8041771679
 20
132.6905482569
 10
147.7742589289
 20
132.6564220637
 10
147.7404076159
 20
132.6230373838
 10
147.7027364467
 20
132.590505877
 10
147.6613714149
 20
132.558936347
 10
147.6164508688
 20
132.5284343779
 10
147.5681250481
 20
132.4991019802
 10
147.5165555819
 20
132.4710372508
  0
LWPOLYLINE
  5
2EB
100
AcDbEntity
  8
RACCORDO
100
AcDbPolyline
 62
7
  6
CONTINUOUS
 90
11
 70
0
 10
140.4997208177
 20
112.8404977023
 10
140.4997612636
 20
112.8405427254
 10
140.499793861
 20
112.8427976614
 10
140.499594687
 20
112.8487271698
 10
140.4997612636
 20
112.8589703214
 10
140.4997967999
 20
112.8735577599
 10
140.4995101912
 20
112.8926711124
 10
140.4997612636
 20
112.9173282779
 10
140.5004415105
 20
112.9479461995
 10
140.5006126571
 20
112.9841785219
 10
140.4997610607
 20
113.0258741669
  0
LWPOLYLINE
  5
2EC
100
AcDbEntity
  8
RACCORDO
100
AcDbPolyline
 62
253
  6
CONTINUOUS
 90
3
 70
0
 10
148.1026192389
 20
116.8575483288
 10
148.0424218202
 20
116.8106972768
 10
147.9743857781
 20
116.7665792436
  0
LINE
  5
2ED
100
AcDbEntity
  8
RACCORDO
100
AcDbLine
 62
7
  6
CONTINUOUS
 10
144.6128240464
 20
113.4057164707
 11
144.566914291
 21
113.3740411554
  0
LINE
  5
2EE
100
AcDbEntity
  8
RACCORDO
100
AcDbLine
 62
253
  6
CONTINUOUS
 10
144.5669927085
 20
113.3740883646
 11
144.5806239701
 21
113.3830770601
  0
LWPOLYLINE
  5
2EF
100
AcDbEntity
  8
RACCORDO
100
AcDbPolyline
 62
253
  6
CONTINUOUS
 90
8
 70
0
 10
135.9537439846
 20
110.5675097722
 10
135.9772668509
 20
110.5818458166
 10
136.0047118072
 20
110.6064972298
 10
136.0278292261
 20
110.6373746579
 10
136.0462227775
 20
110.6739490366
 10
136.0595771655
 20
110.7155936879
 10
136.0676634767
 20
110.7615951308
 10
136.0703430386
 20
110.8111651583
  0
LWPOLYLINE
  5
2F0
100
AcDbEntity
  8
RACCORDO
100
AcDbPolyline
 62
253
  6
CONTINUOUS
 90
8
 70
0
 10
147.7822323486
 20
116.48175354
 10
147.8059563834
 20
116.49619171
 10
147.8334004114
 20
116.5208439589
 10
147.8565166941
 20
116.5517216786
 10
147.8749091383
 20
116.5882957857
 10
147.8882625935
 20
116.6299395906
 10
147.896348251
 20
116.6759395356
 10
147.8990275648
 20
116.7255074214
  0
LINE
  5
2F1
100
AcDbEntity
  8
RACCORDO
100
AcDbLine
 62
253
  6
CONTINUOUS
 10
144.6810569078
 20
113.6162903301
 11
144.4376515663
 21
113.4727094456
  0
LWPOLYLINE
  5
2F2
100
AcDbEntity
  8
RACCORDO
100
AcDbPolyline
 62
253
  6
CONTINUOUS
 90
8
 70
0
 10
142.1738598426
 20
112.1772134302
 10
142.2047078537
 20
112.1949372011
 10
142.2294974974
 20
112.2183797618
 10
142.2503779749
 20
112.2482385525
 10
142.2669915037
 20
112.2840019491
 10
142.2790534146
 20
112.3250571536
 10
142.2863570291
 20
112.3707006936
 10
142.2887772015
 20
112.4201504769
  0
LWPOLYLINE
  5
2F3
100
AcDbEntity
  8
RACCORDO
100
AcDbPolyline
 62
253
  6
CONTINUOUS
 90
9
 70
0
 10
144.4376515663
 20
113.4727094456
 10
144.188390882
 20
113.3316623378
 10
143.9333803322
 20
113.193208692
 10
143.6727278319
 20
113.0574070982
 10
143.406543675
 20
112.9243150196
 10
143.1349404866
 20
112.7939887689
 10
142.8580331931
 20
112.666483493
 10
142.5759389745
 20
112.5418531494
 10
142.2887772015
 20
112.4201504769
  0
LINE
  5
2F4
100
AcDbEntity
  8
RACCORDO
100
AcDbLine
 62
253
  6
CONTINUOUS
 10
147.9743857781
 20
116.7665792436
 11
147.8990039188
 21
116.7255192235
  0
LWPOLYLINE
  5
2F5
100
AcDbEntity
  8
RACCORDO
100
AcDbPolyline
 62
7
  6
CONTINUOUS
 90
6
 70
0
 10
147.7822239362
 20
116.4817702985
 10
147.8556251516
 20
116.5215906857
 10
147.9513441461
 20
116.5846994129
 10
148.0351150376
 20
116.6541030282
 10
148.1069129487
 20
116.7293461809
 10
148.1661033571
 20
116.8091130782
  0
LINE
  5
2F6
100
AcDbEntity
  8
RACCORDO
100
AcDbLine
 62
253
  6
CONTINUOUS
 10
140.4997610607
 20
113.0258741669
 11
136.0703430386
 21
110.8111651583
  0
LINE
  5
2F7
100
AcDbEntity
  8
RACCORDO
100
AcDbLine
 62
253
  6
CONTINUOUS
 10
147.8990275648
 20
116.7255074214
 11
144.7810944596
 21
115.166540867
  0
LINE
  5
2F8
100
AcDbEntity
  8
RACCORDO
100
AcDbLine
 62
7
  6
CONTINUOUS
 10
147.7822323486
 20
116.48175354
 11
144.7818241473
 21
114.9815493379
  0
LINE
  5
2F9
100
AcDbEntity
  8
RACCORDO
100
AcDbLine
 62
7
  6
CONTINUOUS
 10
140.4999729375
 20
112.8406237329
 11
135.9533912883
 21
110.5673329083
  0
LWPOLYLINE
  5
2FA
100
AcDbEntity
  8
RACCORDO
100
AcDbPolyline
 62
7
  6
CONTINUOUS
 90
9
 70
0
 10
142.4600093059
 20
112.2984859585
 10
142.7413707864
 20
112.4227890271
 10
143.0178251747
 20
112.5500805881
 10
143.2892563373
 20
112.6803183118
 10
143.5555460527
 20
112.813457147
 10
143.8165758157
 20
112.9494498966
 10
144.0722327826
 20
113.0882502754
 10
144.3224080268
 20
113.2298123238
 10
144.5669927085
 20
113.3740883646
  0
LINE
  5
2FB
100
AcDbEntity
  8
RACCORDO
100
AcDbLine
 62
7
  6
CONTINUOUS
 10
142.1738598426
 20
112.1772134302
 11
142.4600093059
 21
112.2984859585
  0
LWPOLYLINE
  5
2FC
100
AcDbEntity
  8
RACCORDO
100
AcDbPolyline
 62
7
  6
CONTINUOUS
 90
9
 70
0
 10
142.1738598426
 20
112.1772134302
 10
142.1236929817
 20
112.1597856582
 10
142.0712968615
 20
112.1483052761
 10
142.0174796502
 20
112.1431250912
 10
141.9628735984
 20
112.1444846027
 10
141.9086305699
 20
112.1524929545
 10
141.8561531496
 20
112.1669061902
 10
141.8057446269
 20
112.18757529
 10
141.7999100788
 20
112.1904436528
  0
LWPOLYLINE
  5
2FD
100
AcDbEntity
  8
RACCORDO
100
AcDbPolyline
 62
253
  6
CONTINUOUS
 90
3
 70
0
 10
135.7077717883
 20
110.6834023578
 10
135.6050997768
 20
110.6617302507
 10
135.4990929694
 20
110.6445213251
  0
LWPOLYLINE
  5
2FE
100
AcDbEntity
  8
RACCORDO
100
AcDbPolyline
 62
7
  6
CONTINUOUS
 90
3
 70
0
 10
135.440484631
 20
110.4151396864
 10
135.5353547526
 20
110.430662262
 10
135.6235371254
 20
110.4495238823
  0
LINE
  5
2FF
100
AcDbEntity
  8
RACCORDO
100
AcDbLine
 62
7
  6
CONTINUOUS
 10
135.4404865194
 20
110.4151261562
 11
135.4405579841
 21
110.4151359751
  0
LWPOLYLINE
  5
300
100
AcDbEntity
  8
RACCORDO
100
AcDbPolyline
 62
253
  6
CONTINUOUS
 90
18
 70
0
 10
135.499101327
 20
110.6445063298
 10
134.7737895547
 20
110.551697637
 10
134.0413470145
 20
110.4737867152
 10
133.3029963924
 20
110.4109129036
 10
132.5599442706
 20
110.3631890096
 10
131.8134605222
 20
110.330706596
 10
131.0648772103
 20
110.3135302142
 10
130.3154408986
 20
110.3116927709
 10
129.5664168541
 20
110.3252016676
 10
128.8191685417
 20
110.3540330672
 10
128.07497399
 20
110.3981343353
 10
127.3350553992
 20
110.4574297072
 10
126.6006832821
 20
110.5318138229
 10
125.8731282795
 20
110.6211520921
 10
125.1535656634
 20
110.7252942588
 10
124.4431076777
 20
110.8440777931
 10
123.7429159576
 20
110.9773110729
 10
123.054195861
 20
111.124767375
  0
LWPOLYLINE
  5
301
100
AcDbEntity
  8
RACCORDO
100
AcDbPolyline
 62
7
  6
CONTINUOUS
 90
16
 70
0
 10
135.4405579841
 20
110.4151359751
 10
134.578612641
 20
110.3067286047
 10
133.7074306915
 20
110.2196554867
 10
132.8290596254
 20
110.1541015353
 10
131.945595724
 20
110.1102054156
 10
131.0590760133
 20
110.0880537578
 10
130.1714747556
 20
110.0876895218
 10
129.2848752881
 20
110.1091138908
 10
128.4013534657
 20
110.1522799706
 10
127.5228685039
 20
110.2171025892
 10
126.6514845927
 20
110.3034472351
 10
125.7892457156
 20
110.4111324908
 10
124.9380545335
 20
110.539950399
 10
124.0998726891
 20
110.6896445063
 10
123.2767209368
 20
110.8598989146
 10
122.534804987
 20
111.0342794768
  0
LINE
  5
302
100
AcDbEntity
  8
RACCORDO
100
AcDbLine
 62
253
  6
CONTINUOUS
 10
118.0308106654
 20
116.2566938245
 11
119.0223489617
 21
115.7609246764
  0
LINE
  5
303
100
AcDbEntity
  8
RACCORDO
100
AcDbLine
 62
253
  6
CONTINUOUS
 10
118.0139448099
 20
116.4051616044
 11
119.0227089931
 21
115.9007795128
  0
LINE
  5
304
100
AcDbEntity
  8
RACCORDO
100
AcDbLine
 62
253
  6
CONTINUOUS
 10
114.3760765292
 20
131.8052915131
 11
114.7356531569
 21
131.4358661547
  0
LINE
  5
305
100
AcDbEntity
  8
RACCORDO
100
AcDbLine
 62
7
  6
CONTINUOUS
 10
122.5204619963
 20
127.5279680028
 11
122.532177192
 21
127.5115892376
  0
LWPOLYLINE
  5
306
100
AcDbEntity
  8
0
100
AcDbPolyline
 62
7
  6
CONTINUOUS
 90
33
 70
0
 10
134.9522324231
 20
100.6571403427
 10
134.962054696
 20
100.6302421425
 10
134.9997379532
 20
100.5486300828
 10
135.0487153548
 20
100.4685311516
 10
135.108748288
 20
100.3903355827
 10
135.1795442782
 20
100.3144243372
 10
135.2607584146
 20
100.241167247
 10
135.35199503
 20
100.1709212133
 10
135.4528096288
 20
100.1040284676
 10
135.5627110524
 20
100.0408149048
 10
135.6811638721
 20
99.981588495
 10
135.8075909978
 20
99.9266377832
 10
135.941376489
 20
99.8762304838
 10
136.0818685565
 20
99.8306121761
 10
136.2283827369
 20
99.7900051079
 10
136.3802052279
 20
99.7546071128
 10
136.5365963656
 20
99.7245906462
 10
136.696794228
 20
99.7001019454
 10
136.8600183474
 20
99.6812603168
 10
137.0254735121
 20
99.6681575549
 10
137.1923536413
 20
99.6608574952
 10
137.3598457117
 20
99.6593957027
 10
137.5271337189
 20
99.6637792992
 10
137.6934026524
 20
99.6739869282
 10
137.8578424667
 20
99.6899688592
 10
138.0196520276
 20
99.7116472298
 10
138.1780430152
 20
99.7389164251
 10
138.3322437645
 20
99.7716435925
 10
138.4815030249
 20
99.8096692883
 10
138.6250936203
 20
99.8528082554
 10
138.7623159918
 20
99.9008503248
 10
138.8925016059
 20
99.9535614406
 10
139.0150162111
 20
100.0106847995
  0
LINE
  5
307
100
AcDbEntity
  8
RACCORDO
100
AcDbLine
 62
7
  6
CONTINUOUS
 10
134.2027164164
 20
158.3021222722
 11
134.2164023964
 21
158.1173766259
  0
LWPOLYLINE
  5
308
100
AcDbEntity
  8
0
100
AcDbPolyline
 62
7
  6
CONTINUOUS
 90
4
 70
0
 10
134.6002087944
 20
158.4744616946
 10
134.5974405233
 20
158.5495205577
 10
134.5752943546
 20
158.6983906468
 10
134.53063185
 20
158.8459922451
  0
LWPOLYLINE
  5
309
100
AcDbEntity
  8
RACCORDO
100
AcDbPolyline
 62
7
  6
CONTINUOUS
 90
10
 70
0
 10
140.4675862562
 20
117.8912649043
 10
140.4738987206
 20
117.3493066394
 10
140.4795268288
 20
116.8076807985
 10
140.4844705806
 20
116.2663873816
 10
140.488729966
 20
115.7254327944
 10
140.4923049951
 20
115.1848106312
 10
140.4951956983
 20
114.6445016748
 10
140.4974020858
 20
114.1044995195
 10
140.4989241475
 20
113.5648105711
 10
140.4997618833
 20
113.0254348295
  0
LWPOLYLINE
  5
30A
100
AcDbEntity
  8
RACCORDO
100
AcDbPolyline
 62
253
  6
CONTINUOUS
 90
10
 70
0
 10
136.0703430399
 20
110.811165159
 10
136.0661936649
 20
112.6914274525
 10
136.0559479418
 20
114.5418489515
 10
136.0400580265
 20
116.36215658
 10
136.0190762977
 20
118.1521245884
 10
135.9933297465
 20
119.911461739
 10
135.9629192671
 20
121.6398113743
 10
135.9281540644
 20
123.3369010855
 10
135.8895523013
 20
125.0025421541
 10
135.8475150281
 20
126.6365169739
  0
LINE
  5
30B
100
AcDbEntity
  8
0
100
AcDbLine
 62
7
  6
CONTINUOUS
 10
136.650445515
 20
156.4839577585
 11
136.650445515
 21
155.7685467282
  0
LINE
  5
30C
100
AcDbEntity
  8
0
100
AcDbLine
 62
7
  6
CONTINUOUS
 10
139.7179599363
 20
112.4496172323
 11
139.7179599363
 21
100.8592129369
  0
LWPOLYLINE
  5
30D
100
AcDbEntity
  8
0
100
AcDbPolyline
 62
7
  6
CONTINUOUS
 90
5
 70
0
 10
139.7179599363
 20
100.8592129369
 10
139.7175944047
 20
100.8382700492
 10
139.7088272117
 20
100.7546260456
 10
139.6884119537
 20
100.6714915789
 10
139.6836874495
 20
100.6571403427
  0
LWPOLYLINE
  5
30E
100
AcDbEntity
  8
RACCORDO
100
AcDbPolyline
 62
7
  6
CONTINUOUS
 90
16
 70
0
 10
140.4675862562
 20
117.8912649043
 10
140.4688173282
 20
117.93316709
 10
140.4735371281
 20
117.9763677322
 10
140.4816920667
 20
118.0203962484
 10
140.4931936984
 20
118.0648029432
 10
140.5079149514
 20
118.1090710116
 10
140.5256716208
 20
118.1526243576
 10
140.546222043
 20
118.1949350538
 10
140.5693455299
 20
118.2356079948
 10
140.5948437794
 20
118.2742818099
 10
140.622464547
 20
118.3105624403
 10
140.6518833172
 20
118.344017165
 10
140.6827717455
 20
118.3742574906
 10
140.7147875552
 20
118.4009474296
 10
140.7475808701
 20
118.4238021346
 10
140.7807919607
 20
118.4425715353
  0
LWPOLYLINE
  5
30F
100
AcDbEntity
  8
RACCORDO
100
AcDbPolyline
 62
7
  6
CONTINUOUS
 90
3
 70
0
 10
144.6945782586
 20
113.4892565592
 10
144.6564881928
 20
113.4448851481
 10
144.6128240464
 20
113.4057164707
  0
LWPOLYLINE
  5
310
100
AcDbEntity
  8
RACCORDO
100
AcDbPolyline
 62
253
  6
CONTINUOUS
 90
7
 70
0
 10
144.5806239701
 20
113.3830770601
 10
144.6105434689
 20
113.4094065514
 10
144.635678559
 20
113.4418124551
 10
144.6554926508
 20
113.4794967965
 10
144.6697167079
 20
113.5216361958
 10
144.6782521126
 20
113.5675104494
 10
144.6810569078
 20
113.6162903301
  0
LWPOLYLINE
  5
311
100
AcDbEntity
  8
RACCORDO
100
AcDbPolyline
 62
253
  6
CONTINUOUS
 90
13
 70
0
 10
141.6831573554
 20
112.4337370935
 10
141.724564165
 20
112.4165923686
 10
141.7705115472
 20
112.4006949108
 10
141.8202056741
 20
112.3870335025
 10
141.872611071
 20
112.3772856469
 10
141.9267705575
 20
112.371511366
 10
141.982057355
 20
112.368339287
 10
142.038236517
 20
112.3684771832
 10
142.0936856274
 20
112.372920063
 10
142.1465047043
 20
112.3802630895
 10
142.1963772573
 20
112.3899575067
 10
142.2437957276
 20
112.4030118469
 10
142.2887772015
 20
112.4201504769
  0
LINE
  5
312
100
AcDbEntity
  8
RACCORDO
100
AcDbLine
 62
7
  6
CONTINUOUS
 10
140.4995495897
 20
112.8406237329
 11
141.8001092889
 21
112.1903438833
  0
LINE
  5
313
100
AcDbEntity
  8
RACCORDO
100
AcDbLine
 62
253
  6
CONTINUOUS
 10
140.4997618833
 20
113.0254348295
 11
141.6831573578
 21
112.4337370923
  0
LINE
  5
314
100
AcDbEntity
  8
RACCORDO
100
AcDbLine
 62
253
  6
CONTINUOUS
 10
141.7999100788
 20
112.1904436528
 11
141.8001486967
 21
112.1903241858
  0
LINE
  5
315
100
AcDbEntity
  8
RACCORDO
100
AcDbLine
 62
7
  6
CONTINUOUS
 10
114.7230238358
 20
131.4463120986
 11
114.7356531569
 21
131.4358661547
  0
LINE
  5
316
100
AcDbEntity
  8
RACCORDO
100
AcDbLine
 62
7
  6
CONTINUOUS
 10
114.7356531569
 20
131.4358661547
 11
114.7262480841
 21
131.4439777819
  0
LWPOLYLINE
  5
317
100
AcDbEntity
  8
RACCORDO
100
AcDbPolyline
 62
7
  6
CONTINUOUS
 90
3
 70
0
 10
115.1784190194
 20
131.0323014454
 10
114.9519786842
 20
131.2325348606
 10
114.7356531569
 20
131.4358661547
  0
LINE
  5
318
100
AcDbEntity
  8
RACCORDO
100
AcDbLine
 62
7
  6
CONTINUOUS
 10
122.4922396571
 20
127.5564303036
 11
122.5073669149
 21
127.5426795055
  0
LWPOLYLINE
  5
319
100
AcDbEntity
  8
RACCORDO
100
AcDbPolyline
 62
7
  6
CONTINUOUS
 90
10
 70
0
 10
114.7356531569
 20
131.4358661547
 10
115.0266647483
 20
131.1651893665
 10
115.3353639016
 20
130.9002458007
 10
115.6617506168
 20
130.6410354574
 10
116.0062640113
 20
130.387253839
 10
116.3684649677
 20
130.1392054431
 10
116.747036134
 20
129.8978037626
 10
117.1415383927
 20
129.6633532952
 10
117.5524108613
 20
129.4355495433
 10
117.9796535398
 20
129.2143925067
  0
LINE
  5
31A
100
AcDbEntity
  8
RACCORDO
100
AcDbLine
 62
7
  6
CONTINUOUS
 10
122.5071474058
 20
127.5429058229
 11
122.5206842251
 21
127.5276904875
  0
LWPOLYLINE
  5
31B
100
AcDbEntity
  8
RACCORDO
100
AcDbPolyline
 62
7
  6
CONTINUOUS
 90
10
 70
0
 10
144.75242321
 20
118.6310322963
 10
144.7479599745
 20
118.6889356464
 10
144.7359083597
 20
118.7463919541
 10
144.7162987313
 20
118.8022151482
 10
144.6893814589
 20
118.8552400035
 10
144.6556330348
 20
118.90434707
 10
144.6156647617
 20
118.9485914596
 10
144.569932551
 20
118.9873595404
 10
144.5194417523
 20
119.0197103963
 10
144.5037410692
 20
119.0279532163
  0
LINE
  5
31C
100
AcDbEntity
  8
RACCORDO
100
AcDbLine
 62
253
  6
CONTINUOUS
 10
144.6452716285
 20
118.5385559101
 11
144.6487353685
 21
118.4877273616
  0
LWPOLYLINE
  5
31D
100
AcDbEntity
  8
RACCORDO
100
AcDbPolyline
 62
253
  6
CONTINUOUS
 90
8
 70
0
 10
141.6831573554
 20
112.4337370935
 10
141.6858992493
 20
112.384057879
 10
141.694080466
 20
112.3379654227
 10
141.7075640619
 20
112.2962575539
 10
141.7261231233
 20
112.2596546812
 10
141.7494401407
 20
112.2287964667
 10
141.7771085829
 20
112.2042257403
 10
141.7999100788
 20
112.1904436528
  0
LINE
  5
31E
100
AcDbEntity
  8
RACCORDO
100
AcDbLine
 62
7
  6
CONTINUOUS
 10
144.7571741289
 20
118.2310039054
 11
144.752423207
 21
118.6310324787
  0
LWPOLYLINE
  5
31F
100
AcDbEntity
  8
RACCORDO
100
AcDbPolyline
 62
253
  6
CONTINUOUS
 90
9
 70
0
 10
144.648735698
 20
118.4877275601
 10
144.6550773861
 20
117.9450980171
 10
144.6607312301
 20
117.4028057491
 10
144.6656973937
 20
116.8608521545
 10
144.6699761329
 20
116.3192397089
 10
144.6735674671
 20
115.7779686974
 10
144.6764711642
 20
115.2370372204
 10
144.6786871872
 20
114.6964455474
 10
144.6802157083
 20
114.1561961117
  0
LWPOLYLINE
  5
320
100
AcDbEntity
  8
RACCORDO
100
AcDbPolyline
 62
253
  6
CONTINUOUS
 90
10
 70
0
 10
141.6831573578
 20
112.4337370923
 10
141.6823155956
 20
112.9730359705
 10
141.6807856612
 20
113.5126748791
 10
141.6785675543
 20
114.0526538182
 10
141.6756612866
 20
114.5929732896
 10
141.6720668466
 20
115.1336327914
 10
141.6677841998
 20
115.6746308179
 10
141.6628133348
 20
116.2159668673
 10
141.6571542631
 20
116.7576414413
 10
141.6508069845
 20
117.2996545401
  0
LWPOLYLINE
  5
321
100
AcDbEntity
  8
RACCORDO
100
AcDbPolyline
 62
253
  6
CONTINUOUS
 90
10
 70
0
 10
142.288777367
 20
112.4201505456
 10
142.287932666
 20
112.9600545789
 10
142.2863972276
 20
113.5003005471
 10
142.2841711017
 20
114.0408871629
 10
142.28125451
 20
114.5818121899
 10
142.2776474029
 20
115.1230753152
 10
142.2733494479
 20
115.6646781559
 10
142.268360626
 20
116.206620427
 10
142.2626812433
 20
116.7488999341
 10
142.2563114795
 20
117.2915154504
  0
LINE
  5
322
100
AcDbEntity
  8
RACCORDO
100
AcDbLine
 62
253
  6
CONTINUOUS
 10
144.6802157083
 20
114.1561961117
 11
144.6810567695
 21
113.6162902468
  0
LWPOLYLINE
  5
323
100
AcDbEntity
  8
RACCORDO
100
AcDbPolyline
 62
7
  6
CONTINUOUS
 90
9
 70
0
 10
144.7848075918
 20
113.7599782813
 10
144.7842249991
 20
114.1728860676
 10
144.7827317145
 20
114.7514615663
 10
144.7804480287
 20
115.3304249947
 10
144.7773739564
 20
115.9097745741
 10
144.7735095135
 20
116.4895087777
 10
144.7688547161
 20
117.0696261269
 10
144.7634095808
 20
117.6501250959
 10
144.7571741289
 20
118.2310039054
  0
LWPOLYLINE
  5
324
100
AcDbEntity
  8
RACCORDO
100
AcDbPolyline
 62
7
  6
CONTINUOUS
 90
6
 70
0
 10
144.7848075924
 20
113.7599784714
 10
144.7812329258
 20
113.7029605935
 10
144.770322906
 20
113.6463101936
 10
144.752095953
 20
113.5911266093
 10
144.7266998295
 20
113.5383823586
 10
144.6945782586
 20
113.4892565592
  0
LWPOLYLINE
  5
325
100
AcDbEntity
  8
RACCORDO
100
AcDbPolyline
 62
253
  6
CONTINUOUS
 90
7
 70
0
 10
144.7848075926
 20
113.7599782819
 10
144.7834777125
 20
113.7426121453
 10
144.7758299025
 20
113.7152108141
 10
144.7614981876
 20
113.6884816186
 10
144.7406997719
 20
113.6628296556
 10
144.7137498657
 20
113.6386437058
 10
144.6810569078
 20
113.6162903301
  0
LWPOLYLINE
  5
326
100
AcDbEntity
  8
RACCORDO
100
AcDbPolyline
 62
253
  6
CONTINUOUS
 90
7
 70
0
 10
148.0407494335
 20
133.6271202281
 10
148.0134594991
 20
133.481339105
 10
147.9845410289
 20
133.3360603451
 10
147.9539556626
 20
133.1912939211
 10
147.9216647908
 20
133.0470502054
 10
147.8876295697
 20
132.9033399783
 10
147.851810937
 20
132.7601744364
  0
LWPOLYLINE
  5
327
100
AcDbEntity
  8
RACCORDO
100
AcDbPolyline
 62
253
  6
CONTINUOUS
 90
7
 70
0
 10
147.4660998339
 20
134.102621578
 10
147.4360671269
 20
133.9707469018
 10
147.4047984358
 20
133.8395763473
 10
147.3722769006
 20
133.709107031
 10
147.3384859824
 20
133.5793357947
 10
147.3034094608
 20
133.4502592154
 10
147.2670314315
 20
133.3218736176
  0
LWPOLYLINE
  5
328
100
AcDbEntity
  8
0
100
AcDbPolyline
 62
7
  6
CONTINUOUS
 90
13
 70
0
 10
139.6836874495
 20
100.6571403427
 10
139.6248389971
 20
100.5019442702
 10
139.5553091221
 20
100.3499636704
 10
139.4753016768
 20
100.2021506181
 10
139.3849714144
 20
100.0592075935
 10
139.2849353645
 20
99.9223793829
 10
139.1763789028
 20
99.793222914
 10
139.0590203473
 20
99.6713549706
 10
138.9347632265
 20
99.5586148118
 10
138.8087373127
 20
99.458546863
 10
138.6836089285
 20
99.3713908946
 10
138.5590909532
 20
99.2952708729
 10
138.435993925
 20
99.2293627421
  0
LWPOLYLINE
  5
329
100
AcDbEntity
  8
RACCORDO
100
AcDbPolyline
 62
253
  6
CONTINUOUS
 90
4
 70
0
 10
148.1994797574
 20
116.8664194141
 10
148.2176760234
 20
116.9122130695
 10
148.2286941313
 20
116.9607264448
 10
148.2323451881
 20
117.0111282619
  0
LWPOLYLINE
  5
32A
100
AcDbEntity
  8
0
100
AcDbPolyline
 62
7
  6
CONTINUOUS
 90
10
 70
0
 10
139.6836874495
 20
100.6571403427
 10
139.6564480918
 20
100.5892716717
 10
139.6130913506
 20
100.5083668912
 10
139.5585529599
 20
100.4291713975
 10
139.4930986252
 20
100.3520710228
 10
139.4170472334
 20
100.2774413926
 10
139.3307692993
 20
100.2056460949
 10
139.2346851604
 20
100.1370349091
 10
139.1292629288
 20
100.0719421021
 10
139.0150162111
 20
100.0106847995
  0
LINE
  5
32B
100
AcDbEntity
  8
RACCORDO
100
AcDbLine
 62
7
  6
CONTINUOUS
 10
148.3418407221
 20
117.1388349241
 11
148.1921217517
 21
116.8523492969
  0
LINE
  5
32C
100
AcDbEntity
  8
RACCORDO
100
AcDbLine
 62
7
  6
CONTINUOUS
 10
148.191644651
 20
116.8514938268
 11
148.1921217517
 21
116.8523492969
  0
LINE
  5
32D
100
AcDbEntity
  8
RACCORDO
100
AcDbLine
 62
7
  6
CONTINUOUS
 10
148.1661033571
 20
116.8091130782
 11
148.1916206495
 21
116.8515071941
  0
LWPOLYLINE
  5
32E
100
AcDbEntity
  8
RACCORDO
100
AcDbPolyline
 62
253
  6
CONTINUOUS
 90
4
 70
0
 10
148.2323151212
 20
117.0111324007
 10
148.1979138676
 20
116.9581372957
 10
148.1545796165
 20
116.9068062715
 10
148.1026192389
 20
116.8575483288
  0
LWPOLYLINE
  5
32F
100
AcDbEntity
  8
0
100
AcDbPolyline
 62
7
  6
CONTINUOUS
 90
37
 70
0
 10
138.435993925
 20
99.2293627421
 10
138.3253792344
 20
99.1773952614
 10
138.214862753
 20
99.1318572203
 10
138.1045340629
 20
99.0923944486
 10
137.9934729736
 20
99.0584238606
 10
137.8824051261
 20
99.0299838427
 10
137.7736362793
 20
99.0073096749
 10
137.6669752245
 20
98.9899129305
 10
137.5613342454
 20
98.9773051322
 10
137.4574850226
 20
98.969327206
 10
137.3543191515
 20
98.9656951325
 10
137.2512336338
 20
98.9663213652
 10
137.1499145713
 20
98.9710849626
 10
137.0501353029
 20
98.9798181272
 10
136.9506421326
 20
98.9925624197
 10
136.8518949895
 20
99.009258196
 10
136.753880936
 20
99.0298989769
 10
136.6557950194
 20
99.0547176259
 10
136.5571793415
 20
99.083999871
 10
136.4580885255
 20
99.1179594948
 10
136.3582519461
 20
99.1569765696
 10
136.2568683371
 20
99.2017866181
 10
136.1536412524
 20
99.2531102226
 10
136.0492594259
 20
99.3112721856
 10
135.9445526036
 20
99.3764710984
 10
135.8394524417
 20
99.4494903559
 10
135.7350904631
 20
99.5303534536
 10
135.6341244816
 20
99.6175405276
 10
135.5378789758
 20
99.7100641782
 10
135.4459978596
 20
99.8083978371
 10
135.3585666515
 20
99.9127627075
 10
135.2761628531
 20
100.0228411675
 10
135.1992354291
 20
100.1384015348
 10
135.1278463243
 20
100.2598593336
 10
135.0624450791
 20
100.3871671078
 10
135.0037325823
 20
100.5197292561
 10
134.9522324231
 20
100.6571403427
  0
LWPOLYLINE
  5
330
100
AcDbEntity
  8
RACCORDO
100
AcDbPolyline
 62
253
  6
CONTINUOUS
 90
13
 70
0
 10
141.6508070386
 20
117.2996545131
 10
141.6924977069
 20
117.2826981649
 10
141.7372851898
 20
117.2678604102
 10
141.7851168071
 20
117.2555083432
 10
141.8363878058
 20
117.2465739791
 10
141.8908105094
 20
117.2410245501
 10
141.9466229721
 20
117.238022817
 10
142.0022085496
 20
117.2385584686
 10
142.0572712612
 20
117.2432354038
 10
142.1112127528
 20
117.2506048769
 10
142.1630640594
 20
117.2604765444
 10
142.2117177679
 20
117.27400369
 10
142.2563118707
 20
117.2915156126
  0
LWPOLYLINE
  5
331
100
AcDbEntity
  8
DRAFT
100
AcDbPolyline
 62
7
  6
CONTINUOUS
 90
10
 70
0
 10
119.1763911053
 20
126.8774670024
 10
118.8867666259
 20
126.999684223
 10
118.6026119116
 20
127.1248153158
 10
118.3239269621
 20
127.252860281
 10
118.0505924511
 20
127.3838787817
 10
117.7827277049
 20
127.5178111548
 10
117.5206907034
 20
127.6544784103
 10
117.2646007731
 20
127.7938208851
 10
117.0143385874
 20
127.9358982422
 10
116.7699041462
 20
128.0807104819
  0
LINE
  5
332
100
AcDbEntity
  8
RACCORDO
100
AcDbLine
 62
253
  6
CONTINUOUS
 10
140.4675862562
 20
117.8912649043
 11
141.6508069845
 21
117.2996545401
  0
LINE
  5
333
100
AcDbEntity
  8
RACCORDO
100
AcDbLine
 62
253
  6
CONTINUOUS
 10
140.7807919607
 20
118.4425715353
 11
141.9689872038
 21
117.8484739137
  0
LWPOLYLINE
  5
334
100
AcDbEntity
  8
RACCORDO
100
AcDbPolyline
 62
7
  6
CONTINUOUS
 90
11
 70
0
 10
117.9796535398
 20
129.2143925067
 10
117.6584810089
 20
129.3791821112
 10
117.3456983723
 20
129.5481666627
 10
117.0419294182
 20
129.7210090918
 10
116.7471923144
 20
129.8977170064
 10
116.4614688932
 20
130.0782827986
 10
116.1853284389
 20
130.2623465743
 10
115.9187834328
 20
130.4499217373
 10
115.6618213937
 20
130.6409948838
 10
115.4149741624
 20
130.8351659092
 10
115.1784190194
 20
131.0323014454
  0
LINE
  5
335
100
AcDbEntity
  8
RACCORDO
100
AcDbLine
 62
7
  6
CONTINUOUS
 10
114.7262480841
 20
131.4439777819
 11
114.716810501
 21
131.4495799677
  0
LWPOLYLINE
  5
336
100
AcDbEntity
  8
RACCORDO
100
AcDbPolyline
 62
253
  6
CONTINUOUS
 90
13
 70
0
 10
141.9690050901
 20
117.8484649705
 10
142.0054582969
 20
117.823348422
 10
142.0415326964
 20
117.792139069
 10
142.0766226036
 20
117.7552463863
 10
142.1101844033
 20
117.713102813
 10
142.141547362
 20
117.666403068
 10
142.1699764612
 20
117.6161733872
 10
142.1949455325
 20
117.5633678384
 10
142.2160873093
 20
117.5087908567
 10
142.2330401774
 20
117.4533805983
 10
142.245519623
 20
117.3980799347
 10
142.2533196029
 20
117.3438194842
 10
142.2563118707
 20
117.2915156126
  0
LWPOLYLINE
  5
337
100
AcDbEntity
  8
RACCORDO
100
AcDbPolyline
 62
7
  6
CONTINUOUS
 90
4
 70
0
 10
122.4922396571
 20
127.5564303036
 10
122.4760984813
 20
127.5683639047
 10
122.4589887744
 20
127.578490831
 10
122.4410928804
 20
127.5865561128
  0
LWPOLYLINE
  5
338
100
AcDbEntity
  8
RACCORDO
100
AcDbPolyline
 62
253
  6
CONTINUOUS
 90
10
 70
0
 10
135.5956111417
 20
127.4861634727
 10
135.6436946129
 20
127.3950344395
 10
135.6872870932
 20
127.3016960489
 10
135.726114518
 20
127.2067351166
 10
135.7599327805
 20
127.1107486593
 10
135.7885292661
 20
127.0143401412
 10
135.8117241897
 20
126.9181156796
 10
135.8293717253
 20
126.8226802352
 10
135.8413609235
 20
126.7286338076
 10
135.8476164085
 20
126.6365676641
  0
LWPOLYLINE
  5
339
100
AcDbEntity
  8
RACCORDO
100
AcDbPolyline
 62
253
  6
CONTINUOUS
 90
13
 70
0
 10
124.6249369638
 20
156.0107248501
 10
124.6826821529
 20
155.8549552199
 10
124.7566618171
 20
155.700904109
 10
124.846650332
 20
155.5490324984
 10
124.952368058
 20
155.3997851464
 10
125.0735320913
 20
155.2535383204
 10
125.209851609
 20
155.1106408518
 10
125.3609885287
 20
154.9714606139
 10
125.5265112431
 20
154.8364072311
 10
125.7059353697
 20
154.7058780083
 10
125.8987537409
 20
154.5802380829
 10
126.1044470337
 20
154.4598222884
 10
126.3224494888
 20
154.3449597485
  0
LWPOLYLINE
  5
33A
100
AcDbEntity
  8
RACCORDO
100
AcDbPolyline
 62
253
  6
CONTINUOUS
 90
10
 70
0
 10
147.5165555819
 20
132.4710372508
 10
147.5103000969
 20
132.5631033943
 10
147.4983108987
 20
132.6571498219
 10
147.4806633631
 20
132.7525852663
 10
147.4574684396
 20
132.8488097279
 10
147.4288719539
 20
132.9452182461
 10
147.3950536914
 20
133.0412047033
 10
147.3562262666
 20
133.1361656356
 10
147.3126337863
 20
133.2295040262
 10
147.2645503151
 20
133.3206330595
  0
LINE
  5
33B
100
AcDbEntity
  8
RACCORDO
100
AcDbLine
 62
253
  6
CONTINUOUS
 10
148.4422124705
 20
135.7698048551
 11
148.4422141186
 21
135.7697748508
  0
LWPOLYLINE
  5
33C
100
AcDbEntity
  8
ASSI
100
AcDbPolyline
 62
7
  6
CONTINUOUS
 90
10
 70
0
 10
148.4422124705
 20
135.7698048551
 10
148.5361690463
 20
133.961077987
 10
148.6193762319
 20
132.1514286189
 10
148.691824953
 20
130.3409517227
 10
148.7535074111
 20
128.5297286041
 10
148.8044156421
 20
126.7178680331
 10
148.8445423328
 20
124.9055062305
 10
148.8738823617
 20
123.0927520234
 10
148.8924319817
 20
121.2796868491
 10
148.9001879506
 20
119.4664058874
  0
LWPOLYLINE
  5
33D
100
AcDbEntity
  8
RACCORDO
100
AcDbPolyline
 62
253
  6
CONTINUOUS
 90
10
 70
0
 10
147.5166569623
 20
132.471087941
 10
147.5893970209
 20
130.8524645139
 10
147.6556200179
 20
129.2006340623
 10
147.7149249028
 20
127.5158141921
 10
147.7670100543
 20
125.798301893
 10
147.8113497261
 20
124.0482613026
 10
147.8471933993
 20
122.2657242665
 10
147.8739975415
 20
120.4508737513
 10
147.8914263153
 20
118.6040437776
 10
147.8990275648
 20
116.7255074214
  0
LWPOLYLINE
  5
33E
100
AcDbEntity
  8
RACCORDO
100
AcDbPolyline
 62
253
  6
CONTINUOUS
 90
10
 70
0
 10
147.851810937
 20
132.7601744364
 10
147.9240114247
 20
131.1408108817
 10
147.9899764039
 20
129.4884781174
 10
148.0491805652
 20
127.8032935038
 10
148.1010475503
 20
126.0853152174
 10
148.1450626775
 20
124.3347322802
 10
148.180774565
 20
122.5518662119
 10
148.2076428007
 20
120.7369160218
 10
148.2250358833
 20
118.8899562786
 10
148.232345187
 20
117.0111282597
  0
LWPOLYLINE
  5
33F
100
AcDbEntity
  8
RACCORDO
100
AcDbPolyline
 62
253
  6
CONTINUOUS
 90
7
 70
0
 10
148.4422141186
 20
135.7697748508
 10
148.4474587811
 20
135.6397859319
 10
148.4394903776
 20
135.2344186645
 10
148.3947095637
 20
134.8296361499
 10
148.3132035179
 20
134.4262685704
 10
148.1951368785
 20
134.0251538733
 10
148.0407494335
 20
133.6271202281
  0
LINE
  5
340
100
AcDbEntity
  8
RACCORDO
100
AcDbLine
 62
253
  6
CONTINUOUS
 10
148.9001879506
 20
119.4664058874
 11
148.8943008438
 21
119.2283075064
  0
LWPOLYLINE
  5
341
100
AcDbEntity
  8
RACCORDO
100
AcDbPolyline
 62
7
  6
CONTINUOUS
 90
9
 70
0
 10
148.9001879506
 20
119.4664058876
 10
148.8918884747
 20
119.1744307548
 10
148.8661635398
 20
118.882126811
 10
148.8229281571
 20
118.5898389587
 10
148.7621445499
 20
118.2980144056
 10
148.6837595127
 20
118.00688722
 10
148.5876371833
 20
117.7164707763
 10
148.4736691367
 20
117.4269791732
 10
148.3418407221
 20
117.1388349241
  0
LWPOLYLINE
  5
342
100
AcDbEntity
  8
RACCORDO
100
AcDbPolyline
 62
253
  6
CONTINUOUS
 90
7
 70
0
 10
148.8943008438
 20
119.2283075064
 10
148.8599519364
 20
118.8540033618
 10
148.794987568
 20
118.4807426585
 10
148.6995380463
 20
118.1092007985
 10
148.5737884013
 20
117.7400157993
 10
148.4179643145
 20
117.3737878535
 10
148.2323451881
 20
117.0111282619
  0
LWPOLYLINE
  5
343
100
AcDbEntity
  8
RACCORDO
100
AcDbPolyline
 62
253
  6
CONTINUOUS
 90
10
 70
0
 10
135.2685578822
 20
126.4689316248
 10
135.3404293671
 20
126.4807800719
 10
135.4110166815
 20
126.4942067142
 10
135.4800383583
 20
126.5093198838
 10
135.5471772895
 20
126.5263694303
 10
135.6122187626
 20
126.5453043739
 10
135.6750267391
 20
126.5657661654
 10
135.7353768353
 20
126.5876803887
 10
135.7929826827
 20
126.6112616935
 10
135.8476164085
 20
126.6365676641
  0
LWPOLYLINE
  5
344
100
AcDbEntity
  8
RACCORDO
100
AcDbPolyline
 62
253
  6
CONTINUOUS
 90
16
 70
0
 10
122.4226008358
 20
127.5923923153
 10
123.1613792488
 20
127.4126205774
 10
123.91581992
 20
127.2500594834
 10
124.6843185932
 20
127.1050464792
 10
125.4652019741
 20
126.9778876827
 10
126.256851193
 20
126.8688372391
 10
127.0577104856
 20
126.7781061422
 10
127.8661328124
 20
126.7058838826
 10
128.6803604295
 20
126.6523303594
 10
129.4986517276
 20
126.6175606622
 10
130.3192972833
 20
126.6016481302
 10
131.1405367719
 20
126.604627599
 10
131.9605446209
 20
126.6264893509
 10
132.7775569233
 20
126.6671792503
 10
133.5898750096
 20
126.7266055646
 10
134.3957820475
 20
126.8046365351
  0
LWPOLYLINE
  5
345
100
AcDbEntity
  8
RACCORDO
100
AcDbPolyline
 62
7
  6
CONTINUOUS
 90
13
 70
0
 10
122.4226008358
 20
127.5923923153
 10
122.0159382475
 20
127.7005550789
 10
121.6154714172
 20
127.8137752465
 10
121.2212003447
 20
127.9320528181
 10
120.8328582938
 20
128.0554764337
 10
120.4507120008
 20
128.1839574532
 10
120.075561675
 20
128.3172299563
 10
119.7074341235
 20
128.4553001834
 10
119.3463025391
 20
128.5981618941
 10
118.9928867098
 20
128.7455304459
 10
118.6472018517
 20
128.897414923
 10
118.3092327486
 20
129.0538062413
 10
117.9796535398
 20
129.2143925067
  0
LWPOLYLINE
  5
346
100
AcDbEntity
  8
RACCORDO
100
AcDbPolyline
 62
7
  6
CONTINUOUS
 90
10
 70
0
 10
122.4226008358
 20
127.5923923153
 10
121.881247479
 20
127.7378980324
 10
121.3513604282
 20
127.8922475827
 10
120.8329396834
 20
128.0554409661
 10
120.3253761373
 20
128.2276977846
 10
119.8292788973
 20
128.4087984364
 10
119.3464752852
 20
128.5980841151
 10
118.8775744087
 20
128.7953352187
 10
118.4219671602
 20
129.0007713492
 10
117.9796535398
 20
129.2143925067
  0
LINE
  5
347
100
AcDbEntity
  8
RACCORDO
100
AcDbLine
 62
7
  6
CONTINUOUS
 10
122.4410928804
 20
127.5865561128
 11
122.4226008358
 21
127.5923923153
  0
LWPOLYLINE
  5
348
100
AcDbEntity
  8
RACCORDO
100
AcDbPolyline
 62
7
  6
CONTINUOUS
 90
3
 70
0
 10
114.716810501
 20
131.4495799677
 10
114.7075747871
 20
131.4526257517
 10
114.6988226573
 20
131.4531388035
  0
LWPOLYLINE
  5
349
100
AcDbEntity
  8
RACCORDO
100
AcDbPolyline
 62
253
  6
CONTINUOUS
 90
7
 70
0
 10
135.5931280104
 20
127.4849219071
 10
135.4608395226
 20
127.5289740505
 10
135.3294927423
 20
127.5748388612
 10
135.1991035746
 20
127.6225200153
 10
135.0696882408
 20
127.6720209361
 10
134.9412632806
 20
127.7233447825
 10
134.8138455549
 20
127.7764944385
  0
LWPOLYLINE
  5
34A
100
AcDbEntity
  8
RACCORDO
100
AcDbPolyline
 62
253
  6
CONTINUOUS
 90
7
 70
0
 10
135.268686753
 20
126.4686124955
 10
135.1197176227
 20
126.5193838457
 10
134.9721135681
 20
126.5722742376
 10
134.825896907
 20
126.6272641032
 10
134.6810891228
 20
126.684333983
 10
134.5377108813
 20
126.7434645336
 10
134.3957820475
 20
126.8046365351
  0
LWPOLYLINE
  5
34B
100
AcDbEntity
  8
RACCORDO
100
AcDbPolyline
 62
253
  6
CONTINUOUS
 90
30
 70
0
 10
134.8138455549
 20
127.7764944385
 10
134.3868682874
 20
127.9737609964
 10
133.9720269086
 20
128.1978790828
 10
133.5703411321
 20
128.4489843037
 10
133.1804507659
 20
128.7290213935
 10
132.8061012518
 20
129.0361302234
 10
132.4556038286
 20
129.3644691958
 10
132.1314237015
 20
129.7135817617
 10
131.832708761
 20
130.0832081853
 10
131.5619699983
 20
130.467506088
 10
131.3206961526
 20
130.8645066343
 10
131.1082806402
 20
131.2750738972
 10
130.9236872166
 20
131.6975159168
 10
130.7670556994
 20
132.130881402
 10
130.6391312778
 20
132.5748455724
 10
130.5397666289
 20
133.0286105958
 10
130.4690698274
 20
133.4922322554
 10
130.4278547315
 20
133.9641815651
 10
130.4168156136
 20
134.4413048088
 10
130.4363084006
 20
134.9238802801
 10
130.4863857736
 20
135.4101713666
 10
130.5665800012
 20
135.894273578
 10
130.676529887
 20
136.3750234974
 10
130.8158687547
 20
136.8526988941
 10
130.9833746087
 20
137.3239801176
 10
131.1780770093
 20
137.7880987902
 10
131.3996602026
 20
138.245527046
 10
131.6475047929
 20
138.6951251086
 10
131.9207633846
 20
139.1370366185
 10
132.2188220936
 20
139.5712801133
  0
LWPOLYLINE
  5
34C
100
AcDbEntity
  8
RACCORDO
100
AcDbPolyline
 62
253
  6
CONTINUOUS
 90
7
 70
0
 10
144.5037034237
 20
119.0279720449
 10
144.4968716471
 20
119.0311988762
 10
144.462175325
 20
119.0423999404
 10
144.4247225328
 20
119.0464064804
 10
144.3851592632
 20
119.0431491336
 10
144.3441684516
 20
119.0326838844
 10
144.302457468
 20
119.0151911595
  0
LWPOLYLINE
  5
34D
100
AcDbEntity
  8
RACCORDO
100
AcDbPolyline
 62
253
  6
CONTINUOUS
 90
29
 70
0
 10
134.3957820475
 20
126.8046365351
 10
133.9167849021
 20
127.0327479851
 10
133.4519800715
 20
127.291484189
 10
133.0020167943
 20
127.5803405865
 10
132.5640613822
 20
127.900556594
 10
132.1420650008
 20
128.2500297772
 10
131.7467746179
 20
128.6228706035
 10
131.380689026
 20
129.0182274243
 10
131.0419972445
 20
129.4353785225
 10
130.7348109569
 20
129.8681659696
 10
130.4604438488
 20
130.3145047119
 10
130.2176747163
 20
130.7750571654
 10
130.0066504582
 20
131.2477440774
 10
129.8267729771
 20
131.7320265336
 10
129.6783567698
 20
132.2275227741
 10
129.5628088584
 20
132.7324690703
 10
129.4794757292
 20
133.2477090648
 10
129.4284229567
 20
133.7719425195
 10
129.4120060091
 20
134.3002491246
 10
129.4303846095
 20
134.8337135465
 10
129.482497198
 20
135.3712820496
 10
129.5687553017
 20
135.9048801686
 10
129.6891619399
 20
136.4337744567
 10
129.8426136379
 20
136.9592315769
 10
130.0278381237
 20
137.4762305773
 10
130.2441474478
 20
137.9844460831
 10
130.4910381024
 20
138.4852180178
 10
130.7675292756
 20
138.9760867427
 10
131.0729316301
 20
139.4577155619
  0
LWPOLYLINE
  5
34E
100
AcDbEntity
  8
RACCORDO
100
AcDbPolyline
 62
253
  6
CONTINUOUS
 90
4
 70
0
 10
144.302457468
 20
119.0151911595
 10
144.3474243641
 20
118.9932375688
 10
144.391628179
 20
118.9650587775
 10
144.4343207011
 20
118.9311325589
  0
LINE
  5
34F
100
AcDbEntity
  8
RACCORDO
100
AcDbLine
 62
253
  6
CONTINUOUS
 10
143.1142443386
 20
119.6092977242
 11
144.302445747
 21
119.01519702
  0
LINE
  5
350
100
AcDbEntity
  8
RACCORDO
100
AcDbLine
 62
7
  6
CONTINUOUS
 10
143.3166722082
 20
119.6214876526
 11
144.503703586
 21
119.0279719637
  0
LINE
  5
351
100
AcDbEntity
  8
RACCORDO
100
AcDbLine
 62
253
  6
CONTINUOUS
 10
144.4343207011
 20
118.9311325589
 11
144.4747787877
 21
118.8920345816
  0
LWPOLYLINE
  5
352
100
AcDbEntity
  8
RACCORDO
100
AcDbPolyline
 62
253
  6
CONTINUOUS
 90
4
 70
0
 10
144.4747787877
 20
118.8920345816
 10
144.5123186861
 20
118.8484266803
 10
144.5463070584
 20
118.8010449165
 10
144.5762216826
 20
118.7505918842
  0
LWPOLYLINE
  5
353
100
AcDbEntity
  8
RACCORDO
100
AcDbPolyline
 62
253
  6
CONTINUOUS
 90
5
 70
0
 10
144.5762216826
 20
118.7505918842
 10
144.6014851078
 20
118.6980125442
 10
144.6215677548
 20
118.6445093967
 10
144.6361983623
 20
118.5910972406
 10
144.6452716285
 20
118.5385559101
  0
LWPOLYLINE
  5
354
100
AcDbEntity
  8
RACCORDO
100
AcDbPolyline
 62
253
  6
CONTINUOUS
 90
9
 70
0
 10
125.3929309153
 20
157.2887438939
 10
125.4813467659
 20
157.0951961814
 10
125.5984040245
 20
156.9056303947
 10
125.7433148026
 20
156.7211837767
 10
125.915259083
 20
156.5427882632
 10
126.1133444123
 20
156.371329022
 10
126.3365023007
 20
156.2077299807
 10
126.5834427268
 20
156.0529360324
 10
126.8527795747
 20
155.9078084015
  0
LWPOLYLINE
  5
355
100
AcDbEntity
  8
RACCORDO
100
AcDbPolyline
 62
253
  6
CONTINUOUS
 90
10
 70
0
 10
140.9233840519
 20
130.1500480786
 10
140.9097855628
 20
130.191930869
 10
140.8941675847
 20
130.2320491163
 10
140.8766601062
 20
130.2700689968
 10
140.8574088391
 20
130.3056741474
 10
140.8365740065
 20
130.3385682988
 10
140.814329009
 20
130.36847774
 10
140.7908589825
 20
130.3951535963
 10
140.7663592572
 20
130.4183738996
 10
140.7410337322
 20
130.4379454361
  0
LWPOLYLINE
  5
356
100
AcDbEntity
  8
RACCORDO
100
AcDbPolyline
 62
253
  6
CONTINUOUS
 90
3
 70
0
 10
136.7334657157
 20
156.0459215995
 10
136.7028574501
 20
156.1481585799
 10
136.6666614099
 20
156.2467716107
  0
LINE
  5
357
100
AcDbEntity
  8
RACCORDO
100
AcDbLine
 62
253
  6
CONTINUOUS
 10
135.9822794004
 20
157.4755558048
 11
135.9337939986
 21
157.6394454172
  0
LWPOLYLINE
  5
358
100
AcDbEntity
  8
RACCORDO
100
AcDbPolyline
 62
253
  6
CONTINUOUS
 90
10
 70
0
 10
140.9233953227
 20
130.1500555633
 10
140.749358448
 20
130.1325833645
 10
140.5664756279
 20
130.1314329638
 10
140.3749208408
 20
130.1467131312
 10
140.1743308148
 20
130.1777519494
 10
139.9655395249
 20
130.2254963101
 10
139.7506041697
 20
130.2925234091
 10
139.5286619239
 20
130.3797919854
 10
139.3014084394
 20
130.4867451573
 10
139.0747882325
 20
130.6136852884
  0
LWPOLYLINE
  5
359
100
AcDbEntity
  8
RACCORDO
100
AcDbPolyline
 62
253
  6
CONTINUOUS
 90
9
 70
0
 10
140.7410307966
 20
130.4379272519
 10
140.5867691837
 20
130.4281538167
 10
140.4224126212
 20
130.4320595746
 10
140.2485903689
 20
130.4505204961
 10
140.0660742235
 20
130.4844418892
 10
139.875543526
 20
130.534590738
 10
139.6776435335
 20
130.6017550494
 10
139.472208513
 20
130.6873959221
 10
139.3252011916
 20
130.758520027
  0
LINE
  5
35A
100
AcDbEntity
  8
RACCORDO
100
AcDbLine
 62
7
  6
CONTINUOUS
 10
139.3252011916
 20
130.758520027
 11
139.3171721117
 21
130.762641422
  0
LWPOLYLINE
  5
35B
100
AcDbEntity
  8
RACCORDO
100
AcDbPolyline
 62
7
  6
CONTINUOUS
 90
32
 70
0
 10
139.3174290721
 20
130.7625057153
 10
139.178651323
 20
130.8381826861
 10
138.9549829924
 20
130.9783282994
 10
138.7338349582
 20
131.1405885363
 10
138.5198340938
 20
131.3226531496
 10
138.3149354843
 20
131.5238192932
 10
138.1212073986
 20
131.7433860539
 10
137.9426598874
 20
131.9778177059
 10
137.7807848795
 20
132.2258037487
 10
137.6369727301
 20
132.4861104804
 10
137.5138876631
 20
132.75432975
 10
137.4122935217
 20
133.0279732588
 10
137.3322567517
 20
133.3058593474
 10
137.274224825
 20
133.5848972934
 10
137.2378437152
 20
133.8622828038
 10
137.2223645399
 20
134.1368855638
 10
137.2270019905
 20
134.4078041036
 10
137.2507245874
 20
134.6727726743
 10
137.2924747319
 20
134.9304612616
 10
137.3514140379
 20
135.1812321153
 10
137.4263600856
 20
135.4233608937
 10
137.5160613267
 20
135.6553043136
 10
137.6199495708
 20
135.8775173676
 10
137.7369875221
 20
136.0887896508
 10
137.8655565653
 20
136.2871360041
 10
138.0044268079
 20
136.4716576111
 10
138.1519804248
 20
136.6409638872
 10
138.3065252907
 20
136.7938187405
 10
138.4666615551
 20
136.9294590858
 10
138.6307005196
 20
137.0469439621
 10
138.796726518
 20
137.1454409636
 10
138.8440671275
 20
137.1699155648
  0
LWPOLYLINE
  5
35C
100
AcDbEntity
  8
RACCORDO
100
AcDbPolyline
 62
253
  6
CONTINUOUS
 90
32
 70
0
 10
139.0747882325
 20
130.6136852884
 10
138.8484419206
 20
130.7623011765
 10
138.6237914605
 20
130.9312590946
 10
138.409234428
 20
131.1161869509
 10
138.2060116728
 20
131.3175927865
 10
138.0136574236
 20
131.5350261929
 10
137.8375205455
 20
131.7624669328
 10
137.6785845422
 20
131.999847725
 10
137.5361332843
 20
132.2470439491
 10
137.4124280301
 20
132.4978026168
 10
137.3081614332
 20
132.7510013962
 10
137.2223609978
 20
133.0074800846
 10
137.1544206559
 20
133.2638820563
 10
137.104194815
 20
133.5195741551
 10
137.0713488681
 20
133.7749697255
 10
137.0548430899
 20
134.0282932945
 10
137.0543490815
 20
134.2795915146
 10
137.0696603966
 20
134.5286874306
 10
137.0998281041
 20
134.773494536
 10
137.1445084457
 20
135.0139085377
 10
137.2034413452
 20
135.2499920115
 10
137.2757202705
 20
135.4799364553
 10
137.3611125145
 20
135.7039894789
 10
137.4592447416
 20
135.9219360816
 10
137.5689292187
 20
136.1313015378
 10
137.690015479
 20
136.3322444613
 10
137.8220671552
 20
136.5246938717
 10
137.9634128468
 20
136.705854014
 10
138.1141792896
 20
136.8759093952
 10
138.2737518055
 20
137.0347805678
 10
138.4393350735
 20
137.1792857044
 10
138.6098915696
 20
137.3083915164
  0
LWPOLYLINE
  5
35D
100
AcDbEntity
  8
RACCORDO
100
AcDbPolyline
 62
253
  6
CONTINUOUS
 90
10
 70
0
 10
141.9367997363
 20
130.6567632897
 10
141.9055658778
 20
130.6898284191
 10
141.8724598792
 20
130.7212024533
 10
141.8377571705
 20
130.7506243418
 10
141.801746467
 20
130.7778492755
 10
141.7647273633
 20
130.8026507234
 10
141.7270078414
 20
130.8248223164
 10
141.6889017122
 20
130.844179566
 10
141.6507260052
 20
130.8605613989
 10
141.6127983267
 20
130.8738314972
  0
LWPOLYLINE
  5
35E
100
AcDbEntity
  8
RACCORDO
100
AcDbPolyline
 62
253
  6
CONTINUOUS
 90
3
 70
0
 10
124.776423134
 20
154.5955339533
 10
124.8379279303
 20
154.5134097155
 10
124.9019469306
 20
154.4346909153
  0
LINE
  5
35F
100
AcDbEntity
  8
0
100
AcDbLine
 62
7
  6
CONTINUOUS
 10
134.53063185
 20
158.8459922451
 11
134.4638231768
 21
158.9923462064
  0
LINE
  5
360
100
AcDbEntity
  8
RACCORDO
100
AcDbLine
 62
253
  6
CONTINUOUS
 10
135.9337939986
 20
157.6394454172
 11
135.900445515
 21
157.7189007306
  0
LWPOLYLINE
  5
361
100
AcDbEntity
  8
RACCORDO
100
AcDbPolyline
 62
253
  6
CONTINUOUS
 90
5
 70
0
 10
147.4876659393
 20
144.3684591252
 10
147.5666789191
 20
143.8962598567
 10
147.6439733471
 20
143.4104932476
 10
147.7196094476
 20
142.9117346724
 10
147.7936911942
 20
142.3990110236
  0
LWPOLYLINE
  5
362
100
AcDbEntity
  8
RACCORDO
100
AcDbPolyline
 62
253
  6
CONTINUOUS
 90
17
 70
0
 10
147.7936911942
 20
142.3990110236
 10
147.8652248158
 20
141.8778845685
 10
147.9337436027
 20
141.3494671665
 10
147.9989244653
 20
140.8124166469
 10
148.0598867037
 20
140.268687931
 10
148.1158369725
 20
139.718407296
 10
148.1658309616
 20
139.1613615599
 10
148.2086011411
 20
138.5990518213
 10
148.242970131
 20
138.0295183628
 10
148.2673477981
 20
137.4548138218
 10
148.2799542366
 20
136.8825450435
 10
148.2791971773
 20
136.3117008791
 10
148.2636273864
 20
135.7436844308
 10
148.2326702539
 20
135.1898157734
 10
148.1859336088
 20
134.6540654146
 10
148.1222686278
 20
134.1330554622
 10
148.0407494335
 20
133.6271202281
  0
LWPOLYLINE
  5
363
100
AcDbEntity
  8
RACCORDO
100
AcDbPolyline
 62
7
  6
CONTINUOUS
 90
3
 70
0
 10
114.6988226573
 20
131.4531388035
 10
114.6907048556
 20
131.451127098
 10
114.6890333177
 20
131.4503575198
  0
LWPOLYLINE
  5
364
100
AcDbEntity
  8
RACCORDO
100
AcDbPolyline
 62
253
  6
CONTINUOUS
 90
20
 70
0
 10
124.9019469306
 20
154.4346909153
 10
124.9682156736
 20
154.3591344625
 10
125.0363931459
 20
154.2866437537
 10
125.1060241669
 20
154.2172582414
 10
125.1767349194
 20
154.1509351852
 10
125.2480890698
 20
154.0876950536
 10
125.3198141719
 20
154.027419461
 10
125.3918349242
 20
153.9698579473
 10
125.4638486743
 20
153.9149733522
 10
125.5356011722
 20
153.862698565
 10
125.6071660158
 20
153.8127514705
 10
125.6783264119
 20
153.7650829281
 10
125.7488735595
 20
153.7196438708
 10
125.8189617792
 20
153.6761689507
 10
125.8884165431
 20
153.6346208994
 10
125.957090274
 20
153.594949888
 10
126.025236944
 20
153.5568897839
 10
126.092872612
 20
153.5203325203
 10
126.1597496818
 20
153.4853171557
 10
126.2257578025
 20
153.4518074204
  0
LWPOLYLINE
  5
365
100
AcDbEntity
  8
0
100
AcDbPolyline
 62
7
  6
CONTINUOUS
 90
3
 70
0
 10
134.4610772354
 20
157.9521173238
 10
134.419328981
 20
158.0302373178
 10
134.3112176273
 20
158.1815823718
  0
LWPOLYLINE
  5
366
100
AcDbEntity
  8
RACCORDO
100
AcDbPolyline
 62
253
  6
CONTINUOUS
 90
10
 70
0
 10
148.0407297895
 20
133.6271215345
 10
148.0163260755
 20
133.6835024964
 10
147.9810305888
 20
133.7401304881
 10
147.9351521846
 20
133.7965098825
 10
147.8790923489
 20
133.852147225
 10
147.8133416818
 20
133.906555548
 10
147.7384756033
 20
133.9592586331
 10
147.6551493244
 20
134.0097951854
 10
147.5640921142
 20
134.0577228715
 10
147.4661009139
 20
134.1026221861
  0
LWPOLYLINE
  5
367
100
AcDbEntity
  8
RACCORDO
100
AcDbPolyline
 62
253
  6
CONTINUOUS
 90
10
 70
0
 10
147.8518276608
 20
132.760566514
 10
147.8259289025
 20
132.8252718111
 10
147.7892630656
 20
132.891750789
 10
147.7420051426
 20
132.9587685789
 10
147.6844715512
 20
133.0244151505
 10
147.6172200899
 20
133.0881055645
 10
147.5408875458
 20
133.1505783601
 10
147.4561151173
 20
133.2112620083
 10
147.3636940385
 20
133.2683197683
 10
147.2645503142
 20
133.320633061
  0
LWPOLYLINE
  5
368
100
AcDbEntity
  8
ASSI
100
AcDbPolyline
 62
7
  6
CONTINUOUS
 90
10
 70
0
 10
145.1980699906
 20
154.1303196846
 10
145.7638855236
 20
152.1821806141
 10
146.2827949518
 20
150.2001632258
 10
146.7529532365
 20
148.1859892733
 10
147.1732747684
 20
146.1378071985
 10
147.5411427509
 20
144.0611137827
 10
147.8533985422
 20
141.968985389
 10
148.1089645301
 20
139.8673422933
 10
148.3078585707
 20
137.7547144136
 10
148.4422141186
 20
135.7697748508
  0
LWPOLYLINE
  5
369
100
AcDbEntity
  8
RACCORDO
100
AcDbPolyline
 62
253
  6
CONTINUOUS
 90
16
 70
0
 10
120.1591134882
 20
147.7969779935
 10
120.7204183853
 20
147.5306618468
 10
121.3136815309
 20
147.2774601316
 10
121.9378856641
 20
147.0384533046
 10
122.592543636
 20
146.8144928624
 10
123.2757013452
 20
146.6068922601
 10
123.9837085128
 20
146.4172345417
 10
124.71475018
 20
146.2463549972
 10
125.466915714
 20
146.0950415199
 10
126.2358845483
 20
145.9643923356
 10
127.0191745987
 20
145.8549397758
 10
127.8146932515
 20
145.7670851782
 10
128.618401633
 20
145.7013209714
 10
129.427290197
 20
145.6578455112
 10
130.2394471528
 20
145.6367140321
 10
131.0524007194
 20
145.6379664143
  0
LWPOLYLINE
  5
36A
100
AcDbEntity
  8
RACCORDO
100
AcDbPolyline
 62
253
  6
CONTINUOUS
 90
61
 70
0
 10
121.8360426076
 20
150.53627978
 10
122.307199186
 20
150.3127353122
 10
122.8051813615
 20
150.100199034
 10
123.3291352504
 20
149.8995778753
 10
123.8786519421
 20
149.7115865783
 10
124.4520911736
 20
149.5373276506
 10
125.0463889185
 20
149.3781298917
 10
125.6600217095
 20
149.2346944399
 10
126.2913857708
 20
149.107682649
 10
126.9368544398
 20
148.9980163643
 10
127.5943442675
 20
148.9061424222
 10
128.2620987241
 20
148.8323977038
 10
128.9367275988
 20
148.7771955511
 10
129.6157046933
 20
148.740702463
 10
130.2974252598
 20
148.722964803
 10
130.9798144975
 20
148.7240160465
 10
131.6603795037
 20
148.7438141053
 10
132.3374900409
 20
148.7822732646
 10
133.0103535379
 20
148.8393805607
 10
133.6778274333
 20
148.9151647091
 10
134.3368925013
 20
149.0094102288
 10
134.9839960805
 20
149.121628616
 10
135.6163482686
 20
149.2512456595
 10
136.2329432042
 20
149.3979629965
 10
136.8329685991
 20
149.5615891157
 10
137.4152298928
 20
149.7418937832
 10
137.9771731549
 20
149.9381849078
 10
138.5160548832
 20
150.1495021769
 10
139.0296705331
 20
150.3748680723
 10
139.5172153174
 20
150.6138113004
 10
139.9781373746
 20
150.8660618319
 10
140.4114898924
 20
151.1312353719
 10
140.8152585647
 20
151.4082422459
 10
141.1874347337
 20
151.6957038628
 10
141.5265623253
 20
151.9923281236
 10
141.8321999113
 20
152.2975458173
 10
142.1040019264
 20
152.6110093196
 10
142.3413192736
 20
152.9321907192
 10
142.542968134
 20
153.2597414906
 10
142.707961669
 20
153.5920603704
 10
142.8357594734
 20
153.9276975808
 10
142.9263036293
 20
154.2660361414
 10
142.9794874941
 20
154.6066975243
 10
142.9950225611
 20
154.9500109636
 10
142.9724602225
 20
155.2935707979
 10
142.9125473544
 20
155.6329154402
 10
142.816199858
 20
155.9678694457
 10
142.6848022625
 20
156.2966900937
 10
142.5229385272
 20
156.6128599561
 10
142.3351523996
 20
156.9138615846
 10
142.123603358
 20
157.201371396
 10
141.8909460767
 20
157.475535873
 10
141.6394754887
 20
157.7366958231
 10
141.3723066369
 20
157.9842814807
 10
141.093350829
 20
158.2172861202
 10
140.8044209057
 20
158.436591624
 10
140.5089155532
 20
158.6417774262
 10
140.2139173852
 20
158.8303438095
 10
139.9239405272
 20
159.0020445491
 10
139.6401278069
 20
159.1585773619
 10
139.3648484224
 20
159.3006826874
  0
LINE
  5
36B
100
AcDbEntity
  8
RACCORDO
100
AcDbLine
 62
7
  6
CONTINUOUS
 10
140.0970199591
 20
137.2154565318
 11
140.0997455207
 21
137.2141272552
  0
LWPOLYLINE
  5
36C
100
AcDbEntity
  8
RACCORDO
100
AcDbPolyline
 62
253
  6
CONTINUOUS
 90
34
 70
0
 10
140.0997455207
 20
137.2141272552
 10
140.1681276473
 20
137.1788349752
 10
140.3081058043
 20
137.0945670109
 10
140.4445659038
 20
136.9960534695
 10
140.5770024872
 20
136.8838780345
 10
140.7051588311
 20
136.7585111356
 10
140.8296820102
 20
136.6196811618
 10
140.9502487148
 20
136.4678011864
 10
141.0664220045
 20
136.303477156
 10
141.1785313754
 20
136.12655508
 10
141.2861811731
 20
135.9377254948
 10
141.3890717921
 20
135.7374829755
 10
141.4874608823
 20
135.5252340219
 10
141.5811950183
 20
135.3012238154
 10
141.6695666252
 20
135.0665190849
 10
141.7518219632
 20
134.8217176952
 10
141.8282036457
 20
134.5667079757
 10
141.8977481612
 20
134.3034075424
 10
141.9581761414
 20
134.0356358331
 10
142.0100436117
 20
133.7641229829
 10
142.0530487257
 20
133.4905271535
 10
142.0843176533
 20
133.2201617202
 10
142.1045698014
 20
132.9538277542
 10
142.1143551118
 20
132.6930492469
 10
142.1113354564
 20
132.4439537916
 10
142.09623232
 20
132.2081063059
 10
142.0704857276
 20
131.9852698945
 10
142.033320544
 20
131.7783514335
 10
141.9854937688
 20
131.5884878358
 10
141.9283190098
 20
131.4147062975
 10
141.8618213891
 20
131.2565100175
 10
141.7864742961
 20
131.1136864949
 10
141.7032580608
 20
130.9862064527
 10
141.6128016235
 20
130.8738126653
  0
LWPOLYLINE
  5
36D
100
AcDbEntity
  8
RACCORDO
100
AcDbPolyline
 62
253
  6
CONTINUOUS
 90
6
 70
0
 10
126.477474113
 20
157.5731721869
 10
126.6243431157
 20
157.4210768195
 10
126.7921679372
 20
157.2758143434
 10
126.9800580364
 20
157.1382405984
 10
127.1889039544
 20
157.0074997449
 10
127.4187056912
 20
156.8835917827
  0
LWPOLYLINE
  5
36E
100
AcDbEntity
  8
RACCORDO
100
AcDbPolyline
 62
253
  6
CONTINUOUS
 90
3
 70
0
 10
134.9170039343
 20
159.111180102
 10
134.8395072965
 20
159.2288143423
 10
134.7540276039
 20
159.34016312
  0
LWPOLYLINE
  5
36F
100
AcDbEntity
  8
0
100
AcDbPolyline
 62
7
  6
CONTINUOUS
 90
8
 70
0
 10
134.4638231768
 20
158.9923462064
 10
134.3759788362
 20
159.1350198185
 10
134.2667472229
 20
159.2739515655
 10
134.1364799423
 20
159.4092029632
 10
133.9873423119
 20
159.5385258477
 10
133.8200561043
 20
159.6611708308
 10
133.6338995469
 20
159.7778873005
 10
133.4288726398
 20
159.888675257
  0
LWPOLYLINE
  5
370
100
AcDbEntity
  8
RACCORDO
100
AcDbPolyline
 62
253
  6
CONTINUOUS
 90
31
 70
0
 10
131.8631810167
 20
145.6615525169
 10
132.6698458874
 20
145.7073702246
 10
133.4714511142
 20
145.7754040938
 10
134.2666355249
 20
145.8656883338
 10
135.0518022129
 20
145.9779662349
 10
135.8227187713
 20
146.1116558259
 10
136.5760614945
 20
146.2660730295
 10
137.3106320656
 20
146.4408623957
 10
138.0254627778
 20
146.6357957708
 10
138.7191305106
 20
146.8505988691
 10
139.3885926796
 20
147.0844471789
 10
140.0305808569
 20
147.3361966469
 10
140.6424686936
 20
147.6046827225
 10
141.2232974192
 20
147.8893439374
 10
141.7724095821
 20
148.1898585966
 10
142.2886772128
 20
148.5057688766
 10
142.7697005995
 20
148.8357766108
 10
143.2130867598
 20
149.1782394366
 10
143.6171010231
 20
149.5316180327
 10
143.9812175008
 20
149.8952342784
 10
144.305024509
 20
150.2686740369
 10
144.5877487567
 20
150.6513083897
 10
144.8279799198
 20
151.0415307923
 10
145.0245423439
 20
151.437433605
 10
145.1767922258
 20
151.8372896581
 10
145.284660566
 20
152.2403639218
 10
145.3480203176
 20
152.6462054429
 10
145.3665277726
 20
153.0552064492
 10
145.3396484893
 20
153.4645009943
 10
145.2682722468
 20
153.8687738374
 10
145.1980699906
 20
154.1303196846
  0
LINE
  5
371
100
AcDbEntity
  8
RACCORDO
100
AcDbLine
 62
253
  6
CONTINUOUS
 10
131.0524007194
 20
145.6379664143
 11
131.8631810167
 21
145.6615525169
  0
LWPOLYLINE
  5
372
100
AcDbEntity
  8
RACCORDO
100
AcDbPolyline
 62
253
  6
CONTINUOUS
 90
58
 70
0
 10
126.2257578025
 20
153.4518074204
 10
126.2895393962
 20
153.4203749473
 10
126.3560133856
 20
153.3885635166
 10
126.4252409252
 20
153.3564198098
 10
126.4971352781
 20
153.3240578518
 10
126.5718991785
 20
153.2914609447
 10
126.6500453549
 20
153.2584936081
 10
126.7316623774
 20
153.2252176509
 10
126.8168128769
 20
153.1917082628
 10
126.9060048507
 20
153.1578767381
 10
126.9993252021
 20
153.1238124498
 10
127.0968616387
 20
153.0896079261
 10
127.1991553564
 20
153.0552099837
 10
127.3063287634
 20
153.0207271327
 10
127.4184504481
 20
152.9862899649
 10
127.5360075893
 20
152.9519126678
 10
127.6592950658
 20
152.9176893901
 10
127.7882078391
 20
152.8838334901
 10
127.9226297972
 20
152.8505544904
 10
128.062734007
 20
152.8179899259
 10
128.208463269
 20
152.7863366096
 10
128.3593141386
 20
152.755875565
 10
128.5146989442
 20
152.7268735423
 10
128.6751962791
 20
152.6993723503
 10
128.8420490043
 20
152.673353455
 10
129.0152441604
 20
152.6490458508
 10
129.1947644088
 20
152.6266836091
 10
129.3818774673
 20
152.6063770896
 10
129.5769816485
 20
152.588401087
 10
129.7795437053
 20
152.5731316508
 10
129.9894101471
 20
152.5609041722
 10
130.2073158808
 20
152.5520314922
 10
130.4321462521
 20
152.5469247114
 10
130.6608917956
 20
152.5459275775
 10
130.8926203893
 20
152.5492314149
 10
131.1276180291
 20
152.5570304847
 10
131.3646498694
 20
152.5694698246
 10
131.6027046177
 20
152.5866415774
 10
131.8420069964
 20
152.6087094668
 10
132.0831249989
 20
152.635926064
 10
132.3240804855
 20
152.6682563083
 10
132.5658823926
 20
152.7060282378
 10
132.8132968408
 20
152.7504199732
 10
133.0659695818
 20
152.8020323049
 10
133.3224102964
 20
152.8612612098
 10
133.5850761889
 20
152.9295496037
 10
133.8540514071
 20
153.0080947463
 10
134.1259443852
 20
153.0971715914
 10
134.3976050362
 20
153.1969512063
 10
134.6695842466
 20
153.3090281497
 10
134.9369419057
 20
153.4328770293
 10
135.1895400284
 20
153.564543078
 10
135.4266201634
 20
153.7037040785
 10
135.647096086
 20
153.8498006138
 10
135.8435455925
 20
153.9970728116
 10
136.0151082749
 20
154.1427211612
 10
136.1652700256
 20
154.2874381663
 10
136.2951122529
 20
154.4301686559
  0
LWPOLYLINE
  5
373
100
AcDbEntity
  8
RACCORDO
100
AcDbPolyline
 62
253
  6
CONTINUOUS
 90
68
 70
0
 10
126.3224494888
 20
153.6295487151
 10
126.3848213477
 20
153.5988109793
 10
126.4498260935
 20
153.5677026619
 10
126.517523529
 20
153.5362694125
 10
126.5878288344
 20
153.5046227358
 10
126.6609402632
 20
153.4727463029
 10
126.737359211
 20
153.440507628
 10
126.8171722904
 20
153.4079671538
 10
126.9004407481
 20
153.3751984081
 10
126.9876613532
 20
153.3421146459
 10
127.0789190882
 20
153.3088032647
 10
127.1742997224
 20
153.2753547476
 10
127.2743324897
 20
153.241717087
 10
127.3791370927
 20
153.2079963944
 10
127.488780604
 20
153.1743203752
 10
127.6037394344
 20
153.1407029036
 10
127.7243019452
 20
153.1072360471
 10
127.8503654195
 20
153.0741284483
 10
127.9818163116
 20
153.0415849988
 10
128.1188238634
 20
153.0097401938
 10
128.2613321392
 20
152.9787864959
 10
128.4088488223
 20
152.9489987176
 10
128.5607992299
 20
152.9206377132
 10
128.7177491669
 20
152.8937443671
 10
128.8809140239
 20
152.8683005554
 10
129.0502811282
 20
152.8445302109
 10
129.2258335241
 20
152.8226622314
 10
129.4088109097
 20
152.8028045375
 10
129.599602794
 20
152.7852258501
 10
129.7976877159
 20
152.7702939071
 10
130.0029155775
 20
152.7583366868
 10
130.2160050421
 20
152.7496601154
 10
130.4358660923
 20
152.7446662075
 10
130.6595557796
 20
152.7436911128
 10
130.886162584
 20
152.746921927
 10
131.1159661804
 20
152.7545486176
 10
131.3477590163
 20
152.7667130165
 10
131.5805521512
 20
152.7835052301
 10
131.8145653408
 20
152.8050853632
 10
132.0503540243
 20
152.8317004046
 10
132.285983784
 20
152.8633160685
 10
132.5224412561
 20
152.9002531427
 10
132.7643872178
 20
152.9436637082
 10
133.0114752509
 20
152.9941352765
 10
133.2622479757
 20
153.0520550726
 10
133.5191082863
 20
153.1188341199
 10
133.7821384704
 20
153.1956432158
 10
134.0480219245
 20
153.2827512368
 10
134.3136781866
 20
153.3803254693
 10
134.5796459672
 20
153.4899252282
 10
134.8410943443
 20
153.6110367336
 10
135.0881094083
 20
153.7397926289
 10
135.3199494714
 20
153.8758778186
 10
135.5355523173
 20
154.0187452502
 10
135.7276597919
 20
154.1627623592
 10
135.8954305041
 20
154.3051915111
 10
136.0422732995
 20
154.4467099036
 10
136.1692456845
 20
154.5862856876
 10
136.2771090631
 20
154.7223642678
 10
136.3680101818
 20
154.8550783634
 10
136.4445821193
 20
154.986151791
 10
136.5078785972
 20
155.1157193429
 10
136.5583983332
 20
155.2428809084
 10
136.59717313
 20
155.3679977577
 10
136.6249383618
 20
155.4910643238
 10
136.6422933026
 20
155.6115632012
 10
136.6499324186
 20
155.7291506523
 10
136.650445515
 20
155.7685467282
  0
LINE
  5
374
100
AcDbEntity
  8
RACCORDO
100
AcDbLine
 62
7
  6
CONTINUOUS
 10
135.8441760555
 20
158.2371549083
 11
135.9920036139
 21
158.0859188043
  0
LINE
  5
375
100
AcDbEntity
  8
0
100
AcDbLine
 62
7
  6
CONTINUOUS
 10
134.3112176273
 20
158.1815823718
 11
134.1784463151
 21
158.3290852488
  0
LWPOLYLINE
  5
376
100
AcDbEntity
  8
RACCORDO
100
AcDbPolyline
 62
253
  6
CONTINUOUS
 90
6
 70
0
 10
134.7540276039
 20
159.34016312
 10
134.660758081
 20
159.4450321157
 10
134.5595055034
 20
159.5436156487
 10
134.4544128258
 20
159.6360270143
 10
134.3456768194
 20
159.722123614
 10
134.2331007131
 20
159.8020480463
  0
LWPOLYLINE
  5
377
100
AcDbEntity
  8
RACCORDO
100
AcDbPolyline
 62
7
  6
CONTINUOUS
 90
8
 70
0
 10
135.9920036139
 20
158.0859188043
 10
136.1730310584
 20
157.8629500373
 10
136.3225723489
 20
157.6371880443
 10
136.4429618699
 20
157.4081695518
 10
136.535183969
 20
157.1767632476
 10
136.5999378981
 20
156.9444273009
 10
136.638012404
 20
156.7129434427
 10
136.650445515
 20
156.4839577585
  0
LWPOLYLINE
  5
378
100
AcDbEntity
  8
0
100
AcDbPolyline
 62
7
  6
CONTINUOUS
 90
33
 70
0
 10
127.7720183903
 20
157.0602481323
 10
127.9935943032
 20
156.9577346787
 10
128.2270272428
 20
156.8646564
 10
128.4723172089
 20
156.7810132962
 10
128.7309629778
 20
156.706444481
 10
129.0014657733
 20
156.6413108407
 10
129.2793292672
 20
156.586695034
 10
129.5646764914
 20
156.5427728637
 10
129.857384414
 20
156.5093685271
 10
130.1525876106
 20
156.4870372749
 10
130.4503277889
 20
156.4759641905
 10
130.7505632411
 20
156.4759641905
 10
131.0483034194
 20
156.4870372749
 10
131.343506616
 20
156.5093685271
 10
131.6362145386
 20
156.5427728637
 10
131.9215617628
 20
156.586695034
 10
132.1994252567
 20
156.6413108407
 10
132.4699280522
 20
156.706444481
 10
132.7285738211
 20
156.7810132962
 10
132.9751643764
 20
156.8651749926
 10
133.2098979051
 20
156.9587718639
 10
133.4288726398
 20
157.0602481323
 10
133.6318251764
 20
157.1697354996
 10
133.8190189191
 20
157.2871022639
 10
133.9873423119
 20
157.4103975416
 10
134.1364799423
 20
157.539720426
 10
134.2667472229
 20
157.6749718238
 10
134.3759788362
 20
157.8139035707
 10
134.4638231768
 20
157.9565771829
 10
134.53063185
 20
158.1029311442
 10
134.5752943546
 20
158.2505327424
 10
134.5974405233
 20
158.3994028316
 10
134.6002087944
 20
158.4744616946
  0
LWPOLYLINE
  5
379
100
AcDbEntity
  8
RACCORDO
100
AcDbPolyline
 62
253
  6
CONTINUOUS
 90
33
 70
0
 10
126.7690432454
 20
155.2455495896
 10
127.0324264877
 20
155.1223461825
 10
127.3116823384
 20
155.0081527546
 10
127.6055829471
 20
154.9034816429
 10
127.9126424565
 20
154.8088582497
 10
128.2316839524
 20
154.7246416379
 10
128.5619140259
 20
154.6510875788
 10
128.9024353167
 20
154.5885066607
 10
129.251287329
 20
154.5373672051
 10
129.6060015677
 20
154.4980586576
 10
129.9644981425
 20
154.4707648184
 10
130.3256288326
 20
154.4555270461
 10
130.6882551566
 20
154.452395977
 10
131.0510952695
 20
154.4614265866
 10
131.412172794
 20
154.4826136863
 10
131.7693204169
 20
154.5158292946
 10
132.1205694734
 20
154.560841629
 10
132.4647459256
 20
154.6174508757
 10
132.800894629
 20
154.6855028375
 10
133.1278714409
 20
154.7648260494
 10
133.4437648888
 20
154.8550188605
 10
133.7465531413
 20
154.95550292
 10
134.0345394494
 20
155.0656430827
 10
134.3068895386
 20
155.1850448013
 10
134.5629505394
 20
155.3134249321
 10
134.8018494513
 20
155.4504401221
 10
135.0220676216
 20
155.5953209168
 10
135.2221223145
 20
155.7470910566
 10
135.4009173647
 20
155.9047917395
 10
135.5580539448
 20
156.0679294816
 10
135.6932112567
 20
156.2361799429
 10
135.8058973474
 20
156.4091606493
 10
135.8952143855
 20
156.5857706397
  0
LWPOLYLINE
  5
37A
100
AcDbEntity
  8
RACCORDO
100
AcDbPolyline
 62
253
  6
CONTINUOUS
 90
37
 70
0
 10
126.8527795747
 20
155.4144101854
 10
127.1104065053
 20
155.293899422
 10
127.3835591441
 20
155.1822017222
 10
127.6710364758
 20
155.0798182259
 10
127.9713851168
 20
154.9872628524
 10
128.2834538749
 20
154.9048868174
 10
128.6064666811
 20
154.8329403021
 10
128.9395457873
 20
154.7717271068
 10
129.2807735449
 20
154.7217053178
 10
129.6277354082
 20
154.6832558692
 10
129.9783969437
 20
154.6565585442
 10
130.3316350252
 20
154.6416537975
 10
130.6863360532
 20
154.6385911588
 10
131.0412461977
 20
154.647424402
 10
131.3944322755
 20
154.6681484519
 10
131.7437743408
 20
154.7006381241
 10
132.0873467545
 20
154.7446667019
 10
132.4240011376
 20
154.8000387382
 10
132.7528032205
 20
154.866603406
 10
133.072633866
 20
154.9441929878
 10
133.3816233775
 20
155.0324146106
 10
133.6777941111
 20
155.130702564
 10
133.9594864009
 20
155.2384355837
 10
134.2258842054
 20
155.3552277455
 10
134.476348924
 20
155.480802094
 10
134.7100266357
 20
155.6148227801
 10
134.9254318787
 20
155.756537166
 10
135.1211143223
 20
155.9049903285
 10
135.2960017585
 20
156.0592444204
 10
135.4497040763
 20
156.2188167432
 10
135.5819074887
 20
156.3833900453
 10
135.6921307944
 20
156.5525902117
 10
135.7794957846
 20
156.7253403432
 10
135.8433275937
 20
156.900239448
 10
135.8837094293
 20
157.0778135881
 10
135.9000518379
 20
157.255944464
 10
135.900445515
 20
157.2882431556
  0
LWPOLYLINE
  5
37B
100
AcDbEntity
  8
RACCORDO
100
AcDbPolyline
 62
253
  6
CONTINUOUS
 90
47
 70
0
 10
126.3224494888
 20
154.3449597454
 10
126.5308177893
 20
154.2456196376
 10
126.7484092952
 20
154.1513456518
 10
126.9747320588
 20
154.0623517865
 10
127.2092854385
 20
153.9788363375
 10
127.4515284664
 20
153.9009933074
 10
127.7008775777
 20
153.8290092761
 10
127.9567192221
 20
153.7630566537
 10
128.2185164207
 20
153.7032692741
 10
128.485782445
 20
153.6497603368
 10
128.7579946214
 20
153.6026440518
 10
129.0344643557
 20
153.562049007
 10
129.3144397244
 20
153.5280869432
 10
129.5972416267
 20
153.5008351513
 10
129.8822696478
 20
153.4803464561
 10
130.1688756338
 20
153.4666639612
 10
130.4563581226
 20
153.45981578
 10
130.7441175723
 20
153.4598108399
 10
131.0316563604
 20
153.4666511281
 10
131.3184322133
 20
153.4803351498
 10
131.603683348
 20
153.5008380052
 10
131.8865876692
 20
153.5281017759
 10
132.1664337491
 20
153.5620499549
 10
132.4426633213
 20
153.6026067926
 10
132.7146970927
 20
153.6496835892
 10
132.9818952573
 20
153.7031666334
 10
133.2436805298
 20
153.7629373315
 10
133.4995746609
 20
153.8288894827
 10
133.7490834016
 20
153.9009082304
 10
133.9915368775
 20
153.9788130835
 10
134.2262212902
 20
154.0623751134
 10
134.4525374698
 20
154.151368662
 10
134.6700610867
 20
154.2456141131
 10
134.8783760672
 20
154.3449270089
 10
135.0770130028
 20
154.4490840814
 10
135.2655192293
 20
154.557848517
 10
135.4435184905
 20
154.6710082174
 10
135.6106495166
 20
154.7883490284
 10
135.7664641863
 20
154.9095728716
 10
135.9105061191
 20
155.0343236339
 10
136.0424135566
 20
155.1622652985
 10
136.1619582227
 20
155.2931516868
 10
136.2689311099
 20
155.4267478621
 10
136.3630963843
 20
155.5627689941
 10
136.4442226317
 20
155.7008918273
 10
136.5121284979
 20
155.8408200768
 10
136.5666620201
 20
155.982270452
  0
LWPOLYLINE
  5
37C
100
AcDbEntity
  8
RACCORDO
100
AcDbPolyline
 62
253
  6
CONTINUOUS
 90
38
 70
0
 10
126.8527795747
 20
155.9078084015
 10
126.9952707305
 20
155.839174205
 10
127.1511147772
 20
155.7696698595
 10
127.3209322336
 20
155.6998877456
 10
127.5054018907
 20
155.6304379315
 10
127.7049367904
 20
155.5620676949
 10
127.9196341797
 20
155.4956377307
 10
128.1498140626
 20
155.4319389711
 10
128.3956591059
 20
155.3718220376
 10
128.6568314191
 20
155.3162628892
 10
128.9332478996
 20
155.2661666594
 10
129.2246042941
 20
155.2224881457
 10
129.5299294679
 20
155.1862610819
 10
129.8488795214
 20
155.1584206147
 10
130.1802409175
 20
155.139983365
 10
130.5213695532
 20
155.1319363412
 10
130.8720387868
 20
155.1351230411
 10
131.2295674758
 20
155.1503771527
 10
131.5873736042
 20
155.1779913881
 10
131.9435425149
 20
155.2181432514
 10
132.2963859925
 20
155.2709748318
 10
132.6399100447
 20
155.3356965423
 10
132.9711842317
 20
155.4115359975
 10
133.2902009827
 20
155.4982658263
 10
133.5957158469
 20
155.5954142769
 10
133.8861354902
 20
155.7023240926
 10
134.1605554438
 20
155.8185050229
 10
134.4187173581
 20
155.9437893555
 10
134.6594574585
 20
156.0776444494
 10
134.8815765661
 20
156.2194380459
 10
135.0845542999
 20
156.3689517024
 10
135.2675608322
 20
156.5258513198
 10
135.4291331203
 20
156.6891927446
 10
135.5679419032
 20
156.85779349
 10
135.6837019341
 20
157.0315573467
 10
135.7752241976
 20
157.2090015227
 10
135.8412387155
 20
157.3866456026
 10
135.8824386642
 20
157.5633821385
  0
LWPOLYLINE
  5
37D
100
AcDbEntity
  8
RACCORDO
100
AcDbPolyline
 62
253
  6
CONTINUOUS
 90
33
 70
0
 10
127.4171427111
 20
156.8828102927
 10
127.5376902844
 20
156.8240057372
 10
127.6704554557
 20
156.7654482538
 10
127.815438225
 20
156.7071378424
 10
127.9723549746
 20
156.6483752775
 10
128.1414893222
 20
156.5898597846
 10
128.3236921207
 20
156.5336890404
 10
128.5193282973
 20
156.4797916864
 10
128.7280329248
 20
156.4282390811
 10
128.9495620747
 20
156.3813429769
 10
129.1843875442
 20
156.3390465199
 10
129.4320375361
 20
156.301406564
 10
129.6908527303
 20
156.2709054232
 10
129.9616554101
 20
156.2475936418
 10
130.2436232923
 20
156.2314206754
 10
130.5326302065
 20
156.2247172045
 10
130.8300664841
 20
156.227904776
 10
131.1345417937
 20
156.2405618429
 10
131.4377589704
 20
156.2637544448
 10
131.7395725858
 20
156.2981401567
 10
132.0401280684
 20
156.3430614036
 10
132.3315645387
 20
156.3976114999
 10
132.6123987996
 20
156.4619083019
 10
132.8841140482
 20
156.5358339534
 10
133.1432989966
 20
156.6181282001
 10
133.3895842475
 20
156.7087448155
 10
133.6233391982
 20
156.8077300261
 10
133.8422607518
 20
156.9139622577
 10
134.0463770282
 20
157.0274806501
 10
134.2356599075
 20
157.1482460634
 10
134.4077219332
 20
157.2750195039
 10
134.5626362363
 20
157.4081330409
 10
134.7003296858
 20
157.547254605
  0
LINE
  5
37E
100
AcDbEntity
  8
DRAFT
100
AcDbLine
 62
7
  6
CONTINUOUS
 10
131.0567676236
 20
156.487677567
 11
129.8647023584
 21
157.0937450874
  0
LINE
  5
37F
100
AcDbEntity
  8
RACCORDO
100
AcDbLine
 62
7
  6
CONTINUOUS
 10
126.5832116318
 20
155.4468525111
 11
126.8262969655
 21
155.3158612843
  0
LWPOLYLINE
  5
380
100
AcDbEntity
  8
0
100
AcDbPolyline
 62
7
  6
CONTINUOUS
 90
11
 70
0
 10
127.7720183903
 20
157.0602481323
 10
127.5516813368
 20
157.1800794895
 10
127.353448682
 20
157.3065921342
 10
127.1773204258
 20
157.4397860663
 10
127.022444715
 20
157.5806076559
 10
126.8896734027
 20
157.728110533
 10
126.781562049
 20
157.8794555869
 10
126.6985883694
 20
158.0347172489
 10
126.6402746482
 20
158.1938210878
 10
126.6077432981
 20
158.3537046998
 10
126.6006243749
 20
158.4740190689
  0
LWPOLYLINE
  5
381
100
AcDbEntity
  8
RACCORDO
100
AcDbPolyline
 62
253
  6
CONTINUOUS
 90
35
 70
0
 10
145.5598893477
 20
147.3664611217
 10
145.7306161904
 20
147.2644606957
 10
145.8868554777
 20
147.1369189785
 10
146.0294414101
 20
146.9829005434
 10
146.1614433053
 20
146.8043043468
 10
146.283967791
 20
146.6009451818
 10
146.3975694629
 20
146.3723085963
 10
146.5042309254
 20
146.1201375496
 10
146.6048682847
 20
145.8445618572
 10
146.7000250548
 20
145.5452920798
 10
146.7908739424
 20
145.2237310873
 10
146.8782861616
 20
144.8796697176
 10
146.9626784919
 20
144.5136134128
 10
147.044161293
 20
144.1283565006
 10
147.1230808631
 20
143.7236197011
 10
147.1998134833
 20
143.300571562
 10
147.2737644102
 20
142.8646027564
 10
147.3444577727
 20
142.4172586882
 10
147.4119525942
 20
141.9584548755
 10
147.4757514322
 20
141.491407409
 10
147.5354806603
 20
141.0178707567
 10
147.5905911199
 20
140.5375624959
 10
147.6401124279
 20
140.0506627964
 10
147.6839967111
 20
139.5578242718
 10
147.7214152053
 20
139.059668851
 10
147.7502114115
 20
138.5562848929
 10
147.7699462993
 20
138.0462000282
 10
147.7801873628
 20
137.5319927833
 10
147.7783687076
 20
137.0197271849
 10
147.7625552573
 20
136.508265807
 10
147.7330481719
 20
135.9994571926
 10
147.6897842198
 20
135.5035400792
 10
147.6317490663
 20
135.0238311715
 10
147.5575322444
 20
134.5569072946
 10
147.4660998339
 20
134.102621578
  0
LWPOLYLINE
  5
382
100
AcDbEntity
  8
RACCORDO
100
AcDbPolyline
 62
253
  6
CONTINUOUS
 90
15
 70
0
 10
145.9857887608
 20
148.4065481352
 10
146.1522310528
 20
148.2954612809
 10
146.3029496495
 20
148.1556703279
 10
146.4402488408
 20
147.986460355
 10
146.5657431027
 20
147.7898089877
 10
146.6813739056
 20
147.5652154243
 10
146.7888090637
 20
147.3122959255
 10
146.8890710217
 20
147.033243288
 10
146.9836738504
 20
146.7276716013
 10
147.0739591891
 20
146.3952425489
 10
147.1605801216
 20
146.0382379837
 10
147.2447558712
 20
145.6556606678
 10
147.3272474793
 20
145.247890096
 10
147.4079414218
 20
144.8192896017
 10
147.4876659393
 20
144.3684591252
  0
LWPOLYLINE
  5
383
100
AcDbEntity
  8
0
100
AcDbPolyline
 62
7
  6
CONTINUOUS
 90
5
 70
0
 10
134.1784463151
 20
158.3290852488
 10
134.0235706042
 20
158.4699068385
 10
133.847442348
 20
158.6031007705
 10
133.6492096932
 20
158.7296134152
 10
133.4288726398
 20
158.8494447725
  0
LINE
  5
384
100
AcDbEntity
  8
RACCORDO
100
AcDbLine
 62
7
  6
CONTINUOUS
 10
139.5217181879
 20
159.3371326429
 11
139.3648484224
 21
159.3006826874
  0
LWPOLYLINE
  5
385
100
AcDbEntity
  8
RACCORDO
100
AcDbPolyline
 62
7
  6
CONTINUOUS
 90
14
 70
0
 10
128.214235351
 20
156.8697569967
 10
128.2661281165
 20
156.8817206739
 10
128.657930048
 20
156.9560199907
 10
129.0595517017
 20
157.0165881317
 10
129.4689991574
 20
157.0630882508
 10
129.884245241
 20
157.095259159
 10
130.3031058474
 20
157.1129114426
 10
130.7234907799
 20
157.1159475375
 10
131.1433091187
 20
157.1043468521
 10
131.5603635048
 20
157.0781738578
 10
131.972582293
 20
157.0375716186
 10
132.3779076834
 20
156.9827602224
 10
132.7741976513
 20
156.9140590132
 10
132.9849741975
 20
156.8690865282
  0
LWPOLYLINE
  5
386
100
AcDbEntity
  8
RACCORDO
100
AcDbPolyline
 62
253
  6
CONTINUOUS
 90
25
 70
0
 10
133.0853318116
 20
156.9091027916
 10
133.0427479247
 20
156.9189986681
 10
132.8950778604
 20
156.9509564815
 10
132.7412248682
 20
156.9817793337
 10
132.5807936327
 20
157.0113204623
 10
132.4141684344
 20
157.0392798661
 10
132.2409482228
 20
157.0654911901
 10
132.0595366144
 20
157.0899071503
 10
131.8698457882
 20
157.1121999085
 10
131.6720215949
 20
157.1320029968
 10
131.464802811
 20
157.1490499672
 10
131.2475738084
 20
157.162929425
 10
131.021236973
 20
157.1731055313
 10
130.7868795741
 20
157.1790805165
 10
130.5437638157
 20
157.1804033481
 10
130.2933386541
 20
157.1765813956
 10
130.0400704176
 20
157.1673439421
 10
129.7839082575
 20
157.1524538219
 10
129.5259285664
 20
157.1317340093
 10
129.2722090327
 20
157.1056347867
 10
129.023997432
 20
157.0744626973
 10
128.7808357105
 20
157.0383384065
 10
128.5459713374
 20
156.9979956664
 10
128.3204536871
 20
156.953996878
 10
128.1153953128
 20
156.9091681467
  0
LINE
  5
387
100
AcDbEntity
  8
RACCORDO
100
AcDbLine
 62
7
  6
CONTINUOUS
 10
134.1401969067
 20
160.0881733821
 11
133.8159762055
 21
160.2372686647
  0
LINE
  5
388
100
AcDbEntity
  8
RACCORDO
100
AcDbLine
 62
253
  6
CONTINUOUS
 10
133.7821959071
 20
160.0653368907
 11
133.5342500704
 21
160.1802777154
  0
LINE
  5
389
100
AcDbEntity
  8
RACCORDO
100
AcDbLine
 62
253
  6
CONTINUOUS
 10
133.8960160676
 20
160.0083956147
 11
133.7834743391
 21
160.0659761067
  0
LINE
  5
38A
100
AcDbEntity
  8
0
100
AcDbLine
 62
7
  6
CONTINUOUS
 10
134.4362456824
 20
157.9985825186
 11
134.2164023964
 21
158.1173766259
  0
LWPOLYLINE
  5
38B
100
AcDbEntity
  8
RACCORDO
100
AcDbPolyline
 62
7
  6
CONTINUOUS
 90
13
 70
0
 10
134.1401969067
 20
160.0881733821
 10
134.422769671
 20
159.9354430064
 10
134.6820226617
 20
159.7717686552
 10
134.9176955128
 20
159.5976321051
 10
135.1307960685
 20
159.4122088632
 10
135.3193000189
 20
159.217025181
 10
135.4796296786
 20
159.0167945105
 10
135.6115966945
 20
158.814518624
 10
135.7175951278
 20
158.6096599661
 10
135.7988240414
 20
158.4025402749
 10
135.8559181609
 20
158.1943349271
 10
135.8894859926
 20
157.9868628931
 10
135.900445515
 20
157.7816413716
  0
LWPOLYLINE
  5
38C
100
AcDbEntity
  8
RACCORDO
100
AcDbPolyline
 62
253
  6
CONTINUOUS
 90
4
 70
0
 10
134.2331007131
 20
159.8020480463
 10
134.1202371478
 20
159.8763414026
 10
134.0082703372
 20
159.9451840466
 10
133.8960160676
 20
160.0083956147
  0
LINE
  5
38D
100
AcDbEntity
  8
RACCORDO
100
AcDbLine
 62
7
  6
CONTINUOUS
 10
133.9000282925
 20
160.1091569634
 11
133.9569536288
 21
160.1189175648
  0
LINE
  5
38E
100
AcDbEntity
  8
RACCORDO
100
AcDbLine
 62
7
  6
CONTINUOUS
 10
139.5217181879
 20
159.3371326429
 11
139.6749385986
 21
159.3574792762
  0
LINE
  5
38F
100
AcDbEntity
  8
RACCORDO
100
AcDbLine
 62
7
  6
CONTINUOUS
 10
139.674496238
 20
159.3574767273
 11
139.8237194581
 21
159.3617021394
  0
LINE
  5
390
100
AcDbEntity
  8
RACCORDO
100
AcDbLine
 62
7
  6
CONTINUOUS
 10
134.0120961902
 20
160.120428911
 11
133.9563172932
 21
160.1188516672
  0
LINE
  5
391
100
AcDbEntity
  8
RACCORDO
100
AcDbLine
 62
7
  6
CONTINUOUS
 10
139.8234346218
 20
159.3616940548
 11
139.9695017627
 21
159.3495815651
  0
LWPOLYLINE
  5
392
100
AcDbEntity
  8
RACCORDO
100
AcDbPolyline
 62
7
  6
CONTINUOUS
 90
4
 70
0
 10
134.0116313038
 20
160.1203678896
 10
134.0652705607
 20
160.1137789108
 10
134.1151357732
 20
160.0993045716
 10
134.1401982484
 20
160.088176062
  0
LINE
  5
393
100
AcDbEntity
  8
RACCORDO
100
AcDbLine
 62
7
  6
CONTINUOUS
 10
140.1108265369
 20
159.3214001459
 11
139.9690540881
 21
159.3496187854
  0
LINE
  5
394
100
AcDbEntity
  8
RACCORDO
100
AcDbLine
 62
7
  6
CONTINUOUS
 10
140.2448812603
 20
159.2777094059
 11
140.1108265369
 21
159.3214001459
  0
LWPOLYLINE
  5
395
100
AcDbEntity
  8
RACCORDO
100
AcDbPolyline
 62
7
  6
CONTINUOUS
 90
30
 70
0
 10
133.8159762055
 20
160.2372686647
 10
133.474528641
 20
160.3696953996
 10
133.1182087453
 20
160.485406852
 10
132.7494419341
 20
160.5843606653
 10
132.3701896311
 20
160.6666464946
 10
131.9821875731
 20
160.732347241
 10
131.5878917927
 20
160.7814109568
 10
131.1893521473
 20
160.8138865536
 10
130.7878936477
 20
160.8298480615
 10
130.385729517
 20
160.8292881141
 10
129.9850880326
 20
160.812249709
 10
129.5873299048
 20
160.7787381825
 10
129.1946597475
 20
160.7287903664
 10
128.8092731152
 20
160.6624884776
 10
128.4323982549
 20
160.579724512
 10
128.0656553889
 20
160.4803488698
 10
127.7118688264
 20
160.3645281
 10
127.3735998786
 20
160.2324755715
 10
127.0512254573
 20
160.0834269917
 10
126.7485845806
 20
159.9180408702
 10
126.4716672459
 20
159.7390520928
 10
126.2205802637
 20
159.5463080534
 10
125.9969888317
 20
159.3406313026
 10
125.8060365007
 20
159.1275116183
 10
125.6481732154
 20
158.9102034586
 10
125.5207924457
 20
158.6881704737
 10
125.422995472
 20
158.462456852
 10
125.3542007311
 20
158.2347797985
 10
125.313688762
 20
158.0071863002
 10
125.300445515
 20
157.7816413716
  0
LWPOLYLINE
  5
396
100
AcDbEntity
  8
RACCORDO
100
AcDbPolyline
 62
253
  6
CONTINUOUS
 90
37
 70
0
 10
133.5342500704
 20
160.1802777154
 10
133.2726772351
 20
160.2847264845
 10
132.9974774014
 20
160.378683198
 10
132.7069516633
 20
160.4625875546
 10
132.4027989268
 20
160.5359998555
 10
132.0901159089
 20
160.5976010046
 10
131.7686955024
 20
160.6471818647
 10
131.4387448145
 20
160.684951573
 10
131.1059818846
 20
160.7102184445
 10
130.7703735903
 20
160.7227402973
 10
130.431953054
 20
160.7227593132
 10
130.0965376819
 20
160.7103103532
 10
129.764296383
 20
160.685189429
 10
129.4350602484
 20
160.6476005288
 10
129.1141399577
 20
160.5981904785
 10
128.8016573855
 20
160.536781232
 10
128.4974906573
 20
160.4635508354
 10
128.2065848296
 20
160.3796802529
 10
127.9290943607
 20
160.2849744584
 10
127.6648647924
 20
160.1796284781
 10
127.4183778067
 20
160.0654083546
 10
127.189946672
 20
159.942154163
 10
126.9792581199
 20
159.8100258283
 10
126.7898540272
 20
159.671269168
 10
126.6221284228
 20
159.5258073593
 10
126.4756872779
 20
159.3737172251
 10
126.3528903823
 20
159.2174750517
 10
126.25409521
 20
159.0570226344
 10
126.178944287
 20
158.8924181778
 10
126.1287249824
 20
158.7263125823
 10
126.1038410607
 20
158.5586237019
 10
126.1038887572
 20
158.3894336825
 10
126.1289441471
 20
158.2216398616
 10
126.1794926726
 20
158.0552516269
 10
126.2550488915
 20
157.8902595906
 10
126.3542325525
 20
157.7295329268
 10
126.477474113
 20
157.5731721869
  0
LWPOLYLINE
  5
397
100
AcDbEntity
  8
RACCORDO
100
AcDbPolyline
 62
7
  6
CONTINUOUS
 90
36
 70
0
 10
139.6319598277
 20
159.5666489188
 10
138.9062800589
 20
159.8648575874
 10
138.1566949156
 20
160.1340606073
 10
137.3855525417
 20
160.3746675716
 10
136.5955996703
 20
160.5868795558
 10
135.7905830422
 20
160.7706677171
 10
134.9744520786
 20
160.9261078499
 10
134.1487709573
 20
161.053763879
 10
133.3141878064
 20
161.1541307049
 10
132.4731945959
 20
161.2273165703
 10
131.6284997971
 20
161.2734264055
 10
130.7811866053
 20
161.2926141195
 10
129.9337732069
 20
161.2849058876
 10
129.0888549397
 20
161.2503541952
 10
128.2476329829
 20
161.1889200991
 10
127.4126707143
 20
161.1005813526
 10
126.586497996
 20
160.9853344418
 10
125.7701453771
 20
160.8429046848
 10
124.9658940966
 20
160.6730947803
 10
124.1766372623
 20
160.4758250234
 10
123.4040076355
 20
160.2506607558
 10
122.6492702881
 20
159.9968376382
 10
121.9164955734
 20
159.7144169019
 10
121.2105727064
 20
159.4040550385
 10
120.5307361525
 20
159.0638665462
 10
119.8826188509
 20
158.6948227097
 10
119.277888924
 20
158.3028238223
 10
118.7169013022
 20
157.8882749766
 10
118.2003447135
 20
157.4516455377
 10
117.7363109519
 20
157.0009901236
 10
117.3254233711
 20
156.5400874487
 10
116.9642310789
 20
156.0683914109
 10
116.6526557565
 20
155.5891737338
 10
116.3897067667
 20
155.105209708
 10
116.1736007575
 20
154.6181809983
 10
116.0028210394
 20
154.1303196846
  0
LINE
  5
398
100
AcDbEntity
  8
RACCORDO
100
AcDbLine
 62
7
  6
CONTINUOUS
 10
140.3309235062
 20
159.2392356403
 11
140.2448812603
 21
159.2777094059
  0
LINE
  5
399
100
AcDbEntity
  8
RACCORDO
100
AcDbLine
 62
7
  6
CONTINUOUS
 10
140.3308719414
 20
159.2391324546
 11
139.6319598277
 21
159.5666489188
  0
LWPOLYLINE
  5
39A
100
AcDbEntity
  8
RACCORDO
100
AcDbPolyline
 62
253
  6
CONTINUOUS
 90
67
 70
0
 10
139.3648484224
 20
159.3006826874
 10
139.1693602373
 20
159.3962936775
 10
138.9571790331
 20
159.4954486127
 10
138.727607717
 20
159.5976572079
 10
138.4792928146
 20
159.7026551926
 10
138.2121715013
 20
159.8095737537
 10
137.9276268666
 20
159.9170292751
 10
137.6254009136
 20
160.0243484052
 10
137.304771033
 20
160.13100308
 10
136.9666925392
 20
160.2359151889
 10
136.6114379758
 20
160.338294106
 10
136.2382113666
 20
160.437654923
 10
135.8465175223
 20
160.5333776072
 10
135.4375889823
 20
160.624433383
 10
135.0100689797
 20
160.7103880343
 10
134.5594863186
 20
160.7912044641
 10
134.0857082592
 20
160.8658012236
 10
133.5889538628
 20
160.9330122732
 10
133.0651523081
 20
160.9920867747
 10
132.5120987167
 20
161.0416972735
 10
131.9329026109
 20
161.0799355006
 10
131.3317479641
 20
161.1050536566
 10
130.7101118494
 20
161.115607381
 10
130.0691841764
 20
161.1101546351
 10
129.4131871103
 20
161.0873533779
 10
128.7425744927
 20
161.0458344941
 10
128.0612674392
 20
160.9844125584
 10
127.3788872187
 20
160.902858369
 10
126.6973073126
 20
160.8005520599
 10
126.0199378708
 20
160.677137031
 10
125.3581466009
 20
160.5342585339
 10
124.7169404727
 20
160.3731554921
 10
124.0955322989
 20
160.1937921415
 10
123.4959518109
 20
159.9967606139
 10
122.9202071852
 20
159.7827246446
 10
122.3702211168
 20
159.5524029799
 10
121.8477867747
 20
159.3065469129
 10
121.3546346731
 20
159.0459652895
 10
120.8924471452
 20
158.7715411962
 10
120.4628003709
 20
158.4842093353
 10
120.0671461989
 20
158.1849442353
 10
119.7067925463
 20
157.8747390727
 10
119.3829292863
 20
157.5546169617
 10
119.0966938012
 20
157.2257097201
 10
118.8489872101
 20
156.8890613737
 10
118.6405317274
 20
156.5455936176
 10
118.4719075831
 20
156.1959870342
 10
118.3440579558
 20
155.8418555681
 10
118.2577101588
 20
155.485579235
 10
118.2127637717
 20
155.1275611662
 10
118.2092748763
 20
154.7698147869
 10
118.2463283996
 20
154.417156253
 10
118.3221044027
 20
154.0711536442
 10
118.4348444253
 20
153.732346042
 10
118.5816013588
 20
153.4038111545
 10
118.7596782258
 20
153.0864231936
 10
118.9665306234
 20
152.7806353002
 10
119.1981870216
 20
152.488562619
 10
119.4516217379
 20
152.210472508
 10
119.7239009087
 20
151.9465166447
 10
120.0103549883
 20
151.6982522324
 10
120.307922615
 20
151.465457595
 10
120.613633015
 20
151.2478854804
 10
120.922362025
 20
151.0466529638
 10
121.2303700462
 20
150.8616597453
 10
121.5357422477
 20
150.691760539
 10
121.8360426076
 20
150.53627978
  0
LWPOLYLINE
  5
39B
100
AcDbEntity
  8
RACCORDO
100
AcDbPolyline
 62
7
  6
CONTINUOUS
 90
13
 70
0
 10
140.3308719414
 20
159.2391324546
 10
140.9716394373
 20
158.8981327841
 10
141.5728561752
 20
158.5359694107
 10
142.1342182233
 20
158.1531192286
 10
142.6581606714
 20
157.7476315966
 10
143.1408458196
 20
157.3219744247
 10
143.5743182614
 20
156.8843768206
 10
143.9579499857
 20
156.4386926646
 10
144.295283445
 20
155.9842075465
 10
144.586620531
 20
155.5239265558
 10
144.8330473697
 20
155.0604005427
 10
145.0363440925
 20
154.59519138
 10
145.1980699906
 20
154.1303196846
  0
ENDSEC
  0
SECTION
  2
OBJECTS
  0
DICTIONARY
  5
C
100
AcDbDictionary
280
0
281
1
  3
ACAD_GROUP
350
D
  3
ACAD_MLINESTYLE
350
17
  3
ACAD_LAYOUT
350
1A
  3
ACAD_PLOTSETTINGS
350
19
  3
ACAD_PLOTSTYLENAME
350
E
  0
DICTIONARY
  5
D
102
{ACAD_REACTORS
330
C
102
}
100
AcDbDictionary
280
0
281
1
  0
ACDBDICTIONARYWDFLT
  5
E
102
{ACAD_REACTORS
330
C
102
}
100
AcDbDictionary
281
1
  3
Normal
350
F
100
AcDbDictionaryWithDefault
340
F
  0
DICTIONARY
  5
17
102
{ACAD_REACTORS
330
C
102
}
100
AcDbDictionary
280
0
281
1
  3
Standard
350
18
  0
DICTIONARY
  5
19
102
{ACAD_REACTORS
330
C
102
}
100
AcDbDictionary
281
1
  0
DICTIONARY
  5
1A
102
{ACAD_REACTORS
330
C
102
}
100
AcDbDictionary
281
1
  3
Model
350
39C
  3
Layout1
350
39D
  0
ACDBPLACEHOLDER
  5
F
102
{ACAD_REACTORS
330
E
102
}
  0
MLINESTYLE
  5
18
102
{ACAD_REACTORS
330
17
102
}
100
AcDbMlineStyle
  2
STANDARD
 70
0
  3

 62
256
 51
90.0
 52
90.0
 71
2
 49
0.5
 62
256
  6
BYLAYER
 49
-0.5
 62
256
  6
BYLAYER
  0
LAYOUT
  5
39C
102
{ACAD_REACTORS
330
1A
102
}
100
AcDbPlotSettings
  1

  2
none_device
  4
ISO_A4_(297.00_x_210.00_MM)
  6

 40
0.0
 41
0.0
 42
0.0
 43
0.0
 44
297.0
 45
210.0
 46
0.0
 47
0.0
 48
0.0
 49
0.0
140
0.0
141
0.0
142
1.0
143
1.0
 70
1024
 72
1
 73
0
 74
0
  7

 75
0
147
1.0
148
0.0
149
0.0
100
AcDbLayout
  1
Model
 70
0
 71
0
 10
0.0
 20
0.0
 11
297.0
 21
210.0
 12
0.0
 22
0.0
 32
0.0
 14
0.0
 24
0.0
 34
0.0
 15
0.0
 25
0.0
 35
0.0
146
0.0
 13
0.0
 23
0.0
 33
0.0
 16
1.0
 26
0.0
 36
0.0
 17
0.0
 27
1.0
 37
0.0
 76
0
330
216
345
0
346
0
  0
LAYOUT
  5
39D
102
{ACAD_REACTORS
330
1A
102
}
100
AcDbPlotSettings
  1

  2
none_device
  4
ISO_A4_(297.00_x_210.00_MM)
  6

 40
0.0
 41
0.0
 42
0.0
 43
0.0
 44
297.0
 45
210.0
 46
0.0
 47
0.0
 48
0.0
 49
0.0
140
0.0
141
0.0
142
1.0
143
1.0
 70
0
 72
1
 73
0
 74
0
  7

 75
0
147
1.0
148
0.0
149
0.0
100
AcDbLayout
  1
Layout1
 70
0
 71
1
 10
0.0
 20
0.0
 11
297.0
 21
210.0
 12
0.0
 22
0.0
 32
0.0
 14
0.0
 24
0.0
 34
0.0
 15
0.0
 25
0.0
 35
0.0
146
0.0
 13
0.0
 23
0.0
 33
0.0
 16
1.0
 26
0.0
 36
0.0
 17
0.0
 27
1.0
 37
0.0
 76
0
330
217
345
0
346
0
  0
ENDSEC
  0
EOF
