  0
SECTION
  2
HEADER
  9
$ACADVER
  1
AC1024
  9
$DWGCODEPAGE
  3
ANSI_1252
  9
$EXTMAX
 10
297.0
 20
210.0
 30
0.0
  9
$EXTMIN
 10
0.0
 20
0.0
 30
0.0
  9
$LIMMIN
 10
0.0
 20
0.0
  9
$LIMMAX
 10
297.0
 20
210.0
  9
$VIEWCTR
 10
148.5
 20
105.0
  9
$VIEWSIZE
 40
210.0
  9
$CLAYER
  8
0
  9
$LTSCALE
 40
16.335
  9
$CELTYPE
  6
BYLAYER
  9
$DIMSCALE
 40
1.0
  9
$DIMASZ
 40
3.0
  9
$DIMEXO
 40
0.5
  9
$DIMDLI
 40
11.286
  9
$DIMEXE
 40
1.5
  9
$DIMCEN
 40
2.673
  9
$DIMLFAC
 40
1.0
  9
$DIMBLK
  1
_FILLED
  9
$DIMALT
 70
0
  9
$DIMALTF
 40
0.0393700787
  9
$DIMTXT
 40
3.0
  9
$DIMTOL
 70
1
  9
$DIMLIM
 70
0
  9
$DIMTFAC
 40
1.0
  9
$DIMTP
 40
0.01
  9
$DIMTM
 40
0.01
  9
$DIMGAP
 40
0.625
  9
$DIMDSEP
 70
44
  9
$AUNITS
 70
0
  9
$PDMODE
 70
3
  9
$PDSIZE
 40
3.0
  9
$HANDSEED
  5
4B9
  9
$TILEMODE
 70
1
  9
$MEASUREMENT
 70
1
  9
$INSUNITS
 70
4
  0
ENDSEC
  0
SECTION
  2
CLASSES
  0
CLASS
  1
ACDBDICTIONARYWDFLT
  2
AcDbDictionaryWithDefault
  3
AutoCAD 2000
 90
0
 91
1
280
0
281
0
  0
CLASS
  1
ACDBPLACEHOLDER
  2
AcDbPlaceHolder
  3
AutoCAD 2000
 90
0
 91
1
280
0
281
0
  0
CLASS
  1
LAYOUT
  2
AcDbLayout
  3
AutoCAD 2000
 90
0
 91
0
280
0
281
0
  0
ENDSEC
  0
SECTION
  2
TABLES
  0
TABLE
  2
VPORT
  5
8
100
AcDbSymbolTable
 70
2
  0
VPORT
  5
1F4
100
AcDbSymbolTableRecord
100
AcDbViewportTableRecord
  2
*ACTIVE
 70
0
 10
0.0
 20
0.0
 11
1.0
 21
1.0
 12
148.5
 22
105.0
 13
0.0
 23
0.0
 14
1.0
 24
1.0
 15
0.0
 25
0.0
 16
0.0
 26
0.0
 36
1.0
 17
0.0
 27
0.0
 37
0.0
 40
210.0
 41
1.4142857143
 42
50.0
 43
0.0
 44
0.0
 50
0.0
 51
0.0
 71
0
 72
100
 73
1
 74
1
 75
0
 76
0
 77
0
 78
0
  0
ENDTAB
  0
TABLE
  2
LTYPE
  5
5
100
AcDbSymbolTable
 70
6
  0
LTYPE
  5
14
100
AcDbSymbolTableRecord
100
AcDbLinetypeTableRecord
  2
BYBLOCK
 70
0
  3

 72
65
 73
0
 40
0.0
  0
LTYPE
  5
15
100
AcDbSymbolTableRecord
100
AcDbLinetypeTableRecord
  2
BYLAYER
 70
0
  3

 72
65
 73
0
 40
0.0
  0
LTYPE
  5
16
100
AcDbSymbolTableRecord
100
AcDbLinetypeTableRecord
  2
CONTINUOUS
 70
64
  3
Solid line
 72
65
 73
0
 40
0.0
  0
LTYPE
  5
1F5
100
AcDbSymbolTableRecord
100
AcDbLinetypeTableRecord
  2
CENTER
 70
64
  3
____ _ ____ _ ____ _ ____ _ ____ _ ____ _ ____
 72
65
 73
4
 40
0.6
 49
0.375
 74
0
 49
-0.075
 74
0
 49
0.075
 74
0
 49
-0.075
 74
0
  0
LTYPE
  5
1F6
100
AcDbSymbolTableRecord
100
AcDbLinetypeTableRecord
  2
HIDDEN
 70
64
  3
- - - - - - - - - - - - - - - - - - - -
 72
65
 73
2
 40
0.2
 49
0.1
 74
0
 49
-0.1
 74
0
  0
LTYPE
  5
1F7
100
AcDbSymbolTableRecord
100
AcDbLinetypeTableRecord
  2
PHANTOM
 70
64
  3
_____ _ _ _____ _ _ _____ _ _ _____
 72
65
 73
6
 40
0.8
 49
0.45
 74
0
 49
-0.05
 74
0
 49
0.1
 74
0
 49
-0.05
 74
0
 49
0.1
 74
0
 49
-0.05
 74
0
  0
LTYPE
  5
1F8
100
AcDbSymbolTableRecord
100
AcDbLinetypeTableRecord
  2
DOT
 70
64
  3
. . . . . . . . . . . . . . . . . . . .
 72
65
 73
2
 40
0.2
 49
0.1
 74
0
 49
-0.1
 74
0
  0
LTYPE
  5
1F9
100
AcDbSymbolTableRecord
100
AcDbLinetypeTableRecord
  2
DASHED
 70
64
  3
- - - - - - - - - - - - - - - - - - - -
 72
65
 73
2
 40
0.2
 49
0.1
 74
0
 49
-0.1
 74
0
  0
ENDTAB
  0
TABLE
  2
LAYER
  5
2
100
AcDbSymbolTable
 70
36
  0
LAYER
  5
10
100
AcDbSymbolTableRecord
100
AcDbLayerTableRecord
  2
0
 70
0
 62
7
  6
CONTINUOUS
370
-3
390
F
  0
LAYER
  5
1FA
100
AcDbSymbolTableRecord
100
AcDbLayerTableRecord
  2
DEFAULT_1
 70
0
 62
7
  6
CENTER
370
-3
390
F
  0
LAYER
  5
1FB
100
AcDbSymbolTableRecord
100
AcDbLayerTableRecord
  2
DEFAULT_2
 70
0
 62
7
  6
HIDDEN
370
-3
390
F
  0
LAYER
  5
1FC
100
AcDbSymbolTableRecord
100
AcDbLayerTableRecord
  2
DEFAULT_3
 70
0
 62
7
  6
PHANTOM
370
-3
390
F
  0
LAYER
  5
1FD
100
AcDbSymbolTableRecord
100
AcDbLayerTableRecord
  2
255013570
 70
0
 62
7
  6
CONTINUOUS
370
-3
390
F
  0
LAYER
  5
1FE
100
AcDbSymbolTableRecord
100
AcDbLayerTableRecord
  2
261013570
 70
0
 62
7
  6
CONTINUOUS
370
-3
390
F
  0
LAYER
  5
1FF
100
AcDbSymbolTableRecord
100
AcDbLayerTableRecord
  2
280013570
 70
0
 62
7
  6
CONTINUOUS
370
-3
390
F
  0
LAYER
  5
200
100
AcDbSymbolTableRecord
100
AcDbLayerTableRecord
  2
ASSI
 70
0
 62
7
  6
CONTINUOUS
370
-3
390
F
  0
LAYER
  5
201
100
AcDbSymbolTableRecord
100
AcDbLayerTableRecord
  2
COLOR5
 70
0
 62
7
  6
CONTINUOUS
370
-3
390
F
  0
LAYER
  5
202
100
AcDbSymbolTableRecord
100
AcDbLayerTableRecord
  2
COORDINATE
 70
0
 62
7
  6
CONTINUOUS
370
-3
390
F
  0
LAYER
  5
203
100
AcDbSymbolTableRecord
100
AcDbLayerTableRecord
  2
COORD_ORIGINE
 70
0
 62
7
  6
CONTINUOUS
370
-3
390
F
  0
LAYER
  5
204
100
AcDbSymbolTableRecord
100
AcDbLayerTableRecord
  2
COPY-PUBBLISH
 70
0
 62
7
  6
CONTINUOUS
370
-3
390
F
  0
LAYER
  5
205
100
AcDbSymbolTableRecord
100
AcDbLayerTableRecord
  2
COPY_PUBLISH
 70
0
 62
7
  6
CONTINUOUS
370
-3
390
F
  0
LAYER
  5
206
100
AcDbSymbolTableRecord
100
AcDbLayerTableRecord
  2
COSMETICHE
 70
0
 62
7
  6
CONTINUOUS
370
-3
390
F
  0
LAYER
  5
207
100
AcDbSymbolTableRecord
100
AcDbLayerTableRecord
  2
COSMETICI
 70
0
 62
7
  6
CONTINUOUS
370
-3
390
F
  0
LAYER
  5
208
100
AcDbSymbolTableRecord
100
AcDbLayerTableRecord
  2
CURVE
 70
0
 62
7
  6
CONTINUOUS
370
-3
390
F
  0
LAYER
  5
209
100
AcDbSymbolTableRecord
100
AcDbLayerTableRecord
  2
DRAFT
 70
0
 62
7
  6
CONTINUOUS
370
-3
390
F
  0
LAYER
  5
20A
100
AcDbSymbolTableRecord
100
AcDbLayerTableRecord
  2
IGES
 70
0
 62
7
  6
CONTINUOUS
370
-3
390
F
  0
LAYER
  5
20B
100
AcDbSymbolTableRecord
100
AcDbLayerTableRecord
  2
IMPORT_IGES
 70
0
 62
7
  6
CONTINUOUS
370
-3
390
F
  0
LAYER
  5
20C
100
AcDbSymbolTableRecord
100
AcDbLayerTableRecord
  2
INTF_1
 70
0
 62
7
  6
CONTINUOUS
370
-3
390
F
  0
LAYER
  5
20D
100
AcDbSymbolTableRecord
100
AcDbLayerTableRecord
  2
INTF_11
 70
0
 62
7
  6
CONTINUOUS
370
-3
390
F
  0
LAYER
  5
20E
100
AcDbSymbolTableRecord
100
AcDbLayerTableRecord
  2
INTF_2
 70
0
 62
7
  6
CONTINUOUS
370
-3
390
F
  0
LAYER
  5
20F
100
AcDbSymbolTableRecord
100
AcDbLayerTableRecord
  2
INTF_3
 70
0
 62
7
  6
CONTINUOUS
370
-3
390
F
  0
LAYER
  5
210
100
AcDbSymbolTableRecord
100
AcDbLayerTableRecord
  2
INTF_4
 70
0
 62
7
  6
CONTINUOUS
370
-3
390
F
  0
LAYER
  5
211
100
AcDbSymbolTableRecord
100
AcDbLayerTableRecord
  2
INTF_MAGENTA
 70
0
 62
7
  6
CONTINUOUS
370
-3
390
F
  0
LAYER
  5
212
100
AcDbSymbolTableRecord
100
AcDbLayerTableRecord
  2
LAY0001
 70
0
 62
7
  6
CONTINUOUS
370
-3
390
F
  0
LAYER
  5
213
100
AcDbSymbolTableRecord
100
AcDbLayerTableRecord
  2
NOTE
 70
0
 62
7
  6
CONTINUOUS
370
-3
390
F
  0
LAYER
  5
214
100
AcDbSymbolTableRecord
100
AcDbLayerTableRecord
  2
PIANI
 70
0
 62
7
  6
CONTINUOUS
370
-3
390
F
  0
LAYER
  5
215
100
AcDbSymbolTableRecord
100
AcDbLayerTableRecord
  2
PIANI_ORIGINE
 70
0
 62
7
  6
CONTINUOUS
370
-3
390
F
  0
LAYER
  5
216
100
AcDbSymbolTableRecord
100
AcDbLayerTableRecord
  2
PIANI_SFORMI
 70
0
 62
7
  6
CONTINUOUS
370
-3
390
F
  0
LAYER
  5
217
100
AcDbSymbolTableRecord
100
AcDbLayerTableRecord
  2
PUNTI
 70
0
 62
7
  6
CONTINUOUS
370
-3
390
F
  0
LAYER
  5
218
100
AcDbSymbolTableRecord
100
AcDbLayerTableRecord
  2
PUNZ
 70
0
 62
7
  6
CONTINUOUS
370
-3
390
F
  0
LAYER
  5
219
100
AcDbSymbolTableRecord
100
AcDbLayerTableRecord
  2
RACCORDO
 70
0
 62
7
  6
CONTINUOUS
370
-3
390
F
  0
LAYER
  5
21A
100
AcDbSymbolTableRecord
100
AcDbLayerTableRecord
  2
RGB__255__255__255__
 70
0
 62
7
  6
CONTINUOUS
370
-3
390
F
  0
LAYER
  5
21B
100
AcDbSymbolTableRecord
100
AcDbLayerTableRecord
  2
SIMBOLI
 70
0
 62
7
  6
CONTINUOUS
370
-3
390
F
  0
LAYER
  5
21C
100
AcDbSymbolTableRecord
100
AcDbLayerTableRecord
  2
SMUSSO
 70
0
 62
7
  6
CONTINUOUS
370
-3
390
F
  0
LAYER
  5
21D
100
AcDbSymbolTableRecord
100
AcDbLayerTableRecord
  2
SNAPLINE
 70
0
 62
7
  6
CONTINUOUS
370
-3
390
F
  0
LAYER
  5
21E
100
AcDbSymbolTableRecord
100
AcDbLayerTableRecord
  2
SUP-SCAVI-INCLINATI
 70
0
 62
7
  6
CONTINUOUS
370
-3
390
F
  0
LAYER
  5
21F
100
AcDbSymbolTableRecord
100
AcDbLayerTableRecord
  2
SUP-SCAVI-INCLINATI-SUP
 70
0
 62
7
  6
CONTINUOUS
370
-3
390
F
  0
LAYER
  5
220
100
AcDbSymbolTableRecord
100
AcDbLayerTableRecord
  2
SUPERFICI
 70
0
 62
7
  6
CONTINUOUS
370
-3
390
F
  0
LAYER
  5
221
100
AcDbSymbolTableRecord
100
AcDbLayerTableRecord
  2
SUP_COLORE
 70
0
 62
7
  6
CONTINUOUS
370
-3
390
F
  0
LAYER
  5
222
100
AcDbSymbolTableRecord
100
AcDbLayerTableRecord
  2
TRASH
 70
0
 62
7
  6
CONTINUOUS
370
-3
390
F
  0
LAYER
  5
223
100
AcDbSymbolTableRecord
100
AcDbLayerTableRecord
  2
XSEC_DATUMS
 70
0
 62
7
  6
CONTINUOUS
370
-3
390
F
  0
ENDTAB
  0
TABLE
  2
STYLE
  5
3
100
AcDbSymbolTable
 70
1
  0
STYLE
  5
11
100
AcDbSymbolTableRecord
100
AcDbTextStyleTableRecord
  2
STANDARD
 70
0
 40
0.0
 41
0.8
 50
0.0
 71
0
 42
0.2
  3
txt
  4

  0
STYLE
  5
224
100
AcDbSymbolTableRecord
100
AcDbTextStyleTableRecord
  2
TEXTSTYLE_1
 70
0
 40
0.0
 41
0.8
 50
0.0
 71
0
 42
0.2
  3
gdt
  4

  0
ENDTAB
  0
TABLE
  2
VIEW
  5
6
100
AcDbSymbolTable
 70
0
  0
ENDTAB
  0
TABLE
  2
UCS
  5
7
100
AcDbSymbolTable
 70
0
  0
ENDTAB
  0
TABLE
  2
APPID
  5
9
100
AcDbSymbolTable
 70
1
  0
APPID
  5
225
100
AcDbSymbolTableRecord
100
AcDbRegAppTableRecord
  2
ACAD
 70
0
  0
ENDTAB
  0
TABLE
  2
BLOCK_RECORD
  5
1
100
AcDbSymbolTable
 70
0
  0
BLOCK_RECORD
  5
226
100
AcDbSymbolTableRecord
100
AcDbBlockTableRecord
  2
*Model_Space
  0
BLOCK_RECORD
  5
227
100
AcDbSymbolTableRecord
100
AcDbBlockTableRecord
  2
*Paper_Space
  0
BLOCK_RECORD
  5
228
100
AcDbSymbolTableRecord
100
AcDbBlockTableRecord
  2
_FILLED
  0
ENDTAB
  0
TABLE
  2
DIMSTYLE
  5
A
100
AcDbSymbolTable
 70
1
100
AcDbDimStyleTable
 71
0
  0
DIMSTYLE
105
229
100
AcDbSymbolTableRecord
100
AcDbDimStyleTableRecord
  2
STANDARD
 70
0
  3

  4

 40
1.0
 41
3.0
 42
0.5
 43
0.38
 44
1.5
 45
0.0
 46
0.0
 47
0.01
 48
0.01
140
3.0
141
0.09
142
0.0
143
25.4
144
1.0
145
0.0
146
1.0
147
0.625
 71
1
 72
0
 73
0
 74
0
 75
0
 76
0
 77
1
 78
8
 79
2
170
0
171
1
172
0
173
0
174
0
175
0
176
0
177
0
178
0
270
2
179
2
271
2
272
2
273
2
274
2
275
0
280
0
281
0
282
0
283
1
284
8
285
0
286
0
287
3
288
0
340
11
278
44
341
228
342
228
343
228
344
228
  0
ENDTAB
  0
ENDSEC
  0
SECTION
  2
BLOCKS
  0
BLOCK
  5
20
100
AcDbEntity
  8
0
100
AcDbBlockBegin
  2
*Model_Space
 70
0
 10
0.0
 20
0.0
 30
0.0
  3
*Model_Space
  1

  0
ENDBLK
  5
21
100
AcDbEntity
  8
0
100
AcDbBlockEnd
  0
BLOCK
  5
1C
100
AcDbEntity
  8
0
100
AcDbBlockBegin
  2
*Paper_Space
 70
0
 10
0.0
 20
0.0
 30
0.0
  3
*Paper_Space
  1

  0
ENDBLK
  5
1D
100
AcDbEntity
  8
0
100
AcDbBlockEnd
  0
BLOCK
  5
22A
100
AcDbEntity
  8
0
100
AcDbBlockBegin
  2
_FILLED
 70
64
 10
0.0
 20
0.0
  3
_FILLED
  1

  0
SOLID
  5
22B
100
AcDbEntity
  8
0
  6
BYBLOCK
 62
0
100
AcDbTrace
 10
0.0
 20
0.0
 11
-1.0
 21
0.3166666667
 12
-1.0
 22
-0.3166666667
 13
-1.0
 23
-0.3166666667
  0
ENDBLK
  5
22C
100
AcDbEntity
  8
0
  6
BYBLOCK
 62
0
100
AcDbBlockEnd
  0
ENDSEC
  0
SECTION
  2
ENTITIES
  0
LWPOLYLINE
  5
22D
100
AcDbEntity
  8
ASSI
100
AcDbPolyline
 62
7
  6
CONTINUOUS
 90
12
 70
0
 10
-20.1437819219
 20
33.3523275939
 10
-20.2049818897
 20
33.3145603245
 10
-20.2691331561
 20
33.269071068
 10
-20.3279554712
 20
33.2208458385
 10
-20.3814421287
 20
33.1701401019
 10
-20.4296309467
 20
33.117169266
 10
-20.472541613
 20
33.0621621537
 10
-20.510137389
 20
33.0054404648
 10
-20.5424386194
 20
32.947289582
 10
-20.5694855491
 20
32.8879832498
 10
-20.5913030908
 20
32.8278735689
 10
-20.6023784439
 20
32.7897936171
  0
LWPOLYLINE
  5
22E
100
AcDbEntity
  8
ASSI
100
AcDbPolyline
 62
250
  6
CONTINUOUS
 90
25
 70
0
 10
-19.8937454972
 20
33.3275711315
 10
-19.9085144464
 20
33.3188144966
 10
-19.9228597096
 20
33.3098472883
 10
-19.9367812869
 20
33.3006695067
 10
-19.9502889107
 20
33.2912741056
 10
-19.9633728485
 20
33.2816681312
 10
-19.9760039028
 20
33.2718727214
 10
-19.9881805683
 20
33.2618877895
 10
-19.9999043504
 20
33.2517134223
 10
-20.0111505679
 20
33.2413710177
 10
-20.0219181841
 20
33.2308602401
 10
-20.0322082356
 20
33.2201814251
 10
-20.041999151
 20
33.2093569775
 10
-20.0512898671
 20
33.1983866151
 10
-20.060081447
 20
33.18727062
 10
-20.0683555087
 20
33.1760322435
 10
-20.076110986
 20
33.1646711904
 10
-20.0833489451
 20
33.1531877559
 10
-20.0900542031
 20
33.1416060765
 10
-20.096225789
 20
33.1299253776
 10
-20.1018646738
 20
33.1181464339
 10
-20.1069585871
 20
33.1062957059
 10
-20.1115034388
 20
33.0943820137
 10
-20.1155033191
 20
33.0823965371
 10
-20.1189582278
 20
33.0703392762
  0
LINE
  5
22F
100
AcDbEntity
  8
ASSI
100
AcDbLine
 62
7
  6
CONTINUOUS
 10
-10.2927317132
 20
39.0402005919
 11
-20.1437575773
 21
33.3523417203
  0
LINE
  5
230
100
AcDbEntity
  8
ASSI
100
AcDbLine
 62
250
  6
CONTINUOUS
 10
-10.0427196332
 20
39.0154300031
 11
-19.8937454972
 21
33.3275711315
  0
LINE
  5
231
100
AcDbEntity
  8
ASSI
100
AcDbLine
 62
7
  6
CONTINUOUS
 10
-4.2328968056
 20
36.2701728249
 11
-9.8994948631
 21
32.9983501256
  0
LINE
  5
232
100
AcDbEntity
  8
ASSI
100
AcDbLine
 62
7
  6
CONTINUOUS
 10
-13.7147595464
 20
30.795464114
 11
-19.3813576039
 21
27.5236414147
  0
LWPOLYLINE
  5
233
100
AcDbEntity
  8
ASSI
100
AcDbPolyline
 62
7
  6
CONTINUOUS
 90
31
 70
0
 10
-11.9897831559
 20
34.2052563884
 10
-11.7598288801
 20
34.3044715971
 10
-11.527511946
 20
34.4017165689
 10
-11.2928323534
 20
34.4969913038
 10
-11.0557399749
 20
34.5903149248
 10
-10.8162849379
 20
34.6816683089
 10
-10.5746176253
 20
34.770994087
 10
-10.330736743
 20
34.858290953
 10
-10.084643585
 20
34.943560213
 10
-9.8364924159
 20
35.0267484163
 10
-9.5862818341
 20
35.1078542928
 10
-9.3340132411
 20
35.1868791125
 10
-9.0798451059
 20
35.2637732346
 10
-8.8237763449
 20
35.3385352893
 10
-8.5658080417
 20
35.4111666465
 10
-8.3061019157
 20
35.4816217748
 10
-8.0446567823
 20
35.5498993343
 10
-7.7814738261
 20
35.616000665
 10
-7.5167183204
 20
35.6798842561
 10
-7.2503893494
 20
35.7415486981
 10
-6.982487829
 20
35.8009954005
 10
-6.7131817802
 20
35.8581870806
 10
-6.4424702762
 20
35.9131223335
 10
-6.1703542438
 20
35.9658025642
 10
-5.8970044845
 20
36.0161947053
 10
-5.6224202451
 20
36.0642973166
 10
-5.3466022787
 20
36.1101118383
 10
-5.0697236456
 20
36.1536095245
 10
-4.7918420324
 20
36.1947807934
 10
-4.5128997524
 20
36.2336352269
 10
-4.2328968056
 20
36.2701728249
  0
LWPOLYLINE
  5
234
100
AcDbEntity
  8
ASSI
100
AcDbPolyline
 62
250
  6
CONTINUOUS
 90
10
 70
0
 10
-20.1189582278
 20
33.0703392762
 10
-20.2424347197
 20
32.5918001975
 10
-20.3612441704
 20
32.1129125298
 10
-20.4753865797
 20
31.6336762731
 10
-20.5848631095
 20
31.1540862206
 10
-20.689672598
 20
30.674147579
 10
-20.7898115597
 20
30.1938759689
 10
-20.8852788327
 20
29.713276597
 10
-20.9760755789
 20
29.2323442567
 10
-21.0622017982
 20
28.7510789479
  0
LINE
  5
235
100
AcDbEntity
  8
ASSI
100
AcDbLine
 62
7
  6
CONTINUOUS
 10
-20.6023785808
 20
32.7897936533
 11
-20.6025137011
 21
32.7892815896
  0
LWPOLYLINE
  5
236
100
AcDbEntity
  8
ASSI
100
AcDbPolyline
 62
7
  6
CONTINUOUS
 90
31
 70
0
 10
-19.3813576039
 20
27.5236414147
 10
-19.3180767049
 20
27.6853116069
 10
-19.2507831877
 20
27.8463693834
 10
-19.1794770524
 20
28.0068147442
 10
-19.1041417035
 20
28.1666809969
 10
-19.0247937364
 20
28.3259348339
 10
-18.9414829374
 20
28.4844763323
 10
-18.8542068117
 20
28.6423050575
 10
-18.762967854
 20
28.7994214442
 10
-18.667823335
 20
28.9557268737
 10
-18.568770821
 20
29.1112208111
 10
-18.4658127456
 20
29.2659037914
 10
-18.3590136799
 20
29.4196788014
 10
-18.2483711829
 20
29.5725453122
 10
-18.1338876957
 20
29.7245038527
 10
-18.0156351125
 20
29.875458996
 10
-17.8936111124
 20
30.0254100583
 10
-17.7678180163
 20
30.1743577235
 10
-17.6383346815
 20
30.3222086167
 10
-17.5051587355
 20
30.4689621125
 10
-17.3682925507
 20
30.6146188365
 10
-17.2278221022
 20
30.7590872905
 10
-17.0837451903
 20
30.9023666655
 10
-16.9360640145
 20
31.0444577707
 10
-16.7848711484
 20
31.1852715356
 10
-16.6301643298
 20
31.3248072131
 10
-16.4719458208
 20
31.4630655503
 10
-16.3103149813
 20
31.5999597182
 10
-16.1453049312
 20
31.7354607737
 10
-15.9768825505
 20
31.8695976599
 10
-15.8050478392
 20
32.0023703767
  0
LWPOLYLINE
  5
237
100
AcDbEntity
  8
ASSI
100
AcDbPolyline
 62
250
  6
CONTINUOUS
 90
6
 70
0
 10
-9.9266502397
 20
-30.6043929969
 10
-10.1317871055
 20
-30.5138669643
 10
-10.3344478815
 20
-30.4215005693
 10
-10.5345512076
 20
-30.3273316137
 10
-10.7320352057
 20
-30.2313909953
 10
-10.9268675067
 20
-30.1336962404
  0
LWPOLYLINE
  5
238
100
AcDbEntity
  8
ASSI
100
AcDbPolyline
 62
250
  6
CONTINUOUS
 90
5
 70
0
 10
-10.9268675067
 20
-30.1336962404
 10
-11.1190127719
 20
-30.0342662929
 10
-11.3084285406
 20
-29.9331240077
 10
-11.4950657458
 20
-29.83029648
 10
-11.6788797212
 20
-29.7258093191
  0
LINE
  5
239
100
AcDbEntity
  8
ASSI
100
AcDbLine
 62
7
  6
CONTINUOUS
 10
-10.5702757592
 20
-30.8230207746
 11
-11.1275381572
 21
-30.5157573693
  0
LWPOLYLINE
  5
23A
100
AcDbEntity
  8
ASSI
100
AcDbPolyline
 62
250
  6
CONTINUOUS
 90
40
 70
0
 10
-11.6788797212
 20
-29.7258093191
 10
-11.8598451336
 20
-29.6196774332
 10
-12.0379361619
 20
-29.51191545
 10
-12.2131084527
 20
-29.402549159
 10
-12.3853150784
 20
-29.2916068911
 10
-12.5545164559
 20
-29.1791131625
 10
-12.7206797757
 20
-29.0650883771
 10
-12.8837746832
 20
-28.9495512245
 10
-13.0437476654
 20
-28.8325374324
 10
-13.2005332519
 20
-28.7140939771
 10
-13.3540871655
 20
-28.594254524
 10
-13.5043780851
 20
-28.4730437381
 10
-13.6513630971
 20
-28.3504964752
 10
-13.7950014242
 20
-28.2266474733
 10
-13.9352639231
 20
-28.1015226183
 10
-14.0721260833
 20
-27.9751438681
 10
-14.2055606901
 20
-27.8475356678
 10
-14.3355280207
 20
-27.718735303
 10
-14.4619861799
 20
-27.5887844623
 10
-14.5848982925
 20
-27.4577221618
 10
-14.7042417925
 20
-27.3255736182
 10
-14.8199974975
 20
-27.1923602299
 10
-14.9321425009
 20
-27.0581074748
 10
-15.0406429957
 20
-26.922854913
 10
-15.1454646763
 20
-26.7866453976
 10
-15.2465778242
 20
-26.6495186581
 10
-15.3439631191
 20
-26.5115020491
 10
-15.4376032757
 20
-26.372620229
 10
-15.527478442
 20
-26.2329018164
 10
-15.6135628182
 20
-26.0923860589
 10
-15.6958313679
 20
-25.9511138046
 10
-15.7742622563
 20
-25.809123323
 10
-15.8488387796
 20
-25.6664456675
 10
-15.9195451675
 20
-25.5231111648
 10
-15.9863648501
 20
-25.379153004
 10
-16.0492804898
 20
-25.234608114
 10
-16.1082762857
 20
-25.0895126059
 10
-16.1633379436
 20
-24.9439014723
 10
-16.2144517847
 20
-24.7978107122
 10
-16.2276388463
 20
-24.758091091
  0
LWPOLYLINE
  5
23B
100
AcDbEntity
  8
ASSI
100
AcDbPolyline
 62
7
  6
CONTINUOUS
 90
24
 70
0
 10
-11.1275426958
 20
-30.5157547488
 10
-11.1567754304
 20
-30.4982074125
 10
-11.1902943105
 20
-30.4763552433
 10
-11.2230233752
 20
-30.4531054405
 10
-11.2549459101
 20
-30.4284724245
 10
-11.2859819911
 20
-30.402510352
 10
-11.3161275698
 20
-30.3752125281
 10
-11.3453866946
 20
-30.3465856476
 10
-11.3736915867
 20
-30.3167039515
 10
-11.4010256636
 20
-30.2855816866
 10
-11.4274055077
 20
-30.253204606
 10
-11.4528130875
 20
-30.2196042102
 10
-11.4772495234
 20
-30.1847830808
 10
-11.5007136951
 20
-30.1487386362
 10
-11.5231842099
 20
-30.111494632
 10
-11.544671349
 20
-30.0730290409
 10
-11.5651648313
 20
-30.0333638902
 10
-11.5846124209
 20
-29.9925890177
 10
-11.6030096696
 20
-29.9506975542
 10
-11.6203610256
 20
-29.9076963689
 10
-11.6366275979
 20
-29.8636959081
 10
-11.6517964227
 20
-29.8187329873
 10
-11.6658804638
 20
-29.7727707909
 10
-11.6788797212
 20
-29.7258093191
  0
LWPOLYLINE
  5
23C
100
AcDbEntity
  8
ASSI
100
AcDbPolyline
 62
250
  6
CONTINUOUS
 90
71
 70
0
 10
-21.0622017982
 20
28.7510789479
 10
-21.0904996533
 20
28.5757924615
 10
-21.1144165212
 20
28.4003607256
 10
-21.1339524019
 20
28.2247837402
 10
-21.1491095872
 20
28.0490247445
 10
-21.1598857854
 20
27.8731204994
 10
-21.1662741213
 20
27.6971812871
 10
-21.1682718126
 20
27.5212073475
 10
-21.1658816417
 20
27.3451984407
 10
-21.1591050807
 20
27.1692641301
 10
-21.1479393935
 20
26.9934044956
 10
-21.1323873162
 20
26.8176194571
 10
-21.1124585286
 20
26.6420183378
 10
-21.0881503182
 20
26.4666012902
 10
-21.0594653975
 20
26.2913681616
 10
-21.0264215846
 20
26.1164278172
 10
-20.989016159
 20
25.9417803866
 10
-20.9472518411
 20
25.76742574
 10
-20.9011546101
 20
25.593472354
 10
-20.8507217753
 20
25.4199205031
 10
-20.7959560274
 20
25.2467699127
 10
-20.7368914165
 20
25.0741282353
 10
-20.673525264
 20
24.9019957754
 10
-20.6058602486
 20
24.7303722285
 10
-20.5339384564
 20
24.5593643331
 10
-20.4577572522
 20
24.3889724973
 10
-20.3773192712
 20
24.2191963131
 10
-20.292674505
 20
24.0501412953
 10
-20.2038203234
 20
23.8818078637
 10
-20.1107593566
 20
23.7141955984
 10
-20.0135494871
 20
23.5474087546
 10
-19.9121881447
 20
23.381447864
 10
-19.8066778995
 20
23.2163123948
 10
-19.697084344
 20
23.0521050061
 10
-19.5834049304
 20
22.8888262628
 10
-19.4656422064
 20
22.7264756
 10
-19.3438694077
 20
22.565153982
 10
-19.2180840473
 20
22.4048620586
 10
-19.0882886121
 20
22.2455991801
 10
-18.9545637979
 20
22.0874643618
 10
-18.8169071576
 20
21.9304583008
 10
-18.6753211383
 20
21.7745803
 10
-18.5298937771
 20
21.619927284
 10
-18.3806226825
 20
21.466500013
 10
-18.227510246
 20
21.3142977268
 10
-18.0706516786
 20
21.1634150699
 10
-17.9100446582
 20
21.01385287
 10
-17.7456915068
 20
20.8656102995
 10
-17.5776944012
 20
20.7187795198
 10
-17.4060510616
 20
20.5733613976
 10
-17.2307637677
 20
20.4293550662
 10
-17.0519415353
 20
20.2868500864
 10
-16.8695821852
 20
20.1458474067
 10
-16.6836878966
 20
20.0063460786
 10
-16.4943742226
 20
19.8684328175
 10
-16.3016390123
 20
19.7321085936
 10
-16.1054844166
 20
19.5973724367
 10
-15.9060324423
 20
19.4643081515
 10
-15.7032810676
 20
19.3329167966
 10
-15.4972323143
 20
19.2031973133
 10
-15.2880142547
 20
19.0752303308
 10
-15.075624886
 20
18.9490169197
 10
-14.860066211
 20
18.8245560092
 10
-14.6414723103
 20
18.7019250159
 10
-14.4198413293
 20
18.5811250962
 10
-14.1951751226
 20
18.4621550935
 10
-13.9676133346
 20
18.3450889554
 10
-13.7371541318
 20
18.2299278491
 10
-13.5037993476
 20
18.1166706074
 10
-13.2676941267
 20
18.0053876753
 10
-13.0288367887
 20
17.8960802951
  0
LWPOLYLINE
  5
23D
100
AcDbEntity
  8
ASSI
100
AcDbPolyline
 62
7
  6
CONTINUOUS
 90
10
 70
0
 10
-21.5547970875
 20
28.4285752562
 10
-21.4678596847
 20
28.9143839682
 10
-21.3761976149
 20
29.3999074769
 10
-21.2798135459
 20
29.885130132
 10
-21.1787103618
 20
30.3700360011
 10
-21.0728909795
 20
30.8546097566
 10
-20.962358318
 20
31.3388366822
 10
-20.8471155569
 20
31.8227014889
 10
-20.727166166
 20
32.3061883095
 10
-20.6025137011
 20
32.7892815896
  0
LINE
  5
23E
100
AcDbEntity
  8
ASSI
100
AcDbLine
 62
7
  6
CONTINUOUS
 10
-4.3605950734
 20
24.1552898186
 11
-9.8994948631
 21
20.9571984988
  0
LINE
  5
23F
100
AcDbEntity
  8
ASSI
100
AcDbLine
 62
7
  6
CONTINUOUS
 10
-13.5057394472
 20
18.8749980728
 11
-13.5140781093
 21
18.8701834338
  0
LWPOLYLINE
  5
240
100
AcDbEntity
  8
ASSI
100
AcDbPolyline
 62
7
  6
CONTINUOUS
 90
9
 70
0
 10
-11.8937856158
 20
22.108676985
 10
-12.1180222526
 20
22.0078220513
 10
-12.3396030012
 20
21.905139611
 10
-12.5585278618
 20
21.8006296641
 10
-12.7748420094
 20
21.6942693357
 10
-12.9885002689
 20
21.5860815007
 10
-13.1993671151
 20
21.4761347836
 10
-13.407440777
 20
21.3644280684
 10
-13.5480279483
 20
21.2867213622
  0
LWPOLYLINE
  5
241
100
AcDbEntity
  8
ASSI
100
AcDbPolyline
 62
7
  6
CONTINUOUS
 90
34
 70
0
 10
-16.2276388463
 20
-24.758091091
 10
-16.161814162
 20
-24.9504205614
 10
-16.0905476463
 20
-25.1426966687
 10
-16.0137896864
 20
-25.3348280303
 10
-15.9314811601
 20
-25.5267498157
 10
-15.8435881698
 20
-25.7183420311
 10
-15.7501074952
 20
-25.9094352493
 10
-15.6510179621
 20
-26.0999161781
 10
-15.5462736187
 20
-26.2897248397
 10
-15.4358398149
 20
-26.4787804003
 10
-15.319676263
 20
-26.6670132002
 10
-15.1977605862
 20
-26.854326693
 10
-15.0700859272
 20
-27.0406074447
 10
-14.9366041674
 20
-27.2258063064
 10
-14.7973097199
 20
-27.409815567
 10
-14.6522696262
 20
-27.59244519
 10
-14.5014496106
 20
-27.773646072
 10
-14.3448518766
 20
-27.9533254267
 10
-14.1826200297
 20
-28.131243559
 10
-14.014737662
 20
-28.3073551238
 10
-13.841218928
 20
-28.481582583
 10
-13.6622842136
 20
-28.6536573698
 10
-13.4779438557
 20
-28.8235352672
 10
-13.2882213326
 20
-28.9911598188
 10
-13.0933932979
 20
-29.1562654375
 10
-12.8934987671
 20
-29.3188105616
 10
-12.6885699784
 20
-29.4787590567
 10
-12.4789110657
 20
-29.6358744624
 10
-12.2645879961
 20
-29.7901192563
 10
-12.0456406167
 20
-29.9414746894
 10
-11.8223686482
 20
-30.0897510043
 10
-11.5949240289
 20
-30.2348757051
 10
-11.3632921278
 20
-30.3768842451
 10
-11.1275381572
 20
-30.5157573693
  0
LINE
  5
242
100
AcDbEntity
  8
ASSI
100
AcDbLine
 62
7
  6
CONTINUOUS
 10
-19.3813576039
 20
27.5236414147
 11
-19.2929334074
 21
24.4036920967
  0
LWPOLYLINE
  5
243
100
AcDbEntity
  8
ASSI
100
AcDbPolyline
 62
250
  6
CONTINUOUS
 90
162
 70
0
 10
-19.887802928
 20
26.9619209289
 10
-19.8897737169
 20
27.0862062374
 10
-19.8887083996
 20
27.2555989149
 10
-19.8833159413
 20
27.4249640822
 10
-19.8735975165
 20
27.5942648846
 10
-19.8595552408
 20
27.7634644883
 10
-19.8411921726
 20
27.932526065
 10
-19.8185123071
 20
28.1014128484
 10
-19.7915205717
 20
28.2700881425
 10
-19.7602228296
 20
28.4385152827
 10
-19.7246258929
 20
28.6066575907
 10
-19.6847375171
 20
28.7744784309
 10
-19.6405663907
 20
28.9419412606
 10
-19.5921221185
 20
29.1090096761
 10
-19.5394152295
 20
29.2756473673
 10
-19.4824571805
 20
29.4418181046
 10
-19.4212603701
 20
29.6074857089
 10
-19.3558381271
 20
29.7726140982
 10
-19.2862046978
 20
29.9371673204
 10
-19.2123752239
 20
30.1011096001
 10
-19.134365751
 20
30.2644053077
 10
-19.0521932377
 20
30.4270189387
 10
-18.9658755717
 20
30.5889150895
 10
-18.87543155
 20
30.7500585044
 10
-18.7808808627
 20
30.9104141052
 10
-18.6822440718
 20
31.0699470229
 10
-18.5795426225
 20
31.2286225723
 10
-18.4727988495
 20
31.386406244
 10
-18.3620359845
 20
31.5432636957
 10
-18.2472781374
 20
31.6991607837
 10
-18.1285502826
 20
31.8540635819
 10
-18.005878246
 20
32.0079383969
 10
-17.8792887108
 20
32.1607517584
 10
-17.7488092166
 20
32.3124704216
 10
-17.6144681534
 20
32.4630613749
 10
-17.4762947485
 20
32.6124918554
 10
-17.3343190604
 20
32.7607293554
 10
-17.1885719813
 20
32.9077416194
 10
-17.0390852307
 20
33.0534966532
 10
-16.8858913416
 20
33.1979627367
 10
-16.7290236359
 20
33.3411084477
 10
-16.5685162245
 20
33.4829026589
 10
-16.4044040124
 20
33.6233145333
 10
-16.236722719
 20
33.7623135081
 10
-16.0655088541
 20
33.899869319
 10
-15.8907996909
 20
34.0359520221
 10
-15.7126332205
 20
34.1705320275
 10
-15.5310481701
 20
34.3035800824
 10
-15.3460840184
 20
34.4350672581
 10
-15.1577810327
 20
34.5649649273
 10
-14.9661802254
 20
34.6932447985
 10
-14.7713233154
 20
34.8198789424
 10
-14.573252668
 20
34.9448398288
 10
-14.3720113274
 20
35.0681003016
 10
-14.1676430411
 20
35.189633563
 10
-13.9601923056
 20
35.3094131498
 10
-13.7497043087
 20
35.4274129709
 10
-13.5362248831
 20
35.5436073347
 10
-13.3198004411
 20
35.6579709818
 10
-13.1004780153
 20
35.770479059
 10
-12.8783052864
 20
35.8811071052
 10
-12.6533306258
 20
35.9898310323
 10
-12.425603033
 20
36.0966271602
 10
-12.1951720886
 20
36.2014722392
 10
-11.9620878951
 20
36.3043434746
 10
-11.7264011168
 20
36.4052185058
 10
-11.4881630015
 20
36.5040753972
 10
-11.2474254102
 20
36.6008926275
 10
-11.0042407587
 20
36.6956491168
 10
-10.7586619798
 20
36.7883242408
 10
-10.5107424814
 20
36.8788978458
 10
-10.2605361741
 20
36.9673502366
 10
-10.0080974792
 20
37.0536621735
 10
-9.7534813338
 20
37.1378148723
 10
-9.4967431502
 20
37.2197900186
 10
-9.2379387923
 20
37.2995697756
 10
-8.9771245618
 20
37.3771367878
 10
-8.7143572022
 20
37.4524741796
 10
-8.4496938874
 20
37.5255655591
 10
-8.1831921956
 20
37.5963950252
 10
-7.9149100947
 20
37.6649471713
 10
-7.64490594
 20
37.7312070857
 10
-7.3732384893
 20
37.7951603487
 10
-7.0999668774
 20
37.8567930393
 10
-6.8251505832
 20
37.9160917438
 10
-6.5488493748
 20
37.9730435665
 10
-6.2711233246
 20
38.0276361251
 10
-5.9920328238
 20
38.0798575472
 10
-5.7116386255
 20
38.1296964642
 10
-5.4300017906
 20
38.1771420228
 10
-5.1471836359
 20
38.2221838947
 10
-4.863245653
 20
38.2648122883
 10
-4.5782495502
 20
38.305017939
 10
-4.2922572885
 20
38.3427921042
 10
-4.0053311346
 20
38.3781265581
 10
-3.71753358
 20
38.4110136048
 10
-3.4289272851
 20
38.4414460856
 10
-3.1395749971
 20
38.4694173853
 10
-2.8495396029
 20
38.4949214247
 10
-2.5588841515
 20
38.5179526579
 10
-2.2676719326
 20
38.5385060684
 10
-1.9759663968
 20
38.556577178
 10
-1.6838310686
 20
38.5721620536
 10
-1.391329449
 20
38.5852573099
 10
-1.0985250936
 20
38.5958601016
 10
-0.8054816797
 20
38.6039681221
 10
-0.5122629913
 20
38.6095796053
 10
-0.2189328221
 20
38.6126933298
 10
0.0744449975
 20
38.6133086173
 10
0.3678066492
 20
38.6114253335
 10
0.661088342
 20
38.6070438866
 10
0.9542263567
 20
38.6001652258
 10
1.247156826
 20
38.5907908471
 10
1.5398157846
 20
38.5789227987
 10
1.8321394885
 20
38.5645636709
 10
2.1240644097
 20
38.5477165895
 10
2.4155270162
 20
38.5283852256
 10
2.7064637008
 20
38.5065738054
 10
2.9968113628
 20
38.4822870668
 10
3.2865073988
 20
38.455530244
 10
3.5754888515
 20
38.4263091409
 10
3.863692771
 20
38.3946301119
 10
4.1510567916
 20
38.3604999976
 10
4.4375189981
 20
38.3239261244
 10
4.7230164408
 20
38.2849165019
 10
5.0074855074
 20
38.2434798229
 10
5.2908643547
 20
38.1996251163
 10
5.5730912966
 20
38.1533619491
 10
5.854103349
 20
38.1047006894
 10
6.133837665
 20
38.0536523101
 10
6.4122351746
 20
38.0002276816
 10
6.6892389463
 20
37.9444377439
 10
6.9647881164
 20
37.8862947272
 10
7.2388233023
 20
37.825811133
 10
7.5112901238
 20
37.7629988493
 10
7.7821332149
 20
37.6978703858
 10
8.0512894449
 20
37.6304406679
 10
8.3186933483
 20
37.5607260043
 10
8.5842896688
 20
37.488740767
 10
8.8480176578
 20
37.4145013871
 10
9.109804667
 20
37.3380285712
 10
9.3695860819
 20
37.2593418282
 10
9.6273138832
 20
37.1784563415
 10
9.8829411135
 20
37.0953872138
 10
10.1364033898
 20
37.0101557404
 10
10.3876548599
 20
36.9227777165
 10
10.6366759226
 20
36.8332595687
 10
10.8834220291
 20
36.7416161094
 10
11.1278280852
 20
36.6478703023
 10
11.3698433312
 20
36.5520405216
 10
11.6094325484
 20
36.4541391938
 10
11.8465238065
 20
36.3541941759
 10
12.0810136018
 20
36.2522489203
 10
12.3128535073
 20
36.1483252844
 10
12.5419917685
 20
36.0424472802
 10
12.7683244387
 20
35.9346649704
 10
12.9918050597
 20
35.8250037174
 10
13.2123878102
 20
35.7134892832
 10
13.4299748107
 20
35.6001756831
 10
13.6445064911
 20
35.4851001702
 10
13.85595928
 20
35.3682816994
 10
14.064292568
 20
35.2497486802
  0
LINE
  5
244
100
AcDbEntity
  8
ASSI
100
AcDbLine
 62
7
  6
CONTINUOUS
 10
-21.9876154355
 20
9.9183879364
 11
-21.9914094513
 21
10.1825337218
  0
LWPOLYLINE
  5
245
100
AcDbEntity
  8
ASSI
100
AcDbPolyline
 62
7
  6
CONTINUOUS
 90
42
 70
0
 10
-21.9999999265
 20
11.6078815014
 10
-21.9998213335
 20
11.5566773164
 10
-21.9949636695
 20
11.3361578986
 10
-21.9834746389
 20
11.1156538738
 10
-21.9653646176
 20
10.8953645763
 10
-21.9406276187
 20
10.6752901999
 10
-21.9092696291
 20
10.4554305507
 10
-21.8713189849
 20
10.2359843811
 10
-21.8267697251
 20
10.0169520646
 10
-21.7756278108
 20
9.7983332276
 10
-21.7179394616
 20
9.5803255014
 10
-21.6536987583
 20
9.3629294383
 10
-21.5829116201
 20
9.1461444859
 10
-21.5056420251
 20
8.9301666186
 10
-21.4218841116
 20
8.7149965657
 10
-21.3316437412
 20
8.5006335977
 10
-21.2350024767
 20
8.2872715003
 10
-21.1319545301
 20
8.0749111782
 10
-21.0225056893
 20
7.8635517266
 10
-20.9067548807
 20
7.6533842168
 10
-20.7846964058
 20
7.4444097264
 10
-20.656335963
 20
7.2366271778
 10
-20.5217895741
 20
7.0302244099
 10
-20.3810516455
 20
6.8252026699
 10
-20.2341277708
 20
6.6215607106
 10
-20.0811507525
 20
6.4194826287
 10
-19.922115117
 20
6.218969838
 10
-19.757026338
 20
6.0200209247
 10
-19.5860336387
 20
5.8228157442
 10
-19.4091316805
 20
5.627355873
 10
-19.2263258019
 20
5.4336397346
 10
-19.0377812424
 20
5.2418424551
 10
-18.8434928126
 20
5.0519657693
 10
-18.6434657019
 20
4.8640079425
 10
-18.4378807176
 20
4.6781388965
 10
-18.2267328339
 20
4.4943605198
 10
-18.0100270766
 20
4.3126709238
 10
-17.7879593308
 20
4.1332343653
 10
-17.5605247287
 20
3.9560528691
 10
-17.3277281381
 20
3.7811244103
 10
-17.0897800475
 20
3.6086071713
 10
-16.8466758743
 20
3.4385033807
  0
LWPOLYLINE
  5
246
100
AcDbEntity
  8
ASSI
100
AcDbPolyline
 62
7
  6
CONTINUOUS
 90
3
 70
0
 10
-21.999961814
 20
11.5973200618
 10
-21.9969093399
 20
10.7528887426
 10
-21.9914102002
 20
10.182533531
  0
LINE
  5
247
100
AcDbEntity
  8
ASSI
100
AcDbLine
 62
7
  6
CONTINUOUS
 10
-21.9999943459
 20
11.5997154428
 11
-21.9983239105
 21
11.7646524573
  0
LWPOLYLINE
  5
248
100
AcDbEntity
  8
ASSI
100
AcDbPolyline
 62
250
  6
CONTINUOUS
 90
66
 70
0
 10
-21.6665505314
 20
27.28235267
 10
-21.6681969126
 20
27.1198895882
 10
-21.6657503765
 20
26.9397489851
 10
-21.6588118051
 20
26.7596474114
 10
-21.6473826408
 20
26.5796222426
 10
-21.6314652534
 20
26.3997107693
 10
-21.6110629473
 20
26.2199503162
 10
-21.5861799613
 20
26.0403781929
 10
-21.5568214533
 20
25.861031591
 10
-21.522993494
 20
25.6819476002
 10
-21.4847030808
 20
25.5031632973
 10
-21.4419581578
 20
25.3247158041
 10
-21.3947676015
 20
25.1466421854
 10
-21.3431412046
 20
24.9689793871
 10
-21.2870896652
 20
24.791764219
 10
-21.2266246017
 20
24.6150334132
 10
-21.1617585459
 20
24.4388235998
 10
-21.0925049506
 20
24.2631713252
 10
-21.0188781858
 20
24.0881130344
 10
-20.9408935306
 20
23.9136850483
 10
-20.8585671451
 20
23.7399235053
 10
-20.7719160743
 20
23.5668643812
 10
-20.680958266
 20
23.394543528
 10
-20.5857125914
 20
23.2229967033
 10
-20.4861988178
 20
23.0522595112
 10
-20.3824375905
 20
22.8823673697
 10
-20.2744504125
 20
22.7133554841
 10
-20.1622596604
 20
22.5452588759
 10
-20.0458885856
 20
22.3781123848
 10
-19.9253613232
 20
22.2119506785
 10
-19.8007028751
 20
22.0468082253
 10
-19.6719390958
 20
21.8827192744
 10
-19.5390966755
 20
21.7197178368
 10
-19.4022031471
 20
21.557837696
 10
-19.2612868889
 20
21.3971124104
 10
-19.1163771211
 20
21.2375753087
 10
-18.9675038895
 20
21.0792594697
 10
-18.8146980585
 20
20.9221977158
 10
-18.6579913115
 20
20.7664226131
 10
-18.4974161468
 20
20.6119664665
 10
-18.3330058653
 20
20.4588613069
 10
-18.1647945474
 20
20.3071388707
 10
-17.9928170533
 20
20.1568306008
 10
-17.817109025
 20
20.0079676498
 10
-17.6377069053
 20
19.860580894
 10
-17.4546479152
 20
19.7147009119
 10
-17.2679700295
 20
19.5703579639
 10
-17.0777119345
 20
19.4275819613
 10
-16.8839130434
 20
19.2864024812
 10
-16.6866135104
 20
19.1468487773
 10
-16.485854266
 20
19.0089498025
 10
-16.2816769756
 20
18.8727341762
 10
-16.074124003
 20
18.738230159
 10
-15.863238353
 20
18.6054656179
 10
-15.6490637022
 20
18.4744680498
 10
-15.431644422
 20
18.3452645962
 10
-15.2110256215
 20
18.2178820656
 10
-14.9872530929
 20
18.092346898
 10
-14.760373267
 20
17.9686851388
 10
-14.5304331513
 20
17.8469224074
 10
-14.2974803687
 20
17.7270839221
 10
-14.0615631831
 20
17.6091945134
 10
-13.8227305403
 20
17.4932786417
 10
-13.5810320073
 20
17.3793603639
 10
-13.3365177286
 20
17.2674633129
 10
-13.0892383702
 20
17.1576106733
  0
LINE
  5
249
100
AcDbEntity
  8
ASSI
100
AcDbLine
 62
7
  6
CONTINUOUS
 10
-21.6665505314
 20
27.2823526698
 11
-21.9983238026
 21
11.7646575027
  0
LWPOLYLINE
  5
24A
100
AcDbEntity
  8
ASSI
100
AcDbPolyline
 62
7
  6
CONTINUOUS
 90
10
 70
0
 10
-21.6665505314
 20
27.2823526698
 10
-21.662748238
 20
27.4098598195
 10
-21.6567931518
 20
27.5373589819
 10
-21.6486847811
 20
27.6648359209
 10
-21.6384233605
 20
27.7922712361
 10
-21.6260086432
 20
27.9196558938
 10
-21.6114390232
 20
28.0469912348
 10
-21.59471355
 20
28.1742682646
 10
-21.5758328067
 20
28.3014676497
 10
-21.5547970875
 20
28.4285752562
  0
LWPOLYLINE
  5
24B
100
AcDbEntity
  8
ASSI
100
AcDbPolyline
 62
7
  6
CONTINUOUS
 90
7
 70
0
 10
-9.2288618946
 20
17.1449997
 10
-9.1846871863
 20
17.1782384294
 10
-9.1377984897
 20
17.2118339056
 10
-9.0895667448
 20
17.2447574426
 10
-9.0400184847
 20
17.2769900293
 10
-8.9891271762
 20
17.3085506767
 10
-8.9368928194
 20
17.3394393848
  0
LINE
  5
24C
100
AcDbEntity
  8
0
100
AcDbLine
 62
7
  6
CONTINUOUS
 10
10.9743099292
 20
31.7449408159
 11
11.0666903056
 21
31.8103873417
  0
LINE
  5
24D
100
AcDbEntity
  8
ASSI
100
AcDbLine
 62
250
  6
CONTINUOUS
 10
-8.7868478542
 20
17.7186120958
 11
-8.7426411167
 21
17.7459715255
  0
LWPOLYLINE
  5
24E
100
AcDbEntity
  8
ASSI
100
AcDbPolyline
 62
7
  6
CONTINUOUS
 90
15
 70
0
 10
-8.7327686742
 20
17.6298158
 10
-8.7823839812
 20
17.6004452187
 10
-8.830715691
 20
17.5703695704
 10
-8.8777337588
 20
17.5396075512
 10
-8.9234089563
 20
17.5081782838
 10
-8.9677128904
 20
17.4761013059
 10
-9.0106180201
 20
17.4433965576
 10
-9.052097674
 20
17.4100843694
 10
-9.0921260669
 20
17.3761854494
 10
-9.1306783156
 20
17.3417208703
 10
-9.1677304547
 20
17.3067120565
 10
-9.2032594513
 20
17.2711807708
 10
-9.2372432193
 20
17.2351491007
 10
-9.2696606331
 20
17.1986394449
 10
-9.2967718086
 20
17.1661342996
  0
LINE
  5
24F
100
AcDbEntity
  8
ASSI
100
AcDbLine
 62
250
  6
CONTINUOUS
 10
-8.7426411167
 20
17.7459715255
 11
-8.6974133351
 21
17.7726961257
  0
LWPOLYLINE
  5
250
100
AcDbEntity
  8
0
100
AcDbPolyline
 62
7
  6
CONTINUOUS
 90
7
 70
0
 10
11.0666903056
 20
31.8103873417
 10
11.1640222653
 20
31.865975103
 10
11.2676323239
 20
31.9123081512
 10
11.3758857693
 20
31.9492403208
 10
11.4841358271
 20
31.9761657905
 10
11.5918888226
 20
31.9932002669
 10
11.6579520329
 20
31.9991387965
  0
LWPOLYLINE
  5
251
100
AcDbEntity
  8
ASSI
100
AcDbPolyline
 62
250
  6
CONTINUOUS
 90
126
 70
0
 10
-9.0509667257
 20
18.3850685608
 10
-8.9963941769
 20
18.4158662181
 10
-8.9405735746
 20
18.4459333475
 10
-8.8835049189
 20
18.475269949
 10
-8.8251467442
 20
18.5038998687
 10
-8.7655405162
 20
18.5317992604
 10
-8.7048106312
 20
18.558896586
 10
-8.6429533485
 20
18.5851881409
 10
-8.5799724089
 20
18.6106776297
 10
-8.5160034313
 20
18.6353046276
 10
-8.4510442791
 20
18.6590651647
 10
-8.3850970889
 20
18.6819632109
 10
-8.3183038893
 20
18.7039502515
 10
-8.2506756558
 20
18.7250197751
 10
-8.1822014129
 20
18.745178293
 10
-8.112990262
 20
18.7643968243
 10
-8.0430482492
 20
18.7826728211
 10
-7.9723693284
 20
18.8000088313
 10
-7.9010444623
 20
18.8163835175
 10
-7.8290665255
 20
18.8317975805
 10
-7.7564426435
 20
18.8462503195
 10
-7.6832851558
 20
18.859718294
 10
-7.6095877688
 20
18.8722006917
 10
-7.5353567761
 20
18.8836983249
 10
-7.4607233981
 20
18.8941901902
 10
-7.3856891387
 20
18.9036739369
 10
-7.310252494
 20
18.9121519156
 10
-7.2345401732
 20
18.9196101753
 10
-7.1585543396
 20
18.9260468074
 10
-7.0822928301
 20
18.9314637204
 10
-7.0058758634
 20
18.9358526882
 10
-6.9293027573
 20
18.9392122254
 10
-6.8525741942
 20
18.9415438174
 10
-6.7758124405
 20
18.9428436936
 10
-6.6990162624
 20
18.9431102199
 10
-6.6221868938
 20
18.9423450304
 10
-6.545450302
 20
18.9405492566
 10
-6.4688067502
 20
18.9377211717
 10
-6.3922559752
 20
18.9338625026
 10
-6.3159231554
 20
18.9289795612
 10
-6.2398090107
 20
18.9230706918
 10
-6.1639128212
 20
18.9161375501
 10
-6.0883576046
 20
18.9081914157
 10
-6.0131439558
 20
18.899230663
 10
-5.93827128
 20
18.8892569174
 10
-5.863860811
 20
18.8782863345
 10
-5.7899131709
 20
18.8663172839
 10
-5.7164277377
 20
18.8533513959
 10
-5.6435238788
 20
18.839409717
 10
-5.5712025
 20
18.8244906486
 10
-5.4994626954
 20
18.8085957894
 10
-5.4284211149
 20
18.7917509812
 10
-5.3580789628
 20
18.773954695
 10
-5.2884350347
 20
18.7552084599
 10
-5.2196023669
 20
18.7355427052
 10
-5.1515822418
 20
18.7149559267
 10
-5.084373377
 20
18.6934496285
 10
-5.0180849609
 20
18.6710587527
 10
-4.952718536
 20
18.6477818801
 10
-4.8882725598
 20
18.6236204299
 10
-4.8248515942
 20
18.5986136019
 10
-4.7624572381
 20
18.5727599951
 10
-4.7010878926
 20
18.5460610105
 10
-4.6408433223
 20
18.5185600513
 10
-4.5817254222
 20
18.4902558456
 10
-4.5237322973
 20
18.4611496653
 10
-4.4669580272
 20
18.4312887284
 10
-4.4114045307
 20
18.4006717754
 10
-4.357069889
 20
18.3693000658
 10
-4.3040424258
 20
18.3372245963
 10
-4.2523243225
 20
18.304444259
 10
-4.2019133977
 20
18.2709601618
 10
-4.152891431
 20
18.2368266248
 10
-4.1052606249
 20
18.2020425539
 10
-4.0590187768
 20
18.1666090432
 10
-4.0142410584
 20
18.1305836949
 10
-3.970929896
 20
18.0939655854
 10
-3.9290828632
 20
18.0567556384
 10
-3.8887678531
 20
18.0190142266
 10
-3.8499873245
 20
17.9807404605
 10
-3.8127388184
 20
17.9419352295
 10
-3.7770828511
 20
17.9026615751
 10
-3.7430220271
 20
17.8629187561
 10
-3.7105537417
 20
17.8227075137
 10
-3.6797306977
 20
17.782093112
 10
-3.6505555433
 20
17.741074856
 10
-3.6230256302
 20
17.6996534407
 10
-3.5971857164
 20
17.6578962166
 10
-3.5730385696
 20
17.6158026585
 10
-3.5505814221
 20
17.5733732915
 10
-3.5298507291
 20
17.5306770411
 10
-3.5108493151
 20
17.4877135485
 10
-3.4935743555
 20
17.4444831724
 10
-3.4780538319
 20
17.4010559146
 10
-3.4642905604
 20
17.3574314363
 10
-3.4522817249
 20
17.3136100763
 10
-3.4420468593
 20
17.2696628526
 10
-3.4335888296
 20
17.2255893509
 10
-3.4269047697
 20
17.1813899856
 10
-3.4220056158
 20
17.1371370176
 10
-3.4188943582
 20
17.0928302815
 10
-3.4175680065
 20
17.0484699428
 10
-3.4180285258
 20
17.0041287585
 10
-3.4202787527
 20
16.9598074316
 10
-3.4243158505
 20
16.915505259
 10
-3.4301332744
 20
16.8712928883
 10
-3.4377335919
 20
16.8271707473
 10
-3.4471142355
 20
16.7831384082
 10
-3.4582609578
 20
16.7392652348
 10
-3.4711770385
 20
16.6955500109
 10
-3.4858591979
 20
16.6519939527
 10
-3.5022833492
 20
16.6086700737
 10
-3.5204535813
 20
16.5655774395
 10
-3.5403658052
 20
16.5227169844
 10
-3.5619836675
 20
16.480164525
 10
-3.5853086637
 20
16.437923595
 10
-3.6103392984
 20
16.3959906606
 10
-3.6370347307
 20
16.3544309367
 10
-3.6653937214
 20
16.3132486362
 10
-3.6954175099
 20
16.2724395462
 10
-3.7270689733
 20
16.2320562434
 10
-3.7603523043
 20
16.192095449
 10
-3.7952633102
 20
16.1525604417
 10
-3.8317522914
 20
16.1135136347
 10
-3.8698304441
 20
16.0749486519
 10
-3.8775253011
 20
16.0675602503
  0
LWPOLYLINE
  5
252
100
AcDbEntity
  8
ASSI
100
AcDbPolyline
 62
250
  6
CONTINUOUS
 90
90
 70
0
 10
-8.6974133351
 20
17.7726961257
 10
-8.6511354843
 20
17.7988059273
 10
-8.6037578438
 20
17.8243267272
 10
-8.5553014762
 20
17.8492421928
 10
-8.5057780573
 20
17.8735410765
 10
-8.4552199038
 20
17.8972023754
 10
-8.4036818956
 20
17.920196716
 10
-8.3511897879
 20
17.9425099899
 10
-8.2977698376
 20
17.9641284616
 10
-8.243481928
 20
17.9850263304
 10
-8.188356596
 20
18.0051912953
 10
-8.1324218462
 20
18.0246125746
 10
-8.0757372845
 20
18.0432696983
 10
-8.0183456886
 20
18.0611498918
 10
-7.9602679551
 20
18.0782479329
 10
-7.9015324645
 20
18.0945563565
 10
-7.8421771738
 20
18.1100655458
 10
-7.7822292407
 20
18.1247693173
 10
-7.7217005421
 20
18.1386650334
 10
-7.6606180349
 20
18.1517461594
 10
-7.5990202387
 20
18.1640041031
 10
-7.536936122
 20
18.1754327924
 10
-7.4743945754
 20
18.1860264103
 10
-7.4114337719
 20
18.1957779953
 10
-7.3480970806
 20
18.2046806379
 10
-7.284420831
 20
18.2127292834
 10
-7.2204375606
 20
18.2199198702
 10
-7.1561854501
 20
18.2262481897
 10
-7.0917015785
 20
18.2317107898
 10
-7.0270187205
 20
18.2363050931
 10
-6.9621687948
 20
18.2400289214
 10
-6.8971865409
 20
18.2428802963
 10
-6.8321075579
 20
18.244857672
 10
-6.7669651241
 20
18.2459600219
 10
-6.7017935259
 20
18.2461866902
 10
-6.6366290706
 20
18.245537475
 10
-6.5715080875
 20
18.2440127034
 10
-6.5064659549
 20
18.2416131915
 10
-6.4415378194
 20
18.2383402237
 10
-6.3767595947
 20
18.2341956111
 10
-6.3121666811
 20
18.2291816405
 10
-6.2477937629
 20
18.2233010264
 10
-6.1836755251
 20
18.2165569492
 10
-6.119846741
 20
18.2089530751
 10
-6.0563419509
 20
18.2004935279
 10
-5.9931952616
 20
18.1911828526
 10
-5.9304407811
 20
18.1810260716
 10
-5.8681126173
 20
18.1700286981
 10
-5.806244563
 20
18.1581966907
 10
-5.7448701046
 20
18.1455364488
 10
-5.6840225312
 20
18.1320548349
 10
-5.623734936
 20
18.1177591804
 10
-5.5640400384
 20
18.1026572474
 10
-5.5049701199
 20
18.086757206
 10
-5.4465571337
 20
18.0700676583
 10
-5.3888326978
 20
18.0525976369
 10
-5.3318281168
 20
18.0343566149
 10
-5.2755743133
 20
18.0153544882
 10
-5.2201018031
 20
17.9956015676
 10
-5.165440598
 20
17.9751085428
 10
-5.1116202322
 20
17.9538864859
 10
-5.0586698107
 20
17.9319468689
 10
-5.0066180817
 20
17.9093015988
 10
-4.9554933364
 20
17.8859629837
 10
-4.9053233273
 20
17.8619436974
 10
-4.8561351748
 20
17.8372567288
 10
-4.8079554466
 20
17.8119154119
 10
-4.7608101967
 20
17.7859334456
 10
-4.714725024
 20
17.7593249327
 10
-4.6697249727
 20
17.7321043329
 10
-4.6258344681
 20
17.7042864265
 10
-4.5830772365
 20
17.6758862566
 10
-4.541476372
 20
17.6469191627
 10
-4.5010543714
 20
17.6174008038
 10
-4.4618331852
 20
17.5873472034
 10
-4.4238341306
 20
17.5567746961
 10
-4.3870778298
 20
17.52569988
 10
-4.3515841526
 20
17.4941395604
 10
-4.3173722766
 20
17.4621107902
 10
-4.2844607167
 20
17.4296308982
 10
-4.2528673307
 20
17.3967175033
 10
-4.2226092575
 20
17.3633884592
 10
-4.1937029044
 20
17.3296618403
 10
-4.1661639163
 20
17.2955559025
 10
-4.1400071913
 20
17.2610890944
 10
-4.1152468806
 20
17.2262800551
 10
-4.0918964282
 20
17.1911476759
 10
-4.0699685316
 20
17.1557110632
 10
-4.0494750758
 20
17.119989436
 10
-4.0304271467
 20
17.0840021303
  0
LWPOLYLINE
  5
253
100
AcDbEntity
  8
ASSI
100
AcDbPolyline
 62
7
  6
CONTINUOUS
 90
69
 70
0
 10
-8.9368928194
 20
17.3394393848
 10
-8.8833954543
 20
17.3695988478
 10
-8.8287343312
 20
17.3989828515
 10
-8.77290945
 20
17.4275913959
 10
-8.7158878852
 20
17.4554398009
 10
-8.6577025622
 20
17.4825127467
 10
-8.5984522584
 20
17.5087642733
 10
-8.5381351646
 20
17.5341929856
 10
-8.4767530899
 20
17.5588002787
 10
-8.4144102383
 20
17.5825443787
 10
-8.3511049777
 20
17.6054238193
 10
-8.2868389402
 20
17.6274400667
 10
-8.2217212257
 20
17.6485557456
 10
-8.1557503874
 20
17.6687693261
 10
-8.0889278721
 20
17.6880823381
 10
-8.0213671196
 20
17.7064619951
 10
-7.953066876
 20
17.7239067119
 10
-7.8840283951
 20
17.7404180737
 10
-7.8143688787
 20
17.7559680504
 10
-7.744087272
 20
17.770555009
 10
-7.6731846298
 20
17.7841805825
 10
-7.6017813186
 20
17.7968216398
 10
-7.5298764878
 20
17.8084765086
 10
-7.4574709879
 20
17.819146861
 10
-7.3846877366
 20
17.8288145829
 10
-7.3115260922
 20
17.8374779712
 10
-7.2379866965
 20
17.845138729
 10
-7.164194392
 20
17.851783851
 10
-7.090148749
 20
17.8574116122
 10
-7.0158501973
 20
17.8620237377
 10
-6.9414248682
 20
17.8656123979
 10
-6.8668725464
 20
17.8681758543
 10
-6.7921934471
 20
17.8697158452
 10
-6.7175143478
 20
17.8702297565
 10
-6.6428352485
 20
17.8697158452
 10
-6.5681561492
 20
17.8681758543
 10
-6.4936038274
 20
17.8656123979
 10
-6.4191784982
 20
17.8620237377
 10
-6.3448799465
 20
17.8574116122
 10
-6.2708343036
 20
17.851783851
 10
-6.1970419991
 20
17.845138729
 10
-6.1235026033
 20
17.8374779712
 10
-6.050340959
 20
17.8288145829
 10
-5.9775577077
 20
17.819146861
 10
-5.9051522078
 20
17.8084765086
 10
-5.833247377
 20
17.7968216398
 10
-5.7618440658
 20
17.7841805825
 10
-5.6909414236
 20
17.770555009
 10
-5.6206598169
 20
17.7559680504
 10
-5.5510003005
 20
17.7404180737
 10
-5.4819618196
 20
17.7239067119
 10
-5.4136615759
 20
17.7064619951
 10
-5.3461008234
 20
17.6880823381
 10
-5.2792783081
 20
17.6687693261
 10
-5.2133074699
 20
17.6485557456
 10
-5.1481897553
 20
17.6274400667
 10
-5.0839237178
 20
17.6054238193
 10
-5.0206184573
 20
17.5825443787
 10
-4.9582756057
 20
17.5588002787
 10
-4.896893531
 20
17.5341929856
 10
-4.8365764372
 20
17.5087642733
 10
-4.7773261333
 20
17.4825127467
 10
-4.7191408104
 20
17.4554398009
 10
-4.6621192455
 20
17.4275913959
 10
-4.6062634154
 20
17.3989662144
 10
-4.5515713434
 20
17.3695655736
 10
-4.4981358762
 20
17.3394393848
 10
-4.4459591483
 20
17.3085864158
 10
-4.3950390254
 20
17.2770078988
  0
LWPOLYLINE
  5
254
100
AcDbEntity
  8
ASSI
100
AcDbPolyline
 62
7
  6
CONTINUOUS
 90
83
 70
0
 10
-8.6974133351
 20
17.6910490981
 10
-8.6485632092
 20
17.7185732326
 10
-8.5986281564
 20
17.7453720061
 10
-8.5476081767
 20
17.7714454186
 10
-8.4954717377
 20
17.7968080669
 10
-8.4422503717
 20
17.8214453541
 10
-8.3880386758
 20
17.8453134894
 10
-8.3328348886
 20
17.8684111048
 10
-8.2766407713
 20
17.8907395682
 10
-8.2195562049
 20
17.9122591925
 10
-8.1615796055
 20
17.9329685391
 10
-8.1027125569
 20
17.9528690467
 10
-8.0430596907
 20
17.9719253435
 10
-7.9826196095
 20
17.9901359281
 10
-7.9213937106
 20
18.007502302
 10
-7.8594908187
 20
18.0239935977
 10
-7.7969097295
 20
18.039608259
 10
-7.7336516471
 20
18.0543478421
 10
-7.669829008
 20
18.0681861485
 10
-7.6054408081
 20
18.0811215754
 10
-7.5404880514
 20
18.0931557256
 10
-7.4750861866
 20
18.1042672094
 10
-7.4092344149
 20
18.1144543859
 10
-7.342933535
 20
18.1237188959
 10
-7.2763013917
 20
18.1320442725
 10
-7.2093373958
 20
18.1394288455
 10
-7.1420421366
 20
18.1458742851
 10
-7.0745352261
 20
18.151369135
 10
-7.006816288
 20
18.1559117046
 10
-6.9388856987
 20
18.1595036846
 10
-6.8708641996
 20
18.1621386904
 10
-6.8027516291
 20
18.1638150201
 10
-6.7345481489
 20
18.1645343757
 10
-6.6663749854
 20
18.1642954785
 10
-6.5982321925
 20
18.1630966244
 10
-6.5301197164
 20
18.1609395175
 10
-6.4621586217
 20
18.1578279919
 10
-6.3943491778
 20
18.1537603503
 10
-6.3266911153
 20
18.1487382901
 10
-6.2593046914
 20
18.1427707375
 10
-6.1921903891
 20
18.1358560111
 10
-6.1253477253
 20
18.1279957923
 10
-6.0588955078
 20
18.1192040522
 10
-5.992834431
 20
18.109479134
 10
-5.9271638004
 20
18.0988226944
 10
-5.8620003407
 20
18.0872536745
 10
-5.7973449538
 20
18.0747704511
 10
-5.7331967377
 20
18.0613746475
 10
-5.669669711
 20
18.0470900734
 10
-5.6067649784
 20
18.0319151484
 10
-5.5444814353
 20
18.0158514529
 10
-5.4829297858
 20
17.9989275392
 10
-5.4221113316
 20
17.9811418772
 10
-5.362024771
 20
17.9624959969
 10
-5.3027769034
 20
17.9430230398
 10
-5.2443692203
 20
17.9227215351
 10
-5.1868002301
 20
17.9015929536
 10
-5.1301722574
 20
17.8796748499
 10
-5.0744869756
 20
17.8569658197
 10
-5.0197427113
 20
17.8334672673
 10
-4.9660367682
 20
17.8092209595
 10
-4.9133709929
 20
17.7842255664
 10
-4.8617435388
 20
17.758482418
 10
-4.8112461698
 20
17.7320372706
 10
-4.7618808956
 20
17.7048888758
 10
-4.7136457065
 20
17.6770384822
 10
-4.6666263368
 20
17.6485355916
 10
-4.6208249489
 20
17.6193790436
 10
-4.5762393804
 20
17.5895699986
 10
-4.5329488788
 20
17.55916144
 10
-4.4909557473
 20
17.5281523015
 10
-4.4502576827
 20
17.4965436494
 10
-4.4109270228
 20
17.4643916657
 10
-4.3729661993
 20
17.4316953839
 10
-4.3363727804
 20
17.3984557705
 10
-4.3012118081
 20
17.3647319063
 10
-4.26748583
 20
17.3305229301
 10
-4.2351922985
 20
17.2958297031
 10
-4.2043886129
 20
17.2607138899
 10
-4.1750774229
 20
17.2251747389
 10
-4.1472560788
 20
17.1892130016
 10
-4.1209740309
 20
17.1528925974
 10
-4.0962340169
 20
17.1162128884
  0
LINE
  5
255
100
AcDbEntity
  8
ASSI
100
AcDbLine
 62
7
  6
CONTINUOUS
 10
-8.7327686742
 20
17.6298158
 11
-8.6819006125
 21
17.6584630565
  0
LINE
  5
256
100
AcDbEntity
  8
ASSI
100
AcDbLine
 62
7
  6
CONTINUOUS
 10
-8.6819006125
 20
17.6584630565
 11
-8.6298114176
 21
17.68636918
  0
LWPOLYLINE
  5
257
100
AcDbEntity
  8
ASSI
100
AcDbPolyline
 62
7
  6
CONTINUOUS
 90
77
 70
0
 10
-8.6298114176
 20
17.68636918
 10
-8.5765334699
 20
17.713516823
 10
-8.5220998891
 20
17.7398891097
 10
-8.4665445129
 20
17.765469646
 10
-8.4099018767
 20
17.7902425301
 10
-8.3522071914
 20
17.8141923624
 10
-8.2934963222
 20
17.8373042548
 10
-8.2338057659
 20
17.85956384
 10
-8.1731726282
 20
17.8809572808
 10
-8.111634601
 20
17.9014712781
 10
-8.0492299384
 20
17.9210930798
 10
-7.9859974334
 20
17.9398104883
 10
-7.9219763938
 20
17.957611868
 10
-7.8572066171
 20
17.9744861531
 10
-7.7917283667
 20
17.9904228539
 10
-7.7255823462
 20
18.0054120635
 10
-7.6588096744
 20
18.0194444641
 10
-7.5914518595
 20
18.0325113327
 10
-7.5235507735
 20
18.0446045465
 10
-7.4551486263
 20
18.0557165877
 10
-7.3862879391
 20
18.0658405489
 10
-7.3170115182
 20
18.0749701366
 10
-7.2473624282
 20
18.0830996756
 10
-7.1773839656
 20
18.0902241121
 10
-7.1071196315
 20
18.0963390174
 10
-7.0366131047
 20
18.1014405902
 10
-6.9659082146
 20
18.1055256593
 10
-6.895048914
 20
18.1085916852
 10
-6.8240792515
 20
18.1106367619
 10
-6.7530433444
 20
18.1116596182
 10
-6.6819853512
 20
18.1116596182
 10
-6.6109494441
 20
18.1106367619
 10
-6.5399797816
 20
18.1085916852
 10
-6.469120481
 20
18.1055256593
 10
-6.3984155909
 20
18.1014405902
 10
-6.3279090641
 20
18.0963390174
 10
-6.25764473
 20
18.0902241121
 10
-6.1876662674
 20
18.0830996756
 10
-6.1180171774
 20
18.0749701366
 10
-6.0487407565
 20
18.0658405489
 10
-5.9798800692
 20
18.0557165877
 10
-5.9114779221
 20
18.0446045465
 10
-5.8435768361
 20
18.0325113327
 10
-5.7762190212
 20
18.0194444641
 10
-5.7094463494
 20
18.0054120635
 10
-5.6433003289
 20
17.9904228539
 10
-5.5778220785
 20
17.9744861531
 10
-5.5130523018
 20
17.957611868
 10
-5.4490312621
 20
17.9398104883
 10
-5.3857987572
 20
17.9210930798
 10
-5.3233940946
 20
17.9014712781
 10
-5.2618560674
 20
17.8809572808
 10
-5.2012229297
 20
17.85956384
 10
-5.1415323734
 20
17.8373042548
 10
-5.0828215042
 20
17.8141923624
 10
-5.0251268189
 20
17.7902425301
 10
-4.9684841826
 20
17.765469646
 10
-4.9129288065
 20
17.7398891097
 10
-4.8584952256
 20
17.713516823
 10
-4.805217278
 20
17.68636918
 10
-4.7531280831
 20
17.6584630565
 10
-4.7022600214
 20
17.6298158
 10
-4.6526447143
 20
17.6004452187
 10
-4.6043130046
 20
17.5703695704
 10
-4.5572949368
 20
17.5396075512
 10
-4.5116197392
 20
17.5081782838
 10
-4.4673158051
 20
17.4761013059
 10
-4.4244106755
 20
17.4433965576
 10
-4.3829310216
 20
17.4100843694
 10
-4.3429026287
 20
17.3761854494
 10
-4.30435038
 20
17.3417208703
 10
-4.2672982409
 20
17.3067120565
 10
-4.2317692443
 20
17.2711807708
 10
-4.1977854763
 20
17.2351491007
 10
-4.1653680625
 20
17.1986394449
 10
-4.1345371547
 20
17.1616744989
 10
-4.1158824918
 20
17.1380928585
  0
LWPOLYLINE
  5
258
100
AcDbEntity
  8
COPY-PUBBLISH
100
AcDbPolyline
 62
250
  6
CONTINUOUS
 90
38
 70
0
 10
-8.4511131179
 20
16.9245569764
 10
-8.4273361218
 20
16.9355144725
 10
-8.3448128274
 20
16.9708296165
 10
-8.2563090973
 20
17.0058168344
 10
-8.1616621901
 20
17.0401757778
 10
-8.0607322054
 20
17.0735867547
 10
-7.9536708275
 20
17.1056355031
 10
-7.84041229
 20
17.135984204
 10
-7.7209538147
 20
17.1642713664
 10
-7.5956364938
 20
17.1900639141
 10
-7.4645463299
 20
17.2130011097
 10
-7.3278387416
 20
17.2327081687
 10
-7.1860660872
 20
17.2487693965
 10
-7.0394383153
 20
17.2608333335
 10
-6.8883452074
 20
17.2685350587
 10
-6.7337172367
 20
17.2715168911
 10
-6.5756874133
 20
17.2694706296
 10
-6.4150917184
 20
17.2620953708
 10
-6.2539866138
 20
17.2492585702
 10
-6.0928987852
 20
17.2308444257
 10
-5.9324867511
 20
17.2067673815
 10
-5.7749482074
 20
17.177283875
 10
-5.6212249399
 20
17.1426080434
 10
-5.4714249234
 20
17.1028028656
 10
-5.3263730968
 20
17.0581231726
 10
-5.1867160887
 20
17.0088386394
 10
-5.0526825533
 20
16.9551025997
 10
-4.9244371502
 20
16.89702332
 10
-4.8024016511
 20
16.8348166078
 10
-4.6869569523
 20
16.768702619
 10
-4.5782449125
 20
16.6987647365
 10
-4.4766513307
 20
16.6252272338
 10
-4.3825424898
 20
16.5483295915
 10
-4.2960884008
 20
16.4681534948
 10
-4.2175638058
 20
16.3848388017
 10
-4.147429869
 20
16.2987472846
 10
-4.086105313
 20
16.2103076966
 10
-4.0757860886
 20
16.1924375899
  0
LWPOLYLINE
  5
259
100
AcDbEntity
  8
0
100
AcDbPolyline
 62
250
  6
CONTINUOUS
 90
3
 70
0
 10
-12.1972700486
 20
18.2349046604
 10
-12.1893733629
 20
18.2376405103
 10
-12.1358009699
 20
18.2506976226
  0
LWPOLYLINE
  5
25A
100
AcDbEntity
  8
ASSI
100
AcDbPolyline
 62
7
  6
CONTINUOUS
 90
12
 70
0
 10
4.9419448891
 20
-20.8073836286
 10
4.9302146254
 20
-20.8098316273
 10
4.9186989691
 20
-20.8117166551
 10
4.9074457229
 20
-20.8130301993
 10
4.896458642
 20
-20.8137705565
 10
4.8857351631
 20
-20.8139403265
 10
4.8753136282
 20
-20.8135374655
 10
4.8651928004
 20
-20.8125600623
 10
4.8553753189
 20
-20.8110110872
 10
4.8459053168
 20
-20.8088958027
 10
4.8367880646
 20
-20.8062136875
 10
4.831715733
 20
-20.8043351793
  0
LWPOLYLINE
  5
25B
100
AcDbEntity
  8
ASSI
100
AcDbPolyline
 62
7
  6
CONTINUOUS
 90
75
 70
0
 10
2.2899644821
 20
-19.1479296689
 10
2.2284797254
 20
-19.1578926449
 10
2.1729010141
 20
-19.1654559128
 10
2.1174212165
 20
-19.1715669935
 10
2.0620979353
 20
-19.1762225434
 10
2.0068733144
 20
-19.1794260611
 10
1.951574017
 20
-19.1811877629
 10
1.8961994111
 20
-19.1815274166
 10
1.8407498333
 20
-19.1804251588
 10
1.7850533524
 20
-19.1778315343
 10
1.7291097715
 20
-19.1737670217
 10
1.6729189336
 20
-19.1682108208
 10
1.6163089041
 20
-19.1610513322
 10
1.5592812601
 20
-19.1523112562
 10
1.5018339898
 20
-19.1419673366
 10
1.4437896918
 20
-19.1298388034
 10
1.3851363306
 20
-19.1159464841
 10
1.3258853952
 20
-19.1002687311
 10
1.2658946709
 20
-19.0825608377
 10
1.2051503228
 20
-19.062841224
 10
1.1436655093
 20
-19.041090419
 10
1.0813383944
 20
-19.017006698
 10
1.0181738615
 20
-18.9906178682
 10
0.9541662076
 20
-18.9618948891
 10
0.8891975847
 20
-18.9304505905
 10
0.8232689569
 20
-18.8963191148
 10
0.7563783484
 20
-18.8594648501
 10
0.6884033304
 20
-18.8193957948
 10
0.6193372528
 20
-18.7761500235
 10
0.5491855056
 20
-18.729687722
 10
0.4778435074
 20
-18.6793998534
 10
0.4052757811
 20
-18.6253056942
 10
0.3315162323
 20
-18.567383948
 10
0.2565641304
 20
-18.5049646081
 10
0.1803695195
 20
-18.4380421631
 10
0.1029804738
 20
-18.3666199922
 10
0.0245431295
 20
-18.2900415327
 10
-0.0549630436
 20
-18.2083183377
 10
-0.1355196246
 20
-18.1214369134
 10
-0.2169221748
 20
-18.0287034335
 10
-0.2991837447
 20
-17.9301426776
 10
-0.3822935902
 20
-17.8257282506
 10
-0.4660116856
 20
-17.7146899793
 10
-0.5503556742
 20
-17.5970600013
 10
-0.6353103943
 20
-17.4728049877
 10
-0.7205866994
 20
-17.3410570819
 10
-0.8062086433
 20
-17.2018588155
 10
-0.8921547833
 20
-17.0551670176
 10
-0.9780677791
 20
-16.8999859243
 10
-1.0639823826
 20
-16.7363696442
 10
-1.1498665044
 20
-16.5642641348
 10
-1.2352625247
 20
-16.3825122247
 10
-1.320220134
 20
-16.1911847853
 10
-1.4046922148
 20
-15.9902119099
 10
-1.4880757948
 20
-15.7782263106
 10
-1.5704417595
 20
-15.555330091
 10
-1.6517214643
 20
-15.3214232376
 10
-1.7311022893
 20
-15.0748366317
 10
-1.8087876148
 20
-14.8151818839
 10
-1.8845756625
 20
-14.5428507712
 10
-1.9570449363
 20
-14.2573463856
 10
-2.0263648326
 20
-13.9576499185
 10
-2.0923653293
 20
-13.6447856052
 10
-2.1531131295
 20
-13.3213236427
 10
-2.2084609467
 20
-12.9867410878
 10
-2.2585510616
 20
-12.6415680853
 10
-2.3018811615
 20
-12.2899563303
 10
-2.3381853596
 20
-11.932007199
 10
-2.3677207321
 20
-11.5676256847
 10
-2.3897670444
 20
-11.2006692222
 10
-2.4041089266
 20
-10.8311825117
 10
-2.4109512576
 20
-10.459124061
 10
-2.4102033094
 20
-10.0882212852
 10
-2.4016723467
 20
-9.7185590966
 10
-2.3855407762
 20
-9.3500517553
  0
LWPOLYLINE
  5
25C
100
AcDbEntity
  8
ASSI
100
AcDbPolyline
 62
7
  6
CONTINUOUS
 90
27
 70
0
 10
-11.6788797212
 20
-29.7258093191
 10
-11.8741516966
 20
-28.9705222287
 10
-12.0644427747
 20
-28.2109582811
 10
-12.2497529554
 20
-27.4471174764
 10
-12.4300904446
 20
-26.6789640082
 10
-12.6054470365
 20
-25.9065336829
 10
-12.7757981139
 20
-25.1299339194
 10
-12.9411424564
 20
-24.3491663309
 10
-13.1014812844
 20
-23.5642293044
 10
-13.2567936423
 20
-22.7752254192
 10
-13.4070788734
 20
-21.9821541441
 10
-13.5523376344
 20
-21.1850160103
 10
-13.6925509393
 20
-20.3839151913
 10
-13.8277181292
 20
-19.5788511693
 10
-13.957839863
 20
-18.769824462
 10
-14.0828991322
 20
-17.9569407957
 10
-14.2028952755
 20
-17.1401996667
 10
-14.3178289541
 20
-16.3196015788
 10
-14.4276851434
 20
-15.49525377
 10
-14.5324631801
 20
-14.6671557505
 10
-14.6321637275
 20
-13.8353080101
 10
-14.7267737507
 20
-12.9998192565
 10
-14.8162925847
 20
-12.1606890141
 10
-14.9007208945
 20
-11.3179177585
 10
-14.9800476401
 20
-10.4716156245
 10
-15.0542721551
 20
-9.6217821508
 10
-15.1233951059
 20
-8.7684177987
  0
LWPOLYLINE
  5
25D
100
AcDbEntity
  8
ASSI
100
AcDbPolyline
 62
7
  6
CONTINUOUS
 90
11
 70
0
 10
-21.7702835926
 20
9.7770181733
 10
-21.8136928845
 20
9.9582384765
 10
-21.8525706821
 20
10.139756647
 10
-21.886912316
 20
10.3215642464
 10
-21.9167224557
 20
10.5036697131
 10
-21.941984633
 20
10.6859716631
 10
-21.9626970362
 20
10.8684773306
 10
-21.978861477
 20
11.0511794814
 10
-21.9904669229
 20
11.2339550288
 10
-21.9975101319
 20
11.4167985375
 10
-21.9999943459
 20
11.5997154428
  0
LWPOLYLINE
  5
25E
100
AcDbEntity
  8
ASSI
100
AcDbPolyline
 62
7
  6
CONTINUOUS
 90
22
 70
0
 10
-20.8858685871
 20
-4.576522528
 10
-20.7392787097
 20
-5.6014937361
 10
-20.5834505603
 20
-6.6263450163
 10
-20.4192257592
 20
-7.6457265317
 10
-20.246916237
 20
-8.6584148853
 10
-20.0664640535
 20
-9.6654277052
 10
-19.8783418535
 20
-10.6648269688
 10
-19.6833565758
 20
-11.6533534091
 10
-19.4810875261
 20
-12.6341184769
 10
-19.2700200354
 20
-13.6146926185
 10
-19.0488631679
 20
-14.6004600762
 10
-18.8187667036
 20
-15.5857082992
 10
-18.5819139317
 20
-16.5613809842
 10
-18.3389227681
 20
-17.525815001
 10
-18.0896134812
 20
-18.4805712025
 10
-17.8352982519
 20
-19.4215671893
 10
-17.5765175429
 20
-20.3479554104
 10
-17.3133399285
 20
-21.2605955014
 10
-17.0464982592
 20
-22.1580358231
 10
-16.7764638451
 20
-23.0398255302
 10
-16.5034077722
 20
-23.9064951587
 10
-16.2276388463
 20
-24.758091091
  0
LWPOLYLINE
  5
25F
100
AcDbEntity
  8
ASSI
100
AcDbPolyline
 62
7
  6
CONTINUOUS
 90
48
 70
0
 10
-20.8858685871
 20
-4.576522528
 10
-20.9394653878
 20
-4.1849216314
 10
-20.9682418939
 20
-3.9675533252
 10
-20.9980326005
 20
-3.7355523302
 10
-21.0287888738
 20
-3.4892219999
 10
-21.0604498264
 20
-3.2272798277
 10
-21.093126589
 20
-2.9487406469
 10
-21.1267174299
 20
-2.6545892629
 10
-21.1608465663
 20
-2.3464965834
 10
-21.1955576765
 20
-2.0238294046
 10
-21.2308195552
 20
-1.6872180399
 10
-21.2661473265
 20
-1.3402267293
 10
-21.3015185981
 20
-0.9828162582
 10
-21.3369667937
 20
-0.615020754
 10
-21.3720913066
 20
-0.2405131023
 10
-21.406876109
 20
0.1407770941
 10
-21.4413427848
 20
0.5287854953
 10
-21.475145879
 20
0.9196376099
 10
-21.508263731
 20
1.3133473022
 10
-21.540716568
 20
1.7099066716
 10
-21.5722201865
 20
2.1054083318
 10
-21.6027408823
 20
2.4997130388
 10
-21.6323045783
 20
2.892964973
 10
-21.6607158278
 20
3.2816810709
 10
-21.6879455962
 20
3.6657681582
 10
-21.7140110741
 20
4.0453227355
 10
-21.738787168
 20
4.4171451066
 10
-21.7622434698
 20
4.7811044362
 10
-21.7843976911
 20
5.1373330258
 10
-21.8051999935
 20
5.4830246227
 10
-21.8246011095
 20
5.8175851657
 10
-21.8426403151
 20
6.1416083658
 10
-21.8594049494
 20
6.4540686219
 10
-21.8748614641
 20
6.7543245289
 10
-21.889037489
 20
7.0430160411
 10
-21.902115877
 20
7.3210391724
 10
-21.9141012662
 20
7.5883248507
 10
-21.9249857193
 20
7.844940461
 10
-21.9349356954
 20
8.0919866935
 10
-21.9439614217
 20
8.3295413553
 10
-21.9520512717
 20
8.5575249684
 10
-21.9593407868
 20
8.7768023898
 10
-21.9658366882
 20
8.9873998198
 10
-21.9715325627
 20
9.1892894714
 10
-21.9765457782
 20
9.3832553418
 10
-21.980882358
 20
9.5693246989
 10
-21.9845379177
 20
9.7474688384
 10
-21.9876154355
 20
9.9183879364
  0
LINE
  5
260
100
AcDbEntity
  8
ASSI
100
AcDbLine
 62
7
  6
CONTINUOUS
 10
-15.1233951059
 20
-8.7684177987
 11
-15.1874074518
 21
-7.911634087
  0
LWPOLYLINE
  5
261
100
AcDbEntity
  8
ASSI
100
AcDbPolyline
 62
7
  6
CONTINUOUS
 90
11
 70
0
 10
-15.1874074518
 20
-7.911634087
 10
-15.2463085253
 20
-7.051430569
 10
-15.3000989938
 20
-6.1878076913
 10
-15.3487718195
 20
-5.3208783131
 10
-15.3923263345
 20
-4.4506419669
 10
-15.4307632067
 20
-3.5770991201
 10
-15.4640774018
 20
-2.7003640345
 10
-15.4922682483
 20
-1.8204364347
 10
-15.5153364177
 20
-0.937316596
 10
-15.5332788907
 20
-0.0511196058
 10
-15.546094661
 20
0.8381161736
  0
LWPOLYLINE
  5
262
100
AcDbEntity
  8
ASSI
100
AcDbPolyline
 62
7
  6
CONTINUOUS
 90
3
 70
0
 10
-15.546094661
 20
0.8381161736
 10
-15.553784735
 20
1.7304291046
 10
-15.5563491126
 20
2.6258191871
  0
LWPOLYLINE
  5
263
100
AcDbEntity
  8
ASSI
100
AcDbPolyline
 62
250
  6
CONTINUOUS
 90
27
 70
0
 10
-9.9495075343
 20
17.4225280342
 10
-9.9491694976
 20
17.4235308529
 10
-9.9327453464
 20
17.4668547319
 10
-9.9145751143
 20
17.5099473661
 10
-9.8946628904
 20
17.5528078212
 10
-9.8730450281
 20
17.5953602806
 10
-9.8497200318
 20
17.6376012107
 10
-9.8246893972
 20
17.6795341451
 10
-9.7979939649
 20
17.7210938689
 10
-9.7696349742
 20
17.7622761694
 10
-9.7396111857
 20
17.8030852594
 10
-9.7079597222
 20
17.8434685622
 10
-9.6746763913
 20
17.8834293567
 10
-9.6397653853
 20
17.9229643639
 10
-9.6032764042
 20
17.9620111709
 10
-9.5651982515
 20
18.0005761537
 10
-9.5255421237
 20
18.0386529363
 10
-9.4843913096
 20
18.0761599778
 10
-9.4417387715
 20
18.1130962373
 10
-9.3975915473
 20
18.1494627557
 10
-9.3520540394
 20
18.1851811144
 10
-9.3051193864
 20
18.2202494152
 10
-9.2567944498
 20
18.2546695564
 10
-9.2072042168
 20
18.2883688139
 10
-9.1563903496
 20
18.3213229465
 10
-9.1043111859
 20
18.3535561955
 10
-9.0509667257
 20
18.3850685608
  0
LWPOLYLINE
  5
264
100
AcDbEntity
  8
ASSI
100
AcDbPolyline
 62
250
  6
CONTINUOUS
 90
18
 70
0
 10
-9.3486306397
 20
17.1822735577
 10
-9.3312667295
 20
17.209305503
 10
-9.3072012358
 20
17.2442542741
 10
-9.281736394
 20
17.2788675134
 10
-9.2548768548
 20
17.3131383002
 10
-9.2266335221
 20
17.3470507768
 10
-9.1970229385
 20
17.3805832292
 10
-9.1660576051
 20
17.4137197619
 10
-9.1337465332
 20
17.4464483099
 10
-9.1001118271
 20
17.4787441602
 10
-9.0651884176
 20
17.5105733294
 10
-9.0289947288
 20
17.5419197645
 10
-8.9915521496
 20
17.5727656533
 10
-8.9529052935
 20
17.603076386
 10
-8.9130777863
 20
17.6328368352
 10
-8.872094084
 20
17.6620320233
 10
-8.8300052929
 20
17.6906300274
 10
-8.7868478542
 20
17.7186120958
  0
LWPOLYLINE
  5
265
100
AcDbEntity
  8
ASSI
100
AcDbPolyline
 62
7
  6
CONTINUOUS
 90
18
 70
0
 10
-9.3031800936
 20
17.1681286555
 10
-9.3010966168
 20
17.1711096021
 10
-9.2740529726
 20
17.2072431387
 10
-9.2454910507
 20
17.2429850927
 10
-9.2154135467
 20
17.2783361593
 10
-9.1838739209
 20
17.3132335048
 10
-9.1508695731
 20
17.3476763221
 10
-9.1164031035
 20
17.3816654181
 10
-9.0805357738
 20
17.41514038
 10
-9.0432650924
 20
17.4481002933
 10
-9.0045935509
 20
17.4805460723
 10
-8.9645898849
 20
17.5124200471
 10
-8.9232517253
 20
17.5437212009
 10
-8.8805814412
 20
17.5744505506
 10
-8.8366548758
 20
17.6045534771
 10
-8.7914973102
 20
17.6340117739
 10
-8.7450834633
 20
17.6628436476
 10
-8.6974133351
 20
17.6910490981
  0
LWPOLYLINE
  5
266
100
AcDbEntity
  8
0
100
AcDbPolyline
 62
250
  6
CONTINUOUS
 90
5
 70
0
 10
12.0484088499
 20
31.0503260583
 10
11.9825560143
 20
30.9882414492
 10
11.9151835238
 20
30.9221977811
 10
11.8464197939
 20
30.8520620448
 10
11.7764982999
 20
30.7778022369
  0
LWPOLYLINE
  5
267
100
AcDbEntity
  8
0
100
AcDbPolyline
 62
250
  6
CONTINUOUS
 90
12
 70
0
 10
11.0358211399
 20
31.6349814835
 10
11.093330719
 20
31.6864535475
 10
11.1538977919
 20
31.7327891729
 10
11.2174615901
 20
31.774070737
 10
11.2846414306
 20
31.8106177584
 10
11.3547175677
 20
31.8422584314
 10
11.4256117479
 20
31.8684291259
 10
11.4973505284
 20
31.8891382138
 10
11.5698107992
 20
31.9047163023
 10
11.640677664
 20
31.9152273604
 10
11.7095765778
 20
31.9206985738
 10
11.7768211321
 20
31.9215050025
  0
LINE
  5
268
100
AcDbEntity
  8
0
100
AcDbLine
 62
7
  6
CONTINUOUS
 10
10.8870780371
 20
31.6693911414
 11
10.9743099292
 21
31.7449408159
  0
LWPOLYLINE
  5
269
100
AcDbEntity
  8
0
100
AcDbPolyline
 62
7
  6
CONTINUOUS
 90
10
 70
0
 10
10.9051165726
 20
31.846834338
 10
10.9869178744
 20
31.9139567367
 10
11.0735530222
 20
31.9733413758
 10
11.1648919085
 20
32.0251046185
 10
11.2618929574
 20
32.0697108125
 10
11.3633806306
 20
32.1069025738
 10
11.4660161075
 20
32.1359488614
 10
11.5686200566
 20
32.156941565
 10
11.672198311
 20
32.1705429167
 10
11.7766967802
 20
32.1770896689
  0
LWPOLYLINE
  5
26A
100
AcDbEntity
  8
ASSI
100
AcDbPolyline
 62
7
  6
CONTINUOUS
 90
15
 70
0
 10
2.3526388892
 20
-19.1515079002
 10
2.3495855557
 20
-19.1503815443
 10
2.3462895065
 20
-19.1493659673
 10
2.342750729
 20
-19.1484611035
 10
2.3389576702
 20
-19.1476532644
 10
2.3349218566
 20
-19.1469559881
 10
2.3306779036
 20
-19.146410054
 10
2.326228322
 20
-19.1460236179
 10
2.3215705979
 20
-19.1457883744
 10
2.3167318247
 20
-19.1457204288
 10
2.3117145831
 20
-19.1458240957
 10
2.3065163049
 20
-19.1460949105
 10
2.3011563687
 20
-19.1465358237
 10
2.2956412428
 20
-19.147147772
 10
2.2899644821
 20
-19.1479296689
  0
LWPOLYLINE
  5
26B
100
AcDbEntity
  8
ASSI
100
AcDbPolyline
 62
7
  6
CONTINUOUS
 90
25
 70
0
 10
2.3526371964
 20
-19.1515073794
 10
2.384549381
 20
-19.1634542683
 10
2.4162901485
 20
-19.1746472386
 10
2.4478326151
 20
-19.1850762493
 10
2.4791505073
 20
-19.1947313504
 10
2.5102169335
 20
-19.2036043259
 10
2.5410044167
 20
-19.2116886811
 10
2.5714870667
 20
-19.2189768478
 10
2.6016391329
 20
-19.2254621063
 10
2.6314337918
 20
-19.2311401906
 10
2.6608460861
 20
-19.2360055092
 10
2.689851257
 20
-19.2400533453
 10
2.7184233228
 20
-19.2432817165
 10
2.7465384634
 20
-19.2456870319
 10
2.7741730921
 20
-19.2472666222
 10
2.801302215
 20
-19.2480208688
 10
2.8279034249
 20
-19.2479480845
 10
2.8539543959
 20
-19.2470477832
 10
2.8794309842
 20
-19.2453231248
 10
2.9043107997
 20
-19.2427763545
 10
2.9285745189
 20
-19.2394071265
 10
2.9522033952
 20
-19.2352157393
 10
2.9751783713
 20
-19.2302043327
 10
2.9974800984
 20
-19.2243768622
 10
3.0190902579
 20
-19.2177373993
  0
LWPOLYLINE
  5
26C
100
AcDbEntity
  8
ASSI
100
AcDbPolyline
 62
7
  6
CONTINUOUS
 90
29
 70
0
 10
4.3173901993
 20
-21.5137281658
 10
4.3270962958
 20
-21.5191205782
 10
4.3440458071
 20
-21.5275768421
 10
4.3616076157
 20
-21.5351673815
 10
4.3797335591
 20
-21.5418712436
 10
4.3984225573
 20
-21.547683784
 10
4.417670831
 20
-21.5526061101
 10
4.4374259464
 20
-21.5566257492
 10
4.4576820535
 20
-21.559738708
 10
4.4784403761
 20
-21.5619456524
 10
4.4996589908
 20
-21.5632410373
 10
4.5213455401
 20
-21.5636211219
 10
4.543488196
 20
-21.5630866666
 10
4.5660157875
 20
-21.5616388561
 10
4.5889158847
 20
-21.5592752834
 10
4.6121971641
 20
-21.5559957061
 10
4.6358201424
 20
-21.5518045818
 10
4.6597965172
 20
-21.5466962095
 10
4.6841114998
 20
-21.5406741236
 10
4.7086859765
 20
-21.5337567069
 10
4.7335077756
 20
-21.5259441275
 10
4.7585866377
 20
-21.5172345229
 10
4.7838764545
 20
-21.5076433285
 10
4.8093867329
 20
-21.4971641015
 10
4.8351063184
 20
-21.4858021407
 10
4.8609582916
 20
-21.4735906213
 10
4.8869167297
 20
-21.4605404057
 10
4.9130067159
 20
-21.4466400499
 10
4.9392280405
 20
-21.4318894087
  0
LINE
  5
26D
100
AcDbEntity
  8
ASSI
100
AcDbLine
 62
250
  6
CONTINUOUS
 10
5.0552863182
 20
-20.7605841223
 11
5.0910194451
 21
-20.7812159819
  0
LINE
  5
26E
100
AcDbEntity
  8
ASSI
100
AcDbLine
 62
7
  6
CONTINUOUS
 10
5.7865697873
 20
-20.3383502123
 11
5.8223027067
 21
-20.3589819522
  0
LINE
  5
26F
100
AcDbEntity
  8
ASSI
100
AcDbLine
 62
7
  6
CONTINUOUS
 10
4.8563782513
 20
-19.7522831413
 11
4.892856576
 21
-19.7733452688
  0
LINE
  5
270
100
AcDbEntity
  8
ASSI
100
AcDbLine
 62
7
  6
CONTINUOUS
 10
4.6013753008
 20
-18.9186648786
 11
4.6391035671
 21
-18.9404487066
  0
LINE
  5
271
100
AcDbEntity
  8
ASSI
100
AcDbLine
 62
7
  6
CONTINUOUS
 10
6.0390895814
 20
-19.0073900565
 11
6.0756263231
 21
-19.0284859133
  0
LWPOLYLINE
  5
272
100
AcDbEntity
  8
ASSI
100
AcDbPolyline
 62
7
  6
CONTINUOUS
 90
67
 70
0
 10
4.8486579638
 20
-20.8161938011
 10
4.8474069341
 20
-20.8154612539
 10
4.8397818204
 20
-20.8105448049
 10
4.8325751737
 20
-20.8050935195
 10
4.8257926221
 20
-20.7991088346
 10
4.819430116
 20
-20.7925905297
 10
4.8135101371
 20
-20.7855564707
 10
4.8080319301
 20
-20.7780009752
 10
4.8029978188
 20
-20.7699309441
 10
4.7984346987
 20
-20.7613829651
 10
4.7943475297
 20
-20.7523608739
 10
4.7907326897
 20
-20.7428618866
 10
4.7876039626
 20
-20.7329124817
 10
4.7849620098
 20
-20.7225044852
 10
4.7828073928
 20
-20.711647044
 10
4.7811534562
 20
-20.7003923966
 10
4.7800035228
 20
-20.6887466718
 10
4.7793551033
 20
-20.6767044212
 10
4.779212508
 20
-20.6643002749
 10
4.7795782959
 20
-20.6515238051
 10
4.7804505468
 20
-20.6383859749
 10
4.7818265011
 20
-20.6249532278
 10
4.7837072504
 20
-20.6112337729
 10
4.7860918493
 20
-20.5972195555
 10
4.7889741183
 20
-20.5829523393
 10
4.7923585476
 20
-20.5684202393
 10
4.7962405639
 20
-20.5536351155
 10
4.8006000212
 20
-20.5386740567
 10
4.805435462
 20
-20.5235468123
 10
4.8107477527
 20
-20.5082432055
 10
4.8165198693
 20
-20.4928101471
 10
4.8227578759
 20
-20.477235378
 10
4.8294549118
 20
-20.4615305617
 10
4.836574227
 20
-20.4457782228
 10
4.8441118045
 20
-20.4299890873
 10
4.8520704394
 20
-20.4141514876
 10
4.8604232897
 20
-20.3983141082
 10
4.8691773213
 20
-20.3824654465
 10
4.8783242253
 20
-20.3666159573
 10
4.8878139877
 20
-20.3508470516
 10
4.8976405293
 20
-20.3351694814
 10
4.9078083241
 20
-20.3195712262
 10
4.9182829707
 20
-20.3040993611
 10
4.9290713814
 20
-20.2887443395
 10
4.9401650389
 20
-20.2735144293
 10
4.9515062433
 20
-20.2584833014
 10
4.9630878979
 20
-20.243660552
 10
4.974915432
 20
-20.2290352462
 10
4.9869498239
 20
-20.2146501665
 10
4.9991971836
 20
-20.2004983043
 10
5.0116498603
 20
-20.1865854241
 10
5.0242481392
 20
-20.172973424
 10
5.0369853858
 20
-20.1596697214
 10
5.0498668128
 20
-20.1466657448
 10
5.0628504585
 20
-20.133999394
 10
5.0759404101
 20
-20.1216669692
 10
5.0891313886
 20
-20.1096711988
 10
5.1023674081
 20
-20.0980596436
 10
5.1156440323
 20
-20.0868367277
 10
5.128964755
 20
-20.0759972565
 10
5.1422855322
 20
-20.0655744009
 10
5.1556095936
 20
-20.0555664761
 10
5.1689330649
 20
-20.0459746389
 10
5.1822013146
 20
-20.0368363786
 10
5.1953960213
 20
-20.0281641007
 10
5.2085351777
 20
-20.01994513
 10
5.2216187017
 20
-20.0121793992
  0
LWPOLYLINE
  5
273
100
AcDbEntity
  8
ASSI
100
AcDbPolyline
 62
7
  6
CONTINUOUS
 90
6
 70
0
 10
-20.900916539
 20
7.6431136668
 10
-20.9976466433
 20
7.8173337851
 10
-21.0899995052
 20
7.9922934028
 10
-21.1779654543
 20
8.1679796372
 10
-21.261554161
 20
8.344405371
 10
-21.3407229122
 20
8.5214802424
  0
LWPOLYLINE
  5
274
100
AcDbEntity
  8
ASSI
100
AcDbPolyline
 62
7
  6
CONTINUOUS
 90
6
 70
0
 10
-21.41547442
 20
8.6992170273
 10
-21.4858059723
 20
8.8776029498
 10
-21.5516667196
 20
9.0565093209
 10
-21.6130497833
 20
9.235925205
 10
-21.669962042
 20
9.4158615375
 10
-21.7223732826
 20
9.5962224363
  0
LINE
  5
275
100
AcDbEntity
  8
ASSI
100
AcDbLine
 62
7
  6
CONTINUOUS
 10
-13.7147595464
 20
30.795464114
 11
-13.5057394472
 21
18.8749980728
  0
LINE
  5
276
100
AcDbEntity
  8
ASSI
100
AcDbLine
 62
7
  6
CONTINUOUS
 10
-11.9897831559
 20
34.2052563884
 11
-11.8937856158
 21
22.108676985
  0
LINE
  5
277
100
AcDbEntity
  8
ASSI
100
AcDbLine
 62
7
  6
CONTINUOUS
 10
-9.8994948631
 20
32.9983501256
 11
-9.8994948631
 21
20.9571984988
  0
LWPOLYLINE
  5
278
100
AcDbEntity
  8
0
100
AcDbPolyline
 62
250
  6
CONTINUOUS
 90
30
 70
0
 10
11.7764982999
 20
30.7778022369
 10
11.7054837229
 20
30.6992023464
 10
11.633279656
 20
30.6158522039
 10
11.5600988437
 20
30.5276631635
 10
11.4861250816
 20
30.4345419904
 10
11.4112698581
 20
30.3360595699
 10
11.3358639944
 20
30.2322487263
 10
11.2601364063
 20
30.1229565756
 10
11.1839445749
 20
30.0074434214
 10
11.107671786
 20
29.8856924005
 10
11.0317734964
 20
29.7576833821
 10
10.9563725095
 20
29.6226501485
 10
10.8819188473
 20
29.4803071755
 10
10.809219391
 20
29.3310943269
 10
10.7389983011
 20
29.1754110605
 10
10.6716851205
 20
29.0129940437
 10
10.6082090311
 20
28.8447584333
 10
10.5498581165
 20
28.6730230184
 10
10.4970958865
 20
28.4980885523
 10
10.4506251448
 20
28.3207828763
 10
10.4116126067
 20
28.1442677447
 10
10.3804622139
 20
27.9697035247
 10
10.3572761431
 20
27.7971557661
 10
10.3422202397
 20
27.6280301402
 10
10.335286106
 20
27.4630328217
 10
10.3364216673
 20
27.3025109341
 10
10.3455470989
 20
27.147254006
 10
10.3625797138
 20
26.9978445725
 10
10.3874760459
 20
26.8546826463
 10
10.4201775236
 20
26.7182515689
  0
LWPOLYLINE
  5
279
100
AcDbEntity
  8
0
100
AcDbPolyline
 62
7
  6
CONTINUOUS
 90
19
 70
0
 10
12.2305809214
 20
30.8936694141
 10
12.0449553517
 20
30.7029858907
 10
11.8661170656
 20
30.498336664
 10
11.6953564911
 20
30.2811928618
 10
11.5339104079
 20
30.0531216883
 10
11.3829404573
 20
29.8157594214
 10
11.2435273317
 20
29.5707976158
 10
11.1166738018
 20
29.3199831343
 10
11.0033109256
 20
29.0651385717
 10
10.9042748118
 20
28.8081333271
 10
10.8202873799
 20
28.5508403388
 10
10.7519482584
 20
28.2950979705
 10
10.6997474645
 20
28.0427293386
 10
10.6640645399
 20
27.7955334863
 10
10.6451701183
 20
27.5553231393
 10
10.643206833
 20
27.3238833034
 10
10.6581832944
 20
27.1028978721
 10
10.6899859238
 20
26.8939431505
 10
10.7383808848
 20
26.6985242416
  0
LINE
  5
27A
100
AcDbEntity
  8
0
100
AcDbLine
 62
250
  6
CONTINUOUS
 10
10.844446902
 20
26.6372830526
 11
11.3868933002
 21
27.1357782505
  0
LINE
  5
27B
100
AcDbEntity
  8
COPY-PUBBLISH
100
AcDbLine
 62
7
  6
CONTINUOUS
 10
10.8853437157
 20
22.1547324743
 11
10.7876549665
 21
22.0649588625
  0
LINE
  5
27C
100
AcDbEntity
  8
COPY-PUBBLISH
100
AcDbLine
 62
250
  6
CONTINUOUS
 10
10.89720092
 20
22.1127245237
 11
10.8230103055
 21
22.0445451328
  0
LINE
  5
27D
100
AcDbEntity
  8
COPY-PUBBLISH
100
AcDbLine
 62
7
  6
CONTINUOUS
 10
10.9112598688
 20
22.0258847333
 11
10.9182736194
 21
22.0307537218
  0
LINE
  5
27E
100
AcDbEntity
  8
COPY-PUBBLISH
100
AcDbLine
 62
7
  6
CONTINUOUS
 10
11.231527229
 20
20.4749373541
 11
11.2385409795
 21
20.4798063426
  0
LINE
  5
27F
100
AcDbEntity
  8
ASSI
100
AcDbLine
 62
7
  6
CONTINUOUS
 10
11.096990062
 20
21.0362052436
 11
9.0509668727
 21
19.8548570968
  0
LINE
  5
280
100
AcDbEntity
  8
ASSI
100
AcDbLine
 62
7
  6
CONTINUOUS
 10
11.1015765381
 20
20.3040301683
 11
11.1607824529
 21
20.3382149215
  0
LINE
  5
281
100
AcDbEntity
  8
ASSI
100
AcDbLine
 62
7
  6
CONTINUOUS
 10
13.2195088162
 20
21.5268977218
 11
13.6992234297
 21
21.8038789274
  0
LINE
  5
282
100
AcDbEntity
  8
ASSI
100
AcDbLine
 62
7
  6
CONTINUOUS
 10
15.0291194874
 20
20.3669904207
 11
11.5965512849
 21
18.3850685608
  0
LINE
  5
283
100
AcDbEntity
  8
ASSI
100
AcDbLine
 62
7
  6
CONTINUOUS
 10
13.7147596934
 20
19.3637755008
 11
16.8970713588
 21
21.2012023726
  0
LINE
  5
284
100
AcDbEntity
  8
ASSI
100
AcDbLine
 62
250
  6
CONTINUOUS
 10
10.0427197801
 20
16.0426312724
 11
19.8937456441
 21
21.730490144
  0
LWPOLYLINE
  5
285
100
AcDbEntity
  8
ASSI
100
AcDbPolyline
 62
250
  6
CONTINUOUS
 90
70
 70
0
 10
9.9985908853
 20
17.2688641433
 10
9.7354196181
 20
17.1848341604
 10
9.4701291712
 20
17.1030558889
 10
9.2027209208
 20
17.0235278581
 10
8.933369341
 20
16.9463019568
 10
8.6620731679
 20
16.8713796882
 10
8.3888336654
 20
16.7987595489
 10
8.1138290987
 20
16.7284889179
 10
7.8370583011
 20
16.6605693249
 10
7.5585224393
 20
16.5949992401
 10
7.2784032782
 20
16.5318214524
 10
6.9966998085
 20
16.471037528
 10
6.7134130395
 20
16.4126459008
 10
6.4287277636
 20
16.3566846607
 10
6.1426430347
 20
16.3031553876
 10
5.8551597989
 20
16.2520565018
 10
5.5664656871
 20
16.2034213533
 10
5.2765599515
 20
16.1572515568
 10
4.98544334
 20
16.1135454977
 10
4.6933057276
 20
16.0723316826
 10
4.4001464028
 20
16.0336117316
 10
4.1059660771
 20
15.9973840245
 10
3.810956761
 20
15.9636722073
 10
3.5151179588
 20
15.9324779267
 10
3.2184501662
 20
15.903799536
 10
2.9211468806
 20
15.8776557404
 10
2.6232076328
 20
15.8540481899
 10
2.324632892
 20
15.8329752345
 10
2.0256175628
 20
15.8144506296
 10
1.7261614174
 20
15.7984760418
 10
1.4262646834
 20
15.7850498044
 10
1.1261229487
 20
15.7741806727
 10
0.8257360251
 20
15.7658703131
 10
0.5251041007
 20
15.7601170592
 10
0.2244233266
 20
15.756924667
 10
-0.0763063179
 20
15.7562948072
 10
-0.3770848121
 20
15.758225809
 10
-0.6777159437
 20
15.7627164165
 10
-0.9781997079
 20
15.7697683053
 10
-1.2785361095
 20
15.7793797997
 10
-1.5785289504
 20
15.7915446168
 10
-1.8781779323
 20
15.8062644241
 10
-2.1774833534
 20
15.8235375539
 10
-2.4762499099
 20
15.8433527212
 10
-2.7744770513
 20
15.8657115611
 10
-3.072165328
 20
15.8906124383
 10
-3.3691210874
 20
15.9180391622
 10
-3.6653439327
 20
15.9479933725
 10
-3.9608342607
 20
15.9804734294
 10
-4.2553996096
 20
16.0154582223
 10
-4.5490399987
 20
16.0529494838
 10
-4.8417554087
 20
16.0929454812
 10
-5.1333533196
 20
16.1354199062
 10
-5.4238330164
 20
16.180374436
 10
-5.7131952142
 20
16.2278073934
 10
-6.0012495374
 20
16.277687438
 10
-6.2879933589
 20
16.3300158119
 10
-6.5734293059
 20
16.384791273
 10
-6.8573748845
 20
16.4419787544
 10
-7.1398286278
 20
16.5015795524
 10
-7.4207920027
 20
16.5635923707
 10
-7.7000869167
 20
16.6279782542
 10
-7.9777164232
 20
16.6947397607
 10
-8.2536774687
 20
16.7638743324
 10
-8.5277828006
 20
16.8353353413
 10
-8.8000338997
 20
16.9091254944
 10
-9.0704292851
 20
16.9852420846
 10
-9.3387772607
 20
17.0636303624
 10
-9.6050680989
 20
17.1442894535
 10
-9.8693115273
 20
17.2272202323
  0
LINE
  5
286
100
AcDbEntity
  8
ASSI
100
AcDbLine
 62
7
  6
CONTINUOUS
 10
5.2783827316
 20
-18.5277636318
 11
5.3161110075
 21
-18.5495474655
  0
LINE
  5
287
100
AcDbEntity
  8
ASSI
100
AcDbLine
 62
7
  6
CONTINUOUS
 10
7.6768110004
 20
-19.8102146864
 11
7.7123397085
 21
-19.8307285172
  0
LINE
  5
288
100
AcDbEntity
  8
ASSI
100
AcDbLine
 62
7
  6
CONTINUOUS
 10
6.40538649
 20
-17.8770457863
 11
6.4431147659
 21
-17.89882962
  0
LINE
  5
289
100
AcDbEntity
  8
ASSI
100
AcDbLine
 62
7
  6
CONTINUOUS
 10
7.0064576596
 20
-17.5299948262
 11
7.0441859355
 21
-17.5517786599
  0
LINE
  5
28A
100
AcDbEntity
  8
ASSI
100
AcDbLine
 62
7
  6
CONTINUOUS
 10
9.6435147311
 20
-18.674656509
 11
9.6790434415
 21
-18.6951703411
  0
LINE
  5
28B
100
AcDbEntity
  8
ASSI
100
AcDbLine
 62
7
  6
CONTINUOUS
 10
7.4071663882
 20
-17.2986255
 11
7.444894673
 21
-17.3204093388
  0
LINE
  5
28C
100
AcDbEntity
  8
ASSI
100
AcDbLine
 62
7
  6
CONTINUOUS
 10
8.0082349284
 20
-16.9515811864
 11
8.0459632043
 21
-16.9733650201
  0
LINE
  5
28D
100
AcDbEntity
  8
ASSI
100
AcDbLine
 62
7
  6
CONTINUOUS
 10
8.9448080359
 20
-16.8594576357
 11
8.9818681814
 21
-16.8808556992
  0
LINE
  5
28E
100
AcDbEntity
  8
ASSI
100
AcDbLine
 62
7
  6
CONTINUOUS
 10
9.3370158495
 20
-16.1843597361
 11
9.3747441254
 21
-16.2061435698
  0
LINE
  5
28F
100
AcDbEntity
  8
ASSI
100
AcDbLine
 62
7
  6
CONTINUOUS
 10
11.6745891575
 20
-17.5019395906
 11
11.7101178679
 21
-17.5224534227
  0
LWPOLYLINE
  5
290
100
AcDbEntity
  8
ASSI
100
AcDbPolyline
 62
7
  6
CONTINUOUS
 90
17
 70
0
 10
-18.6137540849
 20
4.8367021021
 10
-18.7806877103
 20
4.9921545831
 10
-18.9436957128
 20
5.1489511607
 10
-19.1027975907
 20
5.307107099
 10
-19.257918753
 20
5.4665481957
 10
-19.4090720907
 20
5.6272912579
 10
-19.5562447128
 20
5.7893194783
 10
-19.699323355
 20
5.9525082328
 10
-19.838291834
 20
6.1168424774
 10
-19.973166333
 20
6.282337256
 10
-20.1038821382
 20
6.4489130763
 10
-20.230448569
 20
6.6165859898
 10
-20.3528563059
 20
6.7853399449
 10
-20.4710126765
 20
6.9550472939
 10
-20.5849048401
 20
7.1256937828
 10
-20.6945456375
 20
7.2972936657
 10
-20.7998809177
 20
7.4697620576
  0
LINE
  5
291
100
AcDbEntity
  8
0
100
AcDbLine
 62
250
  6
CONTINUOUS
 10
-4.7088719266
 20
16.5302579958
 11
-4.7115648158
 21
16.1724034396
  0
LINE
  5
292
100
AcDbEntity
  8
0
100
AcDbLine
 62
250
  6
CONTINUOUS
 10
-4.3513135279
 20
16.2676111627
 11
-4.35257453
 21
16.1255002738
  0
LINE
  5
293
100
AcDbEntity
  8
ASSI
100
AcDbLine
 62
7
  6
CONTINUOUS
 10
-4.2328968056
 20
36.2701728249
 11
-4.3605950734
 21
24.1552898186
  0
LINE
  5
294
100
AcDbEntity
  8
ASSI
100
AcDbLine
 62
7
  6
CONTINUOUS
 10
-3.9175143478
 20
16.6295272644
 11
-3.9231032141
 21
16.547575728
  0
LWPOLYLINE
  5
295
100
AcDbEntity
  8
ASSI
100
AcDbPolyline
 62
7
  6
CONTINUOUS
 90
7
 70
0
 10
-3.9231032141
 20
16.547575728
 10
-3.9396112867
 20
16.4663708114
 10
-3.9666473437
 20
16.3858167974
 10
-4.0034627156
 20
16.3066564568
 10
-4.0495428503
 20
16.2288718414
 10
-4.1052597679
 20
16.151518423
 10
-4.1499437802
 20
16.099025954
  0
LWPOLYLINE
  5
296
100
AcDbEntity
  8
0
100
AcDbPolyline
 62
7
  6
CONTINUOUS
 90
6
 70
0
 10
12.7639550702
 20
31.2982284457
 10
12.7179429517
 20
31.2290057944
 10
12.6643937744
 20
31.1593110344
 10
12.6037895889
 20
31.0898019606
 10
12.5358654587
 20
31.0196138145
 10
12.4607514913
 20
30.9486302327
  0
LWPOLYLINE
  5
297
100
AcDbEntity
  8
COPY-PUBBLISH
100
AcDbPolyline
 62
7
  6
CONTINUOUS
 90
7
 70
0
 10
11.3580907976
 20
19.4678517951
 10
11.3657086567
 20
19.4762614305
 10
11.3783771036
 20
19.4981544866
 10
11.3855175528
 20
19.5247488273
 10
11.3869414412
 20
19.555718586
 10
11.3828373318
 20
19.5913896292
 10
11.3732052248
 20
19.631761957
  0
LWPOLYLINE
  5
298
100
AcDbEntity
  8
COPY-PUBBLISH
100
AcDbPolyline
 62
7
  6
CONTINUOUS
 90
7
 70
0
 10
11.2385409795
 20
20.4798063426
 10
11.2396784348
 20
20.4810372409
 10
11.2456582101
 20
20.4897096987
 10
11.2491681473
 20
20.5005219474
 10
11.2501087769
 20
20.5133297268
 10
11.2485795684
 20
20.528277297
 10
11.2445805216
 20
20.545364658
  0
LINE
  5
299
100
AcDbEntity
  8
COPY-PUBBLISH
100
AcDbLine
 62
7
  6
CONTINUOUS
 10
11.2223803412
 20
20.6191956468
 11
11.1079223266
 21
20.5140114833
  0
LINE
  5
29A
100
AcDbEntity
  8
COPY-PUBBLISH
100
AcDbLine
 62
250
  6
CONTINUOUS
 10
11.2348440773
 20
20.5777450844
 11
11.1432776657
 21
20.4935977536
  0
LINE
  5
29B
100
AcDbEntity
  8
COPY-PUBBLISH
100
AcDbLine
 62
7
  6
CONTINUOUS
 10
11.1916831334
 20
20.2059790772
 11
11.1015765381
 21
20.1231732825
  0
LINE
  5
29C
100
AcDbEntity
  8
COPY-PUBBLISH
100
AcDbLine
 62
250
  6
CONTINUOUS
 10
12.9778387796
 20
21.8447817132
 11
12.4353923814
 21
21.3462865153
  0
LINE
  5
29D
100
AcDbEntity
  8
COPY-PUBBLISH
100
AcDbLine
 62
250
  6
CONTINUOUS
 10
13.1593786361
 20
21.6297049715
 11
12.6169322379
 21
21.1312097736
  0
LINE
  5
29E
100
AcDbEntity
  8
COPY-PUBBLISH
100
AcDbLine
 62
7
  6
CONTINUOUS
 10
13.1947339752
 20
21.6092912419
 11
12.652287577
 21
21.1107960439
  0
LINE
  5
29F
100
AcDbEntity
  8
COPY-PUBBLISH
100
AcDbLine
 62
250
  6
CONTINUOUS
 10
11.3593453184
 20
19.6778557533
 11
11.1503806358
 21
19.4858222342
  0
LINE
  5
2A0
100
AcDbEntity
  8
COPY-PUBBLISH
100
AcDbLine
 62
250
  6
CONTINUOUS
 10
13.696215229
 20
19.9415184539
 11
13.1537688308
 21
19.443023256
  0
LINE
  5
2A1
100
AcDbEntity
  8
COPY-PUBBLISH
100
AcDbLine
 62
250
  6
CONTINUOUS
 10
13.8777550856
 20
19.7264417122
 11
13.806808119
 21
19.6612431558
  0
LWPOLYLINE
  5
2A2
100
AcDbEntity
  8
ASSI
100
AcDbPolyline
 62
250
  6
CONTINUOUS
 90
25
 70
0
 10
20.2472451868
 20
21.1252734856
 10
20.2712271846
 20
21.1395518486
 10
20.2945492928
 20
21.1541862113
 10
20.3171952378
 20
21.1691662651
 10
20.3391490732
 20
21.1844813173
 10
20.3603956406
 20
21.2001207412
 10
20.3809205314
 20
21.2160740054
 10
20.400709578
 20
21.232330102
 10
20.4197487291
 20
21.2488774661
 10
20.4380244984
 20
21.2657044325
 10
20.4555240447
 20
21.2827991575
 10
20.472235225
 20
21.3001497264
 10
20.4881464249
 20
21.3177440916
 10
20.5032465171
 20
21.3355699622
 10
20.5175249509
 20
21.3536148668
 10
20.5309718063
 20
21.3718662589
 10
20.5435777329
 20
21.3903115089
 10
20.5553338357
 20
21.408937634
 10
20.5662317747
 20
21.4277313609
 10
20.5762638328
 20
21.4466793726
 10
20.5854231459
 20
21.4657686629
 10
20.5937035234
 20
21.4849862763
 10
20.6010991844
 20
21.5043189507
 10
20.6076048345
 20
21.523753116
 10
20.6132158741
 20
21.5432752505
  0
LWPOLYLINE
  5
2A3
100
AcDbEntity
  8
ASSI
100
AcDbPolyline
 62
250
  6
CONTINUOUS
 90
25
 70
0
 10
19.8937456441
 20
21.730490144
 10
19.9085145934
 20
21.7392467789
 10
19.9228598566
 20
21.7482139872
 10
19.9367814338
 20
21.7573917688
 10
19.9502890576
 20
21.7667871699
 10
19.9633729954
 20
21.7763931443
 10
19.9760040498
 20
21.7861885542
 10
19.9881807153
 20
21.796173486
 10
19.9999044974
 20
21.8063478532
 10
20.0111507148
 20
21.8166902578
 10
20.021918331
 20
21.8272010354
 10
20.0322083826
 20
21.8378798504
 10
20.041999298
 20
21.848704298
 10
20.051290014
 20
21.8596746604
 10
20.0600815939
 20
21.8707906555
 10
20.0683556557
 20
21.882029032
 10
20.0761111329
 20
21.8933900851
 10
20.0833490921
 20
21.9048735196
 10
20.0900543501
 20
21.916455199
 10
20.096225936
 20
21.9281358979
 10
20.1018648208
 20
21.9399148416
 10
20.1069587341
 20
21.9517655696
 10
20.1115035858
 20
21.9636792618
 10
20.115503466
 20
21.9756647384
 10
20.1189583748
 20
21.9877219993
  0
LINE
  5
2A4
100
AcDbEntity
  8
ASSI
100
AcDbLine
 62
250
  6
CONTINUOUS
 10
10.3962193228
 20
15.437414614
 11
20.2472451868
 21
21.1252734856
  0
LWPOLYLINE
  5
2A5
100
AcDbEntity
  8
ASSI
100
AcDbPolyline
 62
7
  6
CONTINUOUS
 90
4
 70
0
 10
-13.540775933
 20
1.5964335477
 10
-13.7890419531
 20
1.7100458775
 10
-14.0344002819
 20
1.8256893157
 10
-14.2768797569
 20
1.9433751674
  0
LWPOLYLINE
  5
2A6
100
AcDbEntity
  8
ASSI
100
AcDbPolyline
 62
7
  6
CONTINUOUS
 90
3
 70
0
 10
-14.2768797569
 20
1.9433751674
 10
-14.5163697151
 20
2.063049735
 10
-14.7528946363
 20
2.1847276181
  0
LWPOLYLINE
  5
2A7
100
AcDbEntity
  8
ASSI
100
AcDbPolyline
 62
7
  6
CONTINUOUS
 90
3
 70
0
 10
-14.9864300405
 20
2.308394217
 10
-15.216791825
 20
2.4339520352
 10
-15.4439525748
 20
2.5613881776
  0
LINE
  5
2A8
100
AcDbEntity
  8
ASSI
100
AcDbLine
 62
7
  6
CONTINUOUS
 10
-15.2837571092
 20
2.4711428697
 11
-15.5563491126
 21
2.6258191871
  0
LINE
  5
2A9
100
AcDbEntity
  8
ASSI
100
AcDbLine
 62
7
  6
CONTINUOUS
 10
9.9380818703
 20
-15.8373066205
 11
9.9758101551
 21
-15.8590904593
  0
LINE
  5
2AA
100
AcDbEntity
  8
ASSI
100
AcDbLine
 62
7
  6
CONTINUOUS
 10
10.3387879695
 20
-15.6059439408
 11
10.3765162542
 21
-15.6277277796
  0
LINE
  5
2AB
100
AcDbEntity
  8
ASSI
100
AcDbLine
 62
7
  6
CONTINUOUS
 10
13.1842762775
 20
-16.6302651683
 11
13.2198049878
 21
-16.6507790004
  0
LINE
  5
2AC
100
AcDbEntity
  8
ASSI
100
AcDbLine
 62
7
  6
CONTINUOUS
 10
10.9398513609
 20
-15.2588974717
 11
10.9775796457
 21
-15.2806813105
  0
LINE
  5
2AD
100
AcDbEntity
  8
ASSI
100
AcDbLine
 62
7
  6
CONTINUOUS
 10
11.5081249957
 20
-14.9307885255
 11
11.5458532716
 21
-14.9525723592
  0
LINE
  5
2AE
100
AcDbEntity
  8
ASSI
100
AcDbLine
 62
7
  6
CONTINUOUS
 10
14.1860457681
 20
-16.0518560196
 11
14.2215744785
 21
-16.0723698517
  0
LINE
  5
2AF
100
AcDbEntity
  8
ASSI
100
AcDbLine
 62
7
  6
CONTINUOUS
 10
12.1091761673
 20
-14.5837439836
 11
12.1469044521
 21
-14.6055278224
  0
LINE
  5
2B0
100
AcDbEntity
  8
ASSI
100
AcDbLine
 62
7
  6
CONTINUOUS
 10
12.6774453604
 20
-14.2556324736
 11
12.7151736452
 21
-14.2774163124
  0
LWPOLYLINE
  5
2B1
100
AcDbEntity
  8
ASSI
100
AcDbPolyline
 62
7
  6
CONTINUOUS
 90
4
 70
0
 10
-15.4439525748
 20
2.5613881776
 10
-15.667939705
 20
2.6907155393
 10
-15.8886513582
 20
2.8218753093
 10
-16.1061098681
 20
2.9548833166
  0
LINE
  5
2B2
100
AcDbEntity
  8
ASSI
100
AcDbLine
 62
7
  6
CONTINUOUS
 10
13.2785087518
 20
-13.9085860045
 11
13.3162370366
 21
-13.9303698433
  0
LINE
  5
2B3
100
AcDbEntity
  8
ASSI
100
AcDbLine
 62
7
  6
CONTINUOUS
 10
16.1158900806
 20
-14.9375881001
 11
16.151418791
 21
-14.9581019323
  0
LINE
  5
2B4
100
AcDbEntity
  8
ASSI
100
AcDbLine
 62
7
  6
CONTINUOUS
 10
13.8795565869
 20
-13.5615485174
 11
13.9172848717
 21
-13.5833323562
  0
LINE
  5
2B5
100
AcDbEntity
  8
ASSI
100
AcDbLine
 62
7
  6
CONTINUOUS
 10
14.4806228707
 20
-13.2144947371
 11
14.5183511652
 21
-13.2362785815
  0
LINE
  5
2B6
100
AcDbEntity
  8
ASSI
100
AcDbLine
 62
7
  6
CONTINUOUS
 10
-15.8242390933
 20
2.7832103935
 11
-15.5563491126
 21
2.6258191871
  0
LINE
  5
2B7
100
AcDbEntity
  8
ASSI
100
AcDbLine
 62
7
  6
CONTINUOUS
 10
-16.3202929011
 20
3.0897237321
 11
-16.5310315991
 21
3.2262902572
  0
LINE
  5
2B8
100
AcDbEntity
  8
ASSI
100
AcDbLine
 62
7
  6
CONTINUOUS
 10
-16.5310315991
 20
3.2262902572
 11
-16.7383006765
 21
3.3645687575
  0
LWPOLYLINE
  5
2B9
100
AcDbEntity
  8
ASSI
100
AcDbPolyline
 62
7
  6
CONTINUOUS
 90
5
 70
0
 10
-16.8466758743
 20
3.4385033807
 10
-16.5984202012
 20
3.2708108099
 10
-16.3452372648
 20
3.1056809554
 10
-16.0872018106
 20
2.9431643163
 10
-15.8242390933
 20
2.7832103935
  0
LWPOLYLINE
  5
2BA
100
AcDbEntity
  8
ASSI
100
AcDbPolyline
 62
7
  6
CONTINUOUS
 90
4
 70
0
 10
-16.7383006765
 20
3.3645687575
 10
-16.9421254189
 20
3.5045733675
 10
-17.1424128252
 20
3.6462401915
 10
-17.3391824752
 20
3.7895858799
  0
LWPOLYLINE
  5
2BB
100
AcDbEntity
  8
ASSI
100
AcDbPolyline
 62
7
  6
CONTINUOUS
 90
6
 70
0
 10
-17.5324147892
 20
3.9345937825
 10
-17.7219580272
 20
4.0811500522
 10
-17.907789597
 20
4.2292397439
 10
-18.0899320909
 20
4.3788778029
 10
-18.2683015454
 20
4.5299952174
 10
-18.4429143348
 20
4.682608982
  0
LWPOLYLINE
  5
2BC
100
AcDbEntity
  8
ASSI
100
AcDbPolyline
 62
7
  6
CONTINUOUS
 90
8
 70
0
 10
-2.3855407762
 20
-9.3500517553
 10
-2.3622810117
 20
-8.9861697861
 10
-2.331738527
 20
-8.6271221943
 10
-2.2940592989
 20
-8.2726954818
 10
-2.250167906
 20
-7.9257260236
 10
-2.1999349462
 20
-7.5863649448
 10
-2.1434840608
 20
-7.2544542817
 10
-2.082121377
 20
-6.9323673614
  0
LWPOLYLINE
  5
2BD
100
AcDbEntity
  8
ASSI
100
AcDbPolyline
 62
7
  6
CONTINUOUS
 90
4
 70
0
 10
-2.082121377
 20
-6.9323673614
 10
-2.0157398166
 20
-6.6202792876
 10
-1.9444439185
 20
-6.3180076259
 10
-1.8698594204
 20
-6.0273911723
  0
LWPOLYLINE
  5
2BE
100
AcDbEntity
  8
ASSI
100
AcDbPolyline
 62
7
  6
CONTINUOUS
 90
5
 70
0
 10
-1.8698594204
 20
-6.0273911723
 10
-1.7920444074
 20
-5.748962004
 10
-1.7109414007
 20
-5.4821822748
 10
-1.6280045363
 20
-5.2272884148
 10
-1.5434347923
 20
-4.984786416
  0
LWPOLYLINE
  5
2BF
100
AcDbEntity
  8
ASSI
100
AcDbPolyline
 62
7
  6
CONTINUOUS
 90
47
 70
0
 10
-1.5434347923
 20
-4.984786416
 10
-1.4570337031
 20
-4.7541668691
 10
-1.3696569712
 20
-4.5341452652
 10
-1.2814023587
 20
-4.3247369078
 10
-1.1921750253
 20
-4.1259245884
 10
-1.1025417868
 20
-3.9363764561
 10
-1.0125360262
 20
-3.7560013338
 10
-0.9221272544
 20
-3.5848895905
 10
-0.8317863143
 20
-3.4219827704
 10
-0.7415470217
 20
-3.2672390292
 10
-0.651378309
 20
-3.1207003889
 10
-0.5616534847
 20
-2.9814350755
 10
-0.4723947969
 20
-2.8494064529
 10
-0.3835824854
 20
-2.7246521034
 10
-0.2955266086
 20
-2.6063522854
 10
-0.2082454849
 20
-2.4944813134
 10
-0.1217229755
 20
-2.3890664303
 10
-0.0362172088
 20
-2.2893678534
 10
0.048252938
 20
-2.1953691682
 10
0.1317044918
 20
-2.1070888106
 10
0.2139334229
 20
-2.0238397106
 10
0.2948937481
 20
-1.9456287185
 10
0.3746299316
 20
-1.8724513297
 10
0.4530738521
 20
-1.8036036758
 10
0.5301772728
 20
-1.7390802544
 10
0.6059872415
 20
-1.6788889296
 10
0.6805787868
 20
-1.6223458508
 10
0.7539426385
 20
-1.5694122449
 10
0.8260871642
 20
-1.5201289814
 10
0.8971140306
 20
-1.4739314963
 10
0.9670244595
 20
-1.4307831077
 10
1.0358165417
 20
-1.3907223236
 10
1.1035873839
 20
-1.3532971797
 10
1.1703219531
 20
-1.318485371
 10
1.2360347555
 20
-1.286310803
 10
1.3008673049
 20
-1.2563906248
 10
1.3648086728
 20
-1.2287008353
 10
1.4278693768
 20
-1.203266755
 10
1.490223166
 20
-1.1797792658
 10
1.5518694554
 20
-1.1582124348
 10
1.6128084933
 20
-1.1385932111
 10
1.6732153163
 20
-1.1206915399
 10
1.7330902354
 20
-1.1044844408
 10
1.7924326443
 20
-1.0899956355
 10
1.8514162177
 20
-1.0770648742
 10
1.9100412761
 20
-1.0656713921
 10
1.9683072187
 20
-1.055836442
  0
LWPOLYLINE
  5
2C0
100
AcDbEntity
  8
ASSI
100
AcDbPolyline
 62
7
  6
CONTINUOUS
 90
13
 70
0
 10
10.0641481216
 20
-0.4403334998
 10
10.0963070385
 20
-0.4335658772
 10
10.1281379707
 20
-0.4263115911
 10
10.1596563386
 20
-0.4185663925
 10
10.1908467218
 20
-0.4103345305
 10
10.2216281546
 20
-0.4016361223
 10
10.2519988957
 20
-0.3924693201
 10
10.2819606864
 20
-0.3828359717
 10
10.3114377855
 20
-0.3727617367
 10
10.3404150895
 20
-0.3622513174
 10
10.3689077018
 20
-0.3513000115
 10
10.3968851918
 20
-0.339919372
 10
10.4243652107
 20
-0.3281006821
  0
LINE
  5
2C1
100
AcDbEntity
  8
ASSI
100
AcDbLine
 62
7
  6
CONTINUOUS
 10
10.0316959234
 20
-0.4466070899
 11
10.0723913925
 21
-0.4385656592
  0
LINE
  5
2C2
100
AcDbEntity
  8
ASSI
100
AcDbLine
 62
7
  6
CONTINUOUS
 10
9.9989282385
 20
-0.452389624
 11
10.0386846968
 21
-0.445225249
  0
LINE
  5
2C3
100
AcDbEntity
  8
ASSI
100
AcDbLine
 62
7
  6
CONTINUOUS
 10
9.9658672725
 20
-0.4576781255
 11
10.0046380939
 21
-0.4513539209
  0
LWPOLYLINE
  5
2C4
100
AcDbEntity
  8
ASSI
100
AcDbPolyline
 62
7
  6
CONTINUOUS
 90
5
 70
0
 10
1.9683072187
 20
-1.055836442
 10
2.0263863316
 20
-1.0474625621
 10
2.0843359432
 20
-1.0405172967
 10
2.1420984335
 20
-1.0350333256
 10
2.199673659
 20
-1.0310107734
  0
LINE
  5
2C5
100
AcDbEntity
  8
ASSI
100
AcDbLine
 62
7
  6
CONTINUOUS
 10
9.9326143451
 20
-0.4624562948
 11
9.9702727798
 21
-0.4569489755
  0
LINE
  5
2C6
100
AcDbEntity
  8
ASSI
100
AcDbLine
 62
7
  6
CONTINUOUS
 10
9.8992032298
 20
-0.4667186988
 11
9.9356968245
 21
-0.4619928576
  0
LINE
  5
2C7
100
AcDbEntity
  8
ASSI
100
AcDbLine
 62
7
  6
CONTINUOUS
 10
9.8656001533
 20
-0.4704707705
 11
9.900946251
 21
-0.4664797156
  0
LINE
  5
2C8
100
AcDbEntity
  8
ASSI
100
AcDbLine
 62
7
  6
CONTINUOUS
 10
9.8659850361
 20
-0.4704154011
 11
9.8308131799
 21
-0.4737999143
  0
LINE
  5
2C9
100
AcDbEntity
  8
ASSI
100
AcDbLine
 62
7
  6
CONTINUOUS
 10
9.8318051155
 20
-0.4737125101
 11
8.9854526111
 21
-0.5468643311
  0
LINE
  5
2CA
100
AcDbEntity
  8
ASSI
100
AcDbLine
 62
7
  6
CONTINUOUS
 10
8.986332631
 20
-0.5467897466
 11
8.1394341758
 21
-0.6171423455
  0
LINE
  5
2CB
100
AcDbEntity
  8
ASSI
100
AcDbLine
 62
7
  6
CONTINUOUS
 10
8.1402022184
 20
-0.6170798311
 11
7.2927578741
 21
-0.6846339575
  0
LINE
  5
2CC
100
AcDbEntity
  8
ASSI
100
AcDbLine
 62
7
  6
CONTINUOUS
 10
7.2934138775
 20
-0.6845827636
 11
6.4453945025
 21
-0.7493413297
  0
LINE
  5
2CD
100
AcDbEntity
  8
ASSI
100
AcDbLine
 62
7
  6
CONTINUOUS
 10
6.4459377516
 20
-0.7493007434
 11
5.5973732646
 21
-0.8112622995
  0
LWPOLYLINE
  5
2CE
100
AcDbEntity
  8
ASSI
100
AcDbPolyline
 62
7
  6
CONTINUOUS
 90
5
 70
0
 10
2.1996734769
 20
-1.0310107857
 10
3.050051104
 20
-0.9802571567
 10
3.8998603737
 20
-0.9267097778
 10
4.7491012859
 20
-0.8703686491
 10
5.5978036975
 20
-0.8112315711
  0
LWPOLYLINE
  5
2CF
100
AcDbEntity
  8
ASSI
100
AcDbPolyline
 62
7
  6
CONTINUOUS
 90
6
 70
0
 10
2.1996733601
 20
-1.0310107907
 10
1.8190835413
 20
-1.0511636575
 10
1.4381749722
 20
-1.0674920561
 10
1.0569477695
 20
-1.0799959813
 10
0.6752868355
 20
-1.0886768982
 10
0.2933072679
 20
-1.0935333419
  0
LWPOLYLINE
  5
2D0
100
AcDbEntity
  8
ASSI
100
AcDbPolyline
 62
7
  6
CONTINUOUS
 90
5
 70
0
 10
1.8841558114
 20
-1.047991797
 10
1.5683761863
 20
-1.0623438217
 10
1.2523344847
 20
-1.074066865
 10
0.9359626214
 20
-1.0831622866
 10
0.6193286816
 20
-1.0896287267
  0
LWPOLYLINE
  5
2D1
100
AcDbEntity
  8
ASSI
100
AcDbPolyline
 62
7
  6
CONTINUOUS
 90
6
 70
0
 10
0.3026369213
 20
-1.0934621059
 10
-0.0886456399
 20
-1.0945609176
 10
-0.4705718686
 20
-1.0917561633
 10
-0.8524714375
 20
-1.085122541
 10
-1.2339991119
 20
-1.0746660416
 10
-1.615154556
 20
-1.0603832085
  0
LWPOLYLINE
  5
2D2
100
AcDbEntity
  8
ASSI
100
AcDbPolyline
 62
7
  6
CONTINUOUS
 90
5
 70
0
 10
-0.0141062207
 20
-1.0946608128
 10
-0.3309071832
 20
-1.0932264587
 10
-0.6475810273
 20
-1.0891597981
 10
-0.9641371665
 20
-1.0824589591
 10
-1.2805661873
 20
-1.0731258136
  0
LWPOLYLINE
  5
2D3
100
AcDbEntity
  8
ASSI
100
AcDbPolyline
 62
7
  6
CONTINUOUS
 90
4
 70
0
 10
-1.596654911
 20
-1.0611667316
 10
-1.9959381055
 20
-1.0422774983
 10
-2.3760055336
 20
-1.020365272
 10
-2.7553561933
 20
-0.9946430877
  0
LWPOLYLINE
  5
2D4
100
AcDbEntity
  8
ASSI
100
AcDbPolyline
 62
7
  6
CONTINUOUS
 90
5
 70
0
 10
-1.9123908082
 20
-1.046580667
 10
-2.2277864084
 20
-1.029368666
 10
-2.5426661205
 20
-1.0095402369
 10
-2.8570445593
 20
-0.9870926838
 10
-3.0801253728
 20
-0.9692782193
  0
LINE
  5
2D5
100
AcDbEntity
  8
ASSI
100
AcDbLine
 62
7
  6
CONTINUOUS
 10
-2.7553561933
 20
-0.9946430877
 11
-3.17090711
 21
-0.9620287028
  0
LWPOLYLINE
  5
2D6
100
AcDbEntity
  8
ASSI
100
AcDbPolyline
 62
7
  6
CONTINUOUS
 90
15
 70
0
 10
-3.1339907315
 20
-0.9651143874
 10
-3.5115668631
 20
-0.9318058576
 10
-3.8880836313
 20
-0.8947140806
 10
-4.2635419928
 20
-0.8538424742
 10
-4.6376025323
 20
-0.8092279784
 10
-5.0102639861
 20
-0.7608672089
 10
-5.3815276178
 20
-0.70876355
 10
-5.7510578026
 20
-0.6529640951
 10
-6.1188529735
 20
-0.5934655022
 10
-6.4849146975
 20
-0.5302711133
 10
-6.8489120507
 20
-0.4634380471
 10
-7.2108431669
 20
-0.3929630134
 10
-7.5707099122
 20
-0.3188493025
 10
-7.9281869614
 20
-0.2411639038
 10
-8.283272154
 20
-0.1599035877
  0
LWPOLYLINE
  5
2D7
100
AcDbEntity
  8
ASSI
100
AcDbPolyline
 62
7
  6
CONTINUOUS
 90
6
 70
0
 10
-3.4840343381
 20
-0.9343658902
 10
-3.7964084525
 20
-0.9041042968
 10
-4.1080472443
 20
-0.8712438719
 10
-4.4187846507
 20
-0.8358020602
 10
-4.7286396117
 20
-0.7977748901
 10
-5.0375931874
 20
-0.7571663333
  0
LWPOLYLINE
  5
2D8
100
AcDbEntity
  8
ASSI
100
AcDbPolyline
 62
7
  6
CONTINUOUS
 90
6
 70
0
 10
-5.3454224962
 20
-0.7140057496
 10
-5.6521054111
 20
-0.6682947048
 10
-5.9576640591
 20
-0.6200316332
 10
-6.2619419391
 20
-0.5692411967
 10
-6.5649613631
 20
-0.5159178116
 10
-6.8667000191
 20
-0.4600670618
  0
LWPOLYLINE
  5
2D9
100
AcDbEntity
  8
ASSI
100
AcDbPolyline
 62
7
  6
CONTINUOUS
 90
5
 70
0
 10
-7.1669344702
 20
-0.4017303603
 10
-7.4656392426
 20
-0.3409110896
 10
-7.76283981
 20
-0.2776058674
 10
-8.058389157
 20
-0.2118459595
 10
-8.352311971
 20
-0.143623952
  0
LINE
  5
2DA
100
AcDbEntity
  8
ASSI
100
AcDbLine
 62
7
  6
CONTINUOUS
 10
-8.283272154
 20
-0.1599035877
 11
-8.6445835646
 21
-0.0729472588
  0
LWPOLYLINE
  5
2DB
100
AcDbEntity
  8
ASSI
100
AcDbPolyline
 62
7
  6
CONTINUOUS
 90
6
 70
0
 10
-8.6359676504
 20
-0.0750715838
 10
-8.9859546062
 20
0.0132554293
 10
-9.3332305728
 20
0.105080612
 10
-9.6777979987
 20
0.200400804
 10
-10.0193453854
 20
0.2991298455
 10
-10.3578700026
 20
0.4012708191
  0
LWPOLYLINE
  5
2DC
100
AcDbEntity
  8
ASSI
100
AcDbPolyline
 62
7
  6
CONTINUOUS
 90
5
 70
0
 10
-8.9349828598
 20
0.0001306121
 10
-9.2234820561
 20
0.0756042797
 10
-9.5101089541
 20
0.1534791251
 10
-9.7947258777
 20
0.2337177832
 10
-10.0773588821
 20
0.316329598
  0
LINE
  5
2DD
100
AcDbEntity
  8
ASSI
100
AcDbLine
 62
7
  6
CONTINUOUS
 10
-10.357981912
 20
0.4013052255
 11
-10.6933745805
 21
0.5068206423
  0
LWPOLYLINE
  5
2DE
100
AcDbEntity
  8
ASSI
100
AcDbPolyline
 62
7
  6
CONTINUOUS
 90
4
 70
0
 10
-10.636379126
 20
0.4885792683
 10
-10.9125214147
 20
0.5781442833
 10
-11.1864378874
 20
0.6700077135
 10
-11.4580000299
 20
0.7641264913
  0
LWPOLYLINE
  5
2DF
100
AcDbEntity
  8
ASSI
100
AcDbPolyline
 62
7
  6
CONTINUOUS
 90
6
 70
0
 10
-10.6933745805
 20
0.5068206423
 10
-11.0255558113
 20
0.615683908
 10
-11.3544106906
 20
0.7278636123
 10
-11.6799422228
 20
0.8433567591
 10
-12.0018561135
 20
0.9620589524
 10
-12.3201490922
 20
1.0839730942
  0
LINE
  5
2E0
100
AcDbEntity
  8
ASSI
100
AcDbLine
 62
7
  6
CONTINUOUS
 10
-11.4580000299
 20
0.7641264913
 11
-11.7272342787
 21
0.8605118744
  0
LWPOLYLINE
  5
2E1
100
AcDbEntity
  8
ASSI
100
AcDbPolyline
 62
7
  6
CONTINUOUS
 90
3
 70
0
 10
-11.9941141972
 20
0.959152605
 10
-12.2584319617
 20
1.0599718411
 10
-12.5201581389
 20
1.1629601287
  0
LWPOLYLINE
  5
2E2
100
AcDbEntity
  8
ASSI
100
AcDbPolyline
 62
7
  6
CONTINUOUS
 90
11
 70
0
 10
-12.3201490922
 20
1.0839730942
 10
-12.6348244295
 20
1.2090962825
 10
-12.9455976428
 20
1.3373154158
 10
-13.2524652255
 20
1.4686333046
 10
-13.5554306841
 20
1.6030471384
 10
-13.8542200567
 20
1.7404353837
 10
-14.1488294833
 20
1.8808006865
 10
-14.4392628238
 20
2.0241404008
 10
-14.7252576953
 20
2.1703250551
 10
-15.0067266368
 20
2.3193114924
 10
-15.2837571092
 20
2.4711428697
  0
LWPOLYLINE
  5
2E3
100
AcDbEntity
  8
ASSI
100
AcDbPolyline
 62
7
  6
CONTINUOUS
 90
4
 70
0
 10
-12.5201581389
 20
1.1629601287
 10
-12.7793221622
 20
1.2681269218
 10
-13.0358045076
 20
1.3754237412
 10
-13.2896310592
 20
1.4848636313
  0
LINE
  5
2E4
100
AcDbEntity
  8
ASSI
100
AcDbLine
 62
7
  6
CONTINUOUS
 10
15.8462376272
 20
-12.426011533
 11
15.8839659119
 21
-12.4477953718
  0
LINE
  5
2E5
100
AcDbEntity
  8
ASSI
100
AcDbLine
 62
7
  6
CONTINUOUS
 10
16.4473258312
 20
-12.0789450962
 11
16.4850541257
 21
-12.1007289406
  0
LINE
  5
2E6
100
AcDbEntity
  8
ASSI
100
AcDbLine
 62
7
  6
CONTINUOUS
 10
12.4807849072
 20
-7.5202069348
 11
12.5160523921
 21
-7.543446073
  0
LWPOLYLINE
  5
2E7
100
AcDbEntity
  8
ASSI
100
AcDbPolyline
 62
250
  6
CONTINUOUS
 90
32
 70
0
 10
9.2487085368
 20
-13.9290320029
 10
9.2660140489
 20
-13.9526528031
 10
9.2832003501
 20
-13.9755617251
 10
9.3002252681
 20
-13.9977457981
 10
9.3170204889
 20
-14.019200527
 10
9.3335714025
 20
-14.0399089955
 10
9.3499175197
 20
-14.0598394843
 10
9.3660204732
 20
-14.0789817137
 10
9.3818398324
 20
-14.097327909
 10
9.3974131897
 20
-14.1148480906
 10
9.4127034466
 20
-14.1315343775
 10
9.4276723927
 20
-14.1473810252
 10
9.4423565475
 20
-14.162359611
 10
9.4567197857
 20
-14.1764649188
 10
9.4707258392
 20
-14.1896934954
 10
9.4844110195
 20
-14.2020182385
 10
9.497739866
 20
-14.213436859
 10
9.510677754
 20
-14.2239484549
 10
9.5232616614
 20
-14.2335269709
 10
9.5354564896
 20
-14.2421733114
 10
9.5472289464
 20
-14.2498893785
 10
9.5586175237
 20
-14.2566498418
 10
9.5695871984
 20
-14.262459065
 10
9.5801057006
 20
-14.2673220036
 10
9.5902138312
 20
-14.2712136881
 10
9.5998763856
 20
-14.2741421932
 10
9.6090618182
 20
-14.2761157766
 10
9.6178139563
 20
-14.2771094431
 10
9.6260972196
 20
-14.277135195
 10
9.6338804963
 20
-14.2762048299
 10
9.6412112158
 20
-14.2742929593
 10
9.6481430731
 20
-14.2713698385
  0
LINE
  5
2E8
100
AcDbEntity
  8
ASSI
100
AcDbLine
 62
250
  6
CONTINUOUS
 10
2.1362954419
 20
15.2209962123
 11
2.1396343206
 21
15.1888486603
  0
LINE
  5
2E9
100
AcDbEntity
  8
ASSI
100
AcDbLine
 62
250
  6
CONTINUOUS
 10
2.1396343206
 20
15.1888486603
 11
2.1428467543
 21
15.1554481638
  0
LINE
  5
2EA
100
AcDbEntity
  8
ASSI
100
AcDbLine
 62
250
  6
CONTINUOUS
 10
2.1428467543
 20
15.1554481638
 11
2.1459151745
 21
15.1209773859
  0
LINE
  5
2EB
100
AcDbEntity
  8
ASSI
100
AcDbLine
 62
250
  6
CONTINUOUS
 10
2.1459151745
 20
15.1209773859
 11
2.1488228004
 21
15.0856248432
  0
LINE
  5
2EC
100
AcDbEntity
  8
ASSI
100
AcDbLine
 62
250
  6
CONTINUOUS
 10
2.1488228004
 20
15.0856248432
 11
2.1515537306
 21
15.0495838742
  0
LINE
  5
2ED
100
AcDbEntity
  8
ASSI
100
AcDbLine
 62
250
  6
CONTINUOUS
 10
2.1515537306
 20
15.0495838742
 11
2.15409303
 21
15.0130515826
  0
LINE
  5
2EE
100
AcDbEntity
  8
ASSI
100
AcDbLine
 62
250
  6
CONTINUOUS
 10
2.15409303
 20
15.0130515826
 11
2.1564268113
 21
14.976227759
  0
LINE
  5
2EF
100
AcDbEntity
  8
ASSI
100
AcDbLine
 62
250
  6
CONTINUOUS
 10
2.1564268113
 20
14.976227759
 11
2.1585423116
 21
14.9393137884
  0
LINE
  5
2F0
100
AcDbEntity
  8
ASSI
100
AcDbLine
 62
250
  6
CONTINUOUS
 10
2.1585423116
 20
14.9393137884
 11
2.1604279613
 21
14.9025115487
  0
LINE
  5
2F1
100
AcDbEntity
  8
ASSI
100
AcDbLine
 62
250
  6
CONTINUOUS
 10
2.1604279613
 20
14.9025115487
 11
2.162073448
 21
14.8660223068
  0
LINE
  5
2F2
100
AcDbEntity
  8
ASSI
100
AcDbLine
 62
250
  6
CONTINUOUS
 10
2.162073448
 20
14.8660223068
 11
2.1634697729
 21
14.8300456179
  0
LINE
  5
2F3
100
AcDbEntity
  8
ASSI
100
AcDbLine
 62
250
  6
CONTINUOUS
 10
2.1634697729
 20
14.8300456179
 11
2.1646092995
 21
14.7947782341
  0
LINE
  5
2F4
100
AcDbEntity
  8
ASSI
100
AcDbLine
 62
250
  6
CONTINUOUS
 10
2.1646092995
 20
14.7947782341
 11
2.165485796
 21
14.7604130283
  0
LINE
  5
2F5
100
AcDbEntity
  8
ASSI
100
AcDbLine
 62
250
  6
CONTINUOUS
 10
2.165485796
 20
14.7604130283
 11
2.1660944689
 21
14.7271379396
  0
LINE
  5
2F6
100
AcDbEntity
  8
ASSI
100
AcDbLine
 62
250
  6
CONTINUOUS
 10
2.1660944689
 20
14.7271379396
 11
2.1664319894
 21
14.6951349454
  0
LINE
  5
2F7
100
AcDbEntity
  8
ASSI
100
AcDbLine
 62
250
  6
CONTINUOUS
 10
2.1996733601
 20
-1.0310107907
 11
2.1664319894
 21
14.6951349454
  0
LINE
  5
2F8
100
AcDbEntity
  8
0
100
AcDbLine
 62
7
  6
CONTINUOUS
 10
9.2600043103
 20
28.9335024404
 11
9.3180378588
 21
29.1952753048
  0
LWPOLYLINE
  5
2F9
100
AcDbEntity
  8
0
100
AcDbPolyline
 62
7
  6
CONTINUOUS
 90
8
 70
0
 10
9.4167944413
 20
29.1054075147
 10
9.4098540847
 20
29.0767522402
 10
9.3570960472
 20
28.8250572359
 10
9.3200338507
 20
28.5777930422
 10
9.2988588672
 20
28.3363140169
 10
9.2936665926
 20
28.1018343435
 10
9.3044951379
 20
27.8752372433
 10
9.3314018506
 20
27.6575189168
  0
LWPOLYLINE
  5
2FA
100
AcDbEntity
  8
0
100
AcDbPolyline
 62
250
  6
CONTINUOUS
 90
24
 70
0
 10
9.521991191
 20
28.9769536929
 10
9.5708653418
 20
29.1605562697
 10
9.6253425775
 20
29.33881167
 10
9.6842357665
 20
29.5102420798
 10
9.7469429816
 20
29.6752378901
 10
9.8125850649
 20
29.8332643618
 10
9.8802408237
 20
29.9836650461
 10
9.9493852568
 20
30.12662072
 10
10.0198324952
 20
30.2629695744
 10
10.0910359907
 20
30.3927298275
 10
10.1624512783
 20
30.5157874892
 10
10.2340828592
 20
30.6327983393
 10
10.3055926832
 20
30.7438105142
 10
10.3765746062
 20
30.8488439094
 10
10.4470601424
 20
30.9484956768
 10
10.5167948738
 20
31.0428441164
 10
10.5855201287
 20
31.1319649298
 10
10.6533475042
 20
31.2164203583
 10
10.7200987999
 20
31.2963230028
 10
10.7855991692
 20
31.3717485052
 10
10.8500181694
 20
31.4431789952
 10
10.9133301338
 20
31.5108431894
 10
10.9753018509
 20
31.574737214
 10
11.0358211399
 20
31.6349814835
  0
LWPOLYLINE
  5
2FB
100
AcDbEntity
  8
0
100
AcDbPolyline
 62
7
  6
CONTINUOUS
 90
12
 70
0
 10
9.4167969721
 20
29.1054060535
 10
9.4768749883
 20
29.3268454087
 10
9.5608922837
 20
29.5841719208
 10
9.6599279141
 20
29.8411308906
 10
9.7732645206
 20
30.0958871763
 10
9.9000910948
 20
30.3466302426
 10
10.0394950247
 20
30.5915611154
 10
10.1904633574
 20
30.8289080801
 10
10.3519043051
 20
31.0569643211
 10
10.5226516278
 20
31.2740895825
 10
10.70147294
 20
31.4787220535
 10
10.8870780371
 20
31.6693911414
  0
LWPOLYLINE
  5
2FC
100
AcDbEntity
  8
0
100
AcDbPolyline
 62
7
  6
CONTINUOUS
 90
12
 70
0
 10
9.3180378588
 20
29.1952753048
 10
9.3936378655
 20
29.4622139861
 10
9.4850699391
 20
29.7281944625
 10
9.592700093
 20
29.9931945815
 10
9.7161623138
 20
30.2572364955
 10
9.8526241706
 20
30.514262639
 10
10.0023861953
 20
30.7641108183
 10
10.165147856
 20
31.0069432271
 10
10.3371751267
 20
31.2371888819
 10
10.5172233321
 20
31.452990788
 10
10.7065371474
 20
31.65620594
 10
10.9051165726
 20
31.846834338
  0
LINE
  5
2FD
100
AcDbEntity
  8
0
100
AcDbLine
 62
7
  6
CONTINUOUS
 10
10.4813632645
 20
0.860784199
 11
10.5403208048
 21
0.8948255439
  0
LINE
  5
2FE
100
AcDbEntity
  8
0
100
AcDbLine
 62
7
  6
CONTINUOUS
 10
20.5340326953
 20
6.6650695388
 11
20.5929902355
 21
6.6991108836
  0
LINE
  5
2FF
100
AcDbEntity
  8
0
100
AcDbLine
 62
7
  6
CONTINUOUS
 10
10.5422132929
 20
0.8937712006
 11
20.5359248078
 21
6.6640149786
  0
LINE
  5
300
100
AcDbEntity
  8
ASSI
100
AcDbLine
 62
7
  6
CONTINUOUS
 10
10.5034365838
 20
-0.2901942894
 11
10.5285781641
 21
-0.2767839436
  0
LINE
  5
301
100
AcDbEntity
  8
ASSI
100
AcDbLine
 62
7
  6
CONTINUOUS
 10
10.4776964965
 20
-0.3032130051
 11
10.5034365838
 21
-0.2901942894
  0
LWPOLYLINE
  5
302
100
AcDbEntity
  8
ASSI
100
AcDbPolyline
 62
7
  6
CONTINUOUS
 90
15
 70
0
 10
10.4989896867
 20
-0.2924514637
 10
10.472018344
 20
-0.3059345694
 10
10.4444632372
 20
-0.3189662276
 10
10.4163243661
 20
-0.3315464384
 10
10.3875860711
 20
-0.3436818621
 10
10.3582640119
 20
-0.3553658384
 10
10.3284051681
 20
-0.3665783861
 10
10.2979981412
 20
-0.3773224236
 10
10.2670543296
 20
-0.3875950326
 10
10.2356549091
 20
-0.3973674768
 10
10.2037961327
 20
-0.406638176
 10
10.1714817472
 20
-0.4154087105
 10
10.1388041692
 20
-0.4236550845
 10
10.1057793771
 20
-0.431372452
 10
10.0723913925
 20
-0.4385656592
  0
LWPOLYLINE
  5
303
100
AcDbEntity
  8
ASSI
100
AcDbPolyline
 62
7
  6
CONTINUOUS
 90
3
 70
0
 10
10.4243652107
 20
-0.3281006821
 10
10.4513301071
 20
-0.3158526586
 10
10.4776964965
 20
-0.3032130051
  0
LWPOLYLINE
  5
304
100
AcDbEntity
  8
ASSI
100
AcDbPolyline
 62
7
  6
CONTINUOUS
 90
36
 70
0
 10
14.1293956317
 20
-3.2571957481
 10
14.0989949238
 20
-3.2420318449
 10
14.0678099858
 20
-3.2282121068
 10
14.0358393765
 20
-3.2157390038
 10
14.0030845371
 20
-3.204610066
 10
13.9696056205
 20
-3.1948457312
 10
13.9354012963
 20
-3.1864485069
 10
13.900472895
 20
-3.1794158857
 10
13.8648845613
 20
-3.1737607826
 10
13.8286350825
 20
-3.169485729
 10
13.7917256713
 20
-3.1665881935
 10
13.7542241105
 20
-3.1650734974
 10
13.716129312
 20
-3.1649441818
 10
13.6774423639
 20
-3.1661977055
 10
13.6382343133
 20
-3.1688317666
 10
13.5985042027
 20
-3.1728489018
 10
13.5582529896
 20
-3.1782465744
 10
13.517554594
 20
-3.1850148716
 10
13.476408194
 20
-3.1931563122
 10
13.4348146114
 20
-3.2026683775
 10
13.3928502313
 20
-3.2135335989
 10
13.3505143723
 20
-3.2257544631
 10
13.3078077159
 20
-3.2393284833
 10
13.2648086911
 20
-3.2542307315
 10
13.2215167607
 20
-3.2704636484
 10
13.1779324621
 20
-3.2880247932
 10
13.1341358361
 20
-3.3068819156
 10
13.0901264925
 20
-3.327037397
 10
13.0459048216
 20
-3.348488856
 10
13.0015520349
 20
-3.3711968977
 10
12.9570678913
 20
-3.3951638313
 10
12.9124526318
 20
-3.4203873475
 10
12.8677881907
 20
-3.4468211245
 10
12.8231018795
 20
-3.4744497215
 10
12.7783663866
 20
-3.5032885791
 10
12.7335817121
 20
-3.5333376974
  0
LINE
  5
305
100
AcDbEntity
  8
0
100
AcDbLine
 62
7
  6
CONTINUOUS
 10
10.5874292817
 20
-0.7123537041
 11
10.543690703
 21
-0.6870995969
  0
LINE
  5
306
100
AcDbEntity
  8
0
100
AcDbLine
 62
7
  6
CONTINUOUS
 10
10.5520739426
 20
-0.2414467291
 11
10.5712464522
 21
-0.2525166959
  0
LWPOLYLINE
  5
307
100
AcDbEntity
  8
ASSI
100
AcDbPolyline
 62
7
  6
CONTINUOUS
 90
38
 70
0
 10
14.2258430221
 20
-3.3166135949
 10
14.2177898511
 20
-3.3113825267
 10
14.1882495239
 20
-3.2934407846
 10
14.1578154387
 20
-3.2768665741
 10
14.126546053
 20
-3.261691731
 10
14.0944397614
 20
-3.2479189448
 10
14.0614981694
 20
-3.2355455259
 10
14.0277845509
 20
-3.2245952411
 10
13.9932974221
 20
-3.2150708257
 10
13.9580382667
 20
-3.2069695444
 10
13.9220748105
 20
-3.200306958
 10
13.8854056996
 20
-3.1950858318
 10
13.8480322877
 20
-3.1913034006
 10
13.8100263614
 20
-3.1889669296
 10
13.7713867051
 20
-3.188079198
 10
13.7321145344
 20
-3.1886374266
 10
13.692285283
 20
-3.1906405432
 10
13.6518978802
 20
-3.1940913249
 10
13.6109533967
 20
-3.1989869946
 10
13.5695304784
 20
-3.2053181488
 10
13.5276282058
 20
-3.2130875463
 10
13.4852474983
 20
-3.2222924284
 10
13.4424697605
 20
-3.2329151141
 10
13.3992942294
 20
-3.2449583287
 10
13.3557216681
 20
-3.258419347
 10
13.3118357703
 20
-3.2732723132
 10
13.2676359339
 20
-3.2895199028
 10
13.2231227611
 20
-3.3071594402
 10
13.1783817524
 20
-3.3261570437
 10
13.13341247
 20
-3.3465153235
 10
13.0882153518
 20
-3.3682316692
 10
13.0428772121
 20
-3.3912643685
 10
12.9973977798
 20
-3.4156159512
 10
12.9517773259
 20
-3.4412838873
 10
12.906103478
 20
-3.4682188741
 10
12.8604054451
 20
-3.4964044773
 10
12.8146540181
 20
-3.5258571312
 10
12.768849197
 20
-3.5565768356
  0
LINE
  5
308
100
AcDbEntity
  8
ASSI
100
AcDbLine
 62
7
  6
CONTINUOUS
 10
12.5191707517
 20
-6.9148221382
 11
12.5544382365
 21
-6.9380612764
  0
LINE
  5
309
100
AcDbEntity
  8
ASSI
100
AcDbLine
 62
7
  6
CONTINUOUS
 10
12.9487524922
 20
-5.6190738455
 11
12.9840199771
 21
-5.6423129836
  0
LINE
  5
30A
100
AcDbEntity
  8
ASSI
100
AcDbLine
 62
7
  6
CONTINUOUS
 10
12.986863044
 20
-5.0180307016
 11
13.0221305288
 21
-5.0412698398
  0
LINE
  5
30B
100
AcDbEntity
  8
ASSI
100
AcDbLine
 62
7
  6
CONTINUOUS
 10
12.6951958453
 20
-4.1387228476
 11
12.7304633526
 21
-4.1619616323
  0
LINE
  5
30C
100
AcDbEntity
  8
ASSI
100
AcDbLine
 62
7
  6
CONTINUOUS
 10
15.5460928037
 20
-5.7503365728
 11
15.5813602885
 21
-5.7735757109
  0
LINE
  5
30D
100
AcDbEntity
  8
ASSI
100
AcDbLine
 62
7
  6
CONTINUOUS
 10
14.0394169436
 20
-4.4102992716
 11
14.0746844285
 21
-4.4335384098
  0
LINE
  5
30E
100
AcDbEntity
  8
ASSI
100
AcDbLine
 62
7
  6
CONTINUOUS
 10
12.7335817121
 20
-3.5333376974
 11
12.768849197
 21
-3.5565768356
  0
LINE
  5
30F
100
AcDbEntity
  8
ASSI
100
AcDbLine
 62
7
  6
CONTINUOUS
 10
15.5844786481
 20
-5.1449517761
 11
15.619746133
 21
-5.1681909143
  0
LWPOLYLINE
  5
310
100
AcDbEntity
  8
ASSI
100
AcDbPolyline
 62
7
  6
CONTINUOUS
 90
21
 70
0
 10
13.8049128339
 20
-3.9553962222
 10
13.8123739581
 20
-3.960409111
 10
13.8338612402
 20
-3.9759458708
 10
13.8545688967
 20
-3.9926160666
 10
13.8744987225
 20
-4.0104170888
 10
13.8936047575
 20
-4.0293078861
 10
13.9118851004
 20
-4.0492909738
 10
13.9293416525
 20
-4.0703638367
 10
13.945934157
 20
-4.0924778787
 10
13.96166062
 20
-4.1156355026
 10
13.9765230355
 20
-4.1398343055
 10
13.9904871292
 20
-4.1650184824
 10
14.0035508279
 20
-4.1911903076
 10
14.0157162048
 20
-4.2183475068
 10
14.0269552054
 20
-4.2464274527
 10
14.0372656916
 20
-4.2754322749
 10
14.0466498014
 20
-4.3053598439
 10
14.055085894
 20
-4.3361411434
 10
14.062566756
 20
-4.3677531683
 10
14.0690996008
 20
-4.4002189237
 10
14.0746844285
 20
-4.4335384098
  0
LWPOLYLINE
  5
311
100
AcDbEntity
  8
ASSI
100
AcDbPolyline
 62
7
  6
CONTINUOUS
 90
13
 70
0
 10
-4.051413115
 20
17.0418433023
 10
-4.0313762756
 20
17.0042187374
 10
-4.0129199699
 20
16.9663013383
 10
-3.9960770026
 20
16.9281585005
 10
-3.9808502431
 20
16.889789823
 10
-3.9672368219
 20
16.8511957066
 10
-3.955260936
 20
16.8124447496
 10
-3.9449254977
 20
16.773536673
 10
-3.9362275946
 20
16.7344717557
 10
-3.9291826865
 20
16.6953194326
 10
-3.9237937134
 20
16.6560795483
 10
-3.9200577354
 20
16.6167522582
 10
-3.9193282558
 20
16.6029292858
  0
LWPOLYLINE
  5
312
100
AcDbEntity
  8
ASSI
100
AcDbPolyline
 62
250
  6
CONTINUOUS
 90
14
 70
0
 10
-4.0304271467
 20
17.0840021303
 10
-4.0128350662
 20
17.0477686614
 10
-3.996708384
 20
17.0113087234
 10
-3.9820557982
 20
16.9746420092
 10
-3.968885182
 20
16.9377882141
 10
-3.9572036785
 20
16.9007672852
 10
-3.9470176361
 20
16.8635992963
 10
-3.9383325611
 20
16.8263042649
 10
-3.9311531562
 20
16.7889022184
 10
-3.9254833828
 20
16.7514135953
 10
-3.9213263777
 20
16.7138591187
 10
-3.9186843674
 20
16.6762590704
 10
-3.9175587695
 20
16.6386338889
 10
-3.9175143478
 20
16.6295272644
  0
LWPOLYLINE
  5
313
100
AcDbEntity
  8
ASSI
100
AcDbPolyline
 62
250
  6
CONTINUOUS
 90
18
 70
0
 10
-9.5972096939
 20
39.1454650112
 10
-9.5999853753
 20
39.1557395679
 10
-9.6027572605
 20
39.1654417346
 10
-9.6055215583
 20
39.1745582417
 10
-9.6082744881
 20
39.1830766208
 10
-9.6110122848
 20
39.1909852212
 10
-9.6137312039
 20
39.1982732266
 10
-9.6164275267
 20
39.2049306693
 10
-9.6190975656
 20
39.2109484438
 10
-9.6217376687
 20
39.2163183198
 10
-9.6243442253
 20
39.2210329529
 10
-9.6269136703
 20
39.225085895
 10
-9.6294424896
 20
39.2284716029
 10
-9.6319272246
 20
39.2311854461
 10
-9.6343644769
 20
39.2332237128
 10
-9.6367509131
 20
39.2345836153
 10
-9.6390832693
 20
39.2352632937
 10
-9.6408522044
 20
39.2353215038
  0
LWPOLYLINE
  5
314
100
AcDbEntity
  8
ASSI
100
AcDbPolyline
 62
250
  6
CONTINUOUS
 90
18
 70
0
 10
-2.1165133249
 20
39.6900820271
 10
-2.1183618467
 20
39.7004240848
 10
-2.1202078403
 20
39.7101936601
 10
-2.122048781
 20
39.7193773911
 10
-2.1238821509
 20
39.7279627174
 10
-2.1257054425
 20
39.735937897
 10
-2.1275161622
 20
39.7432920222
 10
-2.1293118335
 20
39.7500150351
 10
-2.1310900004
 20
39.7560977405
 10
-2.132848231
 20
39.7615318193
 10
-2.1345841205
 20
39.7663098394
 10
-2.1362952949
 20
39.7704252658
 10
-2.1379794137
 20
39.77387247
 10
-2.1396341737
 20
39.7766467374
 10
-2.1412573115
 20
39.7787442735
 10
-2.1428466073
 20
39.7801622096
 10
-2.1443998875
 20
39.7808986063
 10
-2.1454750766
 20
39.7810074009
  0
LWPOLYLINE
  5
315
100
AcDbEntity
  8
ASSI
100
AcDbPolyline
 62
250
  6
CONTINUOUS
 90
10
 70
0
 10
2.1165134719
 20
15.3679792484
 10
2.1183619937
 20
15.3570788528
 10
2.1202079873
 20
15.3456350278
 10
2.1220489279
 20
15.3336634248
 10
2.1238822978
 20
15.3211804173
 10
2.1257055895
 20
15.3082030781
 10
2.1275163092
 20
15.2947491562
 10
2.1293119804
 20
15.2808370522
 10
2.1310901474
 20
15.2664857937
 10
2.1328483779
 20
15.2517150087
  0
LINE
  5
316
100
AcDbEntity
  8
ASSI
100
AcDbLine
 62
250
  6
CONTINUOUS
 10
2.1328483779
 20
15.2517150087
 11
2.1362954419
 21
15.2209962123
  0
LINE
  5
317
100
AcDbEntity
  8
ASSI
100
AcDbLine
 62
250
  6
CONTINUOUS
 10
9.8318051323
 20
-0.4737125086
 11
9.2487042137
 21
-13.9291191789
  0
LWPOLYLINE
  5
318
100
AcDbEntity
  8
ASSI
100
AcDbPolyline
 62
7
  6
CONTINUOUS
 90
9
 70
0
 10
5.7865697873
 20
-20.3383502123
 10
5.7988009583
 20
-20.2511453557
 10
5.8115915665
 20
-20.1643692992
 10
5.824941612
 20
-20.0780220428
 10
5.8388520136
 20
-19.9920981582
 10
5.8533218525
 20
-19.9066030737
 10
5.8683483719
 20
-19.8215530748
 10
5.8839306528
 20
-19.7369535902
 10
5.9000696143
 20
-19.6527991912
  0
LWPOLYLINE
  5
319
100
AcDbEntity
  8
0
100
AcDbPolyline
 62
7
  6
CONTINUOUS
 90
5
 70
0
 10
12.8580172558
 20
31.5527487785
 10
12.8480737369
 20
31.491607183
 10
12.829107212
 20
31.4291520791
 10
12.8011717717
 20
31.3650467144
 10
12.7639550702
 20
31.2982284457
  0
LINE
  5
31A
100
AcDbEntity
  8
ASSI
100
AcDbLine
 62
7
  6
CONTINUOUS
 10
5.9000696143
 20
-19.6527991912
 11
5.9073609877
 21
-19.6162413963
  0
LWPOLYLINE
  5
31B
100
AcDbEntity
  8
ASSI
100
AcDbPolyline
 62
7
  6
CONTINUOUS
 90
10
 70
0
 10
5.9528948762
 20
-19.5899506676
 10
5.9361483841
 20
-19.6736277115
 10
5.9199602592
 20
-19.7577515696
 10
5.9043305016
 20
-19.8423222418
 10
5.8892581839
 20
-19.9273451881
 10
5.8747442335
 20
-20.0128149486
 10
5.8607914324
 20
-20.0987151432
 10
5.8474007079
 20
-20.185040312
 10
5.8345711327
 20
-20.271795915
 10
5.8223027067
 20
-20.3589819522
  0
LWPOLYLINE
  5
31C
100
AcDbEntity
  8
ASSI
100
AcDbPolyline
 62
7
  6
CONTINUOUS
 90
16
 70
0
 10
20.6928281898
 20
5.6048290765
 10
20.7125387656
 20
5.6209829286
 10
20.7315057618
 20
5.6374342059
 10
20.7497091693
 20
5.654165338
 10
20.767157132
 20
5.6711850456
 10
20.783841506
 20
5.6884846081
 10
20.7997178502
 20
5.7060202933
 10
20.8147829646
 20
5.7237931069
 10
20.8290400492
 20
5.7418020432
 10
20.8424542625
 20
5.7600003538
 10
20.855018245
 20
5.7783791351
 10
20.8667393561
 20
5.7969472907
 10
20.8776048328
 20
5.8156847832
 10
20.8876198304
 20
5.8346044335
 10
20.8967791934
 20
5.8536934207
 10
20.9050546925
 20
5.8728932447
  0
LWPOLYLINE
  5
31D
100
AcDbEntity
  8
ASSI
100
AcDbPolyline
 62
7
  6
CONTINUOUS
 90
3
 70
0
 10
20.6511461049
 20
5.5733932648
 10
20.6723589372
 20
5.5889624581
 10
20.6928281898
 20
5.6048290765
  0
LINE
  5
31E
100
AcDbEntity
  8
ASSI
100
AcDbLine
 62
7
  6
CONTINUOUS
 10
20.6292549933
 20
5.558169642
 11
20.6511461049
 21
5.5733932648
  0
LINE
  5
31F
100
AcDbEntity
  8
ASSI
100
AcDbLine
 62
7
  6
CONTINUOUS
 10
20.6067073689
 20
5.5433076382
 11
20.6292549933
 21
5.558169642
  0
LWPOLYLINE
  5
320
100
AcDbEntity
  8
ASSI
100
AcDbPolyline
 62
7
  6
CONTINUOUS
 90
3
 70
0
 10
20.5595772819
 20
5.514620342
 10
20.5834814651
 20
5.5287912049
 10
20.6067073689
 20
5.5433076382
  0
LINE
  5
321
100
AcDbEntity
  8
0
100
AcDbLine
 62
7
  6
CONTINUOUS
 10
20.5929902355
 20
5.5560524961
 11
20.4869242183
 21
5.4948113071
  0
LINE
  5
322
100
AcDbEntity
  8
0
100
AcDbLine
 62
7
  6
CONTINUOUS
 10
10.5874292817
 20
-0.2210329995
 11
10.4986815544
 21
-0.2722748249
  0
LINE
  5
323
100
AcDbEntity
  8
0
100
AcDbLine
 62
7
  6
CONTINUOUS
 10
10.5531212339
 20
-0.2629819698
 11
10.5712464522
 21
-0.2525166959
  0
LINE
  5
324
100
AcDbEntity
  8
0
100
AcDbLine
 62
7
  6
CONTINUOUS
 10
20.541452067
 20
5.50415507
 11
20.5595772852
 21
5.5146203439
  0
LINE
  5
325
100
AcDbEntity
  8
0
100
AcDbLine
 62
7
  6
CONTINUOUS
 10
20.4869242183
 20
5.0034906025
 11
10.5874292817
 21
-0.7123537041
  0
LINE
  5
326
100
AcDbEntity
  8
ASSI
100
AcDbLine
 62
7
  6
CONTINUOUS
 10
10.5285781641
 20
-0.2767839436
 11
10.5531212372
 21
-0.2629819679
  0
LWPOLYLINE
  5
327
100
AcDbEntity
  8
ASSI
100
AcDbPolyline
 62
7
  6
CONTINUOUS
 90
36
 70
0
 10
17.1947035282
 20
-1.4873253861
 10
17.1643028203
 20
-1.4721614828
 10
17.1331178822
 20
-1.4583417447
 10
17.101147273
 20
-1.4458686418
 10
17.0683924335
 20
-1.4347397039
 10
17.0349135169
 20
-1.4249753691
 10
17.0007091927
 20
-1.4165781449
 10
16.9657807914
 20
-1.4095455236
 10
16.9301924577
 20
-1.4038904205
 10
16.8939429789
 20
-1.3996153669
 10
16.8570335678
 20
-1.3967178314
 10
16.819532007
 20
-1.3952031353
 10
16.7814372085
 20
-1.3950738197
 10
16.7427502603
 20
-1.3963273434
 10
16.7035422098
 20
-1.3989614045
 10
16.6638120992
 20
-1.4029785397
 10
16.6235608861
 20
-1.4083762123
 10
16.5828624904
 20
-1.4151445096
 10
16.5417160904
 20
-1.4232859501
 10
16.5001225078
 20
-1.4327980154
 10
16.4581581278
 20
-1.4436632369
 10
16.4158222688
 20
-1.455884101
 10
16.3731156123
 20
-1.4694581212
 10
16.3301165875
 20
-1.4843603694
 10
16.2868246572
 20
-1.5005932863
 10
16.2432403585
 20
-1.5181544311
 10
16.1994437325
 20
-1.5370115535
 10
16.155434389
 20
-1.5571670349
 10
16.1112127181
 20
-1.5786184939
 10
16.0668599313
 20
-1.6013265356
 10
16.0223757877
 20
-1.6252934692
 10
15.9777605282
 20
-1.6505169855
 10
15.9330960872
 20
-1.6769507624
 10
15.8884097759
 20
-1.7045793594
 10
15.843674283
 20
-1.733418217
 10
15.7988896086
 20
-1.7634673354
  0
LWPOLYLINE
  5
328
100
AcDbEntity
  8
ASSI
100
AcDbPolyline
 62
250
  6
CONTINUOUS
 90
200
 70
0
 10
-14.4177708346
 20
19.2043904126
 10
-14.6282982207
 20
19.3277390074
 10
-14.8356829563
 20
19.4528859447
 10
-15.0399250415
 20
19.5798312243
 10
-15.2410884539
 20
19.7086116867
 10
-15.4391092159
 20
19.8391904916
 10
-15.6337953943
 20
19.9714571174
 10
-15.8251413621
 20
20.1054141992
 10
-16.0131527464
 20
20.2410591021
 10
-16.1976544951
 20
20.3782733997
 10
-16.3786396356
 20
20.5170584844
 10
-16.5561151405
 20
20.6574129638
 10
-16.7299268754
 20
20.7992142352
 10
-16.9000576567
 20
20.9424528385
 10
-17.0665246679
 20
21.0871382338
 10
-17.2292253255
 20
21.2331761973
 10
-17.3881513968
 20
21.3805608816
 10
-17.5433111145
 20
21.5292981343
 10
-17.6946265932
 20
21.6793112738
 10
-17.8421019255
 20
21.8306059805
 10
-17.9857330188
 20
21.9831765741
 10
-18.12542971
 20
22.136929333
 10
-18.2611935462
 20
22.2918698996
 10
-18.3930229803
 20
22.4479926314
 10
-18.5208232087
 20
22.6051868794
 10
-18.6445895629
 20
22.7634518148
 10
-18.7643267114
 20
22.9227882663
 10
-18.8799538558
 20
23.0830880712
 10
-18.9914665567
 20
23.2443494588
 10
-19.0988692535
 20
23.4065741999
 10
-19.2020944655
 20
23.5696594435
 10
-19.3011399397
 20
23.733606024
 10
-19.3960079292
 20
23.8984131071
 10
-19.4866377118
 20
24.0639753382
 10
-19.5730271387
 20
24.2302942358
 10
-19.6551783588
 20
24.3973682815
 10
-19.7330370974
 20
24.5650875659
 10
-19.8066004522
 20
24.7334525069
 10
-19.8758713256
 20
24.9024626867
 10
-19.9408041499
 20
25.0720069423
 10
-20.0013959239
 20
25.2420852626
 10
-20.0576496488
 20
25.4126976587
 10
-20.1095287607
 20
25.5837330012
 10
-20.1570304186
 20
25.7551915173
 10
-20.2001574634
 20
25.9270729798
 10
-20.2388818541
 20
26.0992655768
 10
-20.2732007587
 20
26.271769626
 10
-20.3031170092
 20
26.4445848096
 10
-20.3286110604
 20
26.6175983637
 10
-20.3496800245
 20
26.7908104607
 10
-20.3663267893
 20
26.9642209281
 10
-20.3785404727
 20
27.1377164833
 10
-20.3863181727
 20
27.3112971292
 10
-20.3896627913
 20
27.4849628628
 10
-20.388572153
 20
27.6586003931
 10
-20.3830433641
 20
27.8322097083
 10
-20.3730793184
 20
28.0057908202
 10
-20.3586865207
 20
28.1792304734
 10
-20.3398620851
 20
28.3525285595
 10
-20.3166088975
 20
28.5256851871
 10
-20.2889421215
 20
28.6985874264
 10
-20.2568588703
 20
28.8712351461
 10
-20.2203620307
 20
29.0436284776
 10
-20.1794754258
 20
29.2156548855
 10
-20.1341961979
 20
29.3873140989
 10
-20.0845272047
 20
29.5586063886
 10
-20.0305008425
 20
29.7294200317
 10
-19.972114259
 20
29.8997547419
 10
-19.9093703065
 20
30.0696108055
 10
-19.8423099381
 20
30.2388773579
 10
-19.7709303477
 20
30.4075539883
 10
-19.6952343414
 20
30.5756411076
 10
-19.6152712906
 20
30.7430290842
 10
-19.531038399
 20
30.9097174864
 10
-19.4425384629
 20
31.0757067458
 10
-19.3498292428
 20
31.2408885269
 10
-19.2529080023
 20
31.4052622834
 10
-19.1517774778
 20
31.5688285614
 10
-19.0465036388
 20
31.7314806641
 10
-18.9370837726
 20
31.8932180087
 10
-18.823520592
 20
32.054041178
 10
-18.7058882045
 20
32.2138452232
 10
-18.5841839604
 20
32.3726294709
 10
-18.4584105095
 20
32.5303945944
 10
-18.3286499088
 20
32.6870376656
 10
-18.1948995546
 20
32.8425579548
 10
-18.0571620507
 20
32.9969561918
 10
-17.9155272648
 20
33.1501316373
 10
-17.7699926498
 20
33.3020834969
 10
-17.6205607529
 20
33.4528125651
 10
-17.4673290835
 20
33.6022204867
 10
-17.3102951715
 20
33.7503063908
 10
-17.149461487
 20
33.8970711482
 10
-16.9849329496
 20
34.0424190168
 10
-16.8167071322
 20
34.1863490852
 10
-16.6447864618
 20
34.3288622648
 10
-16.4692831397
 20
34.4698655471
 10
-16.2901948496
 20
34.6093579298
 10
-16.1075239077
 20
34.7473404154
 10
-15.9213894635
 20
34.8837230025
 10
-15.7317892293
 20
35.0185046667
 10
-15.5387254927
 20
35.1516864324
 10
-15.3423242666
 20
35.2831813723
 10
-15.1425834047
 20
35.4129883645
 10
-14.9395050533
 20
35.5411085307
 10
-14.7332216634
 20
35.6674583088
 10
-14.5237311083
 20
35.7920365646
 10
-14.3110355148
 20
35.9148444321
 10
-14.0952737142
 20
36.035801752
 10
-13.876443742
 20
36.1549072963
 10
-13.6545475627
 20
36.2721622929
 10
-13.4297299008
 20
36.3874902661
 10
-13.2019888137
 20
36.5008899768
 10
-12.9713262441
 20
36.6123626641
 10
-12.7378927451
 20
36.7218355698
 10
-12.5016865421
 20
36.8293073731
 10
-12.2627094097
 20
36.9347793947
 10
-12.0211172245
 20
37.0381828393
 10
-11.7769082503
 20
37.1395163695
 10
-11.5300842233
 20
37.2387813226
 10
-11.2808062281
 20
37.335912915
 10
-11.0290726862
 20
37.4309097454
 10
-10.774885176
 20
37.5237732152
 10
-10.5184095174
 20
37.614442745
 10
-10.259644202
 20
37.7029169086
 10
-9.9985907383
 20
37.7891971322
 10
-9.7354194711
 20
37.8732271151
 10
-9.4701290242
 20
37.9550053866
 10
-9.2027207739
 20
38.0345334174
 10
-8.933369194
 20
38.1117593187
 10
-8.662073021
 20
38.1866815873
 10
-8.3888335185
 20
38.2593017266
 10
-8.1138289517
 20
38.3295723576
 10
-7.8370581542
 20
38.3974919506
 10
-7.5585222924
 20
38.4630620354
 10
-7.2784031313
 20
38.5262398232
 10
-6.9966996616
 20
38.5870237475
 10
-6.7134128926
 20
38.6454153747
 10
-6.4287276167
 20
38.7013766148
 10
-6.1426428877
 20
38.7549058879
 10
-5.8551596519
 20
38.8060047737
 10
-5.5664655402
 20
38.8546399222
 10
-5.2765598045
 20
38.9008097187
 10
-4.985443193
 20
38.9445157778
 10
-4.6933055807
 20
38.985729593
 10
-4.4001462558
 20
39.024449544
 10
-4.1059659301
 20
39.060677251
 10
-3.810956614
 20
39.0943890683
 10
-3.5151178118
 20
39.1255833488
 10
-3.2184500192
 20
39.1542617395
 10
-2.9211467336
 20
39.1804055351
 10
-2.6232074859
 20
39.2040130856
 10
-2.3246327451
 20
39.225086041
 10
-2.0256174158
 20
39.2436106459
 10
-1.7261612704
 20
39.2595852338
 10
-1.4262645365
 20
39.2730114711
 10
-1.1261228017
 20
39.2838806028
 10
-0.8257358782
 20
39.2921909624
 10
-0.5251039538
 20
39.2979442163
 10
-0.2244231796
 20
39.3011366085
 10
0.0763064648
 20
39.3017664684
 10
0.377084959
 20
39.2998354665
 10
0.6777160906
 20
39.295344859
 10
0.9781998549
 20
39.2882929702
 10
1.2785362565
 20
39.2786814758
 10
1.5785290973
 20
39.2665166587
 10
1.8781780793
 20
39.2517968514
 10
2.1774835004
 20
39.2345237216
 10
2.4762500569
 20
39.2147085543
 10
2.7744771982
 20
39.1923497144
 10
3.0721654749
 20
39.1674488372
 10
3.3691212344
 20
39.1400221133
 10
3.6653440797
 20
39.110067903
 10
3.9608344077
 20
39.0775878461
 10
4.2553997566
 20
39.0426030532
 10
4.5490401457
 20
39.0051117917
 10
4.8417555557
 20
38.9651157943
 10
5.1333534665
 20
38.9226413693
 10
5.4238331634
 20
38.8776868395
 10
5.7131953611
 20
38.8302538821
 10
6.0012496843
 20
38.7803738375
 10
6.2879935058
 20
38.7280454636
 10
6.5734294528
 20
38.6732700025
 10
6.8573750315
 20
38.6160825211
 10
7.1398287747
 20
38.5564817231
 10
7.4207921497
 20
38.4944689049
 10
7.7000870637
 20
38.4300830213
 10
7.9777165701
 20
38.3633215148
 10
8.2536776157
 20
38.2941869431
 10
8.5277829475
 20
38.2227259342
 10
8.8000340467
 20
38.1489357811
 10
9.0704294321
 20
38.0728191909
 10
9.3387774077
 20
37.9944309131
 10
9.6050682459
 20
37.913771822
 10
9.8693116743
 20
37.8308410432
 10
10.1313451799
 20
37.7456907032
 10
10.3911588535
 20
37.6583231845
 10
10.6487626042
 20
37.5687361045
 10
10.904023647
 20
37.4769744423
 10
11.1569520047
 20
37.3830334907
  0
LWPOLYLINE
  5
329
100
AcDbEntity
  8
ASSI
100
AcDbPolyline
 62
250
  6
CONTINUOUS
 90
15
 70
0
 10
11.1569520047
 20
37.3830334907
 10
11.4075376543
 20
37.2869179569
 10
11.6556177423
 20
37.1886869406
 10
11.9012086925
 20
37.0883305192
 10
12.144294081
 20
36.9858586153
 10
12.3846617828
 20
36.8813600972
 10
12.6223094696
 20
36.7748309084
 10
12.8572394697
 20
36.6662751052
 10
13.089246643
 20
36.5557937247
 10
13.3183266489
 20
36.4433833911
 10
13.5444838279
 20
36.3290474802
 10
13.7675260625
 20
36.2128971555
 10
13.9873893133
 20
36.0949694717
 10
14.2041376197
 20
35.9752273742
 10
14.4177709815
 20
35.853670863
  0
LWPOLYLINE
  5
32A
100
AcDbEntity
  8
ASSI
100
AcDbPolyline
 62
7
  6
CONTINUOUS
 90
22
 70
0
 10
-14.1677587545
 20
19.2291610014
 10
-14.6639401813
 20
19.5261558018
 10
-15.1407633883
 20
19.8329482645
 10
-15.5975876699
 20
20.1490877281
 10
-16.0337258945
 20
20.4740476393
 10
-16.4486936737
 20
20.8074094999
 10
-16.8421612219
 20
21.1488717173
 10
-17.2135359126
 20
21.4978931656
 10
-17.5623606245
 20
21.8540101947
 10
-17.8884510641
 20
22.2170398928
 10
-18.1912689192
 20
22.5864202887
 10
-18.4703961706
 20
22.9616748369
 10
-18.7257241481
 20
23.3427669998
 10
-18.9567979042
 20
23.729216701
 10
-19.1631564587
 20
24.1204665836
 10
-19.3445746974
 20
24.5163941675
 10
-19.5006870439
 20
24.9166741505
 10
-19.6310129411
 20
25.3206239543
 10
-19.7351679134
 20
25.7276173488
 10
-19.8128506567
 20
26.1371290205
 10
-19.8638080327
 20
26.548721989
 10
-19.887802928
 20
26.961920929
  0
LWPOLYLINE
  5
32B
100
AcDbEntity
  8
ASSI
100
AcDbPolyline
 62
7
  6
CONTINUOUS
 90
38
 70
0
 10
17.2911509185
 20
-1.5467432328
 10
17.2830977475
 20
-1.5415121646
 10
17.2535574203
 20
-1.5235704225
 10
17.2231233351
 20
-1.506996212
 10
17.1918539495
 20
-1.4918213689
 10
17.1597476579
 20
-1.4780485827
 10
17.1268060659
 20
-1.4656751639
 10
17.0930924474
 20
-1.4547248791
 10
17.0586053185
 20
-1.4452004637
 10
17.0233461632
 20
-1.4370991823
 10
16.9873827069
 20
-1.4304365959
 10
16.950713596
 20
-1.4252154697
 10
16.9133401841
 20
-1.4214330385
 10
16.8753342579
 20
-1.4190965675
 10
16.8366946015
 20
-1.4182088359
 10
16.7974224308
 20
-1.4187670645
 10
16.7575931794
 20
-1.4207701811
 10
16.7172057766
 20
-1.4242209629
 10
16.6762612932
 20
-1.4291166326
 10
16.6348383749
 20
-1.4354477867
 10
16.5929361022
 20
-1.4432171843
 10
16.5505553947
 20
-1.4524220663
 10
16.507777657
 20
-1.463044752
 10
16.4646021259
 20
-1.4750879666
 10
16.4210295645
 20
-1.4885489849
 10
16.3771436667
 20
-1.5034019512
 10
16.3329438303
 20
-1.5196495407
 10
16.2884306575
 20
-1.5372890781
 10
16.2436896489
 20
-1.5562866816
 10
16.1987203665
 20
-1.5766449614
 10
16.1535232483
 20
-1.5983613072
 10
16.1081851085
 20
-1.6213940064
 10
16.0627056762
 20
-1.6457455891
 10
16.0170852224
 20
-1.6714135252
 10
15.9714113744
 20
-1.698348512
 10
15.9257133415
 20
-1.7265341152
 10
15.8799619145
 20
-1.7559867691
 10
15.8341570934
 20
-1.7867064736
  0
LINE
  5
32C
100
AcDbEntity
  8
ASSI
100
AcDbLine
 62
7
  6
CONTINUOUS
 10
15.7605037641
 20
-2.368852132
 11
15.795771249
 21
-2.3920912702
  0
LINE
  5
32D
100
AcDbEntity
  8
ASSI
100
AcDbLine
 62
7
  6
CONTINUOUS
 10
15.7988896086
 20
-1.7634673354
 11
15.8341570934
 21
-1.7867064736
  0
LWPOLYLINE
  5
32E
100
AcDbEntity
  8
ASSI
100
AcDbPolyline
 62
7
  6
CONTINUOUS
 90
90
 70
0
 10
16.8702229873
 20
-2.185526814
 10
16.8812079236
 20
-2.1929733751
 10
16.9026673801
 20
-2.2087689675
 10
16.9233372586
 20
-2.2257064106
 10
16.943219394
 20
-2.2437830511
 10
16.9622675122
 20
-2.2629568169
 10
16.9804796706
 20
-2.2832302635
 10
16.9978578116
 20
-2.3046008354
 10
17.0143614892
 20
-2.3270187943
 10
17.0299886664
 20
-2.3504865798
 10
17.04474138
 20
-2.3750017522
 10
17.0585852943
 20
-2.4005072543
 10
17.0715182924
 20
-2.427005393
 10
17.0835424912
 20
-2.4544938614
 10
17.0946299052
 20
-2.4829086822
 10
17.1047783525
 20
-2.5122520132
 10
17.113990015
 20
-2.5425216966
 10
17.1222434533
 20
-2.5736472822
 10
17.1295364354
 20
-2.6056307633
 10
17.1358711934
 20
-2.6384701466
 10
17.1412329835
 20
-2.6720890007
 10
17.1456195395
 20
-2.7064891414
 10
17.1490331276
 20
-2.7416687529
 10
17.1514658029
 20
-2.7775459575
 10
17.1529152808
 20
-2.81412238
 10
17.1533838459
 20
-2.8513963955
 10
17.1528704078
 20
-2.8892812517
 10
17.151372679
 20
-2.9277783713
 10
17.148892947
 20
-2.9668863315
 10
17.145436983
 20
-3.0065141115
 10
17.1410025133
 20
-3.0466629222
 10
17.1355918117
 20
-3.0873315527
 10
17.1292174712
 20
-3.1284253498
 10
17.1218772473
 20
-3.169945304
 10
17.1135733844
 20
-3.2118904248
 10
17.1043252093
 20
-3.2541630883
 10
17.0941305224
 20
-3.2967640574
 10
17.0829915231
 20
-3.339692569
 10
17.0709341368
 20
-3.3828487105
 10
17.0579562241
 20
-3.4262330119
 10
17.0440599244
 20
-3.4698449431
 10
17.0292775801
 20
-3.5135830007
 10
17.0136071274
 20
-3.5574474784
 10
16.9970506303
 20
-3.6014380825
 10
16.9796466225
 20
-3.6454524281
 10
16.9613931301
 20
-3.6894905706
 10
16.9422921272
 20
-3.7335524546
 10
16.9223880699
 20
-3.7775355296
 10
16.9016790876
 20
-3.8214396119
 10
16.8801670509
 20
-3.8652648851
 10
16.8579020273
 20
-3.9089093492
 10
16.8348822631
 20
-3.9523725831
 10
16.8111095121
 20
-3.9956550079
 10
16.7866391035
 20
-4.038655887
 10
16.7614694123
 20
-4.0813745648
 10
16.7356020637
 20
-4.123811697
 10
16.7090972617
 20
-4.1658685143
 10
16.6819535217
 20
-4.207544131
 10
16.6541723285
 20
-4.2488394328
 10
16.6258183406
 20
-4.2896583082
 10
16.5968902239
 20
-4.3299996475
 10
16.5673893125
 20
-4.3698645602
 10
16.5373842675
 20
-4.4091602639
 10
16.5068739148
 20
-4.4478854328
 10
16.4758594286
 20
-4.4860413927
 10
16.4444129926
 20
-4.5235393384
 10
16.4125336009
 20
-4.5603777374
 10
16.3802222595
 20
-4.5965581223
 10
16.3475541706
 20
-4.631996286
 10
16.3145285032
 20
-4.6666904997
 10
16.2811460883
 20
-4.7006424922
 10
16.247484621
 20
-4.7337732429
 10
16.2135434511
 20
-4.7660808388
 10
16.1793232288
 20
-4.7975671928
 10
16.144903599
 20
-4.828159023
 10
16.1102840972
 20
-4.8578542456
 10
16.0754651879
 20
-4.8866549442
 10
16.0405279094
 20
-4.9144940875
 10
16.005471986
 20
-4.9413694357
 10
15.9702976934
 20
-4.9672832286
 10
15.9350868972
 20
-4.9921751537
 10
15.8998395123
 20
-5.0160428309
 10
15.8645556236
 20
-5.0388886403
 10
15.8293173519
 20
-5.0606594101
 10
15.7941248032
 20
-5.0813526362
 10
15.7589778715
 20
-5.1009708227
 10
15.7239583584
 20
-5.1194683098
 10
15.6890935312
 20
-5.1368298774
 10
15.6543561228
 20
-5.1530707456
 10
15.619746133
 20
-5.1681909143
  0
LWPOLYLINE
  5
32F
100
AcDbEntity
  8
0
100
AcDbPolyline
 62
7
  6
CONTINUOUS
 90
3
 70
0
 10
-9.9073957694
 20
17.3908016967
 10
-10.0560099057
 20
17.5027652362
 10
-10.1228921741
 20
17.5438598912
  0
LINE
  5
330
100
AcDbEntity
  8
0
100
AcDbLine
 62
7
  6
CONTINUOUS
 10
-9.8559348755
 20
17.3401543624
 11
-9.9073957694
 21
17.3908016967
  0
LWPOLYLINE
  5
331
100
AcDbEntity
  8
COPY-PUBBLISH
100
AcDbPolyline
 62
7
  6
CONTINUOUS
 90
27
 70
0
 10
-4.1945562367
 20
16.1048547062
 10
-4.206224165
 20
16.1197086542
 10
-4.2928414832
 20
16.213273942
 10
-4.3893997315
 20
16.3030041178
 10
-4.4960263115
 20
16.3888501402
 10
-4.6125938216
 20
16.4708610505
 10
-4.7376153605
 20
16.5479907105
 10
-4.8711992438
 20
16.6201765802
 10
-5.013237156
 20
16.6874811996
 10
-5.1619172491
 20
16.7490460505
 10
-5.3173244599
 20
16.8047975729
 10
-5.4793738516
 20
16.8548093269
 10
-5.6459987662
 20
16.8984434746
 10
-5.817258108
 20
16.9356183738
 10
-5.9930929727
 20
16.9664156666
 10
-6.1712599888
 20
16.9904424424
 10
-6.3517885897
 20
17.0076119386
 10
-6.5346493421
 20
17.0180109177
 10
-6.7175105749
 20
17.021506757
 10
-6.9003728378
 20
17.0180110234
 10
-7.0832355811
 20
17.0076121499
 10
-7.2637654845
 20
16.9904428125
 10
-7.4419321202
 20
16.9664163441
 10
-7.617765916
 20
16.9356194118
 10
-7.7890248349
 20
16.8984446931
 10
-7.9556507358
 20
16.8548103955
 10
-8.0564745184
 20
16.8236942238
  0
LWPOLYLINE
  5
332
100
AcDbEntity
  8
ASSI
100
AcDbPolyline
 62
7
  6
CONTINUOUS
 90
4
 70
0
 10
-4.1158824918
 20
17.1380928585
 10
-4.1053119186
 20
17.1242772417
 10
-4.0777105215
 20
17.0864709205
 10
-4.0763498064
 20
17.0844690919
  0
LWPOLYLINE
  5
333
100
AcDbEntity
  8
ASSI
100
AcDbPolyline
 62
7
  6
CONTINUOUS
 90
3
 70
0
 10
-4.0962340169
 20
17.1162128884
 10
-4.073033299
 20
17.0791745124
 10
-4.051413115
 20
17.0418433023
  0
LINE
  5
334
100
AcDbEntity
  8
0
100
AcDbLine
 62
7
  6
CONTINUOUS
 10
10.4813632645
 20
0.860784199
 11
10.4989896867
 21
-0.2924514637
  0
LINE
  5
335
100
AcDbEntity
  8
0
100
AcDbLine
 62
7
  6
CONTINUOUS
 10
12.8616622232
 20
30.8551490013
 11
12.8598462633
 21
30.975949836
  0
LINE
  5
336
100
AcDbEntity
  8
0
100
AcDbLine
 62
250
  6
CONTINUOUS
 10
10.5422132929
 20
0.8937712006
 11
10.3962193228
 21
15.437414614
  0
LINE
  5
337
100
AcDbEntity
  8
0
100
AcDbLine
 62
7
  6
CONTINUOUS
 10
12.8598462633
 20
30.975949836
 11
12.858334456
 21
31.152502465
  0
LINE
  5
338
100
AcDbEntity
  8
0
100
AcDbLine
 62
7
  6
CONTINUOUS
 10
10.5874292817
 20
-0.7123537041
 11
10.5874292817
 21
-0.2210329995
  0
LINE
  5
339
100
AcDbEntity
  8
ASSI
100
AcDbLine
 62
7
  6
CONTINUOUS
 10
11.1015765381
 20
18.6708607761
 11
11.1015765381
 21
20.3040301683
  0
LINE
  5
33A
100
AcDbEntity
  8
0
100
AcDbLine
 62
7
  6
CONTINUOUS
 10
12.858334456
 20
31.152502465
 11
12.8580172558
 21
31.5527487785
  0
LINE
  5
33B
100
AcDbEntity
  8
ASSI
100
AcDbLine
 62
7
  6
CONTINUOUS
 10
13.6992234297
 20
34.1971032552
 11
13.6992234297
 21
21.8038789274
  0
LINE
  5
33C
100
AcDbEntity
  8
0
100
AcDbLine
 62
7
  6
CONTINUOUS
 10
11.1532490759
 20
20.333865244
 11
11.1525640535
 21
20.1700295833
  0
LWPOLYLINE
  5
33D
100
AcDbEntity
  8
0
100
AcDbPolyline
 62
7
  6
CONTINUOUS
 90
10
 70
0
 10
12.8609413316
 20
30.8551377127
 10
12.8608859317
 20
30.8424107892
 10
12.8557408655
 20
30.7859877378
 10
12.8426271248
 20
30.7301359824
 10
12.8210985885
 20
30.6743847332
 10
12.7917264696
 20
30.618839334
 10
12.7560815534
 20
30.5643380299
 10
12.7147244369
 20
30.5112095491
 10
12.6672243078
 20
30.4591179174
 10
12.4629334388
 20
30.2633652624
  0
LINE
  5
33E
100
AcDbEntity
  8
ASSI
100
AcDbLine
 62
7
  6
CONTINUOUS
 10
13.7147596934
 20
19.3637755008
 11
13.7079389706
 21
18.9747880517
  0
LINE
  5
33F
100
AcDbEntity
  8
ASSI
100
AcDbLine
 62
7
  6
CONTINUOUS
 10
12.7117012869
 20
34.7054555857
 11
12.6620106209
 21
31.9028797485
  0
LINE
  5
340
100
AcDbEntity
  8
ASSI
100
AcDbLine
 62
7
  6
CONTINUOUS
 10
12.6358824774
 20
30.4292407425
 11
12.5111930684
 21
23.3967021743
  0
LINE
  5
341
100
AcDbEntity
  8
ASSI
100
AcDbLine
 62
7
  6
CONTINUOUS
 10
15.2572856991
 20
33.2356670497
 11
15.0291194874
 21
20.3669904207
  0
LINE
  5
342
100
AcDbEntity
  8
ASSI
100
AcDbLine
 62
250
  6
CONTINUOUS
 10
10.5531212339
 20
-0.2629819698
 11
9.9735012173
 21
-13.7179978485
  0
LINE
  5
343
100
AcDbEntity
  8
0
100
AcDbLine
 62
7
  6
CONTINUOUS
 10
10.5406553515
 20
-0.7349702562
 11
10.5712464522
 21
-0.2525166959
  0
LINE
  5
344
100
AcDbEntity
  8
ASSI
100
AcDbLine
 62
7
  6
CONTINUOUS
 10
12.7335817121
 20
-3.5333376974
 11
12.6951958453
 21
-4.1387228476
  0
LINE
  5
345
100
AcDbEntity
  8
ASSI
100
AcDbLine
 62
7
  6
CONTINUOUS
 10
12.5191707517
 20
-6.9148221382
 11
12.4807849072
 21
-7.5202069348
  0
LINE
  5
346
100
AcDbEntity
  8
ASSI
100
AcDbLine
 62
7
  6
CONTINUOUS
 10
12.768849197
 20
-3.5565768356
 11
12.7304633303
 21
-4.1619619836
  0
LINE
  5
347
100
AcDbEntity
  8
ASSI
100
AcDbLine
 62
7
  6
CONTINUOUS
 10
12.5544382365
 20
-6.9380612764
 11
12.5160523921
 21
-7.543446073
  0
LINE
  5
348
100
AcDbEntity
  8
ASSI
100
AcDbLine
 62
7
  6
CONTINUOUS
 10
12.986863044
 20
-5.0180307016
 11
12.9487524922
 21
-5.6190738455
  0
LINE
  5
349
100
AcDbEntity
  8
ASSI
100
AcDbLine
 62
7
  6
CONTINUOUS
 10
13.0221305288
 20
-5.0412698398
 11
12.9840199771
 21
-5.6423129836
  0
LWPOLYLINE
  5
34A
100
AcDbEntity
  8
ASSI
100
AcDbPolyline
 62
7
  6
CONTINUOUS
 90
19
 70
0
 10
9.6435147311
 20
-18.674656509
 10
9.6616724856
 20
-18.4877851355
 10
9.682262883
 20
-18.3027102713
 10
9.7052859233
 20
-18.1194319166
 10
9.730747518
 20
-17.9379108357
 10
9.7586417555
 20
-17.7581862643
 10
9.7889509012
 20
-17.580375909
 10
9.8216762438
 20
-17.4044833263
 10
9.8568164946
 20
-17.2305049598
 10
9.8943500532
 20
-17.0585478472
 10
9.9342783955
 20
-16.8886132838
 10
9.9766000456
 20
-16.7206999743
 10
10.021288976
 20
-16.5549110707
 10
10.0683474524
 20
-16.3912458659
 10
10.117773209
 20
-16.2297050669
 10
10.1695334215
 20
-16.0703939476
 10
10.2236171484
 20
-15.913347599
 10
10.280035331
 20
-15.7585309301
 10
10.3387879695
 20
-15.6059439408
  0
LWPOLYLINE
  5
34B
100
AcDbEntity
  8
ASSI
100
AcDbPolyline
 62
250
  6
CONTINUOUS
 90
10
 70
0
 10
20.1189583748
 20
21.9877219993
 10
20.2424348667
 20
22.466261078
 10
20.3612443173
 20
22.9451487457
 10
20.4753867266
 20
23.4243850024
 10
20.5848632565
 20
23.9039750549
 10
20.689672745
 20
24.3839136965
 10
20.7898117067
 20
24.8641853067
 10
20.8852789797
 20
25.3447846785
 10
20.9760757258
 20
25.8257170188
 10
21.0622019452
 20
26.3069823277
  0
LWPOLYLINE
  5
34C
100
AcDbEntity
  8
ASSI
100
AcDbPolyline
 62
250
  6
CONTINUOUS
 90
10
 70
0
 10
20.6132158741
 20
21.5432752505
 10
20.7371016662
 20
22.0233960155
 10
20.8563108963
 20
22.5038958241
 10
20.9708402461
 20
22.9847594793
 10
21.0806842278
 20
23.4659613975
 10
21.1858423392
 20
23.947496727
 10
21.2863180538
 20
24.4293814227
 10
21.3821097509
 20
24.9116107144
 10
21.4732117262
 20
25.3941590338
 10
21.5596206391
 20
25.877011185
  0
LWPOLYLINE
  5
34D
100
AcDbEntity
  8
ASSI
100
AcDbPolyline
 62
7
  6
CONTINUOUS
 90
10
 70
0
 10
6.0390895814
 20
-19.0073900565
 10
6.0739507728
 20
-18.8763761457
 10
6.1102763061
 20
-18.7467026849
 10
6.1480661812
 20
-18.618369674
 10
6.1873266988
 20
-18.4913576788
 10
6.2280515582
 20
-18.3656861336
 10
6.2702218573
 20
-18.2414133415
 10
6.3138312952
 20
-18.1185587367
 10
6.3588861728
 20
-17.997102885
 10
6.40538649
 20
-17.8770457863
  0
LWPOLYLINE
  5
34E
100
AcDbEntity
  8
ASSI
100
AcDbPolyline
 62
7
  6
CONTINUOUS
 90
19
 70
0
 10
7.0441859355
 20
-17.5517786599
 10
6.9852492545
 20
-17.7042198918
 10
6.9286540018
 20
-17.8589003737
 10
6.8744001774
 20
-18.0158201057
 10
6.8224767365
 20
-18.1750143748
 10
6.772894724
 20
-18.3364478941
 10
6.7256872746
 20
-18.5000148018
 10
6.6808566755
 20
-18.6657143935
 10
6.6384006397
 20
-18.8335473737
 10
6.5983454407
 20
-19.0034099941
 10
6.5606925684
 20
-19.1753035637
 10
6.5254405329
 20
-19.3492267736
 10
6.4926111394
 20
-19.5250719491
 10
6.4622056886
 20
-19.7028426734
 10
6.4342228798
 20
-19.8825353633
 10
6.4086806151
 20
-20.0640315949
 10
6.3855848621
 20
-20.2472918934
 10
6.3649296533
 20
-20.4323557335
 10
6.3467149886
 20
-20.6192231152
  0
LWPOLYLINE
  5
34F
100
AcDbEntity
  8
ASSI
100
AcDbPolyline
 62
7
  6
CONTINUOUS
 90
10
 70
0
 10
6.4431147659
 20
-17.89882962
 10
6.3964633345
 20
-18.0187852183
 10
6.3512619769
 20
-18.1401459201
 10
6.307510693
 20
-18.2629117256
 10
6.2652031206
 20
-18.3871021836
 10
6.2243456218
 20
-18.5126977452
 10
6.184957284
 20
-18.6396397637
 10
6.1470444695
 20
-18.76790869
 10
6.1106008159
 20
-18.8975240733
 10
6.0756263231
 20
-19.0284859133
  0
LWPOLYLINE
  5
350
100
AcDbEntity
  8
ASSI
100
AcDbPolyline
 62
250
  6
CONTINUOUS
 90
157
 70
0
 10
3.0190670395
 20
-19.2177709286
 10
2.9372233022
 20
-19.3250209565
 10
2.8576695681
 20
-19.4326995713
 10
2.7804218233
 20
-19.5408135122
 10
2.7055108034
 20
-19.6493524424
 10
2.6329377795
 20
-19.758339288
 10
2.5626757061
 20
-19.867831456
 10
2.4947236049
 20
-19.9778625797
 10
2.42911773
 20
-20.0884131188
 10
2.3658872197
 20
-20.1994605903
 10
2.3050440103
 20
-20.3110198378
 10
2.2466100198
 20
-20.4230866125
 10
2.1906269958
 20
-20.535606931
 10
2.1371175264
 20
-20.6485680909
 10
2.0860895084
 20
-20.7619881868
 10
2.0375606822
 20
-20.8758570519
 10
1.9915446927
 20
-20.9901765117
 10
1.9480580279
 20
-21.1049480573
 10
1.9071220062
 20
-21.2201599429
 10
1.8687455361
 20
-21.3358288755
 10
1.8329496061
 20
-21.4519395149
 10
1.7997717169
 20
-21.5684298963
 10
1.7692243452
 20
-21.6853039809
 10
1.7413214541
 20
-21.802554504
 10
1.7160989468
 20
-21.9200989897
 10
1.6935688785
 20
-22.0379324713
 10
1.6737409709
 20
-22.1560513088
 10
1.6566431957
 20
-22.2743710442
 10
1.6422849941
 20
-22.3928837032
 10
1.6306739333
 20
-22.5115837329
 10
1.6218307366
 20
-22.6303865619
 10
1.6157622639
 20
-22.7492896832
 10
1.6124740302
 20
-22.8682777242
 10
1.6119796926
 20
-22.9872428491
 10
1.6142858026
 20
-23.1061922357
 10
1.6193922881
 20
-23.2250960309
 10
1.6272953474
 20
-23.3437853916
 10
1.6379984002
 20
-23.4622460581
 10
1.6514943054
 20
-23.580462504
 10
1.6677537542
 20
-23.6982574464
 10
1.686769427
 20
-23.8155881316
 10
1.7085339224
 20
-23.9324609164
 10
1.7330098848
 20
-24.048767242
 10
1.7601840293
 20
-24.1644728133
 10
1.790048779
 20
-24.2795729162
 10
1.822570801
 20
-24.3940008927
 10
1.8577373336
 20
-24.5077376844
 10
1.895537024
 20
-24.6207629332
 10
1.935935448
 20
-24.733006563
 10
1.9789187141
 20
-24.8444503032
 10
2.0244731866
 20
-24.9550727813
 10
2.072561551
 20
-25.0647979116
 10
2.1231668143
 20
-25.1736042394
 10
2.1762749118
 20
-25.2814735716
 10
2.2318497789
 20
-25.3883335741
 10
2.2898712085
 20
-25.4941613538
 10
2.3503253908
 20
-25.5989407108
 10
2.413183307
 20
-25.7026086313
 10
2.4784258801
 20
-25.8051474897
 10
2.5460362273
 20
-25.9065370528
 10
2.6159864366
 20
-26.0067099497
 10
2.688259413
 20
-26.1056523629
 10
2.7628344254
 20
-26.2033416533
 10
2.8396756089
 20
-26.2996967327
 10
2.9187604397
 20
-26.3946984468
 10
3.0000711165
 20
-26.4883307897
 10
3.083576283
 20
-26.5805169771
 10
3.1692497741
 20
-26.6712372729
 10
3.2570756035
 20
-26.760477971
 10
3.3470357023
 20
-26.8481712243
 10
3.4391068788
 20
-26.9343030465
 10
3.5332693561
 20
-27.0188561427
 10
3.6295085779
 20
-27.1017577859
 10
3.7277995289
 20
-27.1829943817
 10
3.8281234586
 20
-27.2625504451
 10
3.9304736757
 20
-27.3403505689
 10
4.0348280088
 20
-27.4163850004
 10
4.141164419
 20
-27.490636738
 10
4.2494748222
 20
-27.5630196892
 10
4.3597426739
 20
-27.63352792
 10
4.4719397324
 20
-27.7021429086
 10
4.5860382395
 20
-27.7687597919
 10
4.7020106357
 20
-27.8333670142
 10
4.8198383012
 20
-27.8959538284
 10
4.9395045737
 20
-27.9564167195
 10
5.0609819218
 20
-28.0147470705
 10
5.1842510504
 20
-28.0709335528
 10
5.3093056554
 20
-28.1248688413
 10
5.4361301766
 20
-28.1765504801
 10
5.5646931819
 20
-28.2259634142
 10
5.6949623177
 20
-28.2729816959
 10
5.8269127416
 20
-28.3175996787
 10
5.9605214447
 20
-28.3598078206
 10
6.0957562919
 20
-28.3994746217
 10
6.232605158
 20
-28.4365982945
 10
6.3710319683
 20
-28.4711678163
 10
6.5109659057
 20
-28.5030381666
 10
6.6524456839
 20
-28.5322100352
 10
6.7953839011
 20
-28.5586722519
 10
6.9395163416
 20
-28.5822623033
 10
7.0848562037
 20
-28.6029619771
 10
7.2313387553
 20
-28.6207812056
 10
7.3785775844
 20
-28.6356000341
 10
7.5265265208
 20
-28.6473916883
 10
7.6751781907
 20
-28.6561769673
 10
7.8242004938
 20
-28.6619077525
 10
7.9735108908
 20
-28.6645682007
 10
8.123139829
 20
-28.6641704471
 10
8.2729234762
 20
-28.6607088546
 10
8.4228277997
 20
-28.6541788089
 10
8.5728394513
 20
-28.6445831364
 10
8.722826029
 20
-28.6319277957
 10
8.8727683368
 20
-28.6162094539
 10
9.0226433624
 20
-28.5974311182
 10
9.1723137503
 20
-28.5756085858
 10
9.3217602584
 20
-28.5507391941
 10
9.4709652608
 20
-28.5228263056
 10
9.6197947874
 20
-28.4918949799
 10
9.7682315217
 20
-28.4579433363
 10
9.9162614805
 20
-28.4209745734
 10
10.0637568334
 20
-28.3810214952
 10
10.2107029046
 20
-28.3380828424
 10
10.3570888075
 20
-28.2921614465
 10
10.5027936732
 20
-28.2432962839
 10
10.647806736
 20
-28.1914860338
 10
10.7921190482
 20
-28.1367335357
 10
10.9356138416
 20
-28.0790839698
 10
11.0782826184
 20
-28.0185363115
 10
11.2201200785
 20
-27.9550928079
 10
11.361015687
 20
-27.8888034541
 10
11.5009643968
 20
-27.8196669524
 10
11.6399634152
 20
-27.747685354
 10
11.7779070653
 20
-27.6729135473
 10
11.9147932125
 20
-27.5953500434
 10
12.0506221299
 20
-27.5149965163
 10
12.1852932443
 20
-27.4319124514
 10
12.318807493
 20
-27.3460960085
 10
12.4511680601
 20
-27.2575486211
 10
12.5822792307
 20
-27.1663345425
 10
12.7121450341
 20
-27.0724514753
 10
12.840771535
 20
-26.9759007705
 10
12.9680675353
 20
-26.8767520353
 10
13.094039656
 20
-26.7750029055
 10
13.2186973149
 20
-26.6706543866
 10
13.3419549263
 20
-26.5637810658
 10
13.4638230202
 20
-26.4543792815
 10
13.5843130021
 20
-26.3424511241
 10
13.7033419385
 20
-26.2280797982
 10
13.8209208677
 20
-26.111263721
 10
13.9370664897
 20
-25.9920029604
 10
14.0517055997
 20
-25.8703832651
 10
14.1648546167
 20
-25.74640032
 10
14.2765305603
 20
-25.6200573098
 10
14.3866622143
 20
-25.4914513937
 10
14.4952386966
 20
-25.3606148355
 10
14.6023097494
 20
-25.2275150114
 10
14.7078963374
 20
-25.0921520005
  0
LWPOLYLINE
  5
351
100
AcDbEntity
  8
ASSI
100
AcDbPolyline
 62
250
  6
CONTINUOUS
 90
157
 70
0
 10
2.3526388892
 20
-19.1515079002
 10
2.2610790934
 20
-19.2666456589
 10
2.1720571154
 20
-19.3822730888
 10
2.0855741867
 20
-19.4984064784
 10
2.001630112
 20
-19.6150464979
 10
1.9202258967
 20
-19.7322234002
 10
1.8413638531
 20
-19.8499969065
 10
1.7650185353
 20
-19.9684102448
 10
1.6912133673
 20
-20.0874473448
 10
1.6200230348
 20
-20.2070786199
 10
1.5514377669
 20
-20.3273307309
 10
1.4854618251
 20
-20.4482019639
 10
1.4221895463
 20
-20.5696206449
 10
1.3616239568
 20
-20.6915844996
 10
1.3037528532
 20
-20.8141186858
 10
1.2486463288
 20
-20.9371929854
 10
1.1962969387
 20
-21.0608147854
 10
1.1466997394
 20
-21.1849965535
 10
1.0999273072
 20
-21.3097156004
 10
1.0559644264
 20
-21.4349989138
 10
1.0148107937
 20
-21.5608360199
 10
0.9765599273
 20
-21.6871480308
 10
0.94120231
 20
-21.813950844
 10
0.9087285297
 20
-21.9412420018
 10
0.8792306709
 20
-22.0689152241
 10
0.8527007004
 20
-22.1969770982
 10
0.8291243838
 20
-22.3254311789
 10
0.8085829573
 20
-22.4541666553
 10
0.7910667546
 20
-22.5831874368
 10
0.776560062
 20
-22.7124960715
 10
0.7651336271
 20
-22.8419795213
 10
0.756776544
 20
-22.9716469518
 10
0.751471453
 20
-23.1014916319
 10
0.7492781504
 20
-23.2313763864
 10
0.7501889546
 20
-23.3613231065
 10
0.7541806279
 20
-23.491308182
 10
0.7612886415
 20
-23.6211260537
 10
0.771509124
 20
-23.7507811104
 10
0.7848129062
 20
-23.8802634472
 10
0.8011970383
 20
-24.0093461842
 10
0.8206509345
 20
-24.1380006829
 10
0.8431508872
 20
-24.2662465086
 10
0.8686742404
 20
-24.3939290859
 10
0.8972037754
 20
-24.5210245615
 10
0.9287215538
 20
-24.64754377
 10
0.9632039309
 20
-24.7733838068
 10
1.0006344421
 20
-24.8985358769
 10
1.040993513
 20
-25.0229915862
 10
1.0842529722
 20
-25.1466481452
 10
1.1303967943
 20
-25.2694960531
 10
1.1794042136
 20
-25.3915236794
 10
1.2312402336
 20
-25.5126246511
 10
1.2858871276
 20
-25.6327841181
 10
1.3433252347
 20
-25.7519921402
 10
1.4035170584
 20
-25.8701494024
 10
1.4664420505
 20
-25.9872367614
 10
1.5320827795
 20
-26.1032450917
 10
1.6004067924
 20
-26.2180897636
 10
1.6713946979
 20
-26.3317544455
 10
1.7450270559
 20
-26.4442237203
 10
1.8212716494
 20
-26.5554139491
 10
1.9001123595
 20
-26.6653113427
 10
1.9815254723
 20
-26.7738946067
 10
2.0654678293
 20
-26.8810686201
 10
2.1519186005
 20
-26.9868116845
 10
2.2408579851
 20
-27.0911075617
 10
2.3322449215
 20
-27.1938692243
 10
2.4260538173
 20
-27.2950709931
 10
2.5222685793
 20
-27.3946978581
 10
2.6208626941
 20
-27.4926785196
 10
2.7218130347
 20
-27.5889910182
 10
2.8250992769
 20
-27.683613596
 10
2.9306991321
 20
-27.7764747708
 10
3.0385865659
 20
-27.8675501699
 10
3.1487420565
 20
-27.956817485
 10
3.261152894
 20
-28.0442076874
 10
3.3757942707
 20
-28.1296973849
 10
3.4926426828
 20
-28.2132601322
 10
3.6116869975
 20
-28.2948215314
 10
3.7329085268
 20
-28.3743604967
 10
3.8562744198
 20
-28.4518450986
 10
3.9817521956
 20
-28.5271841467
 10
4.1093104291
 20
-28.6003477474
 10
4.2389262732
 20
-28.6713104498
 10
4.3705800843
 20
-28.7399872962
 10
4.5042373072
 20
-28.8063481795
 10
4.6398745119
 20
-28.8703651372
 10
4.7774881434
 20
-28.9319555318
 10
4.9170552672
 20
-28.9910937696
 10
5.0585358632
 20
-29.0477440386
 10
5.2019002521
 20
-29.1018075824
 10
5.3471139061
 20
-29.1532529016
 10
5.4941441215
 20
-29.2020478355
 10
5.6429638001
 20
-29.2480921535
 10
5.793548328
 20
-29.2913561691
 10
5.945849868
 20
-29.3318033815
 10
6.0998068652
 20
-29.3693233343
 10
6.2554544453
 20
-29.4038914186
 10
6.412679976
 20
-29.4354641789
 10
6.5712058153
 20
-29.4639072423
 10
6.7310503513
 20
-29.4891814938
 10
6.892122974
 20
-29.5112649086
 10
7.0539961536
 20
-29.5300598455
 10
7.2166315897
 20
-29.5455234054
 10
7.380008977
 20
-29.5576509706
 10
7.5437440586
 20
-29.5664158023
 10
7.7077565099
 20
-29.5717887774
 10
7.8720807333
 20
-29.573764109
 10
8.0365157479
 20
-29.5723597253
 10
8.2010293056
 20
-29.5675589038
 10
8.3656108613
 20
-29.5593484434
 10
8.5300980926
 20
-29.5477573077
 10
8.6944733676
 20
-29.5327716251
 10
8.8587139153
 20
-29.514379542
 10
9.0226553702
 20
-29.4926182996
 10
9.186279098
 20
-29.4674767677
 10
9.3495668288
 20
-29.4389450656
 10
9.5123608441
 20
-29.4070676472
 10
9.6746435013
 20
-29.3718362829
 10
9.8363994291
 20
-29.3332428195
 10
9.9974805708
 20
-29.2913370147
 10
10.1578710689
 20
-29.2461133823
 10
10.3175579266
 20
-29.1975654276
 10
10.4764036932
 20
-29.1457463402
 10
10.6343958562
 20
-29.0906526387
 10
10.791522434
 20
-29.0322799177
 10
10.9476532351
 20
-28.9706847175
 10
11.1027775349
 20
-28.9058659707
 10
11.2568864047
 20
-28.8378207967
 10
11.4098590079
 20
-28.7666075618
 10
11.5616878314
 20
-28.692226894
 10
11.7123658507
 20
-28.6146778486
 10
11.8617798162
 20
-28.53402077
 10
12.009925094
 20
-28.4502579901
 10
12.1567973192
 20
-28.3633902642
 10
12.3022907567
 20
-28.2734797352
 10
12.4464040426
 20
-28.1805301235
 10
12.5891354761
 20
-28.0845439495
 10
12.7303862112
 20
-27.9855855584
 10
12.8701584335
 20
-27.8836597776
 10
13.0084532488
 20
-27.7787709409
 10
13.1451779175
 20
-27.6709865248
 10
13.2803378827
 20
-27.5603126915
 10
13.4139378212
 20
-27.4467551619
 10
13.5458918909
 20
-27.3303844922
 10
13.6762104819
 20
-27.2112065948
 10
13.8049004675
 20
-27.0892298957
 10
13.9318792085
 20
-26.9645324044
 10
14.0571587141
 20
-26.8371232452
 10
14.1807521184
 20
-26.7070100589
 10
14.3025871955
 20
-26.5742721785
 10
14.4226827611
 20
-26.4389162579
 10
14.5410527976
 20
-26.3009543571
 10
14.6576268417
 20
-26.1604773749
 10
14.7723973061
 20
-26.0175234036
 10
14.8854141042
 20
-25.8720755119
 10
14.9966975288
 20
-25.7241435441
  0
LWPOLYLINE
  5
352
100
AcDbEntity
  8
ASSI
100
AcDbPolyline
 62
250
  6
CONTINUOUS
 90
37
 70
0
 10
2.28415748
 20
-19.1488771242
 10
2.4016658587
 20
-19.0058494405
 10
2.5229390263
 20
-18.8626626761
 10
2.6479768675
 20
-18.7193114769
 10
2.7767236895
 20
-18.5757837171
 10
2.909234814
 20
-18.4320803736
 10
3.0456765617
 20
-18.2882152376
 10
3.1860532886
 20
-18.1441710558
 10
3.3303599282
 20
-17.9999523138
 10
3.4787485433
 20
-17.8556046219
 10
3.6312109397
 20
-17.7111235386
 10
3.7877541799
 20
-17.5664991054
 10
3.9485530514
 20
-17.4217677834
 10
4.1135958292
 20
-17.2769250012
 10
4.2828926103
 20
-17.1319590682
 10
4.4566507201
 20
-16.9868947123
 10
4.6348720513
 20
-16.8417142141
 10
4.8175524916
 20
-16.6964168485
 10
5.0048901147
 20
-16.5510516438
 10
5.1968903939
 20
-16.4055989219
 10
5.3935449206
 20
-16.2600575921
 10
5.5950306436
 20
-16.1145033417
 10
5.8013285265
 20
-15.9689324355
 10
6.0124538233
 20
-15.8233254706
 10
6.2286345538
 20
-15.6777332395
 10
6.4498302266
 20
-15.5321592094
 10
6.6760765496
 20
-15.3865739567
 10
6.9077153817
 20
-15.2409770013
 10
7.1447356669
 20
-15.0953467979
 10
7.3871424393
 20
-14.9496751364
 10
7.6353011012
 20
-14.8039790616
 10
7.8892142094
 20
-14.6582244473
 10
8.1488716614
 20
-14.5124113522
 10
8.4146191344
 20
-14.3666053976
 10
8.6865686191
 20
-14.2208150908
 10
8.964598673
 20
-14.0749930135
 10
9.2487042137
 20
-13.9291191789
  0
LWPOLYLINE
  5
353
100
AcDbEntity
  8
ASSI
100
AcDbPolyline
 62
250
  6
CONTINUOUS
 90
32
 70
0
 10
3.0190670395
 20
-19.2177709286
 10
3.1315254162
 20
-19.0836839968
 10
3.2475316015
 20
-18.949301055
 10
3.3670957501
 20
-18.8146519557
 10
3.4901847958
 20
-18.6797994933
 10
3.6168510995
 20
-18.544740902
 10
3.7472339702
 20
-18.4094096665
 10
3.8813499646
 20
-18.2738309111
 10
4.0192035171
 20
-18.1380447882
 10
4.1609173569
 20
-18.0020101135
 10
4.3064944601
 20
-17.8657668512
 10
4.4559521618
 20
-17.7293430689
 10
4.6094359293
 20
-17.5926821982
 10
4.7669472259
 20
-17.45582705
 10
4.9285050473
 20
-17.3188069723
 10
5.0942830944
 20
-17.1815487977
 10
5.2642962048
 20
-17.0440872753
 10
5.4385509398
 20
-16.9064655059
 10
5.6172103618
 20
-16.7686264479
 10
5.8002910258
 20
-16.6306060916
 10
5.9877972755
 20
-16.4924505659
 10
6.1798745428
 20
-16.3541203061
 10
6.376515642
 20
-16.2156690007
 10
6.5777465467
 20
-16.0771274092
 10
6.7837633496
 20
-15.9384243877
 10
6.9945414634
 20
-15.7996266231
 10
7.2101236602
 20
-15.6607568992
 10
7.4308102808
 20
-15.5216848745
 10
7.6566073639
 20
-15.3824632642
 10
7.8875297005
 20
-15.2431400009
 10
8.1238951997
 20
-15.1035867394
 10
8.2526658829
 20
-15.0288065699
  0
LWPOLYLINE
  5
354
100
AcDbEntity
  8
ASSI
100
AcDbPolyline
 62
7
  6
CONTINUOUS
 90
36
 70
0
 10
12.7304633303
 20
-4.1619619836
 10
12.7655509185
 20
-4.1368596331
 10
12.8006285523
 20
-4.1128005369
 10
12.8356962317
 20
-4.089784695
 10
12.8707809169
 20
-4.0677960078
 10
12.9058556476
 20
-4.046850575
 10
12.9408395429
 20
-4.0269966953
 10
12.9757323949
 20
-4.0082368869
 10
13.0105344114
 20
-3.9905686317
 10
13.0451653354
 20
-3.9740326746
 10
13.0796247721
 20
-3.9586316288
 10
13.1139131163
 20
-3.944362881
 10
13.1479512954
 20
-3.9312593365
 10
13.1817387322
 20
-3.9193236845
 10
13.215276004
 20
-3.9085532358
 10
13.2484857704
 20
-3.8989728281
 10
13.2813672755
 20
-3.8905852079
 10
13.3139212751
 20
-3.8833876288
 10
13.3460726963
 20
-3.8773966892
 10
13.3778206101
 20
-3.8726151738
 10
13.4091659454
 20
-3.8690402978
 10
13.4400364168
 20
-3.8666803053
 10
13.4704309283
 20
-3.865538
 10
13.5003505758
 20
-3.8656105782
 10
13.5297263615
 20
-3.8668978726
 10
13.5585570302
 20
-3.8694026864
 10
13.586843837
 20
-3.8731222164
 10
13.6145215497
 20
-3.8780478848
 10
13.6415887626
 20
-3.8841824753
 10
13.6680468813
 20
-3.8915232043
 10
13.6938348907
 20
-3.9000531433
 10
13.7189512442
 20
-3.9097750369
 10
13.7433974884
 20
-3.9206861404
 10
13.7671172476
 20
-3.9327612917
 10
13.7901088453
 20
-3.9460031774
 10
13.8049128339
 20
-3.9553962222
  0
LWPOLYLINE
  5
355
100
AcDbEntity
  8
ASSI
100
AcDbPolyline
 62
7
  6
CONTINUOUS
 90
36
 70
0
 10
15.795771249
 20
-2.3920912702
 10
15.8310214015
 20
-2.3668750683
 10
15.8662611349
 20
-2.3427120118
 10
15.9014904493
 20
-2.3196021006
 10
15.9367366808
 20
-2.2975290273
 10
15.9719724933
 20
-2.2765090994
 10
16.007115878
 20
-2.2565912392
 10
16.0421666198
 20
-2.2377780135
 10
16.0771249338
 20
-2.2200668554
 10
16.1119094572
 20
-2.2034989864
 10
16.1465197854
 20
-2.1880770693
 10
16.180956323
 20
-2.1737984413
 10
16.2151389216
 20
-2.1606963346
 10
16.2490669899
 20
-2.1487734898
 10
16.2827411192
 20
-2.1380271664
 10
16.3160829355
 20
-2.1284823757
 10
16.3490916649
 20
-2.1201419162
 10
16.3817680814
 20
-2.1130029895
 10
16.4140361332
 20
-2.1070822107
 10
16.4458948689
 20
-2.1023824172
 10
16.4773452399
 20
-2.0989007717
 10
16.5083140478
 20
-2.0966453774
 10
16.5388001708
 20
-2.0956190906
 10
16.5688047308
 20
-2.0958190551
 10
16.5982578943
 20
-2.0972448053
 10
16.627158377
 20
-2.0998991966
 10
16.6555074633
 20
-2.1037793737
 10
16.6832391728
 20
-2.1088763058
 10
16.7103520675
 20
-2.115192827
 10
16.7368475855
 20
-2.1227261032
 10
16.7626640603
 20
-2.1314586014
 10
16.7877999104
 20
-2.1413931147
 10
16.8122567175
 20
-2.1525268499
 10
16.8359775601
 20
-2.164833894
 10
16.8589607241
 20
-2.1783169801
 10
16.8702229873
 20
-2.185526814
  0
LINE
  5
356
100
AcDbEntity
  8
ASSI
100
AcDbLine
 62
7
  6
CONTINUOUS
 10
14.0394169436
 20
-4.4102992716
 11
12.986863044
 21
-5.0180307016
  0
LINE
  5
357
100
AcDbEntity
  8
ASSI
100
AcDbLine
 62
7
  6
CONTINUOUS
 10
14.0746844285
 20
-4.4335384098
 11
13.0221305288
 21
-5.0412698398
  0
LINE
  5
358
100
AcDbEntity
  8
ASSI
100
AcDbLine
 62
7
  6
CONTINUOUS
 10
12.9840199771
 20
-5.6423129836
 11
14.036574202
 21
-5.0345813658
  0
LWPOLYLINE
  5
359
100
AcDbEntity
  8
ASSI
100
AcDbPolyline
 62
7
  6
CONTINUOUS
 90
97
 70
0
 10
15.5813602885
 20
-5.7735757109
 10
15.626602694
 20
-5.7517258879
 10
15.671954434
 20
-5.7285767149
 10
15.7174155085
 20
-5.704128192
 10
15.7630151835
 20
-5.6783629906
 10
15.808724193
 20
-5.6512984392
 10
15.8544547395
 20
-5.6229865232
 10
15.9002068645
 20
-5.5934248452
 10
15.9459805265
 20
-5.5626158027
 10
15.9916878038
 20
-5.5306185733
 10
16.0373285688
 20
-5.4974308734
 10
16.0829029492
 20
-5.4630549868
 10
16.1283234059
 20
-5.4275569422
 10
16.1735896431
 20
-5.3909345831
 10
16.2187019567
 20
-5.353190066
 10
16.2635736953
 20
-5.3143958906
 10
16.3082043965
 20
-5.2745500392
 10
16.3525945226
 20
-5.2336545294
 10
16.3966588095
 20
-5.1917879129
 10
16.4403966309
 20
-5.1489483232
 10
16.483808613
 20
-5.105137627
 10
16.5268113704
 20
-5.0604399753
 10
16.5694041166
 20
-5.0148536635
 10
16.6115876382
 20
-4.9683803963
 10
16.6532809092
 20
-4.9211094392
 10
16.6944829876
 20
-4.8730392591
 10
16.7351948154
 20
-4.824171389
 10
16.7753381938
 20
-4.7745996942
 10
16.8149120301
 20
-4.7243228218
 10
16.853917417
 20
-4.6733421245
 10
16.8922794332
 20
-4.6217555258
 10
16.9299968421
 20
-4.569561861
 10
16.9670708803
 20
-4.5167622948
 10
17.0034303362
 20
-4.463458244
 10
17.0390738364
 20
-4.4096487393
 10
17.0740027543
 20
-4.35533475
 10
17.1081499988
 20
-4.3006206022
 10
17.1415140674
 20
-4.2455055268
 10
17.1740964626
 20
-4.1899902928
 10
17.2058346002
 20
-4.1341815335
 10
17.2367268577
 20
-4.0780786847
 10
17.2667748576
 20
-4.0216823107
 10
17.2959208841
 20
-3.9651007372
 10
17.3241632035
 20
-3.9083336081
 10
17.3515035494
 20
-3.8513812795
 10
17.3778894067
 20
-3.7943531449
 10
17.4033189409
 20
-3.7372490588
 10
17.4277939864
 20
-3.6800691667
 10
17.4512675319
 20
-3.6229232994
 10
17.4737376523
 20
-3.5658115223
 10
17.4952062726
 20
-3.5087337699
 10
17.5156321561
 20
-3.4517996769
 10
17.5350132985
 20
-3.3950095194
 10
17.553351704
 20
-3.3383630211
 10
17.5706121484
 20
-3.2819689884
 10
17.5867925598
 20
-3.2258279064
 10
17.6018950101
 20
-3.1699392899
 10
17.6158904905
 20
-3.1144104893
 10
17.6287768735
 20
-3.0592421963
 10
17.6405562867
 20
-3.0044337192
 10
17.6512061042
 20
-2.9500903338
 10
17.660724155
 20
-2.896212934
 10
17.6691126101
 20
-2.8428006258
 10
17.6763553572
 20
-2.7899560033
 10
17.682450194
 20
-2.7376801576
 10
17.6873993227
 20
-2.6859719974
 10
17.6911932371
 20
-2.6349308436
 10
17.6938297167
 20
-2.5845579781
 10
17.695310982
 20
-2.5348521188
 10
17.6956341877
 20
-2.4859087405
 10
17.6947971081
 20
-2.4377293087
 10
17.6928019688
 20
-2.3903123578
 10
17.6896526023
 20
-2.343748966
 10
17.6853467899
 20
-2.2980407738
 10
17.6798867503
 20
-2.2531861408
 10
17.6732829709
 20
-2.2092712232
 10
17.6655332535
 20
-2.1662978273
 10
17.6566397964
 20
-2.124264147
 10
17.6466196821
 20
-2.0832509202
 10
17.6354707451
 20
-2.0432601082
 10
17.6231951508
 20
-2.0042897498
 10
17.6098164782
 20
-1.9664146989
 10
17.5953326071
 20
-1.9296370606
 10
17.5797456576
 20
-1.8939547299
 10
17.5630855691
 20
-1.859436245
 10
17.5453502789
 20
-1.8260838429
 10
17.5265418497
 20
-1.7938952867
 10
17.5066964085
 20
-1.7629324038
 10
17.4858119621
 20
-1.7331975502
 10
17.4638905039
 20
-1.7046883699
 10
17.4409741402
 20
-1.6774596233
 10
17.4170609589
 20
-1.6515137713
 10
17.3921528722
 20
-1.626848353
 10
17.3662977234
 20
-1.6035107454
 10
17.3394936922
 20
-1.5815035007
 10
17.3117425988
 20
-1.5608240668
 10
17.2911509185
 20
-1.5467432328
  0
LWPOLYLINE
  5
35A
100
AcDbEntity
  8
ASSI
100
AcDbPolyline
 62
7
  6
CONTINUOUS
 90
97
 70
0
 10
12.5160523921
 20
-7.543446073
 10
12.5612947975
 20
-7.52159625
 10
12.6066465375
 20
-7.498447077
 10
12.6521076121
 20
-7.473998554
 10
12.697707287
 20
-7.4482333526
 10
12.7434162965
 20
-7.4211688013
 10
12.7891468431
 20
-7.3928568853
 10
12.8348989681
 20
-7.3632952073
 10
12.88067263
 20
-7.3324861648
 10
12.9263799074
 20
-7.3004889354
 10
12.9720206724
 20
-7.2673012355
 10
13.0175950527
 20
-7.2329253488
 10
13.0630155094
 20
-7.1974273043
 10
13.1082817467
 20
-7.1608049451
 10
13.1533940603
 20
-7.1230604281
 10
13.1982657989
 20
-7.0842662527
 10
13.2428965001
 20
-7.0444204013
 10
13.2872866262
 20
-7.0035248914
 10
13.3313509131
 20
-6.9616582749
 10
13.3750887344
 20
-6.9188186853
 10
13.4185007166
 20
-6.875007989
 10
13.461503474
 20
-6.8303103374
 10
13.5040962202
 20
-6.7847240255
 10
13.5462797417
 20
-6.7382507583
 10
13.5879730128
 20
-6.6909798013
 10
13.6291750911
 20
-6.6429096211
 10
13.669886919
 20
-6.5940417511
 10
13.7100302973
 20
-6.5444700563
 10
13.7496041337
 20
-6.4941931839
 10
13.7886095206
 20
-6.4432124866
 10
13.8269715368
 20
-6.3916258879
 10
13.8646889457
 20
-6.3394322231
 10
13.9017629838
 20
-6.2866326568
 10
13.9381224397
 20
-6.2333286061
 10
13.9737659399
 20
-6.1795191013
 10
14.0086948579
 20
-6.1252051121
 10
14.0428421024
 20
-6.0704909643
 10
14.076206171
 20
-6.0153758888
 10
14.1087885661
 20
-5.9598606548
 10
14.1405267037
 20
-5.9040518956
 10
14.1714189612
 20
-5.8479490468
 10
14.2014669612
 20
-5.7915526728
 10
14.2306129877
 20
-5.7349710992
 10
14.2588553071
 20
-5.6782039702
 10
14.286195653
 20
-5.6212516416
 10
14.3125815103
 20
-5.564223507
 10
14.3380110444
 20
-5.5071194209
 10
14.36248609
 20
-5.4499395288
 10
14.3859596354
 20
-5.3927936615
 10
14.4084297558
 20
-5.3356818843
 10
14.4298983762
 20
-5.278604132
 10
14.4503242596
 20
-5.221670039
 10
14.469705402
 20
-5.1648798814
 10
14.4880438076
 20
-5.1082333832
 10
14.505304252
 20
-5.0518393505
 10
14.5214846634
 20
-4.9956982685
 10
14.5365871136
 20
-4.939809652
 10
14.5505825941
 20
-4.8842808514
 10
14.563468977
 20
-4.8291125584
 10
14.5752483902
 20
-4.7743040813
 10
14.5858982077
 20
-4.7199606959
 10
14.5954162585
 20
-4.6660832961
 10
14.6038047137
 20
-4.6126709879
 10
14.6110474607
 20
-4.5598263654
 10
14.6171422976
 20
-4.5075505196
 10
14.6220914263
 20
-4.4558423595
 10
14.6258853407
 20
-4.4048012057
 10
14.6285218203
 20
-4.3544283401
 10
14.6300030856
 20
-4.3047224809
 10
14.6303262913
 20
-4.2557791026
 10
14.6294892116
 20
-4.2075996708
 10
14.6274940724
 20
-4.1601827199
 10
14.6243447058
 20
-4.1136193281
 10
14.6200388935
 20
-4.0679111359
 10
14.6145788538
 20
-4.0230565028
 10
14.6079750744
 20
-3.9791415853
 10
14.6002253571
 20
-3.9361681894
 10
14.5913319
 20
-3.8941345091
 10
14.5813117856
 20
-3.8531212823
 10
14.5701628486
 20
-3.8131304703
 10
14.5578872544
 20
-3.7741601119
 10
14.5445085817
 20
-3.7362850609
 10
14.5300247106
 20
-3.6995074227
 10
14.5144377612
 20
-3.6638250919
 10
14.4977776727
 20
-3.6293066071
 10
14.4800423825
 20
-3.595954205
 10
14.4612339532
 20
-3.5637656487
 10
14.441388512
 20
-3.5328027659
 10
14.4205040657
 20
-3.5030679123
 10
14.3985826074
 20
-3.474558732
 10
14.3756662437
 20
-3.4473299854
 10
14.3517530624
 20
-3.4213841334
 10
14.3268449757
 20
-3.3967187151
 10
14.3009898269
 20
-3.3733811075
 10
14.2741857957
 20
-3.3513738628
 10
14.2464347024
 20
-3.3306944289
 10
14.2258430221
 20
-3.3166135949
  0
LWPOLYLINE
  5
35B
100
AcDbEntity
  8
ASSI
100
AcDbPolyline
 62
7
  6
CONTINUOUS
 90
91
 70
0
 10
15.5844786481
 20
-5.1449517761
 10
15.6182602893
 20
-5.1302061077
 10
15.652165205
 20
-5.1143914956
 10
15.6861933953
 20
-5.09750794
 10
15.72037022
 20
-5.0795413669
 10
15.7546703192
 20
-5.0605058502
 10
15.7890176135
 20
-5.0404436118
 10
15.8234122076
 20
-5.0193523725
 10
15.8578539968
 20
-4.9972344116
 10
15.8922665872
 20
-4.9741387877
 10
15.9266499141
 20
-4.9500633308
 10
15.9610040422
 20
-4.925010211
 10
15.9952527723
 20
-4.8990349975
 10
16.0293958703
 20
-4.8721356436
 10
16.0634335702
 20
-4.8443141959
 10
16.0972903745
 20
-4.8156323641
 10
16.1309658818
 20
-4.7860882382
 10
16.1644604934
 20
-4.7556837282
 10
16.1976999166
 20
-4.7244862729
 10
16.2306835848
 20
-4.6924941121
 10
16.2634120646
 20
-4.6597090061
 10
16.2958127623
 20
-4.6262036739
 10
16.3278849504
 20
-4.5919765169
 10
16.3596293564
 20
-4.5570291337
 10
16.3909755695
 20
-4.5214390396
 10
16.4219227059
 20
-4.485204808
 10
16.4524716494
 20
-4.4483278655
 10
16.4825546407
 20
-4.4108900071
 10
16.5121706457
 20
-4.3728899879
 10
16.5413206985
 20
-4.3343290528
 10
16.5699401427
 20
-4.2952927322
 10
16.5980278006
 20
-4.2557799708
 10
16.6255848499
 20
-4.2157918239
 10
16.6525501677
 20
-4.1754169874
 10
16.6789224403
 20
-4.1346546029
 10
16.7047029813
 20
-4.0935055287
 10
16.7298346081
 20
-4.0520610359
 10
16.7543158801
 20
-4.0103204686
 10
16.7781482379
 20
-3.9682844826
 10
16.80127882
 20
-3.926046316
 10
16.8237060685
 20
-3.88360552
 10
16.8454315413
 20
-3.8409625435
 10
16.86640705
 20
-3.7982119708
 10
16.88663093
 20
-3.7553535633
 10
16.906104846
 20
-3.7123875596
 10
16.9247856036
 20
-3.6694092608
 10
16.9426714424
 20
-3.6264186395
 10
16.9597641229
 20
-3.5834157231
 10
16.9760257327
 20
-3.5404958944
 10
16.9914544269
 20
-3.4976593379
 10
17.0060520504
 20
-3.454905869
 10
17.0197862247
 20
-3.4123303174
 10
17.0326550333
 20
-3.3699330779
 10
17.0446603928
 20
-3.3277137557
 10
17.0557756746
 20
-3.2857659956
 10
17.0659989031
 20
-3.2440904002
 10
17.0753320539
 20
-3.2026863669
 10
17.0837544256
 20
-3.1616457321
 10
17.0912639965
 20
-3.1209693024
 10
17.0978627883
 20
-3.0806562711
 10
17.1035361645
 20
-3.0407960548
 10
17.108282071
 20
-3.0013896586
 10
17.1121025619
 20
-2.9624360774
 10
17.1149891631
 20
-2.9240217124
 10
17.1169398017
 20
-2.8861477605
 10
17.1179565507
 20
-2.8488130248
 10
17.1180371548
 20
-2.8121003157
 10
17.1171795361
 20
-2.776011014
 10
17.1153857725
 20
-2.7405437391
 10
17.1126598428
 20
-2.7057771591
 10
17.1089996777
 20
-2.6717128296
 10
17.1044073464
 20
-2.6383491951
 10
17.098893035
 20
-2.6057602581
 10
17.0924546969
 20
-2.573947738
 10
17.0850943787
 20
-2.5429099155
 10
17.0768284059
 20
-2.5127156339
 10
17.0676547683
 20
-2.4833667658
 10
17.0575754761
 20
-2.4548614388
 10
17.0466128858
 20
-2.4272628791
 10
17.0347650367
 20
-2.4005730997
 10
17.0220338895
 20
-2.3747900877
 10
17.0084476825
 20
-2.3499710312
 10
16.9940045178
 20
-2.32611807
 10
16.9787062934
 20
-2.3032290644
 10
16.9625869415
 20
-2.2813547834
 10
16.9456446395
 20
-2.2604974794
 10
16.9278812101
 20
-2.2406549001
 10
16.9093360535
 20
-2.2218710574
 10
16.8900074346
 20
-2.2041483013
 10
16.8698970885
 20
-2.1874842818
 10
16.8527134808
 20
-2.1746520313
  0
LWPOLYLINE
  5
35C
100
AcDbEntity
  8
ASSI
100
AcDbPolyline
 62
7
  6
CONTINUOUS
 90
55
 70
0
 10
12.5191707517
 20
-6.9148221382
 10
12.5517985714
 20
-6.9005970812
 10
12.5845438354
 20
-6.8853732437
 10
12.6174065435
 20
-6.8691506254
 10
12.6504095492
 20
-6.8519166457
 10
12.683529999
 20
-6.8336838854
 10
12.7166993327
 20
-6.8144900868
 10
12.7499176514
 20
-6.7943332591
 10
12.783184854
 20
-6.7732153932
 10
12.8164320763
 20
-6.7511802035
 10
12.8496592769
 20
-6.7282257901
 10
12.8828664972
 20
-6.7043540529
 10
12.9159849973
 20
-6.6796144073
 10
12.9490145934
 20
-6.6540050554
 10
12.9819554692
 20
-6.627527795
 10
13.0147394362
 20
-6.6002374349
 10
13.0473661693
 20
-6.5721322908
 10
13.0798359936
 20
-6.5432140469
 10
13.1120816955
 20
-6.513542565
 10
13.1441028108
 20
-6.4831162847
 10
13.1758998038
 20
-6.4519367662
 10
13.2074068537
 20
-6.4200685523
 10
13.2386233598
 20
-6.3875102161
 10
13.2695499229
 20
-6.3542631845
 10
13.300122524
 20
-6.3203962796
 10
13.3303404298
 20
-6.2859082175
 10
13.3602043736
 20
-6.2508002822
 10
13.3896525362
 20
-6.2151451482
 10
13.4186840562
 20
-6.1789416821
 10
13.4472997949
 20
-6.1421910172
 10
13.475440517
 20
-6.1049692285
 10
13.5031052383
 20
-6.0672753403
 10
13.5302949429
 20
-6.0291103283
 10
13.5569533473
 20
-5.9905531953
 10
13.5830793509
 20
-5.9516031291
 10
13.6086740543
 20
-5.9122609419
 10
13.6336844756
 20
-5.8726080732
 10
13.6581094046
 20
-5.8326438794
 10
13.6819500516
 20
-5.7923690042
 10
13.7051570657
 20
-5.7518668177
 10
13.7277291344
 20
-5.711136849
 10
13.7496675701
 20
-5.6701795691
 10
13.7709269598
 20
-5.6290797607
 10
13.7915058967
 20
-5.5878371286
 10
13.8114057875
 20
-5.546451968
 10
13.8305854388
 20
-5.5050099474
 10
13.8490433587
 20
-5.4635109492
 10
13.8667810391
 20
-5.421955091
 10
13.8837617625
 20
-5.3804283947
 10
13.8999839609
 20
-5.3389309208
 10
13.9154492022
 20
-5.2974626088
 10
13.930125473
 20
-5.2561092994
 10
13.9440111383
 20
-5.214871234
 10
13.957107833
 20
-5.1737481711
 10
13.9693884487
 20
-5.1328252275
  0
LWPOLYLINE
  5
35D
100
AcDbEntity
  8
ASSI
100
AcDbPolyline
 62
250
  6
CONTINUOUS
 90
25
 70
0
 10
9.6722656716
 20
15.2261077259
 10
9.706179125
 20
15.2294067097
 10
9.7399318271
 20
15.2332173206
 10
9.7735001882
 20
15.2375368099
 10
9.8068605225
 20
15.2423620004
 10
9.8399897483
 20
15.2476895176
 10
9.8728653876
 20
15.2535158255
 10
9.9054647745
 20
15.2598369016
 10
9.9377647887
 20
15.2666482298
 10
9.969742553
 20
15.2739450412
 10
10.0013755801
 20
15.2817221917
 10
10.0326418987
 20
15.2899742362
 10
10.0635197726
 20
15.2986954517
 10
10.093987607
 20
15.3078797527
 10
10.1240241114
 20
15.3175207064
 10
10.1536084255
 20
15.3276116035
 10
10.1827200074
 20
15.3381454829
 10
10.211338347
 20
15.3491149385
 10
10.2394431358
 20
15.3605121299
 10
10.2670144127
 20
15.3723289892
 10
10.2940332477
 20
15.3845574018
 10
10.3204814122
 20
15.3971890427
 10
10.3463405951
 20
15.4102152187
 10
10.3715924621
 20
15.4236268406
 10
10.3962193228
 20
15.437414614
  0
LWPOLYLINE
  5
35E
100
AcDbEntity
  8
ASSI
100
AcDbPolyline
 62
250
  6
CONTINUOUS
 90
10
 70
0
 10
2.1664984325
 20
14.6796654758
 10
3.0027687466
 20
14.729556883
 10
3.8385129042
 20
14.7821580078
 10
4.673704587
 20
14.8374669221
 10
5.508299506
 20
14.8954803323
 10
6.3422894057
 20
14.9561973037
 10
7.1757019368
 20
15.0196198441
 10
8.0085287028
 20
15.0857476645
 10
8.8407253878
 20
15.1545775969
 10
9.6722656716
 20
15.2261077259
  0
LWPOLYLINE
  5
35F
100
AcDbEntity
  8
0
100
AcDbPolyline
 62
7
  6
CONTINUOUS
 90
6
 70
0
 10
-11.7390723543
 20
18.3061063326
 10
-11.7595551985
 20
18.3123703897
 10
-11.8483651155
 20
18.332649781
 10
-11.9396232462
 20
18.3468369752
 10
-12.0333436801
 20
18.3548969113
 10
-12.1295123275
 20
18.3568646505
  0
LWPOLYLINE
  5
360
100
AcDbEntity
  8
ASSI
100
AcDbPolyline
 62
250
  6
CONTINUOUS
 90
10
 70
0
 10
-9.8693115273
 20
17.2272202323
 10
-10.131345033
 20
17.3123705723
 10
-10.3911587065
 20
17.399738091
 10
-10.6487624573
 20
17.489325171
 10
-10.9040235001
 20
17.5810868332
 10
-11.1569518577
 20
17.6750277848
 10
-11.4075375074
 20
17.7711433187
 10
-11.6556175954
 20
17.8693743349
 10
-11.9012085455
 20
17.9697307563
 10
-12.144293934
 20
18.0722026602
  0
LINE
  5
361
100
AcDbEntity
  8
0
100
AcDbLine
 62
7
  6
CONTINUOUS
 10
-11.2795615713
 20
18.1966691229
 11
-11.4800334896
 21
18.2636210551
  0
LWPOLYLINE
  5
362
100
AcDbEntity
  8
ASSI
100
AcDbPolyline
 62
7
  6
CONTINUOUS
 90
4
 70
0
 10
-9.8659619378
 20
17.343274937
 10
-10.534609952
 20
17.5711280143
 10
-11.1870470215
 20
17.8136445919
 10
-11.8221424881
 20
18.0703770939
  0
LWPOLYLINE
  5
363
100
AcDbEntity
  8
0
100
AcDbPolyline
 62
250
  6
CONTINUOUS
 90
4
 70
0
 10
-11.3575357353
 20
18.2213749795
 10
-11.2435561208
 20
18.1795647249
 10
-11.1352975651
 20
18.1277711696
 10
-11.1028543445
 20
18.1096761283
  0
LWPOLYLINE
  5
364
100
AcDbEntity
  8
ASSI
100
AcDbPolyline
 62
250
  6
CONTINUOUS
 90
48
 70
0
 10
-11.8131786209
 20
16.6397954357
 10
-11.5504045832
 20
16.5426723289
 10
-11.2852357527
 20
16.4477438927
 10
-11.0177270945
 20
16.3550298049
 10
-10.7479340845
 20
16.264549293
 10
-10.4759126728
 20
16.1763211211
 10
-10.2017192622
 20
16.0903635829
 10
-9.9254106987
 20
16.006694499
 10
-9.6470442731
 20
15.9253312175
 10
-9.3666777081
 20
15.8462906097
 10
-9.0843691253
 20
15.7695890609
 10
-8.8001770355
 20
15.6952424684
 10
-8.5141603439
 20
15.6232662426
 10
-8.2263783678
 20
15.5536753117
 10
-7.9368908042
 20
15.4864841114
 10
-7.6457576955
 20
15.4217065771
 10
-7.3530393821
 20
15.3593561337
 10
-7.0587965191
 20
15.2994457013
 10
-6.7630900798
 20
15.2419876955
 10
-6.4659814061
 20
15.1869940366
 10
-6.1675321622
 20
15.134476138
 10
-5.8678042777
 20
15.0844448955
 10
-5.5668598466
 20
15.0369106722
 10
-5.2647611762
 20
14.9918833095
 10
-4.961570856
 20
14.949372138
 10
-4.6573517918
 20
14.9093859798
 10
-4.3521671043
 20
14.8719331319
 10
-4.04608009
 20
14.8370213618
 10
-3.7391541896
 20
14.8046579053
 10
-3.4314530212
 20
14.7748494706
 10
-3.1230403373
 20
14.7476022347
 10
-2.8139801261
 20
14.7229218518
 10
-2.5043365805
 20
14.700813447
 10
-2.1941739937
 20
14.6812816071
 10
-1.8835565803
 20
14.6643303724
 10
-1.572548577
 20
14.6499632479
 10
-1.2612143969
 20
14.6381832118
 10
-0.9496186586
 20
14.6289927116
 10
-0.6378260072
 20
14.6223936552
 10
-0.3259010293
 20
14.6183874109
 10
-0.0139084558
 20
14.6169748115
 10
0.2980868095
 20
14.6181561487
 10
0.6100198308
 20
14.6219311686
 10
0.9218261833
 20
14.6282990838
 10
1.2334417483
 20
14.6372585867
 10
1.5448020929
 20
14.6488078353
 10
1.8558424844
 20
14.6629444392
 10
2.1664984325
 20
14.6796654758
  0
LINE
  5
365
100
AcDbEntity
  8
ASSI
100
AcDbLine
 62
250
  6
CONTINUOUS
 10
-12.0735034087
 20
16.7390930856
 11
-11.8131786209
 21
16.6397954357
  0
LWPOLYLINE
  5
366
100
AcDbEntity
  8
ASSI
100
AcDbPolyline
 62
250
  6
CONTINUOUS
 90
49
 70
0
 10
-11.7949455918
 20
17.3798919491
 10
-11.5406436468
 20
17.2828924858
 10
-11.2838965651
 20
17.1879969957
 10
-11.0248639645
 20
17.0952644744
 10
-10.7635444114
 20
17.0046962625
 10
-10.4999393394
 20
16.9162910194
 10
-10.2342126671
 20
16.8301037187
 10
-9.9663630783
 20
16.7461357413
 10
-9.6963918891
 20
16.6643857062
 10
-9.424466967
 20
16.5849044451
 10
-9.1505871048
 20
16.5076933709
 10
-8.8747535096
 20
16.4327510705
 10
-8.5971376702
 20
16.360124137
 10
-8.3177384613
 20
16.2898140059
 10
-8.0365570083
 20
16.2218192417
 10
-7.7537681751
 20
16.1561821295
 10
-7.4693709834
 20
16.0929041403
 10
-7.1833664116
 20
16.0319838031
 10
-6.8959322591
 20
15.9734589903
 10
-6.6070676047
 20
15.9173311857
 10
-6.3167733696
 20
15.8635989055
 10
-6.0252301171
 20
15.8122955701
 10
-5.7324371198
 20
15.7634226983
 10
-5.4383951051
 20
15.7169787714
 10
-5.1432868179
 20
15.6729926539
 10
-4.8471115515
 20
15.6314658675
 10
-4.5498700128
 20
15.5923968904
 10
-4.2517470667
 20
15.555810023
 10
-3.9527421858
 20
15.5217068116
 10
-3.6528558975
 20
15.4900857098
 10
-3.3522746497
 20
15.4609663777
 10
-3.0509979667
 20
15.4343503689
 10
-2.749026324
 20
15.4102361299
 10
-2.4465475958
 20
15.3886386606
 10
-2.1435615575
 20
15.3695595316
 10
-1.8400684337
 20
15.3529971723
 10
-1.5362567716
 20
15.3389618707
 10
-1.2321263063
 20
15.3274551933
 10
-0.9276773027
 20
15.3184755736
 10
-0.623099103
 20
15.3120286004
 10
-0.3183915693
 20
15.308115853
 10
-0.0135548395
 20
15.306735752
 10
0.2912213314
 20
15.3078891484
 10
0.5959371596
 20
15.3115776379
 10
0.9005924288
 20
15.3177996247
 10
1.2049967351
 20
15.3265511729
 10
1.5090866103
 20
15.3378309701
 10
1.8129255226
 20
15.3516403287
 10
2.1165134719
 20
15.3679792484
  0
LINE
  5
367
100
AcDbEntity
  8
ASSI
100
AcDbLine
 62
250
  6
CONTINUOUS
 10
-12.0468008988
 20
17.4789967019
 11
-11.7949455918
 21
17.3798919491
  0
LINE
  5
368
100
AcDbEntity
  8
ASSI
100
AcDbLine
 62
250
  6
CONTINUOUS
 10
-12.2962110691
 20
17.5802054279
 11
-12.0468008988
 21
17.4789967019
  0
LWPOLYLINE
  5
369
100
AcDbEntity
  8
ASSI
100
AcDbPolyline
 62
250
  6
CONTINUOUS
 90
4
 70
0
 10
-12.8392451575
 20
17.0498252016
 10
-12.5865898949
 20
16.9441292348
 10
-12.3313249919
 20
16.8405446991
 10
-12.0735034087
 20
16.7390930856
  0
LINE
  5
36A
100
AcDbEntity
  8
ASSI
100
AcDbLine
 62
250
  6
CONTINUOUS
 10
-12.5430209884
 20
17.6834551827
 11
-12.2962110691
 21
17.5802054279
  0
LINE
  5
36B
100
AcDbEntity
  8
ASSI
100
AcDbLine
 62
250
  6
CONTINUOUS
 10
-13.0892383702
 20
17.1576106733
 11
-12.8392451575
 21
17.0498252016
  0
LINE
  5
36C
100
AcDbEntity
  8
ASSI
100
AcDbLine
 62
250
  6
CONTINUOUS
 10
-12.787229014
 20
17.7887472245
 11
-12.5430209884
 21
17.6834551827
  0
LINE
  5
36D
100
AcDbEntity
  8
ASSI
100
AcDbLine
 62
250
  6
CONTINUOUS
 10
-12.144293934
 20
18.0722026602
 11
-12.3846616358
 21
18.1767011783
  0
LINE
  5
36E
100
AcDbEntity
  8
ASSI
100
AcDbLine
 62
7
  6
CONTINUOUS
 10
-11.8221424881
 20
18.0703770939
 11
-12.4386939032
 21
18.3407909867
  0
LINE
  5
36F
100
AcDbEntity
  8
ASSI
100
AcDbLine
 62
250
  6
CONTINUOUS
 10
-13.0288367887
 20
17.8960802951
 11
-12.787229014
 21
17.7887472245
  0
LINE
  5
370
100
AcDbEntity
  8
ASSI
100
AcDbLine
 62
250
  6
CONTINUOUS
 10
-12.3846616358
 20
18.1767011783
 11
-12.6223093226
 21
18.2832303671
  0
LWPOLYLINE
  5
371
100
AcDbEntity
  8
ASSI
100
AcDbPolyline
 62
250
  6
CONTINUOUS
 90
9
 70
0
 10
-12.6223093226
 20
18.2832303671
 10
-12.8572393227
 20
18.3917861703
 10
-13.0892464961
 20
18.5022675508
 10
-13.3183265019
 20
18.6146778844
 10
-13.544483681
 20
18.7290137954
 10
-13.7675259155
 20
18.84516412
 10
-13.9873891664
 20
18.9630918038
 10
-14.2041374727
 20
19.0828339013
 10
-14.4177708346
 20
19.2043904126
  0
LWPOLYLINE
  5
372
100
AcDbEntity
  8
ASSI
100
AcDbPolyline
 62
7
  6
CONTINUOUS
 90
4
 70
0
 10
-12.4386939032
 20
18.3407909867
 10
-13.0356972297
 20
18.624376671
 10
-13.6123369092
 20
18.9206718177
 10
-14.1677587545
 20
19.2291610014
  0
LINE
  5
373
100
AcDbEntity
  8
0
100
AcDbLine
 62
7
  6
CONTINUOUS
 10
-11.1019856097
 20
18.1091926722
 11
-11.2795615713
 21
18.1966691229
  0
LWPOLYLINE
  5
374
100
AcDbEntity
  8
0
100
AcDbPolyline
 62
250
  6
CONTINUOUS
 90
16
 70
0
 10
-10.1229929783
 20
17.5439158465
 10
-10.1673326797
 20
17.5681933537
 10
-10.2239252867
 20
17.5956961466
 10
-10.2802454196
 20
17.619491537
 10
-10.3360553767
 20
17.6398204122
 10
-10.3914003012
 20
17.6570036526
 10
-10.4461409154
 20
17.6712665695
 10
-10.5001180776
 20
17.682818667
 10
-10.5533905882
 20
17.6918938724
 10
-10.6058496024
 20
17.6986749007
 10
-10.6573854815
 20
17.7033391558
 10
-10.7080871322
 20
17.7060607537
 10
-10.7578719995
 20
17.7069867441
 10
-10.8066628986
 20
17.7062666552
 10
-10.8545776194
 20
17.7040417717
 10
-10.8857608625
 20
17.7016538857
  0
LINE
  5
375
100
AcDbEntity
  8
0
100
AcDbLine
 62
7
  6
CONTINUOUS
 10
-10.1220335129
 20
17.5433624727
 11
-11.102897906
 21
18.1097012802
  0
LINE
  5
376
100
AcDbEntity
  8
ASSI
100
AcDbLine
 62
7
  6
CONTINUOUS
 10
-9.8994948631
 20
20.9571984988
 11
-11.8937856158
 21
22.108676985
  0
LINE
  5
377
100
AcDbEntity
  8
0
100
AcDbLine
 62
7
  6
CONTINUOUS
 10
20.4869242183
 20
5.0222215737
 11
20.5100473887
 21
5.0088705449
  0
LINE
  5
378
100
AcDbEntity
  8
0
100
AcDbLine
 62
7
  6
CONTINUOUS
 10
-11.1028543445
 20
18.1096761283
 11
-11.1021336297
 21
18.1092596767
  0
LWPOLYLINE
  5
379
100
AcDbEntity
  8
ASSI
100
AcDbPolyline
 62
7
  6
CONTINUOUS
 90
7
 70
0
 10
-4.3950390254
 20
17.2770078988
 10
-4.3454619508
 20
17.2447574426
 10
-4.2972302058
 20
17.2118339056
 10
-4.2503415093
 20
17.1782384294
 10
-4.2048754607
 20
17.1440280466
 10
-4.1608344766
 20
17.1092017126
 10
-4.1182161404
 20
17.0737604719
  0
LWPOLYLINE
  5
37A
100
AcDbEntity
  8
ASSI
100
AcDbPolyline
 62
7
  6
CONTINUOUS
 90
4
 70
0
 10
-4.1182161404
 20
17.0737604719
 10
-4.0770928024
 20
17.0377644907
 10
-4.0374670019
 20
17.0012128267
 10
-4.0231149685
 20
16.9872463659
  0
LWPOLYLINE
  5
37B
100
AcDbEntity
  8
ASSI
100
AcDbPolyline
 62
250
  6
CONTINUOUS
 90
43
 70
0
 10
9.5972098409
 20
15.9125962644
 10
9.5999855223
 20
15.9017633699
 10
9.6027574074
 20
15.8903869537
 10
9.6055217053
 20
15.8784825751
 10
9.6082746351
 20
15.8660665156
 10
9.6110124318
 20
15.8531557564
 10
9.6137313508
 20
15.8397679553
 10
9.6164276737
 20
15.8259214227
 10
9.6190977125
 20
15.8116350963
 10
9.6217378157
 20
15.7969285153
 10
9.6243443722
 20
15.7818217938
 10
9.6269138173
 20
15.7663355928
 10
9.6294426366
 20
15.7504910928
 10
9.6319273716
 20
15.734309964
 10
9.6343646239
 20
15.7178143372
 10
9.63675106
 20
15.7010267731
 10
9.6390834162
 20
15.6839702319
 10
9.6413585025
 20
15.6666680416
 10
9.6435732073
 20
15.6491438663
 10
9.6457245014
 20
15.6314216733
 10
9.6478094428
 20
15.6135257013
 10
9.6498251797
 20
15.5954804262
 10
9.6517689554
 20
15.5773105284
 10
9.6536381112
 20
15.5590408586
 10
9.6554300909
 20
15.5406964039
 10
9.6571424435
 20
15.5223022538
 10
9.6587728271
 20
15.5038835659
 10
9.6603190117
 20
15.485465531
 10
9.6617788828
 20
15.4670733393
 10
9.6631504437
 20
15.4487321455
 10
9.6644318185
 20
15.4304670347
 10
9.6656212547
 20
15.4123029879
 10
9.6667171254
 20
15.3942648477
 10
9.667717932
 20
15.3763772847
 10
9.6686223056
 20
15.3586647635
 10
9.6694290092
 20
15.3411515092
 10
9.6701369397
 20
15.3238614746
 10
9.6707451287
 20
15.306818307
 10
9.6712527444
 20
15.2900453161
 10
9.6716590927
 20
15.2735654421
 10
9.6719636176
 20
15.2574012243
 10
9.6721659028
 20
15.2415747704
 10
9.83081318
 20
-0.4737999143
  0
LINE
  5
37C
100
AcDbEntity
  8
0
100
AcDbLine
 62
250
  6
CONTINUOUS
 10
9.4566816946
 20
27.3996144541
 11
9.4282636903
 21
27.5537095613
  0
LWPOLYLINE
  5
37D
100
AcDbEntity
  8
ASSI
100
AcDbPolyline
 62
7
  6
CONTINUOUS
 90
21
 70
0
 10
14.0394169436
 20
-4.4102992716
 10
14.0341510796
 20
-4.3787174178
 10
14.0280334533
 20
-4.3478984273
 10
14.0210640645
 20
-4.3178423001
 10
14.0132369249
 20
-4.2885293363
 10
14.0045580228
 20
-4.2599792358
 10
13.9950453238
 20
-4.2322510981
 10
13.9846971009
 20
-4.205346626
 10
13.9735150812
 20
-4.1792641167
 10
13.9615224118
 20
-4.1540575618
 10
13.9487174135
 20
-4.1297287759
 10
13.9351017655
 20
-4.1062759444
 10
13.9207036525
 20
-4.0837476154
 10
13.9055214539
 20
-4.062145704
 10
13.8895567903
 20
-4.041468295
 10
13.8728427092
 20
-4.0217581915
 10
13.8553776581
 20
-4.003017397
 10
13.8371631895
 20
-3.9852439079
 10
13.8182370078
 20
-3.9684745158
 10
13.7985976387
 20
-3.9527113007
 10
13.7864122105
 20
-3.9438741207
  0
LWPOLYLINE
  5
37E
100
AcDbEntity
  8
0
100
AcDbPolyline
 62
250
  6
CONTINUOUS
 90
9
 70
0
 10
9.4282636903
 20
27.5537095613
 10
9.4087041358
 20
27.7147923223
 10
9.3980924759
 20
27.8823830555
 10
9.3965002579
 20
28.0557908948
 10
9.4039199085
 20
28.2340793156
 10
9.4204501511
 20
28.417555223
 10
9.4461215631
 20
28.6046676387
 10
9.4802057299
 20
28.7914659517
 10
9.521991191
 20
28.9769536929
  0
LWPOLYLINE
  5
37F
100
AcDbEntity
  8
ASSI
100
AcDbPolyline
 62
250
  6
CONTINUOUS
 90
29
 70
0
 10
19.7644753048
 20
-9.5492009113
 10
19.7607178966
 20
-9.4822074752
 10
19.7563225345
 20
-9.4173370489
 10
19.7512992766
 20
-9.3546193794
 10
19.7456860133
 20
-9.2940766338
 10
19.7394639369
 20
-9.2357464309
 10
19.7325591609
 20
-9.1796837688
 10
19.7249847741
 20
-9.1259153118
 10
19.7167486827
 20
-9.0744796764
 10
19.7077709196
 20
-9.0254526833
 10
19.6980644716
 20
-8.9788685286
 10
19.6876366488
 20
-8.9347610287
 10
19.6764001758
 20
-8.893207905
 10
19.6643691517
 20
-8.8542446278
 10
19.6515499386
 20
-8.8179078872
 10
19.6378455925
 20
-8.78428083
 10
19.6232696855
 20
-8.7533989181
 10
19.6078300358
 20
-8.7253045259
 10
19.5914228329
 20
-8.7000947513
 10
19.5740602562
 20
-8.6778080999
 10
19.5557510013
 20
-8.6584881485
 10
19.5363867095
 20
-8.6422418575
 10
19.515981313
 20
-8.6291107903
 10
19.4945396306
 20
-8.6191377715
 10
19.471940599
 20
-8.6124345333
 10
19.4482024549
 20
-8.6090430401
 10
19.4233252209
 20
-8.6090109109
 10
19.397163767
 20
-8.6124650859
 10
19.3784680193
 20
-8.6172272289
  0
LWPOLYLINE
  5
380
100
AcDbEntity
  8
ASSI
100
AcDbPolyline
 62
7
  6
CONTINUOUS
 90
54
 70
0
 10
19.887803075
 20
26.961920929
 10
19.8609066901
 20
26.5176637548
 10
19.8028847796
 20
26.0754905817
 10
19.7140753635
 20
25.6359916115
 10
19.5948961558
 20
25.1998965046
 10
19.4457392858
 20
24.7676658626
 10
19.266887378
 20
24.3395191089
 10
19.0587648676
 20
23.9160810366
 10
18.8218598647
 20
23.4980056068
 10
18.556484332
 20
23.0856058763
 10
18.2631606805
 20
22.6795355272
 10
17.9424709238
 20
22.2804488517
 10
17.5947628325
 20
21.8886794683
 10
17.2206991779
 20
21.5049123722
 10
16.8209103342
 20
21.1297287125
 10
16.3956037412
 20
20.7633163325
 10
15.9453852342
 20
20.4062434241
 10
15.4710276514
 20
20.0591601339
 10
14.9728937702
 20
19.7223874962
 10
14.4515829962
 20
19.3964196492
 10
13.9080110658
 20
19.0819093562
 10
13.3430027233
 20
18.7793962514
 10
12.7574793888
 20
18.4894257874
 10
12.152274802
 20
18.2124574003
 10
11.5280981476
 20
17.9488719851
 10
10.8857490258
 20
17.6990764989
 10
10.2263271074
 20
17.4635631096
 10
9.5510183125
 20
17.2428007027
 10
8.860969288
 20
17.0371929662
 10
8.1571359422
 20
16.8470505969
 10
7.4404488155
 20
16.6726587496
 10
6.7118935002
 20
16.5142986379
 10
5.9726949535
 20
16.3722753243
 10
5.2241640561
 20
16.2468664945
 10
4.4675285906
 20
16.1382927209
 10
3.7038906354
 20
16.0467251413
 10
2.9343933382
 20
15.9723158694
 10
2.1601839028
 20
15.9151920089
 10
1.3825052902
 20
15.8754597777
 10
0.6026538153
 20
15.8531937596
 10
-0.1781347896
 20
15.8484321379
 10
-0.9586739696
 20
15.8611835292
 10
-1.737738238
 20
15.8914281683
 10
-2.5141384593
 20
15.9391188485
 10
-3.2866486057
 20
16.0041776735
 10
-4.053993727
 20
16.0864897895
 10
-4.8149560469
 20
16.1859118163
 10
-5.5683847589
 20
16.3022788963
 10
-6.3131182333
 20
16.435396474
 10
-7.0480404403
 20
16.58504958
 10
-7.7719754143
 20
16.7509812079
 10
-8.4836941541
 20
16.9328841218
 10
-9.1820178013
 20
17.1304211047
 10
-9.8659619378
 20
17.343274937
  0
LINE
  5
381
100
AcDbEntity
  8
ASSI
100
AcDbLine
 62
7
  6
CONTINUOUS
 10
15.7988896086
 20
-1.7634673354
 11
15.7605037641
 21
-2.368852132
  0
LINE
  5
382
100
AcDbEntity
  8
ASSI
100
AcDbLine
 62
7
  6
CONTINUOUS
 10
15.5844786481
 20
-5.1449517761
 11
15.5460928037
 21
-5.7503365728
  0
LINE
  5
383
100
AcDbEntity
  8
ASSI
100
AcDbLine
 62
7
  6
CONTINUOUS
 10
15.8341570934
 20
-1.7867064736
 11
15.795771249
 21
-2.3920912702
  0
LINE
  5
384
100
AcDbEntity
  8
ASSI
100
AcDbLine
 62
7
  6
CONTINUOUS
 10
15.619746133
 20
-5.1681909143
 11
15.5813602885
 21
-5.7735757109
  0
LWPOLYLINE
  5
385
100
AcDbEntity
  8
ASSI
100
AcDbPolyline
 62
7
  6
CONTINUOUS
 90
19
 70
0
 10
13.1842762775
 20
-16.6302651683
 10
13.2024344342
 20
-16.4433935626
 10
13.2230252329
 20
-16.2583184667
 10
13.2460486737
 20
-16.0750398807
 10
13.2715106682
 20
-15.893518569
 10
13.2994053048
 20
-15.7137937671
 10
13.3297148485
 20
-15.535983182
 10
13.362440588
 20
-15.3600903702
 10
13.3975812346
 20
-15.1861117751
 10
13.4351151878
 20
-15.0141544347
 10
13.4750439233
 20
-14.8442196442
 10
13.5173659654
 20
-14.6763061084
 10
13.5620552862
 20
-14.5105169795
 10
13.6091141514
 20
-14.3468515501
 10
13.6585402954
 20
-14.1853105275
 10
13.7103008934
 20
-14.0259991855
 10
13.7643850039
 20
-13.8689526155
 10
13.8208035684
 20
-13.7141357261
 10
13.8795565869
 20
-13.5615485174
  0
LWPOLYLINE
  5
386
100
AcDbEntity
  8
ASSI
100
AcDbPolyline
 62
250
  6
CONTINUOUS
 90
124
 70
0
 10
21.0622019452
 20
26.3069823277
 10
21.0904998002
 20
26.482268814
 10
21.1144166681
 20
26.6577005499
 10
21.1339525489
 20
26.8332775353
 10
21.1491097342
 20
27.009036531
 10
21.1598859323
 20
27.1849407761
 10
21.1662742682
 20
27.3608799884
 10
21.1682719596
 20
27.536853928
 10
21.1658817887
 20
27.7128628348
 10
21.1591052276
 20
27.8887971454
 10
21.1479395405
 20
28.0646567799
 10
21.1323874631
 20
28.2404418184
 10
21.1124586756
 20
28.4160429377
 10
21.0881504651
 20
28.5914599853
 10
21.0594655445
 20
28.7666931139
 10
21.0264217315
 20
28.9416334583
 10
20.989016306
 20
29.1162808889
 10
20.9472519881
 20
29.2906355355
 10
20.901154757
 20
29.4645889215
 10
20.8507219223
 20
29.6381407724
 10
20.7959561743
 20
29.8112913628
 10
20.7368915634
 20
29.9839330402
 10
20.673525411
 20
30.1560655001
 10
20.6058603956
 20
30.327689047
 10
20.5339386034
 20
30.4986969424
 10
20.4577573992
 20
30.6690887782
 10
20.3773194182
 20
30.8388649624
 10
20.292674652
 20
31.0079199803
 10
20.2038204704
 20
31.1762534118
 10
20.1107595036
 20
31.3438656771
 10
20.013549634
 20
31.5106525209
 10
19.9121882916
 20
31.6766134115
 10
19.8066780465
 20
31.8417488807
 10
19.6970844909
 20
32.0059562694
 10
19.5834050773
 20
32.1692350127
 10
19.4656423534
 20
32.3315856755
 10
19.3438695546
 20
32.4929072935
 10
19.2180841943
 20
32.6531992169
 10
19.0882887591
 20
32.8124620954
 10
18.9545639449
 20
32.9705969137
 10
18.8169073046
 20
33.1276029748
 10
18.6753212853
 20
33.2834809755
 10
18.529893924
 20
33.4381339915
 10
18.3806228295
 20
33.5915612625
 10
18.227510393
 20
33.7437635487
 10
18.0706518255
 20
33.8946462056
 10
17.9100448051
 20
34.0442084055
 10
17.7456916538
 20
34.192450976
 10
17.5776945481
 20
34.3392817557
 10
17.4060512085
 20
34.4846998779
 10
17.2307639147
 20
34.6287062093
 10
17.0519416823
 20
34.7712111891
 10
16.8695823322
 20
34.9122138688
 10
16.6836880435
 20
35.0517151969
 10
16.4943743696
 20
35.189628458
 10
16.3016391592
 20
35.3259526819
 10
16.1054845635
 20
35.4606888388
 10
15.9060325893
 20
35.593753124
 10
15.7032812146
 20
35.7251444789
 10
15.4972324612
 20
35.8548639622
 10
15.2880144016
 20
35.9828309447
 10
15.0756250329
 20
36.1090443558
 10
14.860066358
 20
36.2335052663
 10
14.6414724573
 20
36.3561362596
 10
14.4198414763
 20
36.4769361794
 10
14.1951752696
 20
36.595906182
 10
13.9676134815
 20
36.7129723202
 10
13.7371542787
 20
36.8281334264
 10
13.5037994945
 20
36.9413906681
 10
13.2676942737
 20
37.0526736002
 10
13.0288369357
 20
37.1619809804
 10
12.787229161
 20
37.269314051
 10
12.5430211354
 20
37.3746060928
 10
12.2962112161
 20
37.4778558476
 10
12.0468010458
 20
37.5790645736
 10
11.7949457388
 20
37.6781693264
 10
11.5406437938
 20
37.7751687897
 10
11.2838967121
 20
37.8700642798
 10
11.0248641114
 20
37.9627968011
 10
10.7635445584
 20
38.053365013
 10
10.4999394864
 20
38.1417702561
 10
10.2342128141
 20
38.2279575568
 10
9.9663632252
 20
38.3119255343
 10
9.6963920361
 20
38.3936755693
 10
9.424467114
 20
38.4731568304
 10
9.1505872517
 20
38.5503679046
 10
8.8747536565
 20
38.625310205
 10
8.5971378171
 20
38.6979371386
 10
8.3177386083
 20
38.7682472696
 10
8.0365571553
 20
38.8362420338
 10
7.7537683221
 20
38.9018791461
 10
7.4693711304
 20
38.9651571353
 10
7.1833665586
 20
39.0260774724
 10
6.8959324061
 20
39.0846022852
 10
6.6070677517
 20
39.1407300898
 10
6.3167735166
 20
39.1944623701
 10
6.0252302641
 20
39.2457657054
 10
5.7324372668
 20
39.2946385772
 10
5.438395252
 20
39.3410825041
 10
5.1432869648
 20
39.3850686216
 10
4.8471116985
 20
39.4265954081
 10
4.5498701597
 20
39.4656643851
 10
4.2517472136
 20
39.5022512525
 10
3.9527423327
 20
39.5363544639
 10
3.6528560445
 20
39.5679755657
 10
3.3522747966
 20
39.5970948978
 10
3.0509981136
 20
39.6237109066
 10
2.749026471
 20
39.6478251456
 10
2.4465477427
 20
39.6694226149
 10
2.1435617045
 20
39.6885017439
 10
1.8400685807
 20
39.7050641032
 10
1.5362569186
 20
39.7190994048
 10
1.2321264533
 20
39.7306060822
 10
0.9276774497
 20
39.7395857019
 10
0.6230992499
 20
39.7460326751
 10
0.3183917163
 20
39.7499454225
 10
0.0135549865
 20
39.7513255235
 10
-0.2912211844
 20
39.7501721271
 10
-0.5959370126
 20
39.7464836376
 10
-0.9005922818
 20
39.7402616508
 10
-1.2049965881
 20
39.7315101026
 10
-1.5090864634
 20
39.7202303054
 10
-1.8129253756
 20
39.7064209468
 10
-2.1165133249
 20
39.6900820271
  0
LWPOLYLINE
  5
387
100
AcDbEntity
  8
ASSI
100
AcDbPolyline
 62
250
  6
CONTINUOUS
 90
9
 70
0
 10
21.5596206391
 20
25.877011185
 10
21.5885804572
 20
26.0563800305
 10
21.6130641955
 20
26.2359708501
 10
21.6330667922
 20
26.4157464078
 10
21.6485841069
 20
26.5956693281
 10
21.6596129495
 20
26.7757024079
 10
21.6661510551
 20
26.9558086252
 10
21.6681970596
 20
27.1359507818
 10
21.6665506784
 20
27.2823526698
  0
LWPOLYLINE
  5
388
100
AcDbEntity
  8
ASSI
100
AcDbPolyline
 62
7
  6
CONTINUOUS
 90
13
 70
0
 10
12.1498138644
 20
-16.1107530357
 10
12.160911431
 20
-16.0511945571
 10
12.1960252843
 20
-15.8775663996
 10
12.2335267316
 20
-15.7059455439
 10
12.2734248917
 20
-15.5362950332
 10
12.3157106458
 20
-15.3686518242
 10
12.3603566385
 20
-15.2031267878
 10
12.4073647712
 20
-15.0397216015
 10
12.4567331426
 20
-14.8784345876
 10
12.5084286931
 20
-14.7193715842
 10
12.562440403
 20
-14.5625678703
 10
12.6187792921
 20
-14.4079881668
 10
12.6774453604
 20
-14.2556324736
  0
LINE
  5
389
100
AcDbEntity
  8
ASSI
100
AcDbLine
 62
7
  6
CONTINUOUS
 10
21.2898529006
 20
7.397113286
 11
21.1728532269
 21
6.9078094093
  0
LWPOLYLINE
  5
38A
100
AcDbEntity
  8
ASSI
100
AcDbPolyline
 62
7
  6
CONTINUOUS
 90
55
 70
0
 10
14.036574202
 20
-5.0345813658
 10
14.0261789202
 20
-5.077127608
 10
14.0148759505
 20
-5.1198915723
 10
14.002665293
 20
-5.1628732587
 10
13.9895361583
 20
-5.2061060645
 10
13.9754993359
 20
-5.2495565923
 10
13.9605871934
 20
-5.2931246502
 10
13.94479771
 20
-5.3368105127
 10
13.9281329067
 20
-5.3806139052
 10
13.9106312142
 20
-5.4244338125
 10
13.892290701
 20
-5.4682702729
 10
13.8731132987
 20
-5.5121232482
 10
13.8531432322
 20
-5.5558916088
 10
13.8323786723
 20
-5.5995751595
 10
13.8108214483
 20
-5.6431740955
 10
13.7885212734
 20
-5.6865878732
 10
13.765476433
 20
-5.7298160652
 10
13.7416886417
 20
-5.7728590989
 10
13.7172127566
 20
-5.8156177125
 10
13.6920471898
 20
-5.8580912496
 10
13.6661935292
 20
-5.9002803666
 10
13.639711396
 20
-5.942087771
 10
13.61259934
 20
-5.9835125819
 10
13.5848588114
 20
-6.0245556802
 10
13.5565537828
 20
-6.0651224163
 10
13.5276829515
 20
-6.1052116907
 10
13.4982476202
 20
-6.1448246029
 10
13.4683156699
 20
-6.1838698012
 10
13.4378859545
 20
-6.2223459756
 10
13.40695962
 20
-6.2602544363
 10
13.3756079859
 20
-6.2975077623
 10
13.3438300706
 20
-6.3341044417
 10
13.3116268556
 20
-6.3700459865
 10
13.2790726049
 20
-6.4052495117
 10
13.2461665084
 20
-6.439713314
 10
13.2129093762
 20
-6.4734390967
 10
13.1793779028
 20
-6.5063490847
 10
13.1455714549
 20
-6.5384413952
 10
13.1114906658
 20
-6.5697179109
 10
13.0772141293
 20
-6.6001065049
 10
13.0427413935
 20
-6.629605128
 10
13.0080729104
 20
-6.6582158295
 10
12.9732886291
 20
-6.68587263
 10
12.9383882822
 20
-6.7125733281
 10
12.903372137
 20
-6.7383201253
 10
12.8683209445
 20
-6.7630536467
 10
12.8332346236
 20
-6.7867715539
 10
12.7981132555
 20
-6.8094761853
 10
12.7630378334
 20
-6.8311151817
 10
12.7280084636
 20
-6.8516860838
 10
12.6930250399
 20
-6.8711913509
 10
12.6581682378
 20
-6.8895860018
 10
12.6234649491
 20
-6.9068550428
 10
12.588888282
 20
-6.9230134677
 10
12.5544382365
 20
-6.9380612764
  0
LINE
  5
38B
100
AcDbEntity
  8
ASSI
100
AcDbLine
 62
7
  6
CONTINUOUS
 10
21.1729615306
 20
6.9082530007
 11
21.0511150898
 21
6.4192643851
  0
LINE
  5
38C
100
AcDbEntity
  8
ASSI
100
AcDbLine
 62
7
  6
CONTINUOUS
 10
21.051244281
 20
6.4197725593
 11
20.9245497758
 21
5.9310992384
  0
LWPOLYLINE
  5
38D
100
AcDbEntity
  8
ASSI
100
AcDbPolyline
 62
7
  6
CONTINUOUS
 90
3
 70
0
 10
13.9693884487
 20
-5.1328252275
 10
13.9808439495
 20
-5.0921307755
 10
13.9887021077
 20
-5.062222113
  0
LINE
  5
38E
100
AcDbEntity
  8
ASSI
100
AcDbLine
 62
7
  6
CONTINUOUS
 10
20.9247011519
 20
5.9316719617
 11
20.9188392334
 21
5.9113636851
  0
LINE
  5
38F
100
AcDbEntity
  8
ASSI
100
AcDbLine
 62
7
  6
CONTINUOUS
 10
20.9189352787
 20
5.9115864036
 11
20.9120226585
 21
5.8911770164
  0
LWPOLYLINE
  5
390
100
AcDbEntity
  8
ASSI
100
AcDbPolyline
 62
7
  6
CONTINUOUS
 90
19
 70
0
 10
10.3765162542
 20
-15.6277277796
 10
10.3175794765
 20
-15.7801688966
 10
10.2609841262
 20
-15.9348492646
 10
10.2067302035
 20
-16.0917688837
 10
10.1548066632
 20
-16.250963041
 10
10.1052245504
 20
-16.4123964495
 10
10.0580169999
 20
-16.5759632475
 10
10.0131862989
 20
-16.7416627307
 10
9.9707301603
 20
-16.9094956034
 10
9.9306748578
 20
-17.0793581177
 10
9.8930218811
 20
-17.2512515823
 10
9.8577697406
 20
-17.4251746885
 10
9.8249402413
 20
-17.6010197615
 10
9.794534684
 20
-17.7787903847
 10
9.7665517679
 20
-17.9584829747
 10
9.7410093954
 20
-18.1399791078
 10
9.7179135339
 20
-18.3232393093
 10
9.6972582159
 20
-18.5083030537
 10
9.6790434415
 20
-18.6951703411
  0
LWPOLYLINE
  5
391
100
AcDbEntity
  8
ASSI
100
AcDbPolyline
 62
7
  6
CONTINUOUS
 90
19
 70
0
 10
13.3162370366
 20
-13.9303698433
 10
13.2573002589
 20
-14.0828109602
 10
13.2007049086
 20
-14.2374913282
 10
13.1464509858
 20
-14.3944109473
 10
13.0945274455
 20
-14.5536051047
 10
13.0449453327
 20
-14.7150385131
 10
12.9977377823
 20
-14.8786053111
 10
12.9529070813
 20
-15.0443047943
 10
12.9104509426
 20
-15.2121376671
 10
12.8703956402
 20
-15.3820001813
 10
12.8327426635
 20
-15.553893646
 10
12.797490523
 20
-15.7278167521
 10
12.7646610237
 20
-15.9036618251
 10
12.7342554664
 20
-16.0814324483
 10
12.7062725503
 20
-16.2611250384
 10
12.6807301777
 20
-16.4426211714
 10
12.6576343162
 20
-16.6258813729
 10
12.6369789983
 20
-16.8109451173
 10
12.6187642238
 20
-16.9978124047
  0
LWPOLYLINE
  5
392
100
AcDbEntity
  8
ASSI
100
AcDbPolyline
 62
7
  6
CONTINUOUS
 90
19
 70
0
 10
13.9172848717
 20
-13.5833323562
 10
13.858347714
 20
-13.7357736925
 10
13.8017519819
 20
-13.890454281
 10
13.7474976756
 20
-14.0473741215
 10
13.6955737498
 20
-14.2065685014
 10
13.6459912497
 20
-14.3680021335
 10
13.5987833104
 20
-14.531569156
 10
13.553952219
 20
-14.6972688646
 10
13.5114956885
 20
-14.8651019637
 10
13.4714399928
 20
-15.034964705
 10
13.4337866215
 20
-15.2068583975
 10
13.3985340851
 20
-15.3807817321
 10
13.3657041889
 20
-15.5566270344
 10
13.3352982336
 20
-15.7343978874
 10
13.3073149184
 20
-15.9140907079
 10
13.281772146
 20
-16.0955870718
 10
13.2586758838
 20
-16.2788475046
 10
13.2380201645
 20
-16.4639114808
 10
13.2198049878
 20
-16.6507790004
  0
LWPOLYLINE
  5
393
100
AcDbEntity
  8
ASSI
100
AcDbPolyline
 62
7
  6
CONTINUOUS
 90
19
 70
0
 10
14.5183511652
 20
-13.2362785815
 10
14.4594137405
 20
-13.3887202185
 10
14.4028177536
 20
-13.5434011209
 10
14.3485632045
 20
-13.7003212888
 10
14.296639048
 20
-13.8595160096
 10
14.2470563293
 20
-14.0209499958
 10
14.1998481839
 20
-14.1845173851
 10
14.1550168987
 20
-14.350217473
 10
14.1125601869
 20
-14.5180509639
 10
14.0725043226
 20
-14.6879141088
 10
14.0348507955
 20
-14.8598082166
 10
13.9995981159
 20
-15.0337319784
 10
13.9667680893
 20
-15.2095777186
 10
13.9363620167
 20
-15.3873490204
 10
13.908378597
 20
-15.5670423007
 10
13.8828357332
 20
-15.7485391345
 10
13.8597393927
 20
-15.9318000466
 10
13.8390836081
 20
-16.1168645123
 10
13.8208683793
 20
-16.3037325313
  0
LWPOLYLINE
  5
394
100
AcDbEntity
  8
ASSI
100
AcDbPolyline
 62
7
  6
CONTINUOUS
 90
20
 70
0
 10
20.9124369176
 20
5.8921844057
 10
20.9042514273
 20
5.8711119558
 10
20.8955153322
 20
5.8511475991
 10
20.8858245807
 20
5.8313048503
 10
20.8752097951
 20
5.8116464217
 10
20.8636757689
 20
5.792184762
 10
20.8512177085
 20
5.7729074224
 10
20.837851856
 20
5.7538397681
 10
20.8235698245
 20
5.7349725135
 10
20.8083800009
 20
5.7163149442
 10
20.7923237871
 20
5.697920282
 10
20.7753982897
 20
5.6797905404
 10
20.7576064022
 20
5.661923706
 10
20.7389982073
 20
5.6443669603
 10
20.719578921
 20
5.6271270488
 10
20.6993433273
 20
5.6101972261
 10
20.6783258607
 20
5.5936044374
 10
20.6565379993
 20
5.5773576645
 10
20.6339682649
 20
5.5614479257
 10
20.6106166576
 20
5.5458752209
  0
LWPOLYLINE
  5
395
100
AcDbEntity
  8
ASSI
100
AcDbPolyline
 62
7
  6
CONTINUOUS
 90
16
 70
0
 10
10.9775796457
 20
-15.2806813105
 10
10.9303169645
 20
-15.4022595568
 10
10.8845442645
 20
-15.5252792873
 10
10.8402615456
 20
-15.6497405022
 10
10.7974628564
 20
-15.7756612154
 10
10.7561541483
 20
-15.9030234128
 10
10.7163532762
 20
-16.0317730528
 10
10.6780613129
 20
-16.1619095627
 10
10.6412771855
 20
-16.2934335151
 10
10.6060155309
 20
-16.4262925857
 10
10.5722767384
 20
-16.5604886379
 10
10.5400604187
 20
-16.6960198083
 10
10.5093800399
 20
-16.8328281824
 10
10.4802400916
 20
-16.9708944553
 10
10.4526360842
 20
-17.1102379319
 10
10.4265680179
 20
-17.2508586122
  0
LWPOLYLINE
  5
396
100
AcDbEntity
  8
ASSI
100
AcDbPolyline
 62
7
  6
CONTINUOUS
 90
16
 70
0
 10
12.7151736452
 20
-14.2774163124
 10
12.667910458
 20
-14.3989948508
 10
12.62213725
 20
-14.5220148747
 10
12.5778540212
 20
-14.646476384
 10
12.5350548199
 20
-14.7723973928
 10
12.4937455978
 20
-14.899759887
 10
12.45394421
 20
-15.0285098247
 10
12.4156517292
 20
-15.1586466334
 10
12.3788670826
 20
-15.2901708856
 10
12.3436049072
 20
-15.4230302569
 10
12.3098655923
 20
-15.5572266107
 10
12.2776487487
 20
-15.6927580837
 10
12.2469678447
 20
-15.829566761
 10
12.2178273698
 20
-15.9676333379
 10
12.1902228347
 20
-16.1069771193
 10
12.1641542392
 20
-16.2475981051
  0
LWPOLYLINE
  5
397
100
AcDbEntity
  8
ASSI
100
AcDbPolyline
 62
7
  6
CONTINUOUS
 90
70
 70
0
 10
4.8563782513
 20
-19.7522831413
 10
4.8299508581
 20
-19.776522818
 10
4.803669887
 20
-19.8012677013
 10
4.7775372433
 20
-19.8265194336
 10
4.751526967
 20
-19.8523062363
 10
4.7256692017
 20
-19.8786034817
 10
4.7000500601
 20
-19.9053335766
 10
4.6746840966
 20
-19.9324870707
 10
4.649561323
 20
-19.9600773027
 10
4.6247309928
 20
-19.9880608121
 10
4.6001831211
 20
-20.0164558604
 10
4.5759327411
 20
-20.045248444
 10
4.5520664731
 20
-20.0743465547
 10
4.5286000713
 20
-20.103737919
 10
4.5055228685
 20
-20.1334390479
 10
4.4828816123
 20
-20.1634008896
 10
4.4606678049
 20
-20.1936427473
 10
4.4388952868
 20
-20.2241497124
 10
4.4176439486
 20
-20.2548210916
 10
4.3969259949
 20
-20.2856477688
 10
4.3767342211
 20
-20.316642901
 10
4.3571188913
 20
-20.3477387574
 10
4.3380797067
 20
-20.3789440591
 10
4.3196218038
 20
-20.4102539246
 10
4.3018030308
 20
-20.4415797294
 10
4.2846276348
 20
-20.4729235252
 10
4.2680956778
 20
-20.5042865969
 10
4.2522579737
 20
-20.5355785288
 10
4.2371218179
 20
-20.5667926532
 10
4.2226835045
 20
-20.5979383243
 10
4.2089766053
 20
-20.6289485396
 10
4.1959997808
 20
-20.6598360381
 10
4.1837574503
 20
-20.6905903014
 10
4.1722909347
 20
-20.7211087076
 10
4.1616091571
 20
-20.7513746786
 10
4.1517050962
 20
-20.7814060234
 10
4.1425952916
 20
-20.8111509977
 10
4.1342778235
 20
-20.840625267
 10
4.1267560497
 20
-20.8698139999
 10
4.1200535175
 20
-20.8986189781
 10
4.1141760296
 20
-20.9270226909
 10
4.1091178842
 20
-20.9550424127
 10
4.1048844582
 20
-20.9826313812
 10
4.1014755801
 20
-21.0098000021
 10
4.0988910233
 20
-21.0365372454
 10
4.0971352418
 20
-21.0627635429
 10
4.0962102083
 20
-21.0884685822
 10
4.0961124067
 20
-21.1136611786
 10
4.0968371669
 20
-21.1382897736
 10
4.0983847214
 20
-21.1623537992
 10
4.1007526401
 20
-21.1858518538
 10
4.1039315284
 20
-21.2087305792
 10
4.1079227724
 20
-21.2309902447
 10
4.1127220946
 20
-21.2526281232
 10
4.1183108141
 20
-21.2735857754
 10
4.1246859847
 20
-21.2938524568
 10
4.1318468473
 20
-21.3134358906
 10
4.139777371
 20
-21.3323048799
 10
4.1484815528
 20
-21.3504653941
 10
4.1579514566
 20
-21.3679083234
 10
4.1681525445
 20
-21.3845794152
 10
4.1790778848
 20
-21.4004658678
 10
4.1907297465
 20
-21.4155768671
 10
4.2030868682
 20
-21.4298907721
 10
4.2161551505
 20
-21.4434117559
 10
4.2299240472
 20
-21.4561321024
 10
4.2443472035
 20
-21.4680120437
 10
4.2594172735
 20
-21.4790423925
 10
4.2751365677
 20
-21.4892285692
 10
4.2817724587
 20
-21.4931629296
  0
LWPOLYLINE
  5
398
100
AcDbEntity
  8
ASSI
100
AcDbPolyline
 62
7
  6
CONTINUOUS
 90
70
 70
0
 10
4.892856576
 20
-19.7733452688
 10
4.8664232185
 20
-19.7975779947
 10
4.8401355491
 20
-19.8223157837
 10
4.8139954789
 20
-19.847560285
 10
4.7879770338
 20
-19.8733397209
 10
4.762110384
 20
-19.8996294775
 10
4.7364817107
 20
-19.9263519881
 10
4.7111055839
 20
-19.9534978088
 10
4.6859720137
 20
-19.9810802879
 10
4.6611302952
 20
-20.0090559981
 10
4.6365704402
 20
-20.037443209
 10
4.6123075012
 20
-20.0662279267
 10
4.5884281736
 20
-20.0953181775
 10
4.5649482191
 20
-20.1247017096
 10
4.5418569796
 20
-20.1543950303
 10
4.5192012794
 20
-20.184349084
 10
4.4969726198
 20
-20.2145831812
 10
4.4751848598
 20
-20.2450824245
 10
4.4539179946
 20
-20.2757461203
 10
4.4331842378
 20
-20.3065651735
 10
4.4129763925
 20
-20.3375527371
 10
4.3933448242
 20
-20.3686410404
 10
4.3742892452
 20
-20.3998388034
 10
4.3558147969
 20
-20.4311411614
 10
4.3379794183
 20
-20.4624594737
 10
4.3207873625
 20
-20.4937958022
 10
4.3042386995
 20
-20.5251514351
 10
4.2883843338
 20
-20.5564359265
 10
4.2732315743
 20
-20.5876426124
 10
4.2587767128
 20
-20.6187808537
 10
4.2450533839
 20
-20.6497836192
 10
4.232060251
 20
-20.6806636422
 10
4.2198017396
 20
-20.7114104179
 10
4.2083192355
 20
-20.7419213222
 10
4.1976216748
 20
-20.7721797818
 10
4.187702028
 20
-20.8022036045
 10
4.1785768641
 20
-20.8319410302
 10
4.1702442603
 20
-20.8614077127
 10
4.1627075803
 20
-20.8905888338
 10
4.1559904101
 20
-20.9193861951
 10
4.1500985614
 20
-20.9477822848
 10
4.145026322
 20
-20.9757943753
 10
4.1407790744
 20
-21.00337572
 10
4.1373566409
 20
-21.0305367181
 10
4.1347587982
 20
-21.0572663415
 10
4.1329900176
 20
-21.0834850479
 10
4.1320522728
 20
-21.1091825122
 10
4.1319420401
 20
-21.1343675545
 10
4.1326546518
 20
-21.1589886659
 10
4.1341903358
 20
-21.1830452825
 10
4.1365466585
 20
-21.2065359892
 10
4.1397142267
 20
-21.2294074482
 10
4.1436944178
 20
-21.251659911
 10
4.1484829528
 20
-21.2732906573
 10
4.1540611621
 20
-21.2942413034
 10
4.1604260978
 20
-21.3145011082
 10
4.1675769902
 20
-21.3340777789
 10
4.1754978044
 20
-21.3529401436
 10
4.1841925236
 20
-21.3710941589
 10
4.1936532127
 20
-21.388530715
 10
4.2038453502
 20
-21.4051956028
 10
4.2147620012
 20
-21.4210760191
 10
4.2264054233
 20
-21.4361811373
 10
4.2387543582
 20
-21.4504893415
 10
4.2518146964
 20
-21.4640047982
 10
4.2655758875
 20
-21.4767197847
 10
4.279991589
 20
-21.4885945583
 10
4.2950544465
 20
-21.4996199259
 10
4.3107667638
 20
-21.5098012999
 10
4.3173901993
 20
-21.5137281658
  0
LWPOLYLINE
  5
399
100
AcDbEntity
  8
ASSI
100
AcDbPolyline
 62
250
  6
CONTINUOUS
 90
25
 70
0
 10
19.1568535367
 20
-8.78287841
 10
19.1750961632
 20
-8.7709239998
 10
19.1927658064
 20
-8.7580368195
 10
19.209847606
 20
-8.7442277039
 10
19.2263271828
 20
-8.7295082673
 10
19.2421906257
 20
-8.7138909248
 10
19.2574245366
 20
-8.6973888627
 10
19.2720160686
 20
-8.6800159986
 10
19.2859529353
 20
-8.6617869628
 10
19.2992233935
 20
-8.6427171143
 10
19.3118162609
 20
-8.6228225215
 10
19.323720924
 20
-8.602119951
 10
19.3349273486
 20
-8.5806268518
 10
19.3454260912
 20
-8.5583613363
 10
19.3552083042
 20
-8.5353421679
 10
19.3642657426
 20
-8.5115887493
 10
19.3725907731
 20
-8.4871211007
 10
19.3801763815
 20
-8.4619598391
 10
19.3870161766
 20
-8.4361261643
 10
19.3931044013
 20
-8.409641815
 10
19.3984359165
 20
-8.3825291399
 10
19.4030062151
 20
-8.3548110815
 10
19.4068114495
 20
-8.326511036
 10
19.4098484264
 20
-8.2976528268
 10
19.4121145943
 20
-8.2682607782
  0
LWPOLYLINE
  5
39A
100
AcDbEntity
  8
ASSI
100
AcDbPolyline
 62
250
  6
CONTINUOUS
 90
26
 70
0
 10
9.7065779105
 20
-14.239595209
 10
9.7182402216
 20
-14.2326154373
 10
9.7364829085
 20
-14.220660973
 10
9.7541526079
 20
-14.2077737319
 10
9.7712344293
 20
-14.1939645742
 10
9.7877139778
 20
-14.1792451371
 10
9.8035773658
 20
-14.1636278246
 10
9.8188112253
 20
-14.1471257976
 10
9.8334027184
 20
-14.1297529625
 10
9.8473395489
 20
-14.1115239596
 10
9.8606099721
 20
-14.0924541504
 10
9.8732028049
 20
-14.0725596054
 10
9.8851074352
 20
-14.0518570897
 10
9.8963138308
 20
-14.0303640496
 10
9.9068125482
 20
-14.0080985975
 10
9.9165947398
 20
-13.9850794964
 10
9.9256521623
 20
-13.961326145
 10
9.9339771828
 20
-13.9368585602
 10
9.9415627858
 20
-13.9116973611
 10
9.9484025788
 20
-13.8858637512
 10
9.9544907979
 20
-13.8593795007
 10
9.9598223125
 20
-13.8322669282
 10
9.9643926297
 20
-13.8045488814
 10
9.968197898
 20
-13.7762487188
 10
9.9712349108
 20
-13.747390289
 10
9.9735011087
 20
-13.7179979112
  0
LINE
  5
39B
100
AcDbEntity
  8
ASSI
100
AcDbLine
 62
250
  6
CONTINUOUS
 10
19.1451913962
 20
-8.789858076
 11
19.1568535367
 21
-8.78287841
  0
LWPOLYLINE
  5
39C
100
AcDbEntity
  8
ASSI
100
AcDbPolyline
 62
250
  6
CONTINUOUS
 90
25
 70
0
 10
9.9735011087
 20
-13.7179979112
 10
9.9488180132
 20
-13.7324588382
 10
9.923521595
 20
-13.7464777026
 10
9.8976242633
 20
-13.7600495568
 10
9.8711322364
 20
-13.7731738936
 10
9.844063495
 20
-13.7858407701
 10
9.8164492771
 20
-13.798032385
 10
9.7883035538
 20
-13.8097454977
 10
9.759639207
 20
-13.8209756306
 10
9.7304883271
 20
-13.8317057911
 10
9.7008663314
 20
-13.8419339168
 10
9.670787211
 20
-13.8516567543
 10
9.6402832792
 20
-13.8608580108
 10
9.6093713661
 20
-13.869536737
 10
9.5780667784
 20
-13.8776910001
 10
9.5464017632
 20
-13.8853053222
 10
9.514394741
 20
-13.8923799807
 10
9.4820622616
 20
-13.8989143782
 10
9.4494358136
 20
-13.9048937976
 10
9.4165352507
 20
-13.9103197361
 10
9.3833785066
 20
-13.9151930381
 10
9.3499960393
 20
-13.9194998338
 10
9.3164117974
 20
-13.923237492
 10
9.2826424437
 20
-13.9264138867
 10
9.2487085368
 20
-13.9290320029
  0
LINE
  5
39D
100
AcDbEntity
  8
ASSI
100
AcDbLine
 62
250
  6
CONTINUOUS
 10
19.4121144857
 20
-8.2682608409
 11
9.9735012173
 21
-13.7179978485
  0
LINE
  5
39E
100
AcDbEntity
  8
ASSI
100
AcDbLine
 62
7
  6
CONTINUOUS
 10
19.1451913962
 20
-8.789858076
 11
9.7065779105
 21
-14.239595209
  0
LINE
  5
39F
100
AcDbEntity
  8
ASSI
100
AcDbLine
 62
7
  6
CONTINUOUS
 10
4.6013753008
 20
-18.9186648786
 11
5.2783827316
 21
-18.5277636318
  0
LINE
  5
3A0
100
AcDbEntity
  8
ASSI
100
AcDbLine
 62
7
  6
CONTINUOUS
 10
10.3387879695
 20
-15.6059439408
 11
10.9398513609
 21
-15.2588974717
  0
LINE
  5
3A1
100
AcDbEntity
  8
ASSI
100
AcDbLine
 62
7
  6
CONTINUOUS
 10
12.6774453604
 20
-14.2556324736
 11
13.2785087518
 21
-13.9085860045
  0
LINE
  5
3A2
100
AcDbEntity
  8
ASSI
100
AcDbLine
 62
7
  6
CONTINUOUS
 10
6.40538649
 20
-17.8770457863
 11
7.0064576596
 21
-17.5299948262
  0
LINE
  5
3A3
100
AcDbEntity
  8
ASSI
100
AcDbLine
 62
7
  6
CONTINUOUS
 10
9.3370158495
 20
-16.1843597361
 11
9.9380818703
 21
-15.8373066205
  0
LINE
  5
3A4
100
AcDbEntity
  8
ASSI
100
AcDbLine
 62
7
  6
CONTINUOUS
 10
7.4071663882
 20
-17.2986255
 11
8.0082349284
 21
-16.9515811864
  0
LINE
  5
3A5
100
AcDbEntity
  8
ASSI
100
AcDbLine
 62
7
  6
CONTINUOUS
 10
11.5081249957
 20
-14.9307885255
 11
12.1091761673
 21
-14.5837439836
  0
LINE
  5
3A6
100
AcDbEntity
  8
ASSI
100
AcDbLine
 62
7
  6
CONTINUOUS
 10
13.8795565869
 20
-13.5615485174
 11
14.4806228707
 21
-13.2144947371
  0
LINE
  5
3A7
100
AcDbEntity
  8
ASSI
100
AcDbLine
 62
7
  6
CONTINUOUS
 10
15.8462376272
 20
-12.426011533
 11
16.4473258312
 21
-12.0789450962
  0
LINE
  5
3A8
100
AcDbEntity
  8
ASSI
100
AcDbLine
 62
7
  6
CONTINUOUS
 10
5.3161110075
 20
-18.5495474655
 11
4.6391035671
 21
-18.9404487066
  0
LINE
  5
3A9
100
AcDbEntity
  8
ASSI
100
AcDbLine
 62
7
  6
CONTINUOUS
 10
13.3162370366
 20
-13.9303698433
 11
12.7151736452
 21
-14.2774163124
  0
LINE
  5
3AA
100
AcDbEntity
  8
ASSI
100
AcDbLine
 62
7
  6
CONTINUOUS
 10
10.9775796457
 20
-15.2806813105
 11
10.3765162542
 21
-15.6277277796
  0
LINE
  5
3AB
100
AcDbEntity
  8
ASSI
100
AcDbLine
 62
7
  6
CONTINUOUS
 10
9.9758101551
 20
-15.8590904593
 11
9.3747441254
 21
-16.2061435698
  0
LINE
  5
3AC
100
AcDbEntity
  8
ASSI
100
AcDbLine
 62
7
  6
CONTINUOUS
 10
7.0441859355
 20
-17.5517786599
 11
6.4431147659
 21
-17.89882962
  0
LINE
  5
3AD
100
AcDbEntity
  8
ASSI
100
AcDbLine
 62
7
  6
CONTINUOUS
 10
8.0459632043
 20
-16.9733650201
 11
7.444894673
 21
-17.3204093388
  0
LINE
  5
3AE
100
AcDbEntity
  8
ASSI
100
AcDbLine
 62
7
  6
CONTINUOUS
 10
12.1469044521
 20
-14.6055278224
 11
11.5458532716
 21
-14.9525723592
  0
LINE
  5
3AF
100
AcDbEntity
  8
ASSI
100
AcDbLine
 62
7
  6
CONTINUOUS
 10
14.5183511652
 20
-13.2362785815
 11
13.9172848717
 21
-13.5833323562
  0
LINE
  5
3B0
100
AcDbEntity
  8
ASSI
100
AcDbLine
 62
7
  6
CONTINUOUS
 10
16.4850541257
 20
-12.1007289406
 11
15.8839659119
 21
-12.4477953718
  0
LINE
  5
3B1
100
AcDbEntity
  8
ASSI
100
AcDbLine
 62
7
  6
CONTINUOUS
 10
8.0324247097
 20
-17.3862563334
 11
8.9448080359
 21
-16.8594576357
  0
LINE
  5
3B2
100
AcDbEntity
  8
ASSI
100
AcDbLine
 62
7
  6
CONTINUOUS
 10
8.9818681814
 20
-16.8808556992
 11
8.0325921769
 21
-17.428955767
  0
LWPOLYLINE
  5
3B3
100
AcDbEntity
  8
ASSI
100
AcDbPolyline
 62
7
  6
CONTINUOUS
 90
6
 70
0
 10
8.2526619814
 20
-15.0288085041
 10
8.4299275549
 20
-14.9272984935
 10
8.7370724728
 20
-14.7552709574
 10
9.053012879
 20
-14.5831648219
 10
9.3777550623
 20
-14.4110972347
 10
9.6481071534
 20
-14.2713880995
  0
LWPOLYLINE
  5
3B4
100
AcDbEntity
  8
ASSI
100
AcDbPolyline
 62
250
  6
CONTINUOUS
 90
25
 70
0
 10
19.4121145943
 20
-8.2682607782
 10
19.4360670601
 20
-8.2546383503
 10
19.4593608311
 20
-8.2406024682
 10
19.4819796001
 20
-8.2261629579
 10
19.5039075326
 20
-8.2113299279
 10
19.5251292775
 20
-8.1961137623
 10
19.5456299785
 20
-8.1805251133
 10
19.5653952835
 20
-8.1645748941
 10
19.5844113558
 20
-8.1482742708
 10
19.6026648827
 20
-8.1316346549
 10
19.6201430857
 20
-8.1146676951
 10
19.636833729
 20
-8.0973852694
 10
19.6527251279
 20
-8.0797994766
 10
19.6678061576
 20
-8.0619226279
 10
19.6820662604
 20
-8.0437672383
 10
19.6954954532
 20
-8.0253460176
 10
19.7080843347
 20
-8.0066718618
 10
19.719824092
 20
-7.9877578441
 10
19.7307065065
 20
-7.9686172055
 10
19.7407239598
 20
-7.9492633457
 10
19.7498694391
 20
-7.9297098135
 10
19.7581365418
 20
-7.9099702978
 10
19.7655194806
 20
-7.8900586173
 10
19.7720130869
 20
-7.8699887116
 10
19.7776128147
 20
-7.8497746309
  0
LWPOLYLINE
  5
3B5
100
AcDbEntity
  8
ASSI
100
AcDbPolyline
 62
250
  6
CONTINUOUS
 90
25
 70
0
 10
9.5972098409
 20
15.9125962644
 10
9.6180949409
 20
15.9145914084
 10
9.6388551114
 20
15.9169011669
 10
9.6594903523
 20
15.9195255398
 10
9.6800157373
 20
15.9224668691
 10
9.7004161927
 20
15.9257228128
 10
9.7206464973
 20
15.929286345
 10
9.7407055267
 20
15.9331580507
 10
9.7605944053
 20
15.9373373448
 10
9.780271285
 20
15.9418154464
 10
9.7997356761
 20
15.9465929807
 10
9.8189880685
 20
15.9516693226
 10
9.8379880831
 20
15.9570338154
 10
9.8567351537
 20
15.9626870504
 10
9.8752298466
 20
15.9686284364
 10
9.8934334822
 20
15.9748455433
 10
9.911345505
 20
15.9813389738
 10
9.9289664706
 20
15.9881081253
 10
9.9462593664
 20
15.9951387594
 10
9.9632242056
 20
16.0024318322
 10
9.9798609749
 20
16.0099863878
 10
9.9961326223
 20
16.0177853202
 10
10.0120267969
 20
16.0258229274
 10
10.0275558495
 20
16.0341049115
 10
10.0427197801
 20
16.0426312724
  0
LWPOLYLINE
  5
3B6
100
AcDbEntity
  8
ASSI
100
AcDbPolyline
 62
250
  6
CONTINUOUS
 90
10
 70
0
 10
2.1165134719
 20
15.3679792484
 10
2.9500350617
 20
15.4177074037
 10
3.7829801414
 20
15.4701322728
 10
4.615348711
 20
15.5252538556
 10
5.4471497919
 20
15.5830728216
 10
6.2783743626
 20
15.6435885013
 10
7.1089953593
 20
15.7067988863
 10
7.9390037605
 20
15.7727033071
 10
8.7684085878
 20
15.8413024331
 10
9.5972098409
 20
15.9125962644
  0
LWPOLYLINE
  5
3B7
100
AcDbEntity
  8
0
100
AcDbPolyline
 62
7
  6
CONTINUOUS
 90
3
 70
0
 10
-12.1295123275
 20
18.3568646505
 10
-12.2275767905
 20
18.3527288898
 10
-12.3273529363
 20
18.3424858616
  0
LINE
  5
3B8
100
AcDbEntity
  8
0
100
AcDbLine
 62
250
  6
CONTINUOUS
 10
-11.6018955106
 20
18.2739976921
 11
-11.4771529068
 21
18.2529665263
  0
LWPOLYLINE
  5
3B9
100
AcDbEntity
  8
0
100
AcDbPolyline
 62
7
  6
CONTINUOUS
 90
5
 70
0
 10
-11.4800334896
 20
18.2636210551
 10
-11.6934728869
 20
18.3036925163
 10
-11.9190900937
 20
18.315635605
 10
-12.1540410867
 20
18.298643528
 10
-12.2771237207
 20
18.2787114608
  0
LINE
  5
3BA
100
AcDbEntity
  8
0
100
AcDbLine
 62
250
  6
CONTINUOUS
 10
-11.4771529068
 20
18.2529665263
 11
-11.3575357353
 21
18.2213749795
  0
LINE
  5
3BB
100
AcDbEntity
  8
0
100
AcDbLine
 62
7
  6
CONTINUOUS
 10
20.541452067
 20
5.50415507
 11
20.5222795574
 21
5.5152250368
  0
LINE
  5
3BC
100
AcDbEntity
  8
0
100
AcDbLine
 62
7
  6
CONTINUOUS
 10
20.6106166576
 20
5.5458752209
 11
20.5929902355
 21
5.5560524961
  0
LWPOLYLINE
  5
3BD
100
AcDbEntity
  8
ASSI
100
AcDbPolyline
 62
250
  6
CONTINUOUS
 90
43
 70
0
 10
10.0427197801
 20
16.0426312724
 10
10.0557927445
 20
16.0348039377
 10
10.0688478292
 20
16.0264289706
 10
10.0818671789
 20
16.0175178252
 10
10.0948329871
 20
16.0080826894
 10
10.1077275209
 20
15.9981364674
 10
10.1205331444
 20
15.9876927626
 10
10.1332323436
 20
15.9767658586
 10
10.14580775
 20
15.9653707
 10
10.1582421643
 20
15.9535228719
 10
10.1705185802
 20
15.9412385783
 10
10.1826202073
 20
15.9285346204
 10
10.1945304944
 20
15.9154283732
 10
10.2062331521
 20
15.9019377618
 10
10.2177121746
 20
15.8880812373
 10
10.2289518624
 20
15.8738777511
 10
10.239936843
 20
15.8593467289
 10
10.2506520924
 20
15.8445080448
 10
10.2610829556
 20
15.8293819935
 10
10.2712151663
 20
15.8139892625
 10
10.2810348668
 20
15.7983509044
 10
10.290528627
 20
15.7824883074
 10
10.2996834623
 20
15.7664231668
 10
10.3084868517
 20
15.7501774546
 10
10.316926755
 20
15.7337733897
 10
10.3249916291
 20
15.7172334079
 10
10.3326704436
 20
15.7005801307
 10
10.3399526965
 20
15.6838363344
 10
10.3468284278
 20
15.6670249195
 10
10.3532882337
 20
15.6501688786
 10
10.3593232792
 20
15.6332912655
 10
10.3649253103
 20
15.6164151635
 10
10.3700866652
 20
15.5995636539
 10
10.3748002846
 20
15.5827597842
 10
10.379059722
 20
15.5660265369
 10
10.3828591516
 20
15.5493867977
 10
10.3861933771
 20
15.5328633247
 10
10.3890578383
 20
15.5164787168
 10
10.3914486174
 20
15.500255383
 10
10.3933624448
 20
15.4842155117
 10
10.3947967028
 20
15.4683810405
 10
10.3957494298
 20
15.4527736259
 10
10.3962193228
 20
15.437414614
  0
LWPOLYLINE
  5
3BE
100
AcDbEntity
  8
COPY-PUBBLISH
100
AcDbPolyline
 62
7
  6
CONTINUOUS
 90
13
 70
0
 10
12.4353923814
 20
21.3462865153
 10
12.4421478598
 20
21.3276076252
 10
12.4508537748
 20
21.3085163146
 10
12.4615101265
 20
21.2890125835
 10
12.4743631599
 20
21.2687525608
 10
12.4891666298
 20
21.2480801176
 10
12.5051818012
 20
21.2280268675
 10
12.5224701642
 20
21.2086242328
 10
12.5409702287
 20
21.1898407911
 10
12.5597587889
 20
21.1726138897
 10
12.5785281095
 20
21.1572559775
 10
12.5975859259
 20
21.1434546054
 10
12.6169322379
 20
21.1312097736
  0
LWPOLYLINE
  5
3BF
100
AcDbEntity
  8
COPY-PUBBLISH
100
AcDbPolyline
 62
7
  6
CONTINUOUS
 90
8
 70
0
 10
13.1537688308
 20
19.443023256
 10
13.1605243092
 20
19.4243443659
 10
13.1692302243
 20
19.4052530553
 10
13.179886576
 20
19.3857493243
 10
13.1927396093
 20
19.3654893015
 10
13.2075430793
 20
19.3448168583
 10
13.2235582507
 20
19.3247636082
 10
13.2237239385
 20
19.3245776577
  0
LWPOLYLINE
  5
3C0
100
AcDbEntity
  8
0
100
AcDbPolyline
 62
250
  6
CONTINUOUS
 90
5
 70
0
 10
11.6388746211
 20
19.4760979409
 10
11.6447739763
 20
19.4594780586
 10
11.6664350233
 20
19.4206812442
 10
11.6975146648
 20
19.3863954257
 10
11.7370723491
 20
19.3576509996
  0
LWPOLYLINE
  5
3C1
100
AcDbEntity
  8
0
100
AcDbPolyline
 62
250
  6
CONTINUOUS
 90
7
 70
0
 10
9.3955328744
 20
27.3720564188
 10
9.398865287
 20
27.3617832945
 10
9.4103407234
 20
27.3361424359
 10
9.4257989795
 20
27.3121540599
 10
9.4450483453
 20
27.2901156547
 10
9.4678523859
 20
27.2702927994
 10
9.4939294646
 20
27.252927579
  0
LINE
  5
3C2
100
AcDbEntity
  8
COPY-PUBBLISH
100
AcDbLine
 62
7
  6
CONTINUOUS
 10
11.1079223266
 20
20.5140114833
 11
11.3732052248
 21
19.631761957
  0
LINE
  5
3C3
100
AcDbEntity
  8
COPY-PUBBLISH
100
AcDbLine
 62
7
  6
CONTINUOUS
 10
10.7876549665
 20
22.0649588625
 11
11.2445805216
 21
20.545364658
  0
LINE
  5
3C4
100
AcDbEntity
  8
0
100
AcDbLine
 62
7
  6
CONTINUOUS
 10
11.9121439977
 20
18.5672878378
 11
11.6388746211
 21
19.4760979409
  0
LINE
  5
3C5
100
AcDbEntity
  8
0
100
AcDbLine
 62
250
  6
CONTINUOUS
 10
11.9654681773
 20
18.5980765508
 11
11.7368511678
 21
19.3583865808
  0
LINE
  5
3C6
100
AcDbEntity
  8
0
100
AcDbLine
 62
7
  6
CONTINUOUS
 10
9.2888119834
 20
27.5354871579
 11
10.537512902
 21
23.3826910236
  0
LINE
  5
3C7
100
AcDbEntity
  8
0
100
AcDbLine
 62
7
  6
CONTINUOUS
 10
10.7383808848
 20
26.6985242416
 11
12.9953038904
 21
19.1926907847
  0
LINE
  5
3C8
100
AcDbEntity
  8
0
100
AcDbLine
 62
7
  6
CONTINUOUS
 10
10.844446902
 20
26.6372830526
 11
12.4353923814
 21
21.3462865153
  0
LINE
  5
3C9
100
AcDbEntity
  8
COPY-PUBBLISH
100
AcDbLine
 62
7
  6
CONTINUOUS
 10
13.1537688308
 20
19.443023256
 11
12.652287577
 21
21.1107960439
  0
LINE
  5
3CA
100
AcDbEntity
  8
0
100
AcDbLine
 62
7
  6
CONTINUOUS
 10
11.3868933002
 20
27.1357782505
 11
12.9778387796
 21
21.8447817132
  0
LINE
  5
3CB
100
AcDbEntity
  8
COPY-PUBBLISH
100
AcDbLine
 62
7
  6
CONTINUOUS
 10
13.696215229
 20
19.9415184539
 11
13.1947339752
 21
21.6092912419
  0
LINE
  5
3CC
100
AcDbEntity
  8
0
100
AcDbLine
 62
7
  6
CONTINUOUS
 10
11.6379270121
 20
19.4793613385
 11
11.6388746211
 21
19.4760979409
  0
LWPOLYLINE
  5
3CD
100
AcDbEntity
  8
0
100
AcDbPolyline
 62
7
  6
CONTINUOUS
 90
6
 70
0
 10
9.3954080935
 20
27.3724863675
 10
9.5911081623
 20
26.6940686009
 10
9.8252492204
 20
25.8793417466
 10
10.0682460257
 20
25.0305693426
 10
10.3215500237
 20
24.142534998
 10
10.5835770619
 20
23.2206188443
  0
LINE
  5
3CE
100
AcDbEntity
  8
0
100
AcDbLine
 62
250
  6
CONTINUOUS
 10
9.7366961171
 20
26.4108698052
 11
9.493889339
 21
27.2530787576
  0
LINE
  5
3CF
100
AcDbEntity
  8
0
100
AcDbLine
 62
250
  6
CONTINUOUS
 10
9.9689156814
 20
25.6023578385
 11
9.7366961171
 21
26.4108698052
  0
LINE
  5
3D0
100
AcDbEntity
  8
0
100
AcDbLine
 62
250
  6
CONTINUOUS
 10
10.2976031238
 20
24.452731836
 11
9.9689156814
 21
25.6023578385
  0
LINE
  5
3D1
100
AcDbEntity
  8
0
100
AcDbLine
 62
250
  6
CONTINUOUS
 10
10.6032822871
 20
23.3787019242
 11
10.2976031238
 21
24.452731836
  0
LINE
  5
3D2
100
AcDbEntity
  8
0
100
AcDbLine
 62
7
  6
CONTINUOUS
 10
10.5835770619
 20
23.2206188443
 11
10.920185736
 21
22.0312934376
  0
LINE
  5
3D3
100
AcDbEntity
  8
0
100
AcDbLine
 62
7
  6
CONTINUOUS
 10
10.920185736
 20
22.0312934376
 11
11.1185785293
 21
21.3284233084
  0
LINE
  5
3D4
100
AcDbEntity
  8
0
100
AcDbLine
 62
7
  6
CONTINUOUS
 10
11.1185785293
 20
21.3284233084
 11
11.3914534655
 21
20.358410092
  0
LINE
  5
3D5
100
AcDbEntity
  8
0
100
AcDbLine
 62
250
  6
CONTINUOUS
 10
11.386258639
 20
20.607902955
 11
10.6032822871
 21
23.3787019242
  0
LINE
  5
3D6
100
AcDbEntity
  8
0
100
AcDbLine
 62
7
  6
CONTINUOUS
 10
11.3914534655
 20
20.358410092
 11
11.6379548922
 21
19.4792898274
  0
LINE
  5
3D7
100
AcDbEntity
  8
0
100
AcDbLine
 62
250
  6
CONTINUOUS
 10
11.736853121
 20
19.3583880422
 11
11.386258639
 21
20.607902955
  0
LINE
  5
3D8
100
AcDbEntity
  8
0
100
AcDbLine
 62
250
  6
CONTINUOUS
 10
12.3109354006
 20
19.8503511191
 11
12.5642846623
 21
18.9438256843
  0
LINE
  5
3D9
100
AcDbEntity
  8
0
100
AcDbLine
 62
250
  6
CONTINUOUS
 10
12.0012390272
 20
20.9624443085
 11
12.3109354006
 21
19.8503511191
  0
LINE
  5
3DA
100
AcDbEntity
  8
0
100
AcDbLine
 62
250
  6
CONTINUOUS
 10
11.7752344856
 20
21.776793924
 11
12.0012390272
 21
20.9624443085
  0
LINE
  5
3DB
100
AcDbEntity
  8
0
100
AcDbLine
 62
250
  6
CONTINUOUS
 10
11.407449416
 20
23.1074397625
 11
11.7752344856
 21
21.776793924
  0
LWPOLYLINE
  5
3DC
100
AcDbEntity
  8
0
100
AcDbPolyline
 62
250
  6
CONTINUOUS
 90
5
 70
0
 10
10.7201086601
 20
25.6147287639
 10
10.8647439037
 20
25.0845070175
 10
11.0058769018
 20
24.5686072117
 10
11.1434546576
 20
24.0670681539
 10
11.407449416
 20
23.1074397625
  0
LINE
  5
3DD
100
AcDbEntity
  8
0
100
AcDbLine
 62
250
  6
CONTINUOUS
 10
10.4201724461
 20
26.7182545006
 11
10.7201086601
 21
25.6147287639
  0
LINE
  5
3DE
100
AcDbEntity
  8
0
100
AcDbLine
 62
7
  6
CONTINUOUS
 10
9.3743896607
 20
27.4499575511
 11
9.3955328744
 21
27.3720564188
  0
LINE
  5
3DF
100
AcDbEntity
  8
0
100
AcDbLine
 62
250
  6
CONTINUOUS
 10
9.4938841895
 20
27.2530817308
 11
9.4566816946
 21
27.3996144541
  0
LWPOLYLINE
  5
3E0
100
AcDbEntity
  8
0
100
AcDbPolyline
 62
7
  6
CONTINUOUS
 90
7
 70
0
 10
9.2888119834
 20
27.5354871579
 10
9.2388044036
 20
27.7411608008
 10
9.2068793443
 20
27.9577660053
 10
9.1930368052
 20
28.1853027716
 10
9.1974488073
 20
28.4256930144
 10
9.2199433297
 20
28.6770148189
 10
9.2600043103
 20
28.9335024404
  0
LWPOLYLINE
  5
3E1
100
AcDbEntity
  8
0
100
AcDbPolyline
 62
7
  6
CONTINUOUS
 90
19
 70
0
 10
10.844446902
 20
26.6372830526
 10
10.7944393222
 20
26.8429566955
 10
10.7625142629
 20
27.0595619
 10
10.7486717239
 20
27.2870986662
 10
10.7530837259
 20
27.5274889091
 10
10.7755782483
 20
27.7788107136
 10
10.8156392289
 20
28.0352983351
 10
10.8736727774
 20
28.2970711995
 10
10.9492727841
 20
28.5640098809
 10
11.0407048578
 20
28.8299903572
 10
11.1483350116
 20
29.0949904762
 10
11.2717972324
 20
29.3590323902
 10
11.4082590893
 20
29.6160585338
 10
11.5580211139
 20
29.865906713
 10
11.7207827747
 20
30.1087391219
 10
11.8928100454
 20
30.3389847766
 10
12.0728582507
 20
30.5547866827
 10
12.262172066
 20
30.7580018348
 10
12.4607514913
 20
30.9486302327
  0
LWPOLYLINE
  5
3E2
100
AcDbEntity
  8
0
100
AcDbPolyline
 62
7
  6
CONTINUOUS
 90
18
 70
0
 10
11.3868933002
 20
27.1357782505
 10
11.3489380149
 20
27.2918826216
 10
11.3247071935
 20
27.4562839458
 10
11.3142008358
 20
27.6289822231
 10
11.3175495041
 20
27.8114361689
 10
11.3346226362
 20
28.0021870677
 10
11.3650285458
 20
28.1968587734
 10
11.4090754663
 20
28.3955419289
 10
11.4664551642
 20
28.5981458912
 10
11.5358512529
 20
28.8000225848
 10
11.6175415329
 20
29.0011551965
 10
11.7112482037
 20
29.2015605394
 10
11.8148214766
 20
29.3966409783
 10
11.9284894525
 20
29.5862734093
 10
12.0520240306
 20
29.7705809362
 10
12.18259112
 20
29.9453352346
 10
12.3192460238
 20
30.1091268628
 10
12.4629334388
 20
30.2633652624
  0
LINE
  5
3E3
100
AcDbEntity
  8
0
100
AcDbLine
 62
7
  6
CONTINUOUS
 10
9.3314018506
 20
27.6575189168
 11
9.3743896607
 21
27.4499575511
  0
LINE
  5
3E4
100
AcDbEntity
  8
ASSI
100
AcDbLine
 62
7
  6
CONTINUOUS
 10
21.9974955675
 20
11.7646307422
 11
21.9998214804
 21
11.6590431642
  0
LINE
  5
3E5
100
AcDbEntity
  8
ASSI
100
AcDbLine
 62
7
  6
CONTINUOUS
 10
21.6665506784
 20
27.2823526698
 11
21.9983239496
 21
11.7646575027
  0
LINE
  5
3E6
100
AcDbEntity
  8
ASSI
100
AcDbLine
 62
250
  6
CONTINUOUS
 10
21.8897565233
 20
10.337796453
 11
21.5596206391
 21
25.877011185
  0
LINE
  5
3E7
100
AcDbEntity
  8
0
100
AcDbLine
 62
250
  6
CONTINUOUS
 10
20.5359248078
 20
6.6640149786
 11
20.2472451868
 21
21.1252734856
  0
LINE
  5
3E8
100
AcDbEntity
  8
ASSI
100
AcDbLine
 62
250
  6
CONTINUOUS
 10
20.9247011518
 20
5.9316719616
 11
20.6132158741
 21
21.5432752505
  0
LWPOLYLINE
  5
3E9
100
AcDbEntity
  8
ASSI
100
AcDbPolyline
 62
250
  6
CONTINUOUS
 90
34
 70
0
 10
20.2218866436
 20
-8.5723569309
 10
20.2207843873
 20
-8.5038022162
 10
20.2191592023
 20
-8.4375473953
 10
20.2169803752
 20
-8.3737200069
 10
20.2142374959
 20
-8.3123113134
 10
20.2109188629
 20
-8.2533296422
 10
20.2069904621
 20
-8.1969280575
 10
20.2024406429
 20
-8.1431041521
 10
20.1972561184
 20
-8.0918596797
 10
20.1913989062
 20
-8.0433538533
 10
20.1848560964
 20
-7.9975827512
 10
20.177612435
 20
-7.954549355
 10
20.1696245957
 20
-7.9144231206
 10
20.1608772308
 20
-7.8771962837
 10
20.1513537455
 20
-7.842875327
 10
20.1410068811
 20
-7.8116509359
 10
20.1298188614
 20
-7.7835168758
 10
20.1177714977
 20
-7.7584776865
 10
20.1048148003
 20
-7.7367400402
 10
20.0909305982
 20
-7.7182997628
 10
20.0760970005
 20
-7.7031588447
 10
20.0602560152
 20
-7.6915329942
 10
20.0433890591
 20
-7.6834128732
 10
20.0254697455
 20
-7.6788050578
 10
20.0064250105
 20
-7.6779488616
 10
19.9862311227
 20
-7.6808300564
 10
19.9648602604
 20
-7.6874593931
 10
19.9422289319
 20
-7.6981133115
 10
19.9183086713
 20
-7.7127752418
 10
19.8930689257
 20
-7.7314573965
 10
19.8664183998
 20
-7.754478963
 10
19.8383035097
 20
-7.781944469
 10
19.8087104378
 20
-7.8137439281
 10
19.7776045624
 20
-7.8498744051
  0
LINE
  5
3EA
100
AcDbEntity
  8
0
100
AcDbLine
 62
7
  6
CONTINUOUS
 10
20.6106166576
 20
5.5458752209
 11
20.5929902355
 21
6.6991108836
  0
LINE
  5
3EB
100
AcDbEntity
  8
ASSI
100
AcDbLine
 62
7
  6
CONTINUOUS
 10
21.9983241315
 20
11.764648994
 11
21.9999944929
 21
11.6160050377
  0
LINE
  5
3EC
100
AcDbEntity
  8
ASSI
100
AcDbLine
 62
7
  6
CONTINUOUS
 10
21.9998214804
 20
11.6590431642
 11
22.0000000735
 21
11.6078421825
  0
LWPOLYLINE
  5
3ED
100
AcDbEntity
  8
ASSI
100
AcDbPolyline
 62
250
  6
CONTINUOUS
 90
3
 70
0
 10
20.2225747037
 20
-8.7162813668
 10
20.2224824814
 20
-8.6431690949
 10
20.2218866436
 20
-8.5723569309
  0
LINE
  5
3EE
100
AcDbEntity
  8
0
100
AcDbLine
 62
7
  6
CONTINUOUS
 10
20.4869242183
 20
5.4948113071
 11
20.4869242183
 21
5.0034906025
  0
LINE
  5
3EF
100
AcDbEntity
  8
0
100
AcDbLine
 62
7
  6
CONTINUOUS
 10
20.5929902355
 20
6.6991108836
 11
20.5929902355
 21
5.5560524961
  0
LINE
  5
3F0
100
AcDbEntity
  8
ASSI
100
AcDbLine
 62
7
  6
CONTINUOUS
 10
22.0000000735
 20
11.6078602403
 11
21.9949047884
 21
10.5100859253
  0
LINE
  5
3F1
100
AcDbEntity
  8
ASSI
100
AcDbLine
 62
250
  6
CONTINUOUS
 10
20.2221725846
 20
-8.7916938134
 11
20.2225747037
 21
-8.7162813668
  0
LWPOLYLINE
  5
3F2
100
AcDbEntity
  8
ASSI
100
AcDbPolyline
 62
7
  6
CONTINUOUS
 90
8
 70
0
 10
21.9999944929
 20
11.6160050377
 10
21.9979184054
 20
11.4331215173
 10
21.9912792257
 20
11.250267664
 10
21.9800797444
 20
11.0674471955
 10
21.964327027
 20
10.8847780467
 10
21.9440234286
 20
10.7022995291
 10
21.919166594
 20
10.5199723312
 10
21.8897565233
 20
10.337796453
  0
LWPOLYLINE
  5
3F3
100
AcDbEntity
  8
ASSI
100
AcDbPolyline
 62
7
  6
CONTINUOUS
 90
5
 70
0
 10
21.9949006187
 20
10.5100502015
 10
21.9944776762
 20
10.476913894
 10
21.993518345
 20
10.4312211222
 10
21.9920811352
 20
10.3801517471
 10
21.9901610612
 20
10.3236755956
  0
LINE
  5
3F4
100
AcDbEntity
  8
ASSI
100
AcDbLine
 62
7
  6
CONTINUOUS
 10
21.9980417827
 20
11.4385083489
 11
21.9896307183
 21
11.2179581407
  0
LINE
  5
3F5
100
AcDbEntity
  8
ASSI
100
AcDbLine
 62
7
  6
CONTINUOUS
 10
21.9901610612
 20
10.3236755956
 11
21.9876658084
 21
10.2608488941
  0
LINE
  5
3F6
100
AcDbEntity
  8
ASSI
100
AcDbLine
 62
7
  6
CONTINUOUS
 10
21.9876658084
 20
10.2608488941
 11
21.9809522283
 21
10.1162188453
  0
LINE
  5
3F7
100
AcDbEntity
  8
ASSI
100
AcDbLine
 62
7
  6
CONTINUOUS
 10
21.9809522283
 20
10.1162188453
 11
21.9716219311
 21
9.9430527569
  0
LINE
  5
3F8
100
AcDbEntity
  8
ASSI
100
AcDbLine
 62
7
  6
CONTINUOUS
 10
21.9716219311
 20
9.9430527569
 11
21.9594491396
 21
9.7390682304
  0
LINE
  5
3F9
100
AcDbEntity
  8
0
100
AcDbLine
 62
7
  6
CONTINUOUS
 10
20.541452067
 20
5.50415507
 11
20.5100473887
 21
5.0088705449
  0
LINE
  5
3FA
100
AcDbEntity
  8
ASSI
100
AcDbLine
 62
7
  6
CONTINUOUS
 10
21.9594491396
 20
9.7390682304
 11
21.9440874343
 21
9.5006844355
  0
LINE
  5
3FB
100
AcDbEntity
  8
ASSI
100
AcDbLine
 62
7
  6
CONTINUOUS
 10
21.9896307183
 20
11.2179581407
 11
21.9745958961
 21
10.9975918872
  0
LINE
  5
3FC
100
AcDbEntity
  8
ASSI
100
AcDbLine
 62
7
  6
CONTINUOUS
 10
21.9440874343
 20
9.5006844355
 11
21.9251273399
 21
9.223651809
  0
LINE
  5
3FD
100
AcDbEntity
  8
ASSI
100
AcDbLine
 62
7
  6
CONTINUOUS
 10
21.9251273399
 20
9.223651809
 11
21.9022695167
 21
8.9047836774
  0
LINE
  5
3FE
100
AcDbEntity
  8
ASSI
100
AcDbLine
 62
7
  6
CONTINUOUS
 10
21.9022695167
 20
8.9047836774
 11
21.8750196647
 21
8.538732389
  0
LINE
  5
3FF
100
AcDbEntity
  8
ASSI
100
AcDbLine
 62
7
  6
CONTINUOUS
 10
21.8750196647
 20
8.538732389
 11
21.8427896375
 21
8.1192784121
  0
LINE
  5
400
100
AcDbEntity
  8
ASSI
100
AcDbLine
 62
7
  6
CONTINUOUS
 10
21.8427896375
 20
8.1192784121
 11
21.8053311038
 21
7.643934709
  0
LINE
  5
401
100
AcDbEntity
  8
ASSI
100
AcDbLine
 62
7
  6
CONTINUOUS
 10
21.8053311038
 20
7.643934709
 11
21.7623688368
 21
7.1103711911
  0
LINE
  5
402
100
AcDbEntity
  8
ASSI
100
AcDbLine
 62
7
  6
CONTINUOUS
 10
21.7623688368
 20
7.1103711911
 11
21.7141429812
 21
6.5221584357
  0
LINE
  5
403
100
AcDbEntity
  8
ASSI
100
AcDbLine
 62
250
  6
CONTINUOUS
 10
19.4121144857
 20
-8.2682608409
 11
20.5595772852
 21
5.5146203439
  0
LINE
  5
404
100
AcDbEntity
  8
ASSI
100
AcDbLine
 62
250
  6
CONTINUOUS
 10
19.7776045624
 20
-7.8498744051
 11
20.9245497706
 21
5.9310992208
  0
LINE
  5
405
100
AcDbEntity
  8
ASSI
100
AcDbLine
 62
7
  6
CONTINUOUS
 10
21.7141429812
 20
6.5221584357
 11
21.6608635144
 21
5.8818797864
  0
LINE
  5
406
100
AcDbEntity
  8
ASSI
100
AcDbLine
 62
7
  6
CONTINUOUS
 10
21.6608635144
 20
5.8818797864
 11
21.6028997726
 21
5.1942185946
  0
LINE
  5
407
100
AcDbEntity
  8
ASSI
100
AcDbLine
 62
7
  6
CONTINUOUS
 10
21.6028997726
 20
5.1942185946
 11
21.540879578
 21
4.4665706059
  0
LINE
  5
408
100
AcDbEntity
  8
ASSI
100
AcDbLine
 62
7
  6
CONTINUOUS
 10
21.540879578
 20
4.4665706059
 11
21.4753025009
 21
3.7046895242
  0
LINE
  5
409
100
AcDbEntity
  8
ASSI
100
AcDbLine
 62
7
  6
CONTINUOUS
 10
21.4753025009
 20
3.7046895242
 11
21.4070077385
 21
2.9184888744
  0
LINE
  5
40A
100
AcDbEntity
  8
ASSI
100
AcDbLine
 62
7
  6
CONTINUOUS
 10
21.4070077385
 20
2.9184888744
 11
21.3370560932
 21
2.1201776725
  0
LINE
  5
40B
100
AcDbEntity
  8
ASSI
100
AcDbLine
 62
7
  6
CONTINUOUS
 10
21.3370560932
 20
2.1201776725
 11
21.266185397
 21
1.3183551875
  0
LINE
  5
40C
100
AcDbEntity
  8
ASSI
100
AcDbLine
 62
7
  6
CONTINUOUS
 10
21.266185397
 20
1.3183551875
 11
21.1955632607
 21
0.526507482
  0
LINE
  5
40D
100
AcDbEntity
  8
ASSI
100
AcDbLine
 62
7
  6
CONTINUOUS
 10
21.1955632607
 20
0.526507482
 11
21.1267265038
 21
-0.238280307
  0
LINE
  5
40E
100
AcDbEntity
  8
ASSI
100
AcDbLine
 62
7
  6
CONTINUOUS
 10
21.1267265038
 20
-0.238280307
 11
21.0604988243
 21
-0.9667986977
  0
LINE
  5
40F
100
AcDbEntity
  8
ASSI
100
AcDbLine
 62
7
  6
CONTINUOUS
 10
21.0604988243
 20
-0.9667986977
 11
20.9981409129
 21
-1.6456390227
  0
LINE
  5
410
100
AcDbEntity
  8
ASSI
100
AcDbLine
 62
7
  6
CONTINUOUS
 10
20.9981409129
 20
-1.6456390227
 11
20.9396334568
 21
-2.2757574661
  0
LINE
  5
411
100
AcDbEntity
  8
ASSI
100
AcDbLine
 62
7
  6
CONTINUOUS
 10
20.9396334568
 20
-2.2757574661
 11
20.884916399
 21
-2.8581882367
  0
LINE
  5
412
100
AcDbEntity
  8
ASSI
100
AcDbLine
 62
7
  6
CONTINUOUS
 10
20.884916399
 20
-2.8581882367
 11
20.8336249971
 21
-3.3976067119
  0
LINE
  5
413
100
AcDbEntity
  8
ASSI
100
AcDbLine
 62
7
  6
CONTINUOUS
 10
20.8336249971
 20
-3.3976067119
 11
20.7855189204
 21
-3.8971625418
  0
LINE
  5
414
100
AcDbEntity
  8
ASSI
100
AcDbLine
 62
7
  6
CONTINUOUS
 10
20.7855189204
 20
-3.8971625418
 11
20.7404572526
 21
-4.3587482375
  0
LINE
  5
415
100
AcDbEntity
  8
ASSI
100
AcDbLine
 62
7
  6
CONTINUOUS
 10
21.9745958961
 20
10.9975918872
 11
21.9529398523
 21
10.7774760378
  0
LINE
  5
416
100
AcDbEntity
  8
ASSI
100
AcDbLine
 62
7
  6
CONTINUOUS
 10
20.7404572526
 20
-4.3587482375
 11
20.6982777419
 21
-4.7847230344
  0
LINE
  5
417
100
AcDbEntity
  8
ASSI
100
AcDbLine
 62
7
  6
CONTINUOUS
 10
20.6982777419
 20
-4.7847230344
 11
20.6588013637
 21
-5.1775377417
  0
LINE
  5
418
100
AcDbEntity
  8
ASSI
100
AcDbLine
 62
7
  6
CONTINUOUS
 10
20.6588013637
 20
-5.1775377417
 11
20.6219187201
 21
-5.5387478431
  0
LINE
  5
419
100
AcDbEntity
  8
ASSI
100
AcDbLine
 62
7
  6
CONTINUOUS
 10
20.6219187201
 20
-5.5387478431
 11
20.5874697765
 21
-5.8706116878
  0
LINE
  5
41A
100
AcDbEntity
  8
ASSI
100
AcDbLine
 62
7
  6
CONTINUOUS
 10
20.5874697765
 20
-5.8706116878
 11
20.5553178878
 21
-6.1750927259
  0
LINE
  5
41B
100
AcDbEntity
  8
ASSI
100
AcDbLine
 62
7
  6
CONTINUOUS
 10
20.5553178878
 20
-6.1750927259
 11
20.5253795273
 21
-6.453466641
  0
LINE
  5
41C
100
AcDbEntity
  8
ASSI
100
AcDbLine
 62
7
  6
CONTINUOUS
 10
20.5253795273
 20
-6.453466641
 11
20.4975345359
 21
-6.7075357164
  0
LINE
  5
41D
100
AcDbEntity
  8
ASSI
100
AcDbLine
 62
7
  6
CONTINUOUS
 10
20.4975345359
 20
-6.7075357164
 11
20.471654449
 21
-6.9391217086
  0
LINE
  5
41E
100
AcDbEntity
  8
ASSI
100
AcDbLine
 62
7
  6
CONTINUOUS
 10
20.471654449
 20
-6.9391217086
 11
20.447645803
 21
-7.1495354225
  0
LINE
  5
41F
100
AcDbEntity
  8
ASSI
100
AcDbLine
 62
7
  6
CONTINUOUS
 10
20.447645803
 20
-7.1495354225
 11
20.4253421793
 21
-7.3408834365
  0
LINE
  5
420
100
AcDbEntity
  8
ASSI
100
AcDbLine
 62
7
  6
CONTINUOUS
 10
20.4253421793
 20
-7.3408834365
 11
20.4045576112
 21
-7.5153022285
  0
LINE
  5
421
100
AcDbEntity
  8
ASSI
100
AcDbLine
 62
7
  6
CONTINUOUS
 10
20.4045576112
 20
-7.5153022285
 11
20.3759578168
 21
-7.7483453704
  0
LINE
  5
422
100
AcDbEntity
  8
ASSI
100
AcDbLine
 62
7
  6
CONTINUOUS
 10
21.9529398523
 20
10.7774760378
 11
21.9246600507
 21
10.5575441432
  0
LINE
  5
423
100
AcDbEntity
  8
ASSI
100
AcDbLine
 62
7
  6
CONTINUOUS
 10
20.3759578168
 20
-7.7483453704
 11
20.3500260547
 21
-7.9518157793
  0
LINE
  5
424
100
AcDbEntity
  8
ASSI
100
AcDbLine
 62
7
  6
CONTINUOUS
 10
20.3500260547
 20
-7.9518157793
 11
20.3263967777
 21
-8.1297560051
  0
LINE
  5
425
100
AcDbEntity
  8
ASSI
100
AcDbLine
 62
7
  6
CONTINUOUS
 10
20.3263967777
 20
-8.1297560051
 11
20.3047593207
 21
-8.2854964477
  0
LINE
  5
426
100
AcDbEntity
  8
ASSI
100
AcDbLine
 62
7
  6
CONTINUOUS
 10
20.3047593207
 20
-8.2854964477
 11
20.2912958185
 21
-8.3784365884
  0
LINE
  5
427
100
AcDbEntity
  8
ASSI
100
AcDbLine
 62
7
  6
CONTINUOUS
 10
20.2912958185
 20
-8.3784365884
 11
20.2784949567
 21
-8.4636531616
  0
LINE
  5
428
100
AcDbEntity
  8
ASSI
100
AcDbLine
 62
7
  6
CONTINUOUS
 10
20.2784949567
 20
-8.4636531616
 11
20.2662777036
 21
-8.5418067078
  0
LINE
  5
429
100
AcDbEntity
  8
ASSI
100
AcDbLine
 62
7
  6
CONTINUOUS
 10
21.9246600507
 20
10.5575441432
 11
21.8897564912
 21
10.3377962034
  0
LINE
  5
42A
100
AcDbEntity
  8
ASSI
100
AcDbLine
 62
7
  6
CONTINUOUS
 10
20.2662777036
 20
-8.5418067078
 11
20.2545956867
 21
-8.6132873991
  0
LWPOLYLINE
  5
42B
100
AcDbEntity
  8
ASSI
100
AcDbPolyline
 62
250
  6
CONTINUOUS
 90
3
 70
0
 10
20.1903674388
 20
-8.9779359692
 10
20.2021416547
 20
-8.9073081073
 10
20.2129265888
 20
-8.8391986376
  0
LINE
  5
42C
100
AcDbEntity
  8
ASSI
100
AcDbLine
 62
7
  6
CONTINUOUS
 10
20.2545956867
 20
-8.6132873991
 11
20.2453042742
 21
-8.667648306
  0
LINE
  5
42D
100
AcDbEntity
  8
ASSI
100
AcDbLine
 62
7
  6
CONTINUOUS
 10
20.2453042742
 20
-8.667648306
 11
20.1760316065
 21
-9.0600805507
  0
LINE
  5
42E
100
AcDbEntity
  8
ASSI
100
AcDbLine
 62
250
  6
CONTINUOUS
 10
20.1760314341
 20
-9.0600815176
 11
20.1776322403
 21
-9.0510824442
  0
LINE
  5
42F
100
AcDbEntity
  8
ASSI
100
AcDbLine
 62
7
  6
CONTINUOUS
 10
21.8018542564
 20
9.8467986788
 11
21.9010273594
 21
10.4013214093
  0
LINE
  5
430
100
AcDbEntity
  8
ASSI
100
AcDbLine
 62
7
  6
CONTINUOUS
 10
20.1706417759
 20
-9.0901001066
 11
20.1760314341
 21
-9.0600815176
  0
LWPOLYLINE
  5
431
100
AcDbEntity
  8
ASSI
100
AcDbPolyline
 62
7
  6
CONTINUOUS
 90
3
 70
0
 10
20.2379332349
 20
-8.7090253305
 10
20.2325796359
 20
-8.7380335531
 10
20.2273261237
 20
-8.7655896892
  0
LWPOLYLINE
  5
432
100
AcDbEntity
  8
ASSI
100
AcDbPolyline
 62
7
  6
CONTINUOUS
 90
28
 70
0
 10
21.9010273594
 20
10.4013214093
 10
21.9117449073
 20
10.4591274119
 10
21.9168953558
 20
10.4858854641
 10
21.9219166635
 20
10.5112220263
 10
21.9268103033
 20
10.5351589887
 10
21.9315739554
 20
10.5576743003
 10
21.9362102998
 20
10.578709699
 10
21.9407208052
 20
10.5982894917
 10
21.945102716
 20
10.6163892021
 10
21.9493519452
 20
10.6328773861
 10
21.9534700417
 20
10.6477819865
 10
21.9574536945
 20
10.6610748671
 10
21.9612910751
 20
10.6725404435
 10
21.9649844194
 20
10.6822116116
 10
21.9685291972
 20
10.6900552394
 10
21.9719029979
 20
10.6957566625
 10
21.975107996
 20
10.6993494633
 10
21.9781392365
 20
10.7007997561
 10
21.9809632603
 20
10.6996916178
 10
21.9835818217
 20
10.6960630844
 10
21.9859899905
 20
10.6898757238
 10
21.988143967
 20
10.6805988323
 10
21.9900463553
 20
10.6682791438
 10
21.9916909226
 20
10.6528694043
 10
21.9930203177
 20
10.6336978233
 10
21.9940375678
 20
10.6108026147
 10
21.9947355686
 20
10.5841448799
 10
21.9950417064
 20
10.5529370304
  0
LWPOLYLINE
  5
433
100
AcDbEntity
  8
ASSI
100
AcDbPolyline
 62
7
  6
CONTINUOUS
 90
6
 70
0
 10
21.8018542564
 20
9.8467986788
 10
21.7091134286
 20
9.3561293712
 10
21.6115340078
 20
8.8657882806
 10
21.5091121886
 20
8.3757581869
 10
21.4018517763
 20
7.8860563102
 10
21.2897641873
 20
7.3967343109
  0
LWPOLYLINE
  5
434
100
AcDbEntity
  8
ASSI
100
AcDbPolyline
 62
250
  6
CONTINUOUS
 90
11
 70
0
 10
19.638265644
 20
-10.3190488068
 10
19.6549567188
 20
-10.2311965589
 10
19.6708081186
 20
-10.1457417058
 10
19.685801748
 20
-10.0626836792
 10
19.6999004494
 20
-9.9820465293
 10
19.713089111
 20
-9.903819411
 10
19.7253497429
 20
-9.8280028836
 10
19.7366390763
 20
-9.7546357345
 10
19.7469304036
 20
-9.6837254575
 10
19.7562149607
 20
-9.6152497248
 10
19.7644753048
 20
-9.5492009113
  0
LINE
  5
435
100
AcDbEntity
  8
ASSI
100
AcDbLine
 62
7
  6
CONTINUOUS
 10
20.2129265888
 20
-8.8391986376
 11
20.2173929435
 21
-8.8158892198
  0
LINE
  5
436
100
AcDbEntity
  8
ASSI
100
AcDbLine
 62
250
  6
CONTINUOUS
 10
19.6024370863
 20
-10.5019502308
 11
19.638265644
 21
-10.3190488068
  0
LINE
  5
437
100
AcDbEntity
  8
ASSI
100
AcDbLine
 62
7
  6
CONTINUOUS
 10
20.2173929435
 20
-8.8158892198
 11
20.2210627461
 21
-8.7972341579
  0
LINE
  5
438
100
AcDbEntity
  8
ASSI
100
AcDbLine
 62
7
  6
CONTINUOUS
 10
20.2210627461
 20
-8.7972341579
 11
20.2273261237
 21
-8.7655896892
  0
LINE
  5
439
100
AcDbEntity
  8
ASSI
100
AcDbLine
 62
250
  6
CONTINUOUS
 10
19.5634976107
 20
-10.6944006992
 11
19.6024370863
 21
-10.5019502308
  0
LWPOLYLINE
  5
43A
100
AcDbEntity
  8
ASSI
100
AcDbPolyline
 62
7
  6
CONTINUOUS
 90
25
 70
0
 10
20.2129264092
 20
-8.8391995593
 10
20.2058367123
 20
-8.873666508
 10
20.1976520833
 20
-8.9079117608
 10
20.1883796218
 20
-8.9419061156
 10
20.1780273252
 20
-8.9756208557
 10
20.1666041864
 20
-9.0090270191
 10
20.1541201746
 20
-9.0420954298
 10
20.1405860495
 20
-9.0747980416
 10
20.1260134938
 20
-9.1071070122
 10
20.1104151925
 20
-9.1389939848
 10
20.0938045685
 20
-9.170431981
 10
20.0761959255
 20
-9.2013943181
 10
20.0576045523
 20
-9.231853705
 10
20.0380464245
 20
-9.2617844527
 10
20.0175383582
 20
-9.2911612338
 10
19.9960981241
 20
-9.3199580244
 10
19.9737441253
 20
-9.3481506269
 10
19.9504955586
 20
-9.3757152619
 10
19.9263725372
 20
-9.402627353
 10
19.9013957548
 20
-9.4288643049
 10
19.8755866322
 20
-9.4544041442
 10
19.8489674483
 20
-9.479224135
 10
19.8215610674
 20
-9.5033030886
 10
19.7933909303
 20
-9.5266213727
 10
19.7644811797
 20
-9.5491595659
  0
LINE
  5
43B
100
AcDbEntity
  8
ASSI
100
AcDbLine
 62
250
  6
CONTINUOUS
 10
19.5215738175
 20
-10.8964596517
 11
19.5634976107
 21
-10.6944006992
  0
LINE
  5
43C
100
AcDbEntity
  8
ASSI
100
AcDbLine
 62
250
  6
CONTINUOUS
 10
19.4768095852
 20
-11.1080875557
 11
19.5215738175
 21
-10.8964596517
  0
LWPOLYLINE
  5
43D
100
AcDbEntity
  8
ASSI
100
AcDbPolyline
 62
7
  6
CONTINUOUS
 90
4
 70
0
 10
19.092536365
 20
-14.1309486366
 10
19.3922007857
 20
-12.7408155302
 10
19.4869812956
 20
-12.3032512762
 10
19.579363547
 20
-11.8785574674
  0
LINE
  5
43E
100
AcDbEntity
  8
ASSI
100
AcDbLine
 62
250
  6
CONTINUOUS
 10
19.4046769413
 20
-11.4430550195
 11
19.4768095852
 21
-11.1080875557
  0
LWPOLYLINE
  5
43F
100
AcDbEntity
  8
ASSI
100
AcDbPolyline
 62
7
  6
CONTINUOUS
 90
6
 70
0
 10
19.8385433494
 20
-10.6932309913
 10
19.9175142509
 20
-10.330101102
 10
19.9915940154
 20
-9.9848470325
 10
20.0605685669
 20
-9.6552062494
 10
20.1234881516
 20
-9.3411808057
 10
20.1706414436
 20
-9.0901020582
  0
LINE
  5
440
100
AcDbEntity
  8
ASSI
100
AcDbLine
 62
7
  6
CONTINUOUS
 10
19.579363547
 20
-11.8785574674
 11
19.8385433494
 21
-10.6932309913
  0
LINE
  5
441
100
AcDbEntity
  8
ASSI
100
AcDbLine
 62
250
  6
CONTINUOUS
 10
19.2998957211
 20
-11.9215148683
 11
19.4046769413
 21
-11.4430550195
  0
LINE
  5
442
100
AcDbEntity
  8
ASSI
100
AcDbLine
 62
250
  6
CONTINUOUS
 10
19.125753323
 20
-12.7057943283
 11
19.2998957211
 21
-11.9215148683
  0
LINE
  5
443
100
AcDbEntity
  8
ASSI
100
AcDbLine
 62
250
  6
CONTINUOUS
 10
18.933996629
 20
-13.5604235039
 11
19.125753323
 21
-12.7057943283
  0
LINE
  5
444
100
AcDbEntity
  8
ASSI
100
AcDbLine
 62
250
  6
CONTINUOUS
 10
18.7976958697
 20
-14.1620623156
 11
18.933996629
 21
-13.5604235039
  0
LINE
  5
445
100
AcDbEntity
  8
ASSI
100
AcDbLine
 62
250
  6
CONTINUOUS
 10
18.6913675491
 20
-14.6268121324
 11
18.7976958697
 21
-14.1620623156
  0
LINE
  5
446
100
AcDbEntity
  8
ASSI
100
AcDbLine
 62
250
  6
CONTINUOUS
 10
18.5814583596
 20
-15.101665623
 11
18.6913675491
 21
-14.6268121324
  0
LINE
  5
447
100
AcDbEntity
  8
ASSI
100
AcDbLine
 62
250
  6
CONTINUOUS
 10
18.5061851884
 20
-15.4229478963
 11
18.5814583596
 21
-15.101665623
  0
LINE
  5
448
100
AcDbEntity
  8
ASSI
100
AcDbLine
 62
250
  6
CONTINUOUS
 10
18.429243471
 20
-15.7474916725
 11
18.5061851884
 21
-15.4229478963
  0
LINE
  5
449
100
AcDbEntity
  8
ASSI
100
AcDbLine
 62
250
  6
CONTINUOUS
 10
18.3505363727
 20
-16.0749986591
 11
18.429243471
 21
-15.7474916725
  0
LWPOLYLINE
  5
44A
100
AcDbEntity
  8
ASSI
100
AcDbPolyline
 62
7
  6
CONTINUOUS
 90
10
 70
0
 10
17.9775312683
 20
-18.8992058806
 10
18.1322762289
 20
-18.3110660171
 10
18.2718110596
 20
-17.756236064
 10
18.4041483699
 20
-17.2096181968
 10
18.5301118831
 20
-16.6723451206
 10
18.6508306735
 20
-16.1436742519
 10
18.7668813779
 20
-15.6246947665
 10
18.8787525563
 20
-15.1164361961
 10
18.9872154862
 20
-14.6181554431
 10
19.092536365
 20
-14.1309486366
  0
LWPOLYLINE
  5
44B
100
AcDbEntity
  8
ASSI
100
AcDbPolyline
 62
7
  6
CONTINUOUS
 90
5
 70
0
 10
17.9780491852
 20
-18.8972859794
 10
17.8880042046
 20
-19.2291324812
 10
17.353726613
 20
-21.1223764042
 10
16.7995663481
 20
-22.9653731352
 10
16.2276389933
 20
-24.758091091
  0
LINE
  5
44C
100
AcDbEntity
  8
ASSI
100
AcDbLine
 62
250
  6
CONTINUOUS
 10
17.9003643892
 20
-19.1814912905
 11
17.9500776482
 21
-19.000492941
  0
LWPOLYLINE
  5
44D
100
AcDbEntity
  8
ASSI
100
AcDbPolyline
 62
250
  6
CONTINUOUS
 90
3
 70
0
 10
16.2276389933
 20
-24.758091091
 10
16.1896787929
 20
-24.8700861998
 10
16.1366020554
 20
-25.0159700474
  0
LWPOLYLINE
  5
44E
100
AcDbEntity
  8
ASSI
100
AcDbPolyline
 62
7
  6
CONTINUOUS
 90
48
 70
0
 10
16.2276389933
 20
-24.758091091
 10
16.067400337
 20
-25.2021294302
 10
15.877521761
 20
-25.6458548817
 10
15.6573126694
 20
-26.0881495296
 10
15.4058360096
 20
-26.5283843931
 10
15.1227713401
 20
-26.9648845517
 10
14.8086610003
 20
-27.3951493788
 10
14.462954059
 20
-27.8185818704
 10
14.0856568759
 20
-28.2339048374
 10
13.67881388
 20
-28.638067275
 10
13.2422921871
 20
-29.0307035284
 10
12.7765761596
 20
-29.4108684781
 10
12.2856415187
 20
-29.7752406318
 10
11.7708787611
 20
-30.1231156482
 10
11.2324576811
 20
-30.4546387766
 10
10.6734412336
 20
-30.768253318
 10
10.0953468832
 20
-31.0635896928
 10
9.4987314697
 20
-31.3407794168
 10
8.8857349848
 20
-31.5992229033
 10
8.257542295
 20
-31.8388332813
 10
7.6152429863
 20
-32.0595575255
 10
6.9611752989
 20
-32.2609703173
 10
6.2971379358
 20
-32.442944176
 10
5.6238040951
 20
-32.6056806925
 10
4.9420063252
 20
-32.7492834457
 10
4.2530290545
 20
-32.8737417788
 10
3.5579948085
 20
-32.9790850515
 10
2.8575433507
 20
-33.0653958019
 10
2.1526997051
 20
-33.1326741605
 10
1.4448113362
 20
-33.1808969096
 10
0.735033983
 20
-33.2100760203
 10
0.0247177551
 20
-33.2202327774
 10
-0.685119523
 20
-33.2114107461
 10
-1.3938118564
 20
-33.1836309031
 10
-2.1002473728
 20
-33.1369080758
 10
-2.8031894906
 20
-33.0712765699
 10
-3.5018025496
 20
-32.9867364155
 10
-4.1950859592
 20
-32.8832892115
 10
-4.8817014499
 20
-32.7609932532
 10
-5.5603658339
 20
-32.6199251514
 10
-6.2298764838
 20
-32.4601660709
 10
-6.8891561141
 20
-32.2817770381
 10
-7.5372098571
 20
-32.0847919528
 10
-8.1730135131
 20
-31.8692413426
 10
-8.7953472515
 20
-31.635220293
 10
-9.403055226
 20
-31.3828112058
 10
-9.9950650057
 20
-31.1120612497
 10
-10.5702757592
 20
-30.8230207746
  0
LWPOLYLINE
  5
44F
100
AcDbEntity
  8
ASSI
100
AcDbPolyline
 62
250
  6
CONTINUOUS
 90
21
 70
0
 10
19.4860549871
 20
-8.5055460652
 10
19.5001057649
 20
-8.4887083753
 10
19.5232031163
 20
-8.459685649
 10
19.5454444971
 20
-8.430000357
 10
19.5668093957
 20
-8.3996806567
 10
19.5872839616
 20
-8.3687453067
 10
19.6068492579
 20
-8.3372230174
 10
19.6254874836
 20
-8.3051438145
 10
19.6431859147
 20
-8.2725275691
 10
19.6599285916
 20
-8.2394043621
 10
19.6757006029
 20
-8.2058057867
 10
19.6904903458
 20
-8.1717529786
 10
19.7042849773
 20
-8.1372770001
 10
19.7170726449
 20
-8.1024106361
 10
19.7288429314
 20
-8.0671764208
 10
19.7395862488
 20
-8.0316057733
 10
19.7492938623
 20
-7.9957324105
 10
19.757956541
 20
-7.9595808919
 10
19.7655668112
 20
-7.9231807384
 10
19.7721201508
 20
-7.8865676008
 10
19.7776128147
 20
-7.8497746309
  0
LINE
  5
450
100
AcDbEntity
  8
ASSI
100
AcDbLine
 62
7
  6
CONTINUOUS
 10
19.4853200089
 20
-8.5064107539
 11
19.4860549871
 21
-8.5055460652
  0
LINE
  5
451
100
AcDbEntity
  8
ASSI
100
AcDbLine
 62
7
  6
CONTINUOUS
 10
5.5385082873
 20
-19.2964130825
 11
6.0390895814
 21
-19.0073900565
  0
LINE
  5
452
100
AcDbEntity
  8
ASSI
100
AcDbLine
 62
7
  6
CONTINUOUS
 10
8.6342284806
 20
-17.5511744582
 11
8.0516396681
 21
-17.8875539371
  0
LINE
  5
453
100
AcDbEntity
  8
ASSI
100
AcDbLine
 62
7
  6
CONTINUOUS
 10
6.0756263231
 20
-19.0284859133
 11
5.5510321968
 21
-19.331373351
  0
LINE
  5
454
100
AcDbEntity
  8
ASSI
100
AcDbLine
 62
7
  6
CONTINUOUS
 10
5.9528948762
 20
-19.5899506676
 11
5.2216189252
 21
-20.0121807529
  0
LINE
  5
455
100
AcDbEntity
  8
ASSI
100
AcDbLine
 62
7
  6
CONTINUOUS
 10
5.0552863182
 20
-20.7605841223
 11
5.7865697873
 21
-20.3383502123
  0
LINE
  5
456
100
AcDbEntity
  8
ASSI
100
AcDbLine
 62
7
  6
CONTINUOUS
 10
5.8223027067
 20
-20.3589819522
 11
5.0910194451
 21
-20.7812159819
  0
LINE
  5
457
100
AcDbEntity
  8
ASSI
100
AcDbLine
 62
7
  6
CONTINUOUS
 10
16.7524892535
 20
-14.6110513804
 11
16.151418791
 21
-14.9581019323
  0
LINE
  5
458
100
AcDbEntity
  8
ASSI
100
AcDbLine
 62
7
  6
CONTINUOUS
 10
14.822644941
 20
-15.7253192998
 11
14.2215744785
 21
-16.0723698517
  0
LINE
  5
459
100
AcDbEntity
  8
ASSI
100
AcDbLine
 62
7
  6
CONTINUOUS
 10
13.8208683793
 20
-16.3037325313
 11
13.2198049878
 21
-16.6507790004
  0
LINE
  5
45A
100
AcDbEntity
  8
ASSI
100
AcDbLine
 62
7
  6
CONTINUOUS
 10
12.6187642238
 20
-16.9978124047
 11
11.7101178679
 21
-17.5224534227
  0
LINE
  5
45B
100
AcDbEntity
  8
ASSI
100
AcDbLine
 62
7
  6
CONTINUOUS
 10
10.5876897974
 20
-18.1705293232
 11
9.6790434415
 21
-18.6951703411
  0
LINE
  5
45C
100
AcDbEntity
  8
ASSI
100
AcDbLine
 62
7
  6
CONTINUOUS
 10
8.3134327984
 20
-19.4836649005
 11
7.7123397085
 21
-19.8307285172
  0
LINE
  5
45D
100
AcDbEntity
  8
ASSI
100
AcDbLine
 62
7
  6
CONTINUOUS
 10
6.3467149886
 20
-20.6192231152
 11
4.9392279479
 21
-21.4318882787
  0
LWPOLYLINE
  5
45E
100
AcDbEntity
  8
ASSI
100
AcDbPolyline
 62
7
  6
CONTINUOUS
 90
10
 70
0
 10
5.0552864216
 20
-20.7605833656
 10
5.0421801996
 20
-20.7679169517
 10
5.0291886254
 20
-20.7747225653
 10
5.0163117826
 20
-20.7810002686
 10
5.0035322819
 20
-20.7867577717
 10
4.9908678463
 20
-20.7919876137
 10
4.9783713059
 20
-20.7966671593
 10
4.9660455813
 20
-20.800793748
 10
4.9538884047
 20
-20.8043705285
 10
4.9419448891
 20
-20.8073836286
  0
LWPOLYLINE
  5
45F
100
AcDbEntity
  8
ASSI
100
AcDbPolyline
 62
7
  6
CONTINUOUS
 90
23
 70
0
 10
5.0910193414
 20
-20.7812151056
 10
5.0779136642
 20
-20.7885485147
 10
5.0649228282
 20
-20.7953541076
 10
5.0520469172
 20
-20.8016319469
 10
5.0392685464
 20
-20.8073897434
 10
5.0266054353
 20
-20.8126200364
 10
5.0141104024
 20
-20.8173001897
 10
5.0017863699
 20
-20.8214275454
 10
4.9896310703
 20
-20.8250052515
 10
4.9776896041
 20
-20.8280194305
 10
4.9659615622
 20
-20.8304686648
 10
4.9544483027
 20
-20.832355084
 10
4.9431976194
 20
-20.8336701642
 10
4.9322132699
 20
-20.8344122045
 10
4.9214926918
 20
-20.8345838054
 10
4.9110742157
 20
-20.8341829084
 10
4.9009566052
 20
-20.8332076059
 10
4.8911425032
 20
-20.8316608685
 10
4.881676036
 20
-20.8295479387
 10
4.8725624768
 20
-20.826868298
 10
4.8637980764
 20
-20.8236236227
 10
4.8554133706
 20
-20.819822406
 10
4.8486579638
 20
-20.8161938011
  0
LWPOLYLINE
  5
460
100
AcDbEntity
  8
0
100
AcDbPolyline
 62
250
  6
CONTINUOUS
 90
10
 70
0
 10
10.7383808848
 20
26.6985242416
 10
10.7008032909
 20
26.6882306701
 10
10.6626934929
 20
26.6809992942
 10
10.624525097
 20
26.6769149
 10
10.5867740233
 20
26.6760181156
 10
10.5499079012
 20
26.6783199745
 10
10.5143803141
 20
26.6838020187
 10
10.4806314386
 20
26.6923964578
 10
10.4490825085
 20
26.7039868931
 10
10.4201259271
 20
26.7184249464
  0
LINE
  5
461
100
AcDbEntity
  8
0
100
AcDbLine
 62
7
  6
CONTINUOUS
 10
-12.2776332223
 20
18.278614388
 11
-12.2906833032
 21
18.2758748718
  0
LINE
  5
462
100
AcDbEntity
  8
0
100
AcDbLine
 62
7
  6
CONTINUOUS
 10
-12.2776332255
 20
18.2786143873
 11
-12.2771237207
 21
18.2787114608
  0
LINE
  5
463
100
AcDbEntity
  8
0
100
AcDbLine
 62
7
  6
CONTINUOUS
 10
-12.3273529363
 20
18.3424858616
 11
-12.4116550814
 21
18.3289320032
  0
LWPOLYLINE
  5
464
100
AcDbEntity
  8
0
100
AcDbPolyline
 62
250
  6
CONTINUOUS
 90
5
 70
0
 10
-12.1358009699
 20
18.2506976226
 10
-11.9979441145
 20
18.2723924104
 10
-11.8627337148
 20
18.2836435268
 10
-11.7306506102
 20
18.2842244156
 10
-11.6018955106
 20
18.2739976921
  0
LWPOLYLINE
  5
465
100
AcDbEntity
  8
0
100
AcDbPolyline
 62
250
  6
CONTINUOUS
 90
8
 70
0
 10
-12.2771237207
 20
18.2787114608
 10
-12.2587336139
 20
18.2812139227
 10
-12.2382287409
 20
18.281779738
 10
-12.2175483221
 20
18.2800546367
 10
-12.1968289333
 20
18.2760500114
 10
-12.1762074088
 20
18.269792309
 10
-12.1558199383
 20
18.2613228556
 10
-12.1358011649
 20
18.2506975848
  0
LWPOLYLINE
  5
466
100
AcDbEntity
  8
ASSI
100
AcDbPolyline
 62
250
  6
CONTINUOUS
 90
43
 70
0
 10
20.1189583748
 20
21.9877219993
 10
20.1372367878
 20
21.9858401866
 10
20.1554902018
 20
21.9834026098
 10
20.1736936516
 20
21.9804126028
 10
20.1918222407
 20
21.9768742549
 10
20.2098511749
 20
21.9727924055
 10
20.2277557962
 20
21.9681726373
 10
20.2455116167
 20
21.9630212687
 10
20.263094352
 20
21.9573453451
 10
20.2804799544
 20
21.9511526295
 10
20.2976446459
 20
21.9444515915
 10
20.3145649505
 20
21.937251396
 10
20.3312177266
 20
21.9295618907
 10
20.3475801984
 20
21.9213935924
 10
20.3636299872
 20
21.9127576727
 10
20.3793451418
 20
21.903665943
 10
20.3947041689
 20
21.8941308378
 10
20.4096860621
 20
21.8841653982
 10
20.4242703308
 20
21.8737832537
 10
20.4384370284
 20
21.862998604
 10
20.4521667793
 20
21.8518261989
 10
20.4654408054
 20
21.840281319
 10
20.4782409521
 20
21.8283797539
 10
20.4905497128
 20
21.8161377812
 10
20.5023502528
 20
21.8035721442
 10
20.5136264329
 20
21.7907000288
 10
20.5243628306
 20
21.7775390398
 10
20.534544762
 20
21.7641071775
 10
20.5441583014
 20
21.7504228124
 10
20.5531903004
 20
21.7365046605
 10
20.5616284062
 20
21.7223717574
 10
20.569461078
 20
21.7080434325
 10
20.5766776031
 20
21.6935392824
 10
20.5832681118
 20
21.6788791444
 10
20.58922359
 20
21.6640830688
 10
20.5945358928
 20
21.6491712922
 10
20.5991977545
 20
21.634164209
 10
20.603202799
 20
21.6190823444
 10
20.6065455489
 20
21.6039463255
 10
20.6092214322
 20
21.5887768538
 10
20.6112267891
 20
21.5735946762
 10
20.6125588771
 20
21.5584205573
 10
20.6132158741
 20
21.5432752505
  0
LWPOLYLINE
  5
467
100
AcDbEntity
  8
COPY-PUBBLISH
100
AcDbPolyline
 62
7
  6
CONTINUOUS
 90
8
 70
0
 10
11.1503806358
 20
19.4858222342
 10
11.1926347384
 20
19.4668157934
 10
11.2311670177
 20
19.4536935972
 10
11.2659774736
 20
19.4464556456
 10
11.2974796012
 20
19.4451703922
 10
11.3252599055
 20
19.4497693833
 10
11.3480779013
 20
19.4600472584
 10
11.3580907976
 20
19.4678517951
  0
LINE
  5
468
100
AcDbEntity
  8
COPY-PUBBLISH
100
AcDbLine
 62
7
  6
CONTINUOUS
 10
11.1503806358
 20
19.4858222342
 11
11.1015765381
 21
19.5105874702
  0
LWPOLYLINE
  5
469
100
AcDbEntity
  8
COPY-PUBBLISH
100
AcDbPolyline
 62
7
  6
CONTINUOUS
 90
7
 70
0
 10
11.1432776657
 20
20.4935977536
 10
11.1618420314
 20
20.4839534353
 10
11.1788639551
 20
20.4769228176
 10
11.1943434367
 20
20.4725059006
 10
11.208490139
 20
20.4707163943
 10
11.2210943992
 20
20.4715405887
 10
11.231527229
 20
20.4749373541
  0
LWPOLYLINE
  5
46A
100
AcDbEntity
  8
ASSI
100
AcDbPolyline
 62
250
  6
CONTINUOUS
 90
23
 70
0
 10
-19.8937454972
 20
33.3275711315
 10
-19.9068184602
 20
33.3348401277
 10
-19.9198735436
 20
33.3415408445
 10
-19.9328928921
 20
33.3476641174
 10
-19.9458586993
 20
33.3532015717
 10
-19.9587532321
 20
33.3581456339
 10
-19.9715588547
 20
33.3624895421
 10
-19.9842580531
 20
33.3662273551
 10
-19.9968334588
 20
33.3693539608
 10
-20.0092678725
 20
33.3718650829
 10
-20.0215442878
 20
33.3737572871
 10
-20.0336459146
 20
33.3750279852
 10
-20.0455562014
 20
33.3756754396
 10
-20.0572588589
 20
33.3756987645
 10
-20.0687378813
 20
33.3750979281
 10
-20.079977569
 20
33.3738737521
 10
-20.0909625497
 20
33.3720279109
 10
-20.1016777992
 20
33.3695629288
 10
-20.1121086626
 20
33.3664821774
 10
-20.1222408736
 20
33.36278987
 10
-20.1320605745
 20
33.3584910565
 10
-20.141554335
 20
33.3535916164
 10
-20.1437575773
 20
33.3523417203
  0
LINE
  5
46B
100
AcDbEntity
  8
ASSI
100
AcDbLine
 62
7
  6
CONTINUOUS
 10
-15.8050478392
 20
32.0023703767
 11
-13.7147595464
 21
30.795464114
  0
LINE
  5
46C
100
AcDbEntity
  8
ASSI
100
AcDbLine
 62
7
  6
CONTINUOUS
 10
11.5965512849
 20
18.3850685608
 11
9.0509668727
 21
19.8548570968
  0
LINE
  5
46D
100
AcDbEntity
  8
0
100
AcDbLine
 62
250
  6
CONTINUOUS
 10
11.1015765381
 20
18.7061653236
 11
11.6271239501
 21
18.4027208345
  0
LINE
  5
46E
100
AcDbEntity
  8
0
100
AcDbLine
 62
7
  6
CONTINUOUS
 10
12.509565053
 20
18.9122312677
 11
11.7368511678
 21
19.3583865808
  0
LINE
  5
46F
100
AcDbEntity
  8
COPY-PUBBLISH
100
AcDbLine
 62
7
  6
CONTINUOUS
 10
11.1432776657
 20
20.4935977536
 11
11.1079223266
 21
20.5140114833
  0
LINE
  5
470
100
AcDbEntity
  8
ASSI
100
AcDbLine
 62
7
  6
CONTINUOUS
 10
14.0553183199
 20
19.1671412181
 11
13.7147596934
 21
19.3637755008
  0
LINE
  5
471
100
AcDbEntity
  8
ASSI
100
AcDbLine
 62
7
  6
CONTINUOUS
 10
-9.8994948631
 20
32.9983501256
 11
-11.9897831559
 21
34.2052563884
  0
LINE
  5
472
100
AcDbEntity
  8
COPY-PUBBLISH
100
AcDbLine
 62
7
  6
CONTINUOUS
 10
13.8987415708
 20
19.7143243787
 11
13.8777550856
 21
19.7264417122
  0
LWPOLYLINE
  5
473
100
AcDbEntity
  8
COPY-PUBBLISH
100
AcDbPolyline
 62
7
  6
CONTINUOUS
 90
13
 70
0
 10
12.9778387796
 20
21.8447817132
 10
12.984594258
 20
21.8261028231
 10
12.9933001731
 20
21.8070115125
 10
13.0039565247
 20
21.7875077814
 10
13.0168095581
 20
21.7672477587
 10
13.031613028
 20
21.7465753155
 10
13.0476281994
 20
21.7265220654
 10
13.0649165625
 20
21.7071194307
 10
13.0834166269
 20
21.688335989
 10
13.1022051871
 20
21.6711090876
 10
13.1209745077
 20
21.6557511754
 10
13.1400323241
 20
21.6419498034
 10
13.1593786361
 20
21.6297049715
  0
LWPOLYLINE
  5
474
100
AcDbEntity
  8
COPY-PUBBLISH
100
AcDbPolyline
 62
7
  6
CONTINUOUS
 90
13
 70
0
 10
13.696215229
 20
19.9415184539
 10
13.7029707074
 20
19.9228395638
 10
13.7116766225
 20
19.9037482532
 10
13.7223329742
 20
19.8842445222
 10
13.7351860075
 20
19.8639844994
 10
13.7499894775
 20
19.8433120562
 10
13.7660046489
 20
19.8232588062
 10
13.7832930119
 20
19.8038561714
 10
13.8017930764
 20
19.7850727298
 10
13.8205816365
 20
19.7678458283
 10
13.8393509572
 20
19.7524879161
 10
13.8584087735
 20
19.7386865441
 10
13.8777550856
 20
19.7264417122
  0
LINE
  5
475
100
AcDbEntity
  8
0
100
AcDbLine
 62
250
  6
CONTINUOUS
 10
12.6136533651
 20
30.4080504333
 11
12.4607514913
 21
30.9486302327
  0
LWPOLYLINE
  5
476
100
AcDbEntity
  8
ASSI
100
AcDbPolyline
 62
250
  6
CONTINUOUS
 90
129
 70
0
 10
16.1366020554
 20
-25.0159700474
 10
16.0795866153
 20
-25.1613467635
 10
16.018637185
 20
-25.3062040454
 10
15.9537601386
 20
-25.4505224543
 10
15.8849768898
 20
-25.5942503239
 10
15.8123163217
 20
-25.7373272716
 10
15.7358054908
 20
-25.8797034881
 10
15.6554566262
 20
-26.0213595091
 10
15.5712781986
 20
-26.1622807633
 10
15.4832820221
 20
-26.3024453349
 10
15.3914964262
 20
-26.4418060541
 10
15.2959559074
 20
-26.580310752
 10
15.1966926383
 20
-26.7179149625
 10
15.0937243354
 20
-26.854596218
 10
14.9870654582
 20
-26.9903357196
 10
14.8767348598
 20
-27.1251084376
 10
14.7627655821
 20
-27.2588730081
 10
14.6451943771
 20
-27.3915864232
 10
14.5240559439
 20
-27.5232105734
 10
14.3993752263
 20
-27.6537193829
 10
14.2711758886
 20
-27.7830883518
 10
14.1394853786
 20
-27.9112894516
 10
14.0043393441
 20
-28.0382876572
 10
13.8657747311
 20
-28.1640483171
 10
13.7238275485
 20
-28.2885390906
 10
13.578530798
 20
-28.4117313671
 10
13.429918323
 20
-28.5335966163
 10
13.2780263032
 20
-28.6541052486
 10
13.1228920925
 20
-28.7732277051
 10
12.9645522906
 20
-28.8909359151
 10
12.8030442015
 20
-29.0072020837
 10
12.6384085679
 20
-29.1219968188
 10
12.4706883797
 20
-29.2352902199
 10
12.2999273089
 20
-29.3470530289
 10
12.1261647233
 20
-29.4572597176
 10
11.9494381677
 20
-29.5658864835
 10
11.7697873769
 20
-29.6729086757
 10
11.5872593236
 20
-29.7782980875
 10
11.40190346
 20
-29.8820261674
 10
11.2137686756
 20
-29.9840657777
 10
11.0228976339
 20
-30.0843939967
 10
10.8293314564
 20
-30.1829892013
 10
10.6331142485
 20
-30.279828712
 10
10.4342967851
 20
-30.3748872585
 10
10.2329310684
 20
-30.4681399188
 10
10.0290681922
 20
-30.5595630931
 10
9.8227561242
 20
-30.6491353313
 10
9.6140431531
 20
-30.7368356443
 10
9.4029802099
 20
-30.8226425637
 10
9.1896187889
 20
-30.9065350883
 10
8.974008744
 20
-30.9884935065
 10
8.7561999663
 20
-31.0684986522
 10
8.5362481517
 20
-31.1465298679
 10
8.3142127703
 20
-31.2225660155
 10
8.090154085
 20
-31.2965866326
 10
7.8641210156
 20
-31.3685757308
 10
7.636156612
 20
-31.438519452
 10
7.4063064712
 20
-31.5064032803
 10
7.1746361842
 20
-31.5722073224
 10
6.9412195846
 20
-31.6359105454
 10
6.7061278649
 20
-31.6974939765
 10
6.4694048017
 20
-31.7569466019
 10
6.2310836097
 20
-31.8142599094
 10
5.9912036897
 20
-31.8694235714
 10
5.7498415844
 20
-31.9224191393
 10
5.5070868641
 20
-31.9732268664
 10
5.2630208735
 20
-32.0218304513
 10
5.0176819006
 20
-32.0682229888
 10
4.7710954141
 20
-32.1123995355
 10
4.5232953097
 20
-32.1543529948
 10
4.2743676655
 20
-32.1940677739
 10
4.0244167328
 20
-32.2315272383
 10
3.7735317238
 20
-32.266719046
 10
3.5217465631
 20
-32.2996394624
 10
3.2690830238
 20
-32.3302856977
 10
3.015574532
 20
-32.3586527944
 10
2.7613108483
 20
-32.3847298082
 10
2.5063985267
 20
-32.4085059265
 10
2.2509292234
 20
-32.4299737372
 10
1.9949365226
 20
-32.4491315517
 10
1.7384401461
 20
-32.4659780343
 10
1.4814754518
 20
-32.4805100414
 10
1.2241322863
 20
-32.4927216719
 10
0.9665121845
 20
-32.5026081868
 10
0.7087029022
 20
-32.510167159
 10
0.4507427819
 20
-32.515398404
 10
0.1926593672
 20
-32.5183014862
 10
-0.0655059014
 20
-32.5188752897
 10
-0.3236683708
 20
-32.5171189765
 10
-0.5817357061
 20
-32.5130332132
 10
-0.8396269834
 20
-32.5066199587
 10
-1.0972971567
 20
-32.4978810107
 10
-1.354707745
 20
-32.4868177777
 10
-1.6118096356
 20
-32.4734319537
 10
-1.8685261645
 20
-32.4577271127
 10
-2.1247776431
 20
-32.4397081325
 10
-2.3804921109
 20
-32.4193804386
 10
-2.6356166149
 20
-32.3967486064
 10
-2.8901001894
 20
-32.3718172367
 10
-3.1438856526
 20
-32.3445917844
 10
-3.3969059697
 20
-32.3150792931
 10
-3.6490956031
 20
-32.283287382
 10
-3.9003922044
 20
-32.2492239488
 10
-4.1507351687
 20
-32.212897247
 10
-4.4000619535
 20
-32.1743163997
 10
-4.6483086006
 20
-32.1334914175
 10
-4.895417628
 20
-32.0904318676
 10
-5.141336512
 20
-32.0451468556
 10
-5.3860114702
 20
-31.997646026
 10
-5.6293762218
 20
-31.9479419861
 10
-5.8713600207
 20
-31.8960491915
 10
-6.111894892
 20
-31.8419825386
 10
-6.3509312703
 20
-31.7857534899
 10
-6.5884264486
 20
-31.7273720255
 10
-6.8243330505
 20
-31.6668493009
 10
-7.0585822672
 20
-31.604202475
 10
-7.2910998792
 20
-31.5394513555
 10
-7.5218173712
 20
-31.4726154622
 10
-7.750690617
 20
-31.403708021
 10
-7.9776825556
 20
-31.3327401077
 10
-8.2027495133
 20
-31.2597247515
 10
-8.4258239169
 20
-31.1846832436
 10
-8.6468335638
 20
-31.107639774
 10
-8.865713878
 20
-31.0286172779
 10
-9.0824225221
 20
-30.947631469
 10
-9.296921466
 20
-30.8646964991
 10
-9.5091658769
 20
-30.7798291954
 10
-9.7190955908
 20
-30.6930531021
 10
-9.9266502397
 20
-30.6043929969
  0
LWPOLYLINE
  5
477
100
AcDbEntity
  8
ASSI
100
AcDbPolyline
 62
250
  6
CONTINUOUS
 90
39
 70
0
 10
14.9966975288
 20
-25.7241435441
 10
15.1052154516
 20
-25.5751779021
 10
15.2119324429
 20
-25.4239438483
 10
15.3168762016
 20
-25.2704532113
 10
15.420157502
 20
-25.1145937083
 10
15.5217172894
 20
-24.9564988781
 10
15.6213413327
 20
-24.7965544121
 10
15.7190551508
 20
-24.6347909242
 10
15.8149133566
 20
-24.4712093434
 10
15.908768016
 20
-24.3061601746
 10
16.0006420676
 20
-24.1397035982
 10
16.0906108353
 20
-23.9718166509
 10
16.178619299
 20
-23.8027310369
 10
16.264715799
 20
-23.6324712302
 10
16.3489568851
 20
-23.4610507792
 10
16.4313080412
 20
-23.2886884494
 10
16.5118189774
 20
-23.1154125708
 10
16.5905495716
 20
-22.9412330884
 10
16.6674862705
 20
-22.7663437383
 10
16.7426757769
 20
-22.5907838376
 10
16.8161828127
 20
-22.4145517397
 10
16.8880235306
 20
-22.2377811368
 10
16.9582465512
 20
-22.0605057736
 10
17.0269124515
 20
-21.8827276466
 10
17.0940552032
 20
-21.704533141
 10
17.1597255423
 20
-21.5259446291
 10
17.2239773601
 20
-21.3469729315
 10
17.2868479609
 20
-21.167686917
 10
17.3483852413
 20
-20.9881092421
 10
17.408640906
 20
-20.8082480343
 10
17.4676560949
 20
-20.6281499864
 10
17.525477932
 20
-20.4478306133
 10
17.5821531975
 20
-20.2673027919
 10
17.6377205137
 20
-20.0866088096
 10
17.6922299621
 20
-19.9057438058
 10
17.7457196874
 20
-19.7247389121
 10
17.7982093702
 20
-19.5436903663
 10
17.849744714
 20
-19.3626000557
 10
17.9003643892
 20
-19.1814912905
  0
LWPOLYLINE
  5
478
100
AcDbEntity
  8
ASSI
100
AcDbPolyline
 62
250
  6
CONTINUOUS
 90
55
 70
0
 10
14.7078963374
 20
-25.0921520005
 10
14.8138001014
 20
-24.9521159226
 10
14.9180533752
 20
-24.8099376778
 10
15.0206806674
 20
-24.6656181111
 10
15.121786974
 20
-24.5190262607
 10
15.2213199595
 20
-24.3702957207
 10
15.3190675277
 20
-24.2198246719
 10
15.4150257973
 20
-24.0676274239
 10
15.5092524734
 20
-23.9136945037
 10
15.6016244551
 20
-23.7583889502
 10
15.6921321664
 20
-23.6017530703
 10
15.7808388432
 20
-23.4437517757
 10
15.8677269624
 20
-23.2846325036
 10
15.9528139265
 20
-23.1244040304
 10
16.0361360555
 20
-22.9630673179
 10
16.1177005333
 20
-22.8008585044
 10
16.1975232163
 20
-22.6377942881
 10
16.2756408355
 20
-22.4738702271
 10
16.3520878734
 20
-22.3092910647
 10
16.4268777121
 20
-22.1440861561
 10
16.5000478297
 20
-21.9782408459
 10
16.5716651686
 20
-21.8118941106
 10
16.6417487997
 20
-21.6450705485
 10
16.710329311
 20
-21.4777627141
 10
16.7774880135
 20
-21.3100617717
 10
16.8432491834
 20
-21.1419840139
 10
16.9076375493
 20
-20.9735328093
 10
16.9707327626
 20
-20.8047802044
 10
17.032558635
 20
-20.6357462834
 10
17.0931397807
 20
-20.4664331409
 10
17.1525552219
 20
-20.296886143
 10
17.2108323046
 20
-20.1271174679
 10
17.267992119
 20
-19.9571397693
 10
17.3241028309
 20
-19.786999464
 10
17.3791965338
 20
-19.6166904501
 10
17.4332896181
 20
-19.4462463691
 10
17.4864244434
 20
-19.2757733445
 10
17.5386251298
 20
-19.1052824276
 10
17.5899139677
 20
-18.9347922248
 10
17.6403272488
 20
-18.7644198995
 10
17.6898816348
 20
-18.594201065
 10
17.7386039641
 20
-18.424131457
 10
17.7865430757
 20
-18.2542682037
 10
17.8337174109
 20
-18.0846489381
 10
17.8801508579
 20
-17.9152694671
 10
17.9258996496
 20
-17.7461245468
 10
17.9709960689
 20
-17.577203311
 10
18.0154516532
 20
-17.4085531381
 10
18.0592904515
 20
-17.2402563715
 10
18.1025349687
 20
-17.0723282755
 10
18.1452043207
 20
-16.9047917864
 10
18.1873147893
 20
-16.7377402768
 10
18.2288862091
 20
-16.5711949275
 10
18.2699377593
 20
-16.4051740986
 10
18.3505363727
 20
-16.0749986591
  0
LWPOLYLINE
  5
479
100
AcDbEntity
  8
0
100
AcDbPolyline
 62
250
  6
CONTINUOUS
 90
10
 70
0
 10
10.8870780371
 20
31.6693911414
 10
10.8988925638
 20
31.6725165847
 10
10.9121177778
 20
31.6738853335
 10
10.9266661396
 20
31.6734883244
 10
10.9424413446
 20
31.6713281751
 10
10.9593389828
 20
31.667419185
 10
10.9772472284
 20
31.6617872381
 10
10.9960475523
 20
31.6544696088
 10
11.0156155062
 20
31.6455147179
 10
11.0358215687
 20
31.6349818286
  0
LWPOLYLINE
  5
47A
100
AcDbEntity
  8
ASSI
100
AcDbPolyline
 62
250
  6
CONTINUOUS
 90
40
 70
0
 10
-21.0622017982
 20
28.7510789479
 10
-21.080597117
 20
28.7518670923
 10
-21.0989672767
 20
28.7520958209
 10
-21.1172871528
 20
28.751764821
 10
-21.1355316894
 20
28.7508745452
 10
-21.1536759337
 20
28.7494262112
 10
-21.17169507
 20
28.7474217998
 10
-21.1895644539
 20
28.7448640524
 10
-21.2072596455
 20
28.7417564673
 10
-21.2247564435
 20
28.7381032945
 10
-21.2420309176
 20
28.7339095306
 10
-21.2590594419
 20
28.7291809113
 10
-21.2758187265
 20
28.7239239038
 10
-21.2922858501
 20
28.718145698
 10
-21.3084382908
 20
28.7118541968
 10
-21.3242539571
 20
28.705058005
 10
-21.3397112182
 20
28.6977664176
 10
-21.3547889333
 20
28.6899894072
 10
-21.3694664808
 20
28.6817376103
 10
-21.3837237865
 20
28.6730223128
 10
-21.3975413508
 20
28.6638554346
 10
-21.4109002756
 20
28.654249513
 10
-21.4237822901
 20
28.6442176858
 10
-21.4361697757
 20
28.6337736736
 10
-21.4480457903
 20
28.6229317605
 10
-21.4593940912
 20
28.6117067747
 10
-21.4701991573
 20
28.6001140686
 10
-21.4804462109
 20
28.5881694973
 10
-21.4901212371
 20
28.5758893973
 10
-21.4992110035
 20
28.563290564
 10
-21.5077030781
 20
28.5503902285
 10
-21.5155858466
 20
28.5372060344
 10
-21.5228485276
 20
28.5237560137
 10
-21.5294811882
 20
28.5100585618
 10
-21.5354747568
 20
28.4961324125
 10
-21.5408210363
 20
28.4819966123
 10
-21.5455127146
 20
28.4676704947
 10
-21.5495433749
 20
28.4531736532
 10
-21.5529075045
 20
28.4385259151
 10
-21.5547970875
 20
28.4285752562
  0
LWPOLYLINE
  5
47B
100
AcDbEntity
  8
ASSI
100
AcDbPolyline
 62
250
  6
CONTINUOUS
 90
43
 70
0
 10
21.0622019452
 20
26.3069823277
 10
21.0805972639
 20
26.3056358455
 10
21.0989674237
 20
26.303732867
 10
21.1172872997
 20
26.301275995
 10
21.1355318363
 20
26.2982685897
 10
21.1536760806
 20
26.2947147642
 10
21.171695217
 20
26.2906193791
 10
21.1895646008
 20
26.2859880356
 10
21.2072597925
 20
26.2808270679
 10
21.2247565905
 20
26.2751435345
 10
21.2420310646
 20
26.2689452089
 10
21.2590595888
 20
26.2622405683
 10
21.2758188735
 20
26.2550387825
 10
21.2922859971
 20
26.2473497015
 10
21.3084384378
 20
26.2391838414
 10
21.3242541041
 20
26.2305523706
 10
21.3397113652
 20
26.2214670942
 10
21.3547890802
 20
26.211940438
 10
21.3694666278
 20
26.2019854316
 10
21.3837239334
 20
26.1916156901
 10
21.3975414977
 20
26.1808453963
 10
21.4109004225
 20
26.1696892805
 10
21.4237824371
 20
26.1581626007
 10
21.4361699227
 20
26.1462811219
 10
21.4480459373
 20
26.1340610942
 10
21.4593942381
 20
26.1215192308
 10
21.4701993043
 20
26.1086726849
 10
21.4804463578
 20
26.0955390267
 10
21.490121384
 20
26.0821362189
 10
21.4992111504
 20
26.0684825923
 10
21.5077032251
 20
26.0545968208
 10
21.5155859935
 20
26.0404978959
 10
21.5228486746
 20
26.0262051003
 10
21.5294813351
 20
26.0117379823
 10
21.5354749038
 20
25.9971163282
 10
21.5408211833
 20
25.9823601359
 10
21.5455128616
 20
25.9674895873
 10
21.5495435218
 20
25.9525250207
 10
21.5529076514
 20
25.9374869028
 10
21.5556006493
 20
25.922395801
 10
21.5576188323
 20
25.9072723554
 10
21.55895944
 20
25.8921372501
 10
21.5596206391
 20
25.877011185
  0
LWPOLYLINE
  5
47C
100
AcDbEntity
  8
ASSI
100
AcDbPolyline
 62
7
  6
CONTINUOUS
 90
57
 70
0
 10
10.7673535663
 20
22.571753953
 10
10.6503384589
 20
22.6163893781
 10
10.4105131916
 20
22.7049995527
 10
10.1684502614
 20
22.7915898576
 10
9.9241654243
 20
22.8761565102
 10
9.6778391069
 20
22.9586372045
 10
9.4294885654
 20
23.039024622
 10
9.1790965435
 20
23.1173260813
 10
8.9267916989
 20
23.1935012318
 10
8.6725504462
 20
23.2675552535
 10
8.4163963708
 20
23.3394829664
 10
8.1585288858
 20
23.4092284807
 10
7.898972612
 20
23.4767836629
 10
7.6377029288
 20
23.5421566464
 10
7.374845387
 20
23.6053159419
 10
7.110370437
 20
23.6662667954
 10
6.8443076286
 20
23.7250039608
 10
6.5768711623
 20
23.7814802112
 10
6.3080909619
 20
23.8356877913
 10
6.0379371037
 20
23.8876344564
 10
5.7665340171
 20
23.937296244
 10
5.4938484544
 20
23.9846774619
 10
5.2199136634
 20
24.0297738023
 10
4.9449538166
 20
24.0725483808
 10
4.6690017254
 20
24.1129946716
 10
4.3920245786
 20
24.1511192004
 10
4.1141481145
 20
24.1869046599
 10
3.8353379515
 20
24.2203537731
 10
3.5556284713
 20
24.2514638171
 10
3.2752485573
 20
24.2802093156
 10
2.9942312475
 20
24.3065854521
 10
2.7125435039
 20
24.3305970431
 10
2.4303150958
 20
24.3522330616
 10
2.1475132574
 20
24.3714943813
 10
1.8641707544
 20
24.3883801284
 10
1.5805156528
 20
24.4028766544
 10
1.2965784243
 20
24.4149809437
 10
1.0123285972
 20
24.4246960119
 10
0.7279028223
 20
24.4320172573
 10
0.4432727701
 20
24.4369438347
 10
0.1584667701
 20
24.4394765893
 10
-0.1262935392
 20
24.4396134558
 10
-0.4109830604
 20
24.4373529131
 10
-0.695626891
 20
24.4326964823
 10
-0.9800786848
 20
24.4256466604
 10
-1.2643595621
 20
24.416201411
 10
-1.5484484026
 20
24.4043627706
 10
-1.832135499
 20
24.3901393455
 10
-2.1154038324
 20
24.3735304075
 10
-2.3982704217
 20
24.3545366848
 10
-2.6805766157
 20
24.3331689687
 10
-2.9623337195
 20
24.3094249519
 10
-3.2435304281
 20
24.2833069417
 10
-3.5239741744
 20
24.2548326519
 10
-3.8036007696
 20
24.2240079871
 10
-4.0824744026
 20
24.1908270427
 10
-4.3605950734
 20
24.1552898186
  0
LWPOLYLINE
  5
47D
100
AcDbEntity
  8
ASSI
100
AcDbPolyline
 62
7
  6
CONTINUOUS
 90
11
 70
0
 10
13.3287704975
 20
21.163526893
 10
13.4664158779
 20
21.0991363409
 10
13.6466725794
 20
21.0129072089
 10
13.8251899307
 20
20.9255854209
 10
14.0019739754
 20
20.8371641479
 10
14.1770346777
 20
20.7476363458
 10
14.3503620734
 20
20.6570090586
 10
14.5219323138
 20
20.5652965893
 10
14.6917575403
 20
20.4724925405
 10
14.8598256114
 20
20.3786033096
 10
14.9550498232
 20
20.3242235249
  0
LWPOLYLINE
  5
47E
100
AcDbEntity
  8
ASSI
100
AcDbPolyline
 62
250
  6
CONTINUOUS
 90
7
 70
0
 10
13.4802196893
 20
20.6598533484
 10
13.5471805956
 20
20.6276745657
 10
13.7713721142
 20
20.5168199892
 10
13.9927795198
 20
20.4041897251
 10
14.2113133847
 20
20.2898330847
 10
14.4269190408
 20
20.1737839706
 10
14.5635232198
 20
20.0981609711
  0
LWPOLYLINE
  5
47F
100
AcDbEntity
  8
COPY-PUBBLISH
100
AcDbPolyline
 62
7
  6
CONTINUOUS
 90
7
 70
0
 10
10.8230103055
 20
22.0445451328
 10
10.8415746713
 20
22.0349008144
 10
10.8585965949
 20
22.0278701967
 10
10.8740760765
 20
22.0234532798
 10
10.8882227788
 20
22.0216637735
 10
10.9008270391
 20
22.0224879678
 10
10.9112598688
 20
22.0258847333
  0
LINE
  5
480
100
AcDbEntity
  8
COPY-PUBBLISH
100
AcDbLine
 62
7
  6
CONTINUOUS
 10
10.8230103055
 20
22.0445451328
 11
10.7876549665
 21
22.0649588625
  0
LINE
  5
481
100
AcDbEntity
  8
COPY-PUBBLISH
100
AcDbLine
 62
7
  6
CONTINUOUS
 10
12.652287577
 20
21.1107960439
 11
12.6169322379
 21
21.1312097736
  0
LINE
  5
482
100
AcDbEntity
  8
COPY-PUBBLISH
100
AcDbLine
 62
7
  6
CONTINUOUS
 10
13.1947339752
 20
21.6092912419
 11
13.1593786361
 21
21.6297049715
  0
LINE
  5
483
100
AcDbEntity
  8
0
100
AcDbLine
 62
250
  6
CONTINUOUS
 10
10.4201724461
 20
26.7182545006
 11
9.493889339
 21
27.2530787576
  0
LINE
  5
484
100
AcDbEntity
  8
0
100
AcDbLine
 62
250
  6
CONTINUOUS
 10
9.2888119834
 20
27.5354871579
 11
9.3658932563
 21
27.490981397
  0
LINE
  5
485
100
AcDbEntity
  8
0
100
AcDbLine
 62
250
  6
CONTINUOUS
 10
10.7383808848
 20
26.6985242416
 11
10.844446902
 21
26.6372830526
  0
LWPOLYLINE
  5
486
100
AcDbEntity
  8
ASSI
100
AcDbPolyline
 62
7
  6
CONTINUOUS
 90
3
 70
0
 10
15.0291194874
 20
20.3669904207
 10
15.2095214384
 20
20.2397102833
 10
15.2193952029
 20
20.2325331864
  0
LWPOLYLINE
  5
487
100
AcDbEntity
  8
0
100
AcDbPolyline
 62
7
  6
CONTINUOUS
 90
5
 70
0
 10
11.6579520329
 20
31.9991387965
 10
11.6994041164
 20
32.0012507319
 10
11.8031620622
 20
32.0012199331
 10
11.9027400157
 20
31.9933990769
 10
11.9250370996
 20
31.9905551847
  0
LWPOLYLINE
  5
488
100
AcDbEntity
  8
ASSI
100
AcDbPolyline
 62
7
  6
CONTINUOUS
 90
16
 70
0
 10
11.7766967802
 20
32.1770896689
 10
11.8909979835
 20
32.1723588101
 10
12.0016476498
 20
32.1613557177
 10
12.1086457792
 20
32.144080392
 10
12.2130310121
 20
32.120222149
 10
12.3137647081
 20
32.0900916726
 10
12.4077309459
 20
32.054621014
 10
12.4947182227
 20
32.0136432783
 10
12.5749380413
 20
31.9673253604
 10
12.6459089891
 20
31.917099997
 10
12.7073420138
 20
31.8628450689
 10
12.7595261676
 20
31.8046826954
 10
12.8008471944
 20
31.7444119702
 10
12.8307670086
 20
31.6826325912
 10
12.8498236958
 20
31.6187448607
 10
12.8580172558
 20
31.5527487785
  0
LINE
  5
489
100
AcDbEntity
  8
0
100
AcDbLine
 62
250
  6
CONTINUOUS
 10
11.7768211321
 20
31.9215050025
 11
11.8411320834
 21
31.9182785384
  0
LWPOLYLINE
  5
48A
100
AcDbEntity
  8
ASSI
100
AcDbPolyline
 62
250
  6
CONTINUOUS
 90
38
 70
0
 10
-20.1189582278
 20
33.0703392762
 10
-20.1372366409
 20
33.0716627511
 10
-20.1554900548
 20
33.0724260781
 10
-20.1736935046
 20
33.0726282131
 10
-20.1918220937
 20
33.0722688798
 10
-20.2098510279
 20
33.0713485696
 10
-20.2277556492
 20
33.0698685412
 10
-20.2455114697
 20
33.0678308188
 10
-20.263094205
 20
33.0652381894
 10
-20.2804798074
 20
33.0620941988
 10
-20.2976444989
 20
33.0584031471
 10
-20.3145648036
 20
33.0541700824
 10
-20.3312175797
 20
33.0494007944
 10
-20.3475800515
 20
33.0441018058
 10
-20.3636298402
 20
33.038280364
 10
-20.3793449948
 20
33.0319444309
 10
-20.3947040219
 20
33.0251026722
 10
-20.4096859151
 20
33.0177644451
 10
-20.4242701838
 20
33.0099397861
 10
-20.4384368815
 20
33.0016393969
 10
-20.4521666323
 20
32.9928746298
 10
-20.4654406585
 20
32.9836574722
 10
-20.4782408052
 20
32.9740005304
 10
-20.4905495658
 20
32.963917012
 10
-20.5023501059
 20
32.9534207081
 10
-20.5136262859
 20
32.9425259744
 10
-20.5243626836
 20
32.9312477114
 10
-20.534544615
 20
32.9196013442
 10
-20.5441581544
 20
32.9076028016
 10
-20.5531901535
 20
32.8952684936
 10
-20.5616282592
 20
32.8826152899
 10
-20.569460931
 20
32.8696604959
 10
-20.5766774562
 20
32.8564218298
 10
-20.5832679648
 20
32.842917398
 10
-20.5892234431
 20
32.8291656703
 10
-20.5945357458
 20
32.8151854547
 10
-20.5991976075
 20
32.8009958718
 10
-20.6023785808
 20
32.7897936533
  0
LWPOLYLINE
  5
48B
100
AcDbEntity
  8
0
100
AcDbPolyline
 62
250
  6
CONTINUOUS
 90
7
 70
0
 10
11.8411320834
 20
31.9182785384
 10
11.9023609159
 20
31.9111157524
 10
11.9606315631
 20
31.9002103594
 10
12.0150795406
 20
31.8863118736
 10
12.0654146487
 20
31.8697162542
 10
12.1119201721
 20
31.8502688195
 10
12.1545947172
 20
31.8280050072
  0
LWPOLYLINE
  5
48C
100
AcDbEntity
  8
ASSI
100
AcDbPolyline
 62
250
  6
CONTINUOUS
 90
23
 70
0
 10
-10.0427196332
 20
39.0154300031
 10
-10.0557925975
 20
39.022699
 10
-10.0688476822
 20
39.0293997173
 10
-10.0818670319
 20
39.0355229906
 10
-10.0948328402
 20
39.0410604452
 10
-10.1077273739
 20
39.0460045076
 10
-10.1205329975
 20
39.0503484158
 10
-10.1332321967
 20
39.0540862287
 10
-10.145807603
 20
39.0572128342
 10
-10.1582420173
 20
39.0597239561
 10
-10.1705184332
 20
39.0616161598
 10
-10.1826200603
 20
39.0628868576
 10
-10.1945303475
 20
39.0635343114
 10
-10.2062330051
 20
39.0635576358
 10
-10.2177120277
 20
39.0629567988
 10
-10.2289517154
 20
39.0617326222
 10
-10.239936696
 20
39.0598867804
 10
-10.2506519455
 20
39.0574217977
 10
-10.2610828086
 20
39.0543410456
 10
-10.2712150193
 20
39.0506487376
 10
-10.2810347199
 20
39.0463499235
 10
-10.2905284801
 20
39.0414504829
 10
-10.2927317132
 20
39.0402005919
  0
LWPOLYLINE
  5
48D
100
AcDbEntity
  8
ASSI
100
AcDbPolyline
 62
250
  6
CONTINUOUS
 90
43
 70
0
 10
19.8937456441
 20
21.730490144
 10
19.9068186072
 20
21.7226628101
 10
19.9198736906
 20
21.7142878438
 10
19.9328930391
 20
21.7053766995
 10
19.9458588463
 20
21.6959415646
 10
19.958753379
 20
21.6859953437
 10
19.9715590017
 20
21.6755516398
 10
19.9842582001
 20
21.6646247368
 10
19.9968336057
 20
21.6532295793
 10
20.0092680194
 20
21.6413817522
 10
20.0215444348
 20
21.6290974596
 10
20.0336460615
 20
21.6163935026
 10
20.0455563484
 20
21.6032872562
 10
20.0572590058
 20
21.5897966456
 10
20.0687380283
 20
21.5759401219
 10
20.079977716
 20
21.5617366362
 10
20.0909626966
 20
21.5472056147
 10
20.1016779462
 20
21.5323669311
 10
20.1121088095
 20
21.5172408801
 10
20.1222410205
 20
21.5018481494
 10
20.1320607214
 20
21.4862097915
 10
20.141554482
 20
21.4703471947
 10
20.1507093177
 20
21.454282054
 10
20.1595127076
 20
21.4380363417
 10
20.1679526114
 20
21.4216322766
 10
20.176017486
 20
21.4050922945
 10
20.1836963012
 20
21.3884390169
 10
20.1909785546
 20
21.3716952202
 10
20.1978542865
 20
21.3548838047
 10
20.204314093
 20
21.3380277631
 10
20.2103491391
 20
21.3211501493
 10
20.2159511708
 20
21.3042740465
 10
20.2211125262
 20
21.287422536
 10
20.2258261461
 20
21.2706186654
 10
20.230085584
 20
21.2538854171
 10
20.233885014
 20
21.2372456769
 10
20.2372192399
 20
21.2207222028
 10
20.2400837014
 20
21.2043375938
 10
20.2424744809
 20
21.1881142589
 10
20.2443883085
 20
21.1720743865
 10
20.2458225667
 20
21.1562399142
 10
20.2467752938
 20
21.1406324985
 10
20.2472451868
 20
21.1252734856
  0
LWPOLYLINE
  5
48E
100
AcDbEntity
  8
0
100
AcDbPolyline
 62
250
  6
CONTINUOUS
 90
19
 70
0
 10
12.1545947172
 20
31.8280050072
 10
12.1933182727
 20
31.8032749439
 10
12.2276523158
 20
31.776066527
 10
12.2575982319
 20
31.7463445227
 10
12.2835216238
 20
31.7138879916
 10
12.3050637582
 20
31.6787774175
 10
12.3211423552
 20
31.6413918898
 10
12.3316891297
 20
31.6015273079
 10
12.3367967057
 20
31.5590999044
 10
12.3356303463
 20
31.5146394934
 10
12.3279825517
 20
31.4676961205
 10
12.3141218786
 20
31.4183146903
 10
12.2939315172
 20
31.3678099188
 10
12.267172743
 20
31.3160146873
 10
12.2341821767
 20
31.2627493661
 10
12.1956933074
 20
31.2094580794
 10
12.1519770047
 20
31.1566097267
 10
12.1028620702
 20
31.103592545
 10
12.0484088499
 20
31.0503260583
  0
LWPOLYLINE
  5
48F
100
AcDbEntity
  8
0
100
AcDbPolyline
 62
7
  6
CONTINUOUS
 90
16
 70
0
 10
12.3170303003
 20
31.864730121
 10
12.3796368013
 20
31.8242437681
 10
12.4334745183
 20
31.7801183315
 10
12.4785443264
 20
31.7322299601
 10
12.5154747214
 20
31.6799198957
 10
12.5436493765
 20
31.6233542253
 10
12.5612107783
 20
31.5635391937
 10
12.5678758672
 20
31.4998113387
 10
12.5640124485
 20
31.43191116
 10
12.5487614901
 20
31.3614649205
 10
12.521634846
 20
31.2876978212
 10
12.483354982
 20
31.2103619911
 10
12.4348763439
 20
31.1321958552
 10
12.3766028539
 20
31.0540565175
 10
12.3084387544
 20
30.974629141
 10
12.2305809214
 20
30.8936694141
  0
LWPOLYLINE
  5
490
100
AcDbEntity
  8
0
100
AcDbPolyline
 62
250
  6
CONTINUOUS
 90
10
 70
0
 10
12.2305809213
 20
30.8936694141
 10
12.2113872932
 20
30.914698842
 10
12.1916193065
 20
30.9351176393
 10
12.1714077999
 20
30.9547906597
 10
12.1508865478
 20
30.9735876944
 10
12.1301913751
 20
30.9913843306
 10
12.1094592581
 20
31.0080627752
 10
12.0888274174
 20
31.0235126387
 10
12.0684324098
 20
31.0376316649
 10
12.0484092247
 20
31.0503264055
  0
LWPOLYLINE
  5
491
100
AcDbEntity
  8
0
100
AcDbPolyline
 62
7
  6
CONTINUOUS
 90
6
 70
0
 10
11.9250370996
 20
31.9905551847
 10
11.9984758814
 20
31.9784198312
 10
12.0880130224
 20
31.957709646
 10
12.1705630483
 20
31.9319136427
 10
12.2469021798
 20
31.9008793266
 10
12.3170295411
 20
31.8647305593
  0
LWPOLYLINE
  5
492
100
AcDbEntity
  8
ASSI
100
AcDbPolyline
 62
7
  6
CONTINUOUS
 90
10
 70
0
 10
12.7117012869
 20
34.7054555857
 10
12.8649466045
 20
34.6309767395
 10
13.0168528186
 20
34.5556249852
 10
13.1674199293
 20
34.4794003229
 10
13.3166629765
 20
34.4022948229
 10
13.4645669203
 20
34.324316415
 10
13.61108664
 20
34.2454888875
 10
13.7562070956
 20
34.16582017
 10
13.8999433271
 20
34.0853023331
 10
14.0422953346
 20
34.0039353766
  0
LINE
  5
493
100
AcDbEntity
  8
0
100
AcDbLine
 62
250
  6
CONTINUOUS
 10
11.7766967802
 20
32.1770896689
 11
12.8580172558
 21
31.5527487785
  0
LWPOLYLINE
  5
494
100
AcDbEntity
  8
ASSI
100
AcDbPolyline
 62
7
  6
CONTINUOUS
 90
10
 70
0
 10
14.0422953346
 20
34.0039353766
 10
14.1832179578
 20
33.9217431116
 10
14.3226699576
 20
33.838751613
 10
14.460651334
 20
33.7549608807
 10
14.5971758206
 20
33.6703622309
 10
14.7322296838
 20
33.5849643474
 10
14.8657717232
 20
33.4987932824
 10
14.9977882056
 20
33.4118577197
 10
15.1282928642
 20
33.3241489755
 10
15.2572856991
 20
33.2356670497
  0
LWPOLYLINE
  5
495
100
AcDbEntity
  8
ASSI
100
AcDbPolyline
 62
250
  6
CONTINUOUS
 90
56
 70
0
 10
14.064292568
 20
35.2497486802
 10
14.269581686
 20
35.1294613555
 10
14.4719015933
 20
35.0073727987
 10
14.671203079
 20
34.8835064513
 10
14.8674532525
 20
34.7578759523
 10
15.0605876423
 20
34.6305156567
 10
15.2505128456
 20
34.5014819648
 10
15.4371842824
 20
34.3708012848
 10
15.6205579527
 20
34.2385004698
 10
15.8005471236
 20
34.1046395355
 10
15.9771102463
 20
33.9692483122
 10
16.1502093886
 20
33.8323547957
 10
16.3197691049
 20
33.6940188811
 10
16.4857411585
 20
33.5542820813
 10
16.6481040004
 20
33.4131647436
 10
16.8068255878
 20
33.2706963657
 10
16.9618660888
 20
33.1269145981
 10
17.1131999253
 20
32.9818451031
 10
17.2608159687
 20
32.835499206
 10
17.4046868327
 20
32.6879034223
 10
17.544775681
 20
32.5390948903
 10
17.6810564652
 20
32.3891006118
 10
17.8135029109
 20
32.2379482844
 10
17.9420812035
 20
32.0856752425
 10
18.0667555039
 20
31.9323234008
 10
18.1874973707
 20
31.7779278081
 10
18.3042818872
 20
31.6225203929
 10
18.4170807718
 20
31.4661389995
 10
18.5258681686
 20
31.3088200872
 10
18.6306224171
 20
31.1505956153
 10
18.7313229147
 20
30.9914970039
 10
18.8279480033
 20
30.8315585526
 10
18.9204765105
 20
30.6708153912
 10
19.0088894984
 20
30.5093003761
 10
19.0931681415
 20
30.3470476119
 10
19.1732934343
 20
30.1840933873
 10
19.2492474254
 20
30.0204740578
 10
19.3210135466
 20
29.8562252351
 10
19.3885761576
 20
29.6913826315
 10
19.4519202007
 20
29.5259829803
 10
19.5110318034
 20
29.3600626279
 10
19.5658982768
 20
29.1936573233
 10
19.6165077718
 20
29.02680308
 10
19.6628492826
 20
28.8595362462
 10
19.7049127577
 20
28.6918931709
 10
19.7426891323
 20
28.5239099999
 10
19.7761702004
 20
28.3556231668
 10
19.8053486425
 20
28.1870693974
 10
19.8302181009
 20
28.0182853726
 10
19.8507731618
 20
27.849307772
 10
19.8670093389
 20
27.6801734012
 10
19.8789230844
 20
27.5109191932
 10
19.8865118073
 20
27.3415820239
 10
19.8897738638
 20
27.1721986843
 10
19.8887085466
 20
27.0028060068
 10
19.887803075
 20
26.961920929
  0
LWPOLYLINE
  5
496
100
AcDbEntity
  8
ASSI
100
AcDbPolyline
 62
250
  6
CONTINUOUS
 90
25
 70
0
 10
-9.5972096939
 20
39.1454650112
 10
-9.618094794
 20
39.1434698671
 10
-9.6388549644
 20
39.1411601086
 10
-9.6594902053
 20
39.1385357357
 10
-9.6800155903
 20
39.1355944064
 10
-9.7004160458
 20
39.1323384627
 10
-9.7206463504
 20
39.1287749305
 10
-9.7407053797
 20
39.1249032248
 10
-9.7605942583
 20
39.1207239307
 10
-9.780271138
 20
39.1162458291
 10
-9.7997355292
 20
39.1114682948
 10
-9.8189879215
 20
39.1063919529
 10
-9.8379879362
 20
39.1010274601
 10
-9.8567350067
 20
39.0953742251
 10
-9.8752296996
 20
39.0894328391
 10
-9.8934333353
 20
39.0832157322
 10
-9.9113453581
 20
39.0767223017
 10
-9.9289663237
 20
39.0699531502
 10
-9.9462592194
 20
39.0629225161
 10
-9.9632240586
 20
39.0556294433
 10
-9.979860828
 20
39.0480748877
 10
-9.9961324753
 20
39.0402759554
 10
-10.0120266499
 20
39.0322383481
 10
-10.0275557025
 20
39.023956364
 10
-10.0427196332
 20
39.0154300031
  0
LWPOLYLINE
  5
497
100
AcDbEntity
  8
ASSI
100
AcDbPolyline
 62
7
  6
CONTINUOUS
 90
10
 70
0
 10
-9.6408522004
 20
39.2353214573
 10
-9.6579998301
 20
39.2337377728
 10
-9.750731728
 20
39.2223463802
 10
-9.8427637067
 20
39.2061498005
 10
-9.934114358
 20
39.1849321102
 10
-10.0240238191
 20
39.1586016058
 10
-10.1111832037
 20
39.127335024
 10
-10.1950436578
 20
39.0911797748
 10
-10.2755830038
 20
39.0499236844
 10
-10.2929314141
 20
39.040084993
  0
LWPOLYLINE
  5
498
100
AcDbEntity
  8
ASSI
100
AcDbPolyline
 62
7
  6
CONTINUOUS
 90
10
 70
0
 10
-9.6408819417
 20
39.2353189559
 10
-8.810529771
 20
39.3067469656
 10
-7.9794988909
 20
39.3754806818
 10
-7.1478154197
 20
39.4415179655
 10
-6.3155055033
 20
39.504856761
 10
-5.4825952924
 20
39.5654950979
 10
-4.6491109429
 20
39.6234310908
 10
-3.815078643
 20
39.6786629374
 10
-2.9805246115
 20
39.7311889188
 10
-2.1454750766
 20
39.7810074009
  0
LWPOLYLINE
  5
499
100
AcDbEntity
  8
ASSI
100
AcDbPolyline
 62
250
  6
CONTINUOUS
 90
10
 70
0
 10
-2.1165133249
 20
39.6900820271
 10
-2.9500349147
 20
39.6403538718
 10
-3.7829799944
 20
39.5879290027
 10
-4.6153485641
 20
39.53280742
 10
-5.4471496449
 20
39.4749884539
 10
-6.2783742156
 20
39.4144727742
 10
-7.1089952123
 20
39.3512623892
 10
-7.9390036136
 20
39.2853579684
 10
-8.7684084408
 20
39.2167588424
 10
-9.5972096939
 20
39.1454650112
  0
LWPOLYLINE
  5
49A
100
AcDbEntity
  8
ASSI
100
AcDbPolyline
 62
7
  6
CONTINUOUS
 90
43
 70
0
 10
-2.1454750766
 20
39.7810074009
 10
-1.2943633259
 20
39.8205319009
 10
-0.4412627036
 20
39.8404736394
 10
0.4125124544
 20
39.8408039645
 10
1.2656345362
 20
39.8215231786
 10
2.1168014553
 20
39.7826598522
 10
2.9647392801
 20
39.7242678817
 10
3.8081389649
 20
39.6464301858
 10
4.6457024016
 20
39.5492575615
 10
5.4761835528
 20
39.4328819908
 10
6.298303434
 20
39.2974663719
 10
7.1107885754
 20
39.1432020496
 10
7.9124223946
 20
38.9702979606
 10
8.7019843545
 20
38.7789904831
 10
9.4782283186
 20
38.5695520155
 10
10.2399333965
 20
38.3422811151
 10
10.9859063934
 20
38.0975009952
 10
11.7149988247
 20
37.8355522907
 10
12.4261019144
 20
37.5567915593
 10
13.1181388527
 20
37.2615917431
 10
13.789989995
 20
36.9503764308
 10
14.4405420126
 20
36.6236072973
 10
15.0688209837
 20
36.2817143442
 10
15.6737914937
 20
35.9251952138
 10
16.2543385817
 20
35.5546487799
 10
16.8096317467
 20
35.1705459267
 10
17.3387286778
 20
34.7734707404
 10
17.8404877094
 20
34.3642400845
 10
18.3142196554
 20
33.9433941121
 10
18.7591593697
 20
33.5115820936
 10
19.1742546286
 20
33.0698476615
 10
19.5589599371
 20
32.6188469759
 10
19.9127654804
 20
32.1592511229
 10
20.2349062946
 20
31.6921955199
 10
20.5249755425
 20
31.218512738
 10
20.782749153
 20
30.7388305817
 10
21.0079067251
 20
30.2540381443
 10
21.200227693
 20
29.7649907172
 10
21.3596041811
 20
29.2724063676
 10
21.4859563005
 20
28.7770199958
 10
21.579226831
 20
28.2796411105
 10
21.6394060765
 20
27.7811361021
 10
21.6665506784
 20
27.2823526697
  0
LWPOLYLINE
  5
49B
100
AcDbEntity
  8
ASSI
100
AcDbPolyline
 62
250
  6
CONTINUOUS
 90
126
 70
0
 10
14.4177709815
 20
35.853670863
 10
14.6282983676
 20
35.7303222681
 10
14.8356831033
 20
35.6051753308
 10
15.0399251884
 20
35.4782300512
 10
15.2410886009
 20
35.3494495888
 10
15.4391093628
 20
35.2188707839
 10
15.6337955412
 20
35.0866041581
 10
15.8251415091
 20
34.9526470763
 10
16.0131528934
 20
34.8170021734
 10
16.197654642
 20
34.6797878758
 10
16.3786397826
 20
34.5410027911
 10
16.5561152875
 20
34.4006483117
 10
16.7299270224
 20
34.2588470403
 10
16.9000578036
 20
34.115608437
 10
17.0665248148
 20
33.9709230417
 10
17.2292254724
 20
33.8248850782
 10
17.3881515437
 20
33.6775003939
 10
17.5433112615
 20
33.5287631413
 10
17.6946267402
 20
33.3787500017
 10
17.8421020724
 20
33.227455295
 10
17.9857331657
 20
33.0748847014
 10
18.125429857
 20
32.9211319425
 10
18.2611936932
 20
32.7661913759
 10
18.3930231273
 20
32.6100686441
 10
18.5208233557
 20
32.4528743961
 10
18.6445897099
 20
32.2946094607
 10
18.7643268584
 20
32.1352730092
 10
18.8799540027
 20
31.9749732043
 10
18.9914667037
 20
31.8137118167
 10
19.0988694005
 20
31.6514870756
 10
19.2020946125
 20
31.488401832
 10
19.3011400867
 20
31.3244552515
 10
19.3960080761
 20
31.1596481685
 10
19.4866378588
 20
30.9940859373
 10
19.5730272856
 20
30.8277670397
 10
19.6551785057
 20
30.660692994
 10
19.7330372444
 20
30.4929737096
 10
19.8066005992
 20
30.3246087686
 10
19.8758714726
 20
30.1555985888
 10
19.9408042969
 20
29.9860543332
 10
20.0013960709
 20
29.8159760129
 10
20.0576497958
 20
29.6453636168
 10
20.1095289077
 20
29.4743282743
 10
20.1570305656
 20
29.3028697582
 10
20.2001576104
 20
29.1309882957
 10
20.2388820011
 20
28.9587956987
 10
20.2732009057
 20
28.7862916496
 10
20.3031171562
 20
28.6134764659
 10
20.3286112073
 20
28.4404629119
 10
20.3496801715
 20
28.2672508148
 10
20.3663269362
 20
28.0938403474
 10
20.3785406197
 20
27.9203447922
 10
20.3863183196
 20
27.7467641463
 10
20.3896629382
 20
27.5730984127
 10
20.3885722999
 20
27.3994608824
 10
20.3830435111
 20
27.2258515672
 10
20.3730794653
 20
27.0522704553
 10
20.3586866677
 20
26.8788308021
 10
20.339862232
 20
26.705532716
 10
20.3166090445
 20
26.5323760885
 10
20.2889422684
 20
26.3594738491
 10
20.2568590173
 20
26.1868261294
 10
20.2203621777
 20
26.0144327979
 10
20.1794755728
 20
25.84240639
 10
20.1341963448
 20
25.6707471766
 10
20.0845273516
 20
25.4994548869
 10
20.0305009894
 20
25.3286412438
 10
19.972114406
 20
25.1583065336
 10
19.9093704535
 20
24.98845047
 10
19.8423100851
 20
24.8191839176
 10
19.7709304947
 20
24.6505072872
 10
19.6952344883
 20
24.4824201679
 10
19.6152714376
 20
24.3150321913
 10
19.531038546
 20
24.1483437892
 10
19.4425386099
 20
23.9823545297
 10
19.3498293898
 20
23.8171727486
 10
19.2529081493
 20
23.6527989921
 10
19.1517776248
 20
23.4892327141
 10
19.0465037858
 20
23.3265806114
 10
18.9370839196
 20
23.1648432668
 10
18.8235207389
 20
23.0040200975
 10
18.7058883514
 20
22.8442160523
 10
18.5841841074
 20
22.6854318046
 10
18.4584106564
 20
22.5276666811
 10
18.3286500557
 20
22.3710236099
 10
18.1948997016
 20
22.2155033207
 10
18.0571621976
 20
22.0611050837
 10
17.9155274117
 20
21.9079296382
 10
17.7699927967
 20
21.7559777786
 10
17.6205608998
 20
21.6052487104
 10
17.4673292304
 20
21.4558407888
 10
17.3102953184
 20
21.3077548848
 10
17.149461634
 20
21.1609901273
 10
16.9849330966
 20
21.0156422587
 10
16.8167072791
 20
20.8717121903
 10
16.6447866088
 20
20.7291990107
 10
16.4692832867
 20
20.5881957284
 10
16.2901949966
 20
20.4487033457
 10
16.1075240547
 20
20.3107208602
 10
15.9213896105
 20
20.174338273
 10
15.7317893763
 20
20.0395566088
 10
15.5387256397
 20
19.9063748431
 10
15.3423244136
 20
19.7748799032
 10
15.1425835517
 20
19.645072911
 10
14.9395052003
 20
19.5169527448
 10
14.7332218104
 20
19.3906029667
 10
14.5237312553
 20
19.2660247109
 10
14.3110356618
 20
19.1432168434
 10
14.0952738612
 20
19.0222595235
 10
13.876443889
 20
18.9031539792
 10
13.6545477096
 20
18.7858989827
 10
13.4297300478
 20
18.6705710094
 10
13.2019889607
 20
18.5571712988
 10
12.9713263911
 20
18.4456986114
 10
12.7378928921
 20
18.3362257057
 10
12.5016866891
 20
18.2287539024
 10
12.2627095567
 20
18.1232818808
 10
12.0211173714
 20
18.0198784362
 10
11.7769083973
 20
17.918544906
 10
11.5300843703
 20
17.8192799529
 10
11.2808063751
 20
17.7221483605
 10
11.0290728331
 20
17.6271515301
 10
10.7748853229
 20
17.5342880603
 10
10.5184096644
 20
17.4436185305
 10
10.259644349
 20
17.3551443669
 10
9.9985908853
 20
17.2688641433
  0
ARC
  5
49C
100
AcDbEntity
  8
ASSI
100
AcDbCircle
 62
7
  6
CONTINUOUS
 10
18.495159988
 20
-7.6640431852
 40
1.3
100
AcDbArc
 50
299.9785329905
 51
319.6108968753
  0
ARC
  5
49D
100
AcDbEntity
  8
ASSI
100
AcDbCircle
 62
7
  6
CONTINUOUS
 10
9.0565465023
 20
-13.1137803182
 40
1.3
100
AcDbArc
 50
297.069713972
 51
300.0015984348
  0
ELLIPSE
  5
49E
100
AcDbEntity
  8
ASSI
100
AcDbEllipse
 62
7
  6
CONTINUOUS
 10
18.7171686857
 20
-28.6169591444
 30
0.0
 11
13.1576924287
 21
-11.9104816471
 31
0.0
 40
0.2536064044
 41
-2.7948189759
 42
-2.693090842
  0
ELLIPSE
  5
49F
100
AcDbEntity
  8
ASSI
100
AcDbEllipse
 62
7
  6
CONTINUOUS
 10
20.6204577705
 20
-27.5180238807
 30
0.0
 11
-11.6287468783
 21
12.7928233041
 31
0.0
 40
0.3767653776
 41
0.4482183181
 42
0.5257492497
  0
ELLIPSE
  5
4A0
100
AcDbEntity
  8
ASSI
100
AcDbEllipse
 62
7
  6
CONTINUOUS
 10
20.6204030182
 20
-27.518055494
 30
0.0
 11
-11.6286600688
 21
12.7928746443
 31
0.0
 40
0.3767722176
 41
0.346490946
 42
0.3986390976
  0
ELLIPSE
  5
4A1
100
AcDbEntity
  8
ASSI
100
AcDbEllipse
 62
7
  6
CONTINUOUS
 10
19.8599887419
 20
-27.9571091669
 30
0.0
 11
-2.4464976085
 21
17.4020749249
 31
0.0
 40
0.7095717626
 41
0.7074289024
 42
0.9655584534
  0
ELLIPSE
  5
4A2
100
AcDbEntity
  8
ASSI
100
AcDbEllipse
 62
7
  6
CONTINUOUS
 10
22.1748854569
 20
-26.6205168161
 30
0.0
 11
-3.2957986342
 21
17.1146562839
 31
0.0
 40
0.7026136121
 41
0.7588240571
 42
0.9250571086
  0
ELLIPSE
  5
4A3
100
AcDbEntity
  8
ASSI
100
AcDbEllipse
 62
7
  6
CONTINUOUS
 10
24.5775873774
 20
-25.2332268402
 30
0.0
 11
-11.34740043
 21
12.9599022406
 31
0.0
 40
0.3986983603
 41
0.3494413318
 42
0.5212768597
  0
ELLIPSE
  5
4A4
100
AcDbEntity
  8
ASSI
100
AcDbEllipse
 62
7
  6
CONTINUOUS
 10
26.3691994688
 20
-24.1987724728
 30
0.0
 11
-2.4465372277
 21
17.4020621877
 31
0.0
 40
0.7095714949
 41
0.7896133783
 42
0.9655559215
  0
ELLIPSE
  5
4A5
100
AcDbEntity
  8
ASSI
100
AcDbEllipse
 62
7
  6
CONTINUOUS
 10
29.0595411799
 20
-22.6454028867
 30
0.0
 11
-11.6287528541
 21
12.7928197699
 31
0.0
 40
0.3767649068
 41
0.3464888095
 42
0.604618401
  0
ELLIPSE
  5
4A6
100
AcDbEntity
  8
ASSI
100
AcDbEllipse
 62
7
  6
CONTINUOUS
 10
23.97652445
 20
-25.5802730414
 30
0.0
 11
-11.380912042
 21
12.9981091144
 31
0.0
 40
0.3986954063
 41
0.4517217833
 42
0.6078618202
  0
ELLIPSE
  5
4A7
100
AcDbEntity
  8
ASSI
100
AcDbEllipse
 62
7
  6
CONTINUOUS
 10
20.0193929752
 20
-27.8650711604
 30
0.0
 11
-11.6630769765
 21
12.830544272
 31
0.0
 40
0.3767632557
 41
0.3475864522
 42
0.604910925
  0
ELLIPSE
  5
4A8
100
AcDbEntity
  8
ASSI
100
AcDbEllipse
 62
7
  6
CONTINUOUS
 10
19.2589106374
 20
-28.3041641312
 30
0.0
 11
-2.453611518
 21
17.4534415597
 31
0.0
 40
0.7095724558
 41
0.7085315314
 42
0.7605082272
  0
ELLIPSE
  5
4A9
100
AcDbEntity
  8
ASSI
100
AcDbEllipse
 62
7
  6
CONTINUOUS
 10
19.2589598684
 20
-28.3041357058
 30
0.0
 11
-2.4540888675
 21
17.4532880937
 31
0.0
 40
0.7095692397
 41
0.8141234871
 42
0.8832591588
  0
ELLIPSE
  5
4AA
100
AcDbEntity
  8
ASSI
100
AcDbEllipse
 62
7
  6
CONTINUOUS
 10
18.0401449492
 20
-29.0078641648
 30
0.0
 11
13.1964782266
 21
-11.9456312899
 31
0.0
 40
0.2536085948
 41
-2.7937213872
 42
-2.6861146043
  0
ELLIPSE
  5
4AB
100
AcDbEntity
  8
ASSI
100
AcDbEllipse
 62
7
  6
CONTINUOUS
 10
18.0401449492
 20
-29.0078641648
 30
0.0
 11
13.1576650553
 21
-11.9104970802
 31
0.0
 40
0.2536085948
 41
-2.7948185167
 42
-2.6868628717
  0
ELLIPSE
  5
4AC
100
AcDbEntity
  8
ASSI
100
AcDbEllipse
 62
7
  6
CONTINUOUS
 10
19.2589598684
 20
-28.3041357058
 30
0.0
 11
-2.4468709591
 21
17.4019548934
 31
0.0
 40
0.7095692397
 41
0.8091399526
 42
0.8866708842
  0
ELLIPSE
  5
4AD
100
AcDbEntity
  8
ASSI
100
AcDbEllipse
 62
7
  6
CONTINUOUS
 10
20.0193929752
 20
-27.8650711604
 30
0.0
 11
-11.6287738089
 21
12.792807377
 31
0.0
 40
0.3767632557
 41
0.3464893183
 42
0.6046188693
  0
ELLIPSE
  5
4AE
100
AcDbEntity
  8
0
100
AcDbEllipse
 62
7
  6
CONTINUOUS
 10
71.2108446202
 20
10.0589942212
 30
0.0
 11
103.9243339701
 21
64.4824670112
 31
0.0
 40
0.211095754
 41
8.3406328026
 42
8.3410583554
  0
ELLIPSE
  5
4AF
100
AcDbEntity
  8
ASSI
100
AcDbEllipse
 62
7
  6
CONTINUOUS
 10
19.2589106374
 20
-28.3041641312
 30
0.0
 11
-2.4463950136
 21
17.4021079081
 31
0.0
 40
0.7095724558
 41
0.7074343996
 42
0.7595825512
  0
ELLIPSE
  5
4B0
100
AcDbEntity
  8
ASSI
100
AcDbEllipse
 62
7
  6
CONTINUOUS
 10
23.97652445
 20
-25.5802730414
 30
0.0
 11
-11.3474387713
 21
12.9598793817
 31
0.0
 40
0.3986954063
 41
0.4413367111
 42
0.6075697625
  0
ELLIPSE
  5
4B1
100
AcDbEntity
  8
ASSI
100
AcDbEllipse
 62
7
  6
CONTINUOUS
 10
21.5738284087
 20
-26.9675596227
 30
0.0
 11
-3.2958852817
 21
17.1146254576
 31
0.0
 40
0.7026127717
 41
0.6669246896
 42
0.8387595878
  0
ELLIPSE
  5
4B2
100
AcDbEntity
  8
ASSI
100
AcDbEllipse
 62
7
  6
CONTINUOUS
 10
28.4584701238
 20
-22.9924537813
 30
0.0
 11
-11.6287487964
 21
12.7928221697
 31
0.0
 40
0.3767652265
 41
0.4286758933
 42
0.6046184366
  0
ELLIPSE
  5
4B3
100
AcDbEntity
  8
ASSI
100
AcDbEllipse
 62
7
  6
CONTINUOUS
 10
25.7681203164
 20
-24.5458280421
 30
0.0
 11
-2.446351525
 21
17.402121889
 31
0.0
 40
0.7095727497
 41
0.7074358332
 42
0.965564732
  0
ELLIPSE
  5
4B4
100
AcDbEntity
  8
ASSI
100
AcDbEllipse
 62
7
  6
CONTINUOUS
 10
25.7681203164
 20
-24.5458280421
 30
0.0
 11
-2.4535679012
 21
17.4534555819
 31
0.0
 40
0.7095727497
 41
0.7085329671
 42
0.9658567897
  0
ELLIPSE
  5
4B5
100
AcDbEntity
  8
ASSI
100
AcDbEllipse
 62
7
  6
CONTINUOUS
 10
28.4584701238
 20
-22.9924537813
 30
0.0
 11
-11.6630518902
 21
12.8305591083
 31
0.0
 40
0.3767652265
 41
0.4384432088
 42
0.6049104942
  0
ELLIPSE
  5
4B6
100
AcDbEntity
  8
ASSI
100
AcDbEllipse
 62
7
  6
CONTINUOUS
 10
21.5738284087
 20
-26.9675596227
 30
0.0
 11
-3.3056076571
 21
17.1651110784
 31
0.0
 40
0.7026127717
 41
0.6680218214
 42
0.8258847868
  0
ENDSEC
  0
SECTION
  2
OBJECTS
  0
DICTIONARY
  5
C
100
AcDbDictionary
280
0
281
1
  3
ACAD_GROUP
350
D
  3
ACAD_MLINESTYLE
350
17
  3
ACAD_LAYOUT
350
1A
  3
ACAD_PLOTSETTINGS
350
19
  3
ACAD_PLOTSTYLENAME
350
E
  0
DICTIONARY
  5
D
102
{ACAD_REACTORS
330
C
102
}
100
AcDbDictionary
280
0
281
1
  0
ACDBDICTIONARYWDFLT
  5
E
102
{ACAD_REACTORS
330
C
102
}
100
AcDbDictionary
281
1
  3
Normal
350
F
100
AcDbDictionaryWithDefault
340
F
  0
DICTIONARY
  5
17
102
{ACAD_REACTORS
330
C
102
}
100
AcDbDictionary
280
0
281
1
  3
Standard
350
18
  0
DICTIONARY
  5
19
102
{ACAD_REACTORS
330
C
102
}
100
AcDbDictionary
281
1
  0
DICTIONARY
  5
1A
102
{ACAD_REACTORS
330
C
102
}
100
AcDbDictionary
281
1
  3
Model
350
4B7
  3
Layout1
350
4B8
  0
ACDBPLACEHOLDER
  5
F
102
{ACAD_REACTORS
330
E
102
}
  0
MLINESTYLE
  5
18
102
{ACAD_REACTORS
330
17
102
}
100
AcDbMlineStyle
  2
STANDARD
 70
0
  3

 62
256
 51
90.0
 52
90.0
 71
2
 49
0.5
 62
256
  6
BYLAYER
 49
-0.5
 62
256
  6
BYLAYER
  0
LAYOUT
  5
4B7
102
{ACAD_REACTORS
330
1A
102
}
100
AcDbPlotSettings
  1

  2
none_device
  4
ISO_A4_(297.00_x_210.00_MM)
  6

 40
0.0
 41
0.0
 42
0.0
 43
0.0
 44
297.0
 45
210.0
 46
0.0
 47
0.0
 48
0.0
 49
0.0
140
0.0
141
0.0
142
1.0
143
1.0
 70
1024
 72
1
 73
0
 74
0
  7

 75
0
147
1.0
148
0.0
149
0.0
100
AcDbLayout
  1
Model
 70
0
 71
0
 10
0.0
 20
0.0
 11
297.0
 21
210.0
 12
0.0
 22
0.0
 32
0.0
 14
0.0
 24
0.0
 34
0.0
 15
0.0
 25
0.0
 35
0.0
146
0.0
 13
0.0
 23
0.0
 33
0.0
 16
1.0
 26
0.0
 36
0.0
 17
0.0
 27
1.0
 37
0.0
 76
0
330
226
345
0
346
0
  0
LAYOUT
  5
4B8
102
{ACAD_REACTORS
330
1A
102
}
100
AcDbPlotSettings
  1

  2
none_device
  4
ISO_A4_(297.00_x_210.00_MM)
  6

 40
0.0
 41
0.0
 42
0.0
 43
0.0
 44
297.0
 45
210.0
 46
0.0
 47
0.0
 48
0.0
 49
0.0
140
0.0
141
0.0
142
1.0
143
1.0
 70
0
 72
1
 73
0
 74
0
  7

 75
0
147
1.0
148
0.0
149
0.0
100
AcDbLayout
  1
Layout1
 70
0
 71
1
 10
0.0
 20
0.0
 11
297.0
 21
210.0
 12
0.0
 22
0.0
 32
0.0
 14
0.0
 24
0.0
 34
0.0
 15
0.0
 25
0.0
 35
0.0
146
0.0
 13
0.0
 23
0.0
 33
0.0
 16
1.0
 26
0.0
 36
0.0
 17
0.0
 27
1.0
 37
0.0
 76
0
330
227
345
0
346
0
  0
ENDSEC
  0
EOF
