  0
SECTION
  2
HEADER
  9
$ACADVER
  1
AC1024
  9
$DWGCODEPAGE
  3
ANSI_1252
  9
$EXTMAX
 10
297.0
 20
210.0
 30
0.0
  9
$EXTMIN
 10
0.0
 20
0.0
 30
0.0
  9
$LIMMIN
 10
0.0
 20
0.0
  9
$LIMMAX
 10
297.0
 20
210.0
  9
$VIEWCTR
 10
148.5
 20
105.0
  9
$VIEWSIZE
 40
210.0
  9
$CLAYER
  8
0
  9
$LTSCALE
 40
16.335
  9
$CELTYPE
  6
BYLAYER
  9
$DIMSCALE
 40
1.0
  9
$DIMASZ
 40
3.0
  9
$DIMEXO
 40
0.5
  9
$DIMDLI
 40
11.286
  9
$DIMEXE
 40
1.5
  9
$DIMCEN
 40
2.673
  9
$DIMLFAC
 40
1.0
  9
$DIMBLK
  1
_FILLED
  9
$DIMALT
 70
0
  9
$DIMALTF
 40
0.0393700787
  9
$DIMTXT
 40
3.0
  9
$DIMTOL
 70
1
  9
$DIMLIM
 70
0
  9
$DIMTFAC
 40
1.0
  9
$DIMTP
 40
0.01
  9
$DIMTM
 40
0.01
  9
$DIMGAP
 40
0.625
  9
$DIMDSEP
 70
44
  9
$AUNITS
 70
0
  9
$PDMODE
 70
3
  9
$PDSIZE
 40
3.0
  9
$HANDSEED
  5
48F
  9
$TILEMODE
 70
1
  9
$MEASUREMENT
 70
1
  9
$INSUNITS
 70
4
  0
ENDSEC
  0
SECTION
  2
CLASSES
  0
CLASS
  1
ACDBDICTIONARYWDFLT
  2
AcDbDictionaryWithDefault
  3
AutoCAD 2000
 90
0
 91
1
280
0
281
0
  0
CLASS
  1
ACDBPLACEHOLDER
  2
AcDbPlaceHolder
  3
AutoCAD 2000
 90
0
 91
1
280
0
281
0
  0
CLASS
  1
LAYOUT
  2
AcDbLayout
  3
AutoCAD 2000
 90
0
 91
0
280
0
281
0
  0
ENDSEC
  0
SECTION
  2
TABLES
  0
TABLE
  2
VPORT
  5
8
100
AcDbSymbolTable
 70
2
  0
VPORT
  5
1F4
100
AcDbSymbolTableRecord
100
AcDbViewportTableRecord
  2
*ACTIVE
 70
0
 10
0.0
 20
0.0
 11
1.0
 21
1.0
 12
148.5
 22
105.0
 13
0.0
 23
0.0
 14
1.0
 24
1.0
 15
0.0
 25
0.0
 16
0.0
 26
0.0
 36
1.0
 17
0.0
 27
0.0
 37
0.0
 40
210.0
 41
1.4142857143
 42
50.0
 43
0.0
 44
0.0
 50
0.0
 51
0.0
 71
0
 72
100
 73
1
 74
1
 75
0
 76
0
 77
0
 78
0
  0
ENDTAB
  0
TABLE
  2
LTYPE
  5
5
100
AcDbSymbolTable
 70
6
  0
LTYPE
  5
14
100
AcDbSymbolTableRecord
100
AcDbLinetypeTableRecord
  2
BYBLOCK
 70
0
  3

 72
65
 73
0
 40
0.0
  0
LTYPE
  5
15
100
AcDbSymbolTableRecord
100
AcDbLinetypeTableRecord
  2
BYLAYER
 70
0
  3

 72
65
 73
0
 40
0.0
  0
LTYPE
  5
16
100
AcDbSymbolTableRecord
100
AcDbLinetypeTableRecord
  2
CONTINUOUS
 70
64
  3
Solid line
 72
65
 73
0
 40
0.0
  0
LTYPE
  5
1F5
100
AcDbSymbolTableRecord
100
AcDbLinetypeTableRecord
  2
CENTER
 70
64
  3
____ _ ____ _ ____ _ ____ _ ____ _ ____ _ ____
 72
65
 73
4
 40
0.6
 49
0.375
 74
0
 49
-0.075
 74
0
 49
0.075
 74
0
 49
-0.075
 74
0
  0
LTYPE
  5
1F6
100
AcDbSymbolTableRecord
100
AcDbLinetypeTableRecord
  2
HIDDEN
 70
64
  3
- - - - - - - - - - - - - - - - - - - -
 72
65
 73
2
 40
0.2
 49
0.1
 74
0
 49
-0.1
 74
0
  0
LTYPE
  5
1F7
100
AcDbSymbolTableRecord
100
AcDbLinetypeTableRecord
  2
PHANTOM
 70
64
  3
_____ _ _ _____ _ _ _____ _ _ _____
 72
65
 73
6
 40
0.8
 49
0.45
 74
0
 49
-0.05
 74
0
 49
0.1
 74
0
 49
-0.05
 74
0
 49
0.1
 74
0
 49
-0.05
 74
0
  0
LTYPE
  5
1F8
100
AcDbSymbolTableRecord
100
AcDbLinetypeTableRecord
  2
DOT
 70
64
  3
. . . . . . . . . . . . . . . . . . . .
 72
65
 73
2
 40
0.2
 49
0.1
 74
0
 49
-0.1
 74
0
  0
LTYPE
  5
1F9
100
AcDbSymbolTableRecord
100
AcDbLinetypeTableRecord
  2
DASHED
 70
64
  3
- - - - - - - - - - - - - - - - - - - -
 72
65
 73
2
 40
0.2
 49
0.1
 74
0
 49
-0.1
 74
0
  0
ENDTAB
  0
TABLE
  2
LAYER
  5
2
100
AcDbSymbolTable
 70
36
  0
LAYER
  5
10
100
AcDbSymbolTableRecord
100
AcDbLayerTableRecord
  2
0
 70
0
 62
7
  6
CONTINUOUS
370
-3
390
F
  0
LAYER
  5
1FA
100
AcDbSymbolTableRecord
100
AcDbLayerTableRecord
  2
DEFAULT_1
 70
0
 62
7
  6
CENTER
370
-3
390
F
  0
LAYER
  5
1FB
100
AcDbSymbolTableRecord
100
AcDbLayerTableRecord
  2
DEFAULT_2
 70
0
 62
7
  6
HIDDEN
370
-3
390
F
  0
LAYER
  5
1FC
100
AcDbSymbolTableRecord
100
AcDbLayerTableRecord
  2
DEFAULT_3
 70
0
 62
7
  6
PHANTOM
370
-3
390
F
  0
LAYER
  5
1FD
100
AcDbSymbolTableRecord
100
AcDbLayerTableRecord
  2
255013570
 70
0
 62
7
  6
CONTINUOUS
370
-3
390
F
  0
LAYER
  5
1FE
100
AcDbSymbolTableRecord
100
AcDbLayerTableRecord
  2
261013570
 70
0
 62
7
  6
CONTINUOUS
370
-3
390
F
  0
LAYER
  5
1FF
100
AcDbSymbolTableRecord
100
AcDbLayerTableRecord
  2
280013570
 70
0
 62
7
  6
CONTINUOUS
370
-3
390
F
  0
LAYER
  5
200
100
AcDbSymbolTableRecord
100
AcDbLayerTableRecord
  2
ASSI
 70
0
 62
7
  6
CONTINUOUS
370
-3
390
F
  0
LAYER
  5
201
100
AcDbSymbolTableRecord
100
AcDbLayerTableRecord
  2
COLOR5
 70
0
 62
7
  6
CONTINUOUS
370
-3
390
F
  0
LAYER
  5
202
100
AcDbSymbolTableRecord
100
AcDbLayerTableRecord
  2
COORDINATE
 70
0
 62
7
  6
CONTINUOUS
370
-3
390
F
  0
LAYER
  5
203
100
AcDbSymbolTableRecord
100
AcDbLayerTableRecord
  2
COORD_ORIGINE
 70
0
 62
7
  6
CONTINUOUS
370
-3
390
F
  0
LAYER
  5
204
100
AcDbSymbolTableRecord
100
AcDbLayerTableRecord
  2
COPY-PUBBLISH
 70
0
 62
7
  6
CONTINUOUS
370
-3
390
F
  0
LAYER
  5
205
100
AcDbSymbolTableRecord
100
AcDbLayerTableRecord
  2
COPY_PUBLISH
 70
0
 62
7
  6
CONTINUOUS
370
-3
390
F
  0
LAYER
  5
206
100
AcDbSymbolTableRecord
100
AcDbLayerTableRecord
  2
COSMETICHE
 70
0
 62
7
  6
CONTINUOUS
370
-3
390
F
  0
LAYER
  5
207
100
AcDbSymbolTableRecord
100
AcDbLayerTableRecord
  2
COSMETICI
 70
0
 62
7
  6
CONTINUOUS
370
-3
390
F
  0
LAYER
  5
208
100
AcDbSymbolTableRecord
100
AcDbLayerTableRecord
  2
CURVE
 70
0
 62
7
  6
CONTINUOUS
370
-3
390
F
  0
LAYER
  5
209
100
AcDbSymbolTableRecord
100
AcDbLayerTableRecord
  2
DRAFT
 70
0
 62
7
  6
CONTINUOUS
370
-3
390
F
  0
LAYER
  5
20A
100
AcDbSymbolTableRecord
100
AcDbLayerTableRecord
  2
IGES
 70
0
 62
7
  6
CONTINUOUS
370
-3
390
F
  0
LAYER
  5
20B
100
AcDbSymbolTableRecord
100
AcDbLayerTableRecord
  2
IMPORT_IGES
 70
0
 62
7
  6
CONTINUOUS
370
-3
390
F
  0
LAYER
  5
20C
100
AcDbSymbolTableRecord
100
AcDbLayerTableRecord
  2
INTF_1
 70
0
 62
7
  6
CONTINUOUS
370
-3
390
F
  0
LAYER
  5
20D
100
AcDbSymbolTableRecord
100
AcDbLayerTableRecord
  2
INTF_11
 70
0
 62
7
  6
CONTINUOUS
370
-3
390
F
  0
LAYER
  5
20E
100
AcDbSymbolTableRecord
100
AcDbLayerTableRecord
  2
NOTE
 70
0
 62
7
  6
CONTINUOUS
370
-3
390
F
  0
LAYER
  5
20F
100
AcDbSymbolTableRecord
100
AcDbLayerTableRecord
  2
PIANI
 70
0
 62
7
  6
CONTINUOUS
370
-3
390
F
  0
LAYER
  5
210
100
AcDbSymbolTableRecord
100
AcDbLayerTableRecord
  2
PIANI_ORIGINE
 70
0
 62
7
  6
CONTINUOUS
370
-3
390
F
  0
LAYER
  5
211
100
AcDbSymbolTableRecord
100
AcDbLayerTableRecord
  2
PIANI_SFORMI
 70
0
 62
7
  6
CONTINUOUS
370
-3
390
F
  0
LAYER
  5
212
100
AcDbSymbolTableRecord
100
AcDbLayerTableRecord
  2
PUNTI
 70
0
 62
7
  6
CONTINUOUS
370
-3
390
F
  0
LAYER
  5
213
100
AcDbSymbolTableRecord
100
AcDbLayerTableRecord
  2
RACCORDO
 70
0
 62
7
  6
CONTINUOUS
370
-3
390
F
  0
LAYER
  5
214
100
AcDbSymbolTableRecord
100
AcDbLayerTableRecord
  2
SIMBOLI
 70
0
 62
7
  6
CONTINUOUS
370
-3
390
F
  0
LAYER
  5
215
100
AcDbSymbolTableRecord
100
AcDbLayerTableRecord
  2
SMUSSO
 70
0
 62
7
  6
CONTINUOUS
370
-3
390
F
  0
LAYER
  5
216
100
AcDbSymbolTableRecord
100
AcDbLayerTableRecord
  2
SNAPLINE
 70
0
 62
7
  6
CONTINUOUS
370
-3
390
F
  0
LAYER
  5
217
100
AcDbSymbolTableRecord
100
AcDbLayerTableRecord
  2
SUP-SCAVI-INCLINATI
 70
0
 62
7
  6
CONTINUOUS
370
-3
390
F
  0
LAYER
  5
218
100
AcDbSymbolTableRecord
100
AcDbLayerTableRecord
  2
SUP-SCAVI-INCLINATI-SUP
 70
0
 62
7
  6
CONTINUOUS
370
-3
390
F
  0
LAYER
  5
219
100
AcDbSymbolTableRecord
100
AcDbLayerTableRecord
  2
SUPERFICI
 70
0
 62
7
  6
CONTINUOUS
370
-3
390
F
  0
LAYER
  5
21A
100
AcDbSymbolTableRecord
100
AcDbLayerTableRecord
  2
SUP_COLORE
 70
0
 62
7
  6
CONTINUOUS
370
-3
390
F
  0
LAYER
  5
21B
100
AcDbSymbolTableRecord
100
AcDbLayerTableRecord
  2
TRASH
 70
0
 62
7
  6
CONTINUOUS
370
-3
390
F
  0
LAYER
  5
21C
100
AcDbSymbolTableRecord
100
AcDbLayerTableRecord
  2
XSEC_DATUMS
 70
0
 62
7
  6
CONTINUOUS
370
-3
390
F
  0
ENDTAB
  0
TABLE
  2
STYLE
  5
3
100
AcDbSymbolTable
 70
1
  0
STYLE
  5
11
100
AcDbSymbolTableRecord
100
AcDbTextStyleTableRecord
  2
STANDARD
 70
0
 40
0.0
 41
0.8
 50
0.0
 71
0
 42
0.2
  3
txt
  4

  0
STYLE
  5
21D
100
AcDbSymbolTableRecord
100
AcDbTextStyleTableRecord
  2
TEXTSTYLE_1
 70
0
 40
0.0
 41
0.8
 50
0.0
 71
0
 42
0.2
  3
gdt
  4

  0
ENDTAB
  0
TABLE
  2
VIEW
  5
6
100
AcDbSymbolTable
 70
0
  0
ENDTAB
  0
TABLE
  2
UCS
  5
7
100
AcDbSymbolTable
 70
0
  0
ENDTAB
  0
TABLE
  2
APPID
  5
9
100
AcDbSymbolTable
 70
1
  0
APPID
  5
21E
100
AcDbSymbolTableRecord
100
AcDbRegAppTableRecord
  2
ACAD
 70
0
  0
ENDTAB
  0
TABLE
  2
BLOCK_RECORD
  5
1
100
AcDbSymbolTable
 70
0
  0
BLOCK_RECORD
  5
21F
100
AcDbSymbolTableRecord
100
AcDbBlockTableRecord
  2
*Model_Space
  0
BLOCK_RECORD
  5
220
100
AcDbSymbolTableRecord
100
AcDbBlockTableRecord
  2
*Paper_Space
  0
BLOCK_RECORD
  5
221
100
AcDbSymbolTableRecord
100
AcDbBlockTableRecord
  2
_FILLED
  0
ENDTAB
  0
TABLE
  2
DIMSTYLE
  5
A
100
AcDbSymbolTable
 70
1
100
AcDbDimStyleTable
 71
0
  0
DIMSTYLE
105
222
100
AcDbSymbolTableRecord
100
AcDbDimStyleTableRecord
  2
STANDARD
 70
0
  3

  4

 40
1.0
 41
3.0
 42
0.5
 43
0.38
 44
1.5
 45
0.0
 46
0.0
 47
0.01
 48
0.01
140
3.0
141
0.09
142
0.0
143
25.4
144
1.0
145
0.0
146
1.0
147
0.625
 71
1
 72
0
 73
0
 74
0
 75
0
 76
0
 77
1
 78
8
 79
2
170
0
171
1
172
0
173
0
174
0
175
0
176
0
177
0
178
0
270
2
179
2
271
2
272
2
273
2
274
2
275
0
280
0
281
0
282
0
283
1
284
8
285
0
286
0
287
3
288
0
340
11
278
44
341
221
342
221
343
221
344
221
  0
ENDTAB
  0
ENDSEC
  0
SECTION
  2
BLOCKS
  0
BLOCK
  5
20
100
AcDbEntity
  8
0
100
AcDbBlockBegin
  2
*Model_Space
 70
0
 10
0.0
 20
0.0
 30
0.0
  3
*Model_Space
  1

  0
ENDBLK
  5
21
100
AcDbEntity
  8
0
100
AcDbBlockEnd
  0
BLOCK
  5
1C
100
AcDbEntity
  8
0
100
AcDbBlockBegin
  2
*Paper_Space
 70
0
 10
0.0
 20
0.0
 30
0.0
  3
*Paper_Space
  1

  0
ENDBLK
  5
1D
100
AcDbEntity
  8
0
100
AcDbBlockEnd
  0
BLOCK
  5
223
100
AcDbEntity
  8
0
100
AcDbBlockBegin
  2
_FILLED
 70
64
 10
0.0
 20
0.0
  3
_FILLED
  1

  0
SOLID
  5
224
100
AcDbEntity
  8
0
  6
BYBLOCK
 62
0
100
AcDbTrace
 10
0.0
 20
0.0
 11
-1.0
 21
0.3166666667
 12
-1.0
 22
-0.3166666667
 13
-1.0
 23
-0.3166666667
  0
ENDBLK
  5
225
100
AcDbEntity
  8
0
  6
BYBLOCK
 62
0
100
AcDbBlockEnd
  0
ENDSEC
  0
SECTION
  2
ENTITIES
  0
LWPOLYLINE
  5
226
100
AcDbEntity
  8
ASSI
100
AcDbPolyline
 62
7
  6
CONTINUOUS
 90
12
 70
0
 10
-20.1896911918
 20
31.9092714995
 10
-20.2508787405
 20
31.8715124168
 10
-20.3150195502
 20
31.8260324236
 10
-20.3738333957
 20
31.777817382
 10
-20.4273136245
 20
31.7271225593
 10
-20.4754979805
 20
31.6741632759
 10
-20.5184060324
 20
31.6191683635
 10
-20.5560011003
 20
31.5624593207
 10
-20.5883035335
 20
31.5043213684
 10
-20.6153534875
 20
31.4450282943
 10
-20.6371758884
 20
31.3849320758
 10
-20.6482519134
 20
31.3468732635
  0
LWPOLYLINE
  5
227
100
AcDbEntity
  8
ASSI
100
AcDbPolyline
 62
250
  6
CONTINUOUS
 90
25
 70
0
 10
-19.9396547797
 20
31.8845150299
 10
-19.9544212418
 20
31.8757599095
 10
-19.9687641671
 20
31.8667942841
 10
-19.9826835557
 20
31.8576181538
 10
-19.9961891354
 20
31.8482244762
 10
-20.0092711783
 20
31.8386202937
 10
-20.0219005009
 20
31.8288267333
 10
-20.0340755986
 20
31.8188437084
 10
-20.0457979761
 20
31.8086713058
 10
-20.0570429635
 20
31.7983309117
 10
-20.0678095249
 20
31.7878221909
 10
-20.0780986962
 20
31.7771454787
 10
-20.0878889149
 20
31.7663231679
 10
-20.0971791188
 20
31.7553549765
 10
-20.1059703702
 20
31.7442411866
 10
-20.114244294
 20
31.7330050367
 10
-20.1219998248
 20
31.721646232
 10
-20.1292380281
 20
31.7101650673
 10
-20.1359437254
 20
31.6985856662
 10
-20.1421159469
 20
31.6869072546
 10
-20.1477556625
 20
31.6751306066
 10
-20.152850604
 20
31.6632821688
 10
-20.1573966821
 20
31.6513707568
 10
-20.1613979861
 20
31.639387555
 10
-20.164854516
 20
31.6273325635
  0
LINE
  5
228
100
AcDbEntity
  8
ASSI
100
AcDbLine
 62
7
  6
CONTINUOUS
 10
-10.3159412554
 20
37.6102510358
 11
-20.1896668598
 21
31.9092856187
  0
LINE
  5
229
100
AcDbEntity
  8
ASSI
100
AcDbLine
 62
250
  6
CONTINUOUS
 10
-10.0659291754
 20
37.585480447
 11
-19.9396547797
 21
31.8845150299
  0
LWPOLYLINE
  5
22A
100
AcDbEntity
  8
ASSI
100
AcDbPolyline
 62
250
  6
CONTINUOUS
 90
10
 70
0
 10
-20.164854516
 20
31.6273325635
 10
-20.2887208064
 20
31.1476189763
 10
-20.4078985275
 20
30.6675551699
 10
-20.5223876792
 20
30.1871411445
 10
-20.6321894254
 20
29.706371672
 10
-20.7373026022
 20
29.2252519804
 10
-20.8377237187
 20
28.7437977537
 10
-20.9334516111
 20
28.2620142199
 10
-21.0244874432
 20
27.7798961511
 10
-21.110831215
 20
27.2974435472
  0
LINE
  5
22B
100
AcDbEntity
  8
ASSI
100
AcDbLine
 62
7
  6
CONTINUOUS
 10
-20.6482520502
 20
31.3468732997
 11
-20.6483871846
 21
31.3463615535
  0
LWPOLYLINE
  5
22C
100
AcDbEntity
  8
ASSI
100
AcDbPolyline
 62
250
  6
CONTINUOUS
 90
101
 70
0
 10
7.9515027074
 20
-27.8347118204
 10
8.1020793603
 20
-27.8347532814
 10
8.2527857487
 20
-27.831692766
 10
8.4035969814
 20
-27.8255291811
 10
8.5545283893
 20
-27.8162585672
 10
8.7055180002
 20
-27.8038835397
 10
8.8564260901
 20
-27.7884132749
 10
9.0072314082
 20
-27.7698446439
 10
9.1579137595
 20
-27.7481807998
 10
9.30833585
 20
-27.7234406483
 10
9.4584796047
 20
-27.6956215854
 10
9.6083272245
 20
-27.6647271612
 10
9.7577428776
 20
-27.6307857106
 10
9.9067089542
 20
-27.5937956908
 10
10.0552129551
 20
-27.5537601051
 10
10.2031279327
 20
-27.5107142069
 10
10.3504407999
 20
-27.4646565446
 10
10.4971404656
 20
-27.4155901855
 10
10.6431043221
 20
-27.3635571731
 10
10.7883217495
 20
-27.308556377
 10
10.9327852124
 20
-27.2505904019
 10
11.0763781621
 20
-27.189706835
 10
11.2190932576
 20
-27.1259044871
 10
11.3609257702
 20
-27.0591856522
 10
11.5017645602
 20
-26.9896030326
 10
11.6416053978
 20
-26.9171552737
 10
11.7804465632
 20
-26.8418443114
 10
11.9181822033
 20
-26.7637276416
 10
12.0548112673
 20
-26.682803586
 10
12.1903349919
 20
-26.5990738043
 10
12.3246524872
 20
-26.5126006488
 10
12.4577656975
 20
-26.42338215
 10
12.5896789994
 20
-26.3314196613
 10
12.7202966717
 20
-26.2367803786
 10
12.8496239614
 20
-26.139461752
 10
12.9776680613
 20
-26.0394651992
 10
13.1043376563
 20
-25.9368637595
 10
13.2296406551
 20
-25.8316547784
 10
13.3535876707
 20
-25.7238394204
 10
13.4760928729
 20
-25.613496399
 10
13.5971672372
 20
-25.5006226821
 10
13.7168243294
 20
-25.3852196862
 10
13.8349835444
 20
-25.2673728143
 10
13.9516592282
 20
-25.1470781984
 10
14.0668674972
 20
-25.0243382663
 10
14.180531611
 20
-24.8992479701
 10
14.2926674011
 20
-24.7718047508
 10
14.4032952549
 20
-24.6420102649
 10
14.5123462984
 20
-24.5099659928
 10
14.6198383764
 20
-24.3756707824
 10
14.7257954084
 20
-24.2391258317
 10
14.830158467
 20
-24.1004364585
 10
14.932950619
 20
-23.9595982567
 10
15.0341958785
 20
-23.8166170722
 10
15.133837292
 20
-23.6716140221
 10
15.2319264737
 20
-23.5245369883
 10
15.3284639712
 20
-23.3754413917
 10
15.4233155112
 20
-23.2246101743
 10
15.51651877
 20
-23.0719956289
 10
15.6080907242
 20
-22.9176510382
 10
15.6978626827
 20
-22.7620113378
 10
15.7858315577
 20
-22.6050953011
 10
15.8720536224
 20
-22.4468921116
 10
15.9564438552
 20
-22.2877926988
 10
16.0389817902
 20
-22.1278700413
 10
16.1197379444
 20
-21.9670613833
 10
16.1987590426
 20
-21.8055543535
 10
16.2760553364
 20
-21.6433848202
 10
16.3516656084
 20
-21.4805294818
 10
16.425676369
 20
-21.3170875503
 10
16.4981153135
 20
-21.1530635012
 10
16.5690037085
 20
-20.9884678874
 10
16.638415867
 20
-20.8234093528
 10
16.7063730265
 20
-20.6579078728
 10
16.7729020093
 20
-20.4919608837
 10
16.8380830788
 20
-20.3256434952
 10
16.901941181
 20
-20.1589691735
 10
16.9644990308
 20
-19.9919443193
 10
17.0258315153
 20
-19.8246337226
 10
17.0859675393
 20
-19.6570384479
 10
17.1449255565
 20
-19.4891797862
 10
17.2027624676
 20
-19.3211530291
 10
17.2594987161
 20
-19.1529815952
 10
17.3151596661
 20
-18.9846666167
 10
17.3698072839
 20
-18.8162700498
 10
17.42346432
 20
-18.6478116419
 10
17.4761530823
 20
-18.4792985162
 10
17.5279332248
 20
-18.3107738897
 10
17.5788308332
 20
-18.1422472239
 10
17.628864621
 20
-17.9737383694
 10
17.67808162
 20
-17.8053062957
 10
17.7265050081
 20
-17.6369685375
 10
17.7741554569
 20
-17.4687390953
 10
17.8210745774
 20
-17.3006717275
 10
17.8672874191
 20
-17.1327757431
 10
17.9128120644
 20
-16.9650756304
 10
17.9576777632
 20
-16.7976478589
 10
18.0019075435
 20
-16.6305039581
 10
18.0455198414
 20
-16.4636680527
 10
18.0885344123
 20
-16.2972351035
 10
18.1728460915
 20
-15.9656650179
  0
LWPOLYLINE
  5
22D
100
AcDbEntity
  8
ASSI
100
AcDbPolyline
 62
250
  6
CONTINUOUS
 90
90
 70
0
 10
7.6938503849
 20
-28.7418029261
 10
7.8592382069
 20
-28.744054689
 10
8.0246960293
 20
-28.7428971682
 10
8.1902032242
 20
-28.7383159624
 10
8.3557882823
 20
-28.73028136
 10
8.521378873
 20
-28.7187931102
 10
8.686805582
 20
-28.7038836016
 10
8.8520484679
 20
-28.6855397064
 10
9.0170874935
 20
-28.6637499439
 10
9.1817590859
 20
-28.638554616
 10
9.3460455551
 20
-28.6099431769
 10
9.5099281761
 20
-28.5779062693
 10
9.6732481163
 20
-28.5424913973
 10
9.8359871527
 20
-28.5036913217
 10
9.9981312858
 20
-28.4614981312
 10
10.1595344532
 20
-28.4159635641
 10
10.3201822525
 20
-28.3670825635
 10
10.4800610935
 20
-28.3148493784
 10
10.6390326452
 20
-28.2593196985
 10
10.7970843714
 20
-28.200490979
 10
10.9542055248
 20
-28.1383591502
 10
11.1102671651
 20
-28.0729824135
 10
11.2652596488
 20
-28.004360251
 10
11.4191743581
 20
-27.9324904728
 10
11.5718907804
 20
-27.8574333526
 10
11.7234022037
 20
-27.7791902159
 10
11.8737024915
 20
-27.6977606808
 10
12.022679115
 20
-27.6132068451
 10
12.1703285973
 20
-27.5255315891
 10
12.3166473815
 20
-27.4347363684
 10
12.4615302166
 20
-27.3408853525
 10
12.6049769096
 20
-27.2439828621
 10
12.7469868755
 20
-27.1440320657
 10
12.8874619758
 20
-27.0410994541
 10
13.026405887
 20
-26.935190286
 10
13.1638208247
 20
-26.8263096944
 10
13.2996145135
 20
-26.7145279047
 10
13.4337940991
 20
-26.5998514277
 10
13.5663655087
 20
-26.4822868592
 10
13.6972430573
 20
-26.3619083635
 10
13.8264380324
 20
-26.2387231203
 10
13.9539597806
 20
-26.1127395325
 10
14.0797284678
 20
-25.9840373044
 10
14.2037601588
 20
-25.8526235459
 10
14.326067375
 20
-25.7185090015
 10
14.4465741693
 20
-25.5817824927
 10
14.5652996946
 20
-25.442453144
 10
14.6822619166
 20
-25.3005318799
 10
14.79739262
 20
-25.1561138143
 10
14.9107146324
 20
-25.0092096471
 10
15.022250836
 20
-24.8598306392
 10
15.1319425888
 20
-24.7080761383
 10
15.2398201781
 20
-24.5539525837
 10
15.3459072649
 20
-24.3974770013
 10
15.4501450555
 20
-24.2387679986
 10
15.552599214
 20
-24.0777802819
 10
15.653265965
 20
-23.9145837993
 10
15.7519974536
 20
-23.7494757439
 10
15.8488585683
 20
-23.5824212315
 10
15.9438654319
 20
-23.4134858105
 10
16.0368198608
 20
-23.2431265944
 10
16.1277582858
 20
-23.0713854156
 10
16.2167506112
 20
-22.8982597505
 10
16.3036703378
 20
-22.7241491805
 10
16.3885392286
 20
-22.549151808
 10
16.471457562
 20
-22.373213513
 10
16.5524267273
 20
-22.1965099959
 10
16.6314941604
 20
-22.01909186
 10
16.7087334236
 20
-21.8409504045
 10
16.7841857384
 20
-21.6621729814
 10
16.8579118634
 20
-21.4827732114
 10
16.9299666803
 20
-21.3027758768
 10
17.0003814667
 20
-21.1222849818
 10
17.069208502
 20
-20.9413295632
 10
17.136507385
 20
-20.7599165468
 10
17.202319116
 20
-20.5781166453
 10
17.2666969493
 20
-20.3959480386
 10
17.3296939943
 20
-20.213425711
 10
17.3913492434
 20
-20.0306152463
 10
17.451717829
 20
-19.8475193709
 10
17.5108454313
 20
-19.6641660414
 10
17.5687558259
 20
-19.4806586816
 10
17.6254943346
 20
-19.2970235267
 10
17.6811125179
 20
-19.1132635569
 10
17.7356426158
 20
-18.929447393
 10
17.7891293805
 20
-18.7455937148
 10
17.8416193971
 20
-18.5617112266
 10
17.8931461111
 20
-18.3778534081
 10
17.9437547574
 20
-18.1940258504
 10
17.9780479544
 20
-18.067630138
  0
LINE
  5
22E
100
AcDbEntity
  8
ASSI
100
AcDbLine
 62
250
  6
CONTINUOUS
 10
-9.9266617876
 20
-29.7747281873
 11
-10.1317997596
 21
-29.6842014955
  0
LWPOLYLINE
  5
22F
100
AcDbEntity
  8
ASSI
100
AcDbPolyline
 62
250
  6
CONTINUOUS
 90
4
 70
0
 10
-10.1317997596
 20
-29.6842014955
 10
-10.3344616041
 20
-29.5918344225
 10
-10.5345651593
 20
-29.4976651534
 10
-10.7320482305
 20
-29.4017247798
  0
LINE
  5
230
100
AcDbEntity
  8
ASSI
100
AcDbLine
 62
250
  6
CONTINUOUS
 10
-10.7320482305
 20
-29.4017247798
 11
-10.9268788372
 21
-29.3040306841
  0
LWPOLYLINE
  5
231
100
AcDbEntity
  8
ASSI
100
AcDbPolyline
 62
250
  6
CONTINUOUS
 90
5
 70
0
 10
-10.9268788372
 20
-29.3040306841
 10
-11.1190219198
 20
-29.204601702
 10
-11.3084351221
 20
-29.1034606582
 10
-11.4950693186
 20
-29.0006347034
 10
-11.6788798682
 20
-28.8961494596
  0
LWPOLYLINE
  5
232
100
AcDbEntity
  8
ASSI
100
AcDbPolyline
 62
7
  6
CONTINUOUS
 90
52
 70
0
 10
-11.1275383042
 20
-29.6860975099
 10
-10.5984824359
 20
-29.978478887
 10
-10.0524634673
 20
-30.2547537261
 10
-9.4903983701
 20
-30.5148061054
 10
-8.9129282842
 20
-30.758630042
 10
-8.3211555876
 20
-30.986009604
 10
-7.716796047
 20
-31.1965548652
 10
-7.1009973946
 20
-31.3901521485
 10
-6.4745623113
 20
-31.5668028602
 10
-5.8388833931
 20
-31.7263491492
 10
-5.1949907227
 20
-31.8687600782
 10
-4.5438761495
 20
-31.9940191178
 10
-3.8869989208
 20
-32.1020433333
 10
-3.2257914009
 20
-32.1928083469
 10
-2.5608838884
 20
-32.2664186929
 10
-1.8925816967
 20
-32.3229691692
 10
-1.2217292853
 20
-32.362466149
 10
-0.5494939651
 20
-32.384903009
 10
0.1233254959
 20
-32.3902983134
 10
0.7957207534
 20
-32.3786667072
 10
1.4666972877
 20
-32.3500333973
 10
2.1354802286
 20
-32.3044159609
 10
2.8009612482
 20
-32.2418553075
 10
3.462264231
 20
-32.1623835983
 10
4.1189794611
 20
-32.0659561579
 10
4.7705153919
 20
-31.9525084281
 10
5.4154619852
 20
-31.8221151189
 10
6.052245962
 20
-31.6749451016
 10
6.6796273012
 20
-31.5111524983
 10
7.2969465556
 20
-31.3307542708
 10
7.9035985743
 20
-31.1337174809
 10
8.4988628689
 20
-30.9200090701
 10
9.0815532504
 20
-30.6897551465
 10
9.6504787525
 20
-30.4431173363
 10
10.2056750674
 20
-30.1796870508
 10
10.745218309
 20
-29.8999371284
 10
11.2654019253
 20
-29.605562897
 10
11.765231264
 20
-29.297096712
 10
12.244532909
 20
-28.9745784926
 10
12.7014096383
 20
-28.6392675578
 10
13.1355969209
 20
-28.2914173997
 10
13.546547403
 20
-27.931491867
 10
13.9324113912
 20
-27.5613027538
 10
14.2932295984
 20
-27.1811489494
 10
14.6286267446
 20
-26.7917539127
 10
14.9367517259
 20
-26.3959466981
 10
15.2171365524
 20
-25.9955440902
 10
15.4708539278
 20
-25.5903122266
 10
15.6985844939
 20
-25.1802481085
 10
15.9005796484
 20
-24.7658980986
 10
16.0768599575
 20
-24.3483456251
 10
16.2276388463
 20
-23.9284312316
  0
LWPOLYLINE
  5
233
100
AcDbEntity
  8
ASSI
100
AcDbPolyline
 62
250
  6
CONTINUOUS
 90
40
 70
0
 10
-11.6788798682
 20
-28.8961494596
 10
-11.8598419601
 20
-28.7900195518
 10
-12.0379302643
 20
-28.6822593058
 10
-12.2131004051
 20
-28.5728944966
 10
-12.3853053588
 20
-28.4619534889
 10
-12.5545055945
 20
-28.3494607385
 10
-12.7206684903
 20
-28.2354364883
 10
-12.8837639408
 20
-28.1198992035
 10
-13.0437380973
 20
-28.0028847945
 10
-13.2005248254
 20
-27.8844407005
 10
-13.3540796438
 20
-27.7646007484
 10
-13.5043714424
 20
-27.643389446
 10
-13.6513573042
 20
-27.5208416517
 10
-13.794996472
 20
-27.3969920857
 10
-13.9352597803
 20
-27.271866652
 10
-14.0721226576
 20
-27.1454873657
 10
-14.2055578632
 20
-27.0178787033
 10
-14.3355257102
 20
-26.8890779233
 10
-14.4619843374
 20
-26.7591266853
 10
-14.5848968733
 20
-26.6280640039
 10
-14.704240752
 20
-26.495915099
 10
-14.8199968142
 20
-26.3627013448
 10
-14.9321421841
 20
-26.2284481818
 10
-15.0406430217
 20
-26.0931952074
 10
-15.1454649547
 20
-25.9569853637
 10
-15.2465782136
 20
-25.8198584626
 10
-15.3439635478
 20
-25.6818417812
 10
-15.4376037809
 20
-25.5429598258
 10
-15.5274791327
 20
-25.4032410909
 10
-15.6135637147
 20
-25.2627249449
 10
-15.6958323626
 20
-25.1214524508
 10
-15.7742631668
 20
-24.979462043
 10
-15.8488395319
 20
-24.8367846164
 10
-15.9195458307
 20
-24.6934502269
 10
-15.9863655723
 20
-24.5494918655
 10
-16.0492813102
 20
-24.4049466546
 10
-16.1082771092
 20
-24.2598510221
 10
-16.16333861
 20
-24.1142401857
 10
-16.2144522432
 20
-23.968149925
 10
-16.2276389933
 20
-23.9284312316
  0
LINE
  5
234
100
AcDbEntity
  8
ASSI
100
AcDbLine
 62
7
  6
CONTINUOUS
 10
-11.1567766142
 20
-29.6685468771
 11
-11.1275428427
 21
-29.6860948894
  0
LWPOLYLINE
  5
235
100
AcDbEntity
  8
ASSI
100
AcDbPolyline
 62
7
  6
CONTINUOUS
 90
16
 70
0
 10
-11.1587394753
 20
-29.6672672861
 10
-11.6433575194
 20
-29.3747953719
 10
-12.1368501552
 20
-29.0495007556
 10
-12.6075526349
 20
-28.7105699168
 10
-13.0558121718
 20
-28.3576791937
 10
-13.480231525
 20
-27.9918108579
 10
-13.8781116866
 20
-27.6155080171
 10
-14.249184755
 20
-27.2295444763
 10
-14.5935567464
 20
-26.8343299467
 10
-14.9097794524
 20
-26.4322842012
 10
-15.1976821847
 20
-26.0247844173
 10
-15.4579672335
 20
-25.6120743126
 10
-15.6907989553
 20
-25.1951556584
 10
-15.8964371838
 20
-24.7749987607
 10
-16.075255634
 20
-24.3524530679
 10
-16.2276389933
 20
-23.9284312316
  0
LWPOLYLINE
  5
236
100
AcDbEntity
  8
ASSI
100
AcDbPolyline
 62
250
  6
CONTINUOUS
 90
124
 70
0
 10
-21.110831215
 20
27.2974435472
 10
-21.1391944059
 20
27.1217523472
 10
-21.1631664944
 20
26.9459155636
 10
-21.1827474805
 20
26.7699331965
 10
-21.1979396612
 20
26.5937684006
 10
-21.2087407395
 20
26.4174580211
 10
-21.2151438248
 20
26.2411125938
 10
-21.2171461282
 20
26.0647323586
 10
-21.2147504385
 20
25.8883170754
 10
-21.2079582312
 20
25.7119765606
 10
-21.196766764
 20
25.5357108944
 10
-21.1811787791
 20
25.3595199965
 10
-21.161203979
 20
25.1835134423
 10
-21.1368396445
 20
25.0076913848
 10
-21.1080884947
 20
24.832053671
 10
-21.0749683887
 20
24.6567094174
 10
-21.0374765997
 20
24.4816587538
 10
-20.9956158545
 20
24.3069015503
 10
-20.9494121921
 20
24.1325465338
 10
-20.8988629158
 20
23.9585939795
 10
-20.8439707223
 20
23.7850436122
 10
-20.7847697405
 20
23.6120033328
 10
-20.7212572855
 20
23.4394734467
 10
-20.6534360423
 20
23.2674536485
 10
-20.581348194
 20
23.0960509233
 10
-20.5049910994
 20
22.9252656801
 10
-20.4243673997
 20
22.7550975099
 10
-20.3395272022
 20
22.5856521711
 10
-20.2504678703
 20
22.4169300846
 10
-20.1571920405
 20
22.2489308295
 10
-20.0597577288
 20
22.0817589016
 10
-19.9581623591
 20
21.9154148339
 10
-19.8524085075
 20
21.7498980934
 10
-19.7425619179
 20
21.5853115762
 10
-19.6286200366
 20
21.4216558485
 10
-19.5105854172
 20
21.258930344
 10
-19.3885314644
 20
21.0972362603
 10
-19.2624556857
 20
20.9365742486
 10
-19.1323605735
 20
20.7769436576
 10
-18.99832701
 20
20.6184437314
 10
-18.8603525425
 20
20.4610751685
 10
-18.7184396236
 20
20.3048372704
 10
-18.5726764937
 20
20.1498271855
 10
-18.4230607561
 20
19.9960456755
 10
-18.2695948074
 20
19.8434919786
 10
-18.1123740785
 20
19.6922609579
 10
-17.9513962421
 20
19.5423534429
 10
-17.7866636256
 20
19.3937686041
 10
-17.6182786414
 20
19.2465988156
 10
-17.4462390048
 20
19.1008449463
 10
-17.2705470006
 20
18.9565061274
 10
-17.0913118962
 20
18.8136721264
 10
-16.9085315075
 20
18.6723438942
 10
-16.7222080187
 20
18.5325204799
 10
-16.5324572498
 20
18.3942887992
 10
-16.3392770446
 20
18.2576498245
 10
-16.1426695593
 20
18.1226025834
 10
-15.9427570824
 20
17.9892310742
 10
-15.7395375871
 20
17.8575363577
 10
-15.5330131002
 20
17.727517373
 10
-15.3233119896
 20
17.5992549352
 10
-15.1104322479
 20
17.4727501175
 10
-14.8943758824
 20
17.3480018468
 10
-14.6752772834
 20
17.2250877182
 10
-14.453134592
 20
17.1040088908
 10
-14.227949667
 20
16.9847642055
 10
-13.9998624752
 20
16.8674277804
 10
-13.768871179
 20
16.7520007856
 10
-13.534977616
 20
16.638482051
 10
-13.298327266
 20
16.5269421845
 10
-13.0589184447
 20
16.4173824311
 10
-12.8167528363
 20
16.3098015456
 10
-12.5719809735
 20
16.2042664014
 10
-12.3246012096
 20
16.1007782595
 10
-12.0746151912
 20
15.9993358587
 10
-11.8221783907
 20
15.9000022889
 10
-11.5672893033
 20
15.8027788694
 10
-11.3099494337
 20
15.7076642808
 10
-11.0503187683
 20
15.614717655
 10
-10.7883958703
 20
15.5239403356
 10
-10.5241821764
 20
15.4353309789
 10
-10.2578419838
 20
15.3489446855
 10
-9.9893739732
 20
15.2647828394
 10
-9.7187794638
 20
15.1828440566
 10
-9.4462267107
 20
15.103179286
 10
-9.1717145037
 20
15.0257899437
 10
-8.895244053
 20
14.9506746136
 10
-8.6169872431
 20
14.877879996
 10
-8.3369429463
 20
14.8074075302
 10
-8.0551122904
 20
14.7392557768
 10
-7.7716705431
 20
14.673467119
 10
-7.4866167239
 20
14.610043031
 10
-7.1999518133
 20
14.5489820385
 10
-6.9118540215
 20
14.4903221012
 10
-6.6223224249
 20
14.4340647065
 10
-6.331357947
 20
14.380208367
 10
-6.0391415678
 20
14.3287865804
 10
-5.7456725584
 20
14.2798008689
 10
-5.4509516478
 20
14.2332497103
 10
-5.1551620028
 20
14.1891620359
 10
-4.8583029153
 20
14.1475393707
 10
-4.5603750935
 20
14.1083801896
 10
-4.2615638293
 20
14.0717088488
 10
-3.961868594
 20
14.0375268985
 10
-3.6612899164
 20
14.0058327886
 10
-3.3600146746
 20
13.9766462246
 10
-3.058042392
 20
13.9499687636
 10
-2.7553735452
 20
13.9257988485
 10
-2.4521964421
 20
13.904151514
 10
-2.1485108576
 20
13.8850283343
 10
-1.8443170169
 20
13.8684277351
 10
-1.5398039023
 20
13.8543600282
 10
-1.2349712485
 20
13.8428267836
 10
-0.9298193209
 20
13.8338264313
 10
-0.6245378989
 20
13.827364573
 10
-0.3191268443
 20
13.8234427915
 10
-0.0135862953
 20
13.822059504
 10
0.2918935549
 20
13.8232155633
 10
0.5973129226
 20
13.8269125688
 10
0.9026715915
 20
13.8331489211
 10
1.2077787196
 20
13.8419206751
 10
1.5125706929
 20
13.8532265157
 10
1.8171111255
 20
13.8670677579
 10
2.1214000173
 20
13.8834444019
  0
LWPOLYLINE
  5
237
100
AcDbEntity
  8
ASSI
100
AcDbPolyline
 62
7
  6
CONTINUOUS
 90
10
 70
0
 10
-21.6034265043
 20
26.9749398556
 10
-21.5162697792
 20
27.4619455313
 10
-21.4243666164
 20
27.9486646564
 10
-21.3277197022
 20
28.4350814752
 10
-21.2263319409
 20
28.9211799478
 10
-21.1202062704
 20
29.4069446432
 10
-21.0093456311
 20
29.8923607448
 10
-20.8937532255
 20
30.3774128606
 10
-20.7734325493
 20
30.8620850165
 10
-20.6483871846
 20
31.3463615535
  0
LWPOLYLINE
  5
238
100
AcDbEntity
  8
ASSI
100
AcDbPolyline
 62
7
  6
CONTINUOUS
 90
87
 70
0
 10
-16.8834422388
 20
19.7312109538
 10
-16.7457728932
 20
19.8642525766
 10
-16.5916777958
 20
20.0082333416
 10
-16.4338835852
 20
20.1508513909
 10
-16.272383646
 20
20.2921161399
 10
-16.1072733852
 20
20.4319442921
 10
-15.9385423594
 20
20.57034171
 10
-15.766201012
 20
20.7073025312
 10
-15.5903760791
 20
20.8427258713
 10
-15.4110717822
 20
20.9766055798
 10
-15.2282838998
 20
21.1089478073
 10
-15.042126504
 20
21.2396701219
 10
-14.8525926238
 20
21.3687748389
 10
-14.6596892302
 20
21.4962596431
 10
-14.4635513079
 20
21.6220351573
 10
-14.2641791413
 20
21.7460985362
 10
-14.061572446
 20
21.8684526251
 10
-13.8558653539
 20
21.9890165838
 10
-13.6470559052
 20
22.1077892806
 10
-13.4351460597
 20
22.2247718472
 10
-13.220275828
 20
22.3398868375
 10
-13.0024402818
 20
22.4531344156
 10
-12.7816443494
 20
22.5645144175
 10
-12.5580428264
 20
22.6739489045
 10
-12.3316397226
 20
22.7814338517
 10
-12.1024310282
 20
22.8869732841
 10
-11.8705595102
 20
22.990501338
 10
-11.6360145159
 20
23.0920204506
 10
-11.398806698
 20
23.1915281847
 10
-11.1591107817
 20
23.2889513643
 10
-10.9169369208
 20
23.3842839596
 10
-10.6722749615
 20
23.4775320003
 10
-10.4252691681
 20
23.5686403999
 10
-10.1759032341
 20
23.6576129779
 10
-9.924193466
 20
23.7444459147
 10
-9.6703330481
 20
23.8290726648
 10
-9.414338098
 20
23.911486074
 10
-9.1561924981
 20
23.9916932966
 10
-8.896041079
 20
24.0696492495
 10
-8.6338622179
 20
24.1453583151
 10
-8.3696775375
 20
24.2188161111
 10
-8.1036967368
 20
24.2899644077
 10
-7.8359414581
 20
24.3587957259
 10
-7.566390059
 20
24.4253175447
 10
-7.2951873102
 20
24.4894940709
 10
-7.0223068542
 20
24.5513295219
 10
-6.7477750485
 20
24.6108196802
 10
-6.4718157366
 20
24.6679160999
 10
-6.1944554131
 20
24.7226116764
 10
-5.9156675835
 20
24.7749135142
 10
-5.6355966075
 20
24.8247944811
 10
-5.3542121885
 20
24.8722580141
 10
-5.0715446232
 20
24.9173006761
 10
-4.7878291608
 20
24.9598850247
 10
-4.5030962726
 20
25.0000049088
 10
-4.2173154872
 20
25.0376664794
 10
-3.9306306399
 20
25.0728507465
 10
-3.6430084717
 20
25.1055598789
 10
-3.3544822415
 20
25.1357917078
 10
-3.065295562
 20
25.163520736
 10
-2.7754818411
 20
25.1887422096
 10
-2.4850076708
 20
25.2114608824
 10
-2.1940164399
 20
25.2316655193
 10
-1.9024730433
 20
25.2493566786
 10
-1.6104125862
 20
25.2645338019
 10
-1.318083773
 20
25.2771839791
 10
-1.0255217862
 20
25.2873041462
 10
-0.7326914433
 20
25.2948973672
 10
-0.4397359021
 20
25.2999599234
 10
-0.1466194214
 20
25.3024905755
 10
0.1466222577
 20
25.3024905627
 10
0.4397387546
 20
25.2999598845
 10
0.7326943477
 20
25.2948973003
 10
1.0255247586
 20
25.2873040507
 10
1.3180867717
 20
25.2771838567
 10
1.6104155109
 20
25.2645336577
 10
1.9024758522
 20
25.2493565145
 10
2.1940192079
 20
25.2316653297
 10
2.4850105715
 20
25.2114606541
 10
2.7754849493
 20
25.1887419371
 10
3.0652987735
 20
25.1635204289
 10
3.354485311
 20
25.1357913897
 10
3.6430112948
 20
25.1055595593
 10
3.9306333549
 20
25.0728504081
 10
4.2173184174
 20
25.0376660819
 10
4.5030995563
 20
25.0000044348
 10
4.6710677384
 20
24.9763371008
  0
LWPOLYLINE
  5
239
100
AcDbEntity
  8
ASSI
100
AcDbPolyline
 62
7
  6
CONTINUOUS
 90
11
 70
0
 10
-16.2276389933
 20
-23.9284312316
 10
-16.7984642906
 20
-22.1392689971
 10
-17.351229015
 20
-20.3012831506
 10
-17.8838919022
 20
-18.4145344745
 10
-18.3969493394
 20
-16.4690130691
 10
-18.8853403012
 20
-14.4749580705
 10
-19.3401922449
 20
-12.4635696397
 10
-19.7589503986
 20
-10.4457754278
 10
-20.1433802834
 20
-8.4127311873
 10
-20.4927663369
 20
-6.3666450262
 10
-20.8066593301
 20
-4.308699322
  0
LWPOLYLINE
  5
23A
100
AcDbEntity
  8
ASSI
100
AcDbPolyline
 62
7
  6
CONTINUOUS
 90
4
 70
0
 10
-21.9626971831
 20
11.69813719
 10
-21.978861624
 20
11.8808393408
 10
-21.9904670698
 20
12.0636148882
 10
-21.9975102788
 20
12.246458397
  0
LWPOLYLINE
  5
23B
100
AcDbEntity
  8
ASSI
100
AcDbPolyline
 62
7
  6
CONTINUOUS
 90
46
 70
0
 10
-21.980952218
 20
10.4021649166
 10
-21.9766254061
 20
10.2161590676
 10
-21.9716219176
 20
10.0222488881
 10
-21.9659356991
 20
9.8204067238
 10
-21.9594491226
 20
9.6098459203
 10
-21.9521686104
 20
9.3905942866
 10
-21.9440874137
 20
9.1626256034
 10
-21.9350696791
 20
8.9250722951
 10
-21.9251273153
 20
8.6780191065
 10
-21.914249799
 20
8.4213829676
 10
-21.9022694878
 20
8.1540446787
 10
-21.8891943209
 20
7.8759344333
 10
-21.8750196312
 20
7.5871237342
 10
-21.8595613354
 20
7.2867053384
 10
-21.842789599
 20
6.9740037623
 10
-21.8247401541
 20
6.649695954
 10
-21.8053310603
 20
6.3149028856
 10
-21.7845247158
 20
5.9690647658
 10
-21.7623687885
 20
5.6127417204
 10
-21.7389136317
 20
5.2487335799
 10
-21.7141429288
 20
4.8769252031
 10
-21.6880857233
 20
4.4974302557
 10
-21.6608634585
 20
4.1133905258
 10
-21.6324581937
 20
3.7246948918
 10
-21.6028997138
 20
3.3314511546
 10
-21.5723820564
 20
2.9371283469
 10
-21.540879517
 20
2.5415830564
 10
-21.5084255913
 20
2.1449537621
 10
-21.4753024387
 20
1.751131518
 10
-21.4414889482
 20
1.3601133548
 10
-21.407007676
 20
0.9718962737
 10
-21.3722047003
 20
0.5903710314
 10
-21.3370560313
 20
0.2155809431
 10
-21.301580097
 20
-0.1525233795
 10
-21.2661853366
 20
-0.5101897314
 10
-21.2308392038
 20
-0.8573685427
 10
-21.1955632029
 20
-1.1941144719
 10
-21.160847418
 20
-1.5168302715
 10
-21.1267264496
 20
-1.824855206
 10
-21.0931532691
 20
-2.1188528729
 10
-21.0604987744
 20
-2.3972105724
 10
-21.0288651458
 20
-2.6589456215
 10
-20.9981408676
 20
-2.9050410443
 10
-20.9683806731
 20
-3.1368311724
 10
-20.9396334159
 20
-3.3540166864
 10
-20.8066593301
 20
-4.308699322
  0
LINE
  5
23C
100
AcDbEntity
  8
ASSI
100
AcDbLine
 62
7
  6
CONTINUOUS
 10
-21.9876658011
 20
10.7510780187
 11
-21.980952218
 21
10.4021649166
  0
LWPOLYLINE
  5
23D
100
AcDbEntity
  8
ASSI
100
AcDbPolyline
 62
250
  6
CONTINUOUS
 90
162
 70
0
 10
-19.887803075
 20
25.5054640133
 10
-19.8897738637
 20
25.6297493059
 10
-19.8887085469
 20
25.7991419839
 10
-19.8833160889
 20
25.9685071517
 10
-19.8735976645
 20
26.1378079546
 10
-19.8595553891
 20
26.3070075587
 10
-19.8411923212
 20
26.4760691359
 10
-19.818512456
 20
26.6449559198
 10
-19.7915207208
 20
26.8136312144
 10
-19.760222979
 20
26.9820583551
 10
-19.7246260425
 20
27.1502006635
 10
-19.6847376669
 20
27.3180215043
 10
-19.6405665406
 20
27.4854843345
 10
-19.5921222686
 20
27.6525527504
 10
-19.5394153797
 20
27.8191904421
 10
-19.4824573307
 20
27.9853611799
 10
-19.4212605204
 20
28.1510287847
 10
-19.3558382774
 20
28.3161571744
 10
-19.2862048481
 20
28.4807103971
 10
-19.2123753742
 20
28.6446526773
 10
-19.1343659013
 20
28.8079483854
 10
-19.0521933879
 20
28.9705620169
 10
-18.9658757218
 20
29.1324581681
 10
-18.8754317
 20
29.2936015835
 10
-18.7808810126
 20
29.4539571848
 10
-18.6822442215
 20
29.6134901029
 10
-18.5795427721
 20
29.7721656528
 10
-18.4727989989
 20
29.929949325
 10
-18.3620361337
 20
30.0868067771
 10
-18.2472782863
 20
30.2427038655
 10
-18.1285504312
 20
30.3976066642
 10
-18.0058783943
 20
30.5514814796
 10
-17.8792888588
 20
30.7042948416
 10
-17.7488093643
 20
30.8560135052
 10
-17.6144683007
 20
31.0066044589
 10
-17.4762948954
 20
31.1560349399
 10
-17.3343192069
 20
31.3042724402
 10
-17.1885721275
 20
31.4512847047
 10
-17.0390853763
 20
31.5970397388
 10
-16.8858914869
 20
31.7415058227
 10
-16.7290237807
 20
31.8846515341
 10
-16.5685163688
 20
32.0264457457
 10
-16.4044041561
 20
32.1668576204
 10
-16.2367228622
 20
32.3058565956
 10
-16.0655089968
 20
32.4434124068
 10
-15.8907998329
 20
32.5794951103
 10
-15.712633362
 20
32.714075116
 10
-15.531048311
 20
32.8471231712
 10
-15.3460841586
 20
32.9786103472
 10
-15.1577811723
 20
33.1085080168
 10
-14.9661803643
 20
33.2367878882
 10
-14.7713234537
 20
33.3634220324
 10
-14.5732528056
 20
33.488382919
 10
-14.3720114642
 20
33.6116433921
 10
-14.1676431772
 20
33.7331766538
 10
-13.960192441
 20
33.8529562408
 10
-13.7497044433
 20
33.9709560621
 10
-13.536225017
 20
34.0871504261
 10
-13.3198005742
 20
34.2015140734
 10
-13.1004781476
 20
34.3140221508
 10
-12.8783054179
 20
34.4246501972
 10
-12.6533307565
 20
34.5333741245
 10
-12.4256031628
 20
34.6401702525
 10
-12.1951722176
 20
34.7450153317
 10
-11.9620880232
 20
34.8478865672
 10
-11.7264012441
 20
34.9487615985
 10
-11.4881631279
 20
35.04761849
 10
-11.2474255357
 20
35.1444357204
 10
-11.0042408834
 20
35.2391922097
 10
-10.7586621036
 20
35.3318673338
 10
-10.5107426042
 20
35.4224409389
 10
-10.260536296
 20
35.5108933297
 10
-10.0080976002
 20
35.5972052667
 10
-9.7534814539
 20
35.6813579654
 10
-9.4967432694
 20
35.7633331117
 10
-9.2379389105
 20
35.8431128687
 10
-8.9771246791
 20
35.9206798809
 10
-8.7143573186
 20
35.9960172727
 10
-8.4496940028
 20
36.0691086521
 10
-8.18319231
 20
36.1399381181
 10
-7.9149102082
 20
36.2084902641
 10
-7.6449060525
 20
36.2747501784
 10
-7.3732386009
 20
36.3387034413
 10
-7.0999669881
 20
36.4003361317
 10
-6.8251506928
 20
36.4596348361
 10
-6.5488494834
 20
36.5165866586
 10
-6.2711234323
 20
36.571179217
 10
-5.9920329305
 20
36.623400639
 10
-5.7116387313
 20
36.6732395558
 10
-5.4300018954
 20
36.7206851141
 10
-5.1471837398
 20
36.7657269858
 10
-4.863245756
 20
36.8083553791
 10
-4.5782496522
 20
36.8485610295
 10
-4.2922573896
 20
36.8863351944
 10
-4.0053312347
 20
36.921669648
 10
-3.7175336792
 20
36.9545566945
 10
-3.4289273833
 20
36.984989175
 10
-3.1395750945
 20
37.0129604743
 10
-2.8495396994
 20
37.0384645133
 10
-2.558884247
 20
37.0614957462
 10
-2.2676720272
 20
37.0820491562
 10
-1.9759664906
 20
37.1001202655
 10
-1.6838311615
 20
37.1157051407
 10
-1.391329541
 20
37.1288003965
 10
-1.0985251848
 20
37.1394031878
 10
-0.80548177
 20
37.1475112078
 10
-0.5122630807
 20
37.1531226906
 10
-0.2189329107
 20
37.1562364146
 10
0.0744449097
 20
37.1568517016
 10
0.3678065622
 20
37.1549684173
 10
0.6610882559
 20
37.1505869699
 10
0.9542262713
 20
37.1437083085
 10
1.2471567414
 20
37.1343339292
 10
1.5398157006
 20
37.1224658802
 10
1.8321394053
 20
37.1081067519
 10
2.1240643271
 20
37.0912596699
 10
2.4155269344
 20
37.0719283054
 10
2.7064636196
 20
37.0501168846
 10
2.9968112823
 20
37.0258301454
 10
3.286507319
 20
36.9990733219
 10
3.5754887723
 20
36.9698522181
 10
3.8636926925
 20
36.9381731885
 10
4.1510567137
 20
36.9040430735
 10
4.4375189208
 20
36.8674691996
 10
4.7230163641
 20
36.8284595764
 10
5.0074854311
 20
36.7870228967
 10
5.2908642788
 20
36.7431681894
 10
5.5730912211
 20
36.6969050215
 10
5.8541032738
 20
36.648243761
 10
6.1338375901
 20
36.597195381
 10
6.4122351
 20
36.5437707517
 10
6.6892388722
 20
36.4879808133
 10
6.9647880429
 20
36.4298377957
 10
7.2388232295
 20
36.3693542007
 10
7.5112900517
 20
36.306541916
 10
7.7821331435
 20
36.2414134516
 10
8.0512893741
 20
36.1739837329
 10
8.3186932777
 20
36.1042690684
 10
8.584289598
 20
36.0322838304
 10
8.8480175863
 20
35.9580444499
 10
9.1098045948
 20
35.8815716334
 10
9.3695860087
 20
35.8028848899
 10
9.6273138088
 20
35.7219994028
 10
9.8829410386
 20
35.6389302743
 10
10.1364033155
 20
35.5536987999
 10
10.3876547867
 20
35.4663207748
 10
10.6366758511
 20
35.3768026255
 10
10.8834219604
 20
35.2851591643
 10
11.1278280198
 20
35.1914133549
 10
11.3698432682
 20
35.0955835723
 10
11.6094324866
 20
34.9976822428
 10
11.8465237453
 20
34.8977372236
 10
12.0810135391
 20
34.7957919675
 10
12.3128534409
 20
34.6918683321
 10
12.5419916968
 20
34.5859903293
 10
12.7683243598
 20
34.4782080219
 10
12.9918049716
 20
34.3685467725
 10
13.2123877114
 20
34.2570323429
 10
13.4299747005
 20
34.1437187481
 10
13.6445063692
 20
34.028643241
 10
13.8559591458
 20
33.9118247767
 10
14.064292421
 20
33.7932917646
  0
LINE
  5
23E
100
AcDbEntity
  8
ASSI
100
AcDbLine
 62
7
  6
CONTINUOUS
 10
-21.9975102788
 20
12.246458397
 11
-21.9999944929
 21
12.4293753023
  0
LINE
  5
23F
100
AcDbEntity
  8
ASSI
100
AcDbLine
 62
7
  6
CONTINUOUS
 10
-21.9914143013
 20
11.0125563225
 11
-21.9876658011
 21
10.7510780187
  0
LINE
  5
240
100
AcDbEntity
  8
ASSI
100
AcDbLine
 62
7
  6
CONTINUOUS
 10
-21.9914147194
 20
11.0125562162
 11
-22.0000000735
 21
12.4375381574
  0
LINE
  5
241
100
AcDbEntity
  8
ASSI
100
AcDbLine
 62
7
  6
CONTINUOUS
 10
-21.9999944929
 20
12.4293753023
 11
-21.9983240575
 21
12.5943123167
  0
LWPOLYLINE
  5
242
100
AcDbEntity
  8
ASSI
100
AcDbPolyline
 62
250
  6
CONTINUOUS
 90
118
 70
0
 10
-21.7154211366
 20
25.8262440879
 10
-21.7170712313
 20
25.663414559
 10
-21.7146191768
 20
25.4828676359
 10
-21.707664955
 20
25.3023598301
 10
-21.6962100114
 20
25.1219286016
 10
-21.6802567212
 20
24.9416113251
 10
-21.6598083963
 20
24.7614454095
 10
-21.6348692849
 20
24.5814682483
 10
-21.6054445566
 20
24.4017171173
 10
-21.571540296
 20
24.2222291898
 10
-21.533163516
 20
24.043041626
 10
-21.4903221787
 20
23.8641916318
 10
-21.4430251808
 20
23.6857163552
 10
-21.3912823368
 20
23.5076528257
 10
-21.3351043691
 20
23.3300379361
 10
-21.2745029224
 20
23.1529085013
 10
-21.2094905565
 20
22.976301234
 10
-21.1400807548
 20
22.8002527631
 10
-21.0662879195
 20
22.6247996158
 10
-20.9881273643
 20
22.4499781949
 10
-20.9056152858
 20
22.2758247203
 10
-20.8187687673
 20
22.1023752489
 10
-20.7276057972
 20
21.9296657137
 10
-20.6321452891
 20
21.7577319528
 10
-20.5324070551
 20
21.5866096507
 10
-20.4284117868
 20
21.4163343054
 10
-20.320181036
 20
21.2469412014
 10
-20.2077372297
 20
21.0784654392
 10
-20.0911036715
 20
20.9109419371
 10
-19.9703045512
 20
20.7444054412
 10
-19.8453649271
 20
20.5788904974
 10
-19.7163107119
 20
20.4144314321
 10
-19.583168656
 20
20.2510623331
 10
-19.4459663544
 20
20.08881706
 10
-19.3047322495
 20
19.927729247
 10
-19.1594956273
 20
19.7678322979
 10
-19.0102866015
 20
19.6091593662
 10
-18.857136106
 20
19.4517433483
 10
-18.7000758957
 20
19.2956168837
 10
-18.5391385422
 20
19.1408123501
 10
-18.3743574214
 20
18.9873618509
 10
-18.2057666909
 20
18.8352971939
 10
-18.0334012892
 20
18.6846498929
 10
-17.8572969389
 20
18.5354511709
 10
-17.6774901649
 20
18.3877319736
 10
-17.494018272
 20
18.2415229487
 10
-17.3069193209
 20
18.0968544249
 10
-17.1162320853
 20
17.9537563808
 10
-16.9219960668
 20
17.8122584602
 10
-16.7242515106
 20
17.672389983
 10
-16.5230394393
 20
17.5341799672
 10
-16.3184016124
 20
17.3976570967
 10
-16.1103804892
 20
17.2628496961
 10
-15.8990191715
 20
17.129785695
 10
-15.6843614344
 20
16.9984926525
 10
-15.4664517494
 20
16.8689977712
 10
-15.2453353274
 20
16.7413279203
 10
-15.0210580638
 20
16.6155095991
 10
-14.7936664942
 20
16.4915689119
 10
-14.5632077321
 20
16.3695315359
 10
-14.3297295078
 20
16.2494227464
 10
-14.0932801941
 20
16.1312674297
 10
-13.8539088471
 20
16.0150901013
 10
-13.6116651457
 20
15.9009148728
 10
-13.3665993476
 20
15.7887654299
 10
-13.1187622329
 20
15.6786650098
 10
-12.8682051426
 20
15.5706364202
 10
-12.6149799979
 20
15.4647020486
 10
-12.3591393266
 20
15.3608838706
 10
-12.1007362083
 20
15.2592034257
 10
-11.8398242394
 20
15.1596818028
 10
-11.576457496
 20
15.0623396279
 10
-11.3106905581
 20
14.9671970738
 10
-11.042578515
 20
14.8742738627
 10
-10.7721769675
 20
14.7835892656
 10
-10.499541992
 20
14.6951620887
 10
-10.2247301186
 20
14.6090106671
 10
-9.9477983213
 20
14.5251528616
 10
-9.6688040202
 20
14.4436060593
 10
-9.3878050683
 20
14.3643871698
 10
-9.1048597183
 20
14.2875126152
 10
-8.8200266129
 20
14.2129983286
 10
-8.5333647901
 20
14.1408597553
 10
-8.2449337011
 20
14.0711118571
 10
-7.9547931776
 20
14.0037691022
 10
-7.6630033973
 20
13.9388454575
 10
-7.3696248367
 20
13.8763543782
 10
-7.0747182879
 20
13.8163088136
 10
-6.7783448615
 20
13.7587212071
 10
-6.4805660379
 20
13.703603506
 10
-6.1814436203
 20
13.6509671495
 10
-5.8810396781
 20
13.600823058
 10
-5.5794164453
 20
13.5531816178
 10
-5.2766363696
 20
13.5080526926
 10
-4.9727621819
 20
13.4654456342
 10
-4.6678569298
 20
13.4253692843
 10
-4.3619838764
 20
13.3878319588
 10
-4.0552064609
 20
13.3528414428
 10
-3.7475882671
 20
13.3204049882
 10
-3.4391930567
 20
13.2905293184
 10
-3.1300847259
 20
13.2632206244
 10
-2.8203274071
 20
13.2384845731
 10
-2.5099854383
 20
13.2163263012
 10
-2.1991232576
 20
13.1967504059
 10
-1.8878052244
 20
13.1797609365
 10
-1.5760957202
 20
13.1653614059
 10
-1.2640593036
 20
13.1535547991
 10
-0.9517607387
 20
13.1443435691
 10
-0.6392648167
 20
13.137729628
 10
-0.3266362696
 20
13.1337143474
 10
-0.0139399745
 20
13.1322985617
 10
0.2987590185
 20
13.1334825635
 10
0.6113956271
 20
13.1372660982
 10
0.9239052811
 20
13.1436483767
 10
1.2362237174
 20
13.1526280884
 10
1.5482863576
 20
13.1642033872
 10
1.860028323
 20
13.1783718772
 10
2.1713849779
 20
13.1951306293
  0
LINE
  5
243
100
AcDbEntity
  8
ASSI
100
AcDbLine
 62
7
  6
CONTINUOUS
 10
-21.7154211366
 20
25.8262440878
 11
-21.9983239496
 21
12.5943173621
  0
LWPOLYLINE
  5
244
100
AcDbEntity
  8
ASSI
100
AcDbPolyline
 62
7
  6
CONTINUOUS
 90
10
 70
0
 10
-21.7154211366
 20
25.8262440878
 10
-21.7116106321
 20
25.9540264964
 10
-21.7056426841
 20
26.081800863
 10
-21.6975168021
 20
26.209552925
 10
-21.6872332219
 20
26.3372632554
 10
-21.6747916987
 20
26.4649227948
 10
-21.6601906285
 20
26.5925328605
 10
-21.6434290633
 20
26.7200844328
 10
-21.6245075893
 20
26.8475581511
 10
-21.6034265043
 20
26.9749398556
  0
LWPOLYLINE
  5
245
100
AcDbEntity
  8
ASSI
100
AcDbPolyline
 62
7
  6
CONTINUOUS
 90
14
 70
0
 10
-9.2734972065
 20
17.9559740718
 10
-9.2838888112
 20
17.9423924689
 10
-9.3109990152
 20
17.9052568041
 10
-9.3365145296
 20
17.8677194184
 10
-9.3603878196
 20
17.8298502433
 10
-9.3826158239
 20
17.7916486602
 10
-9.4032016038
 20
17.7531152877
 10
-9.4221068084
 20
17.7143219125
 10
-9.4393283049
 20
17.6752680501
 10
-9.4548692262
 20
17.6359541849
 10
-9.4687006198
 20
17.596453558
 10
-9.480819299
 20
17.5567658211
 10
-9.4912284506
 20
17.5168913224
 10
-9.4999086825
 20
17.4769043472
  0
LWPOLYLINE
  5
246
100
AcDbEntity
  8
ASSI
100
AcDbPolyline
 62
7
  6
CONTINUOUS
 90
4
 70
0
 10
-9.3857359752
 20
17.7858082231
 10
-9.3548679136
 20
17.8158470031
 10
-9.3158733635
 20
17.8518163886
 10
-9.2754051321
 20
17.8872389434
  0
LWPOLYLINE
  5
247
100
AcDbEntity
  8
ASSI
100
AcDbPolyline
 62
7
  6
CONTINUOUS
 90
3
 70
0
 10
-9.2754051321
 20
17.8872389434
 10
-9.2334657184
 20
17.9221155948
 10
-9.1901263198
 20
17.9563871353
  0
LWPOLYLINE
  5
248
100
AcDbEntity
  8
ASSI
100
AcDbPolyline
 62
7
  6
CONTINUOUS
 90
73
 70
0
 10
-9.1901263198
 20
17.9563871353
 10
-9.1453845585
 20
17.9900525369
 10
-9.0992428124
 20
18.0231128275
 10
-9.051779413
 20
18.055511883
 10
-9.0029921155
 20
18.0872485802
 10
-8.9528831648
 20
18.1183240422
 10
-8.9015376273
 20
18.1486855146
 10
-8.8489534025
 20
18.1783317844
 10
-8.7951325909
 20
18.2072640646
 10
-8.7401665603
 20
18.2354332387
 10
-8.6840533654
 20
18.2628380106
 10
-8.6267949515
 20
18.2894796765
 10
-8.568488522
 20
18.3153130088
 10
-8.509132297
 20
18.3403366343
 10
-8.4487280564
 20
18.3645519262
 10
-8.3873783444
 20
18.3879177758
 10
-8.3250815549
 20
18.4104327403
 10
-8.2618392939
 20
18.4320982626
 10
-8.1977589233
 20
18.4528775626
 10
-8.1328390195
 20
18.472769135
 10
-8.0670810062
 20
18.4917744851
 10
-8.0005965159
 20
18.5098613489
 10
-7.9333843149
 20
18.5270281662
 10
-7.8654456369
 20
18.5432764973
 10
-7.7968958167
 20
18.5585787584
 10
-7.7277338163
 20
18.5729333426
 10
-7.6579606736
 20
18.5863418568
 10
-7.5876948377
 20
18.5987815384
 10
-7.5169354716
 20
18.6102507417
 10
-7.4456834122
 20
18.6207511124
 10
-7.3740596191
 20
18.6302648247
 10
-7.3020634608
 20
18.6387902027
 10
-7.2296955689
 20
18.6463289223
 10
-7.157078797
 20
18.6528681857
 10
-7.0842127225
 20
18.658406295
 10
-7.0110977682
 20
18.6629449481
 10
-6.937858056
 20
18.6664764398
 10
-6.8644933741
 20
18.6689990596
 10
-6.7910039344
 20
18.6705145181
 10
-6.7175144948
 20
18.6710202426
 10
-6.6440250551
 20
18.6705145181
 10
-6.5705356154
 20
18.6689990596
 10
-6.4971709335
 20
18.6664764398
 10
-6.4239312213
 20
18.6629449481
 10
-6.350816267
 20
18.658406295
 10
-6.2779501925
 20
18.6528681857
 10
-6.2053334206
 20
18.6463289223
 10
-6.1329655287
 20
18.6387902027
 10
-6.0609693704
 20
18.6302648247
 10
-5.9893455773
 20
18.6207511124
 10
-5.9180935179
 20
18.6102507417
 10
-5.8473341518
 20
18.5987815384
 10
-5.7770683159
 20
18.5863418568
 10
-5.7072951732
 20
18.5729333426
 10
-5.6381331728
 20
18.5585787584
 10
-5.5695833526
 20
18.5432764973
 10
-5.5016446747
 20
18.5270281662
 10
-5.4344324736
 20
18.5098613489
 10
-5.3679479833
 20
18.4917744851
 10
-5.30218997
 20
18.472769135
 10
-5.2372700662
 20
18.4528775626
 10
-5.1731896956
 20
18.4320982626
 10
-5.1099474346
 20
18.4104327403
 10
-5.0476506451
 20
18.3879177758
 10
-4.9863009331
 20
18.3645519262
 10
-4.9258966925
 20
18.3403366343
 10
-4.8665404675
 20
18.3153130088
 10
-4.8082340381
 20
18.2894796765
 10
-4.7509756241
 20
18.2628380106
 10
-4.6948624292
 20
18.2354332387
 10
-4.6399268545
 20
18.2072804367
 10
-4.5861364988
 20
18.1783645286
 10
-4.5334913622
 20
18.1486855146
  0
LWPOLYLINE
  5
249
100
AcDbEntity
  8
ASSI
100
AcDbPolyline
 62
7
  6
CONTINUOUS
 90
17
 70
0
 10
-8.7823727776
 20
18.4301105838
 10
-8.8307244985
 20
18.400022483
 10
-8.8777339057
 20
18.3692674106
 10
-8.923398497
 20
18.3378441233
 10
-8.9677207746
 20
18.3057538643
 10
-9.0106181671
 20
18.2730564171
 10
-9.0520880183
 20
18.2397506498
 10
-9.0921329844
 20
18.2058376943
 10
-9.1306784626
 20
18.1713807297
 10
-9.1677216575
 20
18.1363787418
 10
-9.2032653644
 20
18.1008327449
 10
-9.2372433662
 20
18.0648089602
 10
-9.2696527443
 20
18.0283064971
 10
-9.3004964172
 20
17.9913262463
 10
-9.329716924
 20
17.9539371011
 10
-9.3573112388
 20
17.9161382993
 10
-9.3578747385
 20
17.9153093015
  0
LINE
  5
24A
100
AcDbEntity
  8
ASSI
100
AcDbLine
 62
250
  6
CONTINUOUS
 10
-8.7868480012
 20
18.5482719552
 11
-8.7426412636
 21
18.575631385
  0
LWPOLYLINE
  5
24B
100
AcDbEntity
  8
COPY-PUBBLISH
100
AcDbPolyline
 62
7
  6
CONTINUOUS
 90
7
 70
0
 10
-8.6974134821
 20
17.37765057
 10
-8.8234264821
 20
17.2998234414
 10
-8.9394986152
 20
17.2181610218
 10
-9.0456298816
 20
17.1326633114
 10
-9.1421886383
 20
17.042932372
 10
-9.2288065282
 20
16.9493661416
 10
-9.2640151179
 20
16.9045434579
  0
LWPOLYLINE
  5
24C
100
AcDbEntity
  8
ASSI
100
AcDbPolyline
 62
7
  6
CONTINUOUS
 90
16
 70
0
 10
-8.6974134821
 20
18.4390619298
 10
-8.7461471937
 20
18.4102120309
 10
-8.7936506388
 20
18.3806517916
 10
-8.8398353196
 20
18.3504362818
 10
-8.8846987777
 20
18.3195642802
 10
-8.9282434714
 20
18.2880370082
 10
-8.9703882781
 20
18.2559132004
 10
-9.0111305881
 20
18.2231917449
 10
-9.0504730109
 20
18.1898737535
 10
-9.0883422526
 20
18.156021297
 10
-9.1247355669
 20
18.1216333792
 10
-9.1596557
 20
18.0867109962
 10
-9.1930375966
 20
18.0513192077
 10
-9.224878389
 20
18.0154571387
 10
-9.2551809449
 20
17.9791256642
 10
-9.2734972065
 20
17.9559740718
  0
LINE
  5
24D
100
AcDbEntity
  8
ASSI
100
AcDbLine
 62
250
  6
CONTINUOUS
 10
-8.7426412636
 20
18.575631385
 11
-8.6974134821
 21
18.6023559852
  0
LWPOLYLINE
  5
24E
100
AcDbEntity
  8
ASSI
100
AcDbPolyline
 62
250
  6
CONTINUOUS
 90
136
 70
0
 10
-9.0509668727
 20
19.2147284202
 10
-8.9963943238
 20
19.2455260775
 10
-8.9405737216
 20
19.2755932069
 10
-8.8835050658
 20
19.3049298084
 10
-8.8251468912
 20
19.3335597281
 10
-8.7655406631
 20
19.3614591199
 10
-8.7048107781
 20
19.3885564454
 10
-8.6429534955
 20
19.4148480003
 10
-8.5799725559
 20
19.4403374891
 10
-8.5160035783
 20
19.464964487
 10
-8.4510444261
 20
19.4887250241
 10
-8.3850972359
 20
19.5116230703
 10
-8.3183040362
 20
19.5336101109
 10
-8.2506758028
 20
19.5546796345
 10
-8.1822015599
 20
19.5748381524
 10
-8.1129904089
 20
19.5940566837
 10
-8.0430483961
 20
19.6123326805
 10
-7.9723694753
 20
19.6296686908
 10
-7.9010446093
 20
19.6460433769
 10
-7.8290666725
 20
19.6614574399
 10
-7.7564427905
 20
19.6759101789
 10
-7.6832853028
 20
19.6893781534
 10
-7.6095879157
 20
19.7018605511
 10
-7.535356923
 20
19.7133581843
 10
-7.4607235451
 20
19.7238500496
 10
-7.3856892856
 20
19.7333337963
 10
-7.3102526409
 20
19.7418117751
 10
-7.2345403201
 20
19.7492700347
 10
-7.1585544866
 20
19.7557066668
 10
-7.082292977
 20
19.7611235799
 10
-7.0058760104
 20
19.7655125476
 10
-6.9293029043
 20
19.7688720849
 10
-6.8525743412
 20
19.7712036768
 10
-6.7758125874
 20
19.772503553
 10
-6.6990164094
 20
19.7727700793
 10
-6.6221870407
 20
19.7720048898
 10
-6.5454504489
 20
19.770209116
 10
-6.4688068971
 20
19.7673810312
 10
-6.3922561222
 20
19.763522362
 10
-6.3159233024
 20
19.7586394206
 10
-6.2398091577
 20
19.7527305512
 10
-6.1639129681
 20
19.7457974096
 10
-6.0883577516
 20
19.7378512751
 10
-6.0131441027
 20
19.7288905224
 10
-5.9382714269
 20
19.7189167769
 10
-5.863860958
 20
19.707946194
 10
-5.7899133179
 20
19.6959771433
 10
-5.7164278847
 20
19.6830112553
 10
-5.6435240257
 20
19.6690695764
 10
-5.5712026469
 20
19.6541505081
 10
-5.4994628424
 20
19.6382556488
 10
-5.4284212619
 20
19.6214108406
 10
-5.3580791098
 20
19.6036145544
 10
-5.2884351817
 20
19.5848683194
 10
-5.2196025139
 20
19.5652025647
 10
-5.1515823888
 20
19.5446157861
 10
-5.0843735239
 20
19.5231094879
 10
-5.0180851079
 20
19.5007186121
 10
-4.9527186829
 20
19.4774417395
 10
-4.8882727068
 20
19.4532802893
 10
-4.8248517412
 20
19.4282734613
 10
-4.7624573851
 20
19.4024198545
 10
-4.7010880396
 20
19.37572087
 10
-4.6408434693
 20
19.3482199107
 10
-4.5817255692
 20
19.3199157051
 10
-4.5237324442
 20
19.2908095247
 10
-4.4669581742
 20
19.2609485878
 10
-4.4114046777
 20
19.2303316348
 10
-4.357070036
 20
19.1989599253
 10
-4.3040425728
 20
19.1668844558
 10
-4.2523244695
 20
19.1341041185
 10
-4.2019135447
 20
19.1006200212
 10
-4.1528915779
 20
19.0664864842
 10
-4.1052607718
 20
19.0317024133
 10
-4.0590189237
 20
18.9962689026
 10
-4.0142412053
 20
18.9602435543
 10
-3.9709300429
 20
18.9236254449
 10
-3.9290830102
 20
18.8864154978
 10
-3.8887680001
 20
18.848674086
 10
-3.8499874714
 20
18.8104003199
 10
-3.8127389654
 20
18.771595089
 10
-3.7770829981
 20
18.7323214345
 10
-3.743022174
 20
18.6925786156
 10
-3.7105538887
 20
18.6523673731
 10
-3.6797308447
 20
18.6117529715
 10
-3.6505556902
 20
18.5707347154
 10
-3.6230257771
 20
18.5293133002
 10
-3.5971858634
 20
18.487556076
 10
-3.5730387166
 20
18.445462518
 10
-3.5505815691
 20
18.403033151
 10
-3.5298508761
 20
18.3603369005
 10
-3.510849462
 20
18.3173734079
 10
-3.4935745024
 20
18.2741430319
 10
-3.4780539789
 20
18.2307157741
 10
-3.4642907073
 20
18.1870912958
 10
-3.4522818719
 20
18.1432699357
 10
-3.4420470063
 20
18.099322712
 10
-3.4335889765
 20
18.0552492103
 10
-3.4269049167
 20
18.011049845
 10
-3.4220057627
 20
17.966796877
 10
-3.4188945051
 20
17.922490141
 10
-3.4175681535
 20
17.8781298023
 10
-3.4180286728
 20
17.8337886179
 10
-3.4202788997
 20
17.789467291
 10
-3.4243159974
 20
17.7451651184
 10
-3.4301334213
 20
17.7009527477
 10
-3.4377337389
 20
17.6568306067
 10
-3.4471143825
 20
17.6127982676
 10
-3.4582611048
 20
17.5689250943
 10
-3.4711771855
 20
17.5252098703
 10
-3.4858593449
 20
17.4816538122
 10
-3.5022834962
 20
17.4383299332
 10
-3.5204537282
 20
17.3952372989
 10
-3.5403659522
 20
17.3523768439
 10
-3.5619838144
 20
17.3098243844
 10
-3.5853088107
 20
17.2675834544
 10
-3.6103394453
 20
17.22565052
 10
-3.6370348776
 20
17.1840907962
 10
-3.6653938684
 20
17.1429084956
 10
-3.6954176568
 20
17.1020994056
 10
-3.7270691203
 20
17.0617161028
 10
-3.7603524512
 20
17.0217553084
 10
-3.7952634572
 20
16.9822203012
 10
-3.8317524383
 20
16.9431734941
 10
-3.869830591
 20
16.9046085113
 10
-3.9094867189
 20
16.8665317287
 10
-3.9506375329
 20
16.8290246873
 10
-3.993290071
 20
16.7920884277
 10
-4.0374372953
 20
16.7557219093
 10
-4.0829748032
 20
16.7200035506
 10
-4.1299094561
 20
16.6849352498
 10
-4.1782343927
 20
16.6505151087
 10
-4.2278246258
 20
16.6168158512
 10
-4.278638493
 20
16.5838617186
 10
-4.3307176567
 20
16.5516284696
 10
-4.3840621168
 20
16.5201161043
  0
LWPOLYLINE
  5
24F
100
AcDbEntity
  8
ASSI
100
AcDbPolyline
 62
250
  6
CONTINUOUS
 90
88
 70
0
 10
-8.6974134821
 20
18.6023559852
 10
-8.6511356313
 20
18.6284657868
 10
-8.6037579907
 20
18.6539865867
 10
-8.5553016231
 20
18.6789020522
 10
-8.5057782042
 20
18.703200936
 10
-8.4552200507
 20
18.7268622349
 10
-8.4036820426
 20
18.7498565755
 10
-8.3511899348
 20
18.7721698493
 10
-8.2977699846
 20
18.793788321
 10
-8.2434820749
 20
18.8146861898
 10
-8.188356743
 20
18.8348511548
 10
-8.1324219931
 20
18.8542724341
 10
-8.0757374315
 20
18.8729295577
 10
-8.0183458356
 20
18.8908097512
 10
-7.9602681021
 20
18.9079077924
 10
-7.9015326115
 20
18.9242162159
 10
-7.8421773208
 20
18.9397254053
 10
-7.7822293877
 20
18.9544291767
 10
-7.7217006891
 20
18.9683248929
 10
-7.6606181819
 20
18.9814060189
 10
-7.5990203857
 20
18.9936639625
 10
-7.5369362689
 20
19.0050926519
 10
-7.4743947224
 20
19.0156862697
 10
-7.4114339189
 20
19.0254378547
 10
-7.3480972276
 20
19.0343404974
 10
-7.284420978
 20
19.0423891428
 10
-7.2204377076
 20
19.0495797297
 10
-7.156185597
 20
19.0559080491
 10
-7.0917017255
 20
19.0613706492
 10
-7.0270188675
 20
19.0659649525
 10
-6.9621689417
 20
19.0696887808
 10
-6.8971866879
 20
19.0725401557
 10
-6.8321077049
 20
19.0745175314
 10
-6.766965271
 20
19.0756198813
 10
-6.7017936729
 20
19.0758465496
 10
-6.6366292176
 20
19.0751973344
 10
-6.5715082345
 20
19.0736725628
 10
-6.5064661018
 20
19.071273051
 10
-6.4415379664
 20
19.0680000832
 10
-6.3767597416
 20
19.0638554705
 10
-6.312166828
 20
19.0588415
 10
-6.2477939099
 20
19.0529608859
 10
-6.1836756721
 20
19.0462168086
 10
-6.1198468879
 20
19.0386129346
 10
-6.0563420979
 20
19.0301533873
 10
-5.9931954086
 20
19.0208427121
 10
-5.930440928
 20
19.010685931
 10
-5.8681127642
 20
18.9996885576
 10
-5.80624471
 20
18.9878565501
 10
-5.7448702515
 20
18.9751963082
 10
-5.6840226782
 20
18.9617146944
 10
-5.623735083
 20
18.9474190399
 10
-5.5640401853
 20
18.9323171068
 10
-5.5049702669
 20
18.9164170655
 10
-5.4465572806
 20
18.8997275177
 10
-5.3888328448
 20
18.8822574963
 10
-5.3318282638
 20
18.8640164743
 10
-5.2755744602
 20
18.8450143476
 10
-5.22010195
 20
18.825261427
 10
-5.165440745
 20
18.8047684022
 10
-5.1116203792
 20
18.7835463453
 10
-5.0586699577
 20
18.7616067284
 10
-5.0066182287
 20
18.7389614583
 10
-4.9554934834
 20
18.7156228431
 10
-4.9053234742
 20
18.6916035568
 10
-4.8561353218
 20
18.6669165882
 10
-4.8079555935
 20
18.6415752713
 10
-4.7608103436
 20
18.615593305
 10
-4.714725171
 20
18.5889847921
 10
-4.6697251197
 20
18.5617641923
 10
-4.6258346151
 20
18.5339462859
 10
-4.5830773835
 20
18.505546116
 10
-4.541476519
 20
18.4765790222
 10
-4.5010545183
 20
18.4470606632
 10
-4.4618333322
 20
18.4170070628
 10
-4.4238342775
 20
18.3864345555
 10
-4.3870779767
 20
18.3553597395
 10
-4.3515842996
 20
18.3237994198
 10
-4.3173724236
 20
18.2917706496
 10
-4.2844608637
 20
18.2592907576
 10
-4.2528674777
 20
18.2263773627
 10
-4.2226094045
 20
18.1930483186
 10
-4.1937030514
 20
18.1593216997
 10
-4.1661640633
 20
18.1252157619
 10
-4.1400073383
 20
18.0907489539
 10
-4.1152470276
 20
18.0559399145
 10
-4.0918965751
 20
18.0208075354
 10
-4.0699686785
 20
17.9853709227
  0
LWPOLYLINE
  5
250
100
AcDbEntity
  8
ASSI
100
AcDbPolyline
 62
7
  6
CONTINUOUS
 90
84
 70
0
 10
-8.6974134821
 20
18.5207089575
 10
-8.6485633562
 20
18.5482330921
 10
-8.5986283034
 20
18.5750318656
 10
-8.5476083236
 20
18.601105278
 10
-8.4954718846
 20
18.6264679263
 10
-8.4422505187
 20
18.6511052136
 10
-8.3880388228
 20
18.6749733488
 10
-8.3328350355
 20
18.6980709642
 10
-8.2766409183
 20
18.7203994276
 10
-8.2195563518
 20
18.7419190519
 10
-8.1615797525
 20
18.7626283986
 10
-8.1027127038
 20
18.7825289061
 10
-8.0430598377
 20
18.8015852029
 10
-7.9826197564
 20
18.8197957876
 10
-7.9213938576
 20
18.8371621614
 10
-7.8594909656
 20
18.8536534572
 10
-7.7969098764
 20
18.8692681184
 10
-7.7336517941
 20
18.8840077015
 10
-7.669829155
 20
18.8978460079
 10
-7.6054409551
 20
18.9107814348
 10
-7.5404881984
 20
18.9228155851
 10
-7.4750863336
 20
18.9339270689
 10
-7.4092345618
 20
18.9441142453
 10
-7.3429336819
 20
18.9533787553
 10
-7.2763015386
 20
18.9617041319
 10
-7.2093375428
 20
18.9690887049
 10
-7.1420422835
 20
18.9755341445
 10
-7.074535373
 20
18.9810289944
 10
-7.006816435
 20
18.985571564
 10
-6.9388858457
 20
18.989163544
 10
-6.8708643466
 20
18.9917985498
 10
-6.8027517761
 20
18.9934748795
 10
-6.7345482958
 20
18.9941942351
 10
-6.6663751323
 20
18.9939553379
 10
-6.5982323395
 20
18.9927564838
 10
-6.5301198633
 20
18.9905993769
 10
-6.4621587687
 20
18.9874878514
 10
-6.3943493248
 20
18.9834202098
 10
-6.3266912623
 20
18.9783981495
 10
-6.2593048383
 20
18.972430597
 10
-6.192190536
 20
18.9655158705
 10
-6.1253478723
 20
18.9576556518
 10
-6.0588956548
 20
18.9488639116
 10
-5.9928345779
 20
18.9391389934
 10
-5.9271639474
 20
18.9284825539
 10
-5.8620004877
 20
18.9169135339
 10
-5.7973451008
 20
18.9044303106
 10
-5.7331968847
 20
18.8910345069
 10
-5.669669858
 20
18.8767499328
 10
-5.6067651254
 20
18.8615750078
 10
-5.5444815823
 20
18.8455113124
 10
-5.4829299328
 20
18.8285873986
 10
-5.4221114785
 20
18.8108017366
 10
-5.362024918
 20
18.7921558563
 10
-5.3027770504
 20
18.7726828992
 10
-5.2443693673
 20
18.7523813945
 10
-5.1868003771
 20
18.731252813
 10
-5.1301724043
 20
18.7093347093
 10
-5.0744871226
 20
18.6866256792
 10
-5.0197428583
 20
18.6631271267
 10
-4.9660369152
 20
18.6388808189
 10
-4.9133711399
 20
18.6138854259
 10
-4.8617436858
 20
18.5881422774
 10
-4.8112463167
 20
18.56169713
 10
-4.7618810426
 20
18.5345487353
 10
-4.7136458535
 20
18.5066983416
 10
-4.6666264838
 20
18.478195451
 10
-4.6208250959
 20
18.449038903
 10
-4.5762395274
 20
18.419229858
 10
-4.5329490258
 20
18.3888212994
 10
-4.4909558943
 20
18.357812161
 10
-4.4502578297
 20
18.3262035089
 10
-4.4109271697
 20
18.2940515251
 10
-4.3729663462
 20
18.2613552434
 10
-4.3363729273
 20
18.2281156299
 10
-4.301211955
 20
18.1943917657
 10
-4.2674859769
 20
18.1601827895
 10
-4.2351924455
 20
18.1254895625
 10
-4.2043887599
 20
18.0903737493
 10
-4.1750775699
 20
18.0548345983
 10
-4.1472562258
 20
18.0188728611
 10
-4.1209741779
 20
17.9825524569
 10
-4.0962341638
 20
17.9458727478
 10
-4.073033446
 20
17.9088343718
  0
LINE
  5
251
100
AcDbEntity
  8
ASSI
100
AcDbLine
 62
7
  6
CONTINUOUS
 10
-8.6474472106
 20
18.4672001641
 11
-8.6974134821
 21
18.4390619298
  0
LWPOLYLINE
  5
252
100
AcDbEntity
  8
COPY-PUBBLISH
100
AcDbPolyline
 62
250
  6
CONTINUOUS
 90
41
 70
0
 10
-8.6992916553
 20
17.6272385651
 10
-8.6395384662
 20
17.6607290786
 10
-8.5744683558
 20
17.6950319721
 10
-8.5038384389
 20
17.7299187332
 10
-8.4273362688
 20
17.765174332
 10
-8.3448129744
 20
17.800489476
 10
-8.2563092442
 20
17.8354766938
 10
-8.1616623371
 20
17.8698356372
 10
-8.0607323524
 20
17.9032466141
 10
-7.9536709745
 20
17.9352953625
 10
-7.8404124369
 20
17.9656440635
 10
-7.7209539616
 20
17.9939312258
 10
-7.5956366408
 20
18.0197237735
 10
-7.4645464769
 20
18.0426609691
 10
-7.3278388886
 20
18.0623680282
 10
-7.1860662342
 20
18.0784292559
 10
-7.0394384622
 20
18.0904931929
 10
-6.8883453543
 20
18.0981949181
 10
-6.7337173836
 20
18.1011767505
 10
-6.5756875603
 20
18.099130489
 10
-6.4150918654
 20
18.0917552303
 10
-6.2539867607
 20
18.0789184296
 10
-6.0928989322
 20
18.0605042851
 10
-5.9324868981
 20
18.036427241
 10
-5.7749483543
 20
18.0069437344
 10
-5.6212250869
 20
17.9722679029
 10
-5.4714250704
 20
17.9324627251
 10
-5.3263732437
 20
17.887783032
 10
-5.1867162357
 20
17.8384984989
 10
-5.0526827002
 20
17.7847624591
 10
-4.9244372972
 20
17.7266831794
 10
-4.8024017981
 20
17.6644764673
 10
-4.6869570992
 20
17.5983624784
 10
-4.5782450595
 20
17.528424596
 10
-4.4766514777
 20
17.4548870933
 10
-4.3825426368
 20
17.3779894509
 10
-4.2960885478
 20
17.2978133542
 10
-4.2175639527
 20
17.2144986611
 10
-4.147430016
 20
17.1284071441
 10
-4.0861054599
 20
17.0399675561
 10
-4.0757865829
 20
17.022098051
  0
LWPOLYLINE
  5
253
100
AcDbEntity
  8
ASSI
100
AcDbPolyline
 62
7
  6
CONTINUOUS
 90
4
 70
0
 10
-8.629799533
 20
18.5160340399
 10
-8.6819102948
 20
18.4881163622
 10
-8.7327688211
 20
18.4594756595
 10
-8.7823727776
 20
18.4301105838
  0
LWPOLYLINE
  5
254
100
AcDbEntity
  8
ASSI
100
AcDbPolyline
 62
7
  6
CONTINUOUS
 90
5
 70
0
 10
2.0621430867
 20
-18.3465592392
 10
2.1174520884
 20
-18.3419041268
 10
2.1729103352
 20
-18.3357950278
 10
2.2284619975
 20
-18.3282350403
 10
2.2899636163
 20
-18.3182699179
  0
LWPOLYLINE
  5
255
100
AcDbEntity
  8
ASSI
100
AcDbPolyline
 62
7
  6
CONTINUOUS
 90
21
 70
0
 10
-11.6517965697
 20
-28.9890731278
 10
-11.6366277448
 20
-29.0340360487
 10
-11.6203611725
 20
-29.0780365095
 10
-11.6030098165
 20
-29.1210376947
 10
-11.5846125679
 20
-29.1629291583
 10
-11.5651649783
 20
-29.2037040307
 10
-11.544671496
 20
-29.2433691815
 10
-11.5231843569
 20
-29.2818347726
 10
-11.5007138421
 20
-29.3190787768
 10
-11.4772496704
 20
-29.3551232213
 10
-11.4528132345
 20
-29.3899443507
 10
-11.4274056546
 20
-29.4235447465
 10
-11.4010258105
 20
-29.4559218271
 10
-11.3736917337
 20
-29.4870440921
 10
-11.3453868416
 20
-29.5169257882
 10
-11.3161277168
 20
-29.5455526687
 10
-11.285982138
 20
-29.5728504926
 10
-11.254946057
 20
-29.5988125651
 10
-11.2230235221
 20
-29.6234455811
 10
-11.1902944574
 20
-29.6466953839
 10
-11.1567766142
 20
-29.6685468771
  0
LWPOLYLINE
  5
256
100
AcDbEntity
  8
ASSI
100
AcDbPolyline
 62
7
  6
CONTINUOUS
 90
3
 70
0
 10
-11.6788798682
 20
-28.8961494596
 10
-11.6658806108
 20
-28.9431109315
 10
-11.6517966366
 20
-28.9890729094
  0
LWPOLYLINE
  5
257
100
AcDbEntity
  8
ASSI
100
AcDbPolyline
 62
7
  6
CONTINUOUS
 90
6
 70
0
 10
-21.7702837396
 20
10.6066780328
 10
-21.8136930314
 20
10.787898336
 10
-21.852570829
 20
10.9694165064
 10
-21.886912463
 20
11.1512241058
 10
-21.9167226027
 20
11.3333295725
 10
-21.94198478
 20
11.5156315225
  0
LWPOLYLINE
  5
258
100
AcDbEntity
  8
ASSI
100
AcDbPolyline
 62
7
  6
CONTINUOUS
 90
28
 70
0
 10
-15.1874075988
 20
-7.0819742276
 10
-15.1233952529
 20
-7.9387579393
 10
-15.054272302
 20
-8.7921222913
 10
-14.980047787
 20
-9.641955765
 10
-14.9007210414
 20
-10.488257899
 10
-14.8162927316
 20
-11.3310291546
 10
-14.7267738976
 20
-12.1701593971
 10
-14.6321638745
 20
-13.0056481507
 10
-14.5324633271
 20
-13.8374958911
 10
-14.4276852904
 20
-14.6655939106
 10
-14.3178291011
 20
-15.4899417194
 10
-14.2028954224
 20
-16.3105398073
 10
-14.0828992792
 20
-17.1272809363
 10
-13.95784001
 20
-17.9401646025
 10
-13.8277182761
 20
-18.7491913098
 10
-13.6925510863
 20
-19.5542553318
 10
-13.5523377813
 20
-20.3553561509
 10
-13.4070790203
 20
-21.1524942846
 10
-13.2567937892
 20
-21.9455655597
 10
-13.1014814313
 20
-22.7345694449
 10
-12.9411426033
 20
-23.5195064715
 10
-12.7757982608
 20
-24.30027406
 10
-12.6054471834
 20
-25.0768738234
 10
-12.4300905916
 20
-25.8493041488
 10
-12.2497531024
 20
-26.617457617
 10
-12.0644429216
 20
-27.3812984217
 10
-11.8741518436
 20
-28.1408623692
 10
-11.6788798682
 20
-28.8961494596
  0
LINE
  5
259
100
AcDbEntity
  8
ASSI
100
AcDbLine
 62
7
  6
CONTINUOUS
 10
-15.2463086722
 20
-6.2217707095
 11
-15.1874075988
 21
-7.0819742276
  0
LWPOLYLINE
  5
25A
100
AcDbEntity
  8
ASSI
100
AcDbPolyline
 62
7
  6
CONTINUOUS
 90
6
 70
0
 10
-15.4640775488
 20
-1.870704175
 10
-15.4307633537
 20
-2.7474392607
 10
-15.3923264815
 20
-3.6209821075
 10
-15.3487719665
 20
-4.4912184537
 10
-15.3000991408
 20
-5.3581478319
 10
-15.2463086722
 20
-6.2217707095
  0
LWPOLYLINE
  5
25B
100
AcDbEntity
  8
ASSI
100
AcDbPolyline
 62
7
  6
CONTINUOUS
 90
6
 70
0
 10
-15.553784882
 20
2.560088964
 10
-15.546094808
 20
1.667776033
 10
-15.5332790377
 20
0.7785402537
 10
-15.5153365646
 20
-0.1076567366
 10
-15.4922683952
 20
-0.9907765753
 10
-15.4640775488
 20
-1.870704175
  0
LINE
  5
25C
100
AcDbEntity
  8
ASSI
100
AcDbLine
 62
7
  6
CONTINUOUS
 10
-15.5563492596
 20
3.4554790465
 11
-15.553784882
 21
2.560088964
  0
LWPOLYLINE
  5
25D
100
AcDbEntity
  8
ASSI
100
AcDbPolyline
 62
250
  6
CONTINUOUS
 90
9
 70
0
 10
-9.4829461803
 20
17.7124408728
 10
-9.4719871551
 20
17.7495391801
 10
-9.4595347473
 20
17.7864822715
 10
-9.4455961956
 20
17.823248229
 10
-9.4301784951
 20
17.8598183183
 10
-9.4132904054
 20
17.896171506
 10
-9.3949438979
 20
17.9322827115
 10
-9.3751509681
 20
17.9681299815
 10
-9.3539217255
 20
18.0036965415
  0
LWPOLYLINE
  5
25E
100
AcDbEntity
  8
ASSI
100
AcDbPolyline
 62
7
  6
CONTINUOUS
 90
6
 70
0
 10
-9.461190321
 20
17.7001767321
 10
-9.4467712747
 20
17.7386492965
 10
-9.4307257065
 20
17.7769305936
 10
-9.4130821361
 20
17.8149525813
 10
-9.3938377215
 20
17.8527147984
 10
-9.3729953047
 20
17.890217706
  0
LWPOLYLINE
  5
25F
100
AcDbEntity
  8
ASSI
100
AcDbPolyline
 62
7
  6
CONTINUOUS
 90
20
 70
0
 10
-9.3729953047
 20
17.890217706
 10
-9.3505919315
 20
17.9273946457
 10
-9.3266248258
 20
17.9642450376
 10
-9.3010967638
 20
18.0007694616
 10
-9.2740531195
 20
18.0369029981
 10
-9.2454911977
 20
18.0726449521
 10
-9.2154136936
 20
18.1079960188
 10
-9.1838740679
 20
18.1428933642
 10
-9.15086972
 20
18.1773361815
 10
-9.1164032505
 20
18.2113252776
 10
-9.0805359207
 20
18.2448002394
 10
-9.0432652394
 20
18.2777601527
 10
-9.0045936979
 20
18.3102059317
 10
-8.9645900319
 20
18.3420799066
 10
-8.9232518723
 20
18.3733810604
 10
-8.8805815882
 20
18.40411041
 10
-8.8366550228
 20
18.4342133365
 10
-8.7914974572
 20
18.4636716334
 10
-8.7450836103
 20
18.492503507
 10
-8.6974134821
 20
18.5207089575
  0
LWPOLYLINE
  5
260
100
AcDbEntity
  8
COPY-PUBBLISH
100
AcDbPolyline
 62
250
  6
CONTINUOUS
 90
13
 70
0
 10
-9.3592521437
 20
17.022048162
 10
-9.3393992358
 20
17.0547451678
 10
-9.290555513
 20
17.1244680194
 10
-9.2380040255
 20
17.1906121616
 10
-9.1823746752
 20
17.2531746305
 10
-9.1242576679
 20
17.3121885904
 10
-9.064376837
 20
17.3675606801
 10
-9.0032922523
 20
17.4193684431
 10
-8.941530233
 20
17.467703538
 10
-8.8797694391
 20
17.5125393296
 10
-8.8185529183
 20
17.5539602638
 10
-8.7582595327
 20
17.5921466116
 10
-8.6992916553
 20
17.6272385651
  0
LWPOLYLINE
  5
261
100
AcDbEntity
  8
ASSI
100
AcDbPolyline
 62
250
  6
CONTINUOUS
 90
18
 70
0
 10
-9.3539217255
 20
18.0036965415
 10
-9.3312668764
 20
18.0389653625
 10
-9.3072013827
 20
18.0739141335
 10
-9.281736541
 20
18.1085273729
 10
-9.2548770018
 20
18.1427981596
 10
-9.2266336691
 20
18.1767106362
 10
-9.1970230855
 20
18.2102430886
 10
-9.166057752
 20
18.2433796214
 10
-9.1337466802
 20
18.2761081693
 10
-9.1001119741
 20
18.3084040196
 10
-9.0651885646
 20
18.3402331889
 10
-9.0289948758
 20
18.3715796239
 10
-8.9915522966
 20
18.4024255127
 10
-8.9529054405
 20
18.4327362454
 10
-8.9130779332
 20
18.4624966947
 10
-8.8720942309
 20
18.4916918828
 10
-8.8300054399
 20
18.5202898868
 10
-8.7868480012
 20
18.5482719552
  0
LWPOLYLINE
  5
262
100
AcDbEntity
  8
ASSI
100
AcDbPolyline
 62
250
  6
CONTINUOUS
 90
136
 70
0
 10
-4.3840621168
 20
16.5201161043
 10
-4.4386346657
 20
16.489318447
 10
-4.494455268
 20
16.4592513175
 10
-4.5515239237
 20
16.4299147161
 10
-4.6098820983
 20
16.4012847964
 10
-4.6694883264
 20
16.3733854046
 10
-4.7302182114
 20
16.346288079
 10
-4.792075494
 20
16.3199965241
 10
-4.8550564336
 20
16.2945070354
 10
-4.9190254112
 20
16.2698800375
 10
-4.9839845634
 20
16.2461195004
 10
-5.0499317536
 20
16.2232214542
 10
-5.1167249533
 20
16.2012344136
 10
-5.1843531867
 20
16.18016489
 10
-5.2528274296
 20
16.1600063721
 10
-5.3220385806
 20
16.1407878408
 10
-5.3919805934
 20
16.1225118439
 10
-5.4626595142
 20
16.1051758337
 10
-5.5339843802
 20
16.0888011476
 10
-5.605962317
 20
16.0733870846
 10
-5.678586199
 20
16.0589343456
 10
-5.7517436868
 20
16.0454663711
 10
-5.8254410738
 20
16.0329839734
 10
-5.8996720665
 20
16.0214863402
 10
-5.9743054444
 20
16.0109944749
 10
-6.0493397039
 20
16.0015107282
 10
-6.1247763486
 20
15.9930327494
 10
-6.2004886694
 20
15.9855744898
 10
-6.2764745029
 20
15.9791378576
 10
-6.3527360125
 20
15.9737209446
 10
-6.4291529791
 20
15.9693319769
 10
-6.5057260852
 20
15.9659724396
 10
-6.5824546483
 20
15.9636408477
 10
-6.6592164021
 20
15.9623409715
 10
-6.7360125801
 20
15.9620744452
 10
-6.8128419488
 20
15.9628396347
 10
-6.8895785406
 20
15.9646354085
 10
-6.9662220924
 20
15.9674634933
 10
-7.0427728673
 20
15.9713221625
 10
-7.1191056871
 20
15.9762051039
 10
-7.1952198318
 20
15.9821139733
 10
-7.2711160214
 20
15.9890471149
 10
-7.3466712379
 20
15.9969932494
 10
-7.4218848868
 20
16.0059540021
 10
-7.4967575626
 20
16.0159277476
 10
-7.5711680316
 20
16.0268983305
 10
-7.6451156716
 20
16.0388673811
 10
-7.7186011048
 20
16.0518332691
 10
-7.7915049638
 20
16.0657749481
 10
-7.8638263426
 20
16.0806940164
 10
-7.9355661471
 20
16.0965888757
 10
-8.0066077277
 20
16.1134336839
 10
-8.0769498797
 20
16.13122997
 10
-8.1465938078
 20
16.1499762051
 10
-8.2154264756
 20
16.1696419598
 10
-8.2834466007
 20
16.1902287384
 10
-8.3506554656
 20
16.2117350366
 10
-8.4169438816
 20
16.2341259124
 10
-8.4823103066
 20
16.257402785
 10
-8.5467562827
 20
16.2815642352
 10
-8.6101772483
 20
16.3065710632
 10
-8.6725716044
 20
16.33242467
 10
-8.7339409499
 20
16.3591236545
 10
-8.7941855202
 20
16.3866246138
 10
-8.8533034204
 20
16.4149288194
 10
-8.9112965453
 20
16.4440349997
 10
-8.9680708153
 20
16.4738959367
 10
-9.0236243118
 20
16.5045128896
 10
-9.0779589535
 20
16.5358845992
 10
-9.1309864167
 20
16.5679600687
 10
-9.18270452
 20
16.600740406
 10
-9.2331154448
 20
16.6342245033
 10
-9.2821374116
 20
16.6683580403
 10
-9.3297682177
 20
16.7031421112
 10
-9.3760100658
 20
16.7385756219
 10
-9.4207877842
 20
16.7746009702
 10
-9.4640989466
 20
16.8112190796
 10
-9.5059459793
 20
16.8484290266
 10
-9.5462609894
 20
16.8861704385
 10
-9.5850415181
 20
16.9244442046
 10
-9.6222900241
 20
16.9632494355
 10
-9.6579459914
 20
17.00252309
 10
-9.6920068155
 20
17.0422659089
 10
-9.7244751008
 20
17.0824771514
 10
-9.7552981448
 20
17.123091553
 10
-9.7844732993
 20
17.1641098091
 10
-9.8120032124
 20
17.2055312243
 10
-9.8378431261
 20
17.2472884484
 10
-9.8619902729
 20
17.2893820065
 10
-9.8844474204
 20
17.3318113735
 10
-9.9051781134
 20
17.374507624
 10
-9.9241795275
 20
17.4174711166
 10
-9.9414544871
 20
17.4607014926
 10
-9.9569750106
 20
17.5041287504
 10
-9.9707382822
 20
17.5477532287
 10
-9.9827471176
 20
17.5915745888
 10
-9.9929819832
 20
17.6355218125
 10
-10.001440013
 20
17.6795953141
 10
-10.0081240729
 20
17.7237946795
 10
-10.0130232268
 20
17.7680476475
 10
-10.0161344844
 20
17.8123543835
 10
-10.017460836
 20
17.8567147222
 10
-10.0170003167
 20
17.9010559066
 10
-10.0147500899
 20
17.9453772335
 10
-10.0107129921
 20
17.9896794061
 10
-10.0048955682
 20
18.0338917768
 10
-9.9972952507
 20
18.0780139178
 10
-9.987914607
 20
18.1220462569
 10
-9.9767678847
 20
18.1659194302
 10
-9.963851804
 20
18.2096346542
 10
-9.9491696446
 20
18.2531907123
 10
-9.9327454933
 20
18.2965145913
 10
-9.9145752613
 20
18.3396072256
 10
-9.8946630373
 20
18.3824676806
 10
-9.8730451751
 20
18.4250201401
 10
-9.8497201788
 20
18.4672610701
 10
-9.8246895442
 20
18.5091940045
 10
-9.7979941119
 20
18.5507537283
 10
-9.7696351211
 20
18.5919360289
 10
-9.7396113327
 20
18.6327451189
 10
-9.7079598692
 20
18.6731284217
 10
-9.6746765383
 20
18.7130892161
 10
-9.6397655323
 20
18.7526242233
 10
-9.6032765512
 20
18.7916710303
 10
-9.5651983985
 20
18.8302360132
 10
-9.5255422706
 20
18.8683127958
 10
-9.4843914566
 20
18.9058198372
 10
-9.4417389185
 20
18.9427560968
 10
-9.3975916942
 20
18.9791226151
 10
-9.3520541863
 20
19.0148409738
 10
-9.3051195334
 20
19.0499092747
 10
-9.2567945968
 20
19.0843294158
 10
-9.2072043637
 20
19.1180286733
 10
-9.1563904965
 20
19.1509828059
 10
-9.1043113329
 20
19.1832160549
 10
-9.0509668727
 20
19.2147284202
  0
LWPOLYLINE
  5
263
100
AcDbEntity
  8
ASSI
100
AcDbPolyline
 62
7
  6
CONTINUOUS
 90
39
 70
0
 10
-4.6340741969
 20
16.5448866931
 10
-4.7517994686
 20
16.4807545668
 10
-4.8775465853
 20
16.4198045043
 10
-5.0108972268
 20
16.3624366578
 10
-5.1513568342
 20
16.3090368949
 10
-5.2984070183
 20
16.2599533276
 10
-5.4515587043
 20
16.2154863493
 10
-5.6102966233
 20
16.1759149945
 10
-5.7739493473
 20
16.1415222494
 10
-5.9417936037
 20
16.1125550256
 10
-6.1132136946
 20
16.0892018218
 10
-6.2874683267
 20
16.0716359208
 10
-6.4636248029
 20
16.0599999866
 10
-6.6409356072
 20
16.0543707917
 10
-6.8186882344
 20
16.0547901139
 10
-6.9959910845
 20
16.061260112
 10
-7.1720994397
 20
16.0737413845
 10
-7.3462934583
 20
16.0921624098
 10
-7.5177227601
 20
16.1163976706
 10
-7.685698617
 20
16.1462986855
 10
-7.8495224861
 20
16.181679952
 10
-8.0083476363
 20
16.222274656
 10
-8.1615089805
 20
16.267802474
 10
-8.3084590865
 20
16.3179760036
 10
-8.4485508372
 20
16.3724296575
 10
-8.581215083
 20
16.4307672548
 10
-8.7060478494
 20
16.4926135428
 10
-8.8226461744
 20
16.5575514573
 10
-8.9303867163
 20
16.6249606014
 10
-9.0292274333
 20
16.6945021316
 10
-9.1194530569
 20
16.7661224753
 10
-9.2004260636
 20
16.8390435979
 10
-9.2721984375
 20
16.9129726803
 10
-9.3354814557
 20
16.9885108465
 10
-9.3896865184
 20
17.0649870632
 10
-9.4344804039
 20
17.1418711921
 10
-9.4701496617
 20
17.2199256843
 10
-9.4962481708
 20
17.2991362085
 10
-9.5121443442
 20
17.3788562099
  0
LWPOLYLINE
  5
264
100
AcDbEntity
  8
ASSI
100
AcDbPolyline
 62
7
  6
CONTINUOUS
 90
15
 70
0
 10
2.3526378642
 20
-18.3218474026
 10
2.3495845149
 20
-18.3207212178
 10
2.3462883991
 20
-18.3197057751
 10
2.342749504
 20
-18.3188010087
 10
2.3389562374
 20
-18.3179932132
 10
2.3349201652
 20
-18.3172959436
 10
2.3306760202
 20
-18.3167500298
 10
2.3262263514
 20
-18.3163636523
 10
2.321568607
 20
-18.3161284812
 10
2.3167298842
 20
-18.3160605986
 10
2.3117127813
 20
-18.3161643159
 10
2.3065147126
 20
-18.3164351719
 10
2.3011550077
 20
-18.316876105
 10
2.2956401184
 20
-18.3174880478
 10
2.2899636163
 20
-18.3182699179
  0
LWPOLYLINE
  5
265
100
AcDbEntity
  8
ASSI
100
AcDbPolyline
 62
7
  6
CONTINUOUS
 90
25
 70
0
 10
2.3526373109
 20
-18.3218472169
 10
2.3845494953
 20
-18.3337940954
 10
2.4162902683
 20
-18.3449870483
 10
2.4478327462
 20
-18.3554160346
 10
2.4791506544
 20
-18.3650711061
 10
2.5102171022
 20
-18.3739440451
 10
2.5410046161
 20
-18.3820283526
 10
2.5714873049
 20
-18.389316462
 10
2.6016394189
 20
-18.3958016523
 10
2.631434141
 20
-18.4014796489
 10
2.6608465112
 20
-18.4063448642
 10
2.6898517733
 20
-18.410392578
 10
2.7184239602
 20
-18.4136207888
 10
2.7465392421
 20
-18.4160259186
 10
2.7741740419
 20
-18.417605286
 10
2.8013034093
 20
-18.4183592158
 10
2.8279048788
 20
-18.418286097
 10
2.8539561825
 20
-18.4173853689
 10
2.8794333932
 20
-18.4156599121
 10
2.9043147076
 20
-18.4131112183
 10
2.9285802126
 20
-18.4097397087
 10
2.952209618
 20
-18.4055476639
 10
2.9751833559
 20
-18.4005378631
 10
2.9974825955
 20
-18.3947135832
 10
3.0190890204
 20
-18.3880788794
  0
LWPOLYLINE
  5
266
100
AcDbEntity
  8
ASSI
100
AcDbPolyline
 62
7
  6
CONTINUOUS
 90
6
 70
0
 10
-20.900916686
 20
8.4727735262
 10
-20.9976467902
 20
8.6469936445
 10
-21.0899996522
 20
8.8219532622
 10
-21.1779656012
 20
8.9976394966
 10
-21.2615543079
 20
9.1740652304
 10
-21.3407230592
 20
9.3511401019
  0
LWPOLYLINE
  5
267
100
AcDbEntity
  8
ASSI
100
AcDbPolyline
 62
7
  6
CONTINUOUS
 90
6
 70
0
 10
-21.415474567
 20
9.5288768868
 10
-21.4858061192
 20
9.7072628093
 10
-21.5516668666
 20
9.8861691804
 10
-21.6130499302
 20
10.0655850644
 10
-21.669962189
 20
10.245521397
 10
-21.7223734295
 20
10.4258822957
  0
LINE
  5
268
100
AcDbEntity
  8
0
100
AcDbLine
 62
250
  6
CONTINUOUS
 10
-9.0075205392
 20
17.1633636095
 11
-9.0038579953
 21
16.6766529133
  0
LWPOLYLINE
  5
269
100
AcDbEntity
  8
ASSI
100
AcDbPolyline
 62
250
  6
CONTINUOUS
 90
8
 70
0
 10
-9.5175144948
 20
17.4591871238
 10
-9.5170786898
 20
17.4877098168
 10
-9.5151706745
 20
17.5253223146
 10
-9.5117471628
 20
17.5628981882
 10
-9.5068099395
 20
17.600418178
 10
-9.5003616925
 20
17.6378617013
 10
-9.4924058505
 20
17.675208729
 10
-9.4829461803
 20
17.7124408728
  0
LWPOLYLINE
  5
26A
100
AcDbEntity
  8
ASSI
100
AcDbPolyline
 62
7
  6
CONTINUOUS
 90
3
 70
0
 10
-9.5157593238
 20
17.4329319035
 10
-9.5133120237
 20
17.4660823787
 10
-9.5087483538
 20
17.5053571397
  0
LINE
  5
26B
100
AcDbEntity
  8
ASSI
100
AcDbLine
 62
7
  6
CONTINUOUS
 10
-9.5120759414
 20
17.396592548
 11
-9.5127832345
 21
17.3884132304
  0
LWPOLYLINE
  5
26C
100
AcDbEntity
  8
ASSI
100
AcDbPolyline
 62
7
  6
CONTINUOUS
 90
6
 70
0
 10
-9.5087483538
 20
17.5053571397
 10
-9.5025272628
 20
17.5445794106
 10
-9.4946598083
 20
17.5836794768
 10
-9.4851430622
 20
17.6226571208
 10
-9.4739799526
 20
17.6615125601
 10
-9.461190321
 20
17.7001767321
  0
LWPOLYLINE
  5
26D
100
AcDbEntity
  8
ASSI
100
AcDbPolyline
 62
7
  6
CONTINUOUS
 90
3
 70
0
 10
-9.4999086825
 20
17.4769043472
 10
-9.5068567717
 20
17.4368046859
 10
-9.5120759414
 20
17.396592548
  0
LWPOLYLINE
  5
26E
100
AcDbEntity
  8
ASSI
100
AcDbPolyline
 62
250
  6
CONTINUOUS
 90
3
 70
0
 10
9.0156113866
 20
16.9488044273
 10
8.968024951
 20
16.9219766824
 10
8.9193000424
 20
16.8958153104
  0
LWPOLYLINE
  5
26F
100
AcDbEntity
  8
ASSI
100
AcDbPolyline
 62
7
  6
CONTINUOUS
 90
37
 70
0
 10
8.8656041386
 20
16.9636667806
 10
8.7526657047
 20
16.9024690461
 10
8.6320194364
 20
16.8449339594
 10
8.5041535782
 20
16.7914378042
 10
8.3696357036
 20
16.7423409433
 10
8.2290410871
 20
16.6979583774
 10
8.0829047003
 20
16.6585559471
 10
7.9317983498
 20
16.6243822362
 10
7.7764573545
 20
16.5956869596
 10
7.6176666177
 20
16.5726793527
 10
7.456124292
 20
16.5555124961
 10
7.2925937957
 20
16.544311652
 10
7.1279759984
 20
16.5391658234
 10
6.9630426129
 20
16.5401109435
 10
6.7985517305
 20
16.5471477814
 10
6.6353884876
 20
16.5602305891
 10
6.4743092329
 20
16.5792771327
 10
6.3160590856
 20
16.6041703882
 10
6.1614947033
 20
16.6347310761
 10
6.0113406697
 20
16.6707533172
 10
5.8662504823
 20
16.7120077234
 10
5.7269528825
 20
16.7581988455
 10
5.5941093492
 20
16.8089956288
 10
5.4682300915
 20
16.8640754074
 10
5.3498118025
 20
16.9230820508
 10
5.2395068709
 20
16.9855154746
 10
5.1375706138
 20
17.0510283469
 10
5.0440152138
 20
17.1194466224
 10
4.9595553211
 20
17.1900517346
 10
4.8842118445
 20
17.2625814225
 10
4.8174290048
 20
17.3375348167
 10
4.7599151165
 20
17.4142294182
 10
4.7119906893
 20
17.4923041197
 10
4.6733755978
 20
17.5727785416
 10
4.6447471766
 20
17.6557416694
 10
4.6270943292
 20
17.7403945067
 10
4.6210677384
 20
17.8266184759
  0
LINE
  5
270
100
AcDbEntity
  8
ASSI
100
AcDbLine
 62
250
  6
CONTINUOUS
 10
8.9193000424
 20
16.8958153104
 11
8.869436661
 21
16.8703203113
  0
LWPOLYLINE
  5
271
100
AcDbEntity
  8
ASSI
100
AcDbPolyline
 62
250
  6
CONTINUOUS
 90
79
 70
0
 10
8.869436661
 20
16.8703203113
 10
8.8183951444
 20
16.8454688695
 10
8.7662151549
 20
16.8212838007
 10
8.7130156792
 20
16.7978335511
 10
8.6587930188
 20
16.7751218416
 10
8.6035508722
 20
16.7531449513
 10
8.5474193228
 20
16.7319601642
 10
8.4903961748
 20
16.7115714159
 10
8.4324836239
 20
16.6919747708
 10
8.3738183401
 20
16.6732157054
 10
8.3144107136
 20
16.6553004405
 10
8.2542503541
 20
16.6382227552
 10
8.193442761
 20
16.6220094636
 10
8.1319939448
 20
16.6066630426
 10
8.0698978949
 20
16.5921810153
 10
8.0072420795
 20
16.5785827646
 10
7.9440198097
 20
16.5658677458
 10
7.8802377745
 20
16.5540365037
 10
7.8160035083
 20
16.5431100549
 10
7.7513108185
 20
16.5330892877
 10
7.6861658978
 20
16.5239733138
 10
7.6206948592
 20
16.5157804854
 10
7.5548991009
 20
16.5085131127
 10
7.4887772247
 20
16.5021688855
 10
7.422451149
 20
16.4967592253
 10
7.3559230924
 20
16.4922860099
 10
7.2891908363
 20
16.4887473615
 10
7.2223696433
 20
16.4861490681
 10
7.155459002
 20
16.4844926272
 10
7.0884594237
 20
16.4837765413
 10
7.0214877048
 20
16.484002106
 10
6.9545427412
 20
16.4851709733
 10
6.887625637
 20
16.4872814911
 10
6.8208565011
 20
16.4903299983
 10
6.7542356707
 20
16.494318216
 10
6.6877628085
 20
16.4992444231
 10
6.6215570118
 20
16.5050997952
 10
6.5556191174
 20
16.511885971
 10
6.4899482885
 20
16.5196013118
 10
6.4246611119
 20
16.5282320782
 10
6.359758311
 20
16.5377798781
 10
6.2952391623
 20
16.5482431034
 10
6.2312180827
 20
16.5596031911
 10
6.1676958498
 20
16.5718617469
 10
6.1046716859
 20
16.585017165
 10
6.0422576748
 20
16.5990460646
 10
5.9804548465
 20
16.6139500184
 10
5.9192621711
 20
16.6297274537
 10
5.8587886426
 20
16.6463502725
 10
5.7990356186
 20
16.6638199604
 10
5.7400017416
 20
16.6821350318
 10
5.6817919329
 20
16.7012629321
 10
5.6244076158
 20
16.7212051224
 10
5.567847367
 20
16.7419601415
 10
5.5122118388
 20
16.7634910515
 10
5.457502733
 20
16.7857992086
 10
5.4037183478
 20
16.8088832565
 10
5.3509542299
 20
16.832702188
 10
5.2992121237
 20
16.8572573441
 10
5.2484902848
 20
16.8825473837
 10
5.1988790274
 20
16.9085272765
 10
5.1503803943
 20
16.9351982151
 10
5.1029923428
 20
16.9625590068
 10
5.0567990591
 20
16.990561044
 10
5.0118026086
 20
17.019205506
 10
4.968000926
 20
17.0484912135
 10
4.9254720016
 20
17.0783660206
 10
4.8842181577
 20
17.1088309348
 10
4.8442370719
 20
17.1398849486
 10
4.805599768
 20
17.1714728941
 10
4.7683085958
 20
17.2035957531
 10
4.7323612055
 20
17.2362525438
 10
4.6978215703
 20
17.2693851528
 10
4.6646922209
 20
17.3029944015
 10
4.6329706266
 20
17.3370794686
 10
4.6027131694
 20
17.3715797769
 10
4.5739224213
 20
17.4064961106
 10
4.5465958103
 20
17.4418276854
 10
4.5207820017
 20
17.4775115717
  0
LWPOLYLINE
  5
272
100
AcDbEntity
  8
ASSI
100
AcDbPolyline
 62
250
  6
CONTINUOUS
 90
31
 70
0
 10
19.3789244872
 20
-7.7871217103
 10
19.4033143616
 20
-7.7816922562
 10
19.4271951135
 20
-7.7791473519
 10
19.450074283
 20
-7.7795184873
 10
19.4719511574
 20
-7.7827665107
 10
19.4928115896
 20
-7.7888577513
 10
19.512756549
 20
-7.7977015812
 10
19.531783454
 20
-7.8092634395
 10
19.5498804914
 20
-7.8235103123
 10
19.5671360225
 20
-7.840356866
 10
19.5835440831
 20
-7.8597695432
 10
19.599095003
 20
-7.8817165478
 10
19.6138719457
 20
-7.9061166956
 10
19.6278679522
 20
-7.9329360256
 10
19.641073213
 20
-7.9621452941
 10
19.6535673919
 20
-7.9936723755
 10
19.6653445637
 20
-8.0274852718
 10
19.6763939629
 20
-8.0635563344
 10
19.6867894367
 20
-8.1018227239
 10
19.6965257188
 20
-8.1422564511
 10
19.7055920506
 20
-8.1848298287
 10
19.7140554057
 20
-8.229482979
 10
19.7219097816
 20
-8.2761899304
 10
19.7291452381
 20
-8.32492386
 10
19.7358236364
 20
-8.3756252775
 10
19.741937839
 20
-8.4282657876
 10
19.747478497
 20
-8.4828228847
 10
19.7525050664
 20
-8.5392476211
 10
19.7570324133
 20
-8.5975081387
 10
19.7610299382
 20
-8.6575886301
 10
19.7644894298
 20
-8.7194654168
  0
LINE
  5
273
100
AcDbEntity
  8
ASSI
100
AcDbLine
 62
250
  6
CONTINUOUS
 10
8.7715856944
 20
-15.7780806612
 11
8.7666376068
 21
-15.7751915891
  0
LWPOLYLINE
  5
274
100
AcDbEntity
  8
ASSI
100
AcDbPolyline
 62
7
  6
CONTINUOUS
 90
15
 70
0
 10
8.7715873372
 20
-15.7780813575
 10
8.7576215685
 20
-15.7694276193
 10
8.7448692622
 20
-15.7583467277
 10
8.7364357745
 20
-15.7474831037
 10
8.7295730383
 20
-15.7345267067
 10
8.721820578
 20
-15.7125776939
 10
8.7148541243
 20
-15.6773998273
 10
8.7117416354
 20
-15.630205299
 10
8.7143247964
 20
-15.5726292606
 10
8.7239457155
 20
-15.504498769
 10
8.7413904765
 20
-15.4278155988
 10
8.7654747286
 20
-15.3484869475
 10
8.7947406206
 20
-15.2693112242
 10
8.8287329332
 20
-15.1898913839
 10
8.8465357946
 20
-15.1518286624
  0
LWPOLYLINE
  5
275
100
AcDbEntity
  8
ASSI
100
AcDbPolyline
 62
7
  6
CONTINUOUS
 90
29
 70
0
 10
-19.4090722377
 20
6.4569511173
 10
-19.5860337857
 20
6.6524756037
 10
-19.757026485
 20
6.8496807842
 10
-19.922115264
 20
7.0486296974
 10
-20.0811508994
 20
7.2491424881
 10
-20.2341279177
 20
7.4512205701
 10
-20.3810517925
 20
7.6548625294
 10
-20.5217897211
 20
7.8598842693
 10
-20.65633611
 20
8.0662870373
 10
-20.7846965528
 20
8.2740695859
 10
-20.9067550277
 20
8.4830440763
 10
-21.0225058363
 20
8.6932115861
 10
-21.1319546771
 20
8.9045710377
 10
-21.2350026237
 20
9.1169313598
 10
-21.3316438882
 20
9.3302934572
 10
-21.4218842586
 20
9.5446564251
 10
-21.5056421721
 20
9.759826478
 10
-21.5829117671
 20
9.9758043454
 10
-21.6536989052
 20
10.1925892978
 10
-21.7179396086
 20
10.4099853609
 10
-21.7756279577
 20
10.6279930871
 10
-21.8267698721
 20
10.8466119241
 10
-21.8713191319
 20
11.0656442406
 10
-21.909269776
 20
11.2850904102
 10
-21.9406277657
 20
11.5049500594
 10
-21.9653647645
 20
11.7250244358
 10
-21.9834747859
 20
11.9453137333
 10
-21.9949638165
 20
12.1658177581
 10
-21.9998214804
 20
12.3863371759
  0
LWPOLYLINE
  5
276
100
AcDbEntity
  8
ASSI
100
AcDbPolyline
 62
7
  6
CONTINUOUS
 90
5
 70
0
 10
-19.5562448598
 20
6.6189793378
 10
-19.699323502
 20
6.7821680923
 10
-19.8382919809
 20
6.9465023369
 10
-19.97316648
 20
7.1119971155
 10
-20.1038822852
 20
7.2785729357
  0
LWPOLYLINE
  5
277
100
AcDbEntity
  8
ASSI
100
AcDbPolyline
 62
250
  6
CONTINUOUS
 90
46
 70
0
 10
2.6509488517
 20
-25.2254677363
 10
2.7249525476
 20
-25.3245895226
 10
2.8012845743
 20
-25.4224199345
 10
2.8799063503
 20
-25.5188734187
 10
2.9607931138
 20
-25.6139288271
 10
3.0439278473
 20
-25.707571518
 10
3.1292809596
 20
-25.7997252967
 10
3.2168253584
 20
-25.8903704503
 10
3.3065447147
 20
-25.979492791
 10
3.3984236983
 20
-26.0670243704
 10
3.4924403222
 20
-26.1529528149
 10
3.5885725039
 20
-26.2372589016
 10
3.6868031015
 20
-26.3198645023
 10
3.7871045064
 20
-26.4007544529
 10
3.8894592441
 20
-26.4799145428
 10
3.9938637698
 20
-26.5572682373
 10
4.1002967162
 20
-26.6328069225
 10
4.2087340949
 20
-26.7065122949
 10
4.3191668009
 20
-26.7782934938
 10
4.4315805839
 20
-26.8481458478
 10
4.5459437026
 20
-26.9160494755
 10
4.6622184228
 20
-26.9818907866
 10
4.7803687659
 20
-27.045654352
 10
4.9003829071
 20
-27.1073332088
 10
5.0222570104
 20
-27.1668266299
 10
5.1459681684
 20
-27.224129252
 10
5.2714914136
 20
-27.2792265992
 10
5.3988179045
 20
-27.3320045813
 10
5.5279381153
 20
-27.38246245
 10
5.6588134316
 20
-27.430583601
 10
5.7913887616
 20
-27.4762304157
 10
5.9256213924
 20
-27.5193921998
 10
6.0615044193
 20
-27.5600646244
 10
6.1990339337
 20
-27.5981199437
 10
6.3382252588
 20
-27.6335629248
 10
6.479014094
 20
-27.66637633
 10
6.6212741158
 20
-27.6963997581
 10
6.765039674
 20
-27.7236283464
 10
6.9102258983
 20
-27.7480568007
 10
7.0565227466
 20
-27.7695243714
 10
7.203956709
 20
-27.7880089733
 10
7.3524479209
 20
-27.8035248342
 10
7.5015210851
 20
-27.815966052
 10
7.6509977987
 20
-27.8252954719
 10
7.801000417
 20
-27.8315447712
 10
7.9515027074
 20
-27.8347118204
  0
LWPOLYLINE
  5
278
100
AcDbEntity
  8
ASSI
100
AcDbPolyline
 62
7
  6
CONTINUOUS
 90
6
 70
0
 10
-20.230448716
 20
7.4462458492
 10
-20.3528564529
 20
7.6149998043
 10
-20.4710128235
 20
7.7847071534
 10
-20.5849049871
 20
7.9553536422
 10
-20.6945457844
 20
8.1269535251
 10
-20.7998810646
 20
8.299421917
  0
LINE
  5
279
100
AcDbEntity
  8
ASSI
100
AcDbLine
 62
250
  6
CONTINUOUS
 10
2.5792952978
 20
-25.1250778959
 11
2.6509488517
 21
-25.2254677363
  0
LINE
  5
27A
100
AcDbEntity
  8
ASSI
100
AcDbLine
 62
7
  6
CONTINUOUS
 10
-9.5121443442
 20
17.3788562099
 11
-9.5175144948
 21
17.4591871238
  0
LINE
  5
27B
100
AcDbEntity
  8
0
100
AcDbLine
 62
250
  6
CONTINUOUS
 10
-4.7088720735
 20
17.3599178553
 11
-4.7153383925
 21
16.5006171359
  0
LINE
  5
27C
100
AcDbEntity
  8
0
100
AcDbLine
 62
250
  6
CONTINUOUS
 10
-4.3513136749
 20
17.0972710222
 11
-4.35452761
 21
16.73507085
  0
LINE
  5
27D
100
AcDbEntity
  8
ASSI
100
AcDbLine
 62
7
  6
CONTINUOUS
 10
-3.9175144948
 20
17.4591871238
 11
-3.9230965142
 21
17.3772858057
  0
LWPOLYLINE
  5
27E
100
AcDbEntity
  8
ASSI
100
AcDbPolyline
 62
7
  6
CONTINUOUS
 90
12
 70
0
 10
-3.9230965142
 20
17.3772858057
 10
-3.9395879736
 20
17.2961175745
 10
-3.9666034626
 20
17.2155864687
 10
-4.0034024741
 20
17.1364304614
 10
-4.0494753822
 20
17.0586347829
 10
-4.1051902284
 20
16.9812670329
 10
-4.1702141341
 20
16.9048675212
 10
-4.2439329103
 20
16.830139668
 10
-4.3272475335
 20
16.756343924
 10
-4.4205256439
 20
16.6836054131
 10
-4.5229505597
 20
16.6129387237
 10
-4.6340741969
 20
16.5448866931
  0
LWPOLYLINE
  5
27F
100
AcDbEntity
  8
ASSI
100
AcDbPolyline
 62
250
  6
CONTINUOUS
 90
25
 70
0
 10
20.2931541754
 20
19.6554157561
 10
20.3171321417
 20
19.6696916436
 10
20.3404504461
 20
19.6843234111
 10
20.3630928234
 20
19.6993007556
 10
20.385043335
 20
19.7146129898
 10
20.4062868299
 20
19.7302494926
 10
20.4268089066
 20
19.7461997382
 10
20.4465954041
 20
19.7624527245
 10
20.4656322779
 20
19.7789968926
 10
20.4839060479
 20
19.7958205839
 10
20.5014038787
 20
19.8129119607
 10
20.5181136324
 20
19.830259115
 10
20.5340236998
 20
19.8478500055
 10
20.5491229582
 20
19.8656723478
 10
20.5634008608
 20
19.8837136774
 10
20.5768474916
 20
19.9019614545
 10
20.5894535033
 20
19.9204030562
 10
20.6012100041
 20
19.9390255068
 10
20.6121086566
 20
19.9578155402
 10
20.6221417456
 20
19.9767598464
 10
20.6313024088
 20
19.9958454263
 10
20.6395844567
 20
20.0150593314
 10
20.6469821093
 20
20.0343883065
 10
20.6534900726
 20
20.0538187888
 10
20.659103747
 20
20.0733372639
  0
LWPOLYLINE
  5
280
100
AcDbEntity
  8
ASSI
100
AcDbPolyline
 62
250
  6
CONTINUOUS
 90
25
 70
0
 10
19.9396546327
 20
20.2606324145
 10
19.9544210948
 20
20.2693875349
 10
19.9687640202
 20
20.2783531602
 10
19.9826834087
 20
20.2875292905
 10
19.9961889884
 20
20.2969229681
 10
20.0092710313
 20
20.3065271507
 10
20.0219003539
 20
20.3163207111
 10
20.0340754517
 20
20.3263037359
 10
20.0457978292
 20
20.3364761386
 10
20.0570428165
 20
20.3468165326
 10
20.0678093779
 20
20.3573252535
 10
20.0780985492
 20
20.3680019657
 10
20.087888768
 20
20.3788242765
 10
20.0971789718
 20
20.3897924678
 10
20.1059702232
 20
20.4009062577
 10
20.1142441471
 20
20.4121424076
 10
20.1219996778
 20
20.4235012124
 10
20.1292378811
 20
20.4349823771
 10
20.1359435785
 20
20.4465617781
 10
20.1421157999
 20
20.4582401898
 10
20.1477555155
 20
20.4700168377
 10
20.1528504571
 20
20.4818652755
 10
20.1573965351
 20
20.4937766875
 10
20.1613978391
 20
20.5057598893
 10
20.1648543691
 20
20.5178148808
  0
LINE
  5
281
100
AcDbEntity
  8
ASSI
100
AcDbLine
 62
250
  6
CONTINUOUS
 10
10.0659290284
 20
14.5596669974
 11
19.9396546327
 21
20.2606324145
  0
LINE
  5
282
100
AcDbEntity
  8
ASSI
100
AcDbLine
 62
250
  6
CONTINUOUS
 10
10.4194285711
 20
13.954450339
 11
20.2931541754
 21
19.6554157561
  0
LWPOLYLINE
  5
283
100
AcDbEntity
  8
ASSI
100
AcDbPolyline
 62
7
  6
CONTINUOUS
 90
43
 70
0
 10
14.1297666487
 20
-6.1173170634
 10
14.1240439067
 20
-6.1181471623
 10
14.118204614
 20
-6.1193489224
 10
14.1122487706
 20
-6.1209223437
 10
14.106159781
 20
-6.122872087
 10
14.0999542407
 20
-6.1251934915
 10
14.0936819361
 20
-6.1278725745
 10
14.0873433788
 20
-6.1309110107
 10
14.0809380573
 20
-6.1343071254
 10
14.0745142227
 20
-6.1380419122
 10
14.0680724774
 20
-6.1421192525
 10
14.0616122191
 20
-6.1465352647
 10
14.0551798924
 20
-6.1512592984
 10
14.0487757886
 20
-6.156292306
 10
14.0423996163
 20
-6.1616333351
 10
14.0360969468
 20
-6.1672488774
 10
14.0298685387
 20
-6.1731417871
 10
14.0237136333
 20
-6.1793092101
 10
14.0176755249
 20
-6.1857090761
 10
14.0117558682
 20
-6.1923438085
 10
14.0059530084
 20
-6.1992109839
 10
14.0003052749
 20
-6.2062612618
 10
13.9948130336
 20
-6.2134946117
 10
13.9894759185
 20
-6.2209110641
 10
13.9843311618
 20
-6.2284613695
 10
13.9793803812
 20
-6.236146416
 10
13.9746219589
 20
-6.2439653156
 10
13.970088274
 20
-6.2518661549
 10
13.9657795495
 20
-6.2598507694
 10
13.9616955624
 20
-6.2679173237
 10
13.957868022
 20
-6.2760083987
 10
13.9542982665
 20
-6.2841245398
 10
13.9509849578
 20
-6.2922652016
 10
13.9479557913
 20
-6.3003713289
 10
13.9452153788
 20
-6.3084428708
 10
13.9427591085
 20
-6.3164798781
 10
13.9406008408
 20
-6.324423448
 10
13.9387421438
 20
-6.332271709
 10
13.9371814493
 20
-6.3400265326
 10
13.9359279133
 20
-6.3476346306
 10
13.9349831132
 20
-6.3550943266
 10
13.9343454716
 20
-6.3624072971
 10
13.9340194124
 20
-6.3695252834
  0
LWPOLYLINE
  5
284
100
AcDbEntity
  8
ASSI
100
AcDbPolyline
 62
7
  6
CONTINUOUS
 90
58
 70
0
 10
14.1650341335
 20
-6.1405562016
 10
14.1593091259
 20
-6.1413811489
 10
14.1534468912
 20
-6.1425896248
 10
14.1474474295
 20
-6.1441816292
 10
14.141281677
 20
-6.1461662734
 10
14.1349786974
 20
-6.1485344461
 10
14.1286256823
 20
-6.1512588137
 10
14.1222372733
 20
-6.1543379282
 10
14.1157988287
 20
-6.1577732377
 10
14.1093536147
 20
-6.1615417523
 10
14.1029024148
 20
-6.1656460449
 10
14.0964444454
 20
-6.1700835426
 10
14.0900206223
 20
-6.174823537
 10
14.0836264402
 20
-6.1798711114
 10
14.0772664043
 20
-6.1852211825
 10
14.0709949458
 20
-6.1908277919
 10
14.0648244502
 20
-6.1966814395
 10
14.0587425319
 20
-6.2027916254
 10
14.0527664654
 20
-6.2091408924
 10
14.0468885941
 20
-6.2157388925
 10
14.0411165745
 20
-6.2225759736
 10
14.0354906513
 20
-6.2296057226
 10
14.0300077133
 20
-6.2368343546
 10
14.0246708717
 20
-6.2442556544
 10
14.0195297045
 20
-6.2518045639
 10
14.0145899821
 20
-6.2594779407
 10
14.0098459343
 20
-6.2672789271
 10
14.0053298278
 20
-6.2751518916
 10
14.0010412577
 20
-6.2831017774
 10
13.996980629
 20
-6.2911236413
 10
13.9931814235
 20
-6.2991470216
 10
13.9896504003
 20
-6.3071585104
 10
13.9863808003
 20
-6.3151715155
 10
13.9833858282
 20
-6.3231557995
 10
13.9806657739
 20
-6.3311149629
 10
13.9782203475
 20
-6.3390454051
 10
13.9760618841
 20
-6.3469060868
 10
13.9741889738
 20
-6.3547079321
 10
13.9726030264
 20
-6.3624400168
 10
13.9713206064
 20
-6.3700285297
 10
13.9703455189
 20
-6.3774631081
 10
13.9696739587
 20
-6.3847541147
 10
13.9693110742
 20
-6.3918588261
 10
13.9692601965
 20
-6.3987827284
 10
13.9695179945
 20
-6.4055203356
 10
13.9700796232
 20
-6.4120124656
 10
13.970947247
 20
-6.4182547829
 10
13.9721187015
 20
-6.424251623
 10
13.9735826489
 20
-6.4299568105
 10
13.9753362491
 20
-6.435357438
 10
13.9773823421
 20
-6.4404664128
 10
13.9797181101
 20
-6.4452762806
 10
13.9823496488
 20
-6.4497961462
 10
13.9852708624
 20
-6.4540169048
 10
13.9884606451
 20
-6.4579037877
 10
13.9919221411
 20
-6.4614555631
 10
13.9956522062
 20
-6.4646734629
 10
13.9994201558
 20
-6.4673951543
  0
LWPOLYLINE
  5
285
100
AcDbEntity
  8
ASSI
100
AcDbPolyline
 62
7
  6
CONTINUOUS
 90
10
 70
0
 10
14.3545426002
 20
-6.2209434535
 10
14.343311351
 20
-6.2217182085
 10
14.3326541769
 20
-6.2220707256
 10
14.3225724336
 20
-6.2219959982
 10
14.3130647653
 20
-6.2214990329
 10
14.3041251796
 20
-6.2206208794
 10
14.2957938474
 20
-6.2193722691
 10
14.2880305978
 20
-6.2177424707
 10
14.2807089255
 20
-6.2157403397
 10
14.2762698784
 20
-6.21420642
  0
LWPOLYLINE
  5
286
100
AcDbEntity
  8
ASSI
100
AcDbPolyline
 62
7
  6
CONTINUOUS
 90
6
 70
0
 10
-15.0067267837
 20
3.1489713518
 10
-14.7252578422
 20
2.9999849146
 10
-14.4392629708
 20
2.8538002602
 10
-14.1488296303
 20
2.7104605459
 10
-13.8542202036
 20
2.5700952431
 10
-13.5407760799
 20
2.4260934071
  0
LINE
  5
287
100
AcDbEntity
  8
ASSI
100
AcDbLine
 62
7
  6
CONTINUOUS
 10
-15.216791972
 20
3.2636118947
 11
-15.4439527218
 21
3.3910480371
  0
LWPOLYLINE
  5
288
100
AcDbEntity
  8
ASSI
100
AcDbPolyline
 62
7
  6
CONTINUOUS
 90
3
 70
0
 10
-15.5563492596
 20
3.4554790465
 10
-15.2837572562
 20
3.3008027291
 10
-14.9864301874
 20
3.1380540764
  0
LWPOLYLINE
  5
289
100
AcDbEntity
  8
ASSI
100
AcDbPolyline
 62
7
  6
CONTINUOUS
 90
4
 70
0
 10
-15.4439527218
 20
3.3910480371
 10
-15.6679398519
 20
3.5203753988
 10
-15.8886515051
 20
3.6515351687
 10
-16.1061100151
 20
3.784543176
  0
LWPOLYLINE
  5
28A
100
AcDbEntity
  8
ASSI
100
AcDbPolyline
 62
7
  6
CONTINUOUS
 90
7
 70
0
 10
-15.5563492596
 20
3.4554790465
 10
-15.8242392402
 20
3.6128702529
 10
-16.0872019576
 20
3.7728241757
 10
-16.3452374117
 20
3.9353408149
 10
-16.5984203481
 20
4.1004706693
 10
-16.8466760213
 20
4.2681632401
 10
-17.0897801945
 20
4.4382670307
  0
LWPOLYLINE
  5
28B
100
AcDbEntity
  8
ASSI
100
AcDbPolyline
 62
7
  6
CONTINUOUS
 90
5
 70
0
 10
-16.3202930481
 20
3.9193835915
 10
-16.5310317461
 20
4.0559501166
 10
-16.7383008234
 20
4.194228617
 10
-16.9421255658
 20
4.3342332269
 10
-17.1424129722
 20
4.4759000509
  0
LINE
  5
28C
100
AcDbEntity
  8
ASSI
100
AcDbLine
 62
7
  6
CONTINUOUS
 10
-17.0897801945
 20
4.4382670307
 11
-17.3391826222
 21
4.6192457394
  0
LWPOLYLINE
  5
28D
100
AcDbEntity
  8
ASSI
100
AcDbPolyline
 62
7
  6
CONTINUOUS
 90
5
 70
0
 10
-17.3277282851
 20
4.6107842697
 10
-17.5605248756
 20
4.7857127285
 10
-17.7879594777
 20
4.9628942248
 10
-18.0100272235
 20
5.1423307833
 10
-18.2267329809
 20
5.3240203792
  0
LWPOLYLINE
  5
28E
100
AcDbEntity
  8
ASSI
100
AcDbPolyline
 62
7
  6
CONTINUOUS
 90
5
 70
0
 10
-17.5324149362
 20
4.7642536419
 10
-17.7219581742
 20
4.9108099116
 10
-17.907789744
 20
5.0588996034
 10
-18.0899322378
 20
5.2085376623
 10
-18.2683016924
 20
5.3596550769
  0
LINE
  5
28F
100
AcDbEntity
  8
ASSI
100
AcDbLine
 62
7
  6
CONTINUOUS
 10
-18.2267329809
 20
5.3240203792
 11
-18.4429144817
 21
5.5122688414
  0
LWPOLYLINE
  5
290
100
AcDbEntity
  8
ASSI
100
AcDbPolyline
 62
7
  6
CONTINUOUS
 90
6
 70
0
 10
-18.4378808646
 20
5.507798756
 10
-18.6434658489
 20
5.6936678019
 10
-18.8434929596
 20
5.8816256288
 10
-19.0377813894
 20
6.0715023145
 10
-19.2263259489
 20
6.263299594
 10
-19.4091318274
 20
6.4570157324
  0
LWPOLYLINE
  5
291
100
AcDbEntity
  8
ASSI
100
AcDbPolyline
 62
7
  6
CONTINUOUS
 90
5
 70
0
 10
-18.6137542318
 20
5.6663619616
 10
-18.7806878572
 20
5.8218144425
 10
-18.9436958598
 20
5.9786110201
 10
-19.1027977377
 20
6.1367669585
 10
-19.2579188999
 20
6.2962080551
  0
LINE
  5
292
100
AcDbEntity
  8
ASSI
100
AcDbLine
 62
7
  6
CONTINUOUS
 10
-3.9229530481
 20
17.396592548
 11
-3.9222974084
 21
17.3890105628
  0
LWPOLYLINE
  5
293
100
AcDbEntity
  8
ASSI
100
AcDbPolyline
 62
7
  6
CONTINUOUS
 90
72
 70
0
 10
-2.3621402805
 20
-8.1546246763
 10
-2.385440411
 20
-8.518527595
 10
-2.4016133988
 20
-8.8870803212
 10
-2.4101815442
 20
-9.2568305339
 10
-2.4109628798
 20
-9.627874079
 10
-2.4041497094
 20
-10.0001159451
 10
-2.3898261776
 20
-10.3698166127
 10
-2.3677825644
 20
-10.7370400048
 10
-2.3382391081
 20
-11.1017189869
 10
-2.3019240198
 20
-11.4599167218
 10
-2.2585764364
 20
-11.8117154668
 10
-2.2084660342
 20
-12.157026589
 10
-2.1531144346
 20
-12.4916572442
 10
-2.0923853906
 20
-12.8150453418
 10
-2.0264201061
 20
-13.1277457965
 10
-1.957152998
 20
-13.4272431528
 10
-1.8847589683
 20
-13.7125127393
 10
-1.8090637059
 20
-13.9845738373
 10
-1.7314751607
 20
-14.2439794485
 10
-1.6521995863
 20
-14.4903393728
 10
-1.5710291296
 20
-14.7240404371
 10
-1.4887494836
 20
-14.9468031051
 10
-1.4054259045
 20
-15.1587442394
 10
-1.3209909482
 20
-15.3597448427
 10
-1.236030937
 20
-15.5511728897
 10
-1.1505749717
 20
-15.7331287326
 10
-1.0645914498
 20
-15.9055109635
 10
-0.9785754721
 20
-16.0693859887
 10
-0.8925684276
 20
-16.2247805104
 10
-0.806526252
 20
-16.3716677625
 10
-0.7208158111
 20
-16.5110348168
 10
-0.6354620125
 20
-16.6429189203
 10
-0.5504373186
 20
-16.7672834833
 10
-0.4660299742
 20
-16.8850054774
 10
-0.3822547466
 20
-16.9961196111
 10
-0.299094375
 20
-17.1005923809
 10
-0.2167891518
 20
-17.1991989559
 10
-0.1353504443
 20
-17.2919656004
 10
-0.0547645691
 20
-17.37886768
 10
0.0247656503
 20
-17.4606044297
 10
0.103219176
 20
-17.5371880379
 10
0.1806191617
 20
-17.6086082686
 10
0.2568289411
 20
-17.6755310166
 10
0.3318060756
 20
-17.7379579726
 10
0.4055948817
 20
-17.7958895678
 10
0.4781886464
 20
-17.8499899144
 10
0.5495532956
 20
-17.9002791001
 10
0.6197244781
 20
-17.9467390635
 10
0.688799846
 20
-17.9899765946
 10
0.7567696479
 20
-18.030028928
 10
0.8236449021
 20
-18.0668605875
 10
0.8895542022
 20
-18.1009690959
 10
0.954500851
 20
-18.1323913695
 10
1.0184825585
 20
-18.1610919666
 10
1.0816193558
 20
-18.1874596662
 10
1.1439154719
 20
-18.2115234597
 10
1.2053674976
 20
-18.2332555918
 10
1.2660838721
 20
-18.2529595418
 10
1.3260540822
 20
-18.2706558728
 10
1.3852893148
 20
-18.2863250641
 10
1.4439304477
 20
-18.3002102847
 10
1.5019672161
 20
-18.3123330688
 10
1.5594104297
 20
-18.3226726969
 10
1.6164324789
 20
-18.3314087374
 10
1.673033156
 20
-18.3385639471
 10
1.729213104
 20
-18.3441161281
 10
1.785145906
 20
-18.3481771827
 10
1.8408323656
 20
-18.3507680175
 10
1.896272033
 20
-18.351868047
 10
1.9516365468
 20
-18.3515267083
 10
2.0069272458
 20
-18.3497636103
 10
2.0621430867
 20
-18.3465592392
  0
LWPOLYLINE
  5
294
100
AcDbEntity
  8
ASSI
100
AcDbPolyline
 62
7
  6
CONTINUOUS
 90
7
 70
0
 10
-2.0817857769
 20
-6.1010458369
 10
-2.1431817577
 20
-6.4231026561
 10
-2.1996573499
 20
-6.7549442056
 10
-2.2499176985
 20
-7.0942464505
 10
-2.2938434497
 20
-7.4411790668
 10
-2.3315597085
 20
-7.7955792171
 10
-2.3621402805
 20
-8.1546246763
  0
LINE
  5
295
100
AcDbEntity
  8
ASSI
100
AcDbLine
 62
7
  6
CONTINUOUS
 10
-2.0153614244
 20
-5.7889329927
 11
-2.0817857769
 21
-6.1010458369
  0
LWPOLYLINE
  5
296
100
AcDbEntity
  8
ASSI
100
AcDbPolyline
 62
7
  6
CONTINUOUS
 90
3
 70
0
 10
-1.8693610284
 20
-5.1958764907
 10
-1.9440141279
 20
-5.4865975305
 10
-2.0153614244
 20
-5.7889329927
  0
LINE
  5
297
100
AcDbEntity
  8
ASSI
100
AcDbLine
 62
7
  6
CONTINUOUS
 10
-1.791449599
 20
-4.9172750659
 11
-1.8693610284
 21
-5.1958764907
  0
LWPOLYLINE
  5
298
100
AcDbEntity
  8
ASSI
100
AcDbPolyline
 62
7
  6
CONTINUOUS
 90
5
 70
0
 10
-1.4560344912
 20
-3.9219160681
 10
-1.542524124
 20
-4.1526044552
 10
-1.6271884227
 20
-4.395213326
 10
-1.7102329461
 20
-4.6502822515
 10
-1.791449599
 20
-4.9172750659
  0
LWPOLYLINE
  5
299
100
AcDbEntity
  8
ASSI
100
AcDbPolyline
 62
7
  6
CONTINUOUS
 90
13
 70
0
 10
10.0641479746
 20
0.3893263596
 10
10.0963068916
 20
0.3960939823
 10
10.1281378237
 20
0.4033482683
 10
10.1596561917
 20
0.4110934669
 10
10.1908465749
 20
0.4193253289
 10
10.2216280077
 20
0.4280237372
 10
10.2519987487
 20
0.4371905393
 10
10.2819605394
 20
0.4468238877
 10
10.3114376385
 20
0.4568981227
 10
10.3404149425
 20
0.4674085421
 10
10.3689075549
 20
0.4783598479
 10
10.3968850448
 20
0.4897404874
 10
10.4243650637
 20
0.5015591773
  0
LINE
  5
29A
100
AcDbEntity
  8
ASSI
100
AcDbLine
 62
7
  6
CONTINUOUS
 10
10.0316957764
 20
0.3830527695
 11
10.0723917317
 21
0.3910942989
  0
LINE
  5
29B
100
AcDbEntity
  8
ASSI
100
AcDbLine
 62
7
  6
CONTINUOUS
 10
9.9989280921
 20
0.3772702355
 11
10.0386850549
 21
0.3844347057
  0
LINE
  5
29C
100
AcDbEntity
  8
ASSI
100
AcDbLine
 62
7
  6
CONTINUOUS
 10
9.9658671266
 20
0.371981734
 11
10.0046384092
 21
0.3783060194
  0
LINE
  5
29D
100
AcDbEntity
  8
ASSI
100
AcDbLine
 62
7
  6
CONTINUOUS
 10
9.9326141982
 20
0.3672035646
 11
9.9702730129
 21
0.3727109434
  0
LINE
  5
29E
100
AcDbEntity
  8
ASSI
100
AcDbLine
 62
7
  6
CONTINUOUS
 10
9.8992030797
 20
0.3629411603
 11
9.935696967
 21
0.3676670417
  0
LWPOLYLINE
  5
29F
100
AcDbEntity
  8
ASSI
100
AcDbPolyline
 62
7
  6
CONTINUOUS
 90
3
 70
0
 10
9.9009463052
 20
0.3631801686
 10
9.8659849939
 20
0.3592444698
 10
9.8308130329
 20
0.3558599452
  0
LINE
  5
2A0
100
AcDbEntity
  8
ASSI
100
AcDbLine
 62
7
  6
CONTINUOUS
 10
9.8318049542
 20
0.3559473477
 11
8.9854524641
 21
0.2827955283
  0
LINE
  5
2A1
100
AcDbEntity
  8
ASSI
100
AcDbLine
 62
7
  6
CONTINUOUS
 10
8.9863325653
 20
0.2828701196
 11
8.1394340288
 21
0.2125175139
  0
LINE
  5
2A2
100
AcDbEntity
  8
ASSI
100
AcDbLine
 62
7
  6
CONTINUOUS
 10
8.1402022528
 20
0.2125800431
 11
7.2927577271
 21
0.1450259019
  0
LINE
  5
2A3
100
AcDbEntity
  8
ASSI
100
AcDbLine
 62
7
  6
CONTINUOUS
 10
7.2934140166
 20
0.1450771182
 11
6.4453943556
 21
0.0803185297
  0
LWPOLYLINE
  5
2A4
100
AcDbEntity
  8
ASSI
100
AcDbPolyline
 62
7
  6
CONTINUOUS
 90
50
 70
0
 10
2.1996721329
 20
-0.201350994
 10
2.1421723694
 20
-0.2053674126
 10
2.0844855237
 20
-0.210841447
 10
2.0266117384
 20
-0.2177729729
 10
1.9686090571
 20
-0.2261292522
 10
1.9104197268
 20
-0.2359427996
 10
1.851870188
 20
-0.2473112524
 10
1.7929608787
 20
-0.2602133182
 10
1.7336916396
 20
-0.2746698005
 10
1.6738880096
 20
-0.2908412404
 10
1.6135503592
 20
-0.3087039653
 10
1.5526786114
 20
-0.3282809047
 10
1.4910976483
 20
-0.349802254
 10
1.4288078919
 20
-0.373240721
 10
1.3658092552
 20
-0.3986225805
 10
1.3019258939
 20
-0.4262581175
 10
1.2371465584
 20
-0.4561222224
 10
1.1714829075
 20
-0.4882386802
 10
1.104793525
 20
-0.5229908674
 10
1.0370641408
 20
-0.5603546968
 10
0.9683095504
 20
-0.6003526502
 10
0.8984320354
 20
-0.6434377533
 10
0.8274317211
 20
-0.6895729107
 10
0.7553091683
 20
-0.7387933841
 10
0.6819674474
 20
-0.7916605539
 10
0.6073989646
 20
-0.8481335741
 10
0.5316122147
 20
-0.9082511955
 10
0.4545345815
 20
-0.9726940222
 10
0.3761225731
 20
-1.0414507
 10
0.2964208675
 20
-1.1145302291
 10
0.2154893273
 20
-1.1926437078
 10
0.1332808315
 20
-1.2757974234
 10
0.0498440194
 20
-1.363982731
 10
-0.0346173661
 20
-1.4578885564
 10
-0.1201205845
 20
-1.5574966058
 10
-0.2066465255
 20
-1.6628231398
 10
-0.2939366492
 20
-1.7746093529
 10
-0.3820070942
 20
-1.8928279268
 10
-0.4708395404
 20
-2.0175046108
 10
-0.5601235147
 20
-2.1494607686
 10
-0.6498786784
 20
-2.2886584938
 10
-0.7400828793
 20
-2.4351347356
 10
-0.8303626855
 20
-2.5898238467
 10
-0.9207492845
 20
-2.7526837187
 10
-1.0112087356
 20
-2.9237562716
 10
-1.101269703
 20
-3.1041027838
 10
-1.1909613649
 20
-3.2936285397
 10
-1.2802516427
 20
-3.4924290549
 10
-1.3685771472
 20
-3.7018520286
 10
-1.4560344912
 20
-3.9219160681
  0
LWPOLYLINE
  5
2A5
100
AcDbEntity
  8
ASSI
100
AcDbPolyline
 62
7
  6
CONTINUOUS
 90
6
 70
0
 10
2.1996735919
 20
-0.2013509151
 10
3.0500514191
 20
-0.1505972698
 10
3.8998608103
 20
-0.0970498805
 10
4.7491017657
 20
-0.040708747
 10
5.5978041145
 20
0.0184283281
 10
6.4459380274
 20
0.0803591473
  0
LINE
  5
2A6
100
AcDbEntity
  8
ASSI
100
AcDbLine
 62
7
  6
CONTINUOUS
 10
1.81908354
 20
-0.2215037919
 11
2.1996735919
 21
-0.2013509151
  0
LWPOLYLINE
  5
2A7
100
AcDbEntity
  8
ASSI
100
AcDbPolyline
 62
7
  6
CONTINUOUS
 90
3
 70
0
 10
1.5683760393
 20
-0.2326839623
 10
1.2523343378
 20
-0.2444070056
 10
0.9359624744
 20
-0.2535024272
  0
LWPOLYLINE
  5
2A8
100
AcDbEntity
  8
ASSI
100
AcDbPolyline
 62
7
  6
CONTINUOUS
 90
3
 70
0
 10
1.0569476227
 20
-0.2503361219
 10
1.4381748836
 20
-0.2378321941
 10
1.8841556645
 20
-0.2183319376
  0
LINE
  5
2A9
100
AcDbEntity
  8
ASSI
100
AcDbLine
 62
7
  6
CONTINUOUS
 10
1.0569476227
 20
-0.2503361219
 11
0.6193285347
 21
-0.2599688673
  0
LINE
  5
2AA
100
AcDbEntity
  8
ASSI
100
AcDbLine
 62
7
  6
CONTINUOUS
 10
0.2933071114
 20
-0.2638734829
 11
0.6752866693
 21
-0.2590170396
  0
LWPOLYLINE
  5
2AB
100
AcDbEntity
  8
ASSI
100
AcDbPolyline
 62
7
  6
CONTINUOUS
 90
4
 70
0
 10
-0.0141063676
 20
-0.2650009534
 10
-0.3309073301
 20
-0.2635665993
 10
-0.6475811743
 20
-0.2594999387
 10
-0.9641373134
 20
-0.2527990997
  0
LWPOLYLINE
  5
2AC
100
AcDbEntity
  8
ASSI
100
AcDbPolyline
 62
7
  6
CONTINUOUS
 90
4
 70
0
 10
-0.8524715844
 20
-0.2554626816
 10
-0.4705720154
 20
-0.2620963039
 10
-0.0886457868
 20
-0.2649010581
 10
0.3026367743
 20
-0.2638022465
  0
LINE
  5
2AD
100
AcDbEntity
  8
ASSI
100
AcDbLine
 62
7
  6
CONTINUOUS
 10
-0.8524715844
 20
-0.2554626816
 11
-1.2805663343
 21
-0.2434659542
  0
LINE
  5
2AE
100
AcDbEntity
  8
ASSI
100
AcDbLine
 62
7
  6
CONTINUOUS
 10
-1.6151547028
 20
-0.2307233491
 11
-1.2339992588
 21
-0.2450061822
  0
LWPOLYLINE
  5
2AF
100
AcDbEntity
  8
ASSI
100
AcDbPolyline
 62
7
  6
CONTINUOUS
 90
4
 70
0
 10
-1.9123909552
 20
-0.2169208076
 10
-2.2277865553
 20
-0.1997088065
 10
-2.5426662674
 20
-0.1798803775
 10
-2.8570447062
 20
-0.1574328244
  0
LWPOLYLINE
  5
2B0
100
AcDbEntity
  8
ASSI
100
AcDbPolyline
 62
7
  6
CONTINUOUS
 90
4
 70
0
 10
-2.7553563401
 20
-0.1649832283
 10
-2.3760056805
 20
-0.1907054126
 10
-1.9959382523
 20
-0.2126176389
 10
-1.5966550579
 20
-0.2315068722
  0
LINE
  5
2B1
100
AcDbEntity
  8
ASSI
100
AcDbLine
 62
7
  6
CONTINUOUS
 10
-2.7553563401
 20
-0.1649832283
 11
-3.170907257
 21
-0.1323688433
  0
LINE
  5
2B2
100
AcDbEntity
  8
ASSI
100
AcDbLine
 62
7
  6
CONTINUOUS
 10
-3.51156701
 20
-0.1021459981
 11
-3.1339908784
 21
-0.1354545279
  0
LINE
  5
2B3
100
AcDbEntity
  8
ASSI
100
AcDbLine
 62
7
  6
CONTINUOUS
 10
-3.8880837782
 20
-0.0650542211
 11
-3.484034485
 21
-0.1047060308
  0
LINE
  5
2B4
100
AcDbEntity
  8
ASSI
100
AcDbLine
 62
7
  6
CONTINUOUS
 10
-3.7964085995
 20
-0.0744444373
 11
-4.1080473912
 21
-0.0415840124
  0
LWPOLYLINE
  5
2B5
100
AcDbEntity
  8
ASSI
100
AcDbPolyline
 62
7
  6
CONTINUOUS
 90
3
 70
0
 10
-4.1080473912
 20
-0.0415840124
 10
-4.4187847977
 20
-0.0061422008
 10
-4.7286397587
 20
0.0318849693
  0
LWPOLYLINE
  5
2B6
100
AcDbEntity
  8
ASSI
100
AcDbPolyline
 62
7
  6
CONTINUOUS
 90
3
 70
0
 10
-4.6376026791
 20
0.020431881
 10
-4.2635421397
 20
-0.0241826147
 10
-4.0436371881
 20
-0.0481210046
  0
LINE
  5
2B7
100
AcDbEntity
  8
ASSI
100
AcDbLine
 62
7
  6
CONTINUOUS
 10
-4.6376026791
 20
0.020431881
 11
-5.0375933344
 21
0.0724935261
  0
LINE
  5
2B8
100
AcDbEntity
  8
ASSI
100
AcDbLine
 62
7
  6
CONTINUOUS
 10
-5.3815277647
 20
0.1208963094
 11
-5.0102641329
 21
0.0687926505
  0
LWPOLYLINE
  5
2B9
100
AcDbEntity
  8
ASSI
100
AcDbPolyline
 62
7
  6
CONTINUOUS
 90
4
 70
0
 10
-5.6521055581
 20
0.1613651546
 10
-5.9576642061
 20
0.2096282263
 10
-6.2619420861
 20
0.2604186627
 10
-6.5649615101
 20
0.3137420478
  0
LWPOLYLINE
  5
2BA
100
AcDbEntity
  8
ASSI
100
AcDbPolyline
 62
7
  6
CONTINUOUS
 90
4
 70
0
 10
-6.4849148444
 20
0.2993887461
 10
-6.1188531204
 20
0.2361943572
 10
-5.7510579495
 20
0.1766957643
 10
-5.3454226432
 20
0.1156541099
  0
LINE
  5
2BB
100
AcDbEntity
  8
ASSI
100
AcDbLine
 62
7
  6
CONTINUOUS
 10
-6.4849148444
 20
0.2993887461
 11
-6.8667001661
 21
0.3695927977
  0
LWPOLYLINE
  5
2BC
100
AcDbEntity
  8
ASSI
100
AcDbPolyline
 62
7
  6
CONTINUOUS
 90
21
 70
0
 10
14.5952577513
 20
-3.3941025819
 10
14.5914015699
 20
-3.3933728049
 10
14.5874087002
 20
-3.3929478155
 10
14.5832781241
 20
-3.3928298833
 10
14.5790108597
 20
-3.3930167386
 10
14.5746386027
 20
-3.3935069938
 10
14.5701605713
 20
-3.3943029077
 10
14.5655775474
 20
-3.3954022215
 10
14.5609235721
 20
-3.3967967696
 10
14.5561981172
 20
-3.3984887504
 10
14.551401711
 20
-3.4004759657
 10
14.5465699796
 20
-3.4027436549
 10
14.5417026601
 20
-3.4052939065
 10
14.5368000153
 20
-3.4081246321
 10
14.5318984607
 20
-3.411214806
 10
14.5269980044
 20
-3.41456636
 10
14.5220986381
 20
-3.4181773623
 10
14.5172367529
 20
-3.4220209915
 10
14.5124126278
 20
-3.4260989797
 10
14.5076259838
 20
-3.4304095948
 10
14.5048702875
 20
-3.4330469716
  0
LINE
  5
2BD
100
AcDbEntity
  8
ASSI
100
AcDbLine
 62
7
  6
CONTINUOUS
 10
-7.2108433138
 20
0.436696846
 11
-6.8489121976
 21
0.3662218123
  0
LWPOLYLINE
  5
2BE
100
AcDbEntity
  8
ASSI
100
AcDbPolyline
 62
7
  6
CONTINUOUS
 90
4
 70
0
 10
-7.4656393895
 20
0.4887487698
 10
-7.762839957
 20
0.552053992
 10
-8.058389304
 20
0.6178138999
 10
-8.352312118
 20
0.6860359075
  0
LWPOLYLINE
  5
2BF
100
AcDbEntity
  8
ASSI
100
AcDbPolyline
 62
7
  6
CONTINUOUS
 90
4
 70
0
 10
-8.2832723009
 20
0.6697562717
 10
-7.9281871083
 20
0.5884959556
 10
-7.5707100591
 20
0.5108105569
 10
-7.1669346172
 20
0.4279294992
  0
LINE
  5
2C0
100
AcDbEntity
  8
ASSI
100
AcDbLine
 62
7
  6
CONTINUOUS
 10
-8.2832723009
 20
0.6697562717
 11
-8.6445837115
 21
0.7567126006
  0
LWPOLYLINE
  5
2C1
100
AcDbEntity
  8
ASSI
100
AcDbPolyline
 62
7
  6
CONTINUOUS
 90
12
 70
0
 10
14.4343598985
 20
-3.7027275673
 10
14.4364725793
 20
-3.7032751531
 10
14.4419095565
 20
-3.7042420475
 10
14.4475449549
 20
-3.7048207844
 10
14.4533438545
 20
-3.7050077777
 10
14.4593072705
 20
-3.7048005947
 10
14.4654341877
 20
-3.7042016681
 10
14.4716866404
 20
-3.703214709
 10
14.4780654081
 20
-3.7018373081
 10
14.4845697112
 20
-3.7000718748
 10
14.4911592457
 20
-3.6979293487
 10
14.4978345407
 20
-3.6954073883
  0
LWPOLYLINE
  5
2C2
100
AcDbEntity
  8
ASSI
100
AcDbPolyline
 62
7
  6
CONTINUOUS
 90
5
 70
0
 10
-8.9349830068
 20
0.8297904715
 10
-9.2234822031
 20
0.9052641392
 10
-9.5101091011
 20
0.9831389846
 10
-9.7947260247
 20
1.0633776426
 10
-10.077359029
 20
1.1459894574
  0
LWPOLYLINE
  5
2C3
100
AcDbEntity
  8
ASSI
100
AcDbPolyline
 62
7
  6
CONTINUOUS
 90
6
 70
0
 10
-10.3578701495
 20
1.2309306785
 10
-10.0193455323
 20
1.1287897049
 10
-9.6777981456
 20
1.0300606634
 10
-9.3332307197
 20
0.9347404715
 10
-8.9859547532
 20
0.8429152887
 10
-8.6359677974
 20
0.7545882756
  0
LINE
  5
2C4
100
AcDbEntity
  8
ASSI
100
AcDbLine
 62
7
  6
CONTINUOUS
 10
-10.6933747274
 20
1.3364805017
 11
-10.357982059
 21
1.2309650849
  0
LWPOLYLINE
  5
2C5
100
AcDbEntity
  8
ASSI
100
AcDbPolyline
 62
7
  6
CONTINUOUS
 90
5
 70
0
 10
-10.6363792729
 20
1.3182391278
 10
-10.9125215617
 20
1.4078041427
 10
-11.1864380344
 20
1.499667573
 10
-11.4580001769
 20
1.5937863507
 10
-11.7272344256
 20
1.6901717338
  0
LWPOLYLINE
  5
2C6
100
AcDbEntity
  8
ASSI
100
AcDbPolyline
 62
7
  6
CONTINUOUS
 90
5
 70
0
 10
-12.0018562604
 20
1.7917188119
 10
-11.6799423697
 20
1.6730166185
 10
-11.3544108375
 20
1.5575234717
 10
-11.0255559583
 20
1.4453437674
 10
-10.6933747274
 20
1.3364805017
  0
LWPOLYLINE
  5
2C7
100
AcDbEntity
  8
ASSI
100
AcDbPolyline
 62
7
  6
CONTINUOUS
 90
5
 70
0
 10
-12.2584321087
 20
1.8896317006
 10
-12.5201582859
 20
1.9926199881
 10
-12.7793223091
 20
2.0977867813
 10
-13.0358046546
 20
2.2050836007
 10
-13.2896312062
 20
2.3145234908
  0
LWPOLYLINE
  5
2C8
100
AcDbEntity
  8
ASSI
100
AcDbPolyline
 62
7
  6
CONTINUOUS
 90
6
 70
0
 10
-13.5554308311
 20
2.4327069978
 10
-13.2524653724
 20
2.298293164
 10
-12.9455977898
 20
2.1669752752
 10
-12.6348245764
 20
2.0387561419
 10
-12.3201492392
 20
1.9136329536
 10
-11.9941143441
 20
1.7888124644
  0
LWPOLYLINE
  5
2C9
100
AcDbEntity
  8
ASSI
100
AcDbPolyline
 62
7
  6
CONTINUOUS
 90
5
 70
0
 10
-13.7890421
 20
2.5397057369
 10
-14.0344004288
 20
2.6553491751
 10
-14.2768799039
 20
2.7730350269
 10
-14.5163698621
 20
2.8927095945
 10
-14.7528947832
 20
3.0143874775
  0
LWPOLYLINE
  5
2CA
100
AcDbEntity
  8
ASSI
100
AcDbPolyline
 62
250
  6
CONTINUOUS
 90
18
 70
0
 10
-9.6205047748
 20
37.7155079523
 10
-9.6232824333
 20
37.7257823356
 10
-9.6260562929
 20
37.7354843291
 10
-9.6288225597
 20
37.7446006636
 10
-9.6315774504
 20
37.7531188706
 10
-9.6343171972
 20
37.7610273001
 10
-9.6370380529
 20
37.7683151356
 10
-9.6397362963
 20
37.7749724098
 10
-9.642408237
 20
37.7809900175
 10
-9.6450502207
 20
37.7863597285
 10
-9.6476586339
 20
37.7910741988
 10
-9.6502299091
 20
37.7951269804
 10
-9.6527605297
 20
37.7985125303
 10
-9.6552470345
 20
37.8012262182
 10
-9.6576860228
 20
37.8032643327
 10
-9.6600741589
 20
37.8046240861
 10
-9.6624081764
 20
37.8053036187
 10
-9.6641788491
 20
37.8053616783
  0
LWPOLYLINE
  5
2CB
100
AcDbEntity
  8
ASSI
100
AcDbPolyline
 62
250
  6
CONTINUOUS
 90
8
 70
0
 10
-3.947017783
 20
17.6932591558
 10
-3.9383327081
 20
17.6559641244
 10
-3.9311533031
 20
17.6185620779
 10
-3.9254835298
 20
17.5810734547
 10
-3.9213265247
 20
17.5435189781
 10
-3.9186845144
 20
17.5059189298
 10
-3.9175589165
 20
17.4682937483
 10
-3.9175144948
 20
17.4591871238
  0
LWPOLYLINE
  5
2CC
100
AcDbEntity
  8
ASSI
100
AcDbPolyline
 62
7
  6
CONTINUOUS
 90
3
 70
0
 10
-3.9351203071
 20
17.4769043472
 10
-3.9281722178
 20
17.4368046859
 10
-3.9229530481
 20
17.396592548
  0
LINE
  5
2CD
100
AcDbEntity
  8
ASSI
100
AcDbLine
 62
250
  6
CONTINUOUS
 10
2.1411819873
 20
13.7364613657
 11
2.144520866
 21
13.7043138138
  0
LINE
  5
2CE
100
AcDbEntity
  8
ASSI
100
AcDbLine
 62
250
  6
CONTINUOUS
 10
2.144520866
 20
13.7043138138
 11
2.1477332997
 21
13.6709133173
  0
LINE
  5
2CF
100
AcDbEntity
  8
ASSI
100
AcDbLine
 62
250
  6
CONTINUOUS
 10
2.1477332997
 20
13.6709133173
 11
2.1508017199
 21
13.6364425394
  0
LINE
  5
2D0
100
AcDbEntity
  8
ASSI
100
AcDbLine
 62
250
  6
CONTINUOUS
 10
2.1508017199
 20
13.6364425394
 11
2.1537093459
 21
13.6010899966
  0
LINE
  5
2D1
100
AcDbEntity
  8
ASSI
100
AcDbLine
 62
250
  6
CONTINUOUS
 10
2.1537093459
 20
13.6010899966
 11
2.156440276
 21
13.5650490277
  0
LINE
  5
2D2
100
AcDbEntity
  8
ASSI
100
AcDbLine
 62
250
  6
CONTINUOUS
 10
2.156440276
 20
13.5650490277
 11
2.1589795754
 21
13.5285167361
  0
LINE
  5
2D3
100
AcDbEntity
  8
ASSI
100
AcDbLine
 62
250
  6
CONTINUOUS
 10
2.1589795754
 20
13.5285167361
 11
2.1613133567
 21
13.4916929125
  0
LINE
  5
2D4
100
AcDbEntity
  8
ASSI
100
AcDbLine
 62
250
  6
CONTINUOUS
 10
2.1613133567
 20
13.4916929125
 11
2.163428857
 21
13.4547789419
  0
LINE
  5
2D5
100
AcDbEntity
  8
ASSI
100
AcDbLine
 62
250
  6
CONTINUOUS
 10
2.163428857
 20
13.4547789419
 11
2.1653145067
 21
13.4179767022
  0
LINE
  5
2D6
100
AcDbEntity
  8
ASSI
100
AcDbLine
 62
250
  6
CONTINUOUS
 10
2.1653145067
 20
13.4179767022
 11
2.1669599934
 21
13.3814874603
  0
LINE
  5
2D7
100
AcDbEntity
  8
ASSI
100
AcDbLine
 62
250
  6
CONTINUOUS
 10
2.1669599934
 20
13.3814874603
 11
2.1683563183
 21
13.3455107714
  0
LINE
  5
2D8
100
AcDbEntity
  8
ASSI
100
AcDbLine
 62
250
  6
CONTINUOUS
 10
2.1683563183
 20
13.3455107714
 11
2.1694958449
 21
13.3102433876
  0
LINE
  5
2D9
100
AcDbEntity
  8
ASSI
100
AcDbLine
 62
250
  6
CONTINUOUS
 10
2.1694958449
 20
13.3102433876
 11
2.1703723414
 21
13.2758781818
  0
LINE
  5
2DA
100
AcDbEntity
  8
ASSI
100
AcDbLine
 62
250
  6
CONTINUOUS
 10
2.1703723414
 20
13.2758781818
 11
2.1709810143
 21
13.2426030931
  0
LINE
  5
2DB
100
AcDbEntity
  8
ASSI
100
AcDbLine
 62
250
  6
CONTINUOUS
 10
2.1709810143
 20
13.2426030931
 11
2.1713185348
 21
13.2106000989
  0
LINE
  5
2DC
100
AcDbEntity
  8
ASSI
100
AcDbLine
 62
250
  6
CONTINUOUS
 10
2.1996732131
 20
-0.2013509313
 11
2.1713185348
 21
13.2106000989
  0
LINE
  5
2DD
100
AcDbEntity
  8
0
100
AcDbLine
 62
7
  6
CONTINUOUS
 10
4.6710677384
 20
28.8489672126
 11
4.6710677384
 21
17.579466554
  0
LWPOLYLINE
  5
2DE
100
AcDbEntity
  8
ASSI
100
AcDbPolyline
 62
250
  6
CONTINUOUS
 90
11
 70
0
 10
4.6210677384
 20
17.8266184759
 10
4.6211163586
 20
17.8355304041
 10
4.6222190724
 20
17.8699810469
 10
4.6247747282
 20
17.9044063224
 10
4.628781824
 20
17.9387855767
 10
4.6342380399
 20
17.9730986385
 10
4.6411405929
 20
18.0073269799
 10
4.6494860079
 20
18.0414515602
 10
4.6592693744
 20
18.0754508055
 10
4.6704844462
 20
18.109302484
 10
4.6710677384
 20
18.1108568644
  0
LWPOLYLINE
  5
2DF
100
AcDbEntity
  8
0
100
AcDbPolyline
 62
7
  6
CONTINUOUS
 90
5
 70
0
 10
4.6710677384
 20
28.8489672126
 10
4.674356855
 20
28.9214907131
 10
4.6889569744
 20
29.0178452082
 10
4.7151624981
 20
29.1133769467
 10
4.7226741086
 20
29.134787049
  0
LINE
  5
2E0
100
AcDbEntity
  8
ASSI
100
AcDbLine
 62
7
  6
CONTINUOUS
 10
20.559577135
 20
6.3442802015
 11
20.5834813182
 21
6.3584510643
  0
LWPOLYLINE
  5
2E1
100
AcDbEntity
  8
0
100
AcDbPolyline
 62
7
  6
CONTINUOUS
 90
9
 70
0
 10
20.5424446454
 20
7.4974274889
 10
20.5489162806
 20
7.5012447818
 10
20.5553403307
 20
7.5050883534
 10
20.5617128458
 20
7.5089556852
 10
20.5680377758
 20
7.5128492956
 10
20.5743269706
 20
7.516776741
 10
20.5805843803
 20
7.5207405401
 10
20.5868060547
 20
7.524738174
 10
20.5929919939
 20
7.5287696429
  0
LINE
  5
2E2
100
AcDbEntity
  8
0
100
AcDbLine
 62
7
  6
CONTINUOUS
 10
20.5948823889
 20
7.5277162913
 11
10.5422135338
 21
1.7233924794
  0
LINE
  5
2E3
100
AcDbEntity
  8
0
100
AcDbLine
 62
7
  6
CONTINUOUS
 10
10.4999153831
 20
0.5777033537
 11
10.5706260612
 21
0.618530813
  0
LINE
  5
2E4
100
AcDbEntity
  8
0
100
AcDbLine
 62
7
  6
CONTINUOUS
 10
20.5408316759
 20
6.375202579
 11
20.611542354
 21
6.4160300383
  0
LINE
  5
2E5
100
AcDbEntity
  8
0
100
AcDbLine
 62
7
  6
CONTINUOUS
 10
20.5595771382
 20
6.3442802033
 11
10.553121087
 21
0.5666778897
  0
LINE
  5
2E6
100
AcDbEntity
  8
0
100
AcDbLine
 62
7
  6
CONTINUOUS
 10
10.5426424137
 20
0.1441674288
 11
20.5128480285
 21
5.9008391948
  0
LINE
  5
2E7
100
AcDbEntity
  8
0
100
AcDbLine
 62
7
  6
CONTINUOUS
 10
20.4020527371
 20
5.7999874731
 11
10.6509714323
 21
0.1698355858
  0
LINE
  5
2E8
100
AcDbEntity
  8
0
100
AcDbLine
 62
7
  6
CONTINUOUS
 10
10.5422135338
 20
1.7233924794
 11
10.4832554179
 21
1.6893896068
  0
LINE
  5
2E9
100
AcDbEntity
  8
ASSI
100
AcDbLine
 62
7
  6
CONTINUOUS
 10
10.5285780171
 20
0.5528759158
 11
10.5531210903
 21
0.5666778916
  0
LWPOLYLINE
  5
2EA
100
AcDbEntity
  8
0
100
AcDbPolyline
 62
7
  6
CONTINUOUS
 90
9
 70
0
 10
10.4813650229
 20
1.6904429584
 10
10.488347282
 20
1.6940146421
 10
10.495270941
 20
1.6976069589
 10
10.502136
 20
1.7012199088
 10
10.5089380967
 20
1.7048512111
 10
10.5156815934
 20
1.7085031464
 10
10.5223795768
 20
1.7121825567
 10
10.5290364093
 20
1.7158917227
 10
10.5356477286
 20
1.7196283638
  0
LWPOLYLINE
  5
2EB
100
AcDbEntity
  8
ASSI
100
AcDbPolyline
 62
7
  6
CONTINUOUS
 90
3
 70
0
 10
10.4776963495
 20
0.5264468543
 10
10.5034364369
 20
0.53946557
 10
10.5285780171
 20
0.5528759158
  0
LWPOLYLINE
  5
2EC
100
AcDbEntity
  8
ASSI
100
AcDbPolyline
 62
7
  6
CONTINUOUS
 90
15
 70
0
 10
10.4989895397
 20
0.5372083957
 10
10.4720182204
 20
0.5237253013
 10
10.4444631371
 20
0.5106936533
 10
10.4163242897
 20
0.4981134517
 10
10.3875860195
 20
0.4859780363
 10
10.3582639853
 20
0.4742940674
 10
10.3284051637
 20
0.4630815253
 10
10.2979981492
 20
0.4523374896
 10
10.2670543473
 20
0.4420648806
 10
10.2356549509
 20
0.4322924394
 10
10.203796225
 20
0.4230217498
 10
10.1714819046
 20
0.414251228
 10
10.1388043876
 20
0.4060048637
 10
10.1057796579
 20
0.3982875025
 10
10.0723917317
 20
0.3910942989
  0
LWPOLYLINE
  5
2ED
100
AcDbEntity
  8
ASSI
100
AcDbPolyline
 62
7
  6
CONTINUOUS
 90
3
 70
0
 10
10.4243650637
 20
0.5015591773
 10
10.4513299602
 20
0.5138072008
 10
10.4776963495
 20
0.5264468543
  0
LINE
  5
2EE
100
AcDbEntity
  8
0
100
AcDbLine
 62
7
  6
CONTINUOUS
 10
10.6509714323
 20
0.1698355858
 11
10.6407460415
 21
0.1734223796
  0
LWPOLYLINE
  5
2EF
100
AcDbEntity
  8
ASSI
100
AcDbPolyline
 62
7
  6
CONTINUOUS
 90
65
 70
0
 10
14.749743477
 20
-3.1675796114
 10
14.7419256299
 20
-3.1636703343
 10
14.7337941911
 20
-3.1603001637
 10
14.7253485095
 20
-3.1574651676
 10
14.7166404043
 20
-3.1551926975
 10
14.7076779026
 20
-3.1534898755
 10
14.6984529773
 20
-3.1523495795
 10
14.6889933652
 20
-3.1517777943
 10
14.6792924356
 20
-3.1517807151
 10
14.6693568193
 20
-3.1523521467
 10
14.6592341447
 20
-3.1534794879
 10
14.6489325411
 20
-3.1551614705
 10
14.6384438793
 20
-3.1573993627
 10
14.6277914
 20
-3.1601843685
 10
14.6169663161
 20
-3.163517883
 10
14.6059774146
 20
-3.1673985109
 10
14.594874298
 20
-3.1718132707
 10
14.5836493864
 20
-3.1767679197
 10
14.5723102596
 20
-3.1822567005
 10
14.560929259
 20
-3.1882493586
 10
14.5495087169
 20
-3.1947511408
 10
14.5380463009
 20
-3.2017568004
 10
14.5266073555
 20
-3.2092203431
 10
14.5151999607
 20
-3.2171378248
 10
14.5038160365
 20
-3.2255131895
 10
14.4924966881
 20
-3.2343122756
 10
14.4812406483
 20
-3.2435341194
 10
14.4700491842
 20
-3.2531796845
 10
14.458967203
 20
-3.2632177006
 10
14.4479941697
 20
-3.2736512452
 10
14.4371306192
 20
-3.2844772408
 10
14.4264230635
 20
-3.2956551845
 10
14.4158734705
 20
-3.3071879521
 10
14.4054798724
 20
-3.3190726677
 10
14.3952828779
 20
-3.331260201
 10
14.3852775883
 20
-3.3437574481
 10
14.3754689024
 20
-3.3565575128
 10
14.3659121255
 20
-3.3695905762
 10
14.3566056098
 20
-3.3828636261
 10
14.3475510031
 20
-3.3963696748
 10
14.3388085543
 20
-3.4100179399
 10
14.3303852922
 20
-3.4238051416
 10
14.322274188
 20
-3.4377345598
 10
14.3145144045
 20
-3.4517252524
 10
14.3071127451
 20
-3.4657650118
 10
14.3000624063
 20
-3.4798660456
 10
14.2933821402
 20
-3.4939840353
 10
14.2870707881
 20
-3.5081186092
 10
14.2811295087
 20
-3.5222701391
 10
14.2755805306
 20
-3.5363954214
 10
14.270426299
 20
-3.5504970943
 10
14.2656643688
 20
-3.5645725196
 10
14.2613096327
 20
-3.5785705788
 10
14.2573624377
 20
-3.5924922861
 10
14.2538224368
 20
-3.6063366273
 10
14.2507034828
 20
-3.6200494416
 10
14.2480034975
 20
-3.633633234
 10
14.245724559
 20
-3.6470854994
 10
14.2438867542
 20
-3.6603445617
 10
14.2424915109
 20
-3.6734136884
 10
14.2415374013
 20
-3.6862896119
 10
14.2410402283
 20
-3.6989008538
 10
14.2410052597
 20
-3.7112235882
 10
14.2414272278
 20
-3.723281641
 10
14.2423061325
 20
-3.7350750123
  0
LWPOLYLINE
  5
2F0
100
AcDbEntity
  8
ASSI
100
AcDbPolyline
 62
7
  6
CONTINUOUS
 90
23
 70
0
 10
14.2176496278
 20
-6.3489406187
 10
14.2252188282
 20
-6.3530262141
 10
14.2332815715
 20
-6.3567588413
 10
14.2418856702
 20
-6.360119209
 10
14.2511745616
 20
-6.363049443
 10
14.2611494724
 20
-6.3655637785
 10
14.271809176
 20
-6.3676479803
 10
14.2832934302
 20
-6.3692014694
 10
14.2956267471
 20
-6.3702256109
 10
14.3087846145
 20
-6.3707190397
 10
14.3228332542
 20
-6.3705770805
 10
14.3377987346
 20
-6.3697842029
 10
14.3536549871
 20
-6.3683559374
 10
14.3703900277
 20
-6.3662342002
 10
14.3879837516
 20
-6.3634297069
 10
14.4064562636
 20
-6.3599317419
 10
14.4258558928
 20
-6.3556500748
 10
14.4461574432
 20
-6.3505996376
 10
14.4673861108
 20
-6.3447654983
 10
14.4896658133
 20
-6.3380126307
 10
14.5130056251
 20
-6.3303236902
 10
14.5373964716
 20
-6.3217160213
 10
14.562935047
 20
-6.3121066315
  0
LWPOLYLINE
  5
2F1
100
AcDbEntity
  8
ASSI
100
AcDbPolyline
 62
7
  6
CONTINUOUS
 90
37
 70
0
 10
13.9994201558
 20
-6.4673951543
 10
14.0038263155
 20
-6.470008136
 10
14.0082703598
 20
-6.4721249093
 10
14.0129222452
 20
-6.4738645107
 10
14.017787513
 20
-6.4752252547
 10
14.022860622
 20
-6.4762088268
 10
14.0280947578
 20
-6.4768080594
 10
14.0334823571
 20
-6.4770205329
 10
14.0390309832
 20
-6.4768486668
 10
14.044716512
 20
-6.4762925526
 10
14.0505409579
 20
-6.4753495952
 10
14.0565023066
 20
-6.4740223897
 10
14.0625703911
 20
-6.4723188123
 10
14.0687534052
 20
-6.4702351897
 10
14.0750431551
 20
-6.4677751953
 10
14.0813848926
 20
-6.4649577264
 10
14.0877734835
 20
-6.4617824222
 10
14.094214062
 20
-6.4582496436
 10
14.1006672822
 20
-6.4543793704
 10
14.1071377862
 20
-6.4501651614
 10
14.1136209319
 20
-6.4456134579
 10
14.120063447
 20
-6.4407635625
 10
14.126468334
 20
-6.4356098999
 10
14.1328325905
 20
-6.4301580456
 10
14.139093937
 20
-6.4244640286
 10
14.145234308
 20
-6.4185440047
 10
14.1512717691
 20
-6.4123818183
 10
14.1571982379
 20
-6.4059850317
 10
14.1630191756
 20
-6.3993468589
 10
14.168729121
 20
-6.3924740861
 10
14.1743036076
 20
-6.3853946336
 10
14.1797612082
 20
-6.3780800616
 10
14.18508335
 20
-6.37055881
 10
14.1901898479
 20
-6.362944119
 10
14.1950539735
 20
-6.3552737353
 10
14.1997024552
 20
-6.347509912
 10
14.2041352929
 20
-6.3396526494
  0
LWPOLYLINE
  5
2F2
100
AcDbEntity
  8
ASSI
100
AcDbPolyline
 62
7
  6
CONTINUOUS
 90
5
 70
0
 10
14.6087211768
 20
-3.3998241836
 10
14.6058318476
 20
-3.3980925737
 10
14.6024728901
 20
-3.3964624663
 10
14.5989486017
 20
-3.395131726
 10
14.5952577513
 20
-3.3941025819
  0
LWPOLYLINE
  5
2F3
100
AcDbEntity
  8
ASSI
100
AcDbPolyline
 62
7
  6
CONTINUOUS
 90
47
 70
0
 10
14.4912168239
 20
-3.65490201
 10
14.493302873
 20
-3.6561866202
 10
14.4967790287
 20
-3.6579620772
 10
14.5004584698
 20
-3.6594168774
 10
14.5043110787
 20
-3.6605391127
 10
14.5083382767
 20
-3.6613260535
 10
14.5125386425
 20
-3.6617804294
 10
14.5168777945
 20
-3.6618985211
 10
14.5213568718
 20
-3.6616775685
 10
14.5259747353
 20
-3.6611203318
 10
14.5306935861
 20
-3.6602313722
 10
14.535514253
 20
-3.6590079669
 10
14.5404359071
 20
-3.6574528387
 10
14.5454182629
 20
-3.6555787168
 10
14.5504618185
 20
-3.6533829831
 10
14.5555660758
 20
-3.6508682557
 10
14.5606892544
 20
-3.6480551188
 10
14.5658315097
 20
-3.6449411228
 10
14.5709926864
 20
-3.6415287173
 10
14.5761305383
 20
-3.6378458339
 10
14.5812448738
 20
-3.6338902528
 10
14.5863358846
 20
-3.6296641938
 10
14.5913618987
 20
-3.6252022489
 10
14.5963223826
 20
-3.620502482
 10
14.6012178699
 20
-3.6155668291
 10
14.6060082891
 20
-3.6104356906
 10
14.6106927778
 20
-3.6051074618
 10
14.6152721985
 20
-3.5995837473
 10
14.6197090667
 20
-3.5939097607
 10
14.6240022126
 20
-3.5880842687
 10
14.6281528061
 20
-3.5821085047
 10
14.632126873
 20
-3.5760313825
 10
14.6359229645
 20
-3.5698520703
 10
14.6395425294
 20
-3.5635713999
 10
14.6429559403
 20
-3.557240781
 10
14.646161505
 20
-3.5508598037
 10
14.6491609157
 20
-3.5444288779
 10
14.651929621
 20
-3.5380006432
 10
14.6544657274
 20
-3.5315751216
 10
14.6567711283
 20
-3.5251522911
 10
14.6588269534
 20
-3.518784725
 10
14.660631154
 20
-3.5124728769
 10
14.6621857786
 20
-3.5062162931
 10
14.6634781022
 20
-3.5000661863
 10
14.6645038828
 20
-3.4940396271
 10
14.6652673623
 20
-3.4881195448
 10
14.6657685407
 20
-3.4823059394
  0
LWPOLYLINE
  5
2F4
100
AcDbEntity
  8
ASSI
100
AcDbPolyline
 62
7
  6
CONTINUOUS
 90
47
 70
0
 10
14.6439934738
 20
-3.4230664931
 10
14.6419074247
 20
-3.4217818829
 10
14.638431269
 20
-3.4200064259
 10
14.6347518279
 20
-3.4185516257
 10
14.630899219
 20
-3.4174293904
 10
14.626872021
 20
-3.4166424496
 10
14.6226716552
 20
-3.4161880738
 10
14.6183325032
 20
-3.416069982
 10
14.6138534259
 20
-3.4162909346
 10
14.6092355624
 20
-3.4168481713
 10
14.6045167116
 20
-3.4177371309
 10
14.5996960447
 20
-3.4189605362
 10
14.5947743906
 20
-3.4205156644
 10
14.5897920348
 20
-3.4223897863
 10
14.5847484792
 20
-3.42458552
 10
14.5796442219
 20
-3.4271002474
 10
14.5745210433
 20
-3.4299133844
 10
14.569378788
 20
-3.4330273803
 10
14.5642176113
 20
-3.4364397858
 10
14.5590797595
 20
-3.4401226692
 10
14.5539654239
 20
-3.4440782504
 10
14.5488744131
 20
-3.4483043094
 10
14.543848399
 20
-3.4527662543
 10
14.5388879151
 20
-3.4574660212
 10
14.5339924278
 20
-3.462401674
 10
14.5292020086
 20
-3.4675328126
 10
14.5245175199
 20
-3.4728610413
 10
14.5199380992
 20
-3.4783847559
 10
14.515501231
 20
-3.4840587424
 10
14.5112080851
 20
-3.4898842344
 10
14.5070574916
 20
-3.4958599984
 10
14.5030834247
 20
-3.5019371206
 10
14.4992873332
 20
-3.5081164329
 10
14.4956677683
 20
-3.5143971032
 10
14.4922543574
 20
-3.5207277221
 10
14.4890487927
 20
-3.5271086994
 10
14.486049382
 20
-3.5335396252
 10
14.4832806767
 20
-3.53996786
 10
14.4807445704
 20
-3.5463933815
 10
14.4784391694
 20
-3.552816212
 10
14.4763833443
 20
-3.5591837781
 10
14.4745791437
 20
-3.5654956262
 10
14.4730245191
 20
-3.57175221
 10
14.4717321956
 20
-3.5779023169
 10
14.4707064149
 20
-3.583928876
 10
14.4699429354
 20
-3.5898489583
 10
14.4694417571
 20
-3.5956625637
  0
LINE
  5
2F5
100
AcDbEntity
  8
ASSI
100
AcDbLine
 62
7
  6
CONTINUOUS
 10
15.8046428776
 20
-4.8742604677
 11
16.7108383261
 21
-5.4545114831
  0
LINE
  5
2F6
100
AcDbEntity
  8
ASSI
100
AcDbLine
 62
7
  6
CONTINUOUS
 10
13.6231341135
 20
-3.477425664
 11
14.4635614505
 21
-4.0155662791
  0
LINE
  5
2F7
100
AcDbEntity
  8
ASSI
100
AcDbLine
 62
7
  6
CONTINUOUS
 10
15.1082608368
 20
-4.4283563233
 11
15.7015383464
 21
-4.808242631
  0
LINE
  5
2F8
100
AcDbEntity
  8
ASSI
100
AcDbLine
 62
7
  6
CONTINUOUS
 10
14.5490104608
 20
-4.0702649291
 11
15.0560384019
 21
-4.3949251672
  0
LINE
  5
2F9
100
AcDbEntity
  8
ASSI
100
AcDbLine
 62
7
  6
CONTINUOUS
 10
15.117052138
 20
-4.2976239608
 11
14.5667329647
 21
-3.9440789642
  0
LINE
  5
2FA
100
AcDbEntity
  8
ASSI
100
AcDbLine
 62
7
  6
CONTINUOUS
 10
16.7189398663
 20
-5.3267417463
 11
15.8026414012
 21
-4.7380756471
  0
LINE
  5
2FB
100
AcDbEntity
  8
ASSI
100
AcDbLine
 62
7
  6
CONTINUOUS
 10
15.6995347311
 20
-4.671834306
 11
15.1692439116
 21
-4.3311542701
  0
LINE
  5
2FC
100
AcDbEntity
  8
ASSI
100
AcDbLine
 62
7
  6
CONTINUOUS
 10
14.2775736174
 20
-3.7583141504
 11
13.6873854083
 21
-3.3791465623
  0
LINE
  5
2FD
100
AcDbEntity
  8
ASSI
100
AcDbLine
 62
7
  6
CONTINUOUS
 10
13.138777491
 20
-7.4878731081
 11
13.1740449759
 21
-7.5111122462
  0
LINE
  5
2FE
100
AcDbEntity
  8
ASSI
100
AcDbLine
 62
7
  6
CONTINUOUS
 10
13.1468831533
 20
-7.3600383607
 11
13.1821506382
 21
-7.3832774988
  0
LINE
  5
2FF
100
AcDbEntity
  8
ASSI
100
AcDbLine
 62
7
  6
CONTINUOUS
 10
13.9641533236
 20
-6.4441564462
 11
13.9994208085
 21
-6.4673955844
  0
LINE
  5
300
100
AcDbEntity
  8
ASSI
100
AcDbLine
 62
7
  6
CONTINUOUS
 10
14.203896924
 20
-6.3400143958
 11
14.2124460572
 21
-6.3456477572
  0
LINE
  5
301
100
AcDbEntity
  8
ASSI
100
AcDbLine
 62
7
  6
CONTINUOUS
 10
13.958194024
 20
-6.0498673209
 11
13.9934615089
 21
-6.0731064591
  0
LINE
  5
302
100
AcDbEntity
  8
ASSI
100
AcDbLine
 62
7
  6
CONTINUOUS
 10
14.1297666487
 20
-6.1173170634
 11
14.1650341335
 21
-6.1405562016
  0
LINE
  5
303
100
AcDbEntity
  8
ASSI
100
AcDbLine
 62
7
  6
CONTINUOUS
 10
14.6076549878
 20
-6.3107762644
 11
14.6429224727
 21
-6.3340154026
  0
LINE
  5
304
100
AcDbEntity
  8
ASSI
100
AcDbLine
 62
7
  6
CONTINUOUS
 10
14.089432073
 20
-5.901296708
 11
14.1050079294
 21
-5.9115602548
  0
LINE
  5
305
100
AcDbEntity
  8
ASSI
100
AcDbLine
 62
7
  6
CONTINUOUS
 10
14.6185052814
 20
-6.139780587
 11
14.6537727663
 21
-6.1630197252
  0
LINE
  5
306
100
AcDbEntity
  8
ASSI
100
AcDbLine
 62
7
  6
CONTINUOUS
 10
13.982982563
 20
-5.6589262108
 11
14.0182500479
 21
-5.6821653489
  0
LINE
  5
307
100
AcDbEntity
  8
ASSI
100
AcDbLine
 62
7
  6
CONTINUOUS
 10
14.6251323182
 20
-6.0351405384
 11
14.6603998031
 21
-6.0583796766
  0
LINE
  5
308
100
AcDbEntity
  8
ASSI
100
AcDbLine
 62
7
  6
CONTINUOUS
 10
14.1885683467
 20
-5.6988247699
 11
14.2238358315
 21
-5.7220639081
  0
LINE
  5
309
100
AcDbEntity
  8
ASSI
100
AcDbLine
 62
7
  6
CONTINUOUS
 10
14.2128065347
 20
-5.5262287298
 11
14.2480740196
 21
-5.549467868
  0
LINE
  5
30A
100
AcDbEntity
  8
ASSI
100
AcDbLine
 62
7
  6
CONTINUOUS
 10
15.009991072
 20
-5.9704676349
 11
15.0452585569
 21
-5.993706773
  0
LINE
  5
30B
100
AcDbEntity
  8
ASSI
100
AcDbLine
 62
7
  6
CONTINUOUS
 10
14.3558016473
 20
-5.4812808703
 11
14.3606436602
 21
-5.4844714638
  0
LINE
  5
30C
100
AcDbEntity
  8
ASSI
100
AcDbLine
 62
7
  6
CONTINUOUS
 10
15.1212495117
 20
-5.7486886887
 11
15.1565169966
 21
-5.7719278269
  0
LINE
  5
30D
100
AcDbEntity
  8
ASSI
100
AcDbLine
 62
7
  6
CONTINUOUS
 10
14.5688906473
 20
-5.3250943954
 11
14.6041581321
 21
-5.3483335336
  0
LINE
  5
30E
100
AcDbEntity
  8
ASSI
100
AcDbLine
 62
7
  6
CONTINUOUS
 10
15.412296146
 20
-5.8119568742
 11
15.4170564551
 21
-5.8150936299
  0
LINE
  5
30F
100
AcDbEntity
  8
ASSI
100
AcDbLine
 62
7
  6
CONTINUOUS
 10
15.389937879
 20
-5.6633377035
 11
15.4252053638
 21
-5.6865768417
  0
LINE
  5
310
100
AcDbEntity
  8
ASSI
100
AcDbLine
 62
7
  6
CONTINUOUS
 10
15.6726995533
 20
-5.2232964013
 11
15.7079670381
 21
-5.2465355395
  0
LINE
  5
311
100
AcDbEntity
  8
ASSI
100
AcDbLine
 62
7
  6
CONTINUOUS
 10
15.2011733814
 20
-4.7439931899
 11
15.2364408662
 21
-4.7672323281
  0
LINE
  5
312
100
AcDbEntity
  8
ASSI
100
AcDbLine
 62
7
  6
CONTINUOUS
 10
15.8956023017
 20
-5.0990686204
 11
15.9308697866
 21
-5.1223077586
  0
LINE
  5
313
100
AcDbEntity
  8
ASSI
100
AcDbLine
 62
7
  6
CONTINUOUS
 10
13.5878666286
 20
-3.4541865258
 11
13.6231341135
 21
-3.477425664
  0
LINE
  5
314
100
AcDbEntity
  8
ASSI
100
AcDbLine
 62
7
  6
CONTINUOUS
 10
13.6521179234
 20
-3.3559074241
 11
13.6873854083
 21
-3.3791465623
  0
LINE
  5
315
100
AcDbEntity
  8
ASSI
100
AcDbLine
 62
7
  6
CONTINUOUS
 10
14.4559531998
 20
-3.6316654162
 11
14.4912206846
 21
-3.6549045544
  0
LINE
  5
316
100
AcDbEntity
  8
ASSI
100
AcDbLine
 62
7
  6
CONTINUOUS
 10
14.6087221282
 20
-3.3998248106
 11
14.6439896131
 21
-3.4230639488
  0
LWPOLYLINE
  5
317
100
AcDbEntity
  8
ASSI
100
AcDbPolyline
 62
7
  6
CONTINUOUS
 90
9
 70
0
 10
14.2917520566
 20
-6.2278278748
 10
14.2880017811
 20
-6.225192672
 10
14.2832243189
 20
-6.2213154412
 10
14.2789097048
 20
-6.2172040861
 10
14.2750708323
 20
-6.212844838
 10
14.2716143233
 20
-6.2082507161
 10
14.2685090522
 20
-6.2034260599
 10
14.2657861447
 20
-6.1983665297
 10
14.2634456009
 20
-6.1930721257
  0
LWPOLYLINE
  5
318
100
AcDbEntity
  8
ASSI
100
AcDbPolyline
 62
7
  6
CONTINUOUS
 90
3
 70
0
 10
14.2041352929
 20
-6.3396526494
 10
14.2106217827
 20
-6.3444827638
 10
14.2176496278
 20
-6.3489406187
  0
LWPOLYLINE
  5
319
100
AcDbEntity
  8
ASSI
100
AcDbPolyline
 62
7
  6
CONTINUOUS
 90
8
 70
0
 10
-3.9672369689
 20
17.6808555661
 10
-3.955261083
 20
17.6421046091
 10
-3.9449256446
 20
17.6031965324
 10
-3.9362277415
 20
17.5641316151
 10
-3.9291828335
 20
17.524979292
 10
-3.9237938604
 20
17.4857394077
 10
-3.9200578824
 20
17.4464121177
 10
-3.9193279178
 20
17.4325799551
  0
LWPOLYLINE
  5
31A
100
AcDbEntity
  8
ASSI
100
AcDbPolyline
 62
250
  6
CONTINUOUS
 90
18
 70
0
 10
-2.1214001643
 20
38.2617030424
 10
-2.1232486861
 20
38.2720451002
 10
-2.1250946797
 20
38.2818146754
 10
-2.1269356203
 20
38.2909984064
 10
-2.1287689902
 20
38.2995837327
 10
-2.1305922818
 20
38.3075589123
 10
-2.1324030015
 20
38.3149130376
 10
-2.1341986728
 20
38.3216360504
 10
-2.1359768397
 20
38.3277187559
 10
-2.1377350703
 20
38.3331528347
 10
-2.1394709599
 20
38.3379308547
 10
-2.1411821342
 20
38.3420462811
 10
-2.142866253
 20
38.3454934854
 10
-2.144521013
 20
38.3482677527
 10
-2.1461441508
 20
38.3503652888
 10
-2.1477334467
 20
38.3517832249
 10
-2.1492867268
 20
38.3525196217
 10
-2.1503619159
 20
38.3526284162
  0
LWPOLYLINE
  5
31B
100
AcDbEntity
  8
ASSI
100
AcDbPolyline
 62
250
  6
CONTINUOUS
 90
10
 70
0
 10
2.1214000173
 20
13.8834444019
 10
2.1232485391
 20
13.8725440063
 10
2.1250945327
 20
13.8611001813
 10
2.1269354733
 20
13.8491285783
 10
2.1287688432
 20
13.8366455707
 10
2.1305921349
 20
13.8236682316
 10
2.1324028546
 20
13.8102143096
 10
2.1341985258
 20
13.7963022057
 10
2.1359766928
 20
13.7819509472
 10
2.1377349233
 20
13.7671801622
  0
LINE
  5
31C
100
AcDbEntity
  8
ASSI
100
AcDbLine
 62
250
  6
CONTINUOUS
 10
2.1377349233
 20
13.7671801622
 11
2.1411819873
 21
13.7364613657
  0
LINE
  5
31D
100
AcDbEntity
  8
0
100
AcDbLine
 62
7
  6
CONTINUOUS
 10
9.4710677384
 20
28.8489672126
 11
9.4710677384
 21
17.5791650535
  0
LINE
  5
31E
100
AcDbEntity
  8
ASSI
100
AcDbLine
 62
250
  6
CONTINUOUS
 10
9.8318049851
 20
0.3559473508
 11
9.248705276
 21
-13.0994313474
  0
LWPOLYLINE
  5
31F
100
AcDbEntity
  8
ASSI
100
AcDbPolyline
 62
7
  6
CONTINUOUS
 90
13
 70
0
 10
9.5210677384
 20
17.8266184759
 10
9.5155285462
 20
17.7439551315
 10
9.4993906118
 20
17.6631218381
 10
9.4733733696
 20
17.5842071693
 10
9.4385303799
 20
17.5080100778
 10
9.395542065
 20
17.4342970146
 10
9.3440343227
 20
17.3617747121
 10
9.2842054095
 20
17.290652849
 10
9.2167022513
 20
17.2215950448
 10
9.1409439661
 20
17.1540382329
 10
9.0567626279
 20
17.0880893016
 10
8.9648453029
 20
17.0244987691
 10
8.8656041386
 20
16.9636667806
  0
LWPOLYLINE
  5
320
100
AcDbEntity
  8
ASSI
100
AcDbPolyline
 62
7
  6
CONTINUOUS
 90
16
 70
0
 10
20.6928280428
 20
6.434488936
 10
20.7125386187
 20
6.450642788
 10
20.7315056149
 20
6.4670940653
 10
20.7497090223
 20
6.4838251975
 10
20.7671569851
 20
6.5008449051
 10
20.7838413591
 20
6.5181444675
 10
20.7997177032
 20
6.5356801528
 10
20.8147828177
 20
6.5534529663
 10
20.8290399023
 20
6.5714619026
 10
20.8424541155
 20
6.5896602133
 10
20.855018098
 20
6.6080389946
 10
20.8667392092
 20
6.6266071502
 10
20.8776046858
 20
6.6453446427
 10
20.8876196835
 20
6.6642642932
 10
20.8967790467
 20
6.6833532807
 10
20.9050545455
 20
6.7025531042
  0
LWPOLYLINE
  5
321
100
AcDbEntity
  8
ASSI
100
AcDbPolyline
 62
7
  6
CONTINUOUS
 90
3
 70
0
 10
20.651145958
 20
6.4030531242
 10
20.6723587902
 20
6.4186223175
 10
20.6928280428
 20
6.434488936
  0
LINE
  5
322
100
AcDbEntity
  8
ASSI
100
AcDbLine
 62
7
  6
CONTINUOUS
 10
20.6292548463
 20
6.3878295015
 11
20.651145958
 21
6.4030531242
  0
LINE
  5
323
100
AcDbEntity
  8
ASSI
100
AcDbLine
 62
7
  6
CONTINUOUS
 10
20.6339680968
 20
6.3911077704
 11
20.6106165107
 21
6.3755350803
  0
LINE
  5
324
100
AcDbEntity
  8
ASSI
100
AcDbLine
 62
7
  6
CONTINUOUS
 10
20.606707222
 20
6.3729674976
 11
20.6292548463
 21
6.3878295015
  0
LINE
  5
325
100
AcDbEntity
  8
ASSI
100
AcDbLine
 62
7
  6
CONTINUOUS
 10
20.5834813182
 20
6.3584510643
 11
20.606707222
 21
6.3729674976
  0
LINE
  5
326
100
AcDbEntity
  8
ASSI
100
AcDbLine
 62
7
  6
CONTINUOUS
 10
16.7434455246
 20
-0.0324993285
 11
13.8198927388
 21
-1.7205220663
  0
LINE
  5
327
100
AcDbEntity
  8
ASSI
100
AcDbLine
 62
7
  6
CONTINUOUS
 10
16.7787130094
 20
-0.0557384667
 11
13.8551602236
 21
-1.7437612045
  0
LINE
  5
328
100
AcDbEntity
  8
ASSI
100
AcDbLine
 62
7
  6
CONTINUOUS
 10
13.8050042965
 20
-2.53477248
 11
16.7285570823
 21
-0.8467497422
  0
LWPOLYLINE
  5
329
100
AcDbEntity
  8
ASSI
100
AcDbPolyline
 62
7
  6
CONTINUOUS
 90
7
 70
0
 10
14.4978345407
 20
-3.6954073883
 10
14.5045950669
 20
-3.692508335
 10
14.5113989326
 20
-3.689250153
 10
14.5182464067
 20
-3.6856306123
 10
14.5251372203
 20
-3.681651943
 10
14.532028674
 20
-3.6773387989
 10
14.5389207718
 20
-3.6726891032
  0
LINE
  5
32A
100
AcDbEntity
  8
ASSI
100
AcDbLine
 62
7
  6
CONTINUOUS
 10
16.8974427379
 20
-1.5767276177
 11
16.8423268532
 21
-1.5462626079
  0
LINE
  5
32B
100
AcDbEntity
  8
0
100
AcDbLine
 62
7
  6
CONTINUOUS
 10
10.6170281259
 20
0.1871168068
 11
10.6407460415
 21
0.1734223796
  0
LINE
  5
32C
100
AcDbEntity
  8
0
100
AcDbLine
 62
7
  6
CONTINUOUS
 10
10.5350957365
 20
0.5980160489
 11
10.5712463053
 21
0.5771431636
  0
LWPOLYLINE
  5
32D
100
AcDbEntity
  8
ASSI
100
AcDbPolyline
 62
250
  6
CONTINUOUS
 90
200
 70
0
 10
-14.4177709815
 20
17.747933497
 10
-14.6282983655
 20
17.8712820907
 10
-14.8356830982
 20
17.9964290261
 10
-15.0399251795
 20
18.1233743031
 10
-15.2410885864
 20
18.2521547617
 10
-15.439109342
 20
18.3827335619
 10
-15.6337955152
 20
18.5150001839
 10
-15.8251414799
 20
18.6489572629
 10
-16.0131528622
 20
18.7846021636
 10
-16.1976546099
 20
18.9218164599
 10
-16.3786397507
 20
19.060601544
 10
-16.5561152569
 20
19.2009560237
 10
-16.7299269934
 20
19.3427572956
 10
-16.9000577767
 20
19.4859959
 10
-17.0665247903
 20
19.6306812966
 10
-17.2292254501
 20
19.7767192613
 10
-17.388151523
 20
19.9241039464
 10
-17.543311242
 20
20.0728411997
 10
-17.6946267217
 20
20.2228543396
 10
-17.8421020546
 20
20.3741490462
 10
-17.9857331482
 20
20.5267196395
 10
-18.1254298398
 20
20.6804723981
 10
-18.2611936764
 20
20.8354129645
 10
-18.393023111
 20
20.9915356962
 10
-18.52082334
 20
21.1487299442
 10
-18.6445896949
 20
21.3069948797
 10
-18.7643268443
 20
21.4663313315
 10
-18.8799539894
 20
21.6266311367
 10
-18.9914666911
 20
21.7878925247
 10
-19.0988693887
 20
21.9501172662
 10
-19.2020946014
 20
22.1132025101
 10
-19.3011400764
 20
22.2771490909
 10
-19.3960080664
 20
22.4419561741
 10
-19.4866378497
 20
22.6075184055
 10
-19.5730272771
 20
22.7738373033
 10
-19.6551784977
 20
22.9409113492
 10
-19.7330372369
 20
23.1086306338
 10
-19.8066005923
 20
23.2769955751
 10
-19.8758714662
 20
23.4460057552
 10
-19.9408042911
 20
23.6155500111
 10
-20.0013960656
 20
23.7856283317
 10
-20.057649791
 20
23.9562407281
 10
-20.1095289034
 20
24.1272760708
 10
-20.1570305618
 20
24.2987345873
 10
-20.200157607
 20
24.4706160501
 10
-20.2388819982
 20
24.6428086474
 10
-20.2732009032
 20
24.8153126969
 10
-20.3031171541
 20
24.9881278809
 10
-20.3286112056
 20
25.1611414352
 10
-20.3496801701
 20
25.3343535326
 10
-20.3663269352
 20
25.5077640003
 10
-20.378540619
 20
25.6812595559
 10
-20.3863183193
 20
25.854840202
 10
-20.3896629382
 20
26.028505936
 10
-20.3885723001
 20
26.2021434667
 10
-20.3830435116
 20
26.3757527822
 10
-20.373079466
 20
26.5493338944
 10
-20.3586866686
 20
26.722773548
 10
-20.3398622332
 20
26.8960716345
 10
-20.3166090458
 20
27.0692282623
 10
-20.28894227
 20
27.242130502
 10
-20.256859019
 20
27.4147782221
 10
-20.2203621795
 20
27.587171554
 10
-20.1794755747
 20
27.7591979622
 10
-20.1341963469
 20
27.9308571759
 10
-20.0845273538
 20
28.102149466
 10
-20.0305009916
 20
28.2729631094
 10
-19.9721144082
 20
28.44329782
 10
-19.9093704558
 20
28.6131538839
 10
-19.8423100874
 20
28.7824204367
 10
-19.770930497
 20
28.9510970674
 10
-19.6952344906
 20
29.1191841871
 10
-19.6152714398
 20
29.2865721641
 10
-19.5310385482
 20
29.4532605665
 10
-19.442538612
 20
29.6192498264
 10
-19.3498293918
 20
29.7844316078
 10
-19.2529081512
 20
29.9488053646
 10
-19.1517776266
 20
30.1123716429
 10
-19.0465037875
 20
30.2750237459
 10
-18.9370839211
 20
30.4367610909
 10
-18.8235207403
 20
30.5975842605
 10
-18.7058883526
 20
30.7573883061
 10
-18.5841841083
 20
30.916172554
 10
-18.4584106572
 20
31.0739376779
 10
-18.3286500563
 20
31.2305807494
 10
-18.1948997019
 20
31.3861010389
 10
-18.0571621977
 20
31.5404992761
 10
-17.9155274115
 20
31.693674722
 10
-17.7699927962
 20
31.8456265818
 10
-17.620560899
 20
31.9963556503
 10
-17.4673292293
 20
32.1457635722
 10
-17.310295317
 20
32.2938494766
 10
-17.1494616321
 20
32.4406142343
 10
-16.9849330944
 20
32.5859621032
 10
-16.8167072766
 20
32.7298921718
 10
-16.6447866058
 20
32.8724053516
 10
-16.4692832833
 20
33.0134086342
 10
-16.2901949928
 20
33.1529010172
 10
-16.1075240505
 20
33.2908835029
 10
-15.9213896058
 20
33.4272660903
 10
-15.7317893711
 20
33.5620477547
 10
-15.5387256341
 20
33.6952295207
 10
-15.3423244075
 20
33.8267244607
 10
-15.1425835451
 20
33.9565314531
 10
-14.9395051932
 20
34.0846516196
 10
-14.7332218028
 20
34.2110013979
 10
-14.5237312472
 20
34.3355796537
 10
-14.3110356531
 20
34.4583875215
 10
-14.0952738519
 20
34.5793448415
 10
-13.8764438792
 20
34.6984503859
 10
-13.6545476993
 20
34.8157053826
 10
-13.4297300369
 20
34.931033356
 10
-13.2019889492
 20
35.0444330668
 10
-12.971326379
 20
35.1559057542
 10
-12.7378928794
 20
35.2653786601
 10
-12.5016866758
 20
35.3728504634
 10
-12.2627095428
 20
35.4783224852
 10
-12.0211173569
 20
35.5817259299
 10
-11.7769083821
 20
35.6830594601
 10
-11.5300843545
 20
35.7823244133
 10
-11.2808063586
 20
35.8794560057
 10
-11.029072816
 20
35.9744528362
 10
-10.7748853051
 20
36.067316306
 10
-10.5184096459
 20
36.1579858359
 10
-10.2596443299
 20
36.2464599995
 10
-9.9985908654
 20
36.3327402231
 10
-9.7354195976
 20
36.4167702059
 10
-9.47012915
 20
36.4985484774
 10
-9.2027208989
 20
36.5780765082
 10
-8.9333693184
 20
36.6553024095
 10
-8.6620731447
 20
36.7302246781
 10
-8.3888336415
 20
36.8028448172
 10
-8.113829074
 20
36.8731154482
 10
-7.8370582758
 20
36.9410350411
 10
-7.5585224133
 20
37.0066051258
 10
-7.2784032515
 20
37.0697829135
 10
-6.9966997811
 20
37.1305668377
 10
-6.7134130114
 20
37.1889584648
 10
-6.4287277348
 20
37.2449197048
 10
-6.1426430051
 20
37.2984489777
 10
-5.8551597686
 20
37.3495478634
 10
-5.5664656562
 20
37.3981830117
 10
-5.2765599198
 20
37.444352808
 10
-4.9854433076
 20
37.4880588669
 10
-4.6933056946
 20
37.5292726819
 10
-4.400146369
 20
37.5679926327
 10
-4.1059660426
 20
37.6042203395
 10
-3.8109567258
 20
37.6379321565
 10
-3.515117923
 20
37.6691264368
 10
-3.2184501297
 20
37.6978048273
 10
-2.9211468434
 20
37.7239486227
 10
-2.623207595
 20
37.7475561729
 10
-2.3246328536
 20
37.768629128
 10
-2.0256175237
 20
37.7871537326
 10
-1.7261613776
 20
37.8031283201
 10
-1.426264643
 20
37.8165545572
 10
-1.1261229076
 20
37.8274236885
 10
-0.8257359835
 20
37.8357340478
 10
-0.5251040585
 20
37.8414873014
 10
-0.2244232837
 20
37.8446796932
 10
0.0763063614
 20
37.8453095527
 10
0.3770848562
 20
37.8433785504
 10
0.6777159884
 20
37.8388879426
 10
0.9781997532
 20
37.8318360534
 10
1.2785361553
 20
37.8222245585
 10
1.5785289967
 20
37.810059741
 10
1.8781779792
 20
37.7953399334
 10
2.1774834008
 20
37.778066803
 10
2.4762499578
 20
37.7582516353
 10
2.7744770997
 20
37.735892795
 10
3.0721653769
 20
37.7109919173
 10
3.3691211368
 20
37.683565193
 10
3.6653439826
 20
37.6536109822
 10
3.9608343111
 20
37.6211309247
 10
4.2553996604
 20
37.5861461313
 10
4.54904005
 20
37.5486548694
 10
4.8417554604
 20
37.5086588714
 10
5.1333533716
 20
37.4661844459
 10
5.4238330687
 20
37.4212299156
 10
5.7131952667
 20
37.3737969577
 10
6.0012495901
 20
37.3239169126
 10
6.2879934118
 20
37.2715885381
 10
6.573429359
 20
37.2168130765
 10
6.857374938
 20
37.1596255944
 10
7.1398286818
 20
37.1000247959
 10
7.4207920574
 20
37.0380119769
 10
7.700086972
 20
36.9736260927
 10
7.9777164791
 20
36.9068645855
 10
8.2536775252
 20
36.837730013
 10
8.5277828572
 20
36.7662690036
 10
8.800033956
 20
36.69247885
 10
9.0704293407
 20
36.6163622594
 10
9.3387773156
 20
36.5379739812
 10
9.6050681527
 20
36.4573148898
 10
9.8693115799
 20
36.3743841109
 10
10.131345085
 20
36.2892337704
 10
10.3911587591
 20
36.2018662509
 10
10.648762511
 20
36.11227917
 10
10.9040235556
 20
36.0205175064
 10
11.1569519161
 20
35.9265765531
  0
LWPOLYLINE
  5
32E
100
AcDbEntity
  8
ASSI
100
AcDbPolyline
 62
250
  6
CONTINUOUS
 90
15
 70
0
 10
11.1569519161
 20
35.9265765531
 10
11.4075375691
 20
35.8304610172
 10
11.6556176596
 20
35.7322299992
 10
11.9012086111
 20
35.6318735763
 10
12.1442940001
 20
35.5294016714
 10
12.3846617005
 20
35.424903153
 10
12.6223093837
 20
35.318373965
 10
12.8572393783
 20
35.2098181636
 10
13.0892465445
 20
35.0993367857
 10
13.3183265403
 20
34.9869264565
 10
13.5444837076
 20
34.872590551
 10
13.7675259322
 20
34.7564402311
 10
13.9873891758
 20
34.6385125509
 10
14.2041374766
 20
34.5187704563
 10
14.4177708346
 20
34.3972139474
  0
LWPOLYLINE
  5
32F
100
AcDbEntity
  8
ASSI
100
AcDbPolyline
 62
7
  6
CONTINUOUS
 90
22
 70
0
 10
-14.1677589015
 20
17.7727040858
 10
-14.6639403282
 20
18.0696988862
 10
-15.1407635353
 20
18.3764913489
 10
-15.5975878169
 20
18.6926308125
 10
-16.0337260414
 20
19.0175907237
 10
-16.4486938207
 20
19.3509525843
 10
-16.8421613689
 20
19.6924148017
 10
-17.2135360596
 20
20.04143625
 10
-17.5623607715
 20
20.3975532791
 10
-17.8884512111
 20
20.7605829772
 10
-18.1912690662
 20
21.1299633732
 10
-18.4703963176
 20
21.5052179213
 10
-18.7257242951
 20
21.8863100842
 10
-18.9567980511
 20
22.2727597854
 10
-19.1631566056
 20
22.664009668
 10
-19.3445748443
 20
23.0599372519
 10
-19.5006871909
 20
23.4602172349
 10
-19.631013088
 20
23.8641670387
 10
-19.7351680604
 20
24.2711604332
 10
-19.8128508037
 20
24.6806721049
 10
-19.8638081796
 20
25.0922650734
 10
-19.887803075
 20
25.5054640134
  0
LWPOLYLINE
  5
330
100
AcDbEntity
  8
ASSI
100
AcDbPolyline
 62
7
  6
CONTINUOUS
 90
14
 70
0
 10
15.7615148713
 20
-2.7231912614
 10
15.7609767345
 20
-2.7228461555
 10
15.7587666776
 20
-2.7216250398
 10
15.7564051736
 20
-2.7205975602
 10
15.753974824
 20
-2.7197938617
 10
15.7514760406
 20
-2.7192304122
 10
15.7489084117
 20
-2.7188907437
 10
15.7463533037
 20
-2.7187555978
 10
15.743822063
 20
-2.718833451
 10
15.7413033432
 20
-2.7191158268
 10
15.7388444717
 20
-2.7195580367
 10
15.7364612243
 20
-2.7201451845
 10
15.7341378252
 20
-2.7208921663
 10
15.7318742744
 20
-2.7217989823
  0
LWPOLYLINE
  5
331
100
AcDbEntity
  8
ASSI
100
AcDbPolyline
 62
7
  6
CONTINUOUS
 90
67
 70
0
 10
14.7937716269
 20
-3.1960770773
 10
14.7921967273
 20
-3.1950669455
 10
14.7845479564
 20
-3.1905759451
 10
14.7766082119
 20
-3.186644273
 10
14.7683846403
 20
-3.18328706
 10
14.759870095
 20
-3.1804891754
 10
14.7511378219
 20
-3.1782606841
 10
14.7422147291
 20
-3.1766091561
 10
14.7330739084
 20
-3.1755270214
 10
14.7237078801
 20
-3.1750016355
 10
14.7141144158
 20
-3.1750290433
 10
14.704295744
 20
-3.1756131997
 10
14.69425107
 20
-3.1767533258
 10
14.6839616968
 20
-3.1784507812
 10
14.6734463214
 20
-3.1807042062
 10
14.6627602403
 20
-3.1835087426
 10
14.6518982948
 20
-3.1868700663
 10
14.6408656436
 20
-3.1907825014
 10
14.6297330584
 20
-3.1952241621
 10
14.6185062901
 20
-3.2001953952
 10
14.6071795879
 20
-3.2056958538
 10
14.5958064715
 20
-3.2117026116
 10
14.5843904891
 20
-3.2182167667
 10
14.5729280925
 20
-3.2252372209
 10
14.561462157
 20
-3.2327377533
 10
14.5499763853
 20
-3.2407331113
 10
14.5384870746
 20
-3.2492085476
 10
14.5270859926
 20
-3.2580935989
 10
14.5157824045
 20
-3.2673849207
 10
14.5045670451
 20
-3.2770858575
 10
14.4935038865
 20
-3.2871359805
 10
14.4826175185
 20
-3.297512105
 10
14.4718833512
 20
-3.3082374157
 10
14.4612915876
 20
-3.3193210376
 10
14.4508261412
 20
-3.330779579
 10
14.4405030986
 20
-3.3425964316
 10
14.4303609225
 20
-3.3547308952
 10
14.420387839
 20
-3.3671998732
 10
14.4105956221
 20
-3.3799864623
 10
14.4010580564
 20
-3.3929992526
 10
14.3917846597
 20
-3.4062297099
 10
14.3827659142
 20
-3.4196863686
 10
14.3740470514
 20
-3.4333034217
 10
14.3656300798
 20
-3.4470825862
 10
14.3575129909
 20
-3.4610221453
 10
14.3497349902
 20
-3.475051141
 10
14.3422922335
 20
-3.4891828349
 10
14.3351885651
 20
-3.5034039655
 10
14.3284747229
 20
-3.5176037907
 10
14.3221659412
 20
-3.5317508788
 10
14.3162469858
 20
-3.5458766615
 10
14.3107228914
 20
-3.559964691
 10
14.3055958492
 20
-3.5740053419
 10
14.3008636681
 20
-3.5880082396
 10
14.2965248103
 20
-3.6019858132
 10
14.2925669135
 20
-3.6159813829
 10
14.28900234
 20
-3.6299516286
 10
14.2858666384
 20
-3.6437790189
 10
14.2831653961
 20
-3.657459299
 10
14.2808930256
 20
-3.6709967237
 10
14.2790683128
 20
-3.6842865259
 10
14.2776969567
 20
-3.6973049531
 10
14.2767732582
 20
-3.7100757579
 10
14.2762989062
 20
-3.7225654309
 10
14.2762744635
 20
-3.7347628025
 10
14.2766993672
 20
-3.7466790423
 10
14.2775736174
 20
-3.7583141504
  0
LWPOLYLINE
  5
332
100
AcDbEntity
  8
ASSI
100
AcDbPolyline
 62
7
  6
CONTINUOUS
 90
3
 70
0
 10
14.7584975905
 20
-3.1728336229
 10
14.7572470815
 20
-3.172024063
 10
14.749743477
 20
-3.1675796114
  0
LINE
  5
333
100
AcDbEntity
  8
ASSI
100
AcDbLine
 62
7
  6
CONTINUOUS
 10
13.7697368116
 20
-2.5115333418
 11
13.8050042965
 21
-2.53477248
  0
LINE
  5
334
100
AcDbEntity
  8
ASSI
100
AcDbLine
 62
7
  6
CONTINUOUS
 10
15.6455984377
 20
-3.3752526061
 11
15.6808659226
 21
-3.3984917443
  0
LINE
  5
335
100
AcDbEntity
  8
ASSI
100
AcDbLine
 62
7
  6
CONTINUOUS
 10
13.8198927388
 20
-1.7205220663
 11
13.8551602236
 21
-1.7437612045
  0
LINE
  5
336
100
AcDbEntity
  8
ASSI
100
AcDbLine
 62
7
  6
CONTINUOUS
 10
15.5096450398
 20
-2.8060949749
 11
15.5449125247
 21
-2.8293341131
  0
LINE
  5
337
100
AcDbEntity
  8
ASSI
100
AcDbLine
 62
7
  6
CONTINUOUS
 10
15.5203414
 20
-2.6374022198
 11
15.5556088849
 21
-2.660641358
  0
LINE
  5
338
100
AcDbEntity
  8
ASSI
100
AcDbLine
 62
7
  6
CONTINUOUS
 10
15.7402082209
 20
-2.709151468
 11
15.7329782975
 21
-2.704387386
  0
LINE
  5
339
100
AcDbEntity
  8
ASSI
100
AcDbLine
 62
7
  6
CONTINUOUS
 10
15.7073304138
 20
-2.5294371068
 11
15.7425978986
 21
-2.552676245
  0
LINE
  5
33A
100
AcDbEntity
  8
ASSI
100
AcDbLine
 62
7
  6
CONTINUOUS
 10
16.8070593684
 20
-1.5230234697
 11
16.8423268532
 21
-1.5462626079
  0
LINE
  5
33B
100
AcDbEntity
  8
ASSI
100
AcDbLine
 62
7
  6
CONTINUOUS
 10
16.7434455246
 20
-0.0324993285
 11
16.7787130094
 21
-0.0557384667
  0
LWPOLYLINE
  5
33C
100
AcDbEntity
  8
ASSI
100
AcDbPolyline
 62
7
  6
CONTINUOUS
 90
16
 70
0
 10
14.4499940678
 20
-3.7174745607
 10
14.4463999662
 20
-3.7149165697
 10
14.4422144392
 20
-3.7113988187
 10
14.4383030672
 20
-3.7074831154
 10
14.4346923316
 20
-3.7031959707
 10
14.4313842724
 20
-3.698534864
 10
14.4283768496
 20
-3.6935023159
 10
14.4256904247
 20
-3.6881323987
 10
14.4233271758
 20
-3.682422823
 10
14.4212849247
 20
-3.6763758782
 10
14.4195774984
 20
-3.6700325045
 10
14.4182071687
 20
-3.6633906903
 10
14.4171716638
 20
-3.6564524472
 10
14.4164779943
 20
-3.6492647498
 10
14.4161284972
 20
-3.6418432563
 10
14.4161208355
 20
-3.6341723085
  0
LWPOLYLINE
  5
33D
100
AcDbEntity
  8
ASSI
100
AcDbPolyline
 62
7
  6
CONTINUOUS
 90
4
 70
0
 10
14.6852168277
 20
-3.3604845143
 10
14.6888109293
 20
-3.3630425053
 10
14.6929964563
 20
-3.3665602563
 10
14.6967719823
 20
-3.3703399631
  0
LINE
  5
33E
100
AcDbEntity
  8
ASSI
100
AcDbLine
 62
7
  6
CONTINUOUS
 10
14.4526978228
 20
-3.6292735218
 11
14.4559541512
 21
-3.6316660431
  0
LWPOLYLINE
  5
33F
100
AcDbEntity
  8
ASSI
100
AcDbPolyline
 62
7
  6
CONTINUOUS
 90
14
 70
0
 10
14.6969078283
 20
-3.3704759596
 10
14.700518564
 20
-3.3747631043
 10
14.7038266232
 20
-3.379424211
 10
14.7068340459
 20
-3.3844567591
 10
14.7095204709
 20
-3.3898266764
 10
14.7118837198
 20
-3.395536252
 10
14.7139259708
 20
-3.4015831968
 10
14.7156333971
 20
-3.4079265705
 10
14.7170037268
 20
-3.4145683847
 10
14.7180392317
 20
-3.4215066278
 10
14.7187329012
 20
-3.4286943252
 10
14.7190823984
 20
-3.4361158187
 10
14.71909006
 20
-3.4437867665
 10
14.7187558862
 20
-3.4517071687
  0
LWPOLYLINE
  5
340
100
AcDbEntity
  8
COPY-PUBBLISH
100
AcDbPolyline
 62
7
  6
CONTINUOUS
 90
31
 70
0
 10
-4.1708010152
 20
16.9042726067
 10
-4.2062243119
 20
16.9493685136
 10
-4.2928416302
 20
17.0429338014
 10
-4.3893998785
 20
17.1326639772
 10
-4.4960264585
 20
17.2185099996
 10
-4.6125939685
 20
17.3005209099
 10
-4.7376155074
 20
17.37765057
 10
-4.8711993908
 20
17.4498364397
 10
-5.0132373029
 20
17.517141059
 10
-5.1619173961
 20
17.57870591
 10
-5.3173246069
 20
17.6344574324
 10
-5.4793739986
 20
17.6844691864
 10
-5.6459989132
 20
17.7281033341
 10
-5.817258255
 20
17.7652782332
 10
-5.9930931196
 20
17.796075526
 10
-6.1712601358
 20
17.8201023019
 10
-6.3517887367
 20
17.837271798
 10
-6.5346494891
 20
17.8476707772
 10
-6.7175107219
 20
17.8511666164
 10
-6.9003729848
 20
17.8476708828
 10
-7.0832357281
 20
17.8372720093
 10
-7.2637656315
 20
17.8201026719
 10
-7.4419322672
 20
17.7960762035
 10
-7.6177660629
 20
17.7652792712
 10
-7.7890249818
 20
17.7281045525
 10
-7.9556508828
 20
17.6844702549
 10
-8.1177019069
 20
17.6344581708
 10
-8.2731104403
 20
17.5787063549
 10
-8.4211872783
 20
17.5174274918
 10
-8.5626216255
 20
17.4504088969
 10
-8.6974134821
 20
17.37765057
  0
LWPOLYLINE
  5
341
100
AcDbEntity
  8
ASSI
100
AcDbPolyline
 62
7
  6
CONTINUOUS
 90
14
 70
0
 10
-4.161531783
 20
17.9559740718
 10
-4.1511401783
 20
17.9423924689
 10
-4.1240299743
 20
17.9052568041
 10
-4.0985144599
 20
17.8677194184
 10
-4.0746411699
 20
17.8298502433
 10
-4.0524131656
 20
17.7916486602
 10
-4.0318273858
 20
17.7531152877
 10
-4.0129221811
 20
17.7143219125
 10
-3.9957006846
 20
17.6752680501
 10
-3.9801597633
 20
17.6359541849
 10
-3.9663283697
 20
17.596453558
 10
-3.9542096905
 20
17.5567658211
 10
-3.9438005389
 20
17.5168913224
 10
-3.9351203071
 20
17.4769043472
  0
LWPOLYLINE
  5
342
100
AcDbEntity
  8
ASSI
100
AcDbPolyline
 62
7
  6
CONTINUOUS
 90
7
 70
0
 10
-4.073033446
 20
17.9088343718
 10
-4.0514132619
 20
17.8715031618
 10
-4.0313764225
 20
17.8338785968
 10
-4.0129201169
 20
17.7959611978
 10
-3.9960771496
 20
17.7578183599
 10
-3.98085039
 20
17.7194496824
 10
-3.9672369689
 20
17.6808555661
  0
LWPOLYLINE
  5
343
100
AcDbEntity
  8
ASSI
100
AcDbPolyline
 62
250
  6
CONTINUOUS
 90
9
 70
0
 10
-4.0699686785
 20
17.9853709227
 10
-4.0494752228
 20
17.9496492955
 10
-4.0304272936
 20
17.9136619897
 10
-4.0128352132
 20
17.8774285209
 10
-3.9967085309
 20
17.8409685828
 10
-3.9820559451
 20
17.8043018686
 10
-3.968885329
 20
17.7674480735
 10
-3.9572038254
 20
17.7304271446
 10
-3.947017783
 20
17.6932591558
  0
LINE
  5
344
100
AcDbEntity
  8
0
100
AcDbLine
 62
7
  6
CONTINUOUS
 10
10.4983605703
 20
0.5785697463
 11
10.4989895397
 21
0.5372083957
  0
LWPOLYLINE
  5
345
100
AcDbEntity
  8
0
100
AcDbPolyline
 62
7
  6
CONTINUOUS
 90
5
 70
0
 10
9.4710677384
 20
28.8489672126
 10
9.4707022068
 20
28.8731515344
 10
9.4619350138
 20
28.9697415331
 10
9.4415197558
 20
29.0657431314
 10
9.4194613682
 20
29.134787049
  0
LINE
  5
346
100
AcDbEntity
  8
0
100
AcDbLine
 62
7
  6
CONTINUOUS
 10
10.4999153831
 20
0.5777033537
 11
10.4832554179
 21
1.6893896068
  0
LINE
  5
347
100
AcDbEntity
  8
0
100
AcDbLine
 62
7
  6
CONTINUOUS
 10
10.5706260612
 20
0.618530813
 11
10.5712430969
 21
0.5773572481
  0
LINE
  5
348
100
AcDbEntity
  8
0
100
AcDbLine
 62
250
  6
CONTINUOUS
 10
10.5422135338
 20
1.7233924794
 11
10.4194285711
 21
13.954450339
  0
LWPOLYLINE
  5
349
100
AcDbEntity
  8
ASSI
100
AcDbPolyline
 62
7
  6
CONTINUOUS
 90
16
 70
0
 10
13.9340194124
 20
-6.3695252834
 10
13.9340073418
 20
-6.3764468182
 10
13.9343068536
 20
-6.3831733688
 10
13.9349151533
 20
-6.3896610783
 10
13.9358327049
 20
-6.395911007
 10
13.9370590444
 20
-6.4019220946
 10
13.938589986
 20
-6.4076473041
 10
13.9404296778
 20
-6.4130834241
 10
13.9425739718
 20
-6.4182336659
 10
13.9450062373
 20
-6.4230606271
 10
13.9477300528
 20
-6.4275601688
 10
13.9507418398
 20
-6.4317364298
 10
13.9540142328
 20
-6.4355644241
 10
13.9575474168
 20
-6.4390424338
 10
13.9613412068
 20
-6.4421721768
 10
13.9641503431
 20
-6.4441544821
  0
LINE
  5
34A
100
AcDbEntity
  8
ASSI
100
AcDbLine
 62
250
  6
CONTINUOUS
 10
10.553121087
 20
0.5666778897
 11
9.9735010703
 21
-12.8883379891
  0
LWPOLYLINE
  5
34B
100
AcDbEntity
  8
ASSI
100
AcDbPolyline
 62
250
  6
CONTINUOUS
 90
27
 70
0
 10
13.4846501193
 20
-11.4194946045
 10
13.4840701934
 20
-11.4329389578
 10
13.4822267042
 20
-11.4495883319
 10
13.4791810225
 20
-11.467575379
 10
13.4749138943
 20
-11.4868838668
 10
13.4695014571
 20
-11.5075277453
 10
13.4629310027
 20
-11.5294846323
 10
13.4551866826
 20
-11.5527309658
 10
13.4463462677
 20
-11.5772714964
 10
13.4364028107
 20
-11.6030786766
 10
13.4253439949
 20
-11.6301242199
 10
13.413245228
 20
-11.6584059357
 10
13.4001038903
 20
-11.6878941441
 10
13.3859117603
 20
-11.7185554812
 10
13.3707410613
 20
-11.7503776064
 10
13.354594482
 20
-11.7833266958
 10
13.3374671929
 20
-11.8173675247
 10
13.3194249083
 20
-11.8524820401
 10
13.3004753147
 20
-11.8886323151
 10
13.2806163765
 20
-11.9257833431
 10
13.2599024698
 20
-11.9639195698
 10
13.2383421284
 20
-12.0030055018
 10
13.215937628
 20
-12.0430027679
 10
13.1927359787
 20
-12.0838908301
 10
13.1687582659
 20
-12.1256380152
 10
13.1439991491
 20
-12.1682018444
 10
13.1184673959
 20
-12.2115454441
  0
LINE
  5
34C
100
AcDbEntity
  8
0
100
AcDbLine
 62
7
  6
CONTINUOUS
 10
10.5406552045
 20
0.0946896032
 11
10.5712463053
 21
0.5771431636
  0
LINE
  5
34D
100
AcDbEntity
  8
ASSI
100
AcDbLine
 62
7
  6
CONTINUOUS
 10
13.1468831533
 20
-7.3600383607
 11
13.138777491
 21
-7.4878731081
  0
LINE
  5
34E
100
AcDbEntity
  8
ASSI
100
AcDbLine
 62
7
  6
CONTINUOUS
 10
13.1821506382
 20
-7.3832774988
 11
13.1740449759
 21
-7.5111122462
  0
LINE
  5
34F
100
AcDbEntity
  8
ASSI
100
AcDbLine
 62
7
  6
CONTINUOUS
 10
13.8198927388
 20
-1.7205220663
 11
13.7697368116
 21
-2.5115333418
  0
LINE
  5
350
100
AcDbEntity
  8
ASSI
100
AcDbLine
 62
7
  6
CONTINUOUS
 10
13.8551602236
 20
-1.7437612045
 11
13.8050042965
 21
-2.53477248
  0
LINE
  5
351
100
AcDbEntity
  8
ASSI
100
AcDbLine
 62
7
  6
CONTINUOUS
 10
13.982982563
 20
-5.6589262108
 11
13.958194024
 21
-6.0498673209
  0
LINE
  5
352
100
AcDbEntity
  8
ASSI
100
AcDbLine
 62
7
  6
CONTINUOUS
 10
14.0182500479
 20
-5.6821653489
 11
13.9934615089
 21
-6.0731064591
  0
LINE
  5
353
100
AcDbEntity
  8
ASSI
100
AcDbLine
 62
7
  6
CONTINUOUS
 10
14.0881646459
 20
-5.9212853556
 11
14.1001673275
 21
-5.7319905494
  0
LINE
  5
354
100
AcDbEntity
  8
0
100
AcDbLine
 62
7
  6
CONTINUOUS
 10
10.570956274
 20
0.5730129895
 11
10.5426424137
 21
0.1441674288
  0
LWPOLYLINE
  5
355
100
AcDbEntity
  8
ASSI
100
AcDbPolyline
 62
250
  6
CONTINUOUS
 90
10
 70
0
 10
20.1648543691
 20
20.5178148808
 10
20.2887206594
 20
20.9975284681
 10
20.4078983805
 20
21.4775922744
 10
20.5223875323
 20
21.9580062998
 10
20.6321892784
 20
22.4387757723
 10
20.7373024552
 20
22.919895464
 10
20.8377235717
 20
23.4013496907
 10
20.9334514642
 20
23.8831332244
 10
21.0244872963
 20
24.3652512932
 10
21.110831068
 20
24.8477038971
  0
LINE
  5
356
100
AcDbEntity
  8
ASSI
100
AcDbLine
 62
7
  6
CONTINUOUS
 10
13.6521179234
 20
-3.3559074241
 11
13.5878666286
 21
-3.4541865258
  0
LINE
  5
357
100
AcDbEntity
  8
ASSI
100
AcDbLine
 62
7
  6
CONTINUOUS
 10
13.6873854083
 20
-3.3791465623
 11
13.6231341135
 21
-3.477425664
  0
LWPOLYLINE
  5
358
100
AcDbEntity
  8
ASSI
100
AcDbPolyline
 62
250
  6
CONTINUOUS
 90
60
 70
0
 10
3.0191901835
 20
-18.3879503455
 10
2.9366298419
 20
-18.4961517955
 10
2.8564137048
 20
-18.604769209
 10
2.7785576484
 20
-18.7138089159
 10
2.7030982713
 20
-18.8232516776
 10
2.6300306026
 20
-18.9331283408
 10
2.5593099539
 20
-19.0435218037
 10
2.4909291254
 20
-19.1544762497
 10
2.4249317861
 20
-19.2659622439
 10
2.3613503969
 20
-19.3779526536
 10
2.3001972561
 20
-19.4904628556
 10
2.241494714
 20
-19.6034882372
 10
2.1852876276
 20
-19.7169684874
 10
2.1316011093
 20
-19.8308855213
 10
2.0804408373
 20
-19.9452624613
 10
2.0318206044
 20
-20.0600984705
 10
1.9857525343
 20
-20.1753999011
 10
1.9422556156
 20
-20.2911639549
 10
1.9013534063
 20
-20.4073751256
 10
1.8630551991
 20
-20.5240505808
 10
1.8273823206
 20
-20.6411744562
 10
1.794374181
 20
-20.7586793058
 10
1.764043882
 20
-20.8765676901
 10
1.7364051169
 20
-20.9948333216
 10
1.7114941175
 20
-21.1133916025
 10
1.6893230744
 20
-21.23223718
 10
1.6699017836
 20
-21.3513662394
 10
1.6532583117
 20
-21.4706924055
 10
1.6394021006
 20
-21.590207876
 10
1.628340787
 20
-21.7099062511
 10
1.6200951129
 20
-21.829699382
 10
1.614671955
 20
-21.9495840883
 10
1.6120766207
 20
-22.0695448086
 10
1.6123222338
 20
-22.1894707111
 10
1.6154156452
 20
-22.3093713015
 10
1.6213561347
 20
-22.429213455
 10
1.6301374599
 20
-22.5488166196
 10
1.6417625478
 20
-22.6681628274
 10
1.6562234974
 20
-22.7872387713
 10
1.67348764
 20
-22.9058640464
 10
1.6935458089
 20
-23.02399109
 10
1.7163908876
 20
-23.1416295124
 10
1.7419854873
 20
-23.2586798583
 10
1.7703160208
 20
-23.3751103401
 10
1.801374312
 20
-23.4909127122
 10
1.8351268282
 20
-23.6060205724
 10
1.8715608248
 20
-23.7204159581
 10
1.910664044
 20
-23.8340764791
 10
1.9524003781
 20
-23.9469275969
 10
1.9967551241
 20
-24.0589497285
 10
2.0437142901
 20
-24.1701218091
 10
2.093239392
 20
-24.2803656623
 10
2.145312575
 20
-24.3896590074
 10
2.1999193931
 20
-24.4979835346
 10
2.2570232735
 20
-24.6052658877
 10
2.3166029543
 20
-24.711482376
 10
2.3786444328
 20
-24.8166167543
 10
2.4431194949
 20
-24.9206061576
 10
2.5100091486
 20
-25.0234337906
 10
2.5792952978
 20
-25.1250778959
  0
LWPOLYLINE
  5
359
100
AcDbEntity
  8
ASSI
100
AcDbPolyline
 62
250
  6
CONTINUOUS
 90
106
 70
0
 10
2.3526378642
 20
-18.3218474026
 10
2.2602893893
 20
-18.4379936544
 10
2.1705236915
 20
-18.5546377575
 10
2.0833420255
 20
-18.6717964281
 10
1.9987443124
 20
-18.7894699145
 10
1.916731429
 20
-18.9076896889
 10
1.837305321
 20
-19.0265183219
 10
1.7604392248
 20
-19.1460012188
 10
1.6861577823
 20
-19.2661207766
 10
1.6145390789
 20
-19.3868446889
 10
1.5455726456
 20
-19.5082016937
 10
1.4792632067
 20
-19.6301885904
 10
1.4157101663
 20
-19.7527256979
 10
1.3549190453
 20
-19.8758052345
 10
1.2968747351
 20
-19.9994584566
 10
1.24164426
 20
-20.1236645303
 10
1.1892175775
 20
-20.2484354813
 10
1.1395919043
 20
-20.3737794665
 10
1.0928438569
 20
-20.4996697137
 10
1.0489580221
 20
-20.6261341897
 10
1.0079337144
 20
-20.7531616943
 10
0.9698681429
 20
-20.8806667268
 10
0.9347520752
 20
-21.0086641645
 10
0.9025750973
 20
-21.1371527336
 10
0.8734309923
 20
-21.2660228582
 10
0.8473114498
 20
-21.3952810035
 10
0.8242016934
 20
-21.5249308642
 10
0.8041842149
 20
-21.6548587114
 10
0.7872489579
 20
-21.785068919
 10
0.7733796883
 20
-21.9155634282
 10
0.7626481745
 20
-22.0462246575
 10
0.7550432852
 20
-22.1770617476
 10
0.750546892
 20
-22.3080676939
 10
0.7492189708
 20
-22.4391003885
 10
0.7510521964
 20
-22.5701844329
 10
0.7560219145
 20
-22.7012930422
 10
0.7641611206
 20
-22.8322069149
 10
0.7754661351
 20
-22.9629276105
 10
0.7899065403
 20
-23.0934475156
 10
0.8074748012
 20
-23.2235337239
 10
0.8281585565
 20
-23.3531519904
 10
0.8519348798
 20
-23.4823268518
 10
0.8787803963
 20
-23.6109135342
 10
0.908677207
 20
-23.7388908484
 10
0.9416070157
 20
-23.8662660951
 10
0.9775459348
 20
-23.9929368064
 10
1.0164776033
 20
-24.1188956568
 10
1.0583812644
 20
-24.2441317631
 10
1.1032265948
 20
-24.368536824
 10
1.150996921
 20
-24.4920998108
 10
1.201671061
 20
-24.6148095242
 10
1.2552122553
 20
-24.736557031
 10
1.311602033
 20
-24.8573264367
 10
1.370820405
 20
-24.9771076537
 10
1.4328287601
 20
-25.0958001487
 10
1.4976054203
 20
-25.2133835119
 10
1.5651329825
 20
-25.3298485954
 10
1.6353796134
 20
-25.4451113903
 10
1.7083260782
 20
-25.5591561834
 10
1.7839515794
 20
-25.6719655083
 10
1.8622222519
 20
-25.7834523298
 10
1.9431220883
 20
-25.8936025944
 10
2.0266260245
 20
-26.0023937724
 10
2.1126871233
 20
-26.1097259286
 10
2.2012821627
 20
-26.2155744982
 10
2.2923925277
 20
-26.3199246213
 10
2.3859787603
 20
-26.4226908239
 10
2.4820140447
 20
-26.5238467353
 10
2.5804821362
 20
-26.6233764028
 10
2.6813596467
 20
-26.7212096168
 10
2.784624654
 20
-26.8173255217
 10
2.890254006
 20
-26.9116994239
 10
2.9982224696
 20
-27.0042548424
 10
3.1085008887
 20
-27.0949647186
 10
3.221071217
 20
-27.1838076164
 10
3.3359246564
 20
-27.2707147979
 10
3.4530370245
 20
-27.3556632565
 10
3.5723821983
 20
-27.4386241042
 10
3.6939480146
 20
-27.5195189132
 10
3.8177181685
 20
-27.5983270688
 10
3.943655232
 20
-27.675014018
 10
4.0717154217
 20
-27.7494800356
 10
4.201857452
 20
-27.8216896591
 10
4.3340664337
 20
-27.8916212131
 10
4.4683380339
 20
-27.9591951166
 10
4.6046419035
 20
-28.0243835831
 10
4.7429475314
 20
-28.0871538331
 10
4.8832494563
 20
-28.1474176439
 10
5.0255310377
 20
-28.2051502675
 10
5.1697428052
 20
-28.2603124626
 10
5.3158300049
 20
-28.3127938479
 10
5.463737463
 20
-28.3625558511
 10
5.6134509516
 20
-28.4095718173
 10
5.7649767424
 20
-28.4537485545
 10
5.9183206449
 20
-28.4950628275
 10
6.073399812
 20
-28.5334683188
 10
6.2300884995
 20
-28.5688377027
 10
6.3884194493
 20
-28.6011406463
 10
6.5482806656
 20
-28.630338594
 10
6.7093374812
 20
-28.6562984192
 10
6.8716259405
 20
-28.678978862
 10
7.0350383127
 20
-28.698361205
 10
7.1990417092
 20
-28.7143603981
 10
7.3634461795
 20
-28.7269381833
 10
7.528391584
 20
-28.7360928086
 10
7.6938503849
 20
-28.7418029261
  0
LWPOLYLINE
  5
35A
100
AcDbEntity
  8
ASSI
100
AcDbPolyline
 62
7
  6
CONTINUOUS
 90
8
 70
0
 10
15.389937879
 20
-5.6633377035
 10
15.363687316
 20
-5.6847960003
 10
15.3363406854
 20
-5.7064927323
 10
15.3078979873
 20
-5.7284278994
 10
15.2783724715
 20
-5.7505986015
 10
15.247750888
 20
-5.7730077387
 10
15.2159934877
 20
-5.7956640116
 10
15.1830870206
 20
-5.8185703203
  0
LWPOLYLINE
  5
35B
100
AcDbEntity
  8
ASSI
100
AcDbPolyline
 62
7
  6
CONTINUOUS
 90
10
 70
0
 10
15.4252053638
 20
-5.6865768417
 10
15.3988747808
 20
-5.7080972651
 10
15.3714675498
 20
-5.7298401415
 10
15.3429836708
 20
-5.7518054709
 10
15.313435613
 20
-5.7739897524
 10
15.2828109073
 20
-5.7963964869
 10
15.2510721459
 20
-5.8190361768
 10
15.2182068597
 20
-5.8419123232
 10
15.1842275179
 20
-5.8650214252
 10
15.1491341205
 20
-5.8883634827
  0
LINE
  5
35C
100
AcDbEntity
  8
ASSI
100
AcDbLine
 62
7
  6
CONTINUOUS
 10
15.391420589
 20
-5.824980034
 11
15.4177833635
 21
-5.8036295277
  0
LWPOLYLINE
  5
35D
100
AcDbEntity
  8
ASSI
100
AcDbPolyline
 62
7
  6
CONTINUOUS
 90
8
 70
0
 10
14.5389207718
 20
-3.6726891032
 10
14.5458135098
 20
-3.6677049328
 10
14.5526641768
 20
-3.6624171723
 10
14.5594725116
 20
-3.6568239366
 10
14.5662387754
 20
-3.6509271109
 10
14.5729210408
 20
-3.644763235
 10
14.5795187861
 20
-3.6383306507
 10
14.5860325331
 20
-3.6316310163
  0
LWPOLYLINE
  5
35E
100
AcDbEntity
  8
ASSI
100
AcDbPolyline
 62
7
  6
CONTINUOUS
 90
40
 70
0
 10
14.5813499498
 20
-3.8400371366
 10
14.5916809111
 20
-3.8325926999
 10
14.6020758302
 20
-3.8246660616
 10
14.6125347071
 20
-3.8162572216
 10
14.6230901951
 20
-3.8073441754
 10
14.6337096409
 20
-3.7979489275
 10
14.6442950848
 20
-3.7881374922
 10
14.6548488193
 20
-3.7778996481
 10
14.665368552
 20
-3.7672456166
 10
14.6757494456
 20
-3.7562720761
 10
14.6859883402
 20
-3.7449735738
 10
14.6960883957
 20
-3.7333555626
 10
14.705954255
 20
-3.7215310794
 10
14.7155780064
 20
-3.7095014106
 10
14.7249675617
 20
-3.6972652698
 10
14.7340512985
 20
-3.6849318348
 10
14.7428041845
 20
-3.6725353328
 10
14.751251252
 20
-3.6600415366
 10
14.7593959763
 20
-3.6474569416
 10
14.7672245984
 20
-3.6348092395
 10
14.7747508771
 20
-3.6220707386
 10
14.7820195641
 20
-3.6091648599
 10
14.7890500523
 20
-3.5960627951
 10
14.7958229487
 20
-3.5827933524
 10
14.8023248258
 20
-3.5693663773
 10
14.8085714352
 20
-3.5557469643
 10
14.8145470253
 20
-3.5419700189
 10
14.8201909141
 20
-3.5281501028
 10
14.8254997084
 20
-3.5142807082
 10
14.8304768015
 20
-3.5003683429
 10
14.835071691
 20
-3.4865470916
 10
14.8392773298
 20
-3.4728179608
 10
14.8431007651
 20
-3.459179944
 10
14.846512636
 20
-3.4457641064
 10
14.8495046102
 20
-3.4325781377
 10
14.85208502
 20
-3.4196143481
 10
14.8542495013
 20
-3.4069807333
 10
14.8559965996
 20
-3.3947132917
 10
14.8573277694
 20
-3.382776025
 10
14.8582430107
 20
-3.371168933
  0
LINE
  5
35F
100
AcDbEntity
  8
ASSI
100
AcDbLine
 62
7
  6
CONTINUOUS
 10
15.1830870206
 20
-5.8185703203
 11
15.1490447366
 21
-5.8417237646
  0
LWPOLYLINE
  5
360
100
AcDbEntity
  8
ASSI
100
AcDbPolyline
 62
7
  6
CONTINUOUS
 90
9
 70
0
 10
15.1418548766
 20
-6.0031647498
 10
15.1769049959
 20
-5.9802044431
 10
15.2108453341
 20
-5.9574377746
 10
15.2436758911
 20
-5.9348647443
 10
15.2753807582
 20
-5.9124802942
 10
15.3059758441
 20
-5.8902894823
 10
15.335508875
 20
-5.8683074824
 10
15.3639957595
 20
-5.8465393522
 10
15.391420589
 20
-5.824980034
  0
LINE
  5
361
100
AcDbEntity
  8
ASSI
100
AcDbLine
 62
7
  6
CONTINUOUS
 10
15.7073304138
 20
-2.5294371068
 11
15.5203414
 21
-2.6374022198
  0
LINE
  5
362
100
AcDbEntity
  8
ASSI
100
AcDbLine
 62
7
  6
CONTINUOUS
 10
15.7425978986
 20
-2.552676245
 11
15.5556088849
 21
-2.660641358
  0
LINE
  5
363
100
AcDbEntity
  8
ASSI
100
AcDbLine
 62
7
  6
CONTINUOUS
 10
15.5096450398
 20
-2.8060949749
 11
14.8153105835
 21
-3.2069949879
  0
LINE
  5
364
100
AcDbEntity
  8
ASSI
100
AcDbLine
 62
7
  6
CONTINUOUS
 10
15.5449125247
 20
-2.8293341131
 11
14.834191473
 21
-3.2396955409
  0
LINE
  5
365
100
AcDbEntity
  8
ASSI
100
AcDbLine
 62
7
  6
CONTINUOUS
 10
14.858632715
 20
-3.3335892238
 11
15.6730193949
 21
-2.8633725616
  0
LINE
  5
366
100
AcDbEntity
  8
ASSI
100
AcDbLine
 62
7
  6
CONTINUOUS
 10
15.2011733814
 20
-4.7439931899
 11
14.7449357658
 21
-5.0074190711
  0
LINE
  5
367
100
AcDbEntity
  8
ASSI
100
AcDbLine
 62
7
  6
CONTINUOUS
 10
15.2364408662
 20
-4.7672323281
 11
14.7020371382
 21
-5.075790343
  0
LINE
  5
368
100
AcDbEntity
  8
ASSI
100
AcDbLine
 62
7
  6
CONTINUOUS
 10
14.2128065347
 20
-5.5262287298
 11
13.982982563
 21
-5.6589262108
  0
LINE
  5
369
100
AcDbEntity
  8
ASSI
100
AcDbLine
 62
7
  6
CONTINUOUS
 10
14.3606436602
 20
-5.4844714638
 11
14.3494346035
 21
-5.4909434326
  0
LINE
  5
36A
100
AcDbEntity
  8
ASSI
100
AcDbLine
 62
7
  6
CONTINUOUS
 10
14.2480740196
 20
-5.549467868
 11
14.0182500479
 21
-5.6821653489
  0
LINE
  5
36B
100
AcDbEntity
  8
ASSI
100
AcDbLine
 62
7
  6
CONTINUOUS
 10
14.6041581321
 20
-5.3483335336
 11
15.2222224919
 21
-4.9914709184
  0
LINE
  5
36C
100
AcDbEntity
  8
ASSI
100
AcDbLine
 62
7
  6
CONTINUOUS
 10
14.1001673275
 20
-5.7319905494
 11
14.2332384598
 21
-5.6551569454
  0
LINE
  5
36D
100
AcDbEntity
  8
ASSI
100
AcDbLine
 62
7
  6
CONTINUOUS
 10
14.1050079294
 20
-5.9115602548
 11
14.0881646459
 21
-5.9212853556
  0
LINE
  5
36E
100
AcDbEntity
  8
ASSI
100
AcDbLine
 62
7
  6
CONTINUOUS
 10
14.2918615385
 20
-5.9007958815
 11
14.3358563082
 21
-5.8753938529
  0
LINE
  5
36F
100
AcDbEntity
  8
ASSI
100
AcDbLine
 62
7
  6
CONTINUOUS
 10
14.1233460356
 20
-5.9981039709
 11
14.1904998148
 21
-5.9593302205
  0
LINE
  5
370
100
AcDbEntity
  8
ASSI
100
AcDbLine
 62
7
  6
CONTINUOUS
 10
13.9934615089
 20
-6.0731064591
 11
14.0095310336
 21
-6.0638281169
  0
LINE
  5
371
100
AcDbEntity
  8
ASSI
100
AcDbLine
 62
7
  6
CONTINUOUS
 10
15.6726995533
 20
-5.2232964013
 11
14.2735530487
 21
-6.0311460576
  0
LINE
  5
372
100
AcDbEntity
  8
ASSI
100
AcDbLine
 62
7
  6
CONTINUOUS
 10
15.8956023017
 20
-5.0990686204
 11
15.8086764165
 21
-5.1492585371
  0
LINE
  5
373
100
AcDbEntity
  8
ASSI
100
AcDbLine
 62
7
  6
CONTINUOUS
 10
15.7079670381
 20
-5.2465355395
 11
14.2668883678
 21
-6.0785963028
  0
LINE
  5
374
100
AcDbEntity
  8
ASSI
100
AcDbLine
 62
7
  6
CONTINUOUS
 10
15.9308697866
 20
-5.1223077586
 11
15.809310581
 21
-5.1924945204
  0
LINE
  5
375
100
AcDbEntity
  8
ASSI
100
AcDbLine
 62
7
  6
CONTINUOUS
 10
14.2634456009
 20
-6.1930721257
 11
15.4360184459
 21
-5.5160432607
  0
LINE
  5
376
100
AcDbEntity
  8
ASSI
100
AcDbLine
 62
7
  6
CONTINUOUS
 10
15.8168076731
 20
-5.2961803334
 11
15.9237605994
 21
-5.2344270542
  0
LINE
  5
377
100
AcDbEntity
  8
ASSI
100
AcDbLine
 62
7
  6
CONTINUOUS
 10
15.6084508631
 20
-5.4164922838
 11
15.7089205497
 21
-5.3584823459
  0
LINE
  5
378
100
AcDbEntity
  8
ASSI
100
AcDbLine
 62
7
  6
CONTINUOUS
 10
15.1212495117
 20
-5.7486886887
 11
14.6251323182
 21
-6.0351405384
  0
LINE
  5
379
100
AcDbEntity
  8
ASSI
100
AcDbLine
 62
7
  6
CONTINUOUS
 10
15.1565169966
 20
-5.7719278269
 11
14.6603998031
 21
-6.0583796766
  0
LINE
  5
37A
100
AcDbEntity
  8
ASSI
100
AcDbLine
 62
7
  6
CONTINUOUS
 10
14.7542139236
 20
-6.1122274667
 11
15.0485181299
 21
-5.9422999065
  0
LINE
  5
37B
100
AcDbEntity
  8
ASSI
100
AcDbLine
 62
7
  6
CONTINUOUS
 10
15.009991072
 20
-5.9704676349
 11
14.7567786054
 21
-6.1166693396
  0
LINE
  5
37C
100
AcDbEntity
  8
ASSI
100
AcDbLine
 62
7
  6
CONTINUOUS
 10
15.0452585569
 20
-5.993706773
 11
14.7509543506
 21
-6.1636343333
  0
LINE
  5
37D
100
AcDbEntity
  8
ASSI
100
AcDbLine
 62
7
  6
CONTINUOUS
 10
15.4170564551
 20
-5.8150936299
 11
15.5894812752
 21
-5.7155376997
  0
LINE
  5
37E
100
AcDbEntity
  8
ASSI
100
AcDbLine
 62
7
  6
CONTINUOUS
 10
14.6429224727
 20
-6.3340154026
 11
15.1390396662
 21
-6.0475635529
  0
LINE
  5
37F
100
AcDbEntity
  8
ASSI
100
AcDbLine
 62
7
  6
CONTINUOUS
 10
14.6175198468
 20
-6.2898273603
 11
14.6465338399
 21
-6.2771851432
  0
LWPOLYLINE
  5
380
100
AcDbEntity
  8
ASSI
100
AcDbPolyline
 62
7
  6
CONTINUOUS
 90
17
 70
0
 10
14.6185052814
 20
-6.139780587
 10
14.596727739
 20
-6.1491230295
 10
14.5756837691
 20
-6.1578627419
 10
14.5553733716
 20
-6.1659997242
 10
14.5357998909
 20
-6.1735189023
 10
14.5169599826
 20
-6.1804353502
 10
14.4988436141
 20
-6.18679429
 10
14.4814507797
 20
-6.1926106095
 10
14.4647814851
 20
-6.1978694207
 10
14.4488257144
 20
-6.2025712824
 10
14.4336432848
 20
-6.2066929436
 10
14.4191743791
 20
-6.2102576552
 10
14.4052295295
 20
-6.2133357286
 10
14.3917282653
 20
-6.2159378107
 10
14.3787510574
 20
-6.2180532546
 10
14.3663498501
 20
-6.219720431
 10
14.3545426002
 20
-6.2209434535
  0
LWPOLYLINE
  5
381
100
AcDbEntity
  8
ASSI
100
AcDbPolyline
 62
7
  6
CONTINUOUS
 90
27
 70
0
 10
14.6537727663
 20
-6.1630197252
 10
14.6295358856
 20
-6.1733839619
 10
14.6062620553
 20
-6.1829910251
 10
14.5839512754
 20
-6.191840915
 10
14.5626261946
 20
-6.1999080994
 10
14.5422641641
 20
-6.2072181105
 10
14.5227972376
 20
-6.2138475438
 10
14.5042497331
 20
-6.2198102234
 10
14.4865973326
 20
-6.2250923252
 10
14.4696991352
 20
-6.2297289735
 10
14.4535493458
 20
-6.2337077438
 10
14.4381537595
 20
-6.2370410605
 10
14.4233888609
 20
-6.2398013209
 10
14.4091970634
 20
-6.2420027566
 10
14.3956359536
 20
-6.243631136
 10
14.3827547766
 20
-6.2447161614
 10
14.3705465009
 20
-6.2452533786
 10
14.3590181579
 20
-6.2452472418
 10
14.3482400873
 20
-6.2447408149
 10
14.3382487753
 20
-6.2437163472
 10
14.3290077357
 20
-6.2421915895
 10
14.320477849
 20
-6.2402628572
 10
14.3126805269
 20
-6.237928337
 10
14.3055943577
 20
-6.2351898423
 10
14.2991159877
 20
-6.2321491298
 10
14.2932549848
 20
-6.2288220098
 10
14.2917520566
 20
-6.2278278748
  0
LWPOLYLINE
  5
382
100
AcDbEntity
  8
ASSI
100
AcDbPolyline
 62
7
  6
CONTINUOUS
 90
3
 70
0
 10
14.562935047
 20
-6.3121066315
 10
14.5896535825
 20
-6.3014678564
 10
14.6175198468
 20
-6.2898273603
  0
LWPOLYLINE
  5
383
100
AcDbEntity
  8
ASSI
100
AcDbPolyline
 62
250
  6
CONTINUOUS
 90
25
 70
0
 10
9.6956139202
 20
13.7431556428
 10
9.7295209996
 20
13.7464561269
 10
9.7632672898
 20
13.7502680542
 10
9.7968292137
 20
13.7545886758
 10
9.8301830981
 20
13.7594148151
 10
9.8633058736
 20
13.764743098
 10
9.8961750743
 20
13.770569989
 10
9.9287680465
 20
13.7768914667
 10
9.9610616821
 20
13.7837030164
 10
9.9930331165
 20
13.7909998704
 10
10.0246598744
 20
13.7987768865
 10
10.0559199964
 20
13.8070286215
 10
10.086791758
 20
13.8157493545
 10
10.1172535759
 20
13.8249330027
 10
10.1472841712
 20
13.8345731356
 10
10.1768626947
 20
13.8446630467
 10
10.2059686156
 20
13.8551957784
 10
10.2345814347
 20
13.8661639275
 10
10.2626808543
 20
13.8775596574
 10
10.2902469241
 20
13.889374904
 10
10.317260724
 20
13.9016015564
 10
10.3437040352
 20
13.914231294
 10
10.369558556
 20
13.9272554275
 10
10.3948059617
 20
13.9406648724
 10
10.4194285711
 20
13.954450339
  0
LWPOLYLINE
  5
384
100
AcDbEntity
  8
ASSI
100
AcDbPolyline
 62
250
  6
CONTINUOUS
 90
25
 70
0
 10
9.6205046279
 20
14.429639492
 10
9.6413857961
 20
14.4316355721
 10
9.6621420257
 20
14.4339461527
 10
9.6827733166
 20
14.4365712336
 10
9.7032947347
 20
14.4395131566
 10
9.7236912142
 20
14.4427695799
 10
9.7439175576
 20
14.446333479
 10
9.763972641
 20
14.4502054382
 10
9.7838575882
 20
14.4543848732
 10
9.803530574
 20
14.4588630056
 10
9.8229911087
 20
14.4636404603
 10
9.8422396819
 20
14.4687166124
 10
9.8612359364
 20
14.4740808094
 10
9.8799793061
 20
14.4797336421
 10
9.8984703572
 20
14.4856745198
 10
9.9166704308
 20
14.4918910176
 10
9.9345789716
 20
14.4983837378
 10
9.9521965349
 20
14.5051520782
 10
9.969486128
 20
14.5121818072
 10
9.9864477641
 20
14.51947388
 10
10.0030814301
 20
14.5270273414
 10
10.0193500927
 20
14.5348250936
 10
10.0352414079
 20
14.5428614373
 10
10.0507677197
 20
14.5511420719
 10
10.0659290284
 20
14.5596669974
  0
LWPOLYLINE
  5
385
100
AcDbEntity
  8
ASSI
100
AcDbPolyline
 62
250
  6
CONTINUOUS
 90
10
 70
0
 10
2.1713849779
 20
13.1951306293
 10
3.0097175395
 20
13.2451480085
 10
3.8475215694
 20
13.2978876037
 10
4.6847705712
 20
13.3533474745
 10
5.5214200067
 20
13.4115243088
 10
6.3574615142
 20
13.4724171629
 10
7.1929227807
 20
13.5360280488
 10
8.0277953029
 20
13.6023566724
 10
8.8620345155
 20
13.6713998467
 10
9.6956139202
 20
13.7431556428
  0
LWPOLYLINE
  5
386
100
AcDbEntity
  8
ASSI
100
AcDbPolyline
 62
250
  6
CONTINUOUS
 90
10
 70
0
 10
2.1214000173
 20
13.8834444019
 10
2.9569779274
 20
13.9332981691
 10
3.7919766145
 20
13.9858610832
 10
4.6263960788
 20
14.0411331442
 10
5.4602453777
 20
14.0991150227
 10
6.2935154536
 20
14.1598060481
 10
7.1261791339
 20
14.2232042089
 10
7.9582273609
 20
14.2893088345
 10
8.7896691922
 20
14.3581205956
 10
9.6205046279
 20
14.429639492
  0
LWPOLYLINE
  5
387
100
AcDbEntity
  8
RACCORDO
100
AcDbPolyline
 62
7
  6
CONTINUOUS
 90
5
 70
0
 10
-7.6258634984
 20
16.1356475669
 10
-7.6476699326
 20
16.1412219524
 10
-7.8064709747
 20
16.179076994
 10
-7.9629314235
 20
16.2136684709
 10
-8.0150036436
 20
16.2242531806
  0
LWPOLYLINE
  5
388
100
AcDbEntity
  8
ASSI
100
AcDbPolyline
 62
7
  6
CONTINUOUS
 90
63
 70
0
 10
-4.7376155074
 20
18.4390619298
 10
-4.7876453642
 20
18.4672342291
 10
-4.8388101095
 20
18.4946450905
 10
-4.8911097432
 20
18.5212945138
 10
-4.9445781736
 20
18.5471981122
 10
-4.9991814925
 20
18.5723402727
 10
-5.0548179751
 20
18.5966741559
 10
-5.1114895474
 20
18.620198255
 10
-5.1691942834
 20
18.6429140769
 10
-5.2278246805
 20
18.6647793024
 10
-5.2873824642
 20
18.685792346
 10
-5.347865909
 20
18.7059547932
 10
-5.4091623356
 20
18.7252290819
 10
-5.4712732594
 20
18.7436135564
 10
-5.5341971651
 20
18.7611098724
 10
-5.5978168267
 20
18.7776854346
 10
-5.6621335412
 20
18.7933385266
 10
-5.7271460116
 20
18.8080708648
 10
-5.7927331213
 20
18.8218550033
 10
-5.8588959413
 20
18.8346891744
 10
-5.9256334005
 20
18.8465751457
 10
-5.9928211685
 20
18.8574907739
 10
-6.0604600847
 20
18.8674342501
 10
-6.1285493096
 20
18.8764073833
 10
-6.1969619947
 20
18.8843934566
 10
-6.2656987428
 20
18.8913906301
 10
-6.334758951
 20
18.8974007438
 10
-6.4040139617
 20
18.9024126009
 10
-6.4734641379
 20
18.9064243406
 10
-6.5431091166
 20
18.9094378237
 10
-6.6128191508
 20
18.9114474362
 10
-6.6825943616
 20
18.9124513068
 10
-6.7524346279
 20
18.9124513068
 10
-6.8222098387
 20
18.9114474362
 10
-6.8919198729
 20
18.9094378237
 10
-6.9615648516
 20
18.9064243406
 10
-7.0310150278
 20
18.9024126009
 10
-7.1002700385
 20
18.8974007438
 10
-7.1693302467
 20
18.8913906301
 10
-7.2380669948
 20
18.8843934566
 10
-7.3064796799
 20
18.8764073833
 10
-7.3745689048
 20
18.8674342501
 10
-7.442207821
 20
18.8574907739
 10
-7.509395589
 20
18.8465751457
 10
-7.5761330482
 20
18.8346891744
 10
-7.6422958682
 20
18.8218550033
 10
-7.7078829779
 20
18.8080708648
 10
-7.7728954483
 20
18.7933385266
 10
-7.8372121628
 20
18.7776854346
 10
-7.9008318244
 20
18.7611098724
 10
-7.9637557301
 20
18.7436135564
 10
-8.0258666539
 20
18.7252290819
 10
-8.0871630805
 20
18.7059547932
 10
-8.1476465253
 20
18.685792346
 10
-8.207204309
 20
18.6647793024
 10
-8.2658347061
 20
18.6429140769
 10
-8.3235394421
 20
18.620198255
 10
-8.3802110144
 20
18.5966741559
 10
-8.435847497
 20
18.5723402727
 10
-8.4904508159
 20
18.5471981122
 10
-8.5439192463
 20
18.5212945138
 10
-8.5962506727
 20
18.494628058
 10
-8.6474472106
 20
18.4672001641
  0
LWPOLYLINE
  5
389
100
AcDbEntity
  8
ASSI
100
AcDbPolyline
 62
7
  6
CONTINUOUS
 90
62
 70
0
 10
-4.7022601684
 20
18.4594756595
 10
-4.7531834154
 20
18.4881510356
 10
-4.8052618169
 20
18.5160513766
 10
-4.8584953726
 20
18.5431766825
 10
-4.9129185965
 20
18.5695428452
 10
-4.9684969746
 20
18.5951339728
 10
-5.0251269659
 20
18.6199023896
 10
-5.0828105305
 20
18.6438465619
 10
-5.1415457082
 20
18.6669680235
 10
-5.2012230767
 20
18.6892236995
 10
-5.2618443923
 20
18.7106119759
 10
-5.3234078986
 20
18.7311344669
 10
-5.3857989042
 20
18.7507529393
 10
-5.4490189517
 20
18.769465708
 10
-5.5130664985
 20
18.7872744582
 10
-5.5778222254
 20
18.8041460125
 10
-5.6432874527
 20
18.8200786241
 10
-5.7094608602
 20
18.8350740398
 10
-5.7762191682
 20
18.8491043235
 10
-5.8435634671
 20
18.8621676763
 10
-5.9114926667
 20
18.874265897
 10
-5.9798802162
 20
18.8853764472
 10
-6.0487269702
 20
18.8954974855
 10
-6.1180320742
 20
18.9046308532
 10
-6.1876664143
 20
18.912759535
 10
-6.2576306044
 20
18.919881658
 10
-6.3279240306
 20
18.9259990951
 10
-6.3984157379
 20
18.9311004497
 10
-6.4691060958
 20
18.9351838276
 10
-6.5399947349
 20
18.9382511229
 10
-6.6109495911
 20
18.9402966214
 10
-6.6819707878
 20
18.9413184182
 10
-6.7530582017
 20
18.9413184182
 10
-6.8240793984
 20
18.9402966214
 10
-6.8950342546
 20
18.9382511229
 10
-6.9659228937
 20
18.9351838276
 10
-7.0366132516
 20
18.9311004497
 10
-7.1071049589
 20
18.9259990951
 10
-7.1773983851
 20
18.919881658
 10
-7.2473625752
 20
18.912759535
 10
-7.3169969153
 20
18.9046308532
 10
-7.3863020193
 20
18.8954974855
 10
-7.4551487733
 20
18.8853764472
 10
-7.5235363228
 20
18.874265897
 10
-7.5914655224
 20
18.8621676763
 10
-7.6588098213
 20
18.8491043235
 10
-7.7255681294
 20
18.8350740398
 10
-7.7917415368
 20
18.8200786241
 10
-7.8572067641
 20
18.8041460125
 10
-7.921962491
 20
18.7872744582
 10
-7.9860100378
 20
18.769465708
 10
-8.0492300853
 20
18.7507529393
 10
-8.1116210909
 20
18.7311344669
 10
-8.1731845973
 20
18.7106119759
 10
-8.2338059128
 20
18.6892236995
 10
-8.2934832813
 20
18.6669680235
 10
-8.352218459
 20
18.6438465619
 10
-8.4099020236
 20
18.6199023896
 10
-8.4665320149
 20
18.5951339728
 10
-8.5221103931
 20
18.5695428452
 10
-8.5765336169
 20
18.5431766825
 10
-8.629799533
 20
18.5160340399
  0
LWPOLYLINE
  5
38A
100
AcDbEntity
  8
ASSI
100
AcDbPolyline
 62
7
  6
CONTINUOUS
 90
4
 70
0
 10
-4.5334913622
 20
18.1486855146
 10
-4.4820891137
 20
18.1182888725
 10
-4.4320085185
 20
18.0872309953
 10
-4.3832495765
 20
18.055511883
  0
LWPOLYLINE
  5
38B
100
AcDbEntity
  8
ASSI
100
AcDbPolyline
 62
7
  6
CONTINUOUS
 90
9
 70
0
 10
-4.7376155074
 20
18.4390619298
 10
-4.6888227973
 20
18.4101753175
 10
-4.6413488514
 20
18.3806334349
 10
-4.5951936699
 20
18.3504362818
 10
-4.5503302118
 20
18.3195642802
 10
-4.5067855181
 20
18.2880370082
 10
-4.4646407114
 20
18.2559132004
 10
-4.4238984014
 20
18.2231917449
 10
-4.3845559786
 20
18.1898737535
  0
LWPOLYLINE
  5
38C
100
AcDbEntity
  8
ASSI
100
AcDbPolyline
 62
7
  6
CONTINUOUS
 90
18
 70
0
 10
-4.7022601684
 20
18.4594756595
 10
-4.6525961598
 20
18.4300732148
 10
-4.604274465
 20
18.4000037985
 10
-4.5572950838
 20
18.3692674106
 10
-4.5116304925
 20
18.3378441233
 10
-4.4673082149
 20
18.3057538643
 10
-4.4244108224
 20
18.2730564171
 10
-4.3829409712
 20
18.2397506498
 10
-4.3428960051
 20
18.2058376943
 10
-4.304350527
 20
18.1713807297
 10
-4.267307332
 20
18.1363787418
 10
-4.2317636251
 20
18.1008327449
 10
-4.1977856233
 20
18.0648089602
 10
-4.1653762452
 20
18.0283064971
 10
-4.1345325723
 20
17.9913262463
 10
-4.1053120655
 20
17.9539371011
 10
-4.0777177507
 20
17.9161382993
 10
-4.0763268051
 20
17.9140919968
  0
LWPOLYLINE
  5
38D
100
AcDbEntity
  8
ASSI
100
AcDbPolyline
 62
7
  6
CONTINUOUS
 90
4
 70
0
 10
-4.3832495765
 20
18.055511883
 10
-4.3357861771
 20
18.0231128275
 10
-4.289644431
 20
17.9900525369
 10
-4.2449026697
 20
17.9563871353
  0
LWPOLYLINE
  5
38E
100
AcDbEntity
  8
ASSI
100
AcDbPolyline
 62
7
  6
CONTINUOUS
 90
3
 70
0
 10
-4.2449026697
 20
17.9563871353
 10
-4.2015632712
 20
17.9221155948
 10
-4.1596238574
 20
17.8872389434
  0
LWPOLYLINE
  5
38F
100
AcDbEntity
  8
ASSI
100
AcDbPolyline
 62
7
  6
CONTINUOUS
 90
4
 70
0
 10
-4.1596238574
 20
17.8872389434
 10
-4.119155626
 20
17.8518163886
 10
-4.0801610759
 20
17.8158470031
 10
-4.0492930143
 20
17.7858082231
  0
LWPOLYLINE
  5
390
100
AcDbEntity
  8
ASSI
100
AcDbPolyline
 62
7
  6
CONTINUOUS
 90
8
 70
0
 10
-4.3845559786
 20
18.1898737535
 10
-4.3466867369
 20
18.156021297
 10
-4.3102934226
 20
18.1216333792
 10
-4.2753732895
 20
18.0867109962
 10
-4.2419913929
 20
18.0513192077
 10
-4.2101506005
 20
18.0154571387
 10
-4.1798480446
 20
17.9791256642
 10
-4.161531783
 20
17.9559740718
  0
LWPOLYLINE
  5
391
100
AcDbEntity
  8
ASSI
100
AcDbPolyline
 62
250
  6
CONTINUOUS
 90
38
 70
0
 10
4.5207820017
 20
17.4775115717
 10
4.4964837179
 20
17.5135483663
 10
4.4736982364
 20
17.5499374724
 10
4.4524660563
 20
17.5866141695
 10
4.4327899598
 20
17.623578906
 10
4.4146671646
 20
17.6608312337
 10
4.3981298226
 20
17.6983050874
 10
4.3831807197
 20
17.7360008803
 10
4.36981707
 20
17.7739181993
 10
4.3580626675
 20
17.8119897406
 10
4.3479203481
 20
17.8502159858
 10
4.3393872761
 20
17.8885964533
 10
4.3324787382
 20
17.9270623934
 10
4.3271977141
 20
17.9656140152
 10
4.3235412241
 20
18.0042511097
 10
4.3215156167
 20
18.0429042999
 10
4.3211237598
 20
18.0815729572
 10
4.3223627854
 20
18.1202577101
 10
4.3252304371
 20
18.1588910676
 10
4.3297293052
 20
18.1974726979
 10
4.3358567993
 20
18.2360029327
 10
4.3436028927
 20
18.2744152757
 10
4.3529708118
 20
18.3127109746
 10
4.3639573301
 20
18.3508887818
 10
4.376542741
 20
18.3888784582
 10
4.3907310616
 20
18.4266808826
 10
4.4065182748
 20
18.4642951763
 10
4.4238726223
 20
18.5016484639
 10
4.4427957333
 20
18.5387372745
 10
4.4632859787
 20
18.575565079
 10
4.485306713
 20
18.6120694146
 10
4.5088569697
 20
18.6482463126
 10
4.5339377154
 20
18.6840997417
 10
4.5605152037
 20
18.7195791453
 10
4.5885934982
 20
18.7546877707
 10
4.6181685354
 20
18.7894223706
 10
4.6491943789
 20
18.8237226468
 10
4.6710677384
 20
18.8465282817
  0
LWPOLYLINE
  5
392
100
AcDbEntity
  8
ASSI
100
AcDbPolyline
 62
7
  6
CONTINUOUS
 90
8
 70
0
 10
14.834191473
 20
-3.2396955409
 10
14.8295222492
 20
-3.2320540966
 10
14.8244052727
 20
-3.2248269818
 10
14.8188405435
 20
-3.2180141963
 10
14.8128073635
 20
-3.2115858933
 10
14.8063264308
 20
-3.2055719196
 10
14.7994598399
 20
-3.2000618166
 10
14.7937716269
 20
-3.1960770773
  0
LWPOLYLINE
  5
393
100
AcDbEntity
  8
ASSI
100
AcDbPolyline
 62
7
  6
CONTINUOUS
 90
5
 70
0
 10
14.6773632972
 20
-3.3743613536
 10
14.6752174205
 20
-3.3687834876
 10
14.672773977
 20
-3.3635116803
 10
14.6700348031
 20
-3.3585440428
 10
14.6670168721
 20
-3.3539113575
  0
LWPOLYLINE
  5
394
100
AcDbEntity
  8
ASSI
100
AcDbPolyline
 62
250
  6
CONTINUOUS
 90
43
 70
0
 10
9.6205046279
 20
14.429639492
 10
9.6232822864
 20
14.418806771
 10
9.6260561459
 20
14.407430528
 10
9.6288224127
 20
14.3955263221
 10
9.6315773034
 20
14.3831104345
 10
9.6343170502
 20
14.3701998464
 10
9.6370379059
 20
14.3568122152
 10
9.6397361493
 20
14.342965851
 10
9.6424080901
 20
14.3286796915
 10
9.6450500737
 20
14.3139732754
 10
9.6476584869
 20
14.2988667167
 10
9.6502297622
 20
14.2833806763
 10
9.6527603827
 20
14.2675363343
 10
9.6552468876
 20
14.2513553607
 10
9.6576858759
 20
14.2348598861
 10
9.6600740119
 20
14.2180724711
 10
9.6624080294
 20
14.2010160757
 10
9.6646847362
 20
14.1837140275
 10
9.6669010185
 20
14.1661899905
 10
9.669053845
 20
14.148467932
 10
9.6711402714
 20
14.1305720902
 10
9.6731574442
 20
14.1125269411
 10
9.6751026044
 20
14.0943571647
 10
9.6769730916
 20
14.0760876116
 10
9.6787663477
 20
14.0577432689
 10
9.68047992
 20
14.0393492259
 10
9.6821114649
 20
14.0209306397
 10
9.6836587509
 20
14.0025127015
 10
9.6851196618
 20
13.984120601
 10
9.6864921997
 20
13.9657794929
 10
9.6877744872
 20
13.9475144622
 10
9.6889647705
 20
13.9293504896
 10
9.6900614219
 20
13.9113124179
 10
9.6910629413
 20
13.8934249174
 10
9.6919679591
 20
13.8757124527
 10
9.6927752373
 20
13.8581992489
 10
9.693483672
 20
13.8409092585
 10
9.6940922943
 20
13.8238661289
 10
9.6946002716
 20
13.8070931696
 10
9.6950069093
 20
13.790613321
 10
9.6953116511
 20
13.7744491223
 10
9.6955140804
 20
13.758622681
 10
9.830813033
 20
0.3558599452
  0
LWPOLYLINE
  5
395
100
AcDbEntity
  8
ASSI
100
AcDbPolyline
 62
7
  6
CONTINUOUS
 90
13
 70
0
 10
15.7734296252
 20
-2.7467627174
 10
15.7733466057
 20
-2.7445119842
 10
15.7731020581
 20
-2.7422826943
 10
15.7726959823
 20
-2.7400748477
 10
15.7721377049
 20
-2.7378749962
 10
15.7714178992
 20
-2.735696588
 10
15.770508586
 20
-2.7335799673
 10
15.7694019331
 20
-2.7315168157
 10
15.7681057725
 20
-2.7295154516
 10
15.7666156207
 20
-2.7276411737
 10
15.7649158018
 20
-2.7258935648
 10
15.7630219917
 20
-2.7242730421
 10
15.7615148713
 20
-2.7231912614
  0
LINE
  5
396
100
AcDbEntity
  8
ASSI
100
AcDbLine
 62
7
  6
CONTINUOUS
 10
15.6484089663
 20
-3.5674517622
 11
15.6642672463
 21
-4.6485951678
  0
LINE
  5
397
100
AcDbEntity
  8
ASSI
100
AcDbLine
 62
7
  6
CONTINUOUS
 10
15.6662708615
 20
-4.7850034928
 11
15.6726995533
 21
-5.2232964013
  0
LINE
  5
398
100
AcDbEntity
  8
ASSI
100
AcDbLine
 62
7
  6
CONTINUOUS
 10
15.6383858869
 20
-2.883369515
 11
15.6455984377
 21
-3.3752526061
  0
LINE
  5
399
100
AcDbEntity
  8
ASSI
100
AcDbLine
 62
7
  6
CONTINUOUS
 10
15.682537708
 20
-3.5130567152
 11
15.6995347311
 21
-4.671834306
  0
LINE
  5
39A
100
AcDbEntity
  8
ASSI
100
AcDbLine
 62
7
  6
CONTINUOUS
 10
15.7015383464
 20
-4.808242631
 11
15.7079670381
 21
-5.2465355395
  0
LINE
  5
39B
100
AcDbEntity
  8
ASSI
100
AcDbLine
 62
7
  6
CONTINUOUS
 10
15.6730193949
 20
-2.8633725616
 11
15.6808659226
 21
-3.3984917443
  0
LINE
  5
39C
100
AcDbEntity
  8
ASSI
100
AcDbLine
 62
7
  6
CONTINUOUS
 10
15.7806604628
 20
-3.2393376962
 11
15.7734296252
 21
-2.7467627174
  0
LINE
  5
39D
100
AcDbEntity
  8
ASSI
100
AcDbLine
 62
7
  6
CONTINUOUS
 10
15.809310581
 20
-5.1924945204
 11
15.8046428776
 21
-4.8742604677
  0
LINE
  5
39E
100
AcDbEntity
  8
ASSI
100
AcDbLine
 62
7
  6
CONTINUOUS
 10
15.8026414012
 20
-4.7380756471
 11
15.7823428504
 21
-3.3539871562
  0
LWPOLYLINE
  5
39F
100
AcDbEntity
  8
ASSI
100
AcDbPolyline
 62
7
  6
CONTINUOUS
 90
16
 70
0
 10
14.4694417571
 20
-3.5956625637
 10
14.4692157594
 20
-3.6013172833
 10
14.4692579827
 20
-3.6067721628
 10
14.4695684271
 20
-3.6120272024
 10
14.4701494095
 20
-3.6170956859
 10
14.470998613
 20
-3.6219643294
 10
14.4721090865
 20
-3.6265932812
 10
14.4734829745
 20
-3.630980574
 10
14.4751181324
 20
-3.6351281752
 10
14.477001176
 20
-3.639002135
 10
14.4791341397
 20
-3.6426002074
 10
14.4815149891
 20
-3.6459246385
 10
14.4841242359
 20
-3.6489482165
 10
14.4869637548
 20
-3.6516684721
 10
14.4900316712
 20
-3.6540878746
 10
14.4912168239
 20
-3.65490201
  0
LWPOLYLINE
  5
3A0
100
AcDbEntity
  8
ASSI
100
AcDbPolyline
 62
7
  6
CONTINUOUS
 90
16
 70
0
 10
14.6657685407
 20
-3.4823059394
 10
14.6659945384
 20
-3.4766512199
 10
14.665952315
 20
-3.4711963403
 10
14.6656418707
 20
-3.4659413007
 10
14.6650608882
 20
-3.4608728173
 10
14.6642116847
 20
-3.4560041737
 10
14.6631012112
 20
-3.4513752219
 10
14.6617273232
 20
-3.4469879291
 10
14.6600921653
 20
-3.442840328
 10
14.6582091217
 20
-3.4389663682
 10
14.656076158
 20
-3.4353682957
 10
14.6536953086
 20
-3.4320438646
 10
14.6510860618
 20
-3.4290202866
 10
14.6482465429
 20
-3.4263000311
 10
14.6451786265
 20
-3.4238806286
 10
14.6439934738
 20
-3.4230664931
  0
LWPOLYLINE
  5
3A1
100
AcDbEntity
  8
ASSI
100
AcDbPolyline
 62
7
  6
CONTINUOUS
 90
15
 70
0
 10
14.4341742722
 20
-3.5724234255
 10
14.4339526709
 20
-3.5778105869
 10
14.4339745521
 20
-3.5830182933
 10
14.4342399156
 20
-3.5880465448
 10
14.4347506289
 20
-3.5929069309
 10
14.4355048245
 20
-3.5975878619
 10
14.4364969006
 20
-3.6020545696
 10
14.4377286285
 20
-3.6063054588
 10
14.4391982368
 20
-3.6103421245
 10
14.4408948099
 20
-3.6141345838
 10
14.4428200376
 20
-3.6176810182
 10
14.4449722301
 20
-3.6209832462
 10
14.4473354014
 20
-3.6240167398
 10
14.4499111227
 20
-3.626779498
 10
14.4526978228
 20
-3.6292735218
  0
LINE
  5
3A2
100
AcDbEntity
  8
ASSI
100
AcDbLine
 62
7
  6
CONTINUOUS
 10
14.4161208355
 20
-3.6341723085
 11
14.4164550093
 21
-3.6262519063
  0
LWPOLYLINE
  5
3A3
100
AcDbEntity
  8
ASSI
100
AcDbPolyline
 62
7
  6
CONTINUOUS
 90
9
 70
0
 10
14.6834884013
 20
-3.4284680305
 10
14.6838154094
 20
-3.4208898345
 10
14.6838294805
 20
-3.4135379246
 10
14.6835306146
 20
-3.406412301
 10
14.6829168977
 20
-3.3994991516
 10
14.6819902437
 20
-3.3928122885
 10
14.6807563948
 20
-3.386393147
 10
14.6792134435
 20
-3.3802433895
 10
14.6773632972
 20
-3.3743613536
  0
LWPOLYLINE
  5
3A4
100
AcDbEntity
  8
ASSI
100
AcDbPolyline
 62
7
  6
CONTINUOUS
 90
10
 70
0
 10
14.8582430107
 20
-3.371168933
 10
14.8584912961
 20
-3.3668636006
 10
14.8586883322
 20
-3.3625889711
 10
14.8588341193
 20
-3.3583450444
 10
14.8589286533
 20
-3.3541294878
 10
14.8589719381
 20
-3.3499446341
 10
14.8589639855
 20
-3.3457974811
 10
14.8589047994
 20
-3.3416903613
 10
14.8587943759
 20
-3.3376209423
 10
14.858632715
 20
-3.3335892238
  0
LWPOLYLINE
  5
3A5
100
AcDbEntity
  8
ASSI
100
AcDbPolyline
 62
7
  6
CONTINUOUS
 90
61
 70
0
 10
19.887802928
 20
25.5054640134
 10
19.8609065432
 20
25.0612068392
 10
19.8028846327
 20
24.6190336661
 10
19.7140752165
 20
24.1795346959
 10
19.5948960089
 20
23.743439589
 10
19.4457391388
 20
23.3112089471
 10
19.266887231
 20
22.8830621933
 10
19.0587647206
 20
22.459624121
 10
18.8218597177
 20
22.0415486912
 10
18.556484185
 20
21.6291489607
 10
18.2631605336
 20
21.2230786116
 10
17.9424707768
 20
20.8239919361
 10
17.5947626856
 20
20.4322225527
 10
17.220699031
 20
20.0484554566
 10
16.8209101872
 20
19.6732717969
 10
16.3956035943
 20
19.3068594169
 10
15.9453850872
 20
18.9497865085
 10
15.4710275045
 20
18.6027032183
 10
14.9728936232
 20
18.2659305806
 10
14.4515828493
 20
17.9399627336
 10
13.9080109188
 20
17.6254524407
 10
13.3430025763
 20
17.3229393358
 10
12.7574792419
 20
17.0329688718
 10
12.1522746551
 20
16.7560004847
 10
11.5280980006
 20
16.4924150695
 10
10.8857488788
 20
16.2426195833
 10
10.2263269604
 20
16.007106194
 10
9.5510181656
 20
15.7863437871
 10
8.860969141
 20
15.5807360506
 10
8.1571357953
 20
15.3905936813
 10
7.4404486685
 20
15.216201834
 10
6.7118933532
 20
15.0578417223
 10
5.9726948065
 20
14.9158184087
 10
5.2241639091
 20
14.7904095789
 10
4.4675284437
 20
14.6818358053
 10
3.7038904884
 20
14.5902682257
 10
2.9343931912
 20
14.5158589539
 10
2.1601837558
 20
14.4587350933
 10
1.3825051432
 20
14.4190028621
 10
0.6026536684
 20
14.396736844
 10
-0.1781349366
 20
14.3919752223
 10
-0.9586741166
 20
14.4047266136
 10
-1.737738385
 20
14.4349712527
 10
-2.5141386063
 20
14.4826619329
 10
-3.2866487527
 20
14.5477207579
 10
-4.053993874
 20
14.630032874
 10
-4.8149561939
 20
14.7294549008
 10
-5.5683849059
 20
14.8458219807
 10
-6.3131183802
 20
14.9789395584
 10
-7.0480405872
 20
15.1285926644
 10
-7.7719755612
 20
15.2945242923
 10
-8.4836943011
 20
15.4764272062
 10
-9.1820179482
 20
15.6739641891
 10
-9.8659620848
 20
15.8868180214
 10
-10.534610099
 20
16.1146710987
 10
-11.1870471685
 20
16.3571876763
 10
-11.8221426351
 20
16.6139201783
 10
-12.4386940502
 20
16.8843340711
 10
-13.0356973767
 20
17.1679197555
 10
-13.6123370562
 20
17.4642149021
 10
-14.1677589015
 20
17.7727040858
  0
LINE
  5
3A6
100
AcDbEntity
  8
ASSI
100
AcDbLine
 62
7
  6
CONTINUOUS
 10
14.3358563082
 20
-5.8753938529
 11
14.351090665
 21
-5.6351321595
  0
LINE
  5
3A7
100
AcDbEntity
  8
ASSI
100
AcDbLine
 62
7
  6
CONTINUOUS
 10
14.3592727763
 20
-5.506091732
 11
14.3606436602
 21
-5.4844714638
  0
LINE
  5
3A8
100
AcDbEntity
  8
ASSI
100
AcDbLine
 62
7
  6
CONTINUOUS
 10
14.5715067188
 20
-5.2838362194
 11
14.5688906473
 21
-5.3250943954
  0
LINE
  5
3A9
100
AcDbEntity
  8
ASSI
100
AcDbLine
 62
7
  6
CONTINUOUS
 10
14.6123781049
 20
-5.2186959914
 11
14.6041581321
 21
-5.3483335336
  0
LINE
  5
3AA
100
AcDbEntity
  8
ASSI
100
AcDbLine
 62
7
  6
CONTINUOUS
 10
14.6251323182
 20
-6.0351405384
 11
14.6185052814
 21
-6.139780587
  0
LINE
  5
3AB
100
AcDbEntity
  8
ASSI
100
AcDbLine
 62
7
  6
CONTINUOUS
 10
14.6603998031
 20
-6.0583796766
 11
14.6537727663
 21
-6.1630197252
  0
LINE
  5
3AC
100
AcDbEntity
  8
ASSI
100
AcDbLine
 62
7
  6
CONTINUOUS
 10
14.7509543506
 20
-6.1636343333
 11
14.7542139236
 21
-6.1122274667
  0
LINE
  5
3AD
100
AcDbEntity
  8
ASSI
100
AcDbLine
 62
7
  6
CONTINUOUS
 10
15.0485181299
 20
-5.9422999065
 11
15.0452585569
 21
-5.993706773
  0
LINE
  5
3AE
100
AcDbEntity
  8
ASSI
100
AcDbLine
 62
7
  6
CONTINUOUS
 10
15.1390396662
 20
-6.0475635529
 11
15.1418548766
 21
-6.0031647498
  0
LINE
  5
3AF
100
AcDbEntity
  8
ASSI
100
AcDbLine
 62
7
  6
CONTINUOUS
 10
15.1491341205
 20
-5.8883634827
 11
15.1565169966
 21
-5.7719278269
  0
LINE
  5
3B0
100
AcDbEntity
  8
ASSI
100
AcDbLine
 62
7
  6
CONTINUOUS
 10
15.2222224919
 20
-4.9914709184
 11
15.2364408662
 21
-4.7672323281
  0
LINE
  5
3B1
100
AcDbEntity
  8
ASSI
100
AcDbLine
 62
7
  6
CONTINUOUS
 10
15.5203414
 20
-2.6374022198
 11
15.5096450398
 21
-2.8060949749
  0
LINE
  5
3B2
100
AcDbEntity
  8
ASSI
100
AcDbLine
 62
7
  6
CONTINUOUS
 10
15.5556088849
 20
-2.660641358
 11
15.5449125247
 21
-2.8293341131
  0
LINE
  5
3B3
100
AcDbEntity
  8
ASSI
100
AcDbLine
 62
7
  6
CONTINUOUS
 10
15.3978812013
 20
-5.5380632279
 11
15.389937879
 21
-5.6633377035
  0
LINE
  5
3B4
100
AcDbEntity
  8
ASSI
100
AcDbLine
 62
7
  6
CONTINUOUS
 10
15.4360184459
 20
-5.5160432607
 11
15.4252053638
 21
-5.6865768417
  0
LINE
  5
3B5
100
AcDbEntity
  8
ASSI
100
AcDbLine
 62
7
  6
CONTINUOUS
 10
15.4177833635
 20
-5.8036295277
 11
15.4170564551
 21
-5.8150936299
  0
LINE
  5
3B6
100
AcDbEntity
  8
ASSI
100
AcDbLine
 62
7
  6
CONTINUOUS
 10
15.7318742744
 20
-2.7217989823
 11
15.7425978986
 21
-2.552676245
  0
LINE
  5
3B7
100
AcDbEntity
  8
ASSI
100
AcDbLine
 62
7
  6
CONTINUOUS
 10
15.5894812752
 20
-5.7155376997
 11
15.5941798373
 21
-5.641436476
  0
LINE
  5
3B8
100
AcDbEntity
  8
ASSI
100
AcDbLine
 62
7
  6
CONTINUOUS
 10
15.6019820915
 20
-5.5185115588
 11
15.6084508631
 21
-5.4164922838
  0
LINE
  5
3B9
100
AcDbEntity
  8
ASSI
100
AcDbLine
 62
7
  6
CONTINUOUS
 10
15.9237605994
 20
-5.2344270542
 11
15.9308697866
 21
-5.1223077586
  0
LINE
  5
3BA
100
AcDbEntity
  8
ASSI
100
AcDbLine
 62
7
  6
CONTINUOUS
 10
16.7285570823
 20
-0.8467497422
 11
16.7787130094
 21
-0.0557384667
  0
LINE
  5
3BB
100
AcDbEntity
  8
ASSI
100
AcDbLine
 62
7
  6
CONTINUOUS
 10
16.7108383261
 20
-5.4545114831
 11
16.7189398663
 21
-5.3267417463
  0
LINE
  5
3BC
100
AcDbEntity
  8
ASSI
100
AcDbLine
 62
7
  6
CONTINUOUS
 10
14.6087535152
 20
-6.2934892953
 11
14.6076549878
 21
-6.3107762644
  0
LINE
  5
3BD
100
AcDbEntity
  8
ASSI
100
AcDbLine
 62
7
  6
CONTINUOUS
 10
14.6465338399
 20
-6.2771851432
 11
14.6429224727
 21
-6.3340154026
  0
LINE
  5
3BE
100
AcDbEntity
  8
ASSI
100
AcDbLine
 62
7
  6
CONTINUOUS
 10
14.6828427158
 20
-3.4362302269
 11
14.6834884013
 21
-3.4284680305
  0
LWPOLYLINE
  5
3BF
100
AcDbEntity
  8
ASSI
100
AcDbPolyline
 62
7
  6
CONTINUOUS
 90
6
 70
0
 10
14.4164550093
 20
-3.6262519063
 10
14.4171380304
 20
-3.6181300841
 10
14.4181560311
 20
-3.6098669316
 10
14.4195090114
 20
-3.601462449
 10
14.421201547
 20
-3.5928969867
 10
14.4232290622
 20
-3.5841901942
  0
LWPOLYLINE
  5
3C0
100
AcDbEntity
  8
ASSI
100
AcDbPolyline
 62
7
  6
CONTINUOUS
 90
52
 70
0
 10
14.7187558862
 20
-3.4517071687
 10
14.7180728651
 20
-3.4598289909
 10
14.7170548644
 20
-3.4680921434
 10
14.7157018841
 20
-3.476496626
 10
14.7140093485
 20
-3.4850620883
 10
14.7119818334
 20
-3.4937688808
 10
14.7096330657
 20
-3.5025580552
 10
14.7069608655
 20
-3.5114301704
 10
14.7039674128
 20
-3.5203846674
 10
14.7006729745
 20
-3.5293609207
 10
14.6970755081
 20
-3.5383590781
 10
14.6931770559
 20
-3.5473789918
 10
14.6890040122
 20
-3.5563595936
 10
14.6845545135
 20
-3.5653006166
 10
14.6798304232
 20
-3.5742023276
 10
14.6748637252
 20
-3.5830044586
 10
14.6696527733
 20
-3.5917063338
 10
14.6641992136
 20
-3.6003086289
 10
14.658539969
 20
-3.6087531031
 10
14.6526736438
 20
-3.6170386855
 10
14.6466016335
 20
-3.6251664468
 10
14.6403650482
 20
-3.6330813591
 10
14.6339627711
 20
-3.640781978
 10
14.6273959189
 20
-3.6482697478
 10
14.6207089518
 20
-3.6554939734
 10
14.6139010547
 20
-3.6624528665
 10
14.6069730427
 20
-3.6691482153
 10
14.5999718211
 20
-3.6755346898
 10
14.5928968932
 20
-3.681610194
 10
14.5857487557
 20
-3.6873768238
 10
14.5785758044
 20
-3.692795537
 10
14.5713778708
 20
-3.6978639726
 10
14.5641551234
 20
-3.7025844916
 10
14.5569564629
 20
-3.7069251341
 10
14.5497820528
 20
-3.7108833224
 10
14.5426317297
 20
-3.7144616343
 10
14.535553904
 20
-3.7176358431
 10
14.5285490677
 20
-3.7204032068
 10
14.5216167289
 20
-3.7227664675
 10
14.5148038221
 20
-3.724709625
 10
14.5081111579
 20
-3.7262298285
 10
14.5015379257
 20
-3.7273299288
 10
14.4951286291
 20
-3.7280024778
 10
14.4888843802
 20
-3.7282445743
 10
14.4828040669
 20
-3.7280591194
 10
14.476928855
 20
-3.7274473688
 10
14.4712601365
 20
-3.7264064297
 10
14.4657965195
 20
-3.7249391949
 10
14.4605749949
 20
-3.7230555981
 10
14.4555972055
 20
-3.7207528141
 10
14.4508615084
 20
-3.718033668
 10
14.4499940678
 20
-3.7174745607
  0
LINE
  5
3C1
100
AcDbEntity
  8
ASSI
100
AcDbLine
 62
7
  6
CONTINUOUS
 10
14.4282939657
 20
-3.992327141
 11
14.2128065347
 21
-5.5262287298
  0
LINE
  5
3C2
100
AcDbEntity
  8
ASSI
100
AcDbLine
 62
7
  6
CONTINUOUS
 10
14.1485644093
 20
-5.983543198
 11
14.1297666487
 21
-6.1173170634
  0
LINE
  5
3C3
100
AcDbEntity
  8
ASSI
100
AcDbLine
 62
7
  6
CONTINUOUS
 10
14.1913023339
 20
-5.6793703389
 11
14.1885683467
 21
-5.6988247699
  0
LINE
  5
3C4
100
AcDbEntity
  8
ASSI
100
AcDbLine
 62
7
  6
CONTINUOUS
 10
14.4635614505
 20
-4.0155662791
 11
14.2480740196
 21
-5.549467868
  0
LINE
  5
3C5
100
AcDbEntity
  8
ASSI
100
AcDbLine
 62
7
  6
CONTINUOUS
 10
14.1904998148
 20
-5.9593302205
 11
14.1650341335
 21
-6.1405562016
  0
LINE
  5
3C6
100
AcDbEntity
  8
ASSI
100
AcDbLine
 62
7
  6
CONTINUOUS
 10
14.2332384598
 20
-5.6551569454
 11
14.2238358315
 21
-5.7220639081
  0
LINE
  5
3C7
100
AcDbEntity
  8
ASSI
100
AcDbLine
 62
7
  6
CONTINUOUS
 10
14.2668883678
 20
-6.0785963028
 11
14.2918615385
 21
-5.9007958815
  0
LINE
  5
3C8
100
AcDbEntity
  8
ASSI
100
AcDbLine
 62
7
  6
CONTINUOUS
 10
14.3494346035
 20
-5.4909434326
 11
14.5490104608
 21
-4.0702649291
  0
LINE
  5
3C9
100
AcDbEntity
  8
ASSI
100
AcDbLine
 62
7
  6
CONTINUOUS
 10
14.5667329647
 20
-3.9440789642
 11
14.5813499498
 21
-3.8400371366
  0
LWPOLYLINE
  5
3CA
100
AcDbEntity
  8
ASSI
100
AcDbPolyline
 62
250
  6
CONTINUOUS
 90
124
 70
0
 10
21.110831068
 20
24.8477038971
 10
21.1391942589
 20
25.0233950972
 10
21.1631663474
 20
25.1992318807
 10
21.1827473336
 20
25.3752142479
 10
21.1979395143
 20
25.5513790438
 10
21.2087405926
 20
25.7276894232
 10
21.2151436778
 20
25.9040348505
 10
21.2171459812
 20
26.0804150858
 10
21.2147502915
 20
26.2568303689
 10
21.2079580842
 20
26.4331708837
 10
21.196766617
 20
26.60943655
 10
21.1811786322
 20
26.7856274479
 10
21.161203832
 20
26.9616340021
 10
21.1368394976
 20
27.1374560595
 10
21.1080883478
 20
27.3130937733
 10
21.0749682417
 20
27.4884380269
 10
21.0374764528
 20
27.6634886905
 10
20.9956157076
 20
27.838245894
 10
20.9494120451
 20
28.0126009105
 10
20.8988627689
 20
28.1865534648
 10
20.8439705754
 20
28.3601038321
 10
20.7847695935
 20
28.5331441115
 10
20.7212571386
 20
28.7056739977
 10
20.6534358953
 20
28.8776937959
 10
20.581348047
 20
29.049096521
 10
20.5049909524
 20
29.2198817643
 10
20.4243672528
 20
29.3900499345
 10
20.3395270552
 20
29.5594952732
 10
20.2504677233
 20
29.7282173597
 10
20.1571918935
 20
29.8962166148
 10
20.0597575818
 20
30.0633885428
 10
19.9581622121
 20
30.2297326104
 10
19.8524083605
 20
30.3952493509
 10
19.7425617709
 20
30.5598358681
 10
19.6286198896
 20
30.7234915959
 10
19.5105852703
 20
30.8862171003
 10
19.3885313175
 20
31.047911184
 10
19.2624555387
 20
31.2085731958
 10
19.1323604265
 20
31.3682037867
 10
18.9983268631
 20
31.5267037129
 10
18.8603523955
 20
31.6840722758
 10
18.7184394766
 20
31.8403101739
 10
18.5726763468
 20
31.9953202588
 10
18.4230606091
 20
32.1491017689
 10
18.2695946604
 20
32.3016554657
 10
18.1123739315
 20
32.4528864864
 10
17.9513960952
 20
32.6027940014
 10
17.7866634786
 20
32.7513788402
 10
17.6182784945
 20
32.8985486287
 10
17.4462388578
 20
33.044302498
 10
17.2705468536
 20
33.1886413169
 10
17.0913117493
 20
33.3314753179
 10
16.9085313606
 20
33.4728035502
 10
16.7222078717
 20
33.6126269645
 10
16.5324571028
 20
33.7508586452
 10
16.3392768976
 20
33.8874976198
 10
16.1426694124
 20
34.0225448609
 10
15.9427569354
 20
34.1559163702
 10
15.7395374402
 20
34.2876110867
 10
15.5330129533
 20
34.4176300714
 10
15.3233118426
 20
34.5458925092
 10
15.1104321009
 20
34.6723973268
 10
14.8943757355
 20
34.7971455975
 10
14.6752771365
 20
34.9200597261
 10
14.453134445
 20
35.0411385536
 10
14.22794952
 20
35.1603832389
 10
13.9998623282
 20
35.277719664
 10
13.768871032
 20
35.3931466587
 10
13.534977469
 20
35.5066653933
 10
13.298327119
 20
35.6182052598
 10
13.0589182977
 20
35.7277650133
 10
12.8167526894
 20
35.8353458987
 10
12.5719808266
 20
35.9408810429
 10
12.3246010627
 20
36.0443691849
 10
12.0746150443
 20
36.1458115856
 10
11.8221782437
 20
36.2451451555
 10
11.5672891563
 20
36.342368575
 10
11.3099492867
 20
36.4374831635
 10
11.0503186213
 20
36.5304297894
 10
10.7883957233
 20
36.6212071088
 10
10.5241820295
 20
36.7098164654
 10
10.2578418369
 20
36.7962027588
 10
9.9893738262
 20
36.8803646049
 10
9.7187793169
 20
36.9623033877
 10
9.4462265637
 20
37.0419681583
 10
9.1717143568
 20
37.1193575006
 10
8.895243906
 20
37.1944728307
 10
8.6169870961
 20
37.2672674483
 10
8.3369427993
 20
37.3377399142
 10
8.0551121434
 20
37.4058916675
 10
7.7716703961
 20
37.4716803253
 10
7.4866165769
 20
37.5351044133
 10
7.1999516664
 20
37.5961654058
 10
6.9118538745
 20
37.6548253431
 10
6.6223222779
 20
37.7110827378
 10
6.3313578
 20
37.7649390774
 10
6.0391414208
 20
37.816360864
 10
5.7456724114
 20
37.8653465755
 10
5.4509515008
 20
37.911897734
 10
5.1551618559
 20
37.9559854084
 10
4.8583027683
 20
37.9976080737
 10
4.5603749465
 20
38.0367672548
 10
4.2615636823
 20
38.0734385955
 10
3.9618684471
 20
38.1076205458
 10
3.6612897695
 20
38.1393146558
 10
3.3600145276
 20
38.1685012198
 10
3.0580422451
 20
38.1951786808
 10
2.7553733983
 20
38.2193485958
 10
2.4521962951
 20
38.2409959303
 10
2.1485107107
 20
38.26011911
 10
1.8443168699
 20
38.2767197093
 10
1.5398037554
 20
38.2907874162
 10
1.2349711015
 20
38.3023206607
 10
0.929819174
 20
38.311321013
 10
0.6245377519
 20
38.3177828713
 10
0.3191266974
 20
38.3217046528
 10
0.0135861484
 20
38.3230879403
 10
-0.2918937018
 20
38.321931881
 10
-0.5973130695
 20
38.3182348756
 10
-0.9026717384
 20
38.3119985233
 10
-1.2077788666
 20
38.3032267693
 10
-1.5125708399
 20
38.2919209287
 10
-1.8171112725
 20
38.2780796864
 10
-2.1214001643
 20
38.2617030424
  0
LWPOLYLINE
  5
3CB
100
AcDbEntity
  8
ASSI
100
AcDbPolyline
 62
250
  6
CONTINUOUS
 90
9
 70
0
 10
21.608249762
 20
24.4177327545
 10
21.6372749011
 20
24.5975061794
 10
21.6618138642
 20
24.7775020789
 10
21.6818615781
 20
24.9576831333
 10
21.6974138933
 20
25.1380118826
 10
21.7084676122
 20
25.3184510399
 10
21.7150204649
 20
25.4989634997
 10
21.7170710843
 20
25.6795119799
 10
21.7154209896
 20
25.8262440877
  0
LINE
  5
3CC
100
AcDbEntity
  8
ASSI
100
AcDbLine
 62
7
  6
CONTINUOUS
 10
21.1729613836
 20
7.7379128601
 11
21.0511149389
 21
7.2489242295
  0
LWPOLYLINE
  5
3CD
100
AcDbEntity
  8
ASSI
100
AcDbPolyline
 62
250
  6
CONTINUOUS
 90
10
 70
0
 10
20.659103747
 20
20.0733372639
 10
20.7833803811
 20
20.5546353935
 10
20.9029589334
 20
21.0363145328
 10
21.0178360621
 20
21.5183593821
 10
21.1280062467
 20
22.0007442133
 10
21.2334689757
 20
22.4834641136
 10
21.3342277305
 20
22.9665350601
 10
21.4302808752
 20
23.4499522219
 10
21.5216226729
 20
23.9336898862
 10
21.608249762
 20
24.4177327545
  0
LINE
  5
3CE
100
AcDbEntity
  8
ASSI
100
AcDbLine
 62
7
  6
CONTINUOUS
 10
21.0512441341
 20
7.2494324187
 11
20.9245496262
 21
6.7607590899
  0
LWPOLYLINE
  5
3CF
100
AcDbEntity
  8
ASSI
100
AcDbPolyline
 62
7
  6
CONTINUOUS
 90
47
 70
0
 10
14.4232290622
 20
-3.5841901942
 10
14.4255778299
 20
-3.5754010198
 10
14.42825003
 20
-3.5665289046
 10
14.4312434827
 20
-3.5575744076
 10
14.434537921
 20
-3.5485981543
 10
14.4381353875
 20
-3.5395999969
 10
14.4420338396
 20
-3.5305800832
 10
14.4462068833
 20
-3.5215994814
 10
14.450656382
 20
-3.5126584584
 10
14.4553804723
 20
-3.5037567474
 10
14.4603471703
 20
-3.4949546164
 10
14.4655581223
 20
-3.4862527412
 10
14.4710116819
 20
-3.4776504461
 10
14.4766709265
 20
-3.4692059719
 10
14.4825372518
 20
-3.4609203895
 10
14.488609262
 20
-3.4527926282
 10
14.4948458473
 20
-3.4448777159
 10
14.5012481245
 20
-3.437177097
 10
14.5078149767
 20
-3.4296893272
 10
14.5145019438
 20
-3.4224651016
 10
14.5213098409
 20
-3.4155062086
 10
14.5282378529
 20
-3.4088108597
 10
14.5352390744
 20
-3.4024243852
 10
14.5423140023
 20
-3.396348881
 10
14.5494621398
 20
-3.3905822512
 10
14.5566350911
 20
-3.385163538
 10
14.5638330247
 20
-3.3800951024
 10
14.5710557722
 20
-3.3753745834
 10
14.5782544326
 20
-3.3710339409
 10
14.5854288427
 20
-3.3670757526
 10
14.5925791659
 20
-3.3634974407
 10
14.5996569915
 20
-3.3603232319
 10
14.6066618278
 20
-3.3575558682
 10
14.6135941667
 20
-3.3551926075
 10
14.6204070734
 20
-3.35324945
 10
14.6270997377
 20
-3.3517292465
 10
14.6336729698
 20
-3.3506291462
 10
14.6400822665
 20
-3.3499565972
 10
14.6463265153
 20
-3.3497145007
 10
14.6524068287
 20
-3.3498999556
 10
14.6582820405
 20
-3.3505117063
 10
14.663950759
 20
-3.3515526453
 10
14.669414376
 20
-3.3530198801
 10
14.6746359006
 20
-3.3549034769
 10
14.6796136901
 20
-3.3572062609
 10
14.6843493871
 20
-3.359925407
 10
14.6852168277
 20
-3.3604845143
  0
LINE
  5
3D0
100
AcDbEntity
  8
ASSI
100
AcDbLine
 62
7
  6
CONTINUOUS
 10
20.9247010049
 20
6.7613318211
 11
20.9188390639
 21
6.7410234773
  0
LINE
  5
3D1
100
AcDbEntity
  8
ASSI
100
AcDbLine
 62
7
  6
CONTINUOUS
 10
20.9189351303
 20
6.7412462587
 11
20.9120224641
 21
6.7208367483
  0
LWPOLYLINE
  5
3D2
100
AcDbEntity
  8
ASSI
100
AcDbPolyline
 62
7
  6
CONTINUOUS
 90
19
 70
0
 10
20.9124367701
 20
6.7218442634
 10
20.9042512057
 20
6.7007716342
 10
20.8955150765
 20
6.6808072258
 10
20.8858242886
 20
6.6609644324
 10
20.8752094781
 20
6.6413059809
 10
20.8636754453
 20
6.6218443318
 10
20.8512173898
 20
6.6025670247
 10
20.8378515475
 20
6.5834994059
 10
20.823569533
 20
6.5646321872
 10
20.8083797316
 20
6.5459746567
 10
20.792323535
 20
6.527580025
 10
20.7753980438
 20
6.5094502988
 10
20.7576061575
 20
6.4915834714
 10
20.7389979666
 20
6.474026734
 10
20.71957869
 20
6.4567868356
 10
20.6993431088
 20
6.4398570273
 10
20.6783256569
 20
6.4232642532
 10
20.6565378122
 20
6.4070174947
 10
20.6339680968
 20
6.3911077704
  0
LWPOLYLINE
  5
3D3
100
AcDbEntity
  8
ASSI
100
AcDbPolyline
 62
7
  6
CONTINUOUS
 90
11
 70
0
 10
14.6598079123
 20
-3.5198327748
 10
14.6634091832
 20
-3.511204244
 10
14.6667322861
 20
-3.5026029051
 10
14.6697754937
 20
-3.4940289268
 10
14.6725405334
 20
-3.4854821404
 10
14.6750102713
 20
-3.4770155064
 10
14.677182874
 20
-3.4686295224
 10
14.6790601749
 20
-3.4603236909
 10
14.6806305414
 20
-3.4521494792
 10
14.6818900959
 20
-3.4441240431
 10
14.6828427158
 20
-3.4362302269
  0
LWPOLYLINE
  5
3D4
100
AcDbEntity
  8
ASSI
100
AcDbPolyline
 62
7
  6
CONTINUOUS
 90
16
 70
0
 10
15.7089205497
 20
-5.3584823459
 10
15.7052094687
 20
-5.3669989257
 10
15.7010713797
 20
-5.3758064905
 10
15.6965062827
 20
-5.3849050404
 10
15.6915394234
 20
-5.3942849664
 10
15.6861455561
 20
-5.4039558775
 10
15.6802489442
 20
-5.4139466006
 10
15.673851191
 20
-5.4242594851
 10
15.6669506931
 20
-5.4348921815
 10
15.6594669036
 20
-5.4458664682
 10
15.6513793385
 20
-5.4572050706
 10
15.6427084818
 20
-5.4688852633
 10
15.6334352382
 20
-5.4808606483
 10
15.6235532427
 20
-5.4931157596
 10
15.6130688605
 20
-5.5056660631
 10
15.6019820915
 20
-5.5185115588
  0
LWPOLYLINE
  5
3D5
100
AcDbEntity
  8
ASSI
100
AcDbPolyline
 62
250
  6
CONTINUOUS
 90
139
 70
0
 10
13.792959063
 20
-12.3560234872
 10
13.7674976299
 20
-12.4078038992
 10
13.7411081689
 20
-12.4604349395
 10
13.7137874657
 20
-12.5139111447
 10
13.6855059409
 20
-12.5682703801
 10
13.6562871425
 20
-12.6234644308
 10
13.6262056551
 20
-12.6793568067
 10
13.5952533374
 20
-12.735937957
 10
13.5634280609
 20
-12.793203012
 10
13.5308099659
 20
-12.8510190112
 10
13.4974032447
 20
-12.9093549066
 10
13.463190202
 20
-12.9682245069
 10
13.4282160156
 20
-13.0275600919
 10
13.3924782753
 20
-13.087346287
 10
13.355965117
 20
-13.1475810124
 10
13.3187066742
 20
-13.2082157632
 10
13.2806893124
 20
-13.2692526574
 10
13.2419121211
 20
-13.3306724116
 10
13.2024233268
 20
-13.3923935841
 10
13.1622167399
 20
-13.4544039038
 10
13.1212828078
 20
-13.5166978667
 10
13.0796635089
 20
-13.5792031593
 10
13.0373525354
 20
-13.6419079889
 10
12.9943397687
 20
-13.7048062784
 10
12.9506605362
 20
-13.7678335382
 10
12.9063050146
 20
-13.8309830407
 10
12.8612662402
 20
-13.8942438516
 10
12.8155829749
 20
-13.9575445093
 10
12.7692420932
 20
-14.0208816988
 10
12.7222395722
 20
-14.0842412662
 10
12.6746268574
 20
-14.1475347317
 10
12.6263981077
 20
-14.2107485815
 10
12.577541519
 20
-14.2738789169
 10
12.5280987073
 20
-14.3368510049
 10
12.4780605196
 20
-14.3996565718
 10
12.4274184843
 20
-14.4622869794
 10
12.3762145583
 20
-14.5246664575
 10
12.3244283769
 20
-14.5867993045
 10
12.2720628955
 20
-14.648664946
 10
12.2191942617
 20
-14.7101497181
 10
12.1658168947
 20
-14.7712396018
 10
12.1119189069
 20
-14.8319326986
 10
12.0575662522
 20
-14.8921329878
 10
12.0027513607
 20
-14.951830492
 10
11.9474648983
 20
-15.0110201263
 10
11.8917697396
 20
-15.069612924
 10
11.8356537294
 20
-15.1276046627
 10
11.7791130231
 20
-15.1849855912
 10
11.7222226794
 20
-15.2416582845
 10
11.6649714437
 20
-15.2976178736
 10
11.607355672
 20
-15.3528564481
 10
11.5494616744
 20
-15.4072719441
 10
11.4912814644
 20
-15.4608572685
 10
11.4328095096
 20
-15.5136080999
 10
11.3741358056
 20
-15.5654265834
 10
11.3152532453
 20
-15.6163063064
 10
11.2561571222
 20
-15.6662438395
 10
11.1969412177
 20
-15.7151459891
 10
11.1375995088
 20
-15.7630070179
 10
11.0781281918
 20
-15.8098245663
 10
11.0186247188
 20
-15.8555108102
 10
10.9590839267
 20
-15.9000609504
 10
10.8995033792
 20
-15.9434735784
 10
10.8399850899
 20
-15.9856663531
 10
10.7805261522
 20
-16.026634555
 10
10.7211242924
 20
-16.0663786979
 10
10.6618830432
 20
-16.1048247594
 10
10.6028010732
 20
-16.1419688289
 10
10.5438770891
 20
-16.1778126938
 10
10.4852153139
 20
-16.212291393
 10
10.4268160815
 20
-16.2454018481
 10
10.3686790582
 20
-16.2771471374
 10
10.3109081196
 20
-16.3074720634
 10
10.2535052499
 20
-16.3363744353
 10
10.19647109
 20
-16.363858567
 10
10.1399081332
 20
-16.3898795314
 10
10.0838199624
 20
-16.414436056
 10
10.0282081754
 20
-16.4375336193
 10
9.9731728581
 20
-16.4591378886
 10
9.9187197721
 20
-16.4792483624
 10
9.8648507553
 20
-16.4978717502
 10
9.8116604797
 20
-16.5149849336
 10
9.7591555056
 20
-16.5305886895
 10
9.7073390996
 20
-16.544690338
 10
9.6563013354
 20
-16.5572768787
 10
9.6060497953
 20
-16.5683500663
 10
9.5565887115
 20
-16.5779179886
 10
9.5080033172
 20
-16.5859773321
 10
9.4603021393
 20
-16.5925306812
 10
9.4134901706
 20
-16.5975868665
 10
9.3676473477
 20
-16.6011519947
 10
9.3227848589
 20
-16.6032296322
 10
9.2789064148
 20
-16.6038289922
 10
9.2360805711
 20
-16.6029645754
 10
9.1943188373
 20
-16.6006416638
 10
9.1536257044
 20
-16.5968689495
 10
9.1140589176
 20
-16.5916658816
 10
9.0756266982
 20
-16.5850381179
 10
9.0383377271
 20
-16.5769950613
 10
9.0022500012
 20
-16.5675614917
 10
8.9673713345
 20
-16.5567417428
 10
8.933711371
 20
-16.5445473891
 10
8.9013301151
 20
-16.53101353
 10
8.8702443535
 20
-16.5161496276
 10
8.8404546939
 20
-16.4999624824
 10
8.8119960919
 20
-16.4824826247
 10
8.7848771806
 20
-16.4637184129
 10
8.7591069601
 20
-16.4436784077
 10
8.7347202676
 20
-16.4223929646
 10
8.7117246675
 20
-16.3998681785
 10
8.6901302577
 20
-16.3761153822
 10
8.6699747863
 20
-16.3511721089
 10
8.6512692911
 20
-16.3250486557
 10
8.6340198811
 20
-16.2977521928
 10
8.6182559351
 20
-16.2693147966
 10
8.6039860842
 20
-16.2397464103
 10
8.5912184861
 20
-16.2090547544
 10
8.5799809539
 20
-16.1772679086
 10
8.5702810644
 20
-16.1443934171
 10
8.5621276675
 20
-16.1104416058
 10
8.5555495494
 20
-16.0754439771
 10
8.5505548494
 20
-16.0394070115
 10
8.5471511671
 20
-16.0023420002
 10
8.5453652831
 20
-15.9642866466
 10
8.5452041228
 20
-15.9252564399
 10
8.5466753245
 20
-15.8852530746
 10
8.5498057427
 20
-15.8442927242
 10
8.5546016278
 20
-15.8023808463
 10
8.5610709951
 20
-15.7595294291
 10
8.5692424689
 20
-15.7157637033
 10
8.5791291205
 20
-15.6710725009
 10
8.5907313695
 20
-15.6254842167
 10
8.6040567247
 20
-15.5790813728
 10
8.6191176815
 20
-15.5318633809
 10
8.6359119856
 20
-15.4838452196
 10
8.6544215865
 20
-15.4351292993
 10
8.6746418099
 20
-15.3857525054
 10
8.6965834123
 20
-15.3356883559
 10
8.7202496302
 20
-15.2849423377
  0
LWPOLYLINE
  5
3D6
100
AcDbEntity
  8
ASSI
100
AcDbPolyline
 62
250
  6
CONTINUOUS
 90
3
 70
0
 10
8.7202496302
 20
-15.2849423377
 10
8.7458396183
 20
-15.2331411534
 10
8.7732100932
 20
-15.1806734143
  0
LWPOLYLINE
  5
3D7
100
AcDbEntity
  8
ASSI
100
AcDbPolyline
 62
7
  6
CONTINUOUS
 90
47
 70
0
 10
8.8470728088
 20
-15.1507130395
 10
8.8911197712
 20
-15.0639168939
 10
8.9650572791
 20
-14.9342371858
 10
9.0497665364
 20
-14.8017783709
 10
9.1444531318
 20
-14.6673635888
 10
9.2481049145
 20
-14.5319869699
 10
9.3596012697
 20
-14.3966072966
 10
9.478038401
 20
-14.2617997495
 10
9.6026346448
 20
-14.1279575328
 10
9.732638385
 20
-13.9954221676
 10
9.8673133551
 20
-13.8645040201
 10
10.0059778248
 20
-13.735449261
 10
10.1481381592
 20
-13.6083321391
 10
10.2931786886
 20
-13.4833451931
 10
10.440507121
 20
-13.3606589759
 10
10.5897986697
 20
-13.2402313732
 10
10.7405475731
 20
-13.1221833147
 10
10.8921581642
 20
-13.0067070689
 10
11.0442545011
 20
-12.8938320852
 10
11.1964841227
 20
-12.7835860761
 10
11.3480834564
 20
-12.6762994961
 10
11.4980890401
 20
-12.5724303065
 10
11.6459783549
 20
-12.4721242772
 10
11.79109552
 20
-12.3756259714
 10
11.9323163193
 20
-12.2834870539
 10
12.0690858019
 20
-12.1958812622
 10
12.200936151
 20
-12.1129383907
 10
12.3269824903
 20
-12.03505508
 10
12.446466198
 20
-11.9625414688
 10
12.5596063006
 20
-11.8951213322
 10
12.6670269619
 20
-11.8323126996
 10
12.7686680164
 20
-11.7740643346
 10
12.8643366511
 20
-11.7204058875
 10
12.9543591307
 20
-11.671083063
 10
13.0388376536
 20
-11.625980598
 10
13.1176394871
 20
-11.5851089915
 10
13.1906548688
 20
-11.5484557477
 10
13.2579951244
 20
-11.5158878746
 10
13.3197220208
 20
-11.4872906885
 10
13.3755683663
 20
-11.46268111
 10
13.4257367925
 20
-11.4418395184
 10
13.4702441556
 20
-11.4246120319
 10
13.5083967805
 20
-11.411059083
 10
13.5404903596
 20
-11.4008085859
 10
13.5663769982
 20
-11.3936006825
 10
13.5845226907
 20
-11.3893865179
 10
13.5903493471
 20
-11.3882564977
  0
LWPOLYLINE
  5
3D8
100
AcDbEntity
  8
ASSI
100
AcDbPolyline
 62
250
  6
CONTINUOUS
 90
3
 70
0
 10
8.7732100932
 20
-15.1806734143
 10
8.8023636492
 20
-15.1275441132
 10
8.8333107926
 20
-15.0737329024
  0
LWPOLYLINE
  5
3D9
100
AcDbEntity
  8
ASSI
100
AcDbPolyline
 62
250
  6
CONTINUOUS
 90
43
 70
0
 10
8.8333107926
 20
-15.0737329024
 10
8.8660465229
 20
-15.0192706135
 10
8.9005485694
 20
-14.9642372922
 10
8.9368219384
 20
-14.9086330066
 10
8.9748635407
 20
-14.8524644049
 10
9.0146356952
 20
-14.7958177644
 10
9.0561465352
 20
-14.7386853871
 10
9.0993865147
 20
-14.6810779848
 10
9.1442877811
 20
-14.6231052527
 10
9.1908555115
 20
-14.5647597983
 10
9.2390791063
 20
-14.5060472954
 10
9.2888629565
 20
-14.4470922016
 10
9.3402085183
 20
-14.3878870204
 10
9.3931047574
 20
-14.3284323416
 10
9.4474331454
 20
-14.2688596632
 10
9.5031958953
 20
-14.2091563509
 10
9.5603773142
 20
-14.1493229641
 10
9.6188278311
 20
-14.0895055583
 10
9.6785464622
 20
-14.029690756
 10
9.7395168965
 20
-13.9698745273
 10
9.8015624637
 20
-13.9102116687
 10
9.8646830982
 20
-13.8506843817
 10
9.9288582402
 20
-13.7912880828
 10
9.993876566
 20
-13.7321922311
 10
10.0597372604
 20
-13.6733768862
 10
10.1264176353
 20
-13.6148350062
 10
10.1936699133
 20
-13.5567504664
 10
10.2614757758
 20
-13.4991154325
 10
10.329827759
 20
-13.441906781
 10
10.3984915183
 20
-13.3852814721
 10
10.4674412891
 20
-13.3292352538
 10
10.5366764033
 20
-13.273739522
 10
10.6059985303
 20
-13.2189122923
 10
10.6753888289
 20
-13.1647431131
 10
10.7448405482
 20
-13.1112097205
 10
10.8141727907
 20
-13.0584112339
 10
10.8833654639
 20
-13.0063388345
 10
10.952414651
 20
-12.9549698958
 10
11.0211636157
 20
-12.9043824825
 10
11.0895968104
 20
-12.8545659787
 10
11.1577079782
 20
-12.8055018381
 10
11.2253546403
 20
-12.7572565075
 10
11.2925220648
 20
-12.7098209504
  0
LWPOLYLINE
  5
3DA
100
AcDbEntity
  8
ASSI
100
AcDbPolyline
 62
250
  6
CONTINUOUS
 90
4
 70
0
 10
13.1184673959
 20
-12.2115454441
 10
13.0655580426
 20
-12.2999743133
 10
13.0379907462
 20
-12.3453829617
 10
13.0096728164
 20
-12.3915535621
  0
LWPOLYLINE
  5
3DB
100
AcDbEntity
  8
ASSI
100
AcDbPolyline
 62
7
  6
CONTINUOUS
 90
4
 70
0
 10
15.6404422675
 20
-5.3980208479
 10
15.6383691731
 20
-5.4013572839
 10
15.6314406087
 20
-5.4120147972
 10
15.6239480886
 20
-5.4229878459
  0
LINE
  5
3DC
100
AcDbEntity
  8
ASSI
100
AcDbLine
 62
250
  6
CONTINUOUS
 10
13.0096728164
 20
-12.3915535621
 11
12.9508885597
 21
-12.4859972727
  0
LINE
  5
3DD
100
AcDbEntity
  8
ASSI
100
AcDbLine
 62
7
  6
CONTINUOUS
 10
14.1885683467
 20
-5.6988247699
 11
14.0925625079
 21
-5.8519264858
  0
LINE
  5
3DE
100
AcDbEntity
  8
ASSI
100
AcDbLine
 62
7
  6
CONTINUOUS
 10
16.8070593684
 20
-1.5230234697
 11
15.7795203917
 21
-3.1616744239
  0
LINE
  5
3DF
100
AcDbEntity
  8
ASSI
100
AcDbLine
 62
7
  6
CONTINUOUS
 10
15.6455984377
 20
-3.3752526061
 11
15.0817846531
 21
-4.2743848227
  0
LINE
  5
3E0
100
AcDbEntity
  8
ASSI
100
AcDbLine
 62
7
  6
CONTINUOUS
 10
13.9655521388
 20
-6.0544813365
 11
13.1468831533
 21
-7.3600383607
  0
LINE
  5
3E1
100
AcDbEntity
  8
ASSI
100
AcDbLine
 62
7
  6
CONTINUOUS
 10
15.0207709171
 20
-4.3716860291
 11
14.3582409963
 21
-5.428255224
  0
LINE
  5
3E2
100
AcDbEntity
  8
ASSI
100
AcDbLine
 62
7
  6
CONTINUOUS
 10
14.2238358315
 20
-5.7220639081
 11
14.1050079294
 21
-5.9115602548
  0
LINE
  5
3E3
100
AcDbEntity
  8
ASSI
100
AcDbLine
 62
7
  6
CONTINUOUS
 10
16.8423268532
 20
-1.5462626079
 11
15.7806604628
 21
-3.2393376962
  0
LINE
  5
3E4
100
AcDbEntity
  8
ASSI
100
AcDbLine
 62
7
  6
CONTINUOUS
 10
15.6808659226
 20
-3.3984917443
 11
15.117052138
 21
-4.2976239608
  0
LINE
  5
3E5
100
AcDbEntity
  8
ASSI
100
AcDbLine
 62
7
  6
CONTINUOUS
 10
14.0095310336
 20
-6.0638281169
 11
13.1821506382
 21
-7.3832774988
  0
LINE
  5
3E6
100
AcDbEntity
  8
ASSI
100
AcDbLine
 62
7
  6
CONTINUOUS
 10
15.0560384019
 20
-4.3949251672
 11
14.3592727763
 21
-5.506091732
  0
LINE
  5
3E7
100
AcDbEntity
  8
ASSI
100
AcDbLine
 62
7
  6
CONTINUOUS
 10
14.7020371382
 20
-5.075790343
 11
15.1082608368
 21
-4.4283563233
  0
LINE
  5
3E8
100
AcDbEntity
  8
ASSI
100
AcDbLine
 62
7
  6
CONTINUOUS
 10
14.351090665
 20
-5.6351321595
 11
14.6123781049
 21
-5.2186959914
  0
LINE
  5
3E9
100
AcDbEntity
  8
ASSI
100
AcDbLine
 62
7
  6
CONTINUOUS
 10
13.1740449759
 20
-7.5111122462
 11
14.1233460356
 21
-5.9981039709
  0
LINE
  5
3EA
100
AcDbEntity
  8
ASSI
100
AcDbLine
 62
7
  6
CONTINUOUS
 10
15.7823428504
 20
-3.3539871562
 11
16.8974427379
 21
-1.5767276177
  0
LINE
  5
3EB
100
AcDbEntity
  8
ASSI
100
AcDbLine
 62
7
  6
CONTINUOUS
 10
15.1692439116
 20
-4.3311542701
 11
15.682537708
 21
-3.5130567152
  0
LINE
  5
3EC
100
AcDbEntity
  8
ASSI
100
AcDbLine
 62
250
  6
CONTINUOUS
 10
12.9508885597
 20
-12.4859972727
 11
12.8894152659
 21
-12.5829480092
  0
LINE
  5
3ED
100
AcDbEntity
  8
ASSI
100
AcDbLine
 62
250
  6
CONTINUOUS
 10
12.8894152659
 20
-12.5829480092
 11
12.8254319704
 21
-12.6820362921
  0
LINE
  5
3EE
100
AcDbEntity
  8
ASSI
100
AcDbLine
 62
250
  6
CONTINUOUS
 10
12.8254319704
 20
-12.6820362921
 11
12.75905954
 21
-12.782987492
  0
LINE
  5
3EF
100
AcDbEntity
  8
ASSI
100
AcDbLine
 62
250
  6
CONTINUOUS
 10
12.75905954
 20
-12.782987492
 11
12.6903575551
 21
-12.8856208356
  0
LWPOLYLINE
  5
3F0
100
AcDbEntity
  8
ASSI
100
AcDbPolyline
 62
250
  6
CONTINUOUS
 90
90
 70
0
 10
12.6903575551
 20
-12.8856208356
 10
12.619336736
 20
-12.9898100566
 10
12.5829752045
 20
-13.0424235363
 10
12.5460561221
 20
-13.095345481
 10
12.5085942656
 20
-13.1485419622
 10
12.4705994865
 20
-13.2019833275
 10
12.4320675987
 20
-13.255652898
 10
12.3930131737
 20
-13.3095171987
 10
12.3534470137
 20
-13.3635468197
 10
12.3133576964
 20
-13.4177312411
 10
12.2727566549
 20
-13.472041097
 10
12.2316578305
 20
-13.526443127
 10
12.1900520007
 20
-13.5809207703
 10
12.1479489685
 20
-13.6354474846
 10
12.1053650895
 20
-13.6899870794
 10
12.0623004538
 20
-13.7445083122
 10
12.0187729797
 20
-13.7989757728
 10
11.9747934834
 20
-13.8533623775
 10
11.930351
 20
-13.9076490212
 10
11.8854603998
 20
-13.9618039717
 10
11.8401365733
 20
-14.015796058
 10
11.7943676474
 20
-14.0696062466
 10
11.7481599296
 20
-14.1232134892
 10
11.7015378773
 20
-14.1765750248
 10
11.6545173185
 20
-14.2296392182
 10
11.607120388
 20
-14.2823702311
 10
11.559360138
 20
-14.3347417012
 10
11.5112399466
 20
-14.3867167318
 10
11.4627802762
 20
-14.4382624478
 10
11.4139983571
 20
-14.4893502933
 10
11.3648930505
 20
-14.5399497157
 10
11.3154812502
 20
-14.5900325643
 10
11.2657857532
 20
-14.6395659278
 10
11.2158146773
 20
-14.688512094
 10
11.1655867046
 20
-14.7368430559
 10
11.1151254719
 20
-14.784527188
 10
11.0644473672
 20
-14.8315220954
 10
11.0135745908
 20
-14.8777988568
 10
10.9625300782
 20
-14.9233293403
 10
10.9113322429
 20
-14.9680735524
 10
10.8600041886
 20
-15.012004083
 10
10.8085703635
 20
-15.0550942692
 10
10.7570519901
 20
-15.0973066286
 10
10.705472977
 20
-15.1386154836
 10
10.6538590322
 20
-15.1789959339
 10
10.6022347474
 20
-15.2184132744
 10
10.5506243672
 20
-15.2568440805
 10
10.4990549474
 20
-15.2942652241
 10
10.447555846
 20
-15.3306443937
 10
10.3961525677
 20
-15.3659600033
 10
10.3448721967
 20
-15.4001918868
 10
10.2937468517
 20
-15.433312111
 10
10.2428023912
 20
-15.4653016412
 10
10.1920663234
 20
-15.4961429618
 10
10.14157344
 20
-15.5258128237
 10
10.0913497758
 20
-15.5542949331
 10
10.041422924
 20
-15.5815746176
 10
9.9918300141
 20
-15.6076336001
 10
9.9425970206
 20
-15.6324585139
 10
9.8937513361
 20
-15.6560376456
 10
9.8453320187
 20
-15.6783578379
 10
9.7973647504
 20
-15.6994087958
 10
9.7498764377
 20
-15.7191818448
 10
9.702907582
 20
-15.7376689672
 10
9.6564839323
 20
-15.7548628146
 10
9.6106310375
 20
-15.7707580617
 10
9.5653885504
 20
-15.7853523053
 10
9.5207810548
 20
-15.7986414059
 10
9.476833583
 20
-15.8106227841
 10
9.4335857942
 20
-15.8212987459
 10
9.3910612452
 20
-15.8306682141
 10
9.3492839363
 20
-15.8387314074
 10
9.3082934008
 20
-15.8454948788
 10
9.2681120683
 20
-15.8509605629
 10
9.2287626481
 20
-15.8551314484
 10
9.1902841673
 20
-15.8580179624
 10
9.1526994447
 20
-15.8596249233
 10
9.1160279783
 20
-15.8599582836
 10
9.0803029751
 20
-15.8590318893
 10
9.0455460815
 20
-15.8568529615
 10
9.0117753429
 20
-15.8534295058
 10
8.9790181556
 20
-15.8487770047
 10
8.9472922122
 20
-15.8429038343
 10
8.9166174979
 20
-15.8358195552
 10
8.8870244907
 20
-15.8275417301
 10
8.8585287902
 20
-15.8180803133
 10
8.8311499198
 20
-15.8074470375
 10
8.8049230511
 20
-15.7956640444
 10
8.7798693881
 20
-15.7827479587
 10
8.7715856944
 20
-15.7780806612
  0
LINE
  5
3F1
100
AcDbEntity
  8
ASSI
100
AcDbLine
 62
7
  6
CONTINUOUS
 10
15.6239480886
 20
-5.4229878459
 11
15.6158809423
 21
-5.4342859693
  0
LINE
  5
3F2
100
AcDbEntity
  8
ASSI
100
AcDbLine
 62
7
  6
CONTINUOUS
 10
15.6158809423
 20
-5.4342859693
 11
15.6065270916
 21
-5.446832167
  0
LWPOLYLINE
  5
3F3
100
AcDbEntity
  8
ASSI
100
AcDbPolyline
 62
7
  6
CONTINUOUS
 90
25
 70
0
 10
15.5941798373
 20
-5.641436476
 10
15.611535979
 20
-5.6228660756
 10
15.628000151
 20
-5.6047145666
 10
15.643572353
 20
-5.5869819491
 10
15.6582179871
 20
-5.5696705382
 10
15.6719716513
 20
-5.5527780187
 10
15.6849371401
 20
-5.5362974452
 10
15.6971004044
 20
-5.5202537143
 10
15.7084754933
 20
-5.5046219294
 10
15.7192083484
 20
-5.4893204544
 10
15.7293163301
 20
-5.4743374087
 10
15.7387820779
 20
-5.459684673
 10
15.7476994523
 20
-5.4453162533
 10
15.7560687371
 20
-5.4312443754
 10
15.7638896483
 20
-5.4174568135
 10
15.7712551945
 20
-5.4038708967
 10
15.7782044273
 20
-5.39040309
 10
15.784698295
 20
-5.3771369284
 10
15.7907126508
 20
-5.3642403457
 10
15.7962347444
 20
-5.3517240438
 10
15.801277326
 20
-5.3395773209
 10
15.8058544993
 20
-5.3279360055
 10
15.8099709655
 20
-5.3168453739
 10
15.8136220235
 20
-5.3062601499
 10
15.8168076731
 20
-5.2961803334
  0
LINE
  5
3F4
100
AcDbEntity
  8
ASSI
100
AcDbLine
 62
250
  6
CONTINUOUS
 10
11.2925220648
 20
-12.7098209504
 11
11.4252788701
 21
-12.6173822362
  0
LINE
  5
3F5
100
AcDbEntity
  8
ASSI
100
AcDbLine
 62
250
  6
CONTINUOUS
 10
11.4252788701
 20
-12.6173822362
 11
11.5555440644
 21
-12.5282991984
  0
LINE
  5
3F6
100
AcDbEntity
  8
ASSI
100
AcDbLine
 62
250
  6
CONTINUOUS
 10
11.5555440644
 20
-12.5282991984
 11
11.6829744313
 21
-12.4426280522
  0
LINE
  5
3F7
100
AcDbEntity
  8
ASSI
100
AcDbLine
 62
250
  6
CONTINUOUS
 10
11.6829744313
 20
-12.4426280522
 11
11.8073794544
 21
-12.3603525175
  0
LWPOLYLINE
  5
3F8
100
AcDbEntity
  8
ASSI
100
AcDbPolyline
 62
250
  6
CONTINUOUS
 90
25
 70
0
 10
19.1568533897
 20
-7.9532185506
 10
19.1750960162
 20
-7.9412641404
 10
19.1927656595
 20
-7.9283769601
 10
19.209847459
 20
-7.9145678445
 10
19.2263270358
 20
-7.8998484079
 10
19.2421904787
 20
-7.8842310654
 10
19.2574243896
 20
-7.8677290032
 10
19.2720159217
 20
-7.8503561392
 10
19.2859527883
 20
-7.8321271033
 10
19.2992232465
 20
-7.8130572549
 10
19.311816114
 20
-7.793162662
 10
19.323720777
 20
-7.7724600916
 10
19.3349272017
 20
-7.7509669924
 10
19.3454259443
 20
-7.7287014768
 10
19.3552081573
 20
-7.7056823085
 10
19.3642655957
 20
-7.6819288898
 10
19.3725906262
 20
-7.6574612412
 10
19.3801762345
 20
-7.6322999797
 10
19.3870160296
 20
-7.6064663048
 10
19.3931042544
 20
-7.5799819555
 10
19.3984357695
 20
-7.5528692805
 10
19.4030060681
 20
-7.5251512221
 10
19.4068113025
 20
-7.4968511765
 10
19.4098482795
 20
-7.4679929674
 10
19.4121144474
 20
-7.4386009187
  0
LINE
  5
3F9
100
AcDbEntity
  8
ASSI
100
AcDbLine
 62
250
  6
CONTINUOUS
 10
11.8073794544
 20
-12.3603525175
 11
11.9285816111
 21
-12.2814458196
  0
LINE
  5
3FA
100
AcDbEntity
  8
ASSI
100
AcDbLine
 62
250
  6
CONTINUOUS
 10
11.9285816111
 20
-12.2814458196
 11
12.0465191993
 21
-12.2058228866
  0
LINE
  5
3FB
100
AcDbEntity
  8
ASSI
100
AcDbLine
 62
250
  6
CONTINUOUS
 10
12.0465191993
 20
-12.2058228866
 11
12.1611657396
 21
-12.1334057726
  0
LINE
  5
3FC
100
AcDbEntity
  8
ASSI
100
AcDbLine
 62
250
  6
CONTINUOUS
 10
12.1611657396
 20
-12.1334057726
 11
12.2725396883
 21
-12.0640892457
  0
LINE
  5
3FD
100
AcDbEntity
  8
ASSI
100
AcDbLine
 62
250
  6
CONTINUOUS
 10
12.2725396883
 20
-12.0640892457
 11
12.3807701075
 21
-11.9977214983
  0
LINE
  5
3FE
100
AcDbEntity
  8
ASSI
100
AcDbLine
 62
250
  6
CONTINUOUS
 10
12.3807701075
 20
-11.9977214983
 11
12.4859321289
 21
-11.9342072306
  0
LWPOLYLINE
  5
3FF
100
AcDbEntity
  8
ASSI
100
AcDbPolyline
 62
250
  6
CONTINUOUS
 90
26
 70
0
 10
9.7065777636
 20
-13.4099353496
 10
9.7182400746
 20
-13.4029555779
 10
9.7364827616
 20
-13.3910011136
 10
9.754152461
 20
-13.3781138725
 10
9.7712342824
 20
-13.3643047148
 10
9.7877138308
 20
-13.3495852777
 10
9.8035772189
 20
-13.3339679652
 10
9.8188110783
 20
-13.3174659382
 10
9.8334025715
 20
-13.3000931031
 10
9.847339402
 20
-13.2818641001
 10
9.8606098251
 20
-13.262794291
 10
9.8732026579
 20
-13.2428997459
 10
9.8851072882
 20
-13.2221972303
 10
9.8963136839
 20
-13.2007041902
 10
9.9068124012
 20
-13.178438738
 10
9.9165945929
 20
-13.155419637
 10
9.9256520153
 20
-13.1316662855
 10
9.9339770358
 20
-13.1071987007
 10
9.9415626388
 20
-13.0820375016
 10
9.9484024318
 20
-13.0562038918
 10
9.9544906509
 20
-13.0297196413
 10
9.9598221655
 20
-13.0026070687
 10
9.9643924827
 20
-12.974889022
 10
9.9681977511
 20
-12.9465888594
 10
9.9712347638
 20
-12.9177304295
 10
9.9735009617
 20
-12.8883380518
  0
LINE
  5
400
100
AcDbEntity
  8
ASSI
100
AcDbLine
 62
250
  6
CONTINUOUS
 10
19.1451912492
 20
-7.9601982166
 11
19.1568533897
 21
-7.9532185506
  0
LINE
  5
401
100
AcDbEntity
  8
ASSI
100
AcDbLine
 62
250
  6
CONTINUOUS
 10
12.4859321289
 20
-11.9342072306
 11
12.5881648676
 21
-11.873418605
  0
LWPOLYLINE
  5
402
100
AcDbEntity
  8
ASSI
100
AcDbPolyline
 62
250
  6
CONTINUOUS
 90
25
 70
0
 10
9.9735009617
 20
-12.8883380518
 10
9.9488178662
 20
-12.9027989788
 10
9.923521448
 20
-12.9168178433
 10
9.8976241164
 20
-12.9303896976
 10
9.8711320895
 20
-12.9435140345
 10
9.844063348
 20
-12.9561809109
 10
9.8164491301
 20
-12.9683725259
 10
9.7883034068
 20
-12.9800856387
 10
9.75963906
 20
-12.9913157716
 10
9.7304881801
 20
-13.0020459321
 10
9.7008661844
 20
-13.0122740579
 10
9.6707870641
 20
-13.0219968953
 10
9.6402831322
 20
-13.0311981518
 10
9.6093712191
 20
-13.0398768781
 10
9.5780666314
 20
-13.0480311411
 10
9.5464016162
 20
-13.0556454632
 10
9.5143945941
 20
-13.0627201217
 10
9.4820621146
 20
-13.0692545192
 10
9.4494356667
 20
-13.0752339385
 10
9.4165351037
 20
-13.080659877
 10
9.3833783596
 20
-13.0855331789
 10
9.3499958924
 20
-13.0898399746
 10
9.3164116505
 20
-13.0935776327
 10
9.2826422967
 20
-13.0967540274
 10
9.2487083898
 20
-13.0993721434
  0
LWPOLYLINE
  5
403
100
AcDbEntity
  8
ASSI
100
AcDbPolyline
 62
250
  6
CONTINUOUS
 90
34
 70
0
 10
8.2526783401
 20
-14.1991394329
 10
8.0141086101
 20
-14.3383714501
 10
7.7981019628
 20
-14.4670775629
 10
7.5865289847
 20
-14.595688427
 10
7.3793813761
 20
-14.7241631713
 10
7.1766506528
 20
-14.8524614286
 10
6.9780914349
 20
-14.9806886974
 10
6.7836769135
 20
-15.1088208126
 10
6.5934189866
 20
-15.2368090393
 10
6.4071331417
 20
-15.3647277114
 10
6.2247930041
 20
-15.4925560637
 10
6.0464105644
 20
-15.6202473072
 10
5.8718601299
 20
-15.7478397654
 10
5.7011310471
 20
-15.875302644
 10
5.5342183575
 20
-16.0026014191
 10
5.3710052741
 20
-16.1297703309
 10
5.2114888254
 20
-16.2567731333
 10
5.0556552265
 20
-16.3835828859
 10
4.9033722357
 20
-16.5102497549
 10
4.75463209
 20
-16.6367427702
 10
4.6094258601
 20
-16.7630332545
 10
4.4676209962
 20
-16.8891775695
 10
4.3292027894
 20
-17.0151531734
 10
4.1941699275
 20
-17.1409269378
 10
4.0624113271
 20
-17.2665418617
 10
3.9339135248
 20
-17.3919762406
 10
3.8086740516
 20
-17.5171989981
 10
3.6865991277
 20
-17.6422407617
 10
3.5676814212
 20
-17.767074759
 10
3.4519118713
 20
-17.8916769726
 10
3.3391948014
 20
-18.0160836157
 10
3.2294931256
 20
-18.140290937
 10
3.1228277265
 20
-18.2642544834
 10
3.0191901835
 20
-18.3879503455
  0
LINE
  5
404
100
AcDbEntity
  8
ASSI
100
AcDbLine
 62
250
  6
CONTINUOUS
 10
12.5881648676
 20
-11.873418605
 11
12.6875565321
 21
-11.8152808153
  0
LINE
  5
405
100
AcDbEntity
  8
ASSI
100
AcDbLine
 62
250
  6
CONTINUOUS
 10
19.4121143387
 20
-7.4386009815
 11
9.9735010703
 21
-12.8883379891
  0
LINE
  5
406
100
AcDbEntity
  8
ASSI
100
AcDbLine
 62
7
  6
CONTINUOUS
 10
19.1451912492
 20
-7.9601982166
 11
9.7065777636
 21
-13.4099353496
  0
LWPOLYLINE
  5
407
100
AcDbEntity
  8
ASSI
100
AcDbPolyline
 62
7
  6
CONTINUOUS
 90
6
 70
0
 10
8.252695295
 20
-14.1991293296
 10
8.3793418958
 20
-14.1264360462
 10
8.6993631944
 20
-13.946475674
 10
9.0289772211
 20
-13.7664316974
 10
9.3681905264
 20
-13.5864377701
 10
9.6481070122
 20
-13.4417282214
  0
LINE
  5
408
100
AcDbEntity
  8
ASSI
100
AcDbLine
 62
250
  6
CONTINUOUS
 10
12.6875565321
 20
-11.8152808153
 11
12.7841581609
 21
-11.7597545993
  0
LWPOLYLINE
  5
409
100
AcDbEntity
  8
ASSI
100
AcDbPolyline
 62
250
  6
CONTINUOUS
 90
25
 70
0
 10
19.4121144474
 20
-7.4386009187
 10
19.4360669132
 20
-7.4249784908
 10
19.4593606842
 20
-7.4109426086
 10
19.4819794532
 20
-7.3965030981
 10
19.5039073856
 20
-7.381670068
 10
19.5251291306
 20
-7.3664539023
 10
19.5456298315
 20
-7.3508652533
 10
19.5653951366
 20
-7.3349150341
 10
19.5844112088
 20
-7.3186144107
 10
19.6026647358
 20
-7.3019747947
 10
19.6201429388
 20
-7.2850078349
 10
19.6368335821
 20
-7.2677254092
 10
19.652724981
 20
-7.2501396165
 10
19.6678060107
 20
-7.2322627678
 10
19.6820661135
 20
-7.2141073781
 10
19.6954953062
 20
-7.1956861574
 10
19.7080841878
 20
-7.1770120017
 10
19.7198239451
 20
-7.1580979841
 10
19.7307063596
 20
-7.1389573455
 10
19.7407238129
 20
-7.1196034858
 10
19.7498692921
 20
-7.1000499537
 10
19.7581363949
 20
-7.080310438
 10
19.7655193336
 20
-7.0603987577
 10
19.7720129399
 20
-7.0403288521
 10
19.7776126677
 20
-7.0201147715
  0
LWPOLYLINE
  5
40A
100
AcDbEntity
  8
ASSI
100
AcDbPolyline
 62
250
  6
CONTINUOUS
 90
17
 70
0
 10
12.7841581609
 20
-11.7597545993
 10
12.8780326748
 20
-11.7068045801
 10
12.9239618422
 20
-11.6812945266
 10
12.9692278214
 20
-11.6564251924
 10
13.0138292575
 20
-11.6322013373
 10
13.0577743944
 20
-11.6086288722
 10
13.1010723267
 20
-11.585705287
 10
13.1437180855
 20
-11.5634390691
 10
13.1856993952
 20
-11.5418534537
 10
13.2270304773
 20
-11.5209456162
 10
13.2677032339
 20
-11.5007272056
 10
13.307672638
 20
-11.4812442026
 10
13.3469517164
 20
-11.4624972604
 10
13.3855358535
 20
-11.4444977607
 10
13.4233544298
 20
-11.4273090012
 10
13.4604199595
 20
-11.4109350021
 10
13.4967309148
 20
-11.395387321
  0
LWPOLYLINE
  5
40B
100
AcDbEntity
  8
ASSI
100
AcDbPolyline
 62
250
  6
CONTINUOUS
 90
40
 70
0
 10
9.248705276
 20
-13.0994313474
 10
8.9862023329
 20
-13.2340867027
 10
8.7288973281
 20
-13.3687012596
 10
8.4767942982
 20
-13.5032908436
 10
8.2299877902
 20
-13.6378939432
 10
7.9883908068
 20
-13.7725029415
 10
7.7517346192
 20
-13.9070632559
 10
7.5200279807
 20
-14.0415759547
 10
7.2932682785
 20
-14.1760673091
 10
7.0711691843
 20
-14.3105185676
 10
6.8537311796
 20
-14.4449345658
 10
6.6409587749
 20
-14.5793346279
 10
6.4325712324
 20
-14.7137198736
 10
6.2285472267
 20
-14.8481086952
 10
6.0289121223
 20
-14.9825039707
 10
5.8334548555
 20
-15.1168820031
 10
5.6421562964
 20
-15.2512624063
 10
5.4550388353
 20
-15.3856445558
 10
5.2719534006
 20
-15.5199732588
 10
5.0928994855
 20
-15.6542558227
 10
4.9178801996
 20
-15.7885021115
 10
4.7467516564
 20
-15.9226598516
 10
4.579520314
 20
-16.056729015
 10
4.4161817505
 20
-16.1907251096
 10
4.2565755594
 20
-16.3246182923
 10
4.100701528
 20
-16.4584116782
 10
3.9485614248
 20
-16.5921159816
 10
3.7999976523
 20
-16.725711921
 10
3.6550023391
 20
-16.8592090696
 10
3.5135845096
 20
-16.9926101698
 10
3.3756117773
 20
-17.1258849657
 10
3.2410799187
 20
-17.2590402809
 10
3.1099939663
 20
-17.3920803038
 10
2.9822353072
 20
-17.5249702128
 10
2.8578099031
 20
-17.657706035
 10
2.736712306
 20
-17.7903015922
 10
2.6188067022
 20
-17.9227481841
 10
2.5040479079
 20
-18.0550457283
 10
2.3924813801
 20
-18.1872029756
 10
2.2841072052
 20
-18.3192241026
  0
LWPOLYLINE
  5
40C
100
AcDbEntity
  8
ASSI
100
AcDbPolyline
 62
250
  6
CONTINUOUS
 90
32
 70
0
 10
9.6481429224
 20
-13.441709981
 10
9.6412110635
 20
-13.4446331026
 10
9.6338803425
 20
-13.446544974
 10
9.6260970644
 20
-13.4474753398
 10
9.6178137997
 20
-13.4474495886
 10
9.6090616605
 20
-13.4464559228
 10
9.5998762268
 20
-13.4444823399
 10
9.5902136715
 20
-13.4415538353
 10
9.5801055401
 20
-13.4376621513
 10
9.5695870371
 20
-13.4327992131
 10
9.5586173618
 20
-13.4269899903
 10
9.5472287841
 20
-13.4202295272
 10
9.5354563269
 20
-13.4125134604
 10
9.5232614986
 20
-13.40386712
 10
9.5106775911
 20
-13.3942886041
 10
9.4977397031
 20
-13.3837770082
 10
9.4844108567
 20
-13.3723583878
 10
9.4707256767
 20
-13.3600336445
 10
9.4567196235
 20
-13.3468050676
 10
9.4423563857
 20
-13.3326997596
 10
9.4276722315
 20
-13.3177211735
 10
9.412703286
 20
-13.3018745253
 10
9.3974130299
 20
-13.2851882379
 10
9.3818396736
 20
-13.2676680558
 10
9.3660203155
 20
-13.2493218599
 10
9.3499173631
 20
-13.2301796299
 10
9.3335712472
 20
-13.2102491403
 10
9.317020335
 20
-13.189540671
 10
9.3002251157
 20
-13.1680859413
 10
9.2832001994
 20
-13.1459018675
 10
9.2660139
 20
-13.1229929446
 10
9.2487083898
 20
-13.0993721434
  0
LWPOLYLINE
  5
40D
100
AcDbEntity
  8
ASSI
100
AcDbPolyline
 62
250
  6
CONTINUOUS
 90
53
 70
0
 10
13.4967309148
 20
-11.395387321
 10
13.5321965864
 20
-11.3807419064
 10
13.5668313817
 20
-11.3670056534
 10
13.6006346924
 20
-11.3541910175
 10
13.6334942338
 20
-11.3423835636
 10
13.6654184824
 20
-11.3315959394
 10
13.6964155558
 20
-11.3218384587
 10
13.7263734287
 20
-11.3131942087
 10
13.7552998316
 20
-11.3056786301
 10
13.7832063321
 20
-11.2993025684
 10
13.8099872566
 20
-11.2941429162
 10
13.8356510788
 20
-11.2902169739
 10
13.860211135
 20
-11.2875366112
 10
13.8835693693
 20
-11.2861708537
 10
13.9057356845
 20
-11.2861388872
 10
13.9267241921
 20
-11.2874529781
 10
13.9464430444
 20
-11.2901714274
 10
13.9649010738
 20
-11.2943153113
 10
13.9821150423
 20
-11.2998962721
 10
13.9980042891
 20
-11.3069572755
 10
14.0125772892
 20
-11.3155223226
 10
14.025851994
 20
-11.3256002602
 10
14.0377603287
 20
-11.3372089071
 10
14.0483062395
 20
-11.3503735154
 10
14.0575115702
 20
-11.3650998008
 10
14.0653322454
 20
-11.3813722985
 10
14.0717687625
 20
-11.399210878
 10
14.0768441273
 20
-11.418622652
 10
14.0805443751
 20
-11.4395680799
 10
14.0828709104
 20
-11.4620626637
 10
14.0838429408
 20
-11.4861132666
 10
14.0834692963
 20
-11.5116622315
 10
14.0817513622
 20
-11.53872225
 10
14.0787050523
 20
-11.5672980435
 10
14.0743568923
 20
-11.5973147341
 10
14.0687076338
 20
-11.6287804869
 10
14.0617700184
 20
-11.661699228
 10
14.053584373
 20
-11.6959844882
 10
14.0441500496
 20
-11.7316424394
 10
14.0334772788
 20
-11.7686738212
 10
14.0216185129
 20
-11.8069789167
 10
14.008572212
 20
-11.8465589993
 10
13.9943453313
 20
-11.8874145056
 10
13.9789989675
 20
-11.9294396186
 10
13.9625320618
 20
-11.9726295759
 10
13.9449470754
 20
-12.0169861144
 10
13.9263067442
 20
-12.0624089837
 10
13.9066078162
 20
-12.1088949962
 10
13.8858516414
 20
-12.1564406404
 10
13.8641046343
 20
-12.2049415888
 10
13.8413865491
 20
-12.2543589592
 10
13.8176722104
 20
-12.3047212424
 10
13.792959063
 20
-12.3560234872
  0
LWPOLYLINE
  5
40E
100
AcDbEntity
  8
ASSI
100
AcDbPolyline
 62
250
  6
CONTINUOUS
 90
23
 70
0
 10
-19.9396547797
 20
31.8845150299
 10
-19.9527277427
 20
31.891784026
 10
-19.9657828261
 20
31.8984847428
 10
-19.9788021746
 20
31.9046080157
 10
-19.9917679818
 20
31.91014547
 10
-20.0046625146
 20
31.9150895323
 10
-20.0174681372
 20
31.9194334404
 10
-20.0301673356
 20
31.9231712534
 10
-20.0427427413
 20
31.9262978591
 10
-20.055177155
 20
31.9288089813
 10
-20.0674535703
 20
31.9307011854
 10
-20.0795551971
 20
31.9319718836
 10
-20.0914654839
 20
31.9326193379
 10
-20.1031681413
 20
31.9326426628
 10
-20.1146471638
 20
31.9320418264
 10
-20.1258868515
 20
31.9308176504
 10
-20.1368718322
 20
31.9289718092
 10
-20.1475870817
 20
31.9265068272
 10
-20.1580179451
 20
31.9234260757
 10
-20.168150156
 20
31.9197337683
 10
-20.177969857
 20
31.9154349548
 10
-20.1874636175
 20
31.9105355148
 10
-20.1896668598
 20
31.9092856187
  0
LINE
  5
40F
100
AcDbEntity
  8
0
100
AcDbLine
 62
7
  6
CONTINUOUS
 10
20.3701158566
 20
5.8184274276
 11
20.4020527371
 21
5.7999874731
  0
LINE
  5
410
100
AcDbEntity
  8
0
100
AcDbLine
 62
7
  6
CONTINUOUS
 10
20.4574901162
 20
5.86887623
 11
20.5100472418
 21
5.8385304044
  0
LINE
  5
411
100
AcDbEntity
  8
ASSI
100
AcDbLine
 62
7
  6
CONTINUOUS
 10
20.6106165107
 20
6.3755350803
 11
20.5767155654
 21
6.3951090612
  0
LWPOLYLINE
  5
412
100
AcDbEntity
  8
ASSI
100
AcDbPolyline
 62
250
  6
CONTINUOUS
 90
43
 70
0
 10
10.0659290284
 20
14.5596669974
 10
10.0790019928
 20
14.5518396627
 10
10.0920570774
 20
14.5434646955
 10
10.1050764271
 20
14.5345535502
 10
10.1180422354
 20
14.5251184144
 10
10.1309367692
 20
14.5151721924
 10
10.1437423927
 20
14.5047284875
 10
10.1564415919
 20
14.4938015835
 10
10.1690169983
 20
14.4824064249
 10
10.1814514126
 20
14.4705585968
 10
10.1937278284
 20
14.4582743033
 10
10.2058294556
 20
14.4455703454
 10
10.2177397427
 20
14.4324640981
 10
10.2294424004
 20
14.4189734868
 10
10.2409214229
 20
14.4051169623
 10
10.2521611107
 20
14.390913476
 10
10.2631460913
 20
14.3763824539
 10
10.2738613407
 20
14.3615437698
 10
10.2842922038
 20
14.3464177184
 10
10.2944244145
 20
14.3310249874
 10
10.3042441151
 20
14.3153866293
 10
10.3137378753
 20
14.2995240324
 10
10.3228927106
 20
14.2834588918
 10
10.3316961
 20
14.2672131795
 10
10.3401360033
 20
14.2508091147
 10
10.3482008773
 20
14.2342691329
 10
10.3558796919
 20
14.2176158556
 10
10.3631619447
 20
14.2008720594
 10
10.370037676
 20
14.1840606444
 10
10.376497482
 20
14.1672046035
 10
10.3825325275
 20
14.1503269904
 10
10.3881345586
 20
14.1334508885
 10
10.3932959134
 20
14.1165993788
 10
10.3980095329
 20
14.0997955091
 10
10.4022689702
 20
14.0830622618
 10
10.4060683999
 20
14.0664225226
 10
10.4094026254
 20
14.0498990496
 10
10.4122670865
 20
14.0335144417
 10
10.4146578657
 20
14.0172911079
 10
10.4165716931
 20
14.0012512366
 10
10.418005951
 20
13.9854167654
 10
10.4189586781
 20
13.9698093508
 10
10.4194285711
 20
13.954450339
  0
LWPOLYLINE
  5
413
100
AcDbEntity
  8
ASSI
100
AcDbPolyline
 62
250
  6
CONTINUOUS
 90
10
 70
0
 10
9.4710677384
 20
18.1104318616
 10
9.4776313058
 20
18.0918095889
 10
9.488104815
 20
18.057884876
 10
9.4971441439
 20
18.0238225215
 10
9.50474384
 20
17.9896429173
 10
9.5108992954
 20
17.9553667843
 10
9.5156068901
 20
17.9210144152
 10
9.5188638479
 20
17.8866062451
 10
9.5206682448
 20
17.8521632814
 10
9.5210677384
 20
17.8266184759
  0
LINE
  5
414
100
AcDbEntity
  8
ASSI
100
AcDbLine
 62
7
  6
CONTINUOUS
 10
21.9998213335
 20
12.4887030237
 11
21.9974954205
 21
12.5942906016
  0
LINE
  5
415
100
AcDbEntity
  8
ASSI
100
AcDbLine
 62
7
  6
CONTINUOUS
 10
21.7154209896
 20
25.8262440878
 11
21.9983238026
 21
12.5943173621
  0
LINE
  5
416
100
AcDbEntity
  8
ASSI
100
AcDbLine
 62
250
  6
CONTINUOUS
 10
21.8897563763
 20
11.1674563124
 11
21.608249762
 21
24.4177327545
  0
LINE
  5
417
100
AcDbEntity
  8
0
100
AcDbLine
 62
250
  6
CONTINUOUS
 10
20.5359254261
 20
7.4936364754
 11
20.2931541754
 21
19.6554157561
  0
LINE
  5
418
100
AcDbEntity
  8
ASSI
100
AcDbLine
 62
250
  6
CONTINUOUS
 10
20.9247010049
 20
6.7613318211
 11
20.659103747
 21
20.0733372639
  0
LINE
  5
419
100
AcDbEntity
  8
0
100
AcDbLine
 62
7
  6
CONTINUOUS
 10
20.6106165107
 20
6.3755350803
 11
20.6099875413
 21
6.4168964309
  0
LINE
  5
41A
100
AcDbEntity
  8
0
100
AcDbLine
 62
7
  6
CONTINUOUS
 10
20.5414487117
 20
6.334029014
 11
20.5408316759
 21
6.375202579
  0
LINE
  5
41B
100
AcDbEntity
  8
0
100
AcDbLine
 62
7
  6
CONTINUOUS
 10
20.611542354
 20
6.4160300383
 11
20.5948823889
 21
7.5277162913
  0
LINE
  5
41C
100
AcDbEntity
  8
ASSI
100
AcDbLine
 62
7
  6
CONTINUOUS
 10
21.9983239846
 20
12.5943088535
 11
21.9999943459
 21
12.4456648972
  0
LWPOLYLINE
  5
41D
100
AcDbEntity
  8
ASSI
100
AcDbPolyline
 62
7
  6
CONTINUOUS
 90
28
 70
0
 10
21.9950438634
 20
11.3819604204
 10
21.9947448662
 20
11.4132532982
 10
21.9940534644
 20
11.4399928073
 10
21.9930423728
 20
11.462964133
 10
21.9917187147
 20
11.482204742
 10
21.990079457
 20
11.4976778542
 10
21.988182024
 20
11.5100571557
 10
21.9860327253
 20
11.5193904149
 10
21.9836288823
 20
11.5256303846
 10
21.9810141301
 20
11.5293081221
 10
21.9781933496
 20
11.5304624219
 10
21.9751648226
 20
11.5290548865
 10
21.9719619658
 20
11.525500706
 10
21.9685897368
 20
11.5198337281
 10
21.9650459499
 20
11.5120204094
 10
21.9613529545
 20
11.5023747969
 10
21.957515223
 20
11.4909297838
 10
21.9535305681
 20
11.4776527142
 10
21.9494109195
 20
11.4627592735
 10
21.945159623
 20
11.4462776643
 10
21.9407750924
 20
11.4281798783
 10
21.9362614093
 20
11.4085972629
 10
21.9316213081
 20
11.3875541979
 10
21.9268533382
 20
11.3650264739
 10
21.921954873
 20
11.3410725468
 10
21.9169282112
 20
11.3157143234
 10
21.9117718993
 20
11.2889300586
 10
21.9010414863
 20
11.2310600665
  0
LWPOLYLINE
  5
41E
100
AcDbEntity
  8
ASSI
100
AcDbPolyline
 62
250
  6
CONTINUOUS
 90
4
 70
0
 10
20.2220670819
 20
-7.758849332
 10
20.2225275962
 20
-7.8246197542
 10
20.2225620319
 20
-7.8923389338
 10
20.2221776223
 20
-7.9620069208
  0
LINE
  5
41F
100
AcDbEntity
  8
ASSI
100
AcDbLine
 62
7
  6
CONTINUOUS
 10
21.9999999263
 20
12.4374697695
 11
21.9998213335
 21
12.4887030237
  0
LINE
  5
420
100
AcDbEntity
  8
ASSI
100
AcDbLine
 62
7
  6
CONTINUOUS
 10
21.9949052342
 20
11.3398095895
 11
21.9999999264
 21
12.4374878356
  0
LINE
  5
421
100
AcDbEntity
  8
ASSI
100
AcDbLine
 62
7
  6
CONTINUOUS
 10
21.9999943459
 20
12.4456648972
 11
21.9979182585
 21
12.2627813767
  0
LWPOLYLINE
  5
422
100
AcDbEntity
  8
ASSI
100
AcDbPolyline
 62
7
  6
CONTINUOUS
 90
5
 70
0
 10
21.9901202016
 20
11.152236767
 10
21.9920496231
 20
11.2088086615
 10
21.9934958355
 20
11.2599723052
 10
21.9944638062
 20
11.3057578805
 10
21.9949006977
 20
11.3397707237
  0
LINE
  5
423
100
AcDbEntity
  8
ASSI
100
AcDbLine
 62
7
  6
CONTINUOUS
 10
21.9896305713
 20
12.0476179994
 11
21.9980416357
 21
12.268168208
  0
LINE
  5
424
100
AcDbEntity
  8
ASSI
100
AcDbLine
 62
7
  6
CONTINUOUS
 10
21.9876154355
 20
11.0893146013
 11
21.9901202016
 21
11.152236767
  0
LINE
  5
425
100
AcDbEntity
  8
ASSI
100
AcDbLine
 62
7
  6
CONTINUOUS
 10
21.980882358
 20
10.9444943144
 11
21.9876154355
 21
11.0893146013
  0
LINE
  5
426
100
AcDbEntity
  8
ASSI
100
AcDbLine
 62
7
  6
CONTINUOUS
 10
21.9715325627
 20
10.7711447603
 11
21.980882358
 21
10.9444943144
  0
LINE
  5
427
100
AcDbEntity
  8
ASSI
100
AcDbLine
 62
7
  6
CONTINUOUS
 10
21.9593407868
 20
10.5669883213
 11
21.9715325627
 21
10.7711447603
  0
LWPOLYLINE
  5
428
100
AcDbEntity
  8
ASSI
100
AcDbPolyline
 62
7
  6
CONTINUOUS
 90
6
 70
0
 10
21.9912790787
 20
12.0799275234
 10
21.9800795975
 20
11.8971070549
 10
21.9643268801
 20
11.7144379061
 10
21.9440232816
 20
11.5319593885
 10
21.9191664471
 20
11.3496321907
 10
21.8897563763
 20
11.1674563124
  0
LINE
  5
429
100
AcDbEntity
  8
0
100
AcDbLine
 62
7
  6
CONTINUOUS
 10
20.54145192
 20
6.3338149295
 11
20.5100472418
 21
5.8385304044
  0
LINE
  5
42A
100
AcDbEntity
  8
ASSI
100
AcDbLine
 62
7
  6
CONTINUOUS
 10
21.9439614217
 20
10.3284525234
 11
21.9593407868
 21
10.5669883213
  0
LINE
  5
42B
100
AcDbEntity
  8
0
100
AcDbLine
 62
7
  6
CONTINUOUS
 10
20.5414487117
 20
6.334029014
 11
20.5128480285
 21
5.9008391948
  0
LINE
  5
42C
100
AcDbEntity
  8
ASSI
100
AcDbLine
 62
7
  6
CONTINUOUS
 10
21.9745957491
 20
11.8272517467
 11
21.9896305713
 21
12.0476179994
  0
LINE
  5
42D
100
AcDbEntity
  8
ASSI
100
AcDbLine
 62
7
  6
CONTINUOUS
 10
21.9249857193
 20
10.0512942425
 11
21.9439614217
 21
10.3284525234
  0
LINE
  5
42E
100
AcDbEntity
  8
ASSI
100
AcDbLine
 62
7
  6
CONTINUOUS
 10
21.902115877
 20
9.7323446563
 11
21.9249857193
 21
10.0512942425
  0
LINE
  5
42F
100
AcDbEntity
  8
ASSI
100
AcDbLine
 62
7
  6
CONTINUOUS
 10
21.8748614641
 20
9.3663042848
 11
21.902115877
 21
9.7323446563
  0
LINE
  5
430
100
AcDbEntity
  8
ASSI
100
AcDbLine
 62
7
  6
CONTINUOUS
 10
21.8426403151
 20
8.9470205544
 11
21.8748614641
 21
9.3663042848
  0
LINE
  5
431
100
AcDbEntity
  8
ASSI
100
AcDbLine
 62
7
  6
CONTINUOUS
 10
21.8051999935
 20
8.4719513569
 11
21.8426403151
 21
8.9470205544
  0
LINE
  5
432
100
AcDbEntity
  8
ASSI
100
AcDbLine
 62
7
  6
CONTINUOUS
 10
21.738787168
 20
7.6511866276
 11
21.8051999935
 21
8.4719513569
  0
LINE
  5
433
100
AcDbEntity
  8
ASSI
100
AcDbLine
 62
250
  6
CONTINUOUS
 10
19.4121143387
 20
-7.4386009815
 11
20.5595771382
 21
6.3442802033
  0
LINE
  5
434
100
AcDbEntity
  8
ASSI
100
AcDbLine
 62
250
  6
CONTINUOUS
 10
19.7776083592
 20
-7.0201671886
 11
20.9245496237
 21
6.7607590803
  0
LINE
  5
435
100
AcDbEntity
  8
ASSI
100
AcDbLine
 62
7
  6
CONTINUOUS
 10
21.6607158278
 20
6.7097785112
 11
21.738787168
 21
7.6511866276
  0
LINE
  5
436
100
AcDbEntity
  8
ASSI
100
AcDbLine
 62
7
  6
CONTINUOUS
 10
21.5722201865
 20
5.6629711761
 11
21.6607158278
 21
6.7097785112
  0
LINE
  5
437
100
AcDbEntity
  8
ASSI
100
AcDbLine
 62
7
  6
CONTINUOUS
 10
21.475145879
 20
4.532539922
 11
21.5722201865
 21
5.6629711761
  0
LINE
  5
438
100
AcDbEntity
  8
ASSI
100
AcDbLine
 62
7
  6
CONTINUOUS
 10
21.3720913066
 20
3.3487899229
 11
21.475145879
 21
4.532539922
  0
LINE
  5
439
100
AcDbEntity
  8
ASSI
100
AcDbLine
 62
7
  6
CONTINUOUS
 10
21.2661473265
 20
2.147587881
 11
21.3720913066
 21
3.3487899229
  0
LINE
  5
43A
100
AcDbEntity
  8
ASSI
100
AcDbLine
 62
7
  6
CONTINUOUS
 10
21.1608465663
 20
0.9695244322
 11
21.2661473265
 21
2.147587881
  0
LINE
  5
43B
100
AcDbEntity
  8
ASSI
100
AcDbLine
 62
7
  6
CONTINUOUS
 10
21.0604498264
 20
-0.1376734473
 11
21.1608465663
 21
0.9695244322
  0
LINE
  5
43C
100
AcDbEntity
  8
ASSI
100
AcDbLine
 62
7
  6
CONTINUOUS
 10
20.9682418939
 20
-1.1388598503
 11
21.0604498264
 21
-0.1376734473
  0
LINE
  5
43D
100
AcDbEntity
  8
ASSI
100
AcDbLine
 62
7
  6
CONTINUOUS
 10
20.8847010546
 20
-2.0308054144
 11
20.9682418939
 21
-1.1388598503
  0
LINE
  5
43E
100
AcDbEntity
  8
ASSI
100
AcDbLine
 62
7
  6
CONTINUOUS
 10
20.8089697763
 20
-2.8247888328
 11
20.8847010546
 21
-2.0308054144
  0
LINE
  5
43F
100
AcDbEntity
  8
ASSI
100
AcDbLine
 62
7
  6
CONTINUOUS
 10
21.9529397056
 20
11.6071358995
 11
21.9745957491
 21
11.8272517467
  0
LINE
  5
440
100
AcDbEntity
  8
ASSI
100
AcDbLine
 62
7
  6
CONTINUOUS
 10
20.7189059671
 20
-3.7475514497
 11
20.8089697763
 21
-2.8247888328
  0
LINE
  5
441
100
AcDbEntity
  8
ASSI
100
AcDbLine
 62
7
  6
CONTINUOUS
 10
20.6400379828
 20
-4.5323323405
 11
20.7189059671
 21
-3.7475514497
  0
LINE
  5
442
100
AcDbEntity
  8
ASSI
100
AcDbLine
 62
7
  6
CONTINUOUS
 10
20.5711385875
 20
-5.1962777434
 11
20.6400379828
 21
-4.5323323405
  0
LINE
  5
443
100
AcDbEntity
  8
ASSI
100
AcDbLine
 62
7
  6
CONTINUOUS
 10
20.5112373687
 20
-5.7534882947
 11
20.5711385875
 21
-5.1962777434
  0
LINE
  5
444
100
AcDbEntity
  8
ASSI
100
AcDbLine
 62
7
  6
CONTINUOUS
 10
20.4594904082
 20
-6.2165935646
 11
20.5112373687
 21
-5.7534882947
  0
LINE
  5
445
100
AcDbEntity
  8
ASSI
100
AcDbLine
 62
7
  6
CONTINUOUS
 10
20.4148281456
 20
-6.5999453941
 11
20.4594904082
 21
-6.2165935646
  0
LINE
  5
446
100
AcDbEntity
  8
ASSI
100
AcDbLine
 62
7
  6
CONTINUOUS
 10
20.3760047673
 20
-6.9183087747
 11
20.4148281456
 21
-6.5999453941
  0
LINE
  5
447
100
AcDbEntity
  8
ASSI
100
AcDbLine
 62
7
  6
CONTINUOUS
 10
21.9246599044
 20
11.3872040081
 11
21.9529397056
 21
11.6071358995
  0
LINE
  5
448
100
AcDbEntity
  8
ASSI
100
AcDbLine
 62
7
  6
CONTINUOUS
 10
20.3500592483
 20
-7.1218994438
 11
20.3760047673
 21
-6.9183087747
  0
LINE
  5
449
100
AcDbEntity
  8
ASSI
100
AcDbLine
 62
7
  6
CONTINUOUS
 10
20.32641792
 20
-7.2999394408
 11
20.3500592483
 21
-7.1218994438
  0
LINE
  5
44A
100
AcDbEntity
  8
ASSI
100
AcDbLine
 62
7
  6
CONTINUOUS
 10
20.3047751046
 20
-7.4557248498
 11
20.32641792
 21
-7.2999394408
  0
LINE
  5
44B
100
AcDbEntity
  8
ASSI
100
AcDbLine
 62
7
  6
CONTINUOUS
 10
20.2913099594
 20
-7.5486798323
 11
20.3047751046
 21
-7.4557248498
  0
LWPOLYLINE
  5
44C
100
AcDbEntity
  8
ASSI
100
AcDbPolyline
 62
250
  6
CONTINUOUS
 90
21
 70
0
 10
19.7776126677
 20
-7.0201147715
 10
19.7721200034
 20
-7.0569077419
 10
19.7655666634
 20
-7.0935208802
 10
19.7579563928
 20
-7.1299210342
 10
19.7492937137
 20
-7.1660725534
 10
19.7395860999
 20
-7.2019459166
 10
19.7288427821
 20
-7.2375165646
 10
19.7170724954
 20
-7.2727507803
 10
19.7042848274
 20
-7.3076171445
 10
19.6904901957
 20
-7.3420931232
 10
19.6757004526
 20
-7.3761459315
 10
19.6599284411
 20
-7.4097445071
 10
19.6431857641
 20
-7.4428677142
 10
19.6254873328
 20
-7.47548396
 10
19.6068491068
 20
-7.5075631632
 10
19.5872838102
 20
-7.5390854528
 10
19.5668092441
 20
-7.570020803
 10
19.5454443453
 20
-7.6003405036
 10
19.5232029643
 20
-7.6300257957
 10
19.5001056126
 20
-7.6590485222
 10
19.4860711427
 20
-7.6758670084
  0
LINE
  5
44D
100
AcDbEntity
  8
ASSI
100
AcDbLine
 62
7
  6
CONTINUOUS
 10
20.2785063426
 20
-7.6339179767
 11
20.2913099594
 21
-7.5486798323
  0
LINE
  5
44E
100
AcDbEntity
  8
ASSI
100
AcDbLine
 62
7
  6
CONTINUOUS
 10
20.2662864301
 20
-7.7120913106
 11
20.2785063426
 21
-7.6339179767
  0
LINE
  5
44F
100
AcDbEntity
  8
ASSI
100
AcDbLine
 62
7
  6
CONTINUOUS
 10
21.8897563455
 20
11.1674560726
 11
21.9246599044
 21
11.3872040081
  0
LINE
  5
450
100
AcDbEntity
  8
ASSI
100
AcDbLine
 62
7
  6
CONTINUOUS
 10
20.2546020172
 20
-7.7835888428
 11
20.2662864301
 21
-7.7120913106
  0
LWPOLYLINE
  5
451
100
AcDbEntity
  8
ASSI
100
AcDbPolyline
 62
250
  6
CONTINUOUS
 90
3
 70
0
 10
20.190052673
 20
-8.1501197174
 10
20.2019939085
 20
-8.0785544588
 10
20.2129258795
 20
-8.0095417472
  0
LINE
  5
452
100
AcDbEntity
  8
ASSI
100
AcDbLine
 62
7
  6
CONTINUOUS
 10
20.245303393
 20
-7.8379924952
 11
20.2546020172
 21
-7.7835888428
  0
LINE
  5
453
100
AcDbEntity
  8
ASSI
100
AcDbLine
 62
7
  6
CONTINUOUS
 10
21.9010414863
 20
11.2310600665
 11
21.8018541116
 21
10.6764585505
  0
LINE
  5
454
100
AcDbEntity
  8
ASSI
100
AcDbLine
 62
7
  6
CONTINUOUS
 10
20.1712086418
 20
-8.2573016092
 11
20.2453044894
 21
-7.837979866
  0
LWPOLYLINE
  5
455
100
AcDbEntity
  8
ASSI
100
AcDbPolyline
 62
250
  6
CONTINUOUS
 90
10
 70
0
 10
19.6570351442
 20
-9.3904534623
 10
19.672585741
 20
-9.3063579679
 10
19.6872867089
 20
-9.2246465213
 10
19.701108339
 20
-9.1453452753
 10
19.7140313802
 20
-9.0684713845
 10
19.7260386187
 20
-8.9939928134
 10
19.7371044225
 20
-8.9218625154
 10
19.7472105567
 20
-8.8520618041
 10
19.7563441126
 20
-8.7845981548
 10
19.7644894298
 20
-8.7194654168
  0
LWPOLYLINE
  5
456
100
AcDbEntity
  8
ASSI
100
AcDbPolyline
 62
7
  6
CONTINUOUS
 90
7
 70
0
 10
21.8018541116
 20
10.6764585505
 10
21.709113284
 20
10.1857892426
 10
21.6115338626
 20
9.6954481489
 10
21.5091120417
 20
9.205418047
 10
21.4018516269
 20
8.7157161592
 10
21.2897640363
 20
8.2263941529
 10
21.1728530755
 20
7.7374692505
  0
LWPOLYLINE
  5
457
100
AcDbEntity
  8
ASSI
100
AcDbPolyline
 62
7
  6
CONTINUOUS
 90
3
 70
0
 10
20.2273298031
 20
-7.9359098796
 10
20.2325825956
 20
-7.9083572162
 10
20.2379361068
 20
-7.8793488556
  0
LINE
  5
458
100
AcDbEntity
  8
ASSI
100
AcDbLine
 62
250
  6
CONTINUOUS
 10
19.6234505302
 20
-9.5658312899
 11
19.6570351442
 21
-9.3904534623
  0
LINE
  5
459
100
AcDbEntity
  8
ASSI
100
AcDbLine
 62
7
  6
CONTINUOUS
 10
20.2129258795
 20
-8.0095417472
 11
20.2173930628
 21
-7.9862279936
  0
LINE
  5
45A
100
AcDbEntity
  8
ASSI
100
AcDbLine
 62
7
  6
CONTINUOUS
 10
20.2173930628
 20
-7.9862279936
 11
20.221062725
 21
-7.9675736719
  0
LINE
  5
45B
100
AcDbEntity
  8
ASSI
100
AcDbLine
 62
250
  6
CONTINUOUS
 10
19.5867209368
 20
-9.750632723
 11
19.6234505302
 21
-9.5658312899
  0
LINE
  5
45C
100
AcDbEntity
  8
ASSI
100
AcDbLine
 62
7
  6
CONTINUOUS
 10
20.221062725
 20
-7.9675736719
 11
20.2273298031
 21
-7.9359098796
  0
LINE
  5
45D
100
AcDbEntity
  8
ASSI
100
AcDbLine
 62
250
  6
CONTINUOUS
 10
19.5469954092
 20
-9.9448084901
 11
19.5867209368
 21
-9.750632723
  0
LWPOLYLINE
  5
45E
100
AcDbEntity
  8
ASSI
100
AcDbPolyline
 62
7
  6
CONTINUOUS
 90
25
 70
0
 10
20.212926197
 20
-8.0095401071
 10
20.2058365894
 20
-8.0440060703
 10
20.1976519682
 20
-8.07825138
 10
20.1883794682
 20
-8.1122463534
 10
20.1780271676
 20
-8.1459612083
 10
20.1666040555
 20
-8.17936701
 10
20.154120018
 20
-8.2124356859
 10
20.1405858781
 20
-8.2451384722
 10
20.1260133573
 20
-8.2774470118
 10
20.1104150302
 20
-8.3093342812
 10
20.0938043875
 20
-8.3407724943
 10
20.0761957839
 20
-8.3717343466
 10
20.0576043803
 20
-8.4021940795
 10
20.0380462292
 20
-8.432125095
 10
20.017538206
 20
-8.4615013477
 10
19.9960979356
 20
-8.490298549
 10
19.9737439075
 20
-8.5184914841
 10
19.9504953858
 20
-8.5460555703
 10
19.9263723166
 20
-8.5729682011
 10
19.9013954737
 20
-8.5992058431
 10
19.8755863686
 20
-8.6247454533
 10
19.8489671356
 20
-8.6495659874
 10
19.8215606544
 20
-8.6736460859
 10
19.7933905378
 20
-8.6969641112
 10
19.7644810247
 20
-8.7194995309
  0
LINE
  5
45F
100
AcDbEntity
  8
ASSI
100
AcDbLine
 62
250
  6
CONTINUOUS
 10
19.4821038235
 20
-10.2535768133
 11
19.5469954092
 21
-9.9448084901
  0
LINE
  5
460
100
AcDbEntity
  8
ASSI
100
AcDbLine
 62
7
  6
CONTINUOUS
 10
19.0704769682
 20
-13.4035216542
 11
19.3563469742
 21
-12.0771098759
  0
LWPOLYLINE
  5
461
100
AcDbEntity
  8
ASSI
100
AcDbPolyline
 62
7
  6
CONTINUOUS
 90
6
 70
0
 10
19.8632737105
 20
-9.7501858781
 10
19.9368899106
 20
-9.4107185981
 10
20.0059770758
 20
-9.0872836666
 10
20.0703701994
 20
-8.777687847
 10
20.1292309917
 20
-8.4818685212
 10
20.1712079394
 20
-8.2573057105
  0
LINE
  5
462
100
AcDbEntity
  8
ASSI
100
AcDbLine
 62
7
  6
CONTINUOUS
 10
19.3563469742
 20
-12.0771098759
 11
19.5354681148
 21
-11.2504638302
  0
LINE
  5
463
100
AcDbEntity
  8
ASSI
100
AcDbLine
 62
250
  6
CONTINUOUS
 10
19.3863030137
 20
-10.6978510294
 11
19.4821038235
 21
-10.2535768133
  0
LINE
  5
464
100
AcDbEntity
  8
ASSI
100
AcDbLine
 62
7
  6
CONTINUOUS
 10
19.5354681148
 20
-11.2504638302
 11
19.8632737105
 21
-9.7501858781
  0
LINE
  5
465
100
AcDbEntity
  8
ASSI
100
AcDbLine
 62
250
  6
CONTINUOUS
 10
19.2248194977
 20
-11.4311736985
 11
19.3863030137
 21
-10.6978510294
  0
LINE
  5
466
100
AcDbEntity
  8
ASSI
100
AcDbLine
 62
250
  6
CONTINUOUS
 10
18.9482641771
 20
-12.6674713599
 11
19.2248194977
 21
-11.4311736985
  0
LINE
  5
467
100
AcDbEntity
  8
ASSI
100
AcDbLine
 62
250
  6
CONTINUOUS
 10
18.7447637974
 20
-13.564353415
 11
18.9482641771
 21
-12.6674713599
  0
LINE
  5
468
100
AcDbEntity
  8
ASSI
100
AcDbLine
 62
250
  6
CONTINUOUS
 10
18.601507832
 20
-14.1858682233
 11
18.7447637974
 21
-13.564353415
  0
LINE
  5
469
100
AcDbEntity
  8
ASSI
100
AcDbLine
 62
250
  6
CONTINUOUS
 10
18.4899082074
 20
-14.6622817758
 11
18.601507832
 21
-14.1858682233
  0
LINE
  5
46A
100
AcDbEntity
  8
ASSI
100
AcDbLine
 62
250
  6
CONTINUOUS
 10
18.4134166273
 20
-14.9840665102
 11
18.4899082074
 21
-14.6622817758
  0
LINE
  5
46B
100
AcDbEntity
  8
ASSI
100
AcDbLine
 62
250
  6
CONTINUOUS
 10
18.3351458732
 20
-15.3088008225
 11
18.4134166273
 21
-14.9840665102
  0
LINE
  5
46C
100
AcDbEntity
  8
ASSI
100
AcDbLine
 62
250
  6
CONTINUOUS
 10
18.2550014489
 20
-15.6360997072
 11
18.3351458732
 21
-15.3088008225
  0
LINE
  5
46D
100
AcDbEntity
  8
ASSI
100
AcDbLine
 62
250
  6
CONTINUOUS
 10
18.1728460915
 20
-15.9656650179
 11
18.2550014489
 21
-15.6360997072
  0
LWPOLYLINE
  5
46E
100
AcDbEntity
  8
ASSI
100
AcDbPolyline
 62
7
  6
CONTINUOUS
 90
10
 70
0
 10
18.0194568739
 20
-17.9130688861
 10
18.1588034802
 20
-17.3776871952
 10
18.2905271388
 20
-16.850443775
 10
18.4158590221
 20
-16.330679992
 10
18.5354876376
 20
-15.8194143094
 10
18.6500298693
 20
-15.3175606743
 10
18.7603853775
 20
-14.8243269344
 10
18.8669689764
 20
-14.3406188007
 10
18.9701272911
 20
-13.8672792847
 10
19.0704769682
 20
-13.4035216542
  0
LINE
  5
46F
100
AcDbEntity
  8
ASSI
100
AcDbLine
 62
7
  6
CONTINUOUS
 10
17.9780479544
 20
-18.067630138
 11
18.0194568739
 21
-17.9130688861
  0
LWPOLYLINE
  5
470
100
AcDbEntity
  8
ASSI
100
AcDbPolyline
 62
7
  6
CONTINUOUS
 90
4
 70
0
 10
16.2276388463
 20
-23.9284312316
 10
16.83096513
 20
-22.034233079
 10
17.4109671072
 20
-20.0956979028
 10
17.9780479584
 20
-18.0676301231
  0
LWPOLYLINE
  5
471
100
AcDbEntity
  8
ASSI
100
AcDbPolyline
 62
250
  6
CONTINUOUS
 90
3
 70
0
 10
16.2276388463
 20
-23.9284312316
 10
16.1896745119
 20
-24.0404381613
 10
16.136597095
 20
-24.1863229224
  0
LINE
  5
472
100
AcDbEntity
  8
ASSI
100
AcDbLine
 62
7
  6
CONTINUOUS
 10
19.4860711427
 20
-7.6758670084
 11
19.4853197064
 21
-7.6767510773
  0
LWPOLYLINE
  5
473
100
AcDbEntity
  8
ASSI
100
AcDbPolyline
 62
250
  6
CONTINUOUS
 90
37
 70
0
 10
19.7776083592
 20
-7.0201671886
 10
19.8063784991
 20
-6.9866489643
 10
19.8338538467
 20
-6.9568377336
 10
19.8600618075
 20
-6.9307358268
 10
19.8850134897
 20
-6.9084296064
 10
19.9087512468
 20
-6.889837068
 10
19.9313471854
 20
-6.8747077324
 10
19.9528255382
 20
-6.8630339589
 10
19.9732094118
 20
-6.8548269332
 10
19.9925657963
 20
-6.8498640987
 10
20.0109168497
 20
-6.8481377763
 10
20.0282822366
 20
-6.8496585268
 10
20.0447219845
 20
-6.8542308926
 10
20.0602572349
 20
-6.8618488399
 10
20.0749036741
 20
-6.8725207346
 10
20.088710481
 20
-6.8860725101
 10
20.1016960848
 20
-6.9025020944
 10
20.1138749512
 20
-6.9218134423
 10
20.1252883523
 20
-6.9438413611
 10
20.1359516794
 20
-6.9685839446
 10
20.1458792871
 20
-6.9960446019
 10
20.1551093065
 20
-7.0260659746
 10
20.1636553457
 20
-7.0586438932
 10
20.1715306091
 20
-7.0937837027
 10
20.1787711059
 20
-7.1313422012
 10
20.1853894411
 20
-7.1713151468
 10
20.1913969617
 20
-7.2137076797
 10
20.1968263397
 20
-7.258390577
 10
20.2016890652
 20
-7.305362228
 10
20.2059949798
 20
-7.3546249091
 10
20.2097730225
 20
-7.4060551515
 10
20.2130332734
 20
-7.4596515921
 10
20.215784726
 20
-7.5154160611
 10
20.2180536293
 20
-7.5732298154
 10
20.2198488022
 20
-7.6330870665
 10
20.2211784878
 20
-7.6949938994
 10
20.2220670819
 20
-7.758849332
  0
LWPOLYLINE
  5
474
100
AcDbEntity
  8
ASSI
100
AcDbPolyline
 62
250
  6
CONTINUOUS
 90
43
 70
0
 10
20.1648543691
 20
20.5178148808
 10
20.1831324818
 20
20.5159319266
 10
20.2013855958
 20
20.5134932098
 10
20.2195887465
 20
20.5105020659
 10
20.2377170378
 20
20.5069625858
 10
20.2557456757
 20
20.5028796104
 10
20.2736500028
 20
20.498258724
 10
20.2914055316
 20
20.4931062465
 10
20.308987978
 20
20.4874292248
 10
20.3263732947
 20
20.4812354234
 10
20.3435377042
 20
20.4745333134
 10
20.3604577308
 20
20.4673320612
 10
20.3771102333
 20
20.4596415158
 10
20.3934724362
 20
20.4514721956
 10
20.4095219613
 20
20.4428352736
 10
20.4252368576
 20
20.4337425624
 10
20.4405956323
 20
20.4242064979
 10
20.4555772793
 20
20.4142401226
 10
20.4701613085
 20
20.4038570673
 10
20.4843277733
 20
20.3930715328
 10
20.4980572986
 20
20.3818982703
 10
20.5113311066
 20
20.3703525614
 10
20.5241310429
 20
20.3584501968
 10
20.5364396013
 20
20.3462074555
 10
20.5482399475
 20
20.3336410815
 10
20.5595159422
 20
20.3207682618
 10
20.5702521635
 20
20.3076066023
 10
20.5804339276
 20
20.2941741041
 10
20.590047309
 20
20.2804891386
 10
20.5990791597
 20
20.2665704226
 10
20.6075171267
 20
20.2524369925
 10
20.6153496698
 20
20.2381081784
 10
20.6225660764
 20
20.2236035777
 10
20.6291564767
 20
20.2089430281
 10
20.6351118572
 20
20.1941465806
 10
20.6404240726
 20
20.1792344722
 10
20.6450858577
 20
20.1642270979
 10
20.6490908364
 20
20.1491449831
 10
20.6524335314
 20
20.1340087555
 10
20.6551093707
 20
20.1188391166
 10
20.6571146947
 20
20.1036568138
 10
20.6584467607
 20
20.0884826117
 10
20.659103747
 20
20.0733372639
  0
LWPOLYLINE
  5
475
100
AcDbEntity
  8
ASSI
100
AcDbPolyline
 62
250
  6
CONTINUOUS
 90
55
 70
0
 10
9.4710677384
 20
18.8465925871
 10
9.4774432559
 20
18.8401247163
 10
9.5091648501
 20
18.8060396492
 10
9.5394223074
 20
18.7715393409
 10
9.5682130554
 20
18.7366230073
 10
9.5955396665
 20
18.7012914324
 10
9.621353475
 20
18.6656075461
 10
9.6456517589
 20
18.6295707515
 10
9.6684372403
 20
18.5931816455
 10
9.6896694204
 20
18.5565049483
 10
9.7093455169
 20
18.5195402118
 10
9.7274683121
 20
18.4822878842
 10
9.7440056541
 20
18.4448140304
 10
9.7589547571
 20
18.4071182375
 10
9.7723184068
 20
18.3692009185
 10
9.7840728092
 20
18.3311293773
 10
9.7942151286
 20
18.292903132
 10
9.8027482007
 20
18.2545226645
 10
9.8096567386
 20
18.2160567245
 10
9.8149377627
 20
18.1775051026
 10
9.8185942526
 20
18.1388680081
 10
9.8206198601
 20
18.1002148179
 10
9.821011717
 20
18.0615461606
 10
9.8197726914
 20
18.0228614077
 10
9.8169050397
 20
17.9842280503
 10
9.8124061716
 20
17.94564642
 10
9.8062786774
 20
17.9071161851
 10
9.7985325841
 20
17.8687038421
 10
9.7891646649
 20
17.8304081432
 10
9.7781781466
 20
17.792230336
 10
9.7655927358
 20
17.7542406596
 10
9.7514044152
 20
17.7164382352
 10
9.735617202
 20
17.6788239415
 10
9.7182628544
 20
17.641470654
 10
9.6993397434
 20
17.6043818433
 10
9.6788494981
 20
17.5675540388
 10
9.6568287638
 20
17.5310497032
 10
9.633278507
 20
17.4948728052
 10
9.6081977614
 20
17.4590193761
 10
9.5816202731
 20
17.4235399725
 10
9.5535419786
 20
17.3884313471
 10
9.5239669413
 20
17.3536967472
 10
9.4929410978
 20
17.319396471
 10
9.4604537626
 20
17.2855244767
 10
9.426515621
 20
17.2520868063
 10
9.3912046658
 20
17.2191618839
 10
9.3545139132
 20
17.186750772
 10
9.3164503469
 20
17.1548524082
 10
9.2771129107
 20
17.1235420298
 10
9.2364947162
 20
17.0928215121
 10
9.1946026518
 20
17.0626889798
 10
9.1515563257
 20
17.0332140441
 10
9.1073956076
 20
17.0044199086
 10
9.0620806279
 20
16.9762833697
 10
9.0156113866
 20
16.9488044273
  0
LWPOLYLINE
  5
476
100
AcDbEntity
  8
ASSI
100
AcDbPolyline
 62
250
  6
CONTINUOUS
 90
129
 70
0
 10
16.136597095
 20
-24.1863229224
 10
16.0795809347
 20
-24.3317005185
 10
16.0186308627
 20
-24.4765583784
 10
15.9537533471
 20
-24.6208769143
 10
15.8849697635
 20
-24.7646046162
 10
15.8123089219
 20
-24.9076812909
 10
15.735797828
 20
-25.0500572377
 10
15.6554487726
 20
-25.1917128859
 10
15.5712703177
 20
-25.33263353
 10
15.4832744224
 20
-25.472797063
 10
15.3914893198
 20
-25.6121565177
 10
15.2959492099
 20
-25.750660177
 10
15.1966860448
 20
-25.8882638465
 10
15.093717711
 20
-26.0249447764
 10
14.9870589512
 20
-26.160683789
 10
14.8767288409
 20
-26.2954556081
 10
14.7627602395
 20
-26.4292191283
 10
14.6451895748
 20
-26.5619317189
 10
14.5240513007
 20
-26.6935555085
 10
14.399370558
 20
-26.8240641699
 10
14.2711713481
 20
-26.9534328467
 10
14.1394813618
 20
-27.0816332932
 10
14.004336039
 20
-27.2086307142
 10
13.8657719892
 20
-27.3343907727
 10
13.7238249902
 20
-27.4588813104
 10
13.5785282365
 20
-27.5820735209
 10
13.4299158673
 20
-27.703938619
 10
13.2780242554
 20
-27.8244468727
 10
13.122890583
 20
-27.9435688751
 10
12.9645512017
 20
-28.0612767447
 10
12.8030432618
 20
-28.1775427859
 10
12.6384076369
 20
-28.2923374975
 10
12.4706874902
 20
-28.4056308541
 10
12.2999265882
 20
-28.5173935391
 10
12.1261642108
 20
-28.6276000864
 10
11.9494378077
 20
-28.736226753
 10
11.7697870776
 20
-28.8432489056
 10
11.587259022
 20
-28.9486383159
 10
11.4019030898
 20
-29.052366431
 10
11.2137681334
 20
-29.1544061293
 10
11.0228968468
 20
-29.2547344685
 10
10.8293304543
 20
-29.3533297706
 10
10.6331131696
 20
-29.4501693053
 10
10.4342956655
 20
-29.5452278567
 10
10.232929728
 20
-29.6384806032
 10
10.0290662624
 20
-29.7299040203
 10
9.8227534079
 20
-29.8194765693
 10
9.6140397809
 20
-29.9071771179
 10
9.4029765763
 20
-29.9929840984
 10
9.1896150408
 20
-30.0768766211
 10
8.9740045876
 20
-30.1588351453
 10
8.7561947683
 20
-30.2388406163
 10
8.5362415948
 20
-30.3168722428
 10
8.314205082
 20
-30.3929086928
 10
8.0901458907
 20
-30.4669293837
 10
7.8641125648
 20
-30.5389184674
 10
7.6361475366
 20
-30.6088622805
 10
7.4062959679
 20
-30.6767464207
 10
7.1746238617
 20
-30.7425508533
 10
6.9412057055
 20
-30.8062543581
 10
6.7061131389
 20
-30.8678378571
 10
6.4693895117
 20
-30.9272904646
 10
6.2310673825
 20
-30.9846038321
 10
5.9911856639
 20
-31.0397677302
 10
5.7498213685
 20
-31.092763583
 10
5.5070648494
 20
-31.1435714725
 10
5.2629978022
 20
-31.1921750416
 10
5.0176581836
 20
-31.2385674689
 10
4.7710712301
 20
-31.2827438638
 10
4.5232706527
 20
-31.3246971651
 10
4.2743427181
 20
-31.364411751
 10
4.0243920055
 20
-31.4018709445
 10
3.7735079974
 20
-31.4370623816
 10
3.521724361
 20
-31.4699823822
 10
3.2690624035
 20
-31.5006282252
 10
3.0155554534
 20
-31.5289949649
 10
2.7612933669
 20
-31.555071646
 10
2.5063825162
 20
-31.5788474734
 10
2.250914422
 20
-31.6003150417
 10
1.9949227995
 20
-31.6194726461
 10
1.7384275883
 20
-31.6363189333
 10
1.4814643263
 20
-31.6508507528
 10
1.2241226797
 20
-31.6630622184
 10
0.9665038607
 20
-31.6729486041
 10
0.7086953765
 20
-31.6805074826
 10
0.4507358149
 20
-31.6857386521
 10
0.1926531371
 20
-31.6886416678
 10
-0.0655109106
 20
-31.6892154191
 10
-0.3236719821
 20
-31.6874590778
 10
-0.5817382438
 20
-31.6833733052
 10
-0.839629128
 20
-31.6769600405
 10
-1.097299232
 20
-31.6682210771
 10
-1.3547095066
 20
-31.6571578416
 10
-1.6118104477
 20
-31.6437720566
 10
-1.8685257864
 20
-31.6280672878
 10
-2.124776445
 20
-31.6100483738
 10
-2.3804908732
 20
-31.5897206956
 10
-2.6356157021
 20
-31.5670888458
 10
-2.8900993387
 20
-31.5421574796
 10
-3.1438841928
 20
-31.5149321049
 10
-3.396903645
 20
-31.4854197336
 10
-3.6490927636
 20
-31.4536279132
 10
-3.9003895803
 20
-31.4195644782
 10
-4.1507331005
 20
-31.3832377196
 10
-4.4000602327
 20
-31.3446568383
 10
-4.6483066837
 20
-31.3038319075
 10
-4.8954153146
 20
-31.260772449
 10
-5.1413340709
 20
-31.2154874856
 10
-5.3860094444
 20
-31.1679865994
 10
-5.6293748689
 20
-31.1182824406
 10
-5.8713592257
 20
-31.0663895389
 10
-6.1118943315
 20
-31.0123228419
 10
-6.3509308351
 20
-30.9560937704
 10
-6.5884262934
 20
-30.897712242
 10
-6.824333464
 20
-30.8371893716
 10
-7.0585833952
 20
-30.7745423478
 10
-7.2911017137
 20
-30.7097910167
 10
-7.5218198395
 20
-30.6429549171
 10
-7.7506937109
 20
-30.5740472573
 10
-7.9776863092
 20
-30.5030790995
 10
-8.2027539551
 20
-30.4300634731
 10
-8.4258290776
 20
-30.3550216671
 10
-8.646839525
 20
-30.2779778518
 10
-8.8657207678
 20
-30.1989549416
 10
-9.082430414
 20
-30.1179686653
 10
-9.2969303348
 20
-30.0350332101
 10
-9.5091756662
 20
-29.9501654157
 10
-9.7191062745
 20
-29.8633888149
 10
-9.9266617876
 20
-29.7747281873
  0
LWPOLYLINE
  5
477
100
AcDbEntity
  8
ASSI
100
AcDbPolyline
 62
250
  6
CONTINUOUS
 90
40
 70
0
 10
-21.110831215
 20
27.2974435472
 10
-21.1292265338
 20
27.2982316916
 10
-21.1475966935
 20
27.2984604203
 10
-21.1659165696
 20
27.2981294204
 10
-21.1841611062
 20
27.2972391446
 10
-21.2023053505
 20
27.2957908106
 10
-21.2203244868
 20
27.2937863992
 10
-21.2381938707
 20
27.2912286518
 10
-21.2558890623
 20
27.2881210666
 10
-21.2733858603
 20
27.2844678939
 10
-21.2906603344
 20
27.28027413
 10
-21.3076888587
 20
27.2755455106
 10
-21.3244481433
 20
27.2702885031
 10
-21.3409152669
 20
27.2645102974
 10
-21.3570677076
 20
27.2582187962
 10
-21.3728833739
 20
27.2514226043
 10
-21.388340635
 20
27.2441310169
 10
-21.4034183501
 20
27.2363540065
 10
-21.4180958976
 20
27.2281022096
 10
-21.4323532033
 20
27.2193869122
 10
-21.4461707676
 20
27.2102200339
 10
-21.4595296924
 20
27.2006141123
 10
-21.4724117069
 20
27.1905822852
 10
-21.4847991925
 20
27.180138273
 10
-21.4966752071
 20
27.1692963598
 10
-21.5080235079
 20
27.1580713741
 10
-21.5188285741
 20
27.1464786679
 10
-21.5290756277
 20
27.1345340967
 10
-21.5387506539
 20
27.1222539967
 10
-21.5478404203
 20
27.1096551633
 10
-21.5563324949
 20
27.0967548278
 10
-21.5642152633
 20
27.0835706338
 10
-21.5714779444
 20
27.0701206131
 10
-21.5781106049
 20
27.0564231612
 10
-21.5841041736
 20
27.0424970118
 10
-21.5894504531
 20
27.0283612116
 10
-21.5941421314
 20
27.014035094
 10
-21.5981727917
 20
26.9995382526
 10
-21.6015369213
 20
26.9848905144
 10
-21.6034265043
 20
26.9749398556
  0
LWPOLYLINE
  5
478
100
AcDbEntity
  8
ASSI
100
AcDbPolyline
 62
250
  6
CONTINUOUS
 90
43
 70
0
 10
21.110831068
 20
24.8477038971
 10
21.1292263868
 20
24.8463574149
 10
21.1475965465
 20
24.8444544365
 10
21.1659164226
 20
24.8419975645
 10
21.1841609592
 20
24.8389901592
 10
21.2023052035
 20
24.8354363337
 10
21.2203243398
 20
24.8313409486
 10
21.2381937237
 20
24.8267096051
 10
21.2558889154
 20
24.8215486373
 10
21.2733857133
 20
24.815865104
 10
21.2906601875
 20
24.8096667783
 10
21.3076887117
 20
24.8029621377
 10
21.3244479963
 20
24.795760352
 10
21.34091512
 20
24.788071271
 10
21.3570675607
 20
24.7799054109
 10
21.372883227
 20
24.7712739401
 10
21.388340488
 20
24.7621886637
 10
21.4034182031
 20
24.7526620075
 10
21.4180957506
 20
24.742707001
 10
21.4323530563
 20
24.7323372596
 10
21.4461706206
 20
24.7215669658
 10
21.4595295454
 20
24.71041085
 10
21.4724115599
 20
24.6988841702
 10
21.4847990456
 20
24.6870026914
 10
21.4966750601
 20
24.6747826637
 10
21.508023361
 20
24.6622408002
 10
21.5188284271
 20
24.6493942544
 10
21.5290754807
 20
24.6362605962
 10
21.5387505069
 20
24.6228577884
 10
21.5478402733
 20
24.6092041618
 10
21.556332348
 20
24.5953183903
 10
21.5642151164
 20
24.5812194654
 10
21.5714777974
 20
24.5669266698
 10
21.578110458
 20
24.5524595518
 10
21.5841040267
 20
24.5378378977
 10
21.5894503062
 20
24.5230817054
 10
21.5941419844
 20
24.5082111568
 10
21.5981726447
 20
24.4932465901
 10
21.6015367743
 20
24.4782084722
 10
21.6042297722
 20
24.4631173705
 10
21.6062479551
 20
24.4479939249
 10
21.6075885629
 20
24.4328588196
 10
21.608249762
 20
24.4177327545
  0
LWPOLYLINE
  5
479
100
AcDbEntity
  8
ASSI
100
AcDbPolyline
 62
7
  6
CONTINUOUS
 90
20
 70
0
 10
9.4710677384
 20
23.8932228395
 10
9.6703366504
 20
23.8290714365
 10
9.9241965985
 20
23.7444448197
 10
10.1759055493
 20
23.6576121311
 10
10.4252709929
 20
23.5686396846
 10
10.672277066
 20
23.4775311386
 10
10.9169396319
 20
23.3842828346
 10
11.1591137698
 20
23.2889501102
 10
11.3988092163
 20
23.1915271014
 10
11.6360162348
 20
23.0920196721
 10
11.8705606961
 20
22.990500752
 10
12.1024323109
 20
22.8869726207
 10
12.3316413683
 20
22.7814329985
 10
12.5580446065
 20
22.6739479756
 10
12.7816457569
 20
22.5645136569
 10
13.0024410882
 20
22.4531339375
 10
13.2202761444
 20
22.339886593
 10
13.4350994403
 20
22.2247975484
 10
13.6469624611
 20
22.1078408787
 10
13.8558652069
 20
21.9890165838
  0
LWPOLYLINE
  5
47A
100
AcDbEntity
  8
0
100
AcDbPolyline
 62
7
  6
CONTINUOUS
 90
35
 70
0
 10
5.3740114635
 20
27.8691081886
 10
5.4965260688
 20
27.8031435656
 10
5.6267116828
 20
27.7422740904
 10
5.7639340543
 20
27.6867963128
 10
5.9075246498
 20
27.636980515
 10
6.0567839102
 20
27.5930693945
 10
6.2109846595
 20
27.555276882
 10
6.369375647
 20
27.5237870987
 10
6.531185208
 20
27.4987534597
 10
6.6956250223
 20
27.4802979265
 10
6.8618939558
 20
27.4685104124
 10
7.0291819629
 20
27.463448345
 10
7.1966740334
 20
27.4651363863
 10
7.3635541626
 20
27.4735663123
 10
7.5290093273
 20
27.4886970533
 10
7.6922334466
 20
27.5104548937
 10
7.8524313091
 20
27.5387338316
 10
8.0088224468
 20
27.5733960948
 10
8.1606449378
 20
27.6142728123
 10
8.3071591182
 20
27.6611648367
 10
8.4476511856
 20
27.713843715
 10
8.5814366769
 20
27.7720528008
 10
8.7078638025
 20
27.8355085055
 10
8.8263166223
 20
27.903901679
 10
8.9362180459
 20
27.9768991168
 10
9.0370326447
 20
28.0541451828
 10
9.1282692601
 20
28.1352635418
 10
9.2094833964
 20
28.2198589933
 10
9.2802793867
 20
28.3075193968
 10
9.3403123198
 20
28.3978176796
 10
9.3892897215
 20
28.4903139177
 10
9.4269729787
 20
28.5845574785
 10
9.4531785023
 20
28.680089217
 10
9.4677786218
 20
28.7764437121
 10
9.4710677384
 20
28.8489672126
  0
LWPOLYLINE
  5
47B
100
AcDbEntity
  8
ASSI
100
AcDbPolyline
 62
250
  6
CONTINUOUS
 90
22
 70
0
 10
-10.0659291754
 20
37.585480447
 10
-10.0790021397
 20
37.5927494438
 10
-10.0920572244
 20
37.5994501612
 10
-10.1050765741
 20
37.6055734345
 10
-10.1180423824
 20
37.6111108891
 10
-10.1309369161
 20
37.6160549515
 10
-10.1437425396
 20
37.6203988597
 10
-10.1564417389
 20
37.6241366726
 10
-10.1690171452
 20
37.6272632781
 10
-10.1814515595
 20
37.6297744
 10
-10.1937279754
 20
37.6316666037
 10
-10.2058296025
 20
37.6329373015
 10
-10.2177398897
 20
37.6335847553
 10
-10.2294425473
 20
37.6336080797
 10
-10.2409215699
 20
37.6330072427
 10
-10.2521612576
 20
37.6317830661
 10
-10.2631462382
 20
37.6299372242
 10
-10.2738614877
 20
37.6274722416
 10
-10.2842923508
 20
37.6243914895
 10
-10.2944245615
 20
37.6206991815
 10
-10.3042442621
 20
37.6164003674
 10
-10.3137380222
 20
37.6115009268
  0
LWPOLYLINE
  5
47C
100
AcDbEntity
  8
ASSI
100
AcDbPolyline
 62
250
  6
CONTINUOUS
 90
43
 70
0
 10
19.9396546327
 20
20.2606324145
 10
19.9527275957
 20
20.2528050806
 10
19.9657826791
 20
20.2444301143
 10
19.9788020276
 20
20.23551897
 10
19.9917678349
 20
20.2260838351
 10
20.0046623676
 20
20.2161376141
 10
20.0174679902
 20
20.2056939103
 10
20.0301671886
 20
20.1947670073
 10
20.0427425943
 20
20.1833718498
 10
20.055177008
 20
20.1715240227
 10
20.0674534234
 20
20.1592397301
 10
20.0795550501
 20
20.146535773
 10
20.0914653369
 20
20.1334295267
 10
20.1031679944
 20
20.1199389161
 10
20.1146470168
 20
20.1060823923
 10
20.1258867046
 20
20.0918789067
 10
20.1368716852
 20
20.0773478852
 10
20.1475869348
 20
20.0625092015
 10
20.1580177981
 20
20.0473831506
 10
20.1681500091
 20
20.0319904199
 10
20.17796971
 20
20.0163520619
 10
20.1874634706
 20
20.0004894651
 10
20.1966183063
 20
19.9844243245
 10
20.2054216962
 20
19.9681786122
 10
20.2138616
 20
19.9517745471
 10
20.2219264746
 20
19.935234565
 10
20.2296052897
 20
19.9185812874
 10
20.2368875431
 20
19.9018374907
 10
20.243763275
 20
19.8850260751
 10
20.2502230815
 20
19.8681700336
 10
20.2562581277
 20
19.8512924198
 10
20.2618601593
 20
19.834416317
 10
20.2670215147
 20
19.8175648065
 10
20.2717351347
 20
19.8007609359
 10
20.2759945725
 20
19.7840276876
 10
20.2797940026
 20
19.7673879474
 10
20.2831282285
 20
19.7508644733
 10
20.28599269
 20
19.7344798643
 10
20.2883834695
 20
19.7182565294
 10
20.290297297
 20
19.702216657
 10
20.2917315552
 20
19.6863821847
 10
20.2926842823
 20
19.670774769
 10
20.2931541754
 20
19.6554157561
  0
LWPOLYLINE
  5
47D
100
AcDbEntity
  8
0
100
AcDbPolyline
 62
7
  6
CONTINUOUS
 90
13
 70
0
 10
5.3740114635
 20
27.8691081886
 10
5.2597647458
 20
27.9398465862
 10
5.1543425143
 20
28.0150141281
 10
5.0582583753
 20
28.0942446056
 10
4.9719804412
 20
28.1771520158
 10
4.8959290495
 20
28.2633324421
 10
4.8304747148
 20
28.3523660222
 10
4.7759363241
 20
28.4438189933
 10
4.7325795829
 20
28.5372458058
 10
4.700615721
 20
28.6321912937
 10
4.680200463
 20
28.7281928921
 10
4.67143327
 20
28.8247828908
 10
4.6710677384
 20
28.8489672126
  0
LWPOLYLINE
  5
47E
100
AcDbEntity
  8
ASSI
100
AcDbPolyline
 62
7
  6
CONTINUOUS
 90
18
 70
0
 10
16.8830514355
 20
19.7315885342
 10
16.7457712797
 20
19.8642539982
 10
16.5916764099
 20
20.00823448
 10
16.4338819458
 20
20.1508526909
 10
16.2723815507
 20
20.2921177901
 10
16.1072710662
 20
20.4319461022
 10
15.9385403362
 20
20.5703432489
 10
15.7661995168
 20
20.7073036085
 10
15.5903749173
 20
20.8427266409
 10
15.4110704862
 20
20.9766064052
 10
15.2282822751
 20
21.1089488423
 10
15.0421247482
 20
21.2396712346
 10
14.8525911596
 20
21.3687757365
 10
14.6596882551
 20
21.4962601935
 10
14.4635507374
 20
21.6220354249
 10
14.2642235072
 20
21.7460717035
 10
14.0616616637
 20
21.8683987565
 10
13.8558652069
 20
21.9890165838
  0
LWPOLYLINE
  5
47F
100
AcDbEntity
  8
ASSI
100
AcDbPolyline
 62
250
  6
CONTINUOUS
 90
38
 70
0
 10
-20.164854516
 20
31.6273325635
 10
-20.1831326288
 20
31.6286571799
 10
-20.2013857428
 20
31.6294216469
 10
-20.2195888935
 20
31.6296249188
 10
-20.2377171847
 20
31.6292667177
 10
-20.2557458227
 20
31.6283475335
 10
-20.2736501498
 20
31.6268686233
 10
-20.2914056785
 20
31.6248320098
 10
-20.3089881249
 20
31.6222404784
 10
-20.3263734417
 20
31.6190975737
 10
-20.3435378511
 20
31.6154075939
 10
-20.3604578778
 20
31.611175586
 10
-20.3771103803
 20
31.606407338
 10
-20.3934725832
 20
31.6011093713
 10
-20.4095221082
 20
31.5952889318
 10
-20.4252370046
 20
31.5889539802
 10
-20.4405957793
 20
31.5821131807
 10
-20.4555774263
 20
31.5747758893
 10
-20.4701614554
 20
31.5669521412
 10
-20.4843279203
 20
31.5586526367
 10
-20.4980574455
 20
31.5498887271
 10
-20.5113312535
 20
31.5406723985
 10
-20.5241311899
 20
31.5310162561
 10
-20.5364397483
 20
31.5209335064
 10
-20.5482400944
 20
31.5104379395
 10
-20.5595160892
 20
31.49954391
 10
-20.5702523105
 20
31.4882663175
 10
-20.5804340746
 20
31.4766205863
 10
-20.590047456
 20
31.464622644
 10
-20.5990793066
 20
31.4522889002
 10
-20.6075172737
 20
31.4396362234
 10
-20.6153498168
 20
31.4266819186
 10
-20.6225662234
 20
31.4134437032
 10
-20.6291566237
 20
31.399939683
 10
-20.6351120041
 20
31.3861883272
 10
-20.6404242196
 20
31.3722084434
 10
-20.6450860046
 20
31.3580191517
 10
-20.6482520502
 20
31.3468732997
  0
LWPOLYLINE
  5
480
100
AcDbEntity
  8
ASSI
100
AcDbPolyline
 62
250
  6
CONTINUOUS
 90
56
 70
0
 10
14.064292421
 20
33.7932917646
 10
14.2695815309
 20
33.6730044447
 10
14.4719014307
 20
33.5509158927
 10
14.6712029098
 20
33.4270495497
 10
14.8674530772
 20
33.3014190551
 10
15.0605874616
 20
33.1740587637
 10
15.2505126608
 20
33.0450250753
 10
15.4371840949
 20
32.914344398
 10
15.6205577636
 20
32.7820435851
 10
15.8005469339
 20
32.6481826522
 10
15.9771100573
 20
32.5127914294
 10
16.1502092011
 20
32.3758979126
 10
16.3197689194
 20
32.2375619975
 10
16.4857409753
 20
32.0978251967
 10
16.6481038199
 20
31.9567078576
 10
16.8068254097
 20
31.8142394785
 10
16.9618659126
 20
31.67045771
 10
17.1131997507
 20
31.5253882144
 10
17.2608157955
 20
31.3790423169
 10
17.4046866603
 20
31.2314465333
 10
17.5447755093
 20
31.0826380015
 10
17.6810562941
 20
30.9326437233
 10
17.8135027406
 20
30.781491396
 10
17.9420810339
 20
30.6292183542
 10
18.0667553353
 20
30.4758665124
 10
18.187497203
 20
30.3214709194
 10
18.3042817207
 20
30.1660635039
 10
18.4170806064
 20
30.0096821101
 10
18.5258680042
 20
29.8523631974
 10
18.6306222538
 20
29.694138725
 10
18.7313227523
 20
29.5350401133
 10
18.8279478418
 20
29.3751016616
 10
18.9204763499
 20
29.2143584999
 10
19.0088893386
 20
29.0528434845
 10
19.0931679825
 20
28.89059072
 10
19.1732932762
 20
28.7276364951
 10
19.249247268
 20
28.5640171653
 10
19.32101339
 20
28.3997683422
 10
19.3885760017
 20
28.2349257383
 10
19.4519200456
 20
28.0695260867
 10
19.511031649
 20
27.9036057339
 10
19.5658981232
 20
27.7372004288
 10
19.6165076189
 20
27.5703461851
 10
19.6628491303
 20
27.4030793509
 10
19.704912606
 20
27.2354362752
 10
19.7426889812
 20
27.0674531037
 10
19.7761700499
 20
26.8991662702
 10
19.8053484925
 20
26.7306125004
 10
19.8302179515
 20
26.5618284751
 10
19.8507730129
 20
26.3928508741
 10
19.8670091905
 20
26.2237165029
 10
19.8789229364
 20
26.0544622944
 10
19.8865116598
 20
25.8851251247
 10
19.8897737168
 20
25.7157417845
 10
19.8887083999
 20
25.5463491066
 10
19.887802928
 20
25.5054640134
  0
LWPOLYLINE
  5
481
100
AcDbEntity
  8
ASSI
100
AcDbPolyline
 62
250
  6
CONTINUOUS
 90
200
 70
0
 10
14.4177708346
 20
34.3972139474
 10
14.6282982186
 20
34.2738653536
 10
14.8356829512
 20
34.1487184183
 10
15.0399250325
 20
34.0217731413
 10
15.2410884395
 20
33.8929926826
 10
15.439109195
 20
33.7624138824
 10
15.6337953683
 20
33.6301472605
 10
15.8251413329
 20
33.4961901814
 10
16.0131527152
 20
33.3605452807
 10
16.1976544629
 20
33.2233309845
 10
16.3786396037
 20
33.0845459003
 10
16.5561151099
 20
32.9441914207
 10
16.7299268465
 20
32.8023901488
 10
16.9000576297
 20
32.6591515444
 10
17.0665246434
 20
32.5144661478
 10
17.2292253031
 20
32.3684281831
 10
17.388151376
 20
32.2210434979
 10
17.543311095
 20
32.0723062447
 10
17.6946265747
 20
31.9222931047
 10
17.8421019076
 20
31.7709983981
 10
17.9857330012
 20
31.6184278048
 10
18.1254296928
 20
31.4646750462
 10
18.2611935294
 20
31.3097344798
 10
18.393022964
 20
31.1536117481
 10
18.520823193
 20
30.9964175002
 10
18.644589548
 20
30.8381525646
 10
18.7643266973
 20
30.6788161128
 10
18.8799538425
 20
30.5185163076
 10
18.9914665442
 20
30.3572549196
 10
19.0988692418
 20
30.1950301782
 10
19.2020944545
 20
30.0319449343
 10
19.3011399294
 20
29.8679983535
 10
19.3960079194
 20
29.7031912702
 10
19.4866377027
 20
29.5376290388
 10
19.5730271301
 20
29.371310141
 10
19.6551783508
 20
29.2042360952
 10
19.73303709
 20
29.0365168105
 10
19.8066004454
 20
28.8681518692
 10
19.8758713193
 20
28.6991416892
 10
19.9408041441
 20
28.5295974333
 10
20.0013959186
 20
28.3595191127
 10
20.0576496441
 20
28.1889067162
 10
20.1095287565
 20
28.0178713735
 10
20.1570304148
 20
27.846412857
 10
20.2001574601
 20
27.6745313943
 10
20.2388818512
 20
27.5023387969
 10
20.2732007562
 20
27.3298347475
 10
20.3031170071
 20
27.1570195635
 10
20.3286110587
 20
26.9840060091
 10
20.3496800231
 20
26.8107939117
 10
20.3663267883
 20
26.637383444
 10
20.378540472
 20
26.4638878885
 10
20.3863181723
 20
26.2903072423
 10
20.3896627912
 20
26.1166415083
 10
20.3885721532
 20
25.9430039776
 10
20.3830433646
 20
25.7693946621
 10
20.3730793191
 20
25.5958135499
 10
20.3586865217
 20
25.4223738963
 10
20.3398620862
 20
25.2490758099
 10
20.3166088989
 20
25.075919182
 10
20.288942123
 20
24.9030169423
 10
20.256858872
 20
24.7303692223
 10
20.2203620325
 20
24.5579758904
 10
20.1794754277
 20
24.3859494822
 10
20.1341961999
 20
24.2142902684
 10
20.0845272068
 20
24.0429979783
 10
20.0305008447
 20
23.8721843349
 10
19.9721142612
 20
23.7018496243
 10
19.9093703088
 20
23.5319935604
 10
19.8423099404
 20
23.3627270076
 10
19.77093035
 20
23.1940503769
 10
19.6952343437
 20
23.0259632573
 10
19.6152712928
 20
22.8585752803
 10
19.5310384012
 20
22.6918868778
 10
19.442538465
 20
22.525897618
 10
19.3498292449
 20
22.3607158365
 10
19.2529080043
 20
22.1963420798
 10
19.1517774796
 20
22.0327758014
 10
19.0465036405
 20
21.8701236984
 10
18.9370837742
 20
21.7083863534
 10
18.8235205933
 20
21.5475631838
 10
18.7058882057
 20
21.3877591383
 10
18.5841839614
 20
21.2289748903
 10
18.4584105103
 20
21.0712097665
 10
18.3286499093
 20
20.9145666949
 10
18.1948995549
 20
20.7590464054
 10
18.0571620507
 20
20.6046481682
 10
17.9155272645
 20
20.4514727224
 10
17.7699926493
 20
20.2995208625
 10
17.620560752
 20
20.148791794
 10
17.4673290823
 20
19.9993838721
 10
17.31029517
 20
19.8512979678
 10
17.1494614851
 20
19.70453321
 10
16.9849329474
 20
19.5591853412
 10
16.8167071296
 20
19.4152552725
 10
16.6447864589
 20
19.2727420927
 10
16.4692831363
 20
19.1317388101
 10
16.2901948458
 20
18.9922464272
 10
16.1075239035
 20
18.8542639414
 10
15.9213894589
 20
18.7178813541
 10
15.7317892242
 20
18.5830996897
 10
15.5387254871
 20
18.4499179237
 10
15.3423242605
 20
18.3184229836
 10
15.1425833982
 20
18.1886159912
 10
14.9395050462
 20
18.0604958248
 10
14.7332216558
 20
17.9341460465
 10
14.5237311002
 20
17.8095677906
 10
14.3110355062
 20
17.6867599229
 10
14.095273705
 20
17.5658026028
 10
13.8764437322
 20
17.4466970584
 10
13.6545475523
 20
17.3294420617
 10
13.4297298899
 20
17.2141140883
 10
13.2019888022
 20
17.1007143775
 10
12.971326232
 20
16.9892416901
 10
12.7378927324
 20
16.8797687843
 10
12.5016865288
 20
16.7722969809
 10
12.2627093958
 20
16.6668249591
 10
12.0211172099
 20
16.5634215144
 10
11.7769082351
 20
16.4620879842
 10
11.5300842075
 20
16.3628230311
 10
11.2808062116
 20
16.2656914386
 10
11.029072669
 20
16.1706946081
 10
10.7748851582
 20
16.0778311383
 10
10.5184094989
 20
15.9871616085
 10
10.2596441829
 20
15.8986874449
 10
9.9985907185
 20
15.8124072213
 10
9.7354194506
 20
15.7283772384
 10
9.470129003
 20
15.6465989669
 10
9.202720752
 20
15.5670709362
 10
8.9333691715
 20
15.4898450349
 10
8.6620729977
 20
15.4149227663
 10
8.3888334945
 20
15.3423026271
 10
8.113828927
 20
15.2720319961
 10
7.8370581288
 20
15.2041124032
 10
7.5585222663
 20
15.1385423185
 10
7.2784031045
 20
15.0753645309
 10
6.9966996341
 20
15.0145806066
 10
6.7134128644
 20
14.9561889795
 10
6.4287275878
 20
14.9002277395
 10
6.1426428581
 20
14.8466984667
 10
5.8551596216
 20
14.7955995809
 10
5.5664655092
 20
14.7469644326
 10
5.2765597729
 20
14.7007946363
 10
4.9854431606
 20
14.6570885774
 10
4.6933055476
 20
14.6158747625
 10
4.400146222
 20
14.5771548117
 10
4.1059658957
 20
14.5409271048
 10
3.8109565789
 20
14.5072152878
 10
3.515117776
 20
14.4760210075
 10
3.2184499827
 20
14.447342617
 10
2.9211466964
 20
14.4211988217
 10
2.623207448
 20
14.3975912714
 10
2.3246327066
 20
14.3765183164
 10
2.0256173767
 20
14.3579937117
 10
1.7261612306
 20
14.3420191242
 10
1.4262644961
 20
14.3285928872
 10
1.1261227606
 20
14.3177237558
 10
0.8257358365
 20
14.3094133965
 10
0.5251039115
 20
14.303660143
 10
0.2244231367
 20
14.3004677511
 10
-0.0763065083
 20
14.2998378917
 10
-0.3770850031
 20
14.3017688939
 10
-0.6777161353
 20
14.3062595018
 10
-0.9781999001
 20
14.313311391
 10
-1.2785363023
 20
14.3229228858
 10
-1.5785291437
 20
14.3350877033
 10
-1.8781781261
 20
14.349807511
 10
-2.1774835478
 20
14.3670806413
 10
-2.4762501048
 20
14.386895809
 10
-2.7744772466
 20
14.4092546493
 10
-3.0721655238
 20
14.434155527
 10
-3.3691212837
 20
14.4615822513
 10
-3.6653441295
 20
14.4915364622
 10
-3.9608344581
 20
14.5240165196
 10
-4.2553998074
 20
14.559001313
 10
-4.549040197
 20
14.596492575
 10
-4.8417556074
 20
14.6364885729
 10
-5.1333535186
 20
14.6789629984
 10
-5.4238332157
 20
14.7239175287
 10
-5.7131954136
 20
14.7713504867
 10
-6.0012497371
 20
14.8212305318
 10
-6.2879935588
 20
14.8735589062
 10
-6.573429506
 20
14.9283343678
 10
-6.857375085
 20
14.9855218499
 10
-7.1398288288
 20
15.0451226485
 10
-7.4207922044
 20
15.1071354674
 10
-7.700087119
 20
15.1715213516
 10
-7.9777166261
 20
15.2382828588
 10
-8.2536776722
 20
15.3074174313
 10
-8.5277830042
 20
15.3788784408
 10
-8.800034103
 20
15.4526685944
 10
-9.0704294877
 20
15.528785185
 10
-9.3387774625
 20
15.6071734632
 10
-9.6050682996
 20
15.6878325545
 10
-9.8693117269
 20
15.7707633335
 10
-10.131345232
 20
15.8559136739
 10
-10.391158906
 20
15.9432811934
 10
-10.648762658
 20
16.0328682744
 10
-10.9040237026
 20
16.1246299379
 10
-11.156952063
 20
16.2185708913
  0
LWPOLYLINE
  5
482
100
AcDbEntity
  8
ASSI
100
AcDbPolyline
 62
250
  6
CONTINUOUS
 90
15
 70
0
 10
-11.156952063
 20
16.2185708913
 10
-11.4075377161
 20
16.3146864272
 10
-11.6556178066
 20
16.4129174452
 10
-11.9012087581
 20
16.513273868
 10
-12.1442941471
 20
16.6157457729
 10
-12.3846618475
 20
16.7202442913
 10
-12.6223095307
 20
16.8267734793
 10
-12.8572395253
 20
16.9353292808
 10
-13.0892466914
 20
17.0458106586
 10
-13.3183266872
 20
17.1582209878
 10
-13.5444838546
 20
17.2725568933
 10
-13.7675260791
 20
17.3887072132
 10
-13.9873893227
 20
17.5066348935
 10
-14.2041376235
 20
17.6263769881
 10
-14.4177709815
 20
17.747933497
  0
LWPOLYLINE
  5
483
100
AcDbEntity
  8
ASSI
100
AcDbPolyline
 62
250
  6
CONTINUOUS
 90
25
 70
0
 10
-9.6205047748
 20
37.7155079523
 10
-9.6413859431
 20
37.7135118722
 10
-9.6621421726
 20
37.7112012917
 10
-9.6827734636
 20
37.7085762107
 10
-9.7032948817
 20
37.7056342878
 10
-9.7236913612
 20
37.7023778644
 10
-9.7439177046
 20
37.6988139654
 10
-9.7639727879
 20
37.6949420061
 10
-9.7838577352
 20
37.6907625711
 10
-9.8035307209
 20
37.6862844387
 10
-9.8229912557
 20
37.681506984
 10
-9.8422398289
 20
37.6764308319
 10
-9.8612360834
 20
37.6710666349
 10
-9.8799794531
 20
37.6654138022
 10
-9.8984705041
 20
37.6594729245
 10
-9.9166705777
 20
37.6532564267
 10
-9.9345791185
 20
37.6467637065
 10
-9.9521966819
 20
37.6399953661
 10
-9.9694862749
 20
37.6329656372
 10
-9.9864479111
 20
37.6256735643
 10
-10.003081577
 20
37.618120103
 10
-10.0193502397
 20
37.6103223508
 10
-10.0352415548
 20
37.602286007
 10
-10.0507678667
 20
37.5940053724
 10
-10.0659291754
 20
37.585480447
  0
LWPOLYLINE
  5
484
100
AcDbEntity
  8
ASSI
100
AcDbPolyline
 62
7
  6
CONTINUOUS
 90
10
 70
0
 10
-9.664178845
 20
37.8053616318
 10
-9.6813135282
 20
37.8037781059
 10
-9.7740317511
 20
37.7923833371
 10
-9.8660499135
 20
37.7761846389
 10
-9.9573866683
 20
37.754966118
 10
-10.0472823793
 20
37.7286361175
 10
-10.13442847
 20
37.6973713944
 10
-10.2182762443
 20
37.6612193813
 10
-10.2988036177
 20
37.619967964
 10
-10.3161408852
 20
37.6101354781
  0
LWPOLYLINE
  5
485
100
AcDbEntity
  8
ASSI
100
AcDbPolyline
 62
7
  6
CONTINUOUS
 90
10
 70
0
 10
-9.6642086051
 20
37.8053591269
 10
-8.8318202379
 20
37.8770124814
 10
-7.998749581
 20
37.9459591529
 10
-7.1650229293
 20
38.0121969864
 10
-6.3306666049
 20
38.0757239113
 10
-5.4957069355
 20
38.1365379428
 10
-4.6601702534
 20
38.194637182
 10
-3.8240829237
 20
38.2500198137
 10
-2.9874713428
 20
38.3026841069
 10
-2.1503619159
 20
38.3526284162
  0
LWPOLYLINE
  5
486
100
AcDbEntity
  8
ASSI
100
AcDbPolyline
 62
250
  6
CONTINUOUS
 90
10
 70
0
 10
-2.1214001643
 20
38.2617030424
 10
-2.9569780743
 20
38.2118492752
 10
-3.7919767615
 20
38.1592863611
 10
-4.6263962257
 20
38.1040143001
 10
-5.4602455246
 20
38.0460324216
 10
-6.2935156006
 20
37.9853413962
 10
-7.1261792809
 20
37.9219432355
 10
-7.9582275079
 20
37.8558386098
 10
-8.7896693392
 20
37.7870268487
 10
-9.6205047748
 20
37.7155079523
  0
LWPOLYLINE
  5
487
100
AcDbEntity
  8
ASSI
100
AcDbPolyline
 62
7
  6
CONTINUOUS
 90
43
 70
0
 10
-2.1503619159
 20
38.3526284162
 10
-1.29732684
 20
38.3922424075
 10
-0.4422982721
 20
38.4122297358
 10
0.4134064454
 20
38.4125616783
 10
1.2684566908
 20
38.3932385349
 10
2.1215473716
 20
38.3542889423
 10
2.9714015584
 20
38.2957669319
 10
3.8167072174
 20
38.2177556253
 10
4.6561632682
 20
38.1203660909
 10
5.4885207237
 20
38.0037306494
 10
6.3124976785
 20
37.8680126043
 10
7.1268177617
 20
37.7134037734
 10
7.9302615159
 20
37.5401136352
 10
8.721605565
 20
37.3483791768
 10
9.4996010119
 20
37.1384734612
 10
10.2630242712
 20
36.9106957662
 10
11.0106794751
 20
36.6653700931
 10
11.7414155067
 20
36.4028379309
 10
12.4541210357
 20
36.1234567447
 10
13.1477167413
 20
35.8276004501
 10
13.8210805571
 20
35.5156936568
 10
14.4730968304
 20
35.1881991
 10
15.1027893425
 20
34.8455479176
 10
15.7091204782
 20
34.4882389296
 10
16.2909732047
 20
34.1168722018
 10
16.8475149888
 20
33.7319198846
 10
17.3778015438
 20
33.3339673942
 10
17.8806893439
 20
32.9238329425
 10
18.3554874008
 20
32.5020581153
 10
18.801428928
 20
32.0692935961
 10
19.2174602157
 20
31.6265843756
 10
19.6030343639
 20
31.1745880082
 10
19.9576400719
 20
30.7139772114
 10
20.2805109526
 20
30.2458891542
 10
20.571239039
 20
29.7711579915
 10
20.8295992366
 20
29.2904131512
 10
21.0552701339
 20
28.8045455831
 10
21.2480303922
 20
28.3144122819
 10
21.4077715107
 20
27.8207329649
 10
21.5344130439
 20
27.3242443497
 10
21.6278973697
 20
26.8257577102
 10
21.6882145238
 20
26.3261411397
 10
21.7154209896
 20
25.8262440877
  0
ARC
  5
488
100
AcDbEntity
  8
0
100
AcDbCircle
 62
7
  6
CONTINUOUS
 10
7.0710677384
 20
28.2774380188
 40
2.5
100
AcDbArc
 50
20.0560726675
 51
159.9439273325
  0
ARC
  5
489
100
AcDbEntity
  8
ASSI
100
AcDbCircle
 62
7
  6
CONTINUOUS
 10
18.4951598411
 20
-6.8343833258
 40
1.3
100
AcDbArc
 50
299.9785329905
 51
319.6108862923
  0
ARC
  5
48A
100
AcDbEntity
  8
ASSI
100
AcDbCircle
 62
7
  6
CONTINUOUS
 10
9.0565463554
 20
-12.2841204588
 40
1.3
100
AcDbArc
 50
297.0697137838
 51
300.0015984348
  0
ELLIPSE
  5
48B
100
AcDbEntity
  8
0
100
AcDbEllipse
 62
7
  6
CONTINUOUS
 10
71.2108444732
 20
10.8886540806
 30
0.0
 11
103.9243339701
 21
64.4824670112
 31
0.0
 40
0.211095754
 41
8.3398877423
 42
8.3410583554
  0
ELLIPSE
  5
48C
100
AcDbEntity
  8
0
100
AcDbEllipse
 62
7
  6
CONTINUOUS
 10
-43.3126779715
 20
-54.6742134763
 30
0.0
 11
102.3269149614
 21
63.4929568734
 31
0.0
 40
0.2111318954
 41
0.7737898375
 42
0.7751207673
  0
ENDSEC
  0
SECTION
  2
OBJECTS
  0
DICTIONARY
  5
C
100
AcDbDictionary
280
0
281
1
  3
ACAD_GROUP
350
D
  3
ACAD_MLINESTYLE
350
17
  3
ACAD_LAYOUT
350
1A
  3
ACAD_PLOTSETTINGS
350
19
  3
ACAD_PLOTSTYLENAME
350
E
  0
DICTIONARY
  5
D
102
{ACAD_REACTORS
330
C
102
}
100
AcDbDictionary
280
0
281
1
  0
ACDBDICTIONARYWDFLT
  5
E
102
{ACAD_REACTORS
330
C
102
}
100
AcDbDictionary
281
1
  3
Normal
350
F
100
AcDbDictionaryWithDefault
340
F
  0
DICTIONARY
  5
17
102
{ACAD_REACTORS
330
C
102
}
100
AcDbDictionary
280
0
281
1
  3
Standard
350
18
  0
DICTIONARY
  5
19
102
{ACAD_REACTORS
330
C
102
}
100
AcDbDictionary
281
1
  0
DICTIONARY
  5
1A
102
{ACAD_REACTORS
330
C
102
}
100
AcDbDictionary
281
1
  3
Model
350
48D
  3
Layout1
350
48E
  0
ACDBPLACEHOLDER
  5
F
102
{ACAD_REACTORS
330
E
102
}
  0
MLINESTYLE
  5
18
102
{ACAD_REACTORS
330
17
102
}
100
AcDbMlineStyle
  2
STANDARD
 70
0
  3

 62
256
 51
90.0
 52
90.0
 71
2
 49
0.5
 62
256
  6
BYLAYER
 49
-0.5
 62
256
  6
BYLAYER
  0
LAYOUT
  5
48D
102
{ACAD_REACTORS
330
1A
102
}
100
AcDbPlotSettings
  1

  2
none_device
  4
ISO_A4_(297.00_x_210.00_MM)
  6

 40
0.0
 41
0.0
 42
0.0
 43
0.0
 44
297.0
 45
210.0
 46
0.0
 47
0.0
 48
0.0
 49
0.0
140
0.0
141
0.0
142
1.0
143
1.0
 70
1024
 72
1
 73
0
 74
0
  7

 75
0
147
1.0
148
0.0
149
0.0
100
AcDbLayout
  1
Model
 70
0
 71
0
 10
0.0
 20
0.0
 11
297.0
 21
210.0
 12
0.0
 22
0.0
 32
0.0
 14
0.0
 24
0.0
 34
0.0
 15
0.0
 25
0.0
 35
0.0
146
0.0
 13
0.0
 23
0.0
 33
0.0
 16
1.0
 26
0.0
 36
0.0
 17
0.0
 27
1.0
 37
0.0
 76
0
330
21F
345
0
346
0
  0
LAYOUT
  5
48E
102
{ACAD_REACTORS
330
1A
102
}
100
AcDbPlotSettings
  1

  2
none_device
  4
ISO_A4_(297.00_x_210.00_MM)
  6

 40
0.0
 41
0.0
 42
0.0
 43
0.0
 44
297.0
 45
210.0
 46
0.0
 47
0.0
 48
0.0
 49
0.0
140
0.0
141
0.0
142
1.0
143
1.0
 70
0
 72
1
 73
0
 74
0
  7

 75
0
147
1.0
148
0.0
149
0.0
100
AcDbLayout
  1
Layout1
 70
0
 71
1
 10
0.0
 20
0.0
 11
297.0
 21
210.0
 12
0.0
 22
0.0
 32
0.0
 14
0.0
 24
0.0
 34
0.0
 15
0.0
 25
0.0
 35
0.0
146
0.0
 13
0.0
 23
0.0
 33
0.0
 16
1.0
 26
0.0
 36
0.0
 17
0.0
 27
1.0
 37
0.0
 76
0
330
220
345
0
346
0
  0
ENDSEC
  0
EOF
