  0
SECTION
  2
HEADER
  9
$ACADVER
  1
AC1024
  9
$DWGCODEPAGE
  3
ANSI_1252
  9
$EXTMAX
 10
297.0
 20
210.0
 30
0.0
  9
$EXTMIN
 10
0.0
 20
0.0
 30
0.0
  9
$LIMMIN
 10
0.0
 20
0.0
  9
$LIMMAX
 10
297.0
 20
210.0
  9
$VIEWCTR
 10
148.5
 20
105.0
  9
$VIEWSIZE
 40
210.0
  9
$CLAYER
  8
0
  9
$LTSCALE
 40
16.335
  9
$CELTYPE
  6
BYLAYER
  9
$DIMSCALE
 40
1.0
  9
$DIMASZ
 40
3.0
  9
$DIMEXO
 40
0.5
  9
$DIMDLI
 40
11.286
  9
$DIMEXE
 40
1.5
  9
$DIMCEN
 40
2.673
  9
$DIMLFAC
 40
1.0
  9
$DIMBLK
  1
_FILLED
  9
$DIMALT
 70
0
  9
$DIMALTF
 40
0.0393700787
  9
$DIMTXT
 40
3.0
  9
$DIMTOL
 70
1
  9
$DIMLIM
 70
0
  9
$DIMTFAC
 40
1.0
  9
$DIMTP
 40
0.01
  9
$DIMTM
 40
0.01
  9
$DIMGAP
 40
0.625
  9
$DIMDSEP
 70
44
  9
$AUNITS
 70
0
  9
$PDMODE
 70
3
  9
$PDSIZE
 40
3.0
  9
$HANDSEED
  5
408
  9
$TILEMODE
 70
1
  9
$MEASUREMENT
 70
1
  9
$INSUNITS
 70
4
  0
ENDSEC
  0
SECTION
  2
CLASSES
  0
CLASS
  1
ACDBDICTIONARYWDFLT
  2
AcDbDictionaryWithDefault
  3
AutoCAD 2000
 90
0
 91
1
280
0
281
0
  0
CLASS
  1
ACDBPLACEHOLDER
  2
AcDbPlaceHolder
  3
AutoCAD 2000
 90
0
 91
1
280
0
281
0
  0
CLASS
  1
LAYOUT
  2
AcDbLayout
  3
AutoCAD 2000
 90
0
 91
0
280
0
281
0
  0
ENDSEC
  0
SECTION
  2
TABLES
  0
TABLE
  2
VPORT
  5
8
100
AcDbSymbolTable
 70
2
  0
VPORT
  5
1F4
100
AcDbSymbolTableRecord
100
AcDbViewportTableRecord
  2
*ACTIVE
 70
0
 10
0.0
 20
0.0
 11
1.0
 21
1.0
 12
148.5
 22
105.0
 13
0.0
 23
0.0
 14
1.0
 24
1.0
 15
0.0
 25
0.0
 16
0.0
 26
0.0
 36
1.0
 17
0.0
 27
0.0
 37
0.0
 40
210.0
 41
1.4142857143
 42
50.0
 43
0.0
 44
0.0
 50
0.0
 51
0.0
 71
0
 72
100
 73
1
 74
1
 75
0
 76
0
 77
0
 78
0
  0
ENDTAB
  0
TABLE
  2
LTYPE
  5
5
100
AcDbSymbolTable
 70
6
  0
LTYPE
  5
14
100
AcDbSymbolTableRecord
100
AcDbLinetypeTableRecord
  2
BYBLOCK
 70
0
  3

 72
65
 73
0
 40
0.0
  0
LTYPE
  5
15
100
AcDbSymbolTableRecord
100
AcDbLinetypeTableRecord
  2
BYLAYER
 70
0
  3

 72
65
 73
0
 40
0.0
  0
LTYPE
  5
16
100
AcDbSymbolTableRecord
100
AcDbLinetypeTableRecord
  2
CONTINUOUS
 70
64
  3
Solid line
 72
65
 73
0
 40
0.0
  0
LTYPE
  5
1F5
100
AcDbSymbolTableRecord
100
AcDbLinetypeTableRecord
  2
CENTER
 70
64
  3
____ _ ____ _ ____ _ ____ _ ____ _ ____ _ ____
 72
65
 73
4
 40
0.6
 49
0.375
 74
0
 49
-0.075
 74
0
 49
0.075
 74
0
 49
-0.075
 74
0
  0
LTYPE
  5
1F6
100
AcDbSymbolTableRecord
100
AcDbLinetypeTableRecord
  2
HIDDEN
 70
64
  3
- - - - - - - - - - - - - - - - - - - -
 72
65
 73
2
 40
0.2
 49
0.1
 74
0
 49
-0.1
 74
0
  0
LTYPE
  5
1F7
100
AcDbSymbolTableRecord
100
AcDbLinetypeTableRecord
  2
PHANTOM
 70
64
  3
_____ _ _ _____ _ _ _____ _ _ _____
 72
65
 73
6
 40
0.8
 49
0.45
 74
0
 49
-0.05
 74
0
 49
0.1
 74
0
 49
-0.05
 74
0
 49
0.1
 74
0
 49
-0.05
 74
0
  0
LTYPE
  5
1F8
100
AcDbSymbolTableRecord
100
AcDbLinetypeTableRecord
  2
DOT
 70
64
  3
. . . . . . . . . . . . . . . . . . . .
 72
65
 73
2
 40
0.2
 49
0.1
 74
0
 49
-0.1
 74
0
  0
LTYPE
  5
1F9
100
AcDbSymbolTableRecord
100
AcDbLinetypeTableRecord
  2
DASHED
 70
64
  3
- - - - - - - - - - - - - - - - - - - -
 72
65
 73
2
 40
0.2
 49
0.1
 74
0
 49
-0.1
 74
0
  0
ENDTAB
  0
TABLE
  2
LAYER
  5
2
100
AcDbSymbolTable
 70
36
  0
LAYER
  5
10
100
AcDbSymbolTableRecord
100
AcDbLayerTableRecord
  2
0
 70
0
 62
7
  6
CONTINUOUS
370
-3
390
F
  0
LAYER
  5
1FA
100
AcDbSymbolTableRecord
100
AcDbLayerTableRecord
  2
DEFAULT_1
 70
0
 62
7
  6
CENTER
370
-3
390
F
  0
LAYER
  5
1FB
100
AcDbSymbolTableRecord
100
AcDbLayerTableRecord
  2
DEFAULT_2
 70
0
 62
7
  6
HIDDEN
370
-3
390
F
  0
LAYER
  5
1FC
100
AcDbSymbolTableRecord
100
AcDbLayerTableRecord
  2
DEFAULT_3
 70
0
 62
7
  6
PHANTOM
370
-3
390
F
  0
LAYER
  5
1FD
100
AcDbSymbolTableRecord
100
AcDbLayerTableRecord
  2
255013570
 70
0
 62
7
  6
CONTINUOUS
370
-3
390
F
  0
LAYER
  5
1FE
100
AcDbSymbolTableRecord
100
AcDbLayerTableRecord
  2
261013570
 70
0
 62
7
  6
CONTINUOUS
370
-3
390
F
  0
LAYER
  5
1FF
100
AcDbSymbolTableRecord
100
AcDbLayerTableRecord
  2
280013570
 70
0
 62
7
  6
CONTINUOUS
370
-3
390
F
  0
LAYER
  5
200
100
AcDbSymbolTableRecord
100
AcDbLayerTableRecord
  2
ASSI
 70
0
 62
7
  6
CONTINUOUS
370
-3
390
F
  0
LAYER
  5
201
100
AcDbSymbolTableRecord
100
AcDbLayerTableRecord
  2
COORDINATE
 70
0
 62
7
  6
CONTINUOUS
370
-3
390
F
  0
LAYER
  5
202
100
AcDbSymbolTableRecord
100
AcDbLayerTableRecord
  2
COORD_ORIGINE
 70
0
 62
7
  6
CONTINUOUS
370
-3
390
F
  0
LAYER
  5
203
100
AcDbSymbolTableRecord
100
AcDbLayerTableRecord
  2
COPY-PUBBLISH
 70
0
 62
7
  6
CONTINUOUS
370
-3
390
F
  0
LAYER
  5
204
100
AcDbSymbolTableRecord
100
AcDbLayerTableRecord
  2
CURVE
 70
0
 62
7
  6
CONTINUOUS
370
-3
390
F
  0
LAYER
  5
205
100
AcDbSymbolTableRecord
100
AcDbLayerTableRecord
  2
DRAFT
 70
0
 62
7
  6
CONTINUOUS
370
-3
390
F
  0
LAYER
  5
206
100
AcDbSymbolTableRecord
100
AcDbLayerTableRecord
  2
IGES
 70
0
 62
7
  6
CONTINUOUS
370
-3
390
F
  0
LAYER
  5
207
100
AcDbSymbolTableRecord
100
AcDbLayerTableRecord
  2
INTF_1
 70
0
 62
7
  6
CONTINUOUS
370
-3
390
F
  0
LAYER
  5
208
100
AcDbSymbolTableRecord
100
AcDbLayerTableRecord
  2
INTF_11
 70
0
 62
7
  6
CONTINUOUS
370
-3
390
F
  0
LAYER
  5
209
100
AcDbSymbolTableRecord
100
AcDbLayerTableRecord
  2
INTF_2
 70
0
 62
7
  6
CONTINUOUS
370
-3
390
F
  0
LAYER
  5
20A
100
AcDbSymbolTableRecord
100
AcDbLayerTableRecord
  2
INTF_3
 70
0
 62
7
  6
CONTINUOUS
370
-3
390
F
  0
LAYER
  5
20B
100
AcDbSymbolTableRecord
100
AcDbLayerTableRecord
  2
NOTE
 70
0
 62
7
  6
CONTINUOUS
370
-3
390
F
  0
LAYER
  5
20C
100
AcDbSymbolTableRecord
100
AcDbLayerTableRecord
  2
PIANI
 70
0
 62
7
  6
CONTINUOUS
370
-3
390
F
  0
LAYER
  5
20D
100
AcDbSymbolTableRecord
100
AcDbLayerTableRecord
  2
PIANI_ORIGINE
 70
0
 62
7
  6
CONTINUOUS
370
-3
390
F
  0
LAYER
  5
20E
100
AcDbSymbolTableRecord
100
AcDbLayerTableRecord
  2
PUNTI
 70
0
 62
7
  6
CONTINUOUS
370
-3
390
F
  0
LAYER
  5
20F
100
AcDbSymbolTableRecord
100
AcDbLayerTableRecord
  2
RACCORDO
 70
0
 62
7
  6
CONTINUOUS
370
-3
390
F
  0
LAYER
  5
210
100
AcDbSymbolTableRecord
100
AcDbLayerTableRecord
  2
RGB____0____0____0__
 70
0
 62
7
  6
CONTINUOUS
370
-3
390
F
  0
LAYER
  5
211
100
AcDbSymbolTableRecord
100
AcDbLayerTableRecord
  2
SMUSSO
 70
0
 62
7
  6
CONTINUOUS
370
-3
390
F
  0
LAYER
  5
212
100
AcDbSymbolTableRecord
100
AcDbLayerTableRecord
  2
SNAPLINE
 70
0
 62
7
  6
CONTINUOUS
370
-3
390
F
  0
LAYER
  5
213
100
AcDbSymbolTableRecord
100
AcDbLayerTableRecord
  2
SUP-SCAVI-INCLINATI
 70
0
 62
7
  6
CONTINUOUS
370
-3
390
F
  0
LAYER
  5
214
100
AcDbSymbolTableRecord
100
AcDbLayerTableRecord
  2
SUP-SCAVI-INCLINATI-SUP
 70
0
 62
7
  6
CONTINUOUS
370
-3
390
F
  0
LAYER
  5
215
100
AcDbSymbolTableRecord
100
AcDbLayerTableRecord
  2
SUPERFICI
 70
0
 62
7
  6
CONTINUOUS
370
-3
390
F
  0
LAYER
  5
216
100
AcDbSymbolTableRecord
100
AcDbLayerTableRecord
  2
SUP_COLORE
 70
0
 62
7
  6
CONTINUOUS
370
-3
390
F
  0
LAYER
  5
217
100
AcDbSymbolTableRecord
100
AcDbLayerTableRecord
  2
TRASH
 70
0
 62
7
  6
CONTINUOUS
370
-3
390
F
  0
LAYER
  5
218
100
AcDbSymbolTableRecord
100
AcDbLayerTableRecord
  2
XSEC_DATUMS
 70
0
 62
7
  6
CONTINUOUS
370
-3
390
F
  0
ENDTAB
  0
TABLE
  2
STYLE
  5
3
100
AcDbSymbolTable
 70
1
  0
STYLE
  5
11
100
AcDbSymbolTableRecord
100
AcDbTextStyleTableRecord
  2
STANDARD
 70
0
 40
0.0
 41
0.8
 50
0.0
 71
0
 42
0.2
  3
txt
  4

  0
STYLE
  5
219
100
AcDbSymbolTableRecord
100
AcDbTextStyleTableRecord
  2
TEXTSTYLE_1
 70
0
 40
0.0
 41
0.8
 50
0.0
 71
0
 42
0.2
  3
gdt
  4

  0
ENDTAB
  0
TABLE
  2
VIEW
  5
6
100
AcDbSymbolTable
 70
0
  0
ENDTAB
  0
TABLE
  2
UCS
  5
7
100
AcDbSymbolTable
 70
0
  0
ENDTAB
  0
TABLE
  2
APPID
  5
9
100
AcDbSymbolTable
 70
1
  0
APPID
  5
21A
100
AcDbSymbolTableRecord
100
AcDbRegAppTableRecord
  2
ACAD
 70
0
  0
ENDTAB
  0
TABLE
  2
BLOCK_RECORD
  5
1
100
AcDbSymbolTable
 70
0
  0
BLOCK_RECORD
  5
21B
100
AcDbSymbolTableRecord
100
AcDbBlockTableRecord
  2
*Model_Space
  0
BLOCK_RECORD
  5
21C
100
AcDbSymbolTableRecord
100
AcDbBlockTableRecord
  2
*Paper_Space
  0
BLOCK_RECORD
  5
21D
100
AcDbSymbolTableRecord
100
AcDbBlockTableRecord
  2
_FILLED
  0
ENDTAB
  0
TABLE
  2
DIMSTYLE
  5
A
100
AcDbSymbolTable
 70
1
100
AcDbDimStyleTable
 71
0
  0
DIMSTYLE
105
21E
100
AcDbSymbolTableRecord
100
AcDbDimStyleTableRecord
  2
STANDARD
 70
0
  3

  4

 40
1.0
 41
3.0
 42
0.5
 43
0.38
 44
1.5
 45
0.0
 46
0.0
 47
0.01
 48
0.01
140
3.0
141
0.09
142
0.0
143
25.4
144
1.0
145
0.0
146
1.0
147
0.625
 71
1
 72
0
 73
0
 74
0
 75
0
 76
0
 77
1
 78
8
 79
2
170
0
171
1
172
0
173
0
174
0
175
0
176
0
177
0
178
0
270
2
179
2
271
2
272
2
273
2
274
2
275
0
280
0
281
0
282
0
283
1
284
8
285
0
286
0
287
3
288
0
340
11
278
44
341
21D
342
21D
343
21D
344
21D
  0
ENDTAB
  0
ENDSEC
  0
SECTION
  2
BLOCKS
  0
BLOCK
  5
20
100
AcDbEntity
  8
0
100
AcDbBlockBegin
  2
*Model_Space
 70
0
 10
0.0
 20
0.0
 30
0.0
  3
*Model_Space
  1

  0
ENDBLK
  5
21
100
AcDbEntity
  8
0
100
AcDbBlockEnd
  0
BLOCK
  5
1C
100
AcDbEntity
  8
0
100
AcDbBlockBegin
  2
*Paper_Space
 70
0
 10
0.0
 20
0.0
 30
0.0
  3
*Paper_Space
  1

  0
ENDBLK
  5
1D
100
AcDbEntity
  8
0
100
AcDbBlockEnd
  0
BLOCK
  5
21F
100
AcDbEntity
  8
0
100
AcDbBlockBegin
  2
_FILLED
 70
64
 10
0.0
 20
0.0
  3
_FILLED
  1

  0
SOLID
  5
220
100
AcDbEntity
  8
0
  6
BYBLOCK
 62
0
100
AcDbTrace
 10
0.0
 20
0.0
 11
-1.0
 21
0.3166666667
 12
-1.0
 22
-0.3166666667
 13
-1.0
 23
-0.3166666667
  0
ENDBLK
  5
221
100
AcDbEntity
  8
0
  6
BYBLOCK
 62
0
100
AcDbBlockEnd
  0
ENDSEC
  0
SECTION
  2
ENTITIES
  0
LWPOLYLINE
  5
222
100
AcDbEntity
  8
RACCORDO
100
AcDbPolyline
 62
7
  6
CONTINUOUS
 90
12
 70
0
 10
-17.3867950779
 20
-13.1267339606
 10
-17.3582698841
 20
-13.2152760384
 10
-17.3171224539
 20
-13.3134337935
 10
-17.2669418273
 20
-13.4079634585
 10
-17.2080983714
 20
-13.4980158792
 10
-17.1411538588
 20
-13.5826928028
 10
-17.0663590172
 20
-13.6615668331
 10
-16.9841086968
 20
-13.7340145568
 10
-16.8951541343
 20
-13.7992906317
 10
-16.8000385621
 20
-13.8569259689
 10
-16.6991938584
 20
-13.906501805
 10
-16.6286955885
 20
-13.9350101407
  0
LINE
  5
223
100
AcDbEntity
  8
SUPERFICI
100
AcDbLine
 62
7
  6
CONTINUOUS
 10
-20.9251816114
 20
-3.5354508332
 11
-20.6642952368
 21
-5.0357656463
  0
LINE
  5
224
100
AcDbEntity
  8
DRAFT
100
AcDbLine
 62
7
  6
CONTINUOUS
 10
-21.0165222781
 20
-2.9150931525
 11
-22.8300817846
 21
12.0987110902
  0
LWPOLYLINE
  5
225
100
AcDbEntity
  8
RACCORDO
100
AcDbPolyline
 62
7
  6
CONTINUOUS
 90
14
 70
0
 10
15.6361171315
 20
-23.8433469994
 10
15.7059769763
 20
-23.8586901707
 10
15.8090790752
 20
-23.874446002
 10
15.9132801819
 20
-23.8823372798
 10
16.0179831029
 20
-23.8823838691
 10
16.1216443136
 20
-23.8746847286
 10
16.2242699451
 20
-23.8593766648
 10
16.3257881924
 20
-23.8364859597
 10
16.4245766192
 20
-23.806363126
 10
16.5204117066
 20
-23.7691587267
 10
16.6133783124
 20
-23.7248014022
 10
16.7023193859
 20
-23.673724148
 10
16.7866675456
 20
-23.6162767102
 10
16.8206812718
 20
-23.5902789288
  0
LINE
  5
226
100
AcDbEntity
  8
RACCORDO
100
AcDbLine
 62
250
  6
CONTINUOUS
 10
-16.5655955421
 20
-13.7632886649
 11
-16.7806115978
 21
-13.6847349208
  0
LINE
  5
227
100
AcDbEntity
  8
RACCORDO
100
AcDbLine
 62
250
  6
CONTINUOUS
 10
-16.5662251818
 20
-13.7641383396
 11
-16.7806115978
 21
-13.6847349208
  0
LINE
  5
228
100
AcDbEntity
  8
RACCORDO
100
AcDbLine
 62
7
  6
CONTINUOUS
 10
-16.6283853138
 20
-13.9351558267
 11
-16.6287054529
 21
-13.9350367199
  0
LINE
  5
229
100
AcDbEntity
  8
RACCORDO
100
AcDbLine
 62
250
  6
CONTINUOUS
 10
-16.7806115978
 20
-13.6847349208
 11
-17.3210306976
 21
-11.7488598166
  0
LINE
  5
22A
100
AcDbEntity
  8
RACCORDO
100
AcDbLine
 62
7
  6
CONTINUOUS
 10
-17.9947154421
 20
-10.9449090517
 11
-17.3868058772
 21
-13.126713918
  0
LINE
  5
22B
100
AcDbEntity
  8
RACCORDO
100
AcDbLine
 62
250
  6
CONTINUOUS
 10
-18.1160696337
 20
14.8558897527
 11
-17.038154306
 21
5.4260237514
  0
LINE
  5
22C
100
AcDbEntity
  8
RACCORDO
100
AcDbLine
 62
250
  6
CONTINUOUS
 10
14.5285604622
 20
-13.8668105231
 11
14.4087259307
 21
-13.864391119
  0
LINE
  5
22D
100
AcDbEntity
  8
RACCORDO
100
AcDbLine
 62
7
  6
CONTINUOUS
 10
-15.8880046716
 20
6.1013370499
 11
-17.3122052513
 21
15.6805752608
  0
LINE
  5
22E
100
AcDbEntity
  8
0
100
AcDbLine
 62
7
  6
CONTINUOUS
 10
-10.1589985604
 20
-17.9014233345
 11
-9.4915217412
 21
-22.4347203439
  0
LINE
  5
22F
100
AcDbEntity
  8
RACCORDO
100
AcDbLine
 62
7
  6
CONTINUOUS
 10
-15.9146306543
 20
10.6565091269
 11
-17.189393014
 21
20.0837784639
  0
LINE
  5
230
100
AcDbEntity
  8
RACCORDO
100
AcDbLine
 62
250
  6
CONTINUOUS
 10
-14.0612046243
 20
10.087339949
 11
-15.1714779959
 21
19.4640963113
  0
LINE
  5
231
100
AcDbEntity
  8
0
100
AcDbLine
 62
7
  6
CONTINUOUS
 10
-10.6542818955
 20
2.1955801776
 11
-10.798294108
 21
1.6398554579
  0
LINE
  5
232
100
AcDbEntity
  8
0
100
AcDbLine
 62
7
  6
CONTINUOUS
 10
-10.6396008982
 20
2.0958713647
 11
-10.7609606542
 21
1.6275595788
  0
LINE
  5
233
100
AcDbEntity
  8
0
100
AcDbLine
 62
7
  6
CONTINUOUS
 10
-10.5639404532
 20
1.5626704153
 11
-10.3657191743
 21
2.3200628507
  0
LINE
  5
234
100
AcDbEntity
  8
0
100
AcDbLine
 62
7
  6
CONTINUOUS
 10
-10.7989132483
 20
2.453092554
 11
-11.2225579793
 21
1.7897336415
  0
LINE
  5
235
100
AcDbEntity
  8
0
100
AcDbLine
 62
7
  6
CONTINUOUS
 10
-10.784232251
 20
2.3533837411
 11
-11.1593598806
 21
1.7659947375
  0
LINE
  5
236
100
AcDbEntity
  8
0
100
AcDbLine
 62
7
  6
CONTINUOUS
 10
-10.9725377761
 20
1.6972431055
 11
-10.6542818955
 21
2.1955801776
  0
LWPOLYLINE
  5
237
100
AcDbEntity
  8
RACCORDO
100
AcDbPolyline
 62
7
  6
CONTINUOUS
 90
4
 70
0
 10
-10.0046920052
 20
4.6188935201
 10
-10.0428602978
 20
4.5768323664
 10
-10.1345233531
 20
4.4678439096
 10
-10.2072030665
 20
4.370929361
  0
LINE
  5
238
100
AcDbEntity
  8
COPY-PUBBLISH
100
AcDbLine
 62
250
  6
CONTINUOUS
 10
-10.0102683468
 20
6.9428599784
 11
-10.0052636727
 21
6.9459798086
  0
LINE
  5
239
100
AcDbEntity
  8
COPY-PUBBLISH
100
AcDbLine
 62
250
  6
CONTINUOUS
 10
-10.0102683468
 20
6.9428599784
 11
-10.0051699396
 21
6.945891789
  0
LINE
  5
23A
100
AcDbEntity
  8
RACCORDO
100
AcDbLine
 62
7
  6
CONTINUOUS
 10
-12.9114159954
 20
10.7645047637
 11
-14.3693345851
 21
20.2908715147
  0
LINE
  5
23B
100
AcDbEntity
  8
ASSI
100
AcDbLine
 62
7
  6
CONTINUOUS
 10
-10.0105985351
 20
-17.8795731058
 11
-10.2087140905
 21
-16.5340332625
  0
LINE
  5
23C
100
AcDbEntity
  8
0
100
AcDbLine
 62
7
  6
CONTINUOUS
 10
-10.7989132483
 20
2.453092554
 11
-10.784232251
 21
2.3533837411
  0
LINE
  5
23D
100
AcDbEntity
  8
0
100
AcDbLine
 62
7
  6
CONTINUOUS
 10
-10.6542818955
 20
2.1955801776
 11
-10.6396008982
 21
2.0958713647
  0
LINE
  5
23E
100
AcDbEntity
  8
0
100
AcDbLine
 62
7
  6
CONTINUOUS
 10
-9.9138999051
 20
1.3607221427
 11
-9.9236933931
 21
1.4809317953
  0
LINE
  5
23F
100
AcDbEntity
  8
0
100
AcDbLine
 62
250
  6
CONTINUOUS
 10
6.1298525031
 20
25.9154026071
 11
6.1343006201
 21
25.9223449505
  0
LINE
  5
240
100
AcDbEntity
  8
0
100
AcDbLine
 62
250
  6
CONTINUOUS
 10
6.1298505378
 20
25.9154160589
 11
6.1343277104
 21
25.9221566147
  0
LINE
  5
241
100
AcDbEntity
  8
ASSI
100
AcDbLine
 62
7
  6
CONTINUOUS
 10
-1.2796302024
 20
11.7130043982
 11
-3.4158206268
 21
9.9354466136
  0
LINE
  5
242
100
AcDbEntity
  8
ASSI
100
AcDbLine
 62
7
  6
CONTINUOUS
 10
-1.264949205
 20
11.6132955853
 11
-3.4011396295
 21
9.8357378007
  0
LINE
  5
243
100
AcDbEntity
  8
ASSI
100
AcDbLine
 62
7
  6
CONTINUOUS
 10
-3.6249812046
 20
8.8989320302
 11
-0.5225236495
 21
11.4805043106
  0
LINE
  5
244
100
AcDbEntity
  8
0
100
AcDbLine
 62
7
  6
CONTINUOUS
 10
-5.100793316
 20
-17.9306123251
 11
-4.544854232
 21
-21.7063793841
  0
LINE
  5
245
100
AcDbEntity
  8
0
100
AcDbLine
 62
7
  6
CONTINUOUS
 10
-6.1226797282
 20
1.0170665432
 11
-6.1210841461
 21
0.8387069458
  0
LINE
  5
246
100
AcDbEntity
  8
0
100
AcDbLine
 62
7
  6
CONTINUOUS
 10
-6.1079987308
 20
0.9173577302
 11
-6.1065571197
 21
0.7562095281
  0
LINE
  5
247
100
AcDbEntity
  8
0
100
AcDbLine
 62
7
  6
CONTINUOUS
 10
-5.8338522209
 20
0.5586788277
 11
-5.8326287254
 21
0.9279946902
  0
LINE
  5
248
100
AcDbEntity
  8
ASSI
100
AcDbLine
 62
7
  6
CONTINUOUS
 10
-3.7104563139
 20
12.4594875473
 11
-4.3821113455
 21
9.1314302143
  0
LINE
  5
249
100
AcDbEntity
  8
ASSI
100
AcDbLine
 62
7
  6
CONTINUOUS
 10
-3.6957753166
 20
12.3597787344
 11
-4.3486695917
 21
9.1246811352
  0
LINE
  5
24A
100
AcDbEntity
  8
ASSI
100
AcDbLine
 62
7
  6
CONTINUOUS
 10
-3.4158206268
 20
9.9354466136
 11
-2.953349761
 21
12.2269874597
  0
LINE
  5
24B
100
AcDbEntity
  8
ASSI
100
AcDbLine
 62
7
  6
CONTINUOUS
 10
-0.017795448
 20
11.3255071697
 11
-1.9048581913
 21
8.3706897701
  0
LINE
  5
24C
100
AcDbEntity
  8
ASSI
100
AcDbLine
 62
7
  6
CONTINUOUS
 10
-0.0031144507
 20
11.2257983568
 11
-1.8393468051
 21
8.3505726496
  0
LINE
  5
24D
100
AcDbEntity
  8
ASSI
100
AcDbLine
 62
7
  6
CONTINUOUS
 10
-1.1477556612
 20
8.1382000651
 11
0.7393021982
 21
11.0930098173
  0
LINE
  5
24E
100
AcDbEntity
  8
ASSI
100
AcDbLine
 62
7
  6
CONTINUOUS
 10
4.0547066026
 20
10.0748812442
 11
2.118889935
 21
8.3676850275
  0
LINE
  5
24F
100
AcDbEntity
  8
0
100
AcDbLine
 62
7
  6
CONTINUOUS
 10
-6.1226797282
 20
1.0170665432
 11
-6.1079987308
 21
0.9173577302
  0
LINE
  5
250
100
AcDbEntity
  8
0
100
AcDbLine
 62
250
  6
CONTINUOUS
 10
-6.6980362972
 20
6.5101338754
 11
-6.4285972663
 21
4.5873651695
  0
LINE
  5
251
100
AcDbEntity
  8
0
100
AcDbLine
 62
250
  6
CONTINUOUS
 10
-6.2215485764
 20
6.310632593
 11
-6.0072838563
 21
4.7588284133
  0
LINE
  5
252
100
AcDbEntity
  8
0
100
AcDbLine
 62
250
  6
CONTINUOUS
 10
6.6467574361
 20
19.9879960982
 11
6.9710325279
 21
20.659602777
  0
LINE
  5
253
100
AcDbEntity
  8
ASSI
100
AcDbLine
 62
7
  6
CONTINUOUS
 10
1.496371343
 20
10.8605212174
 11
-0.3906776097
 21
7.90570873
  0
LINE
  5
254
100
AcDbEntity
  8
ASSI
100
AcDbLine
 62
7
  6
CONTINUOUS
 10
1.5110523404
 20
10.7608124045
 11
-0.325166886
 21
7.8855910215
  0
LINE
  5
255
100
AcDbEntity
  8
ASSI
100
AcDbLine
 62
7
  6
CONTINUOUS
 10
0.3664200366
 20
7.6732113776
 11
1.610801855
 21
9.6217114051
  0
LINE
  5
256
100
AcDbEntity
  8
ASSI
100
AcDbLine
 62
7
  6
CONTINUOUS
 10
6.2493791976
 20
16.6970710366
 11
4.6958108853
 21
14.2644351251
  0
LINE
  5
257
100
AcDbEntity
  8
SMUSSO
100
AcDbLine
 62
7
  6
CONTINUOUS
 10
6.3326411443
 20
16.5002540754
 11
4.7349602115
 21
13.9985449573
  0
LINE
  5
258
100
AcDbEntity
  8
RACCORDO
100
AcDbLine
 62
250
  6
CONTINUOUS
 10
6.0482497129
 20
14.3999804335
 11
5.8790661222
 21
14.1350663804
  0
LINE
  5
259
100
AcDbEntity
  8
ASSI
100
AcDbLine
 62
7
  6
CONTINUOUS
 10
4.0693876
 20
9.9751724313
 11
2.1335709324
 21
8.2679762146
  0
LINE
  5
25A
100
AcDbEntity
  8
ASSI
100
AcDbLine
 62
7
  6
CONTINUOUS
 10
1.839293591
 20
7.2209144938
 11
3.7994602512
 21
8.9495956153
  0
LINE
  5
25B
100
AcDbEntity
  8
ASSI
100
AcDbLine
 62
7
  6
CONTINUOUS
 10
6.9193578128
 20
9.1951837574
 11
3.8169140778
 21
6.6135980858
  0
LINE
  5
25C
100
AcDbEntity
  8
ASSI
100
AcDbLine
 62
7
  6
CONTINUOUS
 10
6.9340388101
 20
9.0954749445
 11
3.9151635195
 21
6.5834277132
  0
LINE
  5
25D
100
AcDbEntity
  8
0
100
AcDbLine
 62
7
  6
CONTINUOUS
 10
-4.6317398185
 20
0.5592133411
 11
-4.7731168819
 21
0.4714839284
  0
LINE
  5
25E
100
AcDbEntity
  8
0
100
AcDbLine
 62
7
  6
CONTINUOUS
 10
-4.3778008464
 20
0.4513637631
 11
-4.3454554574
 21
0.4712981873
  0
LINE
  5
25F
100
AcDbEntity
  8
0
100
AcDbLine
 62
7
  6
CONTINUOUS
 10
-4.6317398185
 20
0.5592133411
 11
-4.6170588212
 21
0.4595045281
  0
LINE
  5
260
100
AcDbEntity
  8
ASSI
100
AcDbLine
 62
7
  6
CONTINUOUS
 10
1.610801855
 20
9.6217114051
 11
1.0822102089
 21
7.4533991502
  0
LINE
  5
261
100
AcDbEntity
  8
ASSI
100
AcDbLine
 62
7
  6
CONTINUOUS
 10
1.6254828524
 20
9.5220025922
 11
1.1190112041
 21
7.4444277954
  0
LINE
  5
262
100
AcDbEntity
  8
ASSI
100
AcDbLine
 62
7
  6
CONTINUOUS
 10
2.118889935
 20
8.3676850275
 11
2.6408995695
 21
10.5090476872
  0
LINE
  5
263
100
AcDbEntity
  8
ASSI
100
AcDbLine
 62
7
  6
CONTINUOUS
 10
3.7994602512
 20
8.9495956153
 11
2.5550882301
 21
7.0010925791
  0
LINE
  5
264
100
AcDbEntity
  8
ASSI
100
AcDbLine
 62
7
  6
CONTINUOUS
 10
3.8141412486
 20
8.8498868024
 11
2.6205985536
 21
6.9809749934
  0
LINE
  5
265
100
AcDbEntity
  8
ASSI
100
AcDbLine
 62
7
  6
CONTINUOUS
 10
3.3121858763
 20
6.7685952267
 11
5.1992348291
 21
9.723407714
  0
LINE
  5
266
100
AcDbEntity
  8
ASSI
100
AcDbLine
 62
7
  6
CONTINUOUS
 10
8.7038240048
 20
13.0336131255
 11
10.9106513519
 21
16.4891466947
  0
LINE
  5
267
100
AcDbEntity
  8
ASSI
100
AcDbLine
 62
7
  6
CONTINUOUS
 10
4.574016164
 20
6.3811076855
 11
5.184132828
 21
6.8887906306
  0
LINE
  5
268
100
AcDbEntity
  8
ASSI
100
AcDbLine
 62
7
  6
CONTINUOUS
 10
5.7736043708
 20
7.37928355
 11
6.7102021485
 21
8.158658518
  0
LINE
  5
269
100
AcDbEntity
  8
RACCORDO
100
AcDbLine
 62
250
  6
CONTINUOUS
 10
-8.5426630292
 20
0.0135712218
 11
-8.5112901226
 21
0.0072513797
  0
LINE
  5
26A
100
AcDbEntity
  8
RACCORDO
100
AcDbLine
 62
250
  6
CONTINUOUS
 10
-8.5425624585
 20
0.0137878413
 11
-8.5112901226
 21
0.0072513797
  0
LINE
  5
26B
100
AcDbEntity
  8
0
100
AcDbLine
 62
7
  6
CONTINUOUS
 10
-5.8329437915
 20
0.8328910231
 11
-6.1079987308
 21
0.9173577302
  0
LINE
  5
26C
100
AcDbEntity
  8
0
100
AcDbLine
 62
7
  6
CONTINUOUS
 10
-10.3924348901
 20
2.2330665673
 11
-10.784232251
 21
2.3533837411
  0
LINE
  5
26D
100
AcDbEntity
  8
0
100
AcDbLine
 62
7
  6
CONTINUOUS
 10
-4.3454554574
 20
0.4712981873
 11
-4.6317398185
 21
0.5592133411
  0
LINE
  5
26E
100
AcDbEntity
  8
0
100
AcDbLine
 62
7
  6
CONTINUOUS
 10
-5.8326287254
 20
0.9279946902
 11
-6.1226797282
 21
1.0170665432
  0
LINE
  5
26F
100
AcDbEntity
  8
0
100
AcDbLine
 62
7
  6
CONTINUOUS
 10
-10.3657191743
 20
2.3200628507
 11
-10.7989132483
 21
2.453092554
  0
LINE
  5
270
100
AcDbEntity
  8
0
100
AcDbLine
 62
7
  6
CONTINUOUS
 10
-8.6762679034
 20
2.3272053338
 11
-8.4216251939
 21
2.2490070247
  0
LINE
  5
271
100
AcDbEntity
  8
0
100
AcDbLine
 62
7
  6
CONTINUOUS
 10
-7.0288348579
 20
1.8212946058
 11
-6.7807961703
 21
1.7451243278
  0
LINE
  5
272
100
AcDbEntity
  8
RACCORDO
100
AcDbLine
 62
7
  6
CONTINUOUS
 10
-17.3159702459
 20
5.5113383351
 11
-17.038154306
 21
5.4260237514
  0
LINE
  5
273
100
AcDbEntity
  8
ASSI
100
AcDbLine
 62
7
  6
CONTINUOUS
 10
-3.4158206268
 20
9.9354466136
 11
-3.4011396295
 21
9.8357378007
  0
LINE
  5
274
100
AcDbEntity
  8
ASSI
100
AcDbLine
 62
7
  6
CONTINUOUS
 10
-3.7104563139
 20
12.4594875473
 11
-3.6957753166
 21
12.3597787344
  0
LINE
  5
275
100
AcDbEntity
  8
0
100
AcDbLine
 62
7
  6
CONTINUOUS
 10
1.1897657054
 20
-19.895447613
 11
2.1361194841
 21
-26.3227910523
  0
LINE
  5
276
100
AcDbEntity
  8
0
100
AcDbLine
 62
7
  6
CONTINUOUS
 10
9.1377812686
 20
15.8872066461
 11
8.8135061769
 21
15.2155999673
  0
LINE
  5
277
100
AcDbEntity
  8
RACCORDO
100
AcDbLine
 62
7
  6
CONTINUOUS
 10
-9.8918136915
 20
4.4839772098
 11
-9.9631894043
 21
4.5134549939
  0
LINE
  5
278
100
AcDbEntity
  8
ASSI
100
AcDbLine
 62
7
  6
CONTINUOUS
 10
-1.2796302024
 20
11.7130043982
 11
-1.264949205
 21
11.6132955853
  0
LINE
  5
279
100
AcDbEntity
  8
ASSI
100
AcDbLine
 62
7
  6
CONTINUOUS
 10
-0.017795448
 20
11.3255071697
 11
-0.0031144507
 21
11.2257983568
  0
LINE
  5
27A
100
AcDbEntity
  8
0
100
AcDbLine
 62
7
  6
CONTINUOUS
 10
6.4188922032
 20
13.8665937776
 11
6.5868322216
 21
15.899389967
  0
LINE
  5
27B
100
AcDbEntity
  8
ASSI
100
AcDbLine
 62
7
  6
CONTINUOUS
 10
6.3798380379
 20
6.5216011446
 11
6.2477446293
 21
5.8671218888
  0
LINE
  5
27C
100
AcDbEntity
  8
ASSI
100
AcDbLine
 62
7
  6
CONTINUOUS
 10
6.7102021485
 20
8.158658518
 11
6.5074314929
 21
7.1539323501
  0
LINE
  5
27D
100
AcDbEntity
  8
ASSI
100
AcDbLine
 62
7
  6
CONTINUOUS
 10
6.3945190352
 20
6.4218923317
 11
6.2811875297
 21
5.8603721154
  0
LINE
  5
27E
100
AcDbEntity
  8
ASSI
100
AcDbLine
 62
7
  6
CONTINUOUS
 10
6.7248831458
 20
8.0589497051
 11
6.5221124902
 21
7.0542235372
  0
LINE
  5
27F
100
AcDbEntity
  8
ASSI
100
AcDbLine
 62
7
  6
CONTINUOUS
 10
9.3966296711
 20
8.4344375694
 11
7.5095802744
 21
5.4796243869
  0
LINE
  5
280
100
AcDbEntity
  8
ASSI
100
AcDbLine
 62
7
  6
CONTINUOUS
 10
9.4113106684
 20
8.3347287565
 11
7.575090998
 21
5.4595066783
  0
LINE
  5
281
100
AcDbEntity
  8
ASSI
100
AcDbLine
 62
7
  6
CONTINUOUS
 10
9.3349936198
 20
6.9394685719
 11
9.7941869849
 21
7.6585075594
  0
LINE
  5
282
100
AcDbEntity
  8
ASSI
100
AcDbLine
 62
7
  6
CONTINUOUS
 10
8.2666877179
 20
5.2471240257
 11
8.9964143054
 21
6.3895989887
  0
LINE
  5
283
100
AcDbEntity
  8
RACCORDO
100
AcDbLine
 62
250
  6
CONTINUOUS
 10
2.5366527831
 20
3.5652578101
 11
2.5368767926
 21
3.563742928
  0
LINE
  5
284
100
AcDbEntity
  8
ASSI
100
AcDbLine
 62
7
  6
CONTINUOUS
 10
1.610801855
 20
9.6217114051
 11
1.6254828524
 21
9.5220025922
  0
LINE
  5
285
100
AcDbEntity
  8
ASSI
100
AcDbLine
 62
7
  6
CONTINUOUS
 10
1.496371343
 20
10.8605212174
 11
1.5110523404
 21
10.7608124045
  0
LINE
  5
286
100
AcDbEntity
  8
0
100
AcDbLine
 62
7
  6
CONTINUOUS
 10
6.468202404
 20
-21.4203808213
 11
7.0827869933
 21
-25.5944500925
  0
LINE
  5
287
100
AcDbEntity
  8
ASSI
100
AcDbLine
 62
7
  6
CONTINUOUS
 10
2.118889935
 20
8.3676850275
 11
2.1335709324
 21
8.2679762146
  0
LINE
  5
288
100
AcDbEntity
  8
ASSI
100
AcDbLine
 62
7
  6
CONTINUOUS
 10
3.7994602512
 20
8.9495956153
 11
3.8141412486
 21
8.8498868024
  0
LINE
  5
289
100
AcDbEntity
  8
ASSI
100
AcDbLine
 62
7
  6
CONTINUOUS
 10
4.0547066026
 20
10.0748812442
 11
4.0693876
 21
9.9751724313
  0
LINE
  5
28A
100
AcDbEntity
  8
ASSI
100
AcDbLine
 62
7
  6
CONTINUOUS
 10
7.004847633
 20
5.6346145756
 11
7.6764928672
 21
8.9626749173
  0
LINE
  5
28B
100
AcDbEntity
  8
RACCORDO
100
AcDbLine
 62
7
  6
CONTINUOUS
 10
-15.9146306543
 20
10.6565091269
 11
-14.0612046243
 21
10.087339949
  0
LINE
  5
28C
100
AcDbEntity
  8
ASSI
100
AcDbLine
 62
7
  6
CONTINUOUS
 10
9.686258274
 20
4.8111876607
 11
10.5390160452
 21
4.5493231579
  0
LINE
  5
28D
100
AcDbEntity
  8
ASSI
100
AcDbLine
 62
7
  6
CONTINUOUS
 10
3.8169140778
 20
6.6135980858
 11
4.574016164
 21
6.3811076855
  0
LINE
  5
28E
100
AcDbEntity
  8
ASSI
100
AcDbLine
 62
7
  6
CONTINUOUS
 10
-0.3906776097
 20
7.90570873
 11
0.3664200366
 21
7.6732113776
  0
LINE
  5
28F
100
AcDbEntity
  8
ASSI
100
AcDbLine
 62
7
  6
CONTINUOUS
 10
2.5550882301
 20
7.0010925791
 11
3.3121858763
 21
6.7685952267
  0
LINE
  5
290
100
AcDbEntity
  8
ASSI
100
AcDbLine
 62
7
  6
CONTINUOUS
 10
7.5095802744
 20
5.4796243869
 11
8.2666877179
 21
5.2471240257
  0
LINE
  5
291
100
AcDbEntity
  8
ASSI
100
AcDbLine
 62
7
  6
CONTINUOUS
 10
1.0822102089
 20
7.4533991502
 11
1.839293591
 21
7.2209144938
  0
LINE
  5
292
100
AcDbEntity
  8
ASSI
100
AcDbLine
 62
7
  6
CONTINUOUS
 10
-1.9048581913
 20
8.3706897701
 11
-1.1477556612
 21
8.1382000651
  0
LINE
  5
293
100
AcDbEntity
  8
ASSI
100
AcDbLine
 62
7
  6
CONTINUOUS
 10
6.2477446293
 20
5.8671218888
 11
7.004847633
 21
5.6346145756
  0
LINE
  5
294
100
AcDbEntity
  8
ASSI
100
AcDbLine
 62
7
  6
CONTINUOUS
 10
-4.3821113455
 20
9.1314302143
 11
-3.6249812046
 21
8.8989320302
  0
LINE
  5
295
100
AcDbEntity
  8
SMUSSO
100
AcDbLine
 62
250
  6
CONTINUOUS
 10
4.6958108853
 20
14.2644351251
 11
4.7349602115
 21
13.9985449573
  0
LINE
  5
296
100
AcDbEntity
  8
ASSI
100
AcDbLine
 62
7
  6
CONTINUOUS
 10
5.7736043708
 20
7.37928355
 11
5.7882853682
 21
7.2795747371
  0
LINE
  5
297
100
AcDbEntity
  8
ASSI
100
AcDbLine
 62
7
  6
CONTINUOUS
 10
6.3798380379
 20
6.5216011446
 11
6.3945190352
 21
6.4218923317
  0
LINE
  5
298
100
AcDbEntity
  8
ASSI
100
AcDbLine
 62
7
  6
CONTINUOUS
 10
6.5074314929
 20
7.1539323501
 11
6.5221124902
 21
7.0542235372
  0
LINE
  5
299
100
AcDbEntity
  8
ASSI
100
AcDbLine
 62
7
  6
CONTINUOUS
 10
6.7102021485
 20
8.158658518
 11
6.7248831458
 21
8.0589497051
  0
LINE
  5
29A
100
AcDbEntity
  8
ASSI
100
AcDbLine
 62
7
  6
CONTINUOUS
 10
9.6571891684
 20
6.1866722827
 11
9.686258274
 21
4.8111876607
  0
LINE
  5
29B
100
AcDbEntity
  8
ASSI
100
AcDbLine
 62
7
  6
CONTINUOUS
 10
9.6718701657
 20
6.0869634698
 11
9.6988264399
 21
4.8114532728
  0
LINE
  5
29C
100
AcDbEntity
  8
ASSI
100
AcDbLine
 62
7
  6
CONTINUOUS
 10
10.5390160452
 20
4.5493231579
 11
10.5081444903
 21
6.0103602
  0
LINE
  5
29D
100
AcDbEntity
  8
ASSI
100
AcDbLine
 62
7
  6
CONTINUOUS
 10
5.184132828
 20
6.8887906306
 11
6.3798380379
 21
6.5216011446
  0
LINE
  5
29E
100
AcDbEntity
  8
ASSI
100
AcDbLine
 62
7
  6
CONTINUOUS
 10
6.5221124902
 20
7.0542235372
 11
5.7882853682
 21
7.2795747371
  0
LINE
  5
29F
100
AcDbEntity
  8
ASSI
100
AcDbLine
 62
7
  6
CONTINUOUS
 10
6.5074314929
 20
7.1539323501
 11
5.7736043708
 21
7.37928355
  0
LINE
  5
2A0
100
AcDbEntity
  8
ASSI
100
AcDbLine
 62
7
  6
CONTINUOUS
 10
8.9964143054
 20
6.3895989887
 11
9.6571891684
 21
6.1866722827
  0
LINE
  5
2A1
100
AcDbEntity
  8
RACCORDO
100
AcDbLine
 62
250
  6
CONTINUOUS
 10
-19.9521270938
 20
15.4197252111
 11
-18.1160696337
 21
14.8558897527
  0
LINE
  5
2A2
100
AcDbEntity
  8
ASSI
100
AcDbLine
 62
7
  6
CONTINUOUS
 10
10.2708016093
 20
6.5568905835
 11
9.3496746171
 21
6.839759759
  0
LINE
  5
2A3
100
AcDbEntity
  8
ASSI
100
AcDbLine
 62
7
  6
CONTINUOUS
 10
10.2561223326
 20
6.656598868
 11
9.3349936198
 21
6.9394685719
  0
LINE
  5
2A4
100
AcDbEntity
  8
RACCORDO
100
AcDbLine
 62
7
  6
CONTINUOUS
 10
-19.6789210444
 20
16.4455490806
 11
-17.3573050687
 21
15.7326033062
  0
LINE
  5
2A5
100
AcDbEntity
  8
RACCORDO
100
AcDbLine
 62
7
  6
CONTINUOUS
 10
12.5444399315
 20
6.5500671034
 11
13.1968493618
 21
6.3497184879
  0
LINE
  5
2A6
100
AcDbEntity
  8
ASSI
100
AcDbLine
 62
7
  6
CONTINUOUS
 10
9.7941869849
 20
7.6585075594
 11
10.7152993482
 21
7.3756428763
  0
LINE
  5
2A7
100
AcDbEntity
  8
ASSI
100
AcDbLine
 62
7
  6
CONTINUOUS
 10
6.9193578128
 20
9.1951837574
 11
6.9340388101
 21
9.0954749445
  0
LINE
  5
2A8
100
AcDbEntity
  8
0
100
AcDbLine
 62
7
  6
CONTINUOUS
 10
12.9984105747
 20
-25.0128393319
 11
13.6658873938
 21
-29.5461363413
  0
LINE
  5
2A9
100
AcDbEntity
  8
ASSI
100
AcDbLine
 62
7
  6
CONTINUOUS
 10
13.1468105999
 20
-24.9909891031
 11
12.8746132416
 21
-23.1423084677
  0
LINE
  5
2AA
100
AcDbEntity
  8
ASSI
100
AcDbLine
 62
7
  6
CONTINUOUS
 10
5.7071589192
 20
25.8392960465
 11
5.2779411947
 21
28.754410656
  0
LINE
  5
2AB
100
AcDbEntity
  8
ASSI
100
AcDbLine
 62
250
  6
CONTINUOUS
 10
5.9304333046
 20
28.6104474013
 11
6.303156141
 21
26.0790286748
  0
LINE
  5
2AC
100
AcDbEntity
  8
ASSI
100
AcDbLine
 62
250
  6
CONTINUOUS
 10
6.8693670714
 20
22.2334983973
 11
7.1635341419
 21
20.2356062421
  0
LINE
  5
2AD
100
AcDbEntity
  8
ASSI
100
AcDbLine
 62
7
  6
CONTINUOUS
 10
9.3349936198
 20
6.9394685719
 11
9.3496746171
 21
6.839759759
  0
LINE
  5
2AE
100
AcDbEntity
  8
ASSI
100
AcDbLine
 62
7
  6
CONTINUOUS
 10
9.6571891684
 20
6.1866722827
 11
9.6718701657
 21
6.0869634698
  0
LINE
  5
2AF
100
AcDbEntity
  8
ASSI
100
AcDbLine
 62
7
  6
CONTINUOUS
 10
9.3966296711
 20
8.4344375694
 11
9.4113106684
 21
8.3347287565
  0
LINE
  5
2B0
100
AcDbEntity
  8
ASSI
100
AcDbLine
 62
7
  6
CONTINUOUS
 10
5.1484051027
 20
9.6438166097
 11
4.0693876
 21
9.9751724313
  0
LINE
  5
2B1
100
AcDbEntity
  8
ASSI
100
AcDbLine
 62
7
  6
CONTINUOUS
 10
2.6141838537
 20
10.4220514038
 11
1.5110523404
 21
10.7608124045
  0
LINE
  5
2B2
100
AcDbEntity
  8
ASSI
100
AcDbLine
 62
7
  6
CONTINUOUS
 10
0.688472232
 20
11.0134187866
 11
-0.0031144507
 21
11.2257983568
  0
LINE
  5
2B3
100
AcDbEntity
  8
ASSI
100
AcDbLine
 62
7
  6
CONTINUOUS
 10
-0.6060917351
 20
11.4109668392
 11
-1.264949205
 21
11.6132955853
  0
LINE
  5
2B4
100
AcDbEntity
  8
ASSI
100
AcDbLine
 62
7
  6
CONTINUOUS
 10
-2.9800654768
 20
12.1399911764
 11
-3.6957753166
 21
12.3597787344
  0
LINE
  5
2B5
100
AcDbEntity
  8
ASSI
100
AcDbLine
 62
7
  6
CONTINUOUS
 10
11.184191296
 20
7.7902942913
 11
9.4113106684
 21
8.3347287565
  0
LINE
  5
2B6
100
AcDbEntity
  8
ASSI
100
AcDbLine
 62
7
  6
CONTINUOUS
 10
7.6497771514
 20
8.8756786339
 11
6.9340388101
 21
9.0954749445
  0
LINE
  5
2B7
100
AcDbEntity
  8
ASSI
100
AcDbLine
 62
7
  6
CONTINUOUS
 10
5.1992348291
 20
9.723407714
 11
4.0547066026
 21
10.0748812442
  0
LINE
  5
2B8
100
AcDbEntity
  8
ASSI
100
AcDbLine
 62
7
  6
CONTINUOUS
 10
2.6408995695
 20
10.5090476872
 11
1.496371343
 21
10.8605212174
  0
LINE
  5
2B9
100
AcDbEntity
  8
ASSI
100
AcDbLine
 62
7
  6
CONTINUOUS
 10
0.7393021982
 20
11.0930098173
 11
-0.017795448
 21
11.3255071697
  0
LINE
  5
2BA
100
AcDbEntity
  8
ASSI
100
AcDbLine
 62
7
  6
CONTINUOUS
 10
-0.5225236495
 20
11.4805043106
 11
-1.2796302024
 21
11.7130043982
  0
LINE
  5
2BB
100
AcDbEntity
  8
ASSI
100
AcDbLine
 62
7
  6
CONTINUOUS
 10
-2.953349761
 20
12.2269874597
 11
-3.7104563139
 21
12.4594875473
  0
LINE
  5
2BC
100
AcDbEntity
  8
ASSI
100
AcDbLine
 62
7
  6
CONTINUOUS
 10
11.1695120233
 20
7.8900025747
 11
9.3966296711
 21
8.4344375694
  0
LINE
  5
2BD
100
AcDbEntity
  8
ASSI
100
AcDbLine
 62
7
  6
CONTINUOUS
 10
7.6764928672
 20
8.9626749173
 11
6.9193578128
 21
9.1951837574
  0
LINE
  5
2BE
100
AcDbEntity
  8
0
100
AcDbLine
 62
250
  6
CONTINUOUS
 10
8.1144442341
 20
13.3459061753
 11
4.9760961927
 21
20.5010399807
  0
LINE
  5
2BF
100
AcDbEntity
  8
0
100
AcDbLine
 62
250
  6
CONTINUOUS
 10
8.2060737115
 20
13.2023104713
 11
5.0161820639
 21
20.4749587763
  0
LINE
  5
2C0
100
AcDbEntity
  8
0
100
AcDbLine
 62
7
  6
CONTINUOUS
 10
4.5899768885
 20
20.6196134784
 11
6.5868322216
 21
15.899389967
  0
LINE
  5
2C1
100
AcDbEntity
  8
0
100
AcDbLine
 62
7
  6
CONTINUOUS
 10
7.6802618441
 20
24.7087448232
 11
7.5713600414
 21
25.1901246647
  0
LINE
  5
2C2
100
AcDbEntity
  8
ASSI
100
AcDbLine
 62
250
  6
CONTINUOUS
 10
6.6174320708
 20
28.4369370908
 11
6.9794061181
 21
25.9785208294
  0
LINE
  5
2C3
100
AcDbEntity
  8
ASSI
100
AcDbLine
 62
250
  6
CONTINUOUS
 10
7.2901702973
 20
23.867906223
 11
8.142450114
 21
18.0794841641
  0
LINE
  5
2C4
100
AcDbEntity
  8
ASSI
100
AcDbLine
 62
7
  6
CONTINUOUS
 10
10.2561107416
 20
6.6566024275
 11
10.2707917389
 21
6.5568936146
  0
LINE
  5
2C5
100
AcDbEntity
  8
ASSI
100
AcDbLine
 62
7
  6
CONTINUOUS
 10
11.012002236
 20
6.9917404889
 11
10.9973212386
 21
7.0914493018
  0
LINE
  5
2C6
100
AcDbEntity
  8
ASSI
100
AcDbLine
 62
7
  6
CONTINUOUS
 10
11.1694967862
 20
7.8900072538
 11
11.1841777836
 21
7.7902984409
  0
LINE
  5
2C7
100
AcDbEntity
  8
ASSI
100
AcDbLine
 62
7
  6
CONTINUOUS
 10
10.9106513519
 20
16.4891466947
 11
9.2859543142
 21
27.5235886564
  0
LINE
  5
2C8
100
AcDbEntity
  8
RACCORDO
100
AcDbLine
 62
7
  6
CONTINUOUS
 10
12.0526008823
 20
6.1384686414
 11
12.1485241312
 21
5.4609284249
  0
LINE
  5
2C9
100
AcDbEntity
  8
RACCORDO
100
AcDbLine
 62
250
  6
CONTINUOUS
 10
-17.189393014
 20
20.0837784639
 11
-15.1714779959
 21
19.4640963113
  0
LINE
  5
2CA
100
AcDbEntity
  8
RACCORDO
100
AcDbLine
 62
250
  6
CONTINUOUS
 10
15.3688035164
 20
10.0854717318
 11
16.1513862853
 21
9.8451481451
  0
LINE
  5
2CB
100
AcDbEntity
  8
ASSI
100
AcDbLine
 62
7
  6
CONTINUOUS
 10
4.9191498939
 20
13.7800677486
 11
8.0364934314
 21
12.822761749
  0
LINE
  5
2CC
100
AcDbEntity
  8
0
100
AcDbLine
 62
250
  6
CONTINUOUS
 10
6.4188922032
 20
13.8665937776
 11
8.1144442341
 21
13.3459061753
  0
LINE
  5
2CD
100
AcDbEntity
  8
RACCORDO
100
AcDbLine
 62
7
  6
CONTINUOUS
 10
-16.5900587611
 20
21.0114655107
 11
-14.4152349154
 21
20.3435981773
  0
LINE
  5
2CE
100
AcDbEntity
  8
RACCORDO
100
AcDbLine
 62
7
  6
CONTINUOUS
 10
15.4909847471
 20
11.1596878491
 11
16.6931195696
 21
10.7905238913
  0
LINE
  5
2CF
100
AcDbEntity
  8
0
100
AcDbLine
 62
7
  6
CONTINUOUS
 10
6.6467574361
 20
19.9879960982
 11
8.8135061769
 21
15.2155999673
  0
LINE
  5
2D0
100
AcDbEntity
  8
0
100
AcDbLine
 62
7
  6
CONTINUOUS
 10
6.9710325279
 20
20.659602777
 11
9.1377812686
 21
15.8872066461
  0
LINE
  5
2D1
100
AcDbEntity
  8
0
100
AcDbLine
 62
250
  6
CONTINUOUS
 10
9.0644891433
 20
13.5983562147
 11
6.2089710074
 21
20.1086648474
  0
LINE
  5
2D2
100
AcDbEntity
  8
0
100
AcDbLine
 62
250
  6
CONTINUOUS
 10
9.0945745859
 20
13.6454651365
 11
6.2606381319
 21
20.1065695958
  0
LINE
  5
2D3
100
AcDbEntity
  8
ASSI
100
AcDbLine
 62
7
  6
CONTINUOUS
 10
17.7966780586
 20
-24.306348601
 11
17.5957961485
 21
-22.9420205288
  0
LINE
  5
2D4
100
AcDbEntity
  8
0
100
AcDbLine
 62
7
  6
CONTINUOUS
 10
17.9450780838
 20
-24.2844983722
 11
18.612554903
 21
-28.8177953815
  0
LINE
  5
2D5
100
AcDbEntity
  8
0
100
AcDbLine
 62
7
  6
CONTINUOUS
 10
9.5348734462
 20
14.3349017134
 11
8.8135061769
 21
15.2155999673
  0
LINE
  5
2D6
100
AcDbEntity
  8
0
100
AcDbLine
 62
7
  6
CONTINUOUS
 10
9.9179434679
 20
14.9347272145
 11
9.1377812686
 21
15.8872066461
  0
LINE
  5
2D7
100
AcDbEntity
  8
RACCORDO
100
AcDbLine
 62
250
  6
CONTINUOUS
 10
15.5469663717
 20
8.9434954057
 11
15.3688035164
 21
10.0854717318
  0
LINE
  5
2D8
100
AcDbEntity
  8
RACCORDO
100
AcDbLine
 62
7
  6
CONTINUOUS
 10
14.9961819282
 20
10.7438788097
 11
15.3049836044
 21
8.6261960296
  0
LINE
  5
2D9
100
AcDbEntity
  8
DRAFT
100
AcDbLine
 62
7
  6
CONTINUOUS
 10
17.9892954284
 20
-9.0231900994
 11
18.0230270833
 21
-8.98741373
  0
LINE
  5
2DA
100
AcDbEntity
  8
0
100
AcDbLine
 62
7
  6
CONTINUOUS
 10
18.0261644441
 20
-8.9856752923
 11
18.0612204727
 21
-8.9498178808
  0
LINE
  5
2DB
100
AcDbEntity
  8
DRAFT
100
AcDbLine
 62
7
  6
CONTINUOUS
 10
17.9892954284
 20
-9.0231900994
 11
18.0239731495
 21
-8.9879059727
  0
LINE
  5
2DC
100
AcDbEntity
  8
0
100
AcDbLine
 62
7
  6
CONTINUOUS
 10
18.025101878
 20
-8.9851226252
 11
18.0612169471
 21
-8.9498160581
  0
LINE
  5
2DD
100
AcDbEntity
  8
RACCORDO
100
AcDbLine
 62
7
  6
CONTINUOUS
 10
14.5301595744
 20
-13.7876055398
 11
14.5300701214
 21
-13.7876646908
  0
LWPOLYLINE
  5
2DE
100
AcDbEntity
  8
RACCORDO
100
AcDbPolyline
 62
7
  6
CONTINUOUS
 90
13
 70
0
 10
14.5301600152
 20
-13.7876062105
 10
14.5857287129
 20
-13.751568493
 10
14.6574045087
 20
-13.7071859582
 10
14.7254855825
 20
-13.6674016159
 10
14.7892086015
 20
-13.6324753536
 10
14.8472167593
 20
-13.6028581446
 10
14.8989648215
 20
-13.5784331902
 10
14.9444508015
 20
-13.558771278
 10
14.9831997055
 20
-13.5436097329
 10
15.0149130421
 20
-13.5325387445
 10
15.0396614185
 20
-13.5249745137
 10
15.0572977168
 20
-13.520376169
 10
15.0666659639
 20
-13.5183433681
  0
LWPOLYLINE
  5
2DF
100
AcDbEntity
  8
RACCORDO
100
AcDbPolyline
 62
7
  6
CONTINUOUS
 90
8
 70
0
 10
22.8339713942
 20
-3.8894085769
 10
22.8240066555
 20
-3.6978823713
 10
22.8188359927
 20
-3.58401772
 10
22.8141467062
 20
-3.4645299751
 10
22.8099696442
 20
-3.3402703117
 10
22.8063101523
 20
-3.2121425449
 10
22.8032497392
 20
-3.0810798041
 10
22.8009902001
 20
-2.9570061859
  0
LINE
  5
2E0
100
AcDbEntity
  8
RACCORDO
100
AcDbLine
 62
250
  6
CONTINUOUS
 10
22.8597613597
 20
-0.5217166312
 11
22.86362797
 21
-0.6117017817
  0
LWPOLYLINE
  5
2E1
100
AcDbEntity
  8
RACCORDO
100
AcDbPolyline
 62
7
  6
CONTINUOUS
 90
6
 70
0
 10
22.8472645135
 20
-4.3071356195
 10
22.845771181
 20
-4.2240938725
 10
22.8436956898
 20
-4.1407986016
 10
22.8410375456
 20
-4.0572516485
 10
22.8377962726
 20
-3.9734544833
 10
22.8339713942
 20
-3.8894085769
  0
LWPOLYLINE
  5
2E2
100
AcDbEntity
  8
RACCORDO
100
AcDbPolyline
 62
7
  6
CONTINUOUS
 90
9
 70
0
 10
22.8010152939
 20
-2.9568554325
 10
22.7996821146
 20
-2.8487618193
 10
22.7991119745
 20
-2.7157646875
 10
22.7996119329
 20
-2.5786964093
 10
22.8011282331
 20
-2.4380514952
 10
22.8036047213
 20
-2.2937666205
 10
22.8069486088
 20
-2.1466211255
 10
22.8110699575
 20
-1.9974629382
 10
22.8158598767
 20
-1.8461536096
  0
LINE
  5
2E3
100
AcDbEntity
  8
RACCORDO
100
AcDbLine
 62
7
  6
CONTINUOUS
 10
22.8745219095
 20
-7.5246650579
 11
22.8472645135
 21
-4.3071356195
  0
LINE
  5
2E4
100
AcDbEntity
  8
RACCORDO
100
AcDbLine
 62
250
  6
CONTINUOUS
 10
22.915507205
 20
-13.936229289
 11
22.9144508965
 21
-13.8076643974
  0
LINE
  5
2E5
100
AcDbEntity
  8
RACCORDO
100
AcDbLine
 62
7
  6
CONTINUOUS
 10
22.9253805112
 20
-13.8082077795
 11
22.8745219095
 21
-7.5246650579
  0
LINE
  5
2E6
100
AcDbEntity
  8
RACCORDO
100
AcDbLine
 62
7
  6
CONTINUOUS
 10
22.8158598767
 20
-1.8461536096
 11
22.8269585719
 21
-1.54082041
  0
LINE
  5
2E7
100
AcDbEntity
  8
RACCORDO
100
AcDbLine
 62
7
  6
CONTINUOUS
 10
22.8514634946
 20
-0.9334563697
 11
22.8636299342
 21
-0.611749475
  0
LINE
  5
2E8
100
AcDbEntity
  8
RACCORDO
100
AcDbLine
 62
7
  6
CONTINUOUS
 10
22.8269585719
 20
-1.54082041
 11
22.8514634946
 21
-0.9334563697
  0
LINE
  5
2E9
100
AcDbEntity
  8
0
100
AcDbLine
 62
250
  6
CONTINUOUS
 10
4.5899768885
 20
20.6196134784
 11
4.9760961927
 21
20.5010399807
  0
LINE
  5
2EA
100
AcDbEntity
  8
0
100
AcDbLine
 62
250
  6
CONTINUOUS
 10
6.2606381319
 20
20.1065695958
 11
6.6467574361
 21
19.9879960982
  0
LINE
  5
2EB
100
AcDbEntity
  8
DRAFT
100
AcDbLine
 62
7
  6
CONTINUOUS
 10
22.5060929304
 20
3.4931207153
 11
19.9152763384
 21
18.3924826248
  0
LINE
  5
2EC
100
AcDbEntity
  8
0
100
AcDbLine
 62
7
  6
CONTINUOUS
 10
22.50619911
 20
3.4925059154
 11
22.5080670664
 21
3.4817305177
  0
LINE
  5
2ED
100
AcDbEntity
  8
0
100
AcDbLine
 62
7
  6
CONTINUOUS
 10
22.5028053297
 20
3.491956817
 11
22.5044571422
 21
3.4811482918
  0
LINE
  5
2EE
100
AcDbEntity
  8
SUPERFICI
100
AcDbLine
 62
7
  6
CONTINUOUS
 10
22.7800528401
 20
1.3609242698
 11
22.5974335972
 21
2.8727630347
  0
LWPOLYLINE
  5
2EF
100
AcDbEntity
  8
RACCORDO
100
AcDbPolyline
 62
7
  6
CONTINUOUS
 90
4
 70
0
 10
22.9097898019
 20
-14.0076570477
 10
22.9178435314
 20
-13.9497928787
 10
22.9242483175
 20
-13.8687336151
 10
22.9253499021
 20
-13.8072504042
  0
LINE
  5
2F0
100
AcDbEntity
  8
RACCORDO
100
AcDbLine
 62
7
  6
CONTINUOUS
 10
22.9097841658
 20
-14.0078970021
 11
22.9098227863
 21
-14.0076625675
  0
LINE
  5
2F1
100
AcDbEntity
  8
RACCORDO
100
AcDbLine
 62
7
  6
CONTINUOUS
 10
16.8206964159
 20
-23.5902980836
 11
16.8207291131
 21
-23.5902722309
  0
ARC
  5
2F2
100
AcDbEntity
  8
RACCORDO
100
AcDbCircle
 62
250
  6
CONTINUOUS
 10
-34.5262934745
 20
1.5224957062
 40
57.4224796046
100
AcDbArc
 50
357.7391019353
 51
357.8708235265
  0
ARC
  5
2F3
100
AcDbEntity
  8
RACCORDO
100
AcDbCircle
 62
250
  6
CONTINUOUS
 10
-21.5678768824
 20
1.0374801025
 40
44.4549899812
100
AcDbArc
 50
357.8750020341
 51
357.990018252
  0
ARC
  5
2F4
100
AcDbEntity
  8
RACCORDO
100
AcDbCircle
 62
250
  6
CONTINUOUS
 10
-8.6830303901
 20
-2.9461445208
 40
12.16232353
100
AcDbArc
 50
194.5655967112
 51
195.6485353636
  0
ARC
  5
2F5
100
AcDbEntity
  8
0
100
AcDbCircle
 62
7
  6
CONTINUOUS
 10
-8.9629595631
 20
-1.4530024015
 40
12.1421643477
100
AcDbArc
 50
191.0886801628
 51
197.0283364162
  0
ARC
  5
2F6
100
AcDbEntity
  8
RACCORDO
100
AcDbCircle
 62
250
  6
CONTINUOUS
 10
-8.7254875494
 20
-2.9570891556
 40
12.118478482
100
AcDbArc
 50
192.5338984253
 51
194.5659966908
  0
ARC
  5
2F7
100
AcDbEntity
  8
DRAFT
100
AcDbCircle
 62
7
  6
CONTINUOUS
 10
-8.987393811
 20
-1.4592568519
 40
12.1169791346
100
AcDbArc
 50
189.8656985006
 51
197.0276696942
  0
ARC
  5
2F8
100
AcDbEntity
  8
DRAFT
100
AcDbCircle
 62
7
  6
CONTINUOUS
 10
-9.0258327062
 20
-1.4667904049
 40
12.0778194585
100
AcDbArc
 50
186.8864860879
 51
188.9409499947
  0
ARC
  5
2F9
100
AcDbEntity
  8
DRAFT
100
AcDbCircle
 62
7
  6
CONTINUOUS
 10
-9.0315385197
 20
-1.4676372546
 40
12.0720513618
100
AcDbArc
 50
188.9411883354
 51
189.8624106043
  0
ARC
  5
2FA
100
AcDbEntity
  8
0
100
AcDbCircle
 62
7
  6
CONTINUOUS
 10
-9.0325297765
 20
-1.4678717564
 40
12.0710435763
100
AcDbArc
 50
186.8851225639
 51
188.9408198755
  0
ARC
  5
2FB
100
AcDbEntity
  8
RACCORDO
100
AcDbCircle
 62
250
  6
CONTINUOUS
 10
-8.7754945761
 20
-2.9682292242
 40
12.0672456474
100
AcDbArc
 50
189.8654271975
 51
192.5337930589
  0
ARC
  5
2FC
100
AcDbEntity
  8
0
100
AcDbCircle
 62
7
  6
CONTINUOUS
 10
-9.04206129
 20
-1.4692562131
 40
12.0614133541
100
AcDbArc
 50
189.8637711383
 51
191.0851797345
  0
ARC
  5
2FD
100
AcDbEntity
  8
0
100
AcDbCircle
 62
7
  6
CONTINUOUS
 10
-9.0429760583
 20
-1.4694480708
 40
12.0604792417
100
AcDbArc
 50
188.9411350345
 51
189.8636176137
  0
ARC
  5
2FE
100
AcDbEntity
  8
COPY-PUBBLISH
100
AcDbCircle
 62
250
  6
CONTINUOUS
 10
-7.693751746
 20
3.7311157501
 40
3.8347296245
100
AcDbArc
 50
77.2945855928
 51
77.7613950148
  0
ARC
  5
2FF
100
AcDbEntity
  8
COPY-PUBBLISH
100
AcDbCircle
 62
250
  6
CONTINUOUS
 10
-8.4591400165
 20
4.3211058201
 40
3.0399652953
100
AcDbArc
 50
133.275338815
 51
135.9490456053
  0
ARC
  5
300
100
AcDbEntity
  8
0
100
AcDbCircle
 62
7
  6
CONTINUOUS
 10
-7.1179995758
 20
-21.3926602871
 40
2.7
100
AcDbArc
 50
222.5806903726
 51
334.1712588509
  0
ARC
  5
301
100
AcDbEntity
  8
0
100
AcDbCircle
 62
7
  6
CONTINUOUS
 10
-8.0829369237
 20
0.5129211164
 40
1.7697747541
100
AcDbArc
 50
97.6444234665
 51
106.5391355305
  0
ARC
  5
302
100
AcDbEntity
  8
0
100
AcDbCircle
 62
7
  6
CONTINUOUS
 10
-8.1470528194
 20
0.5703812666
 40
1.7292613125
100
AcDbArc
 50
44.7907417099
 51
48.0733786
  0
ARC
  5
303
100
AcDbEntity
  8
0
100
AcDbCircle
 62
7
  6
CONTINUOUS
 10
-6.8115744745
 20
1.2322661341
 40
0.4992649885
100
AcDbArc
 50
73.0419951414
 51
82.3386355343
  0
ARC
  5
304
100
AcDbEntity
  8
RACCORDO
100
AcDbCircle
 62
250
  6
CONTINUOUS
 10
-9.0705687183
 20
6.4154508917
 40
2.5836589125
100
AcDbArc
 50
230.7254663271
 51
232.1139568781
  0
ARC
  5
305
100
AcDbEntity
  8
RACCORDO
100
AcDbCircle
 62
250
  6
CONTINUOUS
 10
-7.3780277135
 20
6.6168055114
 40
2.5129301613
100
AcDbArc
 50
326.0752205368
 51
327.4335331473
  0
ARC
  5
306
100
AcDbEntity
  8
RACCORDO
100
AcDbCircle
 62
250
  6
CONTINUOUS
 10
-8.8987608915
 20
5.4850901118
 40
2.0713921225
100
AcDbArc
 50
147.428211762
 51
150.3399601276
  0
ARC
  5
307
100
AcDbEntity
  8
RACCORDO
100
AcDbCircle
 62
250
  6
CONTINUOUS
 10
-8.9465258274
 20
5.5125325241
 40
2.016305557
100
AcDbArc
 50
150.3459335606
 51
151.9387813497
  0
ARC
  5
308
100
AcDbEntity
  8
ASSI
100
AcDbCircle
 62
7
  6
CONTINUOUS
 10
-7.2673713797
 20
5.6317232153
 40
2.0039165308
100
AcDbArc
 50
43.2417267855
 51
48.0886407144
  0
ARC
  5
309
100
AcDbEntity
  8
ASSI
100
AcDbCircle
 62
7
  6
CONTINUOUS
 10
-9.3744612261
 20
5.5181566396
 40
1.542990032
100
AcDbArc
 50
184.7019679026
 51
185.2548293158
  0
ARC
  5
30A
100
AcDbEntity
  8
ASSI
100
AcDbCircle
 62
7
  6
CONTINUOUS
 10
-6.885919198
 20
5.8847396407
 40
1.5415653452
100
AcDbArc
 50
11.1563522999
 51
13.3556249273
  0
ARC
  5
30B
100
AcDbEntity
  8
RACCORDO
100
AcDbCircle
 62
7
  6
CONTINUOUS
 10
-6.6717340074
 20
6.0521624426
 40
1.3053001818
100
AcDbArc
 50
5.7576233343
 51
8.374167621
  0
ARC
  5
30C
100
AcDbEntity
  8
RACCORDO
100
AcDbCircle
 62
7
  6
CONTINUOUS
 10
-9.6317465801
 20
5.6163226495
 40
1.3027722205
100
AcDbArc
 50
188.3772912517
 51
190.5978139378
  0
ARC
  5
30D
100
AcDbEntity
  8
RACCORDO
100
AcDbCircle
 62
250
  6
CONTINUOUS
 10
6.5062986813
 20
-14.3747839176
 40
10.1942530304
100
AcDbArc
 50
1.3528133525
 51
4.2988995726
  0
ARC
  5
30E
100
AcDbEntity
  8
RACCORDO
100
AcDbCircle
 62
250
  6
CONTINUOUS
 10
5.6498353593
 20
-14.5948787687
 40
9.6358400656
100
AcDbArc
 50
1.3252847818
 51
4.2792823285
  0
ARC
  5
30F
100
AcDbEntity
  8
0
100
AcDbCircle
 62
7
  6
CONTINUOUS
 10
4.5096416495
 20
-25.2807309955
 40
2.7
100
AcDbArc
 50
222.5806903726
 51
327.436242848
  0
ARC
  5
310
100
AcDbEntity
  8
0
100
AcDbCircle
 62
7
  6
CONTINUOUS
 10
5.1527409746
 20
-25.5630514843
 40
1.9997718075
100
AcDbArc
 50
323.426767077
 51
324.3503937331
  0
ARC
  5
311
100
AcDbEntity
  8
0
100
AcDbCircle
 62
7
  6
CONTINUOUS
 10
5.1997096255
 20
-25.5965120604
 40
1.9421035388
100
AcDbArc
 50
324.3449465158
 51
327.415761983
  0
ARC
  5
312
100
AcDbEntity
  8
0
100
AcDbCircle
 62
7
  6
CONTINUOUS
 10
5.323488487
 20
-25.6738286431
 40
1.7961700396
100
AcDbArc
 50
327.3675070443
 51
334.147122527
  0
ARC
  5
313
100
AcDbEntity
  8
0
100
AcDbCircle
 62
7
  6
CONTINUOUS
 10
2.9046843127
 20
-11.327373752
 40
25.1892103119
100
AcDbArc
 50
82.1071933097
 51
82.603106767
  0
ARC
  5
314
100
AcDbEntity
  8
ASSI
100
AcDbCircle
 62
7
  6
CONTINUOUS
 10
2.6433025945
 20
-9.4055785824
 40
25.1584984
100
AcDbArc
 50
81.0653756393
 51
82.9463931073
  0
ARC
  5
315
100
AcDbEntity
  8
0
100
AcDbCircle
 62
7
  6
CONTINUOUS
 10
3.2520216347
 20
-7.0187028507
 40
23.2102270288
100
AcDbArc
 50
72.9247386832
 51
74.0790243063
  0
ARC
  5
316
100
AcDbEntity
  8
DRAFT
100
AcDbCircle
 62
7
  6
CONTINUOUS
 10
4.0308360325
 20
4.7338794241
 40
19.5983489317
100
AcDbArc
 50
315.5609545387
 51
318.7795489536
  0
ARC
  5
317
100
AcDbEntity
  8
0
100
AcDbCircle
 62
7
  6
CONTINUOUS
 10
4.0598999663
 20
4.7073588095
 40
19.5590247986
100
AcDbArc
 50
315.7128720912
 51
318.7733351935
  0
ARC
  5
318
100
AcDbEntity
  8
DRAFT
100
AcDbCircle
 62
7
  6
CONTINUOUS
 10
4.5753561507
 20
4.2485753624
 40
18.8689779647
100
AcDbArc
 50
318.7984360516
 51
320.1347399074
  0
ARC
  5
319
100
AcDbEntity
  8
0
100
AcDbCircle
 62
7
  6
CONTINUOUS
 10
4.5955075954
 20
4.2298489634
 40
18.8414929939
100
AcDbArc
 50
318.7920445432
 51
320.1444917255
  0
ARC
  5
31A
100
AcDbEntity
  8
0
100
AcDbCircle
 62
7
  6
CONTINUOUS
 10
6.3049277289
 20
2.9538685344
 40
16.7067855893
100
AcDbArc
 50
326.7474199905
 51
327.4355818579
  0
ARC
  5
31B
100
AcDbEntity
  8
0
100
AcDbCircle
 62
7
  6
CONTINUOUS
 10
6.4452980683
 20
2.8641626785
 40
16.5401993643
100
AcDbArc
 50
327.4357513489
 51
328.1285256861
  0
ARC
  5
31C
100
AcDbEntity
  8
DRAFT
100
AcDbCircle
 62
7
  6
CONTINUOUS
 10
-3.4243183504
 20
0.0293876263
 40
16.3995003838
100
AcDbArc
 50
139.6078953652
 51
142.6716238835
  0
ARC
  5
31D
100
AcDbEntity
  8
COPY-PUBBLISH
100
AcDbCircle
 62
250
  6
CONTINUOUS
 10
0.1283657266
 20
1.7944766354
 40
2.6152291878
100
AcDbArc
 50
130.1803151277
 51
134.7182882739
  0
ARC
  5
31E
100
AcDbEntity
  8
RACCORDO
100
AcDbCircle
 62
250
  6
CONTINUOUS
 10
-0.2973954697
 20
2.959611085
 40
1.6563102489
100
AcDbArc
 50
147.4239013058
 51
151.0702718703
  0
ARC
  5
31F
100
AcDbEntity
  8
RACCORDO
100
AcDbCircle
 62
250
  6
CONTINUOUS
 10
-0.3897459826
 20
3.0092474096
 40
1.5514734025
100
AcDbArc
 50
151.0248137303
 51
157.2629218025
  0
ARC
  5
320
100
AcDbEntity
  8
0
100
AcDbCircle
 62
7
  6
CONTINUOUS
 10
1.3266475216
 20
3.2493145384
 40
1.2431035607
100
AcDbArc
 50
11.2319277973
 51
14.6159632599
  0
ARC
  5
321
100
AcDbEntity
  8
0
100
AcDbCircle
 62
7
  6
CONTINUOUS
 10
-0.6701148635
 20
2.9557742283
 40
1.2386307642
100
AcDbArc
 50
182.2409615598
 51
185.6171274193
  0
ARC
  5
322
100
AcDbEntity
  8
RACCORDO
100
AcDbCircle
 62
7
  6
CONTINUOUS
 10
1.5259946392
 20
3.4158228677
 40
1.0216803692
100
AcDbArc
 50
4.2355786796
 51
8.3944516047
  0
ARC
  5
323
100
AcDbEntity
  8
RACCORDO
100
AcDbCircle
 62
7
  6
CONTINUOUS
 10
-0.9174026099
 20
3.0543374732
 40
1.0083950776
100
AcDbArc
 50
188.401391525
 51
192.567723709
  0
ARC
  5
324
100
AcDbEntity
  8
RACCORDO
100
AcDbCircle
 62
250
  6
CONTINUOUS
 10
11.1238020815
 20
-11.9902959434
 40
11.9511909995
100
AcDbArc
 50
350.2864833158
 51
350.6291863844
  0
ARC
  5
325
100
AcDbEntity
  8
0
100
AcDbCircle
 62
7
  6
CONTINUOUS
 10
16.0394095593
 20
-28.5040762845
 40
2.7
100
AcDbArc
 50
222.5806903726
 51
334.1712588509
  0
ARC
  5
326
100
AcDbEntity
  8
RACCORDO
100
AcDbCircle
 62
250
  6
CONTINUOUS
 10
22.1599029978
 20
-13.8135332474
 40
0.7654669543
100
AcDbArc
 50
350.7765576173
 51
356.5726641183
  0
ARC
  5
327
100
AcDbEntity
  8
RACCORDO
100
AcDbCircle
 62
250
  6
CONTINUOUS
 10
22.1654875028
 20
-13.813937231
 40
0.7598682895
100
AcDbArc
 50
356.577897386
 51
0.4325737948
  0
ARC
  5
328
100
AcDbEntity
  8
RACCORDO
100
AcDbCircle
 62
250
  6
CONTINUOUS
 10
15.0451219253
 20
-14.0986186472
 40
0.5797969476
100
AcDbArc
 50
88.2705858595
 51
89.9204597674
  0
ARC
  5
329
100
AcDbEntity
  8
RACCORDO
100
AcDbCircle
 62
250
  6
CONTINUOUS
 10
22.4851737163
 20
-13.9377012449
 40
0.4303360059
100
AcDbArc
 50
350.6445099552
 51
0.1959793284
  0
ARC
  5
32A
100
AcDbEntity
  8
RACCORDO
100
AcDbCircle
 62
7
  6
CONTINUOUS
 10
10.1245856849
 20
-0.1633390232
 40
12.7469301208
100
AcDbArc
 50
357.9842523893
 51
6.8677976851
  0
ARC
  5
32B
100
AcDbEntity
  8
RACCORDO
100
AcDbCircle
 62
250
  6
CONTINUOUS
 10
10.6942196718
 20
-0.0938740492
 40
12.1730626317
100
AcDbArc
 50
357.9858294798
 51
6.8637949209
  0
ARC
  5
32C
100
AcDbEntity
  8
0
100
AcDbCircle
 62
7
  6
CONTINUOUS
 10
10.598553204
 20
1.4237274572
 40
12.086041586
100
AcDbArc
 50
5.9371645399
 51
6.8859341957
  0
ARC
  5
32D
100
AcDbEntity
  8
DRAFT
100
AcDbCircle
 62
7
  6
CONTINUOUS
 10
10.6038330809
 20
1.4240981793
 40
12.0807528199
100
AcDbArc
 50
6.8877074406
 51
7.5836084794
  0
ARC
  5
32E
100
AcDbEntity
  8
0
100
AcDbCircle
 62
7
  6
CONTINUOUS
 10
10.6083300479
 20
1.4248960946
 40
12.0761951529
100
AcDbArc
 50
6.8859909807
 51
7.5826716316
  0
ARC
  5
32F
100
AcDbEntity
  8
DRAFT
100
AcDbCircle
 62
7
  6
CONTINUOUS
 10
10.6096732482
 20
1.4248679829
 40
12.0748621414
100
AcDbArc
 50
7.5836448877
 51
9.8594791846
  0
ARC
  5
330
100
AcDbEntity
  8
0
100
AcDbCircle
 62
7
  6
CONTINUOUS
 10
10.6188804454
 20
1.426314978
 40
12.0655497823
100
AcDbArc
 50
7.5826038138
 51
9.8084061986
  0
ARC
  5
331
100
AcDbEntity
  8
RACCORDO
100
AcDbCircle
 62
250
  6
CONTINUOUS
 10
11.2081604451
 20
-4.6313619763
 40
11.6279196969
100
AcDbArc
 50
1.8487897051
 51
3.1791603028
  0
ARC
  5
332
100
AcDbEntity
  8
RACCORDO
100
AcDbCircle
 62
250
  6
CONTINUOUS
 10
11.4340937376
 20
-4.6237787641
 40
11.401859369
100
AcDbArc
 50
1.398241932
 51
1.8473312394
  0
ARC
  5
333
100
AcDbEntity
  8
RACCORDO
100
AcDbCircle
 62
250
  6
CONTINUOUS
 10
11.6229698701
 20
-4.6194160272
 40
11.2129330218
100
AcDbArc
 50
0.4909341543
 51
1.3995062162
  0
ARC
  5
334
100
AcDbEntity
  8
RACCORDO
100
AcDbCircle
 62
250
  6
CONTINUOUS
 10
22.0767542513
 20
-4.3846950253
 40
0.7713004079
100
AcDbArc
 50
349.6445118628
 51
0.4788417772
  0
ARC
  5
335
100
AcDbEntity
  8
RACCORDO
100
AcDbCircle
 62
250
  6
CONTINUOUS
 10
22.0783023291
 20
-3.8492676493
 40
0.7525068632
100
AcDbArc
 50
349.4925571679
 51
3.1161130346
  0
ARC
  5
336
100
AcDbEntity
  8
RACCORDO
100
AcDbCircle
 62
250
  6
CONTINUOUS
 10
15.5592289539
 20
38.825227241
 40
52.7019537056
100
AcDbArc
 50
268.8791922062
 51
269.673395567
  0
ARC
  5
337
100
AcDbEntity
  8
RACCORDO
100
AcDbCircle
 62
250
  6
CONTINUOUS
 10
-2.9684426226
 20
26.7116738581
 40
27.1617005424
100
AcDbArc
 50
289.6670398961
 51
290.0133992652
  0
ARC
  5
338
100
AcDbEntity
  8
RACCORDO
100
AcDbCircle
 62
250
  6
CONTINUOUS
 10
-3.3138753191
 20
26.6212435784
 40
27.1225518816
100
AcDbArc
 50
264.7382678284
 51
269.6123564415
  0
ARC
  5
339
100
AcDbEntity
  8
0
100
AcDbCircle
 62
7
  6
CONTINUOUS
 10
-1.8848151993
 20
7.7806795011
 40
24.161097565
100
AcDbArc
 50
252.9257159546
 51
253.5860946087
  0
ARC
  5
33A
100
AcDbEntity
  8
0
100
AcDbCircle
 62
7
  6
CONTINUOUS
 10
-1.9523330976
 20
7.5608671723
 40
23.9311494698
100
AcDbArc
 50
252.2683252371
 51
252.9257223088
  0
ARC
  5
33B
100
AcDbEntity
  8
RACCORDO
100
AcDbCircle
 62
250
  6
CONTINUOUS
 10
-3.7792298915
 20
22.8355406837
 40
22.5320410126
100
AcDbArc
 50
254.6360899416
 51
254.8554990433
  0
ARC
  5
33C
100
AcDbEntity
  8
RACCORDO
100
AcDbCircle
 62
250
  6
CONTINUOUS
 10
-3.8353886436
 20
22.632615716
 40
22.3214888891
100
AcDbArc
 50
253.3104137197
 51
254.6370834452
  0
ARC
  5
33D
100
AcDbEntity
  8
RACCORDO
100
AcDbCircle
 62
250
  6
CONTINUOUS
 10
-3.925904462
 20
22.3266231269
 40
22.002391444
100
AcDbArc
 50
252.9289695345
 51
253.3073562666
  0
ARC
  5
33E
100
AcDbEntity
  8
RACCORDO
100
AcDbCircle
 62
7
  6
CONTINUOUS
 10
-3.8786101476
 20
21.9894467444
 40
21.4973077333
100
AcDbArc
 50
252.9293919942
 51
253.5765681846
  0
ARC
  5
33F
100
AcDbEntity
  8
0
100
AcDbCircle
 62
250
  6
CONTINUOUS
 10
12.1614531558
 20
22.4543406335
 40
5.7438391346
100
AcDbArc
 50
147.3981329551
 51
148.3234431692
  0
ARC
  5
340
100
AcDbEntity
  8
0
100
AcDbCircle
 62
250
  6
CONTINUOUS
 10
12.1247889916
 20
22.4837006582
 40
5.6446064597
100
AcDbArc
 50
147.0985860228
 51
148.3766148004
  0
ARC
  5
341
100
AcDbEntity
  8
0
100
AcDbCircle
 62
250
  6
CONTINUOUS
 10
11.9695693426
 20
22.5766480402
 40
5.5162905211
100
AcDbArc
 50
147.0210068734
 51
147.3944909844
  0
ARC
  5
342
100
AcDbEntity
  8
0
100
AcDbCircle
 62
250
  6
CONTINUOUS
 10
10.5772344163
 20
23.0720638379
 40
5.2786137515
100
AcDbArc
 50
145.4133282324
 51
147.3185575283
  0
ARC
  5
343
100
AcDbEntity
  8
0
100
AcDbCircle
 62
250
  6
CONTINUOUS
 10
11.7212612856
 20
22.7384578984
 40
5.2199141197
100
AcDbArc
 50
145.404857909
 51
147.0273245312
  0
ARC
  5
344
100
AcDbEntity
  8
0
100
AcDbCircle
 62
7
  6
CONTINUOUS
 10
6.1778121482
 20
24.2135089264
 40
1.9416289159
100
AcDbArc
 50
50.0600025541
 51
52.386394365
  0
ARC
  5
345
100
AcDbEntity
  8
0
100
AcDbCircle
 62
7
  6
CONTINUOUS
 10
6.6892737386
 20
24.9648521924
 40
0.9093841888
100
AcDbArc
 50
38.4826194535
 51
40.0354202712
  0
ARC
  5
346
100
AcDbEntity
  8
0
100
AcDbCircle
 62
7
  6
CONTINUOUS
 10
6.6912501671
 20
24.966430429
 40
0.906854946
100
AcDbArc
 50
37.2761110841
 51
38.4822686518
  0
ARC
  5
347
100
AcDbEntity
  8
0
100
AcDbCircle
 62
7
  6
CONTINUOUS
 10
6.692371272
 20
24.9672880882
 40
0.9054434066
100
AcDbArc
 50
34.4976370244
 51
37.2758923175
  0
ARC
  5
348
100
AcDbEntity
  8
0
100
AcDbCircle
 62
7
  6
CONTINUOUS
 10
7.0641774689
 20
25.7296843477
 40
0.3631412277
100
AcDbArc
 50
345.8076984714
 51
347.8784366379
  0
ARC
  5
349
100
AcDbEntity
  8
RACCORDO
100
AcDbCircle
 62
250
  6
CONTINUOUS
 10
49.0391107007
 20
-2.6470149245
 40
26.2557249044
100
AcDbArc
 50
180.843234451
 51
182.2768947296
  0
ARC
  5
34A
100
AcDbEntity
  8
RACCORDO
100
AcDbCircle
 62
250
  6
CONTINUOUS
 10
42.9232338773
 20
-2.8857239594
 40
20.1351934382
100
AcDbArc
 50
182.2895750481
 51
182.8618801729
  0
ARC
  5
34B
100
AcDbEntity
  8
RACCORDO
100
AcDbCircle
 62
250
  6
CONTINUOUS
 10
40.39883167
 20
-3.0119037412
 40
17.6076397115
100
AcDbArc
 50
182.8619358687
 51
183.1729760667
  0
ARC
  5
34C
100
AcDbEntity
  8
RACCORDO
100
AcDbCircle
 62
250
  6
CONTINUOUS
 10
39.799858015
 20
-2.8389400596
 40
17.0147738747
100
AcDbArc
 50
180.010509574
 51
180.2328077875
  0
ARC
  5
34D
100
AcDbEntity
  8
RACCORDO
100
AcDbCircle
 62
250
  6
CONTINUOUS
 10
38.4071154738
 20
-2.8455356853
 40
15.622016059
100
AcDbArc
 50
180.2293730209
 51
180.6890781751
  0
ARC
  5
34E
100
AcDbEntity
  8
RACCORDO
100
AcDbCircle
 62
250
  6
CONTINUOUS
 10
83.2885152869
 20
256.1823170023
 40
287.8229628534
100
AcDbArc
 50
249.7002773428
 51
250.3274190229
  0
ARC
  5
34F
100
AcDbEntity
  8
RACCORDO
100
AcDbCircle
 62
7
  6
CONTINUOUS
 10
83.3099289876
 20
255.5704543685
 40
287.4385857746
100
AcDbArc
 50
249.6541666041
 51
250.4750461095
  0
SPLINE
  5
350
100
AcDbEntity
  8
ASSI
100
AcDbSpline
 62
7
  6
CONTINUOUS
 70
0
 71
3
 72
9
 73
5
 74
0
 42
0.0000001
 43
0.0000001
 44
0.0000000001
 40
0.0
 40
0.0
 40
0.0
 40
0.0
 40
0.2553065716
 40
1.0
 40
1.0
 40
1.0
 40
1.0
 10
-5.5925912879
 20
-18.1800154544
 30
0.0
 10
-5.5758763721
 20
-18.1538426084
 30
0.0
 10
-5.5131078899
 20
-18.0496403264
 30
0.0
 10
-5.4614855121
 20
-17.9386191567
 30
0.0
 10
-5.4308440384
 20
-17.8533763493
 30
0.0
  0
SPLINE
  5
351
100
AcDbEntity
  8
ASSI
100
AcDbSpline
 62
7
  6
CONTINUOUS
 70
0
 71
3
 72
22
 73
18
 74
0
 42
0.0000001
 43
0.0000001
 44
0.0000000001
 40
0.0
 40
0.0
 40
0.0
 40
0.0
 40
0.0516697292
 40
0.1043970005
 40
0.1590748844
 40
0.2163186886
 40
0.2764211969
 40
0.3393633016
 40
0.4048558912
 40
0.4723947166
 40
0.5413184793
 40
0.6108663803
 40
0.7483780384
 40
0.8150793653
 40
0.8794873768
 40
0.9411854742
 40
1.0
 40
1.0
 40
1.0
 40
1.0
 10
-10.0106061166
 20
-17.8795028435
 30
0.0
 10
-9.9970142145
 20
-17.9718649848
 30
0.0
 10
-9.9489109121
 20
-18.1560608938
 30
0.0
 10
-9.8179075363
 20
-18.414111998
 30
0.0
 10
-9.6317867182
 20
-18.6485864002
 30
0.0
 10
-9.3959627094
 20
-18.8534856775
 30
0.0
 10
-9.1167951088
 20
-19.0239914245
 30
0.0
 10
-8.8015148187
 20
-19.1560958423
 30
0.0
 10
-8.4581210123
 20
-19.2466955187
 30
0.0
 10
-8.0953099244
 20
-19.2936501493
 30
0.0
 10
-7.7221216968
 20
-19.2958314982
 30
0.0
 10
-7.2258633973
 20
-19.2393586645
 30
0.0
 10
-6.7461706611
 20
-19.0966537834
 30
0.0
 10
-6.3141982598
 20
-18.8730432501
 30
0.0
 10
-6.0278521521
 20
-18.6725733381
 30
0.0
 10
-5.7836294768
 20
-18.4428527821
 30
0.0
 10
-5.6497877106
 20
-18.2695757724
 30
0.0
 10
-5.5925912879
 20
-18.1800154544
 30
0.0
  0
SPLINE
  5
352
100
AcDbEntity
  8
ASSI
100
AcDbSpline
 62
7
  6
CONTINUOUS
 70
0
 71
3
 72
22
 73
18
 74
0
 42
0.0000001
 43
0.0000001
 44
0.0000000001
 40
0.0
 40
0.0
 40
0.0
 40
0.0
 40
0.0516697292
 40
0.1043970005
 40
0.1590748844
 40
0.2163186886
 40
0.2764211969
 40
0.3393633016
 40
0.4048558912
 40
0.4723947166
 40
0.5413184793
 40
0.6108663803
 40
0.7483780384
 40
0.8150793653
 40
0.8794873768
 40
0.9411854742
 40
1.0
 40
1.0
 40
1.0
 40
1.0
 10
13.1468030185
 20
-24.9909188409
 30
0.0
 10
13.1603949205
 20
-25.0832809822
 30
0.0
 10
13.208498223
 20
-25.2674768912
 30
0.0
 10
13.3395015988
 20
-25.5255279953
 30
0.0
 10
13.5256224169
 20
-25.7600023976
 30
0.0
 10
13.7614464257
 20
-25.9649016749
 30
0.0
 10
14.0406140263
 20
-26.1354074219
 30
0.0
 10
14.3558943163
 20
-26.2675118397
 30
0.0
 10
14.6992881228
 20
-26.358111516
 30
0.0
 10
15.0620992106
 20
-26.4050661467
 30
0.0
 10
15.4352874383
 20
-26.4072474956
 30
0.0
 10
15.9315457377
 20
-26.3507746619
 30
0.0
 10
16.411238474
 20
-26.2080697808
 30
0.0
 10
16.8432108753
 20
-25.9844592475
 30
0.0
 10
17.129556983
 20
-25.7839893355
 30
0.0
 10
17.3737796582
 20
-25.5542687795
 30
0.0
 10
17.5076214245
 20
-25.3809917698
 30
0.0
 10
17.5648178472
 20
-25.2914314518
 30
0.0
  0
SPLINE
  5
353
100
AcDbEntity
  8
ASSI
100
AcDbSpline
 62
7
  6
CONTINUOUS
 70
0
 71
3
 72
11
 73
7
 74
0
 42
0.0000001
 43
0.0000001
 44
0.0000000001
 40
0.0
 40
0.0
 40
0.0
 40
0.0
 40
0.2621078861
 40
0.514295986
 40
0.7591059747
 40
1.0
 40
1.0
 40
1.0
 40
1.0
 10
17.5648178472
 20
-25.2914314518
 30
0.0
 10
17.6133828064
 20
-25.2153866054
 30
0.0
 10
17.6975097785
 20
-25.0585803456
 30
0.0
 10
17.7809485668
 20
-24.8095547985
 30
0.0
 10
17.8170404442
 20
-24.5566812101
 30
0.0
 10
17.8087590167
 20
-24.3884620474
 30
0.0
 10
17.79668564
 20
-24.3064188632
 30
0.0
  0
SPLINE
  5
354
100
AcDbEntity
  8
0
100
AcDbSpline
 62
7
  6
CONTINUOUS
 70
0
 71
3
 72
11
 73
7
 74
0
 42
0.0000001
 43
0.0000001
 44
0.0000000001
 40
0.0
 40
0.0
 40
0.0
 40
0.0
 40
0.2585988214
 40
0.5100375503
 40
0.7563540218
 40
1.0
 40
1.0
 40
1.0
 40
1.0
 10
-9.1060698196
 20
-23.2195512567
 30
0.0
 10
-9.157799221
 20
-23.1632676752
 30
0.0
 10
-9.2525795255
 20
-23.0452780391
 30
0.0
 10
-9.3665841028
 20
-22.852017618
 30
0.0
 10
-9.4485087597
 20
-22.6478401832
 30
0.0
 10
-9.4810331168
 20
-22.5059768942
 30
0.0
 10
-9.4915207426
 20
-22.4347201969
 30
0.0
  0
SPLINE
  5
355
100
AcDbEntity
  8
0
100
AcDbSpline
 62
7
  6
CONTINUOUS
 70
0
 71
3
 72
9
 73
5
 74
0
 42
0.0000001
 43
0.0000001
 44
0.0000000001
 40
0.0
 40
0.0
 40
0.0
 40
0.0
 40
0.4941206775
 40
1.0
 40
1.0
 40
1.0
 40
1.0
 10
-10.1590039596
 20
-17.9013382981
 30
0.0
 10
-10.174643538
 20
-17.7950503916
 30
0.0
 10
-10.1807764539
 20
-17.5754490229
 30
0.0
 10
-10.1364100546
 20
-17.3605421504
 30
0.0
 10
-10.102988912
 20
-17.2557538027
 30
0.0
  0
SPLINE
  5
356
100
AcDbEntity
  8
0
100
AcDbSpline
 62
7
  6
CONTINUOUS
 70
0
 71
3
 72
11
 73
7
 74
0
 42
0.0000001
 43
0.0000001
 44
0.0000000001
 40
0.0
 40
0.0
 40
0.0
 40
0.0
 40
0.2585953547
 40
0.510034656
 40
0.7563526578
 40
1.0
 40
1.0
 40
1.0
 40
1.0
 10
-4.6877376926
 20
-22.5690015654
 30
0.0
 10
-4.6544317152
 20
-22.5001950903
 30
0.0
 10
-4.5976642539
 20
-22.3599017957
 30
0.0
 10
-4.5442271199
 20
-22.1419779549
 30
0.0
 10
-4.5246017198
 20
-21.9228534302
 30
0.0
 10
-4.5343675431
 20
-21.7776366476
 30
0.0
 10
-4.5448552306
 20
-21.7063795311
 30
0.0
  0
SPLINE
  5
357
100
AcDbEntity
  8
0
100
AcDbSpline
 62
7
  6
CONTINUOUS
 70
0
 71
3
 72
13
 73
9
 74
0
 42
0.0000001
 43
0.0000001
 44
0.0000000001
 40
0.0
 40
0.0
 40
0.0
 40
0.0
 40
0.275858161
 40
0.5321333152
 40
0.6536356321
 40
0.7713772261
 40
0.8864022911
 40
1.0
 40
1.0
 40
1.0
 40
1.0
 10
-8.7956437178
 20
-19.2752997374
 30
0.0
 10
-8.974870419
 20
-19.2202609537
 30
0.0
 10
-9.3111751224
 20
-19.0781988723
 30
0.0
 10
-9.671209534
 20
-18.8085073521
 30
0.0
 10
-9.8919249244
 20
-18.5526460568
 30
0.0
 10
-10.020291925
 20
-18.3477358235
 30
0.0
 10
-10.1120045986
 20
-18.1298321255
 30
0.0
 10
-10.1477645011
 20
-17.9777226156
 30
0.0
 10
-10.1590039596
 20
-17.9013382981
 30
0.0
  0
SPLINE
  5
358
100
AcDbEntity
  8
0
100
AcDbSpline
 62
7
  6
CONTINUOUS
 70
0
 71
3
 72
14
 73
10
 74
0
 42
0.0000001
 43
0.0000001
 44
0.0000000001
 40
0.0
 40
0.0
 40
0.0
 40
0.0
 40
0.2566241568
 40
0.3893852113
 40
0.5214295941
 40
0.6502472294
 40
0.7737172875
 40
0.8904300578
 40
1.0
 40
1.0
 40
1.0
 40
1.0
 10
-8.1281668986
 20
-23.8085967467
 30
0.0
 10
-7.8064210169
 20
-23.9074017899
 30
0.0
 10
-7.2871083143
 20
-23.9683067621
 30
0.0
 10
-6.6060395022
 20
-23.8919342909
 30
0.0
 10
-6.1055851373
 20
-23.7559694483
 30
0.0
 10
-5.6442157155
 20
-23.5475771186
 30
0.0
 10
-5.2410306267
 20
-23.2751573166
 30
0.0
 10
-4.9135314943
 20
-22.9499255107
 30
0.0
 10
-4.7503496397
 20
-22.6983509409
 30
0.0
 10
-4.6877376926
 20
-22.5690015654
 30
0.0
  0
SPLINE
  5
359
100
AcDbEntity
  8
0
100
AcDbSpline
 62
7
  6
CONTINUOUS
 70
0
 71
3
 72
9
 73
5
 74
0
 42
0.0000001
 43
0.0000001
 44
0.0000000001
 40
0.0
 40
0.0
 40
0.0
 40
0.0
 40
0.5197378105
 40
1.0
 40
1.0
 40
1.0
 40
1.0
 10
-8.1281668986
 20
-23.8085967467
 30
0.0
 10
-8.3188829986
 20
-23.75002968
 30
0.0
 10
-8.6752624117
 20
-23.5969026553
 30
0.0
 10
-8.9813195974
 20
-23.3552843041
 30
0.0
 10
-9.1060698196
 20
-23.2195512567
 30
0.0
  0
SPLINE
  5
35A
100
AcDbEntity
  8
0
100
AcDbSpline
 62
7
  6
CONTINUOUS
 70
0
 71
3
 72
14
 73
10
 74
0
 42
0.0000001
 43
0.0000001
 44
0.0000000001
 40
0.0
 40
0.0
 40
0.0
 40
0.0
 40
0.1078187376
 40
0.2230273587
 40
0.3456553103
 40
0.474424595
 40
0.6071257715
 40
0.7410153029
 40
1.0
 40
1.0
 40
1.0
 40
1.0
 10
-5.2883203028
 20
-17.8774122265
 30
0.0
 10
-5.3385828858
 20
-18.0161179991
 30
0.0
 10
-5.4827203087
 20
-18.2894875316
 30
0.0
 10
-5.7972392753
 20
-18.6474416377
 30
0.0
 10
-6.2005808843
 20
-18.9510365612
 30
0.0
 10
-6.6732955768
 20
-19.1866399165
 30
0.0
 10
-7.1937767744
 20
-19.3438978399
 30
0.0
 10
-7.9083877142
 20
-19.4385462181
 30
0.0
 10
-8.4568804735
 20
-19.3793306478
 30
0.0
 10
-8.7956437178
 20
-19.2752997374
 30
0.0
  0
SPLINE
  5
35B
100
AcDbEntity
  8
0
100
AcDbSpline
 62
7
  6
CONTINUOUS
 70
0
 71
3
 72
11
 73
7
 74
0
 42
0.0000001
 43
0.0000001
 44
0.0000000001
 40
0.0
 40
0.0
 40
0.0
 40
0.0
 40
0.2436278388
 40
0.489895575
 40
0.7413062126
 40
1.0
 40
1.0
 40
1.0
 40
1.0
 10
7.0827850857
 20
-25.5944503733
 30
0.0
 10
7.0932698977
 20
-25.6657023268
 30
0.0
 10
7.1030296708
 20
-25.8108984358
 30
0.0
 10
7.0834309432
 20
-26.0299957705
 30
0.0
 10
7.0300028029
 20
-26.2479306414
 30
0.0
 10
6.9732098982
 20
-26.3882365103
 30
0.0
 10
6.9398919364
 20
-26.4570697935
 30
0.0
  0
SPLINE
  5
35C
100
AcDbEntity
  8
0
100
AcDbSpline
 62
7
  6
CONTINUOUS
 70
0
 71
3
 72
11
 73
7
 74
0
 42
0.0000001
 43
0.0000001
 44
0.0000000001
 40
0.0
 40
0.0
 40
0.0
 40
0.0
 40
0.2436490353
 40
0.4899656465
 40
0.7414068703
 40
1.0
 40
1.0
 40
1.0
 40
1.0
 10
2.1361213917
 20
-26.3227907715
 30
0.0
 10
2.1466070714
 20
-26.3940486218
 30
0.0
 10
2.1791299089
 20
-26.5359134819
 30
0.0
 10
2.2610592538
 20
-26.7400908847
 30
0.0
 10
2.375065627
 20
-26.933348631
 30
0.0
 10
2.4698419916
 20
-27.0513398496
 30
0.0
 10
2.5215689704
 20
-27.1076233055
 30
0.0
  0
SPLINE
  5
35D
100
AcDbEntity
  8
0
100
AcDbSpline
 62
7
  6
CONTINUOUS
 70
0
 71
3
 72
15
 73
11
 74
0
 42
0.0000001
 43
0.0000001
 44
0.0000000001
 40
0.0
 40
0.0
 40
0.0
 40
0.0
 40
0.1113389101
 40
0.2314397265
 40
0.3591982583
 40
0.4918925337
 40
0.6258853337
 40
0.7573126908
 40
0.8827593798
 40
1.0
 40
1.0
 40
1.0
 40
1.0
 10
2.5215689704
 20
-27.1076233055
 30
0.0
 10
2.6406006138
 20
-27.2371400955
 30
0.0
 10
2.9302836658
 20
-27.469132363
 30
0.0
 10
3.4520783317
 20
-27.7040910845
 30
0.0
 10
4.0448042033
 20
-27.8281462297
 30
0.0
 10
4.6717252143
 20
-27.8343415891
 30
0.0
 10
5.2944810646
 20
-27.7229292647
 30
0.0
 10
5.8748134638
 20
-27.5004750896
 30
0.0
 10
6.376731745
 20
-27.1805418584
 30
0.0
 10
6.6483828652
 20
-26.9033754039
 30
0.0
 10
6.7587495703
 20
-26.7546150254
 30
0.0
  0
SPLINE
  5
35E
100
AcDbEntity
  8
0
100
AcDbSpline
 62
7
  6
CONTINUOUS
 70
0
 71
3
 72
9
 73
5
 74
0
 42
0.0000001
 43
0.0000001
 44
0.0000000001
 40
0.0
 40
0.0
 40
0.0
 40
0.0
 40
0.5058556833
 40
1.0
 40
1.0
 40
1.0
 40
1.0
 10
17.7061011288
 20
-23.6834797397
 30
0.0
 10
17.7681113883
 20
-23.7740780209
 30
0.0
 10
17.8722125923
 20
-23.9667979929
 30
0.0
 10
17.9294710573
 20
-24.1784800331
 30
0.0
 10
17.945083483
 20
-24.2845834086
 30
0.0
  0
SPLINE
  5
35F
100
AcDbEntity
  8
0
100
AcDbSpline
 62
7
  6
CONTINUOUS
 70
0
 71
3
 72
11
 73
7
 74
0
 42
0.0000001
 43
0.0000001
 44
0.0000000001
 40
0.0
 40
0.0
 40
0.0
 40
0.0
 40
0.2436473422
 40
0.489965344
 40
0.7414046453
 40
1.0
 40
1.0
 40
1.0
 40
1.0
 10
18.6125539045
 20
-28.8177955285
 30
0.0
 10
18.623041592
 20
-28.8890526449
 30
0.0
 10
18.6328074152
 20
-29.0342694276
 30
0.0
 10
18.6131820151
 20
-29.2533939523
 30
0.0
 10
18.5597448812
 20
-29.4713177931
 30
0.0
 10
18.5029774199
 20
-29.6116110877
 30
0.0
 10
18.4696714425
 20
-29.6804175628
 30
0.0
  0
SPLINE
  5
360
100
AcDbEntity
  8
0
100
AcDbSpline
 62
7
  6
CONTINUOUS
 70
0
 71
3
 72
11
 73
7
 74
0
 42
0.0000001
 43
0.0000001
 44
0.0000000001
 40
0.0
 40
0.0
 40
0.0
 40
0.0
 40
0.2436459782
 40
0.4899624497
 40
0.7414011786
 40
1.0
 40
1.0
 40
1.0
 40
1.0
 10
13.6658883924
 20
-29.5461361943
 30
0.0
 10
13.6763760183
 20
-29.6173928916
 30
0.0
 10
13.7089003753
 20
-29.7592561806
 30
0.0
 10
13.7908250322
 20
-29.9634336154
 30
0.0
 10
13.9048296095
 20
-30.1566940365
 30
0.0
 10
13.999609914
 20
-30.2746836726
 30
0.0
 10
14.0513393154
 20
-30.3309672541
 30
0.0
  0
SPLINE
  5
361
100
AcDbEntity
  8
0
100
AcDbSpline
 62
7
  6
CONTINUOUS
 70
0
 71
3
 72
9
 73
5
 74
0
 42
0.0000001
 43
0.0000001
 44
0.0000000001
 40
0.0
 40
0.0
 40
0.0
 40
0.0
 40
0.4941206775
 40
1.0
 40
1.0
 40
1.0
 40
1.0
 10
12.9984051754
 20
-25.0127542955
 30
0.0
 10
12.9827655971
 20
-24.906466389
 30
0.0
 10
12.9766326811
 20
-24.6868650203
 30
0.0
 10
13.0209990805
 20
-24.4719581478
 30
0.0
 10
13.0544202231
 20
-24.3671698001
 30
0.0
  0
SPLINE
  5
362
100
AcDbEntity
  8
0
100
AcDbSpline
 62
7
  6
CONTINUOUS
 70
0
 71
3
 72
13
 73
9
 74
0
 42
0.0000001
 43
0.0000001
 44
0.0000000001
 40
0.0
 40
0.0
 40
0.0
 40
0.0
 40
0.275858161
 40
0.5321333152
 40
0.6536356321
 40
0.7713772261
 40
0.8864022911
 40
1.0
 40
1.0
 40
1.0
 40
1.0
 10
14.3617654173
 20
-26.3867157347
 30
0.0
 10
14.182538716
 20
-26.3316769511
 30
0.0
 10
13.8462340127
 20
-26.1896148697
 30
0.0
 10
13.4861996011
 20
-25.9199233495
 30
0.0
 10
13.2654842107
 20
-25.6640620542
 30
0.0
 10
13.1371172101
 20
-25.4591518209
 30
0.0
 10
13.0454045364
 20
-25.2412481229
 30
0.0
 10
13.009644634
 20
-25.089138613
 30
0.0
 10
12.9984051754
 20
-25.0127542955
 30
0.0
  0
SPLINE
  5
363
100
AcDbEntity
  8
0
100
AcDbSpline
 62
7
  6
CONTINUOUS
 70
0
 71
3
 72
14
 73
10
 74
0
 42
0.0000001
 43
0.0000001
 44
0.0000000001
 40
0.0
 40
0.0
 40
0.0
 40
0.0
 40
0.1095699422
 40
0.2262827125
 40
0.3497527706
 40
0.4785704059
 40
0.6106147887
 40
0.7433758432
 40
1.0
 40
1.0
 40
1.0
 40
1.0
 10
18.4696714425
 20
-29.6804175628
 30
0.0
 10
18.4070594954
 20
-29.8097669383
 30
0.0
 10
18.2438776407
 20
-30.0613415081
 30
0.0
 10
17.9163785084
 20
-30.386573314
 30
0.0
 10
17.5131934196
 20
-30.658993116
 30
0.0
 10
17.0518239978
 20
-30.8673854457
 30
0.0
 10
16.5513696329
 20
-31.0033502883
 30
0.0
 10
15.8703008208
 20
-31.0797227595
 30
0.0
 10
15.3509881181
 20
-31.0188177873
 30
0.0
 10
15.0292422365
 20
-30.9200127441
 30
0.0
  0
SPLINE
  5
364
100
AcDbEntity
  8
0
100
AcDbSpline
 62
7
  6
CONTINUOUS
 70
0
 71
3
 72
18
 73
14
 74
0
 42
0.0000001
 43
0.0000001
 44
0.0000000001
 40
0.0
 40
0.0
 40
0.0
 40
0.0
 40
0.0515133703
 40
0.1037675419
 40
0.1574209575
 40
0.2129873006
 40
0.2708015722
 40
0.3310108933
 40
0.4581114339
 40
0.5925843819
 40
0.66158276
 40
0.7309918478
 40
1.0
 40
1.0
 40
1.0
 40
1.0
 10
17.945083483
 20
-24.2845834086
 30
0.0
 10
17.9571243026
 20
-24.3664138443
 30
0.0
 10
17.9664003062
 20
-24.5338420478
 30
0.0
 10
17.9349837484
 20
-24.7858935735
 30
0.0
 10
17.859132165
 20
-25.035088141
 30
0.0
 10
17.7404912338
 20
-25.2767992348
 30
0.0
 10
17.5813980376
 20
-25.5068321579
 30
0.0
 10
17.3146905417
 20
-25.797672245
 30
0.0
 10
16.8950244431
 20
-26.1079908436
 30
0.0
 10
16.4064461944
 20
-26.3250840017
 30
0.0
 10
15.9832225702
 20
-26.441509207
 30
0.0
 10
15.3386596952
 20
-26.5518952839
 30
0.0
 10
14.7746632322
 20
-26.5135126536
 30
0.0
 10
14.3617654173
 20
-26.3867157347
 30
0.0
  0
SPLINE
  5
365
100
AcDbEntity
  8
0
100
AcDbSpline
 62
7
  6
CONTINUOUS
 70
0
 71
3
 72
9
 73
5
 74
0
 42
0.0000001
 43
0.0000001
 44
0.0000000001
 40
0.0
 40
0.0
 40
0.0
 40
0.0
 40
0.4802621895
 40
1.0
 40
1.0
 40
1.0
 40
1.0
 10
14.0513393154
 20
-30.3309672541
 30
0.0
 10
14.1760895377
 20
-30.4667003015
 30
0.0
 10
14.4821467233
 20
-30.7083186527
 30
0.0
 10
14.8385261365
 20
-30.8614456774
 30
0.0
 10
15.0292422365
 20
-30.9200127441
 30
0.0
  0
SPLINE
  5
366
100
AcDbEntity
  8
RACCORDO
100
AcDbSpline
 62
7
  6
CONTINUOUS
 70
0
 71
3
 72
15
 73
11
 74
0
 42
0.0000001
 43
0.0000001
 44
0.0000000001
 40
0.0
 40
0.0
 40
0.0
 40
0.0
 40
0.1309835437
 40
0.2685785607
 40
0.4076785233
 40
0.5437123947
 40
0.6730973289
 40
0.7932782913
 40
0.9025885813
 40
1.0
 40
1.0
 40
1.0
 40
1.0
 10
-6.2765089696
 20
4.5380566202
 30
0.0
 10
-6.4277557168
 20
4.5899161128
 30
0.0
 10
-6.7430247932
 20
4.6815894557
 30
0.0
 10
-7.2307163533
 20
4.7827533951
 30
0.0
 10
-7.7305064494
 20
4.8495545138
 30
0.0
 10
-8.2236624401
 20
4.8812990138
 30
0.0
 10
-8.6947386183
 20
4.8791533832
 30
0.0
 10
-9.1319510746
 20
4.8454322096
 30
0.0
 10
-9.5265141217
 20
4.782936465
 30
0.0
 10
-9.7715359857
 20
4.7203120582
 30
0.0
 10
-9.8847209097
 20
4.6838620902
 30
0.0
  0
SPLINE
  5
367
100
AcDbEntity
  8
RACCORDO
100
AcDbSpline
 62
7
  6
CONTINUOUS
 70
0
 71
3
 72
9
 73
5
 74
0
 42
0.0000001
 43
0.0000001
 44
0.0000000001
 40
0.0
 40
0.0
 40
0.0
 40
0.0
 40
0.5551870132
 40
1.0
 40
1.0
 40
1.0
 40
1.0
 10
-9.8847209097
 20
4.6838620902
 30
0.0
 10
-9.9089237142
 20
4.6760678413
 30
0.0
 10
-9.9516108565
 20
4.6594207997
 30
0.0
 10
-9.9908544992
 20
4.6338427625
 30
0.0
 10
-10.0046947857
 20
4.6188941808
 30
0.0
  0
SPLINE
  5
368
100
AcDbEntity
  8
RACCORDO
100
AcDbSpline
 62
7
  6
CONTINUOUS
 70
0
 71
3
 72
13
 73
9
 74
0
 42
0.0000001
 43
0.0000001
 44
0.0000000001
 40
0.0
 40
0.0
 40
0.0
 40
0.0
 40
0.206277359
 40
0.301605093
 40
0.3981649824
 40
0.6315486402
 40
0.7955770267
 40
1.0
 40
1.0
 40
1.0
 40
1.0
 10
-10.0046947857
 20
4.6188941808
 30
0.0
 10
-10.0112112255
 20
4.6118559209
 30
0.0
 10
-10.0196716719
 20
4.600094076
 30
0.0
 10
-10.0244098209
 20
4.5819827631
 30
0.0
 10
-10.0235484523
 20
4.5618601822
 30
0.0
 10
-10.0099892199
 20
4.5413305774
 30
0.0
 10
-9.9874274542
 20
4.5247639453
 30
0.0
 10
-9.9719751159
 20
4.5170834454
 30
0.0
 10
-9.9631894043
 20
4.5134549939
 30
0.0
  0
SPLINE
  5
369
100
AcDbEntity
  8
RACCORDO
100
AcDbSpline
 62
250
  6
CONTINUOUS
 70
0
 71
3
 72
9
 73
5
 74
0
 42
0.0000001
 43
0.0000001
 44
0.0000000001
 40
0.0
 40
0.0
 40
0.0
 40
0.0
 40
0.2462355046
 40
1.0
 40
1.0
 40
1.0
 40
1.0
 10
-10.1125949109
 20
4.3088303989
 30
0.0
 10
-10.1013459593
 20
4.3263289745
 30
0.0
 10
-10.0545816596
 20
4.3966947129
 30
0.0
 10
-10.0036112449
 20
4.4642500776
 30
0.0
 10
-9.9631894043
 20
4.5134549939
 30
0.0
  0
SPLINE
  5
36A
100
AcDbEntity
  8
COPY-PUBBLISH
100
AcDbSpline
 62
7
  6
CONTINUOUS
 70
0
 71
3
 72
9
 73
5
 74
0
 42
0.0000001
 43
0.0000001
 44
0.0000000001
 40
0.0
 40
0.0
 40
0.0
 40
0.0
 40
0.2566250943
 40
1.0
 40
1.0
 40
1.0
 40
1.0
 10
-10.4584001471
 20
5.337257998
 30
0.0
 10
-10.4835489447
 20
5.2978790613
 30
0.0
 10
-10.5764294134
 20
5.141261026
 30
0.0
 10
-10.6479962647
 20
4.9716939149
 30
0.0
 10
-10.6856264052
 20
4.8416821769
 30
0.0
  0
SPLINE
  5
36B
100
AcDbEntity
  8
COPY-PUBBLISH
100
AcDbSpline
 62
7
  6
CONTINUOUS
 70
0
 71
3
 72
18
 73
14
 74
0
 42
0.0000001
 43
0.0000001
 44
0.0000000001
 40
0.0
 40
0.0
 40
0.0
 40
0.0
 40
0.0533644959
 40
0.1088817951
 40
0.1668105554
 40
0.2271999807
 40
0.3544338881
 40
0.4880426969
 40
0.6237313716
 40
0.7567605795
 40
0.8210340289
 40
0.8831842193
 40
1.0
 40
1.0
 40
1.0
 40
1.0
 10
-5.4363084694
 20
5.6137232163
 30
0.0
 10
-5.4920212833
 20
5.6999633324
 30
0.0
 10
-5.6216148981
 20
5.8660631212
 30
0.0
 10
-5.8583190431
 20
6.0845898332
 30
0.0
 10
-6.1360601191
 20
6.2730354625
 30
0.0
 10
-6.560656946
 20
6.482947277
 30
0.0
 10
-7.162884778
 20
6.64799089
 30
0.0
 10
-7.93042744
 20
6.6841665545
 30
0.0
 10
-8.7000145832
 20
6.5609180426
 30
0.0
 10
-9.3032863045
 20
6.3297071285
 30
0.0
 10
-9.733402359
 20
6.0741281726
 30
0.0
 10
-10.1048801211
 20
5.7885385748
 30
0.0
 10
-10.3374323258
 20
5.5266739792
 30
0.0
 10
-10.4584001471
 20
5.337257998
 30
0.0
  0
SPLINE
  5
36C
100
AcDbEntity
  8
COPY-PUBBLISH
100
AcDbSpline
 62
250
  6
CONTINUOUS
 70
0
 71
3
 72
9
 73
5
 74
0
 42
0.0000001
 43
0.0000001
 44
0.0000000001
 40
0.0
 40
0.0
 40
0.0
 40
0.0
 40
0.4900689675
 40
1.0
 40
1.0
 40
1.0
 40
1.0
 10
-10.7452993403
 20
4.9371089309
 30
0.0
 10
-10.7221833899
 20
5.0419685125
 30
0.0
 10
-10.6542782577
 20
5.2517666797
 30
0.0
 10
-10.5506917966
 20
5.4461379199
 30
0.0
 10
-10.4905549305
 20
5.5403024951
 30
0.0
  0
SPLINE
  5
36D
100
AcDbEntity
  8
COPY-PUBBLISH
100
AcDbSpline
 62
7
  6
CONTINUOUS
 70
0
 71
3
 72
9
 73
5
 74
0
 42
0.0000001
 43
0.0000001
 44
0.0000000001
 40
0.0
 40
0.0
 40
0.0
 40
0.0
 40
0.2542004371
 40
1.0
 40
1.0
 40
1.0
 40
1.0
 10
-1.5071708468
 20
2.588422199
 30
0.0
 10
-1.5201844011
 20
2.5680450844
 30
0.0
 10
-1.5696569146
 20
2.4868023315
 30
0.0
 10
-1.6120857007
 20
2.4012283836
 30
0.0
 10
-1.6389888725
 20
2.3355918388
 30
0.0
  0
SPLINE
  5
36E
100
AcDbEntity
  8
COPY-PUBBLISH
100
AcDbSpline
 62
7
  6
CONTINUOUS
 70
0
 71
3
 72
15
 73
11
 74
0
 42
0.0000001
 43
0.0000001
 44
0.0000000001
 40
0.0
 40
0.0
 40
0.0
 40
0.0
 40
0.110592087
 40
0.230488054
 40
0.3587188193
 40
0.4923138665
 40
0.6271842413
 40
0.7589946813
 40
0.8840065866
 40
1.0
 40
1.0
 40
1.0
 40
1.0
 10
2.4371396852
 20
2.9362867801
 30
0.0
 10
2.3330770095
 20
3.0645407706
 30
0.0
 10
2.0703775547
 20
3.2962842541
 30
0.0
 10
1.5832619413
 20
3.5314354896
 30
0.0
 10
1.0221899798
 20
3.6558697564
 30
0.0
 10
0.4257938171
 20
3.6619467308
 30
0.0
 10
-0.1653685235
 20
3.5500313277
 30
0.0
 10
-0.7109103942
 20
3.3273728762
 30
0.0
 10
-1.1731794361
 20
3.0090027684
 30
0.0
 10
-1.413933325
 20
2.7344170304
 30
0.0
 10
-1.5071708468
 20
2.588422199
 30
0.0
  0
SPLINE
  5
36F
100
AcDbEntity
  8
COPY-PUBBLISH
100
AcDbSpline
 62
250
  6
CONTINUOUS
 70
0
 71
3
 72
13
 73
9
 74
0
 42
0.0000001
 43
0.0000001
 44
0.0000000001
 40
0.0
 40
0.0
 40
0.0
 40
0.0
 40
0.2446225165
 40
0.3731547691
 40
0.5032292376
 40
0.6328474425
 40
0.7600560573
 40
1.0
 40
1.0
 40
1.0
 40
1.0
 10
-1.5589676849
 20
3.7925581311
 30
0.0
 10
-1.3155837725
 20
3.9983912171
 30
0.0
 10
-0.8872623484
 20
4.2491452979
 30
0.0
 10
-0.2638606568
 20
4.4558886658
 30
0.0
 10
0.2352394678
 20
4.5484015708
 30
0.0
 10
0.7406145257
 20
4.5719433805
 30
0.0
 10
1.3861879734
 20
4.5122128278
 30
0.0
 10
1.8524491426
 20
4.3643695216
 30
0.0
 10
2.1285022204
 20
4.2175757957
 30
0.0
  0
SPLINE
  5
370
100
AcDbEntity
  8
COPY-PUBBLISH
100
AcDbSpline
 62
250
  6
CONTINUOUS
 70
0
 71
3
 72
16
 73
12
 74
0
 42
0.0000001
 43
0.0000001
 44
0.0000000001
 40
0.0
 40
0.0
 40
0.0
 40
0.0
 40
0.1165760856
 40
0.2424979087
 40
0.3752755263
 40
0.5108352076
 40
0.644515313
 40
0.7720603196
 40
0.8906036492
 40
0.9463920135
 40
1.0
 40
1.0
 40
1.0
 40
1.0
 10
-1.5393256303
 20
2.7914666961
 30
0.0
 10
-1.4430186642
 20
2.9422677791
 30
0.0
 10
-1.1924984323
 20
3.2252677205
 30
0.0
 10
-0.7104780808
 20
3.5494731066
 30
0.0
 10
-0.1422639546
 20
3.7707434348
 30
0.0
 10
0.470493007
 20
3.8732833263
 30
0.0
 10
1.0835721537
 20
3.8497394579
 30
0.0
 10
1.652318155
 20
3.7014710265
 30
0.0
 10
2.0641402013
 20
3.4756705451
 30
0.0
 10
2.3270539975
 20
3.2430699273
 30
0.0
 10
2.4341634338
 20
3.1125519697
 30
0.0
 10
2.4806145025
 20
3.044635951
 30
0.0
  0
SPLINE
  5
371
100
AcDbEntity
  8
COPY-PUBBLISH
100
AcDbSpline
 62
250
  6
CONTINUOUS
 70
0
 71
3
 72
9
 73
5
 74
0
 42
0.0000001
 43
0.0000001
 44
0.0000000001
 40
0.0
 40
0.0
 40
0.0
 40
0.0
 40
0.2446514367
 40
1.0
 40
1.0
 40
1.0
 40
1.0
 10
-10.5430515547
 20
6.534406906
 30
0.0
 10
-10.5031642761
 20
6.5719817135
 30
0.0
 10
-10.3361006223
 20
6.7212612311
 30
0.0
 10
-10.1537715336
 20
6.8532435049
 30
0.0
 10
-10.0102683468
 20
6.9428599784
 30
0.0
  0
SPLINE
  5
372
100
AcDbEntity
  8
COPY-PUBBLISH
100
AcDbSpline
 62
250
  6
CONTINUOUS
 70
0
 71
3
 72
11
 73
7
 74
0
 42
0.0000001
 43
0.0000001
 44
0.0000000001
 40
0.0
 40
0.0
 40
0.0
 40
0.0
 40
0.2452435997
 40
0.4982777257
 40
0.752210237
 40
1.0
 40
1.0
 40
1.0
 40
1.0
 10
-10.0052636727
 20
6.9459798086
 30
0.0
 10
-9.7803396485
 20
7.0859448652
 30
0.0
 10
-9.2919343951
 20
7.3220411656
 30
0.0
 10
-8.5024488348
 20
7.5322647358
 30
0.0
 10
-7.6851747812
 20
7.5955170282
 30
0.0
 10
-7.1424370279
 20
7.5354368173
 30
0.0
 10
-6.8808530453
 20
7.4786945679
 30
0.0
  0
SPLINE
  5
373
100
AcDbEntity
  8
COPY-PUBBLISH
100
AcDbSpline
 62
250
  6
CONTINUOUS
 70
0
 71
3
 72
9
 73
5
 74
0
 42
0.0000001
 43
0.0000001
 44
0.0000000001
 40
0.0
 40
0.0
 40
0.0
 40
0.0
 40
0.2580630979
 40
1.0
 40
1.0
 40
1.0
 40
1.0
 10
-6.8503474839
 20
7.4719472811
 30
0.0
 10
-6.7674124652
 20
7.4532484238
 30
0.0
 10
-6.4486128503
 20
7.3701594717
 30
0.0
 10
-6.1405510652
 20
7.2433121704
 30
0.0
 10
-5.9275662974
 20
7.1233905624
 30
0.0
  0
SPLINE
  5
374
100
AcDbEntity
  8
COPY-PUBBLISH
100
AcDbSpline
 62
250
  6
CONTINUOUS
 70
0
 71
3
 72
18
 73
14
 74
0
 42
0.0000001
 43
0.0000001
 44
0.0000000001
 40
0.0
 40
0.0
 40
0.0
 40
0.0
 40
0.1172779425
 40
0.1797749095
 40
0.2444293804
 40
0.3782191254
 40
0.5144398807
 40
0.6480916438
 40
0.7747714007
 40
0.8347028634
 40
0.892102274
 40
0.9470871273
 40
1.0
 40
1.0
 40
1.0
 40
1.0
 10
-10.4905549305
 20
5.5403024951
 30
0.0
 10
-10.3666914462
 20
5.7342526147
 30
0.0
 10
-10.1273151707
 20
6.0018637343
 30
0.0
 10
-9.7445446708
 20
6.2919094538
 30
0.0
 10
-9.3009401093
 20
6.5500538171
 30
0.0
 10
-8.6795628809
 20
6.7796358052
 30
0.0
 10
-7.8898689419
 20
6.8930540048
 30
0.0
 10
-7.1076551126
 20
6.8393990708
 30
0.0
 10
-6.4998926025
 20
6.6537647274
 30
0.0
 10
-6.0777792866
 20
6.4248826397
 30
0.0
 10
-5.8056378703
 20
6.2219983252
 30
0.0
 10
-5.5781501511
 20
5.9888844955
 30
0.0
 10
-5.457512486
 20
5.813286339
 30
0.0
 10
-5.4069118117
 20
5.722623188
 30
0.0
  0
SPLINE
  5
375
100
AcDbEntity
  8
COPY-PUBBLISH
100
AcDbSpline
 62
250
  6
CONTINUOUS
 70
0
 71
3
 72
9
 73
5
 74
0
 42
0.0000001
 43
0.0000001
 44
0.0000000001
 40
0.0
 40
0.0
 40
0.0
 40
0.0
 40
0.244525979
 40
1.0
 40
1.0
 40
1.0
 40
1.0
 10
-1.711820317
 20
2.4267686572
 30
0.0
 10
-1.701864921
 20
2.4581650253
 30
0.0
 10
-1.6566882456
 20
2.5851262685
 30
0.0
 10
-1.5940967877
 20
2.7057039501
 30
0.0
 10
-1.5393256303
 20
2.7914666961
 30
0.0
  0
SPLINE
  5
376
100
AcDbEntity
  8
0
100
AcDbSpline
 62
7
  6
CONTINUOUS
 70
0
 71
3
 72
9
 73
5
 74
0
 42
0.0000001
 43
0.0000001
 44
0.0000000001
 40
0.0
 40
0.0
 40
0.0
 40
0.0
 40
0.2428119628
 40
1.0
 40
1.0
 40
1.0
 40
1.0
 10
7.4192222004
 20
25.6534295784
 30
0.0
 10
7.4200543495
 20
25.6573143167
 30
0.0
 10
7.4232049834
 20
25.6733533074
 30
0.0
 10
7.4249460728
 20
25.6898165294
 30
0.0
 10
7.4243088331
 20
25.702189168
 30
0.0
  0
SPLINE
  5
377
100
AcDbEntity
  8
0
100
AcDbSpline
 62
7
  6
CONTINUOUS
 70
0
 71
3
 72
9
 73
5
 74
0
 42
0.0000001
 43
0.0000001
 44
0.0000000001
 40
0.0
 40
0.0
 40
0.0
 40
0.0
 40
0.4999570847
 40
1.0
 40
1.0
 40
1.0
 40
1.0
 10
-6.9915979118
 20
1.8569537066
 30
0.0
 10
-7.1679679497
 20
2.0153134956
 30
0.0
 10
-7.5934571091
 20
2.2609368917
 30
0.0
 10
-8.0833607521
 20
2.2982466411
 30
0.0
 10
-8.3183609896
 20
2.2669673499
 30
0.0
  0
SPLINE
  5
378
100
AcDbEntity
  8
0
100
AcDbSpline
 62
7
  6
CONTINUOUS
 70
0
 71
3
 72
14
 73
10
 74
0
 42
0.0000001
 43
0.0000001
 44
0.0000000001
 40
0.0
 40
0.0
 40
0.0
 40
0.0
 40
0.0843574149
 40
0.1746243864
 40
0.2753570522
 40
0.3896243692
 40
0.5191524657
 40
0.6643386401
 40
1.0
 40
1.0
 40
1.0
 40
1.0
 10
-8.6762776582
 20
2.3271735499
 30
0.0
 10
-8.7191000372
 20
2.3402633916
 30
0.0
 10
-8.8123435629
 20
2.3538749834
 30
0.0
 10
-8.9586787086
 20
2.334531615
 30
0.0
 10
-9.1116077445
 20
2.2777867593
 30
0.0
 10
-9.2698701534
 20
2.184710793
 30
0.0
 10
-9.4322447679
 20
2.0563489529
 30
0.0
 10
-9.6639519964
 20
1.829284267
 30
0.0
 10
-9.8218511737
 20
1.6271316512
 30
0.0
 10
-9.9236933931
 20
1.4809317953
 30
0.0
  0
SPLINE
  5
379
100
AcDbEntity
  8
0
100
AcDbSpline
 62
7
  6
CONTINUOUS
 70
0
 71
3
 72
9
 73
5
 74
0
 42
0.0000001
 43
0.0000001
 44
0.0000000001
 40
0.0
 40
0.0
 40
0.0
 40
0.0
 40
0.2680081885
 40
1.0
 40
1.0
 40
1.0
 40
1.0
 10
6.8265806828
 20
26.0351033409
 30
0.0
 10
6.7753595849
 20
26.0507937336
 30
0.0
 10
6.5813918921
 20
26.0984750651
 30
0.0
 10
6.3741038859
 20
26.1012965569
 30
0.0
 10
6.2315183132
 20
26.0684808132
 30
0.0
  0
SPLINE
  5
37A
100
AcDbEntity
  8
0
100
AcDbSpline
 62
7
  6
CONTINUOUS
 70
0
 71
3
 72
9
 73
5
 74
0
 42
0.0000001
 43
0.0000001
 44
0.0000000001
 40
0.0
 40
0.0
 40
0.0
 40
0.0
 40
0.2564516357
 40
1.0
 40
1.0
 40
1.0
 40
1.0
 10
7.3628529052
 20
25.7515600476
 30
0.0
 10
7.3216563524
 20
25.7832998931
 30
0.0
 10
7.1562030834
 20
25.9005086288
 30
0.0
 10
6.9707513939
 20
25.9909399939
 30
0.0
 10
6.8265806828
 20
26.0351033409
 30
0.0
  0
SPLINE
  5
37B
100
AcDbEntity
  8
0
100
AcDbSpline
 62
7
  6
CONTINUOUS
 70
0
 71
3
 72
9
 73
5
 74
0
 42
0.0000001
 43
0.0000001
 44
0.0000000001
 40
0.0
 40
0.0
 40
0.0
 40
0.0
 40
0.1682907295
 40
1.0
 40
1.0
 40
1.0
 40
1.0
 10
6.2315183132
 20
26.0684808132
 30
0.0
 10
6.223654466
 20
26.0621259966
 30
0.0
 10
6.1776033407
 20
26.0235246847
 30
0.0
 10
6.1351017927
 20
25.9808147716
 30
0.0
 10
6.1009995578
 20
25.9442937459
 30
0.0
  0
SPLINE
  5
37C
100
AcDbEntity
  8
0
100
AcDbSpline
 62
7
  6
CONTINUOUS
 70
0
 71
3
 72
9
 73
5
 74
0
 42
0.0000001
 43
0.0000001
 44
0.0000000001
 40
0.0
 40
0.0
 40
0.0
 40
0.0
 40
0.4253327123
 40
1.0
 40
1.0
 40
1.0
 40
1.0
 10
6.4188922032
 20
13.8665937776
 30
0.0
 10
6.4074867401
 20
13.7933276144
 30
0.0
 10
6.3672734814
 20
13.6232750988
 30
0.0
 10
6.3141913596
 20
13.4571238297
 30
0.0
 10
6.2808522305
 20
13.3626517169
 30
0.0
  0
SPLINE
  5
37D
100
AcDbEntity
  8
0
100
AcDbSpline
 62
7
  6
CONTINUOUS
 70
0
 71
3
 72
9
 73
5
 74
0
 42
0.0000001
 43
0.0000001
 44
0.0000000001
 40
0.0
 40
0.0
 40
0.0
 40
0.0
 40
0.2562214978
 40
1.0
 40
1.0
 40
1.0
 40
1.0
 10
7.5713600414
 20
25.1901246647
 30
0.0
 10
7.5642311708
 20
25.2164899527
 30
0.0
 10
7.5323793216
 20
25.3182465293
 30
0.0
 10
7.4834955565
 20
25.4147643556
 30
0.0
 10
7.4385920458
 20
25.4801061059
 30
0.0
  0
SPLINE
  5
37E
100
AcDbEntity
  8
0
100
AcDbSpline
 62
7
  6
CONTINUOUS
 70
0
 71
3
 72
9
 73
5
 74
0
 42
0.0000001
 43
0.0000001
 44
0.0000000001
 40
0.0
 40
0.0
 40
0.0
 40
0.0
 40
0.2467408124
 40
1.0
 40
1.0
 40
1.0
 40
1.0
 10
6.1009990075
 20
25.9442940107
 30
0.0
 10
6.0586363273
 20
25.9381521578
 30
0.0
 10
5.8879206322
 20
25.9070395719
 30
0.0
 10
5.7217194939
 20
25.85054415
 30
0.0
 10
5.6037338842
 20
25.7943635953
 30
0.0
  0
SPLINE
  5
37F
100
AcDbEntity
  8
0
100
AcDbSpline
 62
7
  6
CONTINUOUS
 70
0
 71
3
 72
15
 73
11
 74
0
 42
0.0000001
 43
0.0000001
 44
0.0000000001
 40
0.0
 40
0.0
 40
0.0
 40
0.0
 40
0.0832916724
 40
0.1863166194
 40
0.3068650825
 40
0.4406831872
 40
0.5826890633
 40
0.7271097552
 40
0.8680658055
 40
1.0
 40
1.0
 40
1.0
 40
1.0
 10
4.5899768885
 20
20.6196134784
 30
0.0
 10
4.5312871346
 20
20.7575730854
 30
0.0
 10
4.4500910415
 20
21.0868251863
 30
0.0
 10
4.4117800618
 20
21.6390846252
 30
0.0
 10
4.4477015764
 20
22.2828523829
 30
0.0
 10
4.5554379924
 20
22.9890097953
 30
0.0
 10
4.7324086943
 20
23.7253025117
 30
0.0
 10
4.969327856
 20
24.4580275766
 30
0.0
 10
5.2569644768
 20
25.1527493441
 30
0.0
 10
5.4831652842
 20
25.5897657534
 30
0.0
 10
5.6037338842
 20
25.7943635953
 30
0.0
  0
SPLINE
  5
380
100
AcDbEntity
  8
0
100
AcDbSpline
 62
7
  6
CONTINUOUS
 70
0
 71
3
 72
13
 73
9
 74
0
 42
0.0000001
 43
0.0000001
 44
0.0000000001
 40
0.0
 40
0.0
 40
0.0
 40
0.0
 40
0.3245378016
 40
0.5934531694
 40
0.708553585
 40
0.8127288336
 40
0.9086386759
 40
1.0
 40
1.0
 40
1.0
 40
1.0
 10
-6.0851308246
 20
0.5904401922
 30
0.0
 10
-6.0998420236
 20
0.7332078959
 30
0.0
 10
-6.1415285196
 20
0.9931505288
 30
0.0
 10
-6.2450760123
 20
1.2920495723
 30
0.0
 10
-6.3570367827
 20
1.4775730956
 30
0.0
 10
-6.448319926
 20
1.5839526402
 30
0.0
 10
-6.5508953812
 20
1.6636125343
 30
0.0
 10
-6.6273153485
 20
1.6980094635
 30
0.0
 10
-6.6659535061
 20
1.7098224788
 30
0.0
  0
SPLINE
  5
381
100
AcDbEntity
  8
0
100
AcDbSpline
 62
250
  6
CONTINUOUS
 70
0
 71
3
 72
15
 73
11
 74
0
 42
0.0000001
 43
0.0000001
 44
0.0000000001
 40
0.0
 40
0.0
 40
0.0
 40
0.0
 40
0.0840952733
 40
0.1884144172
 40
0.3103747845
 40
0.4454815349
 40
0.588149815
 40
0.7322304535
 40
0.8714683333
 40
1.0
 40
1.0
 40
1.0
 40
1.0
 10
6.2089710074
 20
20.1086648474
 30
0.0
 10
6.1458524316
 20
20.2525691722
 30
0.0
 10
6.0581449129
 20
20.5978438784
 30
0.0
 10
6.0175297776
 20
21.177737902
 30
0.0
 10
6.0552005247
 20
21.8535423097
 30
0.0
 10
6.1703545656
 20
22.592513415
 30
0.0
 10
6.3577272011
 20
23.3591081015
 30
0.0
 10
6.6083391968
 20
24.115543261
 30
0.0
 10
6.9097325027
 20
24.8245558495
 30
0.0
 10
7.1471615744
 20
25.2661834337
 30
0.0
 10
7.2732964802
 20
25.470565479
 30
0.0
  0
SPLINE
  5
382
100
AcDbEntity
  8
0
100
AcDbSpline
 62
250
  6
CONTINUOUS
 70
0
 71
3
 72
15
 73
11
 74
0
 42
0.0000001
 43
0.0000001
 44
0.0000000001
 40
0.0
 40
0.0
 40
0.0
 40
0.0
 40
0.0843220342
 40
0.1892006741
 40
0.3119005736
 40
0.4477082047
 40
0.5907935143
 40
0.7347674743
 40
0.8731671317
 40
1.0
 40
1.0
 40
1.0
 40
1.0
 10
5.0161820639
 20
20.4749587763
 30
0.0
 10
4.9518479787
 20
20.6216343464
 30
0.0
 10
4.8632873718
 20
20.974439763
 30
0.0
 10
4.8242905423
 20
21.5669729315
 30
0.0
 10
4.8661817859
 20
22.2575701444
 30
0.0
 10
4.987947951
 20
23.0115893617
 30
0.0
 10
5.1838157926
 20
23.791511257
 30
0.0
 10
5.4440587505
 20
24.557577974
 30
0.0
 10
5.7552637434
 20
25.2707922932
 30
0.0
 10
6.0000347508
 20
25.712460737
 30
0.0
 10
6.1298525031
 20
25.9154026071
 30
0.0
  0
SPLINE
  5
383
100
AcDbEntity
  8
0
100
AcDbSpline
 62
7
  6
CONTINUOUS
 70
0
 71
3
 72
9
 73
5
 74
0
 42
0.0000001
 43
0.0000001
 44
0.0000000001
 40
0.0
 40
0.0
 40
0.0
 40
0.0
 40
0.2174343161
 40
1.0
 40
1.0
 40
1.0
 40
1.0
 10
8.2060737115
 20
13.2023104713
 30
0.0
 10
8.2209828479
 20
13.1743366108
 30
0.0
 10
8.2920230833
 20
13.0470955959
 30
0.0
 10
8.3753164987
 20
12.9259504243
 30
0.0
 10
8.4505441476
 20
12.8401793596
 30
0.0
  0
SPLINE
  5
384
100
AcDbEntity
  8
0
100
AcDbSpline
 62
7
  6
CONTINUOUS
 70
0
 71
3
 72
9
 73
5
 74
0
 42
0.0000001
 43
0.0000001
 44
0.0000000001
 40
0.0
 40
0.0
 40
0.0
 40
0.0
 40
0.2445223884
 40
1.0
 40
1.0
 40
1.0
 40
1.0
 10
8.1144442341
 20
13.3459061753
 30
0.0
 10
8.1227786024
 20
13.3347927258
 30
0.0
 10
8.1560391813
 20
13.2887343791
 30
0.0
 10
8.1858874033
 20
13.2401858356
 30
0.0
 10
8.2060737115
 20
13.2023104713
 30
0.0
  0
SPLINE
  5
385
100
AcDbEntity
  8
0
100
AcDbSpline
 62
7
  6
CONTINUOUS
 70
0
 71
3
 72
15
 73
11
 74
0
 42
0.0000001
 43
0.0000001
 44
0.0000000001
 40
0.0
 40
0.0
 40
0.0
 40
0.0
 40
0.0842643437
 40
0.1878548061
 40
0.30865759
 40
0.4424856456
 40
0.584297049
 40
0.7283467015
 40
0.8687668109
 40
1.0
 40
1.0
 40
1.0
 40
1.0
 10
6.6467574361
 20
19.9879960982
 30
0.0
 10
6.5841670644
 20
20.1265640064
 30
0.0
 10
6.494757763
 20
20.4575062092
 30
0.0
 10
6.4454301389
 20
21.0135914439
 30
0.0
 10
6.4704117529
 20
21.6609976631
 30
0.0
 10
6.5672194445
 20
22.3706591879
 30
0.0
 10
6.7332575499
 20
23.1103825227
 30
0.0
 10
6.9592202701
 20
23.8464573582
 30
0.0
 10
7.2358779506
 20
24.544478014
 30
0.0
 10
7.4545753996
 20
24.9841262342
 30
0.0
 10
7.5713600414
 20
25.1901246647
 30
0.0
  0
SPLINE
  5
386
100
AcDbEntity
  8
0
100
AcDbSpline
 62
250
  6
CONTINUOUS
 70
0
 71
3
 72
15
 73
11
 74
0
 42
0.0000001
 43
0.0000001
 44
0.0000000001
 40
0.0
 40
0.0
 40
0.0
 40
0.0
 40
0.084083427
 40
0.1883756196
 40
0.3102998452
 40
0.4453721169
 40
0.5880184833
 40
0.732105541
 40
0.8713778102
 40
1.0
 40
1.0
 40
1.0
 40
1.0
 10
6.2606381319
 20
20.1065695958
 30
0.0
 10
6.1978296914
 20
20.2497668415
 30
0.0
 10
6.1105112741
 20
20.5933046966
 30
0.0
 10
6.0699759541
 20
21.170282976
 30
0.0
 10
6.1072932294
 20
21.8426880536
 30
0.0
 10
6.221674626
 20
22.577991285
 30
0.0
 10
6.407887674
 20
23.3408949829
 30
0.0
 10
6.6570411797
 20
24.093840646
 30
0.0
 10
6.9567392146
 20
24.7998425063
 30
0.0
 10
7.1928850151
 20
25.239700482
 30
0.0
 10
7.3183332168
 20
25.4433568831
 30
0.0
  0
SPLINE
  5
387
100
AcDbEntity
  8
0
100
AcDbSpline
 62
250
  6
CONTINUOUS
 70
0
 71
3
 72
9
 73
5
 74
0
 42
0.0000001
 43
0.0000001
 44
0.0000000001
 40
0.0
 40
0.0
 40
0.0
 40
0.0
 40
0.2397305372
 40
1.0
 40
1.0
 40
1.0
 40
1.0
 10
-8.4867445349
 20
2.2363591017
 30
0.0
 10
-8.5005367806
 20
2.2356405552
 30
0.0
 10
-8.5579544321
 20
2.2305058348
 30
0.0
 10
-8.6144931117
 20
2.2171012301
 30
0.0
 10
-8.6561284877
 20
2.2035041974
 30
0.0
  0
SPLINE
  5
388
100
AcDbEntity
  8
0
100
AcDbSpline
 62
250
  6
CONTINUOUS
 70
0
 71
3
 72
11
 73
7
 74
0
 42
0.0000001
 43
0.0000001
 44
0.0000000001
 40
0.0
 40
0.0
 40
0.0
 40
0.0
 40
0.1918036196
 40
0.4217691158
 40
0.691784273
 40
1.0
 40
1.0
 40
1.0
 40
1.0
 10
-8.6561284877
 20
2.2035041974
 30
0.0
 10
-8.7394013712
 20
2.1763094358
 30
0.0
 10
-8.9126818428
 20
2.0865620084
 30
0.0
 10
-9.1587714472
 20
1.8864942571
 30
0.0
 10
-9.4095206864
 20
1.6142530109
 30
0.0
 10
-9.5665222506
 20
1.4013405114
 30
0.0
 10
-9.645406558
 20
1.2847507928
 30
0.0
  0
SPLINE
  5
389
100
AcDbEntity
  8
0
100
AcDbSpline
 62
250
  6
CONTINUOUS
 70
0
 71
3
 72
15
 73
11
 74
0
 42
0.0000001
 43
0.0000001
 44
0.0000000001
 40
0.0
 40
0.0
 40
0.0
 40
0.0
 40
0.0844005231
 40
0.1894657983
 40
0.3124101766
 40
0.4484481342
 40
0.5916693538
 40
0.735610848
 40
0.8737401752
 40
1.0
 40
1.0
 40
1.0
 40
1.0
 10
4.9760961927
 20
20.5010399807
 30
0.0
 10
4.9116307184
 20
20.6480151054
 30
0.0
 10
4.82315467
 20
21.0018221778
 30
0.0
 10
4.7848405154
 20
21.5960319856
 30
0.0
 10
4.8279280871
 20
22.2885971206
 30
0.0
 10
4.9513418838
 20
23.0443904399
 30
0.0
 10
5.1491481584
 20
23.8254065669
 30
0.0
 10
5.4114208341
 20
24.5914086104
 30
0.0
 10
5.7244845403
 20
25.3029449909
 30
0.0
 10
5.9705527327
 20
25.7427341776
 30
0.0
 10
6.1009990075
 20
25.9442940107
 30
0.0
  0
SPLINE
  5
38A
100
AcDbEntity
  8
0
100
AcDbSpline
 62
7
  6
CONTINUOUS
 70
0
 71
3
 72
9
 73
5
 74
0
 42
0.0000001
 43
0.0000001
 44
0.0000000001
 40
0.0
 40
0.0
 40
0.0
 40
0.0
 40
0.2530551639
 40
1.0
 40
1.0
 40
1.0
 40
1.0
 10
-9.8742570258
 20
1.3493285946
 30
0.0
 10
-9.8792761708
 20
1.3600798865
 30
0.0
 10
-9.8982979853
 20
1.4029391485
 30
0.0
 10
-9.914026221
 20
1.4472699372
 30
0.0
 10
-9.9236933931
 20
1.4809317953
 30
0.0
  0
SPLINE
  5
38B
100
AcDbEntity
  8
0
100
AcDbSpline
 62
250
  6
CONTINUOUS
 70
0
 71
3
 72
11
 73
7
 74
0
 42
0.0000001
 43
0.0000001
 44
0.0000000001
 40
0.0
 40
0.0
 40
0.0
 40
0.0
 40
0.1901184324
 40
0.4193831436
 40
0.6899492335
 40
1.0
 40
1.0
 40
1.0
 40
1.0
 10
-8.5867390868
 20
2.2094721667
 30
0.0
 10
-8.67214756
 20
2.1841863832
 30
0.0
 10
-8.8507928506
 20
2.0957321301
 30
0.0
 10
-9.104136113
 20
1.8928258202
 30
0.0
 10
-9.3625930221
 20
1.6135328446
 30
0.0
 10
-9.5241560028
 20
1.3940763336
 30
0.0
 10
-9.605348285
 20
1.2736227633
 30
0.0
  0
SPLINE
  5
38C
100
AcDbEntity
  8
0
100
AcDbSpline
 62
250
  6
CONTINUOUS
 70
0
 71
3
 72
9
 73
5
 74
0
 42
0.0000001
 43
0.0000001
 44
0.0000000001
 40
0.0
 40
0.0
 40
0.0
 40
0.0
 40
0.2530864713
 40
1.0
 40
1.0
 40
1.0
 40
1.0
 10
-6.9658277439
 20
1.8026712017
 30
0.0
 10
-6.9778832702
 20
1.8097802048
 30
0.0
 10
-7.02663462
 20
1.835929076
 30
0.0
 10
-7.0799061267
 20
1.8536578568
 30
0.0
 10
-7.1204629183
 20
1.8614774288
 30
0.0
  0
SPLINE
  5
38D
100
AcDbEntity
  8
0
100
AcDbSpline
 62
250
  6
CONTINUOUS
 70
0
 71
3
 72
13
 73
9
 74
0
 42
0.0000001
 43
0.0000001
 44
0.0000000001
 40
0.0
 40
0.0
 40
0.0
 40
0.0
 40
0.0846499482
 40
0.1763949197
 40
0.2789529425
 40
0.3946222144
 40
0.668764056
 40
1.0
 40
1.0
 40
1.0
 40
1.0
 10
-7.1204629183
 20
1.8614774288
 30
0.0
 10
-7.1650297159
 20
1.8700701519
 30
0.0
 10
-7.2608318988
 20
1.8746144377
 30
0.0
 10
-7.4084979825
 20
1.8442480834
 30
0.0
 10
-7.5621343854
 20
1.7785377424
 30
0.0
 10
-7.7861364468
 20
1.6372630605
 30
0.0
 10
-8.0700851851
 20
1.3704663504
 30
0.0
 10
-8.2697850703
 20
1.1135455357
 30
0.0
 10
-8.3711964337
 20
0.9677435262
 30
0.0
  0
SPLINE
  5
38E
100
AcDbEntity
  8
0
100
AcDbSpline
 62
7
  6
CONTINUOUS
 70
0
 71
3
 72
9
 73
5
 74
0
 42
0.0000001
 43
0.0000001
 44
0.0000000001
 40
0.0
 40
0.0
 40
0.0
 40
0.0
 40
0.2425773202
 40
1.0
 40
1.0
 40
1.0
 40
1.0
 10
-6.7450135057
 20
1.7270743456
 30
0.0
 10
-6.7594136875
 20
1.7290183085
 30
0.0
 10
-6.819110578
 20
1.7345149193
 30
0.0
 10
-6.8795656604
 20
1.7299064477
 30
0.0
 10
-6.924221569
 20
1.7218832662
 30
0.0
  0
SPLINE
  5
38F
100
AcDbEntity
  8
0
100
AcDbSpline
 62
7
  6
CONTINUOUS
 70
0
 71
3
 72
11
 73
7
 74
0
 42
0.0000001
 43
0.0000001
 44
0.0000000001
 40
0.0
 40
0.0
 40
0.0
 40
0.0
 40
0.1893968637
 40
0.4173381679
 40
0.6879308516
 40
1.0
 40
1.0
 40
1.0
 40
1.0
 10
-6.924221569
 20
1.7218832662
 30
0.0
 10
-7.0083168605
 20
1.7067741394
 30
0.0
 10
-7.1873534423
 20
1.6383765954
 30
0.0
 10
-7.4429064153
 20
1.4592872089
 30
0.0
 10
-7.7048171637
 20
1.2023453281
 30
0.0
 10
-7.8690993031
 20
0.996432821
 30
0.0
 10
-7.9518359444
 20
0.8825278325
 30
0.0
  0
SPLINE
  5
390
100
AcDbEntity
  8
0
100
AcDbSpline
 62
250
  6
CONTINUOUS
 70
0
 71
3
 72
13
 73
9
 74
0
 42
0.0000001
 43
0.0000001
 44
0.0000000001
 40
0.0
 40
0.0
 40
0.0
 40
0.0
 40
0.084846797
 40
0.1755221643
 40
0.2766202293
 40
0.3911329847
 40
0.6651020642
 40
1.0
 40
1.0
 40
1.0
 40
1.0
 10
-7.0288399929
 20
1.8212778836
 30
0.0
 10
-7.0730880904
 20
1.8348629962
 30
0.0
 10
-7.1693281059
 20
1.8493157858
 30
0.0
 10
-7.32049474
 20
1.8298533653
 30
0.0
 10
-7.4783660926
 20
1.7718129284
 30
0.0
 10
-7.7098404069
 20
1.6365135902
 30
0.0
 10
-8.0043023053
 20
1.3683981276
 30
0.0
 10
-8.2101203087
 20
1.1065623197
 30
0.0
 10
-8.3149667265
 20
0.9569442746
 30
0.0
  0
SPLINE
  5
391
100
AcDbEntity
  8
0
100
AcDbSpline
 62
250
  6
CONTINUOUS
 70
0
 71
3
 72
9
 73
5
 74
0
 42
0.0000001
 43
0.0000001
 44
0.0000000001
 40
0.0
 40
0.0
 40
0.0
 40
0.0
 40
0.7433941821
 40
1.0
 40
1.0
 40
1.0
 40
1.0
 10
6.2606381319
 20
20.1065695958
 30
0.0
 10
6.248318959
 20
20.1103526945
 30
0.0
 10
6.2304946738
 20
20.1120238837
 30
0.0
 10
6.2133298956
 20
20.109552441
 30
0.0
 10
6.2089710074
 20
20.1086648474
 30
0.0
  0
SPLINE
  5
392
100
AcDbEntity
  8
0
100
AcDbSpline
 62
250
  6
CONTINUOUS
 70
0
 71
3
 72
11
 73
7
 74
0
 42
0.0000001
 43
0.0000001
 44
0.0000000001
 40
0.0
 40
0.0
 40
0.0
 40
0.0
 40
0.2361033268
 40
0.4811822984
 40
0.7363810043
 40
1.0
 40
1.0
 40
1.0
 40
1.0
 10
5.0161820639
 20
20.4749587763
 30
0.0
 10
5.0818951512
 20
20.395951571
 30
0.0
 10
5.2421559882
 20
20.2553348678
 30
0.0
 10
5.5373728579
 20
20.1206318625
 30
0.0
 10
5.8689960355
 20
20.0663563063
 30
0.0
 10
6.0965386094
 20
20.0857704151
 30
0.0
 10
6.2089710074
 20
20.1086648474
 30
0.0
  0
SPLINE
  5
393
100
AcDbEntity
  8
0
100
AcDbSpline
 62
7
  6
CONTINUOUS
 70
0
 71
3
 72
8
 73
4
 74
0
 42
0.0000001
 43
0.0000001
 44
0.0000000001
 40
0.0
 40
0.0
 40
0.0
 40
0.0
 40
1.0
 40
1.0
 40
1.0
 40
1.0
 10
7.3855409466
 20
25.5498236258
 30
0.0
 10
7.3973401402
 20
25.5795233159
 30
0.0
 10
7.4084163733
 20
25.6096639528
 30
0.0
 10
7.4162350095
 20
25.6406504254
 30
0.0
  0
SPLINE
  5
394
100
AcDbEntity
  8
0
100
AcDbSpline
 62
250
  6
CONTINUOUS
 70
0
 71
3
 72
9
 73
5
 74
0
 42
0.0000001
 43
0.0000001
 44
0.0000000001
 40
0.0
 40
0.0
 40
0.0
 40
0.0
 40
0.7414064524
 40
1.0
 40
1.0
 40
1.0
 40
1.0
 10
5.0161820639
 20
20.4749587763
 30
0.0
 10
5.0085654312
 20
20.4841162956
 30
0.0
 10
4.9950962232
 20
20.4941203517
 30
0.0
 10
4.9800675824
 20
20.4998204054
 30
0.0
 10
4.9760961927
 20
20.5010399807
 30
0.0
  0
SPLINE
  5
395
100
AcDbEntity
  8
RACCORDO
100
AcDbSpline
 62
7
  6
CONTINUOUS
 70
0
 71
3
 72
11
 73
7
 74
0
 42
0.0000001
 43
0.0000001
 44
0.0000000001
 40
0.0
 40
0.0
 40
0.0
 40
0.0
 40
0.2350978604
 40
0.4789885868
 40
0.733718868
 40
1.0
 40
1.0
 40
1.0
 40
1.0
 10
22.9097841658
 20
-14.0078970021
 30
0.0
 10
22.7617952767
 20
-14.9046676608
 30
0.0
 10
22.2558466809
 20
-16.703043391
 30
0.0
 10
20.9441968652
 20
-19.2371354613
 30
0.0
 10
19.1187227001
 20
-21.5823472853
 30
0.0
 10
17.6281834737
 20
-22.9516830558
 30
0.0
 10
16.8207291131
 20
-23.5902722309
 30
0.0
  0
SPLINE
  5
396
100
AcDbEntity
  8
RACCORDO
100
AcDbSpline
 62
7
  6
CONTINUOUS
 70
0
 71
3
 72
9
 73
5
 74
0
 42
0.0000001
 43
0.0000001
 44
0.0000000001
 40
0.0
 40
0.0
 40
0.0
 40
0.0
 40
0.2482095586
 40
1.0
 40
1.0
 40
1.0
 40
1.0
 10
-5.2447957693
 20
-17.8889695436
 30
0.0
 10
-3.5357902569
 20
-18.4434232407
 30
0.0
 10
3.3697400829
 20
-20.6145766823
 30
0.0
 10
10.3534605567
 20
-22.5363780339
 30
0.0
 10
15.6361095106
 20
-23.8433728219
 30
0.0
  0
SPLINE
  5
397
100
AcDbEntity
  8
RACCORDO
100
AcDbSpline
 62
7
  6
CONTINUOUS
 70
0
 71
3
 72
21
 73
17
 74
0
 42
0.0000001
 43
0.0000001
 44
0.0000000001
 40
0.0
 40
0.0
 40
0.0
 40
0.0
 40
0.1314698517
 40
0.1990890244
 40
0.2673185688
 40
0.3356684889
 40
0.4036447695
 40
0.5364458049
 40
0.6006731004
 40
0.6630206206
 40
0.7233566698
 40
0.781687781
 40
0.8381662401
 40
0.893085833
 40
0.9468621479
 40
1.0
 40
1.0
 40
1.0
 40
1.0
 10
14.5300701214
 20
-13.7876646908
 30
0.0
 10
12.9937623045
 20
-14.8028435889
 30
0.0
 10
10.4822802274
 20
-16.0774144801
 30
0.0
 10
6.9229750341
 20
-17.2509459688
 30
0.0
 10
4.126424894
 20
-17.8742605402
 30
0.0
 10
1.2774247655
 20
-18.2206555573
 30
0.0
 10
-2.4952927983
 20
-18.3055373115
 30
0.0
 10
-6.2096227514
 20
-17.8331683872
 30
0.0
 10
-9.6954571492
 20
-16.7877765458
 30
0.0
 10
-12.1051871523
 20
-15.7479682438
 30
0.0
 10
-14.2962607666
 20
-14.4584509291
 30
0.0
 10
-16.2307591074
 20
-12.9368726213
 30
0.0
 10
-17.8725592067
 20
-11.2051059964
 30
0.0
 10
-19.1883306492
 20
-9.2897247313
 30
0.0
 10
-20.1482738973
 20
-7.2247171241
 30
0.0
 10
-20.5367890588
 20
-5.7690328076
 30
0.0
 10
-20.6642952451
 20
-5.0357655989
 30
0.0
  0
SPLINE
  5
398
100
AcDbEntity
  8
RACCORDO
100
AcDbSpline
 62
250
  6
CONTINUOUS
 70
0
 71
3
 72
14
 73
10
 74
0
 42
0.0000001
 43
0.0000001
 44
0.0000000001
 40
0.0
 40
0.0
 40
0.0
 40
0.0
 40
0.3124811475
 40
0.4553872565
 40
0.5869453057
 40
0.7060036641
 40
0.8127129405
 40
0.9092266121
 40
1.0
 40
1.0
 40
1.0
 40
1.0
 10
14.6210791335
 20
-13.4221562754
 30
0.0
 10
14.7893612094
 20
-13.3109567594
 30
0.0
 10
15.0429532532
 20
-13.1601275593
 30
0.0
 10
15.3895606301
 20
-13.0060825086
 30
0.0
 10
15.6313759994
 20
-12.9265061629
 30
0.0
 10
15.8588724509
 20
-12.8835867051
 30
0.0
 10
16.068312851
 20
-12.8812638036
 30
0.0
 10
16.2555089064
 20
-12.9230280874
 30
0.0
 10
16.3631588373
 20
-12.9824508372
 30
0.0
 10
16.4096056777
 20
-13.0181700126
 30
0.0
  0
SPLINE
  5
399
100
AcDbEntity
  8
RACCORDO
100
AcDbSpline
 62
250
  6
CONTINUOUS
 70
0
 71
3
 72
11
 73
7
 74
0
 42
0.0000001
 43
0.0000001
 44
0.0000000001
 40
0.0
 40
0.0
 40
0.0
 40
0.0
 40
0.3194818069
 40
0.5870297799
 40
0.807945898
 40
1.0
 40
1.0
 40
1.0
 40
1.0
 10
14.6210791344
 20
-13.4221562748
 30
0.0
 10
14.6266089175
 20
-13.4637778925
 30
0.0
 10
14.6322707907
 20
-13.5410388091
 30
0.0
 10
14.6214733371
 20
-13.64741825
 30
0.0
 10
14.5895003807
 20
-13.7324964512
 30
0.0
 10
14.5512113149
 20
-13.7736806995
 30
0.0
 10
14.5301575716
 20
-13.7876025087
 30
0.0
  0
SPLINE
  5
39A
100
AcDbEntity
  8
RACCORDO
100
AcDbSpline
 62
250
  6
CONTINUOUS
 70
0
 71
3
 72
11
 73
7
 74
0
 42
0.0000001
 43
0.0000001
 44
0.0000000001
 40
0.0
 40
0.0
 40
0.0
 40
0.0
 40
0.2310352965
 40
0.4704409424
 40
0.7254105437
 40
1.0
 40
1.0
 40
1.0
 40
1.0
 10
16.4096056777
 20
-13.0181700126
 30
0.0
 10
16.4487969346
 20
-13.0510895733
 30
0.0
 10
16.5204002376
 20
-13.1285161449
 30
0.0
 10
16.5992939693
 20
-13.269954671
 30
0.0
 10
16.6508858324
 20
-13.4333009468
 30
0.0
 10
16.6673219831
 20
-13.549966035
 30
0.0
 10
16.671870929
 20
-13.6106270451
 30
0.0
  0
SPLINE
  5
39B
100
AcDbEntity
  8
RACCORDO
100
AcDbSpline
 62
250
  6
CONTINUOUS
 70
0
 71
3
 72
11
 73
7
 74
0
 42
0.0000001
 43
0.0000001
 44
0.0000000001
 40
0.0
 40
0.0
 40
0.0
 40
0.0
 40
0.2185652207
 40
0.4501330436
 40
0.7096067288
 40
1.0
 40
1.0
 40
1.0
 40
1.0
 10
15.2614201249
 20
-13.5950883347
 30
0.0
 10
15.2750797953
 20
-13.6115931441
 30
0.0
 10
15.2957057528
 20
-13.6523406329
 30
0.0
 10
15.3014913768
 20
-13.7227791478
 30
0.0
 10
15.2881745638
 20
-13.7987375649
 30
0.0
 10
15.2699042849
 20
-13.8496607188
 30
0.0
 10
15.2588101995
 20
-13.8758746783
 30
0.0
  0
SPLINE
  5
39C
100
AcDbEntity
  8
RACCORDO
100
AcDbSpline
 62
250
  6
CONTINUOUS
 70
0
 71
3
 72
11
 73
7
 74
0
 42
0.0000001
 43
0.0000001
 44
0.0000000001
 40
0.0
 40
0.0
 40
0.0
 40
0.0
 40
0.2587245247
 40
0.5139845208
 40
0.7617993344
 40
1.0
 40
1.0
 40
1.0
 40
1.0
 10
16.4095792194
 20
-13.018151151
 30
0.0
 10
16.3407443303
 20
-13.1102721102
 30
0.0
 10
16.1825846415
 20
-13.278336846
 30
0.0
 10
15.8981273294
 20
-13.4674558788
 30
0.0
 10
15.5853995331
 20
-13.580988317
 30
0.0
 10
15.3671480897
 20
-13.6006745436
 30
0.0
 10
15.2614201249
 20
-13.5950883347
 30
0.0
  0
SPLINE
  5
39D
100
AcDbEntity
  8
RACCORDO
100
AcDbSpline
 62
250
  6
CONTINUOUS
 70
0
 71
3
 72
9
 73
5
 74
0
 42
0.0000001
 43
0.0000001
 44
0.0000000001
 40
0.0
 40
0.0
 40
0.0
 40
0.0
 40
0.4916356546
 40
1.0
 40
1.0
 40
1.0
 40
1.0
 10
16.6718709309
 20
-13.6106270465
 30
0.0
 10
16.4836316375
 20
-13.7627796867
 30
0.0
 10
16.0099475504
 20
-13.9636160985
 30
0.0
 10
15.4995571184
 20
-13.944289253
 30
0.0
 10
15.2588124438
 20
-13.8758703312
 30
0.0
  0
LINE
  5
39E
100
AcDbEntity
  8
RACCORDO
100
AcDbLine
 62
250
  6
CONTINUOUS
 10
15.2830978377
 20
-14.3720160446
 11
15.4936971791
 21
-23.5958624741
  0
SPLINE
  5
39F
100
AcDbEntity
  8
RACCORDO
100
AcDbSpline
 62
250
  6
CONTINUOUS
 70
0
 71
3
 72
9
 73
5
 74
0
 42
0.0000001
 43
0.0000001
 44
0.0000000001
 40
0.0
 40
0.0
 40
0.0
 40
0.0
 40
0.4897549359
 40
1.0
 40
1.0
 40
1.0
 40
1.0
 10
16.6977102898
 20
-14.1341092919
 30
0.0
 10
16.5092599495
 20
-14.2839955817
 30
0.0
 10
16.032114589
 20
-14.4777015293
 30
0.0
 10
15.5228106636
 20
-14.4459762228
 30
0.0
 10
15.2830978377
 20
-14.3720160446
 30
0.0
  0
SPLINE
  5
3A0
100
AcDbEntity
  8
RACCORDO
100
AcDbSpline
 62
250
  6
CONTINUOUS
 70
0
 71
3
 72
9
 73
5
 74
0
 42
0.0000001
 43
0.0000001
 44
0.0000000001
 40
0.0
 40
0.0
 40
0.0
 40
0.0
 40
0.2500492105
 40
1.0
 40
1.0
 40
1.0
 40
1.0
 10
16.6977102898
 20
-14.1341092918
 30
0.0
 10
16.714572262
 20
-14.9027857014
 30
0.0
 10
16.7819745025
 20
-17.9768869369
 30
0.0
 10
16.8492040134
 20
-21.0509919666
 30
0.0
 10
16.8994341614
 20
-23.356423571
 30
0.0
  0
SPLINE
  5
3A1
100
AcDbEntity
  8
RACCORDO
100
AcDbSpline
 62
250
  6
CONTINUOUS
 70
0
 71
3
 72
9
 73
5
 74
0
 42
0.0000001
 43
0.0000001
 44
0.0000000001
 40
0.0
 40
0.0
 40
0.0
 40
0.0
 40
0.2612165412
 40
1.0
 40
1.0
 40
1.0
 40
1.0
 10
22.7850844266
 20
-2.8420610229
 30
0.0
 10
22.7850476051
 20
-2.6591725578
 30
0.0
 10
22.7956916393
 20
-1.9590172559
 30
0.0
 10
22.8310948339
 20
-1.259664648
 30
0.0
 10
22.8514856393
 20
-0.742813966
 30
0.0
  0
SPLINE
  5
3A2
100
AcDbEntity
  8
RACCORDO
100
AcDbSpline
 62
250
  6
CONTINUOUS
 70
0
 71
3
 72
9
 73
5
 74
0
 42
0.0000001
 43
0.0000001
 44
0.0000000001
 40
0.0
 40
0.0
 40
0.0
 40
0.0
 40
0.2580596129
 40
1.0
 40
1.0
 40
1.0
 40
1.0
 10
22.7862286922
 20
-3.0334121689
 30
0.0
 10
22.788749716
 20
-3.0271840075
 30
0.0
 10
22.7974335751
 20
-3.0026309064
 30
0.0
 10
22.8012954729
 20
-2.9763215067
 30
0.0
 10
22.8009819309
 20
-2.9570063045
 30
0.0
  0
SPLINE
  5
3A3
100
AcDbEntity
  8
RACCORDO
100
AcDbSpline
 62
250
  6
CONTINUOUS
 70
0
 71
3
 72
8
 73
4
 74
0
 42
0.0000001
 43
0.0000001
 44
0.0000000001
 40
0.0
 40
0.0
 40
0.0
 40
0.0
 40
1.0
 40
1.0
 40
1.0
 40
1.0
 10
22.9144546116
 20
-13.8076663146
 30
0.0
 10
22.8891023894
 20
-10.7128828251
 30
0.0
 10
22.8627384915
 20
-7.618107498
 30
0.0
 10
22.8354912801
 20
-4.5233401124
 30
0.0
  0
SPLINE
  5
3A4
100
AcDbEntity
  8
RACCORDO
100
AcDbSpline
 62
250
  6
CONTINUOUS
 70
0
 71
3
 72
9
 73
5
 74
0
 42
0.0000001
 43
0.0000001
 44
0.0000000001
 40
0.0
 40
0.0
 40
0.0
 40
0.0
 40
0.2516890639
 40
1.0
 40
1.0
 40
1.0
 40
1.0
 10
15.4936971791
 20
-23.5958624741
 30
0.0
 10
13.8327219322
 20
-23.1849159945
 30
0.0
 10
7.2468804179
 20
-21.4982594549
 30
0.0
 10
0.7163801634
 20
-19.5948964192
 30
0.0
 10
-4.1295469125
 20
-18.0466720108
 30
0.0
  0
SPLINE
  5
3A5
100
AcDbEntity
  8
RACCORDO
100
AcDbSpline
 62
250
  6
CONTINUOUS
 70
0
 71
3
 72
11
 73
7
 74
0
 42
0.0000001
 43
0.0000001
 44
0.0000000001
 40
0.0
 40
0.0
 40
0.0
 40
0.0
 40
0.2746199678
 40
0.5304463312
 40
0.7701389164
 40
1.0
 40
1.0
 40
1.0
 40
1.0
 10
-16.7805913006
 20
-13.6847070207
 30
0.0
 10
-16.8553596412
 20
-13.6610040675
 30
0.0
 10
-16.9961567186
 20
-13.6019196993
 30
0.0
 10
-17.1774829208
 20
-13.4739484466
 30
0.0
 10
-17.3133500345
 20
-13.3144070526
 30
0.0
 10
-17.3691752305
 20
-13.1899944522
 30
0.0
 10
-17.3868078526
 20
-13.1267548924
 30
0.0
  0
SPLINE
  5
3A6
100
AcDbEntity
  8
RACCORDO
100
AcDbSpline
 62
250
  6
CONTINUOUS
 70
0
 71
3
 72
11
 73
7
 74
0
 42
0.0000001
 43
0.0000001
 44
0.0000000001
 40
0.0
 40
0.0
 40
0.0
 40
0.0
 40
0.2325435641
 40
0.4755932111
 40
0.731240989
 40
1.0
 40
1.0
 40
1.0
 40
1.0
 10
22.9036571404
 20
-14.0067237492
 30
0.0
 10
22.7552609091
 20
-14.873652914
 30
0.0
 10
22.2535817422
 20
-16.6174854168
 30
0.0
 10
20.9638234867
 20
-19.0823108751
 30
0.0
 10
19.1656624751
 20
-21.3790869735
 30
0.0
 10
17.6967380132
 20
-22.7258621084
 30
0.0
 10
16.8994341614
 20
-23.356423571
 30
0.0
  0
SPLINE
  5
3A7
100
AcDbEntity
  8
RACCORDO
100
AcDbSpline
 62
250
  6
CONTINUOUS
 70
0
 71
3
 72
9
 73
5
 74
0
 42
0.0000001
 43
0.0000001
 44
0.0000000001
 40
0.0
 40
0.0
 40
0.0
 40
0.0
 40
0.4914274025
 40
1.0
 40
1.0
 40
1.0
 40
1.0
 10
16.8994101155
 20
-23.3564046238
 30
0.0
 10
16.7098521577
 20
-23.5033888825
 30
0.0
 10
16.2369464172
 20
-23.693927994
 30
0.0
 10
15.731613424
 20
-23.6667176375
 30
0.0
 10
15.4937127165
 20
-23.5958331039
 30
0.0
  0
SPLINE
  5
3A8
100
AcDbEntity
  8
RACCORDO
100
AcDbSpline
 62
250
  6
CONTINUOUS
 70
0
 71
3
 72
9
 73
5
 74
0
 42
0.0000001
 43
0.0000001
 44
0.0000000001
 40
0.0
 40
0.0
 40
0.0
 40
0.0
 40
0.5578862404
 40
1.0
 40
1.0
 40
1.0
 40
1.0
 10
5.8790661222
 20
14.1350663804
 30
0.0
 10
5.8101103383
 20
14.0270920422
 30
0.0
 10
5.6750068815
 20
13.8407199366
 30
0.0
 10
5.5058740042
 20
13.6807341229
 30
0.0
 10
5.4206936278
 20
13.625486512
 30
0.0
  0
LINE
  5
3A9
100
AcDbEntity
  8
RACCORDO
100
AcDbLine
 62
7
  6
CONTINUOUS
 10
6.0482497129
 20
14.3999804335
 11
6.1475892109
 21
13.6522155953
  0
LINE
  5
3AA
100
AcDbEntity
  8
0
100
AcDbLine
 62
7
  6
CONTINUOUS
 10
6.0516534533
 20
13.4322548077
 11
6.1475892109
 21
13.6522155953
  0
SPLINE
  5
3AB
100
AcDbEntity
  8
RACCORDO
100
AcDbSpline
 62
250
  6
CONTINUOUS
 70
0
 71
3
 72
11
 73
7
 74
0
 42
0.0000001
 43
0.0000001
 44
0.0000000001
 40
0.0
 40
0.0
 40
0.0
 40
0.0
 40
0.2137776634
 40
0.4444126143
 40
0.7044288808
 40
1.0
 40
1.0
 40
1.0
 40
1.0
 10
16.8207311694
 20
-23.5902748308
 30
0.0
 10
16.8350220241
 20
-23.5789708793
 30
0.0
 10
16.8609910903
 20
-23.55038746
 30
0.0
 10
16.8866600239
 20
-23.4953357941
 30
0.0
 10
16.8998954009
 20
-23.4291598391
 30
0.0
 10
16.9006909503
 20
-23.3815848487
 30
0.0
 10
16.8994341691
 20
-23.3564235671
 30
0.0
  0
SPLINE
  5
3AC
100
AcDbEntity
  8
0
100
AcDbSpline
 62
7
  6
CONTINUOUS
 70
0
 71
3
 72
11
 73
7
 74
0
 42
0.0000001
 43
0.0000001
 44
0.0000000001
 40
0.0
 40
0.0
 40
0.0
 40
0.0
 40
0.2410947056
 40
0.4863153726
 40
0.7385579187
 40
1.0
 40
1.0
 40
1.0
 40
1.0
 10
22.6197644429
 20
2.6738800756
 30
0.0
 10
22.694229944
 20
1.9578439128
 30
0.0
 10
22.7145731972
 20
0.496853416
 30
0.0
 10
22.3578451961
 20
-1.6899567822
 30
0.0
 10
21.6228404065
 20
-3.8437500665
 30
0.0
 10
20.9040007104
 20
-5.2063583382
 30
0.0
 10
20.4918088914
 20
-5.869320516
 30
0.0
  0
SPLINE
  5
3AD
100
AcDbEntity
  8
RACCORDO
100
AcDbSpline
 62
250
  6
CONTINUOUS
 70
0
 71
3
 72
19
 73
15
 74
0
 42
0.0000001
 43
0.0000001
 44
0.0000000001
 40
0.0
 40
0.0
 40
0.0
 40
0.0
 40
0.0514437995
 40
0.1040089067
 40
0.158208559
 40
0.2144130882
 40
0.3332807746
 40
0.3961386956
 40
0.4609525608
 40
0.5949255232
 40
0.7320018989
 40
0.800551761
 40
0.8683961821
 40
1.0
 40
1.0
 40
1.0
 40
1.0
 10
-20.3945503292
 20
-6.2267564094
 30
0.0
 10
-20.2063282074
 20
-6.8987050851
 30
0.0
 10
-19.7073179951
 20
-8.2268847622
 30
0.0
 10
-18.6259207146
 20
-10.0907912856
 30
0.0
 10
-17.2249812558
 20
-11.8122975821
 30
0.0
 10
-14.9238322906
 20
-13.9177093335
 30
0.0
 10
-12.1104044924
 20
-15.5813294103
 30
0.0
 10
-8.9796961282
 20
-16.7689966381
 30
0.0
 10
-5.5377292482
 20
-17.6613506985
 30
0.0
 10
-0.9720241757
 20
-18.1096994848
 30
0.0
 10
3.6432616316
 20
-17.6829147484
 30
0.0
 10
7.2577161657
 20
-16.8254358781
 30
0.0
 10
10.7020018242
 20
-15.6519443536
 30
0.0
 10
13.1317194956
 20
-14.4063121513
 30
0.0
 10
14.6210791335
 20
-13.4221562754
 30
0.0
  0
SPLINE
  5
3AE
100
AcDbEntity
  8
0
100
AcDbSpline
 62
7
  6
CONTINUOUS
 70
0
 71
3
 72
14
 73
10
 74
0
 42
0.0000001
 43
0.0000001
 44
0.0000000001
 40
0.0
 40
0.0
 40
0.0
 40
0.0
 40
0.1135101587
 40
0.2291341996
 40
0.3477233544
 40
0.4699307877
 40
0.5961899628
 40
0.7267115946
 40
1.0
 40
1.0
 40
1.0
 40
1.0
 10
-20.5728119426
 20
-5.0087699377
 30
0.0
 10
-20.3972630175
 20
-5.5823893806
 30
0.0
 10
-19.9568761273
 20
-6.7157725286
 30
0.0
 10
-19.0521984546
 20
-8.3217919097
 30
0.0
 10
-17.9103726987
 20
-9.8269072002
 30
0.0
 10
-16.5461659933
 20
-11.2129108356
 30
0.0
 10
-14.9760663254
 20
-12.464086602
 30
0.0
 10
-12.5993605337
 20
-13.9549901149
 30
0.0
 10
-10.6164586105
 20
-14.7935092159
 30
0.0
 10
-9.2407961604
 20
-15.23339134
 30
0.0
  0
SPLINE
  5
3AF
100
AcDbEntity
  8
0
100
AcDbSpline
 62
7
  6
CONTINUOUS
 70
0
 71
3
 72
13
 73
9
 74
0
 42
0.0000001
 43
0.0000001
 44
0.0000000001
 40
0.0
 40
0.0
 40
0.0
 40
0.0
 40
0.2498516792
 40
0.3789652744
 40
0.50856613
 40
0.6369881103
 40
0.7626555802
 40
1.0
 40
1.0
 40
1.0
 40
1.0
 10
-8.7121196843
 20
-15.395742764
 30
0.0
 10
-6.4181371581
 20
-16.0715260123
 30
0.0
 10
-2.7698308973
 20
-16.5877487031
 30
0.0
 10
2.0995910804
 20
-16.3564910267
 30
0.0
 10
5.7606054784
 20
-15.7202450442
 30
0.0
 10
9.2819100153
 20
-14.6387869119
 30
0.0
 10
13.5691435144
 20
-12.6878160415
 30
0.0
 10
16.4360231134
 20
-10.6080947417
 30
0.0
 10
18.0261644441
 20
-8.9856752923
 30
0.0
  0
SPLINE
  5
3B0
100
AcDbEntity
  8
0
100
AcDbSpline
 62
7
  6
CONTINUOUS
 70
0
 71
3
 72
9
 73
5
 74
0
 42
0.0000001
 43
0.0000001
 44
0.0000000001
 40
0.0
 40
0.0
 40
0.0
 40
0.0
 40
0.2532841608
 40
1.0
 40
1.0
 40
1.0
 40
1.0
 10
19.0594250741
 20
-7.8447917935
 30
0.0
 10
19.1698450866
 20
-7.7125070405
 30
0.0
 10
19.5985270681
 20
-7.1842167115
 30
0.0
 10
19.997620123
 20
-6.6318041208
 30
0.0
 10
20.2761687303
 20
-6.2069780208
 30
0.0
  0
SPLINE
  5
3B1
100
AcDbEntity
  8
RACCORDO
100
AcDbSpline
 62
250
  6
CONTINUOUS
 70
0
 71
3
 72
9
 73
5
 74
0
 42
0.0000001
 43
0.0000001
 44
0.0000000001
 40
0.0
 40
0.0
 40
0.0
 40
0.0
 40
0.5123869085
 40
1.0
 40
1.0
 40
1.0
 40
1.0
 10
16.4096056777
 20
-13.0181700126
 30
0.0
 10
17.2559588794
 20
-12.3428275871
 30
0.0
 10
18.8148521029
 20
-10.9023689767
 30
0.0
 10
20.1197152465
 20
-9.2247794283
 30
0.0
 10
20.6743276154
 20
-8.3563462388
 30
0.0
  0
SPLINE
  5
3B2
100
AcDbEntity
  8
RACCORDO
100
AcDbSpline
 62
250
  6
CONTINUOUS
 70
0
 71
3
 72
9
 73
5
 74
0
 42
0.0000001
 43
0.0000001
 44
0.0000000001
 40
0.0
 40
0.0
 40
0.0
 40
0.0
 40
0.5109216789
 40
1.0
 40
1.0
 40
1.0
 40
1.0
 10
20.6743276154
 20
-8.3563462388
 30
0.0
 10
21.2018827146
 20
-7.5302803537
 30
0.0
 10
22.0940292945
 20
-5.8175170946
 30
0.0
 10
22.627657216
 20
-3.9581634376
 30
0.0
 10
22.786229194
 20
-3.0334121905
 30
0.0
  0
SPLINE
  5
3B3
100
AcDbEntity
  8
RACCORDO
100
AcDbSpline
 62
250
  6
CONTINUOUS
 70
0
 71
3
 72
11
 73
7
 74
0
 42
0.0000001
 43
0.0000001
 44
0.0000000001
 40
0.0
 40
0.0
 40
0.0
 40
0.0
 40
0.2332285509
 40
0.4765926622
 40
0.7320125316
 40
1.0
 40
1.0
 40
1.0
 40
1.0
 10
22.8354912801
 20
-4.5233401124
 30
0.0
 10
22.6698557026
 20
-5.4118531025
 30
0.0
 10
22.1377305207
 20
-7.1958617412
 30
0.0
 10
20.8131497694
 20
-9.7215368137
 30
0.0
 10
18.9878187237
 20
-12.0833067458
 30
0.0
 10
17.5028967962
 20
-13.4782147815
 30
0.0
 10
16.6977102898
 20
-14.1341092918
 30
0.0
  0
SPLINE
  5
3B4
100
AcDbEntity
  8
RACCORDO
100
AcDbSpline
 62
250
  6
CONTINUOUS
 70
0
 71
3
 72
11
 73
7
 74
0
 42
0.0000001
 43
0.0000001
 44
0.0000000001
 40
0.0
 40
0.0
 40
0.0
 40
0.0
 40
0.2029681257
 40
0.4286992007
 40
0.6925151869
 40
1.0
 40
1.0
 40
1.0
 40
1.0
 10
-16.6287060951
 20
-13.9350384501
 30
0.0
 10
-16.6480693171
 20
-13.9278197508
 30
0.0
 10
-16.6861133005
 20
-13.9040530834
 30
0.0
 10
-16.7301025862
 20
-13.8476533298
 30
0.0
 10
-16.7624698718
 20
-13.7725794051
 30
0.0
 10
-16.7755657893
 20
-13.7156319438
 30
0.0
 10
-16.7806115979
 20
-13.6847349213
 30
0.0
  0
SPLINE
  5
3B5
100
AcDbEntity
  8
RACCORDO
100
AcDbSpline
 62
250
  6
CONTINUOUS
 70
0
 71
3
 72
9
 73
5
 74
0
 42
0.0000001
 43
0.0000001
 44
0.0000000001
 40
0.0
 40
0.0
 40
0.0
 40
0.0
 40
0.2670368527
 40
1.0
 40
1.0
 40
1.0
 40
1.0
 10
15.0626198422
 20
-13.5190857979
 30
0.0
 10
15.0702312728
 20
-13.5193172944
 30
0.0
 10
15.0987048953
 20
-13.5207723089
 30
0.0
 10
15.1271160677
 20
-13.5247297855
 30
0.0
 10
15.1474384025
 20
-13.5296161459
 30
0.0
  0
SPLINE
  5
3B6
100
AcDbEntity
  8
RACCORDO
100
AcDbSpline
 62
250
  6
CONTINUOUS
 70
0
 71
3
 72
9
 73
5
 74
0
 42
0.0000001
 43
0.0000001
 44
0.0000000001
 40
0.0
 40
0.0
 40
0.0
 40
0.0
 40
0.5350874303
 40
1.0
 40
1.0
 40
1.0
 40
1.0
 10
15.1474384025
 20
-13.5296161459
 30
0.0
 10
15.1705396756
 20
-13.5351706822
 30
0.0
 10
15.2129923857
 20
-13.5504029319
 30
0.0
 10
15.2482423422
 20
-13.5791864868
 30
0.0
 10
15.2614228027
 20
-13.5950747364
 30
0.0
  0
SPLINE
  5
3B7
100
AcDbEntity
  8
RACCORDO
100
AcDbSpline
 62
250
  6
CONTINUOUS
 70
0
 71
3
 72
11
 73
7
 74
0
 42
0.0000001
 43
0.0000001
 44
0.0000000001
 40
0.0
 40
0.0
 40
0.0
 40
0.0
 40
0.182030384
 40
0.39889638
 40
0.670086112
 40
1.0
 40
1.0
 40
1.0
 40
1.0
 10
15.6361119673
 20
-23.8433628869
 30
0.0
 10
15.6184652923
 20
-23.8390189152
 30
0.0
 10
15.5822671599
 20
-23.8184926243
 30
0.0
 10
15.5420417302
 20
-23.7636000822
 30
0.0
 10
15.5116598694
 20
-23.687257316
 30
0.0
 10
15.4989114347
 20
-23.6283849406
 30
0.0
 10
15.4936971791
 20
-23.5958624741
 30
0.0
  0
SPLINE
  5
3B8
100
AcDbEntity
  8
RACCORDO
100
AcDbSpline
 62
250
  6
CONTINUOUS
 70
0
 71
3
 72
13
 73
9
 74
0
 42
0.0000001
 43
0.0000001
 44
0.0000000001
 40
0.0
 40
0.0
 40
0.0
 40
0.0
 40
0.1055228698
 40
0.2274180048
 40
0.5025142577
 40
0.7760492323
 40
0.8963493368
 40
1.0
 40
1.0
 40
1.0
 40
1.0
 10
5.1323016914
 20
14.6211643611
 30
0.0
 10
5.1651607458
 20
14.6296009017
 30
0.0
 10
5.2392448367
 20
14.6352301359
 30
0.0
 10
5.3996495555
 20
14.6094056366
 30
0.0
 10
5.5987198495
 20
14.5169583051
 30
0.0
 10
5.7637173302
 20
14.3727753269
 30
0.0
 10
5.8506472092
 20
14.2373820838
 30
0.0
 10
5.8742197483
 20
14.1680349853
 30
0.0
 10
5.8790661222
 20
14.1350663804
 30
0.0
  0
SPLINE
  5
3B9
100
AcDbEntity
  8
RACCORDO
100
AcDbSpline
 62
7
  6
CONTINUOUS
 70
0
 71
3
 72
12
 73
8
 74
0
 42
0.0000001
 43
0.0000001
 44
0.0000000001
 40
0.0
 40
0.0
 40
0.0
 40
0.0
 40
0.2466378745
 40
0.5222256552
 40
0.6586707659
 40
0.7864263007
 40
1.0
 40
1.0
 40
1.0
 40
1.0
 10
5.2232715444
 20
14.7637804544
 30
0.0
 10
5.298843219
 20
14.7956043101
 30
0.0
 10
5.4779948136
 20
14.8165894799
 30
0.0
 10
5.6944446513
 20
14.7635005252
 30
0.0
 10
5.8529392451
 20
14.6765245298
 30
0.0
 10
5.9748844772
 20
14.575200038
 30
0.0
 10
6.0388987689
 20
14.4703682645
 30
0.0
 10
6.0482497129
 20
14.3999804335
 30
0.0
  0
SPLINE
  5
3BA
100
AcDbEntity
  8
RACCORDO
100
AcDbSpline
 62
250
  6
CONTINUOUS
 70
0
 71
3
 72
13
 73
9
 74
0
 42
0.0000001
 43
0.0000001
 44
0.0000000001
 40
0.0
 40
0.0
 40
0.0
 40
0.0
 40
0.1172657599
 40
0.2387284773
 40
0.3641651891
 40
0.492565922
 40
0.750401685
 40
1.0
 40
1.0
 40
1.0
 40
1.0
 10
4.8859625855
 20
14.2358274816
 30
0.0
 10
4.9210708637
 20
14.2372723563
 30
0.0
 10
4.9931894269
 20
14.2308753659
 30
0.0
 10
5.0973852653
 20
14.195546536
 30
0.0
 10
5.1941105924
 20
14.1364161724
 30
0.0
 10
5.3061703591
 20
14.0304416062
 30
0.0
 10
5.4025914528
 20
13.8600434356
 30
0.0
 10
5.4195783813
 20
13.7034511585
 30
0.0
 10
5.4103840889
 20
13.6292277824
 30
0.0
  0
SPLINE
  5
3BB
100
AcDbEntity
  8
DRAFT
100
AcDbSpline
 62
7
  6
CONTINUOUS
 70
0
 71
3
 72
15
 73
11
 74
0
 42
0.0000001
 43
0.0000001
 44
0.0000000001
 40
0.0
 40
0.0
 40
0.0
 40
0.0
 40
0.2491713291
 40
0.378128824
 40
0.5076696923
 40
0.6361027214
 40
0.6994294006
 40
0.7618922282
 40
0.8835106089
 40
1.0
 40
1.0
 40
1.0
 40
1.0
 10
-8.9773587657
 20
-15.3159776265
 30
0.0
 10
-6.6781014415
 20
-16.0220572757
 30
0.0
 10
-3.0104560916
 20
-16.5757309246
 30
0.0
 10
1.8933707764
 20
-16.3797509624
 30
0.0
 10
5.5879465641
 20
-15.7621600424
 30
0.0
 10
8.5665704971
 20
-14.8659149218
 30
0.0
 10
10.8372172207
 20
-13.9309041519
 30
0.0
 10
12.9809751243
 20
-12.8748338892
 30
0.0
 10
15.4473355543
 20
-11.3279774865
 30
0.0
 10
17.2001116644
 20
-9.8241925082
 30
0.0
 10
17.9892954284
 20
-9.0231900994
 30
0.0
  0
SPLINE
  5
3BC
100
AcDbEntity
  8
DRAFT
100
AcDbSpline
 62
7
  6
CONTINUOUS
 70
0
 71
3
 72
13
 73
9
 74
0
 42
0.0000001
 43
0.0000001
 44
0.0000000001
 40
0.0
 40
0.0
 40
0.0
 40
0.0
 40
0.2659660255
 40
0.5191010257
 40
0.6418111732
 40
0.7624691456
 40
0.8816518661
 40
1.0
 40
1.0
 40
1.0
 40
1.0
 10
19.0583144976
 20
-7.8461444341
 30
0.0
 10
19.7174787699
 20
-7.0567213071
 30
0.0
 10
20.8796162082
 20
-5.4053317009
 30
0.0
 10
21.908790964
 20
-3.1278918396
 30
0.0
 10
22.4173768586
 20
-1.2732888688
 30
0.0
 10
22.6416371724
 20
0.1134958159
 30
0.0
 10
22.7105396126
 20
1.499566694
 30
0.0
 10
22.6522810604
 20
2.4185420016
 30
0.0
 10
22.5974002422
 20
2.8728684997
 30
0.0
  0
SPLINE
  5
3BD
100
AcDbEntity
  8
ASSI
100
AcDbSpline
 62
7
  6
CONTINUOUS
 70
0
 71
3
 72
11
 73
7
 74
0
 42
0.0000001
 43
0.0000001
 44
0.0000000001
 40
0.0
 40
0.0
 40
0.0
 40
0.0
 40
0.2281840875
 40
0.4670210257
 40
0.7239482672
 40
1.0
 40
1.0
 40
1.0
 40
1.0
 10
10.997280081
 20
7.0916799025
 30
0.0
 10
10.9925727668
 20
7.1233451988
 30
0.0
 10
10.9715920099
 20
7.1869445967
 30
0.0
 10
10.9095807567
 20
7.2693097179
 30
0.0
 10
10.8218518912
 20
7.3348332539
 30
0.0
 10
10.7523218827
 20
7.3642736146
 30
0.0
 10
10.7152993482
 20
7.3756428763
 30
0.0
  0
SPLINE
  5
3BE
100
AcDbEntity
  8
ASSI
100
AcDbSpline
 62
7
  6
CONTINUOUS
 70
0
 71
3
 72
12
 73
8
 74
0
 42
0.0000001
 43
0.0000001
 44
0.0000000001
 40
0.0
 40
0.0
 40
0.0
 40
0.0
 40
0.2544020912
 40
0.3860402134
 40
0.5174779806
 40
0.7702649107
 40
1.0
 40
1.0
 40
1.0
 40
1.0
 10
8.0364934314
 20
12.822761749
 30
0.0
 10
8.0967564024
 20
12.8042555744
 30
0.0
 10
8.1936281316
 20
12.7918008244
 30
0.0
 10
8.3216367755
 20
12.8030221336
 30
0.0
 10
8.4464337917
 20
12.8325236422
 30
0.0
 10
8.5858037977
 20
12.8990922037
 30
0.0
 10
8.6731831796
 20
12.9856345647
 30
0.0
 10
8.7038240048
 20
13.0336131255
 30
0.0
  0
SPLINE
  5
3BF
100
AcDbEntity
  8
ASSI
100
AcDbSpline
 62
7
  6
CONTINUOUS
 70
0
 71
3
 72
13
 73
9
 74
0
 42
0.0000001
 43
0.0000001
 44
0.0000000001
 40
0.0
 40
0.0
 40
0.0
 40
0.0
 40
0.2805122339
 40
0.5471931778
 40
0.6705646091
 40
0.7860754763
 40
0.894954712
 40
1.0
 40
1.0
 40
1.0
 40
1.0
 10
10.5081444903
 20
6.0103602
 30
0.0
 10
10.6959086122
 20
6.0137296903
 30
0.0
 10
11.0633072135
 20
6.0795714919
 30
0.0
 10
11.4661492186
 20
6.2999470623
 30
0.0
 10
11.7039363061
 20
6.5440808858
 30
0.0
 10
11.8262658153
 20
6.7448781474
 30
0.0
 10
11.8901080266
 20
6.9587084138
 30
0.0
 10
11.8905334677
 20
7.1043621679
 30
0.0
 10
11.8802584687
 20
7.1739320922
 30
0.0
  0
SPLINE
  5
3C0
100
AcDbEntity
  8
RACCORDO
100
AcDbSpline
 62
7
  6
CONTINUOUS
 70
0
 71
3
 72
21
 73
17
 74
0
 42
0.0000001
 43
0.0000001
 44
0.0000000001
 40
0.0
 40
0.0
 40
0.0
 40
0.0
 40
0.1334137745
 40
0.2022824173
 40
0.2718337584
 40
0.410539065
 40
0.4787385022
 40
0.5454218575
 40
0.6101544576
 40
0.672601366
 40
0.732556514
 40
0.7899719758
 40
0.8449861369
 40
0.8979377894
 40
0.9493747741
 40
1.0
 40
1.0
 40
1.0
 40
1.0
 10
-9.9566247176
 20
1.3692629754
 30
0.0
 10
-8.3547785435
 20
0.8970837975
 30
0.0
 10
-5.8353803192
 20
0.4592568895
 30
0.0
 10
-2.42994043
 20
0.3860840428
 30
0.0
 10
1.0332169199
 20
0.6548984389
 30
0.0
 10
4.4337116374
 20
1.4285711499
 30
0.0
 10
7.625186809
 20
2.6833047505
 30
0.0
 10
9.8473030654
 20
3.8367767374
 30
0.0
 10
11.870020911
 20
5.1866147903
 30
0.0
 10
13.6579654112
 20
6.7088484612
 30
0.0
 10
15.1794461811
 20
8.3762901787
 30
0.0
 10
16.4076593581
 20
10.1593000609
 30
0.0
 10
17.3208217803
 20
12.0262688186
 30
0.0
 10
17.9027722867
 20
13.9445395663
 30
0.0
 10
18.1428364171
 20
15.8795547938
 30
0.0
 10
18.0715518409
 20
17.1633181549
 30
0.0
 10
17.9792426962
 20
17.7902534395
 30
0.0
  0
SPLINE
  5
3C1
100
AcDbEntity
  8
RACCORDO
100
AcDbSpline
 62
7
  6
CONTINUOUS
 70
0
 71
3
 72
14
 73
10
 74
0
 42
0.0000001
 43
0.0000001
 44
0.0000000001
 40
0.0
 40
0.0
 40
0.0
 40
0.0
 40
0.1124986717
 40
0.2265971447
 40
0.3436781457
 40
0.464880437
 40
0.5909526399
 40
0.7222684544
 40
1.0
 40
1.0
 40
1.0
 40
1.0
 10
-20.8026305758
 20
12.080060315
 30
0.0
 10
-20.7161099972
 20
11.4924391893
 30
0.0
 10
-20.4404364321
 20
10.3213486708
 30
0.0
 10
-19.7323982116
 20
8.6421656624
 30
0.0
 10
-18.7391765219
 20
7.0598098949
 30
0.0
 10
-17.4767190392
 20
5.5992846518
 30
0.0
 10
-15.9638738116
 20
4.282973505
 30
0.0
 10
-13.6032586611
 20
2.7198953008
 30
0.0
 10
-11.59087127
 20
1.8696870099
 30
0.0
 10
-10.1891443405
 20
1.4392302497
 30
0.0
  0
SPLINE
  5
3C2
100
AcDbEntity
  8
RACCORDO
100
AcDbSpline
 62
7
  6
CONTINUOUS
 70
0
 71
3
 72
14
 73
10
 74
0
 42
0.0000001
 43
0.0000001
 44
0.0000000001
 40
0.0
 40
0.0
 40
0.0
 40
0.0
 40
0.1143285884
 40
0.2300946788
 40
0.3483996698
 40
0.4701611003
 40
0.5960264667
 40
0.7263500019
 40
1.0
 40
1.0
 40
1.0
 40
1.0
 10
19.9152763386
 20
18.3924826238
 30
0.0
 10
19.8011940404
 20
19.0485512371
 30
0.0
 10
19.4611697713
 20
20.3523139229
 30
0.0
 10
18.633320237
 20
22.2141168313
 30
0.0
 10
17.5011688954
 20
23.9599232174
 30
0.0
 10
16.0852838259
 20
25.5626911012
 30
0.0
 10
14.4087601815
 20
26.9999117559
 30
0.0
 10
11.8226851238
 20
28.6953212228
 30
0.0
 10
9.630162643
 20
29.6193353324
 30
0.0
 10
8.1064981524
 20
30.0872379362
 30
0.0
  0
SPLINE
  5
3C3
100
AcDbEntity
  8
RACCORDO
100
AcDbSpline
 62
7
  6
CONTINUOUS
 70
0
 71
3
 72
21
 73
17
 74
0
 42
0.0000001
 43
0.0000001
 44
0.0000000001
 40
0.0
 40
0.0
 40
0.0
 40
0.0
 40
0.1319141938
 40
0.1999214649
 40
0.2686072042
 40
0.4057541206
 40
0.4733466613
 40
0.5395954715
 40
0.6041081661
 40
0.6665904237
 40
0.7268712705
 40
0.7849252131
 40
0.840888505
 40
0.8950630242
 40
0.9479074243
 40
1.0
 40
1.0
 40
1.0
 40
1.0
 10
8.1064981524
 20
30.0872379362
 30
0.0
 10
6.3646620279
 20
30.6221389352
 30
0.0
 10
3.6219901838
 20
31.1293037028
 30
0.0
 10
-0.0903423947
 20
31.2462562871
 30
0.0
 10
-3.8693421922
 20
30.9897372328
 30
0.0
 10
-7.5883402278
 20
30.179871211
 30
0.0
 10
-11.0895989589
 20
28.8419293257
 30
0.0
 10
-13.5386143371
 20
27.6014095122
 30
0.0
 10
-15.7790134743
 20
26.1401951346
 30
0.0
 10
-17.7725302225
 20
24.4819410246
 30
0.0
 10
-19.484140353
 20
22.6534719601
 30
0.0
 10
-20.8830002215
 20
20.6842854588
 30
0.0
 10
-21.9424404363
 20
18.606698231
 30
0.0
 10
-22.6405010148
 20
16.4557332651
 30
0.0
 10
-22.9609050755
 20
14.2709227874
 30
0.0
 10
-22.9163709485
 20
12.813067917
 30
0.0
 10
-22.8300817845
 20
12.0987110892
 30
0.0
  0
SPLINE
  5
3C4
100
AcDbEntity
  8
RACCORDO
100
AcDbSpline
 62
7
  6
CONTINUOUS
 70
0
 71
3
 72
18
 73
14
 74
0
 42
0.0000001
 43
0.0000001
 44
0.0000000001
 40
0.0
 40
0.0
 40
0.0
 40
0.0
 40
0.0456752976
 40
0.0935901144
 40
0.144944984
 40
0.2005749421
 40
0.3242228735
 40
0.4614106172
 40
0.6053008088
 40
0.7478916089
 40
0.8163584046
 40
0.8816764388
 40
1.0
 40
1.0
 40
1.0
 40
1.0
 10
-10.91229659
 20
5.3767247979
 30
0.0
 10
-10.894541406
 20
5.2818206338
 30
0.0
 10
-10.8362651407
 20
5.0908370577
 30
0.0
 10
-10.6855301632
 20
4.8216798397
 30
0.0
 10
-10.4706118911
 20
4.5719699095
 30
0.0
 10
-10.0898588201
 20
4.2639398012
 30
0.0
 10
-9.471803207
 20
3.9804967219
 30
0.0
 10
-8.6198538115
 20
3.838249392
 30
0.0
 10
-7.7186399277
 20
3.900465576
 30
0.0
 10
-6.9939059458
 20
4.1220328168
 30
0.0
 10
-6.4748770409
 20
4.3937609256
 30
0.0
 10
-6.0383880042
 20
4.7006849447
 30
0.0
 10
-5.7672946344
 20
4.9901096161
 30
0.0
 10
-5.6326715103
 20
5.2009075863
 30
0.0
  0
SPLINE
  5
3C5
100
AcDbEntity
  8
RACCORDO
100
AcDbSpline
 62
7
  6
CONTINUOUS
 70
0
 71
3
 72
10
 73
6
 74
0
 42
0.0000001
 43
0.0000001
 44
0.0000000001
 40
0.0
 40
0.0
 40
0.0
 40
0.0
 40
0.5253052642
 40
0.7668510603
 40
1.0
 40
1.0
 40
1.0
 40
1.0
 10
-5.6326715104
 20
5.2009075863
 30
0.0
 10
-5.5353620371
 20
5.3532784334
 30
0.0
 10
-5.4221371691
 20
5.5982673214
 30
0.0
 10
-5.3636016922
 20
5.9388081092
 30
0.0
 10
-5.3649668589
 20
6.1032735842
 30
0.0
 10
-5.373018831
 20
6.1831107358
 30
0.0
  0
SPLINE
  5
3C6
100
AcDbEntity
  8
RACCORDO
100
AcDbSpline
 62
7
  6
CONTINUOUS
 70
0
 71
3
 72
17
 73
13
 74
0
 42
0.0000001
 43
0.0000001
 44
0.0000000001
 40
0.0
 40
0.0
 40
0.0
 40
0.0
 40
0.0441064734
 40
0.0909434256
 40
0.141789197
 40
0.1973319254
 40
0.3216896326
 40
0.4601147397
 40
0.6052508995
 40
0.7487572199
 40
0.8825113365
 40
1.0
 40
1.0
 40
1.0
 40
1.0
 10
-1.9016360303
 20
2.8349173133
 30
0.0
 10
-1.8854798077
 20
2.7624605596
 30
0.0
 10
-1.8351717547
 20
2.6164093467
 30
0.0
 10
-1.711263432
 20
2.4106472939
 30
0.0
 10
-1.5369434516
 20
2.2185181545
 30
0.0
 10
-1.2281643436
 20
1.9801649967
 30
0.0
 10
-0.7296563997
 20
1.7618554851
 30
0.0
 10
-0.0448932536
 20
1.6559660269
 30
0.0
 10
0.6779933701
 20
1.7119178284
 30
0.0
 10
1.3627408816
 20
1.9258817823
 30
0.0
 10
1.9378397217
 20
2.2714937963
 30
0.0
 10
2.2323865612
 20
2.5862799334
 30
0.0
 10
2.3388212502
 20
2.7529393881
 30
0.0
  0
SPLINE
  5
3C7
100
AcDbEntity
  8
RACCORDO
100
AcDbSpline
 62
7
  6
CONTINUOUS
 70
0
 71
3
 72
10
 73
6
 74
0
 42
0.0000001
 43
0.0000001
 44
0.0000000001
 40
0.0
 40
0.0
 40
0.0
 40
0.0
 40
0.5289679649
 40
0.7693833705
 40
1.0
 40
1.0
 40
1.0
 40
1.0
 10
2.3388212501
 20
2.752939388
 30
0.0
 10
2.412659556
 20
2.8685581952
 30
0.0
 10
2.4990606625
 20
3.0529924434
 30
0.0
 10
2.5476181026
 20
3.3087228475
 30
0.0
 10
2.5493087379
 20
3.4316361476
 30
0.0
 10
2.5448846016
 20
3.4912816056
 30
0.0
  0
SPLINE
  5
3C8
100
AcDbEntity
  8
RACCORDO
100
AcDbSpline
 62
7
  6
CONTINUOUS
 70
0
 71
3
 72
9
 73
5
 74
0
 42
0.0000001
 43
0.0000001
 44
0.0000000001
 40
0.0
 40
0.0
 40
0.0
 40
0.0
 40
0.512157774
 40
1.0
 40
1.0
 40
1.0
 40
1.0
 10
-14.3693346142
 20
20.2908716517
 30
0.0
 10
-14.3712264642
 20
20.3032263686
 30
0.0
 10
-14.3810562081
 20
20.3275937847
 30
0.0
 10
-14.4038529753
 20
20.3401057356
 30
0.0
 10
-14.4152343225
 20
20.3435988357
 30
0.0
  0
SPLINE
  5
3C9
100
AcDbEntity
  8
RACCORDO
100
AcDbSpline
 62
7
  6
CONTINUOUS
 70
0
 71
3
 72
9
 73
5
 74
0
 42
0.0000001
 43
0.0000001
 44
0.0000000001
 40
0.0
 40
0.0
 40
0.0
 40
0.0
 40
0.5120870379
 40
1.0
 40
1.0
 40
1.0
 40
1.0
 10
-17.3122052155
 20
15.6805754252
 30
0.0
 10
-17.3140174305
 20
15.6927554985
 30
0.0
 10
-17.3236134656
 20
15.7168203825
 30
0.0
 10
-17.3460878644
 20
15.7291616699
 30
0.0
 10
-17.3573043248
 20
15.7326041229
 30
0.0
  0
SPLINE
  5
3CA
100
AcDbEntity
  8
RACCORDO
100
AcDbSpline
 62
7
  6
CONTINUOUS
 70
0
 71
3
 72
15
 73
11
 74
0
 42
0.0000001
 43
0.0000001
 44
0.0000000001
 40
0.0
 40
0.0
 40
0.0
 40
0.0
 40
0.1408339186
 40
0.2749977791
 40
0.4005828915
 40
0.5190211218
 40
0.6349014659
 40
0.7524848704
 40
0.8740063648
 40
1.0
 40
1.0
 40
1.0
 40
1.0
 10
14.9961818548
 20
10.7438785377
 30
0.0
 10
14.9906927531
 20
10.7815103744
 30
0.0
 10
14.9857776251
 20
10.8560730306
 30
0.0
 10
15.0013205685
 20
10.9641618848
 30
0.0
 10
15.0437227086
 20
11.0589014546
 30
0.0
 10
15.1119548218
 20
11.1309292195
 30
0.0
 10
15.1985127003
 20
11.1741091036
 30
0.0
 10
15.2940313194
 20
11.1904796595
 30
0.0
 10
15.3930822171
 20
11.1849706155
 30
0.0
 10
15.4584616914
 20
11.1696782035
 30
0.0
 10
15.4909847788
 20
11.1596886799
 30
0.0
  0
SPLINE
  5
3CB
100
AcDbEntity
  8
RACCORDO
100
AcDbSpline
 62
7
  6
CONTINUOUS
 70
0
 71
3
 72
15
 73
11
 74
0
 42
0.0000001
 43
0.0000001
 44
0.0000000001
 40
0.0
 40
0.0
 40
0.0
 40
0.0
 40
0.1408797734
 40
0.2749950416
 40
0.4004854342
 40
0.5188413542
 40
0.6346822235
 40
0.752280246
 40
0.8738762658
 40
1.0
 40
1.0
 40
1.0
 40
1.0
 10
12.0526007047
 20
6.1384684629
 30
0.0
 10
12.0473120794
 20
6.1758108111
 30
0.0
 10
12.0427317379
 20
6.2497472849
 30
0.0
 10
12.0585030909
 20
6.3568217705
 30
0.0
 10
12.1007721014
 20
6.4505640796
 30
0.0
 10
12.1684972411
 20
6.521799599
 30
0.0
 10
12.2543252639
 20
6.564498898
 30
0.0
 10
12.3490428539
 20
6.58066912
 30
0.0
 10
12.4472965987
 20
6.5751649135
 30
0.0
 10
12.5121635307
 20
6.5599819331
 30
0.0
 10
12.5444399606
 20
6.5500681397
 30
0.0
  0
SPLINE
  5
3CC
100
AcDbEntity
  8
ASSI
100
AcDbSpline
 62
7
  6
CONTINUOUS
 70
0
 71
3
 72
9
 73
5
 74
0
 42
0.0000001
 43
0.0000001
 44
0.0000000001
 40
0.0
 40
0.0
 40
0.0
 40
0.0
 40
0.246458291
 40
1.0
 40
1.0
 40
1.0
 40
1.0
 10
-10.4130941903
 20
6.7475650288
 30
0.0
 10
-10.3848918181
 20
6.771671335
 30
0.0
 10
-10.2687714322
 20
6.8674931163
 30
0.0
 10
-10.1461395563
 20
6.9553809382
 30
0.0
 10
-10.0509157514
 20
7.0170259075
 30
0.0
  0
SPLINE
  5
3CD
100
AcDbEntity
  8
ASSI
100
AcDbSpline
 62
7
  6
CONTINUOUS
 70
0
 71
3
 72
11
 73
7
 74
0
 42
0.0000001
 43
0.0000001
 44
0.0000000001
 40
0.0
 40
0.0
 40
0.0
 40
0.0
 40
0.2450181339
 40
0.4983982704
 40
0.752618754
 40
1.0
 40
1.0
 40
1.0
 40
1.0
 10
-10.0509157514
 20
7.0170259075
 30
0.0
 10
-9.8219891175
 20
7.1652259855
 30
0.0
 10
-9.321077703
 20
7.4146277087
 30
0.0
 10
-8.507244279
 20
7.6332877311
 30
0.0
 10
-7.6640857354
 20
7.6933485884
 30
0.0
 10
-7.1055625732
 20
7.6227386267
 30
0.0
 10
-6.837807399
 20
7.5585567887
 30
0.0
  0
SPLINE
  5
3CE
100
AcDbEntity
  8
ASSI
100
AcDbSpline
 62
7
  6
CONTINUOUS
 70
0
 71
3
 72
9
 73
5
 74
0
 42
0.0000001
 43
0.0000001
 44
0.0000000001
 40
0.0
 40
0.0
 40
0.0
 40
0.0
 40
0.2548076509
 40
1.0
 40
1.0
 40
1.0
 40
1.0
 10
-6.837807399
 20
7.5585567887
 30
0.0
 10
-6.7863690385
 20
7.5462268364
 30
0.0
 10
-6.5855549737
 20
7.4935752789
 30
0.0
 10
-6.3892164531
 20
7.4235023339
 30
0.0
 10
-6.247633939
 20
7.3611746141
 30
0.0
  0
SPLINE
  5
3CF
100
AcDbEntity
  8
0
100
AcDbSpline
 62
7
  6
CONTINUOUS
 70
0
 71
3
 72
11
 73
7
 74
0
 42
0.0000001
 43
0.0000001
 44
0.0000000001
 40
0.0
 40
0.0
 40
0.0
 40
0.0
 40
0.2436116989
 40
0.5000838554
 40
0.7565075335
 40
1.0
 40
1.0
 40
1.0
 40
1.0
 10
-1.5229757841
 20
3.9201798493
 30
0.0
 10
-1.2987604043
 20
4.105967262
 30
0.0
 10
-0.7755365845
 20
4.4145559794
 30
0.0
 10
0.1049192216
 20
4.657546985
 30
0.0
 10
1.0179465562
 20
4.6769989235
 30
0.0
 10
1.6074388626
 20
4.531155034
 30
0.0
 10
1.8752987971
 20
4.4173236812
 30
0.0
  0
SPLINE
  5
3D0
100
AcDbEntity
  8
ASSI
100
AcDbSpline
 62
7
  6
CONTINUOUS
 70
0
 71
3
 72
11
 73
7
 74
0
 42
0.0000001
 43
0.0000001
 44
0.0000000001
 40
0.0
 40
0.0
 40
0.0
 40
0.0
 40
0.2281677436
 40
0.4670169763
 40
0.7238269038
 40
1.0
 40
1.0
 40
1.0
 40
1.0
 10
4.6464502444
 20
14.0550229835
 30
0.0
 10
4.650941759
 20
14.0243695934
 30
0.0
 10
4.6712249138
 20
13.9628021743
 30
0.0
 10
4.7311300686
 20
13.8830352209
 30
0.0
 10
4.8160034561
 20
13.8195572563
 30
0.0
 10
4.8833031823
 20
13.7910759265
 30
0.0
 10
4.9191498939
 20
13.7800677486
 30
0.0
  0
SPLINE
  5
3D1
100
AcDbEntity
  8
ASSI
100
AcDbSpline
 62
7
  6
CONTINUOUS
 70
0
 71
3
 72
9
 73
5
 74
0
 42
0.0000001
 43
0.0000001
 44
0.0000000001
 40
0.0
 40
0.0
 40
0.0
 40
0.0
 40
0.4898448138
 40
1.0
 40
1.0
 40
1.0
 40
1.0
 10
-5.3860453748
 20
6.2408326455
 30
0.0
 10
-5.4192313814
 20
6.3806150469
 30
0.0
 10
-5.5279319121
 20
6.6575314796
 30
0.0
 10
-5.7050972711
 20
6.8955429996
 30
0.0
 10
-5.8075785066
 20
7.004561964
 30
0.0
  0
SPLINE
  5
3D2
100
AcDbEntity
  8
ASSI
100
AcDbSpline
 62
7
  6
CONTINUOUS
 70
0
 71
3
 72
15
 73
11
 74
0
 42
0.0000001
 43
0.0000001
 44
0.0000000001
 40
0.0
 40
0.0
 40
0.0
 40
0.0
 40
0.1139679543
 40
0.2364640453
 40
0.3658281919
 40
0.499044153
 40
0.6324117503
 40
0.7622094102
 40
0.8853290771
 40
1.0
 40
1.0
 40
1.0
 40
1.0
 10
-5.9287950005
 20
7.1229960741
 30
0.0
 10
-6.0776956825
 20
7.2568197233
 30
0.0
 10
-6.4277509186
 20
7.4905143524
 30
0.0
 10
-7.0356831777
 20
7.7132470669
 30
0.0
 10
-7.7095675185
 20
7.8110915908
 30
0.0
 10
-8.4083722493
 20
7.7785915755
 30
0.0
 10
-9.0900662196
 20
7.6181913138
 30
0.0
 10
-9.7134697745
 20
7.3390964784
 30
0.0
 10
-10.2405585372
 20
6.9579385184
 30
0.0
 10
-10.5163647404
 20
6.6370594073
 30
0.0
 10
-10.6247847835
 20
6.467291211
 30
0.0
  0
SPLINE
  5
3D3
100
AcDbEntity
  8
0
100
AcDbSpline
 62
7
  6
CONTINUOUS
 70
0
 71
3
 72
16
 73
12
 74
0
 42
0.0000001
 43
0.0000001
 44
0.0000000001
 40
0.0
 40
0.0
 40
0.0
 40
0.0
 40
0.0518615866
 40
0.1051776122
 40
0.2183859431
 40
0.3425667575
 40
0.4759403113
 40
0.6138948393
 40
0.7505833259
 40
0.8804755785
 40
1.0
 40
1.0
 40
1.0
 40
1.0
 10
2.529522888
 20
3.5629980022
 30
0.0
 10
2.5075126417
 20
3.6474063381
 30
0.0
 10
2.4444607695
 20
3.814313988
 30
0.0
 10
2.2473039842
 20
4.1267120089
 30
0.0
 10
1.8715945212
 20
4.4563958868
 30
0.0
 10
1.2923026023
 20
4.7076832722
 30
0.0
 10
0.6280870507
 20
4.808978717
 30
0.0
 10
-0.0618214114
 20
4.7527820717
 30
0.0
 10
-0.7161216965
 20
4.5444392775
 30
0.0
 10
-1.2759215943
 20
4.2025027779
 30
0.0
 10
-1.5653485609
 20
3.8878898958
 30
0.0
 10
-1.6735554832
 20
3.718455412
 30
0.0
  0
SPLINE
  5
3D4
100
AcDbEntity
  8
DRAFT
100
AcDbSpline
 62
7
  6
CONTINUOUS
 70
0
 71
3
 72
14
 73
10
 74
0
 42
0.0000001
 43
0.0000001
 44
0.0000000001
 40
0.0
 40
0.0
 40
0.0
 40
0.0
 40
0.1133040246
 40
0.2287647907
 40
0.3472531984
 40
0.4694341274
 40
0.5957434751
 40
0.7263717128
 40
1.0
 40
1.0
 40
1.0
 40
1.0
 10
-20.5732063862
 20
-5.0075142159
 30
0.0
 10
-20.3949718573
 20
-5.5901051982
 30
0.0
 10
-19.9463619712
 20
-6.7410964368
 30
0.0
 10
-19.0218235365
 20
-8.3701356122
 30
0.0
 10
-17.8531614854
 20
-9.8944838768
 30
0.0
 10
-16.4559028847
 20
-11.2951256309
 30
0.0
 10
-14.8474665842
 20
-12.5556202413
 30
0.0
 10
-12.4130115729
 20
-14.0516068428
 30
0.0
 10
-10.3838555308
 20
-14.884056096
 30
0.0
 10
-8.9773587657
 20
-15.3159776265
 30
0.0
  0
SPLINE
  5
3D5
100
AcDbEntity
  8
ASSI
100
AcDbSpline
 62
7
  6
CONTINUOUS
 70
0
 71
3
 72
9
 73
5
 74
0
 42
0.0000001
 43
0.0000001
 44
0.0000000001
 40
0.0
 40
0.0
 40
0.0
 40
0.0
 40
0.2476652385
 40
1.0
 40
1.0
 40
1.0
 40
1.0
 10
7.3394773877
 20
28.2290817278
 30
0.0
 10
7.1715502102
 20
28.2806505371
 30
0.0
 10
6.4909667153
 20
28.4805186008
 30
0.0
 10
5.8006870657
 20
28.6472081934
 30
0.0
 10
5.2779411947
 20
28.754410656
 30
0.0
  0
SPLINE
  5
3D6
100
AcDbEntity
  8
ASSI
100
AcDbSpline
 62
7
  6
CONTINUOUS
 70
0
 71
3
 72
9
 73
5
 74
0
 42
0.0000001
 43
0.0000001
 44
0.0000000001
 40
0.0
 40
0.0
 40
0.0
 40
0.0
 40
0.2472720745
 40
1.0
 40
1.0
 40
1.0
 40
1.0
 10
9.2859543142
 20
27.5235886564
 30
0.0
 10
9.1286693691
 20
27.5898963134
 30
0.0
 10
8.4891085078
 20
27.8497401811
 30
0.0
 10
7.8361878588
 20
28.0765467542
 30
0.0
 10
7.3394773877
 20
28.2290817278
 30
0.0
  0
SPLINE
  5
3D7
100
AcDbEntity
  8
SMUSSO
100
AcDbSpline
 62
7
  6
CONTINUOUS
 70
0
 71
3
 72
9
 73
5
 74
0
 42
0.0000001
 43
0.0000001
 44
0.0000000001
 40
0.0
 40
0.0
 40
0.0
 40
0.0
 40
0.2539503984
 40
1.0
 40
1.0
 40
1.0
 40
1.0
 10
4.7349602115
 20
13.9985449573
 30
0.0
 10
4.7317674168
 20
13.9935455589
 30
0.0
 10
4.7196814561
 20
13.9735535535
 30
0.0
 10
4.7095794826
 20
13.952354031
 30
0.0
 10
4.7033494926
 20
13.936078966
 30
0.0
  0
SPLINE
  5
3D8
100
AcDbEntity
  8
0
100
AcDbSpline
 62
7
  6
CONTINUOUS
 70
0
 71
3
 72
9
 73
5
 74
0
 42
0.0000001
 43
0.0000001
 44
0.0000000001
 40
0.0
 40
0.0
 40
0.0
 40
0.0
 40
0.5138744264
 40
1.0
 40
1.0
 40
1.0
 40
1.0
 10
-1.6735554832
 20
3.718455412
 30
0.0
 10
-1.7523087559
 20
3.5951405646
 30
0.0
 10
-1.8755830399
 20
3.3336498164
 30
0.0
 10
-1.9132113298
 20
3.0456510482
 30
0.0
 10
-1.907798344
 20
2.9073410573
 30
0.0
  0
SPLINE
  5
3D9
100
AcDbEntity
  8
ASSI
100
AcDbSpline
 62
7
  6
CONTINUOUS
 70
0
 71
3
 72
10
 73
6
 74
0
 42
0.0000001
 43
0.0000001
 44
0.0000000001
 40
0.0
 40
0.0
 40
0.0
 40
0.0
 40
0.5133124582
 40
0.7588857263
 40
1.0
 40
1.0
 40
1.0
 40
1.0
 10
-10.6247847835
 20
6.467291211
 30
0.0
 10
-10.7288977728
 20
6.304267162
 30
0.0
 10
-10.8508521847
 20
6.0388950339
 30
0.0
 10
-10.9184194211
 20
5.6667890743
 30
0.0
 10
-10.9197065017
 20
5.482227551
 30
0.0
 10
-10.9122584361
 20
5.3916735198
 30
0.0
  0
SPLINE
  5
3DA
100
AcDbEntity
  8
ASSI
100
AcDbSpline
 62
7
  6
CONTINUOUS
 70
0
 71
3
 72
13
 73
9
 74
0
 42
0.0000001
 43
0.0000001
 44
0.0000000001
 40
0.0
 40
0.0
 40
0.0
 40
0.0
 40
0.2697684398
 40
0.541756325
 40
0.6691888518
 40
0.7872285553
 40
0.8963702724
 40
1.0
 40
1.0
 40
1.0
 40
1.0
 10
10.2561223326
 20
6.656598868
 30
0.0
 10
10.3415663329
 20
6.6303598433
 30
0.0
 10
10.5263939879
 20
6.6175651303
 30
0.0
 10
10.7434475278
 20
6.6872005891
 30
0.0
 10
10.8824975306
 20
6.7899386029
 30
0.0
 10
10.9575800408
 20
6.8822518535
 30
0.0
 10
10.9995572205
 20
6.985466124
 30
0.0
 10
11.0023288669
 20
7.0577175848
 30
0.0
 10
10.997280081
 20
7.0916799025
 30
0.0
  0
SPLINE
  5
3DB
100
AcDbEntity
  8
RACCORDO
100
AcDbSpline
 62
7
  6
CONTINUOUS
 70
0
 71
3
 72
13
 73
9
 74
0
 42
0.0000001
 43
0.0000001
 44
0.0000000001
 40
0.0
 40
0.0
 40
0.0
 40
0.0
 40
0.1036222206
 40
0.2127219028
 40
0.3307207806
 40
0.4581232519
 40
0.730160803
 40
1.0
 40
1.0
 40
1.0
 40
1.0
 10
-12.9114203348
 20
10.764504165
 30
0.0
 10
-12.9033648303
 20
10.7117681875
 30
0.0
 10
-12.90706656
 20
10.5995070677
 30
0.0
 10
-12.9717501137
 20
10.4389158503
 30
0.0
 10
-13.088069522
 20
10.2952599414
 30
0.0
 10
-13.3038681992
 20
10.1352706612
 30
0.0
 10
-13.6411225852
 20
10.0267421646
 30
0.0
 10
-13.9284044769
 20
10.0465583103
 30
0.0
 10
-14.0612046243
 20
10.087339949
 30
0.0
  0
SPLINE
  5
3DC
100
AcDbEntity
  8
RACCORDO
100
AcDbSpline
 62
7
  6
CONTINUOUS
 70
0
 71
3
 72
13
 73
9
 74
0
 42
0.0000001
 43
0.0000001
 44
0.0000000001
 40
0.0
 40
0.0
 40
0.0
 40
0.0
 40
0.1036253762
 40
0.212769008
 40
0.3308147609
 40
0.458241208
 40
0.7302438364
 40
1.0
 40
1.0
 40
1.0
 40
1.0
 10
-15.8880095425
 20
6.1013363892
 30
0.0
 10
-15.8801882647
 20
6.0486252021
 30
0.0
 10
-15.8843409325
 20
5.9364950066
 30
0.0
 10
-15.9494640295
 20
5.776260936
 30
0.0
 10
-16.0660006818
 20
5.6329935792
 30
0.0
 10
-16.281808067
 20
5.4735205085
 30
0.0
 10
-16.618685122
 20
5.3654250731
 30
0.0
 10
-16.9055468512
 20
5.3853012867
 30
0.0
 10
-17.038154306
 20
5.4260237514
 30
0.0
  0
SPLINE
  5
3DD
100
AcDbEntity
  8
ASSI
100
AcDbSpline
 62
7
  6
CONTINUOUS
 70
0
 71
3
 72
13
 73
9
 74
0
 42
0.0000001
 43
0.0000001
 44
0.0000000001
 40
0.0
 40
0.0
 40
0.0
 40
0.0
 40
0.1036250893
 40
0.2127791036
 40
0.3308350958
 40
0.4582628084
 40
0.7302245636
 40
1.0
 40
1.0
 40
1.0
 40
1.0
 10
11.0119459606
 20
6.9918209516
 30
0.0
 10
11.0169659943
 20
6.9578612843
 30
0.0
 10
11.0142249699
 20
6.8856245994
 30
0.0
 10
10.9722141839
 20
6.7824187466
 30
0.0
 10
10.897070548
 20
6.690172802
 30
0.0
 10
10.7580373419
 20
6.5874766088
 30
0.0
 10
10.541026783
 20
6.5178456306
 30
0.0
 10
10.3562346329
 20
6.5306549297
 30
0.0
 10
10.2708016093
 20
6.5568905835
 30
0.0
  0
SPLINE
  5
3DE
100
AcDbEntity
  8
RACCORDO
100
AcDbSpline
 62
250
  6
CONTINUOUS
 70
0
 71
3
 72
9
 73
5
 74
0
 42
0.0000001
 43
0.0000001
 44
0.0000000001
 40
0.0
 40
0.0
 40
0.0
 40
0.0
 40
0.4883761622
 40
1.0
 40
1.0
 40
1.0
 40
1.0
 10
-10.9206049555
 20
5.4265225395
 30
0.0
 10
-10.9458715231
 20
5.5982706322
 30
0.0
 10
-10.9366272247
 20
5.9612979505
 30
0.0
 10
-10.8113479668
 20
6.3005466659
 30
0.0
 10
-10.7258055405
 20
6.4610322877
 30
0.0
  0
SPLINE
  5
3DF
100
AcDbEntity
  8
RACCORDO
100
AcDbSpline
 62
250
  6
CONTINUOUS
 70
0
 71
3
 72
9
 73
5
 74
0
 42
0.0000001
 43
0.0000001
 44
0.0000000001
 40
0.0
 40
0.0
 40
0.0
 40
0.0
 40
0.4915081979
 40
1.0
 40
1.0
 40
1.0
 40
1.0
 10
-1.9151030226
 20
2.9082391474
 30
0.0
 10
-1.9321300995
 20
3.0239130357
 30
0.0
 10
-1.9328448553
 20
3.2654170897
 30
0.0
 10
-1.8673634231
 20
3.497319495
 30
0.0
 10
-1.8206515359
 20
3.608896487
 30
0.0
  0
SPLINE
  5
3E0
100
AcDbEntity
  8
RACCORDO
100
AcDbSpline
 62
250
  6
CONTINUOUS
 70
0
 71
3
 72
21
 73
17
 74
0
 42
0.0000001
 43
0.0000001
 44
0.0000000001
 40
0.0
 40
0.0
 40
0.0
 40
0.0
 40
0.0514258139
 40
0.1035906283
 40
0.1571522637
 40
0.2126244226
 40
0.2703411319
 40
0.3304485115
 40
0.3929157981
 40
0.4575565765
 40
0.524053831
 40
0.5919878516
 40
0.7299695962
 40
0.7990872277
 40
0.8674964218
 40
1.0
 40
1.0
 40
1.0
 40
1.0
 10
-20.8026296217
 20
12.0800604555
 30
0.0
 10
-20.8971157354
 20
12.7217129598
 30
0.0
 10
-20.9698082191
 20
14.0345831628
 30
0.0
 10
-20.7235125283
 20
16.0109975777
 30
0.0
 10
-20.1287661045
 20
17.9650216821
 30
0.0
 10
-19.1983358583
 20
19.8603597448
 30
0.0
 10
-17.9507498812
 20
21.6639257988
 30
0.0
 10
-16.4094560593
 20
23.3445216109
 30
0.0
 10
-14.602454748
 20
24.8733405322
 30
0.0
 10
-12.5621419322
 20
26.2240641741
 30
0.0
 10
-10.3243415809
 20
27.3734945429
 30
0.0
 10
-7.1163789331
 20
28.6164621554
 30
0.0
 10
-3.7029355541
 20
29.3718764984
 30
0.0
 10
-0.2320489624
 20
29.6160612367
 30
0.0
 10
3.1756604285
 20
29.5149323021
 30
0.0
 10
5.6930604595
 20
29.0520151522
 30
0.0
 10
7.2905407299
 20
28.5614444375
 30
0.0
  0
SPLINE
  5
3E1
100
AcDbEntity
  8
DRAFT
100
AcDbSpline
 62
7
  6
CONTINUOUS
 70
0
 71
3
 72
11
 73
7
 74
0
 42
0.0000001
 43
0.0000001
 44
0.0000000001
 40
0.0
 40
0.0
 40
0.0
 40
0.0
 40
0.2368802418
 40
0.4822124207
 40
0.7365960466
 40
1.0
 40
1.0
 40
1.0
 40
1.0
 10
17.2103672209
 20
11.902226713
 30
0.0
 10
16.8217111972
 20
12.3868673627
 30
0.0
 10
15.9582256133
 20
13.3172976592
 30
0.0
 10
14.4643872084
 20
14.5499966026
 30
0.0
 10
12.7718342782
 20
15.6266135301
 30
0.0
 10
11.5471910124
 20
16.2207964504
 30
0.0
 10
10.9106513519
 20
16.4891466947
 30
0.0
  0
SPLINE
  5
3E2
100
AcDbEntity
  8
RACCORDO
100
AcDbSpline
 62
250
  6
CONTINUOUS
 70
0
 71
3
 72
14
 73
10
 74
0
 42
0.0000001
 43
0.0000001
 44
0.0000000001
 40
0.0
 40
0.0
 40
0.0
 40
0.0
 40
0.1136836778
 40
0.2286297667
 40
0.3462007719
 40
0.4675057765
 40
0.5933271686
 40
0.724093181
 40
1.0
 40
1.0
 40
1.0
 40
1.0
 10
-22.8300606452
 20
12.0987139046
 30
0.0
 10
-22.7485445166
 20
11.4238673163
 30
0.0
 10
-22.466580114
 20
10.0780345286
 30
0.0
 10
-21.6992789504
 20
8.1453733233
 30
0.0
 10
-20.6010860738
 20
6.3262521085
 30
0.0
 10
-19.192182568
 20
4.6511716712
 30
0.0
 10
-17.4965944426
 20
3.1460255085
 30
0.0
 10
-14.8477165234
 20
1.3667188247
 30
0.0
 10
-12.5829730058
 20
0.4035873037
 30
0.0
 10
-11.0059220144
 20
-0.0807097774
 30
0.0
  0
SPLINE
  5
3E3
100
AcDbEntity
  8
DRAFT
100
AcDbSpline
 62
7
  6
CONTINUOUS
 70
0
 71
3
 72
13
 73
9
 74
0
 42
0.0000001
 43
0.0000001
 44
0.0000000001
 40
0.0
 40
0.0
 40
0.0
 40
0.0
 40
0.2517035726
 40
0.3796469251
 40
0.5075765866
 40
0.6345045358
 40
0.7594890703
 40
1.0
 40
1.0
 40
1.0
 40
1.0
 10
5.7309964088
 20
17.9292393876
 30
0.0
 10
4.0633507921
 20
18.1839425297
 30
0.0
 10
1.4990510793
 20
18.3031018891
 30
0.0
 10
-1.8895260742
 20
17.9668267504
 30
0.0
 10
-4.4103536997
 20
17.4667044045
 30
0.0
 10
-6.8514647941
 20
16.7281609698
 30
0.0
 10
-9.9020857794
 20
15.460701326
 30
0.0
 10
-12.0161422017
 20
14.1725079669
 30
0.0
 10
-13.282651959
 20
13.1753148005
 30
0.0
  0
SPLINE
  5
3E4
100
AcDbEntity
  8
ASSI
100
AcDbSpline
 62
7
  6
CONTINUOUS
 70
0
 71
3
 72
9
 73
5
 74
0
 42
0.0000001
 43
0.0000001
 44
0.0000000001
 40
0.0
 40
0.0
 40
0.0
 40
0.0
 40
0.5144439518
 40
1.0
 40
1.0
 40
1.0
 40
1.0
 10
4.6958108853
 20
14.2644351251
 30
0.0
 10
4.6756266902
 20
14.2328299505
 30
0.0
 10
4.6451958713
 20
14.1648794474
 30
0.0
 10
4.6413187946
 20
14.0900437613
 30
0.0
 10
4.6464502444
 20
14.0550229835
 30
0.0
  0
SPLINE
  5
3E5
100
AcDbEntity
  8
RACCORDO
100
AcDbSpline
 62
7
  6
CONTINUOUS
 70
0
 71
3
 72
9
 73
5
 74
0
 42
0.0000001
 43
0.0000001
 44
0.0000000001
 40
0.0
 40
0.0
 40
0.0
 40
0.0
 40
0.5015301425
 40
1.0
 40
1.0
 40
1.0
 40
1.0
 10
12.3145564098
 20
5.5952326094
 30
0.0
 10
12.2496212927
 20
5.6735242504
 30
0.0
 10
12.1362706886
 20
5.8434012217
 30
0.0
 10
12.0667769118
 20
6.0383719666
 30
0.0
 10
12.0526007047
 20
6.1384684629
 30
0.0
  0
SPLINE
  5
3E6
100
AcDbEntity
  8
ASSI
100
AcDbSpline
 62
7
  6
CONTINUOUS
 70
0
 71
3
 72
11
 73
7
 74
0
 42
0.0000001
 43
0.0000001
 44
0.0000000001
 40
0.0
 40
0.0
 40
0.0
 40
0.0
 40
0.2281727707
 40
0.4670646304
 40
0.7237743532
 40
1.0
 40
1.0
 40
1.0
 40
1.0
 10
11.8802584687
 20
7.1739320922
 30
0.0
 10
11.8684659349
 20
7.2537769358
 30
0.0
 10
11.815598687
 20
7.4141744061
 30
0.0
 10
11.6593298531
 20
7.6218051411
 30
0.0
 10
11.4382581577
 20
7.7871862369
 30
0.0
 10
11.2629156687
 20
7.8613192869
 30
0.0
 10
11.1695120233
 20
7.8900025747
 30
0.0
  0
SPLINE
  5
3E7
100
AcDbEntity
  8
ASSI
100
AcDbSpline
 62
7
  6
CONTINUOUS
 70
0
 71
3
 72
11
 73
7
 74
0
 42
0.0000001
 43
0.0000001
 44
0.0000000001
 40
0.0
 40
0.0
 40
0.0
 40
0.0
 40
0.2284691779
 40
0.4688077117
 40
0.7259012139
 40
1.0
 40
1.0
 40
1.0
 40
1.0
 10
11.8735947473
 20
7.1715245881
 30
0.0
 10
11.8529446612
 20
7.2418601499
 30
0.0
 10
11.7879673715
 20
7.3803415218
 30
0.0
 10
11.6326244292
 20
7.5573365044
 30
0.0
 10
11.4271027853
 20
7.6991189036
 30
0.0
 10
11.2682610589
 20
7.7644773418
 30
0.0
 10
11.184191296
 20
7.7902942913
 30
0.0
  0
SPLINE
  5
3E8
100
AcDbEntity
  8
RACCORDO
100
AcDbSpline
 62
7
  6
CONTINUOUS
 70
0
 71
3
 72
10
 73
6
 74
0
 42
0.0000001
 43
0.0000001
 44
0.0000000001
 40
0.0
 40
0.0
 40
0.0
 40
0.0
 40
0.4976658366
 40
0.750516542
 40
1.0
 40
1.0
 40
1.0
 40
1.0
 10
15.3688035164
 20
10.0854717318
 30
0.0
 10
15.2766623576
 20
10.1733915223
 30
0.0
 10
15.1543846713
 20
10.3256991198
 30
0.0
 10
15.0407369467
 20
10.5557426551
 30
0.0
 10
15.0053969973
 20
10.6807019449
 30
0.0
 10
14.9961818548
 20
10.7438785377
 30
0.0
  0
SPLINE
  5
3E9
100
AcDbEntity
  8
RACCORDO
100
AcDbSpline
 62
7
  6
CONTINUOUS
 70
0
 71
3
 72
18
 73
14
 74
0
 42
0.0000001
 43
0.0000001
 44
0.0000000001
 40
0.0
 40
0.0
 40
0.0
 40
0.0
 40
0.1297940649
 40
0.2842206886
 40
0.4491620049
 40
0.6101579823
 40
0.7537948975
 40
0.8155604566
 40
0.8690655599
 40
0.9136461524
 40
0.9491881288
 40
0.9768264094
 40
1.0
 40
1.0
 40
1.0
 40
1.0
 10
-19.9521270938
 20
15.4197252111
 30
0.0
 10
-19.9587166874
 20
15.4676050225
 30
0.0
 10
-19.9640898332
 20
15.5736511464
 30
0.0
 10
-19.9567401473
 20
15.7408806296
 30
0.0
 10
-19.934452055
 20
15.9185770344
 30
0.0
 10
-19.8987831836
 20
16.08993378
 30
0.0
 10
-19.8585701798
 20
16.2206596684
 30
0.0
 10
-19.8208398972
 20
16.3094785846
 30
0.0
 10
-19.7928283849
 20
16.3621016422
 30
0.0
 10
-19.7643853754
 20
16.4031460246
 30
0.0
 10
-19.735949609
 20
16.4318195768
 30
0.0
 10
-19.7072209614
 20
16.4479248798
 30
0.0
 10
-19.6871696492
 20
16.4480858368
 30
0.0
 10
-19.678921167
 20
16.4455512916
 30
0.0
  0
SPLINE
  5
3EA
100
AcDbEntity
  8
RACCORDO
100
AcDbSpline
 62
7
  6
CONTINUOUS
 70
0
 71
3
 72
14
 73
10
 74
0
 42
0.0000001
 43
0.0000001
 44
0.0000000001
 40
0.0
 40
0.0
 40
0.0
 40
0.0
 40
0.2300809444
 40
0.5169059953
 40
0.6725359508
 40
0.8182835474
 40
0.9303977944
 40
0.9700179769
 40
1.0
 40
1.0
 40
1.0
 40
1.0
 10
-18.1160696337
 20
14.8558897527
 30
0.0
 10
-18.0345370355
 20
14.8958763828
 30
0.0
 10
-17.8611728751
 20
15.0053627844
 30
0.0
 10
-17.6560164402
 20
15.1748414405
 30
0.0
 10
-17.4938830859
 20
15.3415325526
 30
0.0
 10
-17.3923481754
 20
15.4694211468
 30
0.0
 10
-17.3324619805
 20
15.5718892733
 30
0.0
 10
-17.3118976222
 20
15.6409378315
 30
0.0
 10
-17.3104637285
 20
15.6688707215
 30
0.0
 10
-17.3122052155
 20
15.6805754252
 30
0.0
  0
SPLINE
  5
3EB
100
AcDbEntity
  8
RACCORDO
100
AcDbSpline
 62
7
  6
CONTINUOUS
 70
0
 71
3
 72
15
 73
11
 74
0
 42
0.0000001
 43
0.0000001
 44
0.0000000001
 40
0.0
 40
0.0
 40
0.0
 40
0.0
 40
0.1174676732
 40
0.2569137844
 40
0.4085703003
 40
0.5610673101
 40
0.7034284663
 40
0.7680061579
 40
0.8269747369
 40
1.0
 40
1.0
 40
1.0
 40
1.0
 10
-17.189393014
 20
20.0837784639
 30
0.0
 10
-17.1957109156
 20
20.1305254103
 30
0.0
 10
-17.1933001395
 20
20.2348488781
 30
0.0
 10
-17.1596140071
 20
20.3959618925
 30
0.0
 10
-17.0976282648
 20
20.5636515681
 30
0.0
 10
-17.0124193754
 20
20.72213304
 30
0.0
 10
-16.9257960572
 20
20.8382120973
 30
0.0
 10
-16.8497041357
 20
20.914112438
 30
0.0
 10
-16.7586441906
 20
20.98764325
 30
0.0
 10
-16.6564770914
 20
21.0318728657
 30
0.0
 10
-16.5900586905
 20
21.0114668924
 30
0.0
  0
SPLINE
  5
3EC
100
AcDbEntity
  8
RACCORDO
100
AcDbSpline
 62
7
  6
CONTINUOUS
 70
0
 71
3
 72
14
 73
10
 74
0
 42
0.0000001
 43
0.0000001
 44
0.0000000001
 40
0.0
 40
0.0
 40
0.0
 40
0.0
 40
0.2295115766
 40
0.5161452055
 40
0.6718724507
 40
0.8177866561
 40
0.9300903054
 40
0.9698434481
 40
1.0
 40
1.0
 40
1.0
 40
1.0
 10
-15.1714779959
 20
19.4640963113
 30
0.0
 10
-15.0899870422
 20
19.5038170643
 30
0.0
 10
-14.9166555196
 20
19.613150471
 30
0.0
 10
-14.7117341081
 20
19.7828509214
 30
0.0
 10
-14.5498605076
 20
19.9500950576
 30
0.0
 10
-14.4485769538
 20
20.0785825244
 30
0.0
 10
-14.3890394251
 20
20.1816001274
 30
0.0
 10
-14.3688090447
 20
20.2510157852
 30
0.0
 10
-14.3675316184
 20
20.2790971967
 30
0.0
 10
-14.3693346142
 20
20.2908716517
 30
0.0
  0
SPLINE
  5
3ED
100
AcDbEntity
  8
RACCORDO
100
AcDbSpline
 62
250
  6
CONTINUOUS
 70
0
 71
3
 72
14
 73
10
 74
0
 42
0.0000001
 43
0.0000001
 44
0.0000000001
 40
0.0
 40
0.0
 40
0.0
 40
0.0
 40
0.2756094118
 40
0.4063779049
 40
0.5322906091
 40
0.6537360644
 40
0.7714377787
 40
0.8864307921
 40
1.0
 40
1.0
 40
1.0
 40
1.0
 10
7.2905407299
 20
28.5614444375
 30
0.0
 10
8.6951365497
 20
28.1301066689
 30
0.0
 10
10.7135564265
 20
27.2761699264
 30
0.0
 10
13.08365755
 20
25.7047154322
 30
0.0
 10
14.6083437116
 20
24.3759533346
 30
0.0
 10
15.8844118827
 20
22.8972989716
 30
0.0
 10
16.8910384055
 20
21.2907285043
 30
0.0
 10
17.6105450811
 20
19.5820787718
 30
0.0
 10
17.8910360039
 20
18.3892559531
 30
0.0
 10
17.9792417421
 20
17.790253299
 30
0.0
  0
SPLINE
  5
3EE
100
AcDbEntity
  8
RACCORDO
100
AcDbSpline
 62
250
  6
CONTINUOUS
 70
0
 71
3
 72
29
 73
25
 74
0
 42
0.0000001
 43
0.0000001
 44
0.0000000001
 40
0.0
 40
0.0
 40
0.0
 40
0.0
 40
0.0649503771
 40
0.1264027436
 40
0.1558409613
 40
0.1844565528
 40
0.2123403714
 40
0.2396187185
 40
0.2664499171
 40
0.2930176019
 40
0.3195212637
 40
0.3461643643
 40
0.3731421962
 40
0.4006307887
 40
0.4287781513
 40
0.4576986332
 40
0.5180548406
 40
0.5819751686
 40
0.6491276525
 40
0.7187741257
 40
0.7898947835
 40
0.8256662066
 40
0.8613608946
 40
1.0
 40
1.0
 40
1.0
 40
1.0
 10
7.4635998546
 20
29.2414165237
 30
0.0
 10
8.5903600069
 20
28.8953993969
 30
0.0
 10
10.7342333301
 20
28.0441652433
 30
0.0
 10
13.1458863878
 20
26.5305584973
 30
0.0
 10
14.7840406315
 20
25.1036811626
 30
0.0
 10
15.8438494573
 20
23.9550023461
 30
0.0
 10
16.7414548909
 20
22.7235147573
 30
0.0
 10
17.4680381674
 20
21.420635569
 30
0.0
 10
18.0162369579
 20
20.0587290326
 30
0.0
 10
18.3803528018
 20
18.6508855206
 30
0.0
 10
18.5567264416
 20
17.210864658
 30
0.0
 10
18.5437000722
 20
15.7527646042
 30
0.0
 10
18.3415037879
 20
14.2907968727
 30
0.0
 10
17.9524958327
 20
12.8390832068
 30
0.0
 10
17.3807393504
 20
11.4112801314
 30
0.0
 10
16.3687161014
 20
9.5315979626
 30
0.0
 10
14.6598768615
 20
7.3120931686
 30
0.0
 10
12.0472598089
 20
4.9956440764
 30
0.0
 10
8.9400844122
 20
3.0639483754
 30
0.0
 10
5.4533091722
 20
1.5857248428
 30
0.0
 10
2.3413873948
 20
0.7759016205
 30
0.0
 10
-0.2205888675
 20
0.3955351773
 30
0.0
 10
-4.0219507463
 20
0.1067481032
 30
0.0
 10
-7.2372373764
 20
0.4287281767
 30
0.0
 10
-9.665822521
 20
1.0860372547
 30
0.0
  0
SPLINE
  5
3EF
100
AcDbEntity
  8
RACCORDO
100
AcDbSpline
 62
250
  6
CONTINUOUS
 70
0
 71
3
 72
31
 73
27
 74
0
 42
0.0000001
 43
0.0000001
 44
0.0000000001
 40
0.0
 40
0.0
 40
0.0
 40
0.0
 40
0.0328847276
 40
0.0649251224
 40
0.0960751826
 40
0.1263199277
 40
0.1556795312
 40
0.1842116195
 40
0.2120119193
 40
0.2392127322
 40
0.2659791737
 40
0.2925017423
 40
0.3189859858
 40
0.3456399337
 40
0.3726614882
 40
0.4002270381
 40
0.4284824945
 40
0.4575380832
 40
0.5182218138
 40
0.5824970162
 40
0.6499667423
 40
0.7198282156
 40
0.7910049912
 40
0.8267316671
 40
0.8623279262
 40
1.0
 40
1.0
 40
1.0
 40
1.0
 10
-10.3848610497
 20
1.2936226502
 30
0.0
 10
-10.9632365242
 20
1.4712361551
 30
0.0
 10
-12.0913079822
 20
1.8693140787
 30
0.0
 10
-13.7022793641
 20
2.6024432172
 30
0.0
 10
-15.1965627119
 20
3.4576722158
 30
0.0
 10
-16.5596216987
 20
4.4270435936
 30
0.0
 10
-17.7782581799
 20
5.5015851874
 30
0.0
 10
-18.84047446
 20
6.6712869289
 30
0.0
 10
-19.7356174034
 20
7.9251524344
 30
0.0
 10
-20.4545400643
 20
9.2511816688
 30
0.0
 10
-20.9897780334
 20
10.6364511278
 30
0.0
 10
-21.3356209572
 20
12.0672641566
 30
0.0
 10
-21.4884622417
 20
13.5292606099
 30
0.0
 10
-21.4468935848
 20
15.0077337365
 30
0.0
 10
-21.2115022879
 20
16.4879175628
 30
0.0
 10
-20.7849945135
 20
17.9551623133
 30
0.0
 10
-20.1719474566
 20
19.3953351741
 30
0.0
 10
-19.0995000385
 20
21.2873979384
 30
0.0
 10
-17.3086511736
 20
23.5109156485
 30
0.0
 10
-14.5955105216
 20
25.813333453
 30
0.0
 10
-11.3894542774
 20
27.711294542
 30
0.0
 10
-7.8120156871
 20
29.1356094719
 30
0.0
 10
-4.6347003899
 20
29.884768866
 30
0.0
 10
-2.0301519639
 20
30.2068209122
 30
0.0
 10
1.8094115705
 20
30.4005714823
 30
0.0
 10
5.0422280863
 20
29.9849963356
 30
0.0
 10
7.4635998546
 20
29.2414165237
 30
0.0
  0
SPLINE
  5
3F0
100
AcDbEntity
  8
RACCORDO
100
AcDbSpline
 62
250
  6
CONTINUOUS
 70
0
 71
3
 72
21
 73
17
 74
0
 42
0.0000001
 43
0.0000001
 44
0.0000000001
 40
0.0
 40
0.0
 40
0.0
 40
0.0
 40
0.1327427197
 40
0.201283739
 40
0.2705256383
 40
0.4086852311
 40
0.4766571161
 40
0.543148147
 40
0.6077362405
 40
0.6701073729
 40
0.7300840864
 40
0.7876512522
 40
0.8429773994
 40
0.8964245823
 40
0.9485369581
 40
1.0
 40
1.0
 40
1.0
 40
1.0
 10
-11.0059220144
 20
-0.0807097774
 30
0.0
 10
-9.2287058615
 20
-0.6264756403
 30
0.0
 10
-6.426930934
 20
-1.1386583331
 30
0.0
 10
-2.6353885671
 20
-1.2424797081
 30
0.0
 10
1.2243445565
 20
-0.9588326257
 30
0.0
 10
5.0165421881
 20
-0.1021535322
 30
0.0
 10
8.573528917
 20
1.3006118759
 30
0.0
 10
11.0492108559
 20
2.5948847875
 30
0.0
 10
13.300251047
 20
4.1133097031
 30
0.0
 10
15.2864060488
 20
5.8293607391
 30
0.0
 10
16.9713894766
 20
7.7129986729
 30
0.0
 10
18.3239546716
 20
9.7313740988
 30
0.0
 10
19.3180837502
 20
11.8489230166
 30
0.0
 10
19.9334089958
 20
14.0279072415
 30
0.0
 10
20.15632302
 20
16.2269441563
 30
0.0
 10
20.0387249788
 20
17.6823675866
 30
0.0
 10
19.9152664992
 20
18.3924810419
 30
0.0
  0
SPLINE
  5
3F1
100
AcDbEntity
  8
RACCORDO
100
AcDbSpline
 62
250
  6
CONTINUOUS
 70
0
 71
3
 72
9
 73
5
 74
0
 42
0.0000001
 43
0.0000001
 44
0.0000000001
 40
0.0
 40
0.0
 40
0.0
 40
0.0
 40
0.2475883838
 40
1.0
 40
1.0
 40
1.0
 40
1.0
 10
-10.8320426384
 20
0.5934088372
 30
0.0
 10
-10.6456803934
 20
0.5361787972
 30
0.0
 10
-9.8900617219
 20
0.3145855216
 30
0.0
 10
-9.1233717519
 20
0.1309392609
 30
0.0
 10
-8.5426630292
 20
0.0135712218
 30
0.0
  0
SPLINE
  5
3F2
100
AcDbEntity
  8
RACCORDO
100
AcDbSpline
 62
250
  6
CONTINUOUS
 70
0
 71
3
 72
9
 73
5
 74
0
 42
0.0000001
 43
0.0000001
 44
0.0000000001
 40
0.0
 40
0.0
 40
0.0
 40
0.0
 40
0.2478789375
 40
1.0
 40
1.0
 40
1.0
 40
1.0
 10
-8.5112901226
 20
0.0072513797
 30
0.0
 10
-8.2893735762
 20
-0.0373036912
 30
0.0
 10
-7.3916964117
 20
-0.2048441306
 30
0.0
 10
-6.485042103
 20
-0.3239330417
 30
0.0
 10
-5.8011631181
 20
-0.3870184903
 30
0.0
  0
SPLINE
  5
3F3
100
AcDbEntity
  8
RACCORDO
100
AcDbSpline
 62
250
  6
CONTINUOUS
 70
0
 71
3
 72
9
 73
5
 74
0
 42
0.0000001
 43
0.0000001
 44
0.0000000001
 40
0.0
 40
0.0
 40
0.0
 40
0.0
 40
0.5007054051
 40
1.0
 40
1.0
 40
1.0
 40
1.0
 10
-3.4973757865
 20
-0.5006875502
 30
0.0
 10
-1.8542936588
 20
-0.5124500216
 30
0.0
 10
1.4350024257
 20
-0.2447371101
 30
0.0
 10
4.6300146634
 20
0.5830267716
 30
0.0
 10
6.1729257523
 20
1.1344699337
 30
0.0
  0
SPLINE
  5
3F4
100
AcDbEntity
  8
RACCORDO
100
AcDbSpline
 62
250
  6
CONTINUOUS
 70
0
 71
3
 72
21
 73
17
 74
0
 42
0.0000001
 43
0.0000001
 44
0.0000000001
 40
0.0
 40
0.0
 40
0.0
 40
0.0
 40
0.1436935767
 40
0.2124025028
 40
0.2784613625
 40
0.3417415737
 40
0.4023399505
 40
0.4606011487
 40
0.5171153362
 40
0.5726765208
 40
0.6281974334
 40
0.6845950127
 40
0.7426738682
 40
0.8030396589
 40
0.8660574709
 40
1.0
 40
1.0
 40
1.0
 40
1.0
 10
6.3273748296
 20
1.1901975244
 30
0.0
 10
8.1503675555
 20
1.854198067
 30
0.0
 10
10.7561899347
 20
3.1309441929
 30
0.0
 10
13.779039476
 20
5.3794419003
 30
0.0
 10
15.7047281885
 20
7.2472724847
 30
0.0
 10
17.2796329051
 20
9.283078044
 30
0.0
 10
18.4705674994
 20
11.4470968801
 30
0.0
 10
19.2503120569
 20
13.6958844866
 30
0.0
 10
19.5994501096
 20
15.9827822723
 30
0.0
 10
19.5077970531
 20
18.2581058646
 30
0.0
 10
18.9763737814
 20
20.4708059424
 30
0.0
 10
18.0179957075
 20
22.5714338321
 30
0.0
 10
16.6562427127
 20
24.5147890391
 30
0.0
 10
14.9220798058
 20
26.2616412665
 30
0.0
 10
12.1118719417
 20
28.3225315537
 30
0.0
 10
9.6395957757
 20
29.4107282038
 30
0.0
 10
7.9107814433
 20
29.9416303367
 30
0.0
  0
SPLINE
  5
3F5
100
AcDbEntity
  8
RACCORDO
100
AcDbSpline
 62
250
  6
CONTINUOUS
 70
0
 71
3
 72
31
 73
27
 74
0
 42
0.0000001
 43
0.0000001
 44
0.0000000001
 40
0.0
 40
0.0
 40
0.0
 40
0.0
 40
0.1376733359
 40
0.173269523
 40
0.208995996
 40
0.2801722385
 40
0.3500333552
 40
0.4175030868
 40
0.4817783244
 40
0.5424618467
 40
0.5715174788
 40
0.5997730122
 40
0.6273384445
 40
0.6543599614
 40
0.6810139593
 40
0.707498231
 40
0.7340207149
 40
0.7607869385
 40
0.7879875528
 40
0.8157876702
 40
0.8443195627
 40
0.8736790483
 40
0.9039238098
 40
0.9350740085
 40
0.9671147813
 40
1.0
 40
1.0
 40
1.0
 40
1.0
 10
7.9107814433
 20
29.9416303367
 30
0.0
 10
5.3680545744
 20
30.7224771242
 30
0.0
 10
1.9732202488
 20
31.1588744568
 30
0.0
 10
-2.0587573018
 20
30.9553999191
 30
0.0
 10
-4.7937989705
 20
30.6172017907
 30
0.0
 10
-8.1303099254
 20
29.8305295992
 30
0.0
 10
-11.8869855004
 20
28.3348229588
 30
0.0
 10
-15.253677249
 20
26.3417542418
 30
0.0
 10
-18.10280725
 20
23.9240047358
 30
0.0
 10
-19.9833299943
 20
21.5890235773
 30
0.0
 10
-21.1095522046
 20
19.6021778398
 30
0.0
 10
-21.7533428847
 20
18.0898470159
 30
0.0
 10
-22.2011700639
 20
16.5490660917
 30
0.0
 10
-22.448362456
 20
14.9947193646
 30
0.0
 10
-22.4920687491
 20
13.442160632
 30
0.0
 10
-22.3315254187
 20
11.9069072427
 30
0.0
 10
-21.9683354584
 20
10.4044113774
 30
0.0
 10
-21.4063255998
 20
8.949720049
 30
0.0
 10
-20.6513818916
 20
7.5572538536
 30
0.0
 10
-19.7113741822
 20
6.2405808281
 30
0.0
 10
-18.5959471231
 20
5.0122667941
 30
0.0
 10
-17.3162559758
 20
3.8838785533
 30
0.0
 10
-15.8848990764
 20
2.8659276259
 30
0.0
 10
-14.3157338132
 20
1.9678326062
 30
0.0
 10
-12.6240221192
 20
1.1979565056
 30
0.0
 10
-11.4394088261
 20
0.7799251093
 30
0.0
 10
-10.8320426384
 20
0.5934088372
 30
0.0
  0
SPLINE
  5
3F6
100
AcDbEntity
  8
RACCORDO
100
AcDbSpline
 62
250
  6
CONTINUOUS
 70
0
 71
3
 72
12
 73
8
 74
0
 42
0.0000001
 43
0.0000001
 44
0.0000000001
 40
0.0
 40
0.0
 40
0.0
 40
0.0
 40
0.2303982716
 40
0.4782682844
 40
0.607205253
 40
0.7379759579
 40
1.0
 40
1.0
 40
1.0
 40
1.0
 10
5.8868507474
 20
2.021494388
 30
0.0
 10
6.050090056
 20
2.2413290239
 30
0.0
 10
6.4605222017
 20
2.6465276209
 30
0.0
 10
7.0890071787
 20
3.0140422407
 30
0.0
 10
7.6532592257
 20
3.2302725159
 30
0.0
 10
8.2534764918
 20
3.3891259701
 30
0.0
 10
8.7224257984
 20
3.4369147911
 30
0.0
 10
9.0338211948
 20
3.4352697082
 30
0.0
  0
SPLINE
  5
3F7
100
AcDbEntity
  8
RACCORDO
100
AcDbSpline
 62
250
  6
CONTINUOUS
 70
0
 71
3
 72
21
 73
17
 74
0
 42
0.0000001
 43
0.0000001
 44
0.0000000001
 40
0.0
 40
0.0
 40
0.0
 40
0.0
 40
0.1245850963
 40
0.192149032
 40
0.2621139252
 40
0.4044263142
 40
0.5423810421
 40
0.6073797816
 40
0.6385909382
 40
0.6688930025
 40
0.7267953453
 40
0.7817770959
 40
0.8350309366
 40
0.8881285289
 40
0.9426998347
 40
1.0
 40
1.0
 40
1.0
 40
1.0
 10
-2.1874015951
 20
4.3205212055
 30
0.0
 10
-2.0188886834
 20
4.5843850843
 30
0.0
 10
-1.6649818662
 20
4.9347836852
 30
0.0
 10
-1.0968911597
 20
5.2704954943
 30
0.0
 10
-0.4410559219
 20
5.5318865428
 30
0.0
 10
0.4403573128
 20
5.6734819815
 30
0.0
 10
1.3156323952
 20
5.561092586
 30
0.0
 10
1.8651436269
 20
5.3421795465
 30
0.0
 10
2.1414665197
 20
5.1839561391
 30
0.0
 10
2.3863282492
 20
5.0098160333
 30
0.0
 10
2.6462741002
 20
4.7564865703
 30
0.0
 10
2.8714090278
 20
4.3998810683
 30
0.0
 10
2.99456964
 20
4.0086001241
 30
0.0
 10
3.0094675912
 20
3.5996214391
 30
0.0
 10
2.9160720067
 20
3.191355294
 30
0.0
 10
2.788784901
 20
2.9375415732
 30
0.0
 10
2.7112811065
 20
2.816183206
 30
0.0
  0
SPLINE
  5
3F8
100
AcDbEntity
  8
RACCORDO
100
AcDbSpline
 62
250
  6
CONTINUOUS
 70
0
 71
3
 72
17
 73
13
 74
0
 42
0.0000001
 43
0.0000001
 44
0.0000000001
 40
0.0
 40
0.0
 40
0.0
 40
0.0
 40
0.1203237201
 40
0.2513228515
 40
0.389034933
 40
0.5274663257
 40
0.6604284828
 40
0.78332307
 40
0.840664407
 40
0.8954353894
 40
0.9482488709
 40
1.0
 40
1.0
 40
1.0
 40
1.0
 10
-1.6931301463
 20
3.8514004958
 30
0.0
 10
-1.5813050598
 20
4.0265004382
 30
0.0
 10
-1.2797139189
 20
4.3505633312
 30
0.0
 10
-0.6958993391
 20
4.6969445732
 30
0.0
 10
-0.0156664971
 20
4.899639155
 30
0.0
 10
0.6962394742
 20
4.9393390643
 30
0.0
 10
1.3722425027
 20
4.8124893428
 30
0.0
 10
1.8651948526
 20
4.5682299329
 30
0.0
 10
2.1731711946
 20
4.3010526257
 30
0.0
 10
2.3515903721
 20
4.0767704556
 30
0.0
 10
2.4772579961
 20
3.8299000519
 30
0.0
 10
2.5235093246
 20
3.6536439612
 30
0.0
 10
2.5366319035
 20
3.5652547218
 30
0.0
  0
SPLINE
  5
3F9
100
AcDbEntity
  8
RACCORDO
100
AcDbSpline
 62
250
  6
CONTINUOUS
 70
0
 71
3
 72
21
 73
17
 74
0
 42
0.0000001
 43
0.0000001
 44
0.0000000001
 40
0.0
 40
0.0
 40
0.0
 40
0.0
 40
0.1245850963
 40
0.192149032
 40
0.2621139252
 40
0.4044263142
 40
0.5423810421
 40
0.6073797816
 40
0.6385909382
 40
0.6688930025
 40
0.7267953453
 40
0.7817770959
 40
0.8350309366
 40
0.8881285289
 40
0.9426998347
 40
1.0
 40
1.0
 40
1.0
 40
1.0
 10
2.7112811065
 20
2.816183206
 30
0.0
 10
2.5427681948
 20
2.5523193272
 30
0.0
 10
2.1888613776
 20
2.2019207263
 30
0.0
 10
1.6207706711
 20
1.8662089172
 30
0.0
 10
0.9649354333
 20
1.6048178687
 30
0.0
 10
0.0835221986
 20
1.4632224301
 30
0.0
 10
-0.7917528838
 20
1.5756118255
 30
0.0
 10
-1.3412641155
 20
1.794524865
 30
0.0
 10
-1.6175870083
 20
1.9527482724
 30
0.0
 10
-1.8624487378
 20
2.1268883782
 30
0.0
 10
-2.1223945888
 20
2.3802178412
 30
0.0
 10
-2.3475295164
 20
2.7368233432
 30
0.0
 10
-2.4706901286
 20
3.1281042875
 30
0.0
 10
-2.4855880798
 20
3.5370829724
 30
0.0
 10
-2.3921924953
 20
3.9453491176
 30
0.0
 10
-2.2649053896
 20
4.1991628383
 30
0.0
 10
-2.1874015951
 20
4.3205212055
 30
0.0
  0
SPLINE
  5
3FA
100
AcDbEntity
  8
RACCORDO
100
AcDbSpline
 62
250
  6
CONTINUOUS
 70
0
 71
3
 72
15
 73
11
 74
0
 42
0.0000001
 43
0.0000001
 44
0.0000000001
 40
0.0
 40
0.0
 40
0.0
 40
0.0
 40
0.1146708372
 40
0.2373310535
 40
0.3663505442
 40
0.4989149292
 40
0.6316506963
 40
0.7611536987
 40
0.8845387819
 40
1.0
 40
1.0
 40
1.0
 40
1.0
 10
-5.2928711606
 20
5.2143290784
 30
0.0
 10
-5.4202983299
 20
5.0248554803
 30
0.0
 10
-5.7374717941
 20
4.6671496546
 30
0.0
 10
-6.3343290743
 20
4.2392556955
 30
0.0
 10
-7.0354260367
 20
3.9214869397
 30
0.0
 10
-7.8015296774
 20
3.7313305249
 30
0.0
 10
-8.5900759234
 20
3.6788284374
 30
0.0
 10
-9.3574454756
 20
3.7672995166
 30
0.0
 10
-10.0606417244
 20
3.99217211
 30
0.0
 10
-10.475727551
 20
4.235146076
 30
0.0
 10
-10.6571754834
 20
4.3763402157
 30
0.0
  0
SPLINE
  5
3FB
100
AcDbEntity
  8
RACCORDO
100
AcDbSpline
 62
250
  6
CONTINUOUS
 70
0
 71
3
 72
15
 73
11
 74
0
 42
0.0000001
 43
0.0000001
 44
0.0000000001
 40
0.0
 40
0.0
 40
0.0
 40
0.0
 40
0.1316901518
 40
0.258175973
 40
0.3807309361
 40
0.5011026875
 40
0.6213114756
 40
0.7433888898
 40
0.8692183637
 40
1.0
 40
1.0
 40
1.0
 40
1.0
 10
-10.7061200445
 20
4.4153845839
 30
0.0
 10
-10.8067883422
 20
4.4977128643
 30
0.0
 10
-10.9922450476
 20
4.6745877743
 30
0.0
 10
-11.2174369644
 20
4.9780400202
 30
0.0
 10
-11.3785786472
 20
5.3077751345
 30
0.0
 10
-11.4715825178
 20
5.6565057697
 30
0.0
 10
-11.4941346684
 20
6.0162543027
 30
0.0
 10
-11.445873867
 20
6.3788120686
 30
0.0
 10
-11.3282118948
 20
6.735820689
 30
0.0
 10
-11.2081438579
 20
6.9605109837
 30
0.0
 10
-11.1386308954
 20
7.0693570045
 30
0.0
  0
SPLINE
  5
3FC
100
AcDbEntity
  8
RACCORDO
100
AcDbSpline
 62
250
  6
CONTINUOUS
 70
0
 71
3
 72
23
 73
19
 74
0
 42
0.0000001
 43
0.0000001
 44
0.0000000001
 40
0.0
 40
0.0
 40
0.0
 40
0.0
 40
0.0607127378
 40
0.1250243121
 40
0.192524519
 40
0.2624207413
 40
0.4045943308
 40
0.4748183624
 40
0.5428278647
 40
0.6077625751
 40
0.6389442307
 40
0.6692158152
 40
0.7270618235
 40
0.7819901768
 40
0.8351916398
 40
0.8882396285
 40
0.9427524979
 40
1.0
 40
1.0
 40
1.0
 40
1.0
 10
-11.1386308954
 20
7.0693570045
 30
0.0
 10
-11.0399907001
 20
7.2238115461
 30
0.0
 10
-10.8013628174
 20
7.5201256111
 30
0.0
 10
-10.3561075972
 20
7.8979928709
 30
0.0
 10
-9.8297188578
 20
8.2096285875
 30
0.0
 10
-9.0434707171
 20
8.5228269156
 30
0.0
 10
-8.1877592311
 20
8.6600992276
 30
0.0
 10
-7.3404197851
 20
8.6098002925
 30
0.0
 10
-6.738378096
 20
8.4797665667
 30
0.0
 10
-6.2755730877
 20
8.2953067074
 30
0.0
 10
-5.9439798368
 20
8.105502086
 30
0.0
 10
-5.6501633831
 20
7.8964938395
 30
0.0
 10
-5.3382080181
 20
7.5925262857
 30
0.0
 10
-5.0680559513
 20
7.16458947
 30
0.0
 10
-4.920230999
 20
6.6950523183
 30
0.0
 10
-4.9023975893
 20
6.2042834925
 30
0.0
 10
-5.014443827
 20
5.7143581817
 30
0.0
 10
-5.1672014386
 20
5.4097903107
 30
0.0
 10
-5.2602116534
 20
5.2641514051
 30
0.0
  0
SPLINE
  5
3FD
100
AcDbEntity
  8
RACCORDO
100
AcDbSpline
 62
250
  6
CONTINUOUS
 70
0
 71
3
 72
19
 73
15
 74
0
 42
0.0000001
 43
0.0000001
 44
0.0000000001
 40
0.0
 40
0.0
 40
0.0
 40
0.0
 40
0.1202526356
 40
0.1847123375
 40
0.251475574
 40
0.3891105478
 40
0.527457333
 40
0.6603283979
 40
0.7233275373
 40
0.7834848718
 40
0.8407810298
 40
0.8955082679
 40
0.9482825813
 40
1.0
 40
1.0
 40
1.0
 40
1.0
 10
-10.6443594466
 20
6.6002362948
 30
0.0
 10
-10.5051503377
 20
6.8182151732
 30
0.0
 10
-10.2285670977
 20
7.1154071617
 30
0.0
 10
-9.7846717111
 20
7.425827409
 30
0.0
 10
-9.269746118
 20
7.6925150458
 30
0.0
 10
-8.5556318866
 20
7.9048427466
 30
0.0
 10
-7.6701077223
 20
7.9542629398
 30
0.0
 10
-6.9548734165
 20
7.8193132845
 30
0.0
 10
-6.4453925654
 20
7.6058534621
 30
0.0
 10
-6.1127309793
 20
7.4027010248
 30
0.0
 10
-5.8317467111
 20
7.1585889088
 30
0.0
 10
-5.6099867501
 20
6.8792202138
 30
0.0
 10
-5.4538925584
 20
6.5717686831
 30
0.0
 10
-5.3965540431
 20
6.3523094823
 30
0.0
 10
-5.3803642778
 20
6.2422604507
 30
0.0
  0
SPLINE
  5
3FE
100
AcDbEntity
  8
0
100
AcDbSpline
 62
7
  6
CONTINUOUS
 70
0
 71
3
 72
15
 73
11
 74
0
 42
0.0000001
 43
0.0000001
 44
0.0000000001
 40
0.0
 40
0.0
 40
0.0
 40
0.0
 40
0.084404135
 40
0.188075928
 40
0.3089151249
 40
0.4427443169
 40
0.5845274522
 40
0.7285236055
 40
0.8688668548
 40
1.0
 40
1.0
 40
1.0
 40
1.0
 10
6.9710325279
 20
20.659602777
 30
0.0
 10
6.9219196812
 20
20.7674460747
 30
0.0
 10
6.8514686981
 20
21.0250315531
 30
0.0
 10
6.8118767535
 20
21.4579671509
 30
0.0
 10
6.8300904916
 20
21.9619098457
 30
0.0
 10
6.9041706512
 20
22.5142585452
 30
0.0
 10
7.0320965539
 20
23.0899804524
 30
0.0
 10
7.2066280783
 20
23.6628555899
 30
0.0
 10
7.4205867019
 20
24.2061273152
 30
0.0
 10
7.5898503753
 20
24.5483682309
 30
0.0
 10
7.6802618441
 20
24.7087448232
 30
0.0
  0
SPLINE
  5
3FF
100
AcDbEntity
  8
0
100
AcDbSpline
 62
7
  6
CONTINUOUS
 70
0
 71
3
 72
11
 73
7
 74
0
 42
0.0000001
 43
0.0000001
 44
0.0000000001
 40
0.0
 40
0.0
 40
0.0
 40
0.0
 40
0.2122689933
 40
0.4418974089
 40
0.7017674489
 40
1.0
 40
1.0
 40
1.0
 40
1.0
 10
-6.9007994207
 20
0.9450770471
 30
0.0
 10
-6.9408102204
 20
0.9573100364
 30
0.0
 10
-7.0288677597
 20
0.9688407912
 30
0.0
 10
-7.1667638272
 20
0.9454381458
 30
0.0
 10
-7.3106258554
 20
0.8842347646
 30
0.0
 10
-7.4028965659
 20
0.8234016948
 30
0.0
 10
-7.4498330058
 20
0.7880124792
 30
0.0
  0
SPLINE
  5
400
100
AcDbEntity
  8
0
100
AcDbSpline
 62
250
  6
CONTINUOUS
 70
0
 71
3
 72
9
 73
5
 74
0
 42
0.0000001
 43
0.0000001
 44
0.0000000001
 40
0.0
 40
0.0
 40
0.0
 40
0.0
 40
0.2641900822
 40
1.0
 40
1.0
 40
1.0
 40
1.0
 10
-6.9400114966
 20
0.7052788446
 30
0.0
 10
-6.9456635887
 20
0.7191123916
 30
0.0
 10
-6.9681068416
 20
0.7710269667
 30
0.0
 10
-6.9949789608
 20
0.8211230854
 30
0.0
 10
-7.0177584074
 20
0.8559563287
 30
0.0
  0
SPLINE
  5
401
100
AcDbEntity
  8
0
100
AcDbSpline
 62
250
  6
CONTINUOUS
 70
0
 71
3
 72
9
 73
5
 74
0
 42
0.0000001
 43
0.0000001
 44
0.0000000001
 40
0.0
 40
0.0
 40
0.0
 40
0.0
 40
0.2617301922
 40
1.0
 40
1.0
 40
1.0
 40
1.0
 10
-7.0177584074
 20
0.8559563287
 30
0.0
 10
-7.0239508964
 20
0.8654255874
 30
0.0
 10
-7.0484647125
 20
0.9010287611
 30
0.0
 10
-7.0765945322
 20
0.9342233913
 30
0.0
 10
-7.0994572198
 20
0.9564908638
 30
0.0
  0
SPLINE
  5
402
100
AcDbEntity
  8
0
100
AcDbSpline
 62
7
  6
CONTINUOUS
 70
0
 71
3
 72
10
 73
6
 74
0
 42
0.0000001
 43
0.0000001
 44
0.0000000001
 40
0.0
 40
0.0
 40
0.0
 40
0.0
 40
0.5392555566
 40
0.7753572908
 40
1.0
 40
1.0
 40
1.0
 40
1.0
 10
-6.596599382
 20
0.6552305482
 30
0.0
 10
-6.6317795513
 20
0.724108619
 30
0.0
 10
-6.6953614497
 20
0.8189439401
 30
0.0
 10
-6.8090306388
 20
0.908087235
 30
0.0
 10
-6.8699881394
 20
0.9356567386
 30
0.0
 10
-6.9007994207
 20
0.9450770471
 30
0.0
  0
SPLINE
  5
403
100
AcDbEntity
  8
0
100
AcDbSpline
 62
250
  6
CONTINUOUS
 70
0
 71
3
 72
9
 73
5
 74
0
 42
0.0000001
 43
0.0000001
 44
0.0000000001
 40
0.0
 40
0.0
 40
0.0
 40
0.0
 40
0.2590666811
 40
1.0
 40
1.0
 40
1.0
 40
1.0
 10
-7.2402619549
 20
0.7546048423
 30
0.0
 10
-7.2433699371
 20
0.766723591
 30
0.0
 10
-7.2558742166
 20
0.8133688067
 30
0.0
 10
-7.2704750247
 20
0.859464895
 30
0.0
 10
-7.2826764072
 20
0.8931017189
 30
0.0
  0
ELLIPSE
  5
404
100
AcDbEntity
  8
COPY-PUBBLISH
100
AcDbEllipse
 62
7
  6
CONTINUOUS
 10
-7.7124760647
 20
3.7969680848
 30
0.0
 11
2.5233619886
 21
-0.246342707
 31
0.0
 40
0.3948041772
 41
2.6505445321
 42
2.8626857935
  0
ELLIPSE
  5
405
100
AcDbEntity
  8
RACCORDO
100
AcDbEllipse
 62
7
  6
CONTINUOUS
 10
-23.0349287664
 20
161.7935090375
 30
0.0
 11
-101.3665928968
 21
760.0510653459
 31
0.0
 40
0.0216437722
 41
-4.5214814693
 42
-4.5105500703
  0
ENDSEC
  0
SECTION
  2
OBJECTS
  0
DICTIONARY
  5
C
100
AcDbDictionary
280
0
281
1
  3
ACAD_GROUP
350
D
  3
ACAD_MLINESTYLE
350
17
  3
ACAD_LAYOUT
350
1A
  3
ACAD_PLOTSETTINGS
350
19
  3
ACAD_PLOTSTYLENAME
350
E
  0
DICTIONARY
  5
D
102
{ACAD_REACTORS
330
C
102
}
100
AcDbDictionary
280
0
281
1
  0
ACDBDICTIONARYWDFLT
  5
E
102
{ACAD_REACTORS
330
C
102
}
100
AcDbDictionary
281
1
  3
Normal
350
F
100
AcDbDictionaryWithDefault
340
F
  0
DICTIONARY
  5
17
102
{ACAD_REACTORS
330
C
102
}
100
AcDbDictionary
280
0
281
1
  3
Standard
350
18
  0
DICTIONARY
  5
19
102
{ACAD_REACTORS
330
C
102
}
100
AcDbDictionary
281
1
  0
DICTIONARY
  5
1A
102
{ACAD_REACTORS
330
C
102
}
100
AcDbDictionary
281
1
  3
Model
350
406
  3
Layout1
350
407
  0
ACDBPLACEHOLDER
  5
F
102
{ACAD_REACTORS
330
E
102
}
  0
MLINESTYLE
  5
18
102
{ACAD_REACTORS
330
17
102
}
100
AcDbMlineStyle
  2
STANDARD
 70
0
  3

 62
256
 51
90.0
 52
90.0
 71
2
 49
0.5
 62
256
  6
BYLAYER
 49
-0.5
 62
256
  6
BYLAYER
  0
LAYOUT
  5
406
102
{ACAD_REACTORS
330
1A
102
}
100
AcDbPlotSettings
  1

  2
none_device
  4
ISO_A4_(297.00_x_210.00_MM)
  6

 40
0.0
 41
0.0
 42
0.0
 43
0.0
 44
297.0
 45
210.0
 46
0.0
 47
0.0
 48
0.0
 49
0.0
140
0.0
141
0.0
142
1.0
143
1.0
 70
1024
 72
1
 73
0
 74
0
  7

 75
0
147
1.0
148
0.0
149
0.0
100
AcDbLayout
  1
Model
 70
0
 71
0
 10
0.0
 20
0.0
 11
297.0
 21
210.0
 12
0.0
 22
0.0
 32
0.0
 14
0.0
 24
0.0
 34
0.0
 15
0.0
 25
0.0
 35
0.0
146
0.0
 13
0.0
 23
0.0
 33
0.0
 16
1.0
 26
0.0
 36
0.0
 17
0.0
 27
1.0
 37
0.0
 76
0
330
21B
345
0
346
0
  0
LAYOUT
  5
407
102
{ACAD_REACTORS
330
1A
102
}
100
AcDbPlotSettings
  1

  2
none_device
  4
ISO_A4_(297.00_x_210.00_MM)
  6

 40
0.0
 41
0.0
 42
0.0
 43
0.0
 44
297.0
 45
210.0
 46
0.0
 47
0.0
 48
0.0
 49
0.0
140
0.0
141
0.0
142
1.0
143
1.0
 70
0
 72
1
 73
0
 74
0
  7

 75
0
147
1.0
148
0.0
149
0.0
100
AcDbLayout
  1
Layout1
 70
0
 71
1
 10
0.0
 20
0.0
 11
297.0
 21
210.0
 12
0.0
 22
0.0
 32
0.0
 14
0.0
 24
0.0
 34
0.0
 15
0.0
 25
0.0
 35
0.0
146
0.0
 13
0.0
 23
0.0
 33
0.0
 16
1.0
 26
0.0
 36
0.0
 17
0.0
 27
1.0
 37
0.0
 76
0
330
21C
345
0
346
0
  0
ENDSEC
  0
EOF
