  0
SECTION
  2
HEADER
  9
$ACADVER
  1
AC1021
  9
$DWGCODEPAGE
  3
ANSI_1252
  9
$EXTMAX
 10
297.0
 20
210.0
 30
0.0
  9
$EXTMIN
 10
0.0
 20
0.0
 30
0.0
  9
$LIMMIN
 10
0.0
 20
0.0
  9
$LIMMAX
 10
297.0
 20
210.0
  9
$VIEWCTR
 10
148.5
 20
105.0
  9
$VIEWSIZE
 40
210.0
  9
$CLAYER
  8
0
  9
$LTSCALE
 40
16.335
  9
$CELTYPE
  6
BYLAYER
  9
$DIMSCALE
 40
1.0
  9
$DIMASZ
 40
3.0
  9
$DIMEXO
 40
0.5
  9
$DIMDLI
 40
11.286
  9
$DIMEXE
 40
1.5
  9
$DIMCEN
 40
2.673
  9
$DIMLFAC
 40
1.0
  9
$DIMBLK
  1
_FILLED
  9
$DIMALT
 70
0
  9
$DIMALTF
 40
25.4
  9
$DIMTXT
 40
3.0
  9
$DIMTOL
 70
1
  9
$DIMLIM
 70
0
  9
$DIMTFAC
 40
1.0
  9
$DIMTP
 40
0.01
  9
$DIMTM
 40
0.01
  9
$DIMGAP
 40
0.625
  9
$DIMDSEP
 70
44
  9
$AUNITS
 70
0
  9
$PDMODE
 70
3
  9
$PDSIZE
 40
3.0
  9
$HANDSEED
  5
564
  9
$TILEMODE
 70
1
  9
$MEASUREMENT
 70
1
  9
$INSUNITS
 70
4
  0
ENDSEC
  0
SECTION
  2
CLASSES
  0
CLASS
  1
ACDBDICTIONARYWDFLT
  2
AcDbDictionaryWithDefault
  3
AutoCAD 2000
 90
0
 91
1
280
0
281
0
  0
CLASS
  1
ACDBPLACEHOLDER
  2
AcDbPlaceHolder
  3
AutoCAD 2000
 90
0
 91
1
280
0
281
0
  0
CLASS
  1
LAYOUT
  2
AcDbLayout
  3
AutoCAD 2000
 90
0
 91
0
280
0
281
0
  0
ENDSEC
  0
SECTION
  2
TABLES
  0
TABLE
  2
VPORT
  5
8
100
AcDbSymbolTable
 70
2
  0
VPORT
  5
1F4
100
AcDbSymbolTableRecord
100
AcDbViewportTableRecord
  2
*ACTIVE
 70
0
 10
0.0
 20
0.0
 11
1.0
 21
1.0
 12
148.5
 22
105.0
 13
0.0
 23
0.0
 14
1.0
 24
1.0
 15
0.0
 25
0.0
 16
0.0
 26
0.0
 36
1.0
 17
0.0
 27
0.0
 37
0.0
 40
210.0
 41
1.4142857143
 42
50.0
 43
0.0
 44
0.0
 50
0.0
 51
0.0
 71
0
 72
100
 73
1
 74
1
 75
0
 76
0
 77
0
 78
0
  0
ENDTAB
  0
TABLE
  2
LTYPE
  5
5
100
AcDbSymbolTable
 70
6
  0
LTYPE
  5
14
100
AcDbSymbolTableRecord
100
AcDbLinetypeTableRecord
  2
BYBLOCK
 70
0
  3

 72
65
 73
0
 40
0.0
  0
LTYPE
  5
15
100
AcDbSymbolTableRecord
100
AcDbLinetypeTableRecord
  2
BYLAYER
 70
0
  3

 72
65
 73
0
 40
0.0
  0
LTYPE
  5
16
100
AcDbSymbolTableRecord
100
AcDbLinetypeTableRecord
  2
CONTINUOUS
 70
64
  3
Solid line
 72
65
 73
0
 40
0.0
  0
LTYPE
  5
1F5
100
AcDbSymbolTableRecord
100
AcDbLinetypeTableRecord
  2
CENTER
 70
64
  3
____ _ ____ _ ____ _ ____ _ ____ _ ____ _ ____
 72
65
 73
4
 40
0.6
 49
0.375
 74
0
 49
-0.075
 74
0
 49
0.075
 74
0
 49
-0.075
 74
0
  0
LTYPE
  5
1F6
100
AcDbSymbolTableRecord
100
AcDbLinetypeTableRecord
  2
HIDDEN
 70
64
  3
- - - - - - - - - - - - - - - - - - - -
 72
65
 73
2
 40
0.2
 49
0.1
 74
0
 49
-0.1
 74
0
  0
LTYPE
  5
1F7
100
AcDbSymbolTableRecord
100
AcDbLinetypeTableRecord
  2
PHANTOM
 70
64
  3
_____ _ _ _____ _ _ _____ _ _ _____
 72
65
 73
6
 40
0.8
 49
0.45
 74
0
 49
-0.05
 74
0
 49
0.1
 74
0
 49
-0.05
 74
0
 49
0.1
 74
0
 49
-0.05
 74
0
  0
LTYPE
  5
1F8
100
AcDbSymbolTableRecord
100
AcDbLinetypeTableRecord
  2
DOT
 70
64
  3
. . . . . . . . . . . . . . . . . . . .
 72
65
 73
2
 40
0.2
 49
0.1
 74
0
 49
-0.1
 74
0
  0
LTYPE
  5
1F9
100
AcDbSymbolTableRecord
100
AcDbLinetypeTableRecord
  2
DASHED
 70
64
  3
- - - - - - - - - - - - - - - - - - - -
 72
65
 73
2
 40
0.2
 49
0.1
 74
0
 49
-0.1
 74
0
  0
ENDTAB
  0
TABLE
  2
LAYER
  5
2
100
AcDbSymbolTable
 70
36
  0
LAYER
  5
10
100
AcDbSymbolTableRecord
100
AcDbLayerTableRecord
  2
0
 70
0
 62
7
  6
CONTINUOUS
370
-3
390
F
  0
LAYER
  5
1FA
100
AcDbSymbolTableRecord
100
AcDbLayerTableRecord
  2
DEFAULT_1
 70
0
 62
7
  6
CENTER
370
-3
390
F
  0
LAYER
  5
1FB
100
AcDbSymbolTableRecord
100
AcDbLayerTableRecord
  2
DEFAULT_2
 70
0
 62
7
  6
HIDDEN
370
-3
390
F
  0
LAYER
  5
1FC
100
AcDbSymbolTableRecord
100
AcDbLayerTableRecord
  2
DEFAULT_3
 70
0
 62
7
  6
PHANTOM
370
-3
390
F
  0
LAYER
  5
1FD
100
AcDbSymbolTableRecord
100
AcDbLayerTableRecord
  2
ASSI
 70
0
 62
7
  6
CONTINUOUS
370
-3
390
F
  0
LAYER
  5
1FE
100
AcDbSymbolTableRecord
100
AcDbLayerTableRecord
  2
COORDINATE
 70
0
 62
7
  6
CONTINUOUS
370
-3
390
F
  0
LAYER
  5
1FF
100
AcDbSymbolTableRecord
100
AcDbLayerTableRecord
  2
COPY_PUBLISH
 70
0
 62
7
  6
CONTINUOUS
370
-3
390
F
  0
LAYER
  5
200
100
AcDbSymbolTableRecord
100
AcDbLayerTableRecord
  2
COSMETICI
 70
0
 62
7
  6
CONTINUOUS
370
-3
390
F
  0
LAYER
  5
201
100
AcDbSymbolTableRecord
100
AcDbLayerTableRecord
  2
CURVE
 70
0
 62
7
  6
CONTINUOUS
370
-3
390
F
  0
LAYER
  5
202
100
AcDbSymbolTableRecord
100
AcDbLayerTableRecord
  2
DRAFT
 70
0
 62
7
  6
CONTINUOUS
370
-3
390
F
  0
LAYER
  5
203
100
AcDbSymbolTableRecord
100
AcDbLayerTableRecord
  2
IMPORT_IGES
 70
0
 62
7
  6
CONTINUOUS
370
-3
390
F
  0
LAYER
  5
204
100
AcDbSymbolTableRecord
100
AcDbLayerTableRecord
  2
NOTE
 70
0
 62
7
  6
CONTINUOUS
370
-3
390
F
  0
LAYER
  5
205
100
AcDbSymbolTableRecord
100
AcDbLayerTableRecord
  2
PIANI
 70
0
 62
7
  6
CONTINUOUS
370
-3
390
F
  0
LAYER
  5
206
100
AcDbSymbolTableRecord
100
AcDbLayerTableRecord
  2
PUNTI
 70
0
 62
7
  6
CONTINUOUS
370
-3
390
F
  0
LAYER
  5
207
100
AcDbSymbolTableRecord
100
AcDbLayerTableRecord
  2
RACCORDO
 70
0
 62
7
  6
CONTINUOUS
370
-3
390
F
  0
LAYER
  5
208
100
AcDbSymbolTableRecord
100
AcDbLayerTableRecord
  2
SIMBOLI
 70
0
 62
7
  6
CONTINUOUS
370
-3
390
F
  0
LAYER
  5
209
100
AcDbSymbolTableRecord
100
AcDbLayerTableRecord
  2
SMUSSO
 70
0
 62
7
  6
CONTINUOUS
370
-3
390
F
  0
LAYER
  5
20A
100
AcDbSymbolTableRecord
100
AcDbLayerTableRecord
  2
SNAPLINE
 70
0
 62
7
  6
CONTINUOUS
370
-3
390
F
  0
LAYER
  5
20B
100
AcDbSymbolTableRecord
100
AcDbLayerTableRecord
  2
SUPERFICI
 70
0
 62
7
  6
CONTINUOUS
370
-3
390
F
  0
LAYER
  5
20C
100
AcDbSymbolTableRecord
100
AcDbLayerTableRecord
  2
TRASH
 70
0
 62
7
  6
CONTINUOUS
370
-3
390
F
  0
ENDTAB
  0
TABLE
  2
STYLE
  5
3
100
AcDbSymbolTable
 70
1
  0
STYLE
  5
11
100
AcDbSymbolTableRecord
100
AcDbTextStyleTableRecord
  2
STANDARD
 70
0
 40
0.0
 41
0.8
 50
0.0
 71
0
 42
0.2
  3
txt
  4

  0
STYLE
  5
20D
100
AcDbSymbolTableRecord
100
AcDbTextStyleTableRecord
  2
TEXTSTYLE_1
 70
0
 40
0.0
 41
0.8
 50
0.0
 71
0
 42
0.2
  3
gdt
  4

  0
ENDTAB
  0
TABLE
  2
VIEW
  5
6
100
AcDbSymbolTable
 70
0
  0
ENDTAB
  0
TABLE
  2
UCS
  5
7
100
AcDbSymbolTable
 70
0
  0
ENDTAB
  0
TABLE
  2
APPID
  5
9
100
AcDbSymbolTable
 70
1
  0
APPID
  5
20E
100
AcDbSymbolTableRecord
100
AcDbRegAppTableRecord
  2
ACAD
 70
0
  0
ENDTAB
  0
TABLE
  2
BLOCK_RECORD
  5
1
100
AcDbSymbolTable
 70
0
  0
BLOCK_RECORD
  5
20F
100
AcDbSymbolTableRecord
100
AcDbBlockTableRecord
  2
*Model_Space
  0
BLOCK_RECORD
  5
210
100
AcDbSymbolTableRecord
100
AcDbBlockTableRecord
  2
*Paper_Space
  0
ENDTAB
  0
TABLE
  2
DIMSTYLE
  5
A
100
AcDbSymbolTable
 70
1
100
AcDbDimStyleTable
 71
0
  0
DIMSTYLE
105
211
100
AcDbSymbolTableRecord
100
AcDbDimStyleTableRecord
  2
STANDARD
 70
0
  3

  4

 40
1.0
 41
3.0
 42
0.5
 43
0.38
 44
1.5
 45
0.0
 46
0.0
 47
0.01
 48
0.01
140
3.0
141
0.09
142
0.0
143
25.4
144
1.0
145
0.0
146
1.0
147
0.625
 71
1.0
 72
0.0
 73
0
 74
0
 75
0
 76
0
 77
1
 78
8
170
0
171
1
172
0
173
0
174
0
175
0
176
0
177
0
178
0
270
2
271
2
272
2
273
2
274
2
275
0
280
0
281
0
282
0
283
1
284
8
285
0
286
0
287
3
288
0
340
11
278
44
  0
ENDTAB
  0
ENDSEC
  0
SECTION
  2
BLOCKS
  0
BLOCK
  5
20
100
AcDbEntity
  8
0
100
AcDbBlockBegin
  2
*Model_Space
 70
0
 10
0.0
 20
0.0
 30
0.0
  3
*Model_Space
  1

  0
ENDBLK
  5
21
100
AcDbEntity
  8
0
100
AcDbBlockEnd
  0
BLOCK
  5
1C
100
AcDbEntity
  8
0
100
AcDbBlockBegin
  2
*Paper_Space
 70
0
 10
0.0
 20
0.0
 30
0.0
  3
*Paper_Space
  1

  0
ENDBLK
  5
1D
100
AcDbEntity
  8
0
100
AcDbBlockEnd
  0
ENDSEC
  0
SECTION
  2
ENTITIES
  0
LWPOLYLINE
  5
212
100
AcDbEntity
  8
IMPORT_IGES
100
AcDbPolyline
 62
7
  6
CONTINUOUS
 90
19
 70
0
 10
-14.6577308323
 20
41.3504151244
 10
-14.6847971728
 20
41.3299267929
 10
-14.7115608631
 20
41.3066508331
 10
-14.7378099291
 20
41.2807567714
 10
-14.7632985798
 20
41.252429555
 10
-14.7878669715
 20
41.2218752533
 10
-14.8114381168
 20
41.1893091744
 10
-14.8338337798
 20
41.1549344845
 10
-14.8548643289
 20
41.1190006993
 10
-14.8744453531
 20
41.0818022231
 10
-14.8924153065
 20
41.0436098873
 10
-14.9086359635
 20
41.0046677693
 10
-14.9230698202
 20
40.9652384461
 10
-14.9356085505
 20
40.9255593583
 10
-14.9461229456
 20
40.885933829
 10
-14.9545685217
 20
40.8467254436
 10
-14.9608951187
 20
40.8082348256
 10
-14.965036639
 20
40.7706982141
 10
-14.9669600103
 20
40.734375323
  0
LWPOLYLINE
  5
213
100
AcDbEntity
  8
IMPORT_IGES
100
AcDbPolyline
 62
7
  6
CONTINUOUS
 90
10
 70
0
 10
-14.6577311733
 20
41.3504148749
 10
-14.3920968983
 20
41.5319078071
 10
-14.1201825665
 20
41.7099970092
 10
-13.841988178
 20
41.8846824811
 10
-13.5573853999
 20
42.0560383207
 10
-13.2665025651
 20
42.2239904302
 10
-12.9697246716
 20
42.3883165161
 10
-12.6671800521
 20
42.5489424807
 10
-12.3587403738
 20
42.7059424218
 10
-12.0444056369
 20
42.8593163394
  0
LWPOLYLINE
  5
214
100
AcDbEntity
  8
IMPORT_IGES
100
AcDbPolyline
 62
7
  6
CONTINUOUS
 90
22
 70
0
 10
-11.6321752827
 20
40.7817659459
 10
-11.6995580169
 20
40.7401491936
 10
-11.7662646111
 20
40.6940307017
 10
-11.8322950652
 20
40.64341047
 10
-11.8979921164
 20
40.5879526492
 10
-11.9630130276
 20
40.5279930888
 10
-12.0263295875
 20
40.4645393367
 10
-12.0879124082
 20
40.3975476807
 10
-12.1477908776
 20
40.3270618332
 10
-12.2050249486
 20
40.2542204789
 10
-12.2595759204
 20
40.1789926704
 10
-12.3114824937
 20
40.1014093551
 10
-12.3599207237
 20
40.0227020607
 10
-12.4048432673
 20
39.9428527569
 10
-12.4462974675
 20
39.8618794741
 10
-12.4836014087
 20
39.7810678302
 10
-12.5166995541
 20
39.7004131967
 10
-12.5456474404
 20
39.6199202023
 10
-12.5699297622
 20
39.5408883503
 10
-12.5893747508
 20
39.4637508087
 10
-12.6041541749
 20
39.3880744096
 10
-12.6142680343
 20
39.313859153
  0
LWPOLYLINE
  5
215
100
AcDbEntity
  8
IMPORT_IGES
100
AcDbPolyline
 62
253
  6
CONTINUOUS
 90
22
 70
0
 10
-9.5131276294
 20
35.993892751
 10
-9.5815711113
 20
35.9578585911
 10
-9.6544134035
 20
35.9262336254
 10
-9.7312471423
 20
35.8991947135
 10
-9.8116426423
 20
35.8768930681
 10
-9.8951502992
 20
35.8594534089
 10
-9.9813031043
 20
35.8469732656
 10
-10.0696192563
 20
35.8395224322
 10
-10.1596048553
 20
35.8371425769
 10
-10.2507566654
 20
35.8398470087
 10
-10.3425649287
 20
35.8476206033
 10
-10.4345162162
 20
35.8604198877
 10
-10.5260962989
 20
35.878173283
 10
-10.6167930239
 20
35.9007815052
 10
-10.7060991783
 20
35.9281181197
 10
-10.7935153258
 20
35.9600302493
 10
-10.8785526
 20
35.9963394282
 10
-10.9607354378
 20
36.036842601
 10
-11.0396042396
 20
36.0813132573
 10
-11.1147179389
 20
36.1295026992
 10
-11.1856564695
 20
36.1811414319
 10
-11.2520231144
 20
36.2359406706
  0
LWPOLYLINE
  5
216
100
AcDbEntity
  8
IMPORT_IGES
100
AcDbPolyline
 62
7
  6
CONTINUOUS
 90
22
 70
0
 10
-2.25515369
 20
-36.5604491585
 10
-2.1482559185
 20
-36.6177182796
 10
-2.0342448282
 20
-36.6702148161
 10
-1.9137580153
 20
-36.7176451861
 10
-1.787469291
 20
-36.7597441397
 10
-1.6560849131
 20
-36.7962762424
 10
-1.5203396362
 20
-36.8270371921
 10
-1.3809926031
 20
-36.8518549608
 10
-1.2388230989
 20
-36.8705907577
 10
-1.0946261931
 20
-36.8831398046
 10
-0.9492082933
 20
-36.889431922
 10
-0.8033826354
 20
-36.8894319219
 10
-0.6579647356
 20
-36.8831398043
 10
-0.5137678299
 20
-36.8705907572
 10
-0.3715983257
 20
-36.8518549602
 10
-0.2322512927
 20
-36.8270371912
 10
-0.096506016
 20
-36.7962762414
 10
0.0348783618
 20
-36.7597441384
 10
0.1611670859
 20
-36.7176451847
 10
0.2816538985
 20
-36.6702148145
 10
0.3956649885
 20
-36.6177182779
 10
0.5025627597
 20
-36.5604491568
  0
LWPOLYLINE
  5
217
100
AcDbEntity
  8
IMPORT_IGES
100
AcDbPolyline
 62
7
  6
CONTINUOUS
 90
22
 70
0
 10
-15.6901825325
 20
-28.8032318853
 10
-15.583284761
 20
-28.8605010064
 10
-15.4692736707
 20
-28.9129975429
 10
-15.3487868578
 20
-28.9604279128
 10
-15.2224981335
 20
-29.0025268664
 10
-15.0911137556
 20
-29.0390589692
 10
-14.9553684788
 20
-29.0698199188
 10
-14.8160214457
 20
-29.0946376876
 10
-14.6738519414
 20
-29.1133734845
 10
-14.5296550356
 20
-29.1259225313
 10
-14.3842371358
 20
-29.1322146487
 10
-14.238411478
 20
-29.1322146486
 10
-14.0929935782
 20
-29.125922531
 10
-13.9487966724
 20
-29.113373484
 10
-13.8066271683
 20
-29.0946376869
 10
-13.6672801353
 20
-29.069819918
 10
-13.5315348586
 20
-29.0390589682
 10
-13.4001504808
 20
-29.0025268652
 10
-13.2738617567
 20
-28.9604279114
 10
-13.153374944
 20
-28.9129975413
 10
-13.039363854
 20
-28.8605010047
 10
-12.9324660829
 20
-28.8032318835
  0
LWPOLYLINE
  5
218
100
AcDbEntity
  8
IMPORT_IGES
100
AcDbPolyline
 62
7
  6
CONTINUOUS
 90
10
 70
0
 10
-15.7255378716
 20
-28.8644691288
 10
-15.8434131954
 20
-28.7901949618
 10
-15.9496283978
 20
-28.7102716336
 10
-16.0433751168
 20
-28.6253074092
 10
-16.1239398833
 20
-28.5359489175
 10
-16.1907095508
 20
-28.4428762306
 10
-16.2431759618
 20
-28.3467976879
 10
-16.2809398152
 20
-28.2484445051
 10
-16.3037137054
 20
-28.1485652092
 10
-16.3113243092
 20
-28.0479199421
  0
LWPOLYLINE
  5
219
100
AcDbEntity
  8
IMPORT_IGES
100
AcDbPolyline
 62
7
  6
CONTINUOUS
 90
10
 70
0
 10
-2.2905090275
 20
-36.6216864029
 10
-2.4083843521
 20
-36.5474122355
 10
-2.5145995549
 20
-36.4674889071
 10
-2.6083462742
 20
-36.3825246824
 10
-2.6889110408
 20
-36.2931661906
 10
-2.7556807082
 20
-36.2000935038
 10
-2.8081471192
 20
-36.1040149611
 10
-2.8459109727
 20
-36.0056617783
 10
-2.8686848628
 20
-35.9057824824
 10
-2.8762954666
 20
-35.8051372154
  0
LWPOLYLINE
  5
21A
100
AcDbEntity
  8
IMPORT_IGES
100
AcDbPolyline
 62
7
  6
CONTINUOUS
 90
3
 70
0
 10
-29.7741537555
 20
12.0963218932
 10
-29.7734222478
 20
12.0769571233
 10
-29.7677657377
 20
12.0338952602
  0
LWPOLYLINE
  5
21B
100
AcDbEntity
  8
IMPORT_IGES
100
AcDbPolyline
 62
7
  6
CONTINUOUS
 90
10
 70
0
 10
-29.7737514183
 20
12.069961116
 10
-29.7603580111
 20
11.3054055063
 10
-29.7332920663
 20
10.5136336908
 10
-29.6930909577
 20
9.7295505584
 10
-29.6397569293
 20
8.9534210508
 10
-29.5732976835
 20
8.1855307127
 10
-29.4937281356
 20
7.4261827891
 10
-29.4010665366
 20
6.6756542621
 10
-29.2953327662
 20
5.9341986499
 10
-29.1765518136
 20
5.2020778783
  0
LWPOLYLINE
  5
21C
100
AcDbEntity
  8
IMPORT_IGES
100
AcDbPolyline
 62
253
  6
CONTINUOUS
 90
10
 70
0
 10
-29.7175297774
 20
12.070953897
 10
-29.7034618871
 20
12.853945704
 10
-29.6763991479
 20
13.6442857744
 10
-29.6363449501
 20
14.4417372597
 10
-29.5832810109
 20
15.2460865925
 10
-29.5172219919
 20
16.057051487
 10
-29.438225879
 20
16.8742793093
 10
-29.3463162051
 20
17.6974709193
 10
-29.2414717565
 20
18.5263824614
 10
-29.123688486
 20
19.3607321885
  0
LWPOLYLINE
  5
21D
100
AcDbEntity
  8
IMPORT_IGES
100
AcDbPolyline
 62
7
  6
CONTINUOUS
 90
3
 70
0
 10
-29.7680675908
 20
12.1634347352
 10
-29.7735233238
 20
12.1203751364
 10
-29.7741537555
 20
12.0963218932
  0
LWPOLYLINE
  5
21E
100
AcDbEntity
  8
IMPORT_IGES
100
AcDbPolyline
 62
7
  6
CONTINUOUS
 90
10
 70
0
 10
-29.1801685217
 20
19.568189789
 10
-29.2979551819
 20
18.7334639336
 10
-29.4028958953
 20
17.9036832265
 10
-29.4949436801
 20
17.0791394388
 10
-29.5740558047
 20
16.2601204477
 10
-29.640193061
 20
15.4469178136
 10
-29.6933202932
 20
14.6398249212
 10
-29.7334070973
 20
13.8391275371
 10
-29.7604273385
 20
13.0451055284
 10
-29.7742834098
 20
12.2659691286
  0
LINE
  5
21F
100
AcDbEntity
  8
IMPORT_IGES
100
AcDbLine
 62
7
  6
CONTINUOUS
 10
-29.7635246097
 20
12.1809011221
 11
-29.7680675908
 21
12.1634347352
  0
LWPOLYLINE
  5
220
100
AcDbEntity
  8
IMPORT_IGES
100
AcDbPolyline
 62
7
  6
CONTINUOUS
 90
16
 70
0
 10
-28.5429512299
 20
20.5685265631
 10
-28.6061028131
 20
20.5233003334
 10
-28.6732305745
 20
20.4691613606
 10
-28.7369080362
 20
20.4113281973
 10
-28.7977636985
 20
20.3492823923
 10
-28.8554293093
 20
20.2833175926
 10
-28.9087940575
 20
20.2147876001
 10
-28.9581389787
 20
20.1434931153
 10
-29.0035731457
 20
20.0692645593
 10
-29.0441462868
 20
19.993689236
 10
-29.0799461467
 20
19.9168496437
 10
-29.1111618137
 20
19.8384248103
 10
-29.1373098196
 20
19.7596566585
 10
-29.1583907631
 20
19.6811040841
 10
-29.1746296735
 20
19.6024132136
 10
-29.1801779652
 20
19.5681383693
  0
LWPOLYLINE
  5
221
100
AcDbEntity
  8
IMPORT_IGES
100
AcDbPolyline
 62
253
  6
CONTINUOUS
 90
5
 70
0
 10
-28.0999529827
 20
20.5481145542
 10
-26.3360495102
 20
21.7246123679
 10
-24.5707532651
 20
22.8732148928
 10
-22.8044292182
 20
23.9936899635
 10
-21.0429592398
 20
25.0823988693
  0
LWPOLYLINE
  5
222
100
AcDbEntity
  8
IMPORT_IGES
100
AcDbPolyline
 62
7
  6
CONTINUOUS
 90
6
 70
0
 10
-21.0398723976
 20
25.3711928474
 10
-21.4813936192
 20
25.105489839
 10
-23.2484073094
 20
24.0133649126
 10
-25.0145778235
 20
22.8930054673
 10
-26.7795491978
 20
21.7446433169
 10
-28.5429641082
 20
20.5685167653
  0
LINE
  5
223
100
AcDbEntity
  8
IMPORT_IGES
100
AcDbLine
 62
7
  6
CONTINUOUS
 10
11.5119253425
 20
42.0141304653
 11
10.3899759064
 21
41.3663309223
  0
LINE
  5
224
100
AcDbEntity
  8
IMPORT_IGES
100
AcDbLine
 62
253
  6
CONTINUOUS
 10
11.6905171661
 20
42.0157724301
 11
10.5399830987
 21
41.3514684792
  0
LWPOLYLINE
  5
225
100
AcDbEntity
  8
IMPORT_IGES
100
AcDbPolyline
 62
253
  6
CONTINUOUS
 90
10
 70
0
 10
-28.5429604787
 20
20.5685192156
 10
-28.5078679039
 20
20.5886387417
 10
-28.4669034732
 20
20.6045926976
 10
-28.4224930371
 20
20.6147161705
 10
-28.3749830364
 20
20.6188718041
 10
-28.3245982467
 20
20.6169850724
 10
-28.271577949
 20
20.6089851178
 10
-28.2162302101
 20
20.5948247
 10
-28.1589428538
 20
20.5745122703
 10
-28.1001018679
 20
20.5481001168
  0
LWPOLYLINE
  5
226
100
AcDbEntity
  8
IMPORT_IGES
100
AcDbPolyline
 62
253
  6
CONTINUOUS
 90
16
 70
0
 10
10.5788314807
 20
39.9452661324
 10
10.5554954045
 20
39.9332618145
 10
10.5300908729
 20
39.922716868
 10
10.5028962162
 20
39.9137468282
 10
10.4742093777
 20
39.9064499757
 10
10.4443446523
 20
39.9009062602
 10
10.4136292434
 20
39.8971764241
 10
10.3823996723
 20
39.895301336
 10
10.3509980963
 20
39.8953015438
 10
10.3197685627
 20
39.8971770487
 10
10.2890530071
 20
39.9009073393
 10
10.2591881927
 20
39.9064515412
 10
10.2305019529
 20
39.9137487319
 10
10.2033086807
 20
39.9227187806
 10
10.1779059631
 20
39.9332633601
 10
10.1545719575
 20
39.9452668581
  0
LWPOLYLINE
  5
227
100
AcDbEntity
  8
IMPORT_IGES
100
AcDbPolyline
 62
7
  6
CONTINUOUS
 90
32
 70
0
 10
-10.7851946182
 20
29.9861385865
 10
-10.199608997
 20
30.2185524678
 10
-9.6014289582
 20
30.437871106
 10
-8.9906545018
 20
30.6440945012
 10
-8.3664354829
 20
30.8374569644
 10
-7.7296220464
 20
31.0177241846
 10
-7.0827646273
 20
31.1841932283
 10
-6.4258259418
 20
31.3368099725
 10
-5.7588432737
 20
31.4756285402
 10
-5.0844789087
 20
31.6001083667
 10
-4.4027052461
 20
31.7101935552
 10
-3.7135498865
 20
31.8059400025
 10
-3.0197579176
 20
31.886974835
 10
-2.3213109333
 20
31.9532408261
 10
-1.6182273397
 20
32.0047952023
 10
-0.9133074421
 20
32.0414367695
 10
-0.2065449965
 20
32.063107411
 10
0.5020537531
 20
32.0698652435
 10
1.2096697691
 20
32.0616834223
 10
1.9163001249
 20
32.0385037441
 10
2.6219477471
 20
32.0003844122
 10
3.3238023783
 20
31.9474731926
 10
4.0218488857
 20
31.8797125406
 10
4.7161024022
 20
31.7971600008
 10
5.4037980681
 20
31.7001359734
 10
6.0849114859
 20
31.588584068
 10
6.7594670531
 20
31.4625606751
 10
7.4247731034
 20
31.3225553653
 10
8.0807954607
 20
31.1685133378
 10
8.727568301
 20
31.0004893935
 10
9.3625024862
 20
30.8191375055
 10
9.6560272463
 20
30.7274043246
  0
LWPOLYLINE
  5
228
100
AcDbEntity
  8
IMPORT_IGES
100
AcDbPolyline
 62
7
  6
CONTINUOUS
 90
16
 70
0
 10
-1.4204390146
 20
-31.6332283054
 10
-1.3368712238
 20
-31.672890812
 10
-1.2507457333
 20
-31.7067224232
 10
-1.1620920175
 20
-31.7348522463
 10
-1.0696359333
 20
-31.7575858351
 10
-0.974325003
 20
-31.7744658784
 10
-0.8794794465
 20
-31.7850095383
 10
-0.7853882272
 20
-31.7895169195
 10
-0.6911032556
 20
-31.7881757691
 10
-0.5981309185
 20
-31.7810860577
 10
-0.5059960071
 20
-31.7682761246
 10
-0.4145734865
 20
-31.7496279635
 10
-0.3260082842
 20
-31.7255706892
 10
-0.2409236612
 20
-31.6964552831
 10
-0.1584700272
 20
-31.662071346
 10
-0.0786901631
 20
-31.6223426663
  0
LWPOLYLINE
  5
229
100
AcDbEntity
  8
IMPORT_IGES
100
AcDbPolyline
 62
253
  6
CONTINUOUS
 90
22
 70
0
 10
-1.6280075982
 20
-31.1822997093
 10
-1.557453816
 20
-31.2167702653
 10
-1.4829247696
 20
-31.2482348724
 10
-1.4047950397
 20
-31.2765372675
 10
-1.3234539465
 20
-31.3015376101
 10
-1.239312148
 20
-31.3231116457
 10
-1.1528005024
 20
-31.3411525341
 10
-1.0643614235
 20
-31.3555718719
 10
-0.9744290909
 20
-31.3663023118
 10
-0.8834356332
 20
-31.3732948695
 10
-0.791834731
 20
-31.3765158098
 10
-0.7000829696
 20
-31.3759498733
 10
-0.6086203503
 20
-31.3715997719
 10
-0.5179028095
 20
-31.3634863917
 10
-0.4283826913
 20
-31.3516490542
 10
-0.3404902218
 20
-31.3361420584
 10
-0.254652866
 20
-31.3170370622
 10
-0.1713141633
 20
-31.2944285909
 10
-0.0909126654
 20
-31.2684328774
 10
-0.013856605
 20
-31.2391821727
 10
0.0594758018
 20
-31.2068211746
 10
0.1287179523
 20
-31.1715118563
  0
LWPOLYLINE
  5
22A
100
AcDbEntity
  8
IMPORT_IGES
100
AcDbPolyline
 62
253
  6
CONTINUOUS
 90
12
 70
0
 10
-1.4204390146
 20
-31.6332283054
 10
-1.4408249497
 20
-31.6216205948
 10
-1.4738537654
 20
-31.5978298705
 10
-1.5044053677
 20
-31.5689970655
 10
-1.5321223588
 20
-31.5352311419
 10
-1.5566424029
 20
-31.4968257857
 10
-1.5777641985
 20
-31.4540278609
 10
-1.5953726702
 20
-31.4069907616
 10
-1.6093215012
 20
-31.3559962029
 10
-1.6195020439
 20
-31.3013329422
 10
-1.6258337889
 20
-31.243284084
 10
-1.6282536631
 20
-31.1821703255
  0
LWPOLYLINE
  5
22B
100
AcDbEntity
  8
IMPORT_IGES
100
AcDbPolyline
 62
253
  6
CONTINUOUS
 90
10
 70
0
 10
-12.3728976384
 20
-25.3036307236
 10
-11.2063069578
 20
-25.9731887348
 10
-10.0328011122
 20
-26.6387059653
 10
-8.8524220843
 20
-27.3001586061
 10
-7.6652121027
 20
-27.9575229932
 10
-6.4712136403
 20
-28.6107756093
 10
-5.2704694124
 20
-29.2598930842
 10
-4.063022376
 20
-29.9048521956
 10
-2.8489157282
 20
-30.5456298696
 10
-1.628192904
 20
-31.1822031823
  0
LWPOLYLINE
  5
22C
100
AcDbEntity
  8
IMPORT_IGES
100
AcDbPolyline
 62
7
  6
CONTINUOUS
 90
10
 70
0
 10
-22.3510071051
 20
-19.5480468383
 10
-20.1376869246
 20
-20.9545390246
 10
-17.8955289498
 20
-22.3455560376
 10
-15.624853762
 20
-23.720902735
 10
-13.3259840177
 20
-25.0803872589
 10
-10.9992498743
 20
-26.4238178116
 10
-8.6449893991
 20
-27.7510026763
 10
-6.2635410221
 20
-29.0617545829
 10
-3.8552430374
 20
-30.3558907342
 10
-1.4204393437
 20
-31.6332295786
  0
LWPOLYLINE
  5
22D
100
AcDbEntity
  8
IMPORT_IGES
100
AcDbPolyline
 62
253
  6
CONTINUOUS
 90
10
 70
0
 10
-22.5542283155
 20
-19.0997725695
 10
-21.4517027084
 20
-19.8046149096
 10
-20.3419016149
 20
-20.5056329589
 10
-19.2248648657
 20
-21.2028017044
 10
-18.1006347329
 20
-21.8960949333
 10
-16.9692494058
 20
-22.5854892638
 10
-15.8307428519
 20
-23.2709640701
 10
-14.6851535766
 20
-23.9524961451
 10
-13.5325247604
 20
-24.6300597762
 10
-12.3728976384
 20
-25.3036307236
  0
LWPOLYLINE
  5
22E
100
AcDbEntity
  8
IMPORT_IGES
100
AcDbPolyline
 62
253
  6
CONTINUOUS
 90
3
 70
0
 10
-22.3955867487
 20
-19.5143635692
 10
-22.360482215
 20
-19.5417426505
 10
-22.3510061337
 20
-19.5480458388
  0
LINE
  5
22F
100
AcDbEntity
  8
IMPORT_IGES
100
AcDbLine
 62
7
  6
CONTINUOUS
 10
-29.1764360349
 20
5.2014089271
 11
-29.1765518136
 21
5.2020778783
  0
LWPOLYLINE
  5
230
100
AcDbEntity
  8
IMPORT_IGES
100
AcDbPolyline
 62
253
  6
CONTINUOUS
 90
10
 70
0
 10
-29.1236640698
 20
5.0567779299
 10
-29.2414648384
 20
5.7825407844
 10
-29.3463207069
 20
6.5176640959
 10
-29.4382357
 20
7.2619694239
 10
-29.5172287927
 20
8.015342397
 10
-29.5832787241
 20
8.7775166191
 10
-29.6363342519
 20
9.5480706199
 10
-29.6763829517
 20
10.3267178929
 10
-29.7034408777
 20
11.1133100589
 10
-29.717504644
 20
11.9076186209
  0
LWPOLYLINE
  5
231
100
AcDbEntity
  8
IMPORT_IGES
100
AcDbPolyline
 62
253
  6
CONTINUOUS
 90
11
 70
0
 10
-22.8863726894
 20
-18.6193616325
 10
-22.8808827663
 20
-18.6722072841
 10
-22.8689422207
 20
-18.7246545777
 10
-22.8506087702
 20
-18.7764418988
 10
-22.8259668039
 20
-18.8273199351
 10
-22.7951304966
 20
-18.8770394754
 10
-22.7582508161
 20
-18.9253461015
 10
-22.7155123217
 20
-18.9719910431
 10
-22.6671277307
 20
-19.0167387146
 10
-22.6133345679
 20
-19.05936728
 10
-22.5543991698
 20
-19.0996631155
  0
LINE
  5
232
100
AcDbEntity
  8
IMPORT_IGES
100
AcDbLine
 62
7
  6
CONTINUOUS
 10
-13.6515114192
 20
28.6593410915
 11
-14.2927575179
 21
27.6381952874
  0
LWPOLYLINE
  5
233
100
AcDbEntity
  8
IMPORT_IGES
100
AcDbPolyline
 62
253
  6
CONTINUOUS
 90
3
 70
0
 10
10.4349142679
 20
41.2817781333
 10
10.4873094563
 20
41.3187963391
 10
10.5399832181
 20
41.3514684904
  0
LWPOLYLINE
  5
234
100
AcDbEntity
  8
IMPORT_IGES
100
AcDbPolyline
 62
7
  6
CONTINUOUS
 90
13
 70
0
 10
-7.951589535
 20
27.5345191813
 10
-7.9000488419
 20
27.5667059205
 10
-7.8533202485
 20
27.6005452625
 10
-7.8114037546
 20
27.6360372073
 10
-7.7741481221
 20
27.6733936551
 10
-7.741704589
 20
27.7124027057
 10
-7.7145268706
 20
27.7524286582
 10
-7.6926887054
 20
27.793484392
 10
-7.6761163548
 20
27.8355570277
 10
-7.6650423176
 20
27.8779722262
 10
-7.6595440938
 20
27.9207335854
 10
-7.6595441835
 20
27.9638375073
 10
-7.660202437
 20
27.9724216673
  0
LINE
  5
235
100
AcDbEntity
  8
IMPORT_IGES
100
AcDbLine
 62
253
  6
CONTINUOUS
 10
10.8590920709
 20
41.1672189579
 11
12.0624392249
 21
41.8620165232
  0
LINE
  5
236
100
AcDbEntity
  8
IMPORT_IGES
100
AcDbLine
 62
253
  6
CONTINUOUS
 10
12.3017421627
 20
41.511567292
 11
11.0712032182
 21
40.8010695277
  0
LINE
  5
237
100
AcDbEntity
  8
IMPORT_IGES
100
AcDbLine
 62
7
  6
CONTINUOUS
 10
-10.8514254209
 20
25.8601902843
 11
-7.951589535
 21
27.5345191813
  0
LINE
  5
238
100
AcDbEntity
  8
IMPORT_IGES
100
AcDbLine
 62
7
  6
CONTINUOUS
 10
-2.5114579131
 20
28.6888171478
 11
-2.6542336942
 21
28.6170788857
  0
LINE
  5
239
100
AcDbEntity
  8
IMPORT_IGES
100
AcDbLine
 62
7
  6
CONTINUOUS
 10
-2.3690573778
 20
28.7542046964
 11
-2.5114579131
 21
28.6888171478
  0
LINE
  5
23A
100
AcDbEntity
  8
IMPORT_IGES
100
AcDbLine
 62
7
  6
CONTINUOUS
 10
-2.511457913
 20
28.5663466063
 11
-2.3690573778
 21
28.6317341549
  0
LWPOLYLINE
  5
23B
100
AcDbEntity
  8
IMPORT_IGES
100
AcDbPolyline
 62
253
  6
CONTINUOUS
 90
19
 70
0
 10
-28.1000513719
 20
20.5480764299
 10
-28.1846695433
 20
20.5132497514
 10
-28.2678212431
 20
20.4731523632
 10
-28.3490947496
 20
20.4281085527
 10
-28.4280087191
 20
20.3786010806
 10
-28.504319417
 20
20.3248251589
 10
-28.5779848816
 20
20.2666198668
 10
-28.648926611
 20
20.204016887
 10
-28.7165614802
 20
20.1375108637
 10
-28.7801257678
 20
20.0676551722
 10
-28.8392159411
 20
19.9950321021
 10
-28.8936840621
 20
19.9199459755
 10
-28.9432029746
 20
19.842627963
 10
-28.9876336753
 20
19.7633538817
 10
-29.0266730023
 20
19.6827765705
 10
-29.0598618771
 20
19.6017029141
 10
-29.0870601378
 20
19.5207204191
 10
-29.1083402595
 20
19.4402224635
 10
-29.1236597359
 20
19.3606928177
  0
LINE
  5
23C
100
AcDbEntity
  8
IMPORT_IGES
100
AcDbLine
 62
7
  6
CONTINUOUS
 10
-2.2259273689
 20
28.8122672181
 11
-2.3690573778
 21
28.7542046964
  0
LINE
  5
23D
100
AcDbEntity
  8
IMPORT_IGES
100
AcDbLine
 62
7
  6
CONTINUOUS
 10
-2.3690573778
 20
28.6317341549
 11
-2.2259273689
 21
28.6897966766
  0
LINE
  5
23E
100
AcDbEntity
  8
IMPORT_IGES
100
AcDbLine
 62
7
  6
CONTINUOUS
 10
-1.9651264602
 20
28.3576864687
 11
-1.8983332534
 21
28.3839919637
  0
LINE
  5
23F
100
AcDbEntity
  8
IMPORT_IGES
100
AcDbLine
 62
7
  6
CONTINUOUS
 10
-2.0822111663
 20
28.8634285411
 11
-2.2259273689
 21
28.8122672181
  0
LINE
  5
240
100
AcDbEntity
  8
IMPORT_IGES
100
AcDbLine
 62
7
  6
CONTINUOUS
 10
-2.2259273689
 20
28.6897966766
 11
-2.0822111663
 21
28.7409579995
  0
LINE
  5
241
100
AcDbEntity
  8
IMPORT_IGES
100
AcDbLine
 62
7
  6
CONTINUOUS
 10
-1.8983332534
 20
28.3839919637
 11
-1.8307983072
 21
28.4052072253
  0
LINE
  5
242
100
AcDbEntity
  8
IMPORT_IGES
100
AcDbLine
 62
7
  6
CONTINUOUS
 10
-1.9379087701
 20
28.9076886653
 11
-2.0822111663
 21
28.8634285411
  0
LINE
  5
243
100
AcDbEntity
  8
IMPORT_IGES
100
AcDbLine
 62
7
  6
CONTINUOUS
 10
-2.0822111663
 20
28.7409579995
 11
-1.9379087701
 21
28.7852181238
  0
LWPOLYLINE
  5
244
100
AcDbEntity
  8
IMPORT_IGES
100
AcDbPolyline
 62
253
  6
CONTINUOUS
 90
5
 70
0
 10
-29.123755146
 20
5.0568552878
 10
-29.1463549014
 20
5.1017050135
 10
-29.1636057359
 20
5.1480794415
 10
-29.1754070981
 20
5.195719604
 10
-29.1764360349
 20
5.2014089271
  0
LWPOLYLINE
  5
245
100
AcDbEntity
  8
IMPORT_IGES
100
AcDbPolyline
 62
7
  6
CONTINUOUS
 90
4
 70
0
 10
-29.1348087088
 20
5.0343267383
 10
-29.1036594194
 20
4.9505488315
 10
-29.0664322641
 20
4.8701443333
 10
-29.035800652
 20
4.8141695347
  0
LWPOLYLINE
  5
246
100
AcDbEntity
  8
IMPORT_IGES
100
AcDbPolyline
 62
7
  6
CONTINUOUS
 90
4
 70
0
 10
-26.2280458305
 20
-1.0264080769
 10
-26.2541111743
 20
-0.9544853035
 10
-26.2759418317
 20
-0.8809993012
 10
-26.281484466
 20
-0.8593545725
  0
LWPOLYLINE
  5
247
100
AcDbEntity
  8
IMPORT_IGES
100
AcDbPolyline
 62
253
  6
CONTINUOUS
 90
6
 70
0
 10
-26.1668415815
 20
-1.0947139189
 10
-26.1471368673
 20
-1.158384833
 10
-26.1221010807
 20
-1.2191713552
 10
-26.0918521928
 20
-1.2767858043
 10
-26.0565326369
 20
-1.3309557464
 10
-26.0381323697
 20
-1.35527181
  0
LWPOLYLINE
  5
248
100
AcDbEntity
  8
IMPORT_IGES
100
AcDbPolyline
 62
253
  6
CONTINUOUS
 90
4
 70
0
 10
-26.4852396488
 20
0.2491776056
 10
-26.4533960304
 20
0.1312301048
 10
-26.4240786528
 20
0.0146163074
 10
-26.3972541998
 20
-0.1006561537
  0
LINE
  5
249
100
AcDbEntity
  8
IMPORT_IGES
100
AcDbLine
 62
7
  6
CONTINUOUS
 10
-29.7677657377
 20
12.0338952602
 11
-29.7565542519
 21
11.9914277352
  0
LWPOLYLINE
  5
24A
100
AcDbEntity
  8
IMPORT_IGES
100
AcDbPolyline
 62
253
  6
CONTINUOUS
 90
6
 70
0
 10
-26.2814689384
 20
-0.859417456
 10
-26.2772893332
 20
-0.875406459
 10
-26.2582131363
 20
-0.9331691243
 10
-26.2334054922
 20
-0.9890484597
 10
-26.2029206773
 20
-1.0429562372
 10
-26.1668415815
 20
-1.0947139189
  0
LINE
  5
24B
100
AcDbEntity
  8
IMPORT_IGES
100
AcDbLine
 62
7
  6
CONTINUOUS
 10
-26.3355576269
 20
-0.6373644434
 11
-26.2814677587
 21
-0.8594233152
  0
LINE
  5
24C
100
AcDbEntity
  8
IMPORT_IGES
100
AcDbLine
 62
253
  6
CONTINUOUS
 10
-26.1668386794
 20
-1.094752964
 11
-26.2202228874
 21
-0.875638006
  0
LINE
  5
24D
100
AcDbEntity
  8
IMPORT_IGES
100
AcDbLine
 62
7
  6
CONTINUOUS
 10
-26.3883851794
 20
-0.4142840908
 11
-26.3355576269
 21
-0.6373644434
  0
LINE
  5
24E
100
AcDbEntity
  8
IMPORT_IGES
100
AcDbLine
 62
253
  6
CONTINUOUS
 10
-26.2202228874
 20
-0.875638006
 11
-26.2723597796
 21
-0.6554900877
  0
LINE
  5
24F
100
AcDbEntity
  8
IMPORT_IGES
100
AcDbLine
 62
7
  6
CONTINUOUS
 10
-26.439948976
 20
-0.1901896488
 11
-26.3883851794
 21
-0.4142840908
  0
LINE
  5
250
100
AcDbEntity
  8
IMPORT_IGES
100
AcDbLine
 62
253
  6
CONTINUOUS
 10
-26.2723597796
 20
-0.6554900877
 11
-26.3232500041
 21
-0.434316055
  0
LWPOLYLINE
  5
251
100
AcDbEntity
  8
IMPORT_IGES
100
AcDbPolyline
 62
253
  6
CONTINUOUS
 90
6
 70
0
 10
-27.6689524654
 20
2.8165219538
 10
-27.6533896534
 20
2.7472245561
 10
-27.6316700666
 20
2.6802810738
 10
-27.6038955425
 20
2.6162744416
 10
-27.5703790092
 20
2.5559130077
 10
-27.5449109733
 20
2.5177721725
  0
LWPOLYLINE
  5
252
100
AcDbEntity
  8
IMPORT_IGES
100
AcDbPolyline
 62
253
  6
CONTINUOUS
 90
5
 70
0
 10
-29.1236632171
 20
5.0567736834
 10
-29.1087149229
 20
4.9896885609
 10
-29.0880826698
 20
4.9249748311
 10
-29.0617822149
 20
4.8630238514
 10
-29.0358290726
 20
4.8142181727
  0
LINE
  5
253
100
AcDbEntity
  8
IMPORT_IGES
100
AcDbLine
 62
7
  6
CONTINUOUS
 10
-26.4902474888
 20
0.0349108875
 11
-26.439948976
 21
-0.1901896488
  0
LWPOLYLINE
  5
254
100
AcDbEntity
  8
IMPORT_IGES
100
AcDbPolyline
 62
253
  6
CONTINUOUS
 90
3
 70
0
 10
-26.3232500041
 20
-0.434316055
 10
-26.3728970397
 20
-0.2121286917
 10
-26.3972541998
 20
-0.1006561537
  0
LWPOLYLINE
  5
255
100
AcDbEntity
  8
IMPORT_IGES
100
AcDbPolyline
 62
7
  6
CONTINUOUS
 90
3
 70
0
 10
-29.1763807068
 20
5.2014487699
 10
-29.1596364216
 20
5.1211258253
 10
-29.1348087088
 20
5.0343267383
  0
LWPOLYLINE
  5
256
100
AcDbEntity
  8
IMPORT_IGES
100
AcDbPolyline
 62
7
  6
CONTINUOUS
 90
13
 70
0
 10
-22.8867159449
 20
-18.6071586004
 10
-22.8821721628
 20
-18.6924031422
 10
-22.8701769528
 20
-18.7820007458
 10
-22.8506781278
 20
-18.871111109
 10
-22.823711929
 20
-18.9588698772
 10
-22.7893419058
 20
-19.0446820197
 10
-22.7475326571
 20
-19.1282310899
 10
-22.6984586976
 20
-19.208789751
 10
-22.6424008664
 20
-19.2856505002
 10
-22.5793457397
 20
-19.3585731558
 10
-22.5094293967
 20
-19.4270765798
 10
-22.4331473228
 20
-19.4904227644
 10
-22.3510045585
 20
-19.5480468519
  0
LWPOLYLINE
  5
257
100
AcDbEntity
  8
IMPORT_IGES
100
AcDbPolyline
 62
253
  6
CONTINUOUS
 90
10
 70
0
 10
-22.5542266076
 20
-19.0997720926
 10
-22.5516418217
 20
-19.1593721144
 10
-22.5450004078
 20
-19.2159800821
 10
-22.5344409019
 20
-19.2693519652
 10
-22.5201760232
 20
-19.3191116405
 10
-22.5023475541
 20
-19.3652584444
 10
-22.4809024193
 20
-19.4080558273
 10
-22.4558754288
 20
-19.4473511686
 10
-22.4274288322
 20
-19.4828220866
 10
-22.3955867487
 20
-19.5143635692
  0
LINE
  5
258
100
AcDbEntity
  8
IMPORT_IGES
100
AcDbLine
 62
253
  6
CONTINUOUS
 10
-22.8867189969
 20
-18.6072195634
 11
-22.8863726894
 21
-18.6193616325
  0
LINE
  5
259
100
AcDbEntity
  8
IMPORT_IGES
100
AcDbLine
 62
7
  6
CONTINUOUS
 10
-23.0896286049
 20
-4.6113635662
 11
-22.8867190339
 21
-18.607217012
  0
LINE
  5
25A
100
AcDbEntity
  8
IMPORT_IGES
100
AcDbLine
 62
253
  6
CONTINUOUS
 10
-22.5543991698
 20
-19.0996631155
 11
-22.7598898549
 21
-4.9257752093
  0
LINE
  5
25B
100
AcDbEntity
  8
IMPORT_IGES
100
AcDbLine
 62
7
  6
CONTINUOUS
 10
-21.1205621888
 20
17.8221092394
 11
-20.9367103271
 21
35.0226694466
  0
LWPOLYLINE
  5
25C
100
AcDbEntity
  8
IMPORT_IGES
100
AcDbPolyline
 62
253
  6
CONTINUOUS
 90
22
 70
0
 10
-20.4080056789
 20
14.4275040706
 10
-20.4122990163
 20
14.3554012866
 10
-20.422573142
 20
14.2823852643
 10
-20.4388206191
 20
14.2090099988
 10
-20.4608649836
 20
14.1360458354
 10
-20.4885376453
 20
14.0638557328
 10
-20.5218551353
 20
13.9923683274
 10
-20.5606047158
 20
13.9220840447
 10
-20.6044659725
 20
13.8535364024
 10
-20.653454033
 20
13.78669237
 10
-20.7072433385
 20
13.7220265699
 10
-20.7654259395
 20
13.6599999747
 10
-20.8280163869
 20
13.6005962345
 10
-20.8945796042
 20
13.5442541494
 10
-20.9646352362
 20
13.4913587846
 10
-21.0382131514
 20
13.4418920392
 10
-21.1147688887
 20
13.3962451443
 10
-21.1937620723
 20
13.3547221259
 10
-21.2752649853
 20
13.3172938074
 10
-21.3588922604
 20
13.2841891597
 10
-21.4437799335
 20
13.2557568836
 10
-21.5292713056
 20
13.2321591096
  0
LINE
  5
25D
100
AcDbEntity
  8
IMPORT_IGES
100
AcDbLine
 62
7
  6
CONTINUOUS
 10
-14.2927574998
 20
27.6381952781
 11
-14.2983648385
 21
27.6237433547
  0
LINE
  5
25E
100
AcDbEntity
  8
IMPORT_IGES
100
AcDbLine
 62
7
  6
CONTINUOUS
 10
-13.7404026676
 20
27.277218359
 11
-13.4094905592
 21
28.1300857588
  0
LWPOLYLINE
  5
25F
100
AcDbEntity
  8
IMPORT_IGES
100
AcDbPolyline
 62
7
  6
CONTINUOUS
 90
28
 70
0
 10
-13.4094904925
 20
28.1300859755
 10
-13.3999661177
 20
28.1532405838
 10
-13.3902880586
 20
28.1751836553
 10
-13.3804563152
 20
28.1959151902
 10
-13.3704340999
 20
28.2153906159
 10
-13.3602582002
 20
28.2336545049
 10
-13.350038979
 20
28.2508405746
 10
-13.3397922901
 20
28.2669592156
 10
-13.3295022795
 20
28.2820000373
 10
-13.319231748
 20
28.296065586
 10
-13.3089844892
 20
28.3091703688
 10
-13.2987567094
 20
28.3212998785
 10
-13.2885998277
 20
28.3325131402
 10
-13.2785149566
 20
28.3428182713
 10
-13.2685009837
 20
28.3522071542
 10
-13.2586059908
 20
28.3607144613
 10
-13.2488287932
 20
28.3683441711
 10
-13.2391705756
 20
28.375092305
 10
-13.2296829749
 20
28.3809815995
 10
-13.2203585341
 20
28.386010998
 10
-13.2112047102
 20
28.3901815571
 10
-13.2022955095
 20
28.3935191828
 10
-13.1936265592
 20
28.3960085042
 10
-13.1852022323
 20
28.3976648921
 10
-13.1771096541
 20
28.3985603655
 10
-13.1693778664
 20
28.3987189305
 10
-13.1619778276
 20
28.3981165808
 10
-13.1549095375
 20
28.3967533166
  0
LINE
  5
260
100
AcDbEntity
  8
IMPORT_IGES
100
AcDbLine
 62
7
  6
CONTINUOUS
 10
-2.4778238448
 20
28.0395531893
 11
-2.4265312245
 21
28.080857682
  0
LINE
  5
261
100
AcDbEntity
  8
IMPORT_IGES
100
AcDbLine
 62
7
  6
CONTINUOUS
 10
-3.5044088341
 20
28.0693023362
 11
-3.6475260263
 21
27.9601184412
  0
LINE
  5
262
100
AcDbEntity
  8
IMPORT_IGES
100
AcDbLine
 62
7
  6
CONTINUOUS
 10
-3.5561496021
 20
27.9073588391
 11
-3.5044088341
 21
27.9468317947
  0
LINE
  5
263
100
AcDbEntity
  8
IMPORT_IGES
100
AcDbLine
 62
7
  6
CONTINUOUS
 10
-2.4265312245
 20
28.080857682
 11
-2.3741598501
 21
28.1205053973
  0
LINE
  5
264
100
AcDbEntity
  8
IMPORT_IGES
100
AcDbLine
 62
7
  6
CONTINUOUS
 10
-1.0841225651
 20
27.8259012527
 11
-1.1367105445
 21
27.7867811403
  0
LINE
  5
265
100
AcDbEntity
  8
IMPORT_IGES
100
AcDbLine
 62
7
  6
CONTINUOUS
 10
-1.1367105445
 20
27.6643105988
 11
-1.0841225651
 21
27.7034307111
  0
LINE
  5
266
100
AcDbEntity
  8
IMPORT_IGES
100
AcDbLine
 62
7
  6
CONTINUOUS
 10
-3.3616987999
 20
28.173378773
 11
-3.5044088341
 21
28.0693023362
  0
LINE
  5
267
100
AcDbEntity
  8
IMPORT_IGES
100
AcDbLine
 62
7
  6
CONTINUOUS
 10
-3.5044088341
 20
27.9468317947
 11
-3.3616987999
 21
28.0509082315
  0
LINE
  5
268
100
AcDbEntity
  8
IMPORT_IGES
100
AcDbLine
 62
7
  6
CONTINUOUS
 10
-2.3741598501
 20
28.1205053973
 11
-2.3207097214
 21
28.1584963355
  0
LWPOLYLINE
  5
269
100
AcDbEntity
  8
IMPORT_IGES
100
AcDbPolyline
 62
253
  6
CONTINUOUS
 90
3
 70
0
 10
14.9603976675
 20
38.668820736
 10
15.0127928559
 20
38.7058389418
 10
15.0654666177
 20
38.7385110931
  0
LINE
  5
26A
100
AcDbEntity
  8
IMPORT_IGES
100
AcDbLine
 62
7
  6
CONTINUOUS
 10
-3.2193959236
 20
28.2723477517
 11
-3.3616987999
 21
28.173378773
  0
LINE
  5
26B
100
AcDbEntity
  8
IMPORT_IGES
100
AcDbLine
 62
7
  6
CONTINUOUS
 10
-3.3616987999
 20
28.0509082315
 11
-3.2193959236
 21
28.1498772102
  0
LINE
  5
26C
100
AcDbEntity
  8
IMPORT_IGES
100
AcDbLine
 62
7
  6
CONTINUOUS
 10
-3.0783066965
 20
28.3667519944
 11
-3.2193959236
 21
28.2723477517
  0
LINE
  5
26D
100
AcDbEntity
  8
IMPORT_IGES
100
AcDbLine
 62
7
  6
CONTINUOUS
 10
-2.3207097214
 20
28.1584963355
 11
-2.2666337515
 21
28.1946069102
  0
LINE
  5
26E
100
AcDbEntity
  8
IMPORT_IGES
100
AcDbLine
 62
7
  6
CONTINUOUS
 10
-3.2193959236
 20
28.1498772102
 11
-3.0776787289
 21
28.2439188722
  0
LINE
  5
26F
100
AcDbEntity
  8
IMPORT_IGES
100
AcDbLine
 62
7
  6
CONTINUOUS
 10
-1.1367105445
 20
27.7867811403
 11
-1.1970315392
 21
27.7480624455
  0
LINE
  5
270
100
AcDbEntity
  8
IMPORT_IGES
100
AcDbLine
 62
7
  6
CONTINUOUS
 10
-1.1367105445
 20
27.6643105988
 11
-1.1970315392
 21
27.625591904
  0
LINE
  5
271
100
AcDbEntity
  8
IMPORT_IGES
100
AcDbLine
 62
7
  6
CONTINUOUS
 10
-2.9364004715
 20
28.3328326866
 11
-3.0776785611
 21
28.2439187834
  0
LINE
  5
272
100
AcDbEntity
  8
IMPORT_IGES
100
AcDbLine
 62
7
  6
CONTINUOUS
 10
-2.2666337515
 20
28.1946069102
 11
-2.2115343453
 21
28.2290929012
  0
LINE
  5
273
100
AcDbEntity
  8
IMPORT_IGES
100
AcDbLine
 62
7
  6
CONTINUOUS
 10
-2.9362708785
 20
28.4552400778
 11
-3.0783066965
 21
28.3667519944
  0
LINE
  5
274
100
AcDbEntity
  8
IMPORT_IGES
100
AcDbLine
 62
7
  6
CONTINUOUS
 10
-2.7949316079
 20
28.4161385933
 11
-2.9363932094
 21
28.3328374956
  0
LINE
  5
275
100
AcDbEntity
  8
IMPORT_IGES
100
AcDbLine
 62
7
  6
CONTINUOUS
 10
-2.2115343453
 20
28.2290929012
 11
-2.1538311224
 21
28.2624965093
  0
LINE
  5
276
100
AcDbEntity
  8
IMPORT_IGES
100
AcDbLine
 62
7
  6
CONTINUOUS
 10
-2.7934640022
 20
28.5377644493
 11
-2.9362708785
 21
28.4552400778
  0
LINE
  5
277
100
AcDbEntity
  8
IMPORT_IGES
100
AcDbLine
 62
7
  6
CONTINUOUS
 10
16.1399028289
 20
39.4603518692
 11
14.915459306
 21
38.753373525
  0
LINE
  5
278
100
AcDbEntity
  8
IMPORT_IGES
100
AcDbLine
 62
7
  6
CONTINUOUS
 10
-4.8827603675
 20
27.2907884258
 11
-5.5394971043
 21
26.9115968648
  0
LINE
  5
279
100
AcDbEntity
  8
IMPORT_IGES
100
AcDbLine
 62
7
  6
CONTINUOUS
 10
-6.9703524247
 20
26.0854389356
 11
-7.6420395201
 21
25.697615225
  0
LINE
  5
27A
100
AcDbEntity
  8
IMPORT_IGES
100
AcDbLine
 62
253
  6
CONTINUOUS
 10
16.2688136507
 20
39.4333086462
 11
15.0654664982
 21
38.7385110819
  0
LINE
  5
27B
100
AcDbEntity
  8
IMPORT_IGES
100
AcDbLine
 62
7
  6
CONTINUOUS
 10
-4.8827603675
 20
27.1683178843
 11
-5.4667071802
 21
26.8311543132
  0
LINE
  5
27C
100
AcDbEntity
  8
IMPORT_IGES
100
AcDbLine
 62
7
  6
CONTINUOUS
 10
-6.9703524247
 20
25.9629683941
 11
-7.5758574301
 21
25.6133573927
  0
LINE
  5
27D
100
AcDbEntity
  8
IMPORT_IGES
100
AcDbLine
 62
253
  6
CONTINUOUS
 10
15.3845754705
 20
38.5542615606
 11
16.5351095363
 21
39.2185655107
  0
LINE
  5
27E
100
AcDbEntity
  8
IMPORT_IGES
100
AcDbLine
 62
253
  6
CONTINUOUS
 10
16.7041252278
 20
38.8275333043
 11
15.5966866178
 21
38.1881121304
  0
LINE
  5
27F
100
AcDbEntity
  8
IMPORT_IGES
100
AcDbLine
 62
7
  6
CONTINUOUS
 10
-1.1970315392
 20
27.7480624455
 11
-1.5850055661
 21
27.5240511049
  0
LINE
  5
280
100
AcDbEntity
  8
IMPORT_IGES
100
AcDbLine
 62
7
  6
CONTINUOUS
 10
-1.1970315392
 20
27.625591904
 11
-1.5850055661
 21
27.4015805633
  0
LINE
  5
281
100
AcDbEntity
  8
IMPORT_IGES
100
AcDbLine
 62
7
  6
CONTINUOUS
 10
-2.8113136795
 20
26.0610775989
 11
-3.461294718
 21
25.6857866934
  0
LINE
  5
282
100
AcDbEntity
  8
IMPORT_IGES
100
AcDbLine
 62
7
  6
CONTINUOUS
 10
-2.8113136795
 20
25.9386070574
 11
-3.461294718
 21
25.5633161519
  0
LINE
  5
283
100
AcDbEntity
  8
IMPORT_IGES
100
AcDbLine
 62
7
  6
CONTINUOUS
 10
-3.0977576868
 20
25.315522873
 11
-2.1732339551
 21
25.8493312887
  0
LINE
  5
284
100
AcDbEntity
  8
IMPORT_IGES
100
AcDbLine
 62
7
  6
CONTINUOUS
 10
-1.029699161
 20
27.2294189246
 11
-0.6651618434
 21
27.4392799694
  0
LINE
  5
285
100
AcDbEntity
  8
IMPORT_IGES
100
AcDbLine
 62
7
  6
CONTINUOUS
 10
-2.6542336942
 20
28.6170788857
 11
-2.7934640022
 21
28.5377644493
  0
LINE
  5
286
100
AcDbEntity
  8
IMPORT_IGES
100
AcDbLine
 62
7
  6
CONTINUOUS
 10
-0.6651618434
 20
27.4392799694
 11
-0.627522269
 21
27.4601708131
  0
LINE
  5
287
100
AcDbEntity
  8
IMPORT_IGES
100
AcDbLine
 62
7
  6
CONTINUOUS
 10
-2.6532802974
 20
28.4940534352
 11
-2.7949233858
 21
28.4161431688
  0
LINE
  5
288
100
AcDbEntity
  8
IMPORT_IGES
100
AcDbLine
 62
7
  6
CONTINUOUS
 10
-2.1538311224
 20
28.2624965093
 11
-2.0934041866
 21
28.2952338327
  0
LWPOLYLINE
  5
289
100
AcDbEntity
  8
IMPORT_IGES
100
AcDbPolyline
 62
253
  6
CONTINUOUS
 90
16
 70
0
 10
15.1043148803
 20
37.3323087351
 10
15.0809788041
 20
37.3203044172
 10
15.0555742725
 20
37.3097594707
 10
15.0283796158
 20
37.3007894309
 10
14.9996927773
 20
37.2934925784
 10
14.9698280519
 20
37.2879488629
 10
14.939112643
 20
37.2842190268
 10
14.9078830719
 20
37.2823439387
 10
14.8764814959
 20
37.2823441465
 10
14.8452519623
 20
37.2842196514
 10
14.8145364067
 20
37.287949942
 10
14.7846715923
 20
37.2934941439
 10
14.7559853525
 20
37.3007913346
 10
14.7287920803
 20
37.3097613833
 10
14.7033893627
 20
37.3203059629
 10
14.6800553571
 20
37.3323094608
  0
LINE
  5
28A
100
AcDbEntity
  8
IMPORT_IGES
100
AcDbLine
 62
7
  6
CONTINUOUS
 10
-2.6532764781
 20
28.4940556596
 11
-2.511457913
 21
28.5663466063
  0
LINE
  5
28B
100
AcDbEntity
  8
IMPORT_IGES
100
AcDbLine
 62
7
  6
CONTINUOUS
 10
-2.0934041866
 20
28.2952338327
 11
-2.0304840699
 21
28.32695316
  0
LINE
  5
28C
100
AcDbEntity
  8
IMPORT_IGES
100
AcDbLine
 62
7
  6
CONTINUOUS
 10
-2.0304840699
 20
28.32695316
 11
-1.9651264602
 21
28.3576864687
  0
LINE
  5
28D
100
AcDbEntity
  8
IMPORT_IGES
100
AcDbLine
 62
7
  6
CONTINUOUS
 10
-0.5764478054
 20
27.4814925619
 11
-0.6233084846
 21
27.4617783624
  0
LINE
  5
28E
100
AcDbEntity
  8
IMPORT_IGES
100
AcDbLine
 62
7
  6
CONTINUOUS
 10
-0.5766521431
 20
27.4816544864
 11
-0.5251244104
 21
27.4988756629
  0
LWPOLYLINE
  5
28F
100
AcDbEntity
  8
IMPORT_IGES
100
AcDbPolyline
 62
253
  6
CONTINUOUS
 90
5
 70
0
 10
-26.1668386794
 20
-1.094752964
 10
-25.5037431961
 20
-1.9027567462
 10
-24.8067043933
 20
-2.6987148084
 10
-24.0761520019
 20
-3.4821418704
 10
-23.3125183709
 20
-4.2525851784
  0
LWPOLYLINE
  5
290
100
AcDbEntity
  8
IMPORT_IGES
100
AcDbPolyline
 62
7
  6
CONTINUOUS
 90
5
 70
0
 10
-26.038128157
 20
-1.3552802884
 10
-25.3980882582
 20
-2.1373550273
 10
-24.6914460157
 20
-2.9475687412
 10
-23.9512410111
 20
-3.744320326
 10
-23.1779334171
 20
-4.5271633891
  0
LWPOLYLINE
  5
291
100
AcDbEntity
  8
IMPORT_IGES
100
AcDbPolyline
 62
7
  6
CONTINUOUS
 90
6
 70
0
 10
-26.0381330808
 20
-1.3552709131
 10
-26.0833024577
 20
-1.2947599893
 10
-26.1253471597
 20
-1.2309771736
 10
-26.1636219659
 20
-1.1647436025
 10
-26.1978829785
 20
-1.0964843471
 10
-26.2280458305
 20
-1.0264080769
  0
LWPOLYLINE
  5
292
100
AcDbEntity
  8
IMPORT_IGES
100
AcDbPolyline
 62
7
  6
CONTINUOUS
 90
31
 70
0
 10
-27.5449109733
 20
2.5177721725
 10
-27.5386516729
 20
2.5090038155
 10
-27.5041809362
 20
2.4594397486
 10
-27.4673611354
 20
2.4043101065
 10
-27.4282894705
 20
2.3435013967
 10
-27.3872767341
 20
2.2772474625
 10
-27.3447819924
 20
2.2060844039
 10
-27.3010039268
 20
2.1301793844
 10
-27.2561782222
 20
2.0497800779
 10
-27.2107382314
 20
1.965515206
 10
-27.1648885978
 20
1.8776266818
 10
-27.1188263081
 20
1.7863770897
 10
-27.0729380468
 20
1.6924817401
 10
-27.0274870843
 20
1.5964240658
 10
-26.9826968461
 20
1.4985909094
 10
-26.9388490608
 20
1.3995549973
 10
-26.8961885081
 20
1.2999270754
 10
-26.8549025515
 20
1.2001720453
 10
-26.815173185
 20
1.1007083946
 10
-26.7771747399
 20
1.0020235668
 10
-26.7410409837
 20
0.904595061
 10
-26.7069009453
 20
0.8088598621
 10
-26.6749053177
 20
0.7152979625
 10
-26.6451366464
 20
0.6243044595
 10
-26.6176658861
 20
0.5363021213
 10
-26.592556089
 20
0.4516876609
 10
-26.5698572011
 20
0.3708251902
 10
-26.5496071738
 20
0.2941446283
 10
-26.5318060983
 20
0.2220154156
 10
-26.5164123782
 20
0.1546740203
 10
-26.4902474888
 20
0.0349108875
  0
LWPOLYLINE
  5
293
100
AcDbEntity
  8
IMPORT_IGES
100
AcDbPolyline
 62
253
  6
CONTINUOUS
 90
9
 70
0
 10
-27.6689503984
 20
2.8165215779
 10
-27.8426584597
 20
3.0616392014
 10
-28.0133688656
 20
3.3077367989
 10
-28.1810726287
 20
3.5548018322
 10
-28.3457611976
 20
3.802822598
 10
-28.5074255935
 20
4.0517856192
 10
-28.6660564412
 20
4.3016756326
 10
-28.8216451068
 20
4.5524790742
 10
-28.9741836674
 20
4.8041840922
  0
LWPOLYLINE
  5
294
100
AcDbEntity
  8
IMPORT_IGES
100
AcDbPolyline
 62
253
  6
CONTINUOUS
 90
6
 70
0
 10
-26.3972542809
 20
-0.1006549505
 10
-26.4332298382
 20
-0.0494726082
 10
-26.4634685592
 20
0.003599584
 10
-26.4879311748
 20
0.0582784939
 10
-26.5065586769
 20
0.1141039749
 10
-26.5149218627
 20
0.1478362191
  0
LWPOLYLINE
  5
295
100
AcDbEntity
  8
IMPORT_IGES
100
AcDbPolyline
 62
7
  6
CONTINUOUS
 90
3
 70
0
 10
-27.8890527438
 20
3.0083217923
 10
-27.7023115666
 20
2.7395952197
 10
-27.5449109733
 20
2.5177721725
  0
LWPOLYLINE
  5
296
100
AcDbEntity
  8
IMPORT_IGES
100
AcDbPolyline
 62
253
  6
CONTINUOUS
 90
4
 70
0
 10
-27.6689503984
 20
2.8165215779
 10
-27.5959657459
 20
2.7096363953
 10
-27.5251444749
 20
2.6017298899
 10
-27.4565586496
 20
2.492792239
  0
LWPOLYLINE
  5
297
100
AcDbEntity
  8
IMPORT_IGES
100
AcDbPolyline
 62
253
  6
CONTINUOUS
 90
19
 70
0
 10
-27.4565586496
 20
2.492792239
 10
-27.3908511803
 20
2.3836658658
 10
-27.3275048065
 20
2.2734914025
 10
-27.2648118824
 20
2.1597171008
 10
-27.2023873167
 20
2.041766978
 10
-27.1406364882
 20
1.9202292433
 10
-27.0789945962
 20
1.7943117117
 10
-27.0164765642
 20
1.6621820629
 10
-26.9540371949
 20
1.5257021542
 10
-26.8940423139
 20
1.3896101986
 10
-26.8371058259
 20
1.2547241556
 10
-26.7826376372
 20
1.1202264728
 10
-26.7312403989
 20
0.9883798599
 10
-26.683264045
 20
0.8602342128
 10
-26.6383833349
 20
0.7347294837
 10
-26.5961911849
 20
0.6109597024
 10
-26.5565674211
 20
0.4887661847
 10
-26.51961367
 20
0.3683115035
 10
-26.4852396488
 20
0.2491776056
  0
LINE
  5
298
100
AcDbEntity
  8
IMPORT_IGES
100
AcDbLine
 62
253
  6
CONTINUOUS
 10
-28.9741836674
 20
4.8041840922
 11
-29.1236640698
 21
5.0567779299
  0
LWPOLYLINE
  5
299
100
AcDbEntity
  8
IMPORT_IGES
100
AcDbPolyline
 62
7
  6
CONTINUOUS
 90
8
 70
0
 10
-29.0357865665
 20
4.8141452408
 10
-28.9357426939
 20
4.6443162999
 10
-28.7701264412
 20
4.3689071888
 10
-28.6009630485
 20
4.0945753986
 10
-28.4282642424
 20
3.8213380201
 10
-28.2520406004
 20
3.549209168
 10
-28.0723000245
 20
3.2781990648
 10
-27.8890527438
 20
3.0083217923
  0
LWPOLYLINE
  5
29A
100
AcDbEntity
  8
IMPORT_IGES
100
AcDbPolyline
 62
7
  6
CONTINUOUS
 90
6
 70
0
 10
-29.7175243941
 20
12.0709460952
 10
-29.7398497065
 20
12.11267116
 10
-29.7566193684
 20
12.1547600512
 10
-29.7678333795
 20
12.1972127688
 10
-29.7734921368
 20
12.2402701026
 10
-29.77422428
 20
12.265968944
  0
LWPOLYLINE
  5
29B
100
AcDbEntity
  8
IMPORT_IGES
100
AcDbPolyline
 62
7
  6
CONTINUOUS
 90
3
 70
0
 10
-29.7565542519
 20
11.9914277352
 10
-29.7397873319
 20
11.9493163603
 10
-29.7174649779
 20
11.9075611355
  0
LWPOLYLINE
  5
29C
100
AcDbEntity
  8
IMPORT_IGES
100
AcDbPolyline
 62
7
  6
CONTINUOUS
 90
3
 70
0
 10
-12.3613243092
 20
-27.7963082344
 10
-12.3417088032
 20
-27.8473953792
 10
-12.318934913
 20
-27.947274675
  0
LWPOLYLINE
  5
29D
100
AcDbEntity
  8
IMPORT_IGES
100
AcDbPolyline
 62
253
  6
CONTINUOUS
 90
28
 70
0
 10
-16.3113243092
 20
-33.3549767413
 10
-16.3037137051
 20
-33.4556220102
 10
-16.2809398147
 20
-33.555501306
 10
-16.243175961
 20
-33.6538544887
 10
-16.1907095498
 20
-33.7499330313
 10
-16.1239398821
 20
-33.8430057181
 10
-16.0433751155
 20
-33.9323642096
 10
-15.9496283963
 20
-34.017328434
 10
-15.8434131939
 20
-34.097251762
 10
-15.72553787
 20
-34.1715259289
 10
-15.5968995269
 20
-34.2395856634
 10
-15.4584771802
 20
-34.3009129899
 10
-15.3113243075
 20
-34.3550411704
 10
-15.1565608311
 20
-34.4015582568
 10
-14.9953645943
 20
-34.4401102259
 10
-14.8289623979
 20
-34.4704036739
 10
-14.6586206631
 20
-34.4922080495
 10
-14.4856357934
 20
-34.5053574082
 10
-14.311324308
 20
-34.5097516754
 10
-14.1370128226
 20
-34.5053574081
 10
-13.9640279529
 20
-34.4922080493
 10
-13.7936862182
 20
-34.4704036736
 10
-13.6272840218
 20
-34.4401102254
 10
-13.4660877851
 20
-34.4015582562
 10
-13.3113243088
 20
-34.3550411697
 10
-13.1641714362
 20
-34.3009129891
 10
-13.0257490897
 20
-34.2395856626
 10
-12.8971107468
 20
-34.1715259279
  0
LWPOLYLINE
  5
29E
100
AcDbEntity
  8
IMPORT_IGES
100
AcDbPolyline
 62
7
  6
CONTINUOUS
 90
22
 70
0
 10
-19.1780706066
 20
34.8099360845
 10
-19.1558206607
 20
34.4004921851
 10
-19.1067555312
 20
33.9926622257
 10
-19.0311189263
 20
33.5869184343
 10
-18.9291708512
 20
33.1836960145
 10
-18.8012182275
 20
32.783515219
 10
-18.6476490365
 20
32.3869942971
 10
-18.468949816
 20
31.9948159292
 10
-18.2654899703
 20
31.6072985771
 10
-18.0374908653
 20
31.2245471195
 10
-17.7854150544
 20
30.8471164937
 10
-17.5097186341
 20
30.4754835241
 10
-17.2104996475
 20
30.1096670608
 10
-16.8881725101
 20
29.750139605
 10
-16.5432751083
 20
29.397463003
 10
-16.1759808112
 20
29.0518094994
 10
-15.7867515988
 20
28.7136483217
 10
-15.3761688172
 20
28.3835117044
 10
-14.9445195036
 20
28.0616715754
 10
-14.4922653413
 20
27.7485383141
 10
-14.0200972726
 20
27.4446494942
 10
-13.5286477783
 20
27.1504573816
  0
LINE
  5
29F
100
AcDbEntity
  8
IMPORT_IGES
100
AcDbLine
 62
7
  6
CONTINUOUS
 10
-16.2613243092
 20
-28.0070964283
 11
-16.2599606835
 21
-28.0491953819
  0
LWPOLYLINE
  5
2A0
100
AcDbEntity
  8
IMPORT_IGES
100
AcDbPolyline
 62
7
  6
CONTINUOUS
 90
22
 70
0
 10
-11.5940279178
 20
36.5368971351
 10
-11.5746757632
 20
36.6261809103
 10
-11.5615708616
 20
36.7192299567
 10
-11.554713213
 20
36.8160442744
 10
-11.5541518987
 20
36.9171398382
 10
-11.5598378375
 20
37.0220006731
 10
-11.5716237855
 20
37.1290788551
 10
-11.5895863227
 20
37.2383950505
 10
-11.6136488692
 20
37.3499285928
 10
-11.643434441
 20
37.4620695583
 10
-11.6790147549
 20
37.5748230293
 10
-11.720318094
 20
37.6881839236
 10
-11.7667523232
 20
37.8005270707
 10
-11.8183835577
 20
37.9118421778
 10
-11.8751456822
 20
38.0221395377
 10
-11.9362482166
 20
38.1298248588
 10
-12.0017508047
 20
38.2348723245
 10
-12.0715938026
 20
38.3373077513
 10
-12.1448077982
 20
38.4356142964
 10
-12.221069654
 20
38.5292863453
 10
-12.3007025075
 20
38.6188295124
 10
-12.3837063587
 20
38.7042437977
  0
LINE
  5
2A1
100
AcDbEntity
  8
IMPORT_IGES
100
AcDbLine
 62
7
  6
CONTINUOUS
 10
-13.6515114192
 20
28.6593410915
 11
-11.5940279178
 21
36.5368971351
  0
LINE
  5
2A2
100
AcDbEntity
  8
IMPORT_IGES
100
AcDbLine
 62
253
  6
CONTINUOUS
 10
-11.252023114
 20
36.2359406723
 11
-13.2860194765
 21
28.4483106245
  0
LINE
  5
2A3
100
AcDbEntity
  8
IMPORT_IGES
100
AcDbLine
 62
7
  6
CONTINUOUS
 10
-9.15871068
 20
36.4304016623
 11
-11.8125938464
 21
26.2693902315
  0
LWPOLYLINE
  5
2A4
100
AcDbEntity
  8
IMPORT_IGES
100
AcDbPolyline
 62
253
  6
CONTINUOUS
 90
10
 70
0
 10
-9.15871068
 20
36.4304016623
 10
-9.1637862727
 20
36.4121157459
 10
-9.1857357798
 20
36.3498656739
 10
-9.2142977689
 20
36.2898325335
 10
-9.2493125097
 20
36.2323520543
 10
-9.2905841857
 20
36.1777456905
 10
-9.3378819889
 20
36.1263188231
 10
-9.3909414108
 20
36.0783590519
 10
-9.4494657215
 20
36.0341345875
 10
-9.5131276294
 20
35.993892751
  0
LINE
  5
2A5
100
AcDbEntity
  8
IMPORT_IGES
100
AcDbLine
 62
7
  6
CONTINUOUS
 10
-1.0017702816
 20
27.9054270907
 11
-1.039267601
 21
27.8654227827
  0
LINE
  5
2A6
100
AcDbEntity
  8
IMPORT_IGES
100
AcDbLine
 62
7
  6
CONTINUOUS
 10
-1.039267601
 20
27.7429522411
 11
-1.0017702816
 21
27.7829565492
  0
LINE
  5
2A7
100
AcDbEntity
  8
IMPORT_IGES
100
AcDbLine
 62
7
  6
CONTINUOUS
 10
-0.2183065049
 20
28.0069297275
 11
-0.2251283877
 21
27.9997268278
  0
LINE
  5
2A8
100
AcDbEntity
  8
IMPORT_IGES
100
AcDbLine
 62
7
  6
CONTINUOUS
 10
-1.039267601
 20
27.8654227827
 11
-1.0841225651
 21
27.8259012527
  0
LINE
  5
2A9
100
AcDbEntity
  8
IMPORT_IGES
100
AcDbLine
 62
7
  6
CONTINUOUS
 10
-1.0841225651
 20
27.7034307111
 11
-1.039267601
 21
27.7429522411
  0
LINE
  5
2AA
100
AcDbEntity
  8
IMPORT_IGES
100
AcDbLine
 62
7
  6
CONTINUOUS
 10
-0.218612845
 20
28.007006961
 11
-0.2148496261
 21
28.0102924405
  0
LINE
  5
2AB
100
AcDbEntity
  8
IMPORT_IGES
100
AcDbLine
 62
7
  6
CONTINUOUS
 10
-3.9130114939
 20
24.0950410971
 11
-3.4139319987
 21
24.3832033427
  0
LINE
  5
2AC
100
AcDbEntity
  8
IMPORT_IGES
100
AcDbLine
 62
7
  6
CONTINUOUS
 10
-3.3073292875
 20
24.4447544121
 11
-2.6358133119
 21
24.8324793203
  0
LINE
  5
2AD
100
AcDbEntity
  8
IMPORT_IGES
100
AcDbLine
 62
7
  6
CONTINUOUS
 10
-1.3480947887
 20
25.5759918567
 11
-0.6325819221
 21
25.9891200184
  0
LINE
  5
2AE
100
AcDbEntity
  8
IMPORT_IGES
100
AcDbLine
 62
7
  6
CONTINUOUS
 10
-0.4332290138
 20
26.1042236308
 11
0.242920843
 21
26.494624084
  0
LINE
  5
2AF
100
AcDbEntity
  8
IMPORT_IGES
100
AcDbLine
 62
7
  6
CONTINUOUS
 10
1.2825341724
 20
27.094883791
 11
1.9355392371
 21
27.4719207313
  0
LINE
  5
2B0
100
AcDbEntity
  8
IMPORT_IGES
100
AcDbLine
 62
253
  6
CONTINUOUS
 10
-0.6420042422
 20
23.8296831537
 11
4.0927081124
 21
26.5634467273
  0
LINE
  5
2B1
100
AcDbEntity
  8
IMPORT_IGES
100
AcDbLine
 62
7
  6
CONTINUOUS
 10
4.6162109205
 20
26.1894328142
 11
0.4988774929
 21
23.8121360953
  0
LINE
  5
2B2
100
AcDbEntity
  8
IMPORT_IGES
100
AcDbLine
 62
7
  6
CONTINUOUS
 10
12.1845959721
 20
29.7880492992
 11
10.5788314807
 21
28.8609010069
  0
LINE
  5
2B3
100
AcDbEntity
  8
IMPORT_IGES
100
AcDbLine
 62
253
  6
CONTINUOUS
 10
4.8045451947
 20
26.1965926284
 11
0.6765213438
 21
23.8131859371
  0
LINE
  5
2B4
100
AcDbEntity
  8
IMPORT_IGES
100
AcDbLine
 62
7
  6
CONTINUOUS
 10
4.8133203692
 20
26.2953031876
 11
4.6162109205
 21
26.1894328142
  0
LWPOLYLINE
  5
2B5
100
AcDbEntity
  8
IMPORT_IGES
100
AcDbPolyline
 62
253
  6
CONTINUOUS
 90
28
 70
0
 10
4.8045451947
 20
26.1965926284
 10
4.9836171068
 20
26.2895893627
 10
5.1711615189
 20
26.3744157459
 10
5.367178431
 20
26.4510717781
 10
5.5726314466
 20
26.5198086073
 10
5.7865569622
 20
26.5803750853
 10
6.0060641674
 20
26.6320177683
 10
6.2314497421
 20
26.6746307102
 10
6.4624170065
 20
26.7083198569
 10
6.6951851101
 20
26.7326496028
 10
6.9292662947
 20
26.7474911884
 10
7.1651483186
 20
26.7529733731
 10
7.4005136061
 20
26.7490468294
 10
7.6358220848
 20
26.7356185879
 10
7.870613827
 20
26.7127816179
 10
8.1011914743
 20
26.6807655
 10
8.3274827741
 20
26.6393888555
 10
8.5495599791
 20
26.5888330631
 10
8.763942488
 20
26.5298718398
 10
8.9704169357
 20
26.4623840157
 10
9.1691966875
 20
26.3864907606
 10
9.3574412372
 20
26.3033293012
 10
9.5349633952
 20
26.2128187975
 10
9.7019503512
 20
26.1150400894
 10
9.8561231682
 20
26.0113729235
 10
9.9973207732
 20
25.9017388652
 10
10.1257042392
 20
25.786216349
 10
10.1752214769
 20
25.734078043
  0
LWPOLYLINE
  5
2B6
100
AcDbEntity
  8
IMPORT_IGES
100
AcDbPolyline
 62
253
  6
CONTINUOUS
 90
12
 70
0
 10
5.4220854268
 20
24.1748578282
 10
5.4949878131
 20
24.2085209377
 10
5.6704972912
 20
24.2778058092
 10
5.854490949
 20
24.3393165077
 10
6.0459378723
 20
24.3927083894
 10
6.2437653868
 20
24.4376823004
 10
6.4468650675
 20
24.4739862525
 10
6.6540989497
 20
24.5014168351
 10
6.8643059048
 20
24.5198203551
 10
7.0763081459
 20
24.5290936977
 10
7.2889178276
 20
24.5291849046
 10
7.3619522277
 20
24.5260532686
  0
LINE
  5
2B7
100
AcDbEntity
  8
IMPORT_IGES
100
AcDbLine
 62
253
  6
CONTINUOUS
 10
11.2951202971
 20
24.2857962508
 11
10.5726563609
 21
24.0518912055
  0
LWPOLYLINE
  5
2B8
100
AcDbEntity
  8
IMPORT_IGES
100
AcDbPolyline
 62
253
  6
CONTINUOUS
 90
27
 70
0
 10
10.5726563609
 20
24.0518912055
 10
9.8350596176
 20
23.8343005755
 10
9.0834346106
 20
23.6333502006
 10
8.318906891
 20
23.4493410019
 10
7.5426213311
 20
23.2825485315
 10
6.7557404106
 20
23.1332225592
 10
5.9594424759
 20
23.0015866992
 10
5.1549199749
 20
22.8878380749
 10
4.3433776719
 20
22.7921470238
 10
3.5260308434
 20
22.7146568421
 10
2.7041034578
 20
22.6554835706
 10
1.8788263431
 20
22.6147158207
 10
1.0514353434
 20
22.5924146418
 10
0.2231694683
 20
22.5886134295
 10
-0.6047309624
 20
22.6033178762
 10
-1.4310261763
 20
22.6365059621
 10
-2.2544788046
 20
22.6881279884
 10
-3.0738557355
 20
22.7581066516
 10
-3.8879299603
 20
22.8463371594
 10
-4.695482411
 20
22.9526873874
 10
-5.4953037861
 20
23.0769980774
 10
-6.2861963613
 20
23.2190830753
 10
-7.0669757828
 20
23.3787296103
 10
-7.8364728415
 20
23.5556986133
 10
-8.5935352233
 20
23.749725075
 10
-9.337029235
 20
23.9605184428
 10
-10.0658415018
 20
24.1877630557
  0
LWPOLYLINE
  5
2B9
100
AcDbEntity
  8
IMPORT_IGES
100
AcDbPolyline
 62
253
  6
CONTINUOUS
 90
10
 70
0
 10
-0.2549934983
 20
-17.4329505779
 10
-0.2082427448
 20
-17.4272169308
 10
-0.1623014554
 20
-17.4206463565
 10
-0.1172431774
 20
-17.4132565194
 10
-0.0731524707
 20
-17.4050792238
 10
-0.0300879776
 20
-17.3961237545
 10
0.0119146547
 20
-17.3863740932
 10
0.0527948982
 20
-17.3758391616
 10
0.0924705181
 20
-17.3645555668
 10
0.1308723834
 20
-17.3525490105
  0
LWPOLYLINE
  5
2BA
100
AcDbEntity
  8
IMPORT_IGES
100
AcDbPolyline
 62
7
  6
CONTINUOUS
 90
11
 70
0
 10
3.4258795527
 20
-15.6398757116
 10
3.4475680507
 20
-15.6372572411
 10
3.4739114827
 20
-15.6351776436
 10
3.5048360576
 20
-15.6339590002
 10
3.5402722879
 20
-15.6339017977
 10
3.5801801705
 20
-15.6352933076
 10
3.6243264501
 20
-15.6383977241
 10
3.6726917822
 20
-15.6434656587
 10
3.7256868222
 20
-15.6508099542
 10
3.7833884562
 20
-15.6607406895
 10
3.8494348868
 20
-15.6743821308
  0
LWPOLYLINE
  5
2BB
100
AcDbEntity
  8
IMPORT_IGES
100
AcDbPolyline
 62
253
  6
CONTINUOUS
 90
19
 70
0
 10
-1.6258140369
 20
-17.112347802
 10
-1.5704514876
 20
-17.1252090568
 10
-1.5109945541
 20
-17.1406986864
 10
-1.4474403841
 20
-17.1585758761
 10
-1.3791537943
 20
-17.1788132216
 10
-1.3068308968
 20
-17.2008780951
 10
-1.232715099
 20
-17.2239813347
 10
-1.1583706533
 20
-17.2481560808
 10
-1.0829009324
 20
-17.2734010983
 10
-1.0049627885
 20
-17.2989443296
 10
-0.9237476749
 20
-17.3251693713
 10
-0.8405667942
 20
-17.3512659079
 10
-0.7572486591
 20
-17.3746781234
 10
-0.6754814712
 20
-17.3953597884
 10
-0.5942435014
 20
-17.4135029953
 10
-0.5113641814
 20
-17.4268175149
 10
-0.4264439932
 20
-17.4342652836
 10
-0.3408058657
 20
-17.4363756322
 10
-0.2549934983
 20
-17.4329505779
  0
LWPOLYLINE
  5
2BC
100
AcDbEntity
  8
IMPORT_IGES
100
AcDbPolyline
 62
7
  6
CONTINUOUS
 90
11
 70
0
 10
2.2210579355
 20
-17.7198850581
 10
2.2470791864
 20
-17.7261502891
 10
2.3405876358
 20
-17.7440711699
 10
2.4353630654
 20
-17.7551165174
 10
2.5312037663
 20
-17.7591834924
 10
2.6275303897
 20
-17.756141432
 10
2.7235078103
 20
-17.7459512249
 10
2.8185911507
 20
-17.7286404826
 10
2.9121564705
 20
-17.7043038448
 10
3.003427719
 20
-17.6731681568
 10
3.0916821621
 20
-17.6355686242
  0
LINE
  5
2BD
100
AcDbEntity
  8
IMPORT_IGES
100
AcDbLine
 62
7
  6
CONTINUOUS
 10
2.2211560882
 20
-17.7199097751
 11
2.2210759673
 21
-17.7198895952
  0
LWPOLYLINE
  5
2BE
100
AcDbEntity
  8
IMPORT_IGES
100
AcDbPolyline
 62
253
  6
CONTINUOUS
 90
3
 70
0
 10
-0.6820685848
 20
-16.6281157466
 10
0.6505390743
 20
-17.0039637029
 10
2.0002716748
 20
-17.3580302492
  0
LWPOLYLINE
  5
2BF
100
AcDbEntity
  8
IMPORT_IGES
100
AcDbPolyline
 62
7
  6
CONTINUOUS
 90
5
 70
0
 10
-3.0154842522
 20
-16.194102985
 10
-1.7149570876
 20
-16.6133143055
 10
-0.3958757185
 20
-17.0106358275
 10
0.9407636276
 20
-17.3857135888
 10
2.2211381444
 20
-17.7199062682
  0
LWPOLYLINE
  5
2C0
100
AcDbEntity
  8
IMPORT_IGES
100
AcDbPolyline
 62
253
  6
CONTINUOUS
 90
11
 70
0
 10
2.2210759673
 20
-17.7198895952
 10
2.189301367
 20
-17.708535692
 10
2.160014887
 20
-17.6914883692
 10
2.132610822
 20
-17.6686339166
 10
2.1070748615
 20
-17.6400651146
 10
2.0835469948
 20
-17.6059035477
 10
2.0622345166
 20
-17.5663191502
 10
2.0431536708
 20
-17.5215395924
 10
2.026368672
 20
-17.4717802413
 10
2.0120307167
 20
-17.4172111559
 10
2.0002421567
 20
-17.3580235613
  0
LWPOLYLINE
  5
2C1
100
AcDbEntity
  8
IMPORT_IGES
100
AcDbPolyline
 62
7
  6
CONTINUOUS
 90
4
 70
0
 10
-6.7972209201
 20
-14.8084392227
 10
-5.557360164
 20
-15.2913489788
 10
-4.2965341522
 20
-15.7533425976
 10
-3.0154842522
 20
-16.194102985
  0
LWPOLYLINE
  5
2C2
100
AcDbEntity
  8
IMPORT_IGES
100
AcDbPolyline
 62
253
  6
CONTINUOUS
 90
10
 70
0
 10
-5.767590029
 20
-15.2201469042
 10
-5.2371269438
 20
-15.4888301181
 10
-4.7242614095
 20
-15.7426196657
 10
-4.22912982
 20
-15.9815968721
 10
-3.75230565
 20
-16.2056970733
 10
-3.2934734015
 20
-16.4151406594
 10
-2.8514194734
 20
-16.6104272576
 10
-2.4258053551
 20
-16.7917640206
 10
-2.0171768663
 20
-16.9590713821
 10
-1.6256316578
 20
-17.1124100634
  0
LINE
  5
2C3
100
AcDbEntity
  8
IMPORT_IGES
100
AcDbLine
 62
253
  6
CONTINUOUS
 10
-5.8527539769
 20
-15.1762969026
 11
-5.767590029
 21
-15.2201469042
  0
LWPOLYLINE
  5
2C4
100
AcDbEntity
  8
IMPORT_IGES
100
AcDbPolyline
 62
253
  6
CONTINUOUS
 90
22
 70
0
 10
-23.3125183709
 20
-4.2525851784
 10
-22.5162897898
 20
-5.0095445194
 10
-21.6880117371
 20
-5.7524751699
 10
-20.8281979494
 20
-6.4809163922
 10
-19.9373809524
 20
-7.1944212621
 10
-19.0161728526
 20
-7.8924814638
 10
-18.0651489458
 20
-8.5746601811
 10
-17.0849008318
 20
-9.2405369574
 10
-16.0761019567
 20
-9.8896452685
 10
-15.0393853484
 20
-10.5215759271
 10
-13.9753984598
 20
-11.1359363694
 10
-12.8848711669
 20
-11.7323036256
 10
-11.7684897891
 20
-12.3102978617
 10
-10.6269541053
 20
-12.8695574325
 10
-9.4610466929
 20
-13.4097065416
 10
-8.2715030999
 20
-13.9303976116
 10
-7.0590712846
 20
-14.4313015226
 10
-5.8245826559
 20
-14.9120913028
 10
-4.5688207318
 20
-15.3724529845
 10
-3.2925742788
 20
-15.8120929787
 10
-1.9967098929
 20
-16.2307368323
 10
-0.6820685848
 20
-16.6281157466
  0
LWPOLYLINE
  5
2C5
100
AcDbEntity
  8
IMPORT_IGES
100
AcDbPolyline
 62
7
  6
CONTINUOUS
 90
17
 70
0
 10
-23.1779334171
 20
-4.5271633891
 10
-22.3720547875
 20
-5.2955827034
 10
-21.5342400231
 20
-6.0490519522
 10
-20.6649962582
 20
-6.7872172188
 10
-19.7648607039
 20
-7.5096963364
 10
-18.8345580626
 20
-8.2159714899
 10
-17.8747408586
 20
-8.9056350801
 10
-16.8859884364
 20
-9.578355099
 10
-15.8689766898
 20
-10.233728068
 10
-14.8243534357
 20
-10.8713744943
 10
-13.7527764949
 20
-11.490941738
 10
-12.6549476484
 20
-12.092065005
 10
-11.5315402728
 20
-12.6743932078
 10
-10.383265155
 20
-13.237565821
 10
-9.2109352227
 20
-13.7812030124
 10
-8.0153371021
 20
-14.3049431176
 10
-6.7972209201
 20
-14.8084392227
  0
LWPOLYLINE
  5
2C6
100
AcDbEntity
  8
IMPORT_IGES
100
AcDbPolyline
 62
7
  6
CONTINUOUS
 90
34
 70
0
 10
-29.7175243941
 20
12.0709460952
 10
-29.1562717797
 20
11.1889743515
 10
-28.5548605048
 20
10.3173870786
 10
-27.9132905693
 20
9.4561842766
 10
-27.2310305119
 20
8.6047527028
 10
-26.5086117939
 20
7.7637055998
 10
-25.7476287994
 20
6.934882696
 10
-24.9479986524
 20
6.1183112365
 10
-24.1098042289
 20
5.3139639762
 10
-23.2348885412
 20
4.5235989071
 10
-22.3231723171
 20
3.7472464575
 10
-21.3747348288
 20
2.9848761991
 10
-20.3916569051
 20
2.2381548399
 10
-19.3738627455
 20
1.507115816
 10
-18.3214281504
 20
0.7917256912
 10
-17.2366613503
 20
0.0935508642
 10
-16.119492816
 20
-0.5873709068
 10
-14.9699920766
 20
-1.2510773801
 10
-13.7906759511
 20
-1.896115431
 10
-12.5814790501
 20
-2.5224449114
 10
-11.3424667629
 20
-3.1301059695
 10
-10.0763520761
 20
-3.7177659253
 10
-8.7830770862
 20
-4.28538101
 10
-7.4626996966
 20
-4.8329949924
 10
-6.118106605
 20
-5.3594064983
 10
-4.7492451181
 20
-5.864569755
 10
-3.3561679291
 20
-6.3485305351
 10
-1.9419198151
 20
-6.8102247821
 10
-0.506453874
 20
-7.249604579
 10
0.9501829921
 20
-7.6667178429
 10
2.4248052995
 20
-8.0606442677
 10
3.9163512203
 20
-8.4310770849
 10
5.4258825824
 20
-8.778323063
 10
6.9533993858
 20
-9.1023822022
  0
LWPOLYLINE
  5
2C7
100
AcDbEntity
  8
IMPORT_IGES
100
AcDbPolyline
 62
7
  6
CONTINUOUS
 90
11
 70
0
 10
-16.2599606835
 20
-28.0491953819
 10
-16.2490631185
 20
-28.1331578545
 10
-16.227328932
 20
-28.2164153406
 10
-16.1948796704
 20
-28.2985022304
 10
-16.1518968033
 20
-28.3789594608
 10
-16.0986207081
 20
-28.4573370822
 10
-16.0353493265
 20
-28.5331967752
 10
-15.9624364977
 20
-28.6061143017
 10
-15.8802899797
 20
-28.6756818773
 10
-15.7893691693
 20
-28.7415104519
 10
-15.6901825325
 20
-28.8032318853
  0
LINE
  5
2C8
100
AcDbEntity
  8
IMPORT_IGES
100
AcDbLine
 62
7
  6
CONTINUOUS
 10
-12.318934913
 20
-27.947274675
 11
-12.3113243092
 21
-28.0479199421
  0
LINE
  5
2C9
100
AcDbEntity
  8
IMPORT_IGES
100
AcDbLine
 62
7
  6
CONTINUOUS
 10
-16.3113243092
 20
-28.0479199421
 11
-16.3113243092
 21
-33.3549767413
  0
LINE
  5
2CA
100
AcDbEntity
  8
IMPORT_IGES
100
AcDbLine
 62
7
  6
CONTINUOUS
 10
-16.2613243092
 20
-23.3353928788
 11
-16.2613243092
 21
-28.0070964283
  0
LWPOLYLINE
  5
2CB
100
AcDbEntity
  8
IMPORT_IGES
100
AcDbPolyline
 62
253
  6
CONTINUOUS
 90
10
 70
0
 10
-14.8068323536
 20
7.7498268844
 10
-14.8086045752
 20
7.6915174622
 10
-14.8130648466
 20
7.6317297003
 10
-14.82020108
 20
7.5707466954
 10
-14.8299413527
 20
7.5090432115
 10
-14.8422336468
 20
7.4467554867
 10
-14.8571262191
 20
7.3836313641
 10
-14.8746268857
 20
7.3197593967
 10
-14.8946243534
 20
7.255609282
 10
-14.9170235829
 20
7.1914711791
  0
LINE
  5
2CC
100
AcDbEntity
  8
IMPORT_IGES
100
AcDbLine
 62
7
  6
CONTINUOUS
 10
-16.3113243092
 20
-28.0479199421
 11
-16.3037137054
 21
-27.947274675
  0
LINE
  5
2CD
100
AcDbEntity
  8
IMPORT_IGES
100
AcDbLine
 62
7
  6
CONTINUOUS
 10
-12.6186881512
 20
39.2707619729
 11
-12.6142680343
 21
39.313859153
  0
LWPOLYLINE
  5
2CE
100
AcDbEntity
  8
IMPORT_IGES
100
AcDbPolyline
 62
253
  6
CONTINUOUS
 90
11
 70
0
 10
-11.7742076079
 20
26.2525530094
 10
-11.759300623
 20
26.3146759028
 10
-11.7425656382
 20
26.3870437732
 10
-11.7259324326
 20
26.4616326822
 10
-11.7094231085
 20
26.5386403709
 10
-11.6930339198
 20
26.6180605731
 10
-11.6767686127
 20
26.6998995549
 10
-11.6606605278
 20
26.7843738559
 10
-11.6447036948
 20
26.8714883421
 10
-11.628904084
 20
26.9612381474
 10
-11.6234762093
 20
26.9934712674
  0
LINE
  5
2CF
100
AcDbEntity
  8
IMPORT_IGES
100
AcDbLine
 62
7
  6
CONTINUOUS
 10
-0.2148496261
 20
28.0102924405
 11
-0.2067075982
 21
28.0227713104
  0
LINE
  5
2D0
100
AcDbEntity
  8
IMPORT_IGES
100
AcDbLine
 62
7
  6
CONTINUOUS
 10
-0.9720059773
 20
27.9458328164
 11
-1.0017702816
 21
27.9054270907
  0
LINE
  5
2D1
100
AcDbEntity
  8
IMPORT_IGES
100
AcDbLine
 62
7
  6
CONTINUOUS
 10
-1.0017702816
 20
27.7829565492
 11
-0.9720059773
 21
27.8233622749
  0
LWPOLYLINE
  5
2D2
100
AcDbEntity
  8
IMPORT_IGES
100
AcDbPolyline
 62
7
  6
CONTINUOUS
 90
10
 70
0
 10
12.5665901179
 20
26.8097020853
 10
12.6339728521
 20
26.8452146958
 10
12.7006794463
 20
26.8742130299
 10
12.7667099005
 20
26.8966970877
 10
12.8324069517
 20
26.9126920689
 10
12.8974278628
 20
26.9221727737
 10
12.9607444227
 20
26.9250636029
 10
13.0223272434
 20
26.9212716294
 10
13.0822057129
 20
26.9108897803
 10
13.1394397838
 20
26.8941212372
  0
LWPOLYLINE
  5
2D3
100
AcDbEntity
  8
IMPORT_IGES
100
AcDbPolyline
 62
253
  6
CONTINUOUS
 90
16
 70
0
 10
7.3335031782
 20
-15.9931044102
 10
7.4048343316
 20
-16.0024346778
 10
7.4775706449
 20
-16.0079694876
 10
7.5513023627
 20
-16.0096812787
 10
7.6256094347
 20
-16.0075642804
 10
7.7000798802
 20
-16.0016341775
 10
7.7743121175
 20
-15.9919252509
 10
7.8478894968
 20
-15.9784931274
 10
7.9204005782
 20
-15.961414061
 10
7.9914564334
 20
-15.9407793487
 10
8.0606585391
 20
-15.9167029177
 10
8.1276174799
 20
-15.8893183981
 10
8.1919705564
 20
-15.8587708524
 10
8.2533578826
 20
-15.8252257612
 10
8.3114262724
 20
-15.7888705071
 10
8.3658454165
 20
-15.7499064875
  0
LWPOLYLINE
  5
2D4
100
AcDbEntity
  8
IMPORT_IGES
100
AcDbPolyline
 62
7
  6
CONTINUOUS
 90
11
 70
0
 10
7.5761646531
 20
-16.4159482261
 10
7.5936764172
 20
-16.4188608522
 10
7.6691773689
 20
-16.4281929882
 10
7.7456323912
 20
-16.4324283055
 10
7.8225166537
 20
-16.4315061059
 10
7.900146675
 20
-16.4253519058
 10
7.9780860714
 20
-16.4138803121
 10
8.0558089564
 20
-16.3970877926
 10
8.1335241011
 20
-16.3748246971
 10
8.2110240022
 20
-16.3469807943
 10
8.2921899653
 20
-16.3114809876
  0
LWPOLYLINE
  5
2D5
100
AcDbEntity
  8
IMPORT_IGES
100
AcDbPolyline
 62
253
  6
CONTINUOUS
 90
10
 70
0
 10
7.3335033759
 20
-15.993104006
 10
6.9174074025
 20
-15.9191552334
 10
6.5024217817
 20
-15.8431892194
 10
6.0885685956
 20
-15.7652107503
 10
5.6758721585
 20
-15.6852256275
 10
5.2643521247
 20
-15.6032379018
 10
4.8540235472
 20
-15.5192497759
 10
4.4449060389
 20
-15.4332653368
 10
4.0370237131
 20
-15.3452906535
 10
3.6303983328
 20
-15.2553309427
  0
LWPOLYLINE
  5
2D6
100
AcDbEntity
  8
IMPORT_IGES
100
AcDbPolyline
 62
7
  6
CONTINUOUS
 90
10
 70
0
 10
3.8494476516
 20
-15.674386337
 10
4.2132777341
 20
-15.7549993141
 10
4.6463602644
 20
-15.8485962431
 10
5.0808331792
 20
-15.9399369061
 10
5.5166607826
 20
-16.0290106962
 10
5.9538159509
 20
-16.1158087689
 10
6.3922802258
 20
-16.200323811
 10
6.8320266252
 20
-16.2825466269
 10
7.2730195924
 20
-16.3624663861
 10
7.5762009184
 20
-16.4159467183
  0
LWPOLYLINE
  5
2D7
100
AcDbEntity
  8
IMPORT_IGES
100
AcDbPolyline
 62
253
  6
CONTINUOUS
 90
12
 70
0
 10
7.5761646531
 20
-16.4159482261
 10
7.5504884626
 20
-16.4094495349
 10
7.5180890046
 20
-16.394997946
 10
7.4877187765
 20
-16.3740289731
 10
7.4595840578
 20
-16.346643368
 10
7.4336488985
 20
-16.3129021481
 10
7.4100551007
 20
-16.2729192754
 10
7.3891149779
 20
-16.2269910655
 10
7.3709447122
 20
-16.1755869456
 10
7.3555759444
 20
-16.1191926674
 10
7.3430569637
 20
-16.0582164039
 10
7.333430003
 20
-15.9930925771
  0
LWPOLYLINE
  5
2D8
100
AcDbEntity
  8
IMPORT_IGES
100
AcDbPolyline
 62
253
  6
CONTINUOUS
 90
34
 70
0
 10
-29.123688486
 20
19.3607321885
 10
-28.5625106387
 20
18.5294602041
 10
-27.9608876255
 20
17.7041575791
 10
-27.3192730991
 20
16.8854373924
 10
-26.6381407604
 20
16.073784256
 10
-25.9179999664
 20
15.2699169447
 10
-25.1594094341
 20
14.4747870422
 10
-24.363035664
 20
13.6890458006
 10
-23.5293844617
 20
12.9131889374
 10
-22.6587974546
 20
12.1479325585
 10
-21.7518632492
 20
11.3938817882
 10
-20.8092527515
 20
10.6515514233
 10
-19.8314242725
 20
9.9215300452
 10
-18.818867489
 20
9.2042609588
 10
-17.7724547115
 20
8.5003868279
 10
-16.6932727955
 20
7.810773589
 10
-15.582254297
 20
7.1360451507
 10
-14.4400617587
 20
6.4765547751
 10
-13.2674392338
 20
5.8327317417
 10
-12.0650809544
 20
5.2050037778
 10
-10.833987182
 20
4.5938623404
 10
-9.5754084319
 20
3.999799989
 10
-8.2904420645
 20
3.4233252351
 10
-6.9798594567
 20
2.8647240127
 10
-5.6444585523
 20
2.3241240108
 10
-4.2852150293
 20
1.8019620043
 10
-2.9030911837
 20
1.2985286283
 10
-1.4988599223
 20
0.8137279823
 10
-0.0733893355
 20
0.3478398012
 10
1.3721944937
 20
-0.098750822
 10
2.8367247045
 20
-0.5260000434
 10
4.3191167747
 20
-0.9337098833
 10
5.8183699115
 20
-1.3215211246
 10
7.333422461
 20
-1.6891773885
  0
LWPOLYLINE
  5
2D9
100
AcDbEntity
  8
IMPORT_IGES
100
AcDbPolyline
 62
253
  6
CONTINUOUS
 90
7
 70
0
 10
-29.1236835222
 20
19.3607336692
 10
-29.1463073557
 20
19.3981655727
 10
-29.163562888
 20
19.4357211036
 10
-29.1753562921
 20
19.4731893943
 10
-29.1816243683
 20
19.5103591018
 10
-29.1823355374
 20
19.5470231128
 10
-29.1801704311
 20
19.5681769161
  0
LWPOLYLINE
  5
2DA
100
AcDbEntity
  8
IMPORT_IGES
100
AcDbPolyline
 62
253
  6
CONTINUOUS
 90
17
 70
0
 10
-21.5292711325
 20
13.2321578195
 10
-21.7285186879
 20
13.7189941901
 10
-21.8976386217
 20
14.2088988906
 10
-22.0366146147
 20
14.7018183664
 10
-22.1455271679
 20
15.198243706
 10
-22.2242583892
 20
15.6975362515
 10
-22.2724927111
 20
16.1979528911
 10
-22.2900629734
 20
16.6997386086
 10
-22.2770925095
 20
17.2024782644
 10
-22.2337022898
 20
17.7034826312
 10
-22.1598161344
 20
18.2022719453
 10
-22.0554663066
 20
18.6991740053
 10
-21.9209389673
 20
19.192755043
 10
-21.7561102003
 20
19.6831173388
 10
-21.5610620493
 20
20.1699820335
 10
-21.3363934315
 20
20.6513822057
 10
-21.0853036217
 20
21.1208090236
  0
LWPOLYLINE
  5
2DB
100
AcDbEntity
  8
IMPORT_IGES
100
AcDbPolyline
 62
253
  6
CONTINUOUS
 90
8
 70
0
 10
-20.4079844181
 20
14.4274786914
 10
-20.6046008087
 20
14.9136697777
 10
-20.7699839048
 20
15.4046635688
 10
-20.9038249884
 20
15.8997653824
 10
-21.0058802943
 20
16.3985130527
 10
-21.0759005102
 20
16.8999577662
 10
-21.1137061837
 20
17.4026617712
 10
-21.1205621888
 20
17.8221092394
  0
LWPOLYLINE
  5
2DC
100
AcDbEntity
  8
IMPORT_IGES
100
AcDbPolyline
 62
253
  6
CONTINUOUS
 90
14
 70
0
 10
-13.1054275782
 20
26.9153941923
 10
-13.1091184007
 20
26.9628922181
 10
-13.1160213544
 20
27.0603076236
 10
-13.1224917396
 20
27.1611701708
 10
-13.1285078102
 20
27.2658130176
 10
-13.1340240586
 20
27.3742441187
 10
-13.1390003209
 20
27.4865041391
 10
-13.1434117541
 20
27.6029845039
 10
-13.147197079
 20
27.7236907668
 10
-13.1503037049
 20
27.8486712158
 10
-13.1527030299
 20
27.9783929558
 10
-13.1543308194
 20
28.113035062
 10
-13.1550947438
 20
28.2524797365
 10
-13.1549094777
 20
28.3967533186
  0
LWPOLYLINE
  5
2DD
100
AcDbEntity
  8
IMPORT_IGES
100
AcDbPolyline
 62
253
  6
CONTINUOUS
 90
28
 70
0
 10
-9.5938098879
 20
-37.6418205163
 10
-9.5861992841
 20
-37.7424657834
 10
-9.5634253939
 20
-37.8423450792
 10
-9.5256615405
 20
-37.9406982621
 10
-9.4731951295
 20
-38.0367768048
 10
-9.406425462
 20
-38.1298494917
 10
-9.3258606955
 20
-38.2192079834
 10
-9.2321139765
 20
-38.3041722078
 10
-9.1258987741
 20
-38.384095536
 10
-9.0080234502
 20
-38.458369703
 10
-8.8793851072
 20
-38.5264294377
 10
-8.7409627605
 20
-38.5877567643
 10
-8.5938098878
 20
-38.6418849449
 10
-8.4390464113
 20
-38.6884020314
 10
-8.2778501745
 20
-38.7269540006
 10
-8.111447978
 20
-38.7572474487
 10
-7.9411062431
 20
-38.7790518244
 10
-7.7681213733
 20
-38.7922011832
 10
-7.5938098878
 20
-38.7965954504
 10
-7.4194984023
 20
-38.7922011831
 10
-7.2465135325
 20
-38.7790518244
 10
-7.0761717976
 20
-38.7572474487
 10
-6.9097696011
 20
-38.7269540005
 10
-6.7485733643
 20
-38.6884020313
 10
-6.5938098878
 20
-38.6418849449
 10
-6.4466570151
 20
-38.5877567642
 10
-6.3082346685
 20
-38.5264294376
 10
-6.1795963255
 20
-38.4583697029
  0
LINE
  5
2DE
100
AcDbEntity
  8
IMPORT_IGES
100
AcDbLine
 62
7
  6
CONTINUOUS
 10
-12.1111154381
 20
34.5571068144
 11
-12.2950358267
 21
38.6124576128
  0
LINE
  5
2DF
100
AcDbEntity
  8
IMPORT_IGES
100
AcDbLine
 62
7
  6
CONTINUOUS
 10
-12.3586023181
 20
40.0248443384
 11
-12.4758796631
 21
42.6463169494
  0
LINE
  5
2E0
100
AcDbEntity
  8
IMPORT_IGES
100
AcDbLine
 62
253
  6
CONTINUOUS
 10
-11.7744295814
 20
35.846187239
 11
-11.870912594
 21
38.0139140095
  0
LINE
  5
2E1
100
AcDbEntity
  8
IMPORT_IGES
100
AcDbLine
 62
253
  6
CONTINUOUS
 10
-11.9811336213
 20
40.509833232
 11
-12.0832782405
 21
42.8403491595
  0
LINE
  5
2E2
100
AcDbEntity
  8
IMPORT_IGES
100
AcDbLine
 62
7
  6
CONTINUOUS
 10
-12.3613243092
 20
-25.6373711022
 11
-12.3613243092
 21
-28.0070964283
  0
LINE
  5
2E3
100
AcDbEntity
  8
IMPORT_IGES
100
AcDbLine
 62
7
  6
CONTINUOUS
 10
-12.3113243092
 20
-28.0479199421
 11
-12.3113243092
 21
-33.3549767413
  0
LINE
  5
2E4
100
AcDbEntity
  8
IMPORT_IGES
100
AcDbLine
 62
7
  6
CONTINUOUS
 10
-10.2808156564
 20
27.7086836421
 11
-10.2808156564
 21
26.1896532108
  0
LWPOLYLINE
  5
2E5
100
AcDbEntity
  8
IMPORT_IGES
100
AcDbPolyline
 62
7
  6
CONTINUOUS
 90
13
 70
0
 10
-12.3113243092
 20
-33.3549767413
 10
-12.3185486213
 20
-33.5248034975
 10
-12.3404769734
 20
-33.6952092593
 10
-12.3773409451
 20
-33.8645926235
 10
-12.4290876299
 20
-34.0311313425
 10
-12.4954986853
 20
-34.1932945168
 10
-12.5763403013
 20
-34.349878994
 10
-12.6711439736
 20
-34.4994453143
 10
-12.7788397528
 20
-34.6400799996
 10
-12.8981167674
 20
-34.7701956091
 10
-13.0276452509
 20
-34.8886524528
 10
-13.1659391145
 20
-34.9945139677
 10
-13.3112759888
 20
-35.0869996502
  0
LWPOLYLINE
  5
2E6
100
AcDbEntity
  8
IMPORT_IGES
100
AcDbPolyline
 62
7
  6
CONTINUOUS
 90
10
 70
0
 10
-12.3113243092
 20
-28.0479199421
 10
-12.318934913
 20
-28.1485652092
 10
-12.3417088032
 20
-28.2484445051
 10
-12.3794726566
 20
-28.3467976879
 10
-12.4319390676
 20
-28.4428762306
 10
-12.4987087351
 20
-28.5359489175
 10
-12.5792735016
 20
-28.6253074092
 10
-12.6730202206
 20
-28.7102716336
 10
-12.7792354229
 20
-28.7901949618
 10
-12.8971107468
 20
-28.8644691288
  0
LINE
  5
2E7
100
AcDbEntity
  8
IMPORT_IGES
100
AcDbLine
 62
7
  6
CONTINUOUS
 10
-0.1859357318
 20
28.0714985094
 11
-0.1825141355
 21
28.0796897773
  0
LINE
  5
2E8
100
AcDbEntity
  8
IMPORT_IGES
100
AcDbLine
 62
7
  6
CONTINUOUS
 10
-0.1981185492
 20
28.0404545502
 11
-0.2020155001
 21
28.03148736
  0
LINE
  5
2E9
100
AcDbEntity
  8
IMPORT_IGES
100
AcDbLine
 62
7
  6
CONTINUOUS
 10
-0.9511008003
 20
27.9863958782
 11
-0.9720059773
 21
27.9458328164
  0
LINE
  5
2EA
100
AcDbEntity
  8
IMPORT_IGES
100
AcDbLine
 62
7
  6
CONTINUOUS
 10
-0.9720059773
 20
27.8233622749
 11
-0.9511008003
 21
27.8639253367
  0
LINE
  5
2EB
100
AcDbEntity
  8
IMPORT_IGES
100
AcDbLine
 62
7
  6
CONTINUOUS
 10
-0.2067075982
 20
28.0227713104
 11
-0.2020392064
 21
28.0314907945
  0
LINE
  5
2EC
100
AcDbEntity
  8
IMPORT_IGES
100
AcDbLine
 62
7
  6
CONTINUOUS
 10
1.7540198495
 20
27.4104359739
 11
1.8145261448
 21
27.5125779769
  0
LWPOLYLINE
  5
2ED
100
AcDbEntity
  8
IMPORT_IGES
100
AcDbPolyline
 62
253
  6
CONTINUOUS
 90
8
 70
0
 10
-18.7632758119
 20
11.5527190159
 10
-19.0461460244
 20
11.9623762933
 10
-19.3142816285
 20
12.3756511158
 10
-19.5667988051
 20
12.7919763972
 10
-19.8031677671
 20
13.2060511991
 10
-20.0226928954
 20
13.6159667571
 10
-20.2245499073
 20
14.0231937665
 10
-20.4079844181
 20
14.4274786914
  0
LWPOLYLINE
  5
2EE
100
AcDbEntity
  8
IMPORT_IGES
100
AcDbPolyline
 62
7
  6
CONTINUOUS
 90
3
 70
0
 10
1.0737045334
 20
-35.5535255076
 10
1.0933200394
 20
-35.6046126524
 10
1.1160939295
 20
-35.7044919483
  0
LWPOLYLINE
  5
2EF
100
AcDbEntity
  8
IMPORT_IGES
100
AcDbPolyline
 62
253
  6
CONTINUOUS
 90
10
 70
0
 10
-13.3276928305
 20
27.0388438269
 10
-13.3301312556
 20
27.0602559479
 10
-13.3423995901
 20
27.1763316851
 10
-13.3540670438
 20
27.297222362
 10
-13.3651482119
 20
27.4228916658
 10
-13.3756284992
 20
27.5533759091
 10
-13.3853215166
 20
27.6892772266
 10
-13.3941651341
 20
27.8307963299
 10
-13.4022214817
 20
27.9777325072
 10
-13.4094905592
 20
28.1300857588
  0
LINE
  5
2F0
100
AcDbEntity
  8
IMPORT_IGES
100
AcDbLine
 62
253
  6
CONTINUOUS
 10
-5.7675707994
 20
-15.2201569606
 11
-5.7682220226
 21
-15.2092210074
  0
LINE
  5
2F1
100
AcDbEntity
  8
IMPORT_IGES
100
AcDbLine
 62
7
  6
CONTINUOUS
 10
-9.5938098879
 20
-27.2161170061
 11
-9.5938098879
 21
-37.6418205163
  0
LINE
  5
2F2
100
AcDbEntity
  8
IMPORT_IGES
100
AcDbLine
 62
7
  6
CONTINUOUS
 10
-6.9703524247
 20
25.9629683941
 11
-6.9703524247
 21
26.0854389356
  0
LINE
  5
2F3
100
AcDbEntity
  8
IMPORT_IGES
100
AcDbLine
 62
7
  6
CONTINUOUS
 10
-6.3323709883
 20
25.0178200595
 11
-6.3323709883
 21
25.140290601
  0
LWPOLYLINE
  5
2F4
100
AcDbEntity
  8
IMPORT_IGES
100
AcDbPolyline
 62
7
  6
CONTINUOUS
 90
3
 70
0
 10
-16.3037137054
 20
-27.947274675
 10
-16.2809398152
 20
-27.8473953792
 10
-16.2613243092
 20
-27.7963082344
  0
LINE
  5
2F5
100
AcDbEntity
  8
IMPORT_IGES
100
AcDbLine
 62
7
  6
CONTINUOUS
 10
-0.1825141355
 20
28.0796897773
 11
-0.1797687457
 21
28.0903382316
  0
LINE
  5
2F6
100
AcDbEntity
  8
IMPORT_IGES
100
AcDbLine
 62
7
  6
CONTINUOUS
 10
-0.9393245479
 20
28.0271246299
 11
-0.9511008003
 21
27.9863958782
  0
LINE
  5
2F7
100
AcDbEntity
  8
IMPORT_IGES
100
AcDbLine
 62
7
  6
CONTINUOUS
 10
-0.9511008003
 20
27.8639253367
 11
-0.9393245479
 21
27.9046540884
  0
LINE
  5
2F8
100
AcDbEntity
  8
IMPORT_IGES
100
AcDbLine
 62
7
  6
CONTINUOUS
 10
1.5316583
 20
27.4854369659
 11
1.5708109349
 21
27.5947015981
  0
LINE
  5
2F9
100
AcDbEntity
  8
IMPORT_IGES
100
AcDbLine
 62
7
  6
CONTINUOUS
 10
-0.1896289498
 20
28.0614922947
 11
-0.1859357318
 21
28.0714985094
  0
LINE
  5
2FA
100
AcDbEntity
  8
IMPORT_IGES
100
AcDbLine
 62
7
  6
CONTINUOUS
 10
-0.1979204594
 20
28.0404258513
 11
-0.1896289498
 21
28.0614922947
  0
LINE
  5
2FB
100
AcDbEntity
  8
IMPORT_IGES
100
AcDbLine
 62
253
  6
CONTINUOUS
 10
13.0563375225
 20
-4.149802387
 11
12.9174269317
 21
-4.1835954601
  0
LWPOLYLINE
  5
2FC
100
AcDbEntity
  8
IMPORT_IGES
100
AcDbPolyline
 62
7
  6
CONTINUOUS
 90
16
 70
0
 10
6.9534256341
 20
-9.2656817006
 10
7.0256763171
 20
-9.278571113
 10
7.0985605838
 20
-9.2882528271
 10
7.1720784341
 20
-9.2947268428
 10
7.2466480674
 20
-9.29799339
 10
7.3218512843
 20
-9.2980522388
 10
7.3964334864
 20
-9.2949026997
 10
7.4703841579
 20
-9.2884909663
 10
7.5437138146
 20
-9.2788708451
 10
7.6151994055
 20
-9.2662030662
 10
7.6848095409
 20
-9.2504365532
 10
7.7525756105
 20
-9.2316223825
 10
7.817368733
 20
-9.2100745139
 10
7.8788126146
 20
-9.1858976005
 10
7.9372835491
 20
-9.1589869893
 10
7.9927815364
 20
-9.12934268
  0
LWPOLYLINE
  5
2FD
100
AcDbEntity
  8
IMPORT_IGES
100
AcDbPolyline
 62
7
  6
CONTINUOUS
 90
34
 70
0
 10
6.9534256341
 20
-9.2656817006
 10
5.4259002925
 20
-8.9416210076
 10
3.9163614487
 20
-8.5943735418
 10
2.4248091027
 20
-8.223939303
 10
0.9501815849
 20
-7.8300115316
 10
-0.5064594351
 20
-7.4128969873
 10
-1.9419289493
 20
-6.9735159491
 10
-3.3561801977
 20
-6.5118204673
 10
-4.7492599402
 20
-6.0278584916
 10
-6.1181234489
 20
-5.5226941499
 10
-7.4627180245
 20
-4.9962816717
 10
-8.7830963663
 20
-4.4486668276
 10
-10.0763718446
 20
-3.8810510572
 10
-11.3424865502
 20
-3.2933905946
 10
-12.5814983924
 20
-2.6857292058
 10
-13.7906944698
 20
-2.0593996291
 10
-14.970009388
 20
-1.4143617191
 10
-16.1195085415
 20
-0.7506556212
 10
-17.236675212
 20
-0.0697345095
 10
-18.3214398658
 20
0.628439371
 10
-19.3738720367
 20
1.3438282652
 10
-20.3916636079
 20
2.0748657347
 10
-21.3747387753
 20
2.8215852121
 10
-22.323173343
 20
3.5839532647
 10
-23.2348866072
 20
4.3603031556
 10
-24.1097992928
 20
5.1506653091
 10
-24.9479906748
 20
5.955009301
 10
-25.7476178739
 20
6.7715771213
 10
-26.5085992819
 20
7.6003978516
 10
-27.2310165069
 20
8.4414424103
 10
-27.9132714945
 20
9.2928655435
 10
-28.5548315598
 20
10.1540521664
 10
-29.1562293876
 20
11.0256173637
 10
-29.7174649779
 20
11.9075611355
  0
LWPOLYLINE
  5
2FE
100
AcDbEntity
  8
IMPORT_IGES
100
AcDbPolyline
 62
7
  6
CONTINUOUS
 90
12
 70
0
 10
10.652042286
 20
-9.4265972132
 10
10.7862869787
 20
-9.4784036324
 10
10.9279952175
 20
-9.5169423128
 10
11.076628443
 20
-9.5416390638
 10
11.2315295218
 20
-9.5519842976
 10
11.3919933514
 20
-9.5475701042
 10
11.5579185577
 20
-9.527995274
 10
11.7282940732
 20
-9.4929691853
 10
11.9010512978
 20
-9.4427457492
 10
12.0750692498
 20
-9.3777090466
 10
12.2502233413
 20
-9.2979375
 10
12.4258979115
 20
-9.2036524782
  0
LWPOLYLINE
  5
2FF
100
AcDbEntity
  8
IMPORT_IGES
100
AcDbPolyline
 62
7
  6
CONTINUOUS
 90
11
 70
0
 10
-2.824931841
 20
-35.8064126551
 10
-2.8140342759
 20
-35.8903751278
 10
-2.7923000894
 20
-35.9736326138
 10
-2.7598508279
 20
-36.0557195036
 10
-2.7168679607
 20
-36.136176734
 10
-2.6635918656
 20
-36.2145543554
 10
-2.600320484
 20
-36.2904140485
 10
-2.5274076551
 20
-36.363331575
 10
-2.4452611372
 20
-36.4328991505
 10
-2.3543403268
 20
-36.4987277251
 10
-2.25515369
 20
-36.5604491585
  0
LWPOLYLINE
  5
300
100
AcDbEntity
  8
IMPORT_IGES
100
AcDbPolyline
 62
7
  6
CONTINUOUS
 90
10
 70
0
 10
-11.6474970207
 20
42.650991695
 10
-11.6511737381
 20
42.6840160455
 10
-11.6575937022
 20
42.7154079635
 10
-11.6667275448
 20
42.7449440119
 10
-11.6785590735
 20
42.7724469278
 10
-11.6929969946
 20
42.7976838082
 10
-11.7098565849
 20
42.8203883039
 10
-11.7289996842
 20
42.8403941984
 10
-11.7503175224
 20
42.8576147076
 10
-11.7666556008
 20
42.8680714721
  0
LINE
  5
301
100
AcDbEntity
  8
IMPORT_IGES
100
AcDbLine
 62
253
  6
CONTINUOUS
 10
-7.9515074899
 20
28.3500031728
 11
-7.8816142256
 21
27.5800556758
  0
LWPOLYLINE
  5
302
100
AcDbEntity
  8
IMPORT_IGES
100
AcDbPolyline
 62
253
  6
CONTINUOUS
 90
28
 70
0
 10
-2.8762954666
 20
-41.1121940145
 10
-2.8686848628
 20
-41.2128392816
 10
-2.8459109727
 20
-41.3127185775
 10
-2.8081471192
 20
-41.4110717603
 10
-2.7556807082
 20
-41.507150303
 10
-2.6889110407
 20
-41.6002229899
 10
-2.6083462742
 20
-41.6895814816
 10
-2.5145995552
 20
-41.774545706
 10
-2.4083843528
 20
-41.8544690342
 10
-2.290509029
 20
-41.9287432012
 10
-2.161870686
 20
-41.9968029359
 10
-2.0234483393
 20
-42.0581302625
 10
-1.8762954666
 20
-42.1122584431
 10
-1.72153199
 20
-42.1587755296
 10
-1.5603357532
 20
-42.1973274988
 10
-1.3939335568
 20
-42.2276209469
 10
-1.2235918219
 20
-42.2494253226
 10
-1.050606952
 20
-42.2625746814
 10
-0.8762954665
 20
-42.2669689486
 10
-0.701983981
 20
-42.2625746814
 10
-0.5289991112
 20
-42.2494253226
 10
-0.3586573763
 20
-42.2276209469
 10
-0.19225518
 20
-42.1973274988
 10
-0.0310589433
 20
-42.1587755296
 10
0.1237045335
 20
-42.1122584431
 10
0.2708574068
 20
-42.0581302622
 10
0.4092797544
 20
-41.996802935
 10
0.5379180984
 20
-41.9287431996
  0
LINE
  5
303
100
AcDbEntity
  8
IMPORT_IGES
100
AcDbLine
 62
7
  6
CONTINUOUS
 10
-2.8262954666
 20
-35.7643137015
 11
-2.824931841
 21
-35.8064126551
  0
LWPOLYLINE
  5
304
100
AcDbEntity
  8
IMPORT_IGES
100
AcDbPolyline
 62
253
  6
CONTINUOUS
 90
22
 70
0
 10
-5.0407929248
 20
5.5547310369
 10
-5.0396142445
 20
5.4794339277
 10
-5.0400009743
 20
5.4006850606
 10
-5.0419691081
 20
5.3190507571
 10
-5.0454968707
 20
5.2353874052
 10
-5.0505509169
 20
5.1501331651
 10
-5.0571327834
 20
5.0632081336
 10
-5.0652019405
 20
4.9752098107
 10
-5.074690639
 20
4.8868149408
 10
-5.0856017588
 20
4.7979868242
 10
-5.0978631686
 20
4.709347862
 10
-5.111381189
 20
4.6215373577
 10
-5.1261600496
 20
4.5345330909
 10
-5.1420966788
 20
4.4489685867
 10
-5.1590751419
 20
4.3654378093
 10
-5.1771048851
 20
4.2839076631
 10
-5.1960513992
 20
4.205010939
 10
-5.2157795938
 20
4.129285417
 10
-5.2363112582
 20
4.0566664472
 10
-5.2575506922
 20
3.9875521775
 10
-5.2792748008
 20
3.922667911
 10
-5.3013113642
 20
3.8624580102
  0
LINE
  5
305
100
AcDbEntity
  8
IMPORT_IGES
100
AcDbLine
 62
7
  6
CONTINUOUS
 10
-5.5938098879
 20
-29.421644961
 11
-5.5938098879
 21
-37.6418205163
  0
LINE
  5
306
100
AcDbEntity
  8
IMPORT_IGES
100
AcDbLine
 62
7
  6
CONTINUOUS
 10
-4.8827603675
 20
27.1683178843
 11
-4.8827603675
 21
27.2907884258
  0
LINE
  5
307
100
AcDbEntity
  8
IMPORT_IGES
100
AcDbLine
 62
7
  6
CONTINUOUS
 10
-4.3302363211
 20
26.4553761329
 11
-4.3302363211
 21
26.5778466744
  0
LINE
  5
308
100
AcDbEntity
  8
IMPORT_IGES
100
AcDbLine
 62
7
  6
CONTINUOUS
 10
-3.5044088341
 20
27.9468317947
 11
-3.5044088341
 21
28.0693023362
  0
LINE
  5
309
100
AcDbEntity
  8
IMPORT_IGES
100
AcDbLine
 62
7
  6
CONTINUOUS
 10
-3.461294718
 20
25.5633161519
 11
-3.461294718
 21
25.6857866934
  0
LINE
  5
30A
100
AcDbEntity
  8
IMPORT_IGES
100
AcDbLine
 62
7
  6
CONTINUOUS
 10
-3.3616987999
 20
28.0509082315
 11
-3.3616987999
 21
28.173378773
  0
LINE
  5
30B
100
AcDbEntity
  8
IMPORT_IGES
100
AcDbLine
 62
7
  6
CONTINUOUS
 10
-3.2193959236
 20
28.1498772102
 11
-3.2193959236
 21
28.2723477517
  0
LINE
  5
30C
100
AcDbEntity
  8
IMPORT_IGES
100
AcDbLine
 62
7
  6
CONTINUOUS
 10
-3.0977576868
 20
25.1930523315
 11
-3.0977576868
 21
25.315522873
  0
LINE
  5
30D
100
AcDbEntity
  8
IMPORT_IGES
100
AcDbLine
 62
7
  6
CONTINUOUS
 10
-2.9363932094
 20
28.3328374956
 11
-2.9363932094
 21
28.4553080371
  0
LINE
  5
30E
100
AcDbEntity
  8
IMPORT_IGES
100
AcDbLine
 62
7
  6
CONTINUOUS
 10
-2.8762954666
 20
-35.8051372154
 11
-2.8762954666
 21
-41.1121940145
  0
LINE
  5
30F
100
AcDbEntity
  8
IMPORT_IGES
100
AcDbLine
 62
7
  6
CONTINUOUS
 10
-2.8262954666
 20
-30.8956938832
 11
-2.8262954666
 21
-35.7643137015
  0
LINE
  5
310
100
AcDbEntity
  8
IMPORT_IGES
100
AcDbLine
 62
7
  6
CONTINUOUS
 10
-2.8113136795
 20
25.9386070574
 11
-2.8113136795
 21
26.0610775989
  0
LINE
  5
311
100
AcDbEntity
  8
IMPORT_IGES
100
AcDbLine
 62
7
  6
CONTINUOUS
 10
-2.7949233858
 20
28.4161431688
 11
-2.7949233858
 21
28.5386137104
  0
LINE
  5
312
100
AcDbEntity
  8
IMPORT_IGES
100
AcDbLine
 62
7
  6
CONTINUOUS
 10
-3.0776785611
 20
28.2439187834
 11
-3.0776527311
 21
28.3664055811
  0
LWPOLYLINE
  5
313
100
AcDbEntity
  8
IMPORT_IGES
100
AcDbPolyline
 62
7
  6
CONTINUOUS
 90
13
 70
0
 10
-5.5938098879
 20
-37.6418205163
 10
-5.601034071
 20
-37.811645759
 10
-5.622962032
 20
-37.9820500216
 10
-5.6598253499
 20
-38.1514319436
 10
-5.7115711306
 20
-38.3179693329
 10
-5.7779810458
 20
-38.4801313209
 10
-5.8588212891
 20
-38.636714763
 10
-5.9536229416
 20
-38.7862796152
 10
-6.0613164337
 20
-38.9269131636
 10
-6.1805925067
 20
-39.0570295587
 10
-6.3101223052
 20
-39.1754890918
 10
-6.4484194511
 20
-39.2813540789
 10
-6.5937615675
 20
-39.3738434252
  0
LINE
  5
314
100
AcDbEntity
  8
IMPORT_IGES
100
AcDbLine
 62
7
  6
CONTINUOUS
 10
-0.9364074227
 20
28.0680107177
 11
-0.9393245479
 21
28.0271246299
  0
LINE
  5
315
100
AcDbEntity
  8
IMPORT_IGES
100
AcDbLine
 62
7
  6
CONTINUOUS
 10
-0.9393245479
 20
27.9046540884
 11
-0.9364074227
 21
27.9455401761
  0
LINE
  5
316
100
AcDbEntity
  8
IMPORT_IGES
100
AcDbLine
 62
7
  6
CONTINUOUS
 10
-0.1704617466
 20
28.1367171569
 11
-0.1690147807
 21
28.1491135408
  0
LINE
  5
317
100
AcDbEntity
  8
IMPORT_IGES
100
AcDbLine
 62
7
  6
CONTINUOUS
 10
-0.1722890882
 20
28.1246797591
 11
-0.1704617466
 21
28.1367171569
  0
LINE
  5
318
100
AcDbEntity
  8
IMPORT_IGES
100
AcDbLine
 62
7
  6
CONTINUOUS
 10
-0.1744695208
 20
28.1129921577
 11
-0.1722890882
 21
28.1246797591
  0
LINE
  5
319
100
AcDbEntity
  8
IMPORT_IGES
100
AcDbLine
 62
7
  6
CONTINUOUS
 10
-0.1770207611
 20
28.1016534149
 11
-0.1744695208
 21
28.1129921577
  0
LINE
  5
31A
100
AcDbEntity
  8
IMPORT_IGES
100
AcDbLine
 62
7
  6
CONTINUOUS
 10
-0.1797687457
 20
28.0903382316
 11
-0.1770207611
 21
28.1016534149
  0
LINE
  5
31B
100
AcDbEntity
  8
IMPORT_IGES
100
AcDbLine
 62
253
  6
CONTINUOUS
 10
26.491366365
 20
3.6074148862
 11
26.3524557742
 21
3.5736218131
  0
LWPOLYLINE
  5
31C
100
AcDbEntity
  8
IMPORT_IGES
100
AcDbPolyline
 62
253
  6
CONTINUOUS
 90
11
 70
0
 10
11.1508363031
 20
-8.2796699287
 10
11.2299961888
 20
-8.3193532826
 10
11.3287735317
 20
-8.3540798497
 10
11.4335646077
 20
-8.3759617589
 10
11.5437040444
 20
-8.3848600709
 10
11.6584925102
 20
-8.3807182857
 10
11.7772011538
 20
-8.3635627015
 10
11.8990762334
 20
-8.3335022481
 10
12.0233439013
 20
-8.2907277947
 10
12.1492151183
 20
-8.2355109382
 10
12.2758906634
 20
-8.1682022789
  0
LINE
  5
31D
100
AcDbEntity
  8
IMPORT_IGES
100
AcDbLine
 62
7
  6
CONTINUOUS
 10
10.5258061029
 20
-9.3621842468
 11
10.652042286
 21
-9.4265972132
  0
LWPOLYLINE
  5
31E
100
AcDbEntity
  8
IMPORT_IGES
100
AcDbPolyline
 62
253
  6
CONTINUOUS
 90
11
 70
0
 10
11.1915358057
 20
-8.6491386743
 10
11.2952181224
 20
-8.7036748948
 10
11.4072089353
 20
-8.743891819
 10
11.5271337428
 20
-8.7699467887
 10
11.6524875944
 20
-8.7810316663
 10
11.7833832117
 20
-8.7767262198
 10
11.9197078731
 20
-8.7574506812
 10
12.0586184639
 20
-8.7236576081
 10
12.1991672791
 20
-8.6754978532
 10
12.3423020238
 20
-8.6128205638
 10
12.4880226978
 20
-8.5356257399
  0
LWPOLYLINE
  5
31F
100
AcDbEntity
  8
IMPORT_IGES
100
AcDbPolyline
 62
7
  6
CONTINUOUS
 90
15
 70
0
 10
10.6565549965
 20
-9.5530652381
 10
10.7333176635
 20
-9.5936431273
 10
10.841277399
 20
-9.6392204979
 10
10.9546473175
 20
-9.6743479049
 10
11.0733777461
 20
-9.6991215671
 10
11.1963335166
 20
-9.7132924264
 10
11.3235561114
 20
-9.7167618029
 10
11.4550040481
 20
-9.7096283764
 10
11.5894177113
 20
-9.6919391274
 10
11.726836862
 20
-9.6635899188
 10
11.8672217392
 20
-9.6246848878
 10
12.0091934444
 20
-9.5755834266
 10
12.1522923449
 20
-9.5164053327
 10
12.2969780733
 20
-9.4470308086
 10
12.4432506299
 20
-9.3674598543
  0
LINE
  5
320
100
AcDbEntity
  8
IMPORT_IGES
100
AcDbLine
 62
7
  6
CONTINUOUS
 10
10.2948493502
 20
-9.2288327123
 11
10.5258061029
 21
-9.3621842468
  0
LINE
  5
321
100
AcDbEntity
  8
IMPORT_IGES
100
AcDbLine
 62
7
  6
CONTINUOUS
 10
9.9421917382
 20
-8.0037776614
 11
9.8007853468
 21
-7.9221313832
  0
LINE
  5
322
100
AcDbEntity
  8
IMPORT_IGES
100
AcDbLine
 62
253
  6
CONTINUOUS
 10
12.2881350075
 20
-9.2775902051
 11
12.443517145
 21
-9.3673059039
  0
LINE
  5
323
100
AcDbEntity
  8
IMPORT_IGES
100
AcDbLine
 62
253
  6
CONTINUOUS
 10
10.7784872061
 20
-7.5077378587
 11
11.5913662279
 21
-7.9770840181
  0
LWPOLYLINE
  5
324
100
AcDbEntity
  8
IMPORT_IGES
100
AcDbPolyline
 62
253
  6
CONTINUOUS
 90
19
 70
0
 10
-14.9170235829
 20
7.1914711791
 10
-15.2854260225
 20
7.4111252553
 10
-15.6659102392
 20
7.6508785365
 10
-16.0568064805
 20
7.9121026269
 10
-16.458053755
 20
8.1958337125
 10
-16.8668796675
 20
8.5014121067
 10
-17.2781213971
 20
8.8261334131
 10
-17.6930377868
 20
9.1701107395
 10
-18.1088237284
 20
9.5309119013
 10
-18.5153496756
 20
9.900780722
 10
-18.9115593705
 20
10.2777239604
 10
-19.2982995464
 20
10.6611020106
 10
-19.6695550253
 20
11.0445271604
 10
-20.0251088615
 20
11.4270618231
 10
-20.3651944976
 20
11.8077196128
 10
-20.6856527925
 20
12.1799198244
 10
-20.9856445699
 20
12.5409838137
 10
-21.2668059014
 20
12.8920547725
 10
-21.5292713048
 20
13.2321591038
  0
LWPOLYLINE
  5
325
100
AcDbEntity
  8
IMPORT_IGES
100
AcDbPolyline
 62
253
  6
CONTINUOUS
 90
12
 70
0
 10
-14.8068324915
 20
7.7498078722
 10
-15.2206449811
 20
8.0064590752
 10
-15.6253024076
 20
8.284022439
 10
-16.0202317073
 20
8.5824344534
 10
-16.4047675598
 20
8.9037688914
 10
-16.7784197017
 20
9.2457838683
 10
-17.1408530106
 20
9.6019356109
 10
-17.4915452082
 20
9.9719622843
 10
-17.8297933114
 20
10.3559066301
 10
-18.1549793713
 20
10.7476722909
 10
-18.4662473291
 20
11.1464449121
 10
-18.7632758119
 20
11.5527190159
  0
LWPOLYLINE
  5
326
100
AcDbEntity
  8
IMPORT_IGES
100
AcDbPolyline
 62
253
  6
CONTINUOUS
 90
5
 70
0
 10
10.5258061029
 20
-9.3621842468
 10
10.4616798401
 20
-9.3223396303
 10
10.3409564629
 20
-9.2300640319
 10
10.2310540227
 20
-9.1215764977
 10
10.1965364296
 20
-9.0780757454
  0
LWPOLYLINE
  5
327
100
AcDbEntity
  8
IMPORT_IGES
100
AcDbPolyline
 62
253
  6
CONTINUOUS
 90
13
 70
0
 10
-21.5292711325
 20
13.2321578195
 10
-22.2017049185
 20
13.8138761512
 10
-22.8518368614
 20
14.4012652346
 10
-23.4796617475
 20
14.9942991156
 10
-24.0854078394
 20
15.593218317
 10
-24.6688304781
 20
16.1976982402
 10
-25.2292122298
 20
16.8068672659
 10
-25.7665051507
 20
17.4206874131
 10
-26.2807289995
 20
18.0390913104
 10
-26.7712654237
 20
18.6611819805
 10
-27.2378953838
 20
19.2866247854
 10
-27.6807987391
 20
19.9156287035
 10
-28.0999529827
 20
20.5481145542
  0
LWPOLYLINE
  5
328
100
AcDbEntity
  8
IMPORT_IGES
100
AcDbPolyline
 62
253
  6
CONTINUOUS
 90
10
 70
0
 10
-1.6256239363
 20
-17.1124119182
 10
-1.6370244314
 20
-17.0336694189
 10
-1.6530169705
 20
-16.9578605943
 10
-1.6735269007
 20
-16.8856738249
 10
-1.6983136229
 20
-16.8179418882
 10
-1.7271939763
 20
-16.7549949601
 10
-1.7601907649
 20
-16.6967610603
 10
-1.7970667927
 20
-16.6437095015
 10
-1.8374941607
 20
-16.5962665148
 10
-1.8731814429
 20
-16.5623123405
  0
LWPOLYLINE
  5
329
100
AcDbEntity
  8
IMPORT_IGES
100
AcDbPolyline
 62
7
  6
CONTINUOUS
 90
11
 70
0
 10
-7.660202437
 20
27.9724216673
 10
-7.6650425851
 20
28.0065988589
 10
-7.6761167987
 20
28.049014042
 10
-7.6926893243
 20
28.0910866547
 10
-7.7145276602
 20
28.1321423583
 10
-7.7417055457
 20
28.1721682735
 10
-7.7741492416
 20
28.2111772796
 10
-7.8114050284
 20
28.2485336749
 10
-7.8533216663
 20
28.2840255589
 10
-7.9000503951
 20
28.3178648323
 10
-7.9515912149
 20
28.3500514949
  0
LINE
  5
32A
100
AcDbEntity
  8
IMPORT_IGES
100
AcDbLine
 62
7
  6
CONTINUOUS
 10
1.1160939295
 20
-35.7044919483
 11
1.1237045334
 21
-35.8051372154
  0
LINE
  5
32B
100
AcDbEntity
  8
IMPORT_IGES
100
AcDbLine
 62
7
  6
CONTINUOUS
 10
-0.1671401496
 20
28.2022708184
 11
-0.1677334094
 21
28.2164245819
  0
LINE
  5
32C
100
AcDbEntity
  8
IMPORT_IGES
100
AcDbLine
 62
7
  6
CONTINUOUS
 10
-0.1669834222
 20
28.1884657987
 11
-0.1671401496
 21
28.2022708184
  0
LINE
  5
32D
100
AcDbEntity
  8
IMPORT_IGES
100
AcDbLine
 62
7
  6
CONTINUOUS
 10
-0.2252185489
 20
27.8771610894
 11
-0.2255460948
 21
27.9998207518
  0
LINE
  5
32E
100
AcDbEntity
  8
IMPORT_IGES
100
AcDbLine
 62
7
  6
CONTINUOUS
 10
-0.3410513673
 20
28.4380493049
 11
-0.3411692945
 21
28.5606408225
  0
LINE
  5
32F
100
AcDbEntity
  8
IMPORT_IGES
100
AcDbLine
 62
7
  6
CONTINUOUS
 10
-0.3639416646
 20
28.4598441934
 11
-0.3640353716
 21
28.5824039575
  0
LINE
  5
330
100
AcDbEntity
  8
IMPORT_IGES
100
AcDbLine
 62
7
  6
CONTINUOUS
 10
-2.6532869315
 20
28.4940503776
 11
-2.6532869315
 21
28.6165209192
  0
LINE
  5
331
100
AcDbEntity
  8
IMPORT_IGES
100
AcDbLine
 62
7
  6
CONTINUOUS
 10
-2.5114579131
 20
28.5663466063
 11
-2.5114579131
 21
28.6888171478
  0
LINE
  5
332
100
AcDbEntity
  8
IMPORT_IGES
100
AcDbLine
 62
7
  6
CONTINUOUS
 10
-2.4778238448
 20
27.9170826478
 11
-2.4778238448
 21
28.0395531893
  0
LINE
  5
333
100
AcDbEntity
  8
IMPORT_IGES
100
AcDbLine
 62
7
  6
CONTINUOUS
 10
-2.3690573778
 20
28.6317341549
 11
-2.3690573778
 21
28.7542046964
  0
LINE
  5
334
100
AcDbEntity
  8
IMPORT_IGES
100
AcDbLine
 62
7
  6
CONTINUOUS
 10
-2.2259273689
 20
28.6897966766
 11
-2.2259273689
 21
28.8122672181
  0
LINE
  5
335
100
AcDbEntity
  8
IMPORT_IGES
100
AcDbLine
 62
7
  6
CONTINUOUS
 10
-2.0822111663
 20
28.7409579995
 11
-2.0822111663
 21
28.8634285411
  0
LINE
  5
336
100
AcDbEntity
  8
IMPORT_IGES
100
AcDbLine
 62
7
  6
CONTINUOUS
 10
-1.9379087701
 20
28.7852181238
 11
-1.9379087701
 21
28.9076886653
  0
LINE
  5
337
100
AcDbEntity
  8
IMPORT_IGES
100
AcDbLine
 62
7
  6
CONTINUOUS
 10
-1.8577534029
 20
28.8031572805
 11
-1.8577534029
 21
28.925627822
  0
LINE
  5
338
100
AcDbEntity
  8
IMPORT_IGES
100
AcDbLine
 62
7
  6
CONTINUOUS
 10
-1.7750449112
 20
28.8173419127
 11
-1.7750449112
 21
28.9398124542
  0
LINE
  5
339
100
AcDbEntity
  8
IMPORT_IGES
100
AcDbLine
 62
7
  6
CONTINUOUS
 10
-1.6897832951
 20
28.8277720204
 11
-1.6897832951
 21
28.9502425619
  0
LINE
  5
33A
100
AcDbEntity
  8
IMPORT_IGES
100
AcDbLine
 62
7
  6
CONTINUOUS
 10
-1.6006009404
 20
28.8344200922
 11
-1.6006009404
 21
28.9568906337
  0
LINE
  5
33B
100
AcDbEntity
  8
IMPORT_IGES
100
AcDbLine
 62
7
  6
CONTINUOUS
 10
-1.5850055661
 20
27.4015805633
 11
-1.5850055661
 21
27.5240511049
  0
LINE
  5
33C
100
AcDbEntity
  8
IMPORT_IGES
100
AcDbLine
 62
7
  6
CONTINUOUS
 10
-1.5088654614
 20
28.8373136395
 11
-1.5088654614
 21
28.959784181
  0
LINE
  5
33D
100
AcDbEntity
  8
IMPORT_IGES
100
AcDbLine
 62
7
  6
CONTINUOUS
 10
-1.4186797003
 20
28.8365351966
 11
-1.4186797003
 21
28.9590057382
  0
LINE
  5
33E
100
AcDbEntity
  8
IMPORT_IGES
100
AcDbLine
 62
7
  6
CONTINUOUS
 10
-1.3303921272
 20
28.8317439494
 11
-1.3303921272
 21
28.9542144909
  0
LINE
  5
33F
100
AcDbEntity
  8
IMPORT_IGES
100
AcDbLine
 62
7
  6
CONTINUOUS
 10
-1.2436542721
 20
28.8232807121
 11
-1.2436542721
 21
28.9457512536
  0
LINE
  5
340
100
AcDbEntity
  8
IMPORT_IGES
100
AcDbLine
 62
7
  6
CONTINUOUS
 10
-1.1970315392
 20
27.625591904
 11
-1.1970315392
 21
27.7480624455
  0
LINE
  5
341
100
AcDbEntity
  8
IMPORT_IGES
100
AcDbLine
 62
7
  6
CONTINUOUS
 10
-1.1615235661
 20
28.8122504618
 11
-1.1615235661
 21
28.9347210033
  0
LINE
  5
342
100
AcDbEntity
  8
IMPORT_IGES
100
AcDbLine
 62
7
  6
CONTINUOUS
 10
-1.1367105445
 20
27.6643105988
 11
-1.1367105445
 21
27.7867811403
  0
LINE
  5
343
100
AcDbEntity
  8
IMPORT_IGES
100
AcDbLine
 62
7
  6
CONTINUOUS
 10
-1.0850321709
 20
28.7986178122
 11
-1.0850321709
 21
28.9210883537
  0
LINE
  5
344
100
AcDbEntity
  8
IMPORT_IGES
100
AcDbLine
 62
7
  6
CONTINUOUS
 10
-1.0841225651
 20
27.7034307111
 11
-1.0841225651
 21
27.8259012527
  0
LINE
  5
345
100
AcDbEntity
  8
IMPORT_IGES
100
AcDbLine
 62
7
  6
CONTINUOUS
 10
-1.039267601
 20
27.7429522411
 11
-1.039267601
 21
27.8654227827
  0
LINE
  5
346
100
AcDbEntity
  8
IMPORT_IGES
100
AcDbLine
 62
7
  6
CONTINUOUS
 10
-1.0298307704
 20
27.1070243727
 11
-1.0298307704
 21
27.2294949142
  0
LINE
  5
347
100
AcDbEntity
  8
IMPORT_IGES
100
AcDbLine
 62
7
  6
CONTINUOUS
 10
-1.0131479248
 20
28.7824181497
 11
-1.0131479248
 21
28.9048886912
  0
LINE
  5
348
100
AcDbEntity
  8
IMPORT_IGES
100
AcDbLine
 62
7
  6
CONTINUOUS
 10
-1.0017702816
 20
27.7829565492
 11
-1.0017702816
 21
27.9054270907
  0
LINE
  5
349
100
AcDbEntity
  8
IMPORT_IGES
100
AcDbLine
 62
7
  6
CONTINUOUS
 10
-0.9720059773
 20
27.8233622749
 11
-0.9720059773
 21
27.9458328164
  0
LINE
  5
34A
100
AcDbEntity
  8
IMPORT_IGES
100
AcDbLine
 62
7
  6
CONTINUOUS
 10
-0.9511008003
 20
27.8639253367
 11
-0.9511008003
 21
27.9863958782
  0
LINE
  5
34B
100
AcDbEntity
  8
IMPORT_IGES
100
AcDbLine
 62
7
  6
CONTINUOUS
 10
-0.9458317736
 20
28.7648626102
 11
-0.9458317736
 21
28.8873331518
  0
LINE
  5
34C
100
AcDbEntity
  8
IMPORT_IGES
100
AcDbLine
 62
7
  6
CONTINUOUS
 10
-0.9393245479
 20
27.9046540884
 11
-0.9393245479
 21
28.0271246299
  0
LINE
  5
34D
100
AcDbEntity
  8
IMPORT_IGES
100
AcDbLine
 62
7
  6
CONTINUOUS
 10
-0.9364074227
 20
27.9455401761
 11
-0.9364074227
 21
28.0271246299
  0
LINE
  5
34E
100
AcDbEntity
  8
IMPORT_IGES
100
AcDbLine
 62
7
  6
CONTINUOUS
 10
-0.8834255512
 20
28.7461329205
 11
-0.8834255512
 21
28.868603462
  0
LINE
  5
34F
100
AcDbEntity
  8
IMPORT_IGES
100
AcDbLine
 62
7
  6
CONTINUOUS
 10
-0.8255874237
 20
28.7260473538
 11
-0.8255874237
 21
28.8485178954
  0
LINE
  5
350
100
AcDbEntity
  8
IMPORT_IGES
100
AcDbLine
 62
7
  6
CONTINUOUS
 10
-0.6728388246
 20
28.6617856858
 11
-0.6728388246
 21
28.7842562273
  0
LINE
  5
351
100
AcDbEntity
  8
IMPORT_IGES
100
AcDbLine
 62
7
  6
CONTINUOUS
 10
-0.6282112929
 20
28.6394748119
 11
-0.6282112929
 21
28.7619453534
  0
LINE
  5
352
100
AcDbEntity
  8
IMPORT_IGES
100
AcDbLine
 62
7
  6
CONTINUOUS
 10
-0.586310844
 20
28.6170241499
 11
-0.586310844
 21
28.7394946914
  0
LINE
  5
353
100
AcDbEntity
  8
IMPORT_IGES
100
AcDbLine
 62
7
  6
CONTINUOUS
 10
-0.5472510418
 20
28.5943567071
 11
-0.5472510418
 21
28.7168272486
  0
LINE
  5
354
100
AcDbEntity
  8
IMPORT_IGES
100
AcDbLine
 62
7
  6
CONTINUOUS
 10
-0.5107042462
 20
28.5717117656
 11
-0.5107042462
 21
28.6941823071
  0
LINE
  5
355
100
AcDbEntity
  8
IMPORT_IGES
100
AcDbLine
 62
7
  6
CONTINUOUS
 10
-0.3200925698
 20
28.4165486386
 11
-0.3200925698
 21
28.5390191801
  0
LINE
  5
356
100
AcDbEntity
  8
IMPORT_IGES
100
AcDbLine
 62
7
  6
CONTINUOUS
 10
-0.3010655706
 20
28.3953279561
 11
-0.3010655706
 21
28.5177984976
  0
LINE
  5
357
100
AcDbEntity
  8
IMPORT_IGES
100
AcDbLine
 62
7
  6
CONTINUOUS
 10
-0.2836595604
 20
28.374455292
 11
-0.2836595604
 21
28.4969258336
  0
LINE
  5
358
100
AcDbEntity
  8
IMPORT_IGES
100
AcDbLine
 62
7
  6
CONTINUOUS
 10
-0.2678681048
 20
28.3539393597
 11
-0.2678681048
 21
28.4764099012
  0
LINE
  5
359
100
AcDbEntity
  8
IMPORT_IGES
100
AcDbLine
 62
7
  6
CONTINUOUS
 10
-0.2536976383
 20
28.3337714455
 11
-0.2536976383
 21
28.4562419871
  0
LINE
  5
35A
100
AcDbEntity
  8
IMPORT_IGES
100
AcDbLine
 62
7
  6
CONTINUOUS
 10
-0.2408566552
 20
28.3139934445
 11
-0.2408566552
 21
28.4364639861
  0
LINE
  5
35B
100
AcDbEntity
  8
IMPORT_IGES
100
AcDbLine
 62
7
  6
CONTINUOUS
 10
-0.2293291327
 20
28.2946105046
 11
-0.2293291327
 21
28.4170810461
  0
LINE
  5
35C
100
AcDbEntity
  8
IMPORT_IGES
100
AcDbLine
 62
7
  6
CONTINUOUS
 10
-0.2191310934
 20
28.2756174777
 11
-0.2191310934
 21
28.3980880192
  0
LINE
  5
35D
100
AcDbEntity
  8
IMPORT_IGES
100
AcDbLine
 62
7
  6
CONTINUOUS
 10
-0.2100190998
 20
28.2570408148
 11
-0.2100190998
 21
28.3795113563
  0
LINE
  5
35E
100
AcDbEntity
  8
IMPORT_IGES
100
AcDbLine
 62
7
  6
CONTINUOUS
 10
-0.2060003233
 20
27.8660647268
 11
-0.2060003233
 21
27.9885352683
  0
LINE
  5
35F
100
AcDbEntity
  8
IMPORT_IGES
100
AcDbLine
 62
7
  6
CONTINUOUS
 10
-0.201982423
 20
28.2388891316
 11
-0.201982423
 21
28.3613596731
  0
LINE
  5
360
100
AcDbEntity
  8
IMPORT_IGES
100
AcDbLine
 62
7
  6
CONTINUOUS
 10
-0.1950317919
 20
28.2211538124
 11
-0.1950317919
 21
28.3436243539
  0
LINE
  5
361
100
AcDbEntity
  8
IMPORT_IGES
100
AcDbLine
 62
7
  6
CONTINUOUS
 10
-0.1889559549
 20
28.2038354604
 11
-0.1889559549
 21
28.3263060019
  0
LINE
  5
362
100
AcDbEntity
  8
IMPORT_IGES
100
AcDbLine
 62
7
  6
CONTINUOUS
 10
-0.1837425783
 20
28.1869415606
 11
-0.1837425783
 21
28.3094121021
  0
LINE
  5
363
100
AcDbEntity
  8
IMPORT_IGES
100
AcDbLine
 62
7
  6
CONTINUOUS
 10
-0.1794039958
 20
28.1704646281
 11
-0.1794039958
 21
28.2929351696
  0
LINE
  5
364
100
AcDbEntity
  8
IMPORT_IGES
100
AcDbLine
 62
7
  6
CONTINUOUS
 10
-0.1757659572
 20
28.1543828119
 11
-0.1757659572
 21
28.2768533534
  0
LINE
  5
365
100
AcDbEntity
  8
IMPORT_IGES
100
AcDbLine
 62
7
  6
CONTINUOUS
 10
-0.1728191652
 20
28.1618753882
 11
-0.1728191652
 21
28.2611649399
  0
LINE
  5
366
100
AcDbEntity
  8
IMPORT_IGES
100
AcDbLine
 62
7
  6
CONTINUOUS
 10
-0.1671401496
 20
28.1884657987
 11
-0.1671401496
 21
28.2022708184
  0
LINE
  5
367
100
AcDbEntity
  8
IMPORT_IGES
100
AcDbLine
 62
7
  6
CONTINUOUS
 10
-0.1520815394
 20
27.877777478
 11
-0.1520815394
 21
28.0002480195
  0
LINE
  5
368
100
AcDbEntity
  8
IMPORT_IGES
100
AcDbLine
 62
7
  6
CONTINUOUS
 10
-0.0951408961
 20
27.8862776656
 11
-0.0951408961
 21
28.0087482071
  0
LINE
  5
369
100
AcDbEntity
  8
IMPORT_IGES
100
AcDbLine
 62
7
  6
CONTINUOUS
 10
-0.0351783936
 20
27.8915652895
 11
-0.0351783936
 21
28.0140358311
  0
LINE
  5
36A
100
AcDbEntity
  8
IMPORT_IGES
100
AcDbLine
 62
7
  6
CONTINUOUS
 10
0.0283009639
 20
27.8936907302
 11
0.0283009639
 21
28.0161612717
  0
LINE
  5
36B
100
AcDbEntity
  8
IMPORT_IGES
100
AcDbLine
 62
7
  6
CONTINUOUS
 10
0.0948021807
 20
27.8926036072
 11
0.0948021807
 21
28.0150741488
  0
LINE
  5
36C
100
AcDbEntity
  8
IMPORT_IGES
100
AcDbLine
 62
7
  6
CONTINUOUS
 10
0.1628402701
 20
27.8881527801
 11
0.1628402701
 21
28.0106233216
  0
LINE
  5
36D
100
AcDbEntity
  8
IMPORT_IGES
100
AcDbLine
 62
7
  6
CONTINUOUS
 10
0.2321320977
 20
27.8800483991
 11
0.2321320977
 21
28.0025189406
  0
LINE
  5
36E
100
AcDbEntity
  8
IMPORT_IGES
100
AcDbLine
 62
7
  6
CONTINUOUS
 10
0.3029607977
 20
27.8685803139
 11
0.3029607977
 21
27.9910508554
  0
LINE
  5
36F
100
AcDbEntity
  8
IMPORT_IGES
100
AcDbLine
 62
7
  6
CONTINUOUS
 10
0.3746907868
 20
27.854466933
 11
0.3746907868
 21
27.9769374745
  0
LINE
  5
370
100
AcDbEntity
  8
IMPORT_IGES
100
AcDbLine
 62
7
  6
CONTINUOUS
 10
0.447092706
 20
27.8376504406
 11
0.447092706
 21
27.9601209821
  0
LINE
  5
371
100
AcDbEntity
  8
IMPORT_IGES
100
AcDbLine
 62
7
  6
CONTINUOUS
 10
0.5203959142
 20
27.8181886524
 11
0.5203959142
 21
27.940659194
  0
LINE
  5
372
100
AcDbEntity
  8
IMPORT_IGES
100
AcDbLine
 62
7
  6
CONTINUOUS
 10
0.5946529052
 20
27.7969734245
 11
0.5946529052
 21
27.919443966
  0
LINE
  5
373
100
AcDbEntity
  8
IMPORT_IGES
100
AcDbLine
 62
7
  6
CONTINUOUS
 10
0.669881177
 20
27.774302042
 11
0.669881177
 21
27.8967725835
  0
LINE
  5
374
100
AcDbEntity
  8
IMPORT_IGES
100
AcDbLine
 62
7
  6
CONTINUOUS
 10
0.7460632317
 20
27.7498772198
 11
0.7460632317
 21
27.8723477613
  0
LINE
  5
375
100
AcDbEntity
  8
IMPORT_IGES
100
AcDbLine
 62
7
  6
CONTINUOUS
 10
0.8231990691
 20
27.7236989577
 11
0.8231990691
 21
27.8461694993
  0
LINE
  5
376
100
AcDbEntity
  8
IMPORT_IGES
100
AcDbLine
 62
7
  6
CONTINUOUS
 10
0.9500290005
 20
27.6814956324
 11
0.9500290005
 21
27.8039661739
  0
LINE
  5
377
100
AcDbEntity
  8
IMPORT_IGES
100
AcDbLine
 62
253
  6
CONTINUOUS
 10
-1.6258140369
 20
-17.112347802
 11
-1.6280075982
 21
-31.1822997093
  0
LINE
  5
378
100
AcDbEntity
  8
IMPORT_IGES
100
AcDbLine
 62
7
  6
CONTINUOUS
 10
-0.7202922593
 20
28.6838727039
 11
-0.7202654672
 21
28.8063307749
  0
LINE
  5
379
100
AcDbEntity
  8
IMPORT_IGES
100
AcDbLine
 62
7
  6
CONTINUOUS
 10
-0.4766608289
 20
28.5491278992
 11
-0.4766480573
 21
28.6715893023
  0
LINE
  5
37A
100
AcDbEntity
  8
IMPORT_IGES
100
AcDbLine
 62
7
  6
CONTINUOUS
 10
-0.4451267779
 20
28.5265644042
 11
-0.4451137661
 21
28.6490249966
  0
LINE
  5
37B
100
AcDbEntity
  8
IMPORT_IGES
100
AcDbLine
 62
7
  6
CONTINUOUS
 10
-0.4158259343
 20
28.5041603593
 11
-0.4158107403
 21
28.6266184139
  0
LINE
  5
37C
100
AcDbEntity
  8
IMPORT_IGES
100
AcDbLine
 62
7
  6
CONTINUOUS
 10
-0.3887663544
 20
28.4819217857
 11
-0.3887492236
 21
28.6043770922
  0
LINE
  5
37D
100
AcDbEntity
  8
IMPORT_IGES
100
AcDbLine
 62
7
  6
CONTINUOUS
 10
0.1287179523
 20
-31.1715118563
 11
0.1308723834
 21
-17.3525490105
  0
LINE
  5
37E
100
AcDbEntity
  8
IMPORT_IGES
100
AcDbLine
 62
7
  6
CONTINUOUS
 10
-0.7712528344
 20
28.7052718665
 11
-0.771125772
 21
28.827689052
  0
LINE
  5
37F
100
AcDbEntity
  8
IMPORT_IGES
100
AcDbLine
 62
7
  6
CONTINUOUS
 10
-0.1672427282
 20
28.1749962216
 11
-0.1669834222
 21
28.1884657987
  0
LINE
  5
380
100
AcDbEntity
  8
IMPORT_IGES
100
AcDbLine
 62
7
  6
CONTINUOUS
 10
-0.1679385666
 20
28.1618753882
 11
-0.1672427282
 21
28.1749962216
  0
LINE
  5
381
100
AcDbEntity
  8
IMPORT_IGES
100
AcDbLine
 62
7
  6
CONTINUOUS
 10
-2.8762954666
 20
-35.8051372154
 11
-2.8686848628
 21
-35.7044919483
  0
LINE
  5
382
100
AcDbEntity
  8
IMPORT_IGES
100
AcDbLine
 62
7
  6
CONTINUOUS
 10
-0.1690147807
 20
28.1491135408
 11
-0.1679385666
 21
28.1618753882
  0
LWPOLYLINE
  5
383
100
AcDbEntity
  8
IMPORT_IGES
100
AcDbPolyline
 62
253
  6
CONTINUOUS
 90
4
 70
0
 10
4.4233921786
 20
24.8146882685
 10
4.394343817
 20
24.6959398139
 10
4.3805920753
 20
24.5762758848
 10
4.3796076603
 20
24.5489348462
  0
LWPOLYLINE
  5
384
100
AcDbEntity
  8
IMPORT_IGES
100
AcDbPolyline
 62
253
  6
CONTINUOUS
 90
26
 70
0
 10
14.5018576856
 20
8.5471286624
 10
13.8588023058
 20
8.2374900184
 10
13.1958422764
 20
7.9408137225
 10
12.5139658295
 20
7.6575459865
 10
11.8140916149
 20
7.3881705348
 10
11.0972567203
 20
7.1330467166
 10
10.3645199943
 20
6.8925764385
 10
9.616857564
 20
6.6672857769
 10
8.8553763056
 20
6.457485995
 10
8.0811957377
 20
6.2634977463
 10
7.2953320204
 20
6.085839864
 10
6.4984921754
 20
5.9246692498
 10
5.6922950798
 20
5.7803472275
 10
4.8791854076
 20
5.6535865423
 10
4.0614200142
 20
5.5445945306
 10
3.2392309033
 20
5.4532895642
 10
2.4120362134
 20
5.3799468499
 10
1.5802774826
 20
5.3246599512
 10
0.7459587231
 20
5.2876171578
 10
-0.0891682935
 20
5.2692815837
 10
-0.9238731056
 20
5.2696740121
 10
-1.7568835819
 20
5.2887885525
 10
-2.58638484
 20
5.3269344853
 10
-3.4109496121
 20
5.3841216705
 10
-4.2295345157
 20
5.4601028934
 10
-5.0409182852
 20
5.5547225882
  0
LWPOLYLINE
  5
385
100
AcDbEntity
  8
IMPORT_IGES
100
AcDbPolyline
 62
253
  6
CONTINUOUS
 90
16
 70
0
 10
7.3335082886
 20
-1.6891979297
 10
7.4047462982
 20
-1.7059833145
 10
7.4774188677
 20
-1.7203698342
 10
7.5511189188
 20
-1.7322758186
 10
7.6254366773
 20
-1.7416338232
 10
7.6999519535
 20
-1.7483897016
 10
7.7742364888
 20
-1.752504097
 10
7.8478700128
 20
-1.7539539088
 10
7.9204425736
 20
-1.7527312436
 10
7.9915468317
 20
-1.7488429641
 10
8.0607836891
 20
-1.7423108945
 10
8.1277645292
 20
-1.7331716985
 10
8.1921133981
 20
-1.721476673
 10
8.2534691147
 20
-1.7072914607
 10
8.3114872981
 20
-1.690695681
 10
8.3658423005
 20
-1.6717824837
  0
LWPOLYLINE
  5
386
100
AcDbEntity
  8
IMPORT_IGES
100
AcDbPolyline
 62
253
  6
CONTINUOUS
 90
13
 70
0
 10
7.8559829526
 20
-0.2123485943
 10
6.7021236346
 20
0.063418812
 10
5.5578982129
 20
0.3508165866
 10
4.4233092983
 20
0.649909399
 10
3.2978581678
 20
0.9608800873
 10
2.1820423311
 20
1.2836495393
 10
1.0773554014
 20
1.6178952483
 10
-0.0161971738
 20
1.9636928376
 10
-1.098633627
 20
2.3210631345
 10
-2.1684988508
 20
2.6896233136
 10
-3.2253151919
 20
3.0692809005
 10
-4.2695819209
 20
3.4602154525
 10
-5.3013112905
 20
3.8624569865
  0
LWPOLYLINE
  5
387
100
AcDbEntity
  8
IMPORT_IGES
100
AcDbPolyline
 62
253
  6
CONTINUOUS
 90
19
 70
0
 10
-5.3013113642
 20
3.8624580102
 10
-5.9849008809
 20
4.0332675974
 10
-6.6595114602
 20
4.2057869853
 10
-7.3246461602
 20
4.380524835
 10
-7.9826389202
 20
4.5578529201
 10
-8.6309103759
 20
4.7378909989
 10
-9.2622519882
 20
4.9205820132
 10
-9.8761932831
 20
5.1067566247
 10
-10.4736174731
 20
5.2966047055
 10
-11.0499083626
 20
5.4890492395
 10
-11.6097832247
 20
5.6866787483
 10
-12.1490701168
 20
5.8891469557
 10
-12.6509256955
 20
6.0895432118
 10
-13.1104827691
 20
6.2838826888
 10
-13.5350526869
 20
6.4746080263
 10
-13.9268487847
 20
6.6625369177
 10
-14.2872107641
 20
6.8465902442
 10
-14.6168669293
 20
7.0238108071
 10
-14.9170235842
 20
7.1914711797
  0
LWPOLYLINE
  5
388
100
AcDbEntity
  8
IMPORT_IGES
100
AcDbPolyline
 62
7
  6
CONTINUOUS
 90
11
 70
0
 10
13.4009450237
 20
-4.3826183836
 10
13.3356115565
 20
-4.3504385296
 10
13.266555329
 20
-4.3268650292
 10
13.1940325651
 20
-4.3115462251
 10
13.1188622386
 20
-4.3041874774
 10
13.0412360726
 20
-4.3043629249
 10
12.9604680902
 20
-4.3118711921
 10
12.8770495088
 20
-4.3266222783
 10
12.7916313324
 20
-4.3484266892
 10
12.7034708268
 20
-4.3775104995
 10
12.6125683343
 20
-4.4140797197
  0
LINE
  5
389
100
AcDbEntity
  8
IMPORT_IGES
100
AcDbLine
 62
7
  6
CONTINUOUS
 10
12.2057048552
 20
-6.2081614502
 11
11.2973202988
 21
-5.6836715921
  0
LINE
  5
38A
100
AcDbEntity
  8
IMPORT_IGES
100
AcDbLine
 62
7
  6
CONTINUOUS
 10
13.0536615877
 20
-5.7185618602
 11
11.9930014159
 21
-5.1061499702
  0
LINE
  5
38B
100
AcDbEntity
  8
IMPORT_IGES
100
AcDbLine
 62
7
  6
CONTINUOUS
 10
12.2914184715
 20
-4.9338477024
 11
13.3349882746
 21
-5.5363918277
  0
LINE
  5
38C
100
AcDbEntity
  8
IMPORT_IGES
100
AcDbLine
 62
253
  6
CONTINUOUS
 10
1.9543295301
 20
-17.1432167576
 11
2.0002716748
 21
-17.3580302492
  0
LINE
  5
38D
100
AcDbEntity
  8
IMPORT_IGES
100
AcDbLine
 62
253
  6
CONTINUOUS
 10
3.4574613545
 20
-17.0084022476
 11
3.4125819067
 21
-16.7985600011
  0
LINE
  5
38E
100
AcDbEntity
  8
IMPORT_IGES
100
AcDbLine
 62
253
  6
CONTINUOUS
 10
1.9096352713
 20
-16.9273784941
 11
1.9543295301
 21
-17.1432167576
  0
LINE
  5
38F
100
AcDbEntity
  8
IMPORT_IGES
100
AcDbLine
 62
253
  6
CONTINUOUS
 10
3.4125819067
 20
-16.7985600011
 11
3.3689200954
 21
-16.5877007012
  0
LINE
  5
390
100
AcDbEntity
  8
IMPORT_IGES
100
AcDbLine
 62
253
  6
CONTINUOUS
 10
1.8661945066
 20
-16.710523513
 11
1.9096352713
 21
-16.9273784941
  0
LINE
  5
391
100
AcDbEntity
  8
IMPORT_IGES
100
AcDbLine
 62
253
  6
CONTINUOUS
 10
3.3689200954
 20
-16.5877007012
 11
3.3264766044
 21
-16.375827768
  0
LWPOLYLINE
  5
392
100
AcDbEntity
  8
IMPORT_IGES
100
AcDbPolyline
 62
253
  6
CONTINUOUS
 90
3
 70
0
 10
3.3264766044
 20
-16.375827768
 10
3.2852541689
 20
-16.1629548826
 10
3.2651006759
 20
-16.0561426026
  0
LWPOLYLINE
  5
393
100
AcDbEntity
  8
IMPORT_IGES
100
AcDbPolyline
 62
253
  6
CONTINUOUS
 90
3
 70
0
 10
1.8034036226
 20
-16.3833553514
 10
1.8240174509
 20
-16.4926616625
 10
1.8661945066
 20
-16.710523513
  0
LWPOLYLINE
  5
394
100
AcDbEntity
  8
IMPORT_IGES
100
AcDbPolyline
 62
253
  6
CONTINUOUS
 90
25
 70
0
 10
1.8034036226
 20
-16.3833553514
 10
1.7885635393
 20
-16.268979659
 10
1.7825976648
 20
-16.1606617019
 10
1.7854990202
 20
-16.0584372236
 10
1.7974388067
 20
-15.9627291184
 10
1.818234796
 20
-15.873175667
 10
1.8473561152
 20
-15.7886226969
 10
1.8845780384
 20
-15.7088144364
 10
1.9301317979
 20
-15.6340303188
 10
1.9841790255
 20
-15.5639044913
 10
2.0467891193
 20
-15.4978526201
 10
2.1179134215
 20
-15.4364577276
 10
2.1975338756
 20
-15.3811059225
 10
2.2873316882
 20
-15.3318669906
 10
2.385643411
 20
-15.2886648385
 10
2.4873997279
 20
-15.2526978077
 10
2.5900684718
 20
-15.2244952018
 10
2.6961370743
 20
-15.2035697489
 10
2.8080507743
 20
-15.1896063147
 10
2.925776771
 20
-15.1823206059
 10
3.049346171
 20
-15.181986217
 10
3.1813231674
 20
-15.1890977992
 10
3.322575046
 20
-15.2037974725
 10
3.4722618079
 20
-15.2258864272
 10
3.6303983328
 20
-15.2553309427
  0
LINE
  5
395
100
AcDbEntity
  8
IMPORT_IGES
100
AcDbLine
 62
7
  6
CONTINUOUS
 10
-0.1677334094
 20
28.2164245819
 11
-0.1688808546
 21
28.230956751
  0
LINE
  5
396
100
AcDbEntity
  8
IMPORT_IGES
100
AcDbLine
 62
7
  6
CONTINUOUS
 10
1.0737045334
 20
-30.9915421535
 11
1.0737045334
 21
-35.7643137015
  0
LINE
  5
397
100
AcDbEntity
  8
IMPORT_IGES
100
AcDbLine
 62
7
  6
CONTINUOUS
 10
1.0759677634
 20
27.639409106
 11
1.0759677634
 21
27.7618796475
  0
LINE
  5
398
100
AcDbEntity
  8
IMPORT_IGES
100
AcDbLine
 62
7
  6
CONTINUOUS
 10
1.1237045334
 20
-35.8051372154
 11
1.1237045334
 21
-41.1121940145
  0
LINE
  5
399
100
AcDbEntity
  8
IMPORT_IGES
100
AcDbLine
 62
7
  6
CONTINUOUS
 10
1.2010153579
 20
27.5974393787
 11
1.2010153579
 21
27.7199099202
  0
LINE
  5
39A
100
AcDbEntity
  8
IMPORT_IGES
100
AcDbLine
 62
7
  6
CONTINUOUS
 10
1.3250624186
 20
27.5555354728
 11
1.3250624186
 21
27.6780060143
  0
LWPOLYLINE
  5
39B
100
AcDbEntity
  8
IMPORT_IGES
100
AcDbPolyline
 62
253
  6
CONTINUOUS
 90
12
 70
0
 10
0.1289855412
 20
-31.1713623972
 10
0.1267245905
 20
-31.2307746011
 10
0.1207065292
 20
-31.2870171766
 10
0.1110582032
 20
-31.3398529952
 10
0.0979661884
 20
-31.3889211199
 10
0.0815712816
 20
-31.4342217872
 10
0.0618527906
 20
-31.4760001506
 10
0.0388513643
 20
-31.5141003888
 10
0.0127071112
 20
-31.5482129277
 10
-0.0165578021
 20
-31.5782339079
 10
-0.0488211065
 20
-31.603936717
 10
-0.0786901631
 20
-31.6223426663
  0
LWPOLYLINE
  5
39C
100
AcDbEntity
  8
IMPORT_IGES
100
AcDbPolyline
 62
7
  6
CONTINUOUS
 90
13
 70
0
 10
1.1237045334
 20
-41.1121940145
 10
1.1164802212
 20
-41.2820207708
 10
1.0945518691
 20
-41.4524265325
 10
1.0576878975
 20
-41.6218098967
 10
1.0059412127
 20
-41.7883486157
 10
0.9395301572
 20
-41.95051179
 10
0.8586885413
 20
-42.1070962672
 10
0.7638848689
 20
-42.2566625875
 10
0.6561890897
 20
-42.3972972729
 10
0.5369120751
 20
-42.5274128823
 10
0.4073835917
 20
-42.6458697261
 10
0.269089728
 20
-42.7517312409
 10
0.1237528537
 20
-42.8442169234
  0
LWPOLYLINE
  5
39D
100
AcDbEntity
  8
IMPORT_IGES
100
AcDbPolyline
 62
7
  6
CONTINUOUS
 90
10
 70
0
 10
1.1237045334
 20
-35.8051372154
 10
1.1160939295
 20
-35.9057824824
 10
1.0933200394
 20
-36.0056617783
 10
1.0555561859
 20
-36.1040149611
 10
1.0030897749
 20
-36.2000935039
 10
0.9363201073
 20
-36.2931661909
 10
0.8557553409
 20
-36.3825246824
 10
0.7620086224
 20
-36.4674889065
 10
0.655793421
 20
-36.547412234
 10
0.5379180984
 20
-36.6216864005
  0
LWPOLYLINE
  5
39E
100
AcDbEntity
  8
IMPORT_IGES
100
AcDbPolyline
 62
253
  6
CONTINUOUS
 90
7
 70
0
 10
-0.2549911091
 20
-17.4329513681
 10
-0.2474463494
 20
-17.3597770347
 10
-0.2374167628
 20
-17.2900208248
 10
-0.2249520772
 20
-17.2242862701
 10
-0.2101910896
 20
-17.1632862098
 10
-0.1932348623
 20
-17.1072892106
 10
-0.1797239099
 20
-17.0712907354
  0
LWPOLYLINE
  5
39F
100
AcDbEntity
  8
IMPORT_IGES
100
AcDbPolyline
 62
253
  6
CONTINUOUS
 90
4
 70
0
 10
0.13059346
 20
-17.3526278398
 10
0.1395798913
 20
-17.2756161171
 10
0.1531447113
 20
-17.2014133268
 10
0.1619053147
 20
-17.1671561797
  0
LWPOLYLINE
  5
3A0
100
AcDbEntity
  8
IMPORT_IGES
100
AcDbPolyline
 62
7
  6
CONTINUOUS
 90
15
 70
0
 10
11.8698190387
 20
25.891740374
 10
11.879562794
 20
25.9213410523
 10
11.9127307352
 20
26.0079773161
 10
11.9501059523
 20
26.0930722555
 10
11.9916312109
 20
26.1766496117
 10
12.0366473552
 20
26.2573827102
 10
12.0852047057
 20
26.3352338941
 10
12.1372529418
 20
26.4102408202
 10
12.1919819463
 20
26.4811897838
 10
12.2494343375
 20
26.5480294334
 10
12.309567497
 20
26.6108111204
 10
12.3714434521
 20
26.6684751942
 10
12.4347495451
 20
26.7206684378
 10
12.4997984337
 20
26.7677440682
 10
12.5665901179
 20
26.8097020853
  0
LWPOLYLINE
  5
3A1
100
AcDbEntity
  8
IMPORT_IGES
100
AcDbPolyline
 62
253
  6
CONTINUOUS
 90
13
 70
0
 10
29.0343616264
 20
12.0157420494
 10
27.2704620188
 20
11.1608515387
 10
25.5051689486
 20
10.2754764273
 10
23.7388473813
 20
9.359793332
 10
21.9718541859
 20
8.4139832088
 10
20.204559599
 20
7.4382386875
 10
18.437347239
 20
6.4327649971
 10
16.6705845778
 20
5.3977664278
 10
14.9046247714
 20
4.3334548661
 10
13.1398282171
 20
3.2400582461
 10
11.37655261
 20
2.1178049487
 10
9.6151528439
 20
0.9669233057
 10
7.8559829526
 20
-0.2123485943
  0
LWPOLYLINE
  5
3A2
100
AcDbEntity
  8
IMPORT_IGES
100
AcDbPolyline
 62
253
  6
CONTINUOUS
 90
3
 70
0
 10
-5.0409182852
 20
5.5547225882
 10
-5.6953691222
 20
5.6341881225
 10
-6.3377807078
 20
5.7144031901
  0
LWPOLYLINE
  5
3A3
100
AcDbEntity
  8
IMPORT_IGES
100
AcDbPolyline
 62
253
  6
CONTINUOUS
 90
15
 70
0
 10
-6.3377807078
 20
5.7144031901
 10
-8.1883527132
 20
5.951556829
 10
-8.7788300035
 20
6.034027145
 10
-9.3554481203
 20
6.1206285253
 10
-9.9182673566
 20
6.2108256701
 10
-10.4683104341
 20
6.3093713571
 10
-11.0057547152
 20
6.4156865365
 10
-11.5298691407
 20
6.5296702321
 10
-12.0402880816
 20
6.656852016
 10
-12.5366896143
 20
6.7965984523
 10
-13.0190169661
 20
6.948835004
 10
-13.4873191052
 20
7.1199360363
 10
-13.9415080163
 20
7.3118073783
 10
-14.3813821997
 20
7.5218750771
 10
-14.8068324915
 20
7.7498078722
  0
LWPOLYLINE
  5
3A4
100
AcDbEntity
  8
IMPORT_IGES
100
AcDbPolyline
 62
253
  6
CONTINUOUS
 90
12
 70
0
 10
17.8683507244
 20
-4.4010612921
 10
17.9297734861
 20
-4.4328488221
 10
18.01918368
 20
-4.4674118487
 10
18.1138150219
 20
-4.4911765419
 10
18.2131603538
 20
-4.5040155396
 10
18.3166872538
 20
-4.5058600335
 10
18.42384089
 20
-4.4967001387
 10
18.5340469934
 20
-4.4765849456
 10
18.6467149362
 20
-4.4456222578
 10
18.7612408966
 20
-4.4039780136
 10
18.8770110953
 20
-4.3518753972
 10
18.9934050847
 20
-4.2895936423
  0
LWPOLYLINE
  5
3A5
100
AcDbEntity
  8
IMPORT_IGES
100
AcDbPolyline
 62
253
  6
CONTINUOUS
 90
19
 70
0
 10
7.8559811233
 20
-0.2124943712
 10
7.9145863478
 20
-0.2536127936
 10
7.9722515669
 20
-0.2990379238
 10
8.0286084227
 20
-0.3483313345
 10
8.0830430501
 20
-0.4007707433
 10
8.1355315124
 20
-0.4561462824
 10
8.1865610313
 20
-0.514933169
 10
8.235989332
 20
-0.5770783546
 10
8.2832419881
 20
-0.6419758845
 10
8.3280739327
 20
-0.7093952194
 10
8.3702039871
 20
-0.7790658295
 10
8.4091934464
 20
-0.8504270575
 10
8.4445906871
 20
-0.922774316
 10
8.4760636418
 20
-0.995502398
 10
8.5034108386
 20
-1.0682288374
 10
8.5264259417
 20
-1.1405524653
 10
8.5448854221
 20
-1.2119875104
 10
8.5585729493
 20
-1.2819699124
 10
8.5673152606
 20
-1.3499689852
  0
LINE
  5
3A6
100
AcDbEntity
  8
IMPORT_IGES
100
AcDbLine
 62
7
  6
CONTINUOUS
 10
-0.9426661434
 20
28.1087849993
 11
-0.9364074227
 21
28.0680107177
  0
LINE
  5
3A7
100
AcDbEntity
  8
IMPORT_IGES
100
AcDbLine
 62
7
  6
CONTINUOUS
 10
-0.1705729172
 20
28.2458716426
 11
-0.1728191652
 21
28.2611649399
  0
LWPOLYLINE
  5
3A8
100
AcDbEntity
  8
IMPORT_IGES
100
AcDbPolyline
 62
253
  6
CONTINUOUS
 90
12
 70
0
 10
3.6304001329
 20
-15.2553308746
 10
3.639930521
 20
-15.3211448061
 10
3.6520865198
 20
-15.3825663867
 10
3.6668007578
 20
-15.4390323088
 10
3.6839078102
 20
-15.4899190964
 10
3.703291331
 20
-15.535005981
 10
3.7249621323
 20
-15.5743331001
 10
3.7487638987
 20
-15.6075781126
 10
3.7744936204
 20
-15.6344952761
 10
3.8021577423
 20
-15.6550948754
 10
3.8315477796
 20
-15.6691914324
 10
3.8494348868
 20
-15.6743821308
  0
LINE
  5
3A9
100
AcDbEntity
  8
IMPORT_IGES
100
AcDbLine
 62
7
  6
CONTINUOUS
 10
-0.1688808546
 20
28.230956751
 11
-0.1705729172
 21
28.2458716426
  0
LWPOLYLINE
  5
3AA
100
AcDbEntity
  8
IMPORT_IGES
100
AcDbPolyline
 62
7
  6
CONTINUOUS
 90
7
 70
0
 10
4.3796076603
 20
24.5489348462
 10
4.3840980366
 20
24.4504528772
 10
4.4012694777
 20
24.3541415432
 10
4.4302894977
 20
24.2601362325
 10
4.4699940603
 20
24.1692998764
 10
4.5195974593
 20
24.0813967549
 10
4.5371968259
 20
24.0559986901
  0
LWPOLYLINE
  5
3AB
100
AcDbEntity
  8
IMPORT_IGES
100
AcDbPolyline
 62
253
  6
CONTINUOUS
 90
10
 70
0
 10
7.9927794225
 20
-8.9660513443
 10
7.9829608094
 20
-8.1812766722
 10
7.9859710677
 20
-7.3898541164
 10
8.0018101974
 20
-6.5917836771
 10
8.0304934293
 20
-5.7867678066
 10
8.0720055325
 20
-4.9751040526
 10
8.1263008152
 20
-4.1576850574
 10
8.1933640467
 20
-3.3348083688
 10
8.2732104576
 20
-2.506176439
 10
8.3658400479
 20
-1.6717892682
  0
LWPOLYLINE
  5
3AC
100
AcDbEntity
  8
IMPORT_IGES
100
AcDbPolyline
 62
253
  6
CONTINUOUS
 90
10
 70
0
 10
6.9534276178
 20
-9.2656821569
 10
6.9436125582
 20
-10.0462110723
 10
6.946844376
 20
-10.8190539356
 10
6.9631158478
 20
-11.5839800297
 10
6.9923684215
 20
-12.3408001278
 10
7.0346078736
 20
-13.0892359764
 10
7.0899001168
 20
-13.8289270952
 10
7.1582188469
 20
-14.5596020433
 10
7.2394497755
 20
-15.281071806
 10
7.3335033759
 20
-15.993104006
  0
LINE
  5
3AD
100
AcDbEntity
  8
IMPORT_IGES
100
AcDbLine
 62
253
  6
CONTINUOUS
 10
7.5017261885
 20
-16.4028095856
 11
7.3480136495
 21
-27.003183488
  0
LINE
  5
3AE
100
AcDbEntity
  8
IMPORT_IGES
100
AcDbLine
 62
7
  6
CONTINUOUS
 10
7.8451094212
 20
-16.4297150409
 11
7.6990991841
 21
-26.4989203134
  0
LWPOLYLINE
  5
3AF
100
AcDbEntity
  8
IMPORT_IGES
100
AcDbPolyline
 62
7
  6
CONTINUOUS
 90
19
 70
0
 10
9.7424505009
 20
40.2564119044
 10
9.74571855
 20
40.3283792706
 10
9.7540336884
 20
40.4007740314
 10
9.7671261827
 20
40.4732741081
 10
9.784776874
 20
40.545687308
 10
9.8067623019
 20
40.6176826663
 10
9.8327724537
 20
40.6886976881
 10
9.8624943087
 20
40.7582800476
 10
9.8957595275
 20
40.8263142267
 10
9.9324361082
 20
40.8926607843
 10
9.972340175
 20
40.9570307707
 10
10.0152863088
 20
41.0191227272
 10
10.0611879127
 20
41.0787513415
 10
10.1099790643
 20
41.1357004929
 10
10.1614357241
 20
41.1895445117
 10
10.2152941112
 20
41.2398449015
 10
10.2714035929
 20
41.286283388
 10
10.3296789421
 20
41.328568189
 10
10.3899755176
 20
41.3663293801
  0
LWPOLYLINE
  5
3B0
100
AcDbEntity
  8
IMPORT_IGES
100
AcDbPolyline
 62
253
  6
CONTINUOUS
 90
9
 70
0
 10
7.2394003133
 20
-2.5372342084
 10
7.158193184
 20
-3.3797843205
 10
7.0898905282
 20
-4.2165999913
 10
7.0346045216
 20
-5.0475155007
 10
6.9923634629
 20
-5.872233406
 10
6.9631075791
 20
-6.6903298192
 10
6.9468331537
 20
-7.5015107418
 10
6.9435966821
 20
-8.305606875
 10
6.9534053888
 20
-9.1023835831
  0
LWPOLYLINE
  5
3B1
100
AcDbEntity
  8
IMPORT_IGES
100
AcDbPolyline
 62
253
  6
CONTINUOUS
 90
19
 70
0
 10
7.2394003133
 20
-2.5372342084
 10
7.3427340693
 20
-1.6080824033
 10
7.3548242386
 20
-1.5244642623
 10
7.3696792036
 20
-1.4387309541
 10
7.3871922893
 20
-1.3514383979
 10
7.407335313
 20
-1.2628594504
 10
7.4302403395
 20
-1.1729798744
 10
7.4559768955
 20
-1.0818494974
 10
7.4843482106
 20
-0.9903840186
 10
7.5150042833
 20
-0.8998691299
 10
7.5476323268
 20
-0.8105327048
 10
7.58207012
 20
-0.7230424785
 10
7.6179239391
 20
-0.6391604393
 10
7.654330815
 20
-0.5602952342
 10
7.6913581009
 20
-0.4854141774
 10
7.7300735259
 20
-0.4127772906
 10
7.7707857592
 20
-0.3423307665
 10
7.8128281496
 20
-0.2753438946
 10
7.8559097972
 20
-0.2124467586
  0
LWPOLYLINE
  5
3B2
100
AcDbEntity
  8
IMPORT_IGES
100
AcDbPolyline
 62
7
  6
CONTINUOUS
 90
3
 70
0
 10
-2.8686848628
 20
-35.7044919483
 10
-2.8459109727
 20
-35.6046126524
 10
-2.8262954666
 20
-35.5535255076
  0
LWPOLYLINE
  5
3B3
100
AcDbEntity
  8
IMPORT_IGES
100
AcDbPolyline
 62
253
  6
CONTINUOUS
 90
13
 70
0
 10
8.5673165991
 20
-1.3499681075
 10
10.3169733735
 20
-0.1770192215
 10
12.0681569977
 20
0.9672335268
 10
13.8208674715
 20
2.0827901374
 10
15.5754671227
 20
3.1698690397
 10
17.3315936237
 20
4.2282518044
 10
19.0881599914
 20
5.2572831428
 10
20.8451665174
 20
6.2569447701
 10
22.6026129102
 20
7.2272549711
 10
24.3594113122
 20
8.1676133127
 10
26.1151991041
 20
9.0778196504
 10
27.8703389052
 20
9.9580741287
 10
29.6248307155
 20
10.8083767476
  0
LWPOLYLINE
  5
3B4
100
AcDbEntity
  8
IMPORT_IGES
100
AcDbPolyline
 62
253
  6
CONTINUOUS
 90
4
 70
0
 10
26.3524557742
 20
3.5736218131
 10
26.211906959
 20
3.5254620582
 10
26.0687722144
 20
3.4627847688
 10
25.9230515403
 20
3.3855899449
  0
LWPOLYLINE
  5
3B5
100
AcDbEntity
  8
IMPORT_IGES
100
AcDbPolyline
 62
253
  6
CONTINUOUS
 90
15
 70
0
 10
29.0344662639
 20
12.0157621703
 10
29.1190797134
 20
12.0284037285
 10
29.2022275162
 20
12.0353920975
 10
29.2834979933
 20
12.0366802614
 10
29.3624097398
 20
12.0321951585
 10
29.4387190966
 20
12.0220237767
 10
29.5123842967
 20
12.0063023271
 10
29.5833270664
 20
11.9848996934
 10
29.6509638539
 20
11.9578061634
 10
29.7145301879
 20
11.92538291
 10
29.7736223633
 20
11.8878484692
 10
29.8280925203
 20
11.845268681
 10
29.8776132428
 20
11.7979146562
 10
29.9220454996
 20
11.7458991342
 10
29.9610861212
 20
11.689513454
  0
LWPOLYLINE
  5
3B6
100
AcDbEntity
  8
IMPORT_IGES
100
AcDbPolyline
 62
253
  6
CONTINUOUS
 90
5
 70
0
 10
26.9752673535
 20
4.6113611853
 10
27.1050655216
 20
4.5921334564
 10
27.2539780401
 20
4.5512133598
 10
27.3942611494
 20
4.4928162112
 10
27.4610040665
 20
4.4571132078
  0
LWPOLYLINE
  5
3B7
100
AcDbEntity
  8
IMPORT_IGES
100
AcDbPolyline
 62
7
  6
CONTINUOUS
 90
11
 70
0
 10
20.118459445
 20
-0.5040097469
 10
20.0531259778
 20
-0.4718298929
 10
19.9840697503
 20
-0.4482563926
 10
19.9115469864
 20
-0.4329375885
 10
19.8363766599
 20
-0.4255788408
 10
19.7587504939
 20
-0.4257542883
 10
19.6779825114
 20
-0.4332625554
 10
19.5945639301
 20
-0.4480136417
 10
19.5091457537
 20
-0.4698180525
 10
19.4209852481
 20
-0.4989018628
 10
19.3300827556
 20
-0.5354710831
  0
LINE
  5
3B8
100
AcDbEntity
  8
IMPORT_IGES
100
AcDbLine
 62
253
  6
CONTINUOUS
 10
12.3570700787
 20
-3.5390151942
 11
12.3819566809
 21
-3.5675552594
  0
LWPOLYLINE
  5
3B9
100
AcDbEntity
  8
IMPORT_IGES
100
AcDbPolyline
 62
7
  6
CONTINUOUS
 90
28
 70
0
 10
13.138532317
 20
-4.3061130663
 10
13.1569639768
 20
-4.3290767818
 10
13.2167966451
 20
-4.4254451161
 10
13.2671190733
 20
-4.5315837109
 10
13.3076995574
 20
-4.6477317829
 10
13.3387698013
 20
-4.7736501154
 10
13.3597059275
 20
-4.906772917
 10
13.3702957731
 20
-5.0471427004
 10
13.370751501
 20
-5.1947169529
 10
13.3610857229
 20
-5.3468023446
 10
13.3411230386
 20
-5.5035150774
 10
13.3110388483
 20
-5.6647389495
 10
13.271371964
 20
-5.827432025
 10
13.2219229007
 20
-5.9916610772
 10
13.1628911433
 20
-6.1573593328
 10
13.0954139588
 20
-6.3212845374
 10
13.0194735031
 20
-6.4832093058
 10
12.9350876203
 20
-6.6433610232
 10
12.8434471092
 20
-6.7991795902
 10
12.7441799903
 20
-6.9509652174
 10
12.6376582433
 20
-7.0984176943
 10
12.5261886064
 20
-7.2380762902
 10
12.4096941647
 20
-7.3696401998
 10
12.2882518332
 20
-7.4934102284
 10
12.1643990943
 20
-7.6068280606
 10
12.0389817757
 20
-7.7090409247
 10
11.9111540498
 20
-7.8009015923
 10
11.7809159166
 20
-7.8824100636
  0
LWPOLYLINE
  5
3BA
100
AcDbEntity
  8
IMPORT_IGES
100
AcDbPolyline
 62
253
  6
CONTINUOUS
 90
9
 70
0
 10
12.3819566809
 20
-3.5675552594
 10
12.4050284642
 20
-3.598676992
 10
12.4258906638
 20
-3.6318478903
 10
12.4441863219
 20
-3.6665003912
 10
12.4596023945
 20
-3.7020415808
 10
12.4718751085
 20
-3.7378633392
 10
12.4807944742
 20
-3.7733527462
 10
12.4862078789
 20
-3.8079025683
 10
12.4880226978
 20
-3.8409216484
  0
LINE
  5
3BB
100
AcDbEntity
  8
IMPORT_IGES
100
AcDbLine
 62
7
  6
CONTINUOUS
 10
-11.1235579445
 20
28.9075250839
 11
-10.2808156564
 21
27.7086836421
  0
LINE
  5
3BC
100
AcDbEntity
  8
IMPORT_IGES
100
AcDbLine
 62
7
  6
CONTINUOUS
 10
-0.1889559549
 20
28.2038354604
 11
-0.1837425783
 21
28.1869415606
  0
LINE
  5
3BD
100
AcDbEntity
  8
IMPORT_IGES
100
AcDbLine
 62
7
  6
CONTINUOUS
 10
-0.1837425783
 20
28.3094121021
 11
-0.1889559549
 21
28.3263060019
  0
LINE
  5
3BE
100
AcDbEntity
  8
IMPORT_IGES
100
AcDbLine
 62
7
  6
CONTINUOUS
 10
-0.1837425783
 20
28.1869415606
 11
-0.1794039958
 21
28.1704646281
  0
LINE
  5
3BF
100
AcDbEntity
  8
IMPORT_IGES
100
AcDbLine
 62
7
  6
CONTINUOUS
 10
-0.1794039958
 20
28.2929351696
 11
-0.1837425783
 21
28.3094121021
  0
LWPOLYLINE
  5
3C0
100
AcDbEntity
  8
IMPORT_IGES
100
AcDbPolyline
 62
253
  6
CONTINUOUS
 90
8
 70
0
 10
10.7252282953
 20
-7.9086960562
 10
10.7609801231
 20
-8.0487865329
 10
10.8073300373
 20
-8.1781100481
 10
10.864501021
 20
-8.2964987812
 10
10.9322700912
 20
-8.4041205527
 10
11.0093546011
 20
-8.4988605328
 10
11.0957874836
 20
-8.5804404993
 10
11.1915358057
 20
-8.6491386743
  0
LINE
  5
3C1
100
AcDbEntity
  8
IMPORT_IGES
100
AcDbLine
 62
7
  6
CONTINUOUS
 10
-0.1794039958
 20
28.1704646281
 11
-0.1757659572
 21
28.1543828119
  0
LINE
  5
3C2
100
AcDbEntity
  8
IMPORT_IGES
100
AcDbLine
 62
7
  6
CONTINUOUS
 10
-0.1757659572
 20
28.2768533534
 11
-0.1794039958
 21
28.2929351696
  0
LWPOLYLINE
  5
3C3
100
AcDbEntity
  8
IMPORT_IGES
100
AcDbPolyline
 62
253
  6
CONTINUOUS
 90
16
 70
0
 10
8.3658471927
 20
-15.7499152937
 10
8.3691463408
 20
-15.7673603322
 10
8.3740711219
 20
-15.7834264761
 10
8.3806215362
 20
-15.7981137252
 10
8.3888412004
 20
-15.81158841
 10
8.3986864977
 20
-15.8236842001
 10
8.410026578
 20
-15.8339021044
 10
8.4229401009
 20
-15.8421615173
 10
8.4373484069
 20
-15.8485430443
 10
8.4528846676
 20
-15.8527895106
 10
8.4694910463
 20
-15.8548488417
 10
8.4872253798
 20
-15.8547731121
 10
8.5058943489
 20
-15.8524613713
 10
8.525433514
 20
-15.8478799688
 10
8.5459073148
 20
-15.841062555
 10
8.5673157513
 20
-15.8320091299
  0
LINE
  5
3C4
100
AcDbEntity
  8
IMPORT_IGES
100
AcDbLine
 62
7
  6
CONTINUOUS
 10
-0.1757659572
 20
28.1543828119
 11
-0.1745798754
 21
28.1480682359
  0
LINE
  5
3C5
100
AcDbEntity
  8
IMPORT_IGES
100
AcDbLine
 62
7
  6
CONTINUOUS
 10
-0.1728191652
 20
28.2611649399
 11
-0.1757659572
 21
28.2768533534
  0
LWPOLYLINE
  5
3C6
100
AcDbEntity
  8
IMPORT_IGES
100
AcDbPolyline
 62
253
  6
CONTINUOUS
 90
10
 70
0
 10
8.3658471927
 20
-15.7499152937
 10
8.2732220079
 20
-15.0492816878
 10
8.1933787499
 20
-14.3396995476
 10
8.1263174187
 20
-13.6211688732
 10
8.0720228294
 20
-12.8934200521
 10
8.030510167
 20
-12.1567226967
 10
8.0018249861
 20
-11.4118856444
 10
7.9859824717
 20
-10.6591785076
 10
7.9829674387
 20
-9.8983316739
 10
7.9927798872
 20
-9.1293451433
  0
LWPOLYLINE
  5
3C7
100
AcDbEntity
  8
IMPORT_IGES
100
AcDbPolyline
 62
7
  6
CONTINUOUS
 90
15
 70
0
 10
9.9422036458
 20
-8.0037722971
 10
9.9480068928
 20
-8.166370827
 10
9.9619741494
 20
-8.3223264452
 10
9.9841054158
 20
-8.4716391517
 10
10.0145326523
 20
-8.6147404013
 10
10.0531238985
 20
-8.7511987391
 10
10.0994832734
 20
-8.879719801
 10
10.1536829869
 20
-9.0002280497
 10
10.2156508291
 20
-9.1127990224
 10
10.2847742899
 20
-9.2163649658
 10
10.3611188519
 20
-9.3108402956
 10
10.4446190324
 20
-9.396310596
 10
10.5344658731
 20
-9.4719648666
 10
10.6307184382
 20
-9.5377120119
 10
10.6565549965
 20
-9.5530652381
  0
LINE
  5
3C8
100
AcDbEntity
  8
IMPORT_IGES
100
AcDbLine
 62
253
  6
CONTINUOUS
 10
10.154570924
 20
39.9452673449
 11
10.1545729909
 21
28.8609011435
  0
LINE
  5
3C9
100
AcDbEntity
  8
IMPORT_IGES
100
AcDbLine
 62
253
  6
CONTINUOUS
 10
10.5788314807
 20
28.8609010069
 11
10.5788310039
 21
39.9452847482
  0
LINE
  5
3CA
100
AcDbEntity
  8
IMPORT_IGES
100
AcDbLine
 62
7
  6
CONTINUOUS
 10
9.7424493585
 20
40.2564117763
 11
9.6424399896
 21
29.2292568366
  0
LINE
  5
3CB
100
AcDbEntity
  8
IMPORT_IGES
100
AcDbLine
 62
253
  6
CONTINUOUS
 10
9.7303033433
 20
29.1058691207
 11
9.8303100294
 21
40.1324915215
  0
LWPOLYLINE
  5
3CC
100
AcDbEntity
  8
IMPORT_IGES
100
AcDbPolyline
 62
253
  6
CONTINUOUS
 90
22
 70
0
 10
10.1545711514
 20
39.9452672136
 10
10.156616443
 20
40.0074713898
 10
10.1625805399
 20
40.071573023
 10
10.1724292527
 20
40.1372166363
 10
10.1861058238
 20
40.2040387442
 10
10.2035342559
 20
40.2716681699
 10
10.2246197463
 20
40.3397281052
 10
10.2492442987
 20
40.4078409798
 10
10.27727008
 20
40.4756290154
 10
10.3085432115
 20
40.542714619
 10
10.3428892668
 20
40.608725529
 10
10.380116499
 20
40.6732955885
 10
10.4200196148
 20
40.7360652371
 10
10.4623764447
 20
40.7966860664
 10
10.5069508749
 20
40.8548217759
 10
10.5534964185
 20
40.910148748
 10
10.6017542274
 20
40.9623597837
 10
10.6514555797
 20
41.0111651916
 10
10.7023250682
 20
41.0562934197
 10
10.7540801734
 20
41.09749371
 10
10.8064328353
 20
41.1345374888
 10
10.8590920999
 20
41.1672190215
  0
LWPOLYLINE
  5
3CD
100
AcDbEntity
  8
IMPORT_IGES
100
AcDbPolyline
 62
7
  6
CONTINUOUS
 90
28
 70
0
 10
9.9421965534
 20
-7.8404823249
 10
9.9479722999
 20
-7.6656006781
 10
9.9619079062
 20
-7.4879386887
 10
9.9840033723
 20
-7.3074963567
 10
10.0143844635
 20
-7.1236676463
 10
10.0529254144
 20
-6.9370585933
 10
10.0992489295
 20
-6.7494873048
 10
10.1534306063
 20
-6.5609445418
 10
10.2153948473
 20
-6.3714395434
 10
10.2845375636
 20
-6.1828181333
 10
10.3609288008
 20
-5.9950890438
 10
10.4444985134
 20
-5.8082435426
 10
10.5344324767
 20
-5.6241012571
 10
10.6307929222
 20
-5.4426884556
 10
10.7335176183
 20
-5.2639788698
 10
10.841605646
 20
-5.0897133212
 10
10.9551095349
 20
-4.9199351396
 10
11.0739767553
 20
-4.7546009953
 10
11.1970488002
 20
-4.5953217206
 10
11.3243667335
 20
-4.4421566375
 10
11.4558894913
 20
-4.2950464241
 10
11.5903353744
 20
-4.1554239468
 10
11.7277330261
 20
-4.0233624354
 10
11.8680538032
 20
-3.8987886601
 10
12.0099300774
 20
-3.7829157981
 10
12.1529059724
 20
-3.6761482419
 10
12.2974373646
 20
-3.5780815989
 10
12.4435242538
 20
-3.4887158693
  0
LWPOLYLINE
  5
3CE
100
AcDbEntity
  8
IMPORT_IGES
100
AcDbPolyline
 62
253
  6
CONTINUOUS
 90
19
 70
0
 10
10.5788310039
 20
39.9452847482
 10
10.5808533472
 20
39.9971391618
 10
10.5864684476
 20
40.0498767994
 10
10.595676305
 20
40.1034976611
 10
10.608605991
 20
40.1584104944
 10
10.6251284341
 20
40.2142065517
 10
10.6448564197
 20
40.2696595908
 10
10.6678534328
 20
40.3247573
 10
10.6940559884
 20
40.3795119911
 10
10.7228864166
 20
40.4327343572
 10
10.7543978632
 20
40.4843934489
 10
10.7885371825
 20
40.5345202157
 10
10.8245672671
 20
40.5820181993
 10
10.8625304301
 20
40.6268381805
 10
10.9023843584
 20
40.6690293785
 10
10.943265006
 20
40.7076429923
 10
10.9848843575
 20
40.7423627549
 10
11.0275304282
 20
40.7735049334
 10
11.0712032182
 20
40.8010695277
  0
LWPOLYLINE
  5
3CF
100
AcDbEntity
  8
IMPORT_IGES
100
AcDbPolyline
 62
253
  6
CONTINUOUS
 90
20
 70
0
 10
9.830309897
 20
40.1324915979
 10
9.8327441625
 20
40.1944720213
 10
9.8390908475
 20
40.2583536198
 10
9.8493157492
 20
40.3237808985
 10
9.8633641067
 20
40.3903892015
 10
9.8811578979
 20
40.4578084926
 10
9.9025962707
 20
40.5256654149
 10
9.9275610018
 20
40.5935825045
 10
9.9559144501
 20
40.6611818608
 10
9.9874973125
 20
40.728089004
 10
10.0221348504
 20
40.7939318459
 10
10.0596355989
 20
40.8583440592
 10
10.0997897323
 20
40.9209686854
 10
10.1423746971
 20
40.9814575429
 10
10.1871547414
 20
41.0394741282
 10
10.2338799649
 20
41.0946967886
 10
10.2822910801
 20
41.1468185897
 10
10.3321197952
 20
41.1955496213
 10
10.3830885971
 20
41.2406195771
 10
10.4349142679
 20
41.2817781333
  0
LWPOLYLINE
  5
3D0
100
AcDbEntity
  8
IMPORT_IGES
100
AcDbPolyline
 62
253
  6
CONTINUOUS
 90
11
 70
0
 10
8.5673149023
 20
-15.8320095443
 10
8.558883259
 20
-15.8999265284
 10
8.545849248
 20
-15.9638867508
 10
8.5284376142
 20
-16.0235672667
 10
8.5070149181
 20
-16.0784249869
 10
8.4817688138
 20
-16.1285437682
 10
8.452501886
 20
-16.1744114753
 10
8.4191899363
 20
-16.2158362734
 10
8.3821092198
 20
-16.2522695674
 10
8.3413508676
 20
-16.2834611955
 10
8.2925708867
 20
-16.3112975306
  0
LWPOLYLINE
  5
3D1
100
AcDbEntity
  8
IMPORT_IGES
100
AcDbPolyline
 62
253
  6
CONTINUOUS
 90
20
 70
0
 10
10.2520938664
 20
-7.3443870454
 10
10.2838626215
 20
-7.1356545058
 10
10.3279707116
 20
-6.923088361
 10
10.384218758
 20
-6.7067739434
 10
10.4516695786
 20
-6.4902838601
 10
10.530536144
 20
-6.2735796549
 10
10.6206054835
 20
-6.056699784
 10
10.7203015038
 20
-5.8433322231
 10
10.8295718429
 20
-5.6338170419
 10
10.9484688627
 20
-5.4278141707
 10
11.0755735555
 20
-5.2279913762
 10
11.211289677
 20
-5.0340021782
 10
11.3552134715
 20
-4.846193057
 10
11.5047146639
 20
-4.66827122
 10
11.6598684104
 20
-4.500538242
 10
11.8205995548
 20
-4.3426925482
 10
11.984052353
 20
-4.1975366221
 10
12.1492748904
 20
-4.0660046249
 10
12.3172190817
 20
-3.9471623954
 10
12.4878849268
 20
-3.8410099337
  0
LWPOLYLINE
  5
3D2
100
AcDbEntity
  8
IMPORT_IGES
100
AcDbPolyline
 62
253
  6
CONTINUOUS
 90
13
 70
0
 10
8.3658400479
 20
-1.6717892682
 10
8.3703440249
 20
-1.6438032305
 10
8.377301144
 20
-1.6154030175
 10
8.3867114051
 20
-1.5865886291
 10
8.3986753921
 20
-1.5569747723
 10
8.4130925211
 20
-1.5269467401
 10
8.4296610412
 20
-1.4976604119
 10
8.4485148602
 20
-1.4691255949
 10
8.4695200701
 20
-1.4413324818
 10
8.4919731965
 20
-1.4154075307
 10
8.5156397476
 20
-1.3917262277
 10
8.5407542152
 20
-1.3699130866
 10
8.5673165991
 20
-1.3499681075
  0
LINE
  5
3D3
100
AcDbEntity
  8
IMPORT_IGES
100
AcDbLine
 62
7
  6
CONTINUOUS
 10
12.4435439634
 20
-3.488704318
 11
25.8786720701
 21
4.2685702691
  0
LINE
  5
3D4
100
AcDbEntity
  8
IMPORT_IGES
100
AcDbLine
 62
253
  6
CONTINUOUS
 10
25.9539913308
 20
3.9340780487
 11
12.4878849268
 21
-3.8410099337
  0
LWPOLYLINE
  5
3D5
100
AcDbEntity
  8
IMPORT_IGES
100
AcDbPolyline
 62
7
  6
CONTINUOUS
 90
15
 70
0
 10
25.8787800173
 20
4.2686324253
 10
26.0249798855
 20
4.3480283071
 10
26.1699183178
 20
4.4170969078
 10
26.3135953141
 20
4.4758382272
 10
26.4564738763
 20
4.5243784311
 10
26.5980910025
 20
4.5625913538
 10
26.7370576873
 20
4.5900984985
 10
26.8733450475
 20
4.6067933977
 10
27.0069819663
 20
4.6127825191
 10
27.1366660876
 20
4.6080067687
 10
27.2623587669
 20
4.5923608315
 10
27.3840986487
 20
4.5659500226
 10
27.5006993112
 20
4.5290311941
 10
27.6121104397
 20
4.4815016219
 10
27.6916870677
 20
4.4393120875
  0
LINE
  5
3D6
100
AcDbEntity
  8
IMPORT_IGES
100
AcDbLine
 62
7
  6
CONTINUOUS
 10
25.9548977825
 20
3.2992788957
 11
25.860926754
 21
3.2482688866
  0
LWPOLYLINE
  5
3D7
100
AcDbEntity
  8
IMPORT_IGES
100
AcDbPolyline
 62
253
  6
CONTINUOUS
 90
43
 70
0
 10
25.9539913308
 20
3.9340780487
 10
26.1245568286
 20
4.0220598347
 10
26.2919682221
 20
4.0942256324
 10
26.4562255115
 20
4.1505754416
 10
26.6181536714
 20
4.1912037309
 10
26.7769277271
 20
4.2160160318
 10
26.9300727543
 20
4.2247289389
 10
27.0775904191
 20
4.2170379141
 10
27.2194790555
 20
4.1932474956
 10
27.3532587412
 20
4.1539878925
 10
27.4785649285
 20
4.0991922681
 10
27.595762165
 20
4.0289274591
 10
27.7034641722
 20
3.9440241843
 10
27.801783248
 20
3.8441501293
 10
27.8906070943
 20
3.7296376085
 10
27.9682125388
 20
3.6023142836
 10
28.0343605035
 20
3.461891148
 10
28.0892900663
 20
3.3086572082
 10
28.1319952879
 20
3.1453071455
 10
28.1622257425
 20
2.971722107
 10
28.1802318558
 20
2.7880209455
 10
28.1857589661
 20
2.5972549011
 10
28.1786091704
 20
2.3993355172
 10
28.1589803717
 20
2.1943512504
 10
28.1272116166
 20
1.9856187107
 10
28.0831035266
 20
1.773052566
 10
28.0268554801
 20
1.5567381484
 10
27.9594046595
 20
1.3402480651
 10
27.8805380942
 20
1.1235438599
 10
27.7904687546
 20
0.9066639889
 10
27.6907727343
 20
0.693296428
 10
27.5815023952
 20
0.4837812468
 10
27.4626053754
 20
0.2777783757
 10
27.3355006826
 20
0.0779555812
 10
27.1997845611
 20
-0.1160336168
 10
27.0558607666
 20
-0.303842738
 10
26.9063595742
 20
-0.481764575
 10
26.7512058277
 20
-0.649497553
 10
26.5904746834
 20
-0.8073432468
 10
26.4270218851
 20
-0.9524991729
 10
26.2617993477
 20
-1.0840311701
 10
26.0938551564
 20
-1.2028733996
 10
25.9231893113
 20
-1.3090258614
  0
LINE
  5
3D8
100
AcDbEntity
  8
IMPORT_IGES
100
AcDbLine
 62
7
  6
CONTINUOUS
 10
26.0475971768
 20
3.3431375535
 11
25.9548977825
 21
3.2992788957
  0
LINE
  5
3D9
100
AcDbEntity
  8
IMPORT_IGES
100
AcDbLine
 62
7
  6
CONTINUOUS
 10
19.3300827556
 20
-0.5354710831
 11
19.2373833613
 21
-0.5793297409
  0
LINE
  5
3DA
100
AcDbEntity
  8
IMPORT_IGES
100
AcDbLine
 62
7
  6
CONTINUOUS
 10
12.6125683343
 20
-4.4140797197
 11
12.51986894
 21
-4.4579383775
  0
LINE
  5
3DB
100
AcDbEntity
  8
IMPORT_IGES
100
AcDbLine
 62
7
  6
CONTINUOUS
 10
12.4880226979
 20
-4.8203308861
 11
12.5750951898
 21
-4.7881172329
  0
LWPOLYLINE
  5
3DC
100
AcDbEntity
  8
IMPORT_IGES
100
AcDbPolyline
 62
253
  6
CONTINUOUS
 90
4
 70
0
 10
12.9174269317
 20
-4.1835954601
 10
12.7768781164
 20
-4.231755215
 10
12.6337433718
 20
-4.2944325044
 10
12.4880226978
 20
-4.3716273283
  0
LWPOLYLINE
  5
3DD
100
AcDbEntity
  8
IMPORT_IGES
100
AcDbPolyline
 62
253
  6
CONTINUOUS
 90
11
 70
0
 10
24.5858651457
 20
-0.5224526555
 10
24.6650250314
 20
-0.5621360094
 10
24.7638023742
 20
-0.5968625764
 10
24.8685934502
 20
-0.6187444857
 10
24.978732887
 20
-0.6276427977
 10
25.0935213527
 20
-0.6235010124
 10
25.2122299964
 20
-0.6063454283
 10
25.3341050759
 20
-0.5762849749
 10
25.4583727438
 20
-0.5335105215
 10
25.5842439609
 20
-0.478293665
 10
25.710919506
 20
-0.4109850057
  0
LWPOLYLINE
  5
3DE
100
AcDbEntity
  8
IMPORT_IGES
100
AcDbPolyline
 62
253
  6
CONTINUOUS
 90
11
 70
0
 10
24.6265646482
 20
-0.8919214011
 10
24.7302469649
 20
-0.9464576216
 10
24.8422377779
 20
-0.9866745458
 10
24.9621625854
 20
-1.0127295155
 10
25.087516437
 20
-1.0238143931
 10
25.2184120542
 20
-1.0195089466
 10
25.3547367156
 20
-1.000233408
 10
25.4936473064
 20
-0.9664403349
 10
25.6341961217
 20
-0.91828058
 10
25.7773308663
 20
-0.8556032906
 10
25.9230515403
 20
-0.7784084667
  0
LINE
  5
3DF
100
AcDbEntity
  8
IMPORT_IGES
100
AcDbLine
 62
253
  6
CONTINUOUS
 10
25.8786925014
 20
-1.6100040354
 11
25.7281639913
 21
-1.5230907603
  0
LINE
  5
3E0
100
AcDbEntity
  8
IMPORT_IGES
100
AcDbLine
 62
253
  6
CONTINUOUS
 10
25.0263950705
 20
-0.2198667449
 11
24.2135160486
 21
0.2494794145
  0
LINE
  5
3E1
100
AcDbEntity
  8
IMPORT_IGES
100
AcDbLine
 62
7
  6
CONTINUOUS
 10
-7.6420395201
 20
25.697615225
 11
-6.7834358577
 21
24.6045085651
  0
LINE
  5
3E2
100
AcDbEntity
  8
IMPORT_IGES
100
AcDbLine
 62
7
  6
CONTINUOUS
 10
-6.3323709883
 20
25.0178200595
 11
-5.8606506427
 21
24.4092001028
  0
LINE
  5
3E3
100
AcDbEntity
  8
IMPORT_IGES
100
AcDbLine
 62
7
  6
CONTINUOUS
 10
-5.7485266227
 20
24.3870067203
 11
-6.3323709883
 21
25.140290601
  0
LINE
  5
3E4
100
AcDbEntity
  8
IMPORT_IGES
100
AcDbLine
 62
7
  6
CONTINUOUS
 10
-0.2191310934
 20
28.2756174777
 11
-0.2100190998
 21
28.2570408148
  0
LINE
  5
3E5
100
AcDbEntity
  8
IMPORT_IGES
100
AcDbLine
 62
7
  6
CONTINUOUS
 10
-0.2100190998
 20
28.3795113563
 11
-0.2191310934
 21
28.3980880192
  0
LINE
  5
3E6
100
AcDbEntity
  8
IMPORT_IGES
100
AcDbLine
 62
7
  6
CONTINUOUS
 10
-0.2100190998
 20
28.2570408148
 11
-0.201982423
 21
28.2388891316
  0
LINE
  5
3E7
100
AcDbEntity
  8
IMPORT_IGES
100
AcDbLine
 62
7
  6
CONTINUOUS
 10
-0.201982423
 20
28.3613596731
 11
-0.2100190998
 21
28.3795113563
  0
LINE
  5
3E8
100
AcDbEntity
  8
IMPORT_IGES
100
AcDbLine
 62
7
  6
CONTINUOUS
 10
-0.201982423
 20
28.2388891316
 11
-0.1950317919
 21
28.2211538124
  0
LINE
  5
3E9
100
AcDbEntity
  8
IMPORT_IGES
100
AcDbLine
 62
7
  6
CONTINUOUS
 10
-0.1950317919
 20
28.3436243539
 11
-0.201982423
 21
28.3613596731
  0
LINE
  5
3EA
100
AcDbEntity
  8
IMPORT_IGES
100
AcDbLine
 62
7
  6
CONTINUOUS
 10
-0.9581493526
 20
28.1495866226
 11
-0.9426661434
 21
28.1087849993
  0
LINE
  5
3EB
100
AcDbEntity
  8
IMPORT_IGES
100
AcDbLine
 62
7
  6
CONTINUOUS
 10
-0.1950317919
 20
28.2211538124
 11
-0.1889559549
 21
28.2038354604
  0
LINE
  5
3EC
100
AcDbEntity
  8
IMPORT_IGES
100
AcDbLine
 62
7
  6
CONTINUOUS
 10
-0.1889559549
 20
28.3263060019
 11
-0.1950317919
 21
28.3436243539
  0
LWPOLYLINE
  5
3ED
100
AcDbEntity
  8
IMPORT_IGES
100
AcDbPolyline
 62
253
  6
CONTINUOUS
 90
16
 70
0
 10
4.4299715396
 20
26.0819005298
 10
4.4232675685
 20
26.1091698148
 10
4.4112274576
 20
26.1484800445
 10
4.3968167591
 20
26.1878403738
 10
4.3801427249
 20
26.2269578627
 10
4.3613294519
 20
26.2655413783
 10
4.3405169583
 20
26.3033037618
 10
4.3178601416
 20
26.3399639659
 10
4.2935276257
 20
26.3752491461
 10
4.2677005059
 20
26.4088966917
 10
4.2405710012
 20
26.44065618
 10
4.2123410234
 20
26.4702912403
 10
4.1832206749
 20
26.4975813129
 10
4.1534266846
 20
26.5223232909
 10
4.1231807948
 20
26.5443330315
 10
4.0927081114
 20
26.5634467268
  0
LWPOLYLINE
  5
3EE
100
AcDbEntity
  8
IMPORT_IGES
100
AcDbPolyline
 62
253
  6
CONTINUOUS
 90
16
 70
0
 10
11.0712222089
 20
40.8010802159
 10
11.0699519632
 20
40.8273250834
 10
11.0663867867
 20
40.8546032124
 10
11.0605655303
 20
40.8826176945
 10
11.0525516177
 20
40.911063551
 10
11.0424323033
 20
40.9396312532
 10
11.0303176742
 20
40.9680100914
 10
11.0163395449
 20
40.9958912728
 10
11.0006500679
 20
41.0229712972
 10
10.9834199918
 20
41.0489554586
 10
10.9648368356
 20
41.0735609636
 10
10.9451028424
 20
41.0965200247
 10
10.9244327719
 20
41.1175827838
 10
10.9030515766
 20
41.1365200092
 10
10.8811919555
 20
41.1531255934
 10
10.8590918123
 20
41.1672188086
  0
LWPOLYLINE
  5
3EF
100
AcDbEntity
  8
IMPORT_IGES
100
AcDbPolyline
 62
7
  6
CONTINUOUS
 90
16
 70
0
 10
12.3017421599
 20
41.5115670137
 10
12.3006934201
 20
41.537816845
 10
12.2970535077
 20
41.564910967
 10
12.2908603358
 20
41.5925564674
 10
12.2821679515
 20
41.6204507768
 10
12.2710695657
 20
41.6482899775
 10
12.2576984165
 20
41.6757721248
 10
12.2421902391
 20
41.7025682028
 10
12.2246934346
 20
41.7284048445
 10
12.2053815863
 20
41.7530664295
 10
12.1844274883
 20
41.7762586493
 10
12.1620296714
 20
41.7977150516
 10
12.1384077712
 20
41.8172610214
 10
12.1137816625
 20
41.8346650891
 10
12.0883779644
 20
41.8496566793
 10
12.0624392253
 20
41.8620165234
  0
LINE
  5
3F0
100
AcDbEntity
  8
IMPORT_IGES
100
AcDbLine
 62
7
  6
CONTINUOUS
 10
12.4880226981
 20
-4.820330886
 11
12.4880226981
 21
-4.4752253767
  0
LINE
  5
3F1
100
AcDbEntity
  8
IMPORT_IGES
100
AcDbLine
 62
253
  6
CONTINUOUS
 10
14.6800543236
 20
37.3323099476
 11
14.6800561982
 21
27.2791430043
  0
LINE
  5
3F2
100
AcDbEntity
  8
IMPORT_IGES
100
AcDbLine
 62
253
  6
CONTINUOUS
 10
15.1043148247
 20
27.5414229295
 11
15.1043144035
 21
37.3323273509
  0
LINE
  5
3F3
100
AcDbEntity
  8
IMPORT_IGES
100
AcDbLine
 62
7
  6
CONTINUOUS
 10
14.2679327581
 20
37.643454379
 11
14.1712788609
 21
26.9862778404
  0
LINE
  5
3F4
100
AcDbEntity
  8
IMPORT_IGES
100
AcDbLine
 62
253
  6
CONTINUOUS
 10
14.2607146979
 20
27.0362623849
 11
14.355793429
 21
37.5195341242
  0
LINE
  5
3F5
100
AcDbEntity
  8
IMPORT_IGES
100
AcDbLine
 62
7
  6
CONTINUOUS
 10
12.1845959721
 20
29.7880492992
 11
12.3017421627
 21
41.511567292
  0
LWPOLYLINE
  5
3F6
100
AcDbEntity
  8
IMPORT_IGES
100
AcDbPolyline
 62
253
  6
CONTINUOUS
 90
22
 70
0
 10
14.680054551
 20
37.3323098163
 10
14.6820998426
 20
37.3945139925
 10
14.6880639395
 20
37.4586156257
 10
14.6979126523
 20
37.524259239
 10
14.7115892234
 20
37.5910813469
 10
14.7290176555
 20
37.6587107726
 10
14.7501031459
 20
37.7267707079
 10
14.7747276983
 20
37.7948835825
 10
14.8027534796
 20
37.8626716181
 10
14.8340266111
 20
37.9297572218
 10
14.8683726664
 20
37.9957681317
 10
14.9055998986
 20
38.0603381912
 10
14.9455030144
 20
38.1231078398
 10
14.9878598443
 20
38.1837286691
 10
15.0324342745
 20
38.2418643786
 10
15.0789798181
 20
38.2971913507
 10
15.127237627
 20
38.3494023864
 10
15.1769389793
 20
38.3982077943
 10
15.2278084678
 20
38.4433360224
 10
15.279563573
 20
38.4845363127
 10
15.3319162349
 20
38.5215800915
 10
15.3845754995
 20
38.5542616242
  0
LWPOLYLINE
  5
3F7
100
AcDbEntity
  8
IMPORT_IGES
100
AcDbPolyline
 62
253
  6
CONTINUOUS
 90
19
 70
0
 10
15.1043144035
 20
37.3323273509
 10
15.1063367468
 20
37.3841817645
 10
15.1119518472
 20
37.4369194021
 10
15.1211597046
 20
37.4905402638
 10
15.1340893906
 20
37.5454530971
 10
15.1506118337
 20
37.6012491544
 10
15.1703398193
 20
37.6567021935
 10
15.1933368324
 20
37.7117999027
 10
15.219539388
 20
37.7665545938
 10
15.2483698162
 20
37.8197769599
 10
15.2798812628
 20
37.8714360516
 10
15.3140205821
 20
37.9215628184
 10
15.3500506667
 20
37.969060802
 10
15.3880138297
 20
38.0138807832
 10
15.427867758
 20
38.0560719812
 10
15.4687484056
 20
38.094685595
 10
15.5103677571
 20
38.1294053576
 10
15.5530138278
 20
38.1605475361
 10
15.5966866178
 20
38.1881121304
  0
LWPOLYLINE
  5
3F8
100
AcDbEntity
  8
IMPORT_IGES
100
AcDbPolyline
 62
253
  6
CONTINUOUS
 90
20
 70
0
 10
14.3557932966
 20
37.5195342006
 10
14.3582275621
 20
37.581514624
 10
14.3645742471
 20
37.6453962225
 10
14.3747991487
 20
37.7108235012
 10
14.3888475063
 20
37.7774318042
 10
14.4066412975
 20
37.8448510953
 10
14.4280796702
 20
37.9127080176
 10
14.4530444014
 20
37.9806251072
 10
14.4813978497
 20
38.0482244635
 10
14.5129807121
 20
38.1151316067
 10
14.54761825
 20
38.1809744486
 10
14.5851189985
 20
38.2453866619
 10
14.6252731318
 20
38.3080112881
 10
14.6678580967
 20
38.3685001456
 10
14.712638141
 20
38.4265167309
 10
14.7593633645
 20
38.4817393913
 10
14.8077744797
 20
38.5338611924
 10
14.8576031948
 20
38.582592224
 10
14.9085719967
 20
38.6276621798
 10
14.9603976675
 20
38.668820736
  0
LWPOLYLINE
  5
3F9
100
AcDbEntity
  8
IMPORT_IGES
100
AcDbPolyline
 62
7
  6
CONTINUOUS
 90
19
 70
0
 10
14.2679339005
 20
37.6434545071
 10
14.2712019496
 20
37.7154218733
 10
14.2795170879
 20
37.7878166341
 10
14.2926095823
 20
37.8603167108
 10
14.3102602736
 20
37.9327299107
 10
14.3322457015
 20
38.004725269
 10
14.3582558532
 20
38.0757402908
 10
14.3879777083
 20
38.1453226503
 10
14.4212429271
 20
38.2133568294
 10
14.4579195078
 20
38.279703387
 10
14.4978235746
 20
38.3440733734
 10
14.5407697084
 20
38.4061653299
 10
14.5866713123
 20
38.4657939442
 10
14.6354624638
 20
38.5227430956
 10
14.6869191237
 20
38.5765871144
 10
14.7407775108
 20
38.6268875042
 10
14.7968869925
 20
38.6733259907
 10
14.8551623417
 20
38.7156107917
 10
14.9154589172
 20
38.7533719828
  0
LWPOLYLINE
  5
3FA
100
AcDbEntity
  8
IMPORT_IGES
100
AcDbPolyline
 62
253
  6
CONTINUOUS
 90
7
 70
0
 10
12.4880226978
 20
-9.0663314199
 10
12.4862078788
 20
-9.097254793
 10
12.480794474
 20
-9.1255533513
 10
12.4718751082
 20
-9.1507428984
 10
12.4596023941
 20
-9.1723924342
 10
12.4441863215
 20
-9.1901315293
 10
12.4258979115
 20
-9.2036524782
  0
LWPOLYLINE
  5
3FB
100
AcDbEntity
  8
IMPORT_IGES
100
AcDbPolyline
 62
253
  6
CONTINUOUS
 90
13
 70
0
 10
29.8324106639
 20
10.7227453867
 10
29.8824899172
 20
10.7641300051
 10
29.9283203152
 20
10.8074932057
 10
29.9696446853
 20
10.8525916213
 10
30.0062311207
 20
10.8991721154
 10
30.0378743625
 20
10.9469733032
 10
30.0643969151
 20
10.9957270267
 10
30.0856499492
 20
11.0451597187
 10
30.1015141727
 20
11.0949939309
 10
30.1119005565
 20
11.1449499964
 10
30.1167508128
 20
11.1947475643
 10
30.1160377222
 20
11.2441071735
 10
30.1108930374
 20
11.2864845965
  0
LWPOLYLINE
  5
3FC
100
AcDbEntity
  8
IMPORT_IGES
100
AcDbPolyline
 62
253
  6
CONTINUOUS
 90
21
 70
0
 10
19.0657107814
 20
-0.5803039757
 10
18.9285101457
 20
-0.6778458558
 10
18.7939352119
 20
-0.7856443321
 10
18.6612768374
 20
-0.9044550054
 10
18.5312441648
 20
-1.0335222748
 10
18.405964622
 20
-1.170579338
 10
18.2855195297
 20
-1.315730588
 10
18.1698275672
 20
-1.4688716317
 10
18.0607722012
 20
-1.6274224878
 10
17.9584537683
 20
-1.791457296
 10
17.8627719318
 20
-1.9609019166
 10
17.7753091492
 20
-2.1329539484
 10
17.6961830605
 20
-2.307656888
 10
17.6252760257
 20
-2.4849672388
 10
17.5638175819
 20
-2.66195211
 10
17.5119414227
 20
-2.8386231462
 10
17.4695138544
 20
-3.0149687028
 10
17.4373633338
 20
-3.188020955
 10
17.4157660131
 20
-3.3567906278
 10
17.40444574
 20
-3.5222669962
 10
17.4034025145
 20
-3.6844500601
  0
LWPOLYLINE
  5
3FD
100
AcDbEntity
  8
IMPORT_IGES
100
AcDbPolyline
 62
253
  6
CONTINUOUS
 90
23
 70
0
 10
12.4283496956
 20
-4.4072222185
 10
12.2832558702
 20
-4.5035561886
 10
12.1412811479
 20
-4.6107913779
 10
12.0024255286
 20
-4.7289277864
 10
11.8658403688
 20
-4.8588806873
 10
11.7323743121
 20
-4.9997348074
 10
11.6045732893
 20
-5.1487443268
 10
11.4825221942
 20
-5.3061535254
 10
11.366136133
 20
-5.4717181234
 10
11.2577063552
 20
-5.6419594614
 10
11.1575566426
 20
-5.8165910842
 10
11.0653632135
 20
-5.9958994469
 10
10.9824459725
 20
-6.1772652555
 10
10.9087793239
 20
-6.3610732687
 10
10.8443888633
 20
-6.5469387277
 10
10.7906712832
 20
-6.7310880617
 10
10.7478922003
 20
-6.9134464281
 10
10.7157859979
 20
-7.0940886694
 10
10.6949525175
 20
-7.2694657425
 10
10.6856120194
 20
-7.4393558003
 10
10.6875442435
 20
-7.6039806899
 10
10.7006882511
 20
-7.7604569097
 10
10.7252282953
 20
-7.9086960562
  0
LWPOLYLINE
  5
3FE
100
AcDbEntity
  8
IMPORT_IGES
100
AcDbPolyline
 62
253
  6
CONTINUOUS
 90
23
 70
0
 10
25.8633785381
 20
3.3499950548
 10
25.7182847127
 20
3.2536610846
 10
25.5763099904
 20
3.1464258953
 10
25.4374543712
 20
3.0282894868
 10
25.3008692114
 20
2.8983365859
 10
25.1674031546
 20
2.7574824659
 10
25.0396021318
 20
2.6084729464
 10
24.9175510367
 20
2.4510637478
 10
24.8011649755
 20
2.2854991498
 10
24.6927351978
 20
2.1152578119
 10
24.5925854852
 20
1.9406261891
 10
24.5003920561
 20
1.7613178263
 10
24.4174748151
 20
1.5799520178
 10
24.3438081664
 20
1.3961440045
 10
24.2794177059
 20
1.2102785455
 10
24.2257001258
 20
1.0261292115
 10
24.1829210429
 20
0.8437708452
 10
24.1508148404
 20
0.6631286039
 10
24.1299813601
 20
0.4877515308
 10
24.120640862
 20
0.3178614729
 10
24.122573086
 20
0.1532365833
 10
24.1357170937
 20
-0.0032396365
 10
24.1602571378
 20
-0.151478783
  0
LINE
  5
3FF
100
AcDbEntity
  8
IMPORT_IGES
100
AcDbLine
 62
253
  6
CONTINUOUS
 10
19.2055371191
 20
-0.4930186917
 11
19.0657107814
 21
-0.5803039757
  0
LWPOLYLINE
  5
400
100
AcDbEntity
  8
IMPORT_IGES
100
AcDbPolyline
 62
7
  6
CONTINUOUS
 90
12
 70
0
 10
30.4158233157
 20
3.8174397887
 10
30.4671642789
 20
3.8494823104
 10
30.5137707968
 20
3.8832418544
 10
30.5556428694
 20
3.9187184208
 10
30.5929618397
 20
3.9561294384
 10
30.6255463647
 20
3.9952574783
 10
30.6528524154
 20
4.0354502537
 10
30.6747914438
 20
4.0767257349
 10
30.6914519979
 20
4.1190659515
 10
30.7025556932
 20
4.1617647059
 10
30.7080093297
 20
4.2048273642
 10
30.708638314
 20
4.2225490875
  0
LWPOLYLINE
  5
401
100
AcDbEntity
  8
IMPORT_IGES
100
AcDbPolyline
 62
7
  6
CONTINUOUS
 90
31
 70
0
 10
12.4258979114
 20
-4.5089483867
 10
12.3052579867
 20
-4.5839088462
 10
12.1837315465
 20
-4.6701401953
 10
12.0622334626
 20
-4.7672608969
 10
11.941705416
 20
-4.8747600789
 10
11.8230612226
 20
-4.9920378172
 10
11.7071366195
 20
-5.1184679789
 10
11.5947160045
 20
-5.2533962561
 10
11.486711095
 20
-5.3959128341
 10
11.3840459094
 20
-5.5449269254
 10
11.2874508903
 20
-5.6994607895
 10
11.197603711
 20
-5.8584918053
 10
11.1152202697
 20
-6.0207624444
 10
11.040837632
 20
-6.1851626852
 10
10.9749229886
 20
-6.3505675564
 10
10.9179394586
 20
-6.5156295863
 10
10.8701872219
 20
-6.6791582396
 10
10.8318533342
 20
-6.8400715317
 10
10.8030765699
 20
-6.9971354492
 10
10.783880344
 20
-7.1491241082
 10
10.7741485824
 20
-7.29514322
 10
10.7737039758
 20
-7.4343617622
 10
10.7822337537
 20
-7.5652109522
 10
10.7993544298
 20
-7.687442538
 10
10.8249926202
 20
-7.8017185882
 10
10.8587236751
 20
-7.9065329767
 10
10.900200938
 20
-8.0013297253
 10
10.9500843808
 20
-8.0871129044
 10
11.0086828023
 20
-8.1630498365
 10
11.0755600569
 20
-8.2274582757
 10
11.1508363031
 20
-8.2796699287
  0
LWPOLYLINE
  5
402
100
AcDbEntity
  8
IMPORT_IGES
100
AcDbPolyline
 62
7
  6
CONTINUOUS
 90
31
 70
0
 10
19.1434123327
 20
-0.63033975
 10
19.022772408
 20
-0.7053002096
 10
18.9012459678
 20
-0.7915315587
 10
18.7797478839
 20
-0.8886522602
 10
18.6592198373
 20
-0.9961514422
 10
18.5405756439
 20
-1.1134291805
 10
18.4246510408
 20
-1.2398593422
 10
18.3122304258
 20
-1.3747876195
 10
18.2042255162
 20
-1.5173041975
 10
18.1015603307
 20
-1.6663182888
 10
18.0049653116
 20
-1.8208521529
 10
17.9151181323
 20
-1.9798831687
 10
17.832734691
 20
-2.1421538078
 10
17.7583520533
 20
-2.3065540486
 10
17.6924374099
 20
-2.4719589198
 10
17.6354538799
 20
-2.6370209496
 10
17.5877016432
 20
-2.800549603
 10
17.5493677555
 20
-2.961462895
 10
17.5205909911
 20
-3.1185268126
 10
17.5013947652
 20
-3.2705154716
 10
17.4916630037
 20
-3.4165345833
 10
17.4912183971
 20
-3.5557531256
 10
17.499748175
 20
-3.6866023155
 10
17.5168688511
 20
-3.8088339014
 10
17.5425070415
 20
-3.9231099516
 10
17.5762380964
 20
-4.0279243401
 10
17.6177153593
 20
-4.1227210887
 10
17.6675988021
 20
-4.2085042678
 10
17.7261972236
 20
-4.2844411999
 10
17.7930744781
 20
-4.3488496391
 10
17.8683507244
 20
-4.4010612921
  0
LWPOLYLINE
  5
403
100
AcDbEntity
  8
IMPORT_IGES
100
AcDbPolyline
 62
7
  6
CONTINUOUS
 90
31
 70
0
 10
25.860926754
 20
3.2482688866
 10
25.7402868293
 20
3.173308427
 10
25.6187603891
 20
3.0870770779
 10
25.4972623052
 20
2.9899563763
 10
25.3767342585
 20
2.8824571943
 10
25.2580900651
 20
2.7651794561
 10
25.142165462
 20
2.6387492944
 10
25.029744847
 20
2.5038210171
 10
24.9217399375
 20
2.3613044391
 10
24.819074752
 20
2.2122903478
 10
24.7224797329
 20
2.0577564837
 10
24.6326325535
 20
1.8987254679
 10
24.5502491123
 20
1.7364548288
 10
24.4758664745
 20
1.572054588
 10
24.4099518312
 20
1.4066497168
 10
24.3529683012
 20
1.2415876869
 10
24.3052160645
 20
1.0780590336
 10
24.2668821768
 20
0.9171457416
 10
24.2381054124
 20
0.760081824
 10
24.2189091865
 20
0.608093165
 10
24.2091774249
 20
0.4620740533
 10
24.2087328184
 20
0.322855511
 10
24.2172625962
 20
0.1920063211
 10
24.2343832723
 20
0.0697747352
 10
24.2600214627
 20
-0.044501315
 10
24.2937525177
 20
-0.1493157035
 10
24.3352297805
 20
-0.2441124521
 10
24.3851132233
 20
-0.3298956312
 10
24.4437116449
 20
-0.4058325633
 10
24.5105888994
 20
-0.4702410025
 10
24.5858651457
 20
-0.5224526555
  0
LINE
  5
404
100
AcDbEntity
  8
IMPORT_IGES
100
AcDbLine
 62
253
  6
CONTINUOUS
 10
12.4416071314
 20
-4.3991170161
 11
12.4283496956
 21
-4.4072222185
  0
LINE
  5
405
100
AcDbEntity
  8
IMPORT_IGES
100
AcDbLine
 62
253
  6
CONTINUOUS
 10
25.876635974
 20
3.3581002571
 11
25.8633785381
 21
3.3499950548
  0
LINE
  5
406
100
AcDbEntity
  8
IMPORT_IGES
100
AcDbLine
 62
253
  6
CONTINUOUS
 10
12.3109959908
 20
-8.1474856462
 11
12.3226948119
 21
-8.1403830523
  0
LINE
  5
407
100
AcDbEntity
  8
IMPORT_IGES
100
AcDbLine
 62
253
  6
CONTINUOUS
 10
12.4548668132
 20
-4.3911231337
 11
12.4416071314
 21
-4.3991170161
  0
LINE
  5
408
100
AcDbEntity
  8
IMPORT_IGES
100
AcDbLine
 62
253
  6
CONTINUOUS
 10
25.8898956558
 20
3.3660941396
 11
25.876635974
 21
3.3581002571
  0
LINE
  5
409
100
AcDbEntity
  8
IMPORT_IGES
100
AcDbLine
 62
253
  6
CONTINUOUS
 10
12.2992952703
 20
-8.154489967
 11
12.3109959908
 21
-8.1474856462
  0
LINE
  5
40A
100
AcDbEntity
  8
IMPORT_IGES
100
AcDbLine
 62
253
  6
CONTINUOUS
 10
12.4681284704
 20
-4.3832407324
 11
12.4548668132
 21
-4.3911231337
  0
LINE
  5
40B
100
AcDbEntity
  8
IMPORT_IGES
100
AcDbLine
 62
253
  6
CONTINUOUS
 10
25.9031573129
 20
3.3739765408
 11
25.8898956558
 21
3.3660941396
  0
LINE
  5
40C
100
AcDbEntity
  8
IMPORT_IGES
100
AcDbLine
 62
253
  6
CONTINUOUS
 10
12.2875932834
 20
-8.1613956358
 11
12.2992952703
 21
-8.154489967
  0
LWPOLYLINE
  5
40D
100
AcDbEntity
  8
IMPORT_IGES
100
AcDbPolyline
 62
253
  6
CONTINUOUS
 90
3
 70
0
 10
12.4880226978
 20
-4.3716273283
 10
12.4813910203
 20
-4.3754704582
 10
12.4681284704
 20
-4.3832407324
  0
LWPOLYLINE
  5
40E
100
AcDbEntity
  8
IMPORT_IGES
100
AcDbPolyline
 62
253
  6
CONTINUOUS
 90
3
 70
0
 10
25.9230515403
 20
3.3855899449
 10
25.9164198629
 20
3.3817468151
 10
25.9031573129
 20
3.3739765408
  0
LINE
  5
40F
100
AcDbEntity
  8
IMPORT_IGES
100
AcDbLine
 62
253
  6
CONTINUOUS
 10
12.2758906634
 20
-8.1682022789
 11
12.2875932834
 21
-8.1613956358
  0
LINE
  5
410
100
AcDbEntity
  8
IMPORT_IGES
100
AcDbLine
 62
253
  6
CONTINUOUS
 10
25.710919506
 20
-0.4109850057
 11
25.722622126
 21
-0.4041783626
  0
LINE
  5
411
100
AcDbEntity
  8
IMPORT_IGES
100
AcDbLine
 62
7
  6
CONTINUOUS
 10
12.4880226979
 20
-4.8203308861
 11
11.4837790371
 21
-5.4001685897
  0
LINE
  5
412
100
AcDbEntity
  8
IMPORT_IGES
100
AcDbLine
 62
7
  6
CONTINUOUS
 10
13.3308609725
 20
-5.5585104096
 11
10.8002311615
 21
-7.0196643462
  0
LINE
  5
413
100
AcDbEntity
  8
IMPORT_IGES
100
AcDbLine
 62
7
  6
CONTINUOUS
 10
30.4158204225
 20
3.980731501
 11
28.4664028984
 21
2.8551622545
  0
LINE
  5
414
100
AcDbEntity
  8
IMPORT_IGES
100
AcDbLine
 62
7
  6
CONTINUOUS
 10
9.9421965534
 20
-7.8404823249
 11
7.9927794225
 21
-8.9660513443
  0
LINE
  5
415
100
AcDbEntity
  8
IMPORT_IGES
100
AcDbLine
 62
7
  6
CONTINUOUS
 10
30.4158233157
 20
3.8174397887
 11
28.466413887
 21
2.6918752164
  0
LINE
  5
416
100
AcDbEntity
  8
IMPORT_IGES
100
AcDbLine
 62
7
  6
CONTINUOUS
 10
9.9421917382
 20
-8.0037776614
 11
7.9927815364
 21
-9.12934268
  0
LINE
  5
417
100
AcDbEntity
  8
IMPORT_IGES
100
AcDbLine
 62
7
  6
CONTINUOUS
 10
19.2373833613
 20
-0.5793297409
 11
19.1434123327
 21
-0.63033975
  0
LINE
  5
418
100
AcDbEntity
  8
IMPORT_IGES
100
AcDbLine
 62
7
  6
CONTINUOUS
 10
12.51986894
 20
-4.4579383775
 11
12.4258979114
 21
-4.5089483867
  0
LWPOLYLINE
  5
419
100
AcDbEntity
  8
IMPORT_IGES
100
AcDbPolyline
 62
7
  6
CONTINUOUS
 90
16
 70
0
 10
7.9927772922
 20
-8.9660520208
 10
7.9372821148
 20
-8.9956955863
 10
7.8788130543
 20
-9.0226055667
 10
7.8173701107
 20
-9.0467819618
 10
7.7525766706
 20
-9.068329483
 10
7.6848093473
 20
-9.0871434189
 10
7.6151979811
 20
-9.102909636
 10
7.5437115005
 20
-9.1155770002
 10
7.4703809769
 20
-9.1251966456
 10
7.3964294651
 20
-9.1316078406
 10
7.3218471077
 20
-9.1347567819
 10
7.2466437621
 20
-9.1346972729
 10
7.1720720545
 20
-9.1314299925
 10
7.0985495269
 20
-9.1249551671
 10
7.0256586374
 20
-9.1152725703
 10
6.9533993858
 20
-9.1023822022
  0
LWPOLYLINE
  5
41A
100
AcDbEntity
  8
IMPORT_IGES
100
AcDbPolyline
 62
7
  6
CONTINUOUS
 90
8
 70
0
 10
25.2159447591
 20
-0.1251927904
 10
25.0859852538
 20
-0.1938461426
 10
24.9586078535
 20
-0.2494666574
 10
24.8338125581
 20
-0.2920543347
 10
24.7108380378
 20
-0.3216847226
 10
24.5904456224
 20
-0.338282273
 10
24.4749193018
 20
-0.3416203416
 10
24.3879516972
 20
-0.3335739725
  0
LWPOLYLINE
  5
41B
100
AcDbEntity
  8
IMPORT_IGES
100
AcDbPolyline
 62
7
  6
CONTINUOUS
 90
8
 70
0
 10
11.7809159166
 20
-7.8824100636
 10
11.6509564113
 20
-7.9510634159
 10
11.523579011
 20
-8.0066839306
 10
11.3987837156
 20
-8.0492716079
 10
11.2758091952
 20
-8.0789019958
 10
11.1554167798
 20
-8.0954995462
 10
11.0398904592
 20
-8.0988376148
 10
10.9529228546
 20
-8.0907912457
  0
LWPOLYLINE
  5
41C
100
AcDbEntity
  8
IMPORT_IGES
100
AcDbPolyline
 62
7
  6
CONTINUOUS
 90
11
 70
0
 10
26.8359738663
 20
3.3745988897
 10
26.7706403991
 20
3.4067787437
 10
26.7015841716
 20
3.430352244
 10
26.6290614076
 20
3.4456710481
 10
26.5538910812
 20
3.4530297958
 10
26.4762649151
 20
3.4528543484
 10
26.3954969327
 20
3.4453460812
 10
26.3120783514
 20
3.4305949949
 10
26.226660175
 20
3.4087905841
 10
26.1384996694
 20
3.3797067738
 10
26.0475971768
 20
3.3431375535
  0
LINE
  5
41D
100
AcDbEntity
  8
IMPORT_IGES
100
AcDbLine
 62
253
  6
CONTINUOUS
 10
-13.6298545156
 20
27.0403696397
 11
-13.6795634968
 21
27.0687456494
  0
LINE
  5
41E
100
AcDbEntity
  8
IMPORT_IGES
100
AcDbLine
 62
7
  6
CONTINUOUS
 10
25.1995820784
 20
2.7013692378
 11
25.4013490889
 21
2.5848714947
  0
LINE
  5
41F
100
AcDbEntity
  8
IMPORT_IGES
100
AcDbLine
 62
7
  6
CONTINUOUS
 10
28.2718826726
 20
2.8041951016
 11
28.466413887
 21
2.6918752164
  0
LINE
  5
420
100
AcDbEntity
  8
IMPORT_IGES
100
AcDbLine
 62
7
  6
CONTINUOUS
 10
28.4664144767
 20
2.8551694592
 11
28.2630126105
 21
2.9726111475
  0
LINE
  5
421
100
AcDbEntity
  8
IMPORT_IGES
100
AcDbLine
 62
253
  6
CONTINUOUS
 10
-13.6795634968
 20
27.0687456494
 11
-13.7785404178
 21
27.1257557562
  0
LINE
  5
422
100
AcDbEntity
  8
IMPORT_IGES
100
AcDbLine
 62
253
  6
CONTINUOUS
 10
-14.412540939
 20
26.8731453996
 11
-14.3143449153
 21
26.8163889545
  0
LINE
  5
423
100
AcDbEntity
  8
IMPORT_IGES
100
AcDbLine
 62
253
  6
CONTINUOUS
 10
-14.6679361885
 20
26.207557125
 11
-14.7490193536
 21
26.2546256913
  0
LINE
  5
424
100
AcDbEntity
  8
IMPORT_IGES
100
AcDbLine
 62
253
  6
CONTINUOUS
 10
-14.7490193536
 20
26.2546256913
 11
-14.7721054286
 21
26.2681199789
  0
LWPOLYLINE
  5
425
100
AcDbEntity
  8
IMPORT_IGES
100
AcDbPolyline
 62
253
  6
CONTINUOUS
 90
22
 70
0
 10
-14.7721054286
 20
26.2681199789
 10
-15.3422180869
 20
26.6150521446
 10
-15.888656291
 20
26.9744604181
 10
-16.4106017552
 20
27.3458065893
 10
-16.9072728715
 20
27.728534571
 10
-17.37792588
 20
28.1220712319
 10
-17.8218559826
 20
28.5258272549
 10
-18.2383983984
 20
28.9391980194
 10
-18.6269293594
 20
29.361564507
 10
-18.9868670444
 20
29.792294228
 10
-19.3176724504
 20
30.2307421692
 10
-19.6188501996
 20
30.6762517591
 10
-19.8899492815
 20
31.1281558516
 10
-20.1305637279
 20
31.5857777251
 10
-20.3403332212
 20
32.0484320953
 10
-20.5189436335
 20
32.5154261421
 10
-20.6661274978
 20
32.9860605466
 10
-20.7816644075
 20
33.4596305386
 10
-20.8653813474
 20
33.9354269517
 10
-20.9171529522
 20
34.4127372858
 10
-20.9369016944
 20
34.8908467734
 10
-20.9367103271
 20
35.0226694466
  0
LINE
  5
426
100
AcDbEntity
  8
IMPORT_IGES
100
AcDbLine
 62
253
  6
CONTINUOUS
 10
-14.412540939
 20
26.8731453996
 11
-14.9720658015
 21
27.2138029254
  0
LWPOLYLINE
  5
427
100
AcDbEntity
  8
IMPORT_IGES
100
AcDbPolyline
 62
253
  6
CONTINUOUS
 90
81
 70
0
 10
-14.9720658015
 20
27.2138029254
 10
-15.506652922
 20
27.5654149732
 10
-16.0163023006
 20
27.9279815431
 10
-16.5016442952
 20
28.3020489005
 10
-16.9620485479
 20
28.6870707799
 10
-17.3956239846
 20
29.0814083852
 10
-17.8023371217
 20
29.4852165767
 10
-18.1822214428
 20
29.8983404941
 10
-18.5334863247
 20
30.3186767605
 10
-18.8558119837
 20
30.7459045921
 10
-19.1495182035
 20
31.1803447728
 10
-19.4137737112
 20
31.6208562767
 10
-19.64873598
 20
32.0679032951
 10
-19.8542475367
 20
32.5210216368
 10
-20.0290046891
 20
32.9776777031
 10
-20.1727378748
 20
33.4377148887
 10
-20.2857166561
 20
33.901289799
 10
-20.3674460269
 20
34.366338651
 10
-20.4177411151
 20
34.8330564615
 10
-20.4367867928
 20
35.3012482138
 10
-20.4246426698
 20
35.7682650758
 10
-20.3812504102
 20
36.2336057285
 10
-20.3066683499
 20
36.6977714908
 10
-20.2011311058
 20
37.1596174876
 10
-20.0645270941
 20
37.6194766667
 10
-19.8969678986
 20
38.0770160802
 10
-19.6990228874
 20
38.5300920095
 10
-19.4704345816
 20
38.9787939696
 10
-19.21146046
 20
39.4230324454
 10
-18.9234423276
 20
39.8603951735
 10
-18.6062723298
 20
40.2907198715
 10
-18.2600583213
 20
40.7141688218
 10
-17.8864656706
 20
41.1288166084
 10
-17.4853743137
 20
41.5346097994
 10
-17.0569043146
 20
41.9316018267
 10
-16.603081234
 20
42.3180275691
 10
-16.1238229369
 20
42.693818552
 10
-15.6192115582
 20
43.0590432501
 10
-15.0915190632
 20
43.4121419659
 10
-14.5406603964
 20
43.7530621571
 10
-13.9667206132
 20
44.0818563661
 10
-13.372226845
 20
44.3971225225
 10
-12.7571015344
 20
44.6988060487
 10
-12.1214222387
 20
44.9869615223
 10
-11.4679487616
 20
45.2603506051
 10
-10.7966157769
 20
45.518914676
 10
-10.1074886107
 20
45.7627123561
 10
-9.403523046
 20
45.9906811706
 10
-8.6846621347
 20
46.202760752
 10
-7.9509628248
 20
46.3990114678
 10
-7.2055517434
 20
46.5785519464
 10
-6.4481581391
 20
46.7413383542
 10
-5.6790527634
 20
46.8874145247
 10
-4.9021744978
 20
47.0160305874
 10
-4.1176076884
 20
47.1270599398
 10
-3.3252679891
 20
47.2206291843
 10
-2.5288412429
 20
47.2963682583
 10
-1.7288358043
 20
47.3542121963
 10
-0.9247433187
 20
47.3942259638
 10
-0.1187245658
 20
47.4162343939
 10
0.6900572161
 20
47.420187929
 10
1.5007652653
 20
47.4061361268
 10
2.3087285173
 20
47.3740524931
 10
3.1136002284
 20
47.3238254252
 10
3.9157271422
 20
47.2555665258
 10
4.7114784255
 20
47.1695841086
 10
5.5011072469
 20
47.0657197945
 10
6.2843604378
 20
46.9441319627
 10
7.0568476587
 20
46.8056040647
 10
7.8177097439
 20
46.65024792
 10
8.5678058591
 20
46.4779517091
 10
9.3053231631
 20
46.2891634243
 10
10.0308160003
 20
46.0837151334
 10
10.7437300262
 20
45.8617747686
 10
11.4405893656
 20
45.6242941194
 10
12.1213052262
 20
45.3711909217
 10
12.7859664003
 20
45.1025474396
 10
13.4313633896
 20
44.8195622558
 10
14.0564263614
 20
44.5226348976
 10
14.6622251484
 20
44.2113658376
 10
15.2487597505
 20
43.8857550759
  0
LINE
  5
428
100
AcDbEntity
  8
IMPORT_IGES
100
AcDbLine
 62
7
  6
CONTINUOUS
 10
-4.3302363211
 20
26.4553761329
 11
-3.461294718
 21
25.5633161519
  0
LINE
  5
429
100
AcDbEntity
  8
IMPORT_IGES
100
AcDbLine
 62
7
  6
CONTINUOUS
 10
-3.461294718
 20
25.6857866934
 11
-4.3302363211
 21
26.5778466744
  0
LINE
  5
42A
100
AcDbEntity
  8
IMPORT_IGES
100
AcDbLine
 62
7
  6
CONTINUOUS
 10
-3.0977576868
 20
25.1930523315
 11
-2.7112697811
 21
24.7889117007
  0
LINE
  5
42B
100
AcDbEntity
  8
IMPORT_IGES
100
AcDbLine
 62
7
  6
CONTINUOUS
 10
-2.6358133119
 20
24.8324793203
 11
-3.0977576868
 21
25.315522873
  0
LINE
  5
42C
100
AcDbEntity
  8
IMPORT_IGES
100
AcDbLine
 62
7
  6
CONTINUOUS
 10
-5.5394971043
 20
26.9115968648
 11
-3.3073292875
 21
24.4447544121
  0
LINE
  5
42D
100
AcDbEntity
  8
IMPORT_IGES
100
AcDbLine
 62
7
  6
CONTINUOUS
 10
-0.2678681048
 20
28.3539393597
 11
-0.2536976383
 21
28.3337714455
  0
LINE
  5
42E
100
AcDbEntity
  8
IMPORT_IGES
100
AcDbLine
 62
7
  6
CONTINUOUS
 10
-0.2536976383
 20
28.4562419871
 11
-0.2678681048
 21
28.4764099012
  0
LINE
  5
42F
100
AcDbEntity
  8
IMPORT_IGES
100
AcDbLine
 62
7
  6
CONTINUOUS
 10
-0.2536976383
 20
28.3337714455
 11
-0.2408566552
 21
28.3139934445
  0
LINE
  5
430
100
AcDbEntity
  8
IMPORT_IGES
100
AcDbLine
 62
7
  6
CONTINUOUS
 10
-0.2408566552
 20
28.4364639861
 11
-0.2536976383
 21
28.4562419871
  0
LINE
  5
431
100
AcDbEntity
  8
IMPORT_IGES
100
AcDbLine
 62
7
  6
CONTINUOUS
 10
-0.9828084078
 20
28.1902764398
 11
-0.9581493526
 21
28.1495866226
  0
LINE
  5
432
100
AcDbEntity
  8
IMPORT_IGES
100
AcDbLine
 62
7
  6
CONTINUOUS
 10
-0.2408566552
 20
28.3139934445
 11
-0.2293291327
 21
28.2946105046
  0
LINE
  5
433
100
AcDbEntity
  8
IMPORT_IGES
100
AcDbLine
 62
7
  6
CONTINUOUS
 10
-0.2293291327
 20
28.4170810461
 11
-0.2408566552
 21
28.4364639861
  0
LINE
  5
434
100
AcDbEntity
  8
IMPORT_IGES
100
AcDbLine
 62
7
  6
CONTINUOUS
 10
-0.2293291327
 20
28.2946105046
 11
-0.2191310934
 21
28.2756174777
  0
LINE
  5
435
100
AcDbEntity
  8
IMPORT_IGES
100
AcDbLine
 62
7
  6
CONTINUOUS
 10
-0.2191310934
 20
28.3980880192
 11
-0.2293291327
 21
28.4170810461
  0
LWPOLYLINE
  5
436
100
AcDbEntity
  8
IMPORT_IGES
100
AcDbPolyline
 62
253
  6
CONTINUOUS
 90
22
 70
0
 10
17.4034025145
 20
-3.6844500601
 10
17.4130152101
 20
-3.8332201056
 10
17.4319415686
 20
-3.973581518
 10
17.4601815901
 20
-4.1055342973
 10
17.4980098447
 20
-4.2296364411
 10
17.5451517622
 20
-4.3453299517
 10
17.6007836324
 20
-4.4509408359
 10
17.6650155263
 20
-4.5463248689
 10
17.7377373727
 20
-4.6316262754
 10
17.8177952482
 20
-4.7056037367
 10
17.9052856449
 20
-4.7681031358
 10
18.0001120705
 20
-4.8192785897
 10
18.1008311243
 20
-4.8583511311
 10
18.2075247888
 20
-4.8851588123
 10
18.3201110815
 20
-4.899863581
 10
18.4369006532
 20
-4.9021723125
 10
18.5579596883
 20
-4.8919170976
 10
18.6832220025
 20
-4.8692658456
 10
18.8107996929
 20
-4.8344291598
 10
18.9400634587
 20
-4.7874772414
 10
19.0716426007
 20
-4.7283398892
 10
19.2055371191
 20
-4.6570171033
  0
LWPOLYLINE
  5
437
100
AcDbEntity
  8
IMPORT_IGES
100
AcDbPolyline
 62
253
  6
CONTINUOUS
 90
16
 70
0
 10
15.5967056084
 20
38.1881228186
 10
15.5954353628
 20
38.2143676861
 10
15.5918701863
 20
38.2416458151
 10
15.5860489299
 20
38.2696602972
 10
15.5780350173
 20
38.2981061537
 10
15.5679157029
 20
38.3266738559
 10
15.5558010738
 20
38.3550526941
 10
15.5418229445
 20
38.3829338755
 10
15.5261334675
 20
38.4100138999
 10
15.5089033914
 20
38.4359980613
 10
15.4903202352
 20
38.4606035663
 10
15.470586242
 20
38.4835626274
 10
15.4499161715
 20
38.5046253865
 10
15.4285349762
 20
38.5235626119
 10
15.4066753551
 20
38.5401681961
 10
15.3845752119
 20
38.5542614114
  0
LWPOLYLINE
  5
438
100
AcDbEntity
  8
IMPORT_IGES
100
AcDbPolyline
 62
7
  6
CONTINUOUS
 90
16
 70
0
 10
16.7041252246
 20
38.8275330258
 10
16.7035428589
 20
38.8537494641
 10
16.7011227745
 20
38.8812753064
 10
16.6968845131
 20
38.9098316396
 10
16.6908932425
 20
38.9391682648
 10
16.6831919679
 20
38.9689436988
 10
16.6738186054
 20
38.9987284713
 10
16.6629362227
 20
39.0281694028
 10
16.6506661156
 20
39.0570173208
 10
16.6370140439
 20
39.0849980045
 10
16.6221477524
 20
39.1118378944
 10
16.6062597477
 20
39.1372327297
 10
16.589401445
 20
39.1608617509
 10
16.5717400654
 20
39.1824449596
 10
16.5535608829
 20
39.2017538375
 10
16.5351095366
 20
39.2185655108
  0
LINE
  5
439
100
AcDbEntity
  8
IMPORT_IGES
100
AcDbLine
 62
7
  6
CONTINUOUS
 10
16.5852936515
 20
28.6039201254
 11
16.7041252278
 21
38.8275333043
  0
LINE
  5
43A
100
AcDbEntity
  8
IMPORT_IGES
100
AcDbLine
 62
253
  6
CONTINUOUS
 10
26.0153130048
 20
-0.2012961754
 11
26.1386821066
 21
-0.0963555267
  0
LWPOLYLINE
  5
43B
100
AcDbEntity
  8
IMPORT_IGES
100
AcDbPolyline
 62
253
  6
CONTINUOUS
 90
19
 70
0
 10
3.457461485
 20
-17.0084020485
 10
3.3940403815
 20
-17.0588744665
 10
3.3266322643
 20
-17.1065527117
 10
3.2555512231
 20
-17.1512146297
 10
3.1811284667
 20
-17.1926521182
 10
3.1037107636
 20
-17.2306721055
 10
3.0236588246
 20
-17.2650974473
 10
2.941345644
 20
-17.2957677414
 10
2.8571547643
 20
-17.3225400778
 10
2.7714784712
 20
-17.345289711
 10
2.6847159718
 20
-17.3639106398
 10
2.5972715343
 20
-17.3783161002
 10
2.5095526043
 20
-17.3884389702
 10
2.4219655436
 20
-17.3942321804
 10
2.3349208547
 20
-17.395668404
 10
2.248831078
 20
-17.3927413629
 10
2.1640992943
 20
-17.3854660088
 10
2.0811174629
 20
-17.3738772635
 10
2.0002715769
 20
-17.3580301411
  0
LWPOLYLINE
  5
43C
100
AcDbEntity
  8
IMPORT_IGES
100
AcDbPolyline
 62
253
  6
CONTINUOUS
 90
19
 70
0
 10
3.2651191308
 20
-16.0562421033
 10
3.2008546786
 20
-16.1054544498
 10
3.1330740226
 20
-16.1514963024
 10
3.0621802857
 20
-16.1942189818
 10
2.9888554776
 20
-16.2333573698
 10
2.9132460745
 20
-16.2689714959
 10
2.8348606603
 20
-16.3013229231
 10
2.7537726532
 20
-16.3303157516
 10
2.6705650209
 20
-16.3556774389
 10
2.5854365614
 20
-16.3772918373
 10
2.4986315878
 20
-16.395020673
 10
2.4106617485
 20
-16.4086837508
 10
2.322147046
 20
-16.4181341207
 10
2.2335884019
 20
-16.4232893706
 10
2.1453238221
 20
-16.4241007873
 10
2.0577429856
 20
-16.420526542
 10
1.9712645971
 20
-16.4125411923
 10
1.886333205
 20
-16.4001424375
 10
1.8033799557
 20
-16.3833497803
  0
LWPOLYLINE
  5
43D
100
AcDbEntity
  8
IMPORT_IGES
100
AcDbPolyline
 62
253
  6
CONTINUOUS
 90
7
 70
0
 10
25.860926754
 20
-1.446435205
 10
25.8792151644
 20
-1.4329142557
 10
25.8946312371
 20
-1.4151751604
 10
25.906903951
 20
-1.3935256244
 10
25.9158233167
 20
-1.3683360774
 10
25.9212367214
 20
-1.3400375194
 10
25.9230515403
 20
-1.3091141466
  0
LWPOLYLINE
  5
43E
100
AcDbEntity
  8
IMPORT_IGES
100
AcDbPolyline
 62
253
  6
CONTINUOUS
 90
36
 70
0
 10
12.5476957
 20
-8.5000308498
 10
12.6927895254
 20
-8.4036968796
 10
12.8347642477
 20
-8.2964616903
 10
12.973619867
 20
-8.1783252818
 10
13.1102050268
 20
-8.0483723809
 10
13.2436710835
 20
-7.9075182609
 10
13.3714721063
 20
-7.7585087414
 10
13.4935232014
 20
-7.6010995428
 10
13.6099092626
 20
-7.4355349448
 10
13.7183390403
 20
-7.2652936069
 10
13.8184887529
 20
-7.0906619841
 10
13.9106821821
 20
-6.9113536213
 10
13.993599423
 20
-6.7299878128
 10
14.0672660717
 20
-6.5461797995
 10
14.1316565322
 20
-6.3603143405
 10
14.1853741124
 20
-6.1761650065
 10
14.2281531952
 20
-5.9938066402
 10
14.2602593977
 20
-5.8131643989
 10
14.281092878
 20
-5.6377873258
 10
14.2904333761
 20
-5.467897268
 10
14.2885011521
 20
-5.3032723783
 10
14.2753571444
 20
-5.1467961586
 10
14.2508171003
 20
-4.998557012
 10
14.2150652725
 20
-4.8584665353
 10
14.1687153583
 20
-4.7291430201
 10
14.1115443745
 20
-4.6107542871
 10
14.0437753043
 20
-4.5031325155
 10
13.9666907944
 20
-4.4083925354
 10
13.880257912
 20
-4.326812569
 10
13.7845095899
 20
-4.258114394
 10
13.6808272732
 20
-4.2035781735
 10
13.5688364602
 20
-4.1633612492
 10
13.4489116528
 20
-4.1373062795
 10
13.3235578011
 20
-4.126221402
 10
13.1926621839
 20
-4.1305268484
 10
13.0563375225
 20
-4.149802387
  0
LWPOLYLINE
  5
43F
100
AcDbEntity
  8
IMPORT_IGES
100
AcDbPolyline
 62
253
  6
CONTINUOUS
 90
36
 70
0
 10
25.9827245426
 20
-0.7428135766
 10
26.1278183679
 20
-0.6464796064
 10
26.2697930903
 20
-0.5392444171
 10
26.4086487095
 20
-0.4211080086
 10
26.5452338693
 20
-0.2911551077
 10
26.678699926
 20
-0.1503009876
 10
26.8065009488
 20
-0.0012914682
 10
26.9285520439
 20
0.1561177304
 10
27.0449381051
 20
0.3216823284
 10
27.1533678829
 20
0.4919236663
 10
27.2535175955
 20
0.6665552891
 10
27.3457110246
 20
0.8458636519
 10
27.4286282656
 20
1.0272294604
 10
27.5022949143
 20
1.2110374737
 10
27.5666853748
 20
1.3969029327
 10
27.6204029549
 20
1.5810522667
 10
27.6631820378
 20
1.763410633
 10
27.6952882403
 20
1.9440528743
 10
27.7161217206
 20
2.1194299475
 10
27.7254622187
 20
2.2893200053
 10
27.7235299946
 20
2.4539448949
 10
27.710385987
 20
2.6104211147
 10
27.6858459428
 20
2.7586602612
 10
27.650094115
 20
2.8987507379
 10
27.6037442008
 20
3.0280742531
 10
27.5465732171
 20
3.1464629862
 10
27.4788041469
 20
3.2540847577
 10
27.401719637
 20
3.3488247378
 10
27.3152867546
 20
3.4304047043
 10
27.2195384324
 20
3.4991028793
 10
27.1158561157
 20
3.5536390998
 10
27.0038653028
 20
3.593856024
 10
26.8839404953
 20
3.6199109937
 10
26.7585866437
 20
3.6309958713
 10
26.6276910264
 20
3.6266904248
 10
26.491366365
 20
3.6074148862
  0
LWPOLYLINE
  5
440
100
AcDbEntity
  8
IMPORT_IGES
100
AcDbPolyline
 62
253
  6
CONTINUOUS
 90
31
 70
0
 10
12.3285433125
 20
-8.1367950229
 10
12.4549823098
 20
-8.0531210938
 10
12.5802841622
 20
-7.9585134486
 10
12.703653264
 20
-7.8535727999
 10
12.8243062814
 20
-7.7389654698
 10
12.9414771262
 20
-7.615419159
 10
13.0544218208
 20
-7.4837183266
 10
13.1624232211
 20
-7.3446992087
 10
13.2647955709
 20
-7.1992445093
 10
13.3608888555
 20
-7.0482777948
 10
13.4500929293
 20
-6.8927576304
 10
13.5318413897
 20
-6.7336714937
 10
13.6056151739
 20
-6.5720295041
 10
13.6709458542
 20
-6.4088580098
 10
13.7274186125
 20
-6.2451930702
 10
13.7746748743
 20
-6.0820738783
 10
13.8124145853
 20
-5.9205361614
 10
13.8403981166
 20
-5.7616056057
 10
13.8584477866
 20
-5.6062913427
 10
13.8664489886
 20
-5.4555795426
 10
13.8643509187
 20
-5.3104271519
 10
13.8521668988
 20
-5.1717558178
 10
13.8299742914
 20
-5.0404460357
 10
13.7979140089
 20
-4.917331559
 10
13.7561896183
 20
-4.8031941046
 10
13.7050660493
 20
-4.6987583899
 10
13.6448679118
 20
-4.6046875309
 10
13.5759774345
 20
-4.5215788318
 10
13.4988320385
 20
-4.4499599925
 10
13.4139215596
 20
-4.3902857576
 10
13.4009450237
 20
-4.3826183836
  0
LWPOLYLINE
  5
441
100
AcDbEntity
  8
IMPORT_IGES
100
AcDbPolyline
 62
253
  6
CONTINUOUS
 90
3
 70
0
 10
25.763572155
 20
-0.3795777497
 10
25.8900111523
 20
-0.2959038205
 10
26.0153130048
 20
-0.2012961754
  0
LWPOLYLINE
  5
442
100
AcDbEntity
  8
IMPORT_IGES
100
AcDbPolyline
 62
253
  6
CONTINUOUS
 90
14
 70
0
 10
3.3551855362
 20
-15.6650107367
 10
3.3169890194
 20
-15.6890532505
 10
3.284306881
 20
-15.7147815885
 10
3.2573143378
 20
-15.7418763186
 10
3.2363778195
 20
-15.7693098609
 10
3.2213176632
 20
-15.7958647408
 10
3.2108892301
 20
-15.8221109614
 10
3.2042469337
 20
-15.8498098365
 10
3.2016809422
 20
-15.8792439591
 10
3.2034891156
 20
-15.9100125558
 10
3.2101011625
 20
-15.9430780906
 10
3.2222311236
 20
-15.9787302863
 10
3.2404043369
 20
-16.0165054481
 10
3.2651322203
 20
-16.056231986
  0
LWPOLYLINE
  5
443
100
AcDbEntity
  8
IMPORT_IGES
100
AcDbPolyline
 62
253
  6
CONTINUOUS
 90
22
 70
0
 10
19.2055371191
 20
-4.6570171033
 10
19.3453634567
 20
-4.5697318194
 10
19.4825640924
 20
-4.4721899392
 10
19.6171390262
 20
-4.3643914629
 10
19.7497974008
 20
-4.2455807897
 10
19.8798300734
 20
-4.1165135202
 10
20.0051096161
 20
-3.979456457
 10
20.1255547084
 20
-3.834305207
 10
20.2412466709
 20
-3.6811641633
 10
20.3503020369
 20
-3.5226133072
 10
20.4526204698
 20
-3.358578499
 10
20.5483023063
 20
-3.1891338784
 10
20.6357650889
 20
-3.0170818467
 10
20.7148911776
 20
-2.8423789071
 10
20.7857982124
 20
-2.6650685562
 10
20.8472566562
 20
-2.488083685
 10
20.8991328155
 20
-2.3114126488
 10
20.9415603837
 20
-2.1350670922
 10
20.9737109043
 20
-1.96201484
 10
20.995308225
 20
-1.7932451672
 10
21.0066284981
 20
-1.6277687989
 10
21.0076717236
 20
-1.4655857349
  0
LWPOLYLINE
  5
444
100
AcDbEntity
  8
IMPORT_IGES
100
AcDbPolyline
 62
253
  6
CONTINUOUS
 90
22
 70
0
 10
18.9934050847
 20
-4.2895936423
 10
19.1148005016
 20
-4.2141460004
 10
19.235488127
 20
-4.1284273539
 10
19.3547642963
 20
-4.0329374822
 10
19.471933574
 20
-3.9282331354
 10
19.5863128092
 20
-3.8149247885
 10
19.6972351178
 20
-3.6936730814
 10
19.8040537715
 20
-3.5651849678
 10
19.9061459681
 20
-3.4302095928
 10
20.0029164629
 20
-3.2895339254
 10
20.093801039
 20
-3.1439781699
 10
20.1782697972
 20
-2.9943909836
 10
20.2558302457
 20
-2.8416445291
 10
20.3260301712
 20
-2.686629389
 10
20.3884602754
 20
-2.5302493732
 10
20.4427565621
 20
-2.3734162497
 10
20.4886024588
 20
-2.2170444282
 10
20.5257306626
 20
-2.0620456287
 10
20.553924699
 20
-1.9093235661
 10
20.5730201836
 20
-1.7597686806
 10
20.5829057809
 20
-1.6142529465
 10
20.5835238534
 20
-1.4736247878
  0
LWPOLYLINE
  5
445
100
AcDbEntity
  8
IMPORT_IGES
100
AcDbPolyline
 62
7
  6
CONTINUOUS
 90
32
 70
0
 10
25.860926754
 20
-1.446435205
 10
26.0420789305
 20
-1.3341900363
 10
26.2209750725
 20
-1.2081178645
 10
26.3968441293
 20
-1.0689530872
 10
26.5690028552
 20
-0.9173968549
 10
26.7366544545
 20
-0.7542865265
 10
26.8988669288
 20
-0.580679363
 10
27.0548284435
 20
-0.3976225163
 10
27.2039713002
 20
-0.2059447521
 10
27.345727819
 20
-0.0064886134
 10
27.4794527035
 20
0.1997575009
 10
27.6045359978
 20
0.4117891138
 10
27.720467486
 20
0.6287150441
 10
27.8266899093
 20
0.8495097696
 10
27.9226740034
 20
1.0731183714
 10
28.0079779437
 20
1.2986125625
 10
28.0821512942
 20
1.5249864762
 10
28.144747133
 20
1.7511330929
 10
28.1953822634
 20
1.976021481
 10
28.2337287685
 20
2.1987767139
 10
28.2594276532
 20
2.4181960272
 10
28.2721865765
 20
2.6328861261
 10
28.2718152098
 20
2.8422235301
 10
28.2581309687
 20
3.0449199779
 10
28.2312149453
 20
3.2388900823
 10
28.1911891646
 20
3.4234847209
 10
28.1382248412
 20
3.5979253086
 10
28.0730350694
 20
3.7603763131
 10
27.9963190037
 20
3.9100497143
 10
27.9084910943
 20
4.0468992753
 10
27.8102453633
 20
4.1704108022
 10
27.7023634847
 20
4.2801466223
  0
LINE
  5
446
100
AcDbEntity
  8
IMPORT_IGES
100
AcDbLine
 62
253
  6
CONTINUOUS
 10
12.3226948119
 20
-8.1403830523
 11
12.3285433125
 21
-8.1367950229
  0
LWPOLYLINE
  5
447
100
AcDbEntity
  8
IMPORT_IGES
100
AcDbPolyline
 62
7
  6
CONTINUOUS
 90
28
 70
0
 10
25.8788749028
 20
-1.609898787
 10
26.0253247763
 20
-1.5204551557
 10
26.1704662486
 20
-1.4224876524
 10
26.3142993196
 20
-1.3159962771
 10
26.4572855751
 20
-1.2005692418
 10
26.5989634293
 20
-1.0766183346
 10
26.7379481254
 20
-0.9453789195
 10
26.874204949
 20
-0.8067896075
 10
27.0077686144
 20
-0.6609117876
 10
27.137358508
 20
-0.509164991
 10
27.2629354628
 20
-0.3514970928
 10
27.3845386458
 20
-0.1879602178
 10
27.5010049436
 20
-0.0201302723
 10
27.6122867749
 20
0.1520328252
 10
27.718431721
 20
0.3284889933
 10
27.8184194128
 20
0.5075420819
 10
27.9121925491
 20
0.6892160179
 10
27.9998084312
 20
0.8734868744
 10
28.080418594
 20
1.0585867207
 10
28.1539590289
 20
1.2445263963
 10
28.2204937444
 20
1.4312950618
 10
28.2793663009
 20
1.6170922681
 10
28.3305055296
 20
1.8019107981
 10
28.3739825993
 20
1.9857578689
 10
28.409354576
 20
2.1668546837
 10
28.4364738153
 20
2.3446083103
 10
28.4554879618
 20
2.5196116808
 10
28.4663970154
 20
2.6918647953
  0
LINE
  5
448
100
AcDbEntity
  8
IMPORT_IGES
100
AcDbLine
 62
253
  6
CONTINUOUS
 10
25.7518745209
 20
-0.3867293363
 11
25.763572155
 21
-0.3795777497
  0
LINE
  5
449
100
AcDbEntity
  8
IMPORT_IGES
100
AcDbLine
 62
253
  6
CONTINUOUS
 10
12.5344382642
 20
-8.5081360521
 11
12.5476957
 21
-8.5000308498
  0
LINE
  5
44A
100
AcDbEntity
  8
IMPORT_IGES
100
AcDbLine
 62
253
  6
CONTINUOUS
 10
25.9694671067
 20
-0.7509187789
 11
25.9827245426
 21
-0.7428135766
  0
LINE
  5
44B
100
AcDbEntity
  8
IMPORT_IGES
100
AcDbLine
 62
253
  6
CONTINUOUS
 10
25.7401746709
 20
-0.3937828414
 11
25.7518745209
 21
-0.3867293363
  0
LINE
  5
44C
100
AcDbEntity
  8
IMPORT_IGES
100
AcDbLine
 62
253
  6
CONTINUOUS
 10
12.5211785823
 20
-8.5161299346
 11
12.5344382642
 21
-8.5081360521
  0
LINE
  5
44D
100
AcDbEntity
  8
IMPORT_IGES
100
AcDbLine
 62
253
  6
CONTINUOUS
 10
25.9562074249
 20
-0.7589126614
 11
25.9694671067
 21
-0.7509187789
  0
LINE
  5
44E
100
AcDbEntity
  8
IMPORT_IGES
100
AcDbLine
 62
253
  6
CONTINUOUS
 10
12.5079169252
 20
-8.5240123358
 11
12.5211785823
 21
-8.5161299346
  0
LINE
  5
44F
100
AcDbEntity
  8
IMPORT_IGES
100
AcDbLine
 62
253
  6
CONTINUOUS
 10
25.9429457677
 20
-0.7667950626
 11
25.9562074249
 21
-0.7589126614
  0
LWPOLYLINE
  5
450
100
AcDbEntity
  8
IMPORT_IGES
100
AcDbPolyline
 62
253
  6
CONTINUOUS
 90
3
 70
0
 10
25.722622126
 20
-0.4041783626
 10
25.7284732381
 20
-0.4007378832
 10
25.7401746709
 20
-0.3937828414
  0
LWPOLYLINE
  5
451
100
AcDbEntity
  8
IMPORT_IGES
100
AcDbPolyline
 62
253
  6
CONTINUOUS
 90
3
 70
0
 10
12.4880226978
 20
-8.5356257399
 10
12.4946543752
 20
-8.5317826101
 10
12.5079169252
 20
-8.5240123358
  0
LWPOLYLINE
  5
452
100
AcDbEntity
  8
IMPORT_IGES
100
AcDbPolyline
 62
253
  6
CONTINUOUS
 90
3
 70
0
 10
25.9230515403
 20
-0.7784084667
 10
25.9296832178
 20
-0.7745653368
 10
25.9429457677
 20
-0.7667950626
  0
LINE
  5
453
100
AcDbEntity
  8
IMPORT_IGES
100
AcDbLine
 62
7
  6
CONTINUOUS
 10
12.4258979115
 20
-9.2036524782
 11
25.860926754
 21
-1.446435205
  0
LINE
  5
454
100
AcDbEntity
  8
IMPORT_IGES
100
AcDbLine
 62
7
  6
CONTINUOUS
 10
12.4432506299
 20
-9.3674598543
 11
25.8788749028
 21
-1.609898787
  0
LINE
  5
455
100
AcDbEntity
  8
IMPORT_IGES
100
AcDbLine
 62
253
  6
CONTINUOUS
 10
12.4571402614
 20
-9.0840891201
 11
25.9231893113
 21
-1.3090258614
  0
LWPOLYLINE
  5
456
100
AcDbEntity
  8
IMPORT_IGES
100
AcDbPolyline
 62
253
  6
CONTINUOUS
 90
24
 70
0
 10
12.4571402614
 20
-9.0840891201
 10
12.2865492729
 20
-9.1720818944
 10
12.1191187613
 20
-9.2442559333
 10
11.9548487266
 20
-9.3006112367
 10
11.7929163183
 20
-9.3412413573
 10
11.6341443868
 20
-9.3660527425
 10
11.4810014838
 20
-9.3747647339
 10
11.333483819
 20
-9.3670737091
 10
11.1915951826
 20
-9.3432832906
 10
11.0578154969
 20
-9.3040236875
 10
10.9325093097
 20
-9.2492280631
 10
10.8153120731
 20
-9.1789632541
 10
10.7076100659
 20
-9.0940599793
 10
10.6092909901
 20
-8.9941859243
 10
10.5204671438
 20
-8.8796734035
 10
10.4428616994
 20
-8.7523500786
 10
10.3767137346
 20
-8.611926943
 10
10.3217841718
 20
-8.4586930032
 10
10.2790789502
 20
-8.2953429406
 10
10.2488484956
 20
-8.121757902
 10
10.2308423823
 20
-7.9380567405
 10
10.2253152721
 20
-7.7472906962
 10
10.2324650677
 20
-7.5493713122
 10
10.2520938664
 20
-7.3443870454
  0
LINE
  5
457
100
AcDbEntity
  8
IMPORT_IGES
100
AcDbLine
 62
253
  6
CONTINUOUS
 10
3.3953786231
 20
-15.6443720594
 11
3.3551855362
 21
-15.6650107367
  0
LWPOLYLINE
  5
458
100
AcDbEntity
  8
IMPORT_IGES
100
AcDbPolyline
 62
253
  6
CONTINUOUS
 90
3
 70
0
 10
5.5027552031
 20
-16.0261686947
 10
5.4022170417
 20
-16.0761622847
 10
3.4574613545
 20
-17.0084022476
  0
LINE
  5
459
100
AcDbEntity
  8
IMPORT_IGES
100
AcDbLine
 62
253
  6
CONTINUOUS
 10
3.2651006759
 20
-16.0561426026
 11
3.9989066472
 21
-15.7075016158
  0
LINE
  5
45A
100
AcDbEntity
  8
IMPORT_IGES
100
AcDbLine
 62
253
  6
CONTINUOUS
 10
0.1306039577
 20
-17.3526406685
 11
0.3983520141
 21
-17.2335060885
  0
LWPOLYLINE
  5
45B
100
AcDbEntity
  8
IMPORT_IGES
100
AcDbPolyline
 62
7
  6
CONTINUOUS
 90
6
 70
0
 10
3.3876836979
 20
-15.6476635484
 10
3.3871036815
 20
-15.6478750586
 10
3.3894260561
 20
-15.6471596785
 10
3.3968327062
 20
-15.6452307663
 10
3.4089940392
 20
-15.6426609926
 10
3.4258795527
 20
-15.6398757116
  0
LWPOLYLINE
  5
45C
100
AcDbEntity
  8
IMPORT_IGES
100
AcDbPolyline
 62
253
  6
CONTINUOUS
 90
8
 70
0
 10
-10.0658415018
 20
24.1877630557
 10
-10.7788806348
 20
24.4311186172
 10
-11.4750788652
 20
24.6902207049
 10
-12.153393643
 20
24.964681316
 10
-12.8128091989
 20
25.2540894485
 10
-13.4523380647
 20
25.5580117168
 10
-14.0710225525
 20
25.8759930001
 10
-14.6679361885
 20
26.207557125
  0
LINE
  5
45D
100
AcDbEntity
  8
IMPORT_IGES
100
AcDbLine
 62
7
  6
CONTINUOUS
 10
-6.9703524247
 20
25.9629683941
 11
-3.5299051665
 21
24.3162418891
  0
LINE
  5
45E
100
AcDbEntity
  8
IMPORT_IGES
100
AcDbLine
 62
7
  6
CONTINUOUS
 10
-3.4139319987
 20
24.3832033427
 11
-6.9703524247
 21
26.0854389356
  0
LINE
  5
45F
100
AcDbEntity
  8
IMPORT_IGES
100
AcDbLine
 62
7
  6
CONTINUOUS
 10
-6.3323709883
 20
25.140290601
 11
-4.3960662535
 21
24.1606374921
  0
LWPOLYLINE
  5
460
100
AcDbEntity
  8
IMPORT_IGES
100
AcDbPolyline
 62
253
  6
CONTINUOUS
 90
3
 70
0
 10
-13.1220115262
 20
26.1795091328
 10
-13.7278103131
 20
26.4907781927
 10
-14.3143449153
 20
26.8163889545
  0
LINE
  5
461
100
AcDbEntity
  8
IMPORT_IGES
100
AcDbLine
 62
253
  6
CONTINUOUS
 10
-13.6237466543
 20
27.0371863262
 11
-13.6298545156
 21
27.0403696397
  0
LWPOLYLINE
  5
462
100
AcDbEntity
  8
IMPORT_IGES
100
AcDbPolyline
 62
253
  6
CONTINUOUS
 90
82
 70
0
 10
-13.6237466543
 20
27.0371863262
 10
-13.0557063273
 20
26.7284888979
 10
-12.4690769975
 20
26.4334376246
 10
-11.8638586651
 20
26.1520325062
 10
-11.2390049685
 20
25.8838536349
 10
-10.5955622692
 20
25.6293209185
 10
-9.9366696513
 20
25.3896940808
 10
-9.2621938568
 20
25.1650593729
 10
-8.5722681438
 20
24.9553305437
 10
-7.8704313704
 20
24.7615085636
 10
-7.1572320321
 20
24.5837751621
 10
-6.4321216335
 20
24.4219486097
 10
-5.6969935461
 20
24.2764846879
 10
-4.9510926352
 20
24.1472976884
 10
-4.1951740355
 20
24.0344733196
 10
-3.4333965234
 20
23.9387244883
 10
-2.665981819
 20
23.8601957209
 10
-1.8927082021
 20
23.7987424912
 10
-1.1170692893
 20
23.7546441271
 10
-0.3387758618
 20
23.7280058763
 10
0.4418828616
 20
23.7187224912
 10
1.2205456087
 20
23.7267575579
 10
1.9964705224
 20
23.7521524803
 10
2.7703994598
 20
23.7948658544
 10
3.5401967195
 20
23.8547370544
 10
4.3062416484
 20
23.9318107224
 10
5.0681548997
 20
24.0260422163
 10
5.8226627313
 20
24.1371369839
 10
6.5700382334
 20
24.2652480609
 10
7.310008316
 20
24.4102224116
 10
8.038479967
 20
24.5713063768
 10
8.7551578895
 20
24.7485577026
 10
9.4603373806
 20
24.9419186429
 10
10.1508113189
 20
25.1504623007
 10
10.8264910496
 20
25.3742560567
 10
11.4874652275
 20
25.6132325303
 10
12.1307926958
 20
25.8662626823
 10
12.7563559975
 20
26.1333908818
 10
13.3642725896
 20
26.4145727598
 10
13.9519536856
 20
26.7085461704
 10
14.5193119433
 20
27.0153579622
 10
15.0664347051
 20
27.3349612866
 10
15.5909952116
 20
27.6659534522
 10
16.0929026008
 20
28.0083768659
 10
16.5722477349
 20
28.3621891207
 10
17.0269764402
 20
28.7258603044
 10
17.4569926884
 20
29.0994276082
 10
17.8623925079
 20
29.4828538409
 10
18.2414098106
 20
29.8744975163
 10
18.5939438897
 20
30.2743902099
 10
18.9200954522
 20
30.6825003462
 10
19.2184005305
 20
31.0970917128
 10
19.488789604
 20
31.5183301867
 10
19.7313321934
 20
31.9460498909
 10
19.9447728939
 20
32.3780169824
 10
20.1288853877
 20
32.8141207805
 10
20.2838959924
 20
33.2544719659
 10
20.4092282561
 20
33.6971687376
 10
20.5047986649
 20
34.1420228403
 10
20.5706907325
 20
34.5892225293
 10
20.6065785486
 20
35.0374307689
 10
20.61236159
 20
35.4870558416
 10
20.5881403798
 20
35.937689465
 10
20.5338905775
 20
36.3867697566
 10
20.4494248433
 20
36.8341217482
 10
20.334930517
 20
37.279920408
 10
20.1909452771
 20
37.7221287575
 10
20.0172161096
 20
38.1608647694
 10
19.8139960286
 20
38.596010471
 10
19.5825817545
 20
39.0251749666
 10
19.3231589755
 20
39.447894981
 10
19.0355420033
 20
39.8646337895
 10
18.7204704939
 20
40.2743903218
 10
18.3776537091
 20
40.677481154
 10
18.0073823871
 20
41.0735897101
 10
17.6112683982
 20
41.4607651926
 10
17.1891881789
 20
41.8389474717
 10
16.7412652927
 20
42.2081966773
 10
16.2694823009
 20
42.5667424011
 10
15.7745000573
 20
42.9139945072
 10
15.255657708
 20
43.2505431315
 10
14.712955253
 20
43.5763882742
  0
LWPOLYLINE
  5
463
100
AcDbEntity
  8
IMPORT_IGES
100
AcDbPolyline
 62
7
  6
CONTINUOUS
 90
61
 70
0
 10
-13.5286477783
 20
27.1504573816
 10
-12.9800631677
 20
26.8457648169
 10
-12.4106064125
 20
26.5531560276
 10
-11.821130234
 20
26.2731345174
 10
-11.2124699965
 20
26.0061599974
 10
-10.5856045221
 20
25.7527193431
 10
-9.9416596155
 20
25.5133093615
 10
-9.2817549635
 20
25.2883703175
 10
-8.6067920517
 20
25.0782302644
 10
-7.9175956697
 20
24.8831785055
 10
-7.2151181713
 20
24.7035273128
 10
-6.5005340953
 20
24.5396169137
 10
-5.7750157428
 20
24.3917465642
 10
-5.0397009548
 20
24.2601726463
 10
-4.2957060856
 20
24.1451172525
 10
-3.5441934352
 20
24.0467807067
 10
-2.7862995607
 20
23.965330892
 10
-2.023223757
 20
23.9009140744
 10
-1.2562368951
 20
23.8536493097
 10
-0.4865557626
 20
23.8236178582
 10
0.2846505681
 20
23.8108700545
 10
1.0561759634
 20
23.8154296246
 10
1.8268480711
 20
23.8372925135
 10
2.595443025
 20
23.876425358
 10
3.360679397
 20
23.9327588908
 10
4.1213267809
 20
24.0061925047
 10
4.876247524
 20
24.096604697
 10
5.6243077897
 20
24.2038490965
 10
6.3644137388
 20
24.3277603208
 10
7.0953474084
 20
24.4681240518
 10
7.8158084274
 20
24.6246693937
 10
8.5245772667
 20
24.7970972725
 10
9.2206765981
 20
24.9851333096
 10
9.9031889724
 20
25.1885011388
 10
10.5711669455
 20
25.4068983894
 10
11.2234635724
 20
25.6399271369
 10
11.8588915648
 20
25.8871235112
 10
12.4763508076
 20
26.148000329
 10
13.0750471843
 20
26.4221582107
 10
13.6542777325
 20
26.7092249444
 10
14.2132146263
 20
27.0087505675
 10
14.7509300349
 20
27.3201927963
 10
15.2665867472
 20
27.6430103211
 10
15.7592683184
 20
27.9765545071
 10
16.2283759368
 20
28.3203364713
 10
16.6735380321
 20
28.6740333836
 10
17.093986243
 20
29.0370025685
 10
17.489109846
 20
29.4086757466
 10
17.8586826474
 20
29.7888497462
 10
18.2020800583
 20
30.1769486324
 10
18.5186397535
 20
30.5722866082
 10
18.8079965648
 20
30.9745030797
 10
19.069581987
 20
31.3829516214
 10
19.3028785893
 20
31.7969740419
 10
19.5075607002
 20
32.2162096898
 10
19.6831600241
 20
32.6400045248
 10
19.8292738475
 20
33.0677388146
 10
19.9456283413
 20
33.4991527484
 10
20.0318581804
 20
33.9337754482
 10
20.08758016
 20
34.3708977141
 10
20.1124854418
 20
34.8099360845
  0
LWPOLYLINE
  5
464
100
AcDbEntity
  8
IMPORT_IGES
100
AcDbPolyline
 62
7
  6
CONTINUOUS
 90
10
 70
0
 10
-13.2860194765
 20
28.4483106245
 10
-13.2728307075
 20
28.4409633068
 10
-13.2592924791
 20
28.4340120829
 10
-13.2454047911
 20
28.4274569528
 10
-13.231161365
 20
28.4212864655
 10
-13.2165684793
 20
28.4155120721
 10
-13.2016449701
 20
28.4101681252
 10
-13.1863971161
 20
28.4052660758
 10
-13.1708186386
 20
28.400794473
 10
-13.1549095375
 20
28.3967533166
  0
LINE
  5
465
100
AcDbEntity
  8
IMPORT_IGES
100
AcDbLine
 62
7
  6
CONTINUOUS
 10
27.2169803727
 20
4.5980094302
 11
27.4610040665
 21
4.4571132078
  0
LINE
  5
466
100
AcDbEntity
  8
IMPORT_IGES
100
AcDbLine
 62
7
  6
CONTINUOUS
 10
-13.2860194765
 20
28.4483106245
 11
-13.6515114192
 21
28.6593410915
  0
LINE
  5
467
100
AcDbEntity
  8
IMPORT_IGES
100
AcDbLine
 62
7
  6
CONTINUOUS
 10
-8.2503351444
 20
27.3620272106
 11
-11.0978062772
 21
29.0061213555
  0
LINE
  5
468
100
AcDbEntity
  8
IMPORT_IGES
100
AcDbLine
 62
7
  6
CONTINUOUS
 10
-7.9515912149
 20
28.3500514949
 11
-10.7851946182
 21
29.9861385865
  0
LWPOLYLINE
  5
469
100
AcDbEntity
  8
IMPORT_IGES
100
AcDbPolyline
 62
7
  6
CONTINUOUS
 90
15
 70
0
 10
27.6916870677
 20
4.4393120875
 10
27.7183823488
 20
4.4234640302
 10
27.81847956
 20
4.3554834435
 10
27.9123417003
 20
4.2774627687
 10
28.0000291428
 20
4.1894990988
 10
28.0806875279
 20
4.0924487385
 10
28.1542482379
 20
3.9862229523
 10
28.2207798906
 20
3.8709104756
 10
28.2796339797
 20
3.7476338191
 10
28.3307361797
 20
3.6163156295
 10
28.3741608161
 20
3.4770332602
 10
28.4094823592
 20
3.331141281
 10
28.4365589656
 20
3.1790912153
 10
28.4555324787
 20
3.0204315398
 10
28.4664028984
 20
2.8551622545
  0
LINE
  5
46A
100
AcDbEntity
  8
IMPORT_IGES
100
AcDbLine
 62
7
  6
CONTINUOUS
 10
-1.0602233595
 20
28.2690320356
 11
-1.0168141001
 21
28.2301678648
  0
LINE
  5
46B
100
AcDbEntity
  8
IMPORT_IGES
100
AcDbLine
 62
7
  6
CONTINUOUS
 10
-0.363941587
 20
28.4598442205
 11
-0.3410513673
 21
28.4380493049
  0
LINE
  5
46C
100
AcDbEntity
  8
IMPORT_IGES
100
AcDbLine
 62
7
  6
CONTINUOUS
 10
-0.3409254641
 20
28.5607200611
 11
-0.3634046042
 21
28.5826248092
  0
LINE
  5
46D
100
AcDbEntity
  8
IMPORT_IGES
100
AcDbLine
 62
7
  6
CONTINUOUS
 10
-0.3410513673
 20
28.4380493049
 11
-0.3200925698
 21
28.4165486386
  0
LINE
  5
46E
100
AcDbEntity
  8
IMPORT_IGES
100
AcDbLine
 62
7
  6
CONTINUOUS
 10
-0.3200925698
 20
28.5390191801
 11
-0.3409254641
 21
28.5607200611
  0
LWPOLYLINE
  5
46F
100
AcDbEntity
  8
IMPORT_IGES
100
AcDbPolyline
 62
7
  6
CONTINUOUS
 90
16
 70
0
 10
-12.3837063587
 20
38.7042437977
 10
-12.4136276909
 20
38.7354549184
 10
-12.4419044282
 20
38.7683848044
 10
-12.4685365705
 20
38.8030334556
 10
-12.4937002406
 20
38.8396986549
 10
-12.5172193157
 20
38.8780826195
 10
-12.538565428
 20
38.9172920009
 10
-12.557692664
 20
38.957343084
 10
-12.5746469371
 20
38.998219584
 10
-12.5890376203
 20
39.0389792982
 10
-12.6008114276
 20
39.0796207035
 10
-12.6100216451
 20
39.1201453229
 10
-12.6164375031
 20
39.1596155229
 10
-12.6199820786
 20
39.197718759
 10
-12.6207322946
 20
39.2347675757
 10
-12.6186881512
 20
39.2707619729
  0
LINE
  5
470
100
AcDbEntity
  8
IMPORT_IGES
100
AcDbLine
 62
7
  6
CONTINUOUS
 10
-0.3200925698
 20
28.4165486386
 11
-0.3010655706
 21
28.3953279561
  0
LINE
  5
471
100
AcDbEntity
  8
IMPORT_IGES
100
AcDbLine
 62
7
  6
CONTINUOUS
 10
-0.3010655706
 20
28.5177984976
 11
-0.3200925698
 21
28.5390191801
  0
LINE
  5
472
100
AcDbEntity
  8
IMPORT_IGES
100
AcDbLine
 62
7
  6
CONTINUOUS
 10
-1.0168141001
 20
28.2301678648
 11
-0.9828084078
 21
28.1902764398
  0
LINE
  5
473
100
AcDbEntity
  8
IMPORT_IGES
100
AcDbLine
 62
7
  6
CONTINUOUS
 10
-0.3010655706
 20
28.3953279561
 11
-0.2836595604
 21
28.374455292
  0
LINE
  5
474
100
AcDbEntity
  8
IMPORT_IGES
100
AcDbLine
 62
7
  6
CONTINUOUS
 10
-0.2836595604
 20
28.4969258336
 11
-0.3010655706
 21
28.5177984976
  0
LINE
  5
475
100
AcDbEntity
  8
IMPORT_IGES
100
AcDbLine
 62
7
  6
CONTINUOUS
 10
-0.2836595604
 20
28.374455292
 11
-0.2678681048
 21
28.3539393597
  0
LINE
  5
476
100
AcDbEntity
  8
IMPORT_IGES
100
AcDbLine
 62
7
  6
CONTINUOUS
 10
-0.2678681048
 20
28.4764099012
 11
-0.2836595604
 21
28.4969258336
  0
LWPOLYLINE
  5
477
100
AcDbEntity
  8
IMPORT_IGES
100
AcDbPolyline
 62
253
  6
CONTINUOUS
 90
22
 70
0
 10
21.0076717236
 20
-1.4655857349
 10
20.998059028
 20
-1.3168156894
 10
20.9791326695
 20
-1.176454277
 10
20.950892648
 20
-1.0445014978
 10
20.9130643935
 20
-0.920399354
 10
20.8659224759
 20
-0.8047058433
 10
20.8102906057
 20
-0.6990949591
 10
20.7460587118
 20
-0.6037109262
 10
20.6733368654
 20
-0.5184095196
 10
20.59327899
 20
-0.4444320583
 10
20.5057885932
 20
-0.3819326592
 10
20.4109621676
 20
-0.3307572053
 10
20.3102431139
 20
-0.2916846639
 10
20.2035494493
 20
-0.2648769827
 10
20.0909631566
 20
-0.250172214
 10
19.974173585
 20
-0.2478634825
 10
19.8531145498
 20
-0.2581186974
 10
19.7278522356
 20
-0.2807699494
 10
19.6002745452
 20
-0.3156066352
 10
19.4710107794
 20
-0.3625585536
 10
19.3394316374
 20
-0.4216959058
 10
19.2055371191
 20
-0.4930186917
  0
LWPOLYLINE
  5
478
100
AcDbEntity
  8
IMPORT_IGES
100
AcDbPolyline
 62
253
  6
CONTINUOUS
 90
12
 70
0
 10
20.5835238534
 20
-1.4736247878
 10
20.5754109158
 20
-1.3441497536
 10
20.5588195291
 20
-1.2206148949
 10
20.5338386116
 20
-1.1036822724
 10
20.5006020436
 20
-0.9939785637
 10
20.45928795
 20
-0.892091704
 10
20.4101177454
 20
-0.798567736
 10
20.3533549481
 20
-0.7139078831
 10
20.2893037669
 20
-0.638565863
 10
20.2183074716
 20
-0.5729454565
 10
20.140746553
 20
-0.5173983432
 10
20.118459445
 20
-0.5040097469
  0
LINE
  5
479
100
AcDbEntity
  8
IMPORT_IGES
100
AcDbLine
 62
7
  6
CONTINUOUS
 10
21.8711251624
 20
35.0226694466
 11
22.0550241616
 21
17.8177327936
  0
LWPOLYLINE
  5
47A
100
AcDbEntity
  8
IMPORT_IGES
100
AcDbPolyline
 62
253
  6
CONTINUOUS
 90
22
 70
0
 10
20.1124854418
 20
34.8099360845
 10
20.1124798466
 20
35.0902484961
 10
20.0884184521
 20
35.5284565551
 10
20.0350477483
 20
35.9658004834
 10
19.9524474581
 20
36.4016269959
 10
19.8407409662
 20
36.8352850739
 10
19.7000951348
 20
37.2661269378
 10
19.5307200546
 20
37.693509015
 10
19.3328687307
 20
38.1167929006
 10
19.1068367048
 20
38.5353463116
 10
18.8529616135
 20
38.9485440313
 10
18.5716226846
 20
39.3557688429
 10
18.2632401698
 20
39.7564124518
 10
17.9282747174
 20
40.149876394
 10
17.5672266842
 20
40.5355729301
 10
17.1806353881
 20
40.9129259236
 10
16.7690783023
 20
41.2813717011
 10
16.3331701927
 20
41.6403598942
 10
15.8735621999
 20
41.9893542621
 10
15.3909408663
 20
42.3278334922
 10
14.8860271106
 20
42.655291979
 10
14.3595751509
 20
42.9712405793
  0
LWPOLYLINE
  5
47B
100
AcDbEntity
  8
IMPORT_IGES
100
AcDbPolyline
 62
253
  6
CONTINUOUS
 90
24
 70
0
 10
22.0550408584
 20
17.8161543914
 10
22.0536596732
 20
17.5961422776
 10
22.0269282043
 20
17.1358327205
 10
21.9680209175
 20
16.6764881912
 10
21.8771880469
 20
16.2192442223
 10
21.754588612
 20
15.7643836628
 10
21.6001064516
 20
15.3112676447
 10
21.4135714398
 20
14.8600243592
 10
21.1953012925
 20
14.411978431
 10
20.9459412542
 20
13.9682786106
 10
20.6660472842
 20
13.5298289612
 10
20.3559332189
 20
13.0970851815
 10
20.0161173974
 20
12.6704815138
 10
19.6471373166
 20
12.2506517002
 10
19.249571693
 20
11.8382543656
 10
18.8240791136
 20
11.4337372544
 10
18.3713509837
 20
11.0376928056
 10
17.8920747184
 20
10.650727837
 10
17.3869634164
 20
10.2732873399
 10
16.8568106565
 20
9.9059259693
 10
16.3024160869
 20
9.5491894339
 10
15.7245397291
 20
9.203489507
 10
15.1240514861
 20
8.869292174
 10
14.5018576856
 20
8.5471286624
  0
LWPOLYLINE
  5
47C
100
AcDbEntity
  8
IMPORT_IGES
100
AcDbPolyline
 62
253
  6
CONTINUOUS
 90
28
 70
0
 10
21.8711251624
 20
35.0226694466
 10
21.8590128358
 20
34.52375926
 10
21.8146751305
 20
34.0461994822
 10
21.738369809
 20
33.5699877446
 10
21.6302111378
 20
33.0958371694
 10
21.4903610834
 20
32.6244577923
 10
21.3190290698
 20
32.1565554991
 10
21.116471665
 20
31.6928309688
 10
20.8829921966
 20
31.2339786241
 10
20.6189402977
 20
30.7806855917
 10
20.3247113835
 20
30.3336306734
 10
20.0007460586
 20
29.8934833294
 10
19.647529458
 20
29.4609026758
 10
19.2655905198
 20
29.0365364978
 10
18.8555011937
 20
28.6210202795
 10
18.4178755844
 20
28.2149762521
 10
17.9533690318
 20
27.8190124624
 10
17.4626771297
 20
27.4337218623
 10
16.9465346842
 20
27.0596814205
 10
16.4057146135
 20
26.6974512587
 10
15.84102679
 20
26.3475738129
 10
15.2533168281
 20
26.010573021
 10
14.6434648175
 20
25.6869535384
 10
14.0123840053
 20
25.3771999819
 10
13.3610194287
 20
25.0817762043
 10
12.6903464995
 20
24.8011245997
 10
12.0013695436
 20
24.5356654411
 10
11.2951202971
 20
24.2857962508
  0
LWPOLYLINE
  5
47D
100
AcDbEntity
  8
IMPORT_IGES
100
AcDbPolyline
 62
253
  6
CONTINUOUS
 90
28
 70
0
 10
26.1386821066
 20
-0.0963555267
 10
26.2593351239
 20
0.0182518035
 10
26.3765059688
 20
0.1417981142
 10
26.4894506633
 20
0.2734989466
 10
26.5974520637
 20
0.4125180645
 10
26.6998244135
 20
0.557972764
 10
26.7959176981
 20
0.7089394785
 10
26.8851217718
 20
0.8644596428
 10
26.9668702323
 20
1.0235457795
 10
27.0406440164
 20
1.1851877691
 10
27.1059746967
 20
1.3483592635
 10
27.162447455
 20
1.512024203
 10
27.2097037168
 20
1.675143395
 10
27.2474434278
 20
1.8366811118
 10
27.2754269592
 20
1.9956116675
 10
27.2934766292
 20
2.1509259305
 10
27.3014778311
 20
2.3016377306
 10
27.2993797612
 20
2.4467901213
 10
27.2871957413
 20
2.5854614555
 10
27.265003134
 20
2.7167712375
 10
27.2329428514
 20
2.8398857143
 10
27.1912184608
 20
2.9540231686
 10
27.1400948919
 20
3.0584588833
 10
27.0798967543
 20
3.1525297423
 10
27.011006277
 20
3.2356384414
 10
26.933860881
 20
3.3072572808
 10
26.8489504021
 20
3.3669315156
 10
26.8359738663
 20
3.3745988897
  0
LWPOLYLINE
  5
47E
100
AcDbEntity
  8
IMPORT_IGES
100
AcDbPolyline
 62
7
  6
CONTINUOUS
 90
16
 70
0
 10
29.4773633937
 20
-4.0800108063
 10
29.5396592483
 20
-4.0354384391
 10
29.6064782741
 20
-3.9816530614
 10
29.669723216
 20
-3.9243525355
 10
29.7300253205
 20
-3.8630812475
 10
29.7871470057
 20
-3.7980531133
 10
29.8401247832
 20
-3.7304540404
 10
29.8891848327
 20
-3.6601417671
 10
29.9344424256
 20
-3.5869047018
 10
29.9750662869
 20
-3.512110025
 10
30.0111221936
 20
-3.4357911874
 10
30.0427338452
 20
-3.35763171
 10
30.0694364861
 20
-3.2787441872
 10
30.0911622323
 20
-3.1995404289
 10
30.1080379559
 20
-3.1195960969
 10
30.11458399
 20
-3.0796853737
  0
LINE
  5
47F
100
AcDbEntity
  8
IMPORT_IGES
100
AcDbLine
 62
7
  6
CONTINUOUS
 10
29.477329886
 20
-4.0800322685
 11
29.4773819138
 21
-4.0799971517
  0
LWPOLYLINE
  5
480
100
AcDbEntity
  8
IMPORT_IGES
100
AcDbPolyline
 62
253
  6
CONTINUOUS
 90
13
 70
0
 10
29.6248331142
 20
-3.6736625766
 10
27.8703408205
 20
-4.8438198254
 10
26.1152005893
 20
-5.9857884027
 10
24.3594124207
 20
-7.0995683087
 10
22.6026137133
 20
-8.1853778142
 10
20.8451670684
 20
-9.2429986484
 10
19.0881602904
 20
-10.2717759984
 10
17.3315936356
 20
-11.271691896
 10
15.5754668476
 20
-12.2427643094
 10
13.8208669617
 20
-13.1843923304
 10
12.0681563229
 20
-14.096375656
 10
10.316972586
 20
-14.9789145892
 10
8.5673157513
 20
-15.8320091299
  0
LWPOLYLINE
  5
481
100
AcDbEntity
  8
IMPORT_IGES
100
AcDbPolyline
 62
7
  6
CONTINUOUS
 90
13
 70
0
 10
29.4773819138
 20
-4.0799971517
 10
27.7139546835
 20
-5.2561318516
 10
25.9489746273
 20
-6.4044994145
 10
24.182799083
 20
-7.5248617067
 10
22.4157848521
 20
-8.6169865816
 10
20.6482907045
 20
-9.6806463336
 10
18.8806768352
 20
-10.7156181615
 10
17.1132990312
 20
-11.7216875537
 10
15.3465168654
 20
-12.6986434665
 10
13.5806953337
 20
-13.6462777748
 10
11.8161938769
 20
-14.5643913509
 10
10.0533668541
 20
-15.4527933964
 10
8.2925708867
 20
-16.3112975306
  0
LWPOLYLINE
  5
482
100
AcDbEntity
  8
IMPORT_IGES
100
AcDbPolyline
 62
7
  6
CONTINUOUS
 90
12
 70
0
 10
-12.9324660829
 20
-28.8032318835
 10
-12.8332794463
 20
-28.74151045
 10
-12.7423586361
 20
-28.6756818753
 10
-12.6602121184
 20
-28.6061142997
 10
-12.5872992899
 20
-28.5331967731
 10
-12.5240279086
 20
-28.4573370801
 10
-12.4707518138
 20
-28.3789594586
 10
-12.427768947
 20
-28.2985022283
 10
-12.3953196857
 20
-28.2164153385
 10
-12.3735854995
 20
-28.1331578525
 10
-12.3626879347
 20
-28.0491953799
 10
-12.3613243092
 20
-28.0070964283
  0
LWPOLYLINE
  5
483
100
AcDbEntity
  8
IMPORT_IGES
100
AcDbPolyline
 62
7
  6
CONTINUOUS
 90
19
 70
0
 10
-12.8971107468
 20
-28.8644691288
 10
-13.0257490898
 20
-28.9325288635
 10
-13.1641714365
 20
-28.9938561901
 10
-13.3113243092
 20
-29.0479843707
 10
-13.4660877857
 20
-29.0945014572
 10
-13.6272840225
 20
-29.1330534264
 10
-13.793686219
 20
-29.1633468745
 10
-13.9640279539
 20
-29.1851512502
 10
-14.1370128237
 20
-29.198300609
 10
-14.3113243092
 20
-29.2026948762
 10
-14.4856357947
 20
-29.198300609
 10
-14.6586206645
 20
-29.1851512502
 10
-14.8289623994
 20
-29.1633468745
 10
-14.9953645958
 20
-29.1330534264
 10
-15.1565608327
 20
-29.0945014572
 10
-15.3113243092
 20
-29.0479843707
 10
-15.4584771819
 20
-28.9938561901
 10
-15.5968995286
 20
-28.9325288635
 10
-15.7255378716
 20
-28.8644691288
  0
LWPOLYLINE
  5
484
100
AcDbEntity
  8
IMPORT_IGES
100
AcDbPolyline
 62
253
  6
CONTINUOUS
 90
13
 70
0
 10
3.0916878952
 20
-17.635563648
 10
3.1184400835
 20
-17.6220174291
 10
3.1681338341
 20
-17.5912808082
 10
3.2146458333
 20
-17.5548246398
 10
3.2577410913
 20
-17.5128331093
 10
3.2972018803
 20
-17.465518368
 10
3.332828835
 20
-17.4131194615
 10
3.3644419519
 20
-17.3559011366
 10
3.3918815235
 20
-17.2941524616
 10
3.4150089343
 20
-17.2281853541
 10
3.4337073331
 20
-17.158333069
 10
3.4478822343
 20
-17.0849485258
 10
3.4574620123
 20
-17.0084024749
  0
LWPOLYLINE
  5
485
100
AcDbEntity
  8
IMPORT_IGES
100
AcDbPolyline
 62
7
  6
CONTINUOUS
 90
3
 70
0
 10
3.0916879018
 20
-17.6355636448
 10
5.0524475677
 20
-16.6956842096
 10
6.144632706
 20
-16.1525891567
  0
LINE
  5
486
100
AcDbEntity
  8
IMPORT_IGES
100
AcDbLine
 62
7
  6
CONTINUOUS
 10
8.2925708867
 20
-16.3112975306
 11
8.2922218578
 21
-16.3114646256
  0
LINE
  5
487
100
AcDbEntity
  8
IMPORT_IGES
100
AcDbLine
 62
7
  6
CONTINUOUS
 10
-2.1732339551
 20
25.8493312887
 11
-1.3480947887
 21
25.5759918567
  0
LINE
  5
488
100
AcDbEntity
  8
IMPORT_IGES
100
AcDbLine
 62
7
  6
CONTINUOUS
 10
-4.3302363211
 20
26.5778466744
 11
-2.8113136795
 21
26.0610775989
  0
LINE
  5
489
100
AcDbEntity
  8
IMPORT_IGES
100
AcDbLine
 62
7
  6
CONTINUOUS
 10
-3.6475260263
 20
27.9601184412
 11
-0.4332290138
 21
26.1042236308
  0
LINE
  5
48A
100
AcDbEntity
  8
IMPORT_IGES
100
AcDbLine
 62
7
  6
CONTINUOUS
 10
-1.5850055661
 20
27.4015805633
 11
-2.4778238448
 21
27.9170826478
  0
LINE
  5
48B
100
AcDbEntity
  8
IMPORT_IGES
100
AcDbLine
 62
7
  6
CONTINUOUS
 10
0.1368650758
 20
26.4333888132
 11
-1.0298307704
 21
27.1070243727
  0
LINE
  5
48C
100
AcDbEntity
  8
IMPORT_IGES
100
AcDbLine
 62
7
  6
CONTINUOUS
 10
-1.5850055661
 20
27.5240511049
 11
-2.4778238448
 21
28.0395531893
  0
LINE
  5
48D
100
AcDbEntity
  8
IMPORT_IGES
100
AcDbLine
 62
7
  6
CONTINUOUS
 10
0.242920843
 20
26.494624084
 11
-1.029699161
 21
27.2294189246
  0
LINE
  5
48E
100
AcDbEntity
  8
IMPORT_IGES
100
AcDbLine
 62
7
  6
CONTINUOUS
 10
-0.2060003233
 20
27.8660647268
 11
-0.2252185489
 21
27.8771610894
  0
LINE
  5
48F
100
AcDbEntity
  8
IMPORT_IGES
100
AcDbLine
 62
7
  6
CONTINUOUS
 10
-0.2059694374
 20
27.9885419776
 11
-0.2269402952
 21
28.0006502881
  0
LINE
  5
490
100
AcDbEntity
  8
IMPORT_IGES
100
AcDbLine
 62
7
  6
CONTINUOUS
 10
-1.1750817891
 20
28.3443652009
 11
-1.1129792559
 21
28.3070978144
  0
LINE
  5
491
100
AcDbEntity
  8
IMPORT_IGES
100
AcDbLine
 62
7
  6
CONTINUOUS
 10
-0.5111440183
 20
28.6939337141
 11
-0.5477095822
 21
28.716565139
  0
LINE
  5
492
100
AcDbEntity
  8
IMPORT_IGES
100
AcDbLine
 62
7
  6
CONTINUOUS
 10
-0.510706205
 20
28.5717132379
 11
-0.5472510418
 21
28.5943567071
  0
LINE
  5
493
100
AcDbEntity
  8
IMPORT_IGES
100
AcDbLine
 62
7
  6
CONTINUOUS
 10
-0.4766563629
 20
28.549125076
 11
-0.5107042462
 21
28.5717117656
  0
LINE
  5
494
100
AcDbEntity
  8
IMPORT_IGES
100
AcDbLine
 62
7
  6
CONTINUOUS
 10
-0.4474641178
 20
28.6516126532
 11
-0.5111440183
 21
28.6939337141
  0
LINE
  5
495
100
AcDbEntity
  8
IMPORT_IGES
100
AcDbLine
 62
7
  6
CONTINUOUS
 10
-0.4451214464
 20
28.5265607282
 11
-0.4766608289
 21
28.5491278992
  0
LINE
  5
496
100
AcDbEntity
  8
IMPORT_IGES
100
AcDbLine
 62
7
  6
CONTINUOUS
 10
-1.1129792559
 20
28.3070978144
 11
-1.0602233595
 21
28.2690320356
  0
LWPOLYLINE
  5
497
100
AcDbEntity
  8
IMPORT_IGES
100
AcDbPolyline
 62
253
  6
CONTINUOUS
 90
25
 70
0
 10
-12.6142680343
 20
39.313859153
 10
-12.5005271149
 20
39.2285218991
 10
-12.3894588365
 20
39.1358723192
 10
-12.2810631991
 20
39.0359104133
 10
-12.1748280745
 20
38.9280500007
 10
-12.071265591
 20
38.8128772621
 10
-11.9719121334
 20
38.6921507395
 10
-11.8768315107
 20
38.5657947343
 10
-11.785959914
 20
38.4338849451
 10
-11.7006423007
 20
38.2984070098
 10
-11.6209593783
 20
38.1593108855
 10
-11.5468304394
 20
38.0166466152
 10
-11.4793583193
 20
37.8725499648
 10
-11.4186390329
 20
37.7270002995
 10
-11.3645765652
 20
37.5800182543
 10
-11.3179857071
 20
37.4338015
 10
-11.2789735818
 20
37.2883597105
 10
-11.2474330661
 20
37.143683212
 10
-11.2238575814
 20
37.0019406542
 10
-11.208361011
 20
36.8631695385
 10
-11.2008294717
 20
36.7273323635
 10
-11.2014147352
 20
36.5964852748
 10
-11.210167392
 20
36.4713136543
 10
-11.2270368516
 20
36.3511321202
 10
-11.252023114
 20
36.2359406723
  0
LINE
  5
498
100
AcDbEntity
  8
IMPORT_IGES
100
AcDbLine
 62
7
  6
CONTINUOUS
 10
-0.4158257693
 20
28.504160429
 11
-0.4451267779
 21
28.5265644042
  0
LINE
  5
499
100
AcDbEntity
  8
IMPORT_IGES
100
AcDbLine
 62
7
  6
CONTINUOUS
 10
-0.4159344596
 20
28.6265682269
 11
-0.4474641178
 21
28.6516126532
  0
LWPOLYLINE
  5
49A
100
AcDbEntity
  8
IMPORT_IGES
100
AcDbPolyline
 62
7
  6
CONTINUOUS
 90
3
 70
0
 10
27.7023634847
 20
4.2801466223
 10
27.5856493597
 20
4.3758009533
 10
27.4610040665
 20
4.4571132078
  0
LINE
  5
49B
100
AcDbEntity
  8
IMPORT_IGES
100
AcDbLine
 62
7
  6
CONTINUOUS
 10
-0.3888731853
 20
28.6043306238
 11
-0.4159344596
 21
28.6265682269
  0
LINE
  5
49C
100
AcDbEntity
  8
IMPORT_IGES
100
AcDbLine
 62
7
  6
CONTINUOUS
 10
-0.3887661331
 20
28.4819218723
 11
-0.4158259343
 21
28.5041603593
  0
LINE
  5
49D
100
AcDbEntity
  8
IMPORT_IGES
100
AcDbLine
 62
7
  6
CONTINUOUS
 10
-0.3634046042
 20
28.5826248092
 11
-0.3888731853
 21
28.6043306238
  0
LINE
  5
49E
100
AcDbEntity
  8
IMPORT_IGES
100
AcDbLine
 62
7
  6
CONTINUOUS
 10
-0.3639414999
 20
28.4598442532
 11
-0.3887663544
 21
28.4819217857
  0
LINE
  5
49F
100
AcDbEntity
  8
IMPORT_IGES
100
AcDbLine
 62
253
  6
CONTINUOUS
 10
25.8169855232
 20
4.1896620142
 11
25.792098921
 21
4.2182020793
  0
LWPOLYLINE
  5
4A0
100
AcDbEntity
  8
IMPORT_IGES
100
AcDbPolyline
 62
7
  6
CONTINUOUS
 90
28
 70
0
 10
26.5735611595
 20
3.4511042069
 10
26.5919928193
 20
3.4281404915
 10
26.6518254877
 20
3.3317721571
 10
26.7021479158
 20
3.2256335623
 10
26.7427283999
 20
3.1094854903
 10
26.7737986438
 20
2.9835671578
 10
26.79473477
 20
2.8504443563
 10
26.8053246156
 20
2.7100745728
 10
26.8057803436
 20
2.5625003203
 10
26.7961145655
 20
2.4104149286
 10
26.7761518812
 20
2.2537021958
 10
26.7460676909
 20
2.0924783238
 10
26.7064008065
 20
1.9297852482
 10
26.6569517432
 20
1.7655561961
 10
26.5979199859
 20
1.5998579404
 10
26.5304428014
 20
1.4359327358
 10
26.4545023457
 20
1.2740079674
 10
26.3701164628
 20
1.1138562501
 10
26.2784759518
 20
0.958037683
 10
26.1792088329
 20
0.8062520558
 10
26.0726870859
 20
0.6587995789
 10
25.9612174489
 20
0.519140983
 10
25.8447230073
 20
0.3875770734
 10
25.7232806757
 20
0.2638070448
 10
25.5994279369
 20
0.1503892126
 10
25.4740106183
 20
0.0481763485
 10
25.3461828924
 20
-0.0436843191
 10
25.2159447591
 20
-0.1251927904
  0
LWPOLYLINE
  5
4A1
100
AcDbEntity
  8
IMPORT_IGES
100
AcDbPolyline
 62
253
  6
CONTINUOUS
 90
7
 70
0
 10
9.7739399126
 20
25.149988869
 10
9.7517945549
 20
25.1821808071
 10
9.6610489977
 20
25.2900567933
 10
9.556728421
 20
25.3937604053
 10
9.4394047018
 20
25.4927231485
 10
9.3097209987
 20
25.5864025174
 10
9.168388227
 20
25.6742849695
  0
LWPOLYLINE
  5
4A2
100
AcDbEntity
  8
IMPORT_IGES
100
AcDbPolyline
 62
253
  6
CONTINUOUS
 90
7
 70
0
 10
10.0799229363
 20
25.4229915086
 10
10.0288917477
 20
25.4975120725
 10
9.9277074991
 20
25.6183616554
 10
9.8120936848
 20
25.7338489168
 10
9.6826546731
 20
25.8432497951
 10
9.5387860957
 20
25.9472883519
 10
9.3804879526
 20
26.0459645873
  0
LWPOLYLINE
  5
4A3
100
AcDbEntity
  8
IMPORT_IGES
100
AcDbPolyline
 62
253
  6
CONTINUOUS
 90
9
 70
0
 10
25.9230515403
 20
3.9162956248
 10
25.9212367214
 20
3.9493147055
 10
25.9158233165
 20
3.9838645279
 10
25.9069039507
 20
4.0193539351
 10
25.8946312367
 20
4.0551756935
 10
25.879215164
 20
4.0907168829
 10
25.860919506
 20
4.1253693836
 10
25.8400573063
 20
4.1585402818
 10
25.8169855232
 20
4.1896620142
  0
LWPOLYLINE
  5
4A4
100
AcDbEntity
  8
IMPORT_IGES
100
AcDbPolyline
 62
7
  6
CONTINUOUS
 90
22
 70
0
 10
21.8711251624
 20
35.0226694466
 10
21.8515338988
 20
35.4895321986
 10
21.8026701566
 20
35.9563274207
 10
21.724471037
 20
36.4223404325
 10
21.6169468784
 20
36.8867635981
 10
21.480116556
 20
37.3489884708
 10
21.3139407225
 20
37.8086149251
 10
21.1183979776
 20
38.2651373449
 10
20.8936469382
 20
38.7177047019
 10
20.6399569477
 20
39.1654376346
 10
20.3574907467
 20
39.6077743612
 10
20.0465333647
 20
40.0440167546
 10
19.7077059123
 20
40.4731379024
 10
19.3413993366
 20
40.8945563289
 10
18.9480310068
 20
41.3077058068
 10
18.5284663463
 20
41.7116435629
 10
18.0833062243
 20
42.1058080273
 10
17.6130950144
 20
42.4897273159
 10
17.1187931173
 20
42.8626481659
 10
16.6012184473
 20
43.2240177736
 10
16.0609805375
 20
43.5734671703
 10
15.4988231754
 20
43.9105553106
  0
LWPOLYLINE
  5
4A5
100
AcDbEntity
  8
IMPORT_IGES
100
AcDbPolyline
 62
7
  6
CONTINUOUS
 90
16
 70
0
 10
25.5112132739
 20
3.001108222
 10
25.4903502346
 20
2.8996984378
 10
25.4463604698
 20
2.7297884818
 10
25.3935829514
 20
2.5598679238
 10
25.3318986051
 20
2.3899511551
 10
25.2614265053
 20
2.2200237843
 10
25.1833360205
 20
2.0527818412
 10
25.0975225734
 20
1.8882677337
 10
25.0040907415
 20
1.7264390538
 10
24.9045236254
 20
1.5698646076
 10
24.7987322039
 20
1.4186137468
 10
24.6868054984
 20
1.2726171197
 10
24.5704936732
 20
1.1342354764
 10
24.4497247221
 20
1.003564732
 10
24.3245706514
 20
0.8805089714
 10
24.2476449944
 20
0.8121489747
  0
LWPOLYLINE
  5
4A6
100
AcDbEntity
  8
IMPORT_IGES
100
AcDbPolyline
 62
253
  6
CONTINUOUS
 90
10
 70
0
 10
29.4773819138
 20
-4.0799971517
 10
29.5030142879
 20
-4.0604178105
 10
29.5338984536
 20
-4.0294007378
 10
29.5607025102
 20
-3.9929677286
 10
29.5831630028
 20
-3.9513801429
 10
29.6011225825
 20
-3.904813268
 10
29.6144216482
 20
-3.8534569854
 10
29.622895656
 20
-3.7975729981
 10
29.6264007004
 20
-3.7375173703
 10
29.6248344125
 20
-3.6736616421
  0
LWPOLYLINE
  5
4A7
100
AcDbEntity
  8
IMPORT_IGES
100
AcDbPolyline
 62
253
  6
CONTINUOUS
 90
10
 70
0
 10
-12.8971107468
 20
-34.1715259279
 10
-12.7792354229
 20
-34.0972517609
 10
-12.6730202206
 20
-34.0173284328
 10
-12.5792735016
 20
-33.9323642083
 10
-12.4987087351
 20
-33.8430057166
 10
-12.4319390676
 20
-33.7499330298
 10
-12.3794726566
 20
-33.653854487
 10
-12.3417088032
 20
-33.5555013042
 10
-12.318934913
 20
-33.4556220084
 10
-12.3113243092
 20
-33.3549767413
  0
LINE
  5
4A8
100
AcDbEntity
  8
IMPORT_IGES
100
AcDbLine
 62
7
  6
CONTINUOUS
 10
-0.5251244104
 20
27.4988756629
 11
-0.4737165128
 21
27.5120762359
  0
LINE
  5
4A9
100
AcDbEntity
  8
IMPORT_IGES
100
AcDbLine
 62
7
  6
CONTINUOUS
 10
-0.2060003233
 20
27.8660647268
 11
-0.1520815394
 21
27.877777478
  0
LINE
  5
4AA
100
AcDbEntity
  8
IMPORT_IGES
100
AcDbLine
 62
7
  6
CONTINUOUS
 10
-0.1520815394
 20
28.0002480195
 11
-0.2059694374
 21
27.9885419776
  0
LINE
  5
4AB
100
AcDbEntity
  8
IMPORT_IGES
100
AcDbLine
 62
7
  6
CONTINUOUS
 10
-0.4737165128
 20
27.5120762359
 11
-0.4201307162
 21
27.5219844926
  0
LINE
  5
4AC
100
AcDbEntity
  8
IMPORT_IGES
100
AcDbLine
 62
7
  6
CONTINUOUS
 10
-0.1520815394
 20
27.877777478
 11
-0.0951408961
 21
27.8862776656
  0
LINE
  5
4AD
100
AcDbEntity
  8
IMPORT_IGES
100
AcDbLine
 62
7
  6
CONTINUOUS
 10
-0.0951408961
 20
28.0087482071
 11
-0.1520815394
 21
28.0002480195
  0
LINE
  5
4AE
100
AcDbEntity
  8
IMPORT_IGES
100
AcDbLine
 62
7
  6
CONTINUOUS
 10
-0.4201307162
 20
27.5219844926
 11
-0.3648001416
 21
27.5284467904
  0
LINE
  5
4AF
100
AcDbEntity
  8
IMPORT_IGES
100
AcDbLine
 62
7
  6
CONTINUOUS
 10
-0.0951408961
 20
27.8862776656
 11
-0.0351783936
 21
27.8915652895
  0
LINE
  5
4B0
100
AcDbEntity
  8
IMPORT_IGES
100
AcDbLine
 62
7
  6
CONTINUOUS
 10
-0.0351783936
 20
28.0140358311
 11
-0.0951408961
 21
28.0087482071
  0
LINE
  5
4B1
100
AcDbEntity
  8
IMPORT_IGES
100
AcDbLine
 62
7
  6
CONTINUOUS
 10
-0.3648001416
 20
27.5284467904
 11
-0.3077401387
 21
27.5314728683
  0
LINE
  5
4B2
100
AcDbEntity
  8
IMPORT_IGES
100
AcDbLine
 62
7
  6
CONTINUOUS
 10
-0.0351783936
 20
27.8915652895
 11
0.0283009639
 21
27.8936907302
  0
LINE
  5
4B3
100
AcDbEntity
  8
IMPORT_IGES
100
AcDbLine
 62
7
  6
CONTINUOUS
 10
0.0283009639
 20
28.0161612717
 11
-0.0351783936
 21
28.0140358311
  0
LINE
  5
4B4
100
AcDbEntity
  8
IMPORT_IGES
100
AcDbLine
 62
7
  6
CONTINUOUS
 10
-0.3077401387
 20
27.5314728683
 11
-0.2489353579
 21
27.5310529874
  0
LINE
  5
4B5
100
AcDbEntity
  8
IMPORT_IGES
100
AcDbLine
 62
7
  6
CONTINUOUS
 10
0.0283009639
 20
27.8936907302
 11
0.0948021807
 21
27.8926036072
  0
LINE
  5
4B6
100
AcDbEntity
  8
IMPORT_IGES
100
AcDbLine
 62
7
  6
CONTINUOUS
 10
0.0948021807
 20
28.0150741488
 11
0.0283009639
 21
28.0161612717
  0
LINE
  5
4B7
100
AcDbEntity
  8
IMPORT_IGES
100
AcDbLine
 62
7
  6
CONTINUOUS
 10
0.0948021807
 20
27.8926036072
 11
0.1628402701
 21
27.8881527801
  0
LINE
  5
4B8
100
AcDbEntity
  8
IMPORT_IGES
100
AcDbLine
 62
7
  6
CONTINUOUS
 10
0.1628402701
 20
28.0106233216
 11
0.0948021807
 21
28.0150741488
  0
LINE
  5
4B9
100
AcDbEntity
  8
IMPORT_IGES
100
AcDbLine
 62
7
  6
CONTINUOUS
 10
-0.2489353579
 20
27.5310529874
 11
-0.1887728736
 21
27.5270042892
  0
LINE
  5
4BA
100
AcDbEntity
  8
IMPORT_IGES
100
AcDbLine
 62
7
  6
CONTINUOUS
 10
0.1628402701
 20
27.8881527801
 11
0.2321320977
 21
27.8800483991
  0
LINE
  5
4BB
100
AcDbEntity
  8
IMPORT_IGES
100
AcDbLine
 62
7
  6
CONTINUOUS
 10
0.2321320977
 20
28.0025189406
 11
0.1628402701
 21
28.0106233216
  0
LINE
  5
4BC
100
AcDbEntity
  8
IMPORT_IGES
100
AcDbLine
 62
7
  6
CONTINUOUS
 10
-0.1887728736
 20
27.5270042892
 11
-0.1273817106
 21
27.5192658208
  0
LINE
  5
4BD
100
AcDbEntity
  8
IMPORT_IGES
100
AcDbLine
 62
7
  6
CONTINUOUS
 10
-1.4839612218
 20
28.4347543631
 11
-1.4153401882
 21
28.4252800263
  0
LINE
  5
4BE
100
AcDbEntity
  8
IMPORT_IGES
100
AcDbLine
 62
7
  6
CONTINUOUS
 10
0.2321320977
 20
27.8800483991
 11
0.3029607977
 21
27.8685803139
  0
LINE
  5
4BF
100
AcDbEntity
  8
IMPORT_IGES
100
AcDbLine
 62
7
  6
CONTINUOUS
 10
0.3029607977
 20
27.9910508554
 11
0.2321320977
 21
28.0025189406
  0
LINE
  5
4C0
100
AcDbEntity
  8
IMPORT_IGES
100
AcDbLine
 62
7
  6
CONTINUOUS
 10
-0.1273817106
 20
27.5192658208
 11
-0.064632844
 21
27.5078985351
  0
LINE
  5
4C1
100
AcDbEntity
  8
IMPORT_IGES
100
AcDbLine
 62
7
  6
CONTINUOUS
 10
0.3029607977
 20
27.8685803139
 11
0.3746907868
 21
27.854466933
  0
LINE
  5
4C2
100
AcDbEntity
  8
IMPORT_IGES
100
AcDbLine
 62
7
  6
CONTINUOUS
 10
0.3746907868
 20
27.9769374745
 11
0.3029607977
 21
27.9910508554
  0
LINE
  5
4C3
100
AcDbEntity
  8
IMPORT_IGES
100
AcDbLine
 62
7
  6
CONTINUOUS
 10
-1.4153401882
 20
28.4252800263
 11
-1.3498904826
 21
28.4114347585
  0
LINE
  5
4C4
100
AcDbEntity
  8
IMPORT_IGES
100
AcDbLine
 62
7
  6
CONTINUOUS
 10
-1.085032171
 20
28.7986178122
 11
-1.0131479248
 21
28.7824181497
  0
LINE
  5
4C5
100
AcDbEntity
  8
IMPORT_IGES
100
AcDbLine
 62
7
  6
CONTINUOUS
 10
-1.0131479248
 20
28.9048886912
 11
-1.0850321709
 21
28.9210883537
  0
LINE
  5
4C6
100
AcDbEntity
  8
IMPORT_IGES
100
AcDbLine
 62
7
  6
CONTINUOUS
 10
0.3746907868
 20
27.854466933
 11
0.447092706
 21
27.8376504406
  0
LINE
  5
4C7
100
AcDbEntity
  8
IMPORT_IGES
100
AcDbLine
 62
7
  6
CONTINUOUS
 10
0.447092706
 20
27.9601209821
 11
0.3746907868
 21
27.9769374745
  0
LINE
  5
4C8
100
AcDbEntity
  8
IMPORT_IGES
100
AcDbLine
 62
7
  6
CONTINUOUS
 10
-0.064632844
 20
27.5078985351
 11
-0.000526274
 21
27.4929024322
  0
LINE
  5
4C9
100
AcDbEntity
  8
IMPORT_IGES
100
AcDbLine
 62
7
  6
CONTINUOUS
 10
-1.0131479248
 20
28.7824181497
 11
-0.9458317736
 21
28.7648626102
  0
LINE
  5
4CA
100
AcDbEntity
  8
IMPORT_IGES
100
AcDbLine
 62
7
  6
CONTINUOUS
 10
-0.9458317736
 20
28.8873331518
 11
-1.0131479248
 21
28.9048886912
  0
LINE
  5
4CB
100
AcDbEntity
  8
IMPORT_IGES
100
AcDbLine
 62
7
  6
CONTINUOUS
 10
0.447092706
 20
27.8376504406
 11
0.5203959142
 21
27.8181886524
  0
LINE
  5
4CC
100
AcDbEntity
  8
IMPORT_IGES
100
AcDbLine
 62
7
  6
CONTINUOUS
 10
0.5203959142
 20
27.940659194
 11
0.447092706
 21
27.9601209821
  0
LINE
  5
4CD
100
AcDbEntity
  8
IMPORT_IGES
100
AcDbLine
 62
7
  6
CONTINUOUS
 10
0.5203959142
 20
27.8181886524
 11
0.5946529052
 21
27.7969734245
  0
LINE
  5
4CE
100
AcDbEntity
  8
IMPORT_IGES
100
AcDbLine
 62
7
  6
CONTINUOUS
 10
0.5946529052
 20
27.919443966
 11
0.5203959142
 21
27.940659194
  0
LINE
  5
4CF
100
AcDbEntity
  8
IMPORT_IGES
100
AcDbLine
 62
7
  6
CONTINUOUS
 10
-1.3498904826
 20
28.4114347585
 11
-1.2884495902
 21
28.3934491703
  0
LINE
  5
4D0
100
AcDbEntity
  8
IMPORT_IGES
100
AcDbLine
 62
7
  6
CONTINUOUS
 10
-0.000526274
 20
27.4929024322
 11
0.2666344137
 21
27.4133124699
  0
LINE
  5
4D1
100
AcDbEntity
  8
IMPORT_IGES
100
AcDbLine
 62
7
  6
CONTINUOUS
 10
-0.9458317736
 20
28.7648626102
 11
-0.8834255512
 21
28.7461329205
  0
LINE
  5
4D2
100
AcDbEntity
  8
IMPORT_IGES
100
AcDbLine
 62
7
  6
CONTINUOUS
 10
-0.8834255512
 20
28.868603462
 11
-0.9458317736
 21
28.8873331518
  0
LINE
  5
4D3
100
AcDbEntity
  8
IMPORT_IGES
100
AcDbLine
 62
7
  6
CONTINUOUS
 10
0.5946529052
 20
27.7969734245
 11
0.669881177
 21
27.774302042
  0
LINE
  5
4D4
100
AcDbEntity
  8
IMPORT_IGES
100
AcDbLine
 62
7
  6
CONTINUOUS
 10
0.669881177
 20
27.8967725835
 11
0.5946529052
 21
27.919443966
  0
LINE
  5
4D5
100
AcDbEntity
  8
IMPORT_IGES
100
AcDbLine
 62
7
  6
CONTINUOUS
 10
-4.8827603675
 20
27.1683178843
 11
-0.7711782069
 21
25.9090962606
  0
LINE
  5
4D6
100
AcDbEntity
  8
IMPORT_IGES
100
AcDbLine
 62
7
  6
CONTINUOUS
 10
-0.6325819221
 20
25.9891200184
 11
-4.8827603675
 21
27.2907884258
  0
LINE
  5
4D7
100
AcDbEntity
  8
IMPORT_IGES
100
AcDbLine
 62
7
  6
CONTINUOUS
 10
0.2666344137
 20
27.4133124699
 11
0.5434822288
 21
27.3284373518
  0
LWPOLYLINE
  5
4D8
100
AcDbEntity
  8
IMPORT_IGES
100
AcDbPolyline
 62
253
  6
CONTINUOUS
 90
7
 70
0
 10
22.0323246232
 20
19.941420916
 10
22.0491402246
 20
19.9362083477
 10
22.1281287754
 20
19.9175092756
 10
22.2096270221
 20
19.9038342608
 10
22.2932496483
 20
19.8953019155
 10
22.378132791
 20
19.892005747
 10
22.4636198246
 20
19.8939103374
  0
LINE
  5
4D9
100
AcDbEntity
  8
IMPORT_IGES
100
AcDbLine
 62
7
  6
CONTINUOUS
 10
0.5434822288
 20
27.3284373518
 11
1.1289797629
 21
27.1438895009
  0
LINE
  5
4DA
100
AcDbEntity
  8
IMPORT_IGES
100
AcDbLine
 62
7
  6
CONTINUOUS
 10
1.1289797629
 20
27.1438895009
 11
1.2825341724
 21
27.094883791
  0
LINE
  5
4DB
100
AcDbEntity
  8
IMPORT_IGES
100
AcDbLine
 62
7
  6
CONTINUOUS
 10
0.669881177
 20
27.774302042
 11
0.7460632317
 21
27.7498772198
  0
LINE
  5
4DC
100
AcDbEntity
  8
IMPORT_IGES
100
AcDbLine
 62
7
  6
CONTINUOUS
 10
0.7460632317
 20
27.8723477613
 11
0.669881177
 21
27.8967725835
  0
LINE
  5
4DD
100
AcDbEntity
  8
IMPORT_IGES
100
AcDbLine
 62
7
  6
CONTINUOUS
 10
0.8231990691
 20
27.7236989577
 11
1.2010153581
 21
27.5974393786
  0
LINE
  5
4DE
100
AcDbEntity
  8
IMPORT_IGES
100
AcDbLine
 62
7
  6
CONTINUOUS
 10
1.2010153581
 20
27.7199099201
 11
0.8231990691
 21
27.8461694993
  0
LINE
  5
4DF
100
AcDbEntity
  8
IMPORT_IGES
100
AcDbLine
 62
7
  6
CONTINUOUS
 10
1.2010153581
 20
27.5974393786
 11
1.8014515251
 21
27.3945001669
  0
LINE
  5
4E0
100
AcDbEntity
  8
IMPORT_IGES
100
AcDbLine
 62
7
  6
CONTINUOUS
 10
1.9355392371
 20
27.4719207313
 11
1.2010153581
 21
27.7199099201
  0
LINE
  5
4E1
100
AcDbEntity
  8
IMPORT_IGES
100
AcDbLine
 62
7
  6
CONTINUOUS
 10
0.7460632317
 20
27.7498772198
 11
0.8231990691
 21
27.7236989577
  0
LINE
  5
4E2
100
AcDbEntity
  8
IMPORT_IGES
100
AcDbLine
 62
7
  6
CONTINUOUS
 10
0.8231990691
 20
27.8461694993
 11
0.7460632317
 21
27.8723477613
  0
LINE
  5
4E3
100
AcDbEntity
  8
IMPORT_IGES
100
AcDbLine
 62
7
  6
CONTINUOUS
 10
-0.8834255512
 20
28.7461329205
 11
-0.8255874237
 21
28.7260473538
  0
LINE
  5
4E4
100
AcDbEntity
  8
IMPORT_IGES
100
AcDbLine
 62
7
  6
CONTINUOUS
 10
-0.8255874236
 20
28.8485178953
 11
-0.8834255512
 21
28.868603462
  0
LINE
  5
4E5
100
AcDbEntity
  8
IMPORT_IGES
100
AcDbLine
 62
7
  6
CONTINUOUS
 10
-0.7709649051
 20
28.8278167652
 11
-0.8255874236
 21
28.8485178953
  0
LINE
  5
4E6
100
AcDbEntity
  8
IMPORT_IGES
100
AcDbLine
 62
7
  6
CONTINUOUS
 10
-0.8255874237
 20
28.7260473538
 11
-0.7712528344
 21
28.7052718665
  0
LINE
  5
4E7
100
AcDbEntity
  8
IMPORT_IGES
100
AcDbLine
 62
7
  6
CONTINUOUS
 10
-1.2884495902
 20
28.3934491703
 11
-1.2301800257
 21
28.3710926511
  0
LINE
  5
4E8
100
AcDbEntity
  8
IMPORT_IGES
100
AcDbLine
 62
7
  6
CONTINUOUS
 10
-0.7202924031
 20
28.6838725897
 11
-0.7712528344
 21
28.7052718665
  0
LINE
  5
4E9
100
AcDbEntity
  8
IMPORT_IGES
100
AcDbLine
 62
7
  6
CONTINUOUS
 10
-0.771125772
 20
28.827689052
 11
-0.7202463811
 21
28.8063238057
  0
LINE
  5
4EA
100
AcDbEntity
  8
IMPORT_IGES
100
AcDbLine
 62
7
  6
CONTINUOUS
 10
-0.6728319403
 20
28.6617820929
 11
-0.7202922593
 21
28.6838727039
  0
LINE
  5
4EB
100
AcDbEntity
  8
IMPORT_IGES
100
AcDbLine
 62
7
  6
CONTINUOUS
 10
-1.2301800257
 20
28.3710926511
 11
-1.1750817891
 21
28.3443652009
  0
LINE
  5
4EC
100
AcDbEntity
  8
IMPORT_IGES
100
AcDbLine
 62
7
  6
CONTINUOUS
 10
-0.6282145299
 20
28.639476231
 11
-0.6728388246
 21
28.6617856858
  0
LINE
  5
4ED
100
AcDbEntity
  8
IMPORT_IGES
100
AcDbLine
 62
7
  6
CONTINUOUS
 10
-0.6287520603
 20
28.7616295305
 11
-0.6732864725
 21
28.7839902001
  0
LWPOLYLINE
  5
4EE
100
AcDbEntity
  8
IMPORT_IGES
100
AcDbPolyline
 62
253
  6
CONTINUOUS
 90
39
 70
0
 10
9.3109150751
 20
26.0849007996
 10
9.1358046252
 20
26.1728343996
 10
8.9520795182
 20
26.2523227991
 10
8.7597397541
 20
26.3233659979
 10
8.557589319
 20
26.3862632784
 10
8.3468242268
 20
26.4407153582
 10
8.1310325185
 20
26.4858243907
 10
7.9100880408
 20
26.5214080521
 10
7.684116947
 20
26.5476486661
 10
7.4570857386
 20
26.5641953569
 10
7.2293877384
 20
26.5709249665
 10
7.0006296237
 20
26.5679606529
 10
6.7735979268
 20
26.5553210143
 10
6.5478588049
 20
26.5328560621
 10
6.323846101
 20
26.5007157848
 10
6.1056478764
 20
26.4593687461
 10
5.8934436639
 20
26.4086247619
 10
5.6870539308
 20
26.3486740163
 10
5.49002814
 20
26.2805556251
 10
5.3026085473
 20
26.204151352
 10
5.1245528969
 20
26.1195794334
 10
4.9586838844
 20
26.0282336937
 10
4.8052032879
 20
25.9300212826
 10
4.6639093292
 20
25.8250350505
 10
4.537019369
 20
25.7149473728
 10
4.4247427387
 20
25.5996726339
 10
4.3268701069
 20
25.4792964495
 10
4.2449908405
 20
25.3557480418
 10
4.1793643549
 20
25.2289212407
 10
4.1297312347
 20
25.0989222163
 10
4.0969026011
 20
24.9679987016
 10
4.0811057505
 20
24.8363331864
 10
4.0821133865
 20
24.7037431808
 10
4.1000547414
 20
24.5719289482
 10
4.1352032422
 20
24.4406524553
 10
4.1872854618
 20
24.3101517354
 10
4.2556103516
 20
24.1828411524
 10
4.3405519301
 20
24.0588014327
 10
4.3606062446
 20
24.0348495274
  0
LWPOLYLINE
  5
4EF
100
AcDbEntity
  8
IMPORT_IGES
100
AcDbPolyline
 62
253
  6
CONTINUOUS
 90
7
 70
0
 10
4.7662181686
 20
26.1745704608
 10
4.738835305
 20
26.1883317215
 10
4.7119106305
 20
26.1977641962
 10
4.6858946671
 20
26.2027100543
 10
4.6612227319
 20
26.2030865383
 10
4.6383076527
 20
26.1988873485
 10
4.6162109205
 20
26.1894328142
  0
LWPOLYLINE
  5
4F0
100
AcDbEntity
  8
IMPORT_IGES
100
AcDbPolyline
 62
253
  6
CONTINUOUS
 90
30
 70
0
 10
9.105535732
 20
25.7094601438
 10
8.9489934259
 20
25.7882824146
 10
8.7827795298
 20
25.8602010797
 10
8.6078052145
 20
25.9248218871
 10
8.4250296745
 20
25.9817905909
 10
8.2354548702
 20
26.0307948934
 10
8.0401200349
 20
26.0715661571
 10
7.8400959778
 20
26.1038808772
 10
7.6364792143
 20
26.1275619073
 10
7.4303859544
 20
26.1424794298
 10
7.2229459843
 20
26.1485516681
 10
7.0152964726
 20
26.1457453348
 10
6.8085757367
 20
26.1340758139
 10
6.6039170024
 20
26.1136070768
 10
6.4024421919
 20
26.0844513313
 10
6.2052557733
 20
26.0467684069
 10
6.0134387061
 20
26.0007648782
 10
5.8280425156
 20
25.9466929328
 10
5.6500835282
 20
25.8848489884
 10
5.4805373004
 20
25.8155720685
 10
5.3203332703
 20
25.7392419434
 10
5.1703496632
 20
25.6562770485
 10
5.0314086767
 20
25.5671321905
 10
4.9042719738
 20
25.4722960539
 10
4.7896365072
 20
25.3722885227
 10
4.688130699
 20
25.2676578298
 10
4.6003109957
 20
25.1589775519
 10
4.5266588176
 20
25.0468434653
 10
4.4675779197
 20
24.9318702797
 10
4.4233921786
 20
24.8146882685
  0
LINE
  5
4F1
100
AcDbEntity
  8
IMPORT_IGES
100
AcDbLine
 62
7
  6
CONTINUOUS
 10
-0.6732864725
 20
28.7839902001
 11
-0.715249401
 21
28.8053785939
  0
LINE
  5
4F2
100
AcDbEntity
  8
IMPORT_IGES
100
AcDbLine
 62
7
  6
CONTINUOUS
 10
-0.586314687
 20
28.6170261829
 11
-0.6282112929
 21
28.6394748119
  0
LINE
  5
4F3
100
AcDbEntity
  8
IMPORT_IGES
100
AcDbLine
 62
7
  6
CONTINUOUS
 10
-0.5868772651
 20
28.7391679178
 11
-0.6287520603
 21
28.7616295305
  0
LINE
  5
4F4
100
AcDbEntity
  8
IMPORT_IGES
100
AcDbLine
 62
253
  6
CONTINUOUS
 10
9.1196667448
 20
25.7017415734
 11
9.105535732
 21
25.7094601438
  0
LINE
  5
4F5
100
AcDbEntity
  8
IMPORT_IGES
100
AcDbLine
 62
253
  6
CONTINUOUS
 10
9.3265571415
 20
26.0763568683
 11
9.3109150751
 21
26.0849007996
  0
LINE
  5
4F6
100
AcDbEntity
  8
IMPORT_IGES
100
AcDbLine
 62
253
  6
CONTINUOUS
 10
9.1337047235
 20
25.6939666135
 11
9.1196667448
 21
25.7017415734
  0
LINE
  5
4F7
100
AcDbEntity
  8
IMPORT_IGES
100
AcDbLine
 62
253
  6
CONTINUOUS
 10
9.3420959494
 20
26.0677506709
 11
9.3265571415
 21
26.0763568683
  0
LINE
  5
4F8
100
AcDbEntity
  8
IMPORT_IGES
100
AcDbLine
 62
253
  6
CONTINUOUS
 10
9.1476489929
 20
25.6861356379
 11
9.1337047235
 21
25.6939666135
  0
LINE
  5
4F9
100
AcDbEntity
  8
IMPORT_IGES
100
AcDbLine
 62
253
  6
CONTINUOUS
 10
9.3575312181
 20
26.0590823643
 11
9.3420959494
 21
26.0677506709
  0
LWPOLYLINE
  5
4FA
100
AcDbEntity
  8
IMPORT_IGES
100
AcDbPolyline
 62
253
  6
CONTINUOUS
 90
3
 70
0
 10
9.168388227
 20
25.6742849695
 10
9.1614988828
 20
25.6782490232
 10
9.1476489929
 20
25.6861356379
  0
LWPOLYLINE
  5
4FB
100
AcDbEntity
  8
IMPORT_IGES
100
AcDbPolyline
 62
253
  6
CONTINUOUS
 90
3
 70
0
 10
9.3804879526
 20
26.0459645873
 10
9.3728618262
 20
26.0503525761
 10
9.3575312181
 20
26.0590823643
  0
LINE
  5
4FC
100
AcDbEntity
  8
IMPORT_IGES
100
AcDbLine
 62
7
  6
CONTINUOUS
 10
-0.5477095822
 20
28.716565139
 11
-0.5868772651
 21
28.7391679178
  0
LINE
  5
4FD
100
AcDbEntity
  8
IMPORT_IGES
100
AcDbLine
 62
7
  6
CONTINUOUS
 10
-0.5472530681
 20
28.5943579925
 11
-0.586310844
 21
28.6170241499
  0
LWPOLYLINE
  5
4FE
100
AcDbEntity
  8
IMPORT_IGES
100
AcDbPolyline
 62
7
  6
CONTINUOUS
 90
13
 70
0
 10
-11.0091455986
 20
40.8450892305
 10
-11.015691117
 20
40.8495830559
 10
-11.0572163757
 20
40.8732200024
 10
-11.10223252
 20
40.8909590059
 10
-11.1507898705
 20
40.9027177193
 10
-11.2028381066
 20
40.9085784899
 10
-11.257567111
 20
40.9084131557
 10
-11.3150195022
 20
40.902136429
 10
-11.3751526617
 20
40.8898335977
 10
-11.4370286168
 20
40.8716323635
 10
-11.5003347099
 20
40.8475752938
 10
-11.5653835985
 20
40.8176198212
 10
-11.6321752827
 20
40.7817659459
  0
LWPOLYLINE
  5
4FF
100
AcDbEntity
  8
IMPORT_IGES
100
AcDbPolyline
 62
253
  6
CONTINUOUS
 90
31
 70
0
 10
10.552765907
 20
26.3875099752
 10
10.5296137399
 20
26.4043296296
 10
10.3632547819
 20
26.5119911102
 10
10.1872396865
 20
26.6136624318
 10
10.0014893376
 20
26.7092898771
 10
9.8060828513
 20
26.7989271633
 10
9.6028798296
 20
26.8817471888
 10
9.3918179906
 20
26.9576904447
 10
9.172959616
 20
27.0268164399
 10
8.9483511533
 20
27.0884765989
 10
8.7179463328
 20
27.1426083775
 10
8.4817914241
 20
27.1892743199
 10
8.2420716839
 20
27.2280134835
 10
7.9987383288
 20
27.2587608008
 10
7.7518401421
 20
27.2815813391
 10
7.5037087304
 20
27.2962093587
 10
7.2540532811
 20
27.3025293929
 10
7.0031646069
 20
27.3006569083
 10
6.7542467518
 20
27.2906725645
 10
6.5079620615
 20
27.2725609167
 10
6.2636481903
 20
27.2463374098
 10
6.0225221452
 20
27.2121290381
 10
5.7841065403
 20
27.1698374459
 10
5.5488787616
 20
27.1195609889
 10
5.3194879739
 20
27.0617217288
 10
5.0960139088
 20
26.9962108975
 10
4.8783768346
 20
26.9231372631
 10
4.668986721
 20
26.8432491922
 10
4.468646891
 20
26.7567961404
 10
4.2765540214
 20
26.6635286521
 10
4.0927081124
 20
26.5634467273
  0
LWPOLYLINE
  5
500
100
AcDbEntity
  8
IMPORT_IGES
100
AcDbPolyline
 62
7
  6
CONTINUOUS
 90
25
 70
0
 10
-11.0091215062
 20
40.8451233565
 10
-10.8392906775
 20
40.7179075874
 10
-10.675548708
 20
40.5809495053
 10
-10.5180865819
 20
40.4349753978
 10
-10.3668788421
 20
40.280424479
 10
-10.2222769787
 20
40.1180320331
 10
-10.0850437157
 20
39.9490625061
 10
-9.9556134225
 20
39.7745219485
 10
-9.8338912243
 20
39.5946831511
 10
-9.7199234152
 20
39.4098576894
 10
-9.6139732408
 20
39.2206014305
 10
-9.5163111499
 20
39.027439592
 10
-9.4271000528
 20
38.8305882455
 10
-9.3465867752
 20
38.6302605557
 10
-9.2752753172
 20
38.4272028336
 10
-9.2136862536
 20
38.2223048053
 10
-9.1621067457
 20
38.0156362211
 10
-9.1210745287
 20
37.8080186836
 10
-9.0912114312
 20
37.6012541898
 10
-9.0727593664
 20
37.3950328607
 10
-9.066181657
 20
37.1904484072
 10
-9.0716918025
 20
36.9911126475
 10
-9.0890237905
 20
36.7983254932
 10
-9.1180621249
 20
36.6113132993
 10
-9.15871068
 20
36.4304016623
  0
LWPOLYLINE
  5
501
100
AcDbEntity
  8
IMPORT_IGES
100
AcDbPolyline
 62
7
  6
CONTINUOUS
 90
25
 70
0
 10
10.2239570432
 20
25.8555534482
 10
10.1624260606
 20
25.9095745188
 10
9.9953699815
 20
26.035524212
 10
9.81364322
 20
26.1537374319
 10
9.619104295
 20
26.263125529
 10
9.4130785659
 20
26.3631972564
 10
9.1962833578
 20
26.4538141124
 10
8.9700902785
 20
26.5345714899
 10
8.7357883083
 20
26.6051885853
 10
8.4943898117
 20
26.6655139819
 10
8.2470106208
 20
26.7153844919
 10
7.9948895567
 20
26.7546467615
 10
7.7391972555
 20
26.7831996577
 10
7.4810050286
 20
26.8009788827
 10
7.2215409286
 20
26.8079339615
 10
6.9620281045
 20
26.804055011
 10
6.7035423881
 20
26.7893605716
 10
6.4472912615
 20
26.7639005845
 10
6.1944993724
 20
26.7277665682
 10
5.9462417029
 20
26.6810623044
 10
5.7036422627
 20
26.6239226971
 10
5.4679280159
 20
26.5565440282
 10
5.2402476706
 20
26.479148849
 10
5.021686947
 20
26.3919777988
 10
4.8133203692
 20
26.2953031876
  0
LWPOLYLINE
  5
502
100
AcDbEntity
  8
IMPORT_IGES
100
AcDbPolyline
 62
253
  6
CONTINUOUS
 90
8
 70
0
 10
24.1602571378
 20
-0.151478783
 10
24.1960089656
 20
-0.2915692597
 10
24.2423588798
 20
-0.4208927749
 10
24.2995298636
 20
-0.539281508
 10
24.3672989338
 20
-0.6469032795
 10
24.4443834437
 20
-0.7416432596
 10
24.5308163261
 20
-0.823223226
 10
24.6265646482
 20
-0.8919214011
  0
LWPOLYLINE
  5
503
100
AcDbEntity
  8
IMPORT_IGES
100
AcDbPolyline
 62
253
  6
CONTINUOUS
 90
19
 70
0
 10
29.6248315776
 20
10.8083771496
 10
29.6264231945
 20
10.8802485949
 10
29.6232459927
 20
10.9535739189
 10
29.6154619244
 20
11.0278068074
 10
29.6033328913
 20
11.1020411826
 10
29.5870426978
 20
11.1761463875
 10
29.5664771446
 20
11.2507902298
 10
29.5415876629
 20
11.3258228231
 10
29.5125525036
 20
11.4004330266
 10
29.4794209759
 20
11.474289506
 10
29.4422554024
 20
11.5470089416
 10
29.4012854045
 20
11.6179204883
 10
29.3568690948
 20
11.6862666466
 10
29.3093506347
 20
11.7514478105
 10
29.2589569997
 20
11.8130868335
 10
29.2059353983
 20
11.8707879456
 10
29.1505975232
 20
11.924103933
 10
29.0933292702
 20
11.972558404
 10
29.0345168338
 20
12.0157268454
  0
LWPOLYLINE
  5
504
100
AcDbEntity
  8
IMPORT_IGES
100
AcDbPolyline
 62
253
  6
CONTINUOUS
 90
11
 70
0
 10
7.1425383117
 20
-27.4528665685
 10
7.1790151185
 20
-27.4271064229
 10
7.2123810133
 20
-27.396683301
 10
7.2426511857
 20
-27.3614746155
 10
7.2694299235
 20
-27.3217929131
 10
7.2924973818
 20
-27.2778955357
 10
7.3117278852
 20
-27.2299418677
 10
7.3269616386
 20
-27.1782212403
 10
7.3380799861
 20
-27.1230280664
 10
7.3449950022
 20
-27.064649641
 10
7.3476378039
 20
-27.0034099442
  0
LWPOLYLINE
  5
505
100
AcDbEntity
  8
IMPORT_IGES
100
AcDbPolyline
 62
7
  6
CONTINUOUS
 90
16
 70
0
 10
7.1425366812
 20
-27.4528675729
 10
7.211194558
 20
-27.4074159017
 10
7.2757593547
 20
-27.3582675898
 10
7.3359927806
 20
-27.3057696384
 10
7.3915548753
 20
-27.2504530419
 10
7.4425317144
 20
-27.1924993757
 10
7.4892597951
 20
-27.1316789427
 10
7.5315773692
 20
-27.0682615586
 10
7.5692849902
 20
-27.0026411746
 10
7.602467898
 20
-26.9347168982
 10
7.6309565258
 20
-26.8648011695
 10
7.6545913179
 20
-26.7932865971
 10
7.6733499471
 20
-26.7201760919
 10
7.6871082541
 20
-26.6457221358
 10
7.6957280249
 20
-26.5704383348
 10
7.6990958461
 20
-26.4988789152
  0
LWPOLYLINE
  5
506
100
AcDbEntity
  8
IMPORT_IGES
100
AcDbPolyline
 62
253
  6
CONTINUOUS
 90
11
 70
0
 10
7.3480136495
 20
-27.003183488
 10
7.408400069
 20
-26.9636537721
 10
7.4637476428
 20
-26.9217239659
 10
7.5137796935
 20
-26.8776027355
 10
7.558250237
 20
-26.8315046621
 10
7.5969315403
 20
-26.7836641506
 10
7.6296211337
 20
-26.7343359223
 10
7.6561571194
 20
-26.6837756248
 10
7.6764182111
 20
-26.6322280229
 10
7.6903107606
 20
-26.5799413193
 10
7.6977624564
 20
-26.5272107616
  0
LWPOLYLINE
  5
507
100
AcDbEntity
  8
IMPORT_IGES
100
AcDbPolyline
 62
253
  6
CONTINUOUS
 90
10
 70
0
 10
0.128987122
 20
-31.1713621251
 10
0.953928091
 20
-30.7216547299
 10
1.7732507288
 20
-30.268541574
 10
2.5869128929
 20
-29.8120460763
 10
3.3948711876
 20
-29.3521927158
 10
4.1970856275
 20
-28.8890043833
 10
4.9935195294
 20
-28.422502317
 10
5.7841333486
 20
-27.9527096602
 10
6.5688847912
 20
-27.4796515253
 10
7.3477334011
 20
-27.0033522994
  0
LWPOLYLINE
  5
508
100
AcDbEntity
  8
IMPORT_IGES
100
AcDbPolyline
 62
7
  6
CONTINUOUS
 90
10
 70
0
 10
-0.0786898448
 20
-31.6223439691
 10
0.7463224374
 20
-31.172596121
 10
1.5657686994
 20
-30.7194131318
 10
2.3796068505
 20
-30.2628175715
 10
3.1877952218
 20
-29.8028320937
 10
3.9902921083
 20
-29.3394796954
 10
4.787055811
 20
-28.8727837055
 10
5.5780452329
 20
-28.4027674399
 10
6.3632198408
 20
-27.9294542116
 10
7.142539235
 20
-27.4528675831
  0
LWPOLYLINE
  5
509
100
AcDbEntity
  8
IMPORT_IGES
100
AcDbPolyline
 62
7
  6
CONTINUOUS
 90
31
 70
0
 10
-13.3112759888
 20
-35.0869996502
 10
-13.4441537211
 20
-35.1572017991
 10
-13.577012716
 20
-35.2152956588
 10
-13.709553104
 20
-35.2622972221
 10
-13.8436098287
 20
-35.2995185559
 10
-13.9781124149
 20
-35.3270237303
 10
-14.1089258736
 20
-35.3447091035
 10
-14.2368176842
 20
-35.3535884466
 10
-14.3639765516
 20
-35.3542835431
 10
-14.4883080577
 20
-35.3471305388
 10
-14.6102380799
 20
-35.3325132183
 10
-14.7318076093
 20
-35.3102756428
 10
-14.8526063041
 20
-35.2803374353
 10
-14.9729510856
 20
-35.2423691239
 10
-15.0933591379
 20
-35.1957432881
 10
-15.2130332345
 20
-35.1401716926
 10
-15.3316628204
 20
-35.0751247912
 10
-15.448654229
 20
-35.0001151656
 10
-15.5622671688
 20
-34.9154708816
 10
-15.6720872056
 20
-34.8206930643
 10
-15.7765490906
 20
-34.7162687256
 10
-15.8723123535
 20
-34.6053032289
 10
-15.957151588
 20
-34.4913093999
 10
-16.0327192922
 20
-34.3732101538
 10
-16.1011902174
 20
-34.2473780136
 10
-16.1622412687
 20
-34.1126748193
 10
-16.2140242497
 20
-33.9712014331
 10
-16.25561416
 20
-33.823737849
 10
-16.2861678875
 20
-33.6711917877
 10
-16.304946682
 20
-33.5145649888
 10
-16.3113243092
 20
-33.3549767413
  0
LINE
  5
50A
100
AcDbEntity
  8
IMPORT_IGES
100
AcDbLine
 62
7
  6
CONTINUOUS
 10
-1.8307983072
 20
28.4052072253
 11
-1.7625216215
 21
28.4213322534
  0
LINE
  5
50B
100
AcDbEntity
  8
IMPORT_IGES
100
AcDbLine
 62
7
  6
CONTINUOUS
 10
-1.9379087701
 20
28.7852181238
 11
-1.8577534029
 21
28.8031572805
  0
LINE
  5
50C
100
AcDbEntity
  8
IMPORT_IGES
100
AcDbLine
 62
7
  6
CONTINUOUS
 10
-1.8577534029
 20
28.925627822
 11
-1.9379087701
 21
28.9076886653
  0
LINE
  5
50D
100
AcDbEntity
  8
IMPORT_IGES
100
AcDbLine
 62
7
  6
CONTINUOUS
 10
-1.8577534029
 20
28.8031572805
 11
-1.7750449112
 21
28.8173419127
  0
LINE
  5
50E
100
AcDbEntity
  8
IMPORT_IGES
100
AcDbLine
 62
7
  6
CONTINUOUS
 10
-1.7750449112
 20
28.9398124542
 11
-1.8577534029
 21
28.925627822
  0
LINE
  5
50F
100
AcDbEntity
  8
IMPORT_IGES
100
AcDbLine
 62
7
  6
CONTINUOUS
 10
-1.7625216215
 20
28.4213322534
 11
-1.6930363258
 21
28.4323578912
  0
LINE
  5
510
100
AcDbEntity
  8
IMPORT_IGES
100
AcDbLine
 62
7
  6
CONTINUOUS
 10
-1.7750449112
 20
28.8173419127
 11
-1.6897832951
 21
28.8277720204
  0
LINE
  5
511
100
AcDbEntity
  8
IMPORT_IGES
100
AcDbLine
 62
7
  6
CONTINUOUS
 10
-1.6897832951
 20
28.9502425619
 11
-1.7750449112
 21
28.9398124542
  0
LINE
  5
512
100
AcDbEntity
  8
IMPORT_IGES
100
AcDbLine
 62
7
  6
CONTINUOUS
 10
-1.6930363258
 20
28.4323578912
 11
-1.6228092906
 21
28.4382932955
  0
LINE
  5
513
100
AcDbEntity
  8
IMPORT_IGES
100
AcDbLine
 62
7
  6
CONTINUOUS
 10
-1.6897832951
 20
28.8277720204
 11
-1.6006009404
 21
28.8344200922
  0
LINE
  5
514
100
AcDbEntity
  8
IMPORT_IGES
100
AcDbLine
 62
7
  6
CONTINUOUS
 10
-1.6006009404
 20
28.9568906337
 11
-1.6897832951
 21
28.9502425619
  0
LINE
  5
515
100
AcDbEntity
  8
IMPORT_IGES
100
AcDbLine
 62
7
  6
CONTINUOUS
 10
-1.6006009404
 20
28.8344200922
 11
-1.5088654614
 21
28.8373136395
  0
LINE
  5
516
100
AcDbEntity
  8
IMPORT_IGES
100
AcDbLine
 62
7
  6
CONTINUOUS
 10
-1.5088654614
 20
28.959784181
 11
-1.6006009404
 21
28.9568906337
  0
LINE
  5
517
100
AcDbEntity
  8
IMPORT_IGES
100
AcDbLine
 62
7
  6
CONTINUOUS
 10
-1.6228092906
 20
28.4382932955
 11
-1.5532411275
 21
28.4391659374
  0
LINE
  5
518
100
AcDbEntity
  8
IMPORT_IGES
100
AcDbLine
 62
7
  6
CONTINUOUS
 10
-1.5088654614
 20
28.8373136395
 11
-1.4186797003
 21
28.8365351966
  0
LINE
  5
519
100
AcDbEntity
  8
IMPORT_IGES
100
AcDbLine
 62
7
  6
CONTINUOUS
 10
-1.4186797003
 20
28.9590057382
 11
-1.5088654614
 21
28.959784181
  0
LINE
  5
51A
100
AcDbEntity
  8
IMPORT_IGES
100
AcDbLine
 62
7
  6
CONTINUOUS
 10
-1.4186797003
 20
28.8365351966
 11
-1.3303921272
 21
28.8317439494
  0
LINE
  5
51B
100
AcDbEntity
  8
IMPORT_IGES
100
AcDbLine
 62
7
  6
CONTINUOUS
 10
-1.3303921272
 20
28.9542144909
 11
-1.4186797003
 21
28.9590057382
  0
LINE
  5
51C
100
AcDbEntity
  8
IMPORT_IGES
100
AcDbLine
 62
7
  6
CONTINUOUS
 10
-1.5532411275
 20
28.4391659374
 11
-1.4839612218
 21
28.4347543631
  0
LINE
  5
51D
100
AcDbEntity
  8
IMPORT_IGES
100
AcDbLine
 62
7
  6
CONTINUOUS
 10
-1.3303921272
 20
28.8317439494
 11
-1.2436542721
 21
28.8232807121
  0
LINE
  5
51E
100
AcDbEntity
  8
IMPORT_IGES
100
AcDbLine
 62
7
  6
CONTINUOUS
 10
-1.2436542721
 20
28.9457512536
 11
-1.3303921272
 21
28.9542144909
  0
LINE
  5
51F
100
AcDbEntity
  8
IMPORT_IGES
100
AcDbLine
 62
7
  6
CONTINUOUS
 10
-1.2436542721
 20
28.8232807121
 11
-1.1615235661
 21
28.8122504618
  0
LINE
  5
520
100
AcDbEntity
  8
IMPORT_IGES
100
AcDbLine
 62
7
  6
CONTINUOUS
 10
-1.1615235661
 20
28.9347210033
 11
-1.2436542721
 21
28.9457512536
  0
LINE
  5
521
100
AcDbEntity
  8
IMPORT_IGES
100
AcDbLine
 62
7
  6
CONTINUOUS
 10
-1.1615235661
 20
28.8122504618
 11
-1.085032171
 21
28.7986178122
  0
LINE
  5
522
100
AcDbEntity
  8
IMPORT_IGES
100
AcDbLine
 62
7
  6
CONTINUOUS
 10
-1.0850321709
 20
28.9210883537
 11
-1.1615235661
 21
28.9347210033
  0
LWPOLYLINE
  5
523
100
AcDbEntity
  8
IMPORT_IGES
100
AcDbPolyline
 62
7
  6
CONTINUOUS
 90
26
 70
0
 10
13.1761219851
 20
26.8793301414
 10
12.9903442889
 20
26.9552025059
 10
12.8072723384
 20
27.0155298026
 10
12.6275539983
 20
27.06096478
 10
12.4523890515
 20
27.0920951978
 10
12.2816403921
 20
27.109817585
 10
12.1140172203
 20
27.1148531092
 10
11.9500266008
 20
27.1075677292
 10
11.7903928496
 20
27.0883926829
 10
11.6344207744
 20
27.0575224817
 10
11.4828548098
 20
27.0152566804
 10
11.3363615132
 20
26.9619637298
 10
11.194389068
 20
26.8974851355
 10
11.0578171433
 20
26.822132648
 10
10.9273206145
 20
26.7362217393
 10
10.8023458033
 20
26.639118217
 10
10.6836448881
 20
26.5308790482
 10
10.5722684499
 20
26.4119394086
 10
10.4683867759
 20
26.2818143039
 10
10.372870288
 20
26.1406861968
 10
10.2866507375
 20
25.9889693921
 10
10.210146048
 20
25.8261628214
 10
10.143940112
 20
25.651599219
 10
10.0893110601
 20
25.4663847534
 10
10.0473656757
 20
25.2725072154
 10
10.0418527311
 20
25.2338376393
  0
LWPOLYLINE
  5
524
100
AcDbEntity
  8
IMPORT_IGES
100
AcDbPolyline
 62
7
  6
CONTINUOUS
 90
8
 70
0
 10
13.1761219851
 20
26.8793301414
 10
13.1939907556
 20
26.8708769437
 10
13.2458973289
 20
26.8412459563
 10
13.2943355589
 20
26.8056986257
 10
13.3392581025
 20
26.7641508291
 10
13.3807123027
 20
26.7166866894
 10
13.4180162439
 20
26.6640289261
 10
13.4500289886
 20
26.6079992409
  0
LINE
  5
525
100
AcDbEntity
  8
IMPORT_IGES
100
AcDbLine
 62
7
  6
CONTINUOUS
 10
10.1545729909
 20
28.8609011435
 11
9.7303033433
 21
29.1058691207
  0
LINE
  5
526
100
AcDbEntity
  8
IMPORT_IGES
100
AcDbLine
 62
253
  6
CONTINUOUS
 10
-11.6474970205
 20
42.6509916949
 11
-12.0237068129
 21
42.868210514
  0
LWPOLYLINE
  5
527
100
AcDbEntity
  8
IMPORT_IGES
100
AcDbPolyline
 62
253
  6
CONTINUOUS
 90
13
 70
0
 10
22.4636196551
 20
19.8939089738
 10
23.1360608529
 20
19.284185695
 10
23.7861997901
 20
18.6656537986
 10
24.4140312537
 20
18.0382731784
 10
25.0197835197
 20
17.4017077256
 10
25.6032119162
 20
16.7561845035
 10
26.1635989714
 20
16.1025124606
 10
26.7008967398
 20
15.4406325553
 10
27.2151249819
 20
14.7704837068
 10
27.7056653117
 20
14.0928939812
 10
28.1722986784
 20
13.4081033364
 10
28.6152049523
 20
12.7157447487
 10
29.0343616264
 20
12.0157420494
  0
LWPOLYLINE
  5
528
100
AcDbEntity
  8
IMPORT_IGES
100
AcDbPolyline
 62
253
  6
CONTINUOUS
 90
3
 70
0
 10
22.0272107588
 20
20.4198558915
 10
22.2016435674
 20
20.2191212854
 10
22.4636198239
 20
19.8939103318
  0
LWPOLYLINE
  5
529
100
AcDbEntity
  8
IMPORT_IGES
100
AcDbPolyline
 62
253
  6
CONTINUOUS
 90
58
 70
0
 10
22.4636196551
 20
19.8939089738
 10
22.6627243673
 20
19.4433071421
 10
22.8317529361
 20
18.9906561358
 10
22.9706890707
 20
18.5358911038
 10
23.0796222648
 20
18.0784124314
 10
23.1584256633
 20
17.618654413
 10
23.2067567837
 20
17.1581134996
 10
23.22444189
 20
16.6964194794
 10
23.2116108729
 20
16.2337718941
 10
23.1683775398
 20
15.7725759914
 10
23.0946692568
 20
15.3132260414
 10
22.9905148815
 20
14.8551978078
 10
22.8561829574
 20
14.3995697177
 10
22.6915502038
 20
13.9460722086
 10
22.496697927
 20
13.4948288957
 10
22.272205261
 20
13.0475498511
 10
22.0176871105
 20
12.6039613121
 10
21.7334938084
 20
12.1642078116
 10
21.4213149459
 20
11.7306996177
 10
21.0811235089
 20
11.303650866
 10
20.7129262046
 20
10.8827806802
 10
20.3184722799
 20
10.4698371463
 10
19.8977072348
 20
10.0649914878
 10
19.4506796586
 20
9.6680399641
 10
18.9793015445
 20
9.280230535
 10
18.4836161039
 20
8.9016012275
 10
17.9635880351
 20
8.5321018904
 10
17.4210186682
 20
8.1729009498
 10
16.8559529339
 20
7.8240386554
 10
16.2683664094
 20
7.4854786857
 10
15.6599623873
 20
7.1583221489
 10
15.0302824592
 20
6.842461892
 10
14.3798159041
 20
6.5380152541
 10
13.7116931168
 20
6.2464810484
 10
13.0261924928
 20
5.968062214
 10
12.3230759797
 20
5.7026137757
 10
11.6047033052
 20
5.4511763752
 10
10.8708597832
 20
5.2138030209
 10
10.1218040645
 20
4.9905083152
 10
9.3606074304
 20
4.7823309157
 10
8.586987951
 20
4.5893839521
 10
7.8012710835
 20
4.4116445352
 10
7.0074384603
 20
4.250013777
 10
6.2057296315
 20
4.1047126145
 10
5.3959427287
 20
3.975646702
 10
4.5813941682
 20
3.8633061062
 10
3.7628887068
 20
3.7678150386
 10
2.9396490776
 20
3.689189844
 10
2.1126149127
 20
3.6277875101
 10
1.2801731739
 20
3.5837246914
 10
0.4439549066
 20
3.5569756896
 10
-0.39024022
 20
3.5477314899
 10
-1.2219667969
 20
3.556207884
 10
-2.0516697065
 20
3.5823385921
 10
-2.8748934321
 20
3.6259659575
 10
-3.6901591901
 20
3.6871079423
 10
-4.4989617732
 20
3.7659164663
 10
-5.3013112905
 20
3.8624569865
  0
LWPOLYLINE
  5
52A
100
AcDbEntity
  8
IMPORT_IGES
100
AcDbPolyline
 62
7
  6
CONTINUOUS
 90
4
 70
0
 10
30.708638314
 20
4.2225490875
 10
30.7079061074
 20
4.2482485602
 10
30.7022472417
 20
4.2913059975
 10
30.6979801534
 20
4.3074597922
  0
LWPOLYLINE
  5
52B
100
AcDbEntity
  8
IMPORT_IGES
100
AcDbPolyline
 62
253
  6
CONTINUOUS
 90
10
 70
0
 10
30.4158225037
 20
3.8174386402
 10
30.4021533859
 20
3.046224813
 10
30.3756778346
 20
2.2683500004
 10
30.3363958498
 20
1.4838142023
 10
30.2842836032
 20
0.6923246864
 10
30.2193649231
 20
-0.1058258149
 10
30.1417112945
 20
-0.9097591045
 10
30.0513465456
 20
-1.7191824501
 10
29.9482468483
 20
-2.5343885839
 10
29.8324122024
 20
-3.355377506
  0
LWPOLYLINE
  5
52C
100
AcDbEntity
  8
IMPORT_IGES
100
AcDbPolyline
 62
7
  6
CONTINUOUS
 90
10
 70
0
 10
30.7086974545
 20
4.2225489029
 10
30.6948417371
 20
3.44341064
 10
30.6678217274
 20
2.6493857833
 10
30.6277349752
 20
1.8486844708
 10
30.5746074107
 20
1.0415844762
 10
30.5084694723
 20
0.2283735837
 10
30.4293569207
 20
-0.5906485374
 10
30.3373094627
 20
-1.4151880991
 10
30.2323698893
 20
-2.2449592103
 10
30.1145854255
 20
-3.0796700118
  0
LWPOLYLINE
  5
52D
100
AcDbEntity
  8
IMPORT_IGES
100
AcDbPolyline
 62
7
  6
CONTINUOUS
 90
12
 70
0
 10
30.7086397189
 20
4.3921621917
 10
30.7080102655
 20
4.3681205066
 10
30.7025565264
 20
4.3250578814
 10
30.6914527615
 20
4.28235921
 10
30.6747921567
 20
4.2400190817
 10
30.6528530811
 20
4.1987436735
 10
30.62554698
 20
4.1585509238
 10
30.592962408
 20
4.1194228941
 10
30.5556433983
 20
4.0820119464
 10
30.513771295
 20
4.0465355345
 10
30.467164754
 20
4.0127762044
 10
30.4158237752
 20
3.9807339563
  0
LINE
  5
52E
100
AcDbEntity
  8
IMPORT_IGES
100
AcDbLine
 62
7
  6
CONTINUOUS
 10
30.1145854255
 20
-3.0796700118
 11
30.1145772637
 21
-3.0797249796
  0
LWPOLYLINE
  5
52F
100
AcDbEntity
  8
IMPORT_IGES
100
AcDbPolyline
 62
253
  6
CONTINUOUS
 90
11
 70
0
 10
30.1145772637
 20
-3.0797249796
 10
30.1119082187
 20
-3.0944453655
 10
30.1015249606
 20
-3.1295154451
 10
30.0856629175
 20
-3.1634820373
 10
30.064411121
 20
-3.1961544922
 10
30.0378888545
 20
-3.2273494239
 10
30.0062449838
 20
-3.2568917395
 10
29.9696571218
 20
-3.284615622
 10
29.9283306309
 20
-3.3103654611
 10
29.8824974712
 20
-3.3339967265
 10
29.8324148979
 20
-3.355376779
  0
LWPOLYLINE
  5
530
100
AcDbEntity
  8
IMPORT_IGES
100
AcDbPolyline
 62
253
  6
CONTINUOUS
 90
13
 70
0
 10
29.8324122024
 20
-3.355377506
 10
29.8271549483
 20
-3.3829245106
 10
29.8194748986
 20
-3.4109024446
 10
29.8093720532
 20
-3.4393113078
 10
29.7967364679
 20
-3.4685300699
 10
29.7816780869
 20
-3.4981797613
 10
29.7645267433
 20
-3.5271234729
 10
29.7451513823
 20
-3.555353486
 10
29.7236830587
 20
-3.5828775194
 10
29.7008447704
 20
-3.6085818205
 10
29.6768775164
 20
-3.6320951382
 10
29.6515402977
 20
-3.6537887236
 10
29.6248331142
 20
-3.6736625766
  0
LWPOLYLINE
  5
531
100
AcDbEntity
  8
IMPORT_IGES
100
AcDbPolyline
 62
253
  6
CONTINUOUS
 90
10
 70
0
 10
-6.1795963255
 20
-38.4583697029
 10
-6.0617210016
 20
-38.3840955359
 10
-5.9555057993
 20
-38.3041722078
 10
-5.8617590803
 20
-38.2192079833
 10
-5.7811943138
 20
-38.1298494916
 10
-5.7144246463
 20
-38.0367768048
 10
-5.6619582353
 20
-37.940698262
 10
-5.6241943819
 20
-37.8423450792
 10
-5.6014204917
 20
-37.7424657834
 10
-5.5938098879
 20
-37.6418205163
  0
LWPOLYLINE
  5
532
100
AcDbEntity
  8
IMPORT_IGES
100
AcDbPolyline
 62
7
  6
CONTINUOUS
 90
12
 70
0
 10
0.5025627597
 20
-36.5604491568
 10
0.6017493963
 20
-36.4987277232
 10
0.6926702064
 20
-36.4328991486
 10
0.7748167241
 20
-36.3633315729
 10
0.8477295526
 20
-36.2904140464
 10
0.9110009339
 20
-36.2145543533
 10
0.9642770287
 20
-36.1361767319
 10
1.0072598956
 20
-36.0557195015
 10
1.0397091568
 20
-35.9736326118
 10
1.061443343
 20
-35.8903751258
 10
1.0723409078
 20
-35.8064126531
 10
1.0737045334
 20
-35.7643137015
  0
LWPOLYLINE
  5
533
100
AcDbEntity
  8
IMPORT_IGES
100
AcDbPolyline
 62
7
  6
CONTINUOUS
 90
10
 70
0
 10
12.1845959721
 20
29.7880492993
 10
12.4139286471
 20
29.6856851809
 10
12.6404811541
 20
29.581397374
 10
12.8642534932
 20
29.4751858786
 10
13.0852948932
 20
29.3670258651
 10
13.3035561253
 20
29.2569421631
 10
13.5188895023
 20
29.1450092609
 10
13.7312457954
 20
29.0312519881
 10
13.9406742336
 20
28.9156455151
 10
14.1471748167
 20
28.798189842
  0
LWPOLYLINE
  5
534
100
AcDbEntity
  8
IMPORT_IGES
100
AcDbPolyline
 62
7
  6
CONTINUOUS
 90
11
 70
0
 10
-11.7666556008
 20
42.8680714721
 10
-11.7736438568
 20
42.8719334841
 10
-11.7988548661
 20
42.8832609121
 10
-11.8257801487
 20
42.8915107519
 10
-11.8541781127
 20
42.896582058
 10
-11.8838655388
 20
42.8984404507
 10
-11.9146631492
 20
42.8970768878
 10
-11.9463246333
 20
42.8924504883
 10
-11.9786326707
 20
42.884569145
 10
-12.0113973345
 20
42.8734998271
 10
-12.0444055527
 20
42.8593163828
  0
LINE
  5
535
100
AcDbEntity
  8
IMPORT_IGES
100
AcDbLine
 62
7
  6
CONTINUOUS
 10
14.1471748167
 20
28.798189842
 11
14.1874974224
 21
28.774556204
  0
LWPOLYLINE
  5
536
100
AcDbEntity
  8
IMPORT_IGES
100
AcDbPolyline
 62
7
  6
CONTINUOUS
 90
12
 70
0
 10
29.9702765053
 20
11.6742401722
 10
29.4670465046
 20
12.5028553479
 10
28.858413257
 20
13.4292048773
 10
28.209044411
 20
14.342226594
 10
27.5192963502
 20
15.2414608151
 10
26.7896716988
 20
16.1262856929
 10
26.0209002036
 20
16.9959295995
 10
25.2135322964
 20
17.8498810113
 10
24.3681075112
 20
18.6876465251
 10
23.4854693052
 20
19.5085165146
 10
22.5663156399
 20
20.311986992
 10
22.0235917497
 20
20.7584375164
  0
LINE
  5
537
100
AcDbEntity
  8
IMPORT_IGES
100
AcDbLine
 62
7
  6
CONTINUOUS
 10
29.9702974227
 20
11.6742118903
 11
29.9703723005
 21
11.6740836956
  0
LWPOLYLINE
  5
538
100
AcDbEntity
  8
IMPORT_IGES
100
AcDbPolyline
 62
253
  6
CONTINUOUS
 90
16
 70
0
 10
29.8324068041
 20
10.7227591082
 10
29.8285129997
 20
10.7405462963
 10
29.8230069645
 20
10.7569472305
 10
29.8158886986
 20
10.7719619108
 10
29.8071086678
 20
10.7857602478
 10
29.7967164063
 20
10.7981723309
 10
29.7848605166
 20
10.8086884288
 10
29.7714634646
 20
10.8172270496
 10
29.7566027845
 20
10.8238696851
 10
29.7406596809
 20
10.8283510791
 10
29.7236946245
 20
10.8306178542
 10
29.7056471446
 20
10.8307233879
 10
29.6867170345
 20
10.8285625565
 10
29.6669708917
 20
10.8241003186
 10
29.6463421187
 20
10.8173717157
 10
29.6248307155
 20
10.8083767476
  0
LWPOLYLINE
  5
539
100
AcDbEntity
  8
IMPORT_IGES
100
AcDbPolyline
 62
7
  6
CONTINUOUS
 90
6
 70
0
 10
30.1108758988
 20
11.2865997193
 10
30.0964479926
 20
11.3573502569
 10
30.0723265753
 20
11.4444636448
 10
30.041691636
 20
11.529081134
 10
30.004720118
 20
11.610699821
 10
29.9703723005
 20
11.6740836956
  0
LINE
  5
53A
100
AcDbEntity
  8
IMPORT_IGES
100
AcDbLine
 62
7
  6
CONTINUOUS
 10
30.1108930374
 20
11.2864845965
 11
30.1108689295
 21
11.2866243937
  0
LWPOLYLINE
  5
53B
100
AcDbEntity
  8
IMPORT_IGES
100
AcDbPolyline
 62
253
  6
CONTINUOUS
 90
10
 70
0
 10
29.8324068041
 20
10.7227591082
 10
29.9482423542
 20
10.0087325874
 10
30.0513427854
 20
9.285728062
 10
30.1417080978
 20
8.5537455322
 10
30.2193620709
 20
7.8125102112
 10
30.2842809252
 20
7.0622968857
 10
30.3363933214
 20
6.3039299159
 10
30.3756754799
 20
5.5376840886
 10
30.4021511802
 20
4.7632846169
 10
30.4158204225
 20
3.980731501
  0
LWPOLYLINE
  5
53C
100
AcDbEntity
  8
IMPORT_IGES
100
AcDbPolyline
 62
7
  6
CONTINUOUS
 90
10
 70
0
 10
30.1108930374
 20
11.2864845965
 10
30.229689872
 20
10.5543559847
 10
30.3354399115
 20
9.8128900864
 10
30.428118034
 20
9.0623487431
 10
30.5077045017
 20
8.3029825171
 10
30.5741805562
 20
7.5350711303
 10
30.6275306188
 20
6.7589265841
 10
30.6677471716
 20
5.974837603
 10
30.694828509
 20
5.1830664128
 10
30.7086991415
 20
4.3921623746
  0
LWPOLYLINE
  5
53D
100
AcDbEntity
  8
IMPORT_IGES
100
AcDbPolyline
 62
7
  6
CONTINUOUS
 90
19
 70
0
 10
0.5379180984
 20
-36.6216864005
 10
0.4092797557
 20
-36.6897461353
 10
0.2708574091
 20
-36.7510734621
 10
0.1237045365
 20
-36.8052016429
 10
-0.0310589401
 20
-36.8517187296
 10
-0.192255177
 20
-36.890270699
 10
-0.3586573736
 20
-36.9205641473
 10
-0.5289991087
 20
-36.9423685232
 10
-0.7019839787
 20
-36.9555178821
 10
-0.8762954645
 20
-36.9599121495
 10
-1.0506069502
 20
-36.9555178823
 10
-1.2235918203
 20
-36.9423685236
 10
-1.3939335554
 20
-36.920564148
 10
-1.5603357522
 20
-36.8902706998
 10
-1.7215319894
 20
-36.8517187306
 10
-1.876295466
 20
-36.8052016442
 10
-2.0234483386
 20
-36.7510734637
 10
-2.1618706849
 20
-36.6897461372
 10
-2.2905090275
 20
-36.6216864029
  0
LWPOLYLINE
  5
53E
100
AcDbEntity
  8
IMPORT_IGES
100
AcDbPolyline
 62
7
  6
CONTINUOUS
 90
31
 70
0
 10
-6.5937615675
 20
-39.3738434252
 10
-6.7266392998
 20
-39.4440455741
 10
-6.8594982947
 20
-39.5021394338
 10
-6.9920386827
 20
-39.5491409971
 10
-7.1260954074
 20
-39.5863623309
 10
-7.2605979937
 20
-39.6138675053
 10
-7.3914114523
 20
-39.6315528785
 10
-7.519303263
 20
-39.6404322217
 10
-7.6464621303
 20
-39.6411273181
 10
-7.7707936364
 20
-39.6339743138
 10
-7.8927236586
 20
-39.6193569933
 10
-8.014293188
 20
-39.5971194178
 10
-8.1350918829
 20
-39.5671812103
 10
-8.2554366643
 20
-39.5292128989
 10
-8.3758447166
 20
-39.4825870631
 10
-8.4955188132
 20
-39.4270154676
 10
-8.6141483992
 20
-39.3619685662
 10
-8.7311398078
 20
-39.2869589406
 10
-8.8447527475
 20
-39.2023146566
 10
-8.9545727844
 20
-39.1075368393
 10
-9.0590346693
 20
-39.0031125006
 10
-9.1547979322
 20
-38.8921470039
 10
-9.2396371667
 20
-38.7781531749
 10
-9.3152048709
 20
-38.6600539289
 10
-9.3836757961
 20
-38.5342217886
 10
-9.4447268475
 20
-38.3995185943
 10
-9.4965098284
 20
-38.2580452081
 10
-9.5380997387
 20
-38.1105816241
 10
-9.5686534662
 20
-37.9580355627
 10
-9.5874322607
 20
-37.8014087638
 10
-9.5938098879
 20
-37.6418205163
  0
LWPOLYLINE
  5
53F
100
AcDbEntity
  8
IMPORT_IGES
100
AcDbPolyline
 62
253
  6
CONTINUOUS
 90
10
 70
0
 10
0.5379180984
 20
-41.9287431996
 10
0.6557934221
 20
-41.8544690324
 10
0.7620086242
 20
-41.7745457041
 10
0.8557553429
 20
-41.6895814796
 10
0.9363201091
 20
-41.6002229878
 10
1.0030897762
 20
-41.5071503009
 10
1.0555561869
 20
-41.4110717582
 10
1.09332004
 20
-41.3127185754
 10
1.1160939298
 20
-41.2128392796
 10
1.1237045334
 20
-41.1121940145
  0
LWPOLYLINE
  5
540
100
AcDbEntity
  8
IMPORT_IGES
100
AcDbPolyline
 62
7
  6
CONTINUOUS
 90
31
 70
0
 10
0.1237528537
 20
-42.8442169234
 10
-0.0091248785
 20
-42.9144190723
 10
-0.1419838735
 20
-42.972512932
 10
-0.2745242614
 20
-43.0195144953
 10
-0.4085809861
 20
-43.0567358291
 10
-0.5430835724
 20
-43.0842410035
 10
-0.6738970311
 20
-43.1019263767
 10
-0.8017888417
 20
-43.1108057199
 10
-0.928947709
 20
-43.1115008163
 10
-1.0532792152
 20
-43.104347812
 10
-1.1752092374
 20
-43.0897304915
 10
-1.2967787668
 20
-43.067492916
 10
-1.4175774616
 20
-43.0375547085
 10
-1.5379222431
 20
-42.9995863971
 10
-1.6583302954
 20
-42.9529605614
 10
-1.7780043919
 20
-42.8973889658
 10
-1.8966339779
 20
-42.8323420644
 10
-2.0136253865
 20
-42.7573324388
 10
-2.1272383262
 20
-42.6726881548
 10
-2.2370583631
 20
-42.5779103376
 10
-2.341520248
 20
-42.4734859989
 10
-2.4372835109
 20
-42.3625205021
 10
-2.5221227455
 20
-42.2485266732
 10
-2.5976904497
 20
-42.1304274271
 10
-2.6661613748
 20
-42.0045952868
 10
-2.7272124262
 20
-41.8698920925
 10
-2.7789954071
 20
-41.7284187063
 10
-2.8205853174
 20
-41.5809551223
 10
-2.8511390449
 20
-41.428409061
 10
-2.8699178394
 20
-41.271782262
 10
-2.8762954666
 20
-41.1121940145
  0
LWPOLYLINE
  5
541
100
AcDbEntity
  8
IMPORT_IGES
100
AcDbPolyline
 62
253
  6
CONTINUOUS
 90
9
 70
0
 10
15.0654662031
 20
38.7385109691
 10
15.0433660335
 20
38.7499384502
 10
15.0215063971
 20
38.7585757926
 10
15.0001252004
 20
38.7643289922
 10
14.9794551433
 20
38.7671354344
 10
14.9597211857
 20
38.7669645747
 10
14.9411380984
 20
38.7638182708
 10
14.9239081294
 20
38.7577307648
 10
14.915459306
 20
38.753373525
  0
LWPOLYLINE
  5
542
100
AcDbEntity
  8
IMPORT_IGES
100
AcDbPolyline
 62
253
  6
CONTINUOUS
 90
9
 70
0
 10
10.5399828035
 20
41.3514683664
 10
10.5178826339
 20
41.3628958475
 10
10.4960229975
 20
41.3715331899
 10
10.4746418008
 20
41.3772863895
 10
10.4539717437
 20
41.3800928317
 10
10.4342377861
 20
41.379921972
 10
10.4156546988
 20
41.3767756681
 10
10.3984247298
 20
41.3706881621
 10
10.3899759064
 20
41.3663309223
  0
LINE
  5
543
100
AcDbEntity
  8
IMPORT_IGES
100
AcDbLine
 62
253
  6
CONTINUOUS
 10
14.6800543236
 20
37.3323099476
 11
14.355793429
 21
37.5195341242
  0
LINE
  5
544
100
AcDbEntity
  8
IMPORT_IGES
100
AcDbLine
 62
253
  6
CONTINUOUS
 10
10.154570924
 20
39.9452673449
 11
9.8303100294
 21
40.1324915215
  0
LINE
  5
545
100
AcDbEntity
  8
IMPORT_IGES
100
AcDbLine
 62
253
  6
CONTINUOUS
 10
10.5399830987
 20
41.3514684792
 11
10.8590920709
 21
41.1672189579
  0
LINE
  5
546
100
AcDbEntity
  8
IMPORT_IGES
100
AcDbLine
 62
253
  6
CONTINUOUS
 10
15.0654664982
 20
38.7385110819
 11
15.3845754705
 21
38.5542615606
  0
LWPOLYLINE
  5
547
100
AcDbEntity
  8
IMPORT_IGES
100
AcDbPolyline
 62
253
  6
CONTINUOUS
 90
9
 70
0
 10
9.8303078947
 20
40.1324928802
 10
9.809299248
 20
40.146092351
 10
9.790843853
 20
40.1608708654
 10
9.7751441018
 20
40.1766666268
 10
9.7623721185
 20
40.1933068336
 10
9.7526682476
 20
40.2106090962
 10
9.7461392137
 20
40.2283833783
 10
9.7428565642
 20
40.2464347645
 10
9.7424493585
 20
40.2564117763
  0
LWPOLYLINE
  5
548
100
AcDbEntity
  8
IMPORT_IGES
100
AcDbPolyline
 62
253
  6
CONTINUOUS
 90
9
 70
0
 10
14.3557912943
 20
37.5195354829
 10
14.3347826476
 20
37.5331349537
 10
14.3163272526
 20
37.5479134681
 10
14.3006275014
 20
37.5637092295
 10
14.2878555181
 20
37.5803494363
 10
14.2781516472
 20
37.5976516989
 10
14.2716226133
 20
37.615425981
 10
14.2683399638
 20
37.6334773672
 10
14.2679327581
 20
37.643454379
  0
LWPOLYLINE
  5
549
100
AcDbEntity
  8
IMPORT_IGES
100
AcDbPolyline
 62
7
  6
CONTINUOUS
 90
9
 70
0
 10
16.2688136087
 20
39.4333086795
 10
16.2498725356
 20
39.4468574085
 10
16.2310675857
 20
39.4574085113
 10
16.2126398056
 20
39.4648950449
 10
16.1948599293
 20
39.4692950889
 10
16.1779041369
 20
39.4706035903
 10
16.1618616954
 20
39.468803878
 10
16.1469099437
 20
39.463925938
 10
16.1398953318
 20
39.4603475405
  0
LINE
  5
54A
100
AcDbEntity
  8
IMPORT_IGES
100
AcDbLine
 62
7
  6
CONTINUOUS
 10
16.2688136507
 20
39.4333086462
 11
16.3287397619
 21
39.3858988128
  0
LINE
  5
54B
100
AcDbEntity
  8
IMPORT_IGES
100
AcDbLine
 62
7
  6
CONTINUOUS
 10
16.3287397619
 20
39.3858988128
 11
16.3882386303
 21
39.3383106184
  0
LINE
  5
54C
100
AcDbEntity
  8
IMPORT_IGES
100
AcDbLine
 62
7
  6
CONTINUOUS
 10
16.3882386303
 20
39.3383106184
 11
16.447309647
 21
39.2905445541
  0
LWPOLYLINE
  5
54D
100
AcDbEntity
  8
IMPORT_IGES
100
AcDbPolyline
 62
7
  6
CONTINUOUS
 90
3
 70
0
 10
16.447309647
 20
39.2905445541
 10
16.5059503768
 20
39.2426025835
 10
16.5351095363
 20
39.2185655107
  0
LWPOLYLINE
  5
54E
100
AcDbEntity
  8
IMPORT_IGES
100
AcDbPolyline
 62
7
  6
CONTINUOUS
 90
9
 70
0
 10
11.6905171076
 20
42.0157724539
 10
11.6639522607
 20
42.0249934071
 10
11.6377897153
 20
42.031347811
 10
11.6122726218
 20
42.0347691547
 10
11.5876089001
 20
42.0351999821
 10
11.56404098
 20
42.0326725982
 10
11.5418527847
 20
42.0272824229
 10
11.5212303321
 20
42.019068064
 10
11.511932364
 20
42.0141345195
  0
LINE
  5
54F
100
AcDbEntity
  8
IMPORT_IGES
100
AcDbLine
 62
7
  6
CONTINUOUS
 10
11.6905171661
 20
42.0157724301
 11
11.8151804834
 21
41.965077879
  0
LINE
  5
550
100
AcDbEntity
  8
IMPORT_IGES
100
AcDbLine
 62
7
  6
CONTINUOUS
 10
11.8151804834
 20
41.965077879
 11
11.9391570539
 21
41.9138248554
  0
LINE
  5
551
100
AcDbEntity
  8
IMPORT_IGES
100
AcDbLine
 62
7
  6
CONTINUOUS
 10
11.9391570539
 20
41.9138248554
 11
12.0624392249
 21
41.8620165232
  0
LINE
  5
552
100
AcDbEntity
  8
IMPORT_IGES
100
AcDbLine
 62
253
  6
CONTINUOUS
 10
14.5581614895
 20
43.6649577042
 11
14.5642693508
 21
43.6617743907
  0
LWPOLYLINE
  5
553
100
AcDbEntity
  8
IMPORT_IGES
100
AcDbPolyline
 62
253
  6
CONTINUOUS
 90
82
 70
0
 10
14.5581614895
 20
43.6649577042
 10
13.9901211625
 20
43.9736551325
 10
13.4034918328
 20
44.2687064058
 10
12.7982735003
 20
44.5501115242
 10
12.1734198037
 20
44.8182903955
 10
11.5299771044
 20
45.0728231119
 10
10.8710844866
 20
45.3124499496
 10
10.1966086921
 20
45.5370846575
 10
9.506682979
 20
45.7468134867
 10
8.8048462056
 20
45.9406354668
 10
8.0916468673
 20
46.1183688683
 10
7.3665364687
 20
46.2801954207
 10
6.6314083814
 20
46.4256593425
 10
5.8855074704
 20
46.554846342
 10
5.1295888707
 20
46.6676707108
 10
4.3678113587
 20
46.7634195421
 10
3.6003966542
 20
46.8419483094
 10
2.8271230373
 20
46.9034015392
 10
2.0514841245
 20
46.9474999033
 10
1.2731906971
 20
46.9741381541
 10
0.4925319736
 20
46.9834215392
 10
-0.2861307735
 20
46.9753864725
 10
-1.0620556872
 20
46.9499915501
 10
-1.8359846246
 20
46.907278176
 10
-2.6057818843
 20
46.847406976
 10
-3.3718268132
 20
46.770333308
 10
-4.1337400644
 20
46.6761018141
 10
-4.8882478961
 20
46.5650070465
 10
-5.6356233982
 20
46.4368959695
 10
-6.3755934807
 20
46.2919216188
 10
-7.1040651317
 20
46.1308376536
 10
-7.8207430543
 20
45.9535863278
 10
-8.5259225454
 20
45.7602253875
 10
-9.2163964836
 20
45.5516817297
 10
-9.8920762144
 20
45.3278879737
 10
-10.5530503923
 20
45.0889115001
 10
-11.1963778606
 20
44.8358813481
 10
-11.8219411623
 20
44.5687531486
 10
-12.4298577543
 20
44.2875712706
 10
-13.0175388504
 20
43.99359786
 10
-13.5848971081
 20
43.6867860682
 10
-14.1320198698
 20
43.3671827438
 10
-14.6565803763
 20
43.0361905782
 10
-15.1584877656
 20
42.6937671645
 10
-15.6378328997
 20
42.3399549097
 10
-16.092561605
 20
41.976283726
 10
-16.5225778532
 20
41.6027164222
 10
-16.9279776726
 20
41.2192901895
 10
-17.3069949754
 20
40.8276465141
 10
-17.6595290545
 20
40.4277538205
 10
-17.9856806169
 20
40.0196436842
 10
-18.2839856953
 20
39.6050523176
 10
-18.5543747688
 20
39.1838138437
 10
-18.7969173582
 20
38.7560941395
 10
-19.0103580586
 20
38.324127048
 10
-19.1944705524
 20
37.8880232499
 10
-19.3494811572
 20
37.4476720645
 10
-19.4748134209
 20
37.0049752928
 10
-19.5703838296
 20
36.5601211901
 10
-19.6362758973
 20
36.1129215011
 10
-19.6721637134
 20
35.6647132615
 10
-19.6779467547
 20
35.2150881888
 10
-19.6537255446
 20
34.7644545654
 10
-19.5994757423
 20
34.3153742738
 10
-19.5150100081
 20
33.8680222822
 10
-19.4005156817
 20
33.4222236224
 10
-19.2565304419
 20
32.9800152729
 10
-19.0828012744
 20
32.541279261
 10
-18.8795811934
 20
32.1061335594
 10
-18.6481669193
 20
31.6769690638
 10
-18.3887441403
 20
31.2542490494
 10
-18.1011271681
 20
30.8375102409
 10
-17.7860556587
 20
30.4277537086
 10
-17.4432388739
 20
30.0246628764
 10
-17.0729675518
 20
29.6285543203
 10
-16.676853563
 20
29.2413788378
 10
-16.2547733436
 20
28.8631965587
 10
-15.8068504575
 20
28.4939473531
 10
-15.3350674657
 20
28.1354016293
 10
-14.840085222
 20
27.7881495232
 10
-14.3212428727
 20
27.4516008989
 10
-13.7785404178
 20
27.1257557562
  0
LWPOLYLINE
  5
554
100
AcDbEntity
  8
IMPORT_IGES
100
AcDbPolyline
 62
253
  6
CONTINUOUS
 90
62
 70
0
 10
14.2084908278
 20
43.0575362239
 10
13.6556245201
 20
43.3580676377
 10
13.0830579302
 20
43.6460393893
 10
12.491646333
 20
43.9210213192
 10
11.8822731534
 20
44.1826026713
 10
11.2558486465
 20
44.4303927068
 10
10.6133085378
 20
44.6640212877
 10
9.9556126259
 20
44.8831394299
 10
9.283743348
 20
45.0874198242
 10
8.5987043134
 20
45.2765573255
 10
7.9015188033
 20
45.4502694085
 10
7.1932282431
 20
45.6082965895
 10
6.4748906464
 20
45.7504028146
 10
5.7475790345
 20
45.8763758116
 10
5.0123798337
 20
45.9860274075
 10
4.2703912527
 20
46.0791938097
 10
3.5227216415
 20
46.1557358501
 10
2.7704878364
 20
46.2155391936
 10
2.0148134915
 20
46.2585145085
 10
1.2568274002
 20
46.2845976004
 10
0.4976618089
 20
46.2937495072
 10
-0.2615492738
 20
46.2859565584
 10
-1.0196717715
 20
46.2612303947
 10
-1.7755732339
 20
46.219607951
 10
-2.5281245285
 20
46.161151401
 10
-3.2762015268
 20
46.0859480646
 10
-4.0186867841
 20
45.9941102772
 10
-4.7544712082
 20
45.8857752222
 10
-5.4824557166
 20
45.7611047257
 10
-6.2015528777
 20
45.6202850151
 10
-6.9106885356
 20
45.4635264407
 10
-7.6088034142
 20
45.2910631616
 10
-8.2948547001
 20
45.103152796
 10
-8.9678175998
 20
44.9000760362
 10
-9.6266868706
 20
44.6821362293
 10
-10.2704783224
 20
44.4496589244
 10
-10.8982302875
 20
44.2029913859
 10
-11.5090050575
 20
43.942502075
 10
-12.1018902836
 20
43.6685800993
 10
-12.6760003398
 20
43.3816346315
 10
-13.2304776455
 20
43.0820942983
 10
-13.7644939467
 20
42.7704065398
 10
-14.277251553
 20
42.4470369417
 10
-14.7679845297
 20
42.1124685394
 10
-15.2359598411
 20
41.7672010965
 10
-15.6804784462
 20
41.4117503586
 10
-16.1008763424
 20
41.0466472824
 10
-16.4965255576
 20
40.672437243
 10
-16.8668350885
 20
40.289679219
 10
-17.2112517827
 20
39.8989449577
 10
-17.5292611655
 20
39.5008181208
 10
-17.8203882085
 20
39.0958934128
 10
-18.0841980388
 20
38.6847756927
 10
-18.3202965888
 20
38.2680790702
 10
-18.5283311846
 20
37.8464259884
 10
-18.7079910734
 20
37.4204462944
 10
-18.859007887
 20
36.9907762981
 10
-18.9811560431
 20
36.5580578217
 10
-19.0742530822
 20
36.1229372412
 10
-19.1381599398
 20
35.6860645209
 10
-19.1727811547
 20
35.248092242
 10
-19.1780706066
 20
34.8099360845
  0
LWPOLYLINE
  5
555
100
AcDbEntity
  8
IMPORT_IGES
100
AcDbPolyline
 62
7
  6
CONTINUOUS
 90
64
 70
0
 10
15.4988231754
 20
43.9105553106
 10
14.9193105514
 20
44.2328224617
 10
14.3200119787
 20
44.541900505
 10
13.7017751174
 20
44.837410823
 10
13.0655333156
 20
45.1189644775
 10
12.4121108823
 20
45.3862491148
 10
11.7422137102
 20
45.6390112101
 10
11.0566058227
 20
45.8769780356
 10
10.3563728038
 20
46.0997856503
 10
9.6427458344
 20
46.3070704759
 10
8.9168452434
 20
46.4985487322
 10
8.1795540031
 20
46.6740264533
 10
7.4317898611
 20
46.8333129339
 10
6.6745363571
 20
46.9762187978
 10
5.908880646
 20
47.1025571167
 10
5.1359165571
 20
47.2121669174
 10
4.3567601709
 20
47.3049109636
 10
3.5724296023
 20
47.3806874637
 10
2.7838858199
 20
47.4394158266
 10
1.992169097
 20
47.4810242915
 10
1.1984024603
 20
47.5054581833
 10
0.4036767433
 20
47.5126883564
 10
-0.3908997132
 20
47.5027086545
 10
-1.1842607967
 20
47.4755350784
 10
-1.9753793359
 20
47.4312015315
 10
-2.7631884158
 20
47.3697627752
 10
-3.5465943024
 20
47.2912977018
 10
-4.3245374473
 20
47.1959047001
 10
-5.0959349236
 20
47.0837075301
 10
-5.8597484012
 20
46.9548466378
 10
-6.6149995515
 20
46.8094718092
 10
-7.3606856872
 20
46.6477552625
 10
-8.095745764
 20
46.4699043742
 10
-8.819137541
 20
46.2761490097
 10
-9.5298300471
 20
46.066743459
 10
-10.2268828598
 20
45.8419405939
 10
-10.9094188503
 20
45.6019912897
 10
-11.5765760304
 20
45.3471559445
 10
-12.2273375449
 20
45.0777768556
 10
-12.8606413572
 20
44.7942557685
 10
-13.475549061
 20
44.4969828341
 10
-14.0712844618
 20
44.1862993637
 10
-14.6470839945
 20
43.862557622
 10
-15.2022957636
 20
43.5260589025
 10
-15.735976111
 20
43.1773034115
 10
-16.2470166931
 20
42.8169755291
 10
-16.7346774846
 20
42.4455854296
 10
-17.1983779228
 20
42.0635581423
 10
-17.6373734124
 20
41.6714911056
 10
-18.0512555304
 20
41.2697210899
 10
-18.4393001032
 20
40.858915333
 10
-18.8004768939
 20
40.4402228701
 10
-19.1342200559
 20
40.0144787014
 10
-19.4404259194
 20
39.5820019923
 10
-19.7188899411
 20
39.1432104505
 10
-19.9693965563
 20
38.6985221438
 10
-20.1915557012
 20
38.2487117423
 10
-20.384977963
 20
37.7947678685
 10
-20.5494786501
 20
37.3374666777
 10
-20.6850073811
 20
36.8773515116
 10
-20.7914947985
 20
36.4151139639
 10
-20.8689170706
 20
35.9514557999
 10
-20.9172988461
 20
35.487072956
 10
-20.9367103271
 20
35.0226694466
  0
LINE
  5
556
100
AcDbEntity
  8
IMPORT_IGES
100
AcDbLine
 62
253
  6
CONTINUOUS
 10
14.2926261968
 20
43.0097106722
 11
14.2084908278
 21
43.0575362239
  0
LINE
  5
557
100
AcDbEntity
  8
IMPORT_IGES
100
AcDbLine
 62
253
  6
CONTINUOUS
 10
14.5642693508
 20
43.6617743907
 11
14.613978332
 21
43.633398381
  0
LINE
  5
558
100
AcDbEntity
  8
IMPORT_IGES
100
AcDbLine
 62
253
  6
CONTINUOUS
 10
14.3595751509
 20
42.9712405793
 11
14.2926261968
 21
43.0097106722
  0
LINE
  5
559
100
AcDbEntity
  8
IMPORT_IGES
100
AcDbLine
 62
253
  6
CONTINUOUS
 10
14.613978332
 20
43.633398381
 11
14.712955253
 21
43.5763882742
  0
LINE
  5
55A
100
AcDbEntity
  8
IMPORT_IGES
100
AcDbLine
 62
253
  6
CONTINUOUS
 10
15.3469557742
 20
43.8289986308
 11
15.2487597505
 21
43.8857550759
  0
LWPOLYLINE
  5
55B
100
AcDbEntity
  8
IMPORT_IGES
100
AcDbPolyline
 62
253
  6
CONTINUOUS
 90
80
 70
0
 10
15.3469557742
 20
43.8289986308
 10
15.9064806367
 20
43.488341105
 10
16.4410677573
 20
43.1367290572
 10
16.9507171358
 20
42.7741624873
 10
17.4360591305
 20
42.4000951299
 10
17.8964633832
 20
42.0150732505
 10
18.3300388198
 20
41.6207356452
 10
18.736751957
 20
41.2169274537
 10
19.1166362781
 20
40.8038035363
 10
19.4679011599
 20
40.3834672699
 10
19.7902268189
 20
39.9562394383
 10
20.0839330387
 20
39.5217992576
 10
20.3481885464
 20
39.0812877536
 10
20.5831508152
 20
38.6342407353
 10
20.788662372
 20
38.1811223936
 10
20.9634195243
 20
37.7244663272
 10
21.10715271
 20
37.2644291416
 10
21.2201314913
 20
36.8008542314
 10
21.3018608621
 20
36.3358053793
 10
21.3521559503
 20
35.8690875689
 10
21.371201628
 20
35.4008958166
 10
21.359057505
 20
34.9338789546
 10
21.3156652454
 20
34.4685383019
 10
21.2410831851
 20
34.0043725396
 10
21.135545941
 20
33.5425265428
 10
20.9989419293
 20
33.0826673637
 10
20.8313827339
 20
32.6251279502
 10
20.6334377226
 20
32.1720520208
 10
20.4048494168
 20
31.7233500608
 10
20.1458752952
 20
31.279111585
 10
19.8578571628
 20
30.8417488569
 10
19.5406871651
 20
30.4114241589
 10
19.1944731565
 20
29.9879752086
 10
18.8208805058
 20
29.573327422
 10
18.4197891489
 20
29.167534231
 10
17.9913191499
 20
28.7705422037
 10
17.5374960692
 20
28.3841164613
 10
17.0582377721
 20
28.0083254784
 10
16.5536263935
 20
27.6431007803
 10
16.0259338984
 20
27.2900020645
 10
15.4750752316
 20
26.9490818733
 10
14.9011354485
 20
26.6202876643
 10
14.3066416803
 20
26.3050215079
 10
13.6915163696
 20
26.0033379817
 10
13.0558370739
 20
25.7151825081
 10
12.4023635969
 20
25.4417934253
 10
11.7310306121
 20
25.1832293544
 10
11.0419034459
 20
24.9394316743
 10
10.3379378812
 20
24.7114628597
 10
9.6190769699
 20
24.4993832784
 10
8.88537766
 20
24.3031325626
 10
8.1399665787
 20
24.123592084
 10
7.3825729744
 20
23.9608056762
 10
6.6134675986
 20
23.8147295057
 10
5.836589333
 20
23.686113443
 10
5.0520225236
 20
23.5750840906
 10
4.2596828243
 20
23.4815148461
 10
3.4632560782
 20
23.4057757721
 10
2.6632506395
 20
23.3479318341
 10
1.8591581539
 20
23.3079180666
 10
1.053139401
 20
23.2859096365
 10
0.2443576192
 20
23.2819561013
 10
-0.5663504301
 20
23.2960079036
 10
-1.3743136821
 20
23.3280915373
 10
-2.1791853931
 20
23.3783186052
 10
-2.981312307
 20
23.4465775046
 10
-3.7770635903
 20
23.5325599218
 10
-4.5666924117
 20
23.6364242359
 10
-5.3499456025
 20
23.7580120677
 10
-6.1224328235
 20
23.8965399657
 10
-6.8832949086
 20
24.0518961104
 10
-7.6333910239
 20
24.2241923213
 10
-8.3709083279
 20
24.4129806061
 10
-9.0964011651
 20
24.618428897
 10
-9.809315191
 20
24.8403692618
 10
-10.5061745304
 20
25.0778499109
 10
-11.186890391
 20
25.3309531087
 10
-11.8515515651
 20
25.5995965907
 10
-12.4969485544
 20
25.8825817746
 10
-13.1220115262
 20
26.1795091328
  0
ELLIPSE
  5
55C
100
AcDbEntity
  8
IMPORT_IGES
100
AcDbEllipse
 62
7
  6
CONTINUOUS
 10
16.7976667605
 20
-1.1847437302
 30
0.0
 11
3.856294356
 21
4.0385087171
 31
0.0
 40
0.6827367214
 41
2.9927342961
 42
3.2727180761
  0
ELLIPSE
  5
55D
100
AcDbEntity
  8
IMPORT_IGES
100
AcDbEllipse
 62
7
  6
CONTINUOUS
 10
5.8717877404
 20
192.5029933066
 30
0.0
 11
15.8828467488
 21
366.9912742435
 31
0.0
 40
0.0426640375
 41
-4.2841955236
 42
-4.2466231501
  0
ELLIPSE
  5
55E
100
AcDbEntity
  8
IMPORT_IGES
100
AcDbEllipse
 62
7
  6
CONTINUOUS
 10
10.3667023542
 20
28.9833884218
 30
0.0
 11
0.3
 21
0.0
 31
0.0
 40
0.5774032965
 41
-2.3561807825
 42
-0.7854118711
  0
ELLIPSE
  5
55F
100
AcDbEntity
  8
IMPORT_IGES
100
AcDbEllipse
 62
7
  6
CONTINUOUS
 10
9.9424441013
 20
29.2283498199
 30
0.0
 11
0.3000082247
 21
-0.0
 31
0.0
 40
0.577371638
 41
3.1363562669
 42
3.9269771093
  0
ELLIPSE
  5
560
100
AcDbEntity
  8
IMPORT_IGES
100
AcDbEllipse
 62
7
  6
CONTINUOUS
 10
-4.9373729052
 20
186.2619194204
 30
0.0
 11
-16.640121001
 21
348.2584513145
 31
0.0
 40
0.0426408094
 41
-4.2893746024
 42
-4.283646448
  0
ELLIPSE
  5
561
100
AcDbEntity
  8
IMPORT_IGES
100
AcDbEllipse
 62
7
  6
CONTINUOUS
 10
-4.9373729052
 20
186.2619194204
 30
0.0
 11
-16.640121001
 21
348.2584513145
 31
0.0
 40
0.0426408094
 41
-4.2496292132
 42
-4.2490780433
  0
ENDSEC
  0
SECTION
  2
OBJECTS
  0
DICTIONARY
  5
C
100
AcDbDictionary
280
0
281
1
  3
ACAD_GROUP
350
D
  3
ACAD_MLINESTYLE
350
17
  3
ACAD_LAYOUT
350
1A
  3
ACAD_PLOTSETTINGS
350
19
  3
ACAD_PLOTSTYLENAME
350
E
  0
DICTIONARY
  5
D
102
{ACAD_REACTORS
330
C
102
}
100
AcDbDictionary
280
0
281
1
  0
ACDBDICTIONARYWDFLT
  5
E
102
{ACAD_REACTORS
330
C
102
}
100
AcDbDictionary
281
1
  3
Normal
350
F
100
AcDbDictionaryWithDefault
340
F
  0
DICTIONARY
  5
17
102
{ACAD_REACTORS
330
C
102
}
100
AcDbDictionary
280
0
281
1
  3
Standard
350
18
  0
DICTIONARY
  5
19
102
{ACAD_REACTORS
330
C
102
}
100
AcDbDictionary
281
1
  0
DICTIONARY
  5
1A
102
{ACAD_REACTORS
330
C
102
}
100
AcDbDictionary
281
1
  3
Model
350
562
  3
Layout1
350
563
  0
ACDBPLACEHOLDER
  5
F
102
{ACAD_REACTORS
330
E
102
}
  0
MLINESTYLE
  5
18
102
{ACAD_REACTORS
330
17
102
}
100
AcDbMlineStyle
  2
STANDARD
 70
0
  3

 62
256
 51
90.0
 52
90.0
 71
2
 49
0.5
 62
256
  6
BYLAYER
 49
-0.5
 62
256
  6
BYLAYER
  0
LAYOUT
  5
562
102
{ACAD_REACTORS
330
1A
102
}
100
AcDbPlotSettings
  1

  2
none_device
  4
ISO_A4_(297.00_x_210.00_MM)
  6

 40
0.0
 41
0.0
 42
0.0
 43
0.0
 44
297.0
 45
210.0
 46
0.0
 47
0.0
 48
0.0
 49
0.0
140
0.0
141
0.0
142
1.0
143
1.0
 70
1024
 72
1
 73
0
 74
0
  7

 75
0
147
1.0
148
0.0
149
0.0
100
AcDbLayout
  1
Model
 70
0
 71
0
 10
0.0
 20
0.0
 11
297.0
 21
210.0
 12
0.0
 22
0.0
 32
0.0
 14
0.0
 24
0.0
 34
0.0
 15
0.0
 25
0.0
 35
0.0
146
0.0
 13
0.0
 23
0.0
 33
0.0
 16
1.0
 26
0.0
 36
0.0
 17
0.0
 27
1.0
 37
0.0
 76
0
330
20F
345
0
346
0
  0
LAYOUT
  5
563
102
{ACAD_REACTORS
330
1A
102
}
100
AcDbPlotSettings
  1

  2
none_device
  4
ISO_A4_(297.00_x_210.00_MM)
  6

 40
0.0
 41
0.0
 42
0.0
 43
0.0
 44
297.0
 45
210.0
 46
0.0
 47
0.0
 48
0.0
 49
0.0
140
0.0
141
0.0
142
1.0
143
1.0
 70
0
 72
1
 73
0
 74
0
  7

 75
0
147
1.0
148
0.0
149
0.0
100
AcDbLayout
  1
Layout1
 70
0
 71
1
 10
0.0
 20
0.0
 11
297.0
 21
210.0
 12
0.0
 22
0.0
 32
0.0
 14
0.0
 24
0.0
 34
0.0
 15
0.0
 25
0.0
 35
0.0
146
0.0
 13
0.0
 23
0.0
 33
0.0
 16
1.0
 26
0.0
 36
0.0
 17
0.0
 27
1.0
 37
0.0
 76
0
330
210
345
0
346
0
  0
ENDSEC
  0
EOF
