  0
SECTION
  2
HEADER
  9
$ACADVER
  1
AC1024
  9
$DWGCODEPAGE
  3
ANSI_1252
  9
$EXTMAX
 10
558.8
 20
431.8
 30
0.0
  9
$EXTMIN
 10
0.0
 20
0.0
 30
0.0
  9
$LIMMIN
 10
0.0
 20
0.0
  9
$LIMMAX
 10
558.8
 20
431.8
  9
$VIEWCTR
 10
279.4
 20
215.9
  9
$VIEWSIZE
 40
431.8
  9
$CLAYER
  8
0
  9
$LTSCALE
 40
30.734
  9
$CELTYPE
  6
BYLAYER
  9
$DIMSCALE
 40
1.0
  9
$DIMASZ
 40
3.0
  9
$DIMEXO
 40
0.5
  9
$DIMDLI
 40
21.2344
  9
$DIMEXE
 40
1.5
  9
$DIMCEN
 40
5.0292
  9
$DIMLFAC
 40
1.0
  9
$DIMBLK
  1
_FILLED
  9
$DIMALT
 70
0
  9
$DIMALTF
 40
0.0393700787
  9
$DIMTXT
 40
3.0
  9
$DIMTOL
 70
1
  9
$DIMLIM
 70
0
  9
$DIMTFAC
 40
1.0
  9
$DIMTP
 40
0.01
  9
$DIMTM
 40
0.01
  9
$DIMGAP
 40
0.625
  9
$DIMDSEP
 70
44
  9
$AUNITS
 70
0
  9
$PDMODE
 70
3
  9
$PDSIZE
 40
3.0
  9
$HANDSEED
  5
463
  9
$TILEMODE
 70
1
  9
$MEASUREMENT
 70
1
  9
$INSUNITS
 70
4
  0
ENDSEC
  0
SECTION
  2
CLASSES
  0
CLASS
  1
ACDBDICTIONARYWDFLT
  2
AcDbDictionaryWithDefault
  3
AutoCAD 2000
 90
0
 91
1
280
0
281
0
  0
CLASS
  1
ACDBPLACEHOLDER
  2
AcDbPlaceHolder
  3
AutoCAD 2000
 90
0
 91
1
280
0
281
0
  0
CLASS
  1
LAYOUT
  2
AcDbLayout
  3
AutoCAD 2000
 90
0
 91
0
280
0
281
0
  0
ENDSEC
  0
SECTION
  2
TABLES
  0
TABLE
  2
VPORT
  5
8
100
AcDbSymbolTable
 70
2
  0
VPORT
  5
1F4
100
AcDbSymbolTableRecord
100
AcDbViewportTableRecord
  2
*ACTIVE
 70
0
 10
0.0
 20
0.0
 11
1.0
 21
1.0
 12
279.4
 22
215.9
 13
0.0
 23
0.0
 14
1.0
 24
1.0
 15
0.0
 25
0.0
 16
0.0
 26
0.0
 36
1.0
 17
0.0
 27
0.0
 37
0.0
 40
431.8
 41
1.2941176471
 42
50.0
 43
0.0
 44
0.0
 50
0.0
 51
0.0
 71
0
 72
100
 73
1
 74
1
 75
0
 76
0
 77
0
 78
0
  0
ENDTAB
  0
TABLE
  2
LTYPE
  5
5
100
AcDbSymbolTable
 70
6
  0
LTYPE
  5
14
100
AcDbSymbolTableRecord
100
AcDbLinetypeTableRecord
  2
BYBLOCK
 70
0
  3

 72
65
 73
0
 40
0.0
  0
LTYPE
  5
15
100
AcDbSymbolTableRecord
100
AcDbLinetypeTableRecord
  2
BYLAYER
 70
0
  3

 72
65
 73
0
 40
0.0
  0
LTYPE
  5
16
100
AcDbSymbolTableRecord
100
AcDbLinetypeTableRecord
  2
CONTINUOUS
 70
64
  3
Solid line
 72
65
 73
0
 40
0.0
  0
LTYPE
  5
1F5
100
AcDbSymbolTableRecord
100
AcDbLinetypeTableRecord
  2
CENTER
 70
64
  3
____ _ ____ _ ____ _ ____ _ ____ _ ____ _ ____
 72
65
 73
4
 40
0.6
 49
0.375
 74
0
 49
-0.075
 74
0
 49
0.075
 74
0
 49
-0.075
 74
0
  0
LTYPE
  5
1F6
100
AcDbSymbolTableRecord
100
AcDbLinetypeTableRecord
  2
HIDDEN
 70
64
  3
- - - - - - - - - - - - - - - - - - - -
 72
65
 73
2
 40
0.2
 49
0.1
 74
0
 49
-0.1
 74
0
  0
LTYPE
  5
1F7
100
AcDbSymbolTableRecord
100
AcDbLinetypeTableRecord
  2
PHANTOM
 70
64
  3
_____ _ _ _____ _ _ _____ _ _ _____
 72
65
 73
6
 40
0.8
 49
0.45
 74
0
 49
-0.05
 74
0
 49
0.1
 74
0
 49
-0.05
 74
0
 49
0.1
 74
0
 49
-0.05
 74
0
  0
LTYPE
  5
1F8
100
AcDbSymbolTableRecord
100
AcDbLinetypeTableRecord
  2
DOT
 70
64
  3
. . . . . . . . . . . . . . . . . . . .
 72
65
 73
2
 40
0.2
 49
0.1
 74
0
 49
-0.1
 74
0
  0
LTYPE
  5
1F9
100
AcDbSymbolTableRecord
100
AcDbLinetypeTableRecord
  2
DASHED
 70
64
  3
- - - - - - - - - - - - - - - - - - - -
 72
65
 73
2
 40
0.2
 49
0.1
 74
0
 49
-0.1
 74
0
  0
ENDTAB
  0
TABLE
  2
LAYER
  5
2
100
AcDbSymbolTable
 70
36
  0
LAYER
  5
10
100
AcDbSymbolTableRecord
100
AcDbLayerTableRecord
  2
0
 70
0
 62
7
  6
CONTINUOUS
370
-3
390
F
  0
LAYER
  5
1FA
100
AcDbSymbolTableRecord
100
AcDbLayerTableRecord
  2
DEFAULT_1
 70
0
 62
7
  6
CENTER
370
-3
390
F
  0
LAYER
  5
1FB
100
AcDbSymbolTableRecord
100
AcDbLayerTableRecord
  2
DEFAULT_2
 70
0
 62
7
  6
HIDDEN
370
-3
390
F
  0
LAYER
  5
1FC
100
AcDbSymbolTableRecord
100
AcDbLayerTableRecord
  2
DEFAULT_3
 70
0
 62
7
  6
PHANTOM
370
-3
390
F
  0
LAYER
  5
1FD
100
AcDbSymbolTableRecord
100
AcDbLayerTableRecord
  2
255013570
 70
0
 62
7
  6
CONTINUOUS
370
-3
390
F
  0
LAYER
  5
1FE
100
AcDbSymbolTableRecord
100
AcDbLayerTableRecord
  2
261013570
 70
0
 62
7
  6
CONTINUOUS
370
-3
390
F
  0
LAYER
  5
1FF
100
AcDbSymbolTableRecord
100
AcDbLayerTableRecord
  2
280013570
 70
0
 62
7
  6
CONTINUOUS
370
-3
390
F
  0
LAYER
  5
200
100
AcDbSymbolTableRecord
100
AcDbLayerTableRecord
  2
ASSI
 70
0
 62
7
  6
CONTINUOUS
370
-3
390
F
  0
LAYER
  5
201
100
AcDbSymbolTableRecord
100
AcDbLayerTableRecord
  2
COORDINATE
 70
0
 62
7
  6
CONTINUOUS
370
-3
390
F
  0
LAYER
  5
202
100
AcDbSymbolTableRecord
100
AcDbLayerTableRecord
  2
COORD_ORIGINE
 70
0
 62
7
  6
CONTINUOUS
370
-3
390
F
  0
LAYER
  5
203
100
AcDbSymbolTableRecord
100
AcDbLayerTableRecord
  2
COPY-PUBBLISH
 70
0
 62
7
  6
CONTINUOUS
370
-3
390
F
  0
LAYER
  5
204
100
AcDbSymbolTableRecord
100
AcDbLayerTableRecord
  2
COPY_PUBLISH
 70
0
 62
7
  6
CONTINUOUS
370
-3
390
F
  0
LAYER
  5
205
100
AcDbSymbolTableRecord
100
AcDbLayerTableRecord
  2
COSMETIC
 70
0
 62
7
  6
CONTINUOUS
370
-3
390
F
  0
LAYER
  5
206
100
AcDbSymbolTableRecord
100
AcDbLayerTableRecord
  2
COSMETICI
 70
0
 62
7
  6
CONTINUOUS
370
-3
390
F
  0
LAYER
  5
207
100
AcDbSymbolTableRecord
100
AcDbLayerTableRecord
  2
CURVE
 70
0
 62
7
  6
CONTINUOUS
370
-3
390
F
  0
LAYER
  5
208
100
AcDbSymbolTableRecord
100
AcDbLayerTableRecord
  2
C_COMPONENTE
 70
0
 62
7
  6
CONTINUOUS
370
-3
390
F
  0
LAYER
  5
209
100
AcDbSymbolTableRecord
100
AcDbLayerTableRecord
  2
DRAFT
 70
0
 62
7
  6
CONTINUOUS
370
-3
390
F
  0
LAYER
  5
20A
100
AcDbSymbolTableRecord
100
AcDbLayerTableRecord
  2
IGES
 70
0
 62
7
  6
CONTINUOUS
370
-3
390
F
  0
LAYER
  5
20B
100
AcDbSymbolTableRecord
100
AcDbLayerTableRecord
  2
IMPORT_IGES
 70
0
 62
7
  6
CONTINUOUS
370
-3
390
F
  0
LAYER
  5
20C
100
AcDbSymbolTableRecord
100
AcDbLayerTableRecord
  2
INTF_1
 70
0
 62
7
  6
CONTINUOUS
370
-3
390
F
  0
LAYER
  5
20D
100
AcDbSymbolTableRecord
100
AcDbLayerTableRecord
  2
INTF_11
 70
0
 62
7
  6
CONTINUOUS
370
-3
390
F
  0
LAYER
  5
20E
100
AcDbSymbolTableRecord
100
AcDbLayerTableRecord
  2
INTF_2
 70
0
 62
7
  6
CONTINUOUS
370
-3
390
F
  0
LAYER
  5
20F
100
AcDbSymbolTableRecord
100
AcDbLayerTableRecord
  2
INTF_3
 70
0
 62
7
  6
CONTINUOUS
370
-3
390
F
  0
LAYER
  5
210
100
AcDbSymbolTableRecord
100
AcDbLayerTableRecord
  2
NOTE
 70
0
 62
7
  6
CONTINUOUS
370
-3
390
F
  0
LAYER
  5
211
100
AcDbSymbolTableRecord
100
AcDbLayerTableRecord
  2
PIANI
 70
0
 62
7
  6
CONTINUOUS
370
-3
390
F
  0
LAYER
  5
212
100
AcDbSymbolTableRecord
100
AcDbLayerTableRecord
  2
PIANI-RIFERIMENTO
 70
0
 62
7
  6
CONTINUOUS
370
-3
390
F
  0
LAYER
  5
213
100
AcDbSymbolTableRecord
100
AcDbLayerTableRecord
  2
PIANI_ORIGINE
 70
0
 62
7
  6
CONTINUOUS
370
-3
390
F
  0
LAYER
  5
214
100
AcDbSymbolTableRecord
100
AcDbLayerTableRecord
  2
PUNTI
 70
0
 62
7
  6
CONTINUOUS
370
-3
390
F
  0
LAYER
  5
215
100
AcDbSymbolTableRecord
100
AcDbLayerTableRecord
  2
RACCORDO
 70
0
 62
7
  6
CONTINUOUS
370
-3
390
F
  0
LAYER
  5
216
100
AcDbSymbolTableRecord
100
AcDbLayerTableRecord
  2
RGB____0____0____0__
 70
0
 62
7
  6
CONTINUOUS
370
-3
390
F
  0
LAYER
  5
217
100
AcDbSymbolTableRecord
100
AcDbLayerTableRecord
  2
SMUSSO
 70
0
 62
7
  6
CONTINUOUS
370
-3
390
F
  0
LAYER
  5
218
100
AcDbSymbolTableRecord
100
AcDbLayerTableRecord
  2
SNAPLINE
 70
0
 62
7
  6
CONTINUOUS
370
-3
390
F
  0
LAYER
  5
219
100
AcDbSymbolTableRecord
100
AcDbLayerTableRecord
  2
SUP-SCAVI-INCLINATI
 70
0
 62
7
  6
CONTINUOUS
370
-3
390
F
  0
LAYER
  5
21A
100
AcDbSymbolTableRecord
100
AcDbLayerTableRecord
  2
SUP-SCAVI-INCLINATI-SUP
 70
0
 62
7
  6
CONTINUOUS
370
-3
390
F
  0
LAYER
  5
21B
100
AcDbSymbolTableRecord
100
AcDbLayerTableRecord
  2
SUPERFICI
 70
0
 62
7
  6
CONTINUOUS
370
-3
390
F
  0
LAYER
  5
21C
100
AcDbSymbolTableRecord
100
AcDbLayerTableRecord
  2
SUP_COLORE
 70
0
 62
7
  6
CONTINUOUS
370
-3
390
F
  0
LAYER
  5
21D
100
AcDbSymbolTableRecord
100
AcDbLayerTableRecord
  2
TRASH
 70
0
 62
7
  6
CONTINUOUS
370
-3
390
F
  0
LAYER
  5
21E
100
AcDbSymbolTableRecord
100
AcDbLayerTableRecord
  2
XSEC_DATUMS
 70
0
 62
7
  6
CONTINUOUS
370
-3
390
F
  0
ENDTAB
  0
TABLE
  2
STYLE
  5
3
100
AcDbSymbolTable
 70
1
  0
STYLE
  5
11
100
AcDbSymbolTableRecord
100
AcDbTextStyleTableRecord
  2
STANDARD
 70
0
 40
0.0
 41
0.8
 50
0.0
 71
0
 42
0.2
  3
txt
  4

  0
STYLE
  5
21F
100
AcDbSymbolTableRecord
100
AcDbTextStyleTableRecord
  2
TEXTSTYLE_1
 70
0
 40
0.0
 41
0.8
 50
0.0
 71
0
 42
0.2
  3
gdt
  4

  0
ENDTAB
  0
TABLE
  2
VIEW
  5
6
100
AcDbSymbolTable
 70
0
  0
ENDTAB
  0
TABLE
  2
UCS
  5
7
100
AcDbSymbolTable
 70
0
  0
ENDTAB
  0
TABLE
  2
APPID
  5
9
100
AcDbSymbolTable
 70
1
  0
APPID
  5
220
100
AcDbSymbolTableRecord
100
AcDbRegAppTableRecord
  2
ACAD
 70
0
  0
ENDTAB
  0
TABLE
  2
BLOCK_RECORD
  5
1
100
AcDbSymbolTable
 70
0
  0
BLOCK_RECORD
  5
221
100
AcDbSymbolTableRecord
100
AcDbBlockTableRecord
  2
*Model_Space
  0
BLOCK_RECORD
  5
222
100
AcDbSymbolTableRecord
100
AcDbBlockTableRecord
  2
*Paper_Space
  0
BLOCK_RECORD
  5
223
100
AcDbSymbolTableRecord
100
AcDbBlockTableRecord
  2
_FILLED
  0
ENDTAB
  0
TABLE
  2
DIMSTYLE
  5
A
100
AcDbSymbolTable
 70
1
100
AcDbDimStyleTable
 71
0
  0
DIMSTYLE
105
224
100
AcDbSymbolTableRecord
100
AcDbDimStyleTableRecord
  2
STANDARD
 70
0
  3

  4

 40
1.0
 41
3.0
 42
0.5
 43
0.38
 44
1.5
 45
0.0
 46
0.0
 47
0.01
 48
0.01
140
3.0
141
0.09
142
0.0
143
25.4
144
1.0
145
0.0
146
1.0
147
0.625
 71
1
 72
0
 73
0
 74
0
 75
0
 76
0
 77
1
 78
8
 79
2
170
0
171
1
172
0
173
0
174
0
175
0
176
0
177
0
178
0
270
2
179
2
271
2
272
2
273
2
274
2
275
0
280
0
281
0
282
0
283
1
284
8
285
0
286
0
287
3
288
0
340
11
278
44
341
223
342
223
343
223
344
223
  0
ENDTAB
  0
ENDSEC
  0
SECTION
  2
BLOCKS
  0
BLOCK
  5
20
100
AcDbEntity
  8
0
100
AcDbBlockBegin
  2
*Model_Space
 70
0
 10
0.0
 20
0.0
 30
0.0
  3
*Model_Space
  1

  0
ENDBLK
  5
21
100
AcDbEntity
  8
0
100
AcDbBlockEnd
  0
BLOCK
  5
1C
100
AcDbEntity
  8
0
100
AcDbBlockBegin
  2
*Paper_Space
 70
0
 10
0.0
 20
0.0
 30
0.0
  3
*Paper_Space
  1

  0
ENDBLK
  5
1D
100
AcDbEntity
  8
0
100
AcDbBlockEnd
  0
BLOCK
  5
225
100
AcDbEntity
  8
0
100
AcDbBlockBegin
  2
_FILLED
 70
64
 10
0.0
 20
0.0
  3
_FILLED
  1

  0
SOLID
  5
226
100
AcDbEntity
  8
0
  6
BYBLOCK
 62
0
100
AcDbTrace
 10
0.0
 20
0.0
 11
-1.0
 21
0.3166666667
 12
-1.0
 22
-0.3166666667
 13
-1.0
 23
-0.3166666667
  0
ENDBLK
  5
227
100
AcDbEntity
  8
0
  6
BYBLOCK
 62
0
100
AcDbBlockEnd
  0
ENDSEC
  0
SECTION
  2
ENTITIES
  0
LWPOLYLINE
  5
228
100
AcDbEntity
  8
DRAFT
100
AcDbPolyline
 62
7
  6
CONTINUOUS
 90
7
 70
0
 10
-13.9318189313
 20
36.4334627935
 10
-14.1660276829
 20
36.314357221
 10
-14.3960465691
 20
36.1933597909
 10
-14.6218755896
 20
36.0704705032
 10
-14.8435147447
 20
35.9456893579
 10
-15.0609640342
 20
35.819016355
 10
-15.2742234581
 20
35.6904514945
  0
LWPOLYLINE
  5
229
100
AcDbEntity
  8
RACCORDO
100
AcDbPolyline
 62
250
  6
CONTINUOUS
 90
85
 70
0
 10
-14.2884711983
 20
37.4778143308
 10
-14.0048373294
 20
37.6177159774
 10
-13.7064446996
 20
37.7581182255
 10
-13.3932933089
 20
37.899021075
 10
-13.0667066204
 20
38.0404594603
 10
-12.7253611711
 20
38.1823984471
 10
-12.3652865717
 20
38.3247332321
 10
-11.9865636793
 20
38.4676913988
 10
-11.5891116368
 20
38.6110453636
 10
-11.1687174834
 20
38.7540075737
 10
-10.7254479079
 20
38.8968412833
 10
-10.2592362215
 20
39.039283238
 10
-9.7656693974
 20
39.1797561222
 10
-9.2447192593
 20
39.3185869577
 10
-8.6964139835
 20
39.4554487227
 10
-8.1164250715
 20
39.5877830356
 10
-7.5045134315
 20
39.7159901415
 10
-6.8609181552
 20
39.8396697954
 10
-6.1820280193
 20
39.9550628811
 10
-5.4663986674
 20
40.0626478719
 10
-4.7154744558
 20
40.1619462945
 10
-3.9299772298
 20
40.2477636138
 10
-3.1065580713
 20
40.3202014252
 10
-2.2485658985
 20
40.3791581331
 10
-1.3667693107
 20
40.4191344157
 10
-0.4600134196
 20
40.4394477449
 10
0.4705468864
 20
40.4407806487
 10
1.4106783428
 20
40.4196813897
 10
2.3606254969
 20
40.3752606083
 10
3.3201438014
 20
40.3084076641
 10
4.2742663501
 20
40.2183388979
 10
5.2222343249
 20
40.1042745852
 10
6.1648065438
 20
39.9669944506
 10
7.0892925556
 20
39.8080540086
 10
7.9932060976
 20
39.627453655
 10
8.8790334325
 20
39.4251929941
 10
9.7415428967
 20
39.2028263526
 10
10.5803324314
 20
38.9604163451
 10
11.3958040955
 20
38.6979003571
 10
12.1839324018
 20
38.4166448725
 10
12.9452437952
 20
38.1163223272
 10
13.6792118309
 20
37.7972602853
 10
14.3802316877
 20
37.4618079238
 10
15.0479800165
 20
37.1098181439
 10
15.6827801664
 20
36.7414380443
 10
16.2799973624
 20
36.3594580983
 10
16.8389914327
 20
35.9641419912
 10
17.3604025492
 20
35.5552260378
 10
17.8415164521
 20
35.1347096556
 10
18.2824795785
 20
34.7023536848
 10
18.6831454914
 20
34.2583972853
 10
19.04036062
 20
33.8055573541
 10
19.3540784794
 20
33.3425774543
 10
19.6243455545
 20
32.870714023
 10
19.8481477299
 20
32.3964532685
 10
20.0238809124
 20
31.9194563211
 10
20.1531491953
 20
31.4400620505
 10
20.2377507423
 20
30.9657732751
 10
20.2759130562
 20
30.4967347866
 10
20.2694086343
 20
30.0328017932
 10
20.2253531326
 20
29.581042738
 10
20.1424239543
 20
29.142068837
 10
20.0219436961
 20
28.7152688741
 10
19.8749958039
 20
28.3058776441
 10
19.7018550537
 20
27.9155866439
 10
19.5022466695
 20
27.5427043766
 10
19.286429769
 20
27.1873911459
 10
19.0553644502
 20
26.8503181243
 10
18.8080906151
 20
26.5308141392
 10
18.5519870879
 20
26.2270259777
 10
18.2878400788
 20
25.9390557518
 10
18.0148633777
 20
25.6668013494
 10
17.7380771781
 20
25.4081032214
 10
17.458129594
 20
25.1629748224
 10
17.1743725115
 20
24.9314026978
 10
16.8898817832
 20
24.7111869339
 10
16.6051777501
 20
24.5022929895
 10
16.319740071
 20
24.3047554057
 10
16.035083575
 20
24.1164778924
 10
15.7516498148
 20
23.9374153264
 10
15.4689972375
 20
23.7676128307
 10
15.1873160132
 20
23.6051094842
 10
14.9066695318
 20
23.4492516463
 10
14.6269944033
 20
23.3006929575
 10
14.3482906277
 20
23.1594334178
  0
LWPOLYLINE
  5
22A
100
AcDbEntity
  8
RACCORDO
100
AcDbPolyline
 62
250
  6
CONTINUOUS
 90
60
 70
0
 10
-13.9349312699
 20
36.8718103654
 10
-13.6576276513
 20
37.0077620246
 10
-13.3666453357
 20
37.1448340409
 10
-13.0616283725
 20
37.2827179125
 10
-12.743130598
 20
37.4207079609
 10
-12.4099520433
 20
37.5588651925
 10
-12.0589759632
 20
37.6979174268
 10
-11.6896931335
 20
37.837415984
 10
-11.3017293126
 20
37.9768419463
 10
-10.8919117795
 20
38.1165914394
 10
-10.4597174953
 20
38.2560093838
 10
-10.0046724032
 20
38.3943991146
 10
-9.5234531172
 20
38.5318262426
 10
-9.0155340955
 20
38.6673952447
 10
-8.4804642983
 20
38.8001572508
 10
-7.9148594578
 20
38.9297744004
 10
-7.3182527282
 20
39.0550605447
 10
-6.690389927
 20
39.1747431156
 10
-6.0281291668
 20
39.2879766209
 10
-5.3303932846
 20
39.3933458667
 10
-4.5981668664
 20
39.4890574891
 10
-3.8315585711
 20
39.5734312394
 10
-3.0285887919
 20
39.6448902817
 10
-2.1924517649
 20
39.7013045109
 10
-1.3315253145
 20
39.7405327084
 10
-0.4468714526
 20
39.7611456152
 10
0.459520039
 20
39.7616869844
 10
1.3773881943
 20
39.741012428
 10
2.3045528757
 20
39.6983088335
 10
3.2389076382
 20
39.6327966006
 10
4.1702254562
 20
39.5445873334
 10
5.0956583189
 20
39.4336519931
 10
6.0135070373
 20
39.299891053
 10
6.9156230131
 20
39.1443955357
 10
7.7978789818
 20
38.9681042704
 10
8.6605151888
 20
38.7712001638
 10
9.5022373216
 20
38.5540966882
 10
10.3208709305
 20
38.3174632645
 10
11.1149543625
 20
38.0618336985
 10
11.8841804685
 20
37.787329986
 10
12.6273540162
 20
37.4942890232
 10
13.3420497485
 20
37.1835741152
 10
14.0261205294
 20
36.8560901354
 10
14.677981618
 20
36.5125982516
 10
15.2961501747
 20
36.1538824628
 10
15.878864875
 20
35.7809980525
 10
16.4244115175
 20
35.395156806
 10
16.9321132613
 20
34.9969598118
 10
17.4017404305
 20
34.586544997
 10
17.8322571412
 20
34.1646089774
 10
18.2222858348
 20
33.7322735092
 10
18.5709288152
 20
33.2902786602
 10
18.877842159
 20
32.8385003332
 10
19.1411778934
 20
32.3790181607
 10
19.358758018
 20
31.9160367778
 10
19.5308330823
 20
31.4504436231
 10
19.6575460651
 20
30.9836314747
 10
19.7387699047
 20
30.5207371324
 10
19.7761310532
 20
30.0628187479
 10
19.7789265519
 20
29.8396369345
  0
LWPOLYLINE
  5
22B
100
AcDbEntity
  8
DRAFT
100
AcDbPolyline
 62
7
  6
CONTINUOUS
 90
7
 70
0
 10
-12.4457963333
 20
37.1046650569
 10
-12.7029260543
 20
36.9980353449
 10
-12.9562720601
 20
36.8893107002
 10
-13.2058343506
 20
36.7784911227
 10
-13.451612926
 20
36.6655766124
 10
-13.6936077863
 20
36.5505671693
 10
-13.9318189313
 20
36.4334627935
  0
LWPOLYLINE
  5
22C
100
AcDbEntity
  8
C_COMPONENTE
100
AcDbPolyline
 62
7
  6
CONTINUOUS
 90
31
 70
0
 10
-8.3846609814
 20
-39.7931947018
 10
-8.2530944936
 20
-39.8542326321
 10
-8.1127731519
 20
-39.9101839001
 10
-7.9644816902
 20
-39.9607356034
 10
-7.8090494144
 20
-40.0056050366
 10
-7.6473455649
 20
-40.0445412714
 10
-7.4802744553
 20
-40.0773265607
 10
-7.3087704148
 20
-40.1037775559
 10
-7.1337925638
 20
-40.1237463322
 10
-6.9563194492
 20
-40.1371212162
 10
-6.7773435728
 20
-40.1438274101
 10
-6.5978658403
 20
-40.1438274101
 10
-6.4188899639
 20
-40.1371212162
 10
-6.2414168494
 20
-40.1237463322
 10
-6.0664389983
 20
-40.1037775559
 10
-5.8949349579
 20
-40.0773265607
 10
-5.7278638482
 20
-40.0445412714
 10
-5.5661599987
 20
-40.0056050366
 10
-5.4107277229
 20
-39.9607356034
 10
-5.2624362612
 20
-39.9101839001
 10
-5.1221149195
 20
-39.8542326321
 10
-4.9905484317
 20
-39.7931947018
 10
-4.868472571
 20
-39.7274114579
 10
-4.7565700351
 20
-39.657250787
 10
-4.6554666284
 20
-39.5831050562
 10
-4.5657277622
 20
-39.5053889183
 10
-4.4878552925
 20
-39.4245369935
 10
-4.4222847138
 20
-39.3410014387
 10
-4.3693827235
 20
-39.2552494185
 10
-4.3294451708
 20
-39.1677604929
 10
-4.3218771934
 20
-39.1467391586
  0
LWPOLYLINE
  5
22D
100
AcDbEntity
  8
C_COMPONENTE
100
AcDbPolyline
 62
7
  6
CONTINUOUS
 90
10
 70
0
 10
-8.3846609814
 20
-39.7931947018
 10
-8.5067368421
 20
-39.7274114579
 10
-8.618639378
 20
-39.657250787
 10
-8.7197427847
 20
-39.5831050562
 10
-8.809481651
 20
-39.5053889183
 10
-8.8873541207
 20
-39.4245369935
 10
-8.9529246993
 20
-39.3410014387
 10
-9.0058266897
 20
-39.2552494185
 10
-9.0457642423
 20
-39.1677604929
 10
-9.0533322198
 20
-39.1467391586
  0
LWPOLYLINE
  5
22E
100
AcDbEntity
  8
0
100
AcDbPolyline
 62
7
  6
CONTINUOUS
 90
7
 70
0
 10
-12.6980123466
 20
34.171111234
 10
-12.7589097813
 20
34.1347510932
 10
-12.8138125999
 20
34.0889590953
 10
-12.8622761942
 20
34.0338969354
 10
-12.9038448179
 20
33.969778406
 10
-12.9380547894
 20
33.8968699719
 10
-12.9644379401
 20
33.8154909101
  0
LWPOLYLINE
  5
22F
100
AcDbEntity
  8
RACCORDO
100
AcDbPolyline
 62
7
  6
CONTINUOUS
 90
10
 70
0
 10
-32.8264086224
 20
6.1950398335
 10
-32.8138996961
 20
5.4939703757
 10
-32.7869501003
 20
4.621195385
 10
-32.747993494
 20
3.7545948899
 10
-32.6970405363
 20
2.8943992847
 10
-32.6341012032
 20
2.0408415291
 10
-32.5591846715
 20
1.1941523366
 10
-32.472299583
 20
0.3545643595
 10
-32.3734536051
 20
-0.4776903956
 10
-32.2773176195
 20
-1.1985737927
  0
LINE
  5
230
100
AcDbEntity
  8
RACCORDO
100
AcDbLine
 62
250
  6
CONTINUOUS
 10
-32.6336210977
 20
5.5476270951
 11
-32.6401656502
 21
5.9755760175
  0
LWPOLYLINE
  5
231
100
AcDbEntity
  8
RACCORDO
100
AcDbPolyline
 62
7
  6
CONTINUOUS
 90
10
 70
0
 10
-32.2889702313
 20
14.0401430571
 10
-32.3825597216
 20
13.2646525185
 10
-32.4813831554
 20
12.3579504489
 10
-32.5682609032
 20
11.4554181037
 10
-32.6431708158
 20
10.5572965578
 10
-32.7060896617
 20
9.6638310665
 10
-32.7569938068
 20
8.7752662433
 10
-32.7958591297
 20
7.8918466945
 10
-32.8226608941
 20
7.0138144233
 10
-32.8360109025
 20
6.2658872838
  0
LWPOLYLINE
  5
232
100
AcDbEntity
  8
RACCORDO
100
AcDbPolyline
 62
250
  6
CONTINUOUS
 90
19
 70
0
 10
-32.1008048439
 20
13.7516495201
 10
-32.1551074023
 20
13.3099593523
 10
-32.2066022766
 20
12.8693035019
 10
-32.2552887229
 20
12.4297138264
 10
-32.3011638603
 20
11.9912431301
 10
-32.3442300791
 20
11.553896532
 10
-32.3844932819
 20
11.1176347046
 10
-32.4219521287
 20
10.6824846574
 10
-32.4566050175
 20
10.2484748952
 10
-32.4884549307
 20
9.8155692917
 10
-32.517499053
 20
9.3837967104
 10
-32.5437345794
 20
8.9531859765
 10
-32.5671619939
 20
8.5237019667
 10
-32.5877772073
 20
8.09537439
 10
-32.6055761457
 20
7.6682314234
 10
-32.620556764
 20
7.2422368279
 10
-32.6327141993
 20
6.8173987982
 10
-32.6420421755
 20
6.3937719282
 10
-32.6485352299
 20
5.9713903304
  0
LINE
  5
233
100
AcDbEntity
  8
RACCORDO
100
AcDbLine
 62
7
  6
CONTINUOUS
 10
-32.2889832939
 20
14.0400391664
 11
-32.2889702313
 21
14.0401430571
  0
LWPOLYLINE
  5
234
100
AcDbEntity
  8
RACCORDO
100
AcDbPolyline
 62
250
  6
CONTINUOUS
 90
6
 70
0
 10
-32.2771216068
 20
-1.1999500317
 10
-32.2677807129
 20
-1.2434774076
 10
-32.2424675093
 20
-1.3070711906
 10
-32.2040010586
 20
-1.3672592151
 10
-32.1529109075
 20
-1.4232129055
 10
-32.0899003859
 20
-1.474161978
  0
LWPOLYLINE
  5
235
100
AcDbEntity
  8
RACCORDO
100
AcDbPolyline
 62
7
  6
CONTINUOUS
 90
10
 70
0
 10
-32.2770949637
 20
-1.1999461538
 10
-32.257334074
 20
-1.3063474027
 10
-32.2250166223
 20
-1.4205534694
 10
-32.18250412
 20
-1.5289364812
 10
-32.1303851282
 20
-1.6310833124
 10
-32.0688578628
 20
-1.7269962175
 10
-31.9987420513
 20
-1.8155600246
 10
-31.9208995984
 20
-1.896024617
 10
-31.8353756186
 20
-1.9684388342
 10
-31.8040448321
 20
-1.9915373866
  0
LINE
  5
236
100
AcDbEntity
  8
RACCORDO
100
AcDbLine
 62
7
  6
CONTINUOUS
 10
-32.2773176195
 20
-1.1985737927
 11
-32.2771216068
 21
-1.1999500317
  0
LWPOLYLINE
  5
237
100
AcDbEntity
  8
RACCORDO
100
AcDbPolyline
 62
250
  6
CONTINUOUS
 90
18
 70
0
 10
-32.0899003859
 20
-1.474161978
 10
-32.1444538706
 20
-1.0747179293
 10
-32.1961842361
 20
-0.6734957877
 10
-32.2450911623
 20
-0.2705280412
 10
-32.2911721041
 20
0.1341331938
 10
-32.3344299782
 20
0.5404801555
 10
-32.3748713847
 20
0.948547852
 10
-32.4124954018
 20
1.3583096284
 10
-32.4473008147
 20
1.7697372543
 10
-32.4792912319
 20
2.1828649695
 10
-32.5084642317
 20
2.5976655991
 10
-32.5348173895
 20
3.0141119954
 10
-32.5583517753
 20
3.4322399141
 10
-32.5790636748
 20
3.8520225581
 10
-32.5969493833
 20
4.2734348452
 10
-32.612007412
 20
4.6965164931
 10
-32.6242333135
 20
5.1212639836
 10
-32.6336210977
 20
5.5476270951
  0
LWPOLYLINE
  5
238
100
AcDbEntity
  8
RACCORDO
100
AcDbPolyline
 62
7
  6
CONTINUOUS
 90
12
 70
0
 10
-31.5964256235
 20
15.0993623589
 10
-31.6540184546
 20
15.0640248295
 10
-31.7559220793
 20
14.9906368643
 10
-31.8531072316
 20
14.9055893993
 10
-31.9438510001
 20
14.80978968
 10
-32.0249382679
 20
14.7067683653
 10
-32.0972828259
 20
14.5957163997
 10
-32.1605870549
 20
14.4763287953
 10
-32.2120069467
 20
14.3539340478
 10
-32.2514448812
 20
14.230113529
 10
-32.2796949006
 20
14.1021693111
 10
-32.2889605736
 20
14.0400363087
  0
LINE
  5
239
100
AcDbEntity
  8
RACCORDO
100
AcDbLine
 62
7
  6
CONTINUOUS
 10
-31.5957759711
 20
15.0997382603
 11
-31.5964256235
 21
15.0993623589
  0
LWPOLYLINE
  5
23A
100
AcDbEntity
  8
RACCORDO
100
AcDbPolyline
 62
7
  6
CONTINUOUS
 90
5
 70
0
 10
-21.6482424822
 20
20.5465411525
 10
-22.7837958566
 20
19.9592200739
 10
-25.754721124
 20
18.371399048
 10
-28.7246070291
 20
16.7328195335
 10
-31.5957851349
 20
15.099754168
  0
LWPOLYLINE
  5
23B
100
AcDbEntity
  8
RACCORDO
100
AcDbPolyline
 62
250
  6
CONTINUOUS
 90
5
 70
0
 10
-21.6529670325
 20
20.2860951779
 10
-22.3130481816
 20
19.9451314592
 10
-25.2631440725
 20
18.3725296284
 10
-28.2118058842
 20
16.7519600219
 10
-31.1583475357
 20
15.0837616252
  0
LINE
  5
23C
100
AcDbEntity
  8
RACCORDO
100
AcDbLine
 62
250
  6
CONTINUOUS
 10
0.4125202532
 20
-28.7227110835
 11
-0.3362902852
 21
-28.7228806881
  0
LWPOLYLINE
  5
23D
100
AcDbEntity
  8
RACCORDO
100
AcDbPolyline
 62
250
  6
CONTINUOUS
 90
8
 70
0
 10
-0.3362902852
 20
-28.7228806881
 10
-1.0845370272
 20
-28.7075767842
 10
-1.8310613971
 20
-28.6768154821
 10
-2.57446585
 20
-28.6306467629
 10
-3.3135908906
 20
-28.5691351961
 10
-4.0472058125
 20
-28.4923709227
 10
-4.774012825
 20
-28.4004773616
 10
-5.4927620627
 20
-28.2936012572
  0
LWPOLYLINE
  5
23E
100
AcDbEntity
  8
RACCORDO
100
AcDbPolyline
 62
250
  6
CONTINUOUS
 90
11
 70
0
 10
-5.3460340095
 20
-28.789786387
 10
-5.3651889105
 20
-28.7838427161
 10
-5.3899260624
 20
-28.7665494422
 10
-5.4124939751
 20
-28.7388791059
 10
-5.432644428
 20
-28.7011347192
 10
-5.450164341
 20
-28.6537147611
 10
-5.4648617308
 20
-28.5971381145
 10
-5.4765709471
 20
-28.5320714943
 10
-5.485172421
 20
-28.4592561524
 10
-5.4905859085
 20
-28.3794757474
 10
-5.4927620627
 20
-28.2936012572
  0
LWPOLYLINE
  5
23F
100
AcDbEntity
  8
RACCORDO
100
AcDbPolyline
 62
7
  6
CONTINUOUS
 90
9
 70
0
 10
-10.9966378961
 20
-27.2778317984
 10
-10.9792980752
 20
-27.2842539111
 10
-10.9279985409
 20
-27.297824241
 10
-10.8732944819
 20
-27.304315948
 10
-10.8155945417
 20
-27.303927475
 10
-10.7568895141
 20
-27.2967525778
 10
-10.6978429967
 20
-27.2828225084
 10
-10.6377913919
 20
-27.262106015
 10
-10.5767346995
 20
-27.2346030973
  0
LWPOLYLINE
  5
240
100
AcDbEntity
  8
RACCORDO
100
AcDbPolyline
 62
7
  6
CONTINUOUS
 90
10
 70
0
 10
-10.9966393563
 20
-27.2778348707
 10
-11.3066183748
 20
-27.151688008
 10
-11.6624435204
 20
-26.9996042954
 10
-12.0111392149
 20
-26.8425392674
 10
-12.3524824211
 20
-26.6805460288
 10
-12.6862218776
 20
-26.5136935595
 10
-13.0120895901
 20
-26.3420644761
 10
-13.3298524631
 20
-26.1657286205
 10
-13.6393008417
 20
-25.9847455634
 10
-13.8919308531
 20
-25.8296298881
  0
LWPOLYLINE
  5
241
100
AcDbEntity
  8
RACCORDO
100
AcDbPolyline
 62
250
  6
CONTINUOUS
 90
7
 70
0
 10
-11.27485797
 20
-26.7448807429
 10
-11.7934547475
 20
-26.529813933
 10
-12.2956928406
 20
-26.3052573975
 10
-12.7808783073
 20
-26.0715220667
 10
-13.2483408339
 20
-25.8289315438
 10
-13.6974346598
 20
-25.577821657
 10
-14.1275394684
 20
-25.3185399938
  0
LWPOLYLINE
  5
242
100
AcDbEntity
  8
RACCORDO
100
AcDbPolyline
 62
250
  6
CONTINUOUS
 90
10
 70
0
 10
-5.8949764267
 20
-28.1709701227
 10
-5.8563354208
 20
-28.1895407344
 10
-5.816185699
 20
-28.2067526513
 10
-5.7744822536
 20
-28.222733248
 10
-5.7309904133
 20
-28.2376834023
 10
-5.6857697578
 20
-28.2515117432
 10
-5.6392806783
 20
-28.2639548554
 10
-5.5917075214
 20
-28.275023648
 10
-5.5428680779
 20
-28.2848888741
 10
-5.4927620627
 20
-28.2936012572
  0
LINE
  5
243
100
AcDbEntity
  8
RACCORDO
100
AcDbLine
 62
250
  6
CONTINUOUS
 10
-16.719932738
 20
-23.1544126431
 11
-16.7200150644
 21
-23.1543714672
  0
LINE
  5
244
100
AcDbEntity
  8
RACCORDO
100
AcDbLine
 62
7
  6
CONTINUOUS
 10
-5.6351909368
 20
-28.6967835437
 11
-9.7605662131
 21
-26.6340959056
  0
LINE
  5
245
100
AcDbEntity
  8
RACCORDO
100
AcDbLine
 62
7
  6
CONTINUOUS
 10
-14.1511990102
 20
-24.438779507
 11
-16.719932738
 21
-23.1544126431
  0
LINE
  5
246
100
AcDbEntity
  8
RACCORDO
100
AcDbLine
 62
250
  6
CONTINUOUS
 10
-5.8949764267
 20
-28.1709701227
 11
-10.0110065781
 21
-26.112955047
  0
LINE
  5
247
100
AcDbEntity
  8
RACCORDO
100
AcDbLine
 62
250
  6
CONTINUOUS
 10
-14.1619916941
 20
-24.037462489
 11
-16.9797182279
 21
-22.6285992221
  0
LWPOLYLINE
  5
248
100
AcDbEntity
  8
RACCORDO
100
AcDbPolyline
 62
250
  6
CONTINUOUS
 90
10
 70
0
 10
-16.7200150644
 20
-23.1543714672
 10
-16.7411729431
 20
-23.1429238099
 10
-16.7935229872
 20
-23.1061731996
 10
-16.8402653296
 20
-23.060321212
 10
-16.8809056951
 20
-23.0058520593
 10
-16.9149987464
 20
-22.9433618696
 10
-16.94216023
 20
-22.8735840077
 10
-16.9621127859
 20
-22.7973078345
 10
-16.9746702746
 20
-22.715349295
 10
-16.9797182279
 20
-22.6285992221
  0
LWPOLYLINE
  5
249
100
AcDbEntity
  8
RACCORDO
100
AcDbPolyline
 62
250
  6
CONTINUOUS
 90
10
 70
0
 10
-5.6351909368
 20
-28.6967835437
 10
-5.6568284954
 20
-28.6850626506
 10
-5.7090331346
 20
-28.6483338974
 10
-5.755655022
 20
-28.6025410812
 10
-5.7961946366
 20
-28.5481748401
 10
-5.8302176243
 20
-28.4858176708
 10
-5.8573594525
 20
-28.4161376872
 10
-5.8773293153
 20
-28.3398814619
 10
-5.8899132494
 20
-28.2578660275
 10
-5.8949764267
 20
-28.1709701227
  0
LWPOLYLINE
  5
24A
100
AcDbEntity
  8
RACCORDO
100
AcDbPolyline
 62
7
  6
CONTINUOUS
 90
11
 70
0
 10
-13.8919278732
 20
-25.829624307
 10
-13.9076658627
 20
-25.8192136714
 10
-13.9499934992
 20
-25.7851981497
 10
-13.9886904638
 20
-25.7447389846
 10
-14.0229795296
 20
-25.6984491156
 10
-14.0528628847
 20
-25.6458273374
 10
-14.0783383409
 20
-25.5873748552
 10
-14.0986221066
 20
-25.5252082243
 10
-14.1134529178
 20
-25.4600329629
 10
-14.1230920384
 20
-25.3911435527
 10
-14.1275394684
 20
-25.3185399938
  0
LWPOLYLINE
  5
24B
100
AcDbEntity
  8
RACCORDO
100
AcDbPolyline
 62
7
  6
CONTINUOUS
 90
4
 70
0
 10
-32.8243183032
 20
6.1866592054
 10
-32.8315680225
 20
6.2157251981
 10
-32.8353666022
 20
6.2449547149
 10
-32.8359894171
 20
6.2658872212
  0
LWPOLYLINE
  5
24C
100
AcDbEntity
  8
RACCORDO
100
AcDbPolyline
 62
250
  6
CONTINUOUS
 90
8
 70
0
 10
-22.0740167261
 20
16.4076468008
 10
-22.3252683088
 20
15.926473558
 10
-22.5380865996
 20
15.4407194642
 10
-22.712174325
 20
14.9514054721
 10
-22.8473255386
 20
14.4595424729
 10
-22.9438551171
 20
13.963793126
 10
-23.0011334562
 20
13.4647859856
 10
-23.0185273425
 20
12.9638302127
  0
LWPOLYLINE
  5
24D
100
AcDbEntity
  8
RACCORDO
100
AcDbPolyline
 62
250
  6
CONTINUOUS
 90
3
 70
0
 10
-21.712832969
 20
16.9859203278
 10
-21.7830713441
 20
16.8854333399
 10
-22.0740167261
 20
16.4076468008
  0
LWPOLYLINE
  5
24E
100
AcDbEntity
  8
RACCORDO
100
AcDbPolyline
 62
250
  6
CONTINUOUS
 90
28
 70
0
 10
9.917677587
 20
34.9035450241
 10
9.9163812783
 20
34.9028111298
 10
9.9152841139
 20
34.9020290325
 10
9.9143860936
 20
34.9011987323
 10
9.9136798776
 20
34.900307439
 10
9.9131728058
 20
34.8993679427
 10
9.9128868981
 20
34.8984186138
 10
9.9128316342
 20
34.8974594506
 10
9.9129975344
 20
34.8964904549
 10
9.9133781794
 20
34.8955500022
 10
9.9139821964
 20
34.894639246
 10
9.9148009582
 20
34.8937570329
 10
9.9158021633
 20
34.892938278
 10
9.9169931783
 20
34.8921854631
 10
9.9183666368
 20
34.8914961065
 10
9.919868137
 20
34.8908976787
 10
9.9215028475
 20
34.8903938397
 10
9.9232655998
 20
34.8899809295
 10
9.9250864878
 20
34.8896754388
 10
9.9269677811
 20
34.8894816712
 10
9.9289072101
 20
34.8893953232
 10
9.9308280602
 20
34.889419974
 10
9.9327298661
 20
34.8895600781
 10
9.9346130931
 20
34.8898111811
 10
9.9364024234
 20
34.8901634991
 10
9.9380727509
 20
34.890613771
 10
9.9396491817
 20
34.8911652579
 10
9.9411317156
 20
34.8918179598
  0
LWPOLYLINE
  5
24F
100
AcDbEntity
  8
RACCORDO
100
AcDbPolyline
 62
7
  6
CONTINUOUS
 90
12
 70
0
 10
9.711959738
 20
34.9166100487
 10
9.669718715
 20
34.8927155194
 10
9.6298003446
 20
34.8643497221
 10
9.5929687246
 20
34.8319140841
 10
9.5601616744
 20
34.7963192398
 10
9.5313679793
 20
34.7577528741
 10
9.5061291218
 20
34.7153313776
 10
9.4849369516
 20
34.6689847727
 10
9.4686858735
 20
34.6196346833
 10
9.4578943776
 20
34.5677558335
 10
9.4530656121
 20
34.5144049623
 10
9.4528438412
 20
34.5040063573
  0
LWPOLYLINE
  5
250
100
AcDbEntity
  8
RACCORDO
100
AcDbPolyline
 62
250
  6
CONTINUOUS
 90
19
 70
0
 10
-31.158345197
 20
15.0837361484
 10
-31.2356159001
 20
15.0447969353
 10
-31.3118799805
 20
14.9997855455
 10
-31.3867105965
 20
14.9489931364
 10
-31.4597370308
 20
14.8928092684
 10
-31.530601001
 20
14.8315446429
 10
-31.5989388158
 20
14.7653945923
 10
-31.6644444638
 20
14.6946779781
 10
-31.7267311085
 20
14.6198787941
 10
-31.7853255518
 20
14.5414441194
 10
-31.8399009861
 20
14.4598143917
 10
-31.8901929075
 20
14.3754883337
 10
-31.93584816
 20
14.2890005491
 10
-31.9765858305
 20
14.2009140651
 10
-32.0122385348
 20
14.1116744285
 10
-32.0426521543
 20
14.0216340626
 10
-32.0676494267
 20
13.9312442495
 10
-32.0870556904
 20
13.8410667279
 10
-32.1007690368
 20
13.7516558257
  0
LINE
  5
251
100
AcDbEntity
  8
RACCORDO
100
AcDbLine
 62
7
  6
CONTINUOUS
 10
11.3178980503
 20
35.7195792049
 11
9.7119595862
 21
34.9166099728
  0
LINE
  5
252
100
AcDbEntity
  8
RACCORDO
100
AcDbLine
 62
250
  6
CONTINUOUS
 10
11.5593026902
 20
35.7243575757
 11
9.917677587
 21
34.9035450241
  0
LINE
  5
253
100
AcDbEntity
  8
RACCORDO
100
AcDbLine
 62
250
  6
CONTINUOUS
 10
9.9411317156
 20
34.8918179598
 11
11.5865505643
 21
35.7145273842
  0
LINE
  5
254
100
AcDbEntity
  8
RACCORDO
100
AcDbLine
 62
250
  6
CONTINUOUS
 10
10.2663884497
 20
34.3342943117
 11
11.9573681178
 21
35.1797841458
  0
LWPOLYLINE
  5
255
100
AcDbEntity
  8
RACCORDO
100
AcDbPolyline
 62
7
  6
CONTINUOUS
 90
12
 70
0
 10
11.3178977177
 20
35.7195790386
 10
11.3291786249
 20
35.7248633369
 10
11.3495476683
 20
35.7327275385
 10
11.3707528497
 20
35.7388630846
 10
11.3927167834
 20
35.7432546639
 10
11.415319747
 20
35.7458705363
 10
11.4384793507
 20
35.7467082585
 10
11.4621139307
 20
35.7457735083
 10
11.4861032758
 20
35.7430528527
 10
11.5103499651
 20
35.738554633
 10
11.5347790184
 20
35.732312139
 10
11.5593026902
 20
35.7243575757
  0
LINE
  5
256
100
AcDbEntity
  8
DRAFT
100
AcDbLine
 62
7
  6
CONTINUOUS
 10
-12.0138531921
 20
22.8081318351
 11
-12.0868268294
 21
22.7793975611
  0
LWPOLYLINE
  5
257
100
AcDbEntity
  8
DRAFT
100
AcDbPolyline
 62
7
  6
CONTINUOUS
 90
5
 70
0
 10
-11.339427168
 20
23.0593422479
 10
-11.5100452374
 20
22.9978998848
 10
-11.6793352272
 20
22.9355458936
 10
-11.8472776547
 20
22.8722874504
 10
-12.0138531921
 20
22.8081318351
  0
LWPOLYLINE
  5
258
100
AcDbEntity
  8
RACCORDO
100
AcDbPolyline
 62
250
  6
CONTINUOUS
 90
10
 70
0
 10
-17.2249804969
 20
-22.4274920401
 10
-17.2074011158
 20
-22.4528767259
 10
-17.1873737962
 20
-22.4773822749
 10
-17.1649101766
 20
-22.5011401062
 10
-17.139884189
 20
-22.5243948201
 10
-17.1123106711
 20
-22.5470460261
 10
-17.082466962
 20
-22.5687408939
 10
-17.0504846302
 20
-22.5894520427
 10
-17.0162411957
 20
-22.6093871548
 10
-16.9797182279
 20
-22.6285992221
  0
LWPOLYLINE
  5
259
100
AcDbEntity
  8
RACCORDO
100
AcDbPolyline
 62
7
  6
CONTINUOUS
 90
4
 70
0
 10
-32.7823678396
 20
6.1013263132
 10
-32.7996804111
 20
6.1293091868
 10
-32.8136525725
 20
6.1577550623
 10
-32.8243183032
 20
6.1866592054
  0
LWPOLYLINE
  5
25A
100
AcDbEntity
  8
RACCORDO
100
AcDbPolyline
 62
7
  6
CONTINUOUS
 90
10
 70
0
 10
-17.1149414782
 20
-22.7991158049
 10
-17.315712642
 20
-22.465516091
 10
-17.4926588664
 20
-22.1297731302
 10
-17.6460037786
 20
-21.7924018215
 10
-17.7759052651
 20
-21.454185303
 10
-17.8827630977
 20
-21.1153968814
 10
-17.9670384286
 20
-20.7758224123
 10
-18.0289422867
 20
-20.4357862006
 10
-18.0686176029
 20
-20.0961297969
 10
-18.0863207072
 20
-19.757445632
  0
LWPOLYLINE
  5
25B
100
AcDbEntity
  8
RACCORDO
100
AcDbPolyline
 62
250
  6
CONTINUOUS
 90
6
 70
0
 10
-17.1149414782
 20
-22.7991158049
 10
-17.1377564734
 20
-22.7607603479
 10
-17.1743139664
 20
-22.6833598216
 10
-17.2012114956
 20
-22.6014231323
 10
-17.2181608727
 20
-22.515828175
 10
-17.2249804969
 20
-22.4274920401
  0
LWPOLYLINE
  5
25C
100
AcDbEntity
  8
RACCORDO
100
AcDbPolyline
 62
250
  6
CONTINUOUS
 90
9
 70
0
 10
-17.2249804969
 20
-22.4274920401
 10
-17.4387062543
 20
-22.0681655136
 10
-17.6224759483
 20
-21.7048089038
 10
-17.7759956521
 20
-21.3380468361
 10
-17.899018611
 20
-20.968525998
 10
-17.9913631597
 20
-20.5968633774
 10
-18.0528989067
 20
-20.2236442986
 10
-18.0835267387
 20
-19.8495679995
 10
-18.0863207072
 20
-19.757445632
  0
LINE
  5
25D
100
AcDbEntity
  8
RACCORDO
100
AcDbLine
 62
250
  6
CONTINUOUS
 10
-23.0185273425
 20
12.9638302127
 11
-22.9954848116
 21
12.4606112143
  0
LWPOLYLINE
  5
25E
100
AcDbEntity
  8
RACCORDO
100
AcDbPolyline
 62
250
  6
CONTINUOUS
 90
28
 70
0
 10
-21.4769369036
 20
29.9899474641
 10
-21.469972865
 20
29.6019162551
 10
-21.4242177321
 20
29.1336440779
 10
-21.3405284079
 20
28.6792681959
 10
-21.2223858659
 20
28.2399572109
 10
-21.0729909275
 20
27.8157513995
 10
-20.8967409028
 20
27.4095817442
 10
-20.6979606561
 20
27.0228354513
 10
-20.4797236797
 20
26.6544564515
 10
-20.2447460688
 20
26.3035118344
 10
-19.9962311627
 20
25.9701624988
 10
-19.7369418859
 20
25.6540733149
 10
-19.4682211915
 20
25.3535417915
 10
-19.1924156241
 20
25.0683917098
 10
-18.9117375603
 20
24.7983842317
 10
-18.6266008967
 20
24.5417791489
 10
-18.3387614257
 20
24.2983438211
 10
-18.0498749543
 20
24.0678120176
 10
-17.7595921274
 20
23.8484874344
 10
-17.4691970751
 20
23.6401377563
 10
-17.1799001079
 20
23.4425105258
 10
-16.8907317624
 20
23.253994243
 10
-16.602649803
 20
23.0744131671
 10
-16.3164777914
 20
22.9035264799
 10
-16.0306134291
 20
22.7397540432
 10
-15.7448509563
 20
22.5824976359
 10
-15.4605748905
 20
22.4320609328
 10
-15.1783529019
 20
22.288281332
  0
LWPOLYLINE
  5
25F
100
AcDbEntity
  8
RACCORDO
100
AcDbPolyline
 62
250
  6
CONTINUOUS
 90
9
 70
0
 10
-21.7638606802
 20
14.1723317026
 10
-21.7646013114
 20
14.0581891322
 10
-21.7437708075
 20
13.5820139683
 10
-21.6838487505
 20
13.1046047053
 10
-21.5842117147
 20
12.6268897174
 10
-21.444022921
 20
12.1491500396
 10
-21.2624794358
 20
11.6721156261
 10
-21.0390488267
 20
11.1969513923
 10
-20.7732142555
 20
10.7246545353
  0
LINE
  5
260
100
AcDbEntity
  8
RACCORDO
100
AcDbLine
 62
7
  6
CONTINUOUS
 10
-21.7636614156
 20
14.1839469306
 11
-21.7638606802
 21
14.1723317026
  0
LINE
  5
261
100
AcDbEntity
  8
DRAFT
100
AcDbLine
 62
7
  6
CONTINUOUS
 10
-21.7636614792
 20
14.1839434259
 11
-21.4769369041
 21
29.9899474355
  0
LINE
  5
262
100
AcDbEntity
  8
0
100
AcDbLine
 62
7
  6
CONTINUOUS
 10
-12.1737303449
 20
29.4803046813
 11
-14.3270931236
 21
23.3110088693
  0
LINE
  5
263
100
AcDbEntity
  8
0
100
AcDbLine
 62
250
  6
CONTINUOUS
 10
-11.7086062278
 20
29.0404039298
 11
-13.8009792841
 21
23.0458411646
  0
LWPOLYLINE
  5
264
100
AcDbEntity
  8
RACCORDO
100
AcDbPolyline
 62
250
  6
CONTINUOUS
 90
28
 70
0
 10
14.3724503085
 20
32.6761586634
 10
14.3711539998
 20
32.6754247691
 10
14.3700568353
 20
32.6746426718
 10
14.3691588151
 20
32.6738123716
 10
14.3684525991
 20
32.6729210782
 10
14.3679455273
 20
32.6719815819
 10
14.3676596195
 20
32.671032253
 10
14.3676043557
 20
32.6700730899
 10
14.3677702559
 20
32.6691040942
 10
14.3681509008
 20
32.6681636415
 10
14.3687549179
 20
32.6672528853
 10
14.3695736796
 20
32.6663706721
 10
14.3705748847
 20
32.6655519173
 10
14.3717658998
 20
32.6647991024
 10
14.3731393582
 20
32.6641097458
 10
14.3746408585
 20
32.663511318
 10
14.3762755689
 20
32.663007479
 10
14.3780383212
 20
32.6625945688
 10
14.3798592093
 20
32.662289078
 10
14.3817405025
 20
32.6620953105
 10
14.3836799315
 20
32.6620089624
 10
14.3856007817
 20
32.6620336132
 10
14.3875025876
 20
32.6621737173
 10
14.3893858146
 20
32.6624248203
 10
14.3911751449
 20
32.6627771384
 10
14.3928454724
 20
32.6632274102
 10
14.3944219031
 20
32.6637788971
 10
14.3959044371
 20
32.6644315991
  0
LWPOLYLINE
  5
265
100
AcDbEntity
  8
RACCORDO
100
AcDbPolyline
 62
7
  6
CONTINUOUS
 90
12
 70
0
 10
14.1667324595
 20
32.689223688
 10
14.1244914364
 20
32.6653291586
 10
14.0845730661
 20
32.6369633613
 10
14.0477414461
 20
32.6045277234
 10
14.0149343958
 20
32.5689328791
 10
13.9861407008
 20
32.5303665133
 10
13.9609018433
 20
32.4879450169
 10
13.939709673
 20
32.441598412
 10
13.9234585949
 20
32.3922483225
 10
13.9126670991
 20
32.3403694728
 10
13.9078383336
 20
32.2870186016
 10
13.9076165627
 20
32.2766199966
  0
LINE
  5
266
100
AcDbEntity
  8
0
100
AcDbLine
 62
7
  6
CONTINUOUS
 10
-10.1475884203
 20
21.6550895898
 11
-9.339255136
 21
22.0592562319
  0
LINE
  5
267
100
AcDbEntity
  8
RACCORDO
100
AcDbLine
 62
7
  6
CONTINUOUS
 10
15.8430273662
 20
33.5273711413
 11
14.1667323077
 21
32.6892236121
  0
LINE
  5
268
100
AcDbEntity
  8
RACCORDO
100
AcDbLine
 62
250
  6
CONTINUOUS
 10
16.0178691572
 20
33.4988680877
 11
14.3724503085
 21
32.6761586634
  0
LINE
  5
269
100
AcDbEntity
  8
RACCORDO
100
AcDbLine
 62
250
  6
CONTINUOUS
 10
14.3959044371
 20
32.6644315991
 11
16.0375295402
 21
33.4852441507
  0
LINE
  5
26A
100
AcDbEntity
  8
RACCORDO
100
AcDbLine
 62
250
  6
CONTINUOUS
 10
14.7211611712
 20
32.106907951
 11
16.3030693607
 21
32.8978620457
  0
LWPOLYLINE
  5
26B
100
AcDbEntity
  8
RACCORDO
100
AcDbPolyline
 62
7
  6
CONTINUOUS
 90
12
 70
0
 10
15.8430263582
 20
33.5273706373
 10
15.8511671695
 20
33.5310892441
 10
15.8659987207
 20
33.5361855457
 10
15.881426769
 20
33.5394253036
 10
15.8973757919
 20
33.5407948562
 10
15.9137941217
 20
33.5403005777
 10
15.9305961479
 20
33.5379418146
 10
15.9477014683
 20
33.5337273692
 10
15.9650640573
 20
33.5276869499
 10
15.9826108672
 20
33.5198460887
 10
16.0002417648
 20
33.5102279927
 10
16.0178691572
 20
33.4988680877
  0
LWPOLYLINE
  5
26C
100
AcDbEntity
  8
RACCORDO
100
AcDbPolyline
 62
250
  6
CONTINUOUS
 90
10
 70
0
 10
-31.8048869555
 20
-1.9909383702
 10
-31.8291522493
 20
-1.9727123946
 10
-31.8793912764
 20
-1.9282580171
 10
-31.9250000094
 20
-1.8781001364
 10
-31.96569354
 20
-1.8225505326
 10
-32.0013173666
 20
-1.7618812309
 10
-32.031719797
 20
-1.6963654392
 10
-32.0567159201
 20
-1.6262988617
 10
-32.0761305893
 20
-1.5520643698
 10
-32.0898663015
 20
-1.4741457317
  0
LWPOLYLINE
  5
26D
100
AcDbEntity
  8
RACCORDO
100
AcDbPolyline
 62
250
  6
CONTINUOUS
 90
4
 70
0
 10
-22.9954848116
 20
12.4606112143
 10
-22.9312171588
 20
11.9560006639
 10
-22.8250519281
 20
11.4510985577
 10
-22.6760892622
 20
10.9460112554
  0
LWPOLYLINE
  5
26E
100
AcDbEntity
  8
RACCORDO
100
AcDbPolyline
 62
7
  6
CONTINUOUS
 90
49
 70
0
 10
-19.7191071225
 20
29.8396369398
 10
-19.6895361003
 20
29.3642708626
 10
-19.6109929854
 20
28.8923187131
 10
-19.4843852376
 20
28.4246471435
 10
-19.3108900785
 20
27.9625870927
 10
-19.0915465395
 20
27.5067392625
 10
-18.8269047978
 20
27.0570478733
 10
-18.5181953694
 20
26.6148513326
 10
-18.1666091013
 20
26.1811699622
 10
-17.7720551686
 20
25.7556192192
 10
-17.3354268825
 20
25.3392181749
 10
-16.8581400353
 20
24.9333338778
 10
-16.3402592961
 20
24.5381399846
 10
-15.7825967712
 20
24.1545340393
 10
-15.1867874719
 20
23.7838792254
 10
-14.5538551313
 20
23.4270153847
 10
-13.8850936403
 20
23.084891539
 10
-13.1821836054
 20
22.7585631775
 10
-12.4467281303
 20
22.4489417114
 10
-11.6803661166
 20
22.1568742136
 10
-10.8849663714
 20
21.8832158114
 10
-10.0625544246
 20
21.6287822068
 10
-9.2150705534
 20
21.394275816
 10
-8.344558565
 20
21.180355714
 10
-7.4532879414
 20
20.9876567061
 10
-6.5434237888
 20
20.8167092219
 10
-5.6171559424
 20
20.667981455
 10
-4.6768590598
 20
20.5419018492
 10
-3.7248165324
 20
20.4388143865
 10
-2.7633504729
 20
20.3590043049
 10
-1.7949360535
 20
20.3027021027
 10
-0.8219379111
 20
20.2700619853
 10
0.1532660938
 20
20.2611771521
 10
1.1281635598
 20
20.2760760099
 10
2.1003705437
 20
20.3147197727
 10
3.0675098967
 20
20.3770083936
 10
4.0270883245
 20
20.4627676311
 10
4.9767664446
 20
20.5717665721
 10
5.9142226874
 20
20.7037132064
 10
6.8370258343
 20
20.858229829
 10
7.7429310083
 20
21.0348945994
 10
8.6297412003
 20
21.2332281043
 10
9.4951575995
 20
21.4526530164
 10
10.3370887503
 20
21.6925621602
 10
11.1535183488
 20
21.9522965635
 10
11.9423422302
 20
22.2310862389
 10
12.7016295267
 20
22.5281263685
 10
13.4296420822
 20
22.8426017633
 10
14.12468383
 20
23.1736343114
  0
LINE
  5
26F
100
AcDbEntity
  8
DRAFT
100
AcDbLine
 62
7
  6
CONTINUOUS
 10
-18.2766981681
 20
-10.3124309171
 11
-18.0863207072
 21
-19.757445632
  0
LINE
  5
270
100
AcDbEntity
  8
RACCORDO
100
AcDbLine
 62
250
  6
CONTINUOUS
 10
-16.9797182279
 20
-22.6285992221
 11
-17.1885505223
 21
-10.8900415241
  0
LINE
  5
271
100
AcDbEntity
  8
RACCORDO
100
AcDbLine
 62
250
  6
CONTINUOUS
 10
-17.2249804969
 20
-22.4274920401
 11
-17.4315435111
 21
-10.7610559694
  0
LWPOLYLINE
  5
272
100
AcDbEntity
  8
RACCORDO
100
AcDbPolyline
 62
250
  6
CONTINUOUS
 90
27
 70
0
 10
-19.7191071224
 20
29.8396369274
 10
-19.7115046801
 20
30.1678342736
 10
-19.6669115367
 20
30.6085560597
 10
-19.5855034573
 20
31.0371195336
 10
-19.4701818067
 20
31.453039293
 10
-19.3252557674
 20
31.8522408936
 10
-19.155012026
 20
32.2331232807
 10
-18.9625923162
 20
32.5967148417
 10
-18.7512557429
 20
32.9431331248
 10
-18.5245268037
 20
33.2719352466
 10
-18.2852228148
 20
33.583624833
 10
-18.0349672405
 20
33.8798092722
 10
-17.7762577403
 20
34.160629971
 10
-17.5114424628
 20
34.4263087371
 10
-17.2411651225
 20
34.6785323146
 10
-16.9672972039
 20
34.9175238289
 10
-16.6916016888
 20
35.1435459363
 10
-16.4139190358
 20
35.3582577495
 10
-16.1356204873
 20
35.5618937436
 10
-15.857995781
 20
35.7547122489
 10
-15.5802314926
 20
35.938295948
 10
-15.3033397742
 20
36.1128340055
 10
-15.0282106985
 20
36.2785716881
 10
-14.7534009077
 20
36.4370477469
 10
-14.4787868376
 20
36.588854252
 10
-14.2057611045
 20
36.7337167907
 10
-13.9349312699
 20
36.8718103654
  0
LWPOLYLINE
  5
273
100
AcDbEntity
  8
0
100
AcDbPolyline
 62
7
  6
CONTINUOUS
 90
13
 70
0
 10
-12.9644379401
 20
33.8154909101
 10
-12.9734643985
 20
33.7757760095
 10
-12.980575109
 20
33.7353226314
 10
-12.9858065133
 20
33.6942260764
 10
-12.9891818199
 20
33.6526125504
 10
-12.990761909
 20
33.6105263947
 10
-12.9906407276
 20
33.5679237503
 10
-12.9888806144
 20
33.5247619513
 10
-12.9855080641
 20
33.4812001797
 10
-12.9805655663
 20
33.4374897297
 10
-12.9741031833
 20
33.3937488252
 10
-12.9661746011
 20
33.3499553886
 10
-12.9568313918
 20
33.3061466785
  0
LWPOLYLINE
  5
274
100
AcDbEntity
  8
0
100
AcDbPolyline
 62
7
  6
CONTINUOUS
 90
9
 70
0
 10
-12.0929491049
 20
22.7618574934
 10
-12.105853119
 20
22.7220676836
 10
-12.1179717242
 20
22.6784653053
 10
-12.1290823012
 20
22.6310966296
 10
-12.1389665334
 20
22.5800733261
 10
-12.1474325061
 20
22.525474979
 10
-12.1543105704
 20
22.4672943865
 10
-12.1594258929
 20
22.4055864844
 10
-12.1625993263
 20
22.3406576533
  0
LINE
  5
275
100
AcDbEntity
  8
0
100
AcDbLine
 62
7
  6
CONTINUOUS
 10
-9.8922357479
 20
29.0668107652
 11
-12.0929491049
 21
22.7618574934
  0
LWPOLYLINE
  5
276
100
AcDbEntity
  8
0
100
AcDbPolyline
 62
250
  6
CONTINUOUS
 90
18
 70
0
 10
-9.8922357479
 20
29.0668107652
 10
-9.908893994
 20
29.0251073836
 10
-9.9578587462
 20
28.9394889718
 10
-10.023470601
 20
28.8622515791
 10
-10.1046069211
 20
28.7947167587
 10
-10.1998794417
 20
28.7380400501
 10
-10.3076580235
 20
28.6931912075
 10
-10.4260985451
 20
28.660937607
 10
-10.5531744564
 20
28.6418311167
 10
-10.6867114533
 20
28.636198654
 10
-10.8244246806
 20
28.6441365917
 10
-10.9639578271
 20
28.6655091097
 10
-11.1029234417
 20
28.6999505182
 10
-11.2389437843
 20
28.7468715151
 10
-11.3696915092
 20
28.8054692693
 10
-11.4929294866
 20
28.8747411568
 10
-11.6065490803
 20
28.9535019164
 10
-11.7086062278
 20
29.0404039298
  0
LWPOLYLINE
  5
277
100
AcDbEntity
  8
0
100
AcDbPolyline
 62
250
  6
CONTINUOUS
 90
7
 70
0
 10
-12.0929491049
 20
22.7618574934
 10
-12.109607351
 20
22.7201541118
 10
-12.1585721033
 20
22.6345357
 10
-12.224183958
 20
22.5572983073
 10
-12.3053202781
 20
22.4897634869
 10
-12.4005927987
 20
22.4330867783
 10
-12.4027598783
 20
22.4321850127
  0
LWPOLYLINE
  5
278
100
AcDbEntity
  8
ASSI
100
AcDbPolyline
 62
7
  6
CONTINUOUS
 90
8
 70
0
 10
0.1185179824
 20
20.3566919537
 10
0.15913225
 20
20.3797439455
 10
0.1934665523
 20
20.4042611781
 10
0.2215208892
 20
20.4302436517
 10
0.2435032782
 20
20.4580791093
 10
0.2592057018
 20
20.4873798078
 10
0.2680041075
 20
20.516982518
 10
0.2698709819
 20
20.5395177937
  0
LINE
  5
279
100
AcDbEntity
  8
ASSI
100
AcDbLine
 62
7
  6
CONTINUOUS
 10
-1.0853715515
 20
21.0420640732
 11
-2.4839759437
 21
20.3427618772
  0
LINE
  5
27A
100
AcDbEntity
  8
ASSI
100
AcDbLine
 62
7
  6
CONTINUOUS
 10
-1.0853729207
 20
20.9121595781
 11
-2.2512312023
 21
20.3292304373
  0
LINE
  5
27B
100
AcDbEntity
  8
ASSI
100
AcDbLine
 62
7
  6
CONTINUOUS
 10
-1.3441090698
 20
20.35670998
 11
-0.6128336211
 21
20.7223477044
  0
LINE
  5
27C
100
AcDbEntity
  8
ASSI
100
AcDbLine
 62
7
  6
CONTINUOUS
 10
0.1185179824
 20
20.3566919537
 11
-0.0684712371
 21
20.2631973439
  0
LWPOLYLINE
  5
27D
100
AcDbEntity
  8
RACCORDO
100
AcDbPolyline
 62
7
  6
CONTINUOUS
 90
10
 70
0
 10
4.3198175237
 20
-20.0578777962
 10
4.414808871
 20
-20.0861988245
 10
4.5082428071
 20
-20.1054003909
 10
4.6031898399
 20
-20.1166077006
 10
4.699552477
 20
-20.1197279914
 10
4.7966115589
 20
-20.1146190223
 10
4.8935124892
 20
-20.1012407944
 10
4.9900792839
 20
-20.0794915186
 10
5.0858155572
 20
-20.0492846291
 10
5.1446716918
 20
-20.0262359046
  0
LINE
  5
27E
100
AcDbEntity
  8
RACCORDO
100
AcDbLine
 62
7
  6
CONTINUOUS
 10
4.3198585455
 20
-20.0578920172
 11
4.3204056236
 21
-20.0580820655
  0
LINE
  5
27F
100
AcDbEntity
  8
RACCORDO
100
AcDbLine
 62
7
  6
CONTINUOUS
 10
2.1042952361
 20
-19.2742036517
 11
4.320397147
 21
-20.0581008512
  0
LWPOLYLINE
  5
280
100
AcDbEntity
  8
RACCORDO
100
AcDbPolyline
 62
7
  6
CONTINUOUS
 90
10
 70
0
 10
13.4268517255
 20
-25.8444493713
 10
13.4878830146
 20
-25.8719174065
 10
13.5479960402
 20
-25.8925793944
 10
13.6071908023
 20
-25.9064353348
 10
13.6661356891
 20
-25.9135178985
 10
13.7241623125
 20
-25.9137944148
 10
13.7792655076
 20
-25.9071668719
 10
13.8310378835
 20
-25.8934345529
 10
13.8798868312
 20
-25.8727981746
 10
13.9083756911
 20
-25.856748759
  0
LWPOLYLINE
  5
281
100
AcDbEntity
  8
RACCORDO
100
AcDbPolyline
 62
7
  6
CONTINUOUS
 90
7
 70
0
 10
-11.0861837457
 20
-13.8821460023
 10
-8.9807795242
 20
-14.834912094
 10
-6.8387000078
 20
-15.7658490953
 10
-4.6605805892
 20
-16.6747023664
 10
-2.4439774024
 20
-17.5624654429
 10
-0.1884274056
 20
-18.4292012518
 10
2.1042952361
 20
-19.2742036517
  0
LINE
  5
282
100
AcDbEntity
  8
RACCORDO
100
AcDbLine
 62
7
  6
CONTINUOUS
 10
-13.1542721092
 20
-12.9079153051
 11
-11.0861837457
 21
-13.8821460023
  0
LINE
  5
283
100
AcDbEntity
  8
RACCORDO
100
AcDbLine
 62
7
  6
CONTINUOUS
 10
-15.187225365
 20
-11.9111967249
 11
-13.1542721092
 21
-12.9079153051
  0
LINE
  5
284
100
AcDbEntity
  8
RACCORDO
100
AcDbLine
 62
7
  6
CONTINUOUS
 10
12.0158690305
 20
-25.1389580237
 11
13.4270887814
 21
-25.8445678992
  0
LINE
  5
285
100
AcDbEntity
  8
RACCORDO
100
AcDbLine
 62
7
  6
CONTINUOUS
 10
-14.7209459924
 20
-12.1398046936
 11
-14.4775763335
 21
-12.3027088126
  0
LWPOLYLINE
  5
286
100
AcDbEntity
  8
RACCORDO
100
AcDbPolyline
 62
250
  6
CONTINUOUS
 90
16
 70
0
 10
-32.0898946589
 20
-1.4741603952
 10
-30.0408361125
 20
-2.8999826494
 10
-27.9400894448
 20
-4.2941874224
 10
-25.7887390812
 20
-5.6561049439
 10
-23.5895094249
 20
-6.9843208208
 10
-21.3421278569
 20
-8.279281651
 10
-19.0429728687
 20
-9.5430487973
 10
-16.6930217068
 20
-10.7750877908
 10
-14.2935661607
 20
-11.9748183318
 10
-11.8411148577
 20
-13.1439867034
 10
-9.3369320462
 20
-14.2818922899
 10
-6.7819991103
 20
-15.3880889877
 10
-4.1720138173
 20
-16.4644794097
 10
-1.5060895713
 20
-17.5111958828
 10
1.2128416466
 20
-18.5268261678
 10
3.9834273376
 20
-19.5108218131
  0
LWPOLYLINE
  5
287
100
AcDbEntity
  8
RACCORDO
100
AcDbPolyline
 62
7
  6
CONTINUOUS
 90
10
 70
0
 10
-31.8049133229
 20
-1.990930333
 10
-30.1796460115
 20
-3.1266182448
 10
-28.4271535908
 20
-4.3050873856
 10
-26.6394207591
 20
-5.4607802023
 10
-24.8178849988
 20
-6.5928296624
 10
-22.9624663785
 20
-7.7014498258
 10
-21.0713294616
 20
-8.7877834666
 10
-19.1450645362
 20
-9.8514846229
 10
-17.1843611938
 20
-10.8922653038
 10
-15.187225365
 20
-11.9111967249
  0
LINE
  5
288
100
AcDbEntity
  8
RACCORDO
100
AcDbLine
 62
7
  6
CONTINUOUS
 10
-31.8041720074
 20
-1.9914468854
 11
-31.8048869555
 21
-1.9909383702
  0
LINE
  5
289
100
AcDbEntity
  8
RACCORDO
100
AcDbLine
 62
250
  6
CONTINUOUS
 10
-22.6760892622
 20
10.9460112554
 11
-22.4834232576
 21
10.4414966781
  0
LWPOLYLINE
  5
28A
100
AcDbEntity
  8
C_COMPONENTE
100
AcDbPolyline
 62
7
  6
CONTINUOUS
 90
4
 70
0
 10
-9.0533322198
 20
-39.1467391586
 10
-9.0725140103
 20
-39.0790239357
 10
-9.0859263981
 20
-38.9895359975
 10
-9.0876047066
 20
-38.9446665643
  0
LINE
  5
28B
100
AcDbEntity
  8
RACCORDO
100
AcDbLine
 62
7
  6
CONTINUOUS
 10
-14.4775763335
 20
-12.3027088126
 11
-14.1275394684
 21
-25.3185399938
  0
LINE
  5
28C
100
AcDbEntity
  8
DRAFT
100
AcDbLine
 62
7
  6
CONTINUOUS
 10
-15.2742234581
 20
35.6904514945
 11
-15.1892576572
 21
23.7854159353
  0
LINE
  5
28D
100
AcDbEntity
  8
ASSI
100
AcDbLine
 62
250
  6
CONTINUOUS
 10
-13.6428375939
 20
36.574695994
 11
-13.6428375939
 21
25.2713728245
  0
LWPOLYLINE
  5
28E
100
AcDbEntity
  8
RACCORDO
100
AcDbPolyline
 62
7
  6
CONTINUOUS
 90
19
 70
0
 10
14.12468383
 20
23.1736343114
 10
14.7029256716
 20
23.4752683749
 10
15.2538866939
 20
23.7881924041
 10
15.7765691771
 20
24.1117179326
 10
16.2698992076
 20
24.4450282305
 10
16.7331953482
 20
24.7874923373
 10
17.1660421217
 20
25.1386677126
 10
17.5674322705
 20
25.4975975468
 10
17.9368639079
 20
25.8636663166
 10
18.2744349749
 20
26.2369374201
 10
18.5792044603
 20
26.616429452
 10
18.8506321561
 20
27.0015101933
 10
19.0889192758
 20
27.3928166033
 10
19.2932933041
 20
27.7898556075
 10
19.4627715468
 20
28.1916002001
 10
19.5968385336
 20
28.5980034344
 10
19.6947429129
 20
29.0086532017
 10
19.7556660508
 20
29.4227201972
 10
19.7789265519
 20
29.8396369384
  0
LINE
  5
28F
100
AcDbEntity
  8
DRAFT
100
AcDbLine
 62
7
  6
CONTINUOUS
 10
10.35366872
 20
22.0415785624
 11
11.9682847938
 21
22.8488865992
  0
LINE
  5
290
100
AcDbEntity
  8
RACCORDO
100
AcDbLine
 62
250
  6
CONTINUOUS
 10
14.3482906277
 20
23.1594334178
 11
14.0646567588
 21
23.0195317711
  0
LWPOLYLINE
  5
291
100
AcDbEntity
  8
RACCORDO
100
AcDbPolyline
 62
250
  6
CONTINUOUS
 90
29
 70
0
 10
14.0646567588
 20
23.0195317711
 10
13.766264129
 20
22.8791295231
 10
13.4531127383
 20
22.7382266736
 10
13.1265260499
 20
22.5967882882
 10
12.7851806005
 20
22.4548493015
 10
12.4251060011
 20
22.3125145164
 10
12.0463831087
 20
22.1695563498
 10
11.6489310662
 20
22.0262023849
 10
11.2285369129
 20
21.8832401748
 10
10.7852673373
 20
21.7404064653
 10
10.319055651
 20
21.5979645105
 10
9.8254888268
 20
21.4574916264
 10
9.3045386888
 20
21.3186607909
 10
8.7562334129
 20
21.1817990259
 10
8.1762445009
 20
21.049464713
 10
7.5643328609
 20
20.9212576071
 10
6.9207375846
 20
20.7975779532
 10
6.2418474487
 20
20.6821848674
 10
5.5262180968
 20
20.5745998767
 10
4.7752938852
 20
20.475301454
 10
3.9897966592
 20
20.3894841348
 10
3.1663775007
 20
20.3170463234
 10
2.3083853279
 20
20.2580896154
 10
1.4265887401
 20
20.2181133328
 10
0.519832849
 20
20.1978000037
 10
-0.410727457
 20
20.1964670998
 10
-1.3508589134
 20
20.2175663589
 10
-2.3008060675
 20
20.2619871402
 10
-3.260324372
 20
20.3288400845
  0
LWPOLYLINE
  5
292
100
AcDbEntity
  8
RACCORDO
100
AcDbPolyline
 62
250
  6
CONTINUOUS
 90
22
 70
0
 10
12.5203427605
 20
21.1378197613
 10
13.3242306097
 20
21.4389586792
 10
14.0995607724
 20
21.7587261663
 10
14.8450193112
 20
22.096660093
 10
15.5584524912
 20
22.4518672527
 10
16.2374846918
 20
22.8231655669
 10
16.8803358898
 20
23.2094933483
 10
17.4860555239
 20
23.6101861881
 10
18.0536873383
 20
24.0245777873
 10
18.581697957
 20
24.4515106867
 10
19.0692812069
 20
24.8902921788
 10
19.5163553257
 20
25.3410133854
 10
19.9222603719
 20
25.8034980968
 10
20.2850616009
 20
26.2760842086
 10
20.6029293919
 20
26.7565967739
 10
20.8756612521
 20
27.2449069241
 10
21.1020236019
 20
27.7390130276
 10
21.2802604837
 20
28.2337162029
 10
21.4111559249
 20
28.727851149
 10
21.4955878279
 20
29.2202581563
 10
21.5343967541
 20
29.7056368805
 10
21.536756333
 20
29.9899474637
  0
LINE
  5
293
100
AcDbEntity
  8
RACCORDO
100
AcDbLine
 62
250
  6
CONTINUOUS
 10
11.6891655504
 20
20.8557614774
 11
12.5203427605
 21
21.1378197613
  0
LWPOLYLINE
  5
294
100
AcDbEntity
  8
RACCORDO
100
AcDbPolyline
 62
7
  6
CONTINUOUS
 90
4
 70
0
 10
-11.2541861759
 20
-13.9144038914
 10
-10.6840518772
 20
-14.1273410944
 10
-10.0997124214
 20
-14.3285685376
 10
-10.0996304235
 20
-14.3285945006
  0
LINE
  5
295
100
AcDbEntity
  8
0
100
AcDbLine
 62
7
  6
CONTINUOUS
 10
12.2855203726
 20
-24.0412586205
 11
12.4749890636
 21
-24.135992966
  0
LINE
  5
296
100
AcDbEntity
  8
DRAFT
100
AcDbLine
 62
7
  6
CONTINUOUS
 10
12.7798641994
 20
-24.2274711569
 11
12.5359484405
 21
-24.1055132775
  0
LWPOLYLINE
  5
297
100
AcDbEntity
  8
RACCORDO
100
AcDbPolyline
 62
7
  6
CONTINUOUS
 90
6
 70
0
 10
-32.6485352384
 20
5.9713903295
 10
-32.681463378
 20
5.9958589314
 10
-32.7112966066
 20
6.0210680163
 10
-32.7380349242
 20
6.0470175843
 10
-32.7617488374
 20
6.0738017072
 10
-32.7823678396
 20
6.1013263132
  0
LWPOLYLINE
  5
298
100
AcDbEntity
  8
RACCORDO
100
AcDbPolyline
 62
250
  6
CONTINUOUS
 90
3
 70
0
 10
-22.4834232576
 20
10.4414966781
 10
-22.2465775993
 20
9.9389744132
 10
-21.9651107892
 20
9.4396473864
  0
LWPOLYLINE
  5
299
100
AcDbEntity
  8
RACCORDO
100
AcDbPolyline
 62
7
  6
CONTINUOUS
 90
9
 70
0
 10
-12.8357172286
 20
32.233269321
 10
-12.8320778755
 20
32.1445934485
 10
-12.8217332378
 20
32.0548383525
 10
-12.8046833154
 20
31.9640040328
 10
-12.7805726437
 20
31.8710079913
 10
-12.7497566874
 20
31.7769327263
 10
-12.7133018403
 20
31.6850257322
 10
-12.6715635669
 20
31.5963695073
 10
-12.6241864027
 20
31.5098815533
  0
LWPOLYLINE
  5
29A
100
AcDbEntity
  8
RACCORDO
100
AcDbPolyline
 62
7
  6
CONTINUOUS
 90
12
 70
0
 10
-11.27485797
 20
-26.7448807429
 10
-11.2725134461
 20
-26.8164328488
 10
-11.2649458035
 20
-26.88428652
 10
-11.252155042
 20
-26.9484417566
 10
-11.2339033966
 20
-27.0095923274
 10
-11.2104286323
 20
-27.0670444636
 10
-11.1824440448
 20
-27.118716858
 10
-11.1499377059
 20
-27.1641153635
 10
-11.1129215438
 20
-27.2037341274
 10
-11.0721446382
 20
-27.2369742836
 10
-11.0276017284
 20
-27.2638034011
 10
-10.9966378961
 20
-27.2778317984
  0
LINE
  5
29B
100
AcDbEntity
  8
DRAFT
100
AcDbLine
 62
7
  6
CONTINUOUS
 10
-12.4252304776
 20
34.2229993556
 11
-12.4457963333
 21
37.1046650569
  0
LINE
  5
29C
100
AcDbEntity
  8
DRAFT
100
AcDbLine
 62
7
  6
CONTINUOUS
 10
-12.3870209533
 20
28.869235859
 11
-12.4032313784
 21
31.1405567786
  0
LINE
  5
29D
100
AcDbEntity
  8
0
100
AcDbLine
 62
250
  6
CONTINUOUS
 10
-13.0455571837
 20
36.849663125
 11
-13.0455571837
 21
26.9825566386
  0
LINE
  5
29E
100
AcDbEntity
  8
RACCORDO
100
AcDbLine
 62
7
  6
CONTINUOUS
 10
-12.8357172286
 20
32.4083567479
 11
-12.8357172286
 21
32.233269321
  0
LINE
  5
29F
100
AcDbEntity
  8
RACCORDO
100
AcDbLine
 62
7
  6
CONTINUOUS
 10
-11.2541861759
 20
-13.9144038914
 11
-11.27485797
 21
-26.7448807429
  0
LINE
  5
2A0
100
AcDbEntity
  8
DRAFT
100
AcDbLine
 62
7
  6
CONTINUOUS
 10
-11.339427168
 20
23.0593422479
 11
-11.3481881901
 21
22.4575049763
  0
LINE
  5
2A1
100
AcDbEntity
  8
DRAFT
100
AcDbLine
 62
7
  6
CONTINUOUS
 10
-10.6880119886
 20
21.8222830711
 11
-10.6854194151
 21
21.9989856907
  0
LWPOLYLINE
  5
2A2
100
AcDbEntity
  8
ASSI
100
AcDbPolyline
 62
7
  6
CONTINUOUS
 90
6
 70
0
 10
1.0434319795
 20
20.3354410177
 10
1.0835329032
 20
20.3923923297
 10
1.1128744707
 20
20.4499511057
 10
1.131456682
 20
20.5081173458
 10
1.1392551674
 20
20.567384373
 10
1.1395241617
 20
20.5812311787
  0
LWPOLYLINE
  5
2A3
100
AcDbEntity
  8
RACCORDO
100
AcDbPolyline
 62
250
  6
CONTINUOUS
 90
43
 70
0
 10
15.1980168412
 20
23.0514921885
 10
15.8609733284
 20
23.413828873
 10
16.4883793182
 20
23.7909391197
 10
17.0808657956
 20
24.1829154039
 10
17.6349803821
 20
24.5873755641
 10
18.1503885819
 20
25.0041000867
 10
18.6274248907
 20
25.4333084853
 10
19.0636404168
 20
25.8732771387
 10
19.4594182121
 20
26.3247929736
 10
19.8143752248
 20
26.7870690633
 10
20.1249134072
 20
27.2560210074
 10
20.3903373501
 20
27.7327021675
 10
20.6113424627
 20
28.216059182
 10
20.7864169258
 20
28.6988475649
 10
20.913789134
 20
29.1810690214
 10
20.9952306927
 20
29.6627218464
 10
21.0345445987
 20
30.1365564377
 10
21.030159876
 20
30.6022623534
 10
20.9836475006
 20
31.0601500355
 10
20.9035233975
 20
31.5039012079
 10
20.7889533457
 20
31.9326165071
 10
20.6407715661
 20
32.3471952965
 10
20.4699966472
 20
32.7440173906
 10
20.2772749164
 20
33.1216037311
 10
20.0619600461
 20
33.4814333763
 10
19.8331316417
 20
33.8243233146
 10
19.5916663491
 20
34.1498987549
 10
19.3366875223
 20
34.4585344884
 10
19.0746448291
 20
34.7521718776
 10
18.8062518702
 20
35.0307441346
 10
18.5307950449
 20
35.2943180474
 10
18.2525832182
 20
35.5450353418
 10
17.9722013255
 20
35.7828983178
 10
17.6890644314
 20
36.0079046753
 10
17.4057265949
 20
36.2221892402
 10
17.1226559741
 20
36.4257927514
 10
16.8393844108
 20
36.6186744698
 10
16.5570614894
 20
36.8028470043
 10
16.2760956657
 20
36.9783521233
 10
15.9960784838
 20
37.1451480583
 10
15.7169341605
 20
37.3051221127
 10
15.4386374344
 20
37.4589033877
 10
15.1612135668
 20
37.605862782
  0
LWPOLYLINE
  5
2A4
100
AcDbEntity
  8
RACCORDO
100
AcDbPolyline
 62
250
  6
CONTINUOUS
 90
16
 70
0
 10
11.1629923615
 20
-11.0912173701
 10
11.1603744098
 20
-11.0910491617
 10
11.1576898293
 20
-11.0911900751
 10
11.1549386201
 20
-11.0916401103
 10
11.1520989912
 20
-11.0924058418
 10
11.1491927336
 20
-11.0934806949
 10
11.1462852198
 20
-11.0948449466
 10
11.1433774422
 20
-11.0965062919
 10
11.1404684084
 20
-11.0984570357
 10
11.1376205135
 20
-11.1006543686
 10
11.1348356432
 20
-11.1031041919
 10
11.1321119118
 20
-11.1058006043
 10
11.1295060579
 20
-11.1086830926
 10
11.1270369941
 20
-11.1117314857
 10
11.1246858078
 20
-11.1149659548
 10
11.1224524988
 20
-11.1183864997
  0
LWPOLYLINE
  5
2A5
100
AcDbEntity
  8
RACCORDO
100
AcDbPolyline
 62
7
  6
CONTINUOUS
 90
18
 70
0
 10
3.8030026691
 20
-12.2151307887
 10
3.8565708336
 20
-12.2269877312
 10
3.9116199619
 20
-12.2372972213
 10
3.9675856249
 20
-12.2459534984
 10
4.0244772916
 20
-12.2529395727
 10
4.0822854929
 20
-12.258272434
 10
4.140417393
 20
-12.2618972913
 10
4.1988763411
 20
-12.2637965804
 10
4.2576589881
 20
-12.2639878655
 10
4.3161624509
 20
-12.2624690481
 10
4.3743839528
 20
-12.2592225254
 10
4.4323262705
 20
-12.2542659001
 10
4.4893948513
 20
-12.247649883
 10
4.545580721
 20
-12.2393573816
 10
4.6008928536
 20
-12.2294054882
 10
4.6547636194
 20
-12.2178961909
 10
4.7071782274
 20
-12.2048134296
 10
4.7581514685
 20
-12.1901732643
  0
LWPOLYLINE
  5
2A6
100
AcDbEntity
  8
RACCORDO
100
AcDbPolyline
 62
7
  6
CONTINUOUS
 90
3
 70
0
 10
3.7006855174
 20
-12.1868450536
 10
3.7511036114
 20
-12.2017616473
 10
3.8030026691
 20
-12.2151307887
  0
LINE
  5
2A7
100
AcDbEntity
  8
RACCORDO
100
AcDbLine
 62
7
  6
CONTINUOUS
 10
3.6517483871
 20
-12.1703810075
 11
3.7006855174
 21
-12.1868450536
  0
LWPOLYLINE
  5
2A8
100
AcDbEntity
  8
RACCORDO
100
AcDbPolyline
 62
7
  6
CONTINUOUS
 90
3
 70
0
 10
3.6433770138
 20
-12.1745657965
 10
1.3325365192
 20
-11.3297461852
 10
-0.9465042471
 20
-10.4644504142
  0
LINE
  5
2A9
100
AcDbEntity
  8
RACCORDO
100
AcDbLine
 62
7
  6
CONTINUOUS
 10
-0.9465042471
 20
-10.4644504142
 11
-3.1937452851
 21
-9.5786784833
  0
LWPOLYLINE
  5
2AA
100
AcDbEntity
  8
RACCORDO
100
AcDbPolyline
 62
7
  6
CONTINUOUS
 90
4
 70
0
 10
-3.1853727932
 20
-9.5744941882
 10
-0.9381312647
 20
-10.4602663294
 10
1.3409091288
 20
-11.3255619359
 10
3.6517483871
 20
-12.1703810075
  0
LWPOLYLINE
  5
2AB
100
AcDbEntity
  8
RACCORDO
100
AcDbPolyline
 62
7
  6
CONTINUOUS
 90
3
 70
0
 10
-3.1937452851
 20
-9.5786784833
 10
-5.4100509782
 20
-8.672086686
 10
-7.594556943
 20
-7.7450187289
  0
LINE
  5
2AC
100
AcDbEntity
  8
RACCORDO
100
AcDbLine
 62
7
  6
CONTINUOUS
 10
-5.4016807139
 20
-8.6679014127
 11
-3.1853727932
 21
-9.5744941882
  0
LWPOLYLINE
  5
2AD
100
AcDbEntity
  8
RACCORDO
100
AcDbPolyline
 62
7
  6
CONTINUOUS
 90
5
 70
0
 10
-7.594556943
 20
-7.7450187289
 10
-9.7446700291
 20
-6.7985057321
 10
-11.8603220265
 20
-5.8325399568
 10
-13.9415811452
 20
-4.8471291418
 10
-15.9860588656
 20
-3.8433276237
  0
LWPOLYLINE
  5
2AE
100
AcDbEntity
  8
RACCORDO
100
AcDbPolyline
 62
7
  6
CONTINUOUS
 90
3
 70
0
 10
-9.7363041897
 20
-6.7943185557
 10
-7.5861897696
 20
-7.7408321024
 10
-5.4016807139
 20
-8.6679014127
  0
LWPOLYLINE
  5
2AF
100
AcDbEntity
  8
0
100
AcDbPolyline
 62
7
  6
CONTINUOUS
 90
3
 70
0
 10
12.844725547
 20
-17.7864754696
 10
12.8413185222
 20
-17.7847417298
 10
12.7757782259
 20
-17.7567052705
  0
LINE
  5
2B0
100
AcDbEntity
  8
RACCORDO
100
AcDbLine
 62
7
  6
CONTINUOUS
 10
-15.9860588656
 20
-3.8433276237
 11
-17.99366191
 21
-2.8210887592
  0
LWPOLYLINE
  5
2B1
100
AcDbEntity
  8
RACCORDO
100
AcDbPolyline
 62
7
  6
CONTINUOUS
 90
5
 70
0
 10
-17.985287202
 20
-2.8169057852
 10
-15.9776838649
 20
-3.8391447961
 10
-13.9332088735
 20
-4.8429450283
 10
-11.8519538494
 20
-5.8283539102
 10
-9.7363041897
 20
-6.7943185557
  0
LINE
  5
2B2
100
AcDbEntity
  8
RACCORDO
100
AcDbLine
 62
7
  6
CONTINUOUS
 10
-17.99366191
 20
-2.8210887592
 11
-19.964483556
 21
-1.7804591915
  0
LINE
  5
2B3
100
AcDbEntity
  8
RACCORDO
100
AcDbLine
 62
7
  6
CONTINUOUS
 10
-19.9561105065
 20
-1.7762754241
 11
-17.985287202
 21
-2.8169057852
  0
LINE
  5
2B4
100
AcDbEntity
  8
RACCORDO
100
AcDbLine
 62
7
  6
CONTINUOUS
 10
-19.964483556
 20
-1.7804591915
 11
-21.8964151167
 21
-0.7226331879
  0
LINE
  5
2B5
100
AcDbEntity
  8
RACCORDO
100
AcDbLine
 62
7
  6
CONTINUOUS
 10
-21.8880432462
 20
-0.718448884
 11
-19.9561105065
 21
-1.7762754241
  0
LINE
  5
2B6
100
AcDbEntity
  8
RACCORDO
100
AcDbLine
 62
7
  6
CONTINUOUS
 10
-21.8964151167
 20
-0.7226331879
 11
-23.7894411063
 21
0.3524233526
  0
LINE
  5
2B7
100
AcDbEntity
  8
RACCORDO
100
AcDbLine
 62
7
  6
CONTINUOUS
 10
-23.7810689883
 20
0.3566074356
 11
-21.8880432462
 21
-0.718448884
  0
LINE
  5
2B8
100
AcDbEntity
  8
RACCORDO
100
AcDbLine
 62
7
  6
CONTINUOUS
 10
-23.7894411063
 20
0.3524233526
 11
-25.6435770106
 21
1.4446763291
  0
LINE
  5
2B9
100
AcDbEntity
  8
RACCORDO
100
AcDbLine
 62
7
  6
CONTINUOUS
 10
-25.6352041657
 20
1.4488599342
 11
-23.7810689883
 21
0.3566074356
  0
LWPOLYLINE
  5
2BA
100
AcDbEntity
  8
RACCORDO
100
AcDbPolyline
 62
7
  6
CONTINUOUS
 90
5
 70
0
 10
-25.6435770106
 20
1.4446763291
 10
-27.4567605989
 20
2.552829172
 10
-29.2283044613
 20
3.6764496914
 10
-30.9588960078
 20
4.8159700773
 10
-32.6485352384
 20
5.9713903295
  0
LINE
  5
2BB
100
AcDbEntity
  8
RACCORDO
100
AcDbLine
 62
7
  6
CONTINUOUS
 10
-27.448387545
 20
2.5570126388
 11
-25.6352041657
 21
1.4488599342
  0
LWPOLYLINE
  5
2BC
100
AcDbEntity
  8
RACCORDO
100
AcDbPolyline
 62
7
  6
CONTINUOUS
 90
4
 70
0
 10
-32.6401656602
 20
5.9755760162
 10
-30.9505247533
 20
4.8201546844
 10
-29.2199320482
 20
3.6806335586
 10
-27.448387545
 20
2.5570126388
  0
LWPOLYLINE
  5
2BD
100
AcDbEntity
  8
RACCORDO
100
AcDbPolyline
 62
250
  6
CONTINUOUS
 90
25
 70
0
 10
-20.7732142555
 20
10.7246545353
 10
-20.6698054464
 20
10.5563878276
 10
-20.5581113661
 20
10.3771568805
 10
-20.4376860977
 20
10.1870811265
 10
-20.3081614065
 20
9.98639324
 10
-20.1689996473
 20
9.7751278822
 10
-20.0194563001
 20
9.553129757
 10
-19.8591706943
 20
9.3206824616
 10
-19.6874974952
 20
9.077851221
 10
-19.5031314438
 20
8.8242003618
 10
-19.3051824434
 20
8.5593231389
 10
-19.0932874439
 20
8.2841169808
 10
-18.8668378706
 20
8.0001499838
 10
-18.6235732675
 20
7.7050485408
 10
-18.3643984946
 20
7.4018229403
 10
-18.0940226492
 20
7.0999771473
 10
-17.812419841
 20
6.7987924196
 10
-17.519545305
 20
6.4993229726
 10
-17.2212056938
 20
6.2133759801
 10
-16.918544897
 20
5.9414150565
 10
-16.6114782094
 20
5.6828986996
 10
-16.3048496769
 20
5.4477856454
 10
-16.0009475928
 20
5.2392038731
 10
-15.6991176028
 20
5.053605334
 10
-15.4000808043
 20
4.890785663
  0
LINE
  5
2BE
100
AcDbEntity
  8
RACCORDO
100
AcDbLine
 62
7
  6
CONTINUOUS
 10
-10.0110065781
 20
-14.3686997659
 11
-10.0110065781
 21
-26.112955047
  0
LINE
  5
2BF
100
AcDbEntity
  8
C_COMPONENTE
100
AcDbLine
 62
7
  6
CONTINUOUS
 10
-9.0876047066
 20
-26.9705766588
 11
-9.0876047066
 21
-38.9446665643
  0
LWPOLYLINE
  5
2C0
100
AcDbEntity
  8
RACCORDO
100
AcDbPolyline
 62
250
  6
CONTINUOUS
 90
16
 70
0
 10
-6.8310085582
 20
1.8725964855
 10
-6.7922560737
 20
1.9454466344
 10
-6.7542213024
 20
2.0287278068
 10
-6.7172903668
 20
2.1215945453
 10
-6.6818381835
 20
2.2231040817
 10
-6.648224657
 20
2.3322259071
 10
-6.6167910262
 20
2.4478522341
 10
-6.5878563998
 20
2.5688092427
 10
-6.5617145171
 20
2.6938689964
 10
-6.5386307661
 20
2.8217619085
 10
-6.5188394887
 20
2.9511896304
 10
-6.5025416026
 20
3.0808382326
 10
-6.4899025608
 20
3.2093915429
 10
-6.4810506725
 20
3.3355445086
 10
-6.4760758002
 20
3.4580164449
 10
-6.4750284477
 20
3.575564036
  0
LWPOLYLINE
  5
2C1
100
AcDbEntity
  8
RACCORDO
100
AcDbPolyline
 62
7
  6
CONTINUOUS
 90
13
 70
0
 10
10.9767904864
 20
-10.4438057422
 10
10.9400495656
 20
-10.442180504
 10
10.9025562612
 20
-10.4457675367
 10
10.8643105732
 20
-10.4545668405
 10
10.8248954802
 20
-10.4687791875
 10
10.7847280036
 20
-10.4882038055
 10
10.7450592081
 20
-10.5122383775
 10
10.7059049624
 20
-10.5410296885
 10
10.6672493978
 20
-10.5744309535
 10
10.6302959732
 20
-10.6113995011
 10
10.5954458413
 20
-10.6515877743
 10
10.5622978493
 20
-10.6953433302
 10
10.5308519972
 20
-10.7426661686
  0
LWPOLYLINE
  5
2C2
100
AcDbEntity
  8
SMUSSO
100
AcDbPolyline
 62
7
  6
CONTINUOUS
 90
9
 70
0
 10
10.2501281492
 20
-10.1295784903
 10
10.34063658
 20
-10.1365934915
 10
10.433956836
 20
-10.1350145366
 10
10.5297053992
 20
-10.1248217957
 10
10.6275050877
 20
-10.106027731
 10
10.7269314924
 20
-10.078686074
 10
10.8275122245
 20
-10.0429073573
 10
10.9288307446
 20
-9.9988270234
 10
11.030452357
 20
-9.9466224533
  0
LWPOLYLINE
  5
2C3
100
AcDbEntity
  8
SMUSSO
100
AcDbPolyline
 62
7
  6
CONTINUOUS
 90
10
 70
0
 10
10.2501281492
 20
-10.1295784903
 10
10.2291978117
 20
-10.1275880449
 10
10.2055480871
 20
-10.1265658348
 10
10.179250911
 20
-10.1265796877
 10
10.1504075909
 20
-10.1276871253
 10
10.1190876
 20
-10.1299363843
 10
10.0853263643
 20
-10.1333798262
 10
10.0492090622
 20
-10.1380632801
 10
10.0108726087
 20
-10.14401038
 10
9.9704427018
 20
-10.1512334994
  0
LWPOLYLINE
  5
2C4
100
AcDbEntity
  8
RACCORDO
100
AcDbPolyline
 62
7
  6
CONTINUOUS
 90
12
 70
0
 10
7.7977012446
 20
-13.1326916346
 10
7.928322002
 20
-13.1769795737
 10
8.0643744207
 20
-13.2102313869
 10
8.2053842746
 20
-13.232096743
 10
8.3509102667
 20
-13.2422868572
 10
8.5005920779
 20
-13.2405507934
 10
8.6542812099
 20
-13.2266229965
 10
8.8112538156
 20
-13.2003019402
 10
8.9703095954
 20
-13.1616373393
 10
9.1307413609
 20
-13.1107542734
 10
9.2923414746
 20
-13.0476607772
 10
9.4546519096
 20
-12.9724376041
  0
LINE
  5
2C5
100
AcDbEntity
  8
RACCORDO
100
AcDbLine
 62
7
  6
CONTINUOUS
 10
7.6729376476
 20
-13.0777652955
 11
7.7977012446
 21
-13.1326916346
  0
LINE
  5
2C6
100
AcDbEntity
  8
DRAFT
100
AcDbLine
 62
250
  6
CONTINUOUS
 10
9.3938689394
 20
-13.0006076222
 11
9.5289494006
 21
-13.0681478527
  0
LINE
  5
2C7
100
AcDbEntity
  8
SMUSSO
100
AcDbLine
 62
250
  6
CONTINUOUS
 10
7.6307276975
 20
-11.3291528885
 11
8.4428863597
 21
-11.7525945485
  0
LINE
  5
2C8
100
AcDbEntity
  8
0
100
AcDbLine
 62
7
  6
CONTINUOUS
 10
12.8285424542
 20
-17.9281200044
 11
12.8431887838
 21
-17.9390823121
  0
LWPOLYLINE
  5
2C9
100
AcDbEntity
  8
RACCORDO
100
AcDbPolyline
 62
250
  6
CONTINUOUS
 90
7
 70
0
 10
-32.1008048439
 20
13.7516495201
 10
-32.1635650513
 20
13.7996377895
 10
-32.2144236398
 20
13.8492114786
 10
-32.2526822508
 20
13.8996898719
 10
-32.2778155406
 20
13.9503798313
 10
-32.2894783945
 20
14.0005853135
 10
-32.2889832939
 20
14.0400391664
  0
LWPOLYLINE
  5
2CA
100
AcDbEntity
  8
RACCORDO
100
AcDbPolyline
 62
250
  6
CONTINUOUS
 90
21
 70
0
 10
-21.2616229579
 20
8.7941256212
 10
-21.0632094271
 20
8.6140292821
 10
-20.8546769267
 20
8.4261653181
 10
-20.6359080283
 20
8.2308180886
 10
-20.4064577355
 20
8.0280255425
 10
-20.1649176001
 20
7.817041509
 10
-19.9105113962
 20
7.5977398176
 10
-19.6432473576
 20
7.3707366243
 10
-19.3628104854
 20
7.1364356445
 10
-19.0666729292
 20
6.8935529881
 10
-18.7564058472
 20
6.6443158589
 10
-18.4381626546
 20
6.3944715189
 10
-18.1116600164
 20
6.1446450436
 10
-17.7767502748
 20
5.8958034097
 10
-17.4405083611
 20
5.6540578251
 10
-17.103931666
 20
5.4209003257
 10
-16.7662796725
 20
5.1971298828
 10
-16.4326953166
 20
4.9871901906
 10
-16.1053393074
 20
4.7928661193
 10
-15.7834355273
 20
4.6136082916
 10
-15.4679349531
 20
4.4497028319
  0
LINE
  5
2CB
100
AcDbEntity
  8
RACCORDO
100
AcDbLine
 62
250
  6
CONTINUOUS
 10
-21.6309457286
 20
9.1320995877
 11
-21.2616229579
 21
8.7941256212
  0
LINE
  5
2CC
100
AcDbEntity
  8
RACCORDO
100
AcDbLine
 62
250
  6
CONTINUOUS
 10
-21.9651108642
 20
9.4396541867
 11
-21.6309457286
 21
9.1320995877
  0
LWPOLYLINE
  5
2CD
100
AcDbEntity
  8
C_COMPONENTE
100
AcDbPolyline
 62
7
  6
CONTINUOUS
 90
10
 70
0
 10
4.3816966228
 20
-32.4292247373
 10
4.3892646002
 20
-32.4502460717
 10
4.4292021529
 20
-32.5377349972
 10
4.4821041432
 20
-32.6234870174
 10
4.5476747219
 20
-32.7070225723
 10
4.6255471916
 20
-32.787874497
 10
4.7152860578
 20
-32.8655906349
 10
4.8163894645
 20
-32.9397363658
 10
4.9282920004
 20
-33.0098970366
 10
5.0503678611
 20
-33.0756802805
  0
LINE
  5
2CE
100
AcDbEntity
  8
RACCORDO
100
AcDbLine
 62
250
  6
CONTINUOUS
 10
-5.627138653
 20
-16.2713913953
 11
-5.4927620627
 21
-28.2936012572
  0
LINE
  5
2CF
100
AcDbEntity
  8
RACCORDO
100
AcDbLine
 62
250
  6
CONTINUOUS
 10
-6.0265803261
 20
-16.1047183157
 11
-5.8949764267
 21
-28.1709701227
  0
LINE
  5
2D0
100
AcDbEntity
  8
C_COMPONENTE
100
AcDbLine
 62
7
  6
CONTINUOUS
 10
-4.2876047066
 20
-28.9389587317
 11
-4.2876047066
 21
-38.9446665643
  0
LWPOLYLINE
  5
2D1
100
AcDbEntity
  8
RACCORDO
100
AcDbPolyline
 62
7
  6
CONTINUOUS
 90
9
 70
0
 10
26.1136371885
 20
-2.8512370138
 10
26.0753885989
 20
-2.8562878453
 10
26.0365008047
 20
-2.8665175718
 10
25.996953445
 20
-2.8820910897
 10
25.9567668808
 20
-2.9028435025
 10
25.9171928769
 20
-2.928125709
 10
25.8786486882
 20
-2.9577213421
 10
25.8407170598
 20
-2.991846769
 10
25.8033979917
 20
-3.0305019896
  0
LWPOLYLINE
  5
2D2
100
AcDbEntity
  8
SMUSSO
100
AcDbPolyline
 62
7
  6
CONTINUOUS
 90
7
 70
0
 10
23.9131018255
 20
-3.4132085314
 10
23.9307513844
 20
-3.4118800021
 10
24.0280268543
 20
-3.3960821531
 10
24.1269972002
 20
-3.371710722
 10
24.2272524278
 20
-3.3388602182
 10
24.3283981434
 20
-3.2976492995
 10
24.42997925
 20
-3.2482529014
  0
LINE
  5
2D3
100
AcDbEntity
  8
RACCORDO
100
AcDbLine
 62
250
  6
CONTINUOUS
 10
10.6591264755
 20
-7.3317112881
 11
10.6185334361
 21
-7.3197634212
  0
LINE
  5
2D4
100
AcDbEntity
  8
DRAFT
100
AcDbLine
 62
7
  6
CONTINUOUS
 10
10.9579523586
 20
-8.7597722732
 11
11.7888159829
 21
-9.1477022943
  0
LINE
  5
2D5
100
AcDbEntity
  8
SMUSSO
100
AcDbLine
 62
250
  6
CONTINUOUS
 10
10.8820321594
 20
-10.4504895803
 11
10.2501281492
 21
-10.1295784903
  0
LINE
  5
2D6
100
AcDbEntity
  8
RACCORDO
100
AcDbLine
 62
250
  6
CONTINUOUS
 10
8.8059200199
 20
-10.1064769609
 11
9.4288279632
 21
-10.4301027557
  0
LINE
  5
2D7
100
AcDbEntity
  8
SMUSSO
100
AcDbLine
 62
250
  6
CONTINUOUS
 10
10.5280829998
 20
-10.7479941615
 11
9.8518053778
 21
-10.3965276687
  0
LWPOLYLINE
  5
2D8
100
AcDbEntity
  8
RACCORDO
100
AcDbPolyline
 62
250
  6
CONTINUOUS
 90
4
 70
0
 10
-19.0707635107
 20
5.9822312283
 10
-16.7201726877
 20
4.7606345147
 10
-14.3193201464
 20
3.5602096083
 10
-11.8649735295
 20
2.3793399759
  0
LINE
  5
2D9
100
AcDbEntity
  8
RACCORDO
100
AcDbLine
 62
250
  6
CONTINUOUS
 10
8.3964326448
 20
-10.7138274269
 11
8.6237796426
 21
-10.832626916
  0
LINE
  5
2DA
100
AcDbEntity
  8
RACCORDO
100
AcDbLine
 62
250
  6
CONTINUOUS
 10
-21.3698377674
 20
7.2243421973
 11
-19.0707635107
 21
5.9822312283
  0
LWPOLYLINE
  5
2DB
100
AcDbEntity
  8
RACCORDO
100
AcDbPolyline
 62
250
  6
CONTINUOUS
 90
6
 70
0
 10
-28.1966137982
 20
13.1585416648
 10
-27.1865832356
 20
12.5266092407
 10
-26.1652839137
 20
11.8996381456
 10
-25.1324120723
 20
11.2774287594
 10
-24.0879429374
 20
10.6599495799
 10
-23.032136134
 20
10.0473380833
  0
LWPOLYLINE
  5
2DC
100
AcDbEntity
  8
RACCORDO
100
AcDbPolyline
 62
250
  6
CONTINUOUS
 90
6
 70
0
 10
-32.1007992893
 20
13.7516496947
 10
-30.057560157
 20
12.4042240898
 10
-27.9614237331
 20
11.0769587371
 10
-25.813483717
 20
9.7705541971
 10
-23.6163379249
 20
8.4864597699
 10
-21.3698377674
 20
7.2243421973
  0
LWPOLYLINE
  5
2DD
100
AcDbEntity
  8
RACCORDO
100
AcDbPolyline
 62
250
  6
CONTINUOUS
 90
4
 70
0
 10
-31.158346943
 20
15.0837599032
 10
-30.1826793405
 20
14.4372220605
 10
-29.1953966984
 20
13.7954618404
 10
-28.1966137982
 20
13.1585416648
  0
LWPOLYLINE
  5
2DE
100
AcDbEntity
  8
0
100
AcDbPolyline
 62
7
  6
CONTINUOUS
 90
22
 70
0
 10
-12.9568313918
 20
33.3061466785
 10
-12.9461137465
 20
33.2587375258
 10
-12.9359699709
 20
33.2119182023
 10
-12.9263889499
 20
33.1657599087
 10
-12.9173728738
 20
33.1204674744
 10
-12.9088947459
 20
33.0759619779
 10
-12.9008949842
 20
33.0318789944
 10
-12.8933281811
 20
32.9882335584
 10
-12.8862029134
 20
32.9451074462
 10
-12.8795298292
 20
32.902233317
 10
-12.873253346
 20
32.8596835813
 10
-12.8673742408
 20
32.8174772554
 10
-12.8619664876
 20
32.7752764439
 10
-12.856925414
 20
32.7329808234
 10
-12.8522618252
 20
32.6908022387
 10
-12.8481905235
 20
32.6488847443
 10
-12.8445953007
 20
32.6072532448
 10
-12.8414504945
 20
32.5660075192
 10
-12.8390622908
 20
32.525410367
 10
-12.8374501303
 20
32.4855930455
 10
-12.836373312
 20
32.4465537219
 10
-12.8357172286
 20
32.4083567479
  0
LINE
  5
2DF
100
AcDbEntity
  8
ASSI
100
AcDbLine
 62
7
  6
CONTINUOUS
 10
-1.3441090698
 20
20.35670998
 11
-1.3441090698
 21
20.287578697
  0
LINE
  5
2E0
100
AcDbEntity
  8
ASSI
100
AcDbLine
 62
7
  6
CONTINUOUS
 10
-1.0853836483
 20
21.0420580249
 11
-1.0853836483
 21
20.9121542143
  0
LINE
  5
2E1
100
AcDbEntity
  8
ASSI
100
AcDbLine
 62
7
  6
CONTINUOUS
 10
0.1185087802
 20
20.3566873526
 11
0.1185087802
 21
20.261493817
  0
LINE
  5
2E2
100
AcDbEntity
  8
ASSI
100
AcDbLine
 62
7
  6
CONTINUOUS
 10
0.2699719433
 20
20.409614132
 11
0.2699719433
 21
20.5395179426
  0
LWPOLYLINE
  5
2E3
100
AcDbEntity
  8
ASSI
100
AcDbPolyline
 62
7
  6
CONTINUOUS
 90
6
 70
0
 10
0.2699719433
 20
20.409614132
 10
0.2653758724
 20
20.3760731214
 10
0.2520322065
 20
20.3425321108
 10
0.230607766
 20
20.3106655903
 10
0.2013248241
 20
20.2810317234
 10
0.1752408098
 20
20.2615129804
  0
LWPOLYLINE
  5
2E4
100
AcDbEntity
  8
RACCORDO
100
AcDbPolyline
 62
250
  6
CONTINUOUS
 90
3
 70
0
 10
14.3744766681
 20
6.1618890322
 10
15.0894257237
 20
6.4915742554
 10
15.776832861
 20
6.8352630355
  0
LWPOLYLINE
  5
2E5
100
AcDbEntity
  8
RACCORDO
100
AcDbPolyline
 62
250
  6
CONTINUOUS
 90
3
 70
0
 10
10.2333196249
 20
2.8372062853
 10
11.1098459713
 20
3.0797725078
 10
11.9720283815
 20
3.3410749558
  0
LWPOLYLINE
  5
2E6
100
AcDbEntity
  8
RACCORDO
100
AcDbPolyline
 62
250
  6
CONTINUOUS
 90
3
 70
0
 10
8.446186202
 20
2.409718475
 10
9.3449298744
 20
2.613817165
 10
10.2333196249
 20
2.8372062853
  0
LWPOLYLINE
  5
2E7
100
AcDbEntity
  8
RACCORDO
100
AcDbPolyline
 62
250
  6
CONTINUOUS
 90
6
 70
0
 10
-8.725993505
 20
2.3609951892
 10
-8.0602267825
 20
2.1932034515
 10
-7.7404136992
 20
2.1115301225
 10
-7.4284949743
 20
2.0308591171
 10
-7.1252770999
 20
1.9512432397
 10
-6.8310087126
 20
1.8726031702
  0
LWPOLYLINE
  5
2E8
100
AcDbEntity
  8
RACCORDO
100
AcDbPolyline
 62
250
  6
CONTINUOUS
 90
13
 70
0
 10
3.9750864749
 20
-4.2862719541
 10
4.0740273901
 20
-4.319135286
 10
4.1795306906
 20
-4.3477438523
 10
4.2901476828
 20
-4.3717048228
 10
4.4043594559
 20
-4.3906891841
 10
4.520597738
 20
-4.4044362581
 10
4.637266431
 20
-4.4127572814
 10
4.7527635266
 20
-4.4155379965
 10
4.8655031037
 20
-4.4127402214
 10
4.9739371061
 20
-4.4044023737
 10
5.0765765979
 20
-4.3906389428
 10
5.1720122095
 20
-4.3716389183
 10
5.2589334897
 20
-4.3476631945
  0
LINE
  5
2E9
100
AcDbEntity
  8
RACCORDO
100
AcDbLine
 62
250
  6
CONTINUOUS
 10
1.2021615935
 20
-3.2256337081
 11
3.9750647768
 21
-4.2862823668
  0
LWPOLYLINE
  5
2EA
100
AcDbEntity
  8
RACCORDO
100
AcDbPolyline
 62
250
  6
CONTINUOUS
 90
3
 70
0
 10
2.0660746649
 20
-1.8352733811
 10
3.3863771268
 20
-2.3473059068
 10
4.7187433142
 20
-2.8547852617
  0
LINE
  5
2EB
100
AcDbEntity
  8
RACCORDO
100
AcDbLine
 62
250
  6
CONTINUOUS
 10
-1.5192506456
 20
-2.1441227604
 11
1.2021615935
 21
-3.2256337081
  0
LWPOLYLINE
  5
2EC
100
AcDbEntity
  8
RACCORDO
100
AcDbPolyline
 62
250
  6
CONTINUOUS
 90
3
 70
0
 10
-0.5375647732
 20
-0.7978995066
 10
0.7579859746
 20
-1.3187576821
 10
2.0660746649
 20
-1.8352733811
  0
LINE
  5
2ED
100
AcDbEntity
  8
RACCORDO
100
AcDbLine
 62
250
  6
CONTINUOUS
 10
-4.1877766705
 20
-1.0422933762
 11
-1.5192506456
 21
-2.1441227604
  0
LINE
  5
2EE
100
AcDbEntity
  8
RACCORDO
100
AcDbLine
 62
250
  6
CONTINUOUS
 10
-6.8005854342
 20
0.0785897352
 11
-4.1877766705
 21
-1.0422933762
  0
LWPOLYLINE
  5
2EF
100
AcDbEntity
  8
RACCORDO
100
AcDbPolyline
 62
7
  6
CONTINUOUS
 90
49
 70
0
 10
10.4926610078
 20
-7.2514228479
 10
10.4092401585
 20
-7.2147420766
 10
10.3211034502
 20
-7.18894977
 10
10.2284152613
 20
-7.1737101307
 10
10.132162719
 20
-7.1687485731
 10
10.0325634017
 20
-7.1736496142
 10
9.928719255
 20
-7.1883333877
 10
9.8210617001
 20
-7.2128451664
 10
9.7107796308
 20
-7.246962102
 10
9.5977988391
 20
-7.290764238
 10
9.4828897911
 20
-7.3440675436
 10
9.3667925186
 20
-7.4066025096
 10
9.2490867623
 20
-7.4787595279
 10
9.1301025479
 20
-7.560635483
 10
9.0108554519
 20
-7.6518075227
 10
8.8918041076
 20
-7.7521646058
 10
8.7735118945
 20
-7.8614885329
 10
8.6567228003
 20
-7.9793326552
 10
8.5420954645
 20
-8.1052437899
 10
8.4302073987
 20
-8.2387879112
 10
8.3217011082
 20
-8.3793859332
 10
8.2172621433
 20
-8.5263010939
 10
8.1174361732
 20
-8.6788847417
 10
8.0227305834
 20
-8.8364661449
 10
7.9336941769
 20
-8.9982072675
 10
7.8507579937
 20
-9.1633671528
 10
7.7743239183
 20
-9.3311668909
 10
7.7048108152
 20
-9.5006599472
 10
7.6425191496
 20
-9.6710284139
 10
7.5876980414
 20
-9.8414630349
 10
7.5405918321
 20
-10.0109917735
 10
7.5013414206
 20
-10.1787748003
 10
7.4700252382
 20
-10.3440225049
 10
7.4466900704
 20
-10.5058093035
 10
7.4313032342
 20
-10.6632302691
 10
7.4237429693
 20
-10.8156669552
 10
7.4238554035
 20
-10.9625672775
 10
7.4314167511
 20
-11.1028422908
 10
7.446160381
 20
-11.2362209216
 10
7.4679768648
 20
-11.3631167332
 10
7.4966309688
 20
-11.4827136916
 10
7.5318162782
 20
-11.5943148809
 10
7.573485224
 20
-11.6980325826
 10
7.6211131066
 20
-11.7927569025
 10
7.6743905847
 20
-11.8781717928
 10
7.7338826965
 20
-11.9549980083
 10
7.7997901484
 20
-12.0228342905
 10
7.8717511578
 20
-12.080723587
 10
7.9499324381
 20
-12.1283615825
  0
LWPOLYLINE
  5
2F0
100
AcDbEntity
  8
RACCORDO
100
AcDbPolyline
 62
250
  6
CONTINUOUS
 90
6
 70
0
 10
-6.8310089376
 20
1.8725949197
 10
-5.5969425922
 20
1.3297413871
 10
-4.3504163656
 20
0.7911864159
 10
-3.0915428918
 20
0.2569943588
 10
-1.8206106727
 20
-0.2726981576
 10
-0.5375647732
 20
-0.7978995066
  0
LWPOLYLINE
  5
2F1
100
AcDbEntity
  8
RACCORDO
100
AcDbPolyline
 62
7
  6
CONTINUOUS
 90
19
 70
0
 10
12.6901461707
 20
-6.546015661
 10
12.6334802319
 20
-6.5210875929
 10
12.5729402365
 20
-6.5033422079
 10
12.5084140775
 20
-6.4926763483
 10
12.4404099411
 20
-6.4890624699
 10
12.3691409993
 20
-6.4923841802
 10
12.2942432534
 20
-6.502675574
 10
12.216430611
 20
-6.5199256433
 10
12.1363545777
 20
-6.5440177346
 10
12.053240013
 20
-6.5753303069
 10
11.9672623614
 20
-6.6141031088
 10
11.8793625519
 20
-6.6601822901
 10
11.7895976801
 20
-6.7137899497
 10
11.6983472184
 20
-6.7749983459
 10
11.6063217583
 20
-6.8436079533
 10
11.5139551364
 20
-6.9195467677
 10
11.4217318761
 20
-7.0026694848
 10
11.3302323406
 20
-7.0926919862
 10
11.2399961283
 20
-7.1893010978
  0
LINE
  5
2F2
100
AcDbEntity
  8
RACCORDO
100
AcDbLine
 62
250
  6
CONTINUOUS
 10
10.6185334361
 20
-7.3197634212
 11
10.5802277513
 21
-7.3028751075
  0
LINE
  5
2F3
100
AcDbEntity
  8
RACCORDO
100
AcDbLine
 62
250
  6
CONTINUOUS
 10
-9.3583712461
 20
1.2186143973
 11
-6.8005854342
 21
0.0785897352
  0
LWPOLYLINE
  5
2F4
100
AcDbEntity
  8
RACCORDO
100
AcDbPolyline
 62
250
  6
CONTINUOUS
 90
14
 70
0
 10
-15.4000808043
 20
4.890785663
 10
-15.0942298013
 20
4.7514302531
 10
-14.7738317462
 20
4.6258298605
 10
-14.4385467081
 20
4.5143074398
 10
-14.0867837317
 20
4.4190704955
 10
-13.7194498716
 20
4.3386314579
 10
-13.3401699664
 20
4.2676686638
 10
-12.9479501771
 20
4.206171627
 10
-12.5436005435
 20
4.1546827488
 10
-12.1339920512
 20
4.1083626082
 10
-11.7191164054
 20
4.0664032702
 10
-11.2995120034
 20
4.0296759381
 10
-10.8835140865
 20
3.9953550567
 10
-10.4736608805
 20
3.9626146999
  0
LINE
  5
2F5
100
AcDbEntity
  8
RACCORDO
100
AcDbLine
 62
250
  6
CONTINUOUS
 10
10.9921074073
 20
-8.2029436912
 11
11.4999283627
 21
-8.436771895
  0
LINE
  5
2F6
100
AcDbEntity
  8
RACCORDO
100
AcDbLine
 62
250
  6
CONTINUOUS
 10
-11.8649735295
 20
2.3793399759
 11
-9.3583712461
 21
1.2186143973
  0
LWPOLYLINE
  5
2F7
100
AcDbEntity
  8
RACCORDO
100
AcDbPolyline
 62
7
  6
CONTINUOUS
 90
15
 70
0
 10
10.5972932881
 20
-7.3129313618
 10
10.6379117645
 20
-7.3319688703
 10
10.6840359072
 20
-7.3486837981
 10
10.7316746019
 20
-7.3609967112
 10
10.7805070206
 20
-7.3687752148
 10
10.830601608
 20
-7.3718984972
 10
10.8816237069
 20
-7.370128971
 10
10.9327049508
 20
-7.363322361
 10
10.9831781053
 20
-7.3514787957
 10
11.0328102911
 20
-7.3345526243
 10
11.0806440938
 20
-7.3128099305
 10
11.1253871801
 20
-7.2870233999
 10
11.1667293054
 20
-7.2577494417
 10
11.2049272789
 20
-7.225120905
 10
11.2399961283
 20
-7.1893010978
  0
LWPOLYLINE
  5
2F8
100
AcDbEntity
  8
RACCORDO
100
AcDbPolyline
 62
250
  6
CONTINUOUS
 90
17
 70
0
 10
-15.4679312628
 20
4.4497028353
 10
-15.1481453757
 20
4.2959685151
 10
-14.8153642642
 20
4.1478841853
 10
-14.4698725488
 20
4.0055998229
 10
-14.1105686576
 20
3.8685343517
 10
-13.7385926804
 20
3.7365382015
 10
-13.3577427589
 20
3.6098799241
 10
-12.9667096126
 20
3.486813645
 10
-12.5663207929
 20
3.3667390774
 10
-12.1638520041
 20
3.2510309116
 10
-11.7590761039
 20
3.1386780283
 10
-11.3521267442
 20
3.0289554912
 10
-10.9512630779
 20
2.9234422532
 10
-10.5587670319
 20
2.8220654724
 10
-10.1728875866
 20
2.7237942389
 10
-9.7961254059
 20
2.6287948898
 10
-8.725993505
 20
2.3609951892
  0
LWPOLYLINE
  5
2F9
100
AcDbEntity
  8
RACCORDO
100
AcDbPolyline
 62
7
  6
CONTINUOUS
 90
7
 70
0
 10
11.2869121985
 20
-8.2506009681
 10
11.318767383
 20
-8.2666970612
 10
11.3620023755
 20
-8.2933480413
 10
11.4018282828
 20
-8.3237473917
 10
11.4379373947
 20
-8.3576738558
 10
11.4706374213
 20
-8.3953486903
 10
11.4999283627
 20
-8.436771895
  0
LINE
  5
2FA
100
AcDbEntity
  8
DRAFT
100
AcDbLine
 62
7
  6
CONTINUOUS
 10
10.523023501
 20
-8.5555476056
 11
11.7452719014
 21
-9.209913373
  0
LWPOLYLINE
  5
2FB
100
AcDbEntity
  8
RACCORDO
100
AcDbPolyline
 62
7
  6
CONTINUOUS
 90
3
 70
0
 10
10.7683822984
 20
-8.6609346141
 10
10.8938414537
 20
-8.7286925443
 10
10.9579523586
 20
-8.7597722732
  0
LINE
  5
2FC
100
AcDbEntity
  8
RACCORDO
100
AcDbLine
 62
250
  6
CONTINUOUS
 10
9.3949238536
 20
-6.5577369139
 11
9.4123085503
 21
-6.5671727889
  0
LWPOLYLINE
  5
2FD
100
AcDbEntity
  8
RACCORDO
100
AcDbPolyline
 62
250
  6
CONTINUOUS
 90
16
 70
0
 10
11.1808056659
 20
-7.053178884
 10
11.1829691811
 20
-7.0543993647
 10
11.1852597326
 20
-7.0553122775
 10
11.1876773204
 20
-7.0559176222
 10
11.1902417841
 20
-7.0562169413
 10
11.1929332841
 20
-7.0562086923
 10
11.1956923015
 20
-7.0558882483
 10
11.1985197686
 20
-7.0552469007
 10
11.201414753
 20
-7.054293358
 10
11.2043149386
 20
-7.0530491188
 10
11.2072200944
 20
-7.0515070585
 10
11.2101304514
 20
-7.0496743017
 10
11.2129843858
 20
-7.0475937203
 10
11.2157613566
 20
-7.0452796048
 10
11.2184819048
 20
-7.0427176648
 10
11.2211460305
 20
-7.0399079001
  0
LINE
  5
2FE
100
AcDbEntity
  8
RACCORDO
100
AcDbLine
 62
250
  6
CONTINUOUS
 10
-23.032136134
 20
10.0473380833
 11
-21.9651104917
 21
9.4396456744
  0
LINE
  5
2FF
100
AcDbEntity
  8
DRAFT
100
AcDbLine
 62
7
  6
CONTINUOUS
 10
10.329291101
 20
-8.406962803
 11
10.7683822984
 21
-8.6609346141
  0
LINE
  5
300
100
AcDbEntity
  8
RACCORDO
100
AcDbLine
 62
7
  6
CONTINUOUS
 10
10.4925965148
 20
-7.2515465385
 11
10.5973553847
 21
-7.3128122215
  0
LWPOLYLINE
  5
301
100
AcDbEntity
  8
RACCORDO
100
AcDbPolyline
 62
250
  6
CONTINUOUS
 90
16
 70
0
 10
4.7187438259
 20
-2.8547840326
 10
4.7910064036
 20
-2.8971206195
 10
4.8628075453
 20
-2.9476617415
 10
4.9334019725
 20
-3.0058827936
 10
5.0020569318
 20
-3.0711794553
 10
5.0680598014
 20
-3.1428739629
 10
5.1307254874
 20
-3.2202221443
 10
5.1894035352
 20
-3.302421144
 10
5.2434848807
 20
-3.388617756
 10
5.2924081725
 20
-3.4779172801
 10
5.3356655986
 20
-3.5693928085
 10
5.3728081574
 20
-3.6620948472
 10
5.403450318
 20
-3.7550611712
 10
5.4272740223
 20
-3.8473268123
 10
5.4440319859
 20
-3.9379340752
 10
5.4535502652
 20
-4.0259424781
  0
LWPOLYLINE
  5
302
100
AcDbEntity
  8
RACCORDO
100
AcDbPolyline
 62
7
  6
CONTINUOUS
 90
3
 70
0
 10
10.6030321295
 20
-8.5562785705
 10
10.7456328376
 20
-8.6476121151
 10
10.7683822984
 20
-8.6609346141
  0
LINE
  5
303
100
AcDbEntity
  8
RACCORDO
100
AcDbLine
 62
7
  6
CONTINUOUS
 10
10.4662881476
 20
-8.4548512746
 11
10.6030321295
 21
-8.5562785705
  0
LWPOLYLINE
  5
304
100
AcDbEntity
  8
RACCORDO
100
AcDbPolyline
 62
250
  6
CONTINUOUS
 90
16
 70
0
 10
11.1224524988
 20
-11.1183864997
 10
11.09562764
 20
-11.0973686756
 10
11.0652236634
 20
-11.0745618226
 10
11.031573683
 20
-11.0502158182
 10
10.9950463769
 20
-11.0245974035
 10
10.9560419473
 20
-10.9979872597
 10
10.9149877356
 20
-10.9706769335
 10
10.8723335415
 20
-10.9429656429
 10
10.8285466936
 20
-10.9151569987
 10
10.7841069288
 20
-10.8875556772
 10
10.7395011386
 20
-10.8604640844
 10
10.6952180329
 20
-10.8341790408
 10
10.6517427841
 20
-10.8089885293
 10
10.609551715
 20
-10.7851685416
 10
10.5691070796
 20
-10.7629800543
 10
10.5308519972
 20
-10.7426661686
  0
LINE
  5
305
100
AcDbEntity
  8
RACCORDO
100
AcDbLine
 62
7
  6
CONTINUOUS
 10
10.3864179593
 20
-8.386782669
 11
10.4662881476
 21
-8.4548512746
  0
LWPOLYLINE
  5
306
100
AcDbEntity
  8
ASSI
100
AcDbPolyline
 62
7
  6
CONTINUOUS
 90
27
 70
0
 10
1.1395241617
 20
20.5812311787
 10
1.1362942966
 20
20.6272588643
 10
1.1226471789
 20
20.6862608501
 10
1.0980474705
 20
20.7443685562
 10
1.0627615153
 20
20.8016037567
 10
1.017661454
 20
20.8565518052
 10
0.9625027025
 20
20.9091557019
 10
0.897529845
 20
20.9594724465
 10
0.824348775
 20
21.0062583916
 10
0.7427549297
 20
21.0494255437
 10
0.6529528718
 20
21.0890618962
 10
0.5571621825
 20
21.1241877823
 10
0.4552336149
 20
21.1546907935
 10
0.347316416
 20
21.1806833383
 10
0.2360779074
 20
21.2015229752
 10
0.1214353166
 20
21.2170812851
 10
0.0034714162
 20
21.2274866871
 10
-0.1148981541
 20
21.2324819974
 10
-0.233683504
 20
21.2319323874
 10
-0.3528745238
 20
21.2259726857
 10
-0.4695252436
 20
21.2147501945
 10
-0.5835729243
 20
21.1981335406
 10
-0.695080305
 20
21.1762540973
 10
-0.8012896333
 20
21.1496532866
 10
-0.9012816584
 20
21.1185115828
 10
-0.9959756312
 20
21.0826485116
 10
-1.0853715515
 20
21.0420640732
  0
LWPOLYLINE
  5
307
100
AcDbEntity
  8
C_COMPONENTE
100
AcDbPolyline
 62
7
  6
CONTINUOUS
 90
4
 70
0
 10
4.347424136
 20
-32.2271521431
 10
4.3491024445
 20
-32.2720215762
 10
4.3625148322
 20
-32.3615095144
 10
4.3816966228
 20
-32.4292247373
  0
LWPOLYLINE
  5
308
100
AcDbEntity
  8
ASSI
100
AcDbPolyline
 62
7
  6
CONTINUOUS
 90
22
 70
0
 10
0.2698709819
 20
20.5395177937
 10
0.2696205531
 20
20.54689912
 10
0.2643329808
 20
20.5771177337
 10
0.2523511659
 20
20.606439489
 10
0.2334059667
 20
20.6348283276
 10
0.2077665249
 20
20.6623203078
 10
0.17645004
 20
20.6878247339
 10
0.1392282668
 20
20.7112616962
 10
0.0963294505
 20
20.7327111043
 10
0.0494555258
 20
20.7513219909
 10
-0.0015533262
 20
20.7669802334
 10
-0.0565372866
 20
20.7797999543
 10
-0.1133149639
 20
20.7892725539
 10
-0.1719584744
 20
20.7952634613
 10
-0.2323957018
 20
20.7979072475
 10
-0.2922289059
 20
20.7970990247
 10
-0.3514334526
 20
20.7927001276
 10
-0.410033976
 20
20.7848492217
 10
-0.4657066384
 20
20.7738574155
 10
-0.517676827
 20
20.759828412
 10
-0.5667191546
 20
20.7426585083
 10
-0.6128336211
 20
20.7223477044
  0
LWPOLYLINE
  5
309
100
AcDbEntity
  8
RACCORDO
100
AcDbPolyline
 62
250
  6
CONTINUOUS
 90
19
 70
0
 10
3.6433770156
 20
-12.1745657923
 10
3.6378048148
 20
-11.746151462
 10
3.6350727229
 20
-11.3164944658
 10
3.6351761843
 20
-10.8856293686
 10
3.6381104068
 20
-10.4536115052
 10
3.6438706979
 20
-10.0204491561
 10
3.6524539457
 20
-9.5861055495
 10
3.6638568351
 20
-9.1506092422
 10
3.6780760736
 20
-8.7139903418
 10
3.6951111387
 20
-8.2762132219
 10
3.7149600211
 20
-7.8373071056
 10
3.7376206962
 20
-7.3973012521
 10
3.7630951384
 20
-6.9561590314
 10
3.7913826248
 20
-6.5139093885
 10
3.8224824985
 20
-6.070579674
 10
3.8563993693
 20
-5.6261299127
 10
3.8931357294
 20
-5.1805652741
 10
3.9326902633
 20
-4.7339393465
 10
3.975063137
 20
-4.2862844439
  0
LINE
  5
30A
100
AcDbEntity
  8
ASSI
100
AcDbLine
 62
7
  6
CONTINUOUS
 10
1.0434319795
 20
20.3354410177
 11
1.0434333225
 21
20.2747811211
  0
LWPOLYLINE
  5
30B
100
AcDbEntity
  8
RACCORDO
100
AcDbPolyline
 62
250
  6
CONTINUOUS
 90
19
 70
0
 10
3.6517483896
 20
-12.1703810024
 10
3.6461703082
 20
-12.5922686616
 10
3.6434312657
 20
-13.0125684055
 10
3.6435270572
 20
-13.4312508801
 10
3.6464533146
 20
-13.848266676
 10
3.6522056251
 20
-14.2636122924
 10
3.660781024
 20
-14.6773267086
 10
3.6721765764
 20
-15.0893852271
 10
3.6863893598
 20
-15.4997614471
 10
3.7034190059
 20
-15.9084904052
 10
3.7232638998
 20
-16.3155453588
 10
3.7459224039
 20
-16.7208995251
 10
3.7713966553
 20
-17.1245864083
 10
3.7996863374
 20
-17.5265782267
 10
3.8307912017
 20
-17.9268486629
 10
3.8647160484
 20
-18.3254318263
 10
3.9014637301
 20
-18.7223199236
 10
3.9410334419
 20
-19.1174617078
 10
3.9834257807
 20
-19.5108251485
  0
LWPOLYLINE
  5
30C
100
AcDbEntity
  8
RACCORDO
100
AcDbPolyline
 62
250
  6
CONTINUOUS
 90
18
 70
0
 10
17.049889622
 20
7.5544666635
 10
17.6337396634
 20
7.9282484795
 10
18.179654233
 20
8.3096073378
 10
18.6867158036
 20
8.6969710024
 10
19.1553748479
 20
9.0898973957
 10
19.5854682063
 20
9.4881880287
 10
19.9767690419
 20
9.8906528564
 10
20.3295905735
 20
10.2965749341
 10
20.644550991
 20
10.7065247744
 10
20.9214420253
 20
11.1192321704
 10
21.1607585573
 20
11.5342332418
 10
21.3635961239
 20
11.9534373745
 10
21.5297185833
 20
12.3761368103
 10
21.6589488231
 20
12.8015047547
 10
21.751518757
 20
13.2313777398
 10
21.8068745491
 20
13.665356739
 10
21.8244207411
 20
14.1023163612
 10
21.8237752287
 20
14.1672998698
  0
LWPOLYLINE
  5
30D
100
AcDbEntity
  8
RACCORDO
100
AcDbPolyline
 62
250
  6
CONTINUOUS
 90
3
 70
0
 10
15.776832861
 20
6.8352630355
 10
16.4308447283
 20
7.1900293041
 10
17.049889622
 20
7.5544666635
  0
LWPOLYLINE
  5
30E
100
AcDbEntity
  8
RACCORDO
100
AcDbPolyline
 62
250
  6
CONTINUOUS
 90
3
 70
0
 10
19.4204183829
 20
5.0323591211
 10
22.3728676166
 20
6.4548493698
 10
25.3229635205
 20
7.8225952407
  0
LWPOLYLINE
  5
30F
100
AcDbEntity
  8
RACCORDO
100
AcDbPolyline
 62
250
  6
CONTINUOUS
 90
4
 70
0
 10
15.2344398573
 20
4.5668000961
 10
15.9892132331
 20
4.9145988979
 10
16.7146763806
 20
5.2773145584
 10
17.4047124128
 20
5.6518895066
  0
LWPOLYLINE
  5
310
100
AcDbEntity
  8
RACCORDO
100
AcDbPolyline
 62
250
  6
CONTINUOUS
 90
3
 70
0
 10
25.3229635205
 20
7.8225952407
 10
28.2716253464
 20
9.1360694428
 10
31.2181670131
 20
10.3949275552
  0
LINE
  5
311
100
AcDbEntity
  8
RACCORDO
100
AcDbLine
 62
250
  6
CONTINUOUS
 10
14.4528713324
 20
4.2348532596
 11
15.2344398573
 21
4.5668000961
  0
LINE
  5
312
100
AcDbEntity
  8
RACCORDO
100
AcDbLine
 62
250
  6
CONTINUOUS
 10
13.6456503615
 20
3.9189973113
 11
14.4528713324
 21
4.2348532596
  0
LWPOLYLINE
  5
313
100
AcDbEntity
  8
RACCORDO
100
AcDbPolyline
 62
250
  6
CONTINUOUS
 90
19
 70
0
 10
31.8627122837
 20
9.1786385314
 10
31.8789413397
 20
9.1846946665
 10
31.8948572157
 20
9.1891569887
 10
31.9104599119
 20
9.1920254982
 10
31.9258373286
 20
9.1933042422
 10
31.9409015654
 20
9.1929891734
 10
31.9553889206
 20
9.1910681495
 10
31.9692941964
 20
9.1875076926
 10
31.9826225906
 20
9.1823412806
 10
31.9951259941
 20
9.175657205
 10
32.0067842171
 20
9.1674234012
 10
32.0176174493
 20
9.1576719338
 10
32.0274381511
 20
9.1465872883
 10
32.0362241169
 20
9.1341481326
 10
32.0439975522
 20
9.1203757987
 10
32.0506375332
 20
9.105518768
 10
32.0561037522
 20
9.0896598673
 10
32.060436517
 20
9.0727162698
 10
32.0636358275
 20
9.0546879754
  0
LINE
  5
314
100
AcDbEntity
  8
RACCORDO
100
AcDbLine
 62
250
  6
CONTINUOUS
 10
12.8176804303
 20
3.6208218709
 11
13.6456503615
 21
3.9189973113
  0
LINE
  5
315
100
AcDbEntity
  8
RACCORDO
100
AcDbLine
 62
250
  6
CONTINUOUS
 10
11.9720283815
 20
3.3410749558
 11
12.8176804303
 21
3.6208218709
  0
LWPOLYLINE
  5
316
100
AcDbEntity
  8
RACCORDO
100
AcDbPolyline
 62
250
  6
CONTINUOUS
 90
7
 70
0
 10
9.6424123028
 20
4.5168178146
 10
10.4712759505
 20
4.7479946558
 10
11.2867282945
 20
4.9971075304
 10
12.0867623038
 20
5.263273286
 10
12.8703218132
 20
5.5466321464
 10
13.6344356751
 20
5.8468099047
 10
14.3744766681
 20
6.1618890322
  0
LWPOLYLINE
  5
317
100
AcDbEntity
  8
RACCORDO
100
AcDbPolyline
 62
250
  6
CONTINUOUS
 90
11
 70
0
 10
31.2181646777
 20
10.39490176
 10
31.2954353816
 20
10.4161036924
 10
31.3716994627
 20
10.430676747
 10
31.4465300791
 20
10.4384883773
 10
31.5195565137
 20
10.4394880948
 10
31.5904204839
 20
10.4337080437
 10
31.6587582987
 20
10.4212066651
 10
31.7242639466
 20
10.4020048353
 10
31.7865505913
 20
10.3762020991
 10
31.8451450346
 20
10.3439892479
 10
31.8761072795
 20
10.3232786591
  0
LWPOLYLINE
  5
318
100
AcDbEntity
  8
RACCORDO
100
AcDbPolyline
 62
250
  6
CONTINUOUS
 90
3
 70
0
 10
7.9530663196
 20
4.1084615153
 10
8.8025371168
 20
4.3036945691
 10
9.6424123028
 20
4.5168178146
  0
LINE
  5
319
100
AcDbEntity
  8
RACCORDO
100
AcDbLine
 62
250
  6
CONTINUOUS
 10
7.5376034526
 20
2.2247574386
 11
8.446186202
 21
2.409718475
  0
LWPOLYLINE
  5
31A
100
AcDbEntity
  8
RACCORDO
100
AcDbPolyline
 62
250
  6
CONTINUOUS
 90
3
 70
0
 10
6.2292224149
 20
3.773261991
 10
7.0944114537
 20
3.931596021
 10
7.9530663196
 20
4.1084615153
  0
LINE
  5
31B
100
AcDbEntity
  8
RACCORDO
100
AcDbLine
 62
250
  6
CONTINUOUS
 10
6.6219468878
 20
2.0593629491
 11
7.5376034526
 21
2.2247574386
  0
LWPOLYLINE
  5
31C
100
AcDbEntity
  8
RACCORDO
100
AcDbPolyline
 62
250
  6
CONTINUOUS
 90
5
 70
0
 10
2.7017374593
 20
3.3231499
 10
3.5930384271
 20
3.4079934977
 10
4.4790873227
 20
3.5113430685
 10
5.3583146364
 20
3.633155324
 10
6.2292224149
 20
3.773261991
  0
LINE
  5
31D
100
AcDbEntity
  8
RACCORDO
100
AcDbLine
 62
250
  6
CONTINUOUS
 10
1.8024804361
 20
3.257166266
 11
2.7017374593
 21
3.3231499
  0
LWPOLYLINE
  5
31E
100
AcDbEntity
  8
RACCORDO
100
AcDbPolyline
 62
250
  6
CONTINUOUS
 90
9
 70
0
 10
-0.960604866
 20
1.4426800641
 10
0.01043708
 20
1.4488581586
 10
0.9754830552
 20
1.476020154
 10
1.9352768489
 20
1.5238091747
 10
2.8875023542
 20
1.5917562549
 10
3.8312493519
 20
1.6793741505
 10
4.7693270525
 20
1.786727584
 10
5.7000807878
 20
1.9135168473
 10
6.6219468878
 20
2.0593629491
  0
LINE
  5
31F
100
AcDbEntity
  8
RACCORDO
100
AcDbLine
 62
250
  6
CONTINUOUS
 10
-1.9361465747
 20
1.4580064542
 11
-0.960604866
 21
1.4426800641
  0
LWPOLYLINE
  5
320
100
AcDbEntity
  8
RACCORDO
100
AcDbPolyline
 62
250
  6
CONTINUOUS
 90
7
 70
0
 10
-3.7023642636
 20
3.2780138909
 10
-2.7767010281
 20
3.2227531451
 10
-1.8532030715
 20
3.1888476976
 10
-0.9320256291
 20
3.1756764619
 10
-0.015111109
 20
3.1829804276
 10
0.8961377241
 20
3.2103562271
 10
1.8024804361
 20
3.257166266
  0
LWPOLYLINE
  5
321
100
AcDbEntity
  8
RACCORDO
100
AcDbPolyline
 62
250
  6
CONTINUOUS
 90
16
 70
0
 10
26.3713764806
 20
0.535207325
 10
26.3739944323
 20
0.5350391167
 10
26.3766790128
 20
0.5351800301
 10
26.3794302221
 20
0.5356300653
 10
26.3822698509
 20
0.5363957967
 10
26.3851761085
 20
0.5374706499
 10
26.3880836224
 20
0.5388349015
 10
26.3909914
 20
0.5404962469
 10
26.3939004338
 20
0.5424469906
 10
26.3967483286
 20
0.5446443235
 10
26.399533199
 20
0.5470941468
 10
26.4022569303
 20
0.5497905592
 10
26.4048627843
 20
0.5526730475
 10
26.407331848
 20
0.5557214407
 10
26.4096830344
 20
0.5589559097
 10
26.4119163433
 20
0.5623764547
  0
LWPOLYLINE
  5
322
100
AcDbEntity
  8
RACCORDO
100
AcDbPolyline
 62
7
  6
CONTINUOUS
 90
43
 70
0
 10
25.9548897214
 20
0.2234974658
 10
25.881477687
 20
0.2284147007
 10
25.8028338064
 20
0.2250052406
 10
25.7195485088
 20
0.2130344008
 10
25.6328170139
 20
0.1925347466
 10
25.5432766976
 20
0.1636062618
 10
25.4505799322
 20
0.1259688091
 10
25.3553026511
 20
0.0795760636
 10
25.2584023637
 20
0.0246657107
 10
25.1596945945
 20
-0.0391358808
 10
25.059553835
 20
-0.1119693014
 10
24.9590058474
 20
-0.1934439968
 10
24.8586719057
 20
-0.2833563537
 10
24.7591753291
 20
-0.3814427457
 10
24.6612484778
 20
-0.4872568189
 10
24.5655896769
 20
-0.6002867945
 10
24.4727812341
 20
-0.7200717312
 10
24.3834847364
 20
-0.8459688306
 10
24.2984273665
 20
-0.9771100124
 10
24.2181545158
 20
-1.1127581437
 10
24.143135313
 20
-1.252202446
 10
24.0738814903
 20
-1.394535377
 10
24.0107737848
 20
-1.5389719018
 10
23.9541663732
 20
-1.6846622978
 10
23.9044210111
 20
-1.8305467844
 10
23.8617420224
 20
-1.9757909117
 10
23.8262873892
 20
-2.1195270047
 10
23.7982020009
 20
-2.2606089259
 10
23.7774924115
 20
-2.3980366788
 10
23.764034629
 20
-2.5312133748
 10
23.7576770799
 20
-2.6595444506
 10
23.7582210801
 20
-2.7820196966
 10
23.7653832825
 20
-2.8982235484
 10
23.7789396962
 20
-3.0082234998
 10
23.7985427349
 20
-3.1110412954
 10
23.8238254301
 20
-3.2062377764
 10
23.8546759579
 20
-3.29413948
 10
23.8905696579
 20
-3.3737463546
 10
23.931009605
 20
-3.4445716908
 10
23.9761172334
 20
-3.5070847234
 10
24.0257418705
 20
-3.5609691585
 10
24.079418022
 20
-3.6056892741
 10
24.137223586
 20
-3.641380614
  0
LWPOLYLINE
  5
323
100
AcDbEntity
  8
RACCORDO
100
AcDbPolyline
 62
250
  6
CONTINUOUS
 90
11
 70
0
 10
-10.4736608805
 20
3.9626146999
 10
-9.6709457116
 20
3.9012166714
 10
-9.2824275316
 20
3.8704459572
 10
-8.9024547123
 20
3.8393686245
 10
-8.5306246637
 20
3.8072611679
 10
-8.1675543457
 20
3.7737526666
 10
-7.8133944086
 20
3.7386359329
 10
-7.4669441664
 20
3.7015030272
 10
-7.1279723372
 20
3.6620783631
 10
-6.7972529196
 20
3.6201747406
 10
-6.4750296057
 20
3.5755622368
  0
LWPOLYLINE
  5
324
100
AcDbEntity
  8
RACCORDO
100
AcDbPolyline
 62
7
  6
CONTINUOUS
 90
13
 70
0
 10
25.9548897381
 20
0.2234974637
 10
26.0045310123
 20
0.2195938444
 10
26.0554304165
 20
0.2205079965
 10
26.1069988026
 20
0.2265199544
 10
26.1588354444
 20
0.2378785199
 10
26.2099099492
 20
0.2545987983
 10
26.2589002758
 20
0.2762790347
 10
26.30581351
 20
0.3028914833
 10
26.3498267603
 20
0.3339406367
 10
26.3893389923
 20
0.3678830882
 10
26.4243589872
 20
0.4039796824
 10
26.455771864
 20
0.4426155698
 10
26.4838929063
 20
0.4840617804
  0
LINE
  5
325
100
AcDbEntity
  8
RACCORDO
100
AcDbLine
 62
250
  6
CONTINUOUS
 10
-4.6288699496
 20
3.3550962587
 11
-3.7023642636
 21
3.2780138909
  0
LINE
  5
326
100
AcDbEntity
  8
RACCORDO
100
AcDbLine
 62
250
  6
CONTINUOUS
 10
-5.5537554753
 20
3.4541941099
 11
-4.6288699496
 21
3.3550962587
  0
LINE
  5
327
100
AcDbEntity
  8
RACCORDO
100
AcDbLine
 62
250
  6
CONTINUOUS
 10
-6.4750296057
 20
3.5755622368
 11
-5.5537554753
 21
3.4541941099
  0
LWPOLYLINE
  5
328
100
AcDbEntity
  8
RACCORDO
100
AcDbPolyline
 62
250
  6
CONTINUOUS
 90
6
 70
0
 10
-6.8310085582
 20
1.8725964855
 10
-5.8555473629
 20
1.7433436116
 10
-4.8759485339
 20
1.6375331632
 10
-3.8945742681
 20
1.5549292575
 10
-2.9141800432
 20
1.4952592607
 10
-1.9361465747
 20
1.4580064542
  0
LWPOLYLINE
  5
329
100
AcDbEntity
  8
RACCORDO
100
AcDbPolyline
 62
250
  6
CONTINUOUS
 90
8
 70
0
 10
-31.158345197
 20
15.0837361484
 10
-31.2297538079
 20
15.1132354412
 10
-31.2997729916
 20
15.1336050288
 10
-31.3676759732
 20
15.1446334828
 10
-31.4327579431
 20
15.1462063323
 10
-31.4943433731
 20
15.1383072523
 10
-31.5517930273
 20
15.121018233
 10
-31.5957759711
 20
15.0997382603
  0
LWPOLYLINE
  5
32A
100
AcDbEntity
  8
RACCORDO
100
AcDbPolyline
 62
7
  6
CONTINUOUS
 90
42
 70
0
 10
12.6900972303
 20
-6.546109496
 10
12.7463524256
 20
-6.5784457415
 10
12.8224583494
 20
-6.6329272892
 10
12.8926871874
 20
-6.6969007652
 10
12.9571296267
 20
-6.7702223316
 10
13.0147976933
 20
-6.8517684774
 10
13.0655872033
 20
-6.9416659719
 10
13.1096023406
 20
-7.0397880458
 10
13.1461676827
 20
-7.1446308799
 10
13.1751684666
 20
-7.2562984802
 10
13.1967194553
 20
-7.3746868409
 10
13.2104895149
 20
-7.4979801251
 10
13.2163585246
 20
-7.6262541205
 10
13.2144466052
 20
-7.7594330394
 10
13.2047829853
 20
-7.8954736817
 10
13.1872480013
 20
-8.034420171
 10
13.1619613169
 20
-8.1762283836
 10
13.1293111519
 20
-8.318722749
 10
13.0891840669
 20
-8.461913427
 10
13.0416935014
 20
-8.6057902578
 10
12.9875679926
 20
-8.748147191
 10
12.9267054138
 20
-8.8889606859
 10
12.8592078918
 20
-9.0282542832
 10
12.7861103443
 20
-9.1638925543
 10
12.7073248941
 20
-9.2958208548
 10
12.6229394184
 20
-9.4240938289
 10
12.5342524667
 20
-9.5467399809
 10
12.4411968865
 20
-9.6636715152
 10
12.3438398302
 20
-9.7749762272
 10
12.2436813041
 20
-9.8789460071
 10
12.1406830638
 20
-9.9754633753
 10
12.0348833536
 20
-10.0646458113
 10
11.9278969125
 20
-10.1451376439
 10
11.8197002211
 20
-10.2168084458
 10
11.7103167987
 20
-10.2797886442
 10
11.6014319417
 20
-10.3331138501
 10
11.493058259
 20
-10.3766320717
 10
11.3851831417
 20
-10.4104953007
 10
11.2794540588
 20
-10.4341951236
 10
11.1764201669
 20
-10.4475620693
 10
11.0755323094
 20
-10.4507656088
 10
10.9767904864
 20
-10.4438057422
  0
LWPOLYLINE
  5
32B
100
AcDbEntity
  8
RACCORDO
100
AcDbPolyline
 62
250
  6
CONTINUOUS
 90
28
 70
0
 10
7.2347640991
 20
-11.8326561603
 10
7.2770245683
 20
-11.9831189518
 10
7.3281493511
 20
-12.1261353006
 10
7.387286701
 20
-12.2597958611
 10
7.4548339898
 20
-12.3840109952
 10
7.5303938457
 20
-12.4988703412
 10
7.6119224069
 20
-12.6027334687
 10
7.6998265334
 20
-12.6951178826
 10
7.7936993651
 20
-12.7765060782
 10
7.8902764599
 20
-12.8467051112
 10
7.9893298706
 20
-12.9050432006
 10
8.0910875444
 20
-12.9521921274
 10
8.1929688801
 20
-12.9899742906
 10
8.294601657
 20
-13.0182299542
 10
8.3963580959
 20
-13.0371188541
 10
8.4967742575
 20
-13.048942597
 10
8.5956475633
 20
-13.0537919112
 10
8.6931805918
 20
-13.0515760684
 10
8.7885171391
 20
-13.0443244893
 10
8.8815149589
 20
-13.0321615764
 10
8.9723162976
 20
-13.0149629272
 10
9.06049169
 20
-12.9943847558
 10
9.1459332658
 20
-12.9705556004
 10
9.2287488954
 20
-12.9433469228
 10
9.3088327247
 20
-12.9140293218
 10
9.386149469
 20
-12.8830263305
 10
9.4607344129
 20
-12.8499144158
 10
9.5325875566
 20
-12.8146935778
  0
LWPOLYLINE
  5
32C
100
AcDbEntity
  8
RACCORDO
100
AcDbPolyline
 62
250
  6
CONTINUOUS
 90
12
 70
0
 10
3.9834477557
 20
-19.5108032047
 10
3.9949724251
 20
-19.5876162547
 10
4.0109487941
 20
-19.660131506
 10
4.0312938515
 20
-19.7278725156
 10
4.0558169306
 20
-19.7904486481
 10
4.0843701869
 20
-19.8475827051
 10
4.1168929932
 20
-19.8990469849
 10
4.1532173666
 20
-19.9445627096
 10
4.1930897014
 20
-19.9838337545
 10
4.2363129941
 20
-20.0166043704
 10
4.2826141262
 20
-20.0426363072
 10
4.3198585455
 20
-20.0578920172
  0
LWPOLYLINE
  5
32D
100
AcDbEntity
  8
RACCORDO
100
AcDbPolyline
 62
250
  6
CONTINUOUS
 90
19
 70
0
 10
5.2687187416
 20
-19.3526525682
 10
5.271370879
 20
-19.3703952991
 10
5.2751709355
 20
-19.3870621341
 10
5.280118911
 20
-19.4026530731
 10
5.286251951
 20
-19.4172499638
 10
5.2935329101
 20
-19.4307709586
 10
5.301850352
 20
-19.4429705145
 10
5.3112291221
 20
-19.4538277297
 10
5.3216443751
 20
-19.4633635061
 10
5.3329101384
 20
-19.4713950066
 10
5.3450433717
 20
-19.4778881307
 10
5.3580271154
 20
-19.4828769789
 10
5.3716245178
 20
-19.4862810152
 10
5.3858429983
 20
-19.4880692838
 10
5.4006751376
 20
-19.4882727405
 10
5.415861826
 20
-19.486903716
 10
5.4313166936
 20
-19.4839663206
 10
5.4471261103
 20
-19.479456444
 10
5.4632900761
 20
-19.4733740863
  0
LWPOLYLINE
  5
32E
100
AcDbEntity
  8
ASSI
100
AcDbPolyline
 62
7
  6
CONTINUOUS
 90
4
 70
0
 10
1.1321996101
 20
20.5137634596
 10
1.1298582662
 20
20.5303563609
 10
1.1074623169
 20
20.5953424098
 10
1.0716484332
 20
20.658808296
  0
LWPOLYLINE
  5
32F
100
AcDbEntity
  8
RACCORDO
100
AcDbPolyline
 62
250
  6
CONTINUOUS
 90
15
 70
0
 10
4.9335055056
 20
-12.121875126
 10
4.9278927317
 20
-11.6996441843
 10
4.9250755844
 20
-11.2762458405
 10
4.9250540637
 20
-10.8516800945
 10
4.9278317807
 20
-10.4259377992
 10
4.9334051243
 20
-9.9990281017
 10
4.9417632611
 20
-9.5709784437
 10
4.9529045197
 20
-9.1417899238
 10
4.9668305714
 20
-8.7114614433
 10
4.983535597
 20
-8.2800171481
 10
5.0030179309
 20
-7.8474577539
 10
5.0252792386
 20
-7.4137825449
 10
5.0503186965
 20
-6.9790135208
 10
5.0781346031
 20
-6.5431509798
 10
5.1087286599
 20
-6.1061946236
  0
LINE
  5
330
100
AcDbEntity
  8
C_COMPONENTE
100
AcDbLine
 62
7
  6
CONTINUOUS
 10
4.347424136
 20
-28.9399728659
 11
4.347424136
 21
-32.2271521431
  0
LWPOLYLINE
  5
331
100
AcDbEntity
  8
RACCORDO
100
AcDbPolyline
 62
250
  6
CONTINUOUS
 90
19
 70
0
 10
4.9418749234
 20
-12.1176904171
 10
4.9362892809
 20
-12.5335533727
 10
4.9335040175
 20
-12.947800234
 10
4.9335191332
 20
-13.3604310012
 10
4.9363378806
 20
-13.7714512409
 10
4.9419570071
 20
-14.1808553864
 10
4.9503667549
 20
-14.5886267378
 10
4.961565436
 20
-14.9947658781
 10
4.9755547385
 20
-15.3992722244
 10
4.9923299678
 20
-15.8021273275
 10
5.0118894409
 20
-16.203332169
 10
5.034234841
 20
-16.6028857674
 10
5.0593665225
 20
-17.0007667293
 10
5.0872827701
 20
-17.3969765078
 10
5.1179852992
 20
-17.7915136498
 10
5.1514796108
 20
-18.1843524021
 10
5.1877675385
 20
-18.5754841804
 10
5.2268472488
 20
-18.9649175691
 10
5.2687187416
 20
-19.3526525682
  0
LWPOLYLINE
  5
332
100
AcDbEntity
  8
RACCORDO
100
AcDbPolyline
 62
250
  6
CONTINUOUS
 90
5
 70
0
 10
5.1087286599
 20
-6.1061946236
 10
5.1421051489
 20
-5.6681655566
 10
5.1782654971
 20
-5.2290708134
 10
5.2172082774
 20
-4.7889033594
 10
5.2589334897
 20
-4.3476631945
  0
LWPOLYLINE
  5
333
100
AcDbEntity
  8
RACCORDO
100
AcDbPolyline
 62
250
  6
CONTINUOUS
 90
19
 70
0
 10
5.2589334897
 20
-4.3476631945
 10
5.2615811859
 20
-4.3267113967
 10
5.2653768931
 20
-4.3057035631
 10
5.2703206114
 20
-4.2846396937
 10
5.2764497543
 20
-4.2633981005
 10
5.2837269083
 20
-4.2421004715
 10
5.2920398322
 20
-4.2211118707
 10
5.3014110191
 20
-4.2004312809
 10
5.311817976
 20
-4.1800597193
 10
5.3230809826
 20
-4.1603653009
 10
5.335220846
 20
-4.1413595922
 10
5.3482167591
 20
-4.1230310268
 10
5.3618265805
 20
-4.1057130212
 10
5.3760563756
 20
-4.0894334216
 10
5.3909000789
 20
-4.0741643817
 10
5.4060973533
 20
-4.0601557797
 10
5.4215614196
 20
-4.047490908
 10
5.4373790569
 20
-4.0360864742
 10
5.4535502652
 20
-4.0259424781
  0
LWPOLYLINE
  5
334
100
AcDbEntity
  8
RACCORDO
100
AcDbPolyline
 62
250
  6
CONTINUOUS
 90
19
 70
0
 10
3.9750864749
 20
-4.2862719541
 10
3.9865572861
 20
-4.1957398979
 10
4.0024794626
 20
-4.1038204483
 10
4.0227651296
 20
-4.0110748789
 10
4.0472233924
 20
-3.9180568302
 10
4.0757146481
 20
-3.8252364451
 10
4.10817725
 20
-3.7330124131
 10
4.1444284222
 20
-3.6418225914
 10
4.1842202406
 20
-3.552246491
 10
4.2273644771
 20
-3.4649011691
 10
4.2735863039
 20
-3.3802801808
 10
4.3225827553
 20
-3.2988358922
 10
4.3740975309
 20
-3.2211238411
 10
4.4277461708
 20
-3.1476292215
 10
4.4832307062
 20
-3.0786749009
 10
4.5404142815
 20
-3.0145695919
 10
4.5990183701
 20
-2.9556638452
 10
4.6586029241
 20
-2.9023125571
 10
4.7187441604
 20
-2.8548084966
  0
LWPOLYLINE
  5
335
100
AcDbEntity
  8
C_COMPONENTE
100
AcDbPolyline
 62
7
  6
CONTINUOUS
 90
4
 70
0
 10
-4.3218771934
 20
-39.1467391586
 10
-4.3026954028
 20
-39.0790239357
 10
-4.2892830151
 20
-38.9895359975
 10
-4.2876047066
 20
-38.9446665643
  0
LWPOLYLINE
  5
336
100
AcDbEntity
  8
RACCORDO
100
AcDbPolyline
 62
250
  6
CONTINUOUS
 90
4
 70
0
 10
19.2484518223
 20
6.8360877649
 10
19.7826471567
 20
7.2462448685
 10
20.2761488857
 20
7.6627669616
 10
20.7289333867
 20
8.0848444749
  0
LINE
  5
337
100
AcDbEntity
  8
RACCORDO
100
AcDbLine
 62
250
  6
CONTINUOUS
 10
18.6730813743
 20
6.4326138072
 11
19.2484518223
 21
6.8360877649
  0
LINE
  5
338
100
AcDbEntity
  8
RACCORDO
100
AcDbLine
 62
250
  6
CONTINUOUS
 10
18.0575798848
 20
6.0371325402
 11
18.6730813743
 21
6.4326138072
  0
LINE
  5
339
100
AcDbEntity
  8
RACCORDO
100
AcDbLine
 62
250
  6
CONTINUOUS
 10
17.4047124128
 20
5.6518895066
 11
18.0575798848
 21
6.0371325402
  0
LINE
  5
33A
100
AcDbEntity
  8
RACCORDO
100
AcDbLine
 62
250
  6
CONTINUOUS
 10
4.7187438259
 20
-2.8547840326
 11
7.6458002125
 21
-1.1768431244
  0
LINE
  5
33B
100
AcDbEntity
  8
RACCORDO
100
AcDbLine
 62
250
  6
CONTINUOUS
 10
5.4535502652
 20
-4.0259424781
 11
8.3784688903
 21
-2.3566573014
  0
LINE
  5
33C
100
AcDbEntity
  8
RACCORDO
100
AcDbLine
 62
250
  6
CONTINUOUS
 10
7.6458002125
 20
-1.1768431244
 11
10.5798440309
 21
0.4510354947
  0
LWPOLYLINE
  5
33D
100
AcDbEntity
  8
RACCORDO
100
AcDbPolyline
 62
250
  6
CONTINUOUS
 90
3
 70
0
 10
8.3784688903
 20
-2.3566573014
 10
11.3073773042
 20
-0.7370836963
 10
14.2402755068
 20
0.8327783372
  0
LINE
  5
33E
100
AcDbEntity
  8
RACCORDO
100
AcDbLine
 62
250
  6
CONTINUOUS
 10
10.5798440309
 20
0.4510354947
 11
13.5201917911
 21
2.0285114568
  0
LINE
  5
33F
100
AcDbEntity
  8
RACCORDO
100
AcDbLine
 62
250
  6
CONTINUOUS
 10
13.5201917911
 20
2.0285114568
 11
16.4677643619
 21
3.5560321106
  0
LINE
  5
340
100
AcDbEntity
  8
RACCORDO
100
AcDbLine
 62
250
  6
CONTINUOUS
 10
14.2402755068
 20
0.8327783372
 11
17.1793389797
 21
2.3540165399
  0
LINE
  5
341
100
AcDbEntity
  8
RACCORDO
100
AcDbLine
 62
250
  6
CONTINUOUS
 10
16.4677643619
 20
3.5560321106
 11
19.4204183829
 21
5.0323591211
  0
LWPOLYLINE
  5
342
100
AcDbEntity
  8
RACCORDO
100
AcDbPolyline
 62
250
  6
CONTINUOUS
 90
6
 70
0
 10
17.1793389797
 20
2.3540165399
 10
20.1223922414
 20
3.825543171
 10
23.0629088471
 20
5.2440950079
 10
25.9987133153
 20
6.6085843099
 10
28.9319811275
 20
7.9200988177
 10
31.8627122837
 20
9.1786385314
  0
LWPOLYLINE
  5
343
100
AcDbEntity
  8
RACCORDO
100
AcDbPolyline
 62
7
  6
CONTINUOUS
 90
37
 70
0
 10
19.7081648775
 20
-2.6108929635
 10
19.6217848219
 20
-2.5729683668
 10
19.5311594621
 20
-2.5465628184
 10
19.436593455
 20
-2.5311016662
 10
19.3392631414
 20
-2.5260754377
 10
19.2394523462
 20
-2.5308255905
 10
19.1361524635
 20
-2.5450727018
 10
19.0300624296
 20
-2.5686220892
 10
18.922135816
 20
-2.6011155263
 10
18.8112921333
 20
-2.6428867859
 10
18.6977961604
 20
-2.6940596288
 10
18.5827216026
 20
-2.7543383382
 10
18.4658668503
 20
-2.8240343168
 10
18.3475711017
 20
-2.9032508705
 10
18.2287688898
 20
-2.9916465945
 10
18.1100270151
 20
-3.0890394368
 10
17.9919208582
 20
-3.1951933193
 10
17.8751193203
 20
-3.3097275268
 10
17.7602596194
 20
-3.4322133073
 10
17.6479019412
 20
-3.5622358787
 10
17.5386475569
 20
-3.6992698522
 10
17.4331299466
 20
-3.8426624646
 10
17.3318711323
 20
-3.9918204404
 10
17.2353654362
 20
-4.1461190147
 10
17.1441360552
 20
-4.304800195
 10
17.0585996812
 20
-4.4671930967
 10
16.979165016
 20
-4.6325585413
 10
16.9062639464
 20
-4.7999873355
 10
16.8402041154
 20
-4.9687093429
 10
16.7812430097
 20
-5.1379692269
 10
16.7296445346
 20
-5.3068429246
 10
16.6855687817
 20
-5.4745459059
 10
16.649123038
 20
-5.6403218458
 10
16.6203932603
 20
-5.8032649024
 10
16.5993798577
 20
-5.9625718623
 10
16.5860130691
 20
-6.1175765894
 10
16.580180997
 20
-6.2676007319
  0
LWPOLYLINE
  5
344
100
AcDbEntity
  8
RACCORDO
100
AcDbPolyline
 62
7
  6
CONTINUOUS
 90
15
 70
0
 10
19.7081199181
 20
-2.6109792083
 10
19.7455367361
 20
-2.631471995
 10
19.8384502983
 20
-2.6917751655
 10
19.9251928927
 20
-2.7624644081
 10
20.0058442893
 20
-2.8434088523
 10
20.0793796774
 20
-2.9335711761
 10
20.145708461
 20
-3.0330727003
 10
20.2049212359
 20
-3.1417921042
 10
20.2562649794
 20
-3.2583281042
 10
20.2996363828
 20
-3.3827743984
 10
20.3351387546
 20
-3.5150372888
 10
20.3623289985
 20
-3.6534343963
 10
20.3810594156
 20
-3.7974049282
 10
20.3914777046
 20
-3.9475096774
 10
20.3935838657
 20
-4.1037486438
  0
LWPOLYLINE
  5
345
100
AcDbEntity
  8
RACCORDO
100
AcDbPolyline
 62
7
  6
CONTINUOUS
 90
13
 70
0
 10
-12.6241864027
 20
31.5098815533
 10
-12.4722085366
 20
31.2676433516
 10
-12.384401794
 20
31.1058643178
 10
-12.3077501198
 20
30.9402247689
 10
-12.2416718087
 20
30.7687579752
 10
-12.1867485659
 20
30.5934306663
 10
-12.1447255075
 20
30.4201430318
 10
-12.1159343727
 20
30.2491857307
 10
-12.1000434223
 20
30.0802681039
 10
-12.0978025544
 20
29.9184183642
 10
-12.1094617353
 20
29.7653125827
 10
-12.1347709988
 20
29.6192746884
 10
-12.1737303449
 20
29.4803046813
  0
LWPOLYLINE
  5
346
100
AcDbEntity
  8
RACCORDO
100
AcDbPolyline
 62
250
  6
CONTINUOUS
 90
8
 70
0
 10
11.2211460305
 20
-7.0399079001
 10
11.2355499883
 20
-7.0703920277
 10
11.2459231
 20
-7.0985228424
 10
11.2521517191
 20
-7.1239921386
 10
11.2541676072
 20
-7.146520871
 10
11.2519486818
 20
-7.1658622125
 10
11.2455192576
 20
-7.1818042585
 10
11.2399961283
 20
-7.1893010978
  0
LINE
  5
347
100
AcDbEntity
  8
RACCORDO
100
AcDbLine
 62
250
  6
CONTINUOUS
 10
7.2015598991
 20
-11.674716812
 11
7.2347640991
 21
-11.8326561603
  0
LWPOLYLINE
  5
348
100
AcDbEntity
  8
RACCORDO
100
AcDbPolyline
 62
250
  6
CONTINUOUS
 90
13
 70
0
 10
9.6170049747
 20
-6.9337046226
 10
9.6157083754
 20
-6.8994865096
 10
9.6108844789
 20
-6.8639905824
 10
9.6026139995
 20
-6.8278107817
 10
9.591035322
 20
-6.7915524912
 10
9.5763421864
 20
-6.7558224099
 10
9.5587804474
 20
-6.7212184002
 10
9.5386439585
 20
-6.6883194808
 10
9.5162696563
 20
-6.6576761406
 10
9.4920319241
 20
-6.6298011288
 10
9.4663363249
 20
-6.6051608713
 10
9.4396128148
 20
-6.5841676665
 10
9.4123085503
 20
-6.5671727889
  0
LWPOLYLINE
  5
349
100
AcDbEntity
  8
DRAFT
100
AcDbPolyline
 62
7
  6
CONTINUOUS
 90
22
 70
0
 10
9.3295204115
 20
22.2552220243
 10
9.3298123518
 20
22.2451465868
 10
9.3359472567
 20
22.210085445
 10
9.3498491555
 20
22.1760648832
 10
9.3718303198
 20
22.1431267377
 10
9.4015784781
 20
22.111229172
 10
9.4379134247
 20
22.0816376658
 10
9.4810999811
 20
22.054444934
 10
9.5308733259
 20
22.0295582616
 10
9.5852587895
 20
22.0079649834
 10
9.6444418019
 20
21.9897975101
 10
9.7082369332
 20
21.974923431
 10
9.7741132243
 20
21.9639328488
 10
9.842154348
 20
21.9569818994
 10
9.9122766314
 20
21.953914447
 10
9.981698097
 20
21.9548521873
 10
10.0503905683
 20
21.9599561488
 10
10.1183822216
 20
21.9690653031
 10
10.1829756084
 20
21.9818182606
 10
10.2432715789
 20
21.998094558
 10
10.3001692828
 20
22.0180146586
 10
10.35366872
 20
22.0415785624
  0
LWPOLYLINE
  5
34A
100
AcDbEntity
  8
RACCORDO
100
AcDbPolyline
 62
250
  6
CONTINUOUS
 90
22
 70
0
 10
9.4528436473
 20
34.5039872776
 10
9.4530388733
 20
34.495862057
 10
9.4578676991
 20
34.4682574271
 10
9.4690731301
 20
34.4411200258
 10
9.486502836
 20
34.414817618
 10
9.5099211933
 20
34.3897049806
 10
9.5390139961
 20
34.3661197419
 10
9.5733913077
 20
34.3443799177
 10
9.6125875397
 20
34.3247815659
 10
9.6560685731
 20
34.3075920214
 10
9.7032445922
 20
34.2930438974
 10
9.7534781273
 20
34.2813332642
 10
9.8060876937
 20
34.2726184759
 10
9.8603581473
 20
34.2670170366
 10
9.9155584989
 20
34.2646034423
 10
9.9709503696
 20
34.2654100158
 10
10.025790664
 20
34.2694271976
 10
10.0793313543
 20
34.2766015035
 10
10.1308385978
 20
34.2868345087
 10
10.1796136083
 20
34.2999860099
 10
10.2250010315
 20
34.315877826
 10
10.2663884497
 20
34.3342943117
  0
LINE
  5
34B
100
AcDbEntity
  8
RACCORDO
100
AcDbLine
 62
250
  6
CONTINUOUS
 10
10.2663884497
 20
34.3342943117
 11
10.35366872
 21
22.0415785624
  0
LINE
  5
34C
100
AcDbEntity
  8
C_COMPONENTE
100
AcDbLine
 62
7
  6
CONTINUOUS
 10
9.147424136
 20
-27.9396406835
 11
9.147424136
 21
-32.2271521431
  0
LINE
  5
34D
100
AcDbEntity
  8
DRAFT
100
AcDbLine
 62
7
  6
CONTINUOUS
 10
9.3294122672
 20
22.2552221346
 11
9.4528436425
 21
34.5039867928
  0
LWPOLYLINE
  5
34E
100
AcDbEntity
  8
C_COMPONENTE
100
AcDbPolyline
 62
7
  6
CONTINUOUS
 90
4
 70
0
 10
9.147424136
 20
-32.2271521431
 10
9.1457458275
 20
-32.2720215762
 10
9.1323334397
 20
-32.3615095144
 10
9.1131516492
 20
-32.4292247373
  0
LWPOLYLINE
  5
34F
100
AcDbEntity
  8
RACCORDO
100
AcDbPolyline
 62
250
  6
CONTINUOUS
 90
8
 70
0
 10
9.5325875566
 20
-12.8146935778
 10
9.5303351603
 20
-12.8470613583
 10
9.5245714539
 20
-12.8770371687
 10
9.5153928796
 20
-12.9041194334
 10
9.5029530196
 20
-12.927854993
 10
9.4874600263
 20
-12.947846688
 10
9.4691731391
 20
-12.9637600034
 10
9.4546519096
 20
-12.9724376041
  0
LWPOLYLINE
  5
350
100
AcDbEntity
  8
RACCORDO
100
AcDbPolyline
 62
250
  6
CONTINUOUS
 90
10
 70
0
 10
5.4632900761
 20
-19.4733740863
 10
5.4537744573
 20
-19.5610596678
 10
5.4370183023
 20
-19.6440084408
 10
5.4131955557
 20
-19.7213593189
 10
5.3825535199
 20
-19.792309327
 10
5.3454102882
 20
-19.8561219372
 10
5.3021514422
 20
-19.9121347146
 10
5.2532260495
 20
-19.9597661938
 10
5.1991420017
 20
-19.998521915
 10
5.1456381694
 20
-20.02585221
  0
LWPOLYLINE
  5
351
100
AcDbEntity
  8
RACCORDO
100
AcDbPolyline
 62
250
  6
CONTINUOUS
 90
4
 70
0
 10
20.7289333867
 20
8.0848444749
 10
21.1406969091
 20
8.5115322149
 10
21.5117532253
 20
8.9423431745
 10
21.8428907597
 20
9.3772504247
  0
LWPOLYLINE
  5
352
100
AcDbEntity
  8
RACCORDO
100
AcDbPolyline
 62
250
  6
CONTINUOUS
 90
6
 70
0
 10
9.4123085503
 20
-6.5671727889
 10
9.3349700054
 20
-6.6072139623
 10
9.2543879954
 20
-6.6518540884
 10
9.1706465551
 20
-6.7014097345
 10
9.0839883136
 20
-6.756107398
 10
9.0816999022
 20
-6.7576459736
  0
LWPOLYLINE
  5
353
100
AcDbEntity
  8
RACCORDO
100
AcDbPolyline
 62
250
  6
CONTINUOUS
 90
36
 70
0
 10
9.6170049747
 20
-6.9337046226
 10
9.5458059345
 20
-6.9699961884
 10
9.47179534
 20
-7.0111044544
 10
9.3949731912
 20
-7.0570294207
 10
9.3153196405
 20
-7.1073817443
 10
9.2328545355
 20
-7.1625507683
 10
9.147637419
 20
-7.2237045213
 10
9.0595658987
 20
-7.2908193359
 10
8.9687423668
 20
-7.3639188797
 10
8.875533543
 20
-7.4442421839
 10
8.7797999994
 20
-7.531805556
 10
8.6816811638
 20
-7.6265926886
 10
8.5819620391
 20
-7.7297936903
 10
8.4804549277
 20
-7.8414985353
 10
8.3773475272
 20
-7.9616172495
 10
8.2739879333
 20
-8.0910700192
 10
8.1700023568
 20
-8.2303537302
 10
8.0657645869
 20
-8.3789714968
 10
7.9637440874
 20
-8.5363528485
 10
7.8636477779
 20
-8.7034405152
 10
7.7657687388
 20
-8.8792917669
 10
7.6734556751
 20
-9.0605079434
 10
7.5870887041
 20
-9.2472116499
 10
7.5062877086
 20
-9.4392802811
 10
7.4332610416
 20
-9.6329473607
 10
7.3684203902
 20
-9.827907927
 10
7.3113540675
 20
-10.0244669417
 10
7.2630353659
 20
-10.2197728138
 10
7.2236683265
 20
-10.4136561385
 10
7.1930489082
 20
-10.6062863207
 10
7.1715382814
 20
-10.795319983
 10
7.1592463688
 20
-10.9805927452
 10
7.1560632476
 20
-11.1622689875
 10
7.1620203198
 20
-11.3384984739
 10
7.1772200127
 20
-11.509331021
 10
7.2015598991
 20
-11.674716812
  0
LINE
  5
354
100
AcDbEntity
  8
DRAFT
100
AcDbLine
 62
7
  6
CONTINUOUS
 10
27.9137257114
 20
2.7060333714
 11
9.5289494006
 21
-6.486354784
  0
LINE
  5
355
100
AcDbEntity
  8
RACCORDO
100
AcDbLine
 62
250
  6
CONTINUOUS
 10
27.7970848611
 20
2.6252153665
 11
9.4123085503
 21
-6.5671727889
  0
LINE
  5
356
100
AcDbEntity
  8
RACCORDO
100
AcDbLine
 62
250
  6
CONTINUOUS
 10
28.0017812855
 20
2.2586835328
 11
9.6170049747
 21
-6.9337046226
  0
LINE
  5
357
100
AcDbEntity
  8
RACCORDO
100
AcDbLine
 62
7
  6
CONTINUOUS
 10
29.2475535462
 20
2.8574459068
 11
29.2393641366
 21
2.853351202
  0
LINE
  5
358
100
AcDbEntity
  8
RACCORDO
100
AcDbLine
 62
250
  6
CONTINUOUS
 10
27.8751200223
 20
2.6628347732
 11
27.7970848611
 21
2.6252153665
  0
LWPOLYLINE
  5
359
100
AcDbEntity
  8
RACCORDO
100
AcDbPolyline
 62
250
  6
CONTINUOUS
 90
3
 70
0
 10
28.0406402066
 20
2.7333316534
 10
27.9563374857
 20
2.6990113673
 10
27.8751200223
 20
2.6628347732
  0
LWPOLYLINE
  5
35A
100
AcDbEntity
  8
RACCORDO
100
AcDbPolyline
 62
250
  6
CONTINUOUS
 90
4
 70
0
 10
28.2255361174
 20
2.3580192768
 10
28.1482193732
 20
2.3270162854
 10
28.0736344292
 20
2.2939043708
 10
28.0017812855
 20
2.2586835328
  0
LINE
  5
35B
100
AcDbEntity
  8
RACCORDO
100
AcDbLine
 62
250
  6
CONTINUOUS
 10
27.1735824263
 20
-0.9669272822
 11
27.1484491252
 21
-0.974936858
  0
LWPOLYLINE
  5
35C
100
AcDbEntity
  8
RACCORDO
100
AcDbPolyline
 62
7
  6
CONTINUOUS
 90
5
 70
0
 10
27.1348756269
 20
-1.0247434081
 10
27.1120378011
 20
-1.0319603921
 10
27.0600431116
 20
-1.0543557781
 10
27.007932115
 20
-1.0825694907
 10
26.956223912
 20
-1.1161899521
  0
LWPOLYLINE
  5
35D
100
AcDbEntity
  8
SMUSSO
100
AcDbPolyline
 62
7
  6
CONTINUOUS
 90
9
 70
0
 10
25.4928303452
 20
-2.5563345444
 10
25.4727152153
 20
-2.5472659726
 10
25.4489652454
 20
-2.5388363199
 10
25.4222786907
 20
-2.5314668886
 10
25.3926992879
 20
-2.525240189
 10
25.3602263358
 20
-2.520228174
 10
25.3249183502
 20
-2.5165172981
 10
25.2868986665
 20
-2.5141910552
 10
25.2462769131
 20
-2.5133145506
  0
LWPOLYLINE
  5
35E
100
AcDbEntity
  8
RACCORDO
100
AcDbPolyline
 62
7
  6
CONTINUOUS
 90
5
 70
0
 10
26.230014372
 20
-2.8745840536
 10
26.2166098521
 20
-2.8681873002
 10
26.1842478151
 20
-2.8571867413
 10
26.1500558919
 20
-2.851519489
 10
26.1136371885
 20
-2.8512370138
  0
LINE
  5
35F
100
AcDbEntity
  8
DRAFT
100
AcDbLine
 62
250
  6
CONTINUOUS
 10
27.7808667173
 20
-3.8093302003
 11
27.9137257114
 21
-3.8757596973
  0
LINE
  5
360
100
AcDbEntity
  8
DRAFT
100
AcDbLine
 62
7
  6
CONTINUOUS
 10
25.4927831649
 20
-2.5563105987
 11
26.0820865055
 21
-2.8554033684
  0
LINE
  5
361
100
AcDbEntity
  8
SMUSSO
100
AcDbLine
 62
250
  6
CONTINUOUS
 10
25.7894081981
 20
-3.0453482416
 11
25.1147464858
 21
-2.6972693219
  0
LINE
  5
362
100
AcDbEntity
  8
SMUSSO
100
AcDbLine
 62
250
  6
CONTINUOUS
 10
26.8287489357
 20
-2.5607727479
 11
26.0155040083
 21
-2.1367647331
  0
LINE
  5
363
100
AcDbEntity
  8
DRAFT
100
AcDbLine
 62
250
  6
CONTINUOUS
 10
25.6606662681
 20
-1.9281072909
 11
24.1982501684
 21
-1.1497559754
  0
LWPOLYLINE
  5
364
100
AcDbEntity
  8
RACCORDO
100
AcDbPolyline
 62
250
  6
CONTINUOUS
 90
16
 70
0
 10
26.3535631763
 20
-3.502831161
 10
26.3513996611
 20
-3.5016106803
 10
26.3491091096
 20
-3.5006977676
 10
26.3466915218
 20
-3.5000924229
 10
26.344127058
 20
-3.4997931038
 10
26.341435558
 20
-3.4998013527
 10
26.3386765406
 20
-3.5001217967
 10
26.3358490735
 20
-3.5007631443
 10
26.3329540891
 20
-3.501716687
 10
26.3300539035
 20
-3.5029609263
 10
26.3271487477
 20
-3.5045029865
 10
26.3242383908
 20
-3.5063357433
 10
26.3213844563
 20
-3.5084163248
 10
26.3186074856
 20
-3.5107304402
 10
26.3158869373
 20
-3.5132923803
 10
26.3132228116
 20
-3.516102145
  0
LINE
  5
365
100
AcDbEntity
  8
RACCORDO
100
AcDbLine
 62
7
  6
CONTINUOUS
 10
26.2300764686
 20
-2.8744649132
 11
26.3317995981
 21
-2.9344505907
  0
LWPOLYLINE
  5
366
100
AcDbEntity
  8
ASSI
100
AcDbPolyline
 62
7
  6
CONTINUOUS
 90
3
 70
0
 10
12.7656885181
 20
-17.7078858246
 10
12.7892587441
 20
-17.8219312855
 10
12.8285424542
 20
-17.9281200044
  0
LWPOLYLINE
  5
367
100
AcDbEntity
  8
SMUSSO
100
AcDbPolyline
 62
7
  6
CONTINUOUS
 90
8
 70
0
 10
12.5461888774
 20
-7.1218249907
 10
12.5347966084
 20
-7.0060900515
 10
12.5168828627
 20
-6.8949055608
 10
12.4925223751
 20
-6.7887351785
 10
12.4618167537
 20
-6.6880251277
 10
12.4248955996
 20
-6.5932031676
 10
12.381915045
 20
-6.5046712679
 10
12.374434893
 20
-6.4921374418
  0
LWPOLYLINE
  5
368
100
AcDbEntity
  8
SMUSSO
100
AcDbPolyline
 62
7
  6
CONTINUOUS
 90
3
 70
0
 10
12.5511010763
 20
-7.2898521901
 10
12.5510111391
 20
-7.2416264467
 10
12.5461888774
 20
-7.1218249907
  0
LINE
  5
369
100
AcDbEntity
  8
RACCORDO
100
AcDbLine
 62
7
  6
CONTINUOUS
 10
11.9682847938
 20
22.8488865992
 11
11.9573681178
 21
35.1797841458
  0
LINE
  5
36A
100
AcDbEntity
  8
0
100
AcDbLine
 62
7
  6
CONTINUOUS
 10
12.4749890636
 20
-23.1331502733
 11
12.4749890636
 21
-24.135992966
  0
LINE
  5
36B
100
AcDbEntity
  8
0
100
AcDbLine
 62
250
  6
CONTINUOUS
 10
12.8285424542
 20
-19.393522424
 11
12.8285424542
 21
-17.9281200044
  0
LINE
  5
36C
100
AcDbEntity
  8
0
100
AcDbLine
 62
250
  6
CONTINUOUS
 10
12.8285424542
 20
-17.1731365609
 11
12.8285424542
 21
-16.5991243308
  0
LINE
  5
36D
100
AcDbEntity
  8
DRAFT
100
AcDbLine
 62
7
  6
CONTINUOUS
 10
12.7798641994
 20
-24.2274711569
 11
12.856814806
 21
-16.5859628702
  0
LINE
  5
36E
100
AcDbEntity
  8
DRAFT
100
AcDbLine
 62
7
  6
CONTINUOUS
 10
13.8143961321
 20
23.0258513507
 11
13.9076163639
 21
32.2766004321
  0
LINE
  5
36F
100
AcDbEntity
  8
RACCORDO
100
AcDbLine
 62
7
  6
CONTINUOUS
 10
14.234697863
 20
-15.9394428245
 11
14.1349291987
 21
-25.3512147512
  0
LWPOLYLINE
  5
370
100
AcDbEntity
  8
0
100
AcDbPolyline
 62
7
  6
CONTINUOUS
 90
10
 70
0
 10
12.4749890636
 20
-23.1331502733
 10
12.4746275659
 20
-23.1632377516
 10
12.4735512639
 20
-23.1928912355
 10
12.4717601579
 20
-23.2221107252
 10
12.4692515241
 20
-23.2509201953
 10
12.4660280861
 20
-23.2792956711
 10
12.4620980146
 20
-23.3071652286
 10
12.4574640328
 20
-23.3345048932
 10
12.4521234175
 20
-23.3613386394
 10
12.4460761684
 20
-23.3876664674
  0
LINE
  5
371
100
AcDbEntity
  8
RACCORDO
100
AcDbLine
 62
7
  6
CONTINUOUS
 10
11.5827135465
 20
-17.1790876853
 11
11.4000269144
 21
-26.7186658934
  0
LWPOLYLINE
  5
372
100
AcDbEntity
  8
RACCORDO
100
AcDbPolyline
 62
7
  6
CONTINUOUS
 90
12
 70
0
 10
11.4000269144
 20
-26.7186658934
 10
11.3961694083
 20
-26.7908128426
 10
11.387112425
 20
-26.8592586494
 10
11.3728559645
 20
-26.9240033136
 10
11.3531462883
 20
-26.9857490691
 10
11.328237135
 20
-27.0437936822
 10
11.29888972
 20
-27.0960304514
 10
11.2651008202
 20
-27.1419610092
 10
11.2268736587
 20
-27.1820837232
 10
11.1849791205
 20
-27.2157869952
 10
11.1394106065
 20
-27.243036287
 10
11.1087305928
 20
-27.2569550314
  0
LWPOLYLINE
  5
373
100
AcDbEntity
  8
SMUSSO
100
AcDbPolyline
 62
7
  6
CONTINUOUS
 90
3
 70
0
 10
12.5234912586
 20
-7.3293967673
 10
12.5417620312
 20
-7.1715721539
 10
12.5454965328
 20
-7.1147914084
  0
LINE
  5
374
100
AcDbEntity
  8
RACCORDO
100
AcDbLine
 62
7
  6
CONTINUOUS
 10
11.4484032895
 20
-8.9887636917
 11
11.4365867678
 21
-9.0446499255
  0
LWPOLYLINE
  5
375
100
AcDbEntity
  8
RACCORDO
100
AcDbPolyline
 62
250
  6
CONTINUOUS
 90
16
 70
0
 10
11.1629923615
 20
-11.0912173701
 10
11.178542728
 20
-11.0418019085
 10
11.1900500367
 20
-10.9909084372
 10
11.1973881686
 20
-10.939094505
 10
11.2004766782
 20
-10.8869277968
 10
11.199281683
 20
-10.8349797943
 10
11.1938162018
 20
-10.7838195183
 10
11.1841400208
 20
-10.7340074583
 10
11.1703590754
 20
-10.6860894317
 10
11.1526242757
 20
-10.6405904852
 10
11.1311298378
 20
-10.5980091403
 10
11.1061112084
 20
-10.5588120379
 10
11.0778425164
 20
-10.5234287987
 10
11.0466334848
 20
-10.4922471791
 10
11.0128260104
 20
-10.4656088508
 10
10.9767904896
 20
-10.4438057426
  0
LWPOLYLINE
  5
376
100
AcDbEntity
  8
SMUSSO
100
AcDbPolyline
 62
7
  6
CONTINUOUS
 90
10
 70
0
 10
9.9704427018
 20
-10.1512334994
 10
9.9613305596
 20
-10.1769771492
 10
9.9509811666
 20
-10.2034881542
 10
9.9395076247
 20
-10.2305900409
 10
9.9270177538
 20
-10.2580838985
 10
9.9135931375
 20
-10.2858130515
 10
9.8992943084
 20
-10.3136751431
 10
9.8841877527
 20
-10.3415323988
 10
9.8683409928
 20
-10.3692019897
 10
9.8518053778
 20
-10.3965276687
  0
LWPOLYLINE
  5
377
100
AcDbEntity
  8
RACCORDO
100
AcDbPolyline
 62
250
  6
CONTINUOUS
 90
4
 70
0
 10
22.1338361463
 20
9.8151583646
 10
22.385087733
 20
10.2558664884
 10
22.5979060252
 20
10.7008462553
 10
22.7719937504
 20
11.1495365534
  0
LWPOLYLINE
  5
378
100
AcDbEntity
  8
RACCORDO
100
AcDbPolyline
 62
250
  6
CONTINUOUS
 90
14
 70
0
 10
11.1808056659
 20
-7.053178884
 10
11.1530435103
 20
-7.097533349
 10
11.1217126279
 20
-7.1393829058
 10
11.0871562202
 20
-7.1782690357
 10
11.0497528625
 20
-7.2137656507
 10
11.0099122747
 20
-7.2454838462
 10
10.9680708168
 20
-7.2730761337
 10
10.9246868312
 20
-7.2962401483
 10
10.8802356426
 20
-7.3147219903
 10
10.8352042563
 20
-7.3283190742
 10
10.7900860104
 20
-7.336882335
 10
10.7453752822
 20
-7.3403178388
 10
10.7015620712
 20
-7.3385878559
 10
10.6591264755
 20
-7.3317112881
  0
LWPOLYLINE
  5
379
100
AcDbEntity
  8
RACCORDO
100
AcDbPolyline
 62
250
  6
CONTINUOUS
 90
35
 70
0
 10
8.0087349464
 20
-8.6602818396
 10
8.1189791321
 20
-8.4864508461
 10
8.2349875137
 20
-8.3188220116
 10
8.3565667036
 20
-8.1572698043
 10
8.481444467
 20
-8.0041887402
 10
8.6098788033
 20
-7.8597526926
 10
8.7416117131
 20
-7.7237877884
 10
8.8735969629
 20
-7.5981669246
 10
9.0058395907
 20
-7.4833778003
 10
9.1383345586
 20
-7.3789327164
 10
9.2680205196
 20
-7.2852414734
 10
9.3943853134
 20
-7.2029201224
 10
9.5179411003
 20
-7.1313526123
 10
9.6371630136
 20
-7.0691005906
 10
9.751636504
 20
-7.0163542513
 10
9.8617761209
 20
-6.9729234003
 10
9.9673006456
 20
-6.9367991023
 10
10.0680629777
 20
-6.9079154416
 10
10.1642102176
 20
-6.8863383339
 10
10.2559024477
 20
-6.8702565904
 10
10.3430611424
 20
-6.8595668119
 10
10.4257648272
 20
-6.8543723975
 10
10.5044091622
 20
-6.8531723558
 10
10.5789537087
 20
-6.8558558699
 10
10.6494389053
 20
-6.8625337566
 10
10.7163817276
 20
-6.8720374752
 10
10.7797709191
 20
-6.8842614546
 10
10.8396177363
 20
-6.8993112658
 10
10.8964729243
 20
-6.916335081
 10
10.950337682
 20
-6.9352359764
 10
11.0012108106
 20
-6.9561108756
 10
11.0496394584
 20
-6.9783987218
 10
11.0958060083
 20
-7.0019124957
 10
11.1395280775
 20
-7.0268392164
 10
11.1808056659
 20
-7.053178884
  0
LWPOLYLINE
  5
37A
100
AcDbEntity
  8
SMUSSO
100
AcDbPolyline
 62
7
  6
CONTINUOUS
 90
10
 70
0
 10
9.8518066311
 20
-10.3965279609
 10
9.7497813751
 20
-10.5544469252
 10
9.642136686
 20
-10.7067578489
 10
9.5293621258
 20
-10.8527678995
 10
9.4119708866
 20
-10.9918125916
 10
9.2904966202
 20
-11.1232597442
 10
9.1654908853
 20
-11.2465122445
 10
9.0375216753
 20
-11.3610096773
 10
8.9071714122
 20
-11.4662305797
 10
8.8237003999
 20
-11.5278198665
  0
LINE
  5
37B
100
AcDbEntity
  8
RACCORDO
100
AcDbLine
 62
250
  6
CONTINUOUS
 10
21.8428907597
 20
9.3772504247
 11
22.1338361463
 21
9.8151583646
  0
LWPOLYLINE
  5
37C
100
AcDbEntity
  8
SMUSSO
100
AcDbPolyline
 62
7
  6
CONTINUOUS
 90
7
 70
0
 10
9.3202122043
 20
-10.989889954
 10
9.2452816488
 20
-11.0987364626
 10
9.1648415997
 20
-11.201594532
 10
9.0788920571
 20
-11.2984641623
 10
8.9873331484
 20
-11.3892535452
 10
8.8902647463
 20
-11.474054489
 10
8.7939842988
 20
-11.5485045225
  0
LWPOLYLINE
  5
37D
100
AcDbEntity
  8
SMUSSO
100
AcDbPolyline
 62
7
  6
CONTINUOUS
 90
7
 70
0
 10
9.3202458535
 20
-10.9898731294
 10
9.3930984574
 20
-10.8997775174
 10
9.4643713623
 20
-10.807270689
 10
9.5340645681
 20
-10.7123526442
 10
9.6021780748
 20
-10.6150233831
 10
9.6687118824
 20
-10.5152829057
 10
9.7336659909
 20
-10.4131312119
  0
LWPOLYLINE
  5
37E
100
AcDbEntity
  8
SMUSSO
100
AcDbPolyline
 62
7
  6
CONTINUOUS
 90
10
 70
0
 10
9.9704427018
 20
-10.1512334994
 10
9.9462670822
 20
-10.1798876712
 10
9.9215700282
 20
-10.2086400106
 10
9.8963444434
 20
-10.2374956021
 10
9.8705726975
 20
-10.2664591073
 10
9.8442548658
 20
-10.2955372712
 10
9.8174105746
 20
-10.3247375951
 10
9.7900404909
 20
-10.3540657073
 10
9.7621244533
 20
-10.383526766
 10
9.7336510197
 20
-10.4131269957
  0
LWPOLYLINE
  5
37F
100
AcDbEntity
  8
RACCORDO
100
AcDbPolyline
 62
250
  6
CONTINUOUS
 90
54
 70
0
 10
11.2211460305
 20
-7.0399079001
 10
11.277269799
 20
-6.9779081651
 10
11.3372788756
 20
-6.9155416456
 10
11.4011732603
 20
-6.8528083416
 10
11.4689339511
 20
-6.7892391356
 10
11.5405799499
 20
-6.7253031451
 10
11.6161682632
 20
-6.6624077226
 10
11.6957963619
 20
-6.600420559
 10
11.779366775
 20
-6.5394739635
 10
11.8666440957
 20
-6.4813722163
 10
11.9577684469
 20
-6.4259869198
 10
12.0525997057
 20
-6.3734464718
 10
12.1504820961
 20
-6.3259403454
 10
12.2516164732
 20
-6.2833696274
 10
12.355801982
 20
-6.245833231
 10
12.4617802815
 20
-6.21581737
 10
12.569925057
 20
-6.1933630761
 10
12.6798626232
 20
-6.1784293176
 10
12.7892135835
 20
-6.1733792119
 10
12.8983152055
 20
-6.1787088134
 10
13.0068302215
 20
-6.1939220678
 10
13.1113674328
 20
-6.2198939307
 10
13.2115520751
 20
-6.2572374355
 10
13.3077589125
 20
-6.3053395487
 10
13.3977210388
 20
-6.3632361256
 10
13.4809201427
 20
-6.430971033
 10
13.5578745354
 20
-6.5085004041
 10
13.6278722441
 20
-6.5947284943
 10
13.6908609023
 20
-6.6896606216
 10
13.7468928765
 20
-6.7932914682
 10
13.7954132936
 20
-6.9045093354
 10
13.8364011283
 20
-7.0234841753
 10
13.8698774059
 20
-7.150046036
 10
13.8953503298
 20
-7.2825733634
 10
13.9127056293
 20
-7.4211775308
 10
13.922057575
 20
-7.5657471649
 10
13.9232571825
 20
-7.7143265923
 10
13.9161777121
 20
-7.8669765201
 10
13.9009459035
 20
-8.0236362412
 10
13.8777929919
 20
-8.1821679616
 10
13.8466107141
 20
-8.3425650121
 10
13.8075073332
 20
-8.5048340619
 10
13.7610388742
 20
-8.6668573246
 10
13.7071945502
 20
-8.8284838094
 10
13.6459851479
 20
-8.9898645071
 10
13.5779990524
 20
-9.1493346037
 10
13.5031595378
 20
-9.3069782488
 10
13.42154333
 20
-9.4627112928
 10
13.3339689905
 20
-9.6146164726
 10
13.23986711
 20
-9.7631820162
 10
13.1398070978
 20
-9.9079196957
 10
13.0363157436
 20
-10.0454475641
 10
12.9290878618
 20
-10.1754220158
 10
12.8184286379
 20
-10.2981866565
  0
LWPOLYLINE
  5
380
100
AcDbEntity
  8
SMUSSO
100
AcDbPolyline
 62
7
  6
CONTINUOUS
 90
11
 70
0
 10
8.8237003999
 20
-11.5278198665
 10
8.7750334002
 20
-11.5616957826
 10
8.6417086604
 20
-11.6469708886
 10
8.5078035916
 20
-11.7216678638
 10
8.373927687
 20
-11.7854465828
 10
8.2406900504
 20
-11.838016809
 10
8.1086965801
 20
-11.8791394205
 10
7.9785476344
 20
-11.9086272916
 10
7.8508352318
 20
-11.9263461977
 10
7.7261403197
 20
-11.9322154451
 10
7.7158450666
 20
-11.9317047885
  0
LWPOLYLINE
  5
381
100
AcDbEntity
  8
SMUSSO
100
AcDbPolyline
 62
7
  6
CONTINUOUS
 90
3
 70
0
 10
11.030452357
 20
-9.9466224533
 10
11.1318690667
 20
-9.8865525097
 10
11.2324460942
 20
-9.8190248422
  0
LWPOLYLINE
  5
382
100
AcDbEntity
  8
0
100
AcDbPolyline
 62
7
  6
CONTINUOUS
 90
10
 70
0
 10
9.0537740558
 20
-8.9347074918
 10
9.1583387201
 20
-8.8779997441
 10
9.26162908
 20
-8.8135434298
 10
9.3636451355
 20
-8.7413385488
 10
9.4648952443
 20
-8.6609308141
 10
9.5648710487
 20
-8.5727745128
 10
9.6620474754
 20
-8.478232506
 10
9.7559161668
 20
-8.377759081
 10
9.8469854806
 20
-8.2708999506
 10
9.9352554168
 20
-8.1576551149
  0
LWPOLYLINE
  5
383
100
AcDbEntity
  8
DRAFT
100
AcDbPolyline
 62
7
  6
CONTINUOUS
 90
25
 70
0
 10
25.6606662681
 20
-1.9281072909
 10
25.8055332312
 20
-1.8497144169
 10
25.9486858238
 20
-1.7609392367
 10
26.0901240459
 20
-1.6617817503
 10
26.2304498022
 20
-1.5517193189
 10
26.3690611881
 20
-1.4312745813
 10
26.5041524898
 20
-1.3020154541
 10
26.6356813016
 20
-1.1638224475
 10
26.7636900292
 20
-1.0168150514
 10
26.8865001764
 20
-0.862919652
 10
27.0040411191
 20
-0.7020481146
 10
27.1163834814
 20
-0.5342885739
 10
27.2220606385
 20
-0.3618318208
 10
27.3209853896
 20
-0.1846164018
 10
27.4132449355
 20
-0.0027037703
 10
27.4976342542
 20
0.1815309219
 10
27.5740509344
 20
0.3681214841
 10
27.6425973872
 20
0.557034107
 10
27.7023758241
 20
0.7457922114
 10
27.7532695945
 20
0.9343883999
 10
27.7953953488
 20
1.1228300699
 10
27.8282052501
 20
1.3086628331
 10
27.851516686
 20
1.4910685604
 10
27.8655122689
 20
1.6708653809
 10
27.8701919987
 20
1.8480532948
  0
LINE
  5
384
100
AcDbEntity
  8
SMUSSO
100
AcDbLine
 62
7
  6
CONTINUOUS
 10
16.8228654599
 20
-6.7494578543
 11
16.9431567941
 21
-6.6849895075
  0
LINE
  5
385
100
AcDbEntity
  8
0
100
AcDbLine
 62
7
  6
CONTINUOUS
 10
9.9352554168
 20
-8.1576551149
 11
7.8292069158
 21
-9.2106793654
  0
LINE
  5
386
100
AcDbEntity
  8
0
100
AcDbLine
 62
7
  6
CONTINUOUS
 10
7.6562521703
 20
-9.6334684346
 11
9.0537740558
 21
-8.9347074918
  0
LINE
  5
387
100
AcDbEntity
  8
RACCORDO
100
AcDbLine
 62
7
  6
CONTINUOUS
 10
32.6029733226
 20
1.7128587825
 11
30.6476333401
 21
0.7351887912
  0
LINE
  5
388
100
AcDbEntity
  8
RACCORDO
100
AcDbLine
 62
7
  6
CONTINUOUS
 10
6.8888454922
 20
-11.1442051327
 11
4.9335055098
 21
-12.1218751239
  0
LINE
  5
389
100
AcDbEntity
  8
DRAFT
100
AcDbLine
 62
7
  6
CONTINUOUS
 10
23.7640394675
 20
-2.8764206912
 11
25.6606662681
 21
-1.9281072909
  0
LINE
  5
38A
100
AcDbEntity
  8
SMUSSO
100
AcDbLine
 62
7
  6
CONTINUOUS
 10
26.0155040083
 20
-2.1367647331
 11
25.2617371935
 21
-2.5136481405
  0
LINE
  5
38B
100
AcDbEntity
  8
SMUSSO
100
AcDbLine
 62
7
  6
CONTINUOUS
 10
25.2297302314
 20
-2.5296516216
 11
23.8316976499
 21
-3.2286679123
  0
LINE
  5
38C
100
AcDbEntity
  8
SMUSSO
100
AcDbLine
 62
7
  6
CONTINUOUS
 10
11.6698345932
 20
-9.3095994407
 11
9.9955308716
 21
-10.1467513015
  0
LINE
  5
38D
100
AcDbEntity
  8
SMUSSO
100
AcDbLine
 62
7
  6
CONTINUOUS
 10
9.9586778308
 20
-10.1651778219
 11
7.6307276975
 21
-11.3291528885
  0
LWPOLYLINE
  5
38E
100
AcDbEntity
  8
RACCORDO
100
AcDbPolyline
 62
7
  6
CONTINUOUS
 90
25
 70
0
 10
4.9418749288
 20
-12.1176904144
 10
4.8905650972
 20
-12.1420942197
 10
4.8456600325
 20
-12.1609060789
 10
4.7987903155
 20
-12.1783107015
 10
4.7497815201
 20
-12.1943581463
 10
4.6988080725
 20
-12.2089983546
 10
4.6463932512
 20
-12.2220811497
 10
4.5925222622
 20
-12.2335904691
 10
4.5372098995
 20
-12.2435423753
 10
4.4810238231
 20
-12.2518348791
 10
4.4239550634
 20
-12.2584508853
 10
4.3660125901
 20
-12.2634074891
 10
4.3077909723
 20
-12.2666539873
 10
4.2492874433
 20
-12.2681727765
 10
4.1905047698
 20
-12.2679814601
 10
4.1320458218
 20
-12.2660821446
 10
4.0739139534
 20
-12.2624572684
 10
4.0161058103
 20
-12.257124393
 10
3.9592141995
 20
-12.2501383096
 10
3.9032485867
 20
-12.241482031
 10
3.8481995061
 20
-12.2311725442
 10
3.7946313675
 20
-12.2193156022
 10
3.7427323076
 20
-12.2059464556
 10
3.6923141897
 20
-12.1910298538
 10
3.6433770138
 20
-12.1745657965
  0
LWPOLYLINE
  5
38F
100
AcDbEntity
  8
SMUSSO
100
AcDbPolyline
 62
7
  6
CONTINUOUS
 90
3
 70
0
 10
7.6307276975
 20
-11.3291528885
 10
7.4990601296
 20
-11.3898126496
 10
7.4764384011
 20
-11.3984336291
  0
LWPOLYLINE
  5
390
100
AcDbEntity
  8
RACCORDO
100
AcDbPolyline
 62
250
  6
CONTINUOUS
 90
4
 70
0
 10
27.1484491252
 20
-0.974936858
 10
27.0916997955
 20
-0.9990356161
 10
27.0346024375
 20
-1.0294091797
 10
26.9772174153
 20
-1.0658880835
  0
LWPOLYLINE
  5
391
100
AcDbEntity
  8
RACCORDO
100
AcDbPolyline
 62
7
  6
CONTINUOUS
 90
19
 70
0
 10
8.3964326448
 20
-10.7138274269
 10
8.4336033858
 20
-10.6981520531
 10
8.4700504593
 20
-10.6792597179
 10
8.5057738651
 20
-10.6571504211
 10
8.5411663642
 20
-10.6314853478
 10
8.5758351958
 20
-10.602603313
 10
8.6086020768
 20
-10.5715207619
 10
8.6392326062
 20
-10.5383427837
 10
8.6679611851
 20
-10.5029642892
 10
8.6943127339
 20
-10.4660864562
 10
8.7183056269
 20
-10.4276246774
 10
8.7399214898
 20
-10.3876635602
 10
8.7586301209
 20
-10.3471581042
 10
8.7743603278
 20
-10.3059869127
 10
8.7871833029
 20
-10.2642713824
 10
8.796782422
 20
-10.2233307039
 10
8.8030521438
 20
-10.1836046071
 10
8.8060980096
 20
-10.144653362
 10
8.8059200193
 20
-10.1064769686
  0
LWPOLYLINE
  5
392
100
AcDbEntity
  8
SMUSSO
100
AcDbPolyline
 62
7
  6
CONTINUOUS
 90
3
 70
0
 10
16.6344477259
 20
-6.8319720441
 10
16.7028558947
 20
-6.8051582074
 10
16.8228654599
 20
-6.7494578543
  0
LINE
  5
393
100
AcDbEntity
  8
RACCORDO
100
AcDbLine
 62
7
  6
CONTINUOUS
 10
8.3964326448
 20
-10.7138274269
 11
7.4298737783
 21
-11.0742176945
  0
LINE
  5
394
100
AcDbEntity
  8
RACCORDO
100
AcDbLine
 62
7
  6
CONTINUOUS
 10
9.344634255
 20
-8.7547940618
 11
10.7749822865
 21
-8.2495218358
  0
LWPOLYLINE
  5
395
100
AcDbEntity
  8
RACCORDO
100
AcDbPolyline
 62
7
  6
CONTINUOUS
 90
4
 70
0
 10
4.7581514685
 20
-12.1901732643
 10
4.807160085
 20
-12.1741258633
 10
4.8540296576
 20
-12.1567212827
 10
4.8989346055
 20
-12.1379094664
  0
LWPOLYLINE
  5
396
100
AcDbEntity
  8
RACCORDO
100
AcDbPolyline
 62
7
  6
CONTINUOUS
 90
11
 70
0
 10
10.7749822865
 20
-8.2495218358
 10
10.8348339407
 20
-8.2305780177
 10
10.8938721806
 20
-8.2162354917
 10
10.9520970064
 20
-8.206494258
 10
11.0099275968
 20
-8.2013623081
 10
11.0669447729
 20
-8.2008316504
 10
11.1218909985
 20
-8.2048783103
 10
11.1744854295
 20
-8.2135493555
 10
11.22500891
 20
-8.2267977183
 10
11.273046436
 20
-8.2444582211
 10
11.2869121985
 20
-8.2506009681
  0
LWPOLYLINE
  5
397
100
AcDbEntity
  8
RACCORDO
100
AcDbPolyline
 62
250
  6
CONTINUOUS
 90
16
 70
0
 10
-21.9651108642
 20
9.4396541867
 10
-21.8405894678
 20
9.4696203014
 10
-21.7178265837
 20
9.5105377571
 10
-21.5980684593
 20
9.5619911749
 10
-21.4825308388
 20
9.6234582184
 10
-21.3723866213
 20
9.6943148966
 10
-21.2687539539
 20
9.7738418978
 10
-21.1726848806
 20
9.8612318926
 10
-21.0851546625
 20
9.9555977287
 10
-21.007051877
 20
10.0559814377
 10
-20.9391693977
 20
10.1613639598
 10
-20.882196345
 20
10.270675489
 10
-20.8367110904
 20
10.3828063332
 10
-20.8031753853
 20
10.4966181797
 10
-20.7819296736
 20
10.6109556509
 10
-20.7731896351
 20
10.7246580329
  0
LWPOLYLINE
  5
398
100
AcDbEntity
  8
RACCORDO
100
AcDbPolyline
 62
250
  6
CONTINUOUS
 90
3
 70
0
 10
-14.5455368153
 20
22.7534502827
 10
-14.2527298038
 20
22.6152335989
 10
-13.946422094
 20
22.4765974014
  0
LWPOLYLINE
  5
399
100
AcDbEntity
  8
RACCORDO
100
AcDbPolyline
 62
7
  6
CONTINUOUS
 90
23
 70
0
 10
28.8787998471
 20
1.940253585
 10
28.8317456597
 20
1.9626809389
 10
28.7476606207
 20
1.9927137571
 10
28.6578105996
 20
2.0127298729
 10
28.5611209166
 20
2.0226285671
 10
28.4571126288
 20
2.0218347188
 10
28.3469647883
 20
2.0097900891
 10
28.2327185652
 20
1.9865031771
 10
28.1160116644
 20
1.9524138382
 10
27.9973535064
 20
1.9078460505
 10
27.8771284284
 20
1.8530357683
 10
27.7562739261
 20
1.7884873785
 10
27.6355743835
 20
1.7147406
 10
27.5148187934
 20
1.6317090526
 10
27.3947826066
 20
1.5398982148
 10
27.2760504352
 20
1.4397554344
 10
27.1579698525
 20
1.3305920462
 10
27.0413544118
 20
1.2129031263
 10
26.9266801758
 20
1.0869249474
 10
26.8129102623
 20
0.9510197005
 10
26.7003192806
 20
0.8046691102
 10
26.59034866
 20
0.648867502
 10
26.4838929063
 20
0.4840617804
  0
LWPOLYLINE
  5
39A
100
AcDbEntity
  8
RACCORDO
100
AcDbPolyline
 62
250
  6
CONTINUOUS
 90
14
 70
0
 10
-15.1783529019
 20
22.288281332
 10
-14.8918125543
 20
22.147661059
 10
-14.5920899566
 20
22.0060378499
 10
-14.2788653273
 20
21.8636913768
 10
-13.9527402812
 20
21.7213049629
 10
-13.6125340351
 20
21.5787757708
 10
-13.2551258342
 20
21.4353100954
 10
-12.880052538
 20
21.2913170997
 10
-12.4869580898
 20
21.1472636452
 10
-12.0726267049
 20
21.0026556742
 10
-11.6365598012
 20
20.8580893058
 10
-11.1782980665
 20
20.7141968321
 10
-10.6944545627
 20
20.5707910788
 10
-10.1844999049
 20
20.4286879589
  0
LINE
  5
39B
100
AcDbEntity
  8
RACCORDO
100
AcDbLine
 62
250
  6
CONTINUOUS
 10
-14.8248431283
 20
22.8912474528
 11
-14.5455368153
 21
22.7534502827
  0
LINE
  5
39C
100
AcDbEntity
  8
DRAFT
100
AcDbLine
 62
7
  6
CONTINUOUS
 10
30.6476333401
 20
0.7351887912
 11
30.4625339459
 21
0.8277384883
  0
LWPOLYLINE
  5
39D
100
AcDbEntity
  8
ASSI
100
AcDbPolyline
 62
7
  6
CONTINUOUS
 90
21
 70
0
 10
1.0716484332
 20
20.658808296
 10
1.0228165716
 20
20.7207993607
 10
0.9624517492
 20
20.7794304048
 10
0.8901996473
 20
20.8345982009
 10
0.8064145846
 20
20.8864059763
 10
0.7136445335
 20
20.9332782141
 10
0.611613455
 20
20.9750632836
 10
0.5005973881
 20
21.0119128155
 10
0.3839724224
 20
21.0427061853
 10
0.2615662401
 20
21.067257334
 10
0.133551159
 20
21.0857523208
 10
0.0038202229
 20
21.0976286977
 10
-0.1276792832
 20
21.1026831263
 10
-0.2608946444
 20
21.101118945
 10
-0.3917746723
 20
21.092983722
 10
-0.5202481389
 20
21.0780753897
 10
-0.6463862721
 20
21.0565960157
 10
-0.7663515673
 20
21.0291993705
 10
-0.8788648564
 20
20.9961033776
 10
-0.9852053075
 20
20.9570901134
 10
-1.0853729207
 20
20.9121595781
  0
LWPOLYLINE
  5
39E
100
AcDbEntity
  8
RACCORDO
100
AcDbPolyline
 62
250
  6
CONTINUOUS
 90
22
 70
0
 10
13.9076163688
 20
32.2766009168
 10
13.9078115948
 20
32.2684756962
 10
13.9126404205
 20
32.2408710663
 10
13.9238458516
 20
32.2137336651
 10
13.9412755575
 20
32.1874312572
 10
13.9646939147
 20
32.1623186198
 10
13.9937867175
 20
32.1387333811
 10
14.0281640292
 20
32.116993557
 10
14.0673602612
 20
32.0973952052
 10
14.1108412946
 20
32.0802056607
 10
14.1580173137
 20
32.0656575367
 10
14.2082508488
 20
32.0539469035
 10
14.2608604152
 20
32.0452321152
 10
14.3151308687
 20
32.0396306759
 10
14.3703312204
 20
32.0372170816
 10
14.425723091
 20
32.0380236551
 10
14.4805633855
 20
32.0420408369
 10
14.5341040758
 20
32.0492151427
 10
14.5856113193
 20
32.059448148
 10
14.6343863298
 20
32.0725996492
 10
14.6797737529
 20
32.0884914652
 10
14.7211611712
 20
32.106907951
  0
LWPOLYLINE
  5
39F
100
AcDbEntity
  8
RACCORDO
100
AcDbPolyline
 62
7
  6
CONTINUOUS
 90
16
 70
0
 10
16.580180997
 20
-6.2676007319
 10
16.5811364007
 20
-6.3944081845
 10
16.5876249618
 20
-6.5166985449
 10
16.5994986346
 20
-6.6340051444
 10
16.6165293381
 20
-6.7456703785
 10
16.6385169296
 20
-6.8515708532
 10
16.6653822216
 20
-6.9519459324
 10
16.6967856837
 20
-7.0460201644
 10
16.7325632854
 20
-7.1337874035
 10
16.773110543
 20
-7.216192623
 10
16.8182922866
 20
-7.2926321859
 10
16.8679223954
 20
-7.3625567899
 10
16.9226487592
 20
-7.4264254572
 10
16.9827977476
 20
-7.4838623317
 10
17.0482307918
 20
-7.5340254736
 10
17.1192048793
 20
-7.5765033115
  0
LINE
  5
3A0
100
AcDbEntity
  8
RACCORDO
100
AcDbLine
 62
250
  6
CONTINUOUS
 10
14.7211611712
 20
32.106907951
 11
14.782127817
 21
23.5202520552
  0
LINE
  5
3A1
100
AcDbEntity
  8
RACCORDO
100
AcDbLine
 62
7
  6
CONTINUOUS
 10
16.2905986036
 20
24.4603290274
 11
16.3030693607
 21
32.8978620457
  0
LWPOLYLINE
  5
3A2
100
AcDbEntity
  8
RACCORDO
100
AcDbPolyline
 62
250
  6
CONTINUOUS
 90
61
 70
0
 10
16.4337320431
 20
-6.4447312115
 10
16.4354830108
 20
-6.3559661208
 10
16.4405721763
 20
-6.261256212
 10
16.4489995398
 20
-6.1606014852
 10
16.4603499231
 20
-6.054000254
 10
16.4750385043
 20
-5.9414542048
 10
16.4943108178
 20
-5.8229683964
 10
16.5181450885
 20
-5.698403618
 10
16.5465630916
 20
-5.5678990804
 10
16.5808756872
 20
-5.4318774752
 10
16.6211020968
 20
-5.2901362609
 10
16.667223099
 20
-5.1428779788
 10
16.7204918899
 20
-4.9911329449
 10
16.7809969791
 20
-4.8346273228
 10
16.848649857
 20
-4.6736349488
 10
16.9244381917
 20
-4.5100076484
 10
17.0086973077
 20
-4.3432369147
 10
17.1010918805
 20
-4.1738312547
 10
17.2016036049
 20
-4.0051680139
 10
17.3109930228
 20
-3.8366692622
 10
17.4284995923
 20
-3.6689129297
 10
17.551823382
 20
-3.5070101524
 10
17.6812120825
 20
-3.3514668606
 10
17.8164180032
 20
-3.201777124
 10
17.9543981408
 20
-3.0615342867
 10
18.0946900619
 20
-2.9315848516
 10
18.2377561999
 20
-2.8110823158
 10
18.3819408518
 20
-2.7010805156
 10
18.5271261562
 20
-2.6017118011
 10
18.6734299745
 20
-2.5128438221
 10
18.8195501878
 20
-2.4351333638
 10
18.9654936462
 20
-2.3685786285
 10
19.1112534997
 20
-2.3131814139
 10
19.2555070796
 20
-2.2696038982
 10
19.3983914204
 20
-2.2378746909
 10
19.5397694877
 20
-2.2179651826
 10
19.6779075089
 20
-2.2104517234
 10
19.8132426936
 20
-2.2157732339
 10
19.9453378321
 20
-2.2334907936
 10
20.0711475232
 20
-2.2628639905
 10
20.1903407906
 20
-2.3046517346
 10
20.3032486105
 20
-2.3580951159
 10
20.4078185101
 20
-2.4201769926
 10
20.5032838288
 20
-2.4910112911
 10
20.5904112273
 20
-2.570484085
 10
20.6694482138
 20
-2.6552364526
 10
20.7401143908
 20
-2.7450851313
 10
20.8026901558
 20
-2.8402133838
 10
20.8582642098
 20
-2.937812077
 10
20.9067668198
 20
-3.0376989433
 10
20.9482677187
 20
-3.1400562503
 10
20.9840648064
 20
-3.2426216671
 10
21.0141468299
 20
-3.3452088275
 10
21.0385250422
 20
-3.4480040977
 10
21.0585311024
 20
-3.5493042453
 10
21.0741932963
 20
-3.648949758
 10
21.0854833381
 20
-3.7471001481
 10
21.0936480291
 20
-3.8425307203
 10
21.0991029699
 20
-3.9348332427
 10
21.1014325598
 20
-4.0244159471
 10
21.100636799
 20
-4.1112788336
  0
LINE
  5
3A3
100
AcDbEntity
  8
0
100
AcDbLine
 62
7
  6
CONTINUOUS
 10
12.4460761684
 20
-23.3876664674
 11
11.9065829906
 21
-25.5838407371
  0
LWPOLYLINE
  5
3A4
100
AcDbEntity
  8
ASSI
100
AcDbPolyline
 62
7
  6
CONTINUOUS
 90
5
 70
0
 10
12.8285424542
 20
-17.1731365609
 10
12.7892587441
 20
-17.3186089899
 10
12.7656885181
 20
-17.4562246768
 10
12.7578317761
 20
-17.5859836217
 10
12.7656885181
 20
-17.7078858246
  0
LWPOLYLINE
  5
3A5
100
AcDbEntity
  8
RACCORDO
100
AcDbPolyline
 62
250
  6
CONTINUOUS
 90
60
 70
0
 10
11.1224524988
 20
-11.1183864997
 10
11.079386479
 20
-11.1873723036
 10
11.0338141953
 20
-11.257423703
 10
10.9857356478
 20
-11.328540698
 10
10.9353324541
 20
-11.4007368316
 10
10.8824229965
 20
-11.4739985608
 10
10.8264624224
 20
-11.5482852568
 10
10.7674481823
 20
-11.6236969737
 10
10.7053828258
 20
-11.7001336575
 10
10.6397291484
 20
-11.7772545174
 10
10.5704703183
 20
-11.8551821239
 10
10.4976231674
 20
-11.9337939065
 10
10.4207009875
 20
-12.0123813635
 10
10.3396559149
 20
-12.091102038
 10
10.2545358132
 20
-12.169798387
 10
10.1649975645
 20
-12.2472892788
 10
10.0709578242
 20
-12.3237605943
 10
9.9724999369
 20
-12.3990264528
 10
9.8695308184
 20
-12.4713480803
 10
9.7618681211
 20
-12.5409541424
 10
9.6496941926
 20
-12.6076159736
 10
9.5334629917
 20
-12.6689088033
 10
9.4127287172
 20
-12.7250370318
 10
9.2879371703
 20
-12.7757962588
 10
9.1608797133
 20
-12.8181485136
 10
9.0311059759
 20
-12.8519278023
 10
8.8990663285
 20
-12.8773001188
 10
8.7679032441
 20
-12.8917254738
 10
8.6376774508
 20
-12.8946958049
 10
8.5083282206
 20
-12.8867191744
 10
8.3828158424
 20
-12.8667797803
 10
8.2614048101
 20
-12.8344556311
 10
8.1438306299
 20
-12.7901687184
 10
8.0322601097
 20
-12.7341692141
 10
7.9268972328
 20
-12.66615501
 10
7.827538016
 20
-12.5864282145
 10
7.7357373176
 20
-12.4961453241
 10
7.6517298264
 20
-12.395215897
 10
7.5752808536
 20
-12.283730375
 10
7.5072411912
 20
-12.1631165808
 10
7.4477173367
 20
-12.0333316083
 10
7.3966027925
 20
-11.8944183635
 10
7.3544288574
 20
-11.7479333866
 10
7.3212701414
 20
-11.5937618077
 10
7.2970520345
 20
-11.4320184968
 10
7.2820820054
 20
-11.264604604
 10
7.2764783125
 20
-11.0913923213
 10
7.2801226974
 20
-10.9125094567
 10
7.2929678526
 20
-10.7302405847
 10
7.3151265798
 20
-10.5446059842
 10
7.3464860775
 20
-10.3555853762
 10
7.3866606338
 20
-10.1654024986
 10
7.4357217413
 20
-9.9740927617
 10
7.4935979076
 20
-9.7816207552
 10
7.5596889428
 20
-9.5901039848
 10
7.6341121131
 20
-9.3994648594
 10
7.7167501524
 20
-9.2097809702
 10
7.8066510728
 20
-9.0234025963
 10
7.904061569
 20
-8.8401894603
 10
8.0087349464
 20
-8.6602818396
  0
LWPOLYLINE
  5
3A6
100
AcDbEntity
  8
RACCORDO
100
AcDbPolyline
 62
7
  6
CONTINUOUS
 90
23
 70
0
 10
10.5308519972
 20
-10.7426661686
 10
10.4302277824
 20
-10.89821664
 10
10.3250975783
 20
-11.0469882501
 10
10.2154613849
 20
-11.1889809989
 10
10.1007840048
 20
-11.3247765875
 10
9.9816006355
 20
-11.4537933148
 10
9.8595168691
 20
-11.5742860776
 10
9.7344903595
 20
-11.6861419459
 10
9.6065634528
 20
-11.7894738497
 10
9.4774687803
 20
-11.8828754749
 10
9.3471944623
 20
-11.9662102776
 10
9.2157523785
 20
-12.0396148018
 10
9.0849107985
 20
-12.1020923655
 10
8.9546702484
 20
-12.1534977834
 10
8.8250302022
 20
-12.1939762408
 10
8.6977573512
 20
-12.2229666119
 10
8.5728855145
 20
-12.2403097914
 10
8.450380873
 20
-12.2461648846
 10
8.3319086605
 20
-12.2404480808
 10
8.2175247024
 20
-12.2230006843
 10
8.1071731734
 20
-12.1939813908
 10
8.0023518314
 20
-12.153782477
 10
7.9499489834
 20
-12.1283298759
  0
LWPOLYLINE
  5
3A7
100
AcDbEntity
  8
RACCORDO
100
AcDbPolyline
 62
250
  6
CONTINUOUS
 90
20
 70
0
 10
12.8184286379
 20
-10.2981866565
 10
12.7077804183
 20
-10.411390356
 10
12.5975753505
 20
-10.5141640996
 10
12.4873812869
 20
-10.6073769019
 10
12.3793441316
 20
-10.6912846765
 10
12.2738061552
 20
-10.7655390603
 10
12.1704250871
 20
-10.8304884164
 10
12.0703200194
 20
-10.8874337464
 10
11.9736745821
 20
-10.9362910434
 10
11.8803051452
 20
-10.9771443143
 10
11.7907799108
 20
-11.0115465824
 10
11.7052358752
 20
-11.0394901562
 10
11.6235360421
 20
-11.0609827271
 10
11.5458376246
 20
-11.0776003928
 10
11.4722300238
 20
-11.0893821562
 10
11.4026238386
 20
-11.0962890144
 10
11.3369080787
 20
-11.099780056
 10
11.2750457476
 20
-11.1003416439
 10
11.2170738418
 20
-11.0974874153
 10
11.1629923615
 20
-11.0912173701
  0
LWPOLYLINE
  5
3A8
100
AcDbEntity
  8
RACCORDO
100
AcDbPolyline
 62
250
  6
CONTINUOUS
 90
20
 70
0
 10
24.7159402042
 20
-0.2578233885
 10
24.8265884238
 20
-0.1446196891
 10
24.9367934917
 20
-0.0418459455
 10
25.0469875553
 20
0.0513668569
 10
25.1550247106
 20
0.1352746314
 10
25.2605626869
 20
0.2095290153
 10
25.363943755
 20
0.2744783713
 10
25.4640488227
 20
0.3314237014
 10
25.56069426
 20
0.3802809983
 10
25.6540636969
 20
0.4211342692
 10
25.7435889313
 20
0.4555365373
 10
25.8291329669
 20
0.4834801111
 10
25.9108328
 20
0.5049726821
 10
25.9885312175
 20
0.5215903478
 10
26.0621388183
 20
0.5333721112
 10
26.1317450036
 20
0.5402789693
 10
26.1974607634
 20
0.5437700109
 10
26.2593230946
 20
0.5443315988
 10
26.3172950003
 20
0.5414773702
 10
26.3713764806
 20
0.535207325
  0
LWPOLYLINE
  5
3A9
100
AcDbEntity
  8
SMUSSO
100
AcDbPolyline
 62
7
  6
CONTINUOUS
 90
18
 70
0
 10
11.1817315299
 20
-9.8346505048
 10
11.2995987873
 20
-9.7258897973
 10
11.4151496314
 20
-9.6090371456
 10
11.5269696451
 20
-9.4855312682
 10
11.6350220122
 20
-9.3552838282
 10
11.7393435489
 20
-9.2183831625
 10
11.8386302859
 20
-9.0765330005
 10
11.9328239379
 20
-8.9296620303
 10
12.0219827903
 20
-8.7778415638
 10
12.1049777301
 20
-8.6229892653
 10
12.1817267751
 20
-8.4650724431
 10
12.2523119075
 20
-8.3041237891
 10
12.3158499605
 20
-8.1421590424
 10
12.3722525173
 20
-7.9791646327
 10
12.4216079948
 20
-7.8151541304
 10
12.4632984766
 20
-7.6521839862
 10
12.4972273655
 20
-7.4902701977
 10
12.5234912586
 20
-7.3293967673
  0
LWPOLYLINE
  5
3AA
100
AcDbEntity
  8
SMUSSO
100
AcDbPolyline
 62
7
  6
CONTINUOUS
 90
19
 70
0
 10
17.1739559771
 20
-6.5131862379
 10
17.3137148274
 20
-6.3854812586
 10
17.4510078472
 20
-6.2481670728
 10
17.5858618261
 20
-6.1015325211
 10
17.7161226726
 20
-5.9476382056
 10
17.8416459323
 20
-5.7863395702
 10
17.9625760596
 20
-5.6177811709
 10
18.0771923256
 20
-5.444457278
 10
18.1852436155
 20
-5.2665230348
 10
18.2869810441
 20
-5.083823298
 10
18.3814372268
 20
-4.8983869075
 10
18.4685225843
 20
-4.7102985089
 10
18.5483266959
 20
-4.5194734566
 10
18.6201509147
 20
-4.3276866538
 10
18.683982921
 20
-4.1348288555
 10
18.7398350345
 20
-3.9410093067
 10
18.787045568
 20
-3.7483306464
 10
18.8255314592
 20
-3.5567203831
 10
18.8553757703
 20
-3.3662510082
  0
LINE
  5
3AB
100
AcDbEntity
  8
SMUSSO
100
AcDbLine
 62
7
  6
CONTINUOUS
 10
11.0901811414
 20
-9.9112446076
 11
11.1817315299
 21
-9.8346505048
  0
LINE
  5
3AC
100
AcDbEntity
  8
SMUSSO
100
AcDbLine
 62
7
  6
CONTINUOUS
 10
17.0337255704
 20
-6.6299328533
 11
17.1739559771
 21
-6.5131862379
  0
LINE
  5
3AD
100
AcDbEntity
  8
SMUSSO
100
AcDbLine
 62
7
  6
CONTINUOUS
 10
24.5213626921
 20
-3.1966388465
 11
24.5649676505
 21
-3.1617280672
  0
LWPOLYLINE
  5
3AE
100
AcDbEntity
  8
RACCORDO
100
AcDbPolyline
 62
7
  6
CONTINUOUS
 90
5
 70
0
 10
26.956223912
 20
-1.1161899521
 10
26.9056412585
 20
-1.1545730015
 10
26.8566842325
 20
-1.1971063323
 10
26.8097083533
 20
-1.243228889
 10
26.7650651369
 20
-1.2923267133
  0
LWPOLYLINE
  5
3AF
100
AcDbEntity
  8
SMUSSO
100
AcDbPolyline
 62
7
  6
CONTINUOUS
 90
24
 70
0
 10
17.1742995431
 20
-6.5367950369
 10
17.3067907248
 20
-6.4370793306
 10
17.4274153667
 20
-6.336519828
 10
17.5464425388
 20
-6.2276861232
 10
17.6633960497
 20
-6.1108651432
 10
17.777775066
 20
-5.986422393
 10
17.8886660753
 20
-5.8552780924
 10
17.9956042157
 20
-5.7179694704
 10
18.0981932926
 20
-5.5749802398
 10
18.1957258778
 20
-5.427319363
 10
18.2877427865
 20
-5.2757904407
 10
18.3740590932
 20
-5.1208197719
 10
18.4544462743
 20
-4.9629045799
 10
18.5285949407
 20
-4.8027359615
 10
18.5962918752
 20
-4.6408616885
 10
18.6574371472
 20
-4.4775510076
 10
18.7118168838
 20
-4.3133320942
 10
18.7591791588
 20
-4.1489163832
 10
18.7993520604
 20
-3.9848445185
 10
18.8321726
 20
-3.8216762689
 10
18.8574745094
 20
-3.6601079581
 10
18.8751275933
 20
-3.5008799361
 10
18.8850574646
 20
-3.3446122603
 10
18.8872996315
 20
-3.2513455797
  0
LWPOLYLINE
  5
3B0
100
AcDbEntity
  8
SMUSSO
100
AcDbPolyline
 62
7
  6
CONTINUOUS
 90
23
 70
0
 10
11.2324460942
 20
-9.8190248422
 10
11.3323211621
 20
-9.743936139
 10
11.4305465719
 20
-9.6619837469
 10
11.5268803737
 20
-9.5733979539
 10
11.6209245299
 20
-9.4785514376
 10
11.712309049
 20
-9.3778197203
 10
11.8006545161
 20
-9.2716188591
 10
11.8855811291
 20
-9.1604031758
 10
11.9667347374
 20
-9.0446343322
 10
12.0437762081
 20
-8.9247921523
 10
12.1163741223
 20
-8.8013880006
 10
12.1842126809
 20
-8.6749572662
 10
12.2470031923
 20
-8.546039407
 10
12.3044839878
 20
-8.4151732034
 10
12.3564132198
 20
-8.2829098446
 10
12.4025722039
 20
-8.1498065773
 10
12.4427659063
 20
-8.01642609
 10
12.4768244792
 20
-7.8833329464
 10
12.5046041121
 20
-7.7510913879
 10
12.5259887454
 20
-7.6202566763
 10
12.540889122
 20
-7.4913746957
 10
12.5492420368
 20
-7.3649853284
 10
12.5511010763
 20
-7.2898521901
  0
LWPOLYLINE
  5
3B1
100
AcDbEntity
  8
RACCORDO
100
AcDbPolyline
 62
250
  6
CONTINUOUS
 90
4
 70
0
 10
26.9772174153
 20
-1.0658880835
 10
26.9209249192
 20
-1.1076618668
 10
26.8661850127
 20
-1.1544603762
 10
26.8125376322
 20
-1.2065537652
  0
LWPOLYLINE
  5
3B2
100
AcDbEntity
  8
SMUSSO
100
AcDbPolyline
 62
7
  6
CONTINUOUS
 90
6
 70
0
 10
24.6674741808
 20
-3.1015100336
 10
24.7325616056
 20
-3.0535002975
 10
24.8312348919
 20
-2.9740577833
 10
24.928079993
 20
-2.8879535297
 10
25.0227137378
 20
-2.7955552335
 10
25.1147464858
 20
-2.6972693219
  0
LWPOLYLINE
  5
3B3
100
AcDbEntity
  8
SMUSSO
100
AcDbPolyline
 62
7
  6
CONTINUOUS
 90
13
 70
0
 10
27.2084767107
 20
-2.3354317111
 10
27.1035041781
 20
-2.4066583514
 10
26.9698793591
 20
-2.4874908951
 10
26.8359321606
 20
-2.5575985206
 10
26.7022717535
 20
-2.616662313
 10
26.5695076129
 20
-2.6644130905
 10
26.4382434993
 20
-2.7006340663
 10
26.3090761185
 20
-2.7251609554
 10
26.1825940185
 20
-2.7378825412
 10
26.0593723856
 20
-2.7387417348
 10
25.939970925
 20
-2.727735434
 10
25.8249325813
 20
-2.7049145626
 10
25.7220034523
 20
-2.672648189
  0
LINE
  5
3B4
100
AcDbEntity
  8
SMUSSO
100
AcDbLine
 62
7
  6
CONTINUOUS
 10
26.3444292302
 20
-1.9398524775
 11
26.2788524483
 21
-1.9843432427
  0
LWPOLYLINE
  5
3B5
100
AcDbEntity
  8
RACCORDO
100
AcDbPolyline
 62
7
  6
CONTINUOUS
 90
4
 70
0
 10
32.6726657025
 20
1.7525967439
 10
32.7074749004
 20
1.7760315658
 10
32.7395697484
 20
1.8005359246
 10
32.7688501287
 20
1.8260226077
  0
LWPOLYLINE
  5
3B6
100
AcDbEntity
  8
SMUSSO
100
AcDbPolyline
 62
7
  6
CONTINUOUS
 90
3
 70
0
 10
26.2788524483
 20
-1.9843432427
 10
26.1473855327
 20
-2.0656498983
 10
26.0155040083
 20
-2.1367647331
  0
LWPOLYLINE
  5
3B7
100
AcDbEntity
  8
SMUSSO
100
AcDbPolyline
 62
7
  6
CONTINUOUS
 90
3
 70
0
 10
16.9431567941
 20
-6.6849895075
 10
17.0641841215
 20
-6.6114171354
 10
17.1742995431
 20
-6.5367950369
  0
LINE
  5
3B8
100
AcDbEntity
  8
RACCORDO
100
AcDbLine
 62
7
  6
CONTINUOUS
 10
32.6350420369
 20
1.7301442463
 11
32.6726657025
 21
1.7525967439
  0
LWPOLYLINE
  5
3B9
100
AcDbEntity
  8
SMUSSO
100
AcDbPolyline
 62
7
  6
CONTINUOUS
 90
4
 70
0
 10
24.42997925
 20
-3.2482529014
 10
24.5314881671
 20
-3.1909199021
 10
24.6324882405
 20
-3.1259084724
 10
24.6674741808
 20
-3.1015100336
  0
LWPOLYLINE
  5
3BA
100
AcDbEntity
  8
RACCORDO
100
AcDbPolyline
 62
7
  6
CONTINUOUS
 90
26
 70
0
 10
27.8394282206
 20
-3.7800494487
 10
28.0084230551
 20
-3.6890960798
 10
28.1759704446
 20
-3.5860551226
 10
28.3415199888
 20
-3.471374398
 10
28.5046146537
 20
-3.34545636
 10
28.664643504
 20
-3.2088426993
 10
28.8208294458
 20
-3.0622920796
 10
28.9725960451
 20
-2.9064672492
 10
29.119501361
 20
-2.741932444
 10
29.260977037
 20
-2.5694266319
 10
29.3964944494
 20
-2.3897076526
 10
29.525660705
 20
-2.2034010383
 10
29.6481166524
 20
-2.0110957729
 10
29.7634509346
 20
-1.8134796156
 10
29.8712365595
 20
-1.6113147217
 10
29.971101679
 20
-1.4053170034
 10
30.0626761303
 20
-1.1962517381
 10
30.1456247666
 20
-0.9848688406
 10
30.2196551747
 20
-0.7718633179
 10
30.2844740529
 20
-0.5579831866
 10
30.3398013176
 20
-0.3440163619
 10
30.3853964335
 20
-0.1306969074
 10
30.421043238
 20
0.0812754395
 10
30.4465265668
 20
0.2910791395
 10
30.4616655932
 20
0.4978487166
 10
30.4663263032
 20
0.7010386427
  0
LWPOLYLINE
  5
3BB
100
AcDbEntity
  8
RACCORDO
100
AcDbPolyline
 62
250
  6
CONTINUOUS
 90
34
 70
0
 10
27.9173638675
 20
-3.6223054224
 10
27.9885629077
 20
-3.5860138567
 10
28.0625735021
 20
-3.5449055907
 10
28.1393956509
 20
-3.4989806243
 10
28.2190492016
 20
-3.4486283007
 10
28.3015143066
 20
-3.3934592768
 10
28.3867314231
 20
-3.3323055237
 10
28.4748029434
 20
-3.2651907091
 10
28.5656264753
 20
-3.1920911654
 10
28.6588352991
 20
-3.1117678612
 10
28.7545688427
 20
-3.0242044891
 10
28.8526876783
 20
-2.9294173565
 10
28.952406803
 20
-2.8262163547
 10
29.0539139144
 20
-2.7145115097
 10
29.1570213149
 20
-2.5943927956
 10
29.2603809088
 20
-2.4649400258
 10
29.3643664854
 20
-2.3256563148
 10
29.4686042553
 20
-2.1770385482
 10
29.5706247548
 20
-2.0196571965
 10
29.6707210643
 20
-1.8525695299
 10
29.7686001033
 20
-1.6767182781
 10
29.860913167
 20
-1.4955021016
 10
29.947280138
 20
-1.3087983952
 10
30.0280811336
 20
-1.116729764
 10
30.1011078005
 20
-0.9230626844
 10
30.1659484519
 20
-0.7281021181
 10
30.2230147747
 20
-0.5315431034
 10
30.2713334762
 20
-0.3362372313
 10
30.3107005157
 20
-0.1423539065
 10
30.3413199339
 20
0.0502762756
 10
30.3628305607
 20
0.239309938
 10
30.3751224733
 20
0.4245827001
 10
30.3783055946
 20
0.6062589425
 10
30.3723485224
 20
0.7824884288
  0
LINE
  5
3BC
100
AcDbEntity
  8
RACCORDO
100
AcDbLine
 62
250
  6
CONTINUOUS
 10
9.5325875566
 20
-12.8146935778
 11
27.9173638675
 21
-3.6223054224
  0
LINE
  5
3BD
100
AcDbEntity
  8
RACCORDO
100
AcDbLine
 62
7
  6
CONTINUOUS
 10
9.4546519096
 20
-12.9724376041
 11
27.8394282206
 21
-3.7800494487
  0
LINE
  5
3BE
100
AcDbEntity
  8
DRAFT
100
AcDbLine
 62
7
  6
CONTINUOUS
 10
27.9137257114
 20
-3.8757596973
 11
9.5289494006
 21
-13.0681478527
  0
LWPOLYLINE
  5
3BF
100
AcDbEntity
  8
RACCORDO
100
AcDbPolyline
 62
250
  6
CONTINUOUS
 90
7
 70
0
 10
32.053827554
 20
-5.9600981447
 10
32.1307147455
 20
-5.9310628089
 10
32.196810633
 20
-5.8973526757
 10
32.2512053109
 20
-5.8594318138
 10
32.2931499576
 20
-5.8178222589
 10
32.3220671444
 20
-5.7730968268
 10
32.3375283197
 20
-5.725964098
  0
LWPOLYLINE
  5
3C0
100
AcDbEntity
  8
RACCORDO
100
AcDbPolyline
 62
250
  6
CONTINUOUS
 90
3
 70
0
 10
22.0249303262
 20
16.3005731207
 10
21.9004089291
 20
16.2917866913
 10
21.7851950681
 20
16.2944920204
  0
LWPOLYLINE
  5
3C1
100
AcDbEntity
  8
RACCORDO
100
AcDbPolyline
 62
250
  6
CONTINUOUS
 90
26
 70
0
 10
-9.6479725908
 20
20.2887532165
 10
-9.081397968
 20
20.1511784332
 10
-8.4843021085
 20
20.0170556823
 10
-7.8563267819
 20
19.8875416136
 10
-7.1940554922
 20
19.7632859534
 10
-6.4968902016
 20
19.6456645482
 10
-5.7650635291
 20
19.5362455402
 10
-4.9964427668
 20
19.4363344607
 10
-4.1888845636
 20
19.3474579499
 10
-3.3451399547
 20
19.2717777416
 10
-2.4708000236
 20
19.2114839153
 10
-1.5658560704
 20
19.1681873241
 10
-0.6326656312
 20
19.1436511191
 10
0.3190844013
 20
19.139519063
 10
1.2876507969
 20
19.1569504869
 10
2.2708799557
 20
19.1970800639
 10
3.2582010092
 20
19.2603780432
 10
4.2473608069
 20
19.3473236204
 10
5.2359669762
 20
19.4583401931
 10
6.213445729
 20
19.5925778605
 10
7.1758120436
 20
19.7494522301
 10
8.1227635034
 20
19.9288763556
 10
9.0496861572
 20
20.1299060903
 10
9.9531872273
 20
20.3515653635
 10
10.832972065
 20
20.5935370702
 10
11.6891655504
 20
20.8557614774
  0
LINE
  5
3C2
100
AcDbEntity
  8
RACCORDO
100
AcDbLine
 62
250
  6
CONTINUOUS
 10
-10.1844999049
 20
20.4286879589
 11
-9.6479725908
 21
20.2887532165
  0
LWPOLYLINE
  5
3C3
100
AcDbEntity
  8
RACCORDO
100
AcDbPolyline
 62
250
  6
CONTINUOUS
 90
42
 70
0
 10
-13.946422094
 20
22.4765974014
 10
-13.6278565343
 20
22.3375564303
 10
-13.2957902762
 20
22.1980959454
 10
-12.9464947743
 20
22.0581717267
 10
-12.5800625563
 20
21.9175858987
 10
-12.1964010945
 20
21.7765363368
 10
-11.7915042604
 20
21.6355724477
 10
-11.3654551844
 20
21.4944627607
 10
-10.9181707362
 20
21.3534387465
 10
-10.4453953965
 20
21.213744224
 10
-9.947136084
 20
21.0750895703
 10
-9.42338588
 20
20.9377644082
 10
-8.8698685091
 20
20.8038814249
 10
-8.2864604389
 20
20.6730878204
 10
-7.6732852017
 20
20.5457363945
 10
-7.0264371197
 20
20.4249982338
 10
-6.3452575912
 20
20.3104414538
 10
-5.6304052178
 20
20.202497939
 10
-4.8799501274
 20
20.1056344288
 10
-4.0909424931
 20
20.0195025098
 10
-3.2663321418
 20
19.9444505955
 10
-2.4130386818
 20
19.8859906651
 10
-1.5292082866
 20
19.8445148597
 10
-0.6166947828
 20
19.8196310383
 10
0.3120207409
 20
19.8156747568
 10
1.2575937301
 20
19.8334209681
 10
2.2193687392
 20
19.8720947193
 10
3.1828983432
 20
19.9337067074
 10
4.1482564276
 20
20.0191517837
 10
5.115369107
 20
20.1275350969
 10
6.0695672993
 20
20.2581827899
 10
7.0087751503
 20
20.4114709257
 10
7.9350685143
 20
20.5870234412
 10
8.8400058723
 20
20.78303829
 10
9.7219430214
 20
20.9993279662
 10
10.5825241645
 20
21.2360799757
 10
11.4182403913
 20
21.4920547887
 10
12.2294918191
 20
21.767404955
 10
13.0158783306
 20
22.0619779249
 10
13.7726906635
 20
22.3740765195
 10
14.5001408416
 20
22.7040215416
 10
15.1980168412
 20
23.0514921885
  0
LINE
  5
3C4
100
AcDbEntity
  8
DRAFT
100
AcDbLine
 62
7
  6
CONTINUOUS
 10
-10.0726078167
 20
21.6925798915
 11
-10.6854194151
 21
21.9989856907
  0
LINE
  5
3C5
100
AcDbEntity
  8
DRAFT
100
AcDbLine
 62
7
  6
CONTINUOUS
 10
-9.9454729187
 20
21.7561473406
 11
-11.3481881901
 21
22.4575049763
  0
LINE
  5
3C6
100
AcDbEntity
  8
DRAFT
100
AcDbLine
 62
7
  6
CONTINUOUS
 10
-9.339255136
 20
22.0592562319
 11
-11.339427168
 21
23.0593422479
  0
LINE
  5
3C7
100
AcDbEntity
  8
ASSI
100
AcDbLine
 62
7
  6
CONTINUOUS
 10
-1.1959000201
 20
20.2826068881
 11
-1.3441090698
 21
20.35670998
  0
LWPOLYLINE
  5
3C8
100
AcDbEntity
  8
RACCORDO
100
AcDbPolyline
 62
250
  6
CONTINUOUS
 90
16
 70
0
 10
29.4972492801
 20
2.7116316882
 10
29.4756081616
 20
2.7232703302
 10
29.365434395
 20
2.7750682016
 10
29.2544099769
 20
2.8157988755
 10
29.1435417514
 20
2.8462426233
 10
29.0332645123
 20
2.8673503171
 10
28.923950601
 20
2.8799923462
 10
28.8161647057
 20
2.8849648493
 10
28.7103580085
 20
2.8830584142
 10
28.6066108014
 20
2.8750070316
 10
28.505288846
 20
2.8615037119
 10
28.4067065741
 20
2.8432213218
 10
28.3107721693
 20
2.8207151081
 10
28.2177319388
 20
2.7945629123
 10
28.1277712562
 20
2.7653132511
 10
28.0406402066
 20
2.7333316534
  0
LINE
  5
3C9
100
AcDbEntity
  8
RACCORDO
100
AcDbLine
 62
250
  6
CONTINUOUS
 10
27.7755100166
 20
2.636925524
 11
27.7970848611
 21
2.6252153665
  0
LINE
  5
3CA
100
AcDbEntity
  8
DRAFT
100
AcDbLine
 62
7
  6
CONTINUOUS
 10
29.037436849
 20
2.9643193509
 11
29.4972492457
 21
2.7116317071
  0
LWPOLYLINE
  5
3CB
100
AcDbEntity
  8
RACCORDO
100
AcDbPolyline
 62
7
  6
CONTINUOUS
 90
49
 70
0
 10
28.8787825942
 20
1.9402205675
 10
28.9242333251
 20
1.9148549178
 10
29.0179185379
 20
1.8521440135
 10
29.1048030711
 20
1.7791040159
 10
29.1847939007
 20
1.6955942751
 10
29.2579840507
 20
1.6017554412
 10
29.323382101
 20
1.4988599911
 10
29.3808818444
 20
1.3867848611
 10
29.430589488
 20
1.2656531149
 10
29.4718322329
 20
1.1371064206
 10
29.5044948997
 20
1.0010438728
 10
29.5286926678
 20
0.8575663769
 10
29.5440982768
 20
0.708618317
 10
29.5505921088
 20
0.5541255265
 10
29.5482937816
 20
0.3941621721
 10
29.5372348885
 20
0.2308951382
 10
29.5172965439
 20
0.0642801132
 10
29.4885976334
 20
-0.1056385912
 10
29.4515264076
 20
-0.2765611554
 10
29.4059690163
 20
-0.4485018909
 10
29.3520393096
 20
-0.621446486
 10
29.2904670879
 20
-0.7930521862
 10
29.2211481491
 20
-0.9633012075
 10
29.1441866954
 20
-1.1322113339
 10
29.0606251339
 20
-1.2974931615
 10
28.9703731179
 20
-1.459097754
 10
28.8735209941
 20
-1.6170740479
 10
28.7713822094
 20
-1.7692794491
 10
28.6638844102
 20
-1.9156352013
 10
28.5510999501
 20
-2.0562200608
 10
28.4345593369
 20
-2.1891277031
 10
28.3142106478
 20
-2.314253361
 10
28.1901058055
 20
-2.4317018016
 10
28.0639310855
 20
-2.5398810025
 10
27.9356568945
 20
-2.6386637648
 10
27.8053128257
 20
-2.7281772874
 10
27.6746739349
 20
-2.8072111438
 10
27.5437417707
 20
-2.8756190375
 10
27.4125147844
 20
-2.933547265
 10
27.2827633854
 20
-2.9802242903
 10
27.1545072508
 20
-3.0154984972
 10
27.0277267035
 20
-3.0395215017
 10
26.9041331221
 20
-3.0519766158
 10
26.7837702502
 20
-3.0527074272
 10
26.666594344
 20
-3.0418703483
 10
26.5541855515
 20
-3.0196179278
 10
26.4470705884
 20
-2.9860010153
 10
26.3447227388
 20
-2.9409687613
 10
26.3318642784
 20
-2.9343268942
  0
LWPOLYLINE
  5
3CC
100
AcDbEntity
  8
RACCORDO
100
AcDbPolyline
 62
250
  6
CONTINUOUS
 90
8
 70
0
 10
26.4119163433
 20
0.5623764547
 10
26.4348681807
 20
0.5433779387
 10
26.4536955288
 20
0.5266068851
 10
26.4681921127
 20
0.5122470403
 10
26.4781991064
 20
0.5004557331
 10
26.483606873
 20
0.4913621503
 10
26.4843561656
 20
0.4850659222
 10
26.4838929063
 20
0.4840617804
  0
LWPOLYLINE
  5
3CD
100
AcDbEntity
  8
0
100
AcDbPolyline
 62
250
  6
CONTINUOUS
 90
19
 70
0
 10
-12.8357172286
 20
32.4083567479
 10
-12.684982148
 20
32.2646815205
 10
-12.5420141294
 20
32.1104472387
 10
-12.4068131727
 20
31.9456539028
 10
-12.2784479219
 20
31.7688250492
 10
-12.157849733
 20
31.5814371415
 10
-12.047812674
 20
31.3879195693
 10
-11.9485812135
 20
31.1881424944
 10
-11.8599108829
 20
30.9822357552
 10
-11.7838623442
 20
30.7750182566
 10
-11.7207221154
 20
30.5664325654
 10
-11.6702036786
 20
30.356536115
 10
-11.6335081418
 20
30.1503201103
 10
-11.6109400157
 20
29.9479628021
 10
-11.6021947897
 20
29.7492859396
 10
-11.6075600402
 20
29.5587459759
 10
-11.6271316262
 20
29.3778283951
 10
-11.6608136887
 20
29.2050477131
 10
-11.7086062278
 20
29.0404039298
  0
LWPOLYLINE
  5
3CE
100
AcDbEntity
  8
SMUSSO
100
AcDbPolyline
 62
7
  6
CONTINUOUS
 90
5
 70
0
 10
18.8872211077
 20
-3.1918979717
 10
18.8816096649
 20
-3.0434099298
 10
18.8682510926
 20
-2.8997067791
 10
18.8472034994
 20
-2.761340822
 10
18.8208187893
 20
-2.6392966812
  0
LINE
  5
3CF
100
AcDbEntity
  8
SMUSSO
100
AcDbLine
 62
7
  6
CONTINUOUS
 10
18.8872996315
 20
-3.2513455797
 11
18.8872211077
 21
-3.1918979717
  0
LWPOLYLINE
  5
3D0
100
AcDbEntity
  8
RACCORDO
100
AcDbPolyline
 62
250
  6
CONTINUOUS
 90
61
 70
0
 10
21.100636799
 20
-4.1112788336
 10
21.0988858314
 20
-4.2000439243
 10
21.0937966658
 20
-4.294753833
 10
21.0853693023
 20
-4.3954085598
 10
21.0740189191
 20
-4.502009791
 10
21.0593303379
 20
-4.6145558403
 10
21.0400580243
 20
-4.7330416487
 10
21.0162237536
 20
-4.8576064271
 10
20.9878057506
 20
-4.9881109646
 10
20.9534931549
 20
-5.1241325698
 10
20.9132667453
 20
-5.2658737842
 10
20.8671457432
 20
-5.4131320662
 10
20.8138769522
 20
-5.5648771001
 10
20.7533718631
 20
-5.7213827223
 10
20.6857189851
 20
-5.8823750963
 10
20.6099306504
 20
-6.0460023967
 10
20.5256715344
 20
-6.2127731303
 10
20.4332769616
 20
-6.3821787904
 10
20.3327652372
 20
-6.5508420312
 10
20.2233758193
 20
-6.7193407829
 10
20.1058692498
 20
-6.8870971153
 10
19.9825454601
 20
-7.0489998927
 10
19.8531567596
 20
-7.2045431844
 10
19.7179508389
 20
-7.3542329211
 10
19.5799707013
 20
-7.4944757584
 10
19.4396787802
 20
-7.6244251935
 10
19.2966126422
 20
-7.7449277292
 10
19.1524279903
 20
-7.8549295295
 10
19.0072426859
 20
-7.954298244
 10
18.8609388677
 20
-8.043166223
 10
18.7148186543
 20
-8.1208766813
 10
18.5688751959
 20
-8.1874314166
 10
18.4231153424
 20
-8.2428286312
 10
18.2788617626
 20
-8.2864061468
 10
18.1359774217
 20
-8.3181353541
 10
17.9945993544
 20
-8.3380448625
 10
17.8564613332
 20
-8.3455583217
 10
17.7211261485
 20
-8.3402368111
 10
17.58903101
 20
-8.3225192514
 10
17.4632213189
 20
-8.2931460546
 10
17.3440280515
 20
-8.2513583104
 10
17.2311202316
 20
-8.1979149291
 10
17.1265503321
 20
-8.1358330524
 10
17.0310850133
 20
-8.0649987539
 10
16.9439576148
 20
-7.9855259601
 10
16.8649206284
 20
-7.9007735924
 10
16.7942544514
 20
-7.8109249137
 10
16.7316786863
 20
-7.7157966612
 10
16.6761046323
 20
-7.6181979681
 10
16.6276020224
 20
-7.5183111017
 10
16.5861011234
 20
-7.4159537947
 10
16.5503040357
 20
-7.3133883779
 10
16.5202220122
 20
-7.2108012175
 10
16.4958437999
 20
-7.1080059473
 10
16.4758377398
 20
-7.0067057997
 10
16.4601755458
 20
-6.907060287
 10
16.448885504
 20
-6.8089098969
 10
16.440720813
 20
-6.7134793248
 10
16.4352658723
 20
-6.6211768024
 10
16.4329362823
 20
-6.5315940979
 10
16.4337320431
 20
-6.4447312115
  0
LINE
  5
3D1
100
AcDbEntity
  8
DRAFT
100
AcDbLine
 62
7
  6
CONTINUOUS
 10
18.2627647325
 20
-13.9714612075
 11
18.1461401366
 21
-19.757445632
  0
LINE
  5
3D2
100
AcDbEntity
  8
RACCORDO
100
AcDbLine
 62
250
  6
CONTINUOUS
 10
18.1461401366
 20
-19.757445632
 11
18.1430348586
 21
-19.8570994004
  0
LWPOLYLINE
  5
3D3
100
AcDbEntity
  8
RACCORDO
100
AcDbPolyline
 62
7
  6
CONTINUOUS
 90
36
 70
0
 10
20.3935838657
 20
-4.1037486438
 10
20.3869289063
 20
-4.264371694
 10
20.3720190994
 20
-4.4271429675
 10
20.348854445
 20
-4.5920624643
 10
20.3172690509
 20
-4.7598471528
 10
20.2774288094
 20
-4.9297800645
 10
20.2298313966
 20
-5.0997102942
 10
20.1743747184
 20
-5.2696475373
 10
20.1111608689
 20
-5.4395820984
 10
20.0409938071
 20
-5.6073339855
 10
19.9637846954
 20
-5.7728720196
 10
19.8796223713
 20
-5.9362273798
 10
19.7895773074
 20
-6.0953136118
 10
19.6935724443
 20
-6.2500777726
 10
19.5916848412
 20
-6.4005728053
 10
19.4852161477
 20
-6.5448710844
 10
19.3741065629
 20
-6.6828927914
 10
19.2584158877
 20
-6.8147177448
 10
19.1396251744
 20
-6.9386577752
 10
19.0176960853
 20
-7.0546095386
 10
18.8926669581
 20
-7.1626763789
 10
18.766133858
 20
-7.2614801583
 10
18.6380780839
 20
-7.3509019515
 10
18.508518337
 20
-7.4310606837
 10
18.3791067857
 20
-7.5009349928
 10
18.2498456518
 20
-7.5603934962
 10
18.1207327136
 20
-7.6095675764
 10
17.993413475
 20
-7.6478300192
 10
17.8679100344
 20
-7.6750415881
 10
17.7442002934
 20
-7.6913415196
 10
17.6238634603
 20
-7.6965203078
 10
17.5069412151
 20
-7.6904343733
 10
17.3933918778
 20
-7.6732272957
 10
17.2846696166
 20
-7.6451203072
 10
17.1808377805
 20
-7.605972249
 10
17.1192498386
 20
-7.5764170667
  0
LWPOLYLINE
  5
3D4
100
AcDbEntity
  8
RACCORDO
100
AcDbPolyline
 62
7
  6
CONTINUOUS
 90
16
 70
0
 10
18.1461401366
 20
-19.757445632
 10
18.1198678358
 20
-20.1880916685
 10
18.0578979342
 20
-20.6205369108
 10
17.959615083
 20
-21.0535692343
 10
17.8245599802
 20
-21.4858406017
 10
17.6522915548
 20
-21.9163291252
 10
17.4422025871
 20
-22.3444289698
 10
17.1933081712
 20
-22.7699873143
 10
16.9056042006
 20
-23.1911337478
 10
16.5803493432
 20
-23.6049819622
 10
16.2175586879
 20
-24.0109125562
 10
15.8174923154
 20
-24.4080493835
 10
15.3829225168
 20
-24.7934815269
 10
14.9155998068
 20
-25.1659545188
 10
14.415550935
 20
-25.5256854874
 10
13.9083792537
 20
-25.8567552577
  0
LINE
  5
3D5
100
AcDbEntity
  8
SMUSSO
100
AcDbLine
 62
7
  6
CONTINUOUS
 10
18.8761660012
 20
-3.1792426359
 11
18.8827875016
 21
-3.074577433
  0
LWPOLYLINE
  5
3D6
100
AcDbEntity
  8
RACCORDO
100
AcDbPolyline
 62
250
  6
CONTINUOUS
 90
17
 70
0
 10
18.1430348586
 20
-19.8570994004
 10
18.1117642284
 20
-20.2313280555
 10
18.0495262987
 20
-20.604846455
 10
17.9563805747
 20
-20.9769557436
 10
17.8324142054
 20
-21.3470765567
 10
17.6776853669
 20
-21.7147626478
 10
17.4924540917
 20
-22.0791772692
 10
17.2773043819
 20
-22.4391742262
 10
17.0325439923
 20
-22.7943172486
 10
16.7587564794
 20
-23.1438287101
 10
16.4573947181
 20
-23.4861324681
 10
16.1292448496
 20
-23.8207484296
 10
15.7751949335
 20
-24.1471474802
 10
15.3974159284
 20
-24.4638350837
 10
14.9975276965
 20
-24.7701142167
 10
14.5763050505
 20
-25.0660062074
 10
14.1349291987
 20
-25.3512147512
  0
LWPOLYLINE
  5
3D7
100
AcDbEntity
  8
RACCORDO
100
AcDbPolyline
 62
250
  6
CONTINUOUS
 90
24
 70
0
 10
18.1803209848
 20
-3.031383875
 10
18.1637313198
 20
-3.1886044711
 10
18.1403473383
 20
-3.3561668068
 10
18.1109514915
 20
-3.5268590188
 10
18.0758173337
 20
-3.6986989534
 10
18.0348944968
 20
-3.8715933683
 10
17.9882333488
 20
-4.0456355058
 10
17.9362585482
 20
-4.2191229395
 10
17.8789205316
 20
-4.3920578972
 10
17.8162688625
 20
-4.5644381509
 10
17.7488768893
 20
-4.7345545906
 10
17.6766887125
 20
-4.902411033
 10
17.5997602317
 20
-5.0680036614
 10
17.5188324944
 20
-5.2296119143
 10
17.4338517952
 20
-5.3872145228
 10
17.3448718396
 20
-5.5408327558
 10
17.2527947919
 20
-5.6888098595
 10
17.1575843951
 20
-5.8310863056
 10
17.0592769062
 20
-5.9677216223
 10
16.958883261
 20
-6.0972376409
 10
16.8563662447
 20
-6.219568472
 10
16.751763072
 20
-6.3347800049
 10
16.6461963235
 20
-6.4415917399
 10
16.5865605368
 20
-6.4966372534
  0
LINE
  5
3D8
100
AcDbEntity
  8
SMUSSO
100
AcDbLine
 62
7
  6
CONTINUOUS
 10
18.8553757703
 20
-3.3662510082
 11
18.8761660012
 21
-3.1792426359
  0
LWPOLYLINE
  5
3D9
100
AcDbEntity
  8
RACCORDO
100
AcDbPolyline
 62
250
  6
CONTINUOUS
 90
20
 70
0
 10
17.838122395
 20
-3.3491808533
 10
17.8158542962
 20
-3.4811407529
 10
17.783775232
 20
-3.6411311457
 10
17.7464959909
 20
-3.8021658099
 10
17.7041280594
 20
-3.963803287
 10
17.6567307924
 20
-4.1255257121
 10
17.6044928506
 20
-4.2868176674
 10
17.5476029963
 20
-4.4471524187
 10
17.4861414468
 20
-4.6059944566
 10
17.4203465073
 20
-4.7628487091
 10
17.3504668841
 20
-4.9171846753
 10
17.2766229555
 20
-5.0684197221
 10
17.1991088882
 20
-5.2160772929
 10
17.1182274957
 20
-5.3596573836
 10
17.034141157
 20
-5.4985611463
 10
16.9472016225
 20
-5.6323386069
 10
16.8577533053
 20
-5.7605535231
 10
16.7659732033
 20
-5.8826583307
 10
16.6722398674
 20
-5.9982718687
 10
16.5880135853
 20
-6.0943780877
  0
LWPOLYLINE
  5
3DA
100
AcDbEntity
  8
RACCORDO
100
AcDbPolyline
 62
250
  6
CONTINUOUS
 90
12
 70
0
 10
22.7719937504
 20
11.1495365534
 10
22.907144964
 20
11.6013102911
 10
23.0036745421
 20
12.0576803953
 10
23.0609528818
 20
12.5183637326
 10
23.0783467724
 20
12.9823559485
 10
23.0553042492
 20
13.4501342101
 10
22.9910366066
 20
13.9210868947
 10
22.8848713884
 20
14.3942929963
 10
22.7359087328
 20
14.8697362114
 10
22.5432427328
 20
15.3467951343
 10
22.3063970732
 20
15.8241268003
 10
22.0249302517
 20
16.3005662075
  0
LWPOLYLINE
  5
3DB
100
AcDbEntity
  8
C_COMPONENTE
100
AcDbPolyline
 62
7
  6
CONTINUOUS
 90
31
 70
0
 10
9.1131516492
 20
-32.4292247373
 10
9.1055836717
 20
-32.4502460717
 10
9.0656461191
 20
-32.5377349972
 10
9.0127441287
 20
-32.6234870174
 10
8.9471735501
 20
-32.7070225723
 10
8.8693010804
 20
-32.787874497
 10
8.7795622141
 20
-32.8655906349
 10
8.6784588074
 20
-32.9397363658
 10
8.5665562715
 20
-33.0098970366
 10
8.4444804108
 20
-33.0756802805
 10
8.312913923
 20
-33.1367182108
 10
8.1725925814
 20
-33.1926694788
 10
8.0243011196
 20
-33.2432211821
 10
7.8688688438
 20
-33.2880906153
 10
7.7071649943
 20
-33.3270268501
 10
7.5400938847
 20
-33.3598121394
 10
7.3685898442
 20
-33.3862631346
 10
7.1936119932
 20
-33.406231911
 10
7.0161388786
 20
-33.4196067949
 10
6.8371630022
 20
-33.4263129888
 10
6.6576852697
 20
-33.4263129888
 10
6.4787093933
 20
-33.4196067949
 10
6.3012362788
 20
-33.406231911
 10
6.1262584277
 20
-33.3862631346
 10
5.9547543873
 20
-33.3598121394
 10
5.7876832776
 20
-33.3270268501
 10
5.6259794281
 20
-33.2880906153
 10
5.4705471523
 20
-33.2432211821
 10
5.3222556906
 20
-33.1926694788
 10
5.1819343489
 20
-33.1367182108
 10
5.0503678611
 20
-33.0756802805
  0
LINE
  5
3DC
100
AcDbEntity
  8
0
100
AcDbLine
 62
7
  6
CONTINUOUS
 10
12.851329533
 20
-17.1306727951
 11
12.8285424542
 21
-17.1731365609
  0
LWPOLYLINE
  5
3DD
100
AcDbEntity
  8
RACCORDO
100
AcDbPolyline
 62
7
  6
CONTINUOUS
 90
8
 70
0
 10
26.7650651367
 20
-1.2923267136
 10
26.7321770184
 20
-1.3321334114
 10
26.7004135981
 20
-1.3738579265
 10
26.6699238315
 20
-1.4173271835
 10
26.6408449786
 20
-1.462366315
 10
26.6133183161
 20
-1.5087742996
 10
26.5874845397
 20
-1.5563239917
 10
26.5634624058
 20
-1.6047983599
  0
LINE
  5
3DE
100
AcDbEntity
  8
RACCORDO
100
AcDbLine
 62
250
  6
CONTINUOUS
 10
26.7599827778
 20
-1.2639420336
 11
26.7244494605
 21
-1.3069294883
  0
LINE
  5
3DF
100
AcDbEntity
  8
RACCORDO
100
AcDbLine
 62
250
  6
CONTINUOUS
 10
26.8125376322
 20
-1.2065537652
 11
26.7599827778
 21
-1.2639420336
  0
LWPOLYLINE
  5
3E0
100
AcDbEntity
  8
RACCORDO
100
AcDbPolyline
 62
7
  6
CONTINUOUS
 90
18
 70
0
 10
25.8033979917
 20
-3.0305019896
 10
25.7030236642
 20
-3.1370212568
 10
25.6007672498
 20
-3.2353906683
 10
25.4966287485
 20
-3.325610224
 10
25.390056946
 20
-3.4080605542
 10
25.2816030566
 20
-3.4823610286
 10
25.1729207237
 20
-3.5473697566
 10
25.0640002046
 20
-3.6029463575
 10
24.954851242
 20
-3.649231212
 10
24.8471567072
 20
-3.6855035727
 10
24.7409431083
 20
-3.7116067649
 10
24.6361839372
 20
-3.7276974632
 10
24.5344825401
 20
-3.7335249443
 10
24.4358838361
 20
-3.728931257
 10
24.3403429061
 20
-3.7140743525
 10
24.2493283393
 20
-3.6891773602
 10
24.1629096536
 20
-3.6540839908
 10
24.1372725265
 20
-3.6412867791
  0
LINE
  5
3E1
100
AcDbEntity
  8
SMUSSO
100
AcDbLine
 62
7
  6
CONTINUOUS
 10
26.655172774
 20
-1.6177145336
 11
26.5467399855
 21
-1.7281163698
  0
LWPOLYLINE
  5
3E2
100
AcDbEntity
  8
SMUSSO
100
AcDbPolyline
 62
7
  6
CONTINUOUS
 90
10
 70
0
 10
25.2462769131
 20
-2.5133145506
 10
25.2122776097
 20
-2.5468831563
 10
25.1775262772
 20
-2.5806619324
 10
25.1420198443
 20
-2.6146558585
 10
25.105748085
 20
-2.6488678905
 10
25.0687133148
 20
-2.6833044523
 10
25.0309312408
 20
-2.7179750298
 10
24.9924042772
 20
-2.7528851154
 10
24.9531206637
 20
-2.7880366632
 10
24.913074774
 20
-2.8234332739
  0
LINE
  5
3E3
100
AcDbEntity
  8
SMUSSO
100
AcDbLine
 62
7
  6
CONTINUOUS
 10
26.5467399855
 20
-1.7281163698
 11
26.4374132997
 21
-1.8322451269
  0
LWPOLYLINE
  5
3E4
100
AcDbEntity
  8
SMUSSO
100
AcDbPolyline
 62
7
  6
CONTINUOUS
 90
16
 70
0
 10
26.6550818599
 20
-1.6179785308
 10
26.6849810113
 20
-1.5895238964
 10
26.7143168631
 20
-1.5607041363
 10
26.7430456257
 20
-1.53161742
 10
26.7712182017
 20
-1.5022689689
 10
26.7986912774
 20
-1.472854294
 10
26.8250979513
 20
-1.4437281835
 10
26.8501316874
 20
-1.4151824859
 10
26.8739264458
 20
-1.3870252373
 10
26.8967814368
 20
-1.3589001432
 10
26.9188449427
 20
-1.3306504248
 10
26.9398705018
 20
-1.302659774
 10
26.9595701016
 20
-1.2753807378
 10
26.9777867253
 20
-1.2489663637
 10
26.9945156038
 20
-1.2233299006
 10
27.009680022
 20
-1.1985017578
  0
LINE
  5
3E5
100
AcDbEntity
  8
SMUSSO
100
AcDbLine
 62
7
  6
CONTINUOUS
 10
26.7893926647
 20
-1.5647515633
 11
26.6651572875
 21
-1.6829418044
  0
LINE
  5
3E6
100
AcDbEntity
  8
SMUSSO
100
AcDbLine
 62
7
  6
CONTINUOUS
 10
26.4374132997
 20
-1.8322451269
 11
26.3271927164
 21
-1.9301008049
  0
LWPOLYLINE
  5
3E7
100
AcDbEntity
  8
SMUSSO
100
AcDbPolyline
 62
7
  6
CONTINUOUS
 90
4
 70
0
 10
24.5649676505
 20
-3.1617280672
 10
24.683185788
 20
-3.0571359151
 10
24.7992189657
 20
-2.9443696472
 10
24.9130671836
 20
-2.8234292633
  0
LWPOLYLINE
  5
3E8
100
AcDbEntity
  8
SMUSSO
100
AcDbPolyline
 62
7
  6
CONTINUOUS
 90
4
 70
0
 10
26.6651572875
 20
-1.6829418044
 10
26.5382939365
 20
-1.7925802725
 10
26.4093419704
 20
-1.8931912554
 10
26.3444292302
 20
-1.9398524775
  0
LWPOLYLINE
  5
3E9
100
AcDbEntity
  8
SMUSSO
100
AcDbPolyline
 62
7
  6
CONTINUOUS
 90
3
 70
0
 10
26.3271927164
 20
-1.9301008049
 10
26.215754653
 20
-2.0218012107
 10
26.2047338486
 20
-2.0301824216
  0
LWPOLYLINE
  5
3EA
100
AcDbEntity
  8
SMUSSO
100
AcDbPolyline
 62
7
  6
CONTINUOUS
 90
22
 70
0
 10
27.2287600019
 20
-2.3203812294
 10
27.3577079997
 20
-2.2197640825
 10
27.4845716107
 20
-2.1101265313
 10
27.6088063268
 20
-1.9919384336
 10
27.7298799949
 20
-1.8657054579
 10
27.8472739525
 20
-1.7319677692
 10
27.9604842711
 20
-1.5912989903
 10
28.0690260002
 20
-1.4443013731
 10
28.1724341622
 20
-1.291604301
 10
28.2702649078
 20
-1.1338630065
 10
28.3620992534
 20
-0.9717530554
 10
28.4475438964
 20
-0.8059687233
 10
28.5262322362
 20
-0.6372215216
 10
28.5978274604
 20
-0.4662342076
 10
28.6620231479
 20
-0.2937390998
 10
28.7185441153
 20
-0.1204764713
 10
28.7671487319
 20
0.0528116829
 10
28.807629287
 20
0.2253833241
 10
28.8398126282
 20
0.396498046
 10
28.863561384
 20
0.5654213139
 10
28.8787749801
 20
0.7314321299
 10
28.884857254
 20
0.8807679486
  0
LWPOLYLINE
  5
3EB
100
AcDbEntity
  8
RACCORDO
100
AcDbPolyline
 62
250
  6
CONTINUOUS
 90
13
 70
0
 10
5.2687187415
 20
-19.3526525681
 10
5.1816848321
 20
-19.4055761779
 10
5.0861163932
 20
-19.4526966791
 10
4.9833290513
 20
-19.4933653956
 10
4.8747378108
 20
-19.5270224685
 10
4.7618375744
 20
-19.5532045638
 10
4.6461825637
 20
-19.5715512506
 10
4.5293649237
 20
-19.5818099627
 10
4.4129928043
 20
-19.583839476
 10
4.2986682224
 20
-19.5776118523
 10
4.1879650079
 20
-19.563212824
 10
4.0824071375
 20
-19.5408406135
 10
3.9834477557
 20
-19.5108032047
  0
LINE
  5
3EC
100
AcDbEntity
  8
RACCORDO
100
AcDbLine
 62
7
  6
CONTINUOUS
 10
-9.5681432645
 20
-26.7303073798
 11
-10.5767346995
 21
-27.2346030973
  0
LWPOLYLINE
  5
3ED
100
AcDbEntity
  8
RACCORDO
100
AcDbPolyline
 62
250
  6
CONTINUOUS
 90
8
 70
0
 10
11.3131784623
 20
-16.8997291506
 10
14.2439119803
 20
-15.5347336081
 10
17.1805943579
 20
-14.116578028
 10
20.1211362853
 20
-12.6463070648
 10
23.0592698337
 20
-11.127054682
 10
25.9929056934
 20
-9.5598655342
 10
28.924133174
 20
-7.9436949668
 10
31.8529522755
 20
-6.2785429798
  0
LWPOLYLINE
  5
3EE
100
AcDbEntity
  8
RACCORDO
100
AcDbPolyline
 62
7
  6
CONTINUOUS
 90
8
 70
0
 10
10.9763961415
 20
-17.4613430367
 10
13.9398757251
 20
-16.0817719337
 10
16.9046381343
 20
-14.650495451
 10
19.8701252969
 20
-13.1678153129
 10
22.8358263984
 20
-11.6339962968
 10
25.8011825792
 20
-10.0493140272
 10
28.7655131361
 20
-8.4140581951
 10
31.6458074161
 20
-6.7760395832
  0
LINE
  5
3EF
100
AcDbEntity
  8
RACCORDO
100
AcDbLine
 62
250
  6
CONTINUOUS
 10
8.3863044942
 20
-18.21260931
 11
11.3131784623
 21
-16.8997291506
  0
LINE
  5
3F0
100
AcDbEntity
  8
RACCORDO
100
AcDbLine
 62
7
  6
CONTINUOUS
 10
8.0148815739
 20
-18.7887980523
 11
10.9763961415
 21
-17.4613430367
  0
LINE
  5
3F1
100
AcDbEntity
  8
RACCORDO
100
AcDbLine
 62
250
  6
CONTINUOUS
 10
5.4632900761
 20
-19.4733740863
 11
8.3863044942
 21
-18.21260931
  0
LINE
  5
3F2
100
AcDbEntity
  8
RACCORDO
100
AcDbLine
 62
7
  6
CONTINUOUS
 10
5.1456381694
 20
-20.02585221
 11
8.0148815739
 21
-18.7887980523
  0
LINE
  5
3F3
100
AcDbEntity
  8
RACCORDO
100
AcDbLine
 62
7
  6
CONTINUOUS
 10
5.1456381694
 20
-20.02585221
 11
5.144680068
 21
-20.0262557844
  0
LINE
  5
3F4
100
AcDbEntity
  8
RACCORDO
100
AcDbLine
 62
250
  6
CONTINUOUS
 10
-3.260324372
 20
20.3288400845
 11
-4.2144469207
 21
20.4189088507
  0
LWPOLYLINE
  5
3F5
100
AcDbEntity
  8
RACCORDO
100
AcDbPolyline
 62
250
  6
CONTINUOUS
 90
55
 70
0
 10
-4.2144469207
 20
20.4189088507
 10
-5.1624148954
 20
20.5329731634
 10
-6.1049871144
 20
20.670253298
 10
-7.0294731262
 20
20.82919374
 10
-7.9333866682
 20
21.0097940936
 10
-8.8192140031
 20
21.2120547545
 10
-9.6817234673
 20
21.4344213959
 10
-10.520513002
 20
21.6768314035
 10
-11.335984666
 20
21.9393473915
 10
-12.1241129724
 20
22.220602876
 10
-12.8854243658
 20
22.5209254214
 10
-13.6193924015
 20
22.8399874632
 10
-14.3204122582
 20
23.1754398247
 10
-14.9881605871
 20
23.5274296047
 10
-15.622960737
 20
23.8958097043
 10
-16.220177933
 20
24.2777896503
 10
-16.7791720033
 20
24.6731057574
 10
-17.3005831197
 20
25.0820217108
 10
-17.7816970227
 20
25.502538093
 10
-18.2226601491
 20
25.9348940638
 10
-18.623326062
 20
26.3788504633
 10
-18.9805411906
 20
26.8316903944
 10
-19.29425905
 20
27.2946702942
 10
-19.5645261251
 20
27.7665337256
 10
-19.7883283005
 20
28.2407944801
 10
-19.964061483
 20
28.7177914275
 10
-20.0933297658
 20
29.197185698
 10
-20.1779313129
 20
29.6714744734
 10
-20.2160936268
 20
30.140512962
 10
-20.2095892049
 20
30.6044459554
 10
-20.1655337032
 20
31.0562050106
 10
-20.0826045249
 20
31.4951789116
 10
-19.9621242667
 20
31.9219788745
 10
-19.8151763745
 20
32.3313701045
 10
-19.6420356243
 20
32.7216611047
 10
-19.44242724
 20
33.094543372
 10
-19.2266103396
 20
33.4498566026
 10
-18.9955450207
 20
33.7869296243
 10
-18.7482711857
 20
34.1064336093
 10
-18.4921676585
 20
34.4102217708
 10
-18.2280206494
 20
34.6981919967
 10
-17.9550439482
 20
34.9704463991
 10
-17.6782577487
 20
35.2291445272
 10
-17.3983101646
 20
35.4742729261
 10
-17.1145530821
 20
35.7058450507
 10
-16.8300623537
 20
35.9260608147
 10
-16.5453583206
 20
36.1349547591
 10
-16.2599206416
 20
36.3324923428
 10
-15.9752641455
 20
36.5207698562
 10
-15.6918303854
 20
36.6998324222
 10
-15.4091778081
 20
36.8696349178
 10
-15.1274965838
 20
37.0321382644
 10
-14.8468501024
 20
37.1879961023
 10
-14.5671749739
 20
37.3365547911
 10
-14.2884711983
 20
37.4778143308
  0
LINE
  5
3F6
100
AcDbEntity
  8
ASSI
100
AcDbLine
 62
7
  6
CONTINUOUS
 10
1.3596919383
 20
20.2852789141
 11
1.0434319795
 21
20.3354410177
  0
LWPOLYLINE
  5
3F7
100
AcDbEntity
  8
RACCORDO
100
AcDbPolyline
 62
250
  6
CONTINUOUS
 90
16
 70
0
 10
26.3132228116
 20
-3.516102145
 10
26.2949458237
 20
-3.4835987047
 10
26.2729960604
 20
-3.4494320784
 10
26.2476140119
 20
-3.4139766055
 10
26.2190777732
 20
-3.3776207458
 10
26.1876999967
 20
-3.3407628229
 10
26.1538244664
 20
-3.3038066604
 10
26.1178223326
 20
-3.2671571585
 10
26.0800880436
 20
-3.231215856
 10
26.0410350227
 20
-3.19637653
 10
26.0010911442
 20
-3.1630208868
 10
25.9606940407
 20
-3.1315143756
 10
25.9202863065
 20
-3.1022021833
 10
25.8803106549
 20
-3.0754054579
 10
25.8412050674
 20
-3.0514177893
 10
25.8033979917
 20
-3.0305019896
  0
LWPOLYLINE
  5
3F8
100
AcDbEntity
  8
RACCORDO
100
AcDbPolyline
 62
7
  6
CONTINUOUS
 90
19
 70
0
 10
21.5367563336
 20
29.9899474348
 10
21.5085362596
 20
30.4646236846
 10
21.4408429709
 20
30.9397987031
 10
21.3333942028
 20
31.4144181
 10
21.1859941934
 20
31.8874475762
 10
20.9985344302
 20
32.3578640217
 10
20.7709686065
 20
32.8247053839
 10
20.5030620255
 20
33.2874412498
 10
20.1950505649
 20
33.744783906
 10
19.8479331675
 20
34.194783152
 10
19.4621508833
 20
34.6366466481
 10
19.0381700503
 20
35.069620885
 10
18.5776482198
 20
35.4919616209
 10
18.0816306936
 20
35.9028279752
 10
17.5508180574
 20
36.3017319537
 10
16.9868510581
 20
36.6875572424
 10
16.391105374
 20
37.0595468428
 10
15.764513684
 20
37.4172810804
 10
15.1082693555
 20
37.7602011894
  0
LINE
  5
3F9
100
AcDbEntity
  8
DRAFT
100
AcDbLine
 62
7
  6
CONTINUOUS
 10
21.8236237153
 20
14.1760710513
 11
21.5367563335
 21
29.9899474355
  0
LINE
  5
3FA
100
AcDbEntity
  8
RACCORDO
100
AcDbLine
 62
7
  6
CONTINUOUS
 10
21.8237752287
 20
14.1672998698
 11
21.8236243104
 21
14.1760382469
  0
LWPOLYLINE
  5
3FB
100
AcDbEntity
  8
RACCORDO
100
AcDbPolyline
 62
250
  6
CONTINUOUS
 90
14
 70
0
 10
26.3713764806
 20
0.535207325
 10
26.3519533792
 20
0.4878110223
 10
26.3288702281
 20
0.4429529405
 10
26.3023798687
 20
0.4011245584
 10
26.272772499
 20
0.3627842005
 10
26.2403724303
 20
0.3283519252
 10
26.2055345169
 20
0.2982049526
 10
26.1686403669
 20
0.2726736386
 10
26.1300941851
 20
0.252037825
 10
26.090318268
 20
0.2365237011
 10
26.0497483628
 20
0.2263013394
 10
26.0088289946
 20
0.2214828584
 10
25.9680086011
 20
0.2221211485
 10
25.9548897381
 20
0.2234974637
  0
LWPOLYLINE
  5
3FC
100
AcDbEntity
  8
RACCORDO
100
AcDbPolyline
 62
7
  6
CONTINUOUS
 90
3
 70
0
 10
26.5634624058
 20
-1.6047983599
 10
26.5413518183
 20
-1.6539927528
 10
26.5212472005
 20
-1.703689986
  0
LWPOLYLINE
  5
3FD
100
AcDbEntity
  8
RACCORDO
100
AcDbPolyline
 62
250
  6
CONTINUOUS
 90
3
 70
0
 10
26.5691312749
 20
-1.5476842029
 10
26.5435872277
 20
-1.5992302003
 10
26.5200580288
 20
-1.6516131436
  0
LWPOLYLINE
  5
3FE
100
AcDbEntity
  8
SMUSSO
100
AcDbPolyline
 62
7
  6
CONTINUOUS
 90
10
 70
0
 10
25.2462769131
 20
-2.5133145506
 10
25.2374920943
 20
-2.5306989384
 10
25.2269926335
 20
-2.5491699589
 10
25.2149064104
 20
-2.5685884492
 10
25.2013641974
 20
-2.588796932
 10
25.1864625475
 20
-2.6096587075
 10
25.1702653541
 20
-2.6310717492
 10
25.1528533074
 20
-2.6529127381
 10
25.1343220372
 20
-2.675025685
 10
25.1147464858
 20
-2.6972693219
  0
LWPOLYLINE
  5
3FF
100
AcDbEntity
  8
RACCORDO
100
AcDbPolyline
 62
250
  6
CONTINUOUS
 90
16
 70
0
 10
26.3535631763
 20
-3.502831161
 10
26.3774525969
 20
-3.4564575373
 10
26.3972076369
 20
-3.4085725909
 10
26.4126118171
 20
-3.3597009108
 10
26.4234963146
 20
-3.3103779456
 10
26.4297418386
 20
-3.2611440229
 10
26.4312799019
 20
-3.212538432
 10
26.4280935565
 20
-3.1650936713
 10
26.420217618
 20
-3.1193296164
 10
26.4077382874
 20
-3.0757477099
 10
26.3907921902
 20
-3.034825466
 10
26.3695649208
 20
-2.9970113407
 10
26.3442890462
 20
-2.9627197942
 10
26.3152414868
 20
-2.9323266175
 10
26.2827404493
 20
-2.9061648407
 10
26.2747874245
 20
-2.9007601814
  0
LWPOLYLINE
  5
400
100
AcDbEntity
  8
RACCORDO
100
AcDbPolyline
 62
250
  6
CONTINUOUS
 90
36
 70
0
 10
26.4119163433
 20
0.5623764547
 10
26.4549823631
 20
0.6313622585
 10
26.5005546468
 20
0.7014136579
 10
26.5486331943
 20
0.772530653
 10
26.5990363881
 20
0.8447267866
 10
26.6519458457
 20
0.9179885157
 10
26.7079064198
 20
0.9922752118
 10
26.7669206598
 20
1.0676869287
 10
26.8289860164
 20
1.1441236125
 10
26.8946396937
 20
1.2212444724
 10
26.9638985238
 20
1.2991720789
 10
27.0367456747
 20
1.3777838615
 10
27.1136678547
 20
1.4563713184
 10
27.1947129272
 20
1.535091993
 10
27.2798330289
 20
1.6137883419
 10
27.3693712776
 20
1.6912792337
 10
27.4634110179
 20
1.7677505493
 10
27.5618689052
 20
1.8430164077
 10
27.6648380237
 20
1.9153380353
 10
27.7725007211
 20
1.9849440974
 10
27.8846746495
 20
2.0516059285
 10
28.0009058504
 20
2.1128987583
 10
28.1216401249
 20
2.1690269867
 10
28.2464316719
 20
2.2197862138
 10
28.3734891289
 20
2.2621384686
 10
28.5032628662
 20
2.2959177573
 10
28.6353025136
 20
2.3212900738
 10
28.766465598
 20
2.3357154288
 10
28.8966913913
 20
2.3386857598
 10
29.0260406216
 20
2.3307091293
 10
29.1515529997
 20
2.3107697352
 10
29.272964032
 20
2.2784455861
 10
29.3905382122
 20
2.2341586733
 10
29.5021087324
 20
2.178159169
 10
29.6074716093
 20
2.110144965
 10
29.7068308261
 20
2.0304181694
  0
LWPOLYLINE
  5
401
100
AcDbEntity
  8
SMUSSO
100
AcDbPolyline
 62
7
  6
CONTINUOUS
 90
3
 70
0
 10
27.2404414286
 20
-0.867060371
 10
27.1281338917
 20
-1.0348134996
 10
27.0095000892
 20
-1.1985995373
  0
LWPOLYLINE
  5
402
100
AcDbEntity
  8
RACCORDO
100
AcDbPolyline
 62
250
  6
CONTINUOUS
 90
5
 70
0
 10
26.6904060366
 20
-1.3516381057
 10
26.6578525061
 20
-1.3980678859
 10
26.626613884
 20
-1.4465135678
 10
26.5968651553
 20
-1.4966804124
 10
26.5691312749
 20
-1.5476842029
  0
LINE
  5
403
100
AcDbEntity
  8
RACCORDO
100
AcDbLine
 62
250
  6
CONTINUOUS
 10
26.7244494605
 20
-1.3069294883
 11
26.6904060366
 21
-1.3516381057
  0
LWPOLYLINE
  5
404
100
AcDbEntity
  8
SMUSSO
100
AcDbPolyline
 62
7
  6
CONTINUOUS
 90
4
 70
0
 10
27.1410826298
 20
-1.1641039374
 10
27.0278683372
 20
-1.3047760919
 10
26.9104699908
 20
-1.4385169101
 10
26.7893926647
 20
-1.5647515633
  0
LWPOLYLINE
  5
405
100
AcDbEntity
  8
RACCORDO
100
AcDbPolyline
 62
7
  6
CONTINUOUS
 90
8
 70
0
 10
32.826403765
 20
1.8833500877
 10
32.8033851436
 20
1.8564146628
 10
32.7772195893
 20
1.8302073172
 10
32.7479392224
 20
1.8047206559
 10
32.7158443787
 20
1.7802163088
 10
32.6810351701
 20
1.7567814858
 10
32.6434114848
 20
1.734328977
 10
32.5946039035
 20
1.708674073
  0
LWPOLYLINE
  5
406
100
AcDbEntity
  8
RACCORDO
100
AcDbPolyline
 62
250
  6
CONTINUOUS
 90
54
 70
0
 10
26.3132228116
 20
-3.516102145
 10
26.2570990431
 20
-3.57810188
 10
26.1970899665
 20
-3.6404683995
 10
26.1331955818
 20
-3.7032017034
 10
26.065434891
 20
-3.7667709095
 10
25.9937888922
 20
-3.8307069
 10
25.9182005789
 20
-3.8936023224
 10
25.8385724802
 20
-3.955589486
 10
25.7550020671
 20
-4.0165360816
 10
25.6677247465
 20
-4.0746378288
 10
25.5766003952
 20
-4.1300231252
 10
25.4817691365
 20
-4.1825635733
 10
25.383886746
 20
-4.2300696997
 10
25.2827523689
 20
-4.2726404177
 10
25.1785668601
 20
-4.310176814
 10
25.0725885606
 20
-4.3401926751
 10
24.9644437851
 20
-4.3626469689
 10
24.8545062189
 20
-4.3775807275
 10
24.7451552586
 20
-4.3826308331
 10
24.6360536367
 20
-4.3773012317
 10
24.5275386206
 20
-4.3620879772
 10
24.4230014093
 20
-4.3361161143
 10
24.3228167671
 20
-4.2987726096
 10
24.2266099296
 20
-4.2506704964
 10
24.1366478033
 20
-4.1927739194
 10
24.0534486994
 20
-4.1250390121
 10
23.9764943067
 20
-4.047509641
 10
23.906496598
 20
-3.9612815508
 10
23.8435079398
 20
-3.8663494234
 10
23.7874759657
 20
-3.7627185769
 10
23.7389555485
 20
-3.6515007096
 10
23.6979677139
 20
-3.5325258697
 10
23.6644914362
 20
-3.4059640091
 10
23.6390185123
 20
-3.2734366816
 10
23.6216632129
 20
-3.1348325143
 10
23.6123112672
 20
-2.9902628802
 10
23.6111116596
 20
-2.8416834527
 10
23.61819113
 20
-2.689033525
 10
23.6334229386
 20
-2.5323738039
 10
23.6565758502
 20
-2.3738420835
 10
23.6877581281
 20
-2.213445033
 10
23.7268615089
 20
-2.0511759832
 10
23.773329968
 20
-1.8891527205
 10
23.827174292
 20
-1.7275262357
 10
23.8883836942
 20
-1.566145538
 10
23.9563697898
 20
-1.4066754414
 10
24.0312093043
 20
-1.2490317963
 10
24.1128255121
 20
-1.0932987523
 10
24.2003998517
 20
-0.9413935725
 10
24.2945017322
 20
-0.7928280288
 10
24.3945617443
 20
-0.6480903494
 10
24.4980530985
 20
-0.510562481
 10
24.6052809803
 20
-0.3805880292
 10
24.7159402042
 20
-0.2578233885
  0
LWPOLYLINE
  5
407
100
AcDbEntity
  8
RACCORDO
100
AcDbPolyline
 62
7
  6
CONTINUOUS
 90
4
 70
0
 10
32.7688501287
 20
1.8260226077
 10
32.7950156873
 20
1.8522299769
 10
32.8180342992
 20
1.8791654295
 10
32.8379380895
 20
1.9068215681
  0
LWPOLYLINE
  5
408
100
AcDbEntity
  8
RACCORDO
100
AcDbPolyline
 62
7
  6
CONTINUOUS
 90
12
 70
0
 10
31.646353924
 20
-6.7757053014
 10
31.7228607507
 20
-6.7278444224
 10
31.8211071449
 20
-6.6547020172
 10
31.9146917324
 20
-6.5706415974
 10
32.0020686733
 20
-6.476509097
 10
32.0802835566
 20
-6.375593485
 10
32.1501622186
 20
-6.2671508687
 10
32.2114363141
 20
-6.1508717994
 10
32.2615006161
 20
-6.0316641754
 10
32.3002261862
 20
-5.9109690519
 10
32.3283503411
 20
-5.7862872294
 10
32.3389344936
 20
-5.7167218872
  0
LWPOLYLINE
  5
409
100
AcDbEntity
  8
RACCORDO
100
AcDbPolyline
 62
250
  6
CONTINUOUS
 90
19
 70
0
 10
31.8529522755
 20
-6.2785429798
 10
31.8691793331
 20
-6.2684300267
 10
31.8850936596
 20
-6.2570758683
 10
31.900695255
 20
-6.2444805049
 10
31.9160731288
 20
-6.2305597034
 10
31.9311382714
 20
-6.2153976968
 10
31.9456236551
 20
-6.1992471836
 10
31.9595223146
 20
-6.1820818575
 10
31.9728412152
 20
-6.1639280248
 10
31.9853342244
 20
-6.1451173022
 10
31.9969802643
 20
-6.1256415943
 10
32.0078004128
 20
-6.1055089965
 10
32.0176117717
 20
-6.0850754117
 10
32.0263941896
 20
-6.064339727
 10
32.0341678178
 20
-6.0433030552
 10
32.0408102127
 20
-6.022324637
 10
32.0462805598
 20
-6.0015242193
 10
32.0506196735
 20
-5.9807820552
 10
32.053827554
 20
-5.9600981447
  0
LINE
  5
40A
100
AcDbEntity
  8
RACCORDO
100
AcDbLine
 62
7
  6
CONTINUOUS
 10
31.646353924
 20
-6.7757053014
 11
31.6457995485
 21
-6.7760259253
  0
LINE
  5
40B
100
AcDbEntity
  8
RACCORDO
100
AcDbLine
 62
7
  6
CONTINUOUS
 10
-10.4542259459
 20
21.7499555402
 11
-10.277639575
 21
21.7950957707
  0
LWPOLYLINE
  5
40C
100
AcDbEntity
  8
0
100
AcDbPolyline
 62
7
  6
CONTINUOUS
 90
4
 70
0
 10
-11.976056681
 20
34.0838696439
 10
-12.0608510575
 20
34.1273287707
 10
-12.1409979326
 20
34.1614736464
 10
-12.2194547188
 20
34.1879825207
  0
LWPOLYLINE
  5
40D
100
AcDbEntity
  8
0
100
AcDbPolyline
 62
7
  6
CONTINUOUS
 90
22
 70
0
 10
-11.9760567133
 20
34.083869662
 10
-11.861558549
 20
34.017131457
 10
-11.6308904528
 20
33.8635907252
 10
-11.4087861733
 20
33.6900572746
 10
-11.1951892576
 20
33.4970196111
 10
-10.9915767787
 20
33.2861328822
 10
-10.8008618651
 20
33.061117884
 10
-10.6242832141
 20
32.8245976487
 10
-10.4615760501
 20
32.5772040303
 10
-10.313313074
 20
32.3204213446
 10
-10.1801338244
 20
32.0557917728
 10
-10.0626199288
 20
31.7846919629
 10
-9.9613580474
 20
31.5083815883
 10
-9.8768996696
 20
31.2277360406
 10
-9.8101610865
 20
30.9446033223
 10
-9.7620612254
 20
30.6614474036
 10
-9.7331172229
 20
30.3784481941
 10
-9.7242251886
 20
30.097979476
 10
-9.7358286129
 20
29.8252317972
 10
-9.7676835469
 20
29.5623958971
 10
-9.8198097272
 20
29.3092075979
 10
-9.8922357479
 20
29.0668107652
  0
LWPOLYLINE
  5
40E
100
AcDbEntity
  8
RACCORDO
100
AcDbPolyline
 62
250
  6
CONTINUOUS
 90
16
 70
0
 10
31.2181646777
 20
10.39490176
 10
31.2895732888
 20
10.3521389762
 10
31.3595924727
 20
10.3007079038
 10
31.4274954544
 20
10.2411423786
 10
31.4925774244
 20
10.174060669
 10
31.5541628544
 20
10.1001590584
 10
31.6116125085
 20
10.0202046188
 10
31.6643300793
 20
9.935027248
 10
31.7117683765
 20
9.8455110564
 10
31.753435007
 20
9.7525851896
 10
31.7888974856
 20
9.6572141844
 10
31.817787724
 20
9.5603879575
 10
31.8398058516
 20
9.46311153
 10
31.854723328
 20
9.3663945965
 10
31.8623853149
 20
9.2712410437
 10
31.8627122836
 20
9.1786385314
  0
LINE
  5
40F
100
AcDbEntity
  8
RACCORDO
100
AcDbLine
 62
250
  6
CONTINUOUS
 10
29.7068308261
 20
2.0304181694
 11
29.7986315245
 21
1.9401352791
  0
LINE
  5
410
100
AcDbEntity
  8
RACCORDO
100
AcDbLine
 62
250
  6
CONTINUOUS
 10
29.2591393146
 20
2.8681891046
 11
29.1809633887
 21
2.9479264711
  0
LINE
  5
411
100
AcDbEntity
  8
RACCORDO
100
AcDbLine
 62
7
  6
CONTINUOUS
 10
29.2341923118
 20
2.8751917755
 11
29.1644335334
 21
2.950767799
  0
LINE
  5
412
100
AcDbEntity
  8
RACCORDO
100
AcDbLine
 62
250
  6
CONTINUOUS
 10
29.7986315245
 20
1.9401352791
 11
29.8826390157
 21
1.8392058519
  0
LINE
  5
413
100
AcDbEntity
  8
RACCORDO
100
AcDbLine
 62
250
  6
CONTINUOUS
 10
29.2960984275
 20
2.8221731511
 11
29.2591393146
 21
2.8681891046
  0
LWPOLYLINE
  5
414
100
AcDbEntity
  8
SMUSSO
100
AcDbPolyline
 62
7
  6
CONTINUOUS
 90
11
 70
0
 10
28.5822246839
 20
2.0204680497
 10
28.586573348
 20
2.0148862641
 10
28.6533674691
 20
1.9095469104
 10
28.7121814765
 20
1.7949347774
 10
28.7627477989
 20
1.6715711981
 10
28.8048363636
 20
1.5400173884
 10
28.8382560041
 20
1.4008702485
 10
28.8628541845
 20
1.2547641039
 10
28.878518628
 20
1.1023686141
 10
28.8851789148
 20
0.944379006
 10
28.8853225796
 20
0.8807489964
  0
LWPOLYLINE
  5
415
100
AcDbEntity
  8
SMUSSO
100
AcDbPolyline
 62
7
  6
CONTINUOUS
 90
3
 70
0
 10
28.0533524247
 20
1.6322081611
 10
28.0639859535
 20
1.4791192164
 10
28.0663067383
 20
1.3626819546
  0
LWPOLYLINE
  5
416
100
AcDbEntity
  8
RACCORDO
100
AcDbPolyline
 62
250
  6
CONTINUOUS
 90
13
 70
0
 10
28.0017812855
 20
2.2586835328
 10
28.000484683
 20
2.2929016831
 10
27.9956607772
 20
2.3283976417
 10
27.9873902852
 20
2.3645774657
 10
27.9758115946
 20
2.4008357692
 10
27.9611184478
 20
2.4365658535
 10
27.9435567009
 20
2.4711698581
 10
27.923420209
 20
2.5040687649
 10
27.9010459099
 20
2.5347120868
 10
27.8768081856
 20
2.5625870785
 10
27.8511125987
 20
2.5872273165
 10
27.8243891052
 20
2.6082205033
 10
27.7970848611
 20
2.6252153665
  0
LWPOLYLINE
  5
417
100
AcDbEntity
  8
SMUSSO
100
AcDbPolyline
 62
7
  6
CONTINUOUS
 90
17
 70
0
 10
28.0663067383
 20
1.3626819546
 10
28.0660000473
 20
1.3210393059
 10
28.0593860563
 20
1.1586451273
 10
28.0441722739
 20
0.9926320309
 10
28.0204231737
 20
0.8237068729
 10
27.9882394642
 20
0.6525909834
 10
27.9477585567
 20
0.4800186471
 10
27.8991536174
 20
0.3067301005
 10
27.842632458
 20
0.1334675571
 10
27.7784367055
 20
-0.0390271593
 10
27.7068412794
 20
-0.2100144657
 10
27.6281525321
 20
-0.378762069
 10
27.5427072472
 20
-0.544547148
 10
27.4508716727
 20
-0.7066586857
 10
27.3530387866
 20
-0.8644026774
 10
27.2496277057
 20
-1.0171030603
 10
27.1410826298
 20
-1.1641039374
  0
LWPOLYLINE
  5
418
100
AcDbEntity
  8
RACCORDO
100
AcDbPolyline
 62
250
  6
CONTINUOUS
 90
8
 70
0
 10
27.9173638675
 20
-3.6223054224
 10
27.9151114755
 20
-3.6546731694
 10
27.9093477791
 20
-3.6846489586
 10
27.9001692179
 20
-3.7117312135
 10
27.8877293712
 20
-3.7354667738
 10
27.8722363891
 20
-3.7554584774
 10
27.8539495096
 20
-3.771371806
 10
27.8394282206
 20
-3.7800494487
  0
LINE
  5
419
100
AcDbEntity
  8
SMUSSO
100
AcDbLine
 62
7
  6
CONTINUOUS
 10
28.047018279
 20
1.3643068907
 11
28.0444447307
 21
1.3337581328
  0
LWPOLYLINE
  5
41A
100
AcDbEntity
  8
SMUSSO
100
AcDbPolyline
 62
7
  6
CONTINUOUS
 90
13
 70
0
 10
28.0444447307
 20
1.3337581328
 10
28.0206293644
 20
1.1500799693
 10
27.9884799065
 20
0.9648619118
 10
27.9479096787
 20
0.7781497758
 10
27.8990053593
 20
0.5898977456
 10
27.8423452897
 20
0.4021178548
 10
27.7779092167
 20
0.2149147683
 10
27.7057173934
 20
0.0281838212
 10
27.62640892
 20
-0.1563769483
 10
27.5399333686
 20
-0.3388004982
 10
27.446341167
 20
-0.5190538703
 10
27.3464226999
 20
-0.6953401516
 10
27.2404414286
 20
-0.867060371
  0
LINE
  5
41B
100
AcDbEntity
  8
RACCORDO
100
AcDbLine
 62
250
  6
CONTINUOUS
 10
26.4718671186
 20
-1.7810525652
 11
26.464483888
 21
-1.8064616076
  0
LINE
  5
41C
100
AcDbEntity
  8
RACCORDO
100
AcDbLine
 62
250
  6
CONTINUOUS
 10
26.4985436782
 20
-1.7048330328
 11
26.4718671186
 21
-1.7810525652
  0
LWPOLYLINE
  5
41D
100
AcDbEntity
  8
RACCORDO
100
AcDbPolyline
 62
7
  6
CONTINUOUS
 90
3
 70
0
 10
26.5212472004
 20
-1.7036899862
 10
26.4971259303
 20
-1.7721434618
 10
26.4958170178
 20
-1.776618209
  0
LINE
  5
41E
100
AcDbEntity
  8
RACCORDO
100
AcDbLine
 62
250
  6
CONTINUOUS
 10
26.5200580288
 20
-1.6516131436
 11
26.4985436782
 21
-1.7048330328
  0
LWPOLYLINE
  5
41F
100
AcDbEntity
  8
RACCORDO
100
AcDbPolyline
 62
250
  6
CONTINUOUS
 90
35
 70
0
 10
29.5256338957
 20
-1.8957282054
 10
29.41538971
 20
-2.0695591989
 10
29.2993813285
 20
-2.2371880334
 10
29.1778021385
 20
-2.3987402408
 10
29.0529243751
 20
-2.5518213048
 10
28.9244900388
 20
-2.6962573524
 10
28.7927571291
 20
-2.8322222567
 10
28.6607718792
 20
-2.9578431204
 10
28.5285292514
 20
-3.0726322448
 10
28.3960342835
 20
-3.1770773287
 10
28.2663483225
 20
-3.2707685717
 10
28.1399835287
 20
-3.3530899227
 10
28.0164277419
 20
-3.4246574327
 10
27.8972058286
 20
-3.4869094545
 10
27.7827323381
 20
-3.5396557937
 10
27.6725927212
 20
-3.5830866447
 10
27.5670681965
 20
-3.6192109428
 10
27.4663058644
 20
-3.6480946034
 10
27.3701586245
 20
-3.6696717111
 10
27.2784663944
 20
-3.6857534547
 10
27.1913076998
 20
-3.6964432332
 10
27.1086040149
 20
-3.7016376476
 10
27.0299596799
 20
-3.7028376893
 10
26.9554151334
 20
-3.7001541752
 10
26.8849299368
 20
-3.6934762885
 10
26.8179871145
 20
-3.6839725699
 10
26.754597923
 20
-3.6717485905
 10
26.6947511059
 20
-3.6566987792
 10
26.6378959178
 20
-3.6396749641
 10
26.5840311601
 20
-3.6207740687
 10
26.5331580315
 20
-3.5998991694
 10
26.4847293837
 20
-3.5776113233
 10
26.4385628338
 20
-3.5540975494
 10
26.3948407647
 20
-3.5291708286
 10
26.3535631763
 20
-3.502831161
  0
LINE
  5
420
100
AcDbEntity
  8
0
100
AcDbLine
 62
250
  6
CONTINUOUS
 10
12.4749890636
 20
-23.1331502733
 11
11.4589622787
 21
-23.6411636658
  0
LINE
  5
421
100
AcDbEntity
  8
0
100
AcDbLine
 62
250
  6
CONTINUOUS
 10
12.4460761684
 20
-23.3876664674
 11
11.4543205962
 21
-23.8835442535
  0
LINE
  5
422
100
AcDbEntity
  8
0
100
AcDbLine
 62
7
  6
CONTINUOUS
 10
12.4749890636
 20
-24.135992966
 11
12.7823328807
 21
-23.9823210574
  0
LINE
  5
423
100
AcDbEntity
  8
0
100
AcDbLine
 62
7
  6
CONTINUOUS
 10
11.9065829906
 20
-25.5838407371
 11
11.4170720954
 21
-25.8285961847
  0
LWPOLYLINE
  5
424
100
AcDbEntity
  8
DRAFT
100
AcDbPolyline
 62
7
  6
CONTINUOUS
 90
26
 70
0
 10
9.3439483149
 20
23.6977129661
 10
8.7007103625
 20
23.865450645
 10
7.9039923363
 20
24.0509047286
 10
7.0898655347
 20
24.2186823795
 10
6.2632199856
 20
24.3677801756
 10
5.4239813872
 20
24.4980866319
 10
4.5722240412
 20
24.6097132333
 10
3.7130608804
 20
24.7019910119
 10
2.8464476717
 20
24.7748045659
 10
1.9724286482
 20
24.8282692971
 10
1.0962494423
 20
24.8620624427
 10
0.2178966538
 20
24.8760666743
 10
-0.662616317
 20
24.8703993203
 10
-1.5400036371
 20
24.8450896032
 10
-2.4142476222
 20
24.8000202909
 10
-3.2853659566
 20
24.7353086155
 10
-4.1481258596
 20
24.6513354949
 10
-5.002479237
 20
24.5479857111
 10
-5.848474183
 20
24.4253744821
 10
-6.6810221998
 20
24.2842283798
 10
-7.5000686262
 20
24.1244277548
 10
-8.3056681234
 20
23.9460922565
 10
-9.0928961776
 20
23.7503074047
 10
-9.8601112841
 20
23.5374350393
 10
-10.6089549475
 20
23.3071133203
 10
-11.339427168
 20
23.0593422479
  0
LWPOLYLINE
  5
425
100
AcDbEntity
  8
DRAFT
100
AcDbPolyline
 62
7
  6
CONTINUOUS
 90
3
 70
0
 10
12.7287704019
 20
22.5398502562
 10
12.6347675245
 20
22.5810872006
 10
11.9682847938
 20
22.8488865992
  0
LWPOLYLINE
  5
426
100
AcDbEntity
  8
RACCORDO
100
AcDbPolyline
 62
7
  6
CONTINUOUS
 90
7
 70
0
 10
31.8761348795
 20
10.3232647908
 10
30.2673750527
 20
11.4515144308
 10
28.5173000061
 20
12.6322645149
 10
26.7311840262
 20
13.7901964788
 10
24.9104373757
 20
14.9244546016
 10
23.0550271367
 20
16.0352185035
 10
21.7765561918
 20
16.7707194677
  0
LWPOLYLINE
  5
427
100
AcDbEntity
  8
RACCORDO
100
AcDbPolyline
 62
250
  6
CONTINUOUS
 90
10
 70
0
 10
31.2181664236
 20
10.394926293
 10
30.2425005866
 20
11.0807560669
 10
29.2552191028
 20
11.7592991702
 10
28.2564367928
 20
12.4304680432
 10
27.2464061366
 20
13.0940861911
 10
26.2251062159
 20
13.7501604499
 10
25.1922336587
 20
14.3988827437
 10
24.1477638604
 20
15.0402766029
 10
23.0919563342
 20
15.6741908905
 10
22.0249299537
 20
16.3005643602
  0
LINE
  5
428
100
AcDbEntity
  8
RACCORDO
100
AcDbLine
 62
7
  6
CONTINUOUS
 10
31.8761072795
 20
10.3232786591
 11
31.8761881644
 21
10.3232208191
  0
LWPOLYLINE
  5
429
100
AcDbEntity
  8
RACCORDO
100
AcDbPolyline
 62
250
  6
CONTINUOUS
 90
3
 70
0
 10
22.0249303262
 20
16.3005731207
 10
21.8621482239
 20
16.4450358944
 10
21.7812186105
 20
16.5136985661
  0
LINE
  5
42A
100
AcDbEntity
  8
RACCORDO
100
AcDbLine
 62
7
  6
CONTINUOUS
 10
29.2585925654
 20
2.8427843134
 11
29.2341923118
 21
2.8751917755
  0
LINE
  5
42B
100
AcDbEntity
  8
RACCORDO
100
AcDbLine
 62
250
  6
CONTINUOUS
 10
29.8826390157
 20
1.8392058519
 11
29.9590879885
 21
1.72772033
  0
LINE
  5
42C
100
AcDbEntity
  8
RACCORDO
100
AcDbLine
 62
250
  6
CONTINUOUS
 10
29.9590879885
 20
1.72772033
 11
30.027127651
 21
1.6071065357
  0
LWPOLYLINE
  5
42D
100
AcDbEntity
  8
RACCORDO
100
AcDbPolyline
 62
250
  6
CONTINUOUS
 90
22
 70
0
 10
30.1470821411
 20
1.7037858161
 10
30.0795348523
 20
1.8280009502
 10
30.0039749964
 20
1.9428602961
 10
29.9224464352
 20
2.0467234237
 10
29.8345423087
 20
2.1391078376
 10
29.740669477
 20
2.2204960331
 10
29.6440923822
 20
2.2906950661
 10
29.5450389715
 20
2.3490331555
 10
29.4432812977
 20
2.3961820824
 10
29.3413999621
 20
2.4339642455
 10
29.2397671851
 20
2.4622199092
 10
29.1380107462
 20
2.4811088091
 10
29.0375945846
 20
2.4929325519
 10
28.9387212788
 20
2.4977818662
 10
28.8411882503
 20
2.4955660234
 10
28.745851703
 20
2.4883144443
 10
28.6528538832
 20
2.4761515313
 10
28.5620525445
 20
2.4589528822
 10
28.4738771521
 20
2.4383747107
 10
28.3884355763
 20
2.4145455554
 10
28.3056199467
 20
2.3873368777
 10
28.2255361174
 20
2.3580192768
  0
LWPOLYLINE
  5
42E
100
AcDbEntity
  8
RACCORDO
100
AcDbPolyline
 62
250
  6
CONTINUOUS
 90
5
 70
0
 10
30.027127651
 20
1.6071065357
 10
30.0866515055
 20
1.4773215632
 10
30.1377660497
 20
1.3384083184
 10
30.1799399848
 20
1.1919233416
 10
30.2130987007
 20
1.0377517627
  0
LINE
  5
42F
100
AcDbEntity
  8
RACCORDO
100
AcDbLine
 62
250
  6
CONTINUOUS
 10
30.206219491
 20
1.5701252555
 11
30.1470821411
 21
1.7037858161
  0
LWPOLYLINE
  5
430
100
AcDbEntity
  8
SMUSSO
100
AcDbPolyline
 62
7
  6
CONTINUOUS
 90
3
 70
0
 10
28.008191681
 20
1.9119168491
 10
28.0341444297
 20
1.7796542767
 10
28.0533524247
 20
1.6322081611
  0
LWPOLYLINE
  5
431
100
AcDbEntity
  8
RACCORDO
100
AcDbPolyline
 62
250
  6
CONTINUOUS
 90
16
 70
0
 10
30.2373168076
 20
0.8760084517
 10
30.2522868367
 20
0.7085945589
 10
30.2578905296
 20
0.5353822762
 10
30.2542461448
 20
0.3564994116
 10
30.2414009895
 20
0.1742305396
 10
30.2192422623
 20
-0.0114040609
 10
30.1878827647
 20
-0.2004246688
 10
30.1477082084
 20
-0.3906075465
 10
30.0986471008
 20
-0.5819172833
 10
30.0407709345
 20
-0.7743892899
 10
29.9746798993
 20
-0.9659060603
 10
29.900256729
 20
-1.1565451856
 10
29.8176186897
 20
-1.3462290749
 10
29.7277177694
 20
-1.5326074487
 10
29.6303072731
 20
-1.7158205848
 10
29.5256338957
 20
-1.8957282054
  0
LINE
  5
432
100
AcDbEntity
  8
RACCORDO
100
AcDbLine
 62
250
  6
CONTINUOUS
 10
30.3723485224
 20
0.7824884288
 11
30.3571488294
 21
0.9533209759
  0
LWPOLYLINE
  5
433
100
AcDbEntity
  8
RACCORDO
100
AcDbPolyline
 62
7
  6
CONTINUOUS
 90
15
 70
0
 10
30.4663263032
 20
0.7010386427
 10
30.4603789213
 20
0.8997362646
 10
30.4438015643
 20
1.0926480429
 10
30.4166002081
 20
1.279271167
 10
30.3788305258
 20
1.458854002
 10
30.3308259819
 20
1.6299597764
 10
30.2729027865
 20
1.7919394306
 10
30.2052696016
 20
1.9445623741
 10
30.1283288975
 20
2.0872025321
 10
30.0424338262
 20
2.2194884441
 10
29.9479876578
 20
2.3410412217
 10
29.8456415413
 20
2.4513030633
 10
29.7360292593
 20
2.5499296732
 10
29.6196858308
 20
2.6367651112
 10
29.4972492455
 20
2.7116317072
  0
LWPOLYLINE
  5
434
100
AcDbEntity
  8
RACCORDO
100
AcDbPolyline
 62
250
  6
CONTINUOUS
 90
10
 70
0
 10
31.8529522755
 20
-6.2785429798
 10
31.8526217691
 20
-6.3616334741
 10
31.8449554368
 20
-6.4400348328
 10
31.8300328613
 20
-6.5129331846
 10
31.8080089517
 20
-6.5795717834
 10
31.7791123348
 20
-6.6392588649
 10
31.743642982
 20
-6.6913748271
 10
31.7019690952
 20
-6.7353786625
 10
31.6545232848
 20
-6.7708135741
 10
31.646353924
 20
-6.7757053014
  0
LINE
  5
435
100
AcDbEntity
  8
0
100
AcDbLine
 62
7
  6
CONTINUOUS
 10
29.1145350434
 20
2.9567272636
 11
29.1140397535
 21
2.922222601
  0
LWPOLYLINE
  5
436
100
AcDbEntity
  8
SMUSSO
100
AcDbPolyline
 62
7
  6
CONTINUOUS
 90
23
 70
0
 10
28.8853225796
 20
0.8807489964
 10
28.8828057916
 20
0.7815130259
 10
28.8714109945
 20
0.6145127219
 10
28.8510475614
 20
0.4441395072
 10
28.8218090211
 20
0.2711670004
 10
28.7838283998
 20
0.0963782256
 10
28.737278266
 20
-0.0794338585
 10
28.6823710276
 20
-0.2554680096
 10
28.6193574057
 20
-0.4309220725
 10
28.5485249413
 20
-0.6049974299
 10
28.4701959046
 20
-0.7769038663
 10
28.3847263105
 20
-0.9458613003
 10
28.2925063485
 20
-1.1110997076
 10
28.1939544768
 20
-1.2718705135
 10
28.0895139307
 20
-1.4274504462
 10
27.9796569983
 20
-1.5771344119
 10
27.8648844277
 20
-1.7202386501
 10
27.7457182673
 20
-1.8561112726
 10
27.6226998323
 20
-1.9841342116
 10
27.4963883689
 20
-2.1037246349
 10
27.3673592697
 20
-2.2143371479
 10
27.2361990826
 20
-2.3154684768
 10
27.2084767107
 20
-2.3354317111
  0
LWPOLYLINE
  5
437
100
AcDbEntity
  8
RACCORDO
100
AcDbPolyline
 62
7
  6
CONTINUOUS
 90
5
 70
0
 10
32.8860379063
 20
1.9966047101
 10
32.8761246446
 20
1.967633508
 10
32.8628925954
 20
1.9390991745
 10
32.8463075739
 20
1.9110061968
 10
32.826403765
 20
1.8833500877
  0
LWPOLYLINE
  5
438
100
AcDbEntity
  8
RACCORDO
100
AcDbPolyline
 62
7
  6
CONTINUOUS
 90
11
 70
0
 10
13.9083756911
 20
-25.856748759
 10
13.9250293591
 20
-25.8457618759
 10
13.966458602
 20
-25.8122912516
 10
14.004181425
 20
-25.7724207068
 10
14.037435432
 20
-25.7267575954
 10
14.0662131704
 20
-25.6748056645
 10
14.0905220929
 20
-25.6170611669
 10
14.1096221608
 20
-25.5556202155
 10
14.1232666946
 20
-25.4911815145
 10
14.1317023739
 20
-25.4230463598
 10
14.1349291987
 20
-25.3512147512
  0
LWPOLYLINE
  5
439
100
AcDbEntity
  8
RACCORDO
100
AcDbPolyline
 62
250
  6
CONTINUOUS
 90
17
 70
0
 10
11.4000269144
 20
-26.7186658934
 10
10.8299440838
 20
-26.9392297349
 10
10.2384657472
 20
-27.1497469257
 10
9.6261792011
 20
-27.3496246345
 10
8.9930366029
 20
-27.5384730938
 10
8.3404275641
 20
-27.7154796145
 10
7.671337546
 20
-27.8795555767
 10
6.9868179514
 20
-28.0302545422
 10
6.2878287129
 20
-28.1671794661
 10
5.5775296399
 20
-28.2895988071
 10
4.8574649635
 20
-28.3972192324
 10
4.1285150288
 20
-28.4898823237
 10
3.3930104269
 20
-28.5672894132
 10
2.6526311382
 20
-28.6293095043
 10
1.9082644272
 20
-28.6759136863
 10
1.1610913366
 20
-28.7070572115
 10
0.4125202532
 20
-28.7227110835
  0
LWPOLYLINE
  5
43A
100
AcDbEntity
  8
RACCORDO
100
AcDbPolyline
 62
7
  6
CONTINUOUS
 90
22
 70
0
 10
11.1087333379
 20
-27.2569610233
 10
10.4733100144
 20
-27.5002247784
 10
9.7791386311
 20
-27.7415171999
 10
9.0653847702
 20
-27.9653705427
 10
8.3336659245
 20
-28.1714550992
 10
7.5854816291
 20
-28.3595097622
 10
6.8222378009
 20
-28.5293163652
 10
6.0455872761
 20
-28.6806236855
 10
5.2571379543
 20
-28.8132246974
 10
4.4582825277
 20
-28.9269705855
 10
3.6506831013
 20
-29.0216917343
 10
2.8360258384
 20
-29.097250216
 10
2.0157701386
 20
-29.1535556155
 10
1.1916093549
 20
-29.190522014
 10
0.3652509692
 20
-29.2080973653
 10
-0.4618108259
 20
-29.2062615073
 10
-1.2878689937
 20
-29.1850169205
 10
-2.1112188894
 20
-29.1444006746
 10
-2.9303739525
 20
-29.084466155
 10
-3.7437130731
 20
-29.0052958854
 10
-4.5494798655
 20
-28.9070184488
 10
-5.345998724
 20
-28.7897920431
  0
LWPOLYLINE
  5
43B
100
AcDbEntity
  8
0
100
AcDbPolyline
 62
7
  6
CONTINUOUS
 90
7
 70
0
 10
-12.2194547188
 20
34.1879825207
 10
-12.3103042293
 20
34.2102258898
 10
-12.3973030104
 20
34.2223219493
 10
-12.4800159553
 20
34.2243282276
 10
-12.5580015885
 20
34.2163513903
 10
-12.6308152682
 20
34.1985457108
 10
-12.6980123466
 20
34.171111234
  0
LINE
  5
43C
100
AcDbEntity
  8
RACCORDO
100
AcDbLine
 62
250
  6
CONTINUOUS
 10
30.2130987007
 20
1.0377517627
 11
30.2373168076
 21
0.8760084517
  0
LWPOLYLINE
  5
43D
100
AcDbEntity
  8
RACCORDO
100
AcDbPolyline
 62
250
  6
CONTINUOUS
 90
5
 70
0
 10
30.3571488294
 20
0.9533209759
 10
30.3328089431
 20
1.118706767
 10
30.2996047431
 20
1.2766461152
 10
30.2573442739
 20
1.4271089068
 10
30.206219491
 20
1.5701252555
  0
LWPOLYLINE
  5
43E
100
AcDbEntity
  8
RACCORDO
100
AcDbPolyline
 62
250
  6
CONTINUOUS
 90
9
 70
0
 10
32.3469974171
 20
9.531601024
 10
32.3492978214
 20
9.509911266
 10
32.3473300941
 20
9.4422719935
 10
32.3317588041
 20
9.373957173
 10
32.3027977666
 20
9.3059048613
 10
32.2608446567
 20
9.2390495108
 10
32.2064755486
 20
9.1743091378
 10
32.1404370054
 20
9.1125727172
 10
32.0636358275
 20
9.0546879754
  0
LWPOLYLINE
  5
43F
100
AcDbEntity
  8
RACCORDO
100
AcDbPolyline
 62
7
  6
CONTINUOUS
 90
10
 70
0
 10
32.8958309069
 20
2.0693461554
 10
32.8824815763
 20
2.8252244589
 10
32.8556620468
 20
3.7019774018
 10
32.8167467574
 20
4.5725793852
 10
32.7657455266
 20
5.4367970152
 10
32.7026675331
 20
6.2943946039
 10
32.6275211826
 20
7.1451387974
 10
32.5403143812
 20
7.9887942415
 10
32.4410541327
 20
8.8251260269
 10
32.3469974171
 20
9.531601024
  0
LWPOLYLINE
  5
440
100
AcDbEntity
  8
RACCORDO
100
AcDbPolyline
 62
7
  6
CONTINUOUS
 90
4
 70
0
 10
32.8958085219
 20
2.0693460896
 10
32.8955685998
 20
2.0549672787
 10
32.89253096
 20
2.0257155043
 10
32.8860379063
 20
1.9966047101
  0
LWPOLYLINE
  5
441
100
AcDbEntity
  8
RACCORDO
100
AcDbPolyline
 62
7
  6
CONTINUOUS
 90
10
 70
0
 10
32.3389441368
 20
-5.716824375
 10
32.4345998727
 20
-4.9253821993
 10
32.5330092317
 20
-4.0230472386
 10
32.6195651971
 20
-3.1247833121
 10
32.6942450235
 20
-2.2308293582
 10
32.7570248112
 20
-1.3414287927
 10
32.8078802251
 20
-0.4568245275
 10
32.8467864257
 20
0.4227406311
 10
32.8737179216
 20
1.2970267504
 10
32.8863571037
 20
1.9980357917
  0
LWPOLYLINE
  5
442
100
AcDbEntity
  8
RACCORDO
100
AcDbPolyline
 62
250
  6
CONTINUOUS
 90
19
 70
0
 10
32.053827554
 20
-5.9600981447
 10
32.1075162304
 20
-5.5245830245
 10
32.1584218683
 20
-5.0901569294
 10
32.2065444676
 20
-4.6568198596
 10
32.2518824154
 20
-4.2245649537
 10
32.2944373246
 20
-3.793399073
 10
32.3342140337
 20
-3.3633428011
 10
32.3712142416
 20
-2.9343958839
 10
32.4054362493
 20
-2.5065585755
 10
32.4368797983
 20
-2.0798522213
 10
32.4655465675
 20
-1.6542761218
 10
32.491434878
 20
-1.2298309765
 10
32.5145394342
 20
-0.8065402294
 10
32.5348619317
 20
-0.3844027717
 10
32.552400675
 20
0.0365802878
 10
32.5671452825
 20
0.4563821793
 10
32.5790922937
 20
0.8749939795
 10
32.5882451692
 20
1.2924246116
 10
32.5946039089
 20
1.7086740757
  0
LINE
  5
443
100
AcDbEntity
  8
RACCORDO
100
AcDbLine
 62
7
  6
CONTINUOUS
 10
32.3389441368
 20
-5.716824375
 11
32.3389567023
 21
-5.716724687
  0
LWPOLYLINE
  5
444
100
AcDbEntity
  8
0
100
AcDbPolyline
 62
250
  6
CONTINUOUS
 90
10
 70
0
 10
-12.2194547188
 20
34.1879825207
 10
-12.2973681198
 20
34.1944057161
 10
-12.378905752
 20
34.1881695487
 10
-12.4630644481
 20
34.1693507426
 10
-12.5488087936
 20
34.138180828
 10
-12.6350838654
 20
34.0950432921
 10
-12.7208282108
 20
34.0404688612
 10
-12.804986907
 20
33.9751289711
 10
-12.8865245392
 20
33.8998275064
 10
-12.9644379401
 20
33.8154909101
  0
LWPOLYLINE
  5
445
100
AcDbEntity
  8
RACCORDO
100
AcDbPolyline
 62
250
  6
CONTINUOUS
 90
13
 70
0
 10
9.9411317156
 20
34.8918179598
 10
9.9833533253
 20
34.8673367395
 10
10.0248605048
 20
34.836528934
 10
10.064950913
 20
34.7999158409
 10
10.1029461815
 20
34.7581169888
 10
10.1382033942
 20
34.7118396544
 10
10.1701259651
 20
34.6618668946
 10
10.1981737336
 20
34.6090442964
 10
10.2218721048
 20
34.5542656689
 10
10.2408200793
 20
34.4984579188
 10
10.2546970393
 20
34.4425653669
 10
10.2632681734
 20
34.3875337687
 10
10.2663884497
 20
34.3342943117
  0
LWPOLYLINE
  5
446
100
AcDbEntity
  8
RACCORDO
100
AcDbPolyline
 62
250
  6
CONTINUOUS
 90
13
 70
0
 10
14.3959044371
 20
32.6644315991
 10
14.4381260468
 20
32.6399503788
 10
14.4796332263
 20
32.6091425733
 10
14.5197236344
 20
32.5725294802
 10
14.557718903
 20
32.5307306281
 10
14.5929761157
 20
32.4844532937
 10
14.6248986865
 20
32.4344805339
 10
14.6529464551
 20
32.3816579357
 10
14.6766448262
 20
32.3268793081
 10
14.6955928008
 20
32.271071558
 10
14.7094697608
 20
32.2151790061
 10
14.7180408949
 20
32.160147408
 10
14.7211611712
 20
32.106907951
  0
LWPOLYLINE
  5
447
100
AcDbEntity
  8
RACCORDO
100
AcDbPolyline
 62
7
  6
CONTINUOUS
 90
12
 70
0
 10
32.3468647719
 20
9.5323401162
 10
32.3391618537
 20
9.5804137639
 10
32.3173359113
 20
9.6785872515
 10
32.288044351
 20
9.7730613618
 10
32.2516036873
 20
9.8635667913
 10
32.2081842315
 20
9.9500723203
 10
32.1582420797
 20
10.0318834474
 10
32.1022098109
 20
10.1085283833
 10
32.0401586369
 20
10.1800546337
 10
31.972633748
 20
10.2458891468
 10
31.9001907532
 20
10.3055737112
 10
31.8760846572
 20
10.32329476
  0
LINE
  5
448
100
AcDbEntity
  8
RACCORDO
100
AcDbLine
 62
7
  6
CONTINUOUS
 10
32.3468926024
 20
9.5323441347
 11
32.3469974171
 21
9.531601024
  0
LWPOLYLINE
  5
449
100
AcDbEntity
  8
RACCORDO
100
AcDbPolyline
 62
250
  6
CONTINUOUS
 90
19
 70
0
 10
32.0636358275
 20
9.0546879754
 10
32.1171751222
 20
8.6610799623
 10
32.1679409332
 20
8.2657667142
 10
32.2159332606
 20
7.8687482309
 10
32.2611508945
 20
7.4700161591
 10
32.3035950448
 20
7.0695788521
 10
32.3432693411
 20
6.6674613702
 10
32.3801754697
 20
6.2636651089
 10
32.4143117442
 20
5.8581886726
 10
32.4456767353
 20
5.4510529345
 10
32.4742721049
 20
5.0422588426
 10
32.5000961911
 20
4.6318054487
 10
32.5231425783
 20
4.2197107815
 10
32.5434129452
 20
3.8059754172
 10
32.5609056132
 20
3.3905987796
 10
32.5756091305
 20
2.9735971675
 10
32.5875196799
 20
2.5549760142
 10
32.5966410786
 20
2.1347298866
 10
32.6029733268
 20
1.7128587846
  0
LINE
  5
44A
100
AcDbEntity
  8
RACCORDO
100
AcDbLine
 62
7
  6
CONTINUOUS
 10
11.5865505643
 20
35.7145273842
 11
11.5593026902
 21
35.7243575757
  0
LWPOLYLINE
  5
44B
100
AcDbEntity
  8
RACCORDO
100
AcDbPolyline
 62
7
  6
CONTINUOUS
 90
25
 70
0
 10
11.5865505643
 20
35.7145273842
 10
11.6109348209
 20
35.7048815801
 10
11.6351581879
 20
35.6935724384
 10
11.6591330342
 20
35.6806519689
 10
11.6827811105
 20
35.6661859561
 10
11.7060073441
 20
35.6502327599
 10
11.7286998199
 20
35.6328416874
 10
11.7507743675
 20
35.6140862001
 10
11.7721490321
 20
35.5940507915
 10
11.7927175139
 20
35.5728085941
 10
11.8123998949
 20
35.5504512767
 10
11.831123884
 20
35.5270768938
 10
11.8487986134
 20
35.5027749805
 10
11.8653553709
 20
35.477647449
 10
11.8807299439
 20
35.4518067923
 10
11.8948443904
 20
35.4253639797
 10
11.9076413787
 20
35.3984335519
 10
11.9190724233
 20
35.3711333425
 10
11.9290812554
 20
35.3435828194
 10
11.9376266898
 20
35.3158999779
 10
11.9446756083
 20
35.2882068846
 10
11.9501937206
 20
35.2606297174
 10
11.9541573522
 20
35.2332896422
 10
11.9565522504
 20
35.2063024539
 10
11.9573681178
 20
35.1797841458
  0
LWPOLYLINE
  5
44C
100
AcDbEntity
  8
RACCORDO
100
AcDbPolyline
 62
250
  6
CONTINUOUS
 90
7
 70
0
 10
14.3724503085
 20
32.6761586634
 10
14.3302304025
 20
32.6938985398
 10
14.2887245465
 20
32.7045979966
 10
14.248635038
 20
32.7080758534
 10
14.2106402399
 20
32.704273116
 10
14.1753830807
 20
32.6932539793
 10
14.1667324514
 20
32.6892236839
  0
LWPOLYLINE
  5
44D
100
AcDbEntity
  8
RACCORDO
100
AcDbPolyline
 62
250
  6
CONTINUOUS
 90
7
 70
0
 10
9.917677587
 20
34.9035450241
 10
9.875457681
 20
34.9212849005
 10
9.833951825
 20
34.9319843574
 10
9.7938623165
 20
34.9354622141
 10
9.7558675184
 20
34.9316594767
 10
9.7206103592
 20
34.92064034
 10
9.7119597299
 20
34.9166100446
  0
LINE
  5
44E
100
AcDbEntity
  8
RACCORDO
100
AcDbLine
 62
7
  6
CONTINUOUS
 10
16.0375295402
 20
33.4852441507
 11
16.0178691572
 21
33.4988680877
  0
LWPOLYLINE
  5
44F
100
AcDbEntity
  8
RACCORDO
100
AcDbPolyline
 62
7
  6
CONTINUOUS
 90
25
 70
0
 10
16.0375295402
 20
33.4852441507
 10
16.0551103901
 20
33.4721460609
 10
16.0726001891
 20
33.4574281777
 10
16.0899111409
 20
33.4411458369
 10
16.1069372803
 20
33.4233558382
 10
16.123611987
 20
33.4041317645
 10
16.139907695
 20
33.3835613675
 10
16.1557415818
 20
33.3617211995
 10
16.1710322704
 20
33.3386956489
 10
16.1857560982
 20
33.3145891548
 10
16.1998363933
 20
33.2894945447
 10
16.2131989409
 20
33.2635082661
 10
16.2258263089
 20
33.2367448623
 10
16.2376532481
 20
33.2093049712
 10
16.248611268
 20
33.181300174
 10
16.258682752
 20
33.1528660663
 10
16.2678139675
 20
33.1241183935
 10
16.2759503905
 20
33.095172366
 10
16.2830805202
 20
33.066166405
 10
16.2891671315
 20
33.0372186507
 10
16.2941689248
 20
33.0084513662
 10
16.2980781731
 20
32.9800101549
 10
16.3008792778
 20
32.9520233023
 10
16.3025469464
 20
32.9246014834
 10
16.3030693607
 20
32.8978620457
  0
LWPOLYLINE
  5
450
100
AcDbEntity
  8
RACCORDO
100
AcDbPolyline
 62
7
  6
CONTINUOUS
 90
49
 70
0
 10
15.1082693555
 20
37.7602011894
 10
14.3402740127
 20
38.1257113898
 10
13.5386972715
 20
38.4711775947
 10
12.7054917979
 20
38.7958900256
 10
11.8426512567
 20
39.0991893173
 10
10.9522514592
 20
39.380450558
 10
10.0364841728
 20
39.6390786357
 10
9.0976167385
 20
39.8745274122
 10
8.1378258774
 20
40.0863370642
 10
7.1592761607
 20
40.2741002353
 10
6.1643134408
 20
40.4374266863
 10
5.1552750912
 20
40.5759872632
 10
4.1343733359
 20
40.6895201506
 10
3.1040026282
 20
40.7777894663
 10
2.0666046118
 20
40.840612579
 10
1.0244951775
 20
40.8778679398
 10
-0.0198726596
 20
40.8894784948
 10
-1.0640449809
 20
40.8754242966
 10
-2.1056968285
 20
40.8357358479
 10
-3.1423786697
 20
40.7704975991
 10
-4.1716526902
 20
40.6798506799
 10
-5.1912302455
 20
40.5639757134
 10
-6.1987153628
 20
40.4231148219
 10
-7.1917249687
 20
40.2575668201
 10
-8.168035749
 20
40.0676586426
 10
-9.1253366733
 20
39.8537857336
 10
-10.061356611
 20
39.616395492
 10
-10.9740060284
 20
39.3559448347
 10
-11.8611258485
 20
39.0729613935
 10
-12.7205692466
 20
38.768032207
 10
-13.5503709956
 20
38.4417414853
 10
-14.3486197264
 20
38.0947029281
 10
-15.1132712627
 20
37.7276518296
 10
-15.8423333518
 20
37.341389059
 10
-16.5342250164
 20
36.9365696844
 10
-17.1870434265
 20
36.5140988813
 10
-17.7986380237
 20
36.0752063591
 10
-18.3678950773
 20
35.6205222864
 10
-18.8931318624
 20
35.1511846302
 10
-19.3719770253
 20
34.6693032497
 10
-19.8035590122
 20
34.1759370874
 10
-20.187143197
 20
33.6720936929
 10
-20.5213452596
 20
33.1599775277
 10
-20.8057141349
 20
32.6410238668
 10
-21.0401794229
 20
32.1161992416
 10
-21.2244405401
 20
31.58721458
 10
-21.3584978952
 20
31.0556167608
 10
-21.4425660477
 20
30.5227027587
 10
-21.4769369041
 20
29.9899474347
  0
LWPOLYLINE
  5
451
100
AcDbEntity
  8
RACCORDO
100
AcDbPolyline
 62
250
  6
CONTINUOUS
 90
88
 70
0
 10
14.8846625577
 20
37.7460002958
 10
14.6053562447
 20
37.8837974659
 10
14.3125492333
 20
38.0220141496
 10
14.0062415235
 20
38.1606503471
 10
13.6876759637
 20
38.2996913183
 10
13.3556097056
 20
38.4391518032
 10
13.0063142037
 20
38.5790760218
 10
12.6398819857
 20
38.7196618499
 10
12.2562205239
 20
38.8607114118
 10
11.8513236899
 20
39.0016753008
 10
11.4252746139
 20
39.1427849878
 10
10.9779901656
 20
39.283809002
 10
10.5052148259
 20
39.4235035246
 10
10.0069555134
 20
39.5621581783
 10
9.4832053094
 20
39.6994833403
 10
8.9296879386
 20
39.8333663237
 10
8.3462798683
 20
39.9641599282
 10
7.7331046311
 20
40.0915113541
 10
7.0862565491
 20
40.2122495148
 10
6.4050770206
 20
40.3268062947
 10
5.6902246472
 20
40.4347498096
 10
4.9397695569
 20
40.5316133198
 10
4.1507619225
 20
40.6177452388
 10
3.3261515712
 20
40.6927971531
 10
2.4728581113
 20
40.7512570835
 10
1.589027716
 20
40.7927328888
 10
0.6765142123
 20
40.8176167102
 10
-0.2522013115
 20
40.8215729917
 10
-1.1977743007
 20
40.8038267804
 10
-2.1595493098
 20
40.7651530292
 10
-3.1230789138
 20
40.7035410412
 10
-4.0884369982
 20
40.6180959648
 10
-5.0555496775
 20
40.5097126516
 10
-6.0097478699
 20
40.3790649587
 10
-6.9489557209
 20
40.2257768229
 10
-7.8752490849
 20
40.0502243073
 10
-8.7801864429
 20
39.8542094586
 10
-9.662123592
 20
39.6379197823
 10
-10.5227047351
 20
39.4011677729
 10
-11.3584209619
 20
39.1451929598
 10
-12.1696723897
 20
38.8698427935
 10
-12.9560589012
 20
38.5752698237
 10
-13.7128712341
 20
38.2631712291
 10
-14.4403214122
 20
37.9332262069
 10
-15.1381974118
 20
37.58575556
 10
-15.801153899
 20
37.2234188756
 10
-16.4285598888
 20
36.8463086289
 10
-17.0210463662
 20
36.4543323447
 10
-17.5751609527
 20
36.0498721845
 10
-18.0905691525
 20
35.6331476619
 10
-18.5676054613
 20
35.2039392633
 10
-19.0038209874
 20
34.7639706098
 10
-19.3995987827
 20
34.312454775
 10
-19.7545557954
 20
33.8501786852
 10
-20.0650939778
 20
33.3812267412
 10
-20.3305179207
 20
32.904545581
 10
-20.5515230333
 20
32.4211885666
 10
-20.7265974964
 20
31.9384001837
 10
-20.8539697046
 20
31.4561787271
 10
-20.9354112633
 20
30.9745259022
 10
-20.9747251693
 20
30.5006913109
 10
-20.9703404466
 20
30.0349853951
 10
-20.9238280712
 20
29.577097713
 10
-20.8437039681
 20
29.1333465406
 10
-20.7291339162
 20
28.7046312415
 10
-20.5809521367
 20
28.290052452
 10
-20.4101772177
 20
27.893230358
 10
-20.2174554869
 20
27.5156440174
 10
-20.0021406167
 20
27.1558143723
 10
-19.7733122123
 20
26.8129244339
 10
-19.5318469197
 20
26.4873489937
 10
-19.2768680929
 20
26.1787132602
 10
-19.0148253997
 20
25.885075871
 10
-18.7464324408
 20
25.6065036139
 10
-18.4709756155
 20
25.3429297012
 10
-18.1927637887
 20
25.0922124068
 10
-17.912381896
 20
24.8543494308
 10
-17.629245002
 20
24.6293430732
 10
-17.3459071654
 20
24.4150585084
 10
-17.0628365446
 20
24.2114549972
 10
-16.7795649814
 20
24.0185732788
 10
-16.49724206
 20
23.8344007443
 10
-16.2162762363
 20
23.6588956253
 10
-15.9362590544
 20
23.4920996903
 10
-15.657114731
 20
23.3321256359
 10
-15.378818005
 20
23.1783443609
 10
-15.1013941374
 20
23.0313849665
 10
-14.8248431283
 20
22.8912474528
  0
LINE
  5
452
100
AcDbEntity
  8
RACCORDO
100
AcDbLine
 62
250
  6
CONTINUOUS
 10
15.1612135668
 20
37.605862782
 11
14.8846625577
 21
37.7460002958
  0
ARC
  5
453
100
AcDbEntity
  8
C_COMPONENTE
100
AcDbCircle
 62
7
  6
CONTINUOUS
 10
6.747424136
 20
-31.6209343604
 40
2.5
100
AcDbArc
 50
198.8635906611
 51
341.1364093389
  0
ARC
  5
454
100
AcDbEntity
  8
C_COMPONENTE
100
AcDbCircle
 62
7
  6
CONTINUOUS
 10
-6.6876047066
 20
-38.3384487817
 40
2.5
100
AcDbArc
 50
198.8635906611
 51
341.1364093389
  0
ARC
  5
455
100
AcDbEntity
  8
RACCORDO
100
AcDbCircle
 62
7
  6
CONTINUOUS
 10
-5.1879773413
 20
-27.8023563527
 40
1.0
100
AcDbArc
 50
243.4349488229
 51
260.9058836678
  0
ARC
  5
456
100
AcDbEntity
  8
RACCORDO
100
AcDbCircle
 62
7
  6
CONTINUOUS
 10
-16.2727191425
 20
-22.2599854521
 40
1.0
100
AcDbArc
 50
212.6244577965
 51
243.4296747821
  0
ELLIPSE
  5
457
100
AcDbEntity
  8
0
100
AcDbEllipse
 62
7
  6
CONTINUOUS
 10
8.2698797619
 20
-6.4588296808
 30
0.0
 11
-0.6910236518
 21
2.6112360541
 31
0.0
 40
0.6765579295
 41
-2.4429784054
 42
-2.0195314233
  0
ELLIPSE
  5
458
100
AcDbEntity
  8
RACCORDO
100
AcDbEllipse
 62
7
  6
CONTINUOUS
 10
16.3296796184
 20
-4.0364121234
 30
0.0
 11
4.0580856253
 21
5.2485558483
 31
0.0
 40
0.7002176917
 41
2.8960404675
 42
3.0376110406
  0
ELLIPSE
  5
459
100
AcDbEntity
  8
RACCORDO
100
AcDbEllipse
 62
7
  6
CONTINUOUS
 10
9.8412241408
 20
-9.6493055374
 30
0.0
 11
0.7455034074
 21
1.0544051887
 31
0.0
 40
0.6829678726
 41
0.997013134
 42
2.4217712152
  0
ELLIPSE
  5
45A
100
AcDbEntity
  8
RACCORDO
100
AcDbEllipse
 62
7
  6
CONTINUOUS
 10
9.8412241408
 20
-9.6493055374
 30
0.0
 11
0.7455034074
 21
1.0544051887
 31
0.0
 40
0.6829678726
 41
0.0848406735
 42
0.5374690942
  0
ELLIPSE
  5
45B
100
AcDbEntity
  8
DRAFT
100
AcDbEllipse
 62
7
  6
CONTINUOUS
 10
9.5758512607
 20
-9.8007022484
 30
0.0
 11
1.7564728007
 21
3.3700739901
 31
0.0
 40
0.6035364256
 41
2.2656637127
 42
3.8364600395
  0
ELLIPSE
  5
45C
100
AcDbEntity
  8
DRAFT
100
AcDbEllipse
 62
7
  6
CONTINUOUS
 10
27.9606275716
 20
-0.608314093
 30
0.0
 11
1.7564728007
 21
3.3700739901
 31
0.0
 40
0.6035364256
 41
-2.4467252677
 42
-0.8759289409
  0
ELLIPSE
  5
45D
100
AcDbEntity
  8
RACCORDO
100
AcDbEllipse
 62
7
  6
CONTINUOUS
 10
-9.3037920848
 20
-25.744448981
 30
0.0
 11
0.4622296844
 21
0.8868615763
 31
0.0
 40
0.6035364256
 41
-4.000068302
 42
-3.1314444722
  0
ELLIPSE
  5
45E
100
AcDbEntity
  8
DRAFT
100
AcDbEllipse
 62
7
  6
CONTINUOUS
 10
9.5758512607
 20
-9.8007022484
 30
0.0
 11
1.6401760253
 21
3.4281931536
 31
0.0
 40
0.6209844714
 41
0.6739144266
 42
2.2447107534
  0
ELLIPSE
  5
45F
100
AcDbEntity
  8
DRAFT
100
AcDbEllipse
 62
7
  6
CONTINUOUS
 10
27.9606275716
 20
-0.608314093
 30
0.0
 11
1.6401760253
 21
3.4281931536
 31
0.0
 40
0.6209844714
 41
-0.8968819002
 42
0.6739144266
  0
ELLIPSE
  5
460
100
AcDbEntity
  8
DRAFT
100
AcDbEllipse
 62
7
  6
CONTINUOUS
 10
0.2713487598
 20
17.1099598377
 30
0.0
 11
19.5351810319
 21
-12.0737417037
 31
0.0
 40
0.0815186111
 41
-2.1565367665
 42
-2.115038934
  0
ENDSEC
  0
SECTION
  2
OBJECTS
  0
DICTIONARY
  5
C
100
AcDbDictionary
280
0
281
1
  3
ACAD_GROUP
350
D
  3
ACAD_MLINESTYLE
350
17
  3
ACAD_LAYOUT
350
1A
  3
ACAD_PLOTSETTINGS
350
19
  3
ACAD_PLOTSTYLENAME
350
E
  0
DICTIONARY
  5
D
102
{ACAD_REACTORS
330
C
102
}
100
AcDbDictionary
280
0
281
1
  0
ACDBDICTIONARYWDFLT
  5
E
102
{ACAD_REACTORS
330
C
102
}
100
AcDbDictionary
281
1
  3
Normal
350
F
100
AcDbDictionaryWithDefault
340
F
  0
DICTIONARY
  5
17
102
{ACAD_REACTORS
330
C
102
}
100
AcDbDictionary
280
0
281
1
  3
Standard
350
18
  0
DICTIONARY
  5
19
102
{ACAD_REACTORS
330
C
102
}
100
AcDbDictionary
281
1
  0
DICTIONARY
  5
1A
102
{ACAD_REACTORS
330
C
102
}
100
AcDbDictionary
281
1
  3
Model
350
461
  3
Layout1
350
462
  0
ACDBPLACEHOLDER
  5
F
102
{ACAD_REACTORS
330
E
102
}
  0
MLINESTYLE
  5
18
102
{ACAD_REACTORS
330
17
102
}
100
AcDbMlineStyle
  2
STANDARD
 70
0
  3

 62
256
 51
90.0
 52
90.0
 71
2
 49
0.5
 62
256
  6
BYLAYER
 49
-0.5
 62
256
  6
BYLAYER
  0
LAYOUT
  5
461
102
{ACAD_REACTORS
330
1A
102
}
100
AcDbPlotSettings
  1

  2
none_device
  4
ANSI_C_(22.00_x_17.00_Inches)
  6

 40
0.0
 41
0.0
 42
0.0
 43
0.0
 44
558.8
 45
431.8
 46
0.0
 47
0.0
 48
0.0
 49
0.0
140
0.0
141
0.0
142
1.0
143
1.0
 70
1024
 72
1
 73
0
 74
0
  7

 75
0
147
1.0
148
0.0
149
0.0
100
AcDbLayout
  1
Model
 70
0
 71
0
 10
0.0
 20
0.0
 11
558.8
 21
431.8
 12
0.0
 22
0.0
 32
0.0
 14
0.0
 24
0.0
 34
0.0
 15
0.0
 25
0.0
 35
0.0
146
0.0
 13
0.0
 23
0.0
 33
0.0
 16
1.0
 26
0.0
 36
0.0
 17
0.0
 27
1.0
 37
0.0
 76
0
330
221
345
0
346
0
  0
LAYOUT
  5
462
102
{ACAD_REACTORS
330
1A
102
}
100
AcDbPlotSettings
  1

  2
none_device
  4
ANSI_C_(22.00_x_17.00_Inches)
  6

 40
0.0
 41
0.0
 42
0.0
 43
0.0
 44
558.8
 45
431.8
 46
0.0
 47
0.0
 48
0.0
 49
0.0
140
0.0
141
0.0
142
1.0
143
1.0
 70
0
 72
1
 73
0
 74
0
  7

 75
0
147
1.0
148
0.0
149
0.0
100
AcDbLayout
  1
Layout1
 70
0
 71
1
 10
0.0
 20
0.0
 11
558.8
 21
431.8
 12
0.0
 22
0.0
 32
0.0
 14
0.0
 24
0.0
 34
0.0
 15
0.0
 25
0.0
 35
0.0
146
0.0
 13
0.0
 23
0.0
 33
0.0
 16
1.0
 26
0.0
 36
0.0
 17
0.0
 27
1.0
 37
0.0
 76
0
330
222
345
0
346
0
  0
ENDSEC
  0
EOF
