  0
SECTION
  2
HEADER
  9
$ACADVER
  1
AC1015
  9
$DWGCODEPAGE
  3
ANSI_1252
  9
$EXTMAX
 10
297.0
 20
210.0
 30
0.0
  9
$EXTMIN
 10
0.0
 20
0.0
 30
0.0
  9
$LIMMIN
 10
0.0
 20
0.0
  9
$LIMMAX
 10
297.0
 20
210.0
  9
$VIEWCTR
 10
148.5
 20
105.0
  9
$VIEWSIZE
 40
210.0
  9
$CLAYER
  8
0
  9
$LTSCALE
 40
16.335
  9
$CELTYPE
  6
BYLAYER
  9
$DIMSCALE
 40
1.0
  9
$DIMASZ
 40
3.0
  9
$DIMEXO
 40
1.85625
  9
$DIMDLI
 40
11.286
  9
$DIMEXE
 40
5.346
  9
$DIMCEN
 40
2.673
  9
$DIMLFAC
 40
1.0
  9
$DIMBLK
  1
_FILLED
  9
$DIMTXT
 40
3.0
  9
$DIMTOL
 70
1
  9
$DIMLIM
 70
0
  9
$DIMTFAC
 40
1.0
  9
$DIMTP
 40
0.01
  9
$DIMTM
 40
0.01
  9
$PDMODE
 70
3
  9
$PDSIZE
 40
3.0
  9
$HANDSEED
  5
32A
  9
$TILEMODE
 70
1
  9
$MEASUREMENT
 70
1
  9
$INSUNITS
 70
4
  0
ENDSEC
  0
SECTION
  2
CLASSES
  0
CLASS
  1
ACDBDICTIONARYWDFLT
  2
AcDbDictionaryWithDefault
  3
AutoCAD 2000
 90
0
280
0
281
0
  0
CLASS
  1
ACDBPLACEHOLDER
  2
AcDbPlaceHolder
  3
AutoCAD 2000
 90
0
280
0
281
0
  0
CLASS
  1
LAYOUT
  2
AcDbLayout
  3
AutoCAD 2000
 90
0
280
0
281
0
  0
ENDSEC
  0
SECTION
  2
TABLES
  0
TABLE
  2
VPORT
  5
8
100
AcDbSymbolTable
 70
2
  0
VPORT
  5
1F4
100
AcDbSymbolTableRecord
100
AcDbViewportTableRecord
  2
*ACTIVE
 70
0
 10
0.0
 20
0.0
 11
1.0
 21
1.0
 12
148.5
 22
105.0
 13
0.0
 23
0.0
 14
1.0
 24
1.0
 15
0.0
 25
0.0
 16
0.0
 26
0.0
 36
1.0
 17
0.0
 27
0.0
 37
0.0
 40
210.0
 41
1.4142857143
 42
50.0
 43
0.0
 44
0.0
 50
0.0
 51
0.0
 71
0
 72
100
 73
1
 74
1
 75
0
 76
0
 77
0
 78
0
  0
ENDTAB
  0
TABLE
  2
LTYPE
  5
5
100
AcDbSymbolTable
 70
6
  0
LTYPE
  5
14
100
AcDbSymbolTableRecord
100
AcDbLinetypeTableRecord
  2
BYBLOCK
 70
0
  3

 72
65
 73
0
 40
0.0
  0
LTYPE
  5
15
100
AcDbSymbolTableRecord
100
AcDbLinetypeTableRecord
  2
BYLAYER
 70
0
  3

 72
65
 73
0
 40
0.0
  0
LTYPE
  5
16
100
AcDbSymbolTableRecord
100
AcDbLinetypeTableRecord
  2
CONTINUOUS
 70
64
  3
Solid line
 72
65
 73
0
 40
0.0
  0
LTYPE
  5
1F5
100
AcDbSymbolTableRecord
100
AcDbLinetypeTableRecord
  2
CENTER
 70
64
  3
____ _ ____ _ ____ _ ____ _ ____ _ ____ _ ____
 72
65
 73
4
 40
0.6
 49
0.375
 74
0
 49
-0.075
 74
0
 49
0.075
 74
0
 49
-0.075
 74
0
  0
LTYPE
  5
1F6
100
AcDbSymbolTableRecord
100
AcDbLinetypeTableRecord
  2
HIDDEN
 70
64
  3
- - - - - - - - - - - - - - - - - - - -
 72
65
 73
2
 40
0.2
 49
0.1
 74
0
 49
-0.1
 74
0
  0
LTYPE
  5
1F7
100
AcDbSymbolTableRecord
100
AcDbLinetypeTableRecord
  2
PHANTOM
 70
64
  3
_____ _ _ _____ _ _ _____ _ _ _____
 72
65
 73
6
 40
0.8
 49
0.45
 74
0
 49
-0.05
 74
0
 49
0.1
 74
0
 49
-0.05
 74
0
 49
0.1
 74
0
 49
-0.05
 74
0
  0
LTYPE
  5
1F8
100
AcDbSymbolTableRecord
100
AcDbLinetypeTableRecord
  2
DOT
 70
64
  3
. . . . . . . . . . . . . . . . . . . .
 72
65
 73
2
 40
0.2
 49
0.1
 74
0
 49
-0.1
 74
0
  0
LTYPE
  5
1F9
100
AcDbSymbolTableRecord
100
AcDbLinetypeTableRecord
  2
DASHED
 70
64
  3
- - - - - - - - - - - - - - - - - - - -
 72
65
 73
2
 40
0.2
 49
0.1
 74
0
 49
-0.1
 74
0
  0
ENDTAB
  0
TABLE
  2
LAYER
  5
2
100
AcDbSymbolTable
 70
36
  0
LAYER
  5
10
100
AcDbSymbolTableRecord
100
AcDbLayerTableRecord
  2
0
 70
0
 62
7
  6
CONTINUOUS
370
-3
390
F
  0
LAYER
  5
1FA
100
AcDbSymbolTableRecord
100
AcDbLayerTableRecord
  2
DEFAULT_1
 70
0
 62
7
  6
CENTER
370
-3
390
F
  0
LAYER
  5
1FB
100
AcDbSymbolTableRecord
100
AcDbLayerTableRecord
  2
DEFAULT_2
 70
0
 62
7
  6
HIDDEN
370
-3
390
F
  0
LAYER
  5
1FC
100
AcDbSymbolTableRecord
100
AcDbLayerTableRecord
  2
DEFAULT_3
 70
0
 62
7
  6
PHANTOM
370
-3
390
F
  0
LAYER
  5
1FD
100
AcDbSymbolTableRecord
100
AcDbLayerTableRecord
  2
ASSI
 70
0
 62
7
  6
CONTINUOUS
370
-3
390
F
  0
LAYER
  5
1FE
100
AcDbSymbolTableRecord
100
AcDbLayerTableRecord
  2
COLOR5
 70
0
 62
7
  6
CONTINUOUS
370
-3
390
F
  0
LAYER
  5
1FF
100
AcDbSymbolTableRecord
100
AcDbLayerTableRecord
  2
COORDINATE
 70
0
 62
7
  6
CONTINUOUS
370
-3
390
F
  0
LAYER
  5
200
100
AcDbSymbolTableRecord
100
AcDbLayerTableRecord
  2
COORD_ORIGINE
 70
0
 62
7
  6
CONTINUOUS
370
-3
390
F
  0
LAYER
  5
201
100
AcDbSymbolTableRecord
100
AcDbLayerTableRecord
  2
CURVE
 70
0
 62
7
  6
CONTINUOUS
370
-3
390
F
  0
LAYER
  5
202
100
AcDbSymbolTableRecord
100
AcDbLayerTableRecord
  2
DRAFT
 70
0
 62
7
  6
CONTINUOUS
370
-3
390
F
  0
LAYER
  5
203
100
AcDbSymbolTableRecord
100
AcDbLayerTableRecord
  2
IMPORT
 70
0
 62
7
  6
CONTINUOUS
370
-3
390
F
  0
LAYER
  5
204
100
AcDbSymbolTableRecord
100
AcDbLayerTableRecord
  2
NOTE
 70
0
 62
7
  6
CONTINUOUS
370
-3
390
F
  0
LAYER
  5
205
100
AcDbSymbolTableRecord
100
AcDbLayerTableRecord
  2
PIANI
 70
0
 62
7
  6
CONTINUOUS
370
-3
390
F
  0
LAYER
  5
206
100
AcDbSymbolTableRecord
100
AcDbLayerTableRecord
  2
PIANI_ORIGINE
 70
0
 62
7
  6
CONTINUOUS
370
-3
390
F
  0
LAYER
  5
207
100
AcDbSymbolTableRecord
100
AcDbLayerTableRecord
  2
PUNTI
 70
0
 62
7
  6
CONTINUOUS
370
-3
390
F
  0
LAYER
  5
208
100
AcDbSymbolTableRecord
100
AcDbLayerTableRecord
  2
RACCORDO
 70
0
 62
7
  6
CONTINUOUS
370
-3
390
F
  0
LAYER
  5
209
100
AcDbSymbolTableRecord
100
AcDbLayerTableRecord
  2
SNAPLINE
 70
0
 62
7
  6
CONTINUOUS
370
-3
390
F
  0
LAYER
  5
20A
100
AcDbSymbolTableRecord
100
AcDbLayerTableRecord
  2
SUPERFICI
 70
0
 62
7
  6
CONTINUOUS
370
-3
390
F
  0
LAYER
  5
20B
100
AcDbSymbolTableRecord
100
AcDbLayerTableRecord
  2
TRASH
 70
0
 62
7
  6
CONTINUOUS
370
-3
390
F
  0
LAYER
  5
20C
100
AcDbSymbolTableRecord
100
AcDbLayerTableRecord
  2
XSEC_DATUMS
 70
0
 62
7
  6
CONTINUOUS
370
-3
390
F
  0
ENDTAB
  0
TABLE
  2
STYLE
  5
3
100
AcDbSymbolTable
 70
1
  0
STYLE
  5
11
100
AcDbSymbolTableRecord
100
AcDbTextStyleTableRecord
  2
STANDARD
 70
0
 40
0.0
 41
0.8
 50
0.0
 71
0
 42
0.2
  3
txt
  4

  0
STYLE
  5
20D
100
AcDbSymbolTableRecord
100
AcDbTextStyleTableRecord
  2
TEXTSTYLE_1
 70
0
 40
0.0
 41
0.8
 50
0.0
 71
0
 42
0.2
  3
gdt
  4

  0
ENDTAB
  0
TABLE
  2
VIEW
  5
6
100
AcDbSymbolTable
 70
0
  0
ENDTAB
  0
TABLE
  2
UCS
  5
7
100
AcDbSymbolTable
 70
0
  0
ENDTAB
  0
TABLE
  2
APPID
  5
9
100
AcDbSymbolTable
 70
1
  0
APPID
  5
20E
100
AcDbSymbolTableRecord
100
AcDbRegAppTableRecord
  2
ACAD
 70
0
  0
ENDTAB
  0
TABLE
  2
BLOCK_RECORD
  5
1
100
AcDbSymbolTable
 70
0
  0
BLOCK_RECORD
  5
20F
100
AcDbSymbolTableRecord
100
AcDbBlockTableRecord
  2
*Model_Space
  0
BLOCK_RECORD
  5
210
100
AcDbSymbolTableRecord
100
AcDbBlockTableRecord
  2
*Paper_Space
  0
ENDTAB
  0
TABLE
  2
DIMSTYLE
  5
A
100
AcDbSymbolTable
 70
1
100
AcDbDimStyleTable
 71
0
  0
DIMSTYLE
105
211
100
AcDbSymbolTableRecord
100
AcDbDimStyleTableRecord
  2
STANDARD
 70
0
  3

  4

 40
1.0
 41
3.0
 42
0.0625
 43
0.38
 44
0.18
 45
0.0
 46
0.0
 47
0.01
 48
0.01
140
3.0
141
0.09
142
0.0
143
25.4
144
1.0
145
0.0
146
1.0
147
0.09
 71
1.0
 72
0.0
 73
0
 74
0
 75
0
 76
0
 77
1
 78
8
170
0
171
2
172
0
173
0
174
0
175
0
176
0
177
0
178
0
270
2
271
2
272
2
273
2
274
2
275
0
280
0
281
0
282
0
283
1
284
8
285
0
286
0
287
3
288
0
340
11
  0
ENDTAB
  0
ENDSEC
  0
SECTION
  2
BLOCKS
  0
BLOCK
  5
20
100
AcDbEntity
  8
0
100
AcDbBlockBegin
  2
*Model_Space
 70
0
 10
0.0
 20
0.0
 30
0.0
  3
*Model_Space
  1

  0
ENDBLK
  5
21
100
AcDbEntity
  8
0
100
AcDbBlockEnd
  0
BLOCK
  5
1C
100
AcDbEntity
  8
0
100
AcDbBlockBegin
  2
*Paper_Space
 70
0
 10
0.0
 20
0.0
 30
0.0
  3
*Paper_Space
  1

  0
ENDBLK
  5
1D
100
AcDbEntity
  8
0
100
AcDbBlockEnd
  0
ENDSEC
  0
SECTION
  2
ENTITIES
  0
LINE
  5
212
100
AcDbEntity
  8
RACCORDO
100
AcDbLine
 62
7
  6
CONTINUOUS
 10
-26.8367518474
 20
38.6272022684
 11
-20.8834338834
 21
44.573467803
  0
LINE
  5
213
100
AcDbEntity
  8
RACCORDO
100
AcDbLine
 62
253
  6
CONTINUOUS
 10
-26.1600829369
 20
38.7131161052
 11
-20.2174689554
 21
44.6486903374
  0
LINE
  5
214
100
AcDbEntity
  8
RACCORDO
100
AcDbLine
 62
7
  6
CONTINUOUS
 10
20.0489578604
 20
-44.6390718187
 11
-26.5027525539
 21
-25.9428555202
  0
LINE
  5
215
100
AcDbEntity
  8
RACCORDO
100
AcDbLine
 62
253
  6
CONTINUOUS
 10
19.8505561617
 20
-44.2575728714
 11
-26.7009739975
 21
-25.5614288798
  0
LINE
  5
216
100
AcDbEntity
  8
RACCORDO
100
AcDbLine
 62
253
  6
CONTINUOUS
 10
-26.5027498913
 20
-25.9428565895
 11
-26.5030049163
 21
-25.9427539852
  0
LWPOLYLINE
  5
217
100
AcDbEntity
  8
RACCORDO
100
AcDbPolyline
 62
7
  6
CONTINUOUS
 90
15
 70
0
 10
-27.3671501733
 20
33.6819676149
 10
-27.5790933226
 20
29.2723367611
 10
-27.755771572
 20
24.8909959082
 10
-27.8971443902
 20
20.5387652743
 10
-28.0031895983
 20
16.2163388094
 10
-28.0738879999
 20
11.9243623578
 10
-28.1092216782
 20
7.6635149705
 10
-28.1091832366
 20
3.4345305829
 10
-28.0737682019
 20
-0.7618624793
 10
-28.0029749292
 20
-4.9249354819
 10
-27.8968122619
 20
-9.0540340532
 10
-27.7552903404
 20
-13.1485413766
 10
-27.5784221104
 20
-17.2077979427
 10
-27.3662388456
 20
-21.2310503018
 10
-27.1278663087
 20
-25.0811587662
  0
LINE
  5
218
100
AcDbEntity
  8
RACCORDO
100
AcDbLine
 62
7
  6
CONTINUOUS
 10
-27.1282803868
 20
37.9793806
 11
-27.3671501733
 21
33.6819676149
  0
LINE
  5
219
100
AcDbEntity
  8
RACCORDO
100
AcDbLine
 62
7
  6
CONTINUOUS
 10
-13.8182245597
 20
18.2160021456
 11
-13.8181820334
 21
18.2160303352
  0
LWPOLYLINE
  5
21A
100
AcDbEntity
  8
RACCORDO
100
AcDbPolyline
 62
7
  6
CONTINUOUS
 90
7
 70
0
 10
-13.8182732814
 20
18.2159611574
 10
-13.8088830179
 20
18.2220252594
 10
-13.7437714288
 20
18.2562944924
 10
-13.6722957337
 20
18.2810716069
 10
-13.5949658728
 20
18.295969206
 10
-13.5123952764
 20
18.300690173
 10
-13.4257202139
 20
18.2949276302
  0
LINE
  5
21B
100
AcDbEntity
  8
RACCORDO
100
AcDbLine
 62
253
  6
CONTINUOUS
 10
4.7224551429
 20
-26.0726287046
 11
-12.9656037162
 21
-18.9687054988
  0
LINE
  5
21C
100
AcDbEntity
  8
RACCORDO
100
AcDbLine
 62
253
  6
CONTINUOUS
 10
4.8053504417
 20
-25.8749568115
 11
-12.8827084175
 21
-18.7710336057
  0
LINE
  5
21D
100
AcDbEntity
  8
DRAFT
100
AcDbLine
 62
7
  6
CONTINUOUS
 10
-12.0171255548
 20
-18.1375126162
 11
5.4841129049
 21
-25.1664045378
  0
LINE
  5
21E
100
AcDbEntity
  8
DRAFT
100
AcDbLine
 62
7
  6
CONTINUOUS
 10
-9.6093473945
 20
16.0234831473
 11
-10.7565002672
 21
15.0551938223
  0
LINE
  5
21F
100
AcDbEntity
  8
RACCORDO
100
AcDbLine
 62
7
  6
CONTINUOUS
 10
-10.7565002672
 20
15.0551938223
 11
-11.7248539494
 21
14.3473535509
  0
LINE
  5
220
100
AcDbEntity
  8
RACCORDO
100
AcDbLine
 62
7
  6
CONTINUOUS
 10
-10.7565002672
 20
14.236041778
 11
-11.7248539494
 21
13.5720969033
  0
LINE
  5
221
100
AcDbEntity
  8
DRAFT
100
AcDbLine
 62
7
  6
CONTINUOUS
 10
-11.398624085
 20
-16.6099460533
 11
5.5139225203
 21
-23.4024060544
  0
LINE
  5
222
100
AcDbEntity
  8
DRAFT
100
AcDbLine
 62
7
  6
CONTINUOUS
 10
-10.6233163952
 20
-15.9629061256
 11
5.6992556071
 21
-22.5184190256
  0
LINE
  5
223
100
AcDbEntity
  8
DRAFT
100
AcDbLine
 62
7
  6
CONTINUOUS
 10
-9.901390609
 20
-16.1702695641
 11
-9.8554330185
 21
-16.1887271686
  0
LINE
  5
224
100
AcDbEntity
  8
DRAFT
100
AcDbLine
 62
7
  6
CONTINUOUS
 10
-9.2961549343
 20
-15.6257146101
 11
-8.9629845245
 21
-15.7595233578
  0
LINE
  5
225
100
AcDbEntity
  8
RACCORDO
100
AcDbLine
 62
7
  6
CONTINUOUS
 10
-11.2371063349
 20
-15.334589529
 11
-14.2712544648
 21
-12.2269393583
  0
LINE
  5
226
100
AcDbEntity
  8
DRAFT
100
AcDbLine
 62
7
  6
CONTINUOUS
 10
-9.8554330185
 20
-13.8541438423
 11
5.7495462961
 21
-20.1214553411
  0
LINE
  5
227
100
AcDbEntity
  8
DRAFT
100
AcDbLine
 62
7
  6
CONTINUOUS
 10
-11.398624085
 20
-16.6099460533
 11
-11.398624085
 21
-18.3859167503
  0
LINE
  5
228
100
AcDbEntity
  8
DRAFT
100
AcDbLine
 62
7
  6
CONTINUOUS
 10
-10.7565002672
 20
17.2540956349
 11
-10.7565002672
 21
15.0551938223
  0
LINE
  5
229
100
AcDbEntity
  8
DRAFT
100
AcDbLine
 62
7
  6
CONTINUOUS
 10
-10.7565002672
 20
14.236041778
 11
-10.7565002672
 21
-15.2096123184
  0
LINE
  5
22A
100
AcDbEntity
  8
DRAFT
100
AcDbLine
 62
7
  6
CONTINUOUS
 10
-2.9401431785
 20
12.2319643284
 11
-2.668619797
 21
12.4597756986
  0
LINE
  5
22B
100
AcDbEntity
  8
DRAFT
100
AcDbLine
 62
7
  6
CONTINUOUS
 10
-4.2144968612
 20
10.7292169126
 11
-3.3624807711
 21
11.4440686197
  0
LINE
  5
22C
100
AcDbEntity
  8
DRAFT
100
AcDbLine
 62
253
  6
CONTINUOUS
 10
-3.1386412633
 20
10.8117828444
 11
-2.2782766088
 21
11.5272752574
  0
LINE
  5
22D
100
AcDbEntity
  8
RACCORDO
100
AcDbLine
 62
253
  6
CONTINUOUS
 10
-2.979643642
 20
12.2790442177
 11
-2.978136001
 21
12.2802224911
  0
LINE
  5
22E
100
AcDbEntity
  8
DRAFT
100
AcDbLine
 62
7
  6
CONTINUOUS
 10
-9.8554330185
 20
-13.8541438423
 11
-9.8554330185
 21
-16.1887271686
  0
LINE
  5
22F
100
AcDbEntity
  8
DRAFT
100
AcDbLine
 62
7
  6
CONTINUOUS
 10
-9.6093473945
 20
15.6639513576
 11
-9.6093473945
 21
16.7933731793
  0
LINE
  5
230
100
AcDbEntity
  8
DRAFT
100
AcDbLine
 62
7
  6
CONTINUOUS
 10
-9.568729803
 20
13.7590063819
 11
-9.568729803
 21
16.7770602388
  0
LINE
  5
231
100
AcDbEntity
  8
RACCORDO
100
AcDbLine
 62
7
  6
CONTINUOUS
 10
-9.2961549343
 20
-16.0333688918
 11
-9.2961549343
 21
-14.0787625296
  0
LINE
  5
232
100
AcDbEntity
  8
DRAFT
100
AcDbLine
 62
253
  6
CONTINUOUS
 10
-0.6811851305
 20
9.8248130594
 11
0.179179524
 21
10.5403054724
  0
LINE
  5
233
100
AcDbEntity
  8
DRAFT
100
AcDbLine
 62
7
  6
CONTINUOUS
 10
5.6160426265
 20
-10.6475887483
 11
-10.7565002672
 21
-4.0720064118
  0
LINE
  5
234
100
AcDbEntity
  8
RACCORDO
100
AcDbLine
 62
7
  6
CONTINUOUS
 10
-10.7565002672
 20
-3.3860972258
 11
5.6146929089
 21
-9.9611374852
  0
LINE
  5
235
100
AcDbEntity
  8
RACCORDO
100
AcDbLine
 62
253
  6
CONTINUOUS
 10
-4.5300097012
 20
-5.4088613911
 11
-8.6257699226
 21
-3.7639117494
  0
LINE
  5
236
100
AcDbEntity
  8
DRAFT
100
AcDbLine
 62
7
  6
CONTINUOUS
 10
0.3808390102
 20
7.132377869
 11
1.249444898
 21
7.8269771725
  0
LINE
  5
237
100
AcDbEntity
  8
DRAFT
100
AcDbLine
 62
7
  6
CONTINUOUS
 10
1.1212739384
 20
7.2799898447
 11
1.4009757159
 21
7.5036593622
  0
LINE
  5
238
100
AcDbEntity
  8
RACCORDO
100
AcDbLine
 62
253
  6
CONTINUOUS
 10
-4.3891181644
 20
-5.0886929798
 11
-8.4848783858
 21
-3.4437433381
  0
LINE
  5
239
100
AcDbEntity
  8
DRAFT
100
AcDbLine
 62
7
  6
CONTINUOUS
 10
-7.4786170499
 20
-2.5943778063
 11
-3.3828568285
 21
-4.239327448
  0
LINE
  5
23A
100
AcDbEntity
  8
DRAFT
100
AcDbLine
 62
7
  6
CONTINUOUS
 10
-9.6093473945
 20
15.6639513576
 11
-9.568729803
 21
15.5341907528
  0
LINE
  5
23B
100
AcDbEntity
  8
RACCORDO
100
AcDbLine
 62
253
  6
CONTINUOUS
 10
-8.4848783858
 20
-3.4437433381
 11
-7.4786170499
 21
-2.5943778063
  0
LINE
  5
23C
100
AcDbEntity
  8
RACCORDO
100
AcDbLine
 62
253
  6
CONTINUOUS
 10
20.3914516401
 20
20.0169703393
 11
27.2955948522
 21
25.5663727553
  0
LINE
  5
23D
100
AcDbEntity
  8
RACCORDO
100
AcDbLine
 62
253
  6
CONTINUOUS
 10
21.2094799756
 20
18.8704009797
 11
28.1136242771
 21
24.4198042714
  0
LINE
  5
23E
100
AcDbEntity
  8
RACCORDO
100
AcDbLine
 62
253
  6
CONTINUOUS
 10
-4.3891181644
 20
-5.0886929798
 11
-3.3828568285
 21
-4.239327448
  0
LWPOLYLINE
  5
23F
100
AcDbEntity
  8
RACCORDO
100
AcDbPolyline
 62
7
  6
CONTINUOUS
 90
3
 70
0
 10
5.8992985273
 20
9.7613187658
 10
5.9072147576
 20
9.66152479
 10
5.90718799
 20
9.5997414038
  0
LINE
  5
240
100
AcDbEntity
  8
DRAFT
100
AcDbLine
 62
7
  6
CONTINUOUS
 10
5.5139225203
 20
-23.4024060544
 11
5.5139225203
 21
-25.1414205247
  0
LWPOLYLINE
  5
241
100
AcDbEntity
  8
RACCORDO
100
AcDbPolyline
 62
7
  6
CONTINUOUS
 90
8
 70
0
 10
5.7259244299
 20
-21.390967063
 10
5.7112881031
 20
-21.9932658503
 10
5.6975052101
 20
-22.5948143622
 10
5.6845757969
 20
-23.1956103812
 10
5.6724999127
 20
-23.7956515223
 10
5.661277602
 20
-24.3949355696
 10
5.650908906
 20
-24.9934604754
 10
5.6433285622
 20
-25.4652831514
  0
LINE
  5
242
100
AcDbEntity
  8
RACCORDO
100
AcDbLine
 62
7
  6
CONTINUOUS
 10
5.7538599098
 20
-20.3253555407
 11
5.7259244299
 21
-21.390967063
  0
LWPOLYLINE
  5
243
100
AcDbEntity
  8
RACCORDO
100
AcDbPolyline
 62
7
  6
CONTINUOUS
 90
4
 70
0
 10
5.6432858599
 20
-25.4654172428
 10
5.6426815303
 20
-25.4861969328
 10
5.6358183642
 20
-25.5579645786
 10
5.6215720875
 20
-25.6250230163
  0
LWPOLYLINE
  5
244
100
AcDbEntity
  8
RACCORDO
100
AcDbPolyline
 62
7
  6
CONTINUOUS
 90
10
 70
0
 10
5.9072156557
 20
9.5996389185
 10
5.8090313275
 20
6.3136022402
 10
5.7273760434
 20
2.8967984097
 10
5.6671861305
 20
-0.5007031139
 10
5.6284699021
 20
-3.8785584
 10
5.6112313947
 20
-7.2364166704
 10
5.6154713969
 20
-10.573921991
 10
5.6411906268
 20
-13.8907181573
 10
5.6883891436
 20
-17.1864511495
 10
5.7538550484
 20
-20.3282374696
  0
LINE
  5
245
100
AcDbEntity
  8
DRAFT
100
AcDbLine
 62
7
  6
CONTINUOUS
 10
-12.0171255548
 20
-18.1375126162
 11
-11.398624085
 21
-17.5799279257
  0
LINE
  5
246
100
AcDbEntity
  8
DRAFT
100
AcDbLine
 62
7
  6
CONTINUOUS
 10
-9.9188020836
 20
-16.2458549561
 11
-9.8554330185
 21
-16.1887271686
  0
LINE
  5
247
100
AcDbEntity
  8
RACCORDO
100
AcDbLine
 62
253
  6
CONTINUOUS
 10
-13.8170516836
 20
-17.5852147636
 11
-11.2371063349
 21
-15.334589529
  0
LINE
  5
248
100
AcDbEntity
  8
RACCORDO
100
AcDbLine
 62
253
  6
CONTINUOUS
 10
-12.8827084175
 20
-18.7710336057
 11
-11.398624085
 21
-17.4763869378
  0
LINE
  5
249
100
AcDbEntity
  8
RACCORDO
100
AcDbLine
 62
253
  6
CONTINUOUS
 10
-9.9662098895
 20
-16.2268149124
 11
-9.901390609
 21
-16.1702695641
  0
LINE
  5
24A
100
AcDbEntity
  8
DRAFT
100
AcDbLine
 62
7
  6
CONTINUOUS
 10
3.1247589257
 20
-6.8154459146
 11
4.1389943716
 21
-5.9439444729
  0
LINE
  5
24B
100
AcDbEntity
  8
RACCORDO
100
AcDbLine
 62
253
  6
CONTINUOUS
 10
2.0485810901
 20
-4.5633575163
 11
2.0468245423
 21
-4.56486605
  0
LINE
  5
24C
100
AcDbEntity
  8
RACCORDO
100
AcDbLine
 62
253
  6
CONTINUOUS
 10
4.7259931532
 20
-5.5783023186
 11
3.7080619079
 21
-6.4521058894
  0
LINE
  5
24D
100
AcDbEntity
  8
DRAFT
100
AcDbLine
 62
7
  6
CONTINUOUS
 10
-10.6233163952
 20
-15.9629061256
 11
-11.398624085
 21
-16.6099460533
  0
LINE
  5
24E
100
AcDbEntity
  8
DRAFT
100
AcDbLine
 62
7
  6
CONTINUOUS
 10
-9.2961549343
 20
-15.0310864908
 11
-8.5178332568
 21
-14.3913540621
  0
LINE
  5
24F
100
AcDbEntity
  8
DRAFT
100
AcDbLine
 62
7
  6
CONTINUOUS
 10
-8.9629845245
 20
-15.7595233578
 11
-9.6741951299
 21
-16.3440946232
  0
LINE
  5
250
100
AcDbEntity
  8
RACCORDO
100
AcDbLine
 62
253
  6
CONTINUOUS
 10
2.9330578248
 20
-5.4836951997
 11
5.6261983121
 21
-4.3210373954
  0
LINE
  5
251
100
AcDbEntity
  8
RACCORDO
100
AcDbLine
 62
7
  6
CONTINUOUS
 10
3.1270436947
 20
-5.5733455845
 11
5.6253061569
 21
-4.4948187262
  0
LINE
  5
252
100
AcDbEntity
  8
DRAFT
100
AcDbLine
 62
7
  6
CONTINUOUS
 10
5.6217290168
 20
-5.1916034823
 11
4.7259931532
 21
-5.5783023186
  0
LINE
  5
253
100
AcDbEntity
  8
RACCORDO
100
AcDbLine
 62
253
  6
CONTINUOUS
 10
5.6194941976
 20
-5.6269199477
 11
3.7080619079
 21
-6.4521058894
  0
LINE
  5
254
100
AcDbEntity
  8
DRAFT
100
AcDbLine
 62
7
  6
CONTINUOUS
 10
5.7188855318
 20
2.417539931
 11
-10.7565002672
 21
9.0344262968
  0
LINE
  5
255
100
AcDbEntity
  8
DRAFT
100
AcDbLine
 62
7
  6
CONTINUOUS
 10
-0.6811851305
 20
7.0611420036
 11
-3.1386412633
 21
8.0481117886
  0
LINE
  5
256
100
AcDbEntity
  8
DRAFT
100
AcDbLine
 62
7
  6
CONTINUOUS
 10
0.9854014941
 20
-10.5248125283
 11
1.7013460557
 21
-9.9241264637
  0
LINE
  5
257
100
AcDbEntity
  8
DRAFT
100
AcDbLine
 62
7
  6
CONTINUOUS
 10
2.938356044
 20
-8.8862602636
 11
3.968697039
 21
-8.0217918249
  0
LINE
  5
258
100
AcDbEntity
  8
RACCORDO
100
AcDbLine
 62
253
  6
CONTINUOUS
 10
0.9865374036
 20
-10.5238604083
 11
0.9853932113
 21
-10.5248194777
  0
LINE
  5
259
100
AcDbEntity
  8
RACCORDO
100
AcDbLine
 62
253
  6
CONTINUOUS
 10
5.618172417
 20
-5.884387249
 11
3.7002143764
 21
-6.7123904277
  0
LINE
  5
25A
100
AcDbEntity
  8
RACCORDO
100
AcDbLine
 62
253
  6
CONTINUOUS
 10
-11.7248539494
 20
13.5720969033
 11
-12.0135112984
 21
13.6880282022
  0
LINE
  5
25B
100
AcDbEntity
  8
DRAFT
100
AcDbLine
 62
7
  6
CONTINUOUS
 10
-3.1386412633
 20
10.8117828444
 11
-0.6811851305
 21
9.8248130594
  0
LINE
  5
25C
100
AcDbEntity
  8
DRAFT
100
AcDbLine
 62
7
  6
CONTINUOUS
 10
-10.7565002672
 20
14.236041778
 11
-9.568729803
 21
13.7590063819
  0
LINE
  5
25D
100
AcDbEntity
  8
RACCORDO
100
AcDbLine
 62
7
  6
CONTINUOUS
 10
-10.8741440934
 20
14.9691993769
 11
-9.568729803
 21
14.444915568
  0
LINE
  5
25E
100
AcDbEntity
  8
DRAFT
100
AcDbLine
 62
7
  6
CONTINUOUS
 10
-2.2782766088
 20
11.5272752574
 11
0.179179524
 21
10.5403054724
  0
LINE
  5
25F
100
AcDbEntity
  8
DRAFT
100
AcDbLine
 62
7
  6
CONTINUOUS
 10
-9.568729803
 20
14.9617292311
 11
-10.4485851355
 21
15.3150989685
  0
LWPOLYLINE
  5
260
100
AcDbEntity
  8
RACCORDO
100
AcDbPolyline
 62
7
  6
CONTINUOUS
 90
3
 70
0
 10
5.6215720875
 20
-25.6250230163
 10
5.6000568875
 20
-25.6866189825
 10
5.5712939663
 20
-25.7422716069
  0
LINE
  5
261
100
AcDbEntity
  8
RACCORDO
100
AcDbLine
 62
7
  6
CONTINUOUS
 10
-13.2468260641
 20
18.2527655508
 11
-13.1960688455
 21
18.2338633967
  0
LINE
  5
262
100
AcDbEntity
  8
RACCORDO
100
AcDbLine
 62
7
  6
CONTINUOUS
 10
-13.1959747535
 20
18.2338435853
 11
5.0128155529
 21
10.9207828906
  0
LINE
  5
263
100
AcDbEntity
  8
RACCORDO
100
AcDbLine
 62
253
  6
CONTINUOUS
 10
-13.2259694365
 20
18.309643694
 11
4.9828208632
 21
10.996583002
  0
LINE
  5
264
100
AcDbEntity
  8
RACCORDO
100
AcDbLine
 62
7
  6
CONTINUOUS
 10
5.0128956592
 20
10.9207326884
 11
5.0621372567
 21
10.8995624213
  0
LINE
  5
265
100
AcDbEntity
  8
RACCORDO
100
AcDbLine
 62
7
  6
CONTINUOUS
 10
5.0621372567
 20
10.8995624213
 11
5.1559470504
 21
10.8513564226
  0
LWPOLYLINE
  5
266
100
AcDbEntity
  8
RACCORDO
100
AcDbPolyline
 62
7
  6
CONTINUOUS
 90
13
 70
0
 10
5.1559470504
 20
10.8513564226
 10
5.248522836
 20
10.7933644721
 10
5.3386910207
 20
10.7262092135
 10
5.4253580125
 20
10.6505997409
 10
5.5074504881
 20
10.5674413865
 10
5.5839338286
 20
10.4777057925
 10
5.6539407525
 20
10.3823991996
 10
5.7166479791
 20
10.2826776484
 10
5.7712949858
 20
10.1797479198
 10
5.8173197791
 20
10.0748306517
 10
5.8542139715
 20
9.9692536732
 10
5.8815990757
 20
9.864329194
 10
5.8992985273
 20
9.7613187658
  0
LINE
  5
267
100
AcDbEntity
  8
DRAFT
100
AcDbLine
 62
7
  6
CONTINUOUS
 10
5.3629856473
 20
-15.8688560226
 11
5.666049
 21
-15.6265049211
  0
LWPOLYLINE
  5
268
100
AcDbEntity
  8
RACCORDO
100
AcDbPolyline
 62
7
  6
CONTINUOUS
 90
3
 70
0
 10
-13.4257202139
 20
18.2949276302
 10
-13.3367255589
 20
18.2788073619
 10
-13.2468260641
 20
18.2527655508
  0
LWPOLYLINE
  5
269
100
AcDbEntity
  8
RACCORDO
100
AcDbPolyline
 62
7
  6
CONTINUOUS
 90
3
 70
0
 10
5.5712939663
 20
-25.7422716069
 10
5.535251795
 20
-25.7914657192
 10
5.4962400512
 20
-25.8301927919
  0
LINE
  5
26A
100
AcDbEntity
  8
RACCORDO
100
AcDbLine
 62
253
  6
CONTINUOUS
 10
5.6484733679
 20
-25.1450554611
 11
4.8053504417
 21
-25.8749568115
  0
LINE
  5
26B
100
AcDbEntity
  8
RACCORDO
100
AcDbLine
 62
253
  6
CONTINUOUS
 10
5.4985156452
 20
-25.8282693718
 11
5.4963783851
 21
-25.8301077757
  0
LINE
  5
26C
100
AcDbEntity
  8
DRAFT
100
AcDbLine
 62
7
  6
CONTINUOUS
 10
5.4841129049
 20
-25.1664045378
 11
5.6503690602
 21
-25.02706205
  0
LINE
  5
26D
100
AcDbEntity
  8
DRAFT
100
AcDbLine
 62
7
  6
CONTINUOUS
 10
5.68315268
 20
-23.2663239357
 11
5.5139225203
 21
-23.4024060544
  0
LINE
  5
26E
100
AcDbEntity
  8
RACCORDO
100
AcDbLine
 62
253
  6
CONTINUOUS
 10
-26.7009741755
 20
37.53087742
 11
19.8505563397
 21
18.8347332854
  0
LINE
  5
26F
100
AcDbEntity
  8
RACCORDO
100
AcDbLine
 62
7
  6
CONTINUOUS
 10
28.1136242771
 20
-39.476300422
 11
28.1136242771
 21
24.4198042714
  0
LINE
  5
270
100
AcDbEntity
  8
RACCORDO
100
AcDbLine
 62
253
  6
CONTINUOUS
 10
-26.1600829369
 20
38.7131161052
 11
20.3914516401
 21
20.0169703393
  0
LINE
  5
271
100
AcDbEntity
  8
RACCORDO
100
AcDbLine
 62
7
  6
CONTINUOUS
 10
27.2955948522
 20
25.5663727553
 11
-20.2174689554
 21
44.6486903374
  0
LINE
  5
272
100
AcDbEntity
  8
RACCORDO
100
AcDbLine
 62
253
  6
CONTINUOUS
 10
21.2094800222
 20
-44.0641743003
 11
28.1136242771
 21
-39.476300422
  0
LINE
  5
273
100
AcDbEntity
  8
RACCORDO
100
AcDbLine
 62
7
  6
CONTINUOUS
 10
20.9749264185
 20
-44.5439230373
 11
27.8921620906
 21
-39.9473497795
  0
ARC
  5
274
100
AcDbEntity
  8
RACCORDO
100
AcDbCircle
 62
253
  6
CONTINUOUS
 10
7.9665040441
 20
-8.4387545302
 40
6.8892831488
100
AcDbArc
 50
193.2825411477
 51
195.1974760474
  0
ARC
  5
275
100
AcDbEntity
  8
RACCORDO
100
AcDbCircle
 62
253
  6
CONTINUOUS
 10
7.9556736707
 20
-8.4358999441
 40
6.5993536874
100
AcDbArc
 50
193.2616099405
 51
194.1057016477
  0
ARC
  5
276
100
AcDbEntity
  8
RACCORDO
100
AcDbCircle
 62
253
  6
CONTINUOUS
 10
4.6947130086
 20
-12.4864146734
 40
4.104500924
100
AcDbArc
 50
244.5217531056
 51
245.8246587165
  0
ARC
  5
277
100
AcDbEntity
  8
RACCORDO
100
AcDbCircle
 62
7
  6
CONTINUOUS
 10
4.4893086409
 20
-12.5859464816
 40
3.7252251349
100
AcDbArc
 50
244.143392092
 51
246.6341596656
  0
ARC
  5
278
100
AcDbEntity
  8
RACCORDO
100
AcDbCircle
 62
7
  6
CONTINUOUS
 10
4.4246368791
 20
-12.7345164213
 40
3.5631903961
100
AcDbArc
 50
246.6413180458
 51
248.1142679006
  0
ARC
  5
279
100
AcDbEntity
  8
RACCORDO
100
AcDbCircle
 62
253
  6
CONTINUOUS
 10
4.2277221579
 20
-12.98611589
 40
3.1687697955
100
AcDbArc
 50
248.1078326849
 51
251.8946341056
  0
ARC
  5
27A
100
AcDbEntity
  8
RACCORDO
100
AcDbCircle
 62
253
  6
CONTINUOUS
 10
4.07147333
 20
-8.1295333952
 40
2.8803558147
100
AcDbArc
 50
113.2805895219
 51
124.3648922685
  0
ARC
  5
27B
100
AcDbEntity
  8
RACCORDO
100
AcDbCircle
 62
253
  6
CONTINUOUS
 10
4.043054877
 20
-8.0862157084
 40
2.8285578746
100
AcDbArc
 50
124.3850041379
 51
124.8015904617
  0
ARC
  5
27C
100
AcDbEntity
  8
DRAFT
100
AcDbCircle
 62
7
  6
CONTINUOUS
 10
5.3483609985
 20
-7.3071756225
 40
2.8231864792
100
AcDbArc
 50
142.1726468799
 51
142.8099827606
  0
ARC
  5
27D
100
AcDbEntity
  8
RACCORDO
100
AcDbCircle
 62
7
  6
CONTINUOUS
 10
4.2145974584
 20
-8.0929296268
 40
2.7442807683
100
AcDbArc
 50
113.3469694123
 51
116.159507284
  0
ARC
  5
27E
100
AcDbEntity
  8
RACCORDO
100
AcDbCircle
 62
7
  6
CONTINUOUS
 10
4.1964308149
 20
-8.0559189608
 40
2.7030519409
100
AcDbArc
 50
116.1597428854
 51
119.3167508042
  0
ARC
  5
27F
100
AcDbEntity
  8
RACCORDO
100
AcDbCircle
 62
7
  6
CONTINUOUS
 10
4.1696187475
 20
-8.0087804705
 40
2.6488224841
100
AcDbArc
 50
119.3103183691
 51
127.838184398
  0
ARC
  5
280
100
AcDbEntity
  8
RACCORDO
100
AcDbCircle
 62
253
  6
CONTINUOUS
 10
4.5788713226
 20
-8.7502996449
 40
2.2192593374
100
AcDbArc
 50
113.3235834613
 51
124.9672027415
  0
ARC
  5
281
100
AcDbEntity
  8
RACCORDO
100
AcDbCircle
 62
253
  6
CONTINUOUS
 10
4.5459083892
 20
-8.6986490374
 40
2.1580429357
100
AcDbArc
 50
125.0359370799
 51
126.9562936706
  0
ARC
  5
282
100
AcDbEntity
  8
RACCORDO
100
AcDbCircle
 62
253
  6
CONTINUOUS
 10
2.3293369448
 20
-12.1509445486
 40
1.8988418304
100
AcDbArc
 50
160.6062841442
 51
165.9275804866
  0
ARC
  5
283
100
AcDbEntity
  8
DRAFT
100
AcDbCircle
 62
7
  6
CONTINUOUS
 10
4.8452862249
 20
-14.2591374985
 40
1.8749786134
100
AcDbArc
 50
286.0415448217
 51
292.4508303883
  0
ARC
  5
284
100
AcDbEntity
  8
DRAFT
100
AcDbCircle
 62
7
  6
CONTINUOUS
 10
2.4475434173
 20
-11.3406934737
 40
1.8584625251
100
AcDbArc
 50
146.3584299917
 51
152.8196651926
  0
ARC
  5
285
100
AcDbEntity
  8
DRAFT
100
AcDbCircle
 62
7
  6
CONTINUOUS
 10
4.8768165197
 20
-14.3384802561
 40
1.7896086912
100
AcDbArc
 50
292.4879592211
 51
296.395567801
  0
ARC
  5
286
100
AcDbEntity
  8
DRAFT
100
AcDbCircle
 62
7
  6
CONTINUOUS
 10
2.3758577694
 20
-11.2929631382
 40
1.7723404229
100
AcDbArc
 50
139.7319069751
 51
146.3591701042
  0
ARC
  5
287
100
AcDbEntity
  8
DRAFT
100
AcDbCircle
 62
7
  6
CONTINUOUS
 10
2.3451408865
 20
-11.2678744734
 40
1.732686281
100
AcDbArc
 50
138.174098193
 51
139.7083974559
  0
ARC
  5
288
100
AcDbEntity
  8
RACCORDO
100
AcDbCircle
 62
253
  6
CONTINUOUS
 10
4.4744395152
 20
-14.8152209247
 40
1.6881091948
100
AcDbArc
 50
309.571920108
 51
310.6749436119
  0
ARC
  5
289
100
AcDbEntity
  8
RACCORDO
100
AcDbCircle
 62
7
  6
CONTINUOUS
 10
4.5359441384
 20
-14.8868541479
 40
1.5936944309
100
AcDbArc
 50
310.7107381548
 51
315.4561711577
  0
ARC
  5
28A
100
AcDbEntity
  8
RACCORDO
100
AcDbCircle
 62
7
  6
CONTINUOUS
 10
20.4214961497
 20
-43.7108723782
 40
1.0001334524
100
AcDbArc
 50
248.1316311721
 51
303.5938780443
  0
ARC
  5
28B
100
AcDbEntity
  8
RACCORDO
100
AcDbCircle
 62
7
  6
CONTINUOUS
 10
-26.1309509169
 20
-25.0152336755
 40
0.999055825
100
AcDbArc
 50
183.7713368408
 51
217.9503672862
  0
ARC
  5
28C
100
AcDbEntity
  8
RACCORDO
100
AcDbCircle
 62
7
  6
CONTINUOUS
 10
-26.130953497
 20
-25.0160286726
 40
0.99856508
100
AcDbArc
 50
217.9144885646
 51
248.1260970948
  0
ARC
  5
28D
100
AcDbEntity
  8
RACCORDO
100
AcDbCircle
 62
253
  6
CONTINUOUS
 10
-1.295949604
 20
-1.0899516792
 40
5.0699559769
100
AcDbArc
 50
327.8572911523
 51
328.7736635861
  0
ARC
  5
28E
100
AcDbEntity
  8
DRAFT
100
AcDbCircle
 62
7
  6
CONTINUOUS
 10
0.0231223254
 20
-0.1775239467
 40
4.6481180443
100
AcDbArc
 50
294.7833465065
 51
302.2687182327
  0
ARC
  5
28F
100
AcDbEntity
  8
RACCORDO
100
AcDbCircle
 62
253
  6
CONTINUOUS
 10
0.314887964
 20
10.1989568165
 40
3.6591655762
100
AcDbArc
 50
244.5009675104
 51
248.1201115529
  0
ARC
  5
290
100
AcDbEntity
  8
DRAFT
100
AcDbCircle
 62
7
  6
CONTINUOUS
 10
0.1174196468
 20
9.9207160872
 40
3.1267052366
100
AcDbArc
 50
248.0852789435
 51
251.9321438954
  0
ARC
  5
291
100
AcDbEntity
  8
RACCORDO
100
AcDbCircle
 62
253
  6
CONTINUOUS
 10
-1.2428049433
 20
8.4960459996
 40
3.0308845991
100
AcDbArc
 50
1.9267212383
 51
4.2432495465
  0
ARC
  5
292
100
AcDbEntity
  8
RACCORDO
100
AcDbCircle
 62
253
  6
CONTINUOUS
 10
-1.0933758399
 20
8.5012352161
 40
2.8813655127
100
AcDbArc
 50
0.007503888
 51
1.9234942468
  0
ARC
  5
293
100
AcDbEntity
  8
RACCORDO
100
AcDbCircle
 62
7
  6
CONTINUOUS
 10
-0.8569667535
 20
8.5952940441
 40
2.559671705
100
AcDbArc
 50
357.9591277848
 51
0.0064422074
  0
ARC
  5
294
100
AcDbEntity
  8
RACCORDO
100
AcDbCircle
 62
7
  6
CONTINUOUS
 10
-0.7444869596
 20
8.5910837484
 40
2.4471133292
100
AcDbArc
 50
355.3103879874
 51
357.9638561347
  0
ARC
  5
295
100
AcDbEntity
  8
DRAFT
100
AcDbCircle
 62
7
  6
CONTINUOUS
 10
-1.7364568811
 20
10.7818972819
 40
1.9266164355
100
AcDbArc
 50
160.6702074221
 51
166.2877301378
  0
ARC
  5
296
100
AcDbEntity
  8
RACCORDO
100
AcDbCircle
 62
253
  6
CONTINUOUS
 10
-2.2433140512
 20
11.0963472212
 40
1.5818460787
100
AcDbArc
 50
117.6159338137
 51
129.5123087586
  0
ARC
  5
297
100
AcDbEntity
  8
RACCORDO
100
AcDbCircle
 62
253
  6
CONTINUOUS
 10
0.1505992692
 20
8.1750177972
 40
1.5692311627
100
AcDbArc
 50
310.3103607242
 51
317.2749869182
  0
ARC
  5
298
100
AcDbEntity
  8
RACCORDO
100
AcDbCircle
 62
253
  6
CONTINUOUS
 10
0.1605728044
 20
8.1639618622
 40
1.5543483544
100
AcDbArc
 50
308.3339395061
 51
310.2936645402
  0
ARC
  5
299
100
AcDbEntity
  8
RACCORDO
100
AcDbCircle
 62
253
  6
CONTINUOUS
 10
-2.2604279785
 20
11.1194140118
 40
1.5531623937
100
AcDbArc
 50
129.5666443613
 51
130.6662419829
  0
ARC
  5
29A
100
AcDbEntity
  8
DRAFT
100
AcDbCircle
 62
7
  6
CONTINUOUS
 10
0.6259763338
 20
8.7794523143
 40
1.5222652128
100
AcDbArc
 50
295.6808962834
 51
298.6739225707
  0
ARC
  5
29B
100
AcDbEntity
  8
DRAFT
100
AcDbCircle
 62
7
  6
CONTINUOUS
 10
-1.5658295653
 20
11.4541228972
 40
1.5209840843
100
AcDbArc
 50
139.9506368461
 51
143.0294846034
  0
ARC
  5
29C
100
AcDbEntity
  8
RACCORDO
100
AcDbCircle
 62
253
  6
CONTINUOUS
 10
0.1807929748
 20
8.3753210705
 40
1.505292016
100
AcDbArc
 50
297.5943519616
 51
302.6617796567
  0
ARC
  5
29D
100
AcDbEntity
  8
RACCORDO
100
AcDbCircle
 62
253
  6
CONTINUOUS
 10
-2.0524405734
 20
11.099523533
 40
1.5004246997
100
AcDbArc
 50
130.3136808233
 51
142.8710024536
  0
ARC
  5
29E
100
AcDbEntity
  8
RACCORDO
100
AcDbCircle
 62
253
  6
CONTINUOUS
 10
0.1972989125
 20
8.3493645058
 40
1.4745320364
100
AcDbArc
 50
302.6661448106
 51
310.658599697
  0
ARC
  5
29F
100
AcDbEntity
  8
RACCORDO
100
AcDbCircle
 62
253
  6
CONTINUOUS
 10
-2.0767191301
 20
11.125054868
 40
1.4652505171
100
AcDbArc
 50
128.0409574984
 51
130.2356826759
  0
ARC
  5
2A0
100
AcDbEntity
  8
DRAFT
100
AcDbCircle
 62
7
  6
CONTINUOUS
 10
-2.1527661792
 20
10.9861809205
 40
1.4604525019
100
AcDbArc
 50
117.7026003311
 51
129.9483393307
  0
ARC
  5
2A1
100
AcDbEntity
  8
RACCORDO
100
AcDbCircle
 62
253
  6
CONTINUOUS
 10
4.5075065624
 20
9.8143515511
 40
1.274203629
100
AcDbArc
 50
63.6124408348
 51
68.0974840255
  0
ARC
  5
2A2
100
AcDbEntity
  8
RACCORDO
100
AcDbCircle
 62
253
  6
CONTINUOUS
 10
4.8640013276
 20
9.5668505089
 40
1.1078036679
100
AcDbArc
 50
358.1422007218
 51
1.7187622042
  0
ARC
  5
2A3
100
AcDbEntity
  8
RACCORDO
100
AcDbCircle
 62
7
  6
CONTINUOUS
 10
-26.1301832814
 20
37.919739785
 40
0.9998711436
100
AcDbArc
 50
134.9637789541
 51
176.6004970175
  0
ARC
  5
2A4
100
AcDbEntity
  8
RACCORDO
100
AcDbCircle
 62
253
  6
CONTINUOUS
 10
540.1243888346
 20
-8.1736891189
 40
534.4464974795
100
AcDbArc
 50
178.1016136114
 51
181.3030380997
  0
ARC
  5
2A5
100
AcDbEntity
  8
RACCORDO
100
AcDbCircle
 62
253
  6
CONTINUOUS
 10
437.5990457787
 20
-32.2572811308
 40
431.9438139395
100
AcDbArc
 50
178.4274061311
 51
179.0991983768
  0
ARC
  5
2A6
100
AcDbEntity
  8
RACCORDO
100
AcDbCircle
 62
253
  6
CONTINUOUS
 10
420.9716448161
 20
21.9493770895
 40
436.7932532775
100
AcDbArc
 50
184.4907696047
 51
185.1975005188
  0
ARC
  5
2A7
100
AcDbEntity
  8
RACCORDO
100
AcDbCircle
 62
253
  6
CONTINUOUS
 10
419.7057557871
 20
21.8614274184
 40
435.3137514215
100
AcDbArc
 50
184.4912920441
 51
185.1990793099
  0
ARC
  5
2A8
100
AcDbEntity
  8
RACCORDO
100
AcDbCircle
 62
253
  6
CONTINUOUS
 10
411.0607866325
 20
0.0460771022
 40
425.7190592297
100
AcDbArc
 50
177.6274391877
 51
181.6552265438
  0
ARC
  5
2A9
100
AcDbEntity
  8
RACCORDO
100
AcDbCircle
 62
253
  6
CONTINUOUS
 10
411.0684207356
 20
0.0627913822
 40
425.5240830368
100
AcDbArc
 50
177.6273042919
 51
181.6548643228
  0
SPLINE
  5
2AA
100
AcDbEntity
  8
RACCORDO
100
AcDbSpline
 62
7
  6
CONTINUOUS
 70
0
 71
3
 72
11
 73
7
 74
5
 42
0.0000001
 43
0.0000001
 44
0.0000000001
 12
0.2393794603
 22
2.0276340763
 32
0.0
 13
1.5483862027
 23
1.3308278027
 33
0.0
 40
0.0
 40
0.0
 40
0.0
 40
0.0
 40
0.2642922543
 40
0.5169437824
 40
0.7608950776
 40
1.0
 40
1.0
 40
1.0
 40
1.0
 10
2.2353747753
 20
-8.6038471508
 30
0.0
 10
2.2564634877
 20
-8.4252178238
 30
0.0
 10
2.3239413625
 20
-8.078108406
 30
0.0
 10
2.5091665586
 20
-7.5915635222
 30
0.0
 10
2.7737362776
 20
-7.1628231626
 30
0.0
 10
3.0011981895
 20
-6.9216459338
 30
0.0
 10
3.1246071104
 20
-6.8155767744
 30
0.0
 11
2.2353747753
 21
-8.6038471508
 31
0.0
 11
2.3407158851
 21
-8.0746196168
 31
0.0
 11
2.5262183534
 21
-7.593285658
 31
0.0
 11
2.789187282
 21
-7.1702842509
 31
0.0
 11
3.1246071104
 21
-6.8155767744
 31
0.0
  0
SPLINE
  5
2AB
100
AcDbEntity
  8
RACCORDO
100
AcDbSpline
 62
7
  6
CONTINUOUS
 70
0
 71
3
 72
11
 73
7
 74
5
 42
0.0000001
 43
0.0000001
 44
0.0000000001
 12
-1.8567750557
 22
-1.4813933823
 32
0.0
 13
-2.2041928517
 23
0.8852535417
 33
0.0
 40
0.0
 40
0.0
 40
0.0
 40
0.0
 40
0.2311493771
 40
0.4709706982
 40
0.7261556671
 40
1.0
 40
1.0
 40
1.0
 40
1.0
 10
5.3618675187
 20
-15.8696752751
 30
0.0
 10
5.2188033862
 20
-15.9838163276
 30
0.0
 10
4.8866584868
 20
-16.1693930628
 30
0.0
 10
4.3154377566
 20
-16.2843494741
 30
0.0
 10
3.7021635111
 20
-16.2427569563
 30
0.0
 10
3.2976356228
 20
-16.1217117263
 30
0.0
 10
3.0964337158
 20
-16.0409045044
 30
0.0
 11
5.3618675187
 21
-15.8696752751
 31
0.0
 11
4.8835394609
 21
-16.1392341781
 31
0.0
 11
4.3262436653
 21
-16.2572381399
 31
0.0
 11
3.7211079847
 21
-16.2222610266
 31
0.0
 11
3.0964337158
 21
-16.0409045044
 31
0.0
  0
SPLINE
  5
2AC
100
AcDbEntity
  8
RACCORDO
100
AcDbSpline
 62
7
  6
CONTINUOUS
 70
0
 71
3
 72
14
 73
10
 74
8
 42
0.0000001
 43
0.0000001
 44
0.0000000001
 12
-4.8979928675
 22
2.3725910882
 32
0.0
 13
1.3873179539
 23
5.2625917091
 33
0.0
 40
0.0
 40
0.0
 40
0.0
 40
0.0
 40
0.256547502
 40
0.390177631
 40
0.5231780568
 40
0.6525873101
 40
0.7759681813
 40
0.8918287324
 40
1.0
 40
1.0
 40
1.0
 40
1.0
 10
2.8646619773
 20
-15.9382330929
 30
0.0
 10
2.4458060324
 20
-15.7353389873
 30
0.0
 10
1.8608169615
 20
-15.3099538508
 30
0.0
 10
1.227752417
 20
-14.6006821711
 30
0.0
 10
0.829346533
 20
-13.9993348289
 30
0.0
 10
0.5326120776
 20
-13.3625246479
 30
0.0
 10
0.3506022216
 20
-12.7154766638
 30
0.0
 10
0.2931154389
 20
-12.0840405785
 30
0.0
 10
0.3446655029
 20
-11.6763071372
 30
0.0
 10
0.3946881501
 20
-11.4865533984
 30
0.0
 11
2.8646619773
 21
-15.9382330929
 31
0.0
 11
1.7253204938
 21
-15.1311656421
 31
0.0
 11
1.24065708
 21
-14.5889318106
 31
0.0
 11
0.8416976652
 21
-13.9849661863
 31
0.0
 11
0.5462225753
 21
-13.3456498681
 31
0.0
 11
0.3677755817
 21
-12.6983092274
 31
0.0
 11
0.3155452363
 21
-12.0699187374
 31
0.0
 11
0.3946881501
 21
-11.4865533984
 31
0.0
  0
SPLINE
  5
2AD
100
AcDbEntity
  8
RACCORDO
100
AcDbSpline
 62
7
  6
CONTINUOUS
 70
0
 71
3
 72
9
 73
5
 74
3
 42
0.0000001
 43
0.0000001
 44
0.0000000001
 12
0.2915968763
 22
1.1061309335
 32
0.0
 13
0.8772923342
 23
0.7341066276
 33
0.0
 40
0.0
 40
0.0
 40
0.0
 40
0.0
 40
0.5095624363
 40
1.0
 40
1.0
 40
1.0
 40
1.0
 10
0.3946881501
 20
-11.4865533984
 30
0.0
 10
0.4442170883
 20
-11.298672474
 30
0.0
 10
0.5909097442
 20
-10.9401400492
 30
0.0
 10
0.8432305981
 20
-10.6438354732
 30
0.0
 10
0.9866496365
 20
-10.5238243179
 30
0.0
 11
0.3946881501
 21
-11.4865533984
 31
0.0
 11
0.6211419937
 21
-10.9494408644
 31
0.0
 11
0.9866496365
 21
-10.5238243179
 31
0.0
  0
SPLINE
  5
2AE
100
AcDbEntity
  8
DRAFT
100
AcDbSpline
 62
7
  6
CONTINUOUS
 70
0
 71
3
 72
11
 73
7
 74
5
 42
0.0000001
 43
0.0000001
 44
0.0000000001
 12
5.1008863602
 22
-2.0486309591
 32
0.0
 13
4.9900541879
 23
2.305491199
 33
0.0
 40
0.0
 40
0.0
 40
0.0
 40
0.0
 40
0.2765788951
 40
0.5343230128
 40
0.7742148248
 40
1.0
 40
1.0
 40
1.0
 40
1.0
 10
-3.3828568285
 20
-4.239327448
 30
0.0
 10
-2.9125909907
 20
-4.4281968104
 30
0.0
 10
-1.9749568869
 20
-4.7268039768
 30
0.0
 10
-0.5609890923
 20
-4.9174964725
 30
0.0
 10
0.7713662244
 20
-4.8273410571
 30
0.0
 10
1.5959985297
 20
-4.5710625771
 30
0.0
 10
1.9715586161
 20
-4.3975473323
 30
0.0
 11
-3.3828568285
 21
-4.239327448
 31
0.0
 11
-1.931666773
 21
-4.6925842968
 31
0.0
 11
-0.526326817
 21
-4.8723764397
 31
0.0
 11
0.7885830479
 21
-4.7729738541
 31
0.0
 11
1.9715586161
 21
-4.3975473323
 31
0.0
  0
SPLINE
  5
2AF
100
AcDbEntity
  8
DRAFT
100
AcDbSpline
 62
7
  6
CONTINUOUS
 70
0
 71
3
 72
10
 73
6
 74
4
 42
0.0000001
 43
0.0000001
 44
0.0000000001
 12
0.0041672759
 22
2.3277675566
 32
0.0
 13
1.4070522563
 23
1.8543794412
 33
0.0
 40
0.0
 40
0.0
 40
0.0
 40
0.0
 40
0.5233677522
 40
0.7664326512
 40
1.0
 40
1.0
 40
1.0
 40
1.0
 10
2.4331392099
 20
-7.7947511797
 30
0.0
 10
2.4338662158
 20
-7.3886583552
 30
0.0
 10
2.5096651263
 20
-6.7870753286
 30
0.0
 10
2.7943810572
 20
-6.0620992568
 30
0.0
 10
2.9897639868
 20
-5.74504557
 30
0.0
 10
3.0993111418
 20
-5.6006714067
 30
0.0
 11
2.4331392099
 21
-7.7947511797
 31
0.0
 11
2.6037955842
 21
-6.5884827194
 31
0.0
 11
2.8126052032
 21
-6.0626237943
 31
0.0
 11
3.0993111418
 21
-5.6006714067
 31
0.0
  0
SPLINE
  5
2B0
100
AcDbEntity
  8
RACCORDO
100
AcDbSpline
 62
7
  6
CONTINUOUS
 70
0
 71
3
 72
13
 73
9
 74
7
 42
0.0000001
 43
0.0000001
 44
0.0000000001
 12
6.5500958037
 22
5.6220359708
 32
0.0
 13
-3.1339539857
 23
8.0429705899
 33
0.0
 40
0.0
 40
0.0
 40
0.0
 40
0.0
 40
0.1050902294
 40
0.2131688994
 40
0.3264652905
 40
0.4465223314
 40
0.7088437375
 40
1.0
 40
1.0
 40
1.0
 40
1.0
 10
2.0468754638
 20
-4.5648189416
 30
0.0
 10
2.2763258207
 20
-4.3678785916
 30
0.0
 10
2.7011453624
 20
-3.9183915299
 30
0.0
 10
3.1989329263
 20
-3.1150876675
 30
0.0
 10
3.5534271266
 20
-2.1931009804
 30
0.0
 10
3.8337508455
 20
-0.788760016
 30
0.0
 10
3.765359576
 20
1.1742717984
 30
0.0
 10
3.3294822586
 20
2.7202366251
 30
0.0
 10
3.0253254821
 20
3.5008237105
 30
0.0
 11
2.0468754638
 21
-4.5648189416
 31
0.0
 11
2.6709383085
 21
-3.9064556107
 31
0.0
 11
3.165305369
 21
-3.1152763468
 31
0.0
 11
3.5204050777
 21
-2.2040500671
 31
0.0
 11
3.7281492369
 21
-1.1887561804
 31
0.0
 11
3.6830008034
 21
1.075146268
 31
0.0
 11
3.0253254821
 21
3.5008237105
 31
0.0
  0
SPLINE
  5
2B1
100
AcDbEntity
  8
DRAFT
100
AcDbSpline
 62
7
  6
CONTINUOUS
 70
0
 71
3
 72
9
 73
5
 74
3
 42
0.0000001
 43
0.0000001
 44
0.0000000001
 12
0.5260737482
 22
0.4519946768
 32
0.0
 13
0.6367742823
 23
0.2749023277
 33
0.0
 40
0.0
 40
0.0
 40
0.0
 40
0.0
 40
0.2489414108
 40
1.0
 40
1.0
 40
1.0
 40
1.0
 10
4.1386052013
 20
-5.9442988518
 30
0.0
 10
4.1822590483
 20
-5.906792121
 30
0.0
 10
4.3633255405
 20
-5.7628685854
 30
0.0
 10
4.5665748885
 20
-5.6471249034
 30
0.0
 10
4.7259931532
 20
-5.5783023186
 30
0.0
 11
4.1386052013
 21
-5.9442988518
 31
0.0
 11
4.2737836564
 21
-5.836881422
 31
0.0
 11
4.7259931532
 21
-5.5783023186
 31
0.0
  0
SPLINE
  5
2B2
100
AcDbEntity
  8
DRAFT
100
AcDbSpline
 62
7
  6
CONTINUOUS
 70
0
 71
3
 72
9
 73
5
 74
3
 42
0.0000001
 43
0.0000001
 44
0.0000000001
 12
2.9506283542
 22
-2.4742568459
 32
0.0
 13
3.5733142812
 23
-1.4351235738
 33
0.0
 40
0.0
 40
0.0
 40
0.0
 40
0.0
 40
0.2596121411
 40
1.0
 40
1.0
 40
1.0
 40
1.0
 10
-10.757844809
 20
-0.5923314359
 30
0.0
 10
-10.5025051608
 20
-0.8064471418
 30
0.0
 10
-9.4902703331
 20
-1.5955686989
 30
0.0
 10
-8.3604965532
 20
-2.2401951163
 30
0.0
 10
-7.4786170499
 20
-2.5943778063
 30
0.0
 11
-10.757844809
 21
-0.5923314359
 31
0.0
 11
-9.9690063141
 21
-1.2064394655
 31
0.0
 11
-7.4786170499
 21
-2.5943778063
 31
0.0
  0
SPLINE
  5
2B3
100
AcDbEntity
  8
DRAFT
100
AcDbSpline
 62
7
  6
CONTINUOUS
 70
0
 71
3
 72
16
 73
12
 74
10
 42
0.0000001
 43
0.0000001
 44
0.0000000001
 12
2.4537798546
 22
1.9626679533
 32
0.0
 13
0.0
 23
-3.1421491164
 33
0.0
 40
0.0
 40
0.0
 40
0.0
 40
0.0
 40
0.0480970254
 40
0.0975792444
 40
0.2042271821
 40
0.3248342484
 40
0.4581288781
 40
0.5991047822
 40
0.7408691257
 40
0.8763540605
 40
1.0
 40
1.0
 40
1.0
 40
1.0
 10
-2.8338560362
 20
10.0764551791
 30
0.0
 10
-2.7945161989
 20
10.1079213425
 30
0.0
 10
-2.7070313059
 20
10.1627601373
 30
0.0
 10
-2.503641747
 20
10.2337667134
 30
0.0
 10
-2.2065275908
 20
10.240088166
 30
0.0
 10
-1.8412973607
 20
10.1272976846
 30
0.0
 10
-1.4851513239
 20
9.9099347039
 30
0.0
 10
-1.1676880301
 20
9.6070281762
 30
0.0
 10
-0.9157947441
 20
9.2448737633
 30
0.0
 10
-0.7513612789
 20
8.8551643824
 30
0.0
 10
-0.7078454695
 20
8.5831895846
 30
0.0
 10
-0.7078454695
 20
8.4536849247
 30
0.0
 11
-2.8338560362
 21
10.0764551791
 31
0.0
 11
-2.7059179887
 21
10.1569010377
 31
0.0
 11
-2.5593539483
 21
10.2087968109
 31
0.0
 11
-2.2245500609
 21
10.222969401
 31
0.0
 11
-1.860512666
 21
10.1176530227
 31
0.0
 11
-1.5010737371
 21
9.9026563528
 31
0.0
 11
-1.1795909653
 21
9.5979124156
 31
0.0
 11
-0.9259394146
 21
9.2317404918
 31
0.0
 11
-0.7636646959
 21
8.8381681185
 31
0.0
 11
-0.7078454695
 21
8.4536849247
 31
0.0
  0
SPLINE
  5
2B4
100
AcDbEntity
  8
DRAFT
100
AcDbSpline
 62
7
  6
CONTINUOUS
 70
0
 71
3
 72
11
 73
7
 74
5
 42
0.0000001
 43
0.0000001
 44
0.0000000001
 12
-0.8689022665
 22
-0.6944002417
 32
0.0
 13
-1.0321542535
 23
0.4145364176
 33
0.0
 40
0.0
 40
0.0
 40
0.0
 40
0.0
 40
0.224366261
 40
0.4611728548
 40
0.7188685953
 40
1.0
 40
1.0
 40
1.0
 40
1.0
 10
0.3805673297
 20
7.1321626562
 30
0.0
 10
0.3155832121
 20
7.0802293276
 30
0.0
 10
0.1629816926
 20
6.995544256
 30
0.0
 10
-0.1020526197
 20
6.9434411371
 30
0.0
 10
-0.3916516262
 20
6.9642871821
 30
0.0
 10
-0.5844614721
 20
7.0222956018
 30
0.0
 10
-0.6811851305
 20
7.0611420036
 30
0.0
 11
0.3805673297
 21
7.1321626562
 31
0.0
 11
0.1629738178
 21
7.0099615147
 31
0.0
 11
-0.0948828124
 21
6.9562222406
 31
0.0
 11
-0.3809864272
 21
6.9736130382
 31
0.0
 11
-0.6811851305
 21
7.0611420036
 31
0.0
  0
SPLINE
  5
2B5
100
AcDbEntity
  8
DRAFT
100
AcDbSpline
 62
7
  6
CONTINUOUS
 70
0
 71
3
 72
9
 73
5
 74
3
 42
0.0000001
 43
0.0000001
 44
0.0000000001
 12
-0.4458801752
 22
-0.3567292489
 32
0.0
 13
-0.5463880802
 23
-0.1659064603
 33
0.0
 40
0.0
 40
0.0
 40
0.0
 40
0.0
 40
0.4946766912
 40
1.0
 40
1.0
 40
1.0
 40
1.0
 10
0.9654138992
 20
7.1553546199
 30
0.0
 10
0.8918917227
 20
7.0965327384
 30
0.0
 10
0.7311408925
 20
6.9920683053
 30
0.0
 10
0.5534851891
 20
6.9203759379
 30
0.0
 10
0.4614509783
 20
6.8924304707
 30
0.0
 11
0.9654138992
 21
7.1553546199
 31
0.0
 11
0.7287156376
 21
7.0011999874
 31
0.0
 11
0.4614509783
 21
6.8924304707
 31
0.0
  0
SPLINE
  5
2B6
100
AcDbEntity
  8
DRAFT
100
AcDbSpline
 62
7
  6
CONTINUOUS
 70
0
 71
3
 72
9
 73
5
 74
3
 42
0.0000001
 43
0.0000001
 44
0.0000000001
 12
-0.8951592104
 22
-0.2718080818
 32
0.0
 13
-0.9217094861
 23
0.1601289122
 33
0.0
 40
0.0
 40
0.0
 40
0.0
 40
0.0
 40
0.4810054515
 40
1.0
 40
1.0
 40
1.0
 40
1.0
 10
0.4614509783
 20
6.8924304707
 30
0.0
 10
0.3179254915
 20
6.848850081
 30
0.0
 10
0.0061460974
 20
6.7994900135
 30
0.0
 10
-0.3073519364
 20
6.8237967717
 30
0.0
 10
-0.4668060025
 20
6.8514987825
 30
0.0
 11
0.4614509783
 21
6.8924304707
 31
0.0
 11
0.0175926798
 21
6.8184091747
 31
0.0
 11
-0.4668060025
 21
6.8514987825
 31
0.0
  0
SPLINE
  5
2B7
100
AcDbEntity
  8
DRAFT
100
AcDbSpline
 62
7
  6
CONTINUOUS
 70
0
 71
3
 72
9
 73
5
 74
3
 42
0.0000001
 43
0.0000001
 44
0.0000000001
 12
-0.3917665208
 22
0.068061735
 32
0.0
 13
-0.3780527336
 23
0.1232458405
 33
0.0
 40
0.0
 40
0.0
 40
0.0
 40
0.0
 40
0.2446451846
 40
1.0
 40
1.0
 40
1.0
 40
1.0
 10
-0.4668060025
 20
6.8514987825
 30
0.0
 10
-0.4987539335
 20
6.8570491078
 30
0.0
 10
-0.6288996117
 20
6.8822481858
 30
0.0
 10
-0.7571185035
 20
6.9171576248
 30
0.0
 10
-0.8523064877
 20
6.9481890712
 30
0.0
 11
-0.4668060025
 21
6.8514987825
 31
0.0
 11
-0.5623176398
 21
6.8699599514
 31
0.0
 11
-0.8523064877
 21
6.9481890712
 31
0.0
  0
SPLINE
  5
2B8
100
AcDbEntity
  8
DRAFT
100
AcDbSpline
 62
7
  6
CONTINUOUS
 70
0
 71
3
 72
9
 73
5
 74
3
 42
0.0000001
 43
0.0000001
 44
0.0000000001
 12
-1.0555572521
 22
0.4239355894
 32
0.0
 13
-0.8871052233
 23
0.7120160246
 33
0.0
 40
0.0
 40
0.0
 40
0.0
 40
0.0
 40
0.2403193437
 40
1.0
 40
1.0
 40
1.0
 40
1.0
 10
-1.0495485424
 20
7.0199453479
 30
0.0
 10
-1.1341054844
 20
7.0539053221
 30
0.0
 10
-1.4799830791
 20
7.2099246053
 30
0.0
 10
-1.8005967138
 20
7.4198531133
 30
0.0
 10
-2.0252356065
 20
7.6001547136
 30
0.0
 11
-1.0495485424
 21
7.0199453479
 31
0.0
 11
-1.2988885583
 21
7.1320076659
 31
0.0
 11
-2.0252356065
 21
7.6001547136
 31
0.0
  0
SPLINE
  5
2B9
100
AcDbEntity
  8
DRAFT
100
AcDbSpline
 62
7
  6
CONTINUOUS
 70
0
 71
3
 72
9
 73
5
 74
3
 42
0.0000001
 43
0.0000001
 44
0.0000000001
 12
0.2775104873
 22
0.7884492694
 32
0.0
 13
0.6402801183
 23
0.5373134011
 33
0.0
 40
0.0
 40
0.0
 40
0.0
 40
0.0
 40
0.510449193
 40
1.0
 40
1.0
 40
1.0
 40
1.0
 10
-3.5544679514
 20
11.4196171561
 30
0.0
 10
-3.5072496166
 20
11.5537715872
 30
0.0
 10
-3.3833838408
 20
11.8071628268
 30
0.0
 10
-3.1950010478
 20
12.0181176853
 30
0.0
 10
-3.0905178316
 20
12.1057984217
 30
0.0
 11
-3.5544679514
 21
11.4196171561
 31
0.0
 11
-3.3639847966
 21
11.8014011401
 31
0.0
 11
-3.0905178316
 21
12.1057984217
 31
0.0
  0
SPLINE
  5
2BA
100
AcDbEntity
  8
DRAFT
100
AcDbSpline
 62
7
  6
CONTINUOUS
 70
0
 71
3
 72
15
 73
11
 74
9
 42
0.0000001
 43
0.0000001
 44
0.0000000001
 12
-3.0885377952
 22
1.240426408
 32
0.0
 13
2.5506616636
 23
2.1381881264
 33
0.0
 40
0.0
 40
0.0
 40
0.0
 40
0.0
 40
0.131113467
 40
0.2704811906
 40
0.4125202072
 40
0.5511770434
 40
0.6810056925
 40
0.7985046194
 40
0.9034181673
 40
1.0
 40
1.0
 40
1.0
 40
1.0
 10
-3.1386412633
 20
8.0481117886
 30
0.0
 10
-3.2736242295
 20
8.1023239909
 30
0.0
 10
-3.5386394022
 20
8.2492476727
 30
0.0
 10
-3.888051096
 20
8.5488428964
 30
0.0
 10
-4.1811411473
 20
8.9147043354
 30
0.0
 10
-4.3958364037
 20
9.3196241612
 30
0.0
 10
-4.5161517435
 20
9.734232745
 30
0.0
 10
-4.5317000453
 20
10.1295061707
 30
0.0
 10
-4.4371378965
 20
10.4776137886
 30
0.0
 10
-4.2962243479
 20
10.6606992998
 30
0.0
 10
-4.2141084886
 20
10.7295360092
 30
0.0
 11
-3.1386412633
 21
8.0481117886
 31
0.0
 11
-3.5221133264
 21
8.2563987374
 31
0.0
 11
-3.8754841612
 21
8.5568911481
 31
0.0
 11
-4.1709407972
 21
8.925943118
 31
0.0
 11
-4.3853248946
 21
9.3346198204
 31
0.0
 11
-4.5017600866
 21
9.7507486108
 31
0.0
 11
-4.511114502
 21
10.1417109106
 31
0.0
 11
-4.4126592823
 21
10.4767294734
 31
0.0
 11
-4.2141084886
 21
10.7295360092
 31
0.0
  0
SPLINE
  5
2BB
100
AcDbEntity
  8
DRAFT
100
AcDbSpline
 62
7
  6
CONTINUOUS
 70
0
 71
3
 72
10
 73
6
 74
4
 42
0.0000001
 43
0.0000001
 44
0.0000000001
 12
0.0
 22
-0.7197108654
 32
0.0
 13
-0.5513012738
 23
-0.4626560658
 33
0.0
 40
0.0
 40
0.0
 40
0.0
 40
0.0
 40
0.5261132085
 40
0.7671334349
 40
1.0
 40
1.0
 40
1.0
 40
1.0
 10
-0.7078454695
 20
8.4536849247
 30
0.0
 10
-0.7078454695
 20
8.3274684605
 30
0.0
 10
-0.7375571207
 20
8.1393268085
 30
0.0
 10
-0.8530912133
 20
7.9269709934
 30
0.0
 10
-0.9310995988
 20
7.8422776652
 30
0.0
 10
-0.9738928102
 20
7.8063652889
 30
0.0
 11
-0.7078454695
 21
8.4536849247
 31
0.0
 11
-0.77631097
 21
8.0812767645
 31
0.0
 11
-0.8600496272
 21
7.9293626427
 31
0.0
 11
-0.9738928102
 21
7.8063652889
 31
0.0
  0
SPLINE
  5
2BC
100
AcDbEntity
  8
DRAFT
100
AcDbSpline
 62
7
  6
CONTINUOUS
 70
0
 71
3
 72
11
 73
7
 74
5
 42
0.0000001
 43
0.0000001
 44
0.0000000001
 12
-1.8534119367
 22
0.6899021585
 32
0.0
 13
-0.3123801812
 23
1.9528234477
 33
0.0
 40
0.0
 40
0.0
 40
0.0
 40
0.0
 40
0.2413598745
 40
0.4999242755
 40
0.7584943142
 40
1.0
 40
1.0
 40
1.0
 40
1.0
 10
-0.7277404335
 20
8.6748588755
 30
0.0
 10
-0.8768535243
 20
8.730363775
 30
0.0
 10
-1.1676828924
 20
8.8960296467
 30
0.0
 10
-1.5304296777
 20
9.2465065762
 30
0.0
 10
-1.8029380394
 20
9.6710668454
 30
0.0
 10
-1.9083313746
 20
9.9888592154
 30
0.0
 10
-1.9334785713
 20
10.1460652041
 30
0.0
 11
-0.7277404335
 21
8.6748588755
 31
0.0
 11
-1.1456135757
 21
8.9055569607
 31
0.0
 11
-1.515037458
 21
9.2591171222
 31
0.0
 11
-1.7892201756
 21
9.6907582147
 31
0.0
 11
-1.9334785713
 21
10.1460652041
 31
0.0
  0
SPLINE
  5
2BD
100
AcDbEntity
  8
DRAFT
100
AcDbSpline
 62
7
  6
CONTINUOUS
 70
0
 71
3
 72
16
 73
12
 74
10
 42
0.0000001
 43
0.0000001
 44
0.0000000001
 12
-2.41868868
 22
-2.0297812504
 32
0.0
 13
0.0
 23
3.1575412674
 33
0.0
 40
0.0
 40
0.0
 40
0.0
 40
0.0
 40
0.0481037731
 40
0.0974813725
 40
0.2037548157
 40
0.3240401193
 40
0.4572249705
 40
0.5983132107
 40
0.7403388214
 40
0.8761209867
 40
1.0
 40
1.0
 40
1.0
 40
1.0
 10
-0.9738928102
 20
7.8063652889
 30
0.0
 10
-1.012675494
 20
7.7738185767
 30
0.0
 10
-1.0992268408
 20
7.7167514132
 30
0.0
 10
-1.3016940064
 20
7.6414117639
 30
0.0
 10
-1.5995158904
 20
7.6305471948
 30
0.0
 10
-1.9669312711
 20
7.7401376804
 30
0.0
 10
-2.3260151858
 20
7.9560861546
 30
0.0
 10
-2.6466623007
 20
8.2592377813
 30
0.0
 10
-2.9014123765
 20
8.6229431348
 30
0.0
 10
-3.0678708014
 20
9.0149883619
 30
0.0
 10
-3.1119809243
 20
9.2888555577
 30
0.0
 10
-3.1119809243
 20
9.4192399233
 30
0.0
 11
-0.9738928102
 21
7.8063652889
 31
0.0
 11
-1.1006073887
 21
7.7226163728
 31
0.0
 11
-1.2464990985
 21
7.6676245478
 31
0.0
 11
-1.5815019709
 21
7.6482478498
 31
0.0
 11
-1.9474071268
 21
7.7500607676
 31
0.0
 11
-2.3097773162
 21
7.9634592949
 31
0.0
 11
-2.6345438838
 21
8.2684014961
 31
0.0
 11
-2.8911415219
 21
8.6361875798
 31
0.0
 11
-3.0554415243
 21
9.0321946529
 31
0.0
 11
-3.1119809243
 21
9.4192399233
 31
0.0
  0
SPLINE
  5
2BE
100
AcDbEntity
  8
DRAFT
100
AcDbSpline
 62
7
  6
CONTINUOUS
 70
0
 71
3
 72
11
 73
7
 74
5
 42
0.0000001
 43
0.0000001
 44
0.0000000001
 12
0.8726467631
 22
0.7321858211
 32
0.0
 13
1.057059648
 23
-0.4245389855
 33
0.0
 40
0.0
 40
0.0
 40
0.0
 40
0.0
 40
0.224400666
 40
0.4609611832
 40
0.7183920667
 40
1.0
 40
1.0
 40
1.0
 40
1.0
 10
-3.3625016803
 20
11.4440435194
 30
0.0
 10
-3.2972275087
 20
11.4988111814
 30
0.0
 10
-3.1427757585
 20
11.5889283467
 30
0.0
 10
-2.8720173323
 20
11.6457165319
 30
0.0
 10
-2.5751841879
 20
11.6263403822
 30
0.0
 10
-2.3775020698
 20
11.5671264395
 30
0.0
 10
-2.2782766088
 20
11.5272752574
 30
0.0
 11
-3.3625016803
 21
11.4440435194
 31
0.0
 11
-3.142280504
 21
11.5738301212
 31
0.0
 11
-2.8792240221
 21
11.6322817753
 31
0.0
 11
-2.5864021784
 21
11.6165104116
 31
0.0
 11
-2.2782766088
 21
11.5272752574
 31
0.0
  0
SPLINE
  5
2BF
100
AcDbEntity
  8
DRAFT
100
AcDbSpline
 62
7
  6
CONTINUOUS
 70
0
 71
3
 72
11
 73
7
 74
5
 42
0.0000001
 43
0.0000001
 44
0.0000000001
 12
0.8658314055
 22
0.7258157587
 32
0.0
 13
1.0484154203
 23
-0.4210672688
 33
0.0
 40
0.0
 40
0.0
 40
0.0
 40
0.0
 40
0.2244098393
 40
0.4609210645
 40
0.7185061797
 40
1.0
 40
1.0
 40
1.0
 40
1.0
 10
-4.2141084886
 20
10.7295360092
 30
0.0
 10
-4.1493414597
 20
10.7838294084
 30
0.0
 10
-3.9960701054
 20
10.8730290836
 30
0.0
 10
-3.7274981047
 20
10.9293588055
 30
0.0
 10
-3.4330989715
 20
10.909973077
 30
0.0
 10
-3.2370154173
 20
10.8512921224
 30
0.0
 10
-3.1386412633
 20
10.8117828444
 30
0.0
 11
-4.2141084886
 21
10.7295360092
 31
0.0
 11
-3.9955862483
 21
10.8581085628
 31
0.0
 11
-3.7347200214
 21
10.9160013124
 31
0.0
 11
-3.4441241824
 21
10.9002492288
 31
0.0
 11
-3.1386412633
 21
10.8117828444
 31
0.0
  0
SPLINE
  5
2C0
100
AcDbEntity
  8
DRAFT
100
AcDbSpline
 62
7
  6
CONTINUOUS
 70
0
 71
3
 72
11
 73
7
 74
5
 42
0.0000001
 43
0.0000001
 44
0.0000000001
 12
1.6243965135
 22
0.8538184706
 32
0.0
 13
1.7029128671
 23
-0.6839281987
 33
0.0
 40
0.0
 40
0.0
 40
0.0
 40
0.0
 40
0.2252152417
 40
0.4644458471
 40
0.7223278243
 40
1.0
 40
1.0
 40
1.0
 40
1.0
 10
-2.8317045926
 20
12.2792254446
 30
0.0
 10
-2.7097583081
 20
12.343323089
 30
0.0
 10
-2.4386095573
 20
12.4404060824
 30
0.0
 10
-1.9949641201
 20
12.4822283613
 30
0.0
 10
-1.5214288211
 20
12.4246869714
 30
0.0
 10
-1.207165716
 20
12.3258210416
 30
0.0
 10
-1.0495485424
 20
12.2625184313
 30
0.0
 11
-2.8317045926
 21
12.2792254446
 31
0.0
 11
-2.4434744111
 21
12.4209715736
 31
0.0
 11
-2.0067655887
 21
12.465932429
 31
0.0
 11
-1.5365520653
 21
12.4124554634
 31
0.0
 11
-1.0495485424
 21
12.2625184313
 31
0.0
  0
SPLINE
  5
2C1
100
AcDbEntity
  8
RACCORDO
100
AcDbSpline
 62
253
  6
CONTINUOUS
 70
0
 71
3
 72
9
 73
5
 74
3
 42
0.0000001
 43
0.0000001
 44
0.0000000001
 12
0.3462825263
 22
0.2768776662
 32
0.0
 13
0.2562651598
 23
0.3618024294
 33
0.0
 40
0.0
 40
0.0
 40
0.0
 40
0.0
 40
0.2487722387
 40
1.0
 40
1.0
 40
1.0
 40
1.0
 10
5.3630128481
 20
-15.8688316188
 30
0.0
 10
5.3917280079
 20
-15.8458717932
 30
0.0
 10
5.5038595199
 20
-15.7495108697
 30
0.0
 10
5.6020386514
 20
-15.6370716255
 30
0.0
 10
5.6662098188
 20
-15.5464729492
 30
0.0
 11
5.3630128481
 21
-15.8688316188
 31
0.0
 11
5.4466549427
 21
-15.7969328988
 31
0.0
 11
5.6662098188
 21
-15.5464729492
 31
0.0
  0
SPLINE
  5
2C2
100
AcDbEntity
  8
RACCORDO
100
AcDbSpline
 62
253
  6
CONTINUOUS
 70
0
 71
3
 72
11
 73
7
 74
5
 42
0.0000001
 43
0.0000001
 44
0.0000000001
 12
-1.4895374638
 22
3.15242592
 32
0.0
 13
-3.235430954
 23
1.2994220172
 33
0.0
 40
0.0
 40
0.0
 40
0.0
 40
0.0
 40
0.2539796349
 40
0.5114703652
 40
0.7629566555
 40
1.0
 40
1.0
 40
1.0
 40
1.0
 10
5.6326559146
 20
-12.7416877131
 30
0.0
 10
5.5065518543
 20
-12.4748037184
 30
0.0
 10
5.2011574992
 20
-11.9604246008
 30
0.0
 10
4.620936454
 20
-11.2842888455
 30
0.0
 10
3.9473020917
 20
-10.7314589663
 30
0.0
 10
3.4440002457
 20
-10.4584212288
 30
0.0
 10
3.1883544544
 20
-10.3557481152
 30
0.0
 11
5.6326559146
 21
-12.7416877131
 31
0.0
 11
5.1826463543
 21
-11.9790245491
 31
0.0
 11
4.5978100573
 21
-11.2978776244
 31
0.0
 11
3.9177843901
 21
-10.7443363536
 31
0.0
 11
3.1883544544
 21
-10.3557481152
 31
0.0
  0
SPLINE
  5
2C3
100
AcDbEntity
  8
DRAFT
100
AcDbSpline
 62
7
  6
CONTINUOUS
 70
0
 71
3
 72
11
 73
7
 74
5
 42
0.0000001
 43
0.0000001
 44
0.0000000001
 12
1.3275770182
 22
1.114493178
 32
0.0
 13
1.7023481528
 23
-0.3264453241
 33
0.0
 40
0.0
 40
0.0
 40
0.0
 40
0.0
 40
0.2327733909
 40
0.4731396677
 40
0.7274935089
 40
1.0
 40
1.0
 40
1.0
 40
1.0
 10
3.9682027586
 20
-8.0222360471
 30
0.0
 10
4.07121096
 20
-7.9357612617
 30
0.0
 10
4.3044051511
 20
-7.7864751023
 30
0.0
 10
4.7073352631
 20
-7.6538135484
 30
0.0
 10
5.1520053407
 20
-7.612795799
 30
0.0
 10
5.4566963777
 20
-7.6453456306
 30
0.0
 10
5.6113300182
 20
-7.6749984539
 30
0.0
 11
3.9682027586
 21
-8.0222360471
 31
0.0
 11
4.3076479997
 21
-7.8041210985
 31
0.0
 11
4.7025918576
 21
-7.6714168978
 31
0.0
 11
5.1413288848
 21
-7.6279175758
 31
0.0
 11
5.6113300182
 21
-7.6749984539
 31
0.0
  0
SPLINE
  5
2C4
100
AcDbEntity
  8
RACCORDO
100
AcDbSpline
 62
253
  6
CONTINUOUS
 70
0
 71
3
 72
13
 73
9
 74
7
 42
0.0000001
 43
0.0000001
 44
0.0000000001
 12
-5.145164233
 22
-4.4169283829
 32
0.0
 13
-6.2924743681
 23
2.527199567
 33
0.0
 40
0.0
 40
0.0
 40
0.0
 40
0.0
 40
0.1117098794
 40
0.2248827319
 40
0.3410844424
 40
0.4616191522
 40
0.7186287826
 40
1.0
 40
1.0
 40
1.0
 40
1.0
 10
2.0468205737
 20
-4.5648613078
 30
0.0
 10
1.855232015
 20
-4.7293328202
 30
0.0
 10
1.4407254932
 20
-5.028407578
 30
0.0
 10
0.7464034191
 20
-5.3709830443
 30
0.0
 10
-0.0126787994
 20
-5.6044478105
 30
0.0
 10
-1.1199715802
 20
-5.7702696281
 30
0.0
 10
-2.623785724
 20
-5.6771205925
 30
0.0
 10
-3.7989444399
 20
-5.3257200527
 30
0.0
 10
-4.3891181644
 20
-5.0886929798
 30
0.0
 11
2.0468205737
 21
-4.5648613078
 31
0.0
 11
1.4327444204
 21
-5.0083970627
 31
0.0
 11
0.7451012513
 21
-5.3491144055
 31
0.0
 11
-0.0074579188
 21
-5.582656228
 31
0.0
 11
-0.8154326319
 21
-5.7060713012
 31
0.0
 11
-2.5559797234
 21
-5.61782924
 31
0.0
 11
-4.3891181644
 21
-5.0886929798
 31
0.0
  0
SPLINE
  5
2C5
100
AcDbEntity
  8
RACCORDO
100
AcDbSpline
 62
253
  6
CONTINUOUS
 70
0
 71
3
 72
11
 73
7
 74
5
 42
0.0000001
 43
0.0000001
 44
0.0000000001
 12
-2.146386653
 22
0.8620372714
 32
0.0
 13
-1.7734065017
 23
-1.4849623905
 33
0.0
 40
0.0
 40
0.0
 40
0.0
 40
0.0
 40
0.2815784116
 40
0.5390303142
 40
0.7755991992
 40
1.0
 40
1.0
 40
1.0
 40
1.0
 10
3.1883544544
 20
-10.3557481152
 30
0.0
 10
2.9868957395
 20
-10.2748377533
 30
0.0
 10
2.585515656
 20
-10.1545912702
 30
0.0
 10
1.9828109644
 20
-10.1150555498
 30
0.0
 10
1.4329629339
 20
-10.2300833947
 30
0.0
 10
1.1191887404
 20
-10.4127848933
 30
0.0
 10
0.9865374608
 20
-10.5238604765
 30
0.0
 11
3.1883544544
 21
-10.3557481152
 31
0.0
 11
2.5627772879
 21
-10.1745241853
 31
0.0
 11
1.9681565147
 21
-10.1423119518
 31
0.0
 11
1.4339298648
 21
-10.2607115425
 31
0.0
 11
0.9865374608
 21
-10.5238604765
 31
0.0
  0
SPLINE
  5
2C6
100
AcDbEntity
  8
DRAFT
100
AcDbSpline
 62
7
  6
CONTINUOUS
 70
0
 71
3
 72
10
 73
6
 74
4
 42
0.0000001
 43
0.0000001
 44
0.0000000001
 12
0.0
 22
-0.8517362851
 32
0.0
 13
-0.6652129665
 23
-0.5319270707
 33
0.0
 40
0.0
 40
0.0
 40
0.0
 40
0.0
 40
0.5261533142
 40
0.7669676738
 40
1.0
 40
1.0
 40
1.0
 40
1.0
 10
1.5717379993
 20
8.5884641189
 30
0.0
 10
1.5717379993
 20
8.4390828292
 30
0.0
 10
1.5357510326
 20
8.2161784037
 30
0.0
 10
1.3955147551
 20
7.9666452107
 30
0.0
 10
1.3010933453
 20
7.8682846247
 30
0.0
 10
1.2494213036
 20
7.8269658905
 30
0.0
 11
1.5717379993
 21
8.5884641189
 31
0.0
 11
1.4886804617
 21
8.1480843136
 31
0.0
 11
1.3871991324
 21
7.9698378929
 31
0.0
 11
1.2494213036
 21
7.8269658905
 31
0.0
  0
SPLINE
  5
2C7
100
AcDbEntity
  8
DRAFT
100
AcDbSpline
 62
7
  6
CONTINUOUS
 70
0
 71
3
 72
9
 73
5
 74
3
 42
0.0000001
 43
0.0000001
 44
0.0000000001
 12
0.0
 22
-0.9097876218
 32
0.0
 13
-0.3847727784
 23
-0.8244170218
 33
0.0
 40
0.0
 40
0.0
 40
0.0
 40
0.0
 40
0.5185086822
 40
1.0
 40
1.0
 40
1.0
 40
1.0
 10
1.5717379993
 20
8.5884641189
 30
0.0
 10
1.5717379993
 20
8.4312198586
 30
0.0
 10
1.5445433816
 20
8.1269691381
 30
0.0
 10
1.4517960876
 20
7.8348285299
 30
0.0
 10
1.3900411702
 20
7.7025119838
 30
0.0
 11
1.5717379993
 21
8.5884641189
 31
0.0
 11
1.5259127893
 21
8.1189623972
 31
0.0
 11
1.3900411702
 21
7.7025119838
 31
0.0
  0
SPLINE
  5
2C8
100
AcDbEntity
  8
DRAFT
100
AcDbSpline
 62
7
  6
CONTINUOUS
 70
0
 71
3
 72
9
 73
5
 74
3
 42
0.0000001
 43
0.0000001
 44
0.0000000001
 12
-0.1399684361
 22
-0.2998974141
 32
0.0
 13
-0.1989138615
 23
-0.2645050053
 33
0.0
 40
0.0
 40
0.0
 40
0.0
 40
0.0
 40
0.2539709916
 40
1.0
 40
1.0
 40
1.0
 40
1.0
 10
1.3900411702
 20
7.7025119838
 30
0.0
 10
1.3781918627
 20
7.6771235693
 30
0.0
 10
1.3290809193
 20
7.578328051
 30
0.0
 10
1.2698807976
 20
7.4844994757
 30
0.0
 10
1.2204156273
 20
7.4187233401
 30
0.0
 11
1.3900411702
 21
7.7025119838
 31
0.0
 11
1.352595588
 21
7.6272615519
 31
0.0
 11
1.2204156273
 21
7.4187233401
 31
0.0
  0
SPLINE
  5
2C9
100
AcDbEntity
  8
DRAFT
100
AcDbSpline
 62
7
  6
CONTINUOUS
 70
0
 71
3
 72
9
 73
5
 74
3
 42
0.0000001
 43
0.0000001
 44
0.0000000001
 12
-0.2206595131
 22
-0.2934212089
 32
0.0
 13
-0.2866748196
 23
-0.2293559991
 33
0.0
 40
0.0
 40
0.0
 40
0.0
 40
0.0
 40
0.2519958714
 40
1.0
 40
1.0
 40
1.0
 40
1.0
 10
1.2204156273
 20
7.4187233401
 30
0.0
 10
1.2018805319
 20
7.3940763624
 30
0.0
 10
1.1253712083
 20
7.2985316623
 30
0.0
 10
1.0368918821
 20
7.2125410313
 30
0.0
 10
0.9654138992
 20
7.1553546199
 30
0.0
 11
1.2204156273
 21
7.4187233401
 31
0.0
 11
1.1625603464
 21
7.3465293242
 31
0.0
 11
0.9654138992
 21
7.1553546199
 31
0.0
  0
SPLINE
  5
2CA
100
AcDbEntity
  8
RACCORDO
100
AcDbSpline
 62
253
  6
CONTINUOUS
 70
0
 71
3
 72
9
 73
5
 74
3
 42
0.0000001
 43
0.0000001
 44
0.0000000001
 12
-2.2411719693
 22
0.9001051889
 32
0.0
 13
-2.0126758808
 23
1.3349820021
 33
0.0
 40
0.0
 40
0.0
 40
0.0
 40
0.0
 40
0.2428316033
 40
1.0
 40
1.0
 40
1.0
 40
1.0
 10
-8.6257699226
 20
-3.7639117494
 30
0.0
 10
-8.8071790502
 20
-3.691053754
 30
0.0
 10
-9.5457862552
 20
-3.3701834928
 30
0.0
 10
-10.2494234077
 20
-2.9704892715
 30
0.0
 10
-10.7574015976
 20
-2.6335538775
 30
0.0
 11
-8.6257699226
 21
-3.7639117494
 31
0.0
 11
-9.1638313081
 21
-3.5305708468
 31
0.0
 11
-10.7574015976
 21
-2.6335538775
 31
0.0
  0
SPLINE
  5
2CB
100
AcDbEntity
  8
DRAFT
100
AcDbSpline
 62
7
  6
CONTINUOUS
 70
0
 71
3
 72
12
 73
8
 74
6
 42
0.0000001
 43
0.0000001
 44
0.0000000001
 12
4.3975746139
 22
-1.766165106
 32
0.0
 13
-0.0
 23
-4.7389874094
 33
0.0
 40
0.0
 40
0.0
 40
0.0
 40
0.0
 40
0.2469191102
 40
0.5096960837
 40
0.6406647285
 40
0.7675621509
 40
1.0
 40
1.0
 40
1.0
 40
1.0
 10
-1.0495485424
 20
12.2625184313
 30
0.0
 10
-0.6876001388
 20
12.1171517925
 30
0.0
 10
0.0086478776
 20
11.6852411591
 30
0.0
 10
0.7050101933
 20
10.9356366409
 30
0.0
 10
1.1393781138
 20
10.2341940006
 30
0.0
 10
1.4539801634
 20
9.5255062023
 30
0.0
 10
1.5717379993
 20
8.9556374657
 30
0.0
 10
1.5717379993
 20
8.5884641189
 30
0.0
 11
-1.0495485424
 21
12.2625184313
 31
0.0
 11
-0.0463958621
 21
11.6600836556
 31
0.0
 11
0.8039706803
 21
10.7503360058
 31
0.0
 11
1.1299603541
 21
10.2221806997
 31
0.0
 11
1.3721919556
 21
9.671758989
 31
0.0
 11
1.5717379993
 21
8.5884641189
 31
0.0
  0
SPLINE
  5
2CC
100
AcDbEntity
  8
DRAFT
100
AcDbSpline
 62
7
  6
CONTINUOUS
 70
0
 71
3
 72
11
 73
7
 74
5
 42
0.0000001
 43
0.0000001
 44
0.0000000001
 12
2.3347714903
 22
-0.9376968667
 32
0.0
 13
0.0
 23
-2.5160352393
 33
0.0
 40
0.0
 40
0.0
 40
0.0
 40
0.0
 40
0.247063863
 40
0.510011583
 40
0.7674267658
 40
1.0
 40
1.0
 40
1.0
 40
1.0
 10
0.179179524
 20
10.5403054724
 30
0.0
 10
0.3714587453
 20
10.4630818023
 30
0.0
 10
0.7414428323
 20
10.2335960913
 30
0.0
 10
1.1838367817
 20
9.7570344171
 30
0.0
 10
1.4866483979
 20
9.1951887229
 30
0.0
 10
1.5717379993
 20
8.7835182698
 30
0.0
 10
1.5717379993
 20
8.5884641189
 30
0.0
 11
0.179179524
 21
10.5403054724
 31
0.0
 11
0.7120895741
 21
10.2202741836
 31
0.0
 11
1.163867923
 21
9.7369606197
 31
0.0
 11
1.4657360287
 21
9.163945377
 31
0.0
 11
1.5717379993
 21
8.5884641189
 31
0.0
  0
SPLINE
  5
2CD
100
AcDbEntity
  8
RACCORDO
100
AcDbSpline
 62
253
  6
CONTINUOUS
 70
0
 71
3
 72
12
 73
8
 74
6
 42
0.0000001
 43
0.0000001
 44
0.0000000001
 12
2.6874471026
 22
-6.914649782
 32
0.0
 13
-3.8459954282
 23
-6.3437427992
 33
0.0
 40
0.0
 40
0.0
 40
0.0
 40
0.0
 40
0.2810365694
 40
0.5417186555
 40
0.7803047117
 40
0.8922105752
 40
1.0
 40
1.0
 40
1.0
 40
1.0
 10
3.1191238194
 20
3.4631808929
 30
0.0
 10
3.3708807908
 20
2.8154244084
 30
0.0
 10
3.7575071091
 20
1.5243871772
 30
0.0
 10
3.960213054
 20
-0.4065248969
 30
0.0
 10
3.7816915705
 20
-1.9245215045
 30
0.0
 10
3.4230760717
 20
-3.002918774
 30
0.0
 10
3.1776877278
 20
-3.490389448
 30
0.0
 10
3.0395018495
 20
-3.7183189104
 30
0.0
 11
3.1191238194
 21
3.4631808929
 31
0.0
 11
3.7058527298
 21
1.4625611117
 31
0.0
 11
3.8908378156
 21
-0.4624519919
 31
0.0
 11
3.6650387336
 21
-2.2179504692
 31
0.0
 11
3.4007921397
 21
-3.0049509005
 31
0.0
 11
3.0395018495
 21
-3.7183189104
 31
0.0
  0
SPLINE
  5
2CE
100
AcDbEntity
  8
RACCORDO
100
AcDbSpline
 62
253
  6
CONTINUOUS
 70
0
 71
3
 72
9
 73
5
 74
3
 42
0.0000001
 43
0.0000001
 44
0.0000000001
 12
-0.6470287929
 22
-1.0297189691
 32
0.0
 13
-0.8846989806
 23
-0.8344310206
 33
0.0
 40
0.0
 40
0.0
 40
0.0
 40
0.0
 40
0.2530965405
 40
1.0
 40
1.0
 40
1.0
 40
1.0
 10
2.9969117921
 20
-3.7873197745
 30
0.0
 10
2.9423248758
 20
-3.8741925441
 30
0.0
 10
2.7163001071
 20
-4.2108003209
 30
0.0
 10
2.4478568487
 20
-4.5190797687
 30
0.0
 10
2.2275952723
 20
-4.7268262407
 30
0.0
 11
2.9969117921
 21
-3.7873197745
 31
0.0
 11
2.8251954641
 21
-4.0427664196
 31
0.0
 11
2.2275952723
 21
-4.7268262407
 31
0.0
  0
SPLINE
  5
2CF
100
AcDbEntity
  8
RACCORDO
100
AcDbSpline
 62
253
  6
CONTINUOUS
 70
0
 71
3
 72
14
 73
10
 74
8
 42
0.0000001
 43
0.0000001
 44
0.0000000001
 12
-5.215662878
 22
-4.9193126633
 32
0.0
 13
-6.6530524962
 23
2.672015872
 33
0.0
 40
0.0
 40
0.0
 40
0.0
 40
0.0
 40
0.1119619304
 40
0.2250188065
 40
0.3408974968
 40
0.4610606706
 40
0.5865947056
 40
0.7181865191
 40
1.0
 40
1.0
 40
1.0
 40
1.0
 10
2.2275952723
 20
-4.7268262407
 30
0.0
 10
2.0329433776
 20
-4.9104181547
 30
0.0
 10
1.6086801859
 20
-5.2460588918
 30
0.0
 10
0.888688419
 20
-5.6353299668
 30
0.0
 10
0.0953912923
 20
-5.905476597
 30
0.0
 10
-0.759277576
 20
-6.0532415227
 30
0.0
 10
-1.6635889567
 20
-6.0774977852
 30
0.0
 10
-2.9472634691
 20
-5.9426278904
 30
0.0
 10
-3.9050364071
 20
-5.6598647557
 30
0.0
 10
-4.5300097012
 20
-5.4088613911
 30
0.0
 11
2.2275952723
 21
-4.7268262407
 31
0.0
 11
1.5981215951
 21
-5.2249437457
 31
0.0
 11
0.8856946621
 21
-5.6115583005
 31
0.0
 11
0.0999325364
 21
-5.8813873657
 31
0.0
 11
-0.7485294882
 21
-6.0308081197
 31
0.0
 11
-1.6481491546
 21
-6.0578306237
 31
0.0
 11
-2.5867321084
 21
-5.9620530072
 31
0.0
 11
-4.5300097012
 21
-5.4088613911
 31
0.0
  0
SPLINE
  5
2D0
100
AcDbEntity
  8
DRAFT
100
AcDbSpline
 62
7
  6
CONTINUOUS
 70
0
 71
3
 72
15
 73
11
 74
9
 42
0.0000001
 43
0.0000001
 44
0.0000000001
 12
3.1047448858
 22
-1.246935541
 32
0.0
 13
-2.6136789721
 23
-2.0887726732
 33
0.0
 40
0.0
 40
0.0
 40
0.0
 40
0.0
 40
0.131368343
 40
0.2710245045
 40
0.413292226
 40
0.5520230604
 40
0.6817199063
 40
0.7989104198
 40
0.9034923137
 40
1.0
 40
1.0
 40
1.0
 40
1.0
 10
-0.6811851305
 20
9.8248130594
 30
0.0
 10
-0.5452300668
 20
9.7702104408
 30
0.0
 10
-0.2783840425
 20
9.6219695894
 30
0.0
 10
0.0729186566
 20
9.3194938161
 30
0.0
 10
0.3668033127
 20
8.950222107
 30
0.0
 10
0.5808410496
 20
8.5419610241
 30
0.0
 10
0.6988664757
 20
8.1246820117
 30
0.0
 10
0.7104546384
 20
7.7279164276
 30
0.0
 10
0.6101391278
 20
7.3800249102
 30
0.0
 10
0.4646473665
 20
7.1993568621
 30
0.0
 10
0.3805673297
 20
7.1321626562
 30
0.0
 11
-0.6811851305
 21
9.8248130594
 31
0.0
 11
-0.2951130489
 21
9.6147288488
 31
0.0
 11
0.0602265544
 21
9.311305996
 31
0.0
 11
0.3564907833
 21
8.9387458163
 31
0.0
 11
0.5701271722
 21
8.5266687405
 31
0.0
 11
0.6840872099
 21
8.1079620544
 31
0.0
 11
0.6893105613
 21
7.7159023792
 31
0.0
 11
0.5853846158
 21
7.3817833771
 31
0.0
 11
0.3805673297
 21
7.1321626562
 31
0.0
  0
SPLINE
  5
2D1
100
AcDbEntity
  8
DRAFT
100
AcDbSpline
 62
7
  6
CONTINUOUS
 70
0
 71
3
 72
10
 73
6
 74
4
 42
0.0000001
 43
0.0000001
 44
0.0000000001
 12
0.0
 22
0.7350755834
 32
0.0
 13
0.5740382112
 23
0.4591473025
 33
0.0
 40
0.0
 40
0.0
 40
0.0
 40
0.0
 40
0.526199664
 40
0.7670122872
 40
1.0
 40
1.0
 40
1.0
 40
1.0
 10
-3.1119809243
 20
9.4192399233
 30
0.0
 10
-3.1119809243
 20
9.5481720983
 30
0.0
 10
-3.0809219121
 20
9.7405492703
 30
0.0
 10
-2.959933638
 20
9.95593197
 30
0.0
 10
-2.8784373195
 20
10.0407966191
 30
0.0
 10
-2.8338560362
 20
10.0764551791
 30
0.0
 11
-3.1119809243
 21
9.4192399233
 31
0.0
 11
-3.0403075399
 21
9.7993379077
 31
0.0
 11
-2.9527426559
 21
9.9531783154
 31
0.0
 11
-2.8338560362
 21
10.0764551791
 31
0.0
  0
SPLINE
  5
2D2
100
AcDbEntity
  8
DRAFT
100
AcDbSpline
 62
7
  6
CONTINUOUS
 70
0
 71
3
 72
11
 73
7
 74
5
 42
0.0000001
 43
0.0000001
 44
0.0000000001
 12
0.3059583984
 22
-1.5976297636
 32
0.0
 13
1.5058097082
 23
-0.6152792257
 33
0.0
 40
0.0
 40
0.0
 40
0.0
 40
0.0
 40
0.2423106295
 40
0.50003615
 40
0.7577876676
 40
1.0
 40
1.0
 40
1.0
 40
1.0
 10
-1.7652357017
 20
10.0704757583
 30
0.0
 10
-1.7405233777
 20
9.941434867
 30
0.0
 10
-1.6491615637
 20
9.6822180974
 30
0.0
 10
-1.423654519
 20
9.3348393458
 30
0.0
 10
-1.1275174361
 20
9.0453793878
 30
0.0
 10
-0.8914271901
 20
8.904763981
 30
0.0
 10
-0.7698519629
 20
8.8550879089
 30
0.0
 11
-1.7652357017
 21
10.0704757583
 31
0.0
 11
-1.6384892821
 21
9.6972525003
 31
0.0
 11
-1.4116456001
 21
9.3446935457
 31
0.0
 11
-1.1106312082
 21
9.0528345601
 31
0.0
 11
-0.7698519629
 21
8.8550879089
 31
0.0
  0
SPLINE
  5
2D3
100
AcDbEntity
  8
RACCORDO
100
AcDbSpline
 62
253
  6
CONTINUOUS
 70
0
 71
3
 72
11
 73
7
 74
5
 42
0.0000001
 43
0.0000001
 44
0.0000000001
 12
-1.5592785337
 22
-1.1731723729
 32
0.0
 13
-0.2750187841
 23
-1.9318508303
 33
0.0
 40
0.0
 40
0.0
 40
0.0
 40
0.0
 40
0.2379171703
 40
0.4805604419
 40
0.7333061814
 40
1.0
 40
1.0
 40
1.0
 40
1.0
 10
3.2484808189
 20
-6.9741691122
 30
0.0
 10
3.1248211067
 20
-7.067208396
 30
0.0
 10
2.8948588533
 20
-7.2831787588
 30
0.0
 10
2.6229474266
 20
-7.6790893727
 30
0.0
 10
2.4281233244
 20
-8.1381175748
 30
0.0
 10
2.3541193241
 20
-8.4697472601
 30
0.0
 10
2.3296707209
 20
-8.6414848184
 30
0.0
 11
3.2484808189
 21
-6.9741691122
 31
0.0
 11
2.9098094836
 21
-7.2917128434
 31
0.0
 11
2.640379347
 21
-7.6810553909
 31
0.0
 11
2.4456076734
 21
-8.134156196
 31
0.0
 11
2.3296707209
 21
-8.6414848184
 31
0.0
  0
SPLINE
  5
2D4
100
AcDbEntity
  8
RACCORDO
100
AcDbSpline
 62
253
  6
CONTINUOUS
 70
0
 71
3
 72
11
 73
7
 74
5
 42
0.0000001
 43
0.0000001
 44
0.0000000001
 12
0.2989737228
 22
2.792421223
 32
0.0
 13
2.3060537866
 23
1.6028466885
 33
0.0
 40
0.0
 40
0.0
 40
0.0
 40
0.0
 40
0.2684752246
 40
0.5213119952
 40
0.7630050556
 40
1.0
 40
1.0
 40
1.0
 40
1.0
 10
1.1230526106
 20
-8.1570185668
 30
0.0
 10
1.1498082897
 20
-7.9071199285
 30
0.0
 10
1.2425315972
 20
-7.4247255237
 30
0.0
 10
1.5139976182
 20
-6.7585491673
 30
0.0
 10
1.9078103372
 20
-6.1912426693
 30
0.0
 10
2.2465196842
 20
-5.8902146458
 30
0.0
 10
2.4286940472
 20
-5.7635924585
 30
0.0
 11
1.1230526106
 21
-8.1570185668
 31
0.0
 11
1.2699131652
 21
-7.4174790212
 31
0.0
 11
1.5415613443
 21
-6.7614339456
 31
0.0
 11
1.9309915456
 21
-6.2054955154
 31
0.0
 11
2.4286940472
 21
-5.7635924585
 31
0.0
  0
SPLINE
  5
2D5
100
AcDbEntity
  8
RACCORDO
100
AcDbSpline
 62
253
  6
CONTINUOUS
 70
0
 71
3
 72
9
 73
5
 74
3
 42
0.0000001
 43
0.0000001
 44
0.0000000001
 12
-2.4017970842
 22
0.9646158561
 32
0.0
 13
-2.1309586677
 23
1.4690568879
 33
0.0
 40
0.0
 40
0.0
 40
0.0
 40
0.0
 40
0.2423186519
 40
1.0
 40
1.0
 40
1.0
 40
1.0
 10
-8.4848783858
 20
-3.4437433381
 30
0.0
 10
-8.678878463
 20
-3.3658285335
 30
0.0
 10
-9.4695529986
 20
-3.0198258109
 30
0.0
 10
-10.2189380051
 20
-2.5817416196
 30
0.0
 10
-10.7571338838
 20
-2.2107159518
 30
0.0
 11
-8.4848783858
 21
-3.4437433381
 31
0.0
 11
-9.0596443859
 21
-3.192735837
 31
0.0
 11
-10.7571338838
 21
-2.2107159518
 31
0.0
  0
SPLINE
  5
2D6
100
AcDbEntity
  8
RACCORDO
100
AcDbSpline
 62
253
  6
CONTINUOUS
 70
0
 71
3
 72
9
 73
5
 74
3
 42
0.0000001
 43
0.0000001
 44
0.0000000001
 12
-0.6322753106
 22
-0.2729600725
 32
0.0
 13
-0.5224136392
 23
-0.448735177
 33
0.0
 40
0.0
 40
0.0
 40
0.0
 40
0.0
 40
0.2524655264
 40
1.0
 40
1.0
 40
1.0
 40
1.0
 10
3.7080619079
 20
-6.4521058894
 30
0.0
 10
3.6548526681
 20
-6.4750768922
 30
0.0
 10
3.4474925557
 20
-6.5737220506
 30
0.0
 10
3.254935209
 20
-6.7036317929
 30
0.0
 10
3.1247611407
 20
-6.8154467977
 30
0.0
 11
3.7080619079
 21
-6.4521058894
 31
0.0
 11
3.5510936194
 21
-6.5268786642
 31
0.0
 11
3.1247611407
 21
-6.8154467977
 31
0.0
  0
SPLINE
  5
2D7
100
AcDbEntity
  8
RACCORDO
100
AcDbSpline
 62
253
  6
CONTINUOUS
 70
0
 71
3
 72
11
 73
7
 74
5
 42
0.0000001
 43
0.0000001
 44
0.0000000001
 12
0.2149980612
 22
2.6766277042
 32
0.0
 13
2.1169912824
 23
1.6519406597
 33
0.0
 40
0.0
 40
0.0
 40
0.0
 40
0.0
 40
0.2692576906
 40
0.5227495753
 40
0.7643920741
 40
1.0
 40
1.0
 40
1.0
 40
1.0
 10
1.3878016539
 20
-8.2634028504
 30
0.0
 10
1.4070982811
 20
-8.0231686523
 30
0.0
 10
1.4822326544
 20
-7.5584660684
 30
0.0
 10
1.7177935303
 20
-6.9113188918
 30
0.0
 10
2.0682237084
 20
-6.3529651841
 30
0.0
 10
2.3750705347
 20
-6.0492248517
 30
0.0
 10
2.5413305098
 20
-5.9194880808
 30
0.0
 11
1.3878016539
 21
-8.2634028504
 31
0.0
 11
1.5073044881
 21
-7.5503232333
 31
0.0
 11
1.7436874743
 21
-6.9119971191
 31
0.0
 11
2.091108637
 21
-6.3639724409
 31
0.0
 11
2.5413305098
 21
-5.9194880808
 31
0.0
  0
SPLINE
  5
2D8
100
AcDbEntity
  8
RACCORDO
100
AcDbSpline
 62
253
  6
CONTINUOUS
 70
0
 71
3
 72
11
 73
7
 74
5
 42
0.0000001
 43
0.0000001
 44
0.0000000001
 12
0.1223052004
 22
-0.1958867663
 32
0.0
 13
0.2122683623
 23
0.090952348
 33
0.0
 40
0.0
 40
0.0
 40
0.0
 40
0.0
 40
0.283939418
 40
0.546977389
 40
0.7826836857
 40
1.0
 40
1.0
 40
1.0
 40
1.0
 10
2.9330578248
 20
-5.4836951997
 30
0.0
 10
2.9446335806
 20
-5.5022351911
 30
0.0
 10
2.9715286189
 20
-5.5353456229
 30
0.0
 10
3.0214275563
 20
-5.5706714094
 30
0.0
 10
3.0758335001
 20
-5.5859412467
 30
0.0
 10
3.1116373094
 20
-5.5798644649
 30
0.0
 10
3.1270137688
 20
-5.5732759886
 30
0.0
 11
2.9330578248
 21
-5.4836951997
 31
0.0
 11
2.9747058586
 21
-5.5343410874
 31
0.0
 11
3.0248661021
 21
-5.5686020114
 31
0.0
 11
3.0776052518
 21
-5.5820731565
 31
0.0
 11
3.1270137688
 21
-5.5732759886
 31
0.0
  0
SPLINE
  5
2D9
100
AcDbEntity
  8
RACCORDO
100
AcDbSpline
 62
253
  6
CONTINUOUS
 70
0
 71
3
 72
11
 73
7
 74
5
 42
0.0000001
 43
0.0000001
 44
0.0000000001
 12
-0.1482366393
 22
0.237419133
 32
0.0
 13
0.21237997
 23
0.1823093369
 33
0.0
 40
0.0
 40
0.0
 40
0.0
 40
0.0
 40
0.2754235673
 40
0.5425374173
 40
0.7853188132
 40
1.0
 40
1.0
 40
1.0
 40
1.0
 10
3.7002143764
 20
-6.7123904277
 30
0.0
 10
3.6866050883
 20
-6.6905934862
 30
0.0
 10
3.6659285849
 20
-6.6435518919
 30
0.0
 10
3.655660217
 20
-6.5699639344
 30
0.0
 10
3.6681156353
 20
-6.5021476554
 30
0.0
 10
3.6928639165
 20
-6.4651520163
 30
0.0
 10
3.7080619111
 20
-6.452105888
 30
0.0
 11
3.7002143764
 21
-6.7123904277
 31
0.0
 11
3.6691123609
 21
-6.6418529267
 31
0.0
 11
3.6595770995
 21
-6.5676992911
 31
0.0
 11
3.6733543125
 21
-6.5011569547
 31
0.0
 11
3.7080619111
 21
-6.452105888
 31
0.0
  0
SPLINE
  5
2DA
100
AcDbEntity
  8
RACCORDO
100
AcDbSpline
 62
253
  6
CONTINUOUS
 70
0
 71
3
 72
11
 73
7
 74
5
 42
0.0000001
 43
0.0000001
 44
0.0000000001
 12
-1.8544829794
 22
0.7448021729
 32
0.0
 13
-1.6559350154
 23
-1.1188014223
 33
0.0
 40
0.0
 40
0.0
 40
0.0
 40
0.0
 40
0.2798709913
 40
0.5376718221
 40
0.7755359267
 40
1.0
 40
1.0
 40
1.0
 40
1.0
 10
3.0462116791
 20
-10.6769648735
 30
0.0
 10
2.8732063491
 20
-10.6074820327
 30
0.0
 10
2.5284170875
 20
-10.5017154668
 30
0.0
 10
2.0097673544
 20
-10.4537474344
 30
0.0
 10
1.5302292838
 20
-10.5268929365
 30
0.0
 10
1.246379679
 20
-10.6597789703
 30
0.0
 10
1.1224803728
 20
-10.7434892118
 30
0.0
 11
3.0462116791
 21
-10.6769648735
 31
0.0
 11
2.510258173
 21
-10.5170204345
 31
0.0
 11
1.9968175199
 21
-10.4744270695
 31
0.0
 11
1.5276635779
 21
-10.5509988125
 31
0.0
 11
1.1224803728
 21
-10.7434892118
 31
0.0
  0
SPLINE
  5
2DB
100
AcDbEntity
  8
RACCORDO
100
AcDbSpline
 62
253
  6
CONTINUOUS
 70
0
 71
3
 72
9
 73
5
 74
3
 42
0.0000001
 43
0.0000001
 44
0.0000000001
 12
-0.8160786987
 22
-0.5513682605
 32
0.0
 13
-0.3273227334
 23
-0.9288978574
 33
0.0
 40
0.0
 40
0.0
 40
0.0
 40
0.0
 40
0.4896296411
 40
1.0
 40
1.0
 40
1.0
 40
1.0
 10
1.1224803728
 20
-10.7434892118
 30
0.0
 10
0.989288266
 20
-10.8334779596
 30
0.0
 10
0.7469118597
 20
-11.0653226464
 30
0.0
 10
0.593922414
 20
-11.3623922283
 30
0.0
 10
0.5382371404
 20
-11.5204195392
 30
0.0
 11
1.1224803728
 21
-10.7434892118
 31
0.0
 11
0.7733682987
 21
-11.0761508539
 31
0.0
 11
0.5382371404
 21
-11.5204195392
 31
0.0
  0
SPLINE
  5
2DC
100
AcDbEntity
  8
RACCORDO
100
AcDbSpline
 62
253
  6
CONTINUOUS
 70
0
 71
3
 72
13
 73
9
 74
7
 42
0.0000001
 43
0.0000001
 44
0.0000000001
 12
-1.2943077563
 22
-5.1434402013
 32
0.0
 13
4.9216887661
 23
-1.9766611653
 33
0.0
 40
0.0
 40
0.0
 40
0.0
 40
0.0
 40
0.2202520699
 40
0.3450502472
 40
0.4765382776
 40
0.611477234
 40
0.7462001843
 40
1.0
 40
1.0
 40
1.0
 40
1.0
 10
0.4874809301
 20
-11.689244735
 30
0.0
 10
0.392456276
 20
-12.0668625186
 30
0.0
 10
0.415693533
 20
-12.7033947344
 30
0.0
 10
0.6683301135
 20
-13.5076907147
 30
0.0
 10
0.9816227199
 20
-14.1283281814
 30
0.0
 10
1.3958549836
 20
-14.7075184856
 30
0.0
 10
2.0405926418
 20
-15.3734830653
 30
0.0
 10
2.6298371118
 20
-15.7591515206
 30
0.0
 10
3.0462116791
 20
-15.9263769337
 30
0.0
 11
0.4874809301
 21
-11.689244735
 31
0.0
 11
0.4871880779
 21
-12.8574158667
 31
0.0
 11
0.6812309127
 21
-13.4902378964
 31
0.0
 11
0.9939021611
 21
-14.1136019622
 31
0.0
 11
1.4095198443
 21
-14.6962437748
 31
0.0
 11
1.9072396043
 21
-15.2089288978
 31
0.0
 11
3.0462116791
 21
-15.9263769337
 31
0.0
  0
SPLINE
  5
2DD
100
AcDbEntity
  8
RACCORDO
100
AcDbSpline
 62
253
  6
CONTINUOUS
 70
0
 71
3
 72
11
 73
7
 74
5
 42
0.0000001
 43
0.0000001
 44
0.0000000001
 12
2.0046027945
 22
-0.6540917965
 32
0.0
 13
1.443889802
 23
1.5367012336
 33
0.0
 40
0.0
 40
0.0
 40
0.0
 40
0.0
 40
0.2798824762
 40
0.5352898281
 40
0.7717546209
 40
1.0
 40
1.0
 40
1.0
 40
1.0
 10
3.2429779976
 20
-15.9979892199
 30
0.0
 10
3.4299957289
 20
-16.0590121638
 30
0.0
 10
3.8006380876
 20
-16.1417419788
 30
0.0
 10
4.3492398458
 20
-16.1291538534
 30
0.0
 10
4.8383719287
 20
-15.9704068456
 30
0.0
 10
5.1044858141
 20
-15.7686114977
 30
0.0
 10
5.2143395392
 20
-15.6516965125
 30
0.0
 11
3.2429779976
 21
-15.9979892199
 31
0.0
 11
3.8202828814
 21
-16.120520664
 31
0.0
 11
4.3585128941
 21
-16.1017721614
 31
0.0
 11
4.8311290561
 21
-15.9428705459
 31
0.0
 11
5.2143395392
 21
-15.6516965125
 31
0.0
  0
SPLINE
  5
2DE
100
AcDbEntity
  8
RACCORDO
100
AcDbSpline
 62
253
  6
CONTINUOUS
 70
0
 71
3
 72
9
 73
5
 74
3
 42
0.0000001
 43
0.0000001
 44
0.0000000001
 12
0.7607888262
 22
0.809691381
 32
0.0
 13
0.1320119952
 23
1.1031648126
 33
0.0
 40
0.0
 40
0.0
 40
0.0
 40
0.0
 40
0.4802928013
 40
1.0
 40
1.0
 40
1.0
 40
1.0
 10
5.2143395392
 20
-15.6516965125
 30
0.0
 10
5.3361400047
 20
-15.5220668653
 30
0.0
 10
5.540372914
 20
-15.2029496895
 30
0.0
 10
5.6310862894
 20
-14.8378581428
 30
0.0
 10
5.6539554842
 20
-14.646750578
 30
0.0
 11
5.2143395392
 21
-15.6516965125
 31
0.0
 11
5.5061363775
 21
-15.2049220788
 31
0.0
 11
5.6539554842
 21
-14.646750578
 31
0.0
  0
SPLINE
  5
2DF
100
AcDbEntity
  8
RACCORDO
100
AcDbSpline
 62
253
  6
CONTINUOUS
 70
0
 71
3
 72
11
 73
7
 74
5
 42
0.0000001
 43
0.0000001
 44
0.0000000001
 12
-0.602369247
 22
4.3076701568
 32
0.0
 13
-4.0362240769
 23
1.6210385838
 33
0.0
 40
0.0
 40
0.0
 40
0.0
 40
0.0
 40
0.2397666428
 40
0.4976274899
 40
0.7567638905
 40
1.0
 40
1.0
 40
1.0
 40
1.0
 10
5.6425360131
 20
-13.9595688318
 30
0.0
 10
5.5943933291
 20
-13.6152902946
 30
0.0
 10
5.3759665706
 20
-12.9156318356
 30
0.0
 10
4.7937090119
 20
-11.9743824771
 30
0.0
 10
4.0078629897
 20
-11.1879550776
 30
0.0
 10
3.3734634929
 20
-10.8083965797
 30
0.0
 10
3.0462116791
 20
-10.6769648735
 30
0.0
 11
5.6425360131
 21
-13.9595688318
 31
0.0
 11
5.3457316772
 21
-12.9598108366
 31
0.0
 11
4.7606999912
 21
-12.002890994
 31
0.0
 11
3.9608012272
 21
-11.2087903582
 31
0.0
 11
3.0462116791
 21
-10.6769648735
 31
0.0
  0
SPLINE
  5
2E0
100
AcDbEntity
  8
RACCORDO
100
AcDbSpline
 62
253
  6
CONTINUOUS
 70
0
 71
3
 72
11
 73
7
 74
5
 42
0.0000001
 43
0.0000001
 44
0.0000000001
 12
0.0
 22
0.3581851615
 32
0.0
 13
0.2737132826
 23
0.2310360337
 33
0.0
 40
0.0
 40
0.0
 40
0.0
 40
0.0
 40
0.2425327689
 40
0.510442534
 40
0.7727195226
 40
1.0
 40
1.0
 40
1.0
 40
1.0
 10
-4.5300097012
 20
-5.4088613911
 30
0.0
 10
-4.5300097012
 20
-5.379904178
 30
0.0
 10
-4.5213255148
 20
-5.3189665223
 30
0.0
 10
-4.4917600964
 20
-5.2311116892
 30
0.0
 10
-4.4480048727
 20
-5.1514972477
 30
0.0
 10
-4.4098547262
 20
-5.1061963065
 30
0.0
 10
-4.3891181644
 20
-5.0886929798
 30
0.0
 11
-4.5300097012
 21
-5.4088613911
 31
0.0
 11
-4.5193086347
 21
-5.3226513636
 31
0.0
 11
-4.4889042111
 21
-5.2316340982
 31
0.0
 11
-4.4431501775
 21
-5.149585381
 31
0.0
 11
-4.3891181644
 21
-5.0886929798
 31
0.0
  0
SPLINE
  5
2E1
100
AcDbEntity
  8
RACCORDO
100
AcDbSpline
 62
253
  6
CONTINUOUS
 70
0
 71
3
 72
11
 73
7
 74
5
 42
0.0000001
 43
0.0000001
 44
0.0000000001
 12
0.0000000011
 22
0.3581851616
 32
0.0
 13
0.2737132835
 23
0.2310360327
 33
0.0
 40
0.0
 40
0.0
 40
0.0
 40
0.0
 40
0.2425328942
 40
0.5104427491
 40
0.7727196211
 40
1.0
 40
1.0
 40
1.0
 40
1.0
 10
-8.6257699226
 20
-3.7639117494
 30
0.0
 10
-8.6257699226
 20
-3.7349545214
 30
0.0
 10
-8.6170857144
 20
-3.6740168421
 30
0.0
 10
-8.5875202985
 20
-3.5861619974
 30
0.0
 10
-8.5437650769
 20
-3.5065475697
 30
0.0
 10
-8.5056149376
 20
-3.4612466576
 30
0.0
 10
-8.4848783847
 20
-3.4437433386
 30
0.0
 11
-8.6257699226
 21
-3.7639117494
 31
0.0
 11
-8.6150688382
 21
-3.6777016789
 31
0.0
 11
-8.5846644013
 21
-3.5866843839
 31
0.0
 11
-8.538910382
 21
-3.5046357067
 31
0.0
 11
-8.4848783847
 21
-3.4437433386
 31
0.0
  0
SPLINE
  5
2E2
100
AcDbEntity
  8
RACCORDO
100
AcDbSpline
 62
7
  6
CONTINUOUS
 70
0
 71
3
 72
17
 73
13
 74
11
 42
0.0000001
 43
0.0000001
 44
0.0000000001
 12
-0.0000000109
 22
6.9581260278
 32
0.0
 13
-5.4803266625
 23
-4.2873695306
 33
0.0
 40
0.0
 40
0.0
 40
0.0
 40
0.0
 40
0.123588447
 40
0.2604953104
 40
0.4043797824
 40
0.5475440728
 40
0.6824287103
 40
0.8030928786
 40
0.8573423155
 40
0.9076489427
 40
0.9547501327
 40
1.0
 40
1.0
 40
1.0
 40
1.0
 10
1.7027049353
 20
8.5955818477
 30
0.0
 10
1.7027049349
 20
8.8822298442
 30
0.0
 10
1.6053016308
 20
9.4875330975
 30
0.0
 10
1.2389061653
 20
10.3582618903
 30
0.0
 10
0.6758299907
 20
11.1726924552
 30
0.0
 10
-0.0341203013
 20
11.8561796464
 30
0.0
 10
-0.8258343714
 20
12.3479040595
 30
0.0
 10
-1.5206983474
 20
12.5696697555
 30
0.0
 10
-2.0443687508
 20
12.6034106778
 30
0.0
 10
-2.3959274882
 20
12.5619627517
 30
0.0
 10
-2.7120932421
 20
12.4564303116
 30
0.0
 10
-2.8968885856
 20
12.3438002634
 30
0.0
 10
-2.9795499371
 20
12.2791326293
 30
0.0
 11
1.7027049353
 21
8.5955818477
 31
0.0
 11
1.5790789455
 21
9.4465931755
 31
0.0
 11
1.2170534321
 21
10.327736334
 31
0.0
 11
0.6493086154
 21
11.1523573148
 31
0.0
 11
-0.0703915213
 21
11.8410930018
 31
0.0
 11
-0.872388905
 21
12.3286026049
 31
0.0
 11
-1.6765053482
 21
12.5700958989
 31
0.0
 11
-2.0533383613
 21
12.5920917499
 31
0.0
 11
-2.4007116542
 21
12.5489675896
 31
0.0
 11
-2.7110254747
 21
12.4435340601
 31
0.0
 11
-2.9795499371
 21
12.2791326293
 31
0.0
  0
SPLINE
  5
2E3
100
AcDbEntity
  8
RACCORDO
100
AcDbSpline
 62
7
  6
CONTINUOUS
 70
0
 71
3
 72
10
 73
6
 74
4
 42
0.0000001
 43
0.0000001
 44
0.0000000001
 12
0.9887476284
 22
0.8517110181
 32
0.0
 13
0.106959571
 23
1.3006126177
 33
0.0
 40
0.0
 40
0.0
 40
0.0
 40
0.0
 40
0.2312870641
 40
0.4716060313
 40
1.0
 40
1.0
 40
1.0
 40
1.0
 10
1.1594832354
 20
7.2319955239
 30
0.0
 10
1.2357114141
 20
7.2976587709
 30
0.0
 10
1.3765231576
 20
7.4496056951
 30
0.0
 10
1.5984864703
 20
7.8266881209
 30
0.0
 10
1.6755950571
 20
8.1619344951
 30
0.0
 10
1.6944339879
 20
8.391013116
 30
0.0
 11
1.1594832354
 21
7.2319955239
 31
0.0
 11
1.3651359731
 21
7.4529220422
 31
0.0
 11
1.525404508
 21
7.7224951179
 31
0.0
 11
1.6944339879
 21
8.391013116
 31
0.0
  0
SPLINE
  5
2E4
100
AcDbEntity
  8
RACCORDO
100
AcDbSpline
 62
7
  6
CONTINUOUS
 70
0
 71
3
 72
14
 73
10
 74
8
 42
0.0000001
 43
0.0000001
 44
0.0000000001
 12
-2.8540146689
 22
5.159693715
 32
0.0
 13
-4.6501098889
 23
-3.6255092035
 33
0.0
 40
0.0
 40
0.0
 40
0.0
 40
0.0
 40
0.2912314935
 40
0.4340693556
 40
0.5693221077
 40
0.6938697809
 40
0.8061046509
 40
0.9068030369
 40
1.0
 40
1.0
 40
1.0
 40
1.0
 10
5.6319436499
 20
-12.4851346464
 30
0.0
 10
5.3548839985
 20
-11.9842462109
 30
0.0
 10
4.8205213817
 20
-11.2967053714
 30
0.0
 10
3.9501749477
 20
-10.5884714098
 30
0.0
 10
3.2591444715
 20
-10.1940632406
 30
0.0
 10
2.5631956121
 20
-9.9541992239
 30
0.0
 10
1.8972480144
 20
-9.8805727026
 30
0.0
 10
1.2948245458
 20
-9.9776120917
 30
0.0
 10
0.9500966652
 20
-10.1593842582
 30
0.0
 10
0.8056379586
 20
-10.272013074
 30
0.0
 11
5.6319436499
 21
-12.4851346464
 31
0.0
 11
4.5796735535
 21
-11.128083018
 31
0.0
 11
3.9248219053
 21
-10.5984364023
 31
0.0
 11
3.2299003021
 21
-10.2071529817
 31
0.0
 11
2.5334386804
 21
-9.9742062058
 31
0.0
 11
1.874803995
 21
-9.9097142848
 31
0.0
 11
1.2899970928
 21
-10.0124396902
 31
0.0
 11
0.8056379586
 21
-10.272013074
 31
0.0
  0
SPLINE
  5
2E5
100
AcDbEntity
  8
DRAFT
100
AcDbSpline
 62
7
  6
CONTINUOUS
 70
0
 71
3
 72
9
 73
5
 74
3
 42
0.0000001
 43
0.0000001
 44
0.0000000001
 12
-0.2186480108
 22
-0.4247831941
 32
0.0
 13
-0.1177318481
 23
-0.4630193587
 33
0.0
 40
0.0
 40
0.0
 40
0.0
 40
0.0
 40
0.2444273654
 40
1.0
 40
1.0
 40
1.0
 40
1.0
 10
0.7943049485
 20
-10.4917614843
 30
0.0
 10
0.7764904294
 20
-10.52637103
 30
0.0
 10
0.7078760141
 20
-10.6701418463
 30
0.0
 10
0.656404242
 20
-10.8219329058
 30
0.0
 10
0.6267525878
 20
-10.9385478247
 30
0.0
 11
0.7943049485
 21
-10.4917614843
 31
0.0
 11
0.7439721306
 21
-10.597133241
 31
0.0
 11
0.6267525878
 21
-10.9385478247
 31
0.0
  0
SPLINE
  5
2E6
100
AcDbEntity
  8
DRAFT
100
AcDbSpline
 62
7
  6
CONTINUOUS
 70
0
 71
3
 72
9
 73
5
 74
3
 42
0.0000001
 43
0.0000001
 44
0.0000000001
 12
0.4852608523
 22
0.024390539
 32
0.0
 13
0.4669171438
 23
0.1343926115
 33
0.0
 40
0.0
 40
0.0
 40
0.0
 40
0.0
 40
0.2563114306
 40
1.0
 40
1.0
 40
1.0
 40
1.0
 10
4.8844406746
 20
-16.1391385419
 30
0.0
 10
4.9258999757
 20
-16.1370546839
 30
0.0
 10
5.0873899865
 20
-16.1246276849
 30
0.0
 10
5.2476601247
 20
-16.094422824
 30
0.0
 10
5.3634071056
 20
-16.0611074076
 30
0.0
 11
4.8844406746
 21
-16.1391385419
 31
0.0
 11
5.0086033069
 21
-16.1295163937
 31
0.0
 11
5.3634071056
 21
-16.0611074076
 31
0.0
  0
SPLINE
  5
2E7
100
AcDbEntity
  8
RACCORDO
100
AcDbSpline
 62
253
  6
CONTINUOUS
 70
0
 71
3
 72
9
 73
5
 74
3
 42
0.0000001
 43
0.0000001
 44
0.0000000001
 12
-0.0014743547
 22
-0.0977539029
 32
0.0
 13
-0.0127961693
 23
-0.0969239769
 33
0.0
 40
0.0
 40
0.0
 40
0.0
 40
0.0
 40
0.2542610013
 40
1.0
 40
1.0
 40
1.0
 40
1.0
 10
5.7073988415
 20
-25.5445906653
 30
0.0
 10
5.7072738845
 20
-25.5528756671
 30
0.0
 10
5.7063297543
 20
-25.5854512688
 30
0.0
 10
5.7035508456
 20
-25.6179786648
 30
0.0
 10
5.7003699781
 20
-25.6420719946
 30
0.0
 11
5.7073988415
 21
-25.5445906653
 31
0.0
 11
5.7066751576
 21
-25.5694379609
 31
0.0
 11
5.7003699781
 21
-25.6420719946
 31
0.0
  0
SPLINE
  5
2E8
100
AcDbEntity
  8
RACCORDO
100
AcDbSpline
 62
253
  6
CONTINUOUS
 70
0
 71
3
 72
12
 73
8
 74
6
 42
0.0000001
 43
0.0000001
 44
0.0000000001
 12
-0.164148717
 22
-1.2433366666
 32
0.0
 13
-1.1638009909
 23
0.467330848
 33
0.0
 40
0.0
 40
0.0
 40
0.0
 40
0.0
 40
0.2401650573
 40
0.3527976475
 40
0.4662740545
 40
0.7117486414
 40
1.0
 40
1.0
 40
1.0
 40
1.0
 10
5.7003699781
 20
-25.6420719946
 30
0.0
 10
5.6872290494
 20
-25.7416073352
 30
0.0
 10
5.6376093073
 20
-25.8887358236
 30
0.0
 10
5.5036832484
 20
-26.0335027991
 30
0.0
 10
5.3328741996
 20
-26.1369620687
 30
0.0
 10
5.054225046
 20
-26.1752154179
 30
0.0
 10
4.8342775485
 20
-26.1175316219
 30
0.0
 10
4.7224551429
 20
-26.0726287046
 30
0.0
 11
5.7003699781
 21
-25.6420719946
 31
0.0
 11
5.5957078662
 21
-25.9244999583
 31
0.0
 11
5.4997189416
 21
-26.0281301498
 31
0.0
 11
5.3782327106
 21
-26.1022535168
 31
0.0
 11
5.0747248793
 21
-26.1538120414
 31
0.0
 11
4.7224551429
 21
-26.0726287046
 31
0.0
  0
SPLINE
  5
2E9
100
AcDbEntity
  8
RACCORDO
100
AcDbSpline
 62
253
  6
CONTINUOUS
 70
0
 71
3
 72
11
 73
7
 74
5
 42
0.0000001
 43
0.0000001
 44
0.0000000001
 12
0.507559976
 22
0.5066900795
 32
0.0
 13
0.6756710071
 23
-0.2404592606
 33
0.0
 40
0.0
 40
0.0
 40
0.0
 40
0.0
 40
0.2209788582
 40
0.456214989
 40
0.715240526
 40
1.0
 40
1.0
 40
1.0
 40
1.0
 10
-26.8367530053
 20
38.6272034278
 30
0.0
 10
-26.7993663306
 20
38.6645260262
 30
0.0
 10
-26.7071765178
 20
38.7277017988
 30
0.0
 10
-26.5393846805
 20
38.7724103114
 30
0.0
 10
-26.3512305123
 20
38.7683445205
 30
0.0
 10
-26.2242175104
 20
38.735940456
 30
0.0
 10
-26.1600829369
 20
38.7131161052
 30
0.0
 11
-26.8367530053
 21
38.6272034278
 31
0.0
 11
-26.7065767762
 21
38.717595947
 31
0.0
 11
-26.5441895357
 21
38.7633407133
 31
0.0
 11
-26.3584273692
 21
38.7617703629
 31
0.0
 11
-26.1600829369
 21
38.7131161052
 31
0.0
  0
SPLINE
  5
2EA
100
AcDbEntity
  8
RACCORDO
100
AcDbSpline
 62
253
  6
CONTINUOUS
 70
0
 71
3
 72
9
 73
5
 74
3
 42
0.0000001
 43
0.0000001
 44
0.0000000001
 12
-4.34153797
 22
-62.8262571466
 32
0.0
 13
4.8290548232
 23
-62.7906662532
 33
0.0
 40
0.0
 40
0.0
 40
0.0
 40
0.0
 40
0.5133122688
 40
1.0
 40
1.0
 40
1.0
 40
1.0
 10
21.2094799756
 20
18.8704009797
 30
0.0
 10
20.4666250738
 20
8.1205714475
 30
0.0
 10
19.6877543023
 20
-12.8748412232
 30
0.0
 10
20.4260661103
 20
-33.8776920008
 30
0.0
 10
21.2094800222
 20
-44.0641743003
 30
0.0
 11
21.2094799756
 21
18.8704009797
 31
0.0
 11
20.0667788851
 21
-13.4357942407
 31
0.0
 11
21.2094800222
 21
-44.0641743003
 31
0.0
  0
SPLINE
  5
2EB
100
AcDbEntity
  8
RACCORDO
100
AcDbSpline
 62
253
  6
CONTINUOUS
 70
0
 71
3
 72
11
 73
7
 74
5
 42
0.0000001
 43
0.0000001
 44
0.0000000001
 12
0.0
 22
2.3356412069
 32
0.0
 13
2.0692301467
 23
1.0832850259
 33
0.0
 40
0.0
 40
0.0
 40
0.0
 40
0.0
 40
0.274231939
 40
0.5271860683
 40
0.7655559407
 40
1.0
 40
1.0
 40
1.0
 40
1.0
 10
-0.2009025335
 20
-11.9975566314
 30
0.0
 10
-0.2009025335
 20
-11.784054159
 30
0.0
 10
-0.1604828934
 20
-11.3716575965
 30
0.0
 10
0.0412621391
 20
-10.8035558846
 30
0.0
 10
0.3770694191
 20
-10.3388719128
 30
0.0
 10
0.6795400732
 20
-10.1171210616
 30
0.0
 10
0.8412463117
 20
-10.032464482
 30
0.0
 11
-0.2009025335
 21
-11.9975566314
 31
0.0
 11
-0.1321963462
 21
-11.3607448765
 31
0.0
 11
0.0710429933
 21
-10.8059923815
 31
0.0
 11
0.4001606271
 21
-10.356939774
 31
0.0
 11
0.8412463117
 21
-10.032464482
 31
0.0
  0
SPLINE
  5
2EC
100
AcDbEntity
  8
RACCORDO
100
AcDbSpline
 62
253
  6
CONTINUOUS
 70
0
 71
3
 72
9
 73
5
 74
3
 42
0.0000001
 43
0.0000001
 44
0.0000000001
 12
0.3600214998
 22
0.1884787443
 32
0.0
 13
0.3914202533
 23
0.109224094
 33
0.0
 40
0.0
 40
0.0
 40
0.0
 40
0.0
 40
0.2470232556
 40
1.0
 40
1.0
 40
1.0
 40
1.0
 10
0.8412463117
 20
-10.032464482
 30
0.0
 10
0.8708908726
 20
-10.0169449377
 30
0.0
 10
0.9925829095
 20
-9.9573717668
 30
0.0
 10
1.1206894492
 20
-9.9110612724
 30
0.0
 10
1.2189328985
 20
-9.8836468716
 30
0.0
 11
0.8412463117
 21
-10.032464482
 31
0.0
 11
0.931403815
 21
-9.9883223154
 31
0.0
 11
1.2189328985
 21
-9.8836468716
 31
0.0
  0
SPLINE
  5
2ED
100
AcDbEntity
  8
RACCORDO
100
AcDbSpline
 62
253
  6
CONTINUOUS
 70
0
 71
3
 72
13
 73
9
 74
7
 42
0.0000001
 43
0.0000001
 44
0.0000000001
 12
5.1915553618
 22
1.4486806082
 32
0.0
 13
2.7123013368
 23
-4.657718759
 33
0.0
 40
0.0
 40
0.0
 40
0.0
 40
0.0
 40
0.1011383743
 40
0.2100970578
 40
0.3277007563
 40
0.4535004438
 40
0.7226411629
 40
1.0
 40
1.0
 40
1.0
 40
1.0
 10
1.2189328985
 20
-9.8836468716
 30
0.0
 10
1.3939547216
 20
-9.8348078044
 30
0.0
 10
1.7721490529
 20
-9.7818084024
 30
0.0
 10
2.362612422
 20
-9.8329054025
 30
0.0
 10
2.9747771846
 20
-10.0072290805
 30
0.0
 10
3.8098147036
 20
-10.4034079983
 30
0.0
 10
4.7733654325
 20
-11.1573503476
 30
0.0
 10
5.380330829
 20
-11.9439752658
 30
0.0
 10
5.6310910772
 20
-12.3745950852
 30
0.0
 11
1.2189328985
 21
-9.8836468716
 31
0.0
 11
1.7581566584
 21
-9.8036545329
 31
0.0
 11
2.3436546487
 21
-9.8493108897
 31
0.0
 11
2.9543947917
 21
-10.0189842099
 31
0.0
 11
3.5684300719
 21
-10.3065739064
 31
0.0
 11
4.71883083
 21
-11.1902773829
 31
0.0
 11
5.6310910772
 21
-12.3745950852
 31
0.0
  0
SPLINE
  5
2EE
100
AcDbEntity
  8
RACCORDO
100
AcDbSpline
 62
253
  6
CONTINUOUS
 70
0
 71
3
 72
18
 73
14
 74
12
 42
0.0000001
 43
0.0000001
 44
0.0000000001
 12
-6.1917933977
 22
-6.0727607299
 32
0.0
 13
0.0
 23
8.6727578292
 33
0.0
 40
0.0
 40
0.0
 40
0.0
 40
0.0
 40
0.0481728946
 40
0.0972260777
 40
0.1484347305
 40
0.202726426
 40
0.2606050971
 40
0.3221701206
 40
0.4548343964
 40
0.5961249137
 40
0.7388519857
 40
0.8754745057
 40
1.0
 40
1.0
 40
1.0
 40
1.0
 10
5.6768402685
 20
-16.2617119358
 30
0.0
 10
5.5774147316
 20
-16.3592260899
 30
0.0
 10
5.3525932484
 20
-16.5330020931
 30
0.0
 10
4.9581762633
 20
-16.7108425587
 30
0.0
 10
4.5175042391
 20
-16.8023618152
 30
0.0
 10
4.0425611951
 20
-16.8063485529
 30
0.0
 10
3.5448528481
 20
-16.7240365943
 30
0.0
 10
2.8498354747
 20
-16.4971878541
 30
0.0
 10
1.998777066
 20
-16.0095477703
 30
0.0
 10
1.1049213807
 20
-15.189525833
 30
0.0
 10
0.3912718965
 20
-14.1936089407
 30
0.0
 10
-0.0763838748
 20
-13.1140879414
 30
0.0
 10
-0.2009025335
 20
-12.3575497834
 30
0.0
 10
-0.2009025335
 20
-11.9975566314
 30
0.0
 11
5.6768402685
 21
-16.2617119358
 31
0.0
 11
5.346398579
 21
-16.5173646662
 31
0.0
 11
4.9592458484
 21
-16.6937176251
 31
0.0
 11
4.5249092312
 21
-16.7864241214
 31
0.0
 11
4.0540988289
 21
-16.7931699731
 31
0.0
 11
3.558440211
 21
-16.7138345832
 31
0.0
 11
3.0501423766
 21
-16.5503608071
 31
0.0
 11
2.0458002748
 21
-15.9890257232
 31
0.0
 11
1.1395339061
 21
-15.1642629752
 31
0.0
 11
0.4201956019
 21
-14.1568932997
 31
0.0
 11
-0.0417085887
 21
-13.0657386913
 31
0.0
 11
-0.2009025335
 21
-11.9975566314
 31
0.0
  0
SPLINE
  5
2EF
100
AcDbEntity
  8
RACCORDO
100
AcDbSpline
 62
253
  6
CONTINUOUS
 70
0
 71
3
 72
9
 73
5
 74
3
 42
0.0000001
 43
0.0000001
 44
0.0000000001
 12
0.0
 22
-0.8010708349
 32
0.0
 13
-0.267335159
 23
-0.7551466051
 33
0.0
 40
0.0
 40
0.0
 40
0.0
 40
0.0
 40
0.2617123252
 40
1.0
 40
1.0
 40
1.0
 40
1.0
 10
1.7879896481
 20
8.5016125815
 30
0.0
 10
1.7879896481
 20
8.4317292112
 30
0.0
 10
1.7781224373
 20
8.1649297487
 30
0.0
 10
1.7266384622
 20
7.8986551132
 30
0.0
 10
1.6608483779
 20
7.7128166361
 30
0.0
 11
1.7879896481
 21
8.5016125815
 31
0.0
 11
1.7799744355
 21
8.292115743
 31
0.0
 11
1.6608483779
 21
7.7128166361
 31
0.0
  0
SPLINE
  5
2F0
100
AcDbEntity
  8
RACCORDO
100
AcDbSpline
 62
253
  6
CONTINUOUS
 70
0
 71
3
 72
9
 73
5
 74
3
 42
0.0000001
 43
0.0000001
 44
0.0000000001
 12
-0.1230217982
 22
-0.3475019659
 32
0.0
 13
-0.1898643178
 23
-0.3159802526
 33
0.0
 40
0.0
 40
0.0
 40
0.0
 40
0.0
 40
0.2548021478
 40
1.0
 40
1.0
 40
1.0
 40
1.0
 10
1.6608483779
 20
7.7128166361
 30
0.0
 10
1.6503996385
 20
7.683301887
 30
0.0
 10
1.60666207
 20
7.568461206
 30
0.0
 10
1.5517368211
 20
7.4578141075
 30
0.0
 10
1.5045746605
 20
7.379324839
 30
0.0
 11
1.6608483779
 21
7.7128166361
 31
0.0
 11
1.6273844352
 21
7.6250508474
 31
0.0
 11
1.5045746605
 21
7.379324839
 31
0.0
  0
SPLINE
  5
2F1
100
AcDbEntity
  8
RACCORDO
100
AcDbSpline
 62
253
  6
CONTINUOUS
 70
0
 71
3
 72
9
 73
5
 74
3
 42
0.0000001
 43
0.0000001
 44
0.0000000001
 12
-0.1731806156
 22
-0.2882145277
 32
0.0
 13
-0.2281763045
 23
-0.2469710786
 33
0.0
 40
0.0
 40
0.0
 40
0.0
 40
0.0
 40
0.2528514819
 40
1.0
 40
1.0
 40
1.0
 40
1.0
 10
1.5045746605
 20
7.379324839
 30
0.0
 10
1.4899783354
 20
7.3550330155
 30
0.0
 10
1.4298845048
 20
7.2604077778
 30
0.0
 10
1.3602126568
 20
7.1718331726
 30
0.0
 10
1.3033854608
 20
7.1103251475
 30
0.0
 11
1.5045746605
 21
7.379324839
 31
0.0
 11
1.4589763474
 21
7.3075675927
 31
0.0
 11
1.3033854608
 21
7.1103251475
 31
0.0
  0
SPLINE
  5
2F2
100
AcDbEntity
  8
RACCORDO
100
AcDbSpline
 62
253
  6
CONTINUOUS
 70
0
 71
3
 72
11
 73
7
 74
5
 42
0.0000001
 43
0.0000001
 44
0.0000000001
 12
-1.7849485748
 22
-1.411400947
 32
0.0
 13
-2.1118129972
 23
0.8475493571
 33
0.0
 40
0.0
 40
0.0
 40
0.0
 40
0.0
 40
0.2243621708
 40
0.4612894277
 40
0.7188551135
 40
1.0
 40
1.0
 40
1.0
 40
1.0
 10
1.1246477189
 20
6.9447168638
 30
0.0
 10
0.9911560732
 20
6.8391618704
 30
0.0
 10
0.6782809972
 20
6.6671059459
 30
0.0
 10
0.1358453086
 20
6.5620698592
 30
0.0
 10
-0.4565192805
 20
6.6051498666
 30
0.0
 10
-0.8508358053
 20
6.7239434183
 30
0.0
 10
-1.0487442804
 20
6.8033714742
 30
0.0
 11
1.1246477189
 21
6.9447168638
 31
0.0
 11
0.6784748801
 21
6.6965502204
 31
0.0
 11
0.1503822699
 21
6.587977456
 31
0.0
 11
-0.4346017436
 21
6.6241560457
 31
0.0
 11
-1.0487442804
 21
6.8033714742
 31
0.0
  0
SPLINE
  5
2F3
100
AcDbEntity
  8
RACCORDO
100
AcDbSpline
 62
253
  6
CONTINUOUS
 70
0
 71
3
 72
9
 73
5
 74
3
 42
0.0000001
 43
0.0000001
 44
0.0000000001
 12
-1.3922234569
 22
0.6629710449
 32
0.0
 13
-1.0896091386
 23
1.0911318369
 33
0.0
 40
0.0
 40
0.0
 40
0.0
 40
0.0
 40
0.2407773898
 40
1.0
 40
1.0
 40
1.0
 40
1.0
 10
-1.260367651
 20
6.8962212137
 30
0.0
 10
-1.3721062944
 20
6.949430693
 30
0.0
 10
-1.8253847066
 20
7.192809439
 30
0.0
 10
-2.2331734582
 20
7.5177523433
 30
0.0
 10
-2.508925423
 20
7.7938896637
 30
0.0
 11
-1.260367651
 21
6.8962212137
 31
0.0
 11
-1.587747474
 21
7.0713594716
 31
0.0
 11
-2.508925423
 21
7.7938896637
 31
0.0
  0
SPLINE
  5
2F4
100
AcDbEntity
  8
RACCORDO
100
AcDbSpline
 62
253
  6
CONTINUOUS
 70
0
 71
3
 72
10
 73
6
 74
4
 42
0.0000001
 43
0.0000001
 44
0.0000000001
 12
0.1253421033
 22
1.4453374644
 32
0.0
 13
1.1004293743
 23
0.9453920991
 33
0.0
 40
0.0
 40
0.0
 40
0.0
 40
0.0
 40
0.5213184505
 40
0.7639244276
 40
1.0
 40
1.0
 40
1.0
 40
1.0
 10
-3.877171903
 20
11.0134596075
 30
0.0
 10
-3.8553908526
 20
11.2646199699
 30
0.0
 10
-3.767347576
 20
11.6342702655
 30
0.0
 10
-3.5184711725
 20
12.0521338198
 30
0.0
 10
-3.3591435792
 20
12.2231216262
 30
0.0
 10
-3.2725487477
 20
12.2975162866
 30
0.0
 11
-3.877171903
 21
11.0134596075
 31
0.0
 11
-3.6876872784
 21
11.7456474614
 31
0.0
 11
-3.5065210957
 21
12.0474042852
 31
0.0
 11
-3.2725487477
 21
12.2975162866
 31
0.0
  0
SPLINE
  5
2F5
100
AcDbEntity
  8
RACCORDO
100
AcDbSpline
 62
253
  6
CONTINUOUS
 70
0
 71
3
 72
9
 73
5
 74
3
 42
0.0000001
 43
0.0000001
 44
0.0000000001
 12
0.3145935914
 22
0.1647460922
 32
0.0
 13
0.3420421149
 23
0.0954860947
 33
0.0
 40
0.0
 40
0.0
 40
0.0
 40
0.0
 40
0.2470243192
 40
1.0
 40
1.0
 40
1.0
 40
1.0
 10
-2.9765668868
 20
12.4979810163
 30
0.0
 10
-2.9506627976
 20
12.5115464467
 30
0.0
 10
-2.8443254603
 20
12.5636190366
 30
0.0
 10
-2.7323808918
 20
12.6041017175
 30
0.0
 10
-2.6465310937
 20
12.6280679532
 30
0.0
 11
-2.9765668868
 21
12.4979810163
 31
0.0
 11
-2.897784822
 21
12.5365656108
 31
0.0
 11
-2.6465310937
 21
12.6280679532
 31
0.0
  0
SPLINE
  5
2F6
100
AcDbEntity
  8
RACCORDO
100
AcDbSpline
 62
253
  6
CONTINUOUS
 70
0
 71
3
 72
15
 73
11
 74
9
 42
0.0000001
 43
0.0000001
 44
0.0000000001
 12
6.3047650397
 22
1.7600680304
 32
0.0
 13
0.4831521701
 23
-6.5279756171
 33
0.0
 40
0.0
 40
0.0
 40
0.0
 40
0.0
 40
0.1014838618
 40
0.2142151646
 40
0.3383656448
 40
0.4713705719
 40
0.6089579088
 40
0.7460792453
 40
0.8777506381
 40
1.0
 40
1.0
 40
1.0
 40
1.0
 10
-2.6465310937
 20
12.6280679532
 30
0.0
 10
-2.4332537924
 20
12.6876074535
 30
0.0
 10
-1.9577720535
 20
12.7289482153
 30
0.0
 10
-1.2275877888
 20
12.5766084118
 30
0.0
 10
-0.4911268634
 20
12.2315001505
 30
0.0
 10
0.2058429302
 20
11.7170839034
 30
0.0
 10
0.8198627424
 20
11.0671724484
 30
0.0
 10
1.3113214159
 20
10.3235402012
 30
0.0
 10
1.6485189305
 20
9.5346769415
 30
0.0
 10
1.7600833786
 20
8.9863177877
 30
0.0
 10
1.7797717267
 20
8.72030417
 30
0.0
 11
-2.6465310937
 21
12.6280679532
 31
0.0
 11
-1.9857024131
 21
12.6958535644
 31
0.0
 11
-1.2611855864
 21
12.5558487264
 31
0.0
 11
-0.5222673015
 21
12.2175749924
 31
0.0
 11
0.1807789242
 21
11.7040395066
 31
0.0
 11
0.8001222522
 21
11.0501768172
 31
0.0
 11
1.2936357639
 21
10.3004556416
 31
0.0
 11
1.6277659952
 21
9.5059581273
 31
0.0
 11
1.7797717267
 21
8.72030417
 31
0.0
  0
SPLINE
  5
2F7
100
AcDbEntity
  8
RACCORDO
100
AcDbSpline
 62
253
  6
CONTINUOUS
 70
0
 71
3
 72
9
 73
5
 74
3
 42
0.0000001
 43
0.0000001
 44
0.0000000001
 12
0.1559147022
 22
0.3601355963
 32
0.0
 13
0.2370574265
 23
0.312747212
 33
0.0
 40
0.0
 40
0.0
 40
0.0
 40
0.0
 40
0.254789617
 40
1.0
 40
1.0
 40
1.0
 40
1.0
 10
-3.4454026032
 20
11.6662255529
 30
0.0
 10
-3.4321607874
 20
11.6968118231
 30
0.0
 10
-3.3768284985
 20
11.8153624472
 30
0.0
 10
-3.3075828748
 20
11.9275097515
 30
0.0
 10
-3.2486969896
 20
12.0051972414
 30
0.0
 11
-3.4454026032
 21
11.6662255529
 31
0.0
 11
-3.4030613796
 21
11.7568070702
 31
0.0
 11
-3.2486969896
 21
12.0051972414
 31
0.0
  0
SPLINE
  5
2F8
100
AcDbEntity
  8
RACCORDO
100
AcDbSpline
 62
253
  6
CONTINUOUS
 70
0
 71
3
 72
11
 73
7
 74
5
 42
0.0000001
 43
0.0000001
 44
0.0000000001
 12
-0.0000000023
 22
1.9106436016
 32
0.0
 13
1.5062928124
 23
1.1754322336
 33
0.0
 40
0.0
 40
0.0
 40
0.0
 40
0.0
 40
0.2729317282
 40
0.5274832487
 40
0.7675260122
 40
1.0
 40
1.0
 40
1.0
 40
1.0
 10
0.0756161526
 20
-11.9710153234
 30
0.0
 10
0.0756161524
 20
-11.7971902366
 30
0.0
 10
0.1040533997
 20
-11.4601640463
 30
0.0
 10
0.2430677005
 20
-10.9875811507
 30
0.0
 10
0.4747011565
 20
-10.5814670113
 30
0.0
 10
0.688205051
 20
-10.36365645
 30
0.0
 10
0.8049296833
 20
-10.2725706438
 30
0.0
 11
0.0756161526
 21
-11.9710153234
 31
0.0
 11
0.1230088565
 21
-11.4516980999
 31
0.0
 11
0.2637048027
 21
-10.9861360636
 31
0.0
 11
0.4933625197
 21
-10.5891417692
 31
0.0
 11
0.8049296833
 21
-10.2725706438
 31
0.0
  0
SPLINE
  5
2F9
100
AcDbEntity
  8
RACCORDO
100
AcDbSpline
 62
253
  6
CONTINUOUS
 70
0
 71
3
 72
11
 73
7
 74
5
 42
0.0000001
 43
0.0000001
 44
0.0000000001
 12
-2.055275657
 22
-1.6985747506
 32
0.0
 13
-2.4325414053
 23
1.0918134093
 33
0.0
 40
0.0
 40
0.0
 40
0.0
 40
0.0
 40
0.2225319189
 40
0.4584461703
 40
0.7166933353
 40
1.0
 40
1.0
 40
1.0
 40
1.0
 10
5.5498432233
 20
-16.1164586117
 30
0.0
 10
5.3973884114
 20
-16.2424543112
 30
0.0
 10
5.0338231488
 20
-16.4468479306
 30
0.0
 10
4.3974303278
 20
-16.561304348
 30
0.0
 10
3.7027589935
 20
-16.4911770688
 30
0.0
 10
3.2435133305
 20
-16.3340423114
 30
0.0
 10
3.0137949331
 20
-16.2309363062
 30
0.0
 11
5.5498432233
 21
-16.1164586117
 31
0.0
 11
5.0341828972
 21
-16.4099733504
 31
0.0
 11
4.4166361775
 21
-16.5295924454
 31
0.0
 11
3.7307517822
 21
-16.4688131445
 31
0.0
 11
3.0137949331
 21
-16.2309363062
 31
0.0
  0
SPLINE
  5
2FA
100
AcDbEntity
  8
RACCORDO
100
AcDbSpline
 62
253
  6
CONTINUOUS
 70
0
 71
3
 72
12
 73
8
 74
6
 42
0.0000001
 43
0.0000001
 44
0.0000000001
 12
-4.8078729739
 22
2.2906871109
 32
0.0
 13
-0.0000000088
 23
5.3256821134
 33
0.0
 40
0.0
 40
0.0
 40
0.0
 40
0.0
 40
0.2502569828
 40
0.5128917919
 40
0.6429846245
 40
0.7688729272
 40
1.0
 40
1.0
 40
1.0
 40
1.0
 10
2.9290864655
 20
-16.1917474176
 30
0.0
 10
2.5280185374
 20
-16.0006606026
 30
0.0
 10
1.7658508246
 20
-15.4781574449
 30
0.0
 10
1.0066819867
 20
-14.6104072774
 30
0.0
 10
0.5382663957
 20
-13.814692144
 30
0.0
 10
0.2006920315
 20
-13.017566431
 30
0.0
 10
0.0756161533
 20
-12.3813184292
 30
0.0
 10
0.0756161526
 20
-11.9710153234
 30
0.0
 11
2.9290864655
 21
-16.1917474176
 31
0.0
 11
1.8215274111
 21
-15.4503704385
 31
0.0
 11
0.8989278424
 21
-14.3990863118
 31
0.0
 11
0.5483652606
 21
-13.8014881679
 31
0.0
 11
0.2888358141
 21
-13.1833169046
 31
0.0
 11
0.0756161526
 21
-11.9710153234
 31
0.0
  0
SPLINE
  5
2FB
100
AcDbEntity
  8
RACCORDO
100
AcDbSpline
 62
253
  6
CONTINUOUS
 70
0
 71
3
 72
10
 73
6
 74
4
 42
0.0000001
 43
0.0000001
 44
0.0000000001
 12
-4.1884580021
 22
62.9882672655
 32
0.0
 13
3.734589059
 23
63.0168059974
 33
0.0
 40
0.0
 40
0.0
 40
0.0
 40
0.0
 40
0.2391072223
 40
0.4857042077
 40
1.0
 40
1.0
 40
1.0
 40
1.0
 10
-26.7009739975
 20
-25.5614288798
 30
0.0
 10
-27.0348041837
 20
-20.5411123386
 30
0.0
 10
-27.530142464
 20
-10.3301961487
 30
0.0
 10
-27.8533429221
 20
10.7123139792
 30
0.0
 10
-27.3412019885
 20
26.7277846964
 30
0.0
 10
-26.7009741755
 20
37.53087742
 30
0.0
 11
-26.7009739975
 21
-25.5614288798
 31
0.0
 11
-27.4405032253
 21
-10.4853457205
 31
0.0
 11
-27.6872005178
 21
5.0797188271
 31
0.0
 11
-26.7009741755
 21
37.53087742
 31
0.0
  0
SPLINE
  5
2FC
100
AcDbEntity
  8
RACCORDO
100
AcDbSpline
 62
253
  6
CONTINUOUS
 70
0
 71
3
 72
9
 73
5
 74
3
 42
0.0000001
 43
0.0000001
 44
0.0000000001
 12
-0.3820423074
 22
-0.1997510104
 32
0.0
 13
-0.4211282014
 23
-0.092237892
 33
0.0
 40
0.0
 40
0.0
 40
0.0
 40
0.0
 40
0.2459510484
 40
1.0
 40
1.0
 40
1.0
 40
1.0
 10
0.878057293
 20
7.0412571575
 30
0.0
 10
0.8467360577
 20
7.024880834
 30
0.0
 10
0.7171011043
 20
6.9627203029
 30
0.0
 10
0.5789395413
 20
6.9187347609
 30
0.0
 10
0.4730891151
 20
6.895550799
 30
0.0
 11
0.878057293
 21
7.0412571575
 31
0.0
 11
0.7824525613
 21
6.9954033784
 31
0.0
 11
0.4730891151
 21
6.895550799
 31
0.0
  0
SPLINE
  5
2FD
100
AcDbEntity
  8
RACCORDO
100
AcDbSpline
 62
253
  6
CONTINUOUS
 70
0
 71
3
 72
9
 73
5
 74
3
 42
0.0000001
 43
0.0000001
 44
0.0000000001
 12
0.192212265
 22
-0.0779974596
 32
0.0
 13
0.1748573961
 23
0.111597713
 33
0.0
 40
0.0
 40
0.0
 40
0.0
 40
0.0
 40
0.5216424431
 40
1.0
 40
1.0
 40
1.0
 40
1.0
 10
-14.2933274869
 20
17.6696435865
 30
0.0
 10
-14.2599054617
 20
17.6560813247
 30
0.0
 10
-14.1896976876
 20
17.6465182645
 30
0.0
 10
-14.1186988437
 20
17.6614737588
 30
0.0
 10
-14.0908173914
 20
17.6792682952
 30
0.0
 11
-14.2933274869
 21
17.6696435865
 31
0.0
 11
-14.1864434934
 21
17.6527760929
 31
0.0
 11
-14.0908173914
 21
17.6792682952
 31
0.0
  0
SPLINE
  5
2FE
100
AcDbEntity
  8
RACCORDO
100
AcDbSpline
 62
253
  6
CONTINUOUS
 70
0
 71
3
 72
9
 73
5
 74
3
 42
0.0000001
 43
0.0000001
 44
0.0000000001
 12
-0.0032202401
 22
-0.0835808929
 32
0.0
 13
0.0775377551
 23
-0.0313692866
 33
0.0
 40
0.0
 40
0.0
 40
0.0
 40
0.0
 40
0.3234855925
 40
1.0
 40
1.0
 40
1.0
 40
1.0
 10
-13.2259694365
 20
18.309643694
 30
0.0
 10
-13.2263166703
 20
18.3006312891
 30
0.0
 10
-13.2258963934
 20
18.2737338064
 30
0.0
 10
-13.2135551193
 20
18.2409346007
 30
0.0
 10
-13.1960699831
 20
18.2338606759
 30
0.0
 11
-13.2259694365
 21
18.309643694
 31
0.0
 11
-13.2247973152
 21
18.2826118193
 31
0.0
 11
-13.1960699831
 21
18.2338606759
 31
0.0
  0
SPLINE
  5
2FF
100
AcDbEntity
  8
RACCORDO
100
AcDbSpline
 62
253
  6
CONTINUOUS
 70
0
 71
3
 72
10
 73
6
 74
4
 42
0.0000001
 43
0.0000001
 44
0.0000000001
 12
-0.0032999909
 22
-0.08565081
 32
0.0
 13
0.079550335
 23
-0.0319170079
 33
0.0
 40
0.0
 40
0.0
 40
0.0
 40
0.0
 40
0.316098247
 40
0.7033616395
 40
1.0
 40
1.0
 40
1.0
 40
1.0
 10
4.9828208632
 20
10.996583002
 30
0.0
 10
4.9824731561
 20
10.9875583117
 30
0.0
 10
4.9832658214
 20
10.9674529497
 30
0.0
 10
4.9901114967
 20
10.9390600658
 30
0.0
 10
5.004942506
 20
10.923920431
 30
0.0
 10
5.0128083997
 20
10.9207644947
 30
0.0
 11
4.9828208632
 21
10.996583002
 31
0.0
 11
4.9839980085
 21
10.9695144272
 31
0.0
 11
4.9939861967
 21
10.937858781
 31
0.0
 11
5.0128083997
 21
10.9207644947
 31
0.0
  0
SPLINE
  5
300
100
AcDbEntity
  8
RACCORDO
100
AcDbSpline
 62
253
  6
CONTINUOUS
 70
0
 71
3
 72
9
 73
5
 74
3
 42
0.0000001
 43
0.0000001
 44
0.0000000001
 12
-0.0912128919
 22
0.0362760974
 32
0.0
 13
0.0034705547
 23
0.0981004696
 33
0.0
 40
0.0
 40
0.0
 40
0.0
 40
0.0
 40
0.5761277751
 40
1.0
 40
1.0
 40
1.0
 40
1.0
 10
5.9712223628
 20
9.5309363401
 30
0.0
 10
5.9537056027
 20
9.5379028958
 30
0.0
 10
5.9239169889
 20
9.5534317492
 30
0.0
 10
5.9067198645
 20
9.5857784125
 30
0.0
 10
5.9072102217
 20
9.5996391006
 30
0.0
 11
5.9712223628
 21
9.5309363401
 31
0.0
 11
5.9235609147
 21
9.5613783248
 31
0.0
 11
5.9072102217
 21
9.5996391006
 31
0.0
  0
SPLINE
  5
301
100
AcDbEntity
  8
RACCORDO
100
AcDbSpline
 62
7
  6
CONTINUOUS
 70
0
 71
3
 72
9
 73
5
 74
3
 42
0.0000001
 43
0.0000001
 44
0.0000000001
 12
-0.1666915909
 22
-0.1265614517
 32
0.0
 13
-0.1959662203
 23
0.0734923673
 33
0.0
 40
0.0
 40
0.0
 40
0.0
 40
0.0
 40
0.4867646609
 40
1.0
 40
1.0
 40
1.0
 40
1.0
 10
-14.2782101
 20
-12.2258501513
 30
0.0
 10
-14.3052566252
 20
-12.2463853653
 30
0.0
 10
-14.375246004
 20
-12.2680204256
 30
0.0
 10
-14.4471454939
 20
-12.2622726114
 30
0.0
 10
-14.4806710904
 20
-12.2496996514
 30
0.0
 11
-14.2782101
 21
-12.2258501513
 31
0.0
 11
-14.3738459191
 21
-12.2609596371
 31
0.0
 11
-14.4806710904
 21
-12.2496996514
 31
0.0
  0
SPLINE
  5
302
100
AcDbEntity
  8
RACCORDO
100
AcDbSpline
 62
253
  6
CONTINUOUS
 70
0
 71
3
 72
9
 73
5
 74
3
 42
0.0000001
 43
0.0000001
 44
0.0000000001
 12
0.2053055688
 22
-0.0722004212
 32
0.0
 13
0.1616768026
 23
0.1456842096
 33
0.0
 40
0.0
 40
0.0
 40
0.0
 40
0.0
 40
0.5157611032
 40
1.0
 40
1.0
 40
1.0
 40
1.0
 10
-14.0256684414
 20
-17.6193464034
 30
0.0
 10
-13.9903722325
 20
-17.6317591263
 30
0.0
 10
-13.9152789004
 20
-17.6349541068
 30
0.0
 10
-13.8431484141
 20
-17.6087301023
 30
0.0
 10
-13.8170516819
 20
-17.585214782
 30
0.0
 11
-14.0256684414
 21
-17.6193464034
 31
0.0
 11
-13.9136999381
 21
-17.6272290897
 31
0.0
 11
-13.8170516819
 21
-17.585214782
 31
0.0
  0
SPLINE
  5
303
100
AcDbEntity
  8
RACCORDO
100
AcDbSpline
 62
253
  6
CONTINUOUS
 70
0
 71
3
 72
10
 73
6
 74
4
 42
0.0000001
 43
0.0000001
 44
0.0000000001
 12
-0.0090047859
 22
0.2189657977
 32
0.0
 13
0.1654167664
 23
0.1437511743
 33
0.0
 40
0.0
 40
0.0
 40
0.0
 40
0.0
 40
0.5036127702
 40
0.7689025966
 40
1.0
 40
1.0
 40
1.0
 40
1.0
 10
-12.9656037162
 20
-18.9687054988
 30
0.0
 10
-12.967115358
 20
-18.9319475081
 30
0.0
 10
-12.952795345
 20
-18.8751584398
 30
0.0
 10
-12.9187635521
 20
-18.8105905949
 30
0.0
 10
-12.8954508752
 20
-18.7821071143
 30
0.0
 10
-12.8827084135
 20
-18.7710336066
 30
0.0
 11
-12.9656037162
 21
-18.9687054988
 31
0.0
 11
-12.9432744884
 21
-18.8606207171
 31
0.0
 11
-12.9157662715
 21
-18.8094017465
 31
0.0
 11
-12.8827084135
 21
-18.7710336066
 31
0.0
  0
SPLINE
  5
304
100
AcDbEntity
  8
RACCORDO
100
AcDbSpline
 62
253
  6
CONTINUOUS
 70
0
 71
3
 72
10
 73
6
 74
4
 42
0.0000001
 43
0.0000001
 44
0.0000000001
 12
-0.0090048021
 22
0.2189657954
 32
0.0
 13
0.1654167813
 23
0.1437511547
 33
0.0
 40
0.0
 40
0.0
 40
0.0
 40
0.0
 40
0.5036108321
 40
0.7689016916
 40
1.0
 40
1.0
 40
1.0
 40
1.0
 10
4.7224551429
 20
-26.0726287046
 30
0.0
 10
4.7209435043
 20
-26.0358708558
 30
0.0
 10
4.7352634282
 20
-25.9790818438
 30
0.0
 10
4.7692952172
 20
-25.9145140023
 30
0.0
 10
4.7926079289
 20
-25.886030361
 30
0.0
 10
4.8053504417
 20
-25.8749568115
 30
0.0
 11
4.7224551429
 21
-26.0726287046
 31
0.0
 11
4.7447842037
 21
-25.964544323
 31
0.0
 11
4.7722924937
 21
-25.9133251351
 31
0.0
 11
4.8053504417
 21
-25.8749568115
 31
0.0
  0
SPLINE
  5
305
100
AcDbEntity
  8
RACCORDO
100
AcDbSpline
 62
253
  6
CONTINUOUS
 70
0
 71
3
 72
9
 73
5
 74
3
 42
0.0000001
 43
0.0000001
 44
0.0000000001
 12
-0.0968552822
 22
0.0436807772
 32
0.0
 13
0.0014749954
 23
0.1062392601
 33
0.0
 40
0.0
 40
0.0
 40
0.0
 40
0.0
 40
0.5529137874
 40
1.0
 40
1.0
 40
1.0
 40
1.0
 10
5.7074067452
 20
-25.544583578
 30
0.0
 10
5.6895558715
 20
-25.53653301
 30
0.0
 10
5.6585552643
 20
-25.5167911533
 30
0.0
 10
5.6430504605
 20
-25.4812497139
 30
0.0
 10
5.6432702772
 20
-25.4654170111
 30
0.0
 11
5.7074067452
 21
-25.544583578
 31
0.0
 11
5.6600118239
 21
-25.5098717723
 31
0.0
 11
5.6432702772
 21
-25.4654170111
 31
0.0
  0
SPLINE
  5
306
100
AcDbEntity
  8
RACCORDO
100
AcDbSpline
 62
253
  6
CONTINUOUS
 70
0
 71
3
 72
14
 73
10
 74
8
 42
0.0000001
 43
0.0000001
 44
0.0000000001
 12
-1.1800874938
 22
-0.7520439181
 32
0.0
 13
-1.3023036886
 23
0.5120367666
 33
0.0
 40
0.0
 40
0.0
 40
0.0
 40
0.0
 40
0.103524162
 40
0.2183956251
 40
0.3431335544
 40
0.4746917088
 40
0.6097252701
 40
0.7446657919
 40
1.0
 40
1.0
 40
1.0
 40
1.0
 10
21.2094810649
 20
18.8704018553
 30
0.0
 10
21.168758542
 20
18.8444502831
 30
0.0
 10
21.0760171986
 20
18.8004343525
 30
0.0
 10
20.9224752716
 20
18.7542218942
 30
0.0
 10
20.751921276
 20
18.7224279006
 30
0.0
 10
20.5695562489
 20
18.7088689886
 30
0.0
 10
20.3820224899
 20
18.713338223
 30
0.0
 10
20.1383872568
 20
18.7418464672
 30
0.0
 10
19.9613992643
 20
18.7911523024
 30
0.0
 10
19.8505583706
 20
18.8347324698
 30
0.0
 11
21.2094810649
 21
18.8704018553
 31
0.0
 11
21.0797158993
 21
18.8060025267
 31
0.0
 11
20.9262273384
 21
18.7582501617
 31
0.0
 11
20.7546601757
 21
18.7261089642
 31
0.0
 11
20.5711088696
 21
18.7119614339
 31
0.0
 11
20.3821985804
 21
18.7162528754
 31
0.0
 11
20.1947057286
 21
18.7386751518
 31
0.0
 11
19.8505583706
 21
18.8347324698
 31
0.0
  0
SPLINE
  5
307
100
AcDbEntity
  8
RACCORDO
100
AcDbSpline
 62
253
  6
CONTINUOUS
 70
0
 71
3
 72
11
 73
7
 74
5
 42
0.0000001
 43
0.0000001
 44
0.0000000001
 12
-1.0818700674
 22
-0.933337336
 32
0.0
 13
-1.3280964109
 23
0.5269927407
 33
0.0
 40
0.0
 40
0.0
 40
0.0
 40
0.0
 40
0.2315023402
 40
0.4889756798
 40
0.7524598083
 40
1.0
 40
1.0
 40
1.0
 40
1.0
 10
21.2094810649
 20
-44.0641736073
 30
0.0
 10
21.1259959142
 20
-44.1361968665
 30
0.0
 10
20.9200756141
 20
-44.2544605313
 30
0.0
 10
20.5702771432
 20
-44.3458579091
 30
0.0
 10
20.2012460585
 20
-44.3547482377
 30
0.0
 10
19.9601441173
 20
-44.3010577199
 30
0.0
 10
19.8505583706
 20
-44.2575737586
 30
0.0
 11
21.2094810649
 21
-44.0641736073
 31
0.0
 11
20.9262178106
 21
-44.2349834755
 31
0.0
 11
20.5711213022
 21
-44.331143356
 31
0.0
 11
20.1947305302
 21
-44.3390878158
 31
0.0
 11
19.8505583706
 21
-44.2575737586
 31
0.0
  0
SPLINE
  5
308
100
AcDbEntity
  8
RACCORDO
100
AcDbSpline
 62
253
  6
CONTINUOUS
 70
0
 71
3
 72
11
 73
7
 74
5
 42
0.0000001
 43
0.0000001
 44
0.0000000001
 12
-0.9884793325
 22
-0.8836986549
 32
0.0
 13
-0.0849062907
 23
-1.3231801182
 33
0.0
 40
0.0
 40
0.0
 40
0.0
 40
0.0
 40
0.2274201589
 40
0.4861743766
 40
0.7522376932
 40
1.0
 40
1.0
 40
1.0
 40
1.0
 10
-26.1600829369
 20
38.7131161052
 30
0.0
 10
-26.2350163125
 20
38.646125809
 30
0.0
 10
-26.3739574032
 20
38.479212252
 30
0.0
 10
-26.5364642513
 20
38.1876489025
 30
0.0
 10
-26.6531507159
 20
37.8652692733
 30
0.0
 10
-26.6939640135
 20
37.6401562884
 30
0.0
 10
-26.7009762063
 20
37.5308782356
 30
0.0
 11
-26.1600829369
 21
38.7131161052
 31
0.0
 11
-26.3575821667
 21
38.4852599021
 31
0.0
 11
-26.526593321
 21
38.1866951718
 31
0.0
 11
-26.6460498523
 21
37.8547622715
 31
0.0
 11
-26.7009762063
 21
37.5308782356
 31
0.0
  0
LINE
  5
309
100
AcDbEntity
  8
RACCORDO
100
AcDbLine
 62
253
  6
CONTINUOUS
 10
-14.0908487953
 20
17.6792829826
 11
-13.39596558
 21
18.1399660093
  0
LINE
  5
30A
100
AcDbEntity
  8
RACCORDO
100
AcDbLine
 62
253
  6
CONTINUOUS
 10
-13.39596558
 20
18.1399660093
 11
-13.2333760185
 21
18.2477568295
  0
SPLINE
  5
30B
100
AcDbEntity
  8
RACCORDO
100
AcDbSpline
 62
7
  6
CONTINUOUS
 70
0
 71
3
 72
9
 73
5
 74
3
 42
0.0000001
 43
0.0000001
 44
0.0000000001
 12
0.0060778132
 22
0.004614611
 32
0.0
 13
0.0053309723
 23
-0.005460328
 33
0.0
 40
0.0
 40
0.0
 40
0.0
 40
0.0
 40
0.5343652823
 40
1.0
 40
1.0
 40
1.0
 40
1.0
 10
-14.2781847292
 20
-12.2258401077
 30
0.0
 10
-14.2771021385
 20
-12.225018145
 30
0.0
 10
-14.2741573566
 20
-12.2242901231
 30
0.0
 10
-14.2720786617
 20
-12.2260951622
 30
0.0
 10
-14.2712512331
 20
-12.2269426683
 30
0.0
 11
-14.2781847292
 21
-12.2258401077
 31
0.0
 11
-14.274202268
 21
-12.2249633919
 31
0.0
 11
-14.2712512331
 21
-12.2269426683
 31
0.0
  0
SPLINE
  5
30C
100
AcDbEntity
  8
RACCORDO
100
AcDbSpline
 62
253
  6
CONTINUOUS
 70
0
 71
3
 72
11
 73
7
 74
5
 42
0.0000001
 43
0.0000001
 44
0.0000000001
 12
-1.4589941491
 22
0.5863303547
 32
0.0
 13
-0.1452246228
 23
1.5656810087
 33
0.0
 40
0.0
 40
0.0
 40
0.0
 40
0.0
 40
0.2477397331
 40
0.5111382218
 40
0.768425296
 40
1.0
 40
1.0
 40
1.0
 40
1.0
 10
-12.8827084175
 20
-18.7710336057
 30
0.0
 10
-13.0031920245
 20
-18.7226144971
 30
0.0
 10
-13.2363087674
 20
-18.5826616066
 30
0.0
 10
-13.5236958792
 20
-18.2955400181
 30
0.0
 10
-13.7325168571
 20
-17.9569255805
 30
0.0
 10
-13.8058415672
 20
-17.7060721356
 30
0.0
 10
-13.8170516836
 20
-17.5852147636
 30
0.0
 11
-12.8827084175
 21
-18.7710336057
 31
0.0
 11
-13.2193115842
 21
-18.5749604183
 31
0.0
 11
-13.5131362342
 21
-18.2830659059
 31
0.0
 11
-13.7223760119
 21
-17.9368197365
 31
0.0
 11
-13.8170516836
 21
-17.5852147636
 31
0.0
  0
SPLINE
  5
30D
100
AcDbEntity
  8
RACCORDO
100
AcDbSpline
 62
253
  6
CONTINUOUS
 70
0
 71
3
 72
11
 73
7
 74
5
 42
0.0000001
 43
0.0000001
 44
0.0000000001
 12
-0.9884793812
 22
-0.8836986984
 32
0.0
 13
-0.0849062949
 23
-1.3231801834
 33
0.0
 40
0.0
 40
0.0
 40
0.0
 40
0.0
 40
0.2274317196
 40
0.4861824676
 40
0.7522421563
 40
1.0
 40
1.0
 40
1.0
 40
1.0
 10
20.3914516401
 20
20.0169703393
 30
0.0
 10
20.3165144516
 20
19.9499766344
 30
0.0
 10
20.1775712291
 20
19.7830598333
 30
0.0
 10
20.015066598
 20
19.4914930571
 30
0.0
 10
19.8983824927
 20
19.1691181036
 30
0.0
 10
19.8575704374
 20
18.9440085594
 30
0.0
 10
19.8505583706
 20
18.8347324698
 30
0.0
 11
20.3914516401
 21
20.0169703393
 31
0.0
 11
20.1939431999
 21
19.7891018148
 31
0.0
 11
20.0249369148
 21
19.4905395952
 31
0.0
 11
19.9054831825
 21
19.1586107814
 31
0.0
 11
19.8505583706
 21
18.8347324698
 31
0.0
  0
SPLINE
  5
30E
100
AcDbEntity
  8
RACCORDO
100
AcDbSpline
 62
253
  6
CONTINUOUS
 70
0
 71
3
 72
11
 73
7
 74
5
 42
0.0000001
 43
0.0000001
 44
0.0000000001
 12
1.3373325991
 22
-0.6029202291
 32
0.0
 13
0.0593698379
 23
-1.4657579969
 33
0.0
 40
0.0
 40
0.0
 40
0.0
 40
0.0
 40
0.2461998352
 40
0.510820083
 40
0.7695160129
 40
1.0
 40
1.0
 40
1.0
 40
1.0
 10
20.3914516401
 20
20.0169703393
 30
0.0
 10
20.5012019952
 20
19.9674907189
 30
0.0
 10
20.7121323066
 20
19.8265411963
 30
0.0
 10
20.9670826358
 20
19.5454738722
 30
0.0
 10
21.1472076981
 20
19.2202218222
 30
0.0
 10
21.2049197993
 20
18.9830131044
 30
0.0
 10
21.2094810649
 20
18.8704018553
 30
0.0
 11
20.3914516401
 21
20.0169703393
 31
0.0
 11
20.6948418746
 21
19.8210246193
 31
0.0
 11
20.9566873896
 21
19.5344477612
 31
0.0
 11
21.1373982867
 21
19.200739501
 31
0.0
 11
21.2094810649
 21
18.8704018553
 31
0.0
  0
SPLINE
  5
30F
100
AcDbEntity
  8
RACCORDO
100
AcDbSpline
 62
253
  6
CONTINUOUS
 70
0
 71
3
 72
10
 73
6
 74
4
 42
0.0000001
 43
0.0000001
 44
0.0000000001
 12
-0.0210841843
 22
-0.5514965963
 32
0.0
 13
-0.459739686
 23
-0.3053399084
 33
0.0
 40
0.0
 40
0.0
 40
0.0
 40
0.0
 40
0.5294533923
 40
0.7693319501
 40
1.0
 40
1.0
 40
1.0
 40
1.0
 10
21.2094810649
 20
-44.0641736074
 30
0.0
 10
21.205760034
 20
-44.1615041886
 30
0.0
 10
21.176325621
 20
-44.3057311042
 30
0.0
 10
21.0758981336
 20
-44.4619216848
 30
0.0
 10
21.0102588115
 20
-44.5204050695
 30
0.0
 10
20.9749097259
 20
-44.5438824565
 30
0.0
 11
21.2094810649
 21
-44.0641736074
 31
0.0
 11
21.1425945459
 21
-44.3486204155
 31
0.0
 11
21.0701955874
 21
-44.459459032
 31
0.0
 11
20.9749097259
 21
-44.5438824565
 31
0.0
  0
SPLINE
  5
310
100
AcDbEntity
  8
RACCORDO
100
AcDbSpline
 62
253
  6
CONTINUOUS
 70
0
 71
3
 72
10
 73
6
 74
4
 42
0.0000001
 43
0.0000001
 44
0.0000000001
 12
0.0261049726
 22
0.6215545934
 32
0.0
 13
0.5184423506
 23
0.3438446034
 33
0.0
 40
0.0
 40
0.0
 40
0.0
 40
0.0
 40
0.5228187933
 40
0.7644337118
 40
1.0
 40
1.0
 40
1.0
 40
1.0
 10
-14.0908487931
 20
17.6792829853
 30
0.0
 10
-14.086299403
 20
17.7876031261
 30
0.0
 10
-14.0506926043
 20
17.9489052102
 30
0.0
 10
-13.9344597056
 20
18.1228782402
 30
0.0
 10
-13.8589442596
 20
18.1889922061
 30
0.0
 10
-13.8182350795
 20
18.215991605
 30
0.0
 11
-14.0908487931
 21
17.6792829853
 31
0.0
 11
-14.0126882039
 21
17.9949987927
 31
0.0
 11
-13.928615945
 21
18.119597059
 31
0.0
 11
-13.8182350795
 21
18.215991605
 31
0.0
  0
SPLINE
  5
311
100
AcDbEntity
  8
RACCORDO
100
AcDbSpline
 62
253
  6
CONTINUOUS
 70
0
 71
3
 72
9
 73
5
 74
3
 42
0.0000001
 43
0.0000001
 44
0.0000000001
 12
-4.3516581234
 22
-62.9837545563
 32
0.0
 13
4.8403641278
 23
-62.948082906
 33
0.0
 40
0.0
 40
0.0
 40
0.0
 40
0.0
 40
0.5133135694
 40
1.0
 40
1.0
 40
1.0
 40
1.0
 10
19.8505563397
 20
18.8347332854
 30
0.0
 10
19.1059679517
 20
8.0579279974
 30
0.0
 10
18.3252875899
 20
-12.9900986063
 30
0.0
 10
19.0653096483
 20
-34.0455802767
 30
0.0
 10
19.8505561617
 20
-44.2575728714
 30
0.0
 11
19.8505563397
 21
18.8347332854
 31
0.0
 11
18.705191434
 21
-13.5525116728
 31
0.0
 11
19.8505561617
 21
-44.2575728714
 31
0.0
  0
SPLINE
  5
312
100
AcDbEntity
  8
RACCORDO
100
AcDbSpline
 62
7
  6
CONTINUOUS
 70
0
 71
3
 72
9
 73
5
 74
3
 42
0.0000001
 43
0.0000001
 44
0.0000000001
 12
0.0023022565
 22
-0.1017256671
 32
0.0
 13
0.0935377928
 23
-0.0400511304
 33
0.0
 40
0.0
 40
0.0
 40
0.0
 40
0.0
 40
0.4435993686
 40
1.0
 40
1.0
 40
1.0
 40
1.0
 10
5.7538441878
 20
-20.3282374722
 30
0.0
 10
5.7541846143
 20
-20.3432792861
 30
0.0
 10
5.7704501247
 20
-20.3766285962
 30
0.0
 10
5.8005450704
 20
-20.394632546
 30
0.0
 10
5.8178932327
 20
-20.4020607041
 30
0.0
 11
5.7538441878
 21
-20.3282374722
 31
0.0
 11
5.7713367164
 21
-20.3698470858
 31
0.0
 11
5.8178932327
 21
-20.4020607041
 31
0.0
  0
LINE
  5
313
100
AcDbEntity
  8
RACCORDO
100
AcDbLine
 62
253
  6
CONTINUOUS
 10
5.7086146421
 20
-25.46656002
 11
5.7073988415
 21
-25.5445906653
  0
SPLINE
  5
314
100
AcDbEntity
  8
RACCORDO
100
AcDbSpline
 62
253
  6
CONTINUOUS
 70
0
 71
3
 72
11
 73
7
 74
5
 42
0.0000001
 43
0.0000001
 44
0.0000000001
 12
-0.5517191885
 22
-0.4711335887
 32
0.0
 13
-0.6732976504
 23
0.270242845
 33
0.0
 40
0.0
 40
0.0
 40
0.0
 40
0.0
 40
0.2189148004
 40
0.4534126055
 40
0.7130874292
 40
1.0
 40
1.0
 40
1.0
 40
1.0
 10
5.4963785533
 20
-25.8301034363
 30
0.0
 10
5.4561187213
 20
-25.8644828082
 30
0.0
 10
5.3589966527
 20
-25.9207799281
 30
0.0
 10
5.1872928416
 20
-25.954380103
 30
0.0
 10
4.9971568464
 20
-25.9395348372
 30
0.0
 10
4.8697429616
 20
-25.9008021679
 30
0.0
 10
4.8053504417
 20
-25.8749568115
 30
0.0
 11
5.4963785533
 21
-25.8301034363
 31
0.0
 11
5.3595244548
 21
-25.9107019057
 31
0.0
 11
5.1930618606
 21
-25.9458356719
 31
0.0
 11
5.0050600413
 21
-25.9336550864
 31
0.0
 11
4.8053504417
 21
-25.8749568115
 31
0.0
  0
LINE
  5
315
100
AcDbEntity
  8
RACCORDO
100
AcDbLine
 62
253
  6
CONTINUOUS
 10
5.8160965872
 20
-20.3271867142
 11
5.8179207271
 21
-20.4032333113
  0
SPLINE
  5
316
100
AcDbEntity
  8
RACCORDO
100
AcDbSpline
 62
253
  6
CONTINUOUS
 70
0
 71
3
 72
11
 73
7
 74
5
 42
0.0000001
 43
0.0000001
 44
0.0000000001
 12
-0.0382729481
 22
-0.6540850672
 32
0.0
 13
0.6145510338
 23
-0.2271984168
 33
0.0
 40
0.0
 40
0.0
 40
0.0
 40
0.0
 40
0.194284784
 40
0.4180946919
 40
0.6871989195
 40
1.0
 40
1.0
 40
1.0
 40
1.0
 10
-27.1283416187
 20
37.9784089965
 30
0.0
 10
-27.1308202358
 20
37.9360494045
 30
0.0
 10
-27.1113592446
 20
37.8426943496
 30
0.0
 10
-27.0203971984
 20
37.7195991097
 30
0.0
 10
-26.8797349563
 20
37.6116669748
 30
0.0
 10
-26.7650536155
 20
37.5545675391
 30
0.0
 10
-26.7009762063
 20
37.5308782357
 30
0.0
 11
-27.1283416187
 21
37.9784089965
 31
0.0
 11
-27.1049855544
 21
37.8532738637
 31
0.0
 11
-27.0221027572
 21
37.7323025511
 31
0.0
 11
-26.884563687
 21
37.6219799045
 31
0.0
 11
-26.7009762063
 21
37.5308782357
 31
0.0
  0
SPLINE
  5
317
100
AcDbEntity
  8
RACCORDO
100
AcDbSpline
 62
253
  6
CONTINUOUS
 70
0
 71
3
 72
11
 73
7
 74
5
 42
0.0000001
 43
0.0000001
 44
0.0000000001
 12
-0.4177528135
 22
0.1686231416
 32
0.0
 13
-0.0322212023
 23
0.4493472724
 33
0.0
 40
0.0
 40
0.0
 40
0.0
 40
0.0
 40
0.2027826722
 40
0.4289234367
 40
0.6932759065
 40
1.0
 40
1.0
 40
1.0
 40
1.0
 10
-26.5029958452
 20
-25.9427314241
 30
0.0
 10
-26.5312335225
 20
-25.9313334737
 30
0.0
 10
-26.5861724882
 20
-25.894001227
 30
0.0
 10
-26.6460242721
 20
-25.806763288
 30
0.0
 10
-26.685592062
 20
-25.6927359787
 30
0.0
 10
-26.6976818667
 20
-25.6073698709
 30
0.0
 10
-26.7009762063
 20
-25.5614279926
 30
0.0
 11
-26.5029958452
 21
-25.9427314241
 31
0.0
 11
-26.5791777135
 21
-25.8923147586
 31
0.0
 11
-26.6388990379
 21
-25.8097786172
 31
0.0
 11
-26.6800061616
 21
-25.6980070426
 31
0.0
 11
-26.7009762063
 21
-25.5614279926
 31
0.0
  0
SPLINE
  5
318
100
AcDbEntity
  8
RACCORDO
100
AcDbSpline
 62
253
  6
CONTINUOUS
 70
0
 71
3
 72
9
 73
5
 74
3
 42
0.0000001
 43
0.0000001
 44
0.0000000001
 12
0.1815473268
 22
-0.08992804
 32
0.0
 13
0.1670847405
 23
-0.1145826066
 33
0.0
 40
0.0
 40
0.0
 40
0.0
 40
0.0
 40
0.2456496463
 40
1.0
 40
1.0
 40
1.0
 40
1.0
 10
5.0738144893
 20
10.9557937179
 30
0.0
 10
5.0886801682
 20
10.9484301208
 30
0.0
 10
5.1486342352
 20
10.9173291029
 30
0.0
 10
5.2063150024
 20
10.8818789082
 30
0.0
 10
5.2483284801
 20
10.8530670982
 30
0.0
 11
5.0738144893
 21
10.9557937179
 31
0.0
 11
5.1179983795
 21
10.9328877671
 31
0.0
 11
5.2483284801
 21
10.8530670982
 31
0.0
  0
SPLINE
  5
319
100
AcDbEntity
  8
RACCORDO
100
AcDbSpline
 62
253
  6
CONTINUOUS
 70
0
 71
3
 72
9
 73
5
 74
3
 42
0.0000001
 43
0.0000001
 44
0.0000000001
 12
1.0422366649
 22
-0.7147402776
 32
0.0
 13
0.2545366353
 23
-1.2378699574
 33
0.0
 40
0.0
 40
0.0
 40
0.0
 40
0.0
 40
0.2509748678
 40
1.0
 40
1.0
 40
1.0
 40
1.0
 10
5.2483284801
 20
10.8530670982
 30
0.0
 10
5.3355202165
 20
10.7932731493
 30
0.0
 10
5.6573584939
 20
10.5204338914
 30
0.0
 10
5.8817121236
 20
10.1273819223
 30
0.0
 10
5.9452635693
 20
9.8183166862
 30
0.0
 11
5.2483284801
 21
10.8530670982
 31
0.0
 11
5.4909264543
 21
10.6487495515
 31
0.0
 11
5.9452635693
 21
9.8183166862
 31
0.0
  0
SPLINE
  5
31A
100
AcDbEntity
  8
RACCORDO
100
AcDbSpline
 62
253
  6
CONTINUOUS
 70
0
 71
3
 72
9
 73
5
 74
3
 42
0.0000001
 43
0.0000001
 44
0.0000000001
 12
0.0442981683
 22
-0.2154321386
 32
0.0
 13
0.006505741
 23
-0.2198431473
 33
0.0
 40
0.0
 40
0.0
 40
0.0
 40
0.0
 40
0.2559114252
 40
1.0
 40
1.0
 40
1.0
 40
1.0
 10
5.9452635693
 20
9.8183166862
 30
0.0
 10
5.9490423717
 20
9.7999395043
 30
0.0
 10
5.9623390229
 20
9.7278393645
 30
0.0
 10
5.9696929699
 20
9.6546050767
 30
0.0
 10
5.9713065857
 20
9.6000774854
 30
0.0
 11
5.9452635693
 21
9.8183166862
 31
0.0
 11
5.95545871
 21
9.7629627291
 31
0.0
 11
5.9713065857
 21
9.6000774854
 31
0.0
  0
SPLINE
  5
31B
100
AcDbEntity
  8
RACCORDO
100
AcDbSpline
 62
253
  6
CONTINUOUS
 70
0
 71
3
 72
10
 73
6
 74
4
 42
0.0000001
 43
0.0000001
 44
0.0000000001
 12
0.03225642
 22
0.8049321364
 32
0.0
 13
0.7357744146
 23
0.3280125481
 33
0.0
 40
0.0
 40
0.0
 40
0.0
 40
0.0
 40
0.522754093
 40
0.7629535739
 40
1.0
 40
1.0
 40
1.0
 40
1.0
 10
-14.2933334264
 20
17.6696391795
 30
0.0
 10
-14.2877127012
 20
17.8098997024
 30
0.0
 10
-14.236261788
 20
18.020607206
 30
0.0
 10
-14.0637104864
 20
18.2310485459
 30
0.0
 10
-13.9538184284
 20
18.3017039448
 30
0.0
 10
-13.8956808633
 20
18.3276220122
 30
0.0
 11
-14.2933334264
 21
17.6696391795
 31
0.0
 11
-14.179557669
 21
18.0750976098
 31
0.0
 11
-14.0561894742
 21
18.2241691722
 31
0.0
 11
-13.8956808633
 21
18.3276220122
 31
0.0
  0
SPLINE
  5
31C
100
AcDbEntity
  8
RACCORDO
100
AcDbSpline
 62
253
  6
CONTINUOUS
 70
0
 71
3
 72
9
 73
5
 74
3
 42
0.0000001
 43
0.0000001
 44
0.0000000001
 12
0.2942474838
 22
0.1311772535
 32
0.0
 13
0.3220578597
 23
-0.0082333802
 33
0.0
 40
0.0
 40
0.0
 40
0.0
 40
0.0
 40
0.242325201
 40
1.0
 40
1.0
 40
1.0
 40
1.0
 10
-13.8956808633
 20
18.3276220122
 30
0.0
 10
-13.8719130031
 20
18.3382178637
 30
0.0
 10
-13.7712092183
 20
18.3760288351
 30
0.0
 10
-13.6619419511
 20
18.3890756301
 30
0.0
 10
-13.5806035764
 20
18.3869962219
 30
0.0
 11
-13.8956808633
 21
18.3276220122
 31
0.0
 11
-13.8226040128
 21
18.3550887765
 31
0.0
 11
-13.5806035764
 21
18.3869962219
 31
0.0
  0
SPLINE
  5
31D
100
AcDbEntity
  8
RACCORDO
100
AcDbSpline
 62
253
  6
CONTINUOUS
 70
0
 71
3
 72
9
 73
5
 74
3
 42
0.0000001
 43
0.0000001
 44
0.0000000001
 12
0.1752821375
 22
-0.004481072
 32
0.0
 13
0.1713575523
 23
-0.03715504
 33
0.0
 40
0.0
 40
0.0
 40
0.0
 40
0.0
 40
0.2442083345
 40
1.0
 40
1.0
 40
1.0
 40
1.0
 10
-13.5806035764
 20
18.3869962219
 30
0.0
 10
-13.5663351235
 20
18.3866314502
 30
0.0
 10
-13.507949565
 20
18.3836744692
 30
0.0
 10
-13.449895413
 20
18.3749447611
 30
0.0
 10
-13.4067252097
 20
18.3655842712
 30
0.0
 11
-13.5806035764
 21
18.3869962219
 31
0.0
 11
-13.5378384078
 21
18.3848429391
 31
0.0
 11
-13.4067252097
 21
18.3655842712
 31
0.0
  0
SPLINE
  5
31E
100
AcDbEntity
  8
RACCORDO
100
AcDbSpline
 62
253
  6
CONTINUOUS
 70
0
 71
3
 72
9
 73
5
 74
3
 42
0.0000001
 43
0.0000001
 44
0.0000000001
 12
0.1850417881
 22
-0.0401221595
 32
0.0
 13
0.175679722
 23
-0.0706178896
 33
0.0
 40
0.0
 40
0.0
 40
0.0
 40
0.0
 40
0.2447326359
 40
1.0
 40
1.0
 40
1.0
 40
1.0
 10
-13.4067252097
 20
18.3655842712
 30
0.0
 10
-13.3916299549
 20
18.3623112039
 30
0.0
 10
-13.3302546045
 20
18.3475517715
 30
0.0
 10
-13.2701978234
 20
18.3274221564
 30
0.0
 10
-13.2259694365
 20
18.309643694
 30
0.0
 11
-13.4067252097
 21
18.3655842712
 31
0.0
 11
-13.3616678268
 21
18.3547653323
 31
0.0
 11
-13.2259694365
 21
18.309643694
 31
0.0
  0
SPLINE
  5
31F
100
AcDbEntity
  8
RACCORDO
100
AcDbSpline
 62
253
  6
CONTINUOUS
 70
0
 71
3
 72
11
 73
7
 74
5
 42
0.0000001
 43
0.0000001
 44
0.0000000001
 12
-0.4181942955
 22
0.1682277622
 32
0.0
 13
-0.0322399207
 23
0.4496083143
 33
0.0
 40
0.0
 40
0.0
 40
0.0
 40
0.0
 40
0.2027890872
 40
0.4289139212
 40
0.6932472901
 40
1.0
 40
1.0
 40
1.0
 40
1.0
 10
20.0487849716
 20
-44.6389771331
 30
0.0
 10
20.0205165585
 20
-44.6276055484
 30
0.0
 10
19.9655047931
 20
-44.5903065384
 30
0.0
 10
19.905572902
 20
-44.5030488697
 30
0.0
 10
19.8659522522
 20
-44.3889647455
 30
0.0
 10
19.8538549316
 20
-44.3035466148
 30
0.0
 10
19.8505583706
 20
-44.2575737585
 30
0.0
 11
20.0487849716
 21
-44.6389771331
 31
0.0
 11
19.9725061999
 21
-44.5886055728
 31
0.0
 11
19.9127076122
 21
-44.506061169
 31
0.0
 11
19.8715493835
 21
-44.3942438534
 31
0.0
 11
19.8505583706
 21
-44.2575737585
 31
0.0
  0
SPLINE
  5
320
100
AcDbEntity
  8
RACCORDO
100
AcDbSpline
 62
253
  6
CONTINUOUS
 70
0
 71
3
 72
11
 73
7
 74
5
 42
0.0000001
 43
0.0000001
 44
0.0000000001
 12
0.0449489114
 22
-0.6734983335
 32
0.0
 13
0.6203974646
 23
-0.2659462272
 33
0.0
 40
0.0
 40
0.0
 40
0.0
 40
0.0
 40
0.2188905107
 40
0.4533823485
 40
0.7122862864
 40
1.0
 40
1.0
 40
1.0
 40
1.0
 10
-27.1278689209
 20
-25.0811447388
 30
0.0
 10
-27.1245892909
 20
-25.1302855369
 30
0.0
 10
-27.0983981388
 20
-25.231497308
 30
0.0
 10
-27.0075631209
 20
-25.3665275098
 30
0.0
 10
-26.8709912099
 20
-25.480231302
 30
0.0
 10
-26.7604751592
 20
-25.5359225338
 30
0.0
 10
-26.7009762063
 20
-25.5614279927
 30
0.0
 11
-27.1278689209
 21
-25.0811447388
 31
0.0
 11
-27.0919274744
 21
-25.2244569103
 31
0.0
 11
-27.0054030066
 21
-25.3569954051
 31
0.0
 11
-26.8726759589
 21
-25.4706806547
 31
0.0
 11
-26.7009762063
 21
-25.5614279927
 31
0.0
  0
SPLINE
  5
321
100
AcDbEntity
  8
RACCORDO
100
AcDbSpline
 62
253
  6
CONTINUOUS
 70
0
 71
3
 72
11
 73
7
 74
5
 42
0.0000001
 43
0.0000001
 44
0.0000000001
 12
-1.6587481241
 22
0.6663010953
 32
0.0
 13
-0.1611989064
 23
1.780285764
 33
0.0
 40
0.0
 40
0.0
 40
0.0
 40
0.0
 40
0.2476504816
 40
0.5109708387
 40
0.7682647091
 40
1.0
 40
1.0
 40
1.0
 40
1.0
 10
-12.9656037162
 20
-18.9687054988
 30
0.0
 10
-13.1025336402
 20
-18.9137022364
 30
0.0
 10
-13.3674368342
 20
-18.7545434569
 30
0.0
 10
-13.693681147
 20
-18.4277604813
 30
0.0
 10
-13.9303971876
 20
-18.04231806
 30
0.0
 10
-14.0132162854
 20
-17.7568644523
 30
0.0
 10
-14.0256681106
 20
-17.6193461058
 30
0.0
 11
-12.9656037162
 21
-18.9687054988
 31
0.0
 11
-13.3480568388
 21
-18.745756905
 31
0.0
 11
-13.6815880111
 21
-18.4136145709
 31
0.0
 11
-13.9187719801
 21
-18.0195589359
 31
0.0
 11
-14.0256681106
 21
-17.6193461058
 31
0.0
  0
ELLIPSE
  5
322
100
AcDbEntity
  8
RACCORDO
100
AcDbEllipse
 62
7
  6
CONTINUOUS
 10
27.2933480728
 20
-39.1446122262
 30
0.0
 11
-0.6349013301
 21
0.7761056187
 31
0.0
 40
0.6692102709
 41
-3.2080566652
 42
-2.4559451104
  0
ELLIPSE
  5
323
100
AcDbEntity
  8
RACCORDO
100
AcDbEllipse
 62
7
  6
CONTINUOUS
 10
27.2933480728
 20
24.7469989083
 30
0.0
 11
-0.6342170824
 21
0.7731899447
 31
0.0
 40
0.6728141967
 41
-2.454628732
 42
-0.886571461
  0
ELLIPSE
  5
324
100
AcDbEntity
  8
RACCORDO
100
AcDbEllipse
 62
7
  6
CONTINUOUS
 10
-20.2152221759
 20
43.8275117758
 30
0.0
 11
-0.6349013301
 21
0.7761056187
 31
0.0
 40
0.6692102709
 41
-0.8824097279
 42
0.0655217881
  0
ELLIPSE
  5
325
100
AcDbEntity
  8
RACCORDO
100
AcDbEllipse
 62
7
  6
CONTINUOUS
 10
-9.9014481604
 20
-15.2686299611
 30
0.0
 11
-0.6966169446
 21
0.8517018031
 31
0.0
 40
0.671048007
 41
1.0080472496
 42
2.2579412208
  0
ELLIPSE
  5
326
100
AcDbEntity
  8
RACCORDO
100
AcDbEllipse
 62
7
  6
CONTINUOUS
 10
-11.7196431607
 20
13.9634160699
 30
0.0
 11
0.2003195824
 21
0.4293672101
 31
0.0
 40
0.5156370863
 41
0.7529114797
 42
3.8595975483
  0
ELLIPSE
  5
327
100
AcDbEntity
  8
RACCORDO
100
AcDbEllipse
 62
7
  6
CONTINUOUS
 10
-1.5796168504
 20
-8.0090484533
 30
0.0
 11
9.6609953279
 21
7.3214722385
 31
0.0
 40
0.059339784
 41
-3.1341405145
 42
-2.8655661111
  0
ENDSEC
  0
SECTION
  2
OBJECTS
  0
DICTIONARY
  5
C
100
AcDbDictionary
280
0
281
1
  3
ACAD_GROUP
350
D
  3
ACAD_MLINESTYLE
350
17
  3
ACAD_LAYOUT
350
1A
  3
ACAD_PLOTSETTINGS
350
19
  3
ACAD_PLOTSTYLENAME
350
E
  0
DICTIONARY
  5
D
102
{ACAD_REACTORS
330
C
102
}
100
AcDbDictionary
280
0
281
1
  0
ACDBDICTIONARYWDFLT
  5
E
102
{ACAD_REACTORS
330
C
102
}
100
AcDbDictionary
281
1
  3
Normal
350
F
100
AcDbDictionaryWithDefault
340
F
  0
DICTIONARY
  5
17
102
{ACAD_REACTORS
330
C
102
}
100
AcDbDictionary
280
0
281
1
  3
Standard
350
18
  0
DICTIONARY
  5
19
102
{ACAD_REACTORS
330
C
102
}
100
AcDbDictionary
281
1
  0
DICTIONARY
  5
1A
102
{ACAD_REACTORS
330
C
102
}
100
AcDbDictionary
281
1
  3
Model
350
328
  3
Layout1
350
329
  0
ACDBPLACEHOLDER
  5
F
102
{ACAD_REACTORS
330
E
102
}
  0
MLINESTYLE
  5
18
102
{ACAD_REACTORS
330
17
102
}
100
AcDbMlineStyle
  2
STANDARD
 70
0
  3

 62
256
 51
90.0
 52
90.0
 71
2
 49
0.5
 62
256
  6
BYLAYER
 49
-0.5
 62
256
  6
BYLAYER
  0
LAYOUT
  5
328
102
{ACAD_REACTORS
330
1A
102
}
100
AcDbPlotSettings
  1

  2
none_device
  4
ISO_A4_(297.00_x_210.00_MM)
  6

 40
0.0
 41
0.0
 42
0.0
 43
0.0
 44
297.0
 45
210.0
 46
0.0
 47
0.0
 48
0.0
 49
0.0
140
0.0
141
0.0
142
1.0
143
1.0
 70
1024
 72
1
 73
0
 74
0
  7

 75
0
147
1.0
148
0.0
149
0.0
100
AcDbLayout
  1
Model
 70
0
 71
0
 10
0.0
 20
0.0
 11
297.0
 21
210.0
 12
0.0
 22
0.0
 32
0.0
 14
0.0
 24
0.0
 34
0.0
 15
0.0
 25
0.0
 35
0.0
146
0.0
 13
0.0
 23
0.0
 33
0.0
 16
1.0
 26
0.0
 36
0.0
 17
0.0
 27
1.0
 37
0.0
 76
0
330
20F
345
0
346
0
  0
LAYOUT
  5
329
102
{ACAD_REACTORS
330
1A
102
}
100
AcDbPlotSettings
  1

  2
none_device
  4
ISO_A4_(297.00_x_210.00_MM)
  6

 40
0.0
 41
0.0
 42
0.0
 43
0.0
 44
297.0
 45
210.0
 46
0.0
 47
0.0
 48
0.0
 49
0.0
140
0.0
141
0.0
142
1.0
143
1.0
 70
0
 72
1
 73
0
 74
0
  7

 75
0
147
1.0
148
0.0
149
0.0
100
AcDbLayout
  1
Layout1
 70
0
 71
1
 10
0.0
 20
0.0
 11
297.0
 21
210.0
 12
0.0
 22
0.0
 32
0.0
 14
0.0
 24
0.0
 34
0.0
 15
0.0
 25
0.0
 35
0.0
146
0.0
 13
0.0
 23
0.0
 33
0.0
 16
1.0
 26
0.0
 36
0.0
 17
0.0
 27
1.0
 37
0.0
 76
0
330
210
345
0
346
0
  0
ENDSEC
  0
EOF
