  0
SECTION
  2
HEADER
  9
$ACADVER
  1
AC1021
  9
$DWGCODEPAGE
  3
ANSI_1252
  9
$EXTMAX
 10
297.0
 20
210.0
 30
0.0
  9
$EXTMIN
 10
0.0
 20
0.0
 30
0.0
  9
$LIMMIN
 10
0.0
 20
0.0
  9
$LIMMAX
 10
297.0
 20
210.0
  9
$VIEWCTR
 10
148.5
 20
105.0
  9
$VIEWSIZE
 40
210.0
  9
$CLAYER
  8
0
  9
$LTSCALE
 40
16.335
  9
$CELTYPE
  6
BYLAYER
  9
$DIMSCALE
 40
1.0
  9
$DIMASZ
 40
3.0
  9
$DIMEXO
 40
1.85625
  9
$DIMDLI
 40
11.286
  9
$DIMEXE
 40
5.346
  9
$DIMCEN
 40
2.673
  9
$DIMLFAC
 40
1.0
  9
$DIMBLK
  1
_FILLED
  9
$DIMTXT
 40
3.0
  9
$DIMTOL
 70
1
  9
$DIMLIM
 70
0
  9
$DIMTFAC
 40
1.0
  9
$DIMTP
 40
0.01
  9
$DIMTM
 40
0.01
  9
$PDMODE
 70
3
  9
$PDSIZE
 40
3.0
  9
$HANDSEED
  5
3E5
  9
$TILEMODE
 70
1
  9
$MEASUREMENT
 70
1
  9
$INSUNITS
 70
4
  0
ENDSEC
  0
SECTION
  2
CLASSES
  0
CLASS
  1
ACDBDICTIONARYWDFLT
  2
AcDbDictionaryWithDefault
  3
AutoCAD 2000
 90
0
 91
1
280
0
281
0
  0
CLASS
  1
ACDBPLACEHOLDER
  2
AcDbPlaceHolder
  3
AutoCAD 2000
 90
0
 91
1
280
0
281
0
  0
CLASS
  1
LAYOUT
  2
AcDbLayout
  3
AutoCAD 2000
 90
0
 91
0
280
0
281
0
  0
ENDSEC
  0
SECTION
  2
TABLES
  0
TABLE
  2
VPORT
  5
8
100
AcDbSymbolTable
 70
2
  0
VPORT
  5
1F4
100
AcDbSymbolTableRecord
100
AcDbViewportTableRecord
  2
*ACTIVE
 70
0
 10
0.0
 20
0.0
 11
1.0
 21
1.0
 12
148.5
 22
105.0
 13
0.0
 23
0.0
 14
1.0
 24
1.0
 15
0.0
 25
0.0
 16
0.0
 26
0.0
 36
1.0
 17
0.0
 27
0.0
 37
0.0
 40
210.0
 41
1.4142857143
 42
50.0
 43
0.0
 44
0.0
 50
0.0
 51
0.0
 71
0
 72
100
 73
1
 74
1
 75
0
 76
0
 77
0
 78
0
  0
ENDTAB
  0
TABLE
  2
LTYPE
  5
5
100
AcDbSymbolTable
 70
6
  0
LTYPE
  5
14
100
AcDbSymbolTableRecord
100
AcDbLinetypeTableRecord
  2
BYBLOCK
 70
0
  3

 72
65
 73
0
 40
0.0
  0
LTYPE
  5
15
100
AcDbSymbolTableRecord
100
AcDbLinetypeTableRecord
  2
BYLAYER
 70
0
  3

 72
65
 73
0
 40
0.0
  0
LTYPE
  5
16
100
AcDbSymbolTableRecord
100
AcDbLinetypeTableRecord
  2
CONTINUOUS
 70
64
  3
Solid line
 72
65
 73
0
 40
0.0
  0
LTYPE
  5
1F5
100
AcDbSymbolTableRecord
100
AcDbLinetypeTableRecord
  2
CENTER
 70
64
  3
____ _ ____ _ ____ _ ____ _ ____ _ ____ _ ____
 72
65
 73
4
 40
0.6
 49
0.375
 74
0
 49
-0.075
 74
0
 49
0.075
 74
0
 49
-0.075
 74
0
  0
LTYPE
  5
1F6
100
AcDbSymbolTableRecord
100
AcDbLinetypeTableRecord
  2
HIDDEN
 70
64
  3
- - - - - - - - - - - - - - - - - - - -
 72
65
 73
2
 40
0.2
 49
0.1
 74
0
 49
-0.1
 74
0
  0
LTYPE
  5
1F7
100
AcDbSymbolTableRecord
100
AcDbLinetypeTableRecord
  2
PHANTOM
 70
64
  3
_____ _ _ _____ _ _ _____ _ _ _____
 72
65
 73
6
 40
0.8
 49
0.45
 74
0
 49
-0.05
 74
0
 49
0.1
 74
0
 49
-0.05
 74
0
 49
0.1
 74
0
 49
-0.05
 74
0
  0
LTYPE
  5
1F8
100
AcDbSymbolTableRecord
100
AcDbLinetypeTableRecord
  2
DOT
 70
64
  3
. . . . . . . . . . . . . . . . . . . .
 72
65
 73
2
 40
0.2
 49
0.1
 74
0
 49
-0.1
 74
0
  0
LTYPE
  5
1F9
100
AcDbSymbolTableRecord
100
AcDbLinetypeTableRecord
  2
DASHED
 70
64
  3
- - - - - - - - - - - - - - - - - - - -
 72
65
 73
2
 40
0.2
 49
0.1
 74
0
 49
-0.1
 74
0
  0
ENDTAB
  0
TABLE
  2
LAYER
  5
2
100
AcDbSymbolTable
 70
36
  0
LAYER
  5
10
100
AcDbSymbolTableRecord
100
AcDbLayerTableRecord
  2
0
 70
0
 62
7
  6
CONTINUOUS
370
-3
390
F
  0
LAYER
  5
1FA
100
AcDbSymbolTableRecord
100
AcDbLayerTableRecord
  2
DEFAULT_1
 70
0
 62
7
  6
CENTER
370
-3
390
F
  0
LAYER
  5
1FB
100
AcDbSymbolTableRecord
100
AcDbLayerTableRecord
  2
DEFAULT_2
 70
0
 62
7
  6
HIDDEN
370
-3
390
F
  0
LAYER
  5
1FC
100
AcDbSymbolTableRecord
100
AcDbLayerTableRecord
  2
DEFAULT_3
 70
0
 62
7
  6
PHANTOM
370
-3
390
F
  0
LAYER
  5
1FD
100
AcDbSymbolTableRecord
100
AcDbLayerTableRecord
  2
ASSI
 70
0
 62
7
  6
CONTINUOUS
370
-3
390
F
  0
LAYER
  5
1FE
100
AcDbSymbolTableRecord
100
AcDbLayerTableRecord
  2
COLORE
 70
0
 62
7
  6
CONTINUOUS
370
-3
390
F
  0
LAYER
  5
1FF
100
AcDbSymbolTableRecord
100
AcDbLayerTableRecord
  2
COORDINATE
 70
0
 62
7
  6
CONTINUOUS
370
-3
390
F
  0
LAYER
  5
200
100
AcDbSymbolTableRecord
100
AcDbLayerTableRecord
  2
COORD_ORIGINE
 70
0
 62
7
  6
CONTINUOUS
370
-3
390
F
  0
LAYER
  5
201
100
AcDbSymbolTableRecord
100
AcDbLayerTableRecord
  2
CURVE
 70
0
 62
7
  6
CONTINUOUS
370
-3
390
F
  0
LAYER
  5
202
100
AcDbSymbolTableRecord
100
AcDbLayerTableRecord
  2
DRAFT
 70
0
 62
7
  6
CONTINUOUS
370
-3
390
F
  0
LAYER
  5
203
100
AcDbSymbolTableRecord
100
AcDbLayerTableRecord
  2
IGES_SCRITTE
 70
0
 62
7
  6
CONTINUOUS
370
-3
390
F
  0
LAYER
  5
204
100
AcDbSymbolTableRecord
100
AcDbLayerTableRecord
  2
IMPORT
 70
0
 62
7
  6
CONTINUOUS
370
-3
390
F
  0
LAYER
  5
205
100
AcDbSymbolTableRecord
100
AcDbLayerTableRecord
  2
INTF_1
 70
0
 62
7
  6
CONTINUOUS
370
-3
390
F
  0
LAYER
  5
206
100
AcDbSymbolTableRecord
100
AcDbLayerTableRecord
  2
INTF_RED
 70
0
 62
7
  6
CONTINUOUS
370
-3
390
F
  0
LAYER
  5
207
100
AcDbSymbolTableRecord
100
AcDbLayerTableRecord
  2
INTF_YELLOW
 70
0
 62
7
  6
CONTINUOUS
370
-3
390
F
  0
LAYER
  5
208
100
AcDbSymbolTableRecord
100
AcDbLayerTableRecord
  2
NOTE
 70
0
 62
7
  6
CONTINUOUS
370
-3
390
F
  0
LAYER
  5
209
100
AcDbSymbolTableRecord
100
AcDbLayerTableRecord
  2
PIANI
 70
0
 62
7
  6
CONTINUOUS
370
-3
390
F
  0
LAYER
  5
20A
100
AcDbSymbolTableRecord
100
AcDbLayerTableRecord
  2
PIANI_DI_RIFERIMENTO
 70
0
 62
7
  6
CONTINUOUS
370
-3
390
F
  0
LAYER
  5
20B
100
AcDbSymbolTableRecord
100
AcDbLayerTableRecord
  2
PIANI_ORIGINE
 70
0
 62
7
  6
CONTINUOUS
370
-3
390
F
  0
LAYER
  5
20C
100
AcDbSymbolTableRecord
100
AcDbLayerTableRecord
  2
PUNTI
 70
0
 62
7
  6
CONTINUOUS
370
-3
390
F
  0
LAYER
  5
20D
100
AcDbSymbolTableRecord
100
AcDbLayerTableRecord
  2
RACCORDO
 70
0
 62
7
  6
CONTINUOUS
370
-3
390
F
  0
LAYER
  5
20E
100
AcDbSymbolTableRecord
100
AcDbLayerTableRecord
  2
RGB____0____0____0__
 70
0
 62
7
  6
CONTINUOUS
370
-3
390
F
  0
LAYER
  5
20F
100
AcDbSymbolTableRecord
100
AcDbLayerTableRecord
  2
SMUSSO
 70
0
 62
7
  6
CONTINUOUS
370
-3
390
F
  0
LAYER
  5
210
100
AcDbSymbolTableRecord
100
AcDbLayerTableRecord
  2
SNAPLINE
 70
0
 62
7
  6
CONTINUOUS
370
-3
390
F
  0
LAYER
  5
211
100
AcDbSymbolTableRecord
100
AcDbLayerTableRecord
  2
SUPERFICI
 70
0
 62
7
  6
CONTINUOUS
370
-3
390
F
  0
LAYER
  5
212
100
AcDbSymbolTableRecord
100
AcDbLayerTableRecord
  2
SUP_COSTRUZIONE
 70
0
 62
7
  6
CONTINUOUS
370
-3
390
F
  0
LAYER
  5
213
100
AcDbSymbolTableRecord
100
AcDbLayerTableRecord
  2
TRASH
 70
0
 62
7
  6
CONTINUOUS
370
-3
390
F
  0
LAYER
  5
214
100
AcDbSymbolTableRecord
100
AcDbLayerTableRecord
  2
XSEC_DATUMS
 70
0
 62
7
  6
CONTINUOUS
370
-3
390
F
  0
ENDTAB
  0
TABLE
  2
STYLE
  5
3
100
AcDbSymbolTable
 70
1
  0
STYLE
  5
11
100
AcDbSymbolTableRecord
100
AcDbTextStyleTableRecord
  2
STANDARD
 70
0
 40
0.0
 41
0.8
 50
0.0
 71
0
 42
0.2
  3
txt
  4

  0
STYLE
  5
215
100
AcDbSymbolTableRecord
100
AcDbTextStyleTableRecord
  2
TEXTSTYLE_1
 70
0
 40
0.0
 41
0.8
 50
0.0
 71
0
 42
0.2
  3
gdt
  4

  0
ENDTAB
  0
TABLE
  2
VIEW
  5
6
100
AcDbSymbolTable
 70
0
  0
ENDTAB
  0
TABLE
  2
UCS
  5
7
100
AcDbSymbolTable
 70
0
  0
ENDTAB
  0
TABLE
  2
APPID
  5
9
100
AcDbSymbolTable
 70
1
  0
APPID
  5
216
100
AcDbSymbolTableRecord
100
AcDbRegAppTableRecord
  2
ACAD
 70
0
  0
ENDTAB
  0
TABLE
  2
BLOCK_RECORD
  5
1
100
AcDbSymbolTable
 70
0
  0
BLOCK_RECORD
  5
217
100
AcDbSymbolTableRecord
100
AcDbBlockTableRecord
  2
*Model_Space
  0
BLOCK_RECORD
  5
218
100
AcDbSymbolTableRecord
100
AcDbBlockTableRecord
  2
*Paper_Space
  0
ENDTAB
  0
TABLE
  2
DIMSTYLE
  5
A
100
AcDbSymbolTable
 70
1
100
AcDbDimStyleTable
 71
0
  0
DIMSTYLE
105
219
100
AcDbSymbolTableRecord
100
AcDbDimStyleTableRecord
  2
STANDARD
 70
0
  3

  4

 40
1.0
 41
3.0
 42
0.0625
 43
0.38
 44
0.18
 45
0.0
 46
0.0
 47
0.01
 48
0.01
140
3.0
141
0.09
142
0.0
143
25.4
144
1.0
145
0.0
146
1.0
147
0.09
 71
1.0
 72
0.0
 73
0
 74
0
 75
0
 76
0
 77
1
 78
8
170
0
171
2
172
0
173
0
174
0
175
0
176
0
177
0
178
0
270
2
271
2
272
2
273
2
274
2
275
0
280
0
281
0
282
0
283
1
284
8
285
0
286
0
287
3
288
0
340
11
  0
ENDTAB
  0
ENDSEC
  0
SECTION
  2
BLOCKS
  0
BLOCK
  5
20
100
AcDbEntity
  8
0
100
AcDbBlockBegin
  2
*Model_Space
 70
0
 10
0.0
 20
0.0
 30
0.0
  3
*Model_Space
  1

  0
ENDBLK
  5
21
100
AcDbEntity
  8
0
100
AcDbBlockEnd
  0
BLOCK
  5
1C
100
AcDbEntity
  8
0
100
AcDbBlockBegin
  2
*Paper_Space
 70
0
 10
0.0
 20
0.0
 30
0.0
  3
*Paper_Space
  1

  0
ENDBLK
  5
1D
100
AcDbEntity
  8
0
100
AcDbBlockEnd
  0
ENDSEC
  0
SECTION
  2
ENTITIES
  0
LWPOLYLINE
  5
21A
100
AcDbEntity
  8
RACCORDO
100
AcDbPolyline
 62
7
  6
CONTINUOUS
 90
12
 70
0
 10
141.2765541726
 20
33.9753730506
 10
141.3094814932
 20
33.9636956956
 10
141.3948908908
 20
33.9392194605
 10
141.481805262
 20
33.9225486388
 10
141.5696924917
 20
33.9137958661
 10
141.6578903717
 20
33.9130251787
 10
141.7453766109
 20
33.9202341841
 10
141.8315153958
 20
33.9353353043
 10
141.9159415787
 20
33.9582400098
 10
141.9977432547
 20
33.9886912725
 10
142.0761470785
 20
34.0263612274
 10
142.1511078101
 20
34.0712913459
  0
LWPOLYLINE
  5
21B
100
AcDbEntity
  8
RACCORDO
100
AcDbPolyline
 62
253
  6
CONTINUOUS
 90
19
 70
0
 10
141.101305008
 20
34.3855125978
 10
139.4991793161
 20
34.9884845424
 10
137.9008851378
 20
35.594670106
 10
136.3064463745
 20
36.2040615515
 10
134.7159029449
 20
36.8166449941
 10
133.129262515
 20
37.432418613
 10
131.5465009076
 20
38.0513929994
 10
129.967641356
 20
38.6735608756
 10
128.3927087701
 20
39.2989141868
 10
126.8216821475
 20
39.9274628838
 10
125.2545858462
 20
40.5591994606
 10
123.6914441103
 20
41.1941163402
 10
122.132236423
 20
41.8322238685
 10
120.5769882941
 20
42.4735142875
 10
119.0257233046
 20
43.1179805111
 10
117.4784187427
 20
43.7656344083
 10
115.9350837672
 20
44.4164752147
 10
114.3957589729
 20
45.0704891894
 10
112.8604691415
 20
45.7276689565
  0
LWPOLYLINE
  5
21C
100
AcDbEntity
  8
RACCORDO
100
AcDbPolyline
 62
7
  6
CONTINUOUS
 90
9
 70
0
 10
116.0378155985
 20
44.0372584909
 10
119.1477702551
 20
42.7302006665
 10
122.2750197491
 20
41.4355485594
 10
125.4193856533
 20
40.1533753721
 10
128.5806850337
 20
38.8837550567
 10
131.7587342837
 20
37.6267607515
 10
134.9533485534
 20
36.3824650085
 10
138.1643456545
 20
35.1509382499
 10
141.2765462323
 20
33.9753518138
  0
LINE
  5
21D
100
AcDbEntity
  8
RACCORDO
100
AcDbLine
 62
7
  6
CONTINUOUS
 10
116.0378155985
 20
44.0372584909
 11
113.0457384005
 21
45.313525004
  0
LWPOLYLINE
  5
21E
100
AcDbEntity
  8
RACCORDO
100
AcDbPolyline
 62
253
  6
CONTINUOUS
 90
19
 70
0
 10
112.8604691415
 20
45.7276689565
 10
112.853453302
 20
45.7309997393
 10
112.846576383
 20
45.7348717507
 10
112.8398383793
 20
45.7392849866
 10
112.8331847837
 20
45.7442827182
 10
112.8266700942
 20
45.7498216675
 10
112.8204578078
 20
45.7557720016
 10
112.8145592105
 20
45.7621419028
 10
112.8089629955
 20
45.7689231729
 10
112.8037987621
 20
45.7759614015
 10
112.7990767624
 20
45.7832638735
 10
112.7947867203
 20
45.7908232856
 10
112.791027438
 20
45.7984633412
 10
112.7878124456
 20
45.8061896343
 10
112.7851281923
 20
45.8139965551
 10
112.7830328583
 20
45.8216910009
 10
112.7815458329
 20
45.8292086011
 10
112.7806477149
 20
45.8366137172
 10
112.7803385014
 20
45.843906347
  0
LWPOLYLINE
  5
21F
100
AcDbEntity
  8
RACCORDO
100
AcDbPolyline
 62
253
  6
CONTINUOUS
 90
10
 70
0
 10
113.0457384005
 20
45.313525004
 10
113.0293330119
 20
45.3214437434
 10
112.9915533171
 20
45.3468592233
 10
112.9579710942
 20
45.3803976966
 10
112.9289301907
 20
45.4217157642
 10
112.9047279555
 20
45.4703903723
 10
112.8856121946
 20
45.525923144
 10
112.8717786337
 20
45.5877454821
 10
112.8633689142
 20
45.6552243909
 10
112.8604691429
 20
45.7276689576
  0
LWPOLYLINE
  5
220
100
AcDbEntity
  8
RACCORDO
100
AcDbPolyline
 62
253
  6
CONTINUOUS
 90
61
 70
0
 10
136.1457332418
 20
39.8623161515
 10
135.522947908
 20
40.0730401677
 10
134.9167966588
 20
40.2803296588
 10
134.3272794942
 20
40.4841846249
 10
133.7548785594
 20
40.6846143907
 10
133.1991117092
 20
40.8816096315
 10
132.6585325082
 20
41.0751423731
 10
132.133121705
 20
41.2651865194
 10
131.622898551
 20
41.4517681666
 10
131.1264743649
 20
41.6349376284
 10
130.6438217957
 20
41.8146765182
 10
130.1749681944
 20
41.9910032226
 10
129.718606933
 20
42.1640232149
 10
129.2746564048
 20
42.3337436191
 10
128.8431982165
 20
42.5001573112
 10
128.4231705596
 20
42.6633483924
 10
128.0145608242
 20
42.8233020189
 10
127.6173816202
 20
42.9800330345
 10
127.2306089695
 20
43.1336700712
 10
126.8542336297
 20
43.2841995195
 10
126.4882648432
 20
43.4316349889
 10
126.1317063588
 20
43.5761459397
 10
125.7844679862
 20
43.7177550692
 10
125.4466399157
 20
43.8564396801
 10
125.1174964671
 20
43.9923011409
 10
124.796989302
 20
44.1253488506
 10
124.4851667588
 20
44.2555734101
 10
124.1814481731
 20
44.3830479913
 10
123.8858150998
 20
44.5077716238
 10
123.5982859838
 20
44.629745278
 10
123.3183354956
 20
44.7490450358
 10
123.0459502077
 20
44.8656690959
 10
122.7811435476
 20
44.9796192597
 10
122.5234304676
 20
45.0909770131
 10
122.2728062213
 20
45.1997378204
 10
122.0292755553
 20
45.3059062173
 10
121.7923676611
 20
45.4095772968
 10
121.562099548
 20
45.5107375199
 10
121.3384542067
 20
45.6094004257
 10
121.1209098018
 20
45.7057017239
 10
120.9094864474
 20
45.7996266473
 10
120.7041640292
 20
45.8911899631
 10
120.5043603692
 20
45.9805716832
 10
120.310088861
 20
46.0677603386
 10
120.1213361109
 20
46.1527673983
 10
119.9374797595
 20
46.2358072807
 10
119.758527645
 20
46.3168714673
 10
119.5844719292
 20
46.3959684766
 10
119.4146667376
 20
46.473338283
 10
119.2491158634
 20
46.5489747143
 10
119.0878155134
 20
46.6228839426
 10
118.9301084337
 20
46.6953244592
 10
118.7759925004
 20
46.7662933339
 10
118.6254698375
 20
46.8357934969
 10
118.4778895632
 20
46.9040922296
 10
118.3333179692
 20
46.9711549658
 10
118.1916887638
 20
47.0370162717
 10
118.0521521902
 20
47.102047128
 10
117.9144249962
 20
47.1663711948
 10
117.7787904339
 20
47.2298648121
 10
117.6452485035
 20
47.2925279797
  0
LWPOLYLINE
  5
221
100
AcDbEntity
  8
RACCORDO
100
AcDbPolyline
 62
253
  6
CONTINUOUS
 90
10
 70
0
 10
136.272739979
 20
39.7378785215
 10
134.1575064798
 20
40.4614897772
 10
132.049594156
 20
41.2136418294
 10
129.9490548165
 20
41.9943125748
 10
127.8560372599
 20
42.803441183
 10
125.7704950022
 20
43.6410432847
 10
123.6921896941
 20
44.5072137717
 10
121.6210792632
 20
45.401971891
 10
119.5573144939
 20
46.3252584449
 10
117.5009491479
 20
47.2770529381
  0
LWPOLYLINE
  5
222
100
AcDbEntity
  8
RACCORDO
100
AcDbPolyline
 62
253
  6
CONTINUOUS
 90
3
 70
0
 10
136.1484641309
 20
40.7093398413
 10
136.174750228
 20
40.6987330472
 10
136.1837160113
 20
40.6944579039
  0
LWPOLYLINE
  5
223
100
AcDbEntity
  8
RACCORDO
100
AcDbPolyline
 62
253
  6
CONTINUOUS
 90
10
 70
0
 10
141.2761646685
 20
33.9754943701
 10
141.2526713016
 20
33.9862906944
 10
141.2185835791
 20
34.0102258454
 10
141.1883203783
 20
34.0424339984
 10
141.1621915639
 20
34.0825853743
 10
141.1404646686
 20
34.1302688636
 10
141.123362154
 20
34.1849962354
 10
141.1110591325
 20
34.2462071366
 10
141.1036815747
 20
34.3132748292
 10
141.1013050194
 20
34.3855126078
  0
LINE
  5
224
100
AcDbEntity
  8
RACCORDO
100
AcDbLine
 62
253
  6
CONTINUOUS
 10
118.6640523253
 20
50.2243424075
 11
136.1837160113
 21
43.1880504996
  0
LINE
  5
225
100
AcDbEntity
  8
RACCORDO
100
AcDbLine
 62
253
  6
CONTINUOUS
 10
118.9346240564
 20
50.650573863
 11
136.1837160113
 21
43.7229496622
  0
LINE
  5
226
100
AcDbEntity
  8
RACCORDO
100
AcDbLine
 62
7
  6
CONTINUOUS
 10
136.1837160113
 20
43.9966806361
 11
119.1617110971
 21
50.8331015617
  0
LINE
  5
227
100
AcDbEntity
  8
0
100
AcDbLine
 62
7
  6
CONTINUOUS
 10
127.1081354639
 20
47.753853145
 11
132.0230477297
 21
45.779913575
  0
LINE
  5
228
100
AcDbEntity
  8
DRAFT
100
AcDbLine
 62
7
  6
CONTINUOUS
 10
122.1157239866
 20
51.021983614
 11
122.8114987633
 21
50.7425447778
  0
LINE
  5
229
100
AcDbEntity
  8
0
100
AcDbLine
 62
7
  6
CONTINUOUS
 10
133.304025395
 20
46.6213495398
 11
133.1337404707
 21
46.6897398044
  0
LINE
  5
22A
100
AcDbEntity
  8
0
100
AcDbLine
 62
7
  6
CONTINUOUS
 10
127.6200060171
 20
48.9041798652
 11
126.9901001385
 21
49.1571642669
  0
LINE
  5
22B
100
AcDbEntity
  8
0
100
AcDbLine
 62
7
  6
CONTINUOUS
 10
127.7390695439
 20
49.1717513351
 11
132.6539818097
 21
47.1978117651
  0
LINE
  5
22C
100
AcDbEntity
  8
DRAFT
100
AcDbLine
 62
7
  6
CONTINUOUS
 10
133.1177977233
 20
47.1111310947
 11
133.6474702616
 21
46.8984026621
  0
LINE
  5
22D
100
AcDbEntity
  8
0
100
AcDbLine
 62
7
  6
CONTINUOUS
 10
128.185762351
 20
49.5376606612
 11
133.1006746167
 21
47.5637210912
  0
LINE
  5
22E
100
AcDbEntity
  8
DRAFT
100
AcDbLine
 62
7
  6
CONTINUOUS
 10
129.4568857522
 20
49.700314925
 11
129.071653673
 21
49.8550328129
  0
LINE
  5
22F
100
AcDbEntity
  8
DRAFT
100
AcDbLine
 62
7
  6
CONTINUOUS
 10
121.6217601118
 20
52.847078021
 11
121.5416589563
 21
52.8792484509
  0
LWPOLYLINE
  5
230
100
AcDbEntity
  8
RACCORDO
100
AcDbPolyline
 62
253
  6
CONTINUOUS
 90
10
 70
0
 10
117.5803128309
 20
47.3891095929
 10
117.5886614141
 20
47.3797470839
 10
117.5968047685
 20
47.3699377972
 10
117.6047076211
 20
47.359724221
 10
117.6123357407
 20
47.3491505949
 10
117.6196560859
 20
47.3382627176
 10
117.6266369487
 20
47.3271077493
 10
117.6332480911
 20
47.315734007
 10
117.6394608771
 20
47.3041907552
 10
117.6452483956
 20
47.2925279929
  0
LWPOLYLINE
  5
231
100
AcDbEntity
  8
RACCORDO
100
AcDbPolyline
 62
7
  6
CONTINUOUS
 90
3
 70
0
 10
159.7373913695
 20
170.6523009503
 10
159.7899421712
 20
170.6792420441
 10
159.8468693152
 20
170.7000309079
  0
LWPOLYLINE
  5
232
100
AcDbEntity
  8
RACCORDO
100
AcDbPolyline
 62
7
  6
CONTINUOUS
 90
4
 70
0
 10
159.8462153339
 20
170.6999770505
 10
159.7893915322
 20
170.6791450704
 10
159.7369348906
 20
170.6521704531
 10
159.7014534751
 20
170.6285972852
  0
LWPOLYLINE
  5
233
100
AcDbEntity
  8
RACCORDO
100
AcDbPolyline
 62
253
  6
CONTINUOUS
 90
10
 70
0
 10
117.776947011
 20
48.0374015128
 10
117.797993342
 20
48.038513337
 10
117.8229425556
 20
48.0375748353
 10
117.851081578
 20
48.0346128326
 10
117.8816061706
 20
48.0297119868
 10
117.9136439109
 20
48.02301237
 10
117.9462791277
 20
48.0147054655
 10
117.9785790776
 20
48.0050286941
 10
118.0096206046
 20
47.9942586266
 10
118.0385165198
 20
47.9827030812
  0
LWPOLYLINE
  5
234
100
AcDbEntity
  8
RACCORDO
100
AcDbPolyline
 62
253
  6
CONTINUOUS
 90
10
 70
0
 10
118.4024828165
 20
50.2790408391
 10
118.423529119
 20
50.2801526622
 10
118.4484783027
 20
50.2792141641
 10
118.4766172988
 20
50.2762521679
 10
118.5071418711
 20
50.2713513298
 10
118.5391796017
 20
50.2646517201
 10
118.5718148253
 20
50.2563448191
 10
118.6041147997
 20
50.2466680452
 10
118.6351563644
 20
50.2358979687
 10
118.6640523253
 20
50.2243424075
  0
LWPOLYLINE
  5
235
100
AcDbEntity
  8
RACCORDO
100
AcDbPolyline
 62
7
  6
CONTINUOUS
 90
8
 70
0
 10
132.3549010443
 20
54.6487971465
 10
132.3352890031
 20
54.6549675022
 10
132.3052813001
 20
54.6584103596
 10
132.2730040736
 20
54.6557938859
 10
132.239656762
 20
54.64722739
 10
132.2056391781
 20
54.632747308
 10
132.170551509
 20
54.6123172036
 10
132.1343937548
 20
54.5859370769
  0
LINE
  5
236
100
AcDbEntity
  8
RACCORDO
100
AcDbLine
 62
7
  6
CONTINUOUS
 10
130.4048643405
 20
55.1990129511
 11
131.3446469763
 21
54.8238445204
  0
LINE
  5
237
100
AcDbEntity
  8
DRAFT
100
AcDbLine
 62
7
  6
CONTINUOUS
 10
124.6516993632
 20
52.5532343051
 11
124.1404023703
 21
52.7585827044
  0
LINE
  5
238
100
AcDbEntity
  8
RACCORDO
100
AcDbLine
 62
253
  6
CONTINUOUS
 10
134.44242445
 20
48.9371213452
 11
129.5275121842
 21
50.9110609152
  0
LINE
  5
239
100
AcDbEntity
  8
RACCORDO
100
AcDbLine
 62
253
  6
CONTINUOUS
 10
134.6709819719
 20
49.4234480023
 11
129.7560697062
 21
51.3973875724
  0
LINE
  5
23A
100
AcDbEntity
  8
RACCORDO
100
AcDbLine
 62
253
  6
CONTINUOUS
 10
133.8997049362
 20
49.7916548419
 11
132.7528920742
 21
50.2522407415
  0
LINE
  5
23B
100
AcDbEntity
  8
RACCORDO
100
AcDbLine
 62
253
  6
CONTINUOUS
 10
131.7699096211
 20
50.6470286555
 11
130.6230967591
 21
51.1076145552
  0
LINE
  5
23C
100
AcDbEntity
  8
RACCORDO
100
AcDbLine
 62
7
  6
CONTINUOUS
 10
133.9632263849
 20
49.8436885664
 11
132.8646985607
 21
50.2848821063
  0
LINE
  5
23D
100
AcDbEntity
  8
RACCORDO
100
AcDbLine
 62
7
  6
CONTINUOUS
 10
131.8334310698
 20
50.6990623801
 11
130.7349032456
 21
51.14025592
  0
LINE
  5
23E
100
AcDbEntity
  8
RACCORDO
100
AcDbLine
 62
253
  6
CONTINUOUS
 10
134.8403614108
 20
49.562195516
 11
134.0212093665
 21
49.8911854443
  0
LINE
  5
23F
100
AcDbEntity
  8
RACCORDO
100
AcDbLine
 62
253
  6
CONTINUOUS
 10
132.8743965045
 20
50.351771344
 11
131.8914140514
 21
50.746559258
  0
LINE
  5
240
100
AcDbEntity
  8
RACCORDO
100
AcDbLine
 62
253
  6
CONTINUOUS
 10
130.7446011894
 20
51.2071451577
 11
129.9254491451
 21
51.536135086
  0
LINE
  5
241
100
AcDbEntity
  8
RACCORDO
100
AcDbLine
 62
253
  6
CONTINUOUS
 10
134.9384487583
 20
49.6178435107
 11
134.119296714
 21
49.946833439
  0
LINE
  5
242
100
AcDbEntity
  8
RACCORDO
100
AcDbLine
 62
253
  6
CONTINUOUS
 10
132.972483852
 20
50.4074193387
 11
131.9895013989
 21
50.8022072527
  0
LINE
  5
243
100
AcDbEntity
  8
RACCORDO
100
AcDbLine
 62
253
  6
CONTINUOUS
 10
130.8426885369
 20
51.2627931524
 11
130.0235364926
 21
51.5917830807
  0
LINE
  5
244
100
AcDbEntity
  8
DRAFT
100
AcDbLine
 62
7
  6
CONTINUOUS
 10
123.5246922675
 20
54.3772724019
 11
124.1404023703
 21
54.1299893438
  0
LINE
  5
245
100
AcDbEntity
  8
DRAFT
100
AcDbLine
 62
7
  6
CONTINUOUS
 10
129.3867188901
 20
53.2735283418
 11
128.2480575128
 21
53.7308404214
  0
LINE
  5
246
100
AcDbEntity
  8
RACCORDO
100
AcDbLine
 62
253
  6
CONTINUOUS
 10
135.5714885706
 20
51.1854279698
 11
134.5885061175
 21
51.5802158838
  0
LINE
  5
247
100
AcDbEntity
  8
RACCORDO
100
AcDbLine
 62
253
  6
CONTINUOUS
 10
133.4416932555
 20
52.0408017835
 11
132.6225412112
 21
52.3697917118
  0
LINE
  5
248
100
AcDbEntity
  8
RACCORDO
100
AcDbLine
 62
253
  6
CONTINUOUS
 10
135.9638379606
 20
51.4080199487
 11
134.9808555074
 21
51.8028078627
  0
LINE
  5
249
100
AcDbEntity
  8
RACCORDO
100
AcDbLine
 62
253
  6
CONTINUOUS
 10
133.8340426454
 20
52.2633937624
 11
133.0148906011
 21
52.5923836907
  0
LINE
  5
24A
100
AcDbEntity
  8
0
100
AcDbLine
 62
7
  6
CONTINUOUS
 10
127.6616740483
 20
54.9813471281
 11
126.9877277349
 21
55.2520191614
  0
LINE
  5
24B
100
AcDbEntity
  8
DRAFT
100
AcDbLine
 62
7
  6
CONTINUOUS
 10
129.347380421
 20
54.479166917
 11
127.8063697631
 21
55.0980715385
  0
LINE
  5
24C
100
AcDbEntity
  8
RACCORDO
100
AcDbLine
 62
253
  6
CONTINUOUS
 10
132.1887481974
 20
53.4156474518
 11
136.1837160113
 21
51.8111783133
  0
LINE
  5
24D
100
AcDbEntity
  8
RACCORDO
100
AcDbLine
 62
7
  6
CONTINUOUS
 10
132.3750923415
 20
53.4700497265
 11
136.1837160113
 21
51.9404205973
  0
LINE
  5
24E
100
AcDbEntity
  8
RACCORDO
100
AcDbLine
 62
253
  6
CONTINUOUS
 10
131.4110708035
 20
54.8764398811
 11
132.1343937548
 21
54.5859370769
  0
LINE
  5
24F
100
AcDbEntity
  8
RACCORDO
100
AcDbLine
 62
7
  6
CONTINUOUS
 10
131.6344043015
 20
54.9381873371
 11
132.3550035267
 21
54.6487784428
  0
LWPOLYLINE
  5
250
100
AcDbEntity
  8
RACCORDO
100
AcDbPolyline
 62
253
  6
CONTINUOUS
 90
13
 70
0
 10
136.14573319
 20
39.8623162979
 10
136.1573869938
 20
39.849076813
 10
136.169028953
 20
39.8362652372
 10
136.1806407629
 20
39.8238924032
 10
136.1922942083
 20
39.811899291
 10
136.2038821534
 20
39.8003583508
 10
136.2151103211
 20
39.7894697472
 10
136.2258717199
 20
39.7792935364
 10
136.2362223965
 20
39.7697582402
 10
136.2461069821
 20
39.7608598116
 10
136.2554933489
 20
39.7525901965
 10
136.2643722209
 20
39.7449374163
 10
136.2727247872
 20
39.737890179
  0
LWPOLYLINE
  5
251
100
AcDbEntity
  8
RACCORDO
100
AcDbPolyline
 62
7
  6
CONTINUOUS
 90
6
 70
0
 10
134.0717778671
 20
49.932608735
 10
134.0796317297
 20
49.9340370442
 10
134.0875119703
 20
49.9358423433
 10
134.0954185891
 20
49.9380246323
 10
134.103351586
 20
49.9405839113
 10
134.1113109609
 20
49.9435201802
  0
LWPOLYLINE
  5
252
100
AcDbEntity
  8
RACCORDO
100
AcDbPolyline
 62
7
  6
CONTINUOUS
 90
6
 70
0
 10
131.941982552
 20
50.7879825487
 10
131.9498364145
 20
50.7894108578
 10
131.9577166552
 20
50.791216157
 10
131.965623274
 20
50.793398446
 10
131.9735562708
 20
50.795957725
 10
131.9815156458
 20
50.7988939939
  0
LWPOLYLINE
  5
253
100
AcDbEntity
  8
RACCORDO
100
AcDbPolyline
 62
7
  6
CONTINUOUS
 90
6
 70
0
 10
129.9760176457
 20
51.5775583767
 10
129.9838715082
 20
51.5789866859
 10
129.9917517489
 20
51.580791985
 10
129.9996583677
 20
51.582974274
 10
130.0075913645
 20
51.585533553
 10
130.0155507395
 20
51.5884698219
  0
LWPOLYLINE
  5
254
100
AcDbEntity
  8
RACCORDO
100
AcDbPolyline
 62
253
  6
CONTINUOUS
 90
10
 70
0
 10
117.645248553
 20
47.2925280171
 10
117.6303595703
 20
47.2902388026
 10
117.6152022736
 20
47.288050023
 10
117.5997934096
 20
47.2859818114
 10
117.5842346468
 20
47.2840771109
 10
117.5684551971
 20
47.282337175
 10
117.5522283661
 20
47.280729512
 10
117.5355080311
 20
47.2792729702
 10
117.5184118252
 20
47.2780300355
 10
117.5009752045
 20
47.2770480197
  0
LWPOLYLINE
  5
255
100
AcDbEntity
  8
RACCORDO
100
AcDbPolyline
 62
7
  6
CONTINUOUS
 90
3
 70
0
 10
159.6593467443
 20
170.5934811918
 10
159.6892334237
 20
170.6191700277
 10
159.7373913695
 20
170.6523009503
  0
LINE
  5
256
100
AcDbEntity
  8
RACCORDO
100
AcDbLine
 62
7
  6
CONTINUOUS
 10
161.7088584125
 20
170.8006292078
 11
166.6022793865
 21
174.8090850023
  0
LINE
  5
257
100
AcDbEntity
  8
DRAFT
100
AcDbLine
 62
7
  6
CONTINUOUS
 10
166.0973212525
 20
174.2896801322
 11
161.2219215435
 21
170.2959864939
  0
LWPOLYLINE
  5
258
100
AcDbEntity
  8
RACCORDO
100
AcDbPolyline
 62
7
  6
CONTINUOUS
 90
3
 70
0
 10
159.7014534751
 20
170.6285972852
 10
159.6888645455
 20
170.6190122472
 10
159.6848549348
 20
170.6154065356
  0
LINE
  5
259
100
AcDbEntity
  8
RACCORDO
100
AcDbLine
 62
7
  6
CONTINUOUS
 10
166.2953329659
 20
175.4694936499
 11
159.7013925801
 21
170.6285895046
  0
LINE
  5
25A
100
AcDbEntity
  8
RACCORDO
100
AcDbLine
 62
253
  6
CONTINUOUS
 10
167.0988242266
 20
175.637972805
 11
160.3172546724
 21
170.6593217639
  0
LINE
  5
25B
100
AcDbEntity
  8
RACCORDO
100
AcDbLine
 62
253
  6
CONTINUOUS
 10
123.4852720887
 20
69.6744849355
 11
126.802837868
 21
68.3420757257
  0
LINE
  5
25C
100
AcDbEntity
  8
RACCORDO
100
AcDbLine
 62
7
  6
CONTINUOUS
 10
123.6576444002
 20
69.723585713
 11
126.9752876838
 21
68.3911453392
  0
LWPOLYLINE
  5
25D
100
AcDbEntity
  8
RACCORDO
100
AcDbPolyline
 62
253
  6
CONTINUOUS
 90
8
 70
0
 10
126.802837868
 20
68.3420757257
 10
126.8397032072
 20
68.325849263
 10
126.873559653
 20
68.3080926967
 10
126.9044072054
 20
68.2888060266
 10
126.932477898
 20
68.2678002665
 10
126.9575396971
 20
68.2452644027
 10
126.9788965023
 20
68.2217653941
 10
126.9964254815
 20
68.1972831258
  0
LWPOLYLINE
  5
25E
100
AcDbEntity
  8
RACCORDO
100
AcDbPolyline
 62
253
  6
CONTINUOUS
 90
19
 70
0
 10
126.9295119761
 20
67.9230804839
 10
126.9798223458
 20
67.8991829079
 10
127.02927231
 20
67.8690579404
 10
127.0770156843
 20
67.8332210777
 10
127.1222354873
 20
67.7922855579
 10
127.1641579206
 20
67.7469518668
 10
127.2020656102
 20
67.6979957517
 10
127.2353098822
 20
67.6462549464
 10
127.2633218628
 20
67.5926148362
 10
127.2856222129
 20
67.5379933071
 10
127.3018293304
 20
67.4833250391
 10
127.3116658802
 20
67.4295455119
 10
127.3149635399
 20
67.3775749974
 10
127.3116658802
 20
67.3283028114
 10
127.3018293304
 20
67.2825720965
 10
127.285622213
 20
67.2411653934
 10
127.2633218629
 20
67.2047912511
 10
127.2353098823
 20
67.1740721013
 10
127.2290346643
 20
67.1686316312
  0
LWPOLYLINE
  5
25F
100
AcDbEntity
  8
RACCORDO
100
AcDbPolyline
 62
253
  6
CONTINUOUS
 90
9
 70
0
 10
112.4215171539
 20
46.2553996547
 10
112.4231294906
 20
46.225472891
 10
112.4366382453
 20
46.1621396403
 10
112.4636655816
 20
46.100246044
 10
112.5037985934
 20
46.040737672
 10
112.5564241546
 20
45.9845236547
 10
112.620738286
 20
45.9324627934
 10
112.695758438
 20
45.8853504402
 10
112.7803385014
 20
45.843906347
  0
LWPOLYLINE
  5
260
100
AcDbEntity
  8
RACCORDO
100
AcDbPolyline
 62
253
  6
CONTINUOUS
 90
9
 70
0
 10
112.4215155502
 20
94.9260742578
 10
112.4231299543
 20
94.8951688481
 10
112.4366396996
 20
94.8318355578
 10
112.4636679128
 20
94.7699422253
 10
112.5038015136
 20
94.7104343785
 10
112.5564272391
 20
94.6542210739
 10
112.6207409974
 20
94.6021610362
 10
112.6957601406
 20
94.5550495369
 10
112.7803385014
 20
94.5136062285
  0
LWPOLYLINE
  5
261
100
AcDbEntity
  8
RACCORDO
100
AcDbPolyline
 62
7
  6
CONTINUOUS
 90
14
 70
0
 10
112.4215428553
 20
46.2553996226
 10
112.4218213396
 20
46.2330016925
 10
112.4294485199
 20
46.1314503073
 10
112.4477586115
 20
46.0296177636
 10
112.4766502145
 20
45.9293874406
 10
112.5150215806
 20
45.8337916078
 10
112.5634151916
 20
45.7412217564
 10
112.6219445326
 20
45.6523269656
 10
112.687649901
 20
45.5715090487
 10
112.7604726102
 20
45.4980856983
 10
112.841698845
 20
45.4311460045
 10
112.9282363545
 20
45.3734653795
 10
113.0184754867
 20
45.3257405138
 10
113.0457384005
 20
45.313525004
  0
LINE
  5
262
100
AcDbEntity
  8
RACCORDO
100
AcDbLine
 62
7
  6
CONTINUOUS
 10
112.4215171539
 20
46.2553996547
 11
112.4215155502
 21
94.926074514
  0
LINE
  5
263
100
AcDbEntity
  8
RACCORDO
100
AcDbLine
 62
7
  6
CONTINUOUS
 10
112.4215162337
 20
94.9267107423
 11
112.4215155502
 21
94.9260742578
  0
LWPOLYLINE
  5
264
100
AcDbEntity
  8
RACCORDO
100
AcDbPolyline
 62
7
  6
CONTINUOUS
 90
4
 70
0
 10
156.0978710709
 20
167.2481760271
 10
155.4914332998
 20
166.6785234694
 10
154.884981028
 20
166.1088517543
 10
154.3430804286
 20
165.5998120515
  0
LWPOLYLINE
  5
265
100
AcDbEntity
  8
RACCORDO
100
AcDbPolyline
 62
253
  6
CONTINUOUS
 90
4
 70
0
 10
156.7913975284
 20
167.346794071
 10
156.2035489691
 20
166.7946033034
 10
155.6156647561
 20
166.2423738427
 10
155.0277448894
 20
165.690105689
  0
LWPOLYLINE
  5
266
100
AcDbEntity
  8
RACCORDO
100
AcDbPolyline
 62
7
  6
CONTINUOUS
 90
3
 70
0
 10
159.6593336698
 20
170.5934962064
 10
159.1298424156
 20
170.0961514543
 10
156.0978710709
 20
167.2481760271
  0
LWPOLYLINE
  5
267
100
AcDbEntity
  8
RACCORDO
100
AcDbPolyline
 62
253
  6
CONTINUOUS
 90
3
 70
0
 10
160.3177401404
 20
170.6591261296
 10
159.7301055103
 20
170.1071675174
 10
156.7913975284
 20
167.346794071
  0
LWPOLYLINE
  5
268
100
AcDbEntity
  8
RACCORDO
100
AcDbPolyline
 62
253
  6
CONTINUOUS
 90
13
 70
0
 10
155.0277448888
 20
165.6901056892
 10
154.9594998283
 20
165.6283837253
 10
154.8922243314
 20
165.5559008847
 10
154.8268741871
 20
165.4736869376
 10
154.7643778308
 20
165.3829099049
 10
154.7056231538
 20
165.284859464
 10
154.651444889
 20
165.1809286262
 10
154.6026127518
 20
165.0725939463
 10
154.5598205048
 20
164.9613945446
 10
154.5236761012
 20
164.8489102409
 10
154.4946930478
 20
164.7367391099
 10
154.4732831094
 20
164.6264747768
 10
154.4597504589
 20
164.5196837767
  0
LINE
  5
269
100
AcDbEntity
  8
DRAFT
100
AcDbLine
 62
7
  6
CONTINUOUS
 10
168.8933594219
 20
174.9172470137
 11
168.0510160324
 21
174.2272397043
  0
LINE
  5
26A
100
AcDbEntity
  8
0
100
AcDbLine
 62
7
  6
CONTINUOUS
 10
168.9600540579
 20
174.8904609443
 11
167.526112967
 21
173.7158451683
  0
LWPOLYLINE
  5
26B
100
AcDbEntity
  8
RACCORDO
100
AcDbPolyline
 62
7
  6
CONTINUOUS
 90
23
 70
0
 10
142.1917301448
 20
144.36044091
 10
141.4496714839
 20
144.0707229853
 10
140.6142392745
 20
143.7108945495
 10
139.7998170789
 20
143.3229469079
 10
139.0080983961
 20
142.9072286131
 10
138.2418547541
 20
142.4646985437
 10
137.5047972455
 20
141.9971009971
 10
136.7988401314
 20
141.5054257162
 10
136.1259192877
 20
140.9906830017
 10
135.4891868185
 20
140.4550519885
 10
134.8901361373
 20
139.8997651864
 10
134.3303036067
 20
139.3260847457
 10
133.8121695086
 20
138.7365534143
 10
133.3368379201
 20
138.1327047727
 10
132.9052611166
 20
137.5158803576
 10
132.5189645561
 20
136.8885776188
 10
132.1787161264
 20
136.2527507604
 10
131.8848430308
 20
135.6095966791
 10
131.6377621639
 20
134.9606312097
 10
131.4378017776
 20
134.3075379646
 10
131.2852571008
 20
133.651982325
 10
131.1802695915
 20
132.9955799353
 10
131.129074151
 20
132.4486848877
  0
LWPOLYLINE
  5
26C
100
AcDbEntity
  8
RACCORDO
100
AcDbPolyline
 62
253
  6
CONTINUOUS
 90
13
 70
0
 10
146.6368959422
 20
145.7239080277
 10
147.1867818168
 20
145.936952205
 10
147.7263465013
 20
146.1637004933
 10
148.2555899957
 20
146.4041528928
 10
148.7758560425
 20
146.6588611412
 10
149.2858008993
 20
146.9272735007
 10
149.7813933384
 20
147.207734758
 10
150.262510964
 20
147.5005452835
 10
150.7292761719
 20
147.8054047068
 10
151.178024923
 20
148.1197567041
 10
151.6075358707
 20
148.4427491674
 10
152.0190303615
 20
148.7752342048
 10
152.4125083954
 20
149.1172118161
  0
LINE
  5
26D
100
AcDbEntity
  8
RACCORDO
100
AcDbLine
 62
7
  6
CONTINUOUS
 10
142.1917218361
 20
144.360439295
 11
146.3678032239
 21
145.9152707206
  0
LINE
  5
26E
100
AcDbEntity
  8
RACCORDO
100
AcDbLine
 62
253
  6
CONTINUOUS
 10
142.4608145543
 20
144.1690766023
 11
146.6368959422
 21
145.7239080277
  0
LWPOLYLINE
  5
26F
100
AcDbEntity
  8
RACCORDO
100
AcDbPolyline
 62
253
  6
CONTINUOUS
 90
9
 70
0
 10
146.3678058598
 20
145.9152717019
 10
146.3718698291
 20
145.9166498816
 10
146.4011233624
 20
145.9197712285
 10
146.4339128188
 20
145.9123424778
 10
146.4698708361
 20
145.8944468447
 10
146.5085945545
 20
145.8662848114
 10
146.5496501256
 20
145.8281718828
 10
146.5925775715
 20
145.7805350546
 10
146.6368959422
 20
145.7239080277
  0
LWPOLYLINE
  5
270
100
AcDbEntity
  8
RACCORDO
100
AcDbPolyline
 62
253
  6
CONTINUOUS
 90
9
 70
0
 10
142.1917296615
 20
144.3604422081
 10
142.1957887459
 20
144.3618185494
 10
142.225042319
 20
144.364939779
 10
142.2578317946
 20
144.3575109182
 10
142.293789806
 20
144.3396151985
 10
142.3325134871
 20
144.3114531197
 10
142.3735689857
 20
144.273340204
 10
142.4164963244
 20
144.2257034608
 10
142.4608145543
 20
144.1690766023
  0
LWPOLYLINE
  5
271
100
AcDbEntity
  8
RACCORDO
100
AcDbPolyline
 62
7
  6
CONTINUOUS
 90
5
 70
0
 10
123.3659547236
 20
69.7998257905
 10
123.2621699057
 20
69.8101795942
 10
123.158033611
 20
69.8126910113
 10
123.0540344079
 20
69.8074548367
 10
122.95084009
 20
69.7943481932
  0
LINE
  5
272
100
AcDbEntity
  8
RACCORDO
100
AcDbLine
 62
7
  6
CONTINUOUS
 10
123.4674121432
 20
69.7817548707
 11
123.3659547236
 21
69.7998257905
  0
LINE
  5
273
100
AcDbEntity
  8
RACCORDO
100
AcDbLine
 62
7
  6
CONTINUOUS
 10
123.565623504
 20
69.756028913
 11
123.4674121432
 21
69.7817548707
  0
LWPOLYLINE
  5
274
100
AcDbEntity
  8
RACCORDO
100
AcDbPolyline
 62
253
  6
CONTINUOUS
 90
8
 70
0
 10
122.749272683
 20
69.6019131366
 10
122.6983452842
 20
69.6186780294
 10
122.6482886231
 20
69.6285195624
 10
122.5999592422
 20
69.6312693326
 10
122.5541841275
 20
69.6268802875
 10
122.5117465578
 20
69.6154275299
 10
122.4733727019
 20
69.5971070331
 10
122.447910786
 20
69.579250953
  0
LINE
  5
275
100
AcDbEntity
  8
RACCORDO
100
AcDbLine
 62
7
  6
CONTINUOUS
 10
123.6579718765
 20
69.7234293106
 11
123.565623504
 21
69.756028913
  0
LWPOLYLINE
  5
276
100
AcDbEntity
  8
RACCORDO
100
AcDbPolyline
 62
253
  6
CONTINUOUS
 90
12
 70
0
 10
126.9964254815
 20
68.1972831258
 10
127.0102494669
 20
68.1718377128
 10
127.0200408541
 20
68.1460564586
 10
127.0256754951
 20
68.1199329378
 10
127.0272775381
 20
68.0934735759
 10
127.0248918235
 20
68.0673249529
 10
127.0184374586
 20
68.0415237589
 10
127.0079953361
 20
68.0160333038
 10
126.9938529748
 20
67.9913900977
 10
126.9761062141
 20
67.9677729774
 10
126.9546592146
 20
67.9450031062
 10
126.9295119761
 20
67.9230804839
  0
LWPOLYLINE
  5
277
100
AcDbEntity
  8
RACCORDO
100
AcDbPolyline
 62
253
  6
CONTINUOUS
 90
10
 70
0
 10
118.7710181714
 20
50.8798875598
 10
118.7745205078
 20
50.8512725899
 10
118.7826896467
 20
50.8213863218
 10
118.7952777095
 20
50.7911339339
 10
118.8119029741
 20
50.7614316536
 10
118.8320616719
 20
50.7331786341
 10
118.855143408
 20
50.7072298101
 10
118.8804492843
 20
50.6843705497
 10
118.9072129385
 20
50.6652928063
 10
118.9346240564
 20
50.650573863
  0
LINE
  5
278
100
AcDbEntity
  8
RACCORDO
100
AcDbLine
 62
253
  6
CONTINUOUS
 10
112.7803385014
 20
45.843906347
 11
112.7803385014
 21
94.5136062285
  0
LINE
  5
279
100
AcDbEntity
  8
RACCORDO
100
AcDbLine
 62
253
  6
CONTINUOUS
 10
117.5009491479
 20
89.054244923
 11
117.5009491479
 21
47.2770529381
  0
LINE
  5
27A
100
AcDbEntity
  8
RACCORDO
100
AcDbLine
 62
253
  6
CONTINUOUS
 10
117.776947011
 20
88.3375551883
 11
117.776947011
 21
48.0374015128
  0
LWPOLYLINE
  5
27B
100
AcDbEntity
  8
RACCORDO
100
AcDbPolyline
 62
253
  6
CONTINUOUS
 90
19
 70
0
 10
112.7803385014
 20
94.5136062285
 10
112.7806484094
 20
94.5206336948
 10
112.7815468286
 20
94.5272643482
 10
112.7830337621
 20
94.5334981907
 10
112.7851286687
 20
94.539382446
 10
112.7878121014
 20
94.5448698997
 10
112.7910257058
 20
94.5498188983
 10
112.7947822792
 20
94.5542123617
 10
112.7990690451
 20
94.558067386
 10
112.8037892888
 20
94.5612935818
 10
112.8089544691
 20
94.5638754987
 10
112.8145531512
 20
94.5658286055
 10
112.8204542747
 20
94.5671088875
 10
112.826669027
 20
94.5676976949
 10
112.8331862413
 20
94.5676136933
 10
112.8398413165
 20
94.5668688333
 10
112.8465793865
 20
94.565467099
 10
112.8534553264
 20
94.563404513
 10
112.8604691415
 20
94.5606810795
  0
LWPOLYLINE
  5
27C
100
AcDbEntity
  8
RACCORDO
100
AcDbPolyline
 62
7
  6
CONTINUOUS
 90
13
 70
0
 10
151.8234852139
 20
149.1154547713
 10
151.5223271141
 20
148.851906256
 10
151.1257239487
 20
148.5276186704
 10
150.7102719686
 20
148.2122927023
 10
150.276640713
 20
147.9065098034
 10
149.8255488571
 20
147.6108711759
 10
149.3577719103
 20
147.3259751694
 10
148.8741368953
 20
147.0523711979
 10
148.3754032908
 20
146.7905454067
 10
147.8622846748
 20
146.540954806
 10
147.3356548284
 20
146.3040741355
 10
146.7965655632
 20
146.0803922752
 10
146.3678046852
 20
145.9152748567
  0
LWPOLYLINE
  5
27D
100
AcDbEntity
  8
RACCORDO
100
AcDbPolyline
 62
253
  6
CONTINUOUS
 90
7
 70
0
 10
125.5368478589
 20
75.7458242618
 10
125.5264400388
 20
75.7494031074
 10
125.4961027908
 20
75.7538449129
 10
125.4633597879
 20
75.7504442606
 10
125.4287650733
 20
75.739258693
 10
125.3929040226
 20
75.7204774807
 10
125.3563834393
 20
75.69441842
  0
LINE
  5
27E
100
AcDbEntity
  8
RACCORDO
100
AcDbLine
 62
253
  6
CONTINUOUS
 10
125.3563834393
 20
75.69441842
 11
121.2834823528
 21
77.3301873178
  0
LINE
  5
27F
100
AcDbEntity
  8
RACCORDO
100
AcDbLine
 62
7
  6
CONTINUOUS
 10
125.5368478591
 20
75.7458242618
 11
121.4505977287
 21
77.3869544365
  0
LWPOLYLINE
  5
280
100
AcDbEntity
  8
RACCORDO
100
AcDbPolyline
 62
253
  6
CONTINUOUS
 90
8
 70
0
 10
125.5419482686
 20
75.5556278043
 10
125.5251453847
 20
75.5790952749
 10
125.5046735964
 20
75.6016202571
 10
125.4806505375
 20
75.6232220273
 10
125.4537432847
 20
75.6433570793
 10
125.4241741968
 20
75.6618442444
 10
125.391720915
 20
75.6788646913
 10
125.3563834393
 20
75.69441842
  0
LWPOLYLINE
  5
281
100
AcDbEntity
  8
RACCORDO
100
AcDbPolyline
 62
253
  6
CONTINUOUS
 90
13
 70
0
 10
117.5803130295
 20
88.9020791161
 10
117.5711558712
 20
88.9167454873
 10
117.5624063572
 20
88.9313110382
 10
117.5540712636
 20
88.9457492811
 10
117.5461152738
 20
88.9601414432
 10
117.5385787308
 20
88.9743581814
 10
117.531571468
 20
88.9880506881
 10
117.5250848406
 20
89.0011811221
 10
117.5191032725
 20
89.0137308942
 10
117.5137111521
 20
89.0253692997
 10
117.5089193611
 20
89.0359661976
 10
117.5046724507
 20
89.0455985503
 10
117.5009491479
 20
89.0542449203
  0
LWPOLYLINE
  5
282
100
AcDbEntity
  8
RACCORDO
100
AcDbPolyline
 62
253
  6
CONTINUOUS
 90
28
 70
0
 10
118.0385165198
 20
88.4213322018
 10
118.0262901028
 20
88.4464145465
 10
118.0137840689
 20
88.4710283702
 10
118.0009984181
 20
88.495173673
 10
117.9879044863
 20
88.5188481426
 10
117.9745309377
 20
88.5420540913
 10
117.9609637645
 20
88.5647984555
 10
117.9472157197
 20
88.5870761938
 10
117.9332740504
 20
88.6088923477
 10
117.9191864907
 20
88.6302689779
 10
117.9049586102
 20
88.6512086413
 10
117.8905848394
 20
88.671708781
 10
117.8760962038
 20
88.6917837877
 10
117.8614935632
 20
88.711439504
 10
117.8467760579
 20
88.7306700873
 10
117.8319721343
 20
88.7494724006
 10
117.817094367
 20
88.7678377433
 10
117.8021301814
 20
88.7857748159
 10
117.7870703012
 20
88.8033065833
 10
117.771927826
 20
88.8204289982
 10
117.756689656
 20
88.8371461078
 10
117.7413072163
 20
88.8534930189
 10
117.7257879246
 20
88.8694776517
 10
117.710124363
 20
88.885092086
 10
117.694245703
 20
88.9003476678
 10
117.678128335
 20
88.915248179
 10
117.6617958685
 20
88.9297898378
 10
117.6452483036
 20
88.943972644
  0
LINE
  5
283
100
AcDbEntity
  8
RACCORDO
100
AcDbLine
 62
253
  6
CONTINUOUS
 10
118.4024828165
 20
87.0143830293
 11
117.776947011
 21
88.3375551883
  0
LINE
  5
284
100
AcDbEntity
  8
RACCORDO
100
AcDbLine
 62
253
  6
CONTINUOUS
 10
118.6640523253
 20
87.0981600428
 11
118.0385165198
 21
88.4213322018
  0
LWPOLYLINE
  5
285
100
AcDbEntity
  8
RACCORDO
100
AcDbPolyline
 62
253
  6
CONTINUOUS
 90
28
 70
0
 10
117.776947011
 20
88.3375551883
 10
117.7708887251
 20
88.3668628316
 10
117.7646238391
 20
88.3954595142
 10
117.758187079
 20
88.4233430511
 10
117.7516249568
 20
88.4504938161
 10
117.7449566667
 20
88.4769229028
 10
117.7381690261
 20
88.5026756475
 10
117.7312840765
 20
88.5277482071
 10
117.7243269103
 20
88.5521375258
 10
117.7172796807
 20
88.5758948655
 10
117.7101578354
 20
88.5990251081
 10
117.7029815212
 20
88.6215184819
 10
117.6957339132
 20
88.6434085256
 10
117.6884266262
 20
88.6647036395
 10
117.6810765516
 20
88.6853925539
 10
117.6736712213
 20
88.7054827322
 10
117.6662273959
 20
88.7249681151
 10
117.6587530017
 20
88.7438530971
 10
117.6512199389
 20
88.7621647185
 10
117.6436449893
 20
88.779906595
 10
117.6360335297
 20
88.797077032
 10
117.6283387809
 20
88.8137011487
 10
117.6205768938
 20
88.8298014648
 10
117.6127542602
 20
88.8453636579
 10
117.6048097184
 20
88.8603660085
 10
117.5967323621
 20
88.8748092143
 10
117.5885614409
 20
88.888710842
 10
117.5803130295
 20
88.9020791161
  0
LINE
  5
286
100
AcDbEntity
  8
RACCORDO
100
AcDbLine
 62
7
  6
CONTINUOUS
 10
118.9981052121
 20
51.0624152585
 11
118.9981052121
 21
86.915574645
  0
LINE
  5
287
100
AcDbEntity
  8
RACCORDO
100
AcDbLine
 62
7
  6
CONTINUOUS
 10
121.5416589563
 20
79.3007108362
 11
121.5416589563
 21
77.3503821946
  0
LINE
  5
288
100
AcDbEntity
  8
RACCORDO
100
AcDbLine
 62
7
  6
CONTINUOUS
 10
121.5416589563
 20
71.0037290754
 11
121.5416589563
 21
68.8258865276
  0
LINE
  5
289
100
AcDbEntity
  8
RACCORDO
100
AcDbLine
 62
7
  6
CONTINUOUS
 10
121.5416589563
 20
62.4845478148
 11
121.5416589563
 21
52.8792484509
  0
LINE
  5
28A
100
AcDbEntity
  8
DRAFT
100
AcDbLine
 62
7
  6
CONTINUOUS
 10
122.8114987633
 20
50.7425447778
 11
122.8114987633
 21
49.4111704753
  0
LINE
  5
28B
100
AcDbEntity
  8
RACCORDO
100
AcDbLine
 62
253
  6
CONTINUOUS
 10
118.7745201024
 20
86.9827648976
 11
118.7710181714
 21
86.9546526133
  0
LINE
  5
28C
100
AcDbEntity
  8
RACCORDO
100
AcDbLine
 62
7
  6
CONTINUOUS
 10
151.823499122
 20
149.1154397762
 11
151.8232917685
 21
149.1152525044
  0
LINE
  5
28D
100
AcDbEntity
  8
0
100
AcDbLine
 62
7
  6
CONTINUOUS
 10
182.8037236064
 20
169.3305311554
 11
181.3697825155
 21
168.1559153794
  0
LINE
  5
28E
100
AcDbEntity
  8
DRAFT
100
AcDbLine
 62
7
  6
CONTINUOUS
 10
182.8704182424
 20
169.303745086
 11
182.028074853
 21
168.6137377765
  0
LINE
  5
28F
100
AcDbEntity
  8
DRAFT
100
AcDbLine
 62
7
  6
CONTINUOUS
 10
177.9231745211
 20
163.5883867771
 11
182.7985742301
 21
167.5820804155
  0
LINE
  5
290
100
AcDbEntity
  8
RACCORDO
100
AcDbLine
 62
7
  6
CONTINUOUS
 10
183.4768114989
 20
168.0318924785
 11
178.5833905248
 21
164.023436684
  0
LINE
  5
291
100
AcDbEntity
  8
RACCORDO
100
AcDbLine
 62
253
  6
CONTINUOUS
 10
172.495874354
 20
158.6745110862
 11
172.5897314205
 21
158.7419682921
  0
LINE
  5
292
100
AcDbEntity
  8
RACCORDO
100
AcDbLine
 62
253
  6
CONTINUOUS
 10
172.5897314205
 20
158.7419682921
 11
174.2642999749
 21
159.9455275577
  0
LINE
  5
293
100
AcDbEntity
  8
RACCORDO
100
AcDbLine
 62
253
  6
CONTINUOUS
 10
174.2642999749
 20
159.9455275577
 11
178.8273559242
 21
163.2252471414
  0
LWPOLYLINE
  5
294
100
AcDbEntity
  8
RACCORDO
100
AcDbPolyline
 62
253
  6
CONTINUOUS
 90
10
 70
0
 10
173.2773571336
 20
157.5137918329
 10
173.9854338663
 20
158.0208737764
 10
174.6934576567
 20
158.5279264248
 10
175.4014285053
 20
159.034949778
 10
176.1093472892
 20
159.5419444357
 10
176.8172131318
 20
160.0489097978
 10
177.5250234039
 20
160.555844064
 10
178.2327772298
 20
161.0627466337
 10
178.9404754871
 20
161.5696181066
 10
179.6481181771
 20
162.076458482
  0
LWPOLYLINE
  5
295
100
AcDbEntity
  8
RACCORDO
100
AcDbPolyline
 62
7
  6
CONTINUOUS
 90
7
 70
0
 10
122.95084009
 20
69.7943481932
 10
122.850572536
 20
69.7735474864
 10
122.7532782317
 20
69.744902366
 10
122.6598360466
 20
69.7082352372
 10
122.5729590728
 20
69.6644268669
 10
122.4936016105
 20
69.6140125951
 10
122.447910786
 20
69.579250953
  0
LINE
  5
296
100
AcDbEntity
  8
RACCORDO
100
AcDbLine
 62
7
  6
CONTINUOUS
 10
118.7443167447
 20
87.0174851884
 11
118.7450225565
 21
87.0172241229
  0
LWPOLYLINE
  5
297
100
AcDbEntity
  8
RACCORDO
100
AcDbPolyline
 62
253
  6
CONTINUOUS
 90
16
 70
0
 10
117.6452483036
 20
88.943972644
 10
118.6249590672
 20
88.5781144003
 10
119.6370573322
 20
88.1962569527
 10
120.6815430985
 20
87.7984003013
 10
121.7570293699
 20
87.3854254592
 10
122.8649031426
 20
86.9564514132
 10
124.0093254055
 20
86.508835124
 10
125.1900954708
 20
86.042745435
 10
126.4074140261
 20
85.5580135028
 10
127.666044123
 20
85.051489758
 10
128.9656904855
 20
84.5234080272
 10
130.3066483895
 20
83.9735344838
 10
131.6945667143
 20
83.398018079
 10
133.1313284198
 20
82.7955751298
 10
134.6150505462
 20
82.1674893192
 10
136.1457330935
 20
81.5137606472
  0
LWPOLYLINE
  5
298
100
AcDbEntity
  8
RACCORDO
100
AcDbPolyline
 62
253
  6
CONTINUOUS
 90
10
 70
0
 10
117.5009491479
 20
89.054244923
 10
119.5573144804
 20
88.2824854507
 10
121.6210792388
 20
87.4942255315
 10
123.692189661
 20
86.6894856606
 10
125.7704949615
 20
85.8683255284
 10
127.8560372142
 20
85.0307253954
 10
129.9490547719
 20
84.1765888915
 10
132.0495941199
 20
83.3058998937
 10
134.1575064586
 20
82.4187197251
 10
136.272739979
 20
81.5150704888
  0
LINE
  5
299
100
AcDbEntity
  8
RACCORDO
100
AcDbLine
 62
7
  6
CONTINUOUS
 10
136.1837160113
 20
80.0134459076
 11
118.7455120367
 21
87.0170217589
  0
LINE
  5
29A
100
AcDbEntity
  8
RACCORDO
100
AcDbLine
 62
253
  6
CONTINUOUS
 10
136.1837160113
 20
80.061868135
 11
118.6640523253
 21
87.0981600428
  0
LINE
  5
29B
100
AcDbEntity
  8
RACCORDO
100
AcDbLine
 62
7
  6
CONTINUOUS
 10
118.7453634818
 20
87.0170814243
 11
118.7451089871
 21
87.0171838817
  0
LWPOLYLINE
  5
29C
100
AcDbEntity
  8
RACCORDO
100
AcDbPolyline
 62
253
  6
CONTINUOUS
 90
6
 70
0
 10
118.7451089871
 20
87.0171838817
 10
118.7299584116
 20
87.0244318219
 10
118.710473726
 20
87.0376139662
 10
118.6929021608
 20
87.0543731804
 10
118.6773854859
 20
87.0746008498
 10
118.6640523253
 20
87.0981600428
  0
LWPOLYLINE
  5
29D
100
AcDbEntity
  8
RACCORDO
100
AcDbPolyline
 62
253
  6
CONTINUOUS
 90
13
 70
0
 10
117.6452485569
 20
88.9439724184
 10
117.6297885179
 20
88.9540940082
 10
117.614893251
 20
88.9642406192
 10
117.6005459064
 20
88.974372622
 10
117.5866305839
 20
88.9845128989
 10
117.5732299345
 20
88.9945689434
 10
117.5606168115
 20
89.0043230419
 10
117.54885224
 20
89.0136774791
 10
117.5378244305
 20
89.0226580771
 10
117.5275408771
 20
89.0312296856
 10
117.517990111
 20
89.0393646529
 10
117.5091413214
 20
89.0470421138
 10
117.5009750862
 20
89.0542420418
  0
LWPOLYLINE
  5
29E
100
AcDbEntity
  8
RACCORDO
100
AcDbPolyline
 62
253
  6
CONTINUOUS
 90
3
 70
0
 10
136.1837160113
 20
81.1272364127
 10
136.1747502135
 20
81.1342756269
 10
136.1484641309
 20
81.147968962
  0
LWPOLYLINE
  5
29F
100
AcDbEntity
  8
RACCORDO
100
AcDbPolyline
 62
253
  6
CONTINUOUS
 90
13
 70
0
 10
136.2127409215
 20
39.9059070547
 10
136.2177959865
 20
39.8878804695
 10
136.2230286994
 20
39.8704341447
 10
136.228393348
 20
39.8535626732
 10
136.2338745435
 20
39.8371432929
 10
136.2394071277
 20
39.8212850186
 10
136.244863711
 20
39.8063222758
 10
136.2501981272
 20
39.7922480075
 10
136.255372377
 20
39.7790369159
 10
136.260258814
 20
39.7669842688
 10
136.2647881766
 20
39.7561723844
 10
136.2689578467
 20
39.7464767354
 10
136.272739979
 20
39.737878524
  0
LINE
  5
2A0
100
AcDbEntity
  8
DRAFT
100
AcDbLine
 62
7
  6
CONTINUOUS
 10
124.1404023703
 20
54.1299893438
 11
124.1404023703
 21
52.7585827044
  0
LWPOLYLINE
  5
2A1
100
AcDbEntity
  8
RACCORDO
100
AcDbPolyline
 62
253
  6
CONTINUOUS
 90
25
 70
0
 10
117.776947011
 20
48.0374015128
 10
117.7703443482
 20
47.9963284873
 10
117.7634842707
 20
47.9566271866
 10
117.7564087698
 20
47.9182960279
 10
117.7491771703
 20
47.8813757657
 10
117.7418100022
 20
47.8458168099
 10
117.7342813594
 20
47.8114847091
 10
117.726614085
 20
47.778361553
 10
117.7188401939
 20
47.7464604622
 10
117.7109350615
 20
47.7157007814
 10
117.7029142986
 20
47.6860604745
 10
117.6948042357
 20
47.6575599362
 10
117.6865894766
 20
47.6301876669
 10
117.6782905577
 20
47.6039458824
 10
117.6699227793
 20
47.5788323124
 10
117.6614588807
 20
47.5548339353
 10
117.6529232768
 20
47.5319556899
 10
117.6443238295
 20
47.5101962541
 10
117.6356056824
 20
47.4895411914
 10
117.6268097006
 20
47.4699991253
 10
117.6179274845
 20
47.4515725531
 10
117.6088299553
 20
47.4342538456
 10
117.5994882138
 20
47.4180566595
 10
117.5899739904
 20
47.4030033284
 10
117.5803130275
 20
47.3891101598
  0
LWPOLYLINE
  5
2A2
100
AcDbEntity
  8
RACCORDO
100
AcDbPolyline
 62
253
  6
CONTINUOUS
 90
23
 70
0
 10
132.1182489235
 20
133.8045410904
 10
132.2267742954
 20
134.3976734251
 10
132.3786890145
 20
134.9887736508
 10
132.5737198229
 20
135.5781625144
 10
132.8105173414
 20
136.161911574
 10
133.0888916315
 20
136.7395848146
 10
133.4090326316
 20
137.3116182511
 10
133.7701607782
 20
137.8753914863
 10
134.1732774939
 20
138.4319210152
 10
134.6173813561
 20
138.9801903427
 10
135.098688533
 20
139.514529586
 10
135.6200056194
 20
140.0359952848
 10
136.1785260205
 20
140.5435308994
 10
136.7620461202
 20
141.0282969275
 10
137.372231061
 20
141.4892657137
 10
138.0074157004
 20
141.9274649134
 10
138.6504009941
 20
142.3371379909
 10
139.3020062922
 20
142.7169415906
 10
139.9614122446
 20
143.0682190682
 10
140.6089617565
 20
143.389243955
 10
141.2381024629
 20
143.6794407615
 10
141.8553867288
 20
143.9393849773
 10
142.4608145543
 20
144.1690766023
  0
LINE
  5
2A3
100
AcDbEntity
  8
RACCORDO
100
AcDbLine
 62
253
  6
CONTINUOUS
 10
118.7810215579
 20
87.0027603346
 11
118.7745201024
 21
86.9827648976
  0
LINE
  5
2A4
100
AcDbEntity
  8
RACCORDO
100
AcDbLine
 62
253
  6
CONTINUOUS
 10
178.8278424725
 20
163.225052392
 11
184.6649534377
 21
168.5830192947
  0
LINE
  5
2A5
100
AcDbEntity
  8
RACCORDO
100
AcDbLine
 62
253
  6
CONTINUOUS
 10
179.6481181771
 20
162.0764584727
 11
184.982355037
 21
166.9728301053
  0
LWPOLYLINE
  5
2A6
100
AcDbEntity
  8
RACCORDO
100
AcDbPolyline
 62
7
  6
CONTINUOUS
 90
8
 70
0
 10
178.5833905248
 20
164.023436684
 10
178.5367596129
 20
163.9816866333
 10
178.4969788888
 20
163.9380410069
 10
178.4640483524
 20
163.8924998048
 10
178.4376954484
 20
163.8444857858
 10
178.4181927321
 20
163.7945761911
 10
178.4063578697
 20
163.7445027443
 10
178.4025415555
 20
163.694426015
  0
LWPOLYLINE
  5
2A7
100
AcDbEntity
  8
RACCORDO
100
AcDbPolyline
 62
253
  6
CONTINUOUS
 90
10
 70
0
 10
136.1457331921
 20
81.513760711
 10
136.1569384845
 20
81.5130324327
 10
136.16877625
 20
81.5125020162
 10
136.1812616703
 20
81.5121754827
 10
136.1943408731
 20
81.5120490384
 10
136.2080950001
 20
81.5121299142
 10
136.222756368
 20
81.512455218
 10
136.2384296019
 20
81.5130540266
 10
136.2550751726
 20
81.5139278299
 10
136.2727246192
 20
81.5150841953
  0
LWPOLYLINE
  5
2A8
100
AcDbEntity
  8
RACCORDO
100
AcDbPolyline
 62
253
  6
CONTINUOUS
 90
10
 70
0
 10
118.6640523253
 20
87.0981600428
 10
118.6351563645
 20
87.1066290413
 10
118.6041147998
 20
87.1104430269
 10
118.5718148254
 20
87.1094929927
 10
118.5391796018
 20
87.1038060919
 10
118.5071418711
 20
87.0935448607
 10
118.4766172987
 20
87.0790025732
 10
118.4484783026
 20
87.06059486
 10
118.423529119
 20
87.0388478292
 10
118.4024828165
 20
87.0143830293
  0
LWPOLYLINE
  5
2A9
100
AcDbEntity
  8
RACCORDO
100
AcDbPolyline
 62
253
  6
CONTINUOUS
 90
10
 70
0
 10
118.0385165198
 20
88.4213322018
 10
118.0096206419
 20
88.4298011837
 10
117.9785791458
 20
88.4336151797
 10
117.9462792161
 20
88.4326651724
 10
117.9136440053
 20
88.4269783027
 10
117.8816062574
 20
88.4167170951
 10
117.8510816485
 20
88.4021748182
 10
117.8229426042
 20
88.3837670988
 10
117.7979933657
 20
88.3620200398
 10
117.776947011
 20
88.3375551883
  0
LWPOLYLINE
  5
2AA
100
AcDbEntity
  8
RACCORDO
100
AcDbPolyline
 62
253
  6
CONTINUOUS
 90
4
 70
0
 10
136.3091764579
 20
85.0220590127
 10
137.9028314698
 20
84.4170105611
 10
139.5002159104
 20
83.8158301537
 10
141.101305008
 20
83.2185247207
  0
LWPOLYLINE
  5
2AB
100
AcDbEntity
  8
RACCORDO
100
AcDbPolyline
 62
253
  6
CONTINUOUS
 90
4
 70
0
 10
131.5508351946
 20
86.8603424682
 10
133.1331856252
 20
86.24371926
 10
134.719291648
 20
85.6309621655
 10
136.3091764579
 20
85.0220590127
  0
LWPOLYLINE
  5
2AC
100
AcDbEntity
  8
RACCORDO
100
AcDbPolyline
 62
253
  6
CONTINUOUS
 90
19
 70
0
 10
141.101305008
 20
83.2185247207
 10
141.1086640305
 20
83.215475057
 10
141.1158775109
 20
83.2118787406
 10
141.1229454445
 20
83.2077357674
 10
141.129924999
 20
83.2030050456
 10
141.1367589984
 20
83.1977276598
 10
141.1432759167
 20
83.1920268656
 10
141.1494638936
 20
83.1858940102
 10
141.1553347706
 20
83.17933773
 10
141.1607525655
 20
83.1725072068
 10
141.1657064982
 20
83.1653947233
 10
141.170207327
 20
83.1580079776
 10
141.1741513727
 20
83.1505192713
 10
141.1775244182
 20
83.1429224477
 10
141.1803406618
 20
83.135223647
 10
141.1825390458
 20
83.1276136148
 10
141.1840992139
 20
83.1201559296
 10
141.1850415118
 20
83.1127870035
 10
141.1853659366
 20
83.1055068341
  0
LWPOLYLINE
  5
2AD
100
AcDbEntity
  8
RACCORDO
100
AcDbPolyline
 62
253
  6
CONTINUOUS
 90
13
 70
0
 10
112.8604691415
 20
94.5606810795
 10
114.3967524993
 20
93.8977851339
 10
115.9369591653
 20
93.2387328993
 10
117.4810633276
 20
92.583531002
 10
119.029023346
 20
91.932192854
 10
120.5808290788
 20
91.2847180379
 10
122.1365023185
 20
90.6410926513
 10
123.6960185095
 20
90.001322962
 10
125.2593511533
 20
89.3654160132
 10
126.8265198427
 20
88.7333595755
 10
128.3974994065
 20
88.1051603941
 10
129.9722645148
 20
87.4808252509
 10
131.5508351946
 20
86.8603424682
  0
LWPOLYLINE
  5
2AE
100
AcDbEntity
  8
RACCORDO
100
AcDbPolyline
 62
253
  6
CONTINUOUS
 90
19
 70
0
 10
113.3744868613
 20
95.687306025
 10
114.9080672946
 20
95.0255791884
 10
116.4455168916
 20
94.3677010285
 10
117.9868356522
 20
93.7136715454
 10
119.5320348213
 20
93.0634903699
 10
121.081103154
 20
92.4171578712
 10
122.6340069159
 20
91.7746751563
 10
124.1907453039
 20
91.1360421722
 10
125.7513191211
 20
90.5012589721
 10
127.3156970422
 20
89.8703268224
 10
128.8838787378
 20
89.24324547
 10
130.4558645374
 20
88.6200151682
 10
132.0316241041
 20
88.0006379431
 10
133.6111576197
 20
87.3851133515
 10
135.1944649023
 20
86.7734418367
 10
136.7815150691
 20
86.1656267547
 10
138.3722978259
 20
85.5616692243
 10
139.9668234669
 20
84.9615681268
 10
141.5650919921
 20
84.3653234621
  0
LWPOLYLINE
  5
2AF
100
AcDbEntity
  8
RACCORDO
100
AcDbPolyline
 62
253
  6
CONTINUOUS
 90
19
 70
0
 10
141.5650919921
 20
84.3653234621
 10
141.6342293078
 20
84.3317662302
 10
141.7030391409
 20
84.2924217155
 10
141.7710028189
 20
84.2475910118
 10
141.8376098342
 20
84.1976183456
 10
141.9023557856
 20
84.1428832638
 10
141.964746159
 20
84.0837976769
 10
142.0243100173
 20
84.0208116049
 10
142.0805974459
 20
83.9544040804
 10
142.1331769157
 20
83.885074182
 10
142.1816489015
 20
83.8133468721
 10
142.2256484482
 20
83.7397684849
 10
142.2648417187
 20
83.6648967894
 10
142.2989305706
 20
83.5892987757
 10
142.3276570265
 20
83.5135484756
 10
142.3508047521
 20
83.4382220157
 10
142.3681979499
 20
83.3638906262
 10
142.3797026363
 20
83.2911163158
 10
142.3852298876
 20
83.2204497217
  0
LINE
  5
2B0
100
AcDbEntity
  8
RACCORDO
100
AcDbLine
 62
253
  6
CONTINUOUS
 10
136.1837160113
 20
81.063627673
 11
136.1484641309
 21
81.147968962
  0
LWPOLYLINE
  5
2B1
100
AcDbEntity
  8
RACCORDO
100
AcDbPolyline
 62
253
  6
CONTINUOUS
 90
8
 70
0
 10
136.1484641309
 20
81.147968962
 10
136.138989579
 20
81.1714957234
 10
136.1303847995
 20
81.1941306078
 10
136.1226497923
 20
81.2158736153
 10
136.1158246697
 20
81.2366937174
 10
136.1098693195
 20
81.2566219425
 10
136.1046634049
 20
81.2757513761
 10
136.1001937609
 20
81.2940893297
  0
LWPOLYLINE
  5
2B2
100
AcDbEntity
  8
RACCORDO
100
AcDbPolyline
 62
253
  6
CONTINUOUS
 90
10
 70
0
 10
136.2127400611
 20
81.4188757237
 10
136.2079085787
 20
81.4311192726
 10
136.2023574499
 20
81.4430519858
 10
136.1961107193
 20
81.4546221772
 10
136.1891954446
 20
81.4657797312
 10
136.1816415791
 20
81.4764763194
 10
136.1734818424
 20
81.4866656102
 10
136.1647515782
 20
81.4963034691
 10
136.1554886015
 20
81.5053481503
 10
136.1457330347
 20
81.5137604773
  0
LWPOLYLINE
  5
2B3
100
AcDbEntity
  8
RACCORDO
100
AcDbPolyline
 62
253
  6
CONTINUOUS
 90
10
 70
0
 10
133.5845786351
 20
62.7906894758
 10
133.5877299211
 20
62.761786992
 10
133.595631328
 20
62.7316669153
 10
133.6080431465
 20
62.7012430138
 10
133.6245888331
 20
62.671438273
 10
133.6447664327
 20
62.6431568946
 10
133.6679638071
 20
62.6172568652
 10
133.6934772058
 20
62.5945239272
 10
133.7205326157
 20
62.5756477415
 10
133.7483092429
 20
62.5612009646
  0
LWPOLYLINE
  5
2B4
100
AcDbEntity
  8
RACCORDO
100
AcDbPolyline
 62
7
  6
CONTINUOUS
 90
61
 70
0
 10
131.1105489359
 20
114.8920768079
 10
131.1690785613
 20
114.3329620419
 10
131.273581597
 20
113.7733545446
 10
131.4245557364
 20
113.2149164428
 10
131.6224855084
 20
112.6589788327
 10
131.8675159141
 20
112.1074988332
 10
132.1592414205
 20
111.5629252686
 10
132.497737627
 20
111.0262934037
 10
132.8825349684
 20
110.4993898676
 10
133.3116102093
 20
109.9854420524
 10
133.7835753426
 20
109.4860850911
 10
134.2979183182
 20
109.0018731186
 10
134.8532622513
 20
108.5341804634
 10
135.4489582018
 20
108.0836719522
 10
136.0833540298
 20
107.6517407832
 10
136.7529552095
 20
107.2406640119
 10
137.455463269
 20
106.8515318998
 10
138.1896248097
 20
106.4847608802
 10
138.9528910912
 20
106.1413776341
 10
139.7429923657
 20
105.8221196397
 10
140.558161848
 20
105.5274473256
 10
141.396360025
 20
105.2578911286
 10
142.2554533444
 20
105.013954408
 10
143.133282161
 20
104.7960868837
 10
144.027644273
 20
104.6046892239
 10
144.9361832971
 20
104.4401292708
 10
145.8567509451
 20
104.3026734395
 10
146.7873872514
 20
104.1925248127
 10
147.7258699275
 20
104.1098860592
 10
148.6698185058
 20
104.0549166061
 10
149.6170048768
 20
104.0277065201
 10
150.5650807732
 20
104.0282958141
 10
151.5117471131
 20
104.056664673
 10
152.4548468624
 20
104.1127472647
 10
153.3920445701
 20
104.1964186247
 10
154.3210718492
 20
104.3074995753
 10
155.2399001108
 20
104.4457934125
 10
156.1463470867
 20
104.6110435102
 10
157.0381003206
 20
104.802911866
 10
157.9130008828
 20
105.0210286708
 10
158.7688969278
 20
105.2649692548
 10
159.6036514397
 20
105.534252282
 10
160.4152390149
 20
105.828372456
 10
161.2018065628
 20
106.1468416322
 10
161.9611836381
 20
106.4889885473
 10
162.6910669055
 20
106.85396949
 10
163.3901130156
 20
107.2413462171
 10
164.0560520479
 20
107.650130054
 10
164.685677351
 20
108.0784647863
 10
165.2772980158
 20
108.5251448176
 10
165.8300223328
 20
108.9894700726
 10
166.3423582819
 20
109.470193999
 10
166.8137225004
 20
109.9668553306
 10
167.2425158703
 20
110.4779026816
 10
167.6263875583
 20
111.0002455313
 10
167.9646401186
 20
111.5321472316
 10
168.257265097
 20
112.0727388949
 10
168.5036762353
 20
112.6199171387
 10
168.7037518624
 20
113.171926524
 10
168.8576845038
 20
113.7274655419
 10
168.9656666212
 20
114.2849539698
  0
LWPOLYLINE
  5
2B5
100
AcDbEntity
  8
DRAFT
100
AcDbPolyline
 62
7
  6
CONTINUOUS
 90
16
 70
0
 10
130.5845447962
 20
123.114605256
 10
130.6377544273
 20
122.6007870234
 10
130.7441651373
 20
122.0381359097
 10
130.9003700488
 20
121.4785024032
 10
131.1054826709
 20
120.9249748774
 10
131.3601592774
 20
120.3768570974
 10
131.6637435946
 20
119.834845298
 10
132.0133803105
 20
119.3041165569
 10
132.4090476304
 20
118.7853489165
 10
132.8507673491
 20
118.2778643343
 10
133.3357495391
 20
117.784805761
 10
133.8646895887
 20
117.3058782748
 10
134.4368921096
 20
116.8413767975
 10
135.0474810101
 20
116.3953290449
 10
135.6948309262
 20
115.9690775891
 10
136.3805672219
 20
115.561279858
  0
LWPOLYLINE
  5
2B6
100
AcDbEntity
  8
DRAFT
100
AcDbPolyline
 62
7
  6
CONTINUOUS
 90
18
 70
0
 10
130.5729089852
 20
123.3852929592
 10
130.6089693793
 20
122.8277165521
 10
130.6935457034
 20
122.2733373644
 10
130.8263592883
 20
121.7213160241
 10
131.0066975276
 20
121.1745533674
 10
131.235178424
 20
120.6323331573
 10
131.5111839748
 20
120.0953716308
 10
131.832147566
 20
119.5687183354
 10
132.1980088349
 20
119.0530936795
 10
132.6088281442
 20
118.5477772546
 10
133.0622199676
 20
118.0556573825
 10
133.5589460982
 20
117.5763339213
 10
134.0982447429
 20
117.110207013
 10
134.6754449962
 20
116.6613654053
 10
135.290435438
 20
116.2302708671
 10
135.9433274884
 20
115.8164616296
 10
136.629784503
 20
115.4226411346
 10
137.3502901206
 20
115.0487888045
  0
LINE
  5
2B7
100
AcDbEntity
  8
SUP_COSTRUZIONE
100
AcDbLine
 62
7
  6
CONTINUOUS
 10
131.1105489368
 20
114.8920767942
 11
130.584083165
 21
123.115379758
  0
LINE
  5
2B8
100
AcDbEntity
  8
RACCORDO
100
AcDbLine
 62
253
  6
CONTINUOUS
 10
131.1105991861
 20
114.891292679
 11
131.1105489367
 21
114.8920767957
  0
LWPOLYLINE
  5
2B9
100
AcDbEntity
  8
RACCORDO
100
AcDbPolyline
 62
7
  6
CONTINUOUS
 90
10
 70
0
 10
132.4755364155
 20
54.3739122728
 10
132.473555925
 20
54.4240546419
 10
132.4680315717
 20
54.4697574876
 10
132.4589633559
 20
54.5110208098
 10
132.4461603124
 20
54.548229914
 10
132.4298134063
 20
54.5809994948
 10
132.4104955328
 20
54.6081736356
 10
132.3881638424
 20
54.6295216614
 10
132.3628611845
 20
54.6452742473
 10
132.3549010443
 20
54.6487971465
  0
LINE
  5
2BA
100
AcDbEntity
  8
0
100
AcDbLine
 62
7
  6
CONTINUOUS
 10
133.1337404707
 20
46.6897398044
 11
133.1006746167
 21
47.5637210912
  0
LINE
  5
2BB
100
AcDbEntity
  8
DRAFT
100
AcDbLine
 62
7
  6
CONTINUOUS
 10
130.5748724212
 20
123.7368787343
 11
130.5845447962
 21
123.114605256
  0
LINE
  5
2BC
100
AcDbEntity
  8
RACCORDO
100
AcDbLine
 62
253
  6
CONTINUOUS
 10
130.0378365611
 20
51.6537237878
 11
130.0378365611
 21
51.5917830807
  0
LINE
  5
2BD
100
AcDbEntity
  8
RACCORDO
100
AcDbLine
 62
7
  6
CONTINUOUS
 10
132.4755364155
 20
54.3739122728
 11
132.4755364155
 21
53.4297091219
  0
LINE
  5
2BE
100
AcDbEntity
  8
RACCORDO
100
AcDbLine
 62
253
  6
CONTINUOUS
 10
133.5845786351
 20
81.057318074
 11
133.5845786351
 21
62.7906894758
  0
LINE
  5
2BF
100
AcDbEntity
  8
DRAFT
100
AcDbLine
 62
7
  6
CONTINUOUS
 10
130.584552514
 20
123.9369169879
 11
130.5729089852
 21
123.3852929592
  0
LINE
  5
2C0
100
AcDbEntity
  8
RACCORDO
100
AcDbLine
 62
7
  6
CONTINUOUS
 10
129.5275121842
 20
50.9110609152
 11
129.4185168633
 21
49.0425586572
  0
LINE
  5
2C1
100
AcDbEntity
  8
RACCORDO
100
AcDbLine
 62
7
  6
CONTINUOUS
 10
131.1290748149
 20
132.4489062881
 11
131.1293860579
 21
132.453792844
  0
LINE
  5
2C2
100
AcDbEntity
  8
DRAFT
100
AcDbLine
 62
7
  6
CONTINUOUS
 10
130.584083165
 20
123.936257439
 11
131.1295639946
 21
132.4565722691
  0
LWPOLYLINE
  5
2C3
100
AcDbEntity
  8
RACCORDO
100
AcDbPolyline
 62
7
  6
CONTINUOUS
 90
25
 70
0
 10
129.5275121842
 20
50.9110609152
 10
129.529205531
 20
50.9326824848
 10
129.5317407053
 20
50.9546573982
 10
129.5351177071
 20
50.9769856553
 10
129.5393558176
 20
50.9997550193
 10
129.5444357556
 20
51.0228777271
 10
129.5502996778
 20
51.0460904891
 10
129.5569565451
 20
51.0693943347
 10
129.5643973966
 20
51.0927882345
 10
129.5725375061
 20
51.1160058109
 10
129.5813848662
 20
51.1390450488
 10
129.5909314843
 20
51.1619079633
 10
129.6010686567
 20
51.1843342231
 10
129.6118031334
 20
51.2063188374
 10
129.6231281644
 20
51.2278667969
 10
129.6349147958
 20
51.2487327433
 10
129.6471683037
 20
51.2689088812
 10
129.6598834121
 20
51.2884030059
 10
129.6729153388
 20
51.3069931452
 10
129.686267705
 20
51.3246689666
 10
129.6999368895
 20
51.3414408025
 10
129.7137672465
 20
51.3571176786
 10
129.7277068939
 20
51.3716359364
 10
129.7418077138
 20
51.3850592344
 10
129.7560697062
 20
51.3973875724
  0
LINE
  5
2C4
100
AcDbEntity
  8
0
100
AcDbLine
 62
7
  6
CONTINUOUS
 10
181.8931254694
 20
167.9457290506
 11
182.0120789743
 21
168.073125051
  0
LWPOLYLINE
  5
2C5
100
AcDbEntity
  8
RACCORDO
100
AcDbPolyline
 62
7
  6
CONTINUOUS
 90
11
 70
0
 10
112.7010336656
 20
95.6045605317
 10
112.6849906548
 20
95.5881742527
 10
112.6262079215
 20
95.5205100569
 10
112.5741043829
 20
95.4475921581
 10
112.5291555844
 20
95.37009544
 10
112.4915912413
 20
95.2884243003
 10
112.4618039577
 20
95.2033710977
 10
112.4401324131
 20
95.1159287489
 10
112.4267018835
 20
95.0266061648
 10
112.4215952341
 20
94.9360971694
 10
112.4215434389
 20
94.9267106547
  0
LINE
  5
2C6
100
AcDbEntity
  8
RACCORDO
100
AcDbLine
 62
7
  6
CONTINUOUS
 10
112.7003428424
 20
95.6039140889
 11
120.749893981
 21
103.6439295548
  0
LINE
  5
2C7
100
AcDbEntity
  8
RACCORDO
100
AcDbLine
 62
253
  6
CONTINUOUS
 10
113.3744868613
 20
95.687306025
 11
121.4158611982
 21
103.7191543757
  0
LWPOLYLINE
  5
2C8
100
AcDbEntity
  8
RACCORDO
100
AcDbPolyline
 62
253
  6
CONTINUOUS
 90
16
 70
0
 10
113.3744868613
 20
95.687306025
 10
113.3200171956
 20
95.6381237268
 10
113.2663818691
 20
95.5821333869
 10
113.2141300533
 20
95.5199082898
 10
113.163796754
 20
95.4520855579
 10
113.1158973336
 20
95.3793596276
 10
113.0709222344
 20
95.3024751389
 10
113.029331956
 20
95.2222193113
 10
112.9915523409
 20
95.1394138838
 10
112.9579702143
 20
95.0549067004
 10
112.9289294233
 20
94.9695630294
 10
112.9047273164
 20
94.8842567041
 10
112.8856116986
 20
94.7998611751
 10
112.8717782947
 20
94.7172405677
 10
112.8633687448
 20
94.6372408334
 10
112.8604691541
 20
94.5606810891
  0
LWPOLYLINE
  5
2C9
100
AcDbEntity
  8
RACCORDO
100
AcDbPolyline
 62
253
  6
CONTINUOUS
 90
12
 70
0
 10
112.7010153495
 20
95.6045845269
 10
112.7389448096
 20
95.6382013198
 10
112.786896872
 20
95.6712030805
 10
112.8395087564
 20
95.6982857201
 10
112.8963824045
 20
95.7192448824
 10
112.9570914741
 20
95.7339263242
 10
113.0211742446
 20
95.7422172139
 10
113.0881426955
 20
95.7440525918
 10
113.1574925727
 20
95.7394217507
 10
113.2286975539
 20
95.7283591301
 10
113.3012132182
 20
95.7109441573
 10
113.3744868613
 20
95.687306025
  0
LWPOLYLINE
  5
2CA
100
AcDbEntity
  8
RACCORDO
100
AcDbPolyline
 62
253
  6
CONTINUOUS
 90
21
 70
0
 10
136.1001937609
 20
81.2940893297
 10
136.0964735526
 20
81.3116284919
 10
136.0934219385
 20
81.328440014
 10
136.0910285005
 20
81.3445359581
 10
136.0893036568
 20
81.3599042621
 10
136.08819782
 20
81.3745798912
 10
136.087703169
 20
81.3885647683
 10
136.087827525
 20
81.4018569705
 10
136.0885447648
 20
81.414485694
 10
136.0898447485
 20
81.4264574078
 10
136.091737616
 20
81.4377656431
 10
136.0942276645
 20
81.4484201896
 10
136.0973025563
 20
81.4584309913
 10
136.1009746291
 20
81.4677881042
 10
136.1052851922
 20
81.4764714867
 10
136.1102075117
 20
81.4844975212
 10
136.1157683216
 20
81.4918498252
 10
136.1220891335
 20
81.4984592088
 10
136.1292104514
 20
81.5043026087
 10
136.1370917714
 20
81.5094030881
 10
136.1457330935
 20
81.5137606472
  0
LWPOLYLINE
  5
2CB
100
AcDbEntity
  8
RACCORDO
100
AcDbPolyline
 62
253
  6
CONTINUOUS
 90
3
 70
0
 10
131.2623350464
 20
113.8612109906
 10
131.1613781735
 20
114.4010597542
 10
131.1105991861
 20
114.891292679
  0
LINE
  5
2CC
100
AcDbEntity
  8
DRAFT
100
AcDbLine
 62
7
  6
CONTINUOUS
 10
137.1480832406
 20
114.3708744884
 11
137.1046898972
 21
115.1719358517
  0
LINE
  5
2CD
100
AcDbEntity
  8
DRAFT
100
AcDbLine
 62
7
  6
CONTINUOUS
 10
137.6954646116
 20
114.8192630575
 11
137.6935260495
 21
114.887718077
  0
LINE
  5
2CE
100
AcDbEntity
  8
DRAFT
100
AcDbLine
 62
7
  6
CONTINUOUS
 10
137.6260896141
 20
114.818400188
 11
137.6248264774
 21
114.9199568058
  0
LWPOLYLINE
  5
2CF
100
AcDbEntity
  8
RACCORDO
100
AcDbPolyline
 62
253
  6
CONTINUOUS
 90
15
 70
0
 10
136.1837160727
 20
40.20503334
 10
136.1838400279
 20
40.1815049888
 10
136.184262055
 20
40.1556939938
 10
136.1849777243
 20
40.1306967121
 10
136.1859816012
 20
40.1065104671
 10
136.1872753424
 20
40.0830865228
 10
136.1888558699
 20
40.0604324372
 10
136.1907218656
 20
40.0385532576
 10
136.1928880773
 20
40.0173977039
 10
136.1953560754
 20
39.9969581391
 10
136.1981300435
 20
39.9772571635
 10
136.2012424114
 20
39.9582918832
 10
136.2047138096
 20
39.9400691761
 10
136.2085439676
 20
39.922603732
 10
136.2127409215
 20
39.9059070547
  0
LINE
  5
2D0
100
AcDbEntity
  8
RACCORDO
100
AcDbLine
 62
7
  6
CONTINUOUS
 10
136.18371602
 20
40.2053704341
 11
136.1837160727
 21
40.20503334
  0
LINE
  5
2D1
100
AcDbEntity
  8
RACCORDO
100
AcDbLine
 62
7
  6
CONTINUOUS
 10
136.1837160113
 20
40.2062176536
 11
136.1837160113
 21
81.2375716864
  0
LINE
  5
2D2
100
AcDbEntity
  8
RACCORDO
100
AcDbLine
 62
253
  6
CONTINUOUS
 10
136.272739979
 20
39.7378785215
 11
136.272739979
 21
81.5150704888
  0
LINE
  5
2D3
100
AcDbEntity
  8
RACCORDO
100
AcDbLine
 62
7
  6
CONTINUOUS
 10
136.1837160161
 20
81.2383484838
 11
136.1837160231
 21
81.2384057763
  0
LWPOLYLINE
  5
2D4
100
AcDbEntity
  8
RACCORDO
100
AcDbPolyline
 62
253
  6
CONTINUOUS
 90
15
 70
0
 10
136.1837160231
 20
81.2384057763
 10
136.1837888598
 20
81.2505499737
 10
136.184146479
 20
81.2676008838
 10
136.1847997342
 20
81.2839716904
 10
136.1857455621
 20
81.2996637123
 10
136.1869882011
 20
81.3146782578
 10
136.1885278284
 20
81.3290326229
 10
136.1903654274
 20
81.3427230526
 10
136.1925167653
 20
81.3557205983
 10
136.1949836914
 20
81.3680484982
 10
136.1977740097
 20
81.3796998268
 10
136.2009274089
 20
81.3906038378
 10
136.2044701676
 20
81.4007459781
 10
136.2084041452
 20
81.4101655662
 10
136.2127409226
 20
81.4188760236
  0
LINE
  5
2D5
100
AcDbEntity
  8
RACCORDO
100
AcDbLine
 62
7
  6
CONTINUOUS
 10
134.44242445
 20
48.9371213452
 11
134.3568823964
 21
47.4706774755
  0
LINE
  5
2D6
100
AcDbEntity
  8
RACCORDO
100
AcDbLine
 62
253
  6
CONTINUOUS
 10
118.4024828165
 20
50.2790408391
 11
117.776947011
 21
48.0374015128
  0
LINE
  5
2D7
100
AcDbEntity
  8
RACCORDO
100
AcDbLine
 62
253
  6
CONTINUOUS
 10
118.6640523253
 20
50.2243424075
 11
118.0385165198
 21
47.9827030812
  0
LWPOLYLINE
  5
2D8
100
AcDbEntity
  8
RACCORDO
100
AcDbPolyline
 62
253
  6
CONTINUOUS
 90
25
 70
0
 10
118.0385165198
 20
47.9827030812
 10
118.025177547
 20
47.9370442907
 10
118.0114853969
 20
47.8930375944
 10
117.9974400697
 20
47.8506829923
 10
117.9830141383
 20
47.8100397804
 10
117.9682350297
 20
47.7710486626
 10
117.9531850249
 20
47.7335317509
 10
117.9378752753
 20
47.6974651407
 10
117.9222946295
 20
47.6628727367
 10
117.9064919146
 20
47.6296483652
 10
117.8904675584
 20
47.5977641002
 10
117.8742211331
 20
47.5672478677
 10
117.8578001828
 20
47.5380772721
 10
117.8412159313
 20
47.5102499112
 10
117.8244571548
 20
47.4837681872
 10
117.8075377262
 20
47.4586169111
 10
117.7904770624
 20
47.4347908573
 10
117.7732557464
 20
47.4122952514
 10
117.7558294
 20
47.3911305811
 10
117.7382435423
 20
47.3712809053
 10
117.7204526541
 20
47.3527621651
 10
117.7022757998
 20
47.3356226713
 10
117.6836526672
 20
47.3198785276
 10
117.6646435685
 20
47.3055136304
 10
117.6452485035
 20
47.2925279797
  0
LWPOLYLINE
  5
2D9
100
AcDbEntity
  8
RACCORDO
100
AcDbPolyline
 62
7
  6
CONTINUOUS
 90
14
 70
0
 10
152.3709404669
 20
150.0302855736
 10
152.3504833044
 20
149.9730931863
 10
152.3104525242
 20
149.8702171918
 10
152.2675730639
 20
149.7707478168
 10
152.2222682426
 20
149.6754254591
 10
152.1749545943
 20
149.5848272581
 10
152.1261056491
 20
149.4995156667
 10
152.0763222639
 20
149.4201659103
 10
152.0263566439
 20
149.3474849641
 10
151.9768253977
 20
149.2817754602
 10
151.9284290713
 20
149.2233259483
 10
151.8821797127
 20
149.1726122009
 10
151.8388943689
 20
149.1296566591
 10
151.8232917685
 20
149.1152525044
  0
LWPOLYLINE
  5
2DA
100
AcDbEntity
  8
RACCORDO
100
AcDbPolyline
 62
253
  6
CONTINUOUS
 90
13
 70
0
 10
152.8417869274
 20
149.7757921265
 10
152.818288367
 20
149.7116695819
 10
152.7921937072
 20
149.6480389893
 10
152.7635943067
 20
149.5852137514
 10
152.7326398523
 20
149.5233925717
 10
152.6993975485
 20
149.4630185353
 10
152.6638751355
 20
149.4047538643
 10
152.6262022564
 20
149.3489159388
 10
152.5865771527
 20
149.2957609507
 10
152.5451557677
 20
149.2457963862
 10
152.502122543
 20
149.199323538
 10
152.4576751633
 20
149.1564669914
 10
152.4120042543
 20
149.1174142905
  0
LINE
  5
2DB
100
AcDbEntity
  8
DRAFT
100
AcDbLine
 62
7
  6
CONTINUOUS
 10
137.1480832406
 20
114.3708744884
 11
137.747889395
 21
114.862206926
  0
LINE
  5
2DC
100
AcDbEntity
  8
RACCORDO
100
AcDbLine
 62
7
  6
CONTINUOUS
 10
120.8193633644
 20
103.7007594874
 11
132.3044518393
 21
111.3327172593
  0
LINE
  5
2DD
100
AcDbEntity
  8
RACCORDO
100
AcDbLine
 62
253
  6
CONTINUOUS
 10
121.4158611982
 20
103.7191543757
 11
132.4724558417
 21
111.0663736508
  0
LINE
  5
2DE
100
AcDbEntity
  8
RACCORDO
100
AcDbLine
 62
7
  6
CONTINUOUS
 10
150.9075800315
 20
91.874615217
 11
121.4158611982
 21
103.7191543757
  0
LINE
  5
2DF
100
AcDbEntity
  8
DRAFT
100
AcDbLine
 62
7
  6
CONTINUOUS
 10
140.8194708007
 20
113.6799960931
 11
140.8342674399
 21
112.8904198109
  0
LINE
  5
2E0
100
AcDbEntity
  8
RACCORDO
100
AcDbLine
 62
253
  6
CONTINUOUS
 10
141.1853659366
 20
83.1055068341
 11
141.1853659366
 21
34.4358069527
  0
LINE
  5
2E1
100
AcDbEntity
  8
RACCORDO
100
AcDbLine
 62
253
  6
CONTINUOUS
 10
142.3852298876
 20
83.2204497217
 11
142.3852298876
 21
34.5507498403
  0
LWPOLYLINE
  5
2E2
100
AcDbEntity
  8
RACCORDO
100
AcDbPolyline
 62
253
  6
CONTINUOUS
 90
19
 70
0
 10
141.1853659366
 20
34.4358069527
 10
141.1850407831
 20
34.4287669979
 10
141.1840981692
 20
34.4221001424
 10
141.1825380976
 20
34.4158063886
 10
141.180340162
 20
34.4098377368
 10
141.1775247795
 20
34.4042421962
 10
141.17415319
 20
34.3991637839
 10
141.1702119863
 20
34.3946190802
 10
141.1657145946
 20
34.3905915213
 10
141.1607625041
 20
34.3871754077
 10
141.1553437156
 20
34.3843857471
 10
141.1494702502
 20
34.382207551
 10
141.1432796231
 20
34.3806901216
 10
141.136760118
 20
34.3798516752
 10
141.1299234699
 20
34.379674012
 10
141.1229423634
 20
34.3801518029
 10
141.1158743604
 20
34.3812832719
 10
141.108661907
 20
34.3830702021
 10
141.101305008
 20
34.3855125978
  0
LWPOLYLINE
  5
2E3
100
AcDbEntity
  8
RACCORDO
100
AcDbPolyline
 62
253
  6
CONTINUOUS
 90
20
 70
0
 10
136.0959454891
 20
40.3925742874
 10
136.0929650387
 20
40.3572216391
 10
136.0906603089
 20
40.3227443386
 10
136.0890421381
 20
40.2891491637
 10
136.0880504381
 20
40.2563968112
 10
136.08767761
 20
40.224475244
 10
136.0879312526
 20
40.1933964992
 10
136.0887740749
 20
40.1631573854
 10
136.090197483
 20
40.1337701904
 10
136.0922100707
 20
40.1052226265
 10
136.0948003286
 20
40.0774746382
 10
136.0979538418
 20
40.0505291225
 10
136.1016850251
 20
40.0243831825
 10
136.1060256141
 20
39.9989880717
 10
136.1109564427
 20
39.9743264736
 10
136.116496677
 20
39.9504157046
 10
136.1227355506
 20
39.9272589676
 10
136.1297028083
 20
39.9048573303
 10
136.1373687053
 20
39.8832097249
 10
136.1457332418
 20
39.8623161515
  0
LWPOLYLINE
  5
2E4
100
AcDbEntity
  8
RACCORDO
100
AcDbPolyline
 62
253
  6
CONTINUOUS
 90
13
 70
0
 10
171.3067346064
 20
140.8808433588
 10
171.0167709731
 20
140.5268672824
 10
170.7457486473
 20
140.1661684109
 10
170.4942065974
 20
139.7991894979
 10
170.262426734
 20
139.4259224332
 10
170.051175138
 20
139.0472940227
 10
169.861474666
 20
138.6652092823
 10
169.6935476174
 20
138.2801911907
 10
169.5475871251
 20
137.8927730712
 10
169.4241036678
 20
137.5049423323
 10
169.3230965113
 20
137.1177309898
 10
169.2442923291
 20
136.7311873956
 10
169.1875253819
 20
136.3458318684
  0
LWPOLYLINE
  5
2E5
100
AcDbEntity
  8
RACCORDO
100
AcDbPolyline
 62
253
  6
CONTINUOUS
 90
13
 70
0
 10
170.3756661113
 20
141.9028027075
 10
170.0655964606
 20
141.5276052874
 10
169.7767299048
 20
141.1460948983
 10
169.5090664438
 20
140.7582715401
 10
169.2619555179
 20
140.3630788211
 10
169.0360476869
 20
139.9615731331
 10
168.8332946296
 20
139.5569236513
 10
168.6541269197
 20
139.1491005661
 10
168.4981139835
 20
138.7381336871
 10
168.3659157799
 20
138.3272816184
 10
168.2577522951
 20
137.9176305612
 10
168.1734035428
 20
137.5080943142
 10
168.1128695231
 20
137.0986728774
  0
LWPOLYLINE
  5
2E6
100
AcDbEntity
  8
RACCORDO
100
AcDbPolyline
 62
253
  6
CONTINUOUS
 90
10
 70
0
 10
142.3852298876
 20
34.5507498403
 10
142.3797025994
 20
34.4790334771
 10
142.3681978619
 20
34.4105109481
 10
142.3508046047
 20
34.3457030141
 10
142.3276567463
 20
34.285102435
 10
142.2989301626
 20
34.2291690365
 10
142.2648414022
 20
34.1783261704
 10
142.2256486647
 20
34.1329591005
 10
142.1816498668
 20
34.0934121522
 10
142.1514318078
 20
34.0715031566
  0
LWPOLYLINE
  5
2E7
100
AcDbEntity
  8
RACCORDO
100
AcDbPolyline
 62
7
  6
CONTINUOUS
 90
10
 70
0
 10
154.0328635949
 20
164.9720038543
 10
153.8798184415
 20
163.4717233649
 10
153.7133297331
 20
161.8541971613
 10
153.5453672777
 20
160.2373110874
 10
153.3759314766
 20
158.6210669658
 10
153.2050227062
 20
157.0054663767
 10
153.0326412837
 20
155.3905106436
 10
152.8587872833
 20
153.7762012182
 10
152.6834606734
 20
152.162539738
 10
152.5185214694
 20
150.6572927093
  0
LWPOLYLINE
  5
2E8
100
AcDbEntity
  8
RACCORDO
100
AcDbPolyline
 62
253
  6
CONTINUOUS
 90
7
 70
0
 10
154.4597485554
 20
164.5196845412
 10
154.2151781909
 20
162.1283443734
 10
153.9674213165
 20
159.7386719536
 10
153.7164779323
 20
157.3506672818
 10
153.4623480383
 20
154.964330358
 10
153.2050316344
 20
152.5796611821
 10
152.9445287206
 20
150.1966597543
  0
LINE
  5
2E9
100
AcDbEntity
  8
RACCORDO
100
AcDbLine
 62
7
  6
CONTINUOUS
 10
152.5185155654
 20
150.6570930965
 11
152.5185372782
 21
150.6572909577
  0
LWPOLYLINE
  5
2EA
100
AcDbEntity
  8
RACCORDO
100
AcDbPolyline
 62
7
  6
CONTINUOUS
 90
8
 70
0
 10
152.5185155654
 20
150.6570930965
 10
152.5134612556
 20
150.6150386475
 10
152.5001222305
 20
150.5260362739
 10
152.4822157995
 20
150.4307559379
 10
152.4595465367
 20
150.3300732955
 10
152.4319674882
 20
150.224869744
 10
152.3994152631
 20
150.1160466406
 10
152.3709346157
 20
150.030282681
  0
LWPOLYLINE
  5
2EB
100
AcDbEntity
  8
RACCORDO
100
AcDbPolyline
 62
7
  6
CONTINUOUS
 90
9
 70
0
 10
154.0328635644
 20
164.9720038814
 10
154.0458461128
 20
165.060358591
 10
154.066779874
 20
165.1476229156
 10
154.0956030875
 20
165.2330470888
 10
154.1323145253
 20
165.3161551883
 10
154.17662387
 20
165.3959231781
 10
154.227812937
 20
165.4710443651
 10
154.2856941986
 20
165.5412973798
 10
154.3431934224
 20
165.5999181676
  0
LWPOLYLINE
  5
2EC
100
AcDbEntity
  8
RACCORDO
100
AcDbPolyline
 62
253
  6
CONTINUOUS
 90
7
 70
0
 10
152.9445287206
 20
150.1966597543
 10
152.9343925039
 20
150.1289505462
 10
152.9213065592
 20
150.0596962734
 10
152.9053744642
 20
149.9893276044
 10
152.8867169361
 20
149.9182729146
 10
152.8654706388
 20
149.8469557034
 10
152.8417869274
 20
149.7757921265
  0
LWPOLYLINE
  5
2ED
100
AcDbEntity
  8
RACCORDO
100
AcDbPolyline
 62
253
  6
CONTINUOUS
 90
10
 70
0
 10
136.2127409226
 20
81.4188760236
 10
136.217562143
 20
81.4273820118
 10
136.2228191465
 20
81.4363945037
 10
136.2285202078
 20
81.4459302137
 10
136.2346583262
 20
81.4560126323
 10
136.2412504225
 20
81.4666534516
 10
136.248344331
 20
81.4778563828
 10
136.2559624167
 20
81.4896405312
 10
136.2640941089
 20
81.5020364764
 10
136.272739979
 20
81.5150703528
  0
LINE
  5
2EE
100
AcDbEntity
  8
DRAFT
100
AcDbLine
 62
7
  6
CONTINUOUS
 10
118.9981052121
 20
83.7823760789
 11
121.3970655704
 21
85.9520980818
  0
LWPOLYLINE
  5
2EF
100
AcDbEntity
  8
RACCORDO
100
AcDbPolyline
 62
7
  6
CONTINUOUS
 90
13
 70
0
 10
172.608192305
 20
129.6872473635
 10
172.2423413761
 20
129.3730331598
 10
171.901868178
 20
129.0512154174
 10
171.5867727106
 20
128.7217941364
 10
171.2965188289
 20
128.384062346
 10
171.0316426779
 20
128.0387270169
 10
170.793752693
 20
127.6879090611
 10
170.5830455425
 20
127.3315389499
 10
170.3993245581
 20
126.9696862119
 10
170.2436081701
 20
126.6046803455
 10
170.1162358553
 20
126.2372978502
 10
170.0168681369
 20
125.8667622265
 10
169.9455050149
 20
125.4930734745
  0
LWPOLYLINE
  5
2F0
100
AcDbEntity
  8
0
100
AcDbPolyline
 62
7
  6
CONTINUOUS
 90
12
 70
0
 10
172.6017390862
 20
129.6819611962
 10
172.2371501396
 20
129.3688048829
 10
171.8978561952
 20
129.0480958616
 10
171.5838572529
 20
128.7198341322
 10
171.2946525349
 20
128.3833669051
 10
171.0307428191
 20
128.0393469699
 10
170.7936304388
 20
127.6897326957
 10
170.5834682305
 20
127.3344921755
 10
170.4001033577
 20
126.9736573164
 10
170.2445796438
 20
126.6092822079
 10
170.11724503
 20
126.2420515466
 10
170.0177515751
 20
125.871280636
  0
LINE
  5
2F1
100
AcDbEntity
  8
RACCORDO
100
AcDbLine
 62
7
  6
CONTINUOUS
 10
179.6481181771
 20
135.4540170333
 11
172.608192305
 21
129.6872473635
  0
LINE
  5
2F2
100
AcDbEntity
  8
0
100
AcDbLine
 62
7
  6
CONTINUOUS
 10
172.6017390862
 20
129.6819611962
 11
179.6481181771
 21
135.4540170333
  0
LINE
  5
2F3
100
AcDbEntity
  8
RACCORDO
100
AcDbLine
 62
253
  6
CONTINUOUS
 10
118.8199101222
 20
86.9871418105
 11
118.7710181714
 21
86.9546526133
  0
LWPOLYLINE
  5
2F4
100
AcDbEntity
  8
RACCORDO
100
AcDbPolyline
 62
253
  6
CONTINUOUS
 90
3
 70
0
 10
118.7710181714
 20
86.9546526133
 10
118.7315806599
 20
86.9310079979
 10
118.6933302332
 20
86.912601644
  0
LWPOLYLINE
  5
2F5
100
AcDbEntity
  8
RACCORDO
100
AcDbPolyline
 62
7
  6
CONTINUOUS
 90
14
 70
0
 10
143.0077753476
 20
102.8924442649
 10
142.471534354
 20
103.1199121837
 10
141.9603503359
 20
103.3605988703
 10
141.4742232933
 20
103.6145043247
 10
141.0118800775
 20
103.8824437797
 10
140.5745938372
 20
104.1636020026
 10
140.1661840179
 20
104.4555332953
 10
139.7868988741
 20
104.7583327088
 10
139.4364901513
 20
105.0719051922
 10
139.1180325317
 20
105.393519894
 10
138.8318026033
 20
105.7232487163
 10
138.5775237781
 20
106.0610197571
 10
138.3574409741
 20
106.4038864592
 10
138.353668938
 20
106.4109596307
  0
LINE
  5
2F6
100
AcDbEntity
  8
RACCORDO
100
AcDbLine
 62
7
  6
CONTINUOUS
 10
151.7256094563
 20
40.7575267926
 11
151.7256094563
 21
90.7280467331
  0
LWPOLYLINE
  5
2F7
100
AcDbEntity
  8
RACCORDO
100
AcDbPolyline
 62
253
  6
CONTINUOUS
 90
9
 70
0
 10
136.1484641309
 20
40.7093398413
 10
136.1387873109
 20
40.6663156255
 10
136.1300208549
 20
40.6242774797
 10
136.1221647628
 20
40.5832254038
 10
136.1152627685
 20
40.5431741676
 10
136.1092711382
 20
40.5041090014
 10
136.1040586702
 20
40.4659855963
 10
136.0996124985
 20
40.4288090613
 10
136.0959454891
 20
40.3925742874
  0
LINE
  5
2F8
100
AcDbEntity
  8
RACCORDO
100
AcDbLine
 62
253
  6
CONTINUOUS
 10
136.1837160113
 20
40.8583975317
 11
136.1484641309
 21
40.7093398413
  0
LINE
  5
2F9
100
AcDbEntity
  8
0
100
AcDbLine
 62
7
  6
CONTINUOUS
 10
127.7390695439
 20
49.1717513351
 11
127.1081354639
 21
47.753853145
  0
LWPOLYLINE
  5
2FA
100
AcDbEntity
  8
RACCORDO
100
AcDbPolyline
 62
253
  6
CONTINUOUS
 90
12
 70
0
 10
171.7976550115
 20
121.3012536267
 10
171.4480736745
 20
120.9712630403
 10
171.1224262733
 20
120.6314253227
 10
170.8212480914
 20
120.2817751313
 10
170.5459432107
 20
119.9233700582
 10
170.2983900376
 20
119.5583890603
 10
170.0790652289
 20
119.1875435619
 10
169.8883849368
 20
118.8115470239
 10
169.7273367747
 20
118.4327482034
 10
169.5960223656
 20
118.0524704842
 10
169.4940662403
 20
117.6709424673
 10
169.4212833866
 20
117.2889139427
  0
LINE
  5
2FB
100
AcDbEntity
  8
RACCORDO
100
AcDbLine
 62
7
  6
CONTINUOUS
 10
118.9981052121
 20
75.2631948183
 11
121.2834823528
 21
77.3301873178
  0
LINE
  5
2FC
100
AcDbEntity
  8
RACCORDO
100
AcDbLine
 62
253
  6
CONTINUOUS
 10
172.1701929114
 20
121.6208883205
 11
171.7976550115
 21
121.3012536267
  0
LWPOLYLINE
  5
2FD
100
AcDbEntity
  8
RACCORDO
100
AcDbPolyline
 62
253
  6
CONTINUOUS
 90
8
 70
0
 10
171.9858507687
 20
121.21870917
 10
171.9994211772
 20
121.2302819081
 10
172.0468442789
 20
121.2792153064
 10
172.0871548372
 20
121.335449623
 10
172.1199401444
 20
121.3984091029
 10
172.1448645332
 20
121.4674491326
 10
172.1616728178
 20
121.5418628354
 10
172.1701929116
 20
121.6208883206
  0
LINE
  5
2FE
100
AcDbEntity
  8
RACCORDO
100
AcDbLine
 62
7
  6
CONTINUOUS
 10
118.9981052121
 20
77.2058592446
 11
126.9230128053
 21
83.7327530927
  0
LINE
  5
2FF
100
AcDbEntity
  8
RACCORDO
100
AcDbLine
 62
253
  6
CONTINUOUS
 10
184.982355037
 20
132.1159971175
 11
172.1701929114
 21
121.6208883205
  0
LINE
  5
300
100
AcDbEntity
  8
RACCORDO
100
AcDbLine
 62
7
  6
CONTINUOUS
 10
185.1287041256
 20
131.9847043652
 11
171.9858507608
 21
121.2187091636
  0
LINE
  5
301
100
AcDbEntity
  8
RACCORDO
100
AcDbLine
 62
253
  6
CONTINUOUS
 10
125.7339489091
 20
84.2103079603
 11
118.9981052121
 21
78.8767718841
  0
LWPOLYLINE
  5
302
100
AcDbEntity
  8
RACCORDO
100
AcDbPolyline
 62
253
  6
CONTINUOUS
 90
10
 70
0
 10
117.6452483612
 20
88.9439721278
 10
117.6394608303
 20
88.9418023033
 10
117.6332480408
 20
88.9389730749
 10
117.626636902
 20
88.9354966985
 10
117.6196560485
 20
88.9313882329
 10
117.6123357165
 20
88.9266654751
 10
117.6047076125
 20
88.9213488825
 10
117.5968047761
 20
88.9154614849
 10
117.5886614369
 20
88.9090287845
 10
117.5803128662
 20
88.9020786455
  0
LWPOLYLINE
  5
303
100
AcDbEntity
  8
DRAFT
100
AcDbPolyline
 62
7
  6
CONTINUOUS
 90
40
 70
0
 10
140.8194708007
 20
113.6799960931
 10
141.7049992193
 20
113.4228679313
 10
142.6076315356
 20
113.1927410189
 10
143.5273677495
 20
112.9896153558
 10
144.4669633095
 20
112.8130740809
 10
145.4236627672
 20
112.6635340554
 10
146.3891997775
 20
112.5422458621
 10
147.3628533322
 20
112.4494834362
 10
148.3453444395
 20
112.3849728425
 10
149.3305697793
 20
112.3491428593
 10
150.3196476455
 20
112.3422136436
 10
151.3114597442
 20
112.3639650384
 10
152.2965478737
 20
112.4141653506
 10
153.2735469308
 20
112.4929301759
 10
154.2438220187
 20
112.6001439187
 10
155.2020102451
 20
112.7352280988
 10
156.1494389796
 20
112.8986297589
 10
157.0847808527
 20
113.0899018563
 10
157.9986908628
 20
113.3071247819
 10
158.8895871248
 20
113.5501328866
 10
159.7590515238
 20
113.8190918195
 10
160.6024847142
 20
114.1125789196
 10
161.4209974884
 20
114.431261654
 10
162.213479054
 20
114.7744725555
 10
162.9719976878
 20
115.138786562
 10
163.6951716002
 20
115.5238122635
 10
164.3843825809
 20
115.9299410699
 10
165.0358442758
 20
116.3549221482
 10
165.6501400131
 20
116.7994746071
 10
166.2266864647
 20
117.2628793379
 10
166.7599472915
 20
117.7407281804
 10
167.2489856615
 20
118.2326043757
 10
167.6947384067
 20
118.7389246827
 10
168.0944796849
 20
119.2565312179
 10
168.448207884
 20
119.7859217695
 10
168.755924616
 20
120.3265985493
 10
169.0149088752
 20
120.8739103102
 10
169.2242536594
 20
121.4263066364
 10
169.3848659707
 20
121.9853379437
 10
169.4967458092
 20
122.551004232
  0
LINE
  5
304
100
AcDbEntity
  8
DRAFT
100
AcDbLine
 62
7
  6
CONTINUOUS
 10
140.5337182661
 20
113.7702522925
 11
141.3926295017
 21
113.5097752073
  0
LWPOLYLINE
  5
305
100
AcDbEntity
  8
DRAFT
100
AcDbPolyline
 62
7
  6
CONTINUOUS
 90
5
 70
0
 10
137.3502901206
 20
115.0487888045
 10
138.1043607024
 20
114.6949252168
 10
138.8862086875
 20
114.3638155458
 10
139.6960747752
 20
114.0556569608
 10
140.5337182661
 20
113.7702522925
  0
LWPOLYLINE
  5
306
100
AcDbEntity
  8
DRAFT
100
AcDbPolyline
 62
7
  6
CONTINUOUS
 90
10
 70
0
 10
137.1480832406
 20
114.3708744884
 10
137.5272530675
 20
114.1824696949
 10
137.9142287127
 20
113.9999603196
 10
138.3090101761
 20
113.8233463623
 10
138.7118698169
 20
113.6525184377
 10
139.1225352759
 20
113.4875859311
 10
139.5401894754
 20
113.3288769994
 10
139.9645600564
 20
113.1765010283
 10
140.3959193778
 20
113.0303486322
 10
140.8342674399
 20
112.8904198109
  0
LINE
  5
307
100
AcDbEntity
  8
DRAFT
100
AcDbLine
 62
7
  6
CONTINUOUS
 10
136.3805672219
 20
115.561279858
 11
137.1046898972
 21
115.1719358517
  0
LWPOLYLINE
  5
308
100
AcDbEntity
  8
RACCORDO
100
AcDbPolyline
 62
253
  6
CONTINUOUS
 90
7
 70
0
 10
170.7336859154
 20
142.5883244922
 10
170.7562875524
 20
142.6602217398
 10
170.7757589227
 20
142.7325494294
 10
170.7919472631
 20
142.8048871524
 10
170.804714725
 20
142.8768071381
 10
170.8139396441
 20
142.9478767635
 10
170.8195177469
 20
143.0176611791
  0
LWPOLYLINE
  5
309
100
AcDbEntity
  8
RACCORDO
100
AcDbPolyline
 62
253
  6
CONTINUOUS
 90
7
 70
0
 10
172.009665868
 20
142.1943068843
 10
172.0554866762
 20
142.3384274969
 10
172.0948796708
 20
142.4816194148
 10
172.1278398514
 20
142.6238848327
 10
172.1543617468
 20
142.7652261509
 10
172.1744394149
 20
142.9056459758
 10
172.1880664439
 20
143.0451471202
  0
LWPOLYLINE
  5
30A
100
AcDbEntity
  8
RACCORDO
100
AcDbPolyline
 62
253
  6
CONTINUOUS
 90
16
 70
0
 10
172.0096697664
 20
142.1942375635
 10
171.9744426173
 20
142.0897678363
 10
171.9370357438
 20
141.9872276311
 10
171.8974920797
 20
141.8866008868
 10
171.855724986
 20
141.7876479968
 10
171.8119165453
 20
141.6905740206
 10
171.7665068777
 20
141.5960328576
 10
171.7195435643
 20
141.504032335
 10
171.6710659621
 20
141.4145362709
 10
171.6214844924
 20
141.3281398209
 10
171.5708352689
 20
141.2448402352
 10
171.519157167
 20
141.1646190744
 10
171.4668448527
 20
141.088055786
 10
171.4140440536
 20
141.0153410304
 10
171.360664073
 20
140.9462722793
 10
171.3067346064
 20
140.8808433588
  0
LWPOLYLINE
  5
30B
100
AcDbEntity
  8
RACCORDO
100
AcDbPolyline
 62
253
  6
CONTINUOUS
 90
16
 70
0
 10
170.7336859154
 20
142.5883244922
 10
170.7149777756
 20
142.5352772856
 10
170.6951005389
 20
142.4827608748
 10
170.6741348007
 20
142.4309345931
 10
170.6521309592
 20
142.3799983535
 10
170.629208763
 20
142.3300527524
 10
170.6055505018
 20
142.2811039569
 10
170.5812516522
 20
142.2332920636
 10
170.5563869771
 20
142.1867528053
 10
170.5310998681
 20
142.1414899452
 10
170.5054864134
 20
142.0976281692
 10
170.4796229226
 20
142.0553026345
 10
170.4536178605
 20
142.0145418844
 10
170.4275658024
 20
141.9754421869
 10
170.4015509104
 20
141.9381571337
 10
170.3756661113
 20
141.9028027075
  0
LINE
  5
30C
100
AcDbEntity
  8
0
100
AcDbLine
 62
7
  6
CONTINUOUS
 10
132.6539818097
 20
47.1978117651
 11
132.0230477297
 21
45.779913575
  0
LWPOLYLINE
  5
30D
100
AcDbEntity
  8
RACCORDO
100
AcDbPolyline
 62
253
  6
CONTINUOUS
 90
10
 70
0
 10
117.5803130275
 20
47.3891101598
 10
117.5715630728
 20
47.3773859316
 10
117.5627442321
 20
47.3654557464
 10
117.5538810588
 20
47.3533297807
 10
117.5450190134
 20
47.3410160475
 10
117.5361668819
 20
47.3285239131
 10
117.5273006376
 20
47.3158691704
 10
117.5184393492
 20
47.3030666554
 10
117.5096413125
 20
47.2901248818
 10
117.5009491479
 20
47.2770530958
  0
LWPOLYLINE
  5
30E
100
AcDbEntity
  8
RACCORDO
100
AcDbPolyline
 62
253
  6
CONTINUOUS
 90
16
 70
0
 10
141.5650931555
 20
84.3652925811
 10
141.5157068673
 20
84.3140692987
 10
141.4671028509
 20
84.2560591768
 10
141.4197787586
 20
84.1918561786
 10
141.3742191377
 20
84.1221176755
 10
141.3308904691
 20
84.047557717
 10
141.2902363911
 20
83.968939719
 10
141.2526731571
 20
83.8870686473
 10
141.218585374
 20
83.8027827759
 10
141.1883220636
 20
83.7169451035
 10
141.1621930893
 20
83.6304345178
 10
141.1404659836
 20
83.5441367961
 10
141.1233632083
 20
83.4589355365
 10
141.1110598775
 20
83.3757031101
 10
141.1036819638
 20
83.2952917293
 10
141.1013050093
 20
83.2185247219
  0
LINE
  5
30F
100
AcDbEntity
  8
RACCORDO
100
AcDbLine
 62
7
  6
CONTINUOUS
 10
160.81488587
 20
104.6848193123
 11
160.478978814
 21
104.3841015258
  0
LWPOLYLINE
  5
310
100
AcDbEntity
  8
RACCORDO
100
AcDbPolyline
 62
7
  6
CONTINUOUS
 90
20
 70
0
 10
125.7910111825
 20
74.5034963109
 10
125.8368502316
 20
74.5442244886
 10
125.8956765315
 20
74.6069343188
 10
125.9452156581
 20
74.6729787329
 10
125.9858655021
 20
74.7419215782
 10
126.0181549462
 20
74.8142089811
 10
126.0417139252
 20
74.8890586036
 10
126.0562680196
 20
74.9654181396
 10
126.0618004259
 20
75.0432964055
 10
126.0580592939
 20
75.1218048487
 10
126.0449584263
 20
75.1996635829
 10
126.0224412288
 20
75.2762680096
 10
125.9906322822
 20
75.3506323038
 10
125.9498927345
 20
75.4216952728
 10
125.9003788011
 20
75.488955001
 10
125.8420417631
 20
75.5520391314
 10
125.7755395517
 20
75.6099689393
 10
125.7018823542
 20
75.6618729413
 10
125.6214887348
 20
75.7074907238
 10
125.5368696827
 20
75.7457928716
  0
LWPOLYLINE
  5
311
100
AcDbEntity
  8
RACCORDO
100
AcDbPolyline
 62
253
  6
CONTINUOUS
 90
12
 70
0
 10
125.4778091849
 20
75.2927829921
 10
125.5019153791
 20
75.3137964969
 10
125.5224743301
 20
75.3356228648
 10
125.5394860378
 20
75.3582620959
 10
125.5530422847
 20
75.3818861549
 10
125.5630512882
 20
75.4063230772
 10
125.5692377012
 20
75.4310569685
 10
125.5715240262
 20
75.456122146
 10
125.5699877607
 20
75.4814842926
 10
125.5645860493
 20
75.5065245632
 10
125.5551998819
 20
75.5312371217
 10
125.5419482686
 20
75.5556278043
  0
LWPOLYLINE
  5
312
100
AcDbEntity
  8
RACCORDO
100
AcDbPolyline
 62
7
  6
CONTINUOUS
 90
26
 70
0
 10
118.9981052121
 20
66.7028846833
 10
119.0413673753
 20
66.7405776585
 10
119.1152952281
 20
66.8048896757
 10
119.1873020557
 20
66.8674436897
 10
119.2573902493
 20
66.9282421818
 10
119.3255574179
 20
66.9872826707
 10
119.3919101262
 20
67.044671553
 10
119.4564478152
 20
67.1004087278
 10
119.5191710441
 20
67.154494296
 10
119.5801880552
 20
67.2070349557
 10
119.6394987321
 20
67.2580309917
 10
119.6971031912
 20
67.3074821193
 10
119.7531100249
 20
67.3554941828
 10
119.8075191562
 20
67.402067505
 10
119.8603306619
 20
67.4472017631
 10
119.911653365
 20
67.4910018333
 10
119.9614872208
 20
67.5334680729
 10
120.0098322741
 20
67.5746001246
 10
120.0567974814
 20
67.6145017925
 10
120.1023828226
 20
67.6531734634
 10
120.1465883179
 20
67.6906147504
 10
120.1895229855
 20
67.7269282968
 10
120.231186822
 20
67.7621145138
 10
120.2715798307
 20
67.7961729901
 10
120.3108110406
 20
67.8292051355
 10
120.348880459
 20
67.8612113804
  0
LWPOLYLINE
  5
313
100
AcDbEntity
  8
RACCORDO
100
AcDbPolyline
 62
253
  6
CONTINUOUS
 90
19
 70
0
 10
125.7910111825
 20
74.5034963109
 10
125.7976734759
 20
74.5092692407
 10
125.8269748923
 20
74.541404209
 10
125.85029985
 20
74.5794537123
 10
125.867249225
 20
74.6227666682
 10
125.8775329888
 20
74.670601929
 10
125.8809751714
 20
74.7221409636
 10
125.8775168718
 20
74.7765018642
 10
125.8672172668
 20
74.8327544366
 10
125.8502525975
 20
74.8899361174
 10
125.8269131541
 20
74.9470684447
 10
125.7975983084
 20
75.0031738013
 10
125.76280968
 20
75.0572921427
 10
125.723142553
 20
75.1084974253
 10
125.6792756898
 20
75.155913452
 10
125.6319597163
 20
75.1987288656
 10
125.5820042777
 20
75.2362110319
 10
125.5302641845
 20
75.2677185766
 10
125.477624785
 20
75.2927123598
  0
LWPOLYLINE
  5
314
100
AcDbEntity
  8
RACCORDO
100
AcDbPolyline
 62
7
  6
CONTINUOUS
 90
3
 70
0
 10
120.348880459
 20
67.8612113804
 10
120.4216429058
 20
67.9222449963
 10
120.4564449547
 20
67.9513729313
  0
LINE
  5
315
100
AcDbEntity
  8
RACCORDO
100
AcDbLine
 62
253
  6
CONTINUOUS
 10
161.2213851968
 20
100.5074039511
 11
150.9075800315
 21
91.874615217
  0
LINE
  5
316
100
AcDbEntity
  8
RACCORDO
100
AcDbLine
 62
7
  6
CONTINUOUS
 10
120.4564449547
 20
67.9513729313
 11
120.5229996399
 21
68.0069489489
  0
LINE
  5
317
100
AcDbEntity
  8
RACCORDO
100
AcDbLine
 62
7
  6
CONTINUOUS
 10
120.5229996399
 20
68.0069489489
 11
120.5857790491
 21
68.0592161662
  0
LINE
  5
318
100
AcDbEntity
  8
RACCORDO
100
AcDbLine
 62
7
  6
CONTINUOUS
 10
120.5857790491
 20
68.0592161662
 11
120.6451099009
 21
68.1084663819
  0
LINE
  5
319
100
AcDbEntity
  8
RACCORDO
100
AcDbLine
 62
7
  6
CONTINUOUS
 10
120.6451099009
 20
68.1084663819
 11
120.7012099601
 21
68.1548930322
  0
LINE
  5
31A
100
AcDbEntity
  8
RACCORDO
100
AcDbLine
 62
7
  6
CONTINUOUS
 10
120.7012099601
 20
68.1548930322
 11
120.7544058077
 21
68.1987846599
  0
LINE
  5
31B
100
AcDbEntity
  8
RACCORDO
100
AcDbLine
 62
7
  6
CONTINUOUS
 10
118.9981052121
 20
68.9088774838
 11
125.7910111825
 21
74.5034963109
  0
LINE
  5
31C
100
AcDbEntity
  8
RACCORDO
100
AcDbLine
 62
7
  6
CONTINUOUS
 10
120.7544058077
 20
68.1987846599
 11
120.8050238006
 21
68.2404246044
  0
LINE
  5
31D
100
AcDbEntity
  8
RACCORDO
100
AcDbLine
 62
253
  6
CONTINUOUS
 10
118.9981052121
 20
66.5187135343
 11
122.74928471
 21
69.601953995
  0
LINE
  5
31E
100
AcDbEntity
  8
RACCORDO
100
AcDbLine
 62
7
  6
CONTINUOUS
 10
120.8050238006
 20
68.2404246044
 11
120.8532814605
 21
68.280000617
  0
LINE
  5
31F
100
AcDbEntity
  8
RACCORDO
100
AcDbLine
 62
7
  6
CONTINUOUS
 10
120.8532814605
 20
68.280000617
 11
120.8995049984
 21
68.3177926638
  0
LINE
  5
320
100
AcDbEntity
  8
RACCORDO
100
AcDbLine
 62
7
  6
CONTINUOUS
 10
120.8995049984
 20
68.3177926638
 11
120.9280442923
 21
68.3410669713
  0
LINE
  5
321
100
AcDbEntity
  8
RACCORDO
100
AcDbLine
 62
7
  6
CONTINUOUS
 10
122.447910786
 20
69.579250953
 11
120.928044281
 21
68.3410666979
  0
LINE
  5
322
100
AcDbEntity
  8
RACCORDO
100
AcDbLine
 62
253
  6
CONTINUOUS
 10
141.5650919921
 20
84.3653234621
 11
150.9075800315
 21
91.874615217
  0
LINE
  5
323
100
AcDbEntity
  8
RACCORDO
100
AcDbLine
 62
253
  6
CONTINUOUS
 10
118.9981052121
 20
70.1620619634
 11
125.4778091849
 21
75.2927829921
  0
LWPOLYLINE
  5
324
100
AcDbEntity
  8
RACCORDO
100
AcDbPolyline
 62
7
  6
CONTINUOUS
 90
31
 70
0
 10
160.478978814
 20
104.3841015258
 10
160.1122319972
 20
104.0944756482
 10
159.7149179564
 20
103.815843984
 10
159.2905324626
 20
103.5506572538
 10
158.8388350728
 20
103.2990355415
 10
158.36006623
 20
103.0608587632
 10
157.858443035
 20
102.8382173888
 10
157.3337640503
 20
102.6312502526
 10
156.7862307133
 20
102.4398185203
 10
156.2206644374
 20
102.2655961579
 10
155.6369085287
 20
102.1087365803
 10
155.035119681
 20
101.9690863727
 10
154.4205893887
 20
101.8478592566
 10
153.7932089137
 20
101.7452185366
 10
153.153086994
 20
101.6610009083
 10
152.5058413385
 20
101.5959301794
 10
151.8514141006
 20
101.5501749873
 10
151.1898631268
 20
101.5235666947
 10
150.5269796648
 20
101.5163231978
 10
149.8627561214
 20
101.5286138353
 10
149.1972000899
 20
101.5602692686
 10
148.5361255979
 20
101.6109993782
 10
147.8795754342
 20
101.6809699726
 10
147.2275068101
 20
101.7700152434
 10
146.585605387
 20
101.8773476457
 10
145.9539628315
 20
102.0031251265
 10
145.332487477
 20
102.1471897389
 10
144.7265899852
 20
102.3082800975
 10
144.13807391
 20
102.4859757405
 10
143.5651356974
 20
102.6806971296
 10
143.0077753476
 20
102.8924442649
  0
LWPOLYLINE
  5
325
100
AcDbEntity
  8
RACCORDO
100
AcDbPolyline
 62
253
  6
CONTINUOUS
 90
11
 70
0
 10
118.6933302332
 20
86.912601644
 10
118.6562668913
 20
86.8994335516
 10
118.6201394143
 20
86.8915040482
 10
118.5851990221
 20
86.8888128063
 10
118.5521993743
 20
86.8913588432
 10
118.5211687879
 20
86.8992245322
 10
118.492078946
 20
86.9123275
 10
118.465598557
 20
86.9304196439
 10
118.4419505238
 20
86.953418263
 10
118.4209119437
 20
86.9814060581
 10
118.4024828165
 20
87.0143830293
  0
LWPOLYLINE
  5
326
100
AcDbEntity
  8
DRAFT
100
AcDbPolyline
 62
7
  6
CONTINUOUS
 90
40
 70
0
 10
141.3926295017
 20
113.5097752073
 10
142.2726093554
 20
113.2744793415
 10
143.1738569538
 20
113.0641110588
 10
144.0904600173
 20
112.8800831163
 10
145.0232131716
 20
112.7224933943
 10
145.9713217911
 20
112.5912440126
 10
146.9264897197
 20
112.4874540874
 10
147.8878008546
 20
112.4113973577
 10
148.8561712986
 20
112.3628000846
 10
149.8260532041
 20
112.341960168
 10
150.7986474648
 20
112.3490914676
 10
151.7727531871
 20
112.3839801237
 10
152.7392198431
 20
112.4462824572
 10
153.6966626495
 20
112.5360865953
 10
154.6464663896
 20
112.6533044108
 10
155.5836348861
 20
112.797327844
 10
156.5094479745
 20
112.9685941755
 10
157.4226258194
 20
113.1666661246
 10
158.3143327361
 20
113.3896237895
 10
159.183080533
 20
113.6372969788
 10
160.0303574019
 20
113.9098558838
 10
160.8517922332
 20
114.2058911766
 10
161.6483936316
 20
114.5260282569
 10
162.4191529925
 20
114.8696417251
 10
163.1566733924
 20
115.2334460545
 10
163.8596995438
 20
115.6170825325
 10
164.5294867342
 20
116.0209098719
 10
165.1624039018
 20
116.4427186836
 10
165.7589514488
 20
116.883160836
 10
166.318628973
 20
117.3415844608
 10
166.8363042063
 20
117.8138245639
 10
167.3111351053
 20
118.2995139929
 10
167.7439637134
 20
118.7990199002
 10
168.1321838935
 20
119.3092787482
 10
168.4757702629
 20
119.8307327754
 10
168.7747482044
 20
120.3629397432
 10
169.0265877287
 20
120.9015093981
 10
169.230445506
 20
121.4449783223
 10
169.3871648662
 20
121.9948099336
 10
169.4967458092
 20
122.551004232
  0
LWPOLYLINE
  5
327
100
AcDbEntity
  8
RACCORDO
100
AcDbPolyline
 62
253
  6
CONTINUOUS
 90
16
 70
0
 10
162.0394146217
 20
99.3608354672
 10
162.0376750814
 20
99.4505066131
 10
162.0266954868
 20
99.5425172613
 10
162.0065957139
 20
99.6358628334
 10
161.9775952134
 20
99.7295241762
 10
161.9400106148
 20
99.8224786886
 10
161.8942522692
 20
99.913711487
 10
161.8408197694
 20
100.0022264855
 10
161.780296495
 20
100.0870572714
 10
161.7133432432
 20
100.1672776564
 10
161.6406910142
 20
100.2420117888
 10
161.5631330299
 20
100.3104437164
 10
161.4815160737
 20
100.3718262948
 10
161.3967312451
 20
100.4254893447
 10
161.3097042305
 20
100.4708469693
 10
161.2213851968
 20
100.5074039511
  0
LWPOLYLINE
  5
328
100
AcDbEntity
  8
RACCORDO
100
AcDbPolyline
 62
7
  6
CONTINUOUS
 90
9
 70
0
 10
164.7754673259
 20
104.4493554718
 10
164.7740566559
 20
104.5824076059
 10
164.7431778961
 20
105.0720989935
 10
164.6715905913
 20
105.5631849148
 10
164.5591410896
 20
106.0534665615
 10
164.4057781352
 20
106.541455208
 10
164.2115815349
 20
107.025997057
 10
163.9768604208
 20
107.505633641
 10
163.9358106601
 20
107.5763203905
  0
LINE
  5
329
100
AcDbEntity
  8
RACCORDO
100
AcDbLine
 62
253
  6
CONTINUOUS
 10
161.7088584125
 20
170.6948618255
 11
161.7088584125
 21
170.8006292078
  0
LINE
  5
32A
100
AcDbEntity
  8
RACCORDO
100
AcDbLine
 62
253
  6
CONTINUOUS
 10
162.0394146217
 20
51.059114001
 11
162.0394146217
 21
99.3608354672
  0
LINE
  5
32B
100
AcDbEntity
  8
ASSI
100
AcDbLine
 62
7
  6
CONTINUOUS
 10
164.7754702206
 20
56.9125483828
 11
164.7754702206
 21
104.4542139212
  0
LINE
  5
32C
100
AcDbEntity
  8
RACCORDO
100
AcDbLine
 62
7
  6
CONTINUOUS
 10
164.7754695136
 20
56.9095201279
 11
164.7754702198
 21
56.9124766034
  0
LINE
  5
32D
100
AcDbEntity
  8
RACCORDO
100
AcDbLine
 62
7
  6
CONTINUOUS
 10
164.7754693907
 20
104.4503135037
 11
164.7754689258
 21
104.4495777505
  0
LINE
  5
32E
100
AcDbEntity
  8
DRAFT
100
AcDbLine
 62
7
  6
CONTINUOUS
 10
166.6022793865
 20
174.8090850023
 11
166.5935822121
 21
174.0903705429
  0
LWPOLYLINE
  5
32F
100
AcDbEntity
  8
RACCORDO
100
AcDbPolyline
 62
253
  6
CONTINUOUS
 90
7
 70
0
 10
162.0394146217
 20
51.059114001
 10
162.0376750758
 20
50.9780668362
 10
162.0266954607
 20
50.901223101
 10
162.0065956547
 20
50.8294217806
 10
161.9775951106
 20
50.7634468054
 10
161.9400104611
 20
50.7040184958
 10
161.8980595301
 20
50.6555428884
  0
LWPOLYLINE
  5
330
100
AcDbEntity
  8
RACCORDO
100
AcDbPolyline
 62
253
  6
CONTINUOUS
 90
14
 70
0
 10
164.7754689258
 20
104.4495777505
 10
164.7578296748
 20
104.023046974
 10
164.6975744016
 20
103.5509509901
 10
164.5956971007
 20
103.0859777227
 10
164.4550763314
 20
102.6333654744
 10
164.2782309292
 20
102.1939762698
 10
164.0677047731
 20
101.7685868542
 10
163.8287752356
 20
101.3618706265
 10
163.5650062726
 20
100.9741226783
 10
163.2798396068
 20
100.6055191532
 10
162.9803180257
 20
100.2599328146
 10
162.6718340183
 20
99.9382716713
 10
162.3570254581
 20
99.6387607092
 10
162.0394146217
 20
99.3608354672
  0
LINE
  5
331
100
AcDbEntity
  8
RACCORDO
100
AcDbLine
 62
253
  6
CONTINUOUS
 10
168.1128695231
 20
137.0986728774
 11
167.7415463083
 21
134.0157647891
  0
LINE
  5
332
100
AcDbEntity
  8
RACCORDO
100
AcDbLine
 62
253
  6
CONTINUOUS
 10
169.1875253825
 20
136.3458318682
 11
168.8162021675
 21
133.2629237796
  0
LWPOLYLINE
  5
333
100
AcDbEntity
  8
RACCORDO
100
AcDbPolyline
 62
253
  6
CONTINUOUS
 90
13
 70
0
 10
171.9278799246
 20
157.5040891735
 10
171.9414125751
 20
157.6108801736
 10
171.9628225134
 20
157.7211445068
 10
171.9918055668
 20
157.8333156378
 10
172.0279499704
 20
157.9457999414
 10
172.0707422174
 20
158.0569993431
 10
172.1195743546
 20
158.1653340231
 10
172.1737526195
 20
158.2692648608
 10
172.2325072965
 20
158.3673153017
 10
172.2950036528
 20
158.4580923344
 10
172.360353797
 20
158.5403062815
 10
172.4276292939
 20
158.6127891221
 10
172.4958743545
 20
158.674511086
  0
LWPOLYLINE
  5
334
100
AcDbEntity
  8
RACCORDO
100
AcDbPolyline
 62
253
  6
CONTINUOUS
 90
45
 70
0
 10
167.7415463083
 20
134.0157647891
 10
167.6817356247
 20
133.5672158903
 10
167.5845470031
 20
133.0986684963
 10
167.4499804436
 20
132.6101226074
 10
167.2800822838
 20
132.0975613234
 10
167.0728061859
 20
131.5650015444
 10
166.8220131374
 20
131.0244939703
 10
166.5254583836
 20
130.4759179817
 10
166.185386679
 20
129.919394198
 10
165.8023932745
 20
129.3673351778
 10
165.3743027149
 20
128.820246912
 10
164.9032904554
 20
128.2776234098
 10
164.3964781118
 20
127.7503592567
 10
163.854124413
 20
127.2405304508
 10
163.2759706301
 20
126.7460609942
 10
162.6683621922
 20
126.2716174784
 10
162.0322961814
 20
125.8182247823
 10
161.3667755155
 20
125.3848580271
 10
160.6751543782
 20
124.9731091688
 10
159.95690613
 20
124.582681344
 10
159.2125574102
 20
124.2138714161
 10
158.4470423202
 20
123.8691619316
 10
157.6597895243
 20
123.5485695424
 10
156.8513703582
 20
123.2520775965
 10
156.0284329293
 20
122.9821186848
 10
155.1910380194
 20
122.739009801
 10
154.3391248469
 20
122.5224339513
 10
153.4791591741
 20
122.3338727456
 10
152.6112260232
 20
122.1735605129
 10
151.7352403721
 20
122.0412629241
 10
150.8574129165
 20
121.9377586023
 10
149.9777297183
 20
121.8632361506
 10
149.0962047155
 20
121.8175069659
 10
148.2190904179
 20
121.8007838621
 10
147.3463908904
 20
121.8132679328
 10
146.4781020681
 20
121.8547580843
 10
145.6204642659
 20
121.9248638504
 10
144.7735937953
 20
122.023780228
 10
143.9373743448
 20
122.1513122201
 10
143.1176972953
 20
122.3064843685
 10
142.3146804998
 20
122.4894809902
 10
141.5282061052
 20
122.7001177682
 10
140.7638119332
 20
122.9368662935
 10
140.0216606211
 20
123.1998930317
 10
139.3015895316
 20
123.4890315172
  0
LWPOLYLINE
  5
335
100
AcDbEntity
  8
RACCORDO
100
AcDbPolyline
 62
253
  6
CONTINUOUS
 90
65
 70
0
 10
168.8162021675
 20
133.2629237796
 10
168.7460399937
 20
132.7946114277
 10
168.6443890844
 20
132.3032906822
 10
168.507323022
 20
131.7899137442
 10
168.3298322578
 20
131.2528829813
 10
168.1084600001
 20
130.6963857092
 10
167.8431354394
 20
130.1301417729
 10
167.5314664911
 20
129.5555958548
 10
167.1710875226
 20
128.9745569775
 10
166.7653712425
 20
128.3968932232
 10
166.3140634362
 20
127.8242492466
 10
165.81675137
 20
127.2580950632
 10
165.2798740232
 20
126.7072279469
 10
164.7066905805
 20
126.1743538985
 10
164.097119347
 20
125.6588069528
 10
163.4544536169
 20
125.1636291254
 10
162.7819301349
 20
124.6905045855
 10
162.0803521038
 20
124.2392027093
 10
161.349451331
 20
123.8098449551
 10
160.5904338151
 20
123.4029141785
 10
159.8057466129
 20
123.0194910623
 10
158.9967615516
 20
122.660741595
 10
158.1649956021
 20
122.327190507
 10
157.3128874201
 20
122.0196335284
 10
156.443290163
 20
121.7395413311
 10
155.5585815832
 20
121.487436807
 10
154.6607532646
 20
121.2635940543
 10
153.7521950469
 20
121.0689382823
 10
152.8352934795
 20
120.9037502923
 10
151.9121749468
 20
120.7681363698
 10
150.9848682633
 20
120.6626686616
 10
150.0556231751
 20
120.5874285816
 10
149.1267252099
 20
120.5423801544
 10
148.200257311
 20
120.5278572614
 10
147.278430472
 20
120.5437688017
 10
146.3635204982
 20
120.5898958264
 10
145.4576908025
 20
120.6663041032
 10
144.5631666906
 20
120.7727133354
 10
143.6820692501
 20
120.9087210741
 10
142.8163705336
 20
121.0741346891
 10
141.9681602509
 20
121.2685090956
 10
141.1394796015
 20
121.4912733262
 10
140.3321803482
 20
121.7419833394
 10
139.5482291869
 20
122.020028628
 10
138.7895000934
 20
122.3246876282
 10
138.057648767
 20
122.6552955409
 10
137.3544449181
 20
123.0111107812
 10
136.6816151928
 20
123.391260775
 10
136.0406814579
 20
123.7948349992
 10
135.4332239521
 20
124.2209502174
 10
134.8607404185
 20
124.6686109676
 10
134.3245427391
 20
125.1366913736
 10
133.8259600433
 20
125.624208493
 10
133.3662689411
 20
126.1300364045
 10
132.946591377
 20
126.6527901598
 10
132.5680178105
 20
127.191337043
 10
132.2315009734
 20
127.744497691
 10
131.9378367836
 20
128.310782013
 10
131.6878239273
 20
128.888987222
 10
131.4821409085
 20
129.4778562343
 10
131.3213013822
 20
130.0757964876
 10
131.2057968125
 20
130.6816501939
 10
131.1360458154
 20
131.294010458
 10
131.1122936815
 20
131.9108955944
 10
131.1290748149
 20
132.4489062881
  0
LINE
  5
336
100
AcDbEntity
  8
0
100
AcDbLine
 62
7
  6
CONTINUOUS
 10
170.0177515751
 20
125.871280636
 11
169.9460992792
 21
125.4969694761
  0
LWPOLYLINE
  5
337
100
AcDbEntity
  8
RACCORDO
100
AcDbPolyline
 62
7
  6
CONTINUOUS
 90
7
 70
0
 10
162.0973826861
 20
106.5570954065
 10
162.0064530284
 20
106.3231395584
 10
161.8361798362
 20
105.9813145041
 10
161.6308726851
 20
105.644778908
 10
161.3923201498
 20
105.3164937173
 10
161.120225702
 20
104.9965313121
 10
160.81488587
 20
104.6848193123
  0
LINE
  5
338
100
AcDbEntity
  8
RACCORDO
100
AcDbLine
 62
253
  6
CONTINUOUS
 10
163.4297863907
 20
103.3913470513
 11
163.2316199617
 21
102.9556958284
  0
LWPOLYLINE
  5
339
100
AcDbEntity
  8
RACCORDO
100
AcDbPolyline
 62
253
  6
CONTINUOUS
 90
3
 70
0
 10
163.2316199617
 20
102.9556958284
 10
163.0050740717
 20
102.5395731956
 10
162.7487335119
 20
102.1437389169
  0
LWPOLYLINE
  5
33A
100
AcDbEntity
  8
RACCORDO
100
AcDbPolyline
 62
253
  6
CONTINUOUS
 90
6
 70
0
 10
162.7487335119
 20
102.1437389169
 10
162.4640134911
 20
101.7674332284
 10
162.1672818637
 20
101.4151931822
 10
161.8639945813
 20
101.0885311294
 10
161.5486956924
 20
100.785934719
 10
161.2213851968
 20
100.5074039511
  0
LWPOLYLINE
  5
33B
100
AcDbEntity
  8
RACCORDO
100
AcDbPolyline
 62
7
  6
CONTINUOUS
 90
20
 70
0
 10
127.2290190063
 20
67.1686502955
 10
127.2833187996
 20
67.2176400881
 10
127.3411269924
 20
67.2813605826
 10
127.3890749769
 20
67.3478392147
 10
127.4277781361
 20
67.416606915
 10
127.4579553674
 20
67.4881731459
 10
127.4793755925
 20
67.5617035525
 10
127.4919438775
 20
67.6361813345
 10
127.4957662516
 20
67.7118573941
 10
127.4906547486
 20
67.787875286
 10
127.4765851782
 20
67.8630348526
 10
127.4534419869
 20
67.9370720651
 10
127.4211948362
 20
68.0092469459
 10
127.3801644399
 20
68.0783620594
 10
127.3305944027
 20
68.14371437
 10
127.272590458
 20
68.2048254516
 10
127.2066387299
 20
68.2609875755
 10
127.1333006365
 20
68.3116159658
 10
127.0527719195
 20
68.3564086477
 10
126.9752806905
 20
68.3911239618
  0
LINE
  5
33C
100
AcDbEntity
  8
RACCORDO
100
AcDbLine
 62
253
  6
CONTINUOUS
 10
162.0394146217
 20
99.3608354672
 11
151.7256094563
 21
90.7280467331
  0
LINE
  5
33D
100
AcDbEntity
  8
RACCORDO
100
AcDbLine
 62
7
  6
CONTINUOUS
 10
118.9981052121
 20
60.3896962232
 11
127.2290346643
 21
67.1686316312
  0
LINE
  5
33E
100
AcDbEntity
  8
RACCORDO
100
AcDbLine
 62
253
  6
CONTINUOUS
 10
142.3852298876
 20
83.2204497217
 11
151.7256094563
 21
90.7280467331
  0
LINE
  5
33F
100
AcDbEntity
  8
RACCORDO
100
AcDbLine
 62
253
  6
CONTINUOUS
 10
126.9295119761
 20
67.9230804839
 11
118.9981052121
 21
61.6428807028
  0
LWPOLYLINE
  5
340
100
AcDbEntity
  8
RACCORDO
100
AcDbPolyline
 62
253
  6
CONTINUOUS
 90
19
 70
0
 10
122.74928471
 20
69.601953995
 10
122.7771409345
 20
69.6227886164
 10
122.8076399551
 20
69.6419229864
 10
122.8407817718
 20
69.6593571051
 10
122.8768302578
 20
69.6752023267
 10
122.91552154
 20
69.689347297
 10
122.9560639989
 20
69.7014579527
 10
122.9985454958
 20
69.7115032018
 10
123.0428781694
 20
69.7195141364
 10
123.0880068166
 20
69.7252499692
 10
123.1339624147
 20
69.7286419761
 10
123.1807139864
 20
69.7297588811
 10
123.2271133963
 20
69.7285660688
 10
123.273168529
 20
69.7249909254
 10
123.3188714999
 20
69.7191060647
 10
123.3630505202
 20
69.7110947127
 10
123.4053149936
 20
69.7010179448
 10
123.4460555164
 20
69.6888146858
 10
123.4852720887
 20
69.6744849355
  0
LWPOLYLINE
  5
341
100
AcDbEntity
  8
RACCORDO
100
AcDbPolyline
 62
253
  6
CONTINUOUS
 90
7
 70
0
 10
123.4852720887
 20
69.6744849355
 10
123.5201550726
 20
69.699375495
 10
123.5544080975
 20
69.7173145483
 10
123.5874515691
 20
69.7279985493
 10
123.6187263604
 20
69.7312467143
 10
123.6477032718
 20
69.7270040814
 10
123.6576444003
 20
69.723585713
  0
LWPOLYLINE
  5
342
100
AcDbEntity
  8
RACCORDO
100
AcDbPolyline
 62
253
  6
CONTINUOUS
 90
13
 70
0
 10
142.3852298876
 20
83.2204497217
 10
142.3114563173
 20
83.1726941338
 10
142.2279749662
 20
83.1305235123
 10
142.1360612083
 20
83.0945821128
 10
142.0371192424
 20
83.0654190246
 10
141.9326606398
 20
83.0434797825
 10
141.824281251
 20
83.0290995594
 10
141.7136368263
 20
83.0224980468
 10
141.6024177193
 20
83.0237760986
 10
141.4923230634
 20
83.0329141894
 10
141.3850348133
 20
83.0497727135
 10
141.2821920494
 20
83.0740941173
 10
141.1853659366
 20
83.1055068341
  0
LWPOLYLINE
  5
343
100
AcDbEntity
  8
RACCORDO
100
AcDbPolyline
 62
253
  6
CONTINUOUS
 90
22
 70
0
 10
139.3015895316
 20
123.4890315172
 10
138.6086485739
 20
123.8022539439
 10
137.9430012439
 20
124.1397264077
 10
137.3044840458
 20
124.5012828127
 10
136.6976564017
 20
124.8843970646
 10
136.1227263033
 20
125.28921726
 10
135.5794857589
 20
125.7155953023
 10
135.0718702153
 20
126.1605608081
 10
134.6001033525
 20
126.6242656923
 10
134.1639614906
 20
127.1065580399
 10
133.7667090368
 20
127.6040117224
 10
133.4086271507
 20
128.1167166632
 10
133.0894346728
 20
128.6445829388
 10
132.8115525319
 20
129.1839146501
 10
132.5752522438
 20
129.7347855437
 10
132.3802622927
 20
130.297121873
 10
132.2281890599
 20
130.867006499
 10
132.1193250138
 20
131.4445900339
 10
132.053377686
 20
132.0297218654
 10
132.0310760526
 20
132.6180330179
 10
132.0528396408
 20
133.2096973937
 10
132.1182489235
 20
133.8045410904
  0
LWPOLYLINE
  5
344
100
AcDbEntity
  8
RACCORDO
100
AcDbPolyline
 62
253
  6
CONTINUOUS
 90
10
 70
0
 10
163.4122915952
 20
107.2549604437
 10
163.4404562869
 20
107.1906644511
 10
163.603324509
 20
106.7084476843
 10
163.7178420321
 20
106.223632303
 10
163.7849025268
 20
105.7367428419
 10
163.8053129847
 20
105.2542580575
 10
163.7772929542
 20
104.7755683453
 10
163.7026228869
 20
104.3012833098
 10
163.5874511303
 20
103.8397105201
 10
163.4297863907
 20
103.3913470513
  0
LINE
  5
345
100
AcDbEntity
  8
RACCORDO
100
AcDbLine
 62
253
  6
CONTINUOUS
 10
169.4967458092
 20
122.551004232
 11
168.8162021675
 21
133.2629237796
  0
LINE
  5
346
100
AcDbEntity
  8
DRAFT
100
AcDbLine
 62
7
  6
CONTINUOUS
 10
168.8933594219
 20
174.9172470137
 11
168.8947509463
 21
174.8369677669
  0
LINE
  5
347
100
AcDbEntity
  8
DRAFT
100
AcDbLine
 62
7
  6
CONTINUOUS
 10
168.0510160324
 20
174.2272397043
 11
168.051433201
 21
174.1461623118
  0
LINE
  5
348
100
AcDbEntity
  8
RACCORDO
100
AcDbLine
 62
253
  6
CONTINUOUS
 10
172.6017390862
 20
129.6819611962
 11
172.1701929114
 21
121.6208883205
  0
LINE
  5
349
100
AcDbEntity
  8
RACCORDO
100
AcDbLine
 62
253
  6
CONTINUOUS
 10
169.4967458092
 20
122.551004232
 11
168.9719299165
 21
114.3429486986
  0
LINE
  5
34A
100
AcDbEntity
  8
RACCORDO
100
AcDbLine
 62
253
  6
CONTINUOUS
 10
169.9460992792
 20
125.4969694761
 11
169.4212833866
 21
117.2889139427
  0
LWPOLYLINE
  5
34B
100
AcDbEntity
  8
RACCORDO
100
AcDbPolyline
 62
253
  6
CONTINUOUS
 90
7
 70
0
 10
172.1880664439
 20
143.0451471202
 10
172.3614999362
 20
145.4588340961
 10
172.5382024226
 20
147.8716418197
 10
172.7181567757
 20
150.2835558214
 10
172.9013456929
 20
152.6945617005
 10
173.0877516965
 20
155.1046451252
 10
173.2773571336
 20
157.5137918329
  0
LWPOLYLINE
  5
34C
100
AcDbEntity
  8
RACCORDO
100
AcDbPolyline
 62
253
  6
CONTINUOUS
 90
7
 70
0
 10
170.8195177469
 20
143.0176611791
 10
170.9961083947
 20
145.4343636647
 10
171.1759537221
 20
147.8501469714
 10
171.3590537292
 20
150.2650110992
 10
171.5454084159
 20
152.6789560481
 10
171.7350177822
 20
155.091981818
 10
171.9278818282
 20
157.504088409
  0
LINE
  5
34D
100
AcDbEntity
  8
RACCORDO
100
AcDbLine
 62
253
  6
CONTINUOUS
 10
168.9656666212
 20
114.2849539698
 11
168.9719299165
 21
114.3429486986
  0
LINE
  5
34E
100
AcDbEntity
  8
RACCORDO
100
AcDbLine
 62
253
  6
CONTINUOUS
 10
169.4150200913
 20
117.230919214
 11
169.4212833866
 21
117.2889139427
  0
LINE
  5
34F
100
AcDbEntity
  8
RACCORDO
100
AcDbLine
 62
7
  6
CONTINUOUS
 10
169.4967458092
 20
122.551004232
 11
169.9455079593
 21
125.4930927781
  0
LINE
  5
350
100
AcDbEntity
  8
0
100
AcDbLine
 62
7
  6
CONTINUOUS
 10
169.4967458092
 20
122.551004232
 11
169.9460992792
 21
125.4969694761
  0
LINE
  5
351
100
AcDbEntity
  8
RACCORDO
100
AcDbLine
 62
253
  6
CONTINUOUS
 10
169.4212833866
 20
117.2889139427
 11
168.9719299165
 21
114.3429486986
  0
LINE
  5
352
100
AcDbEntity
  8
RACCORDO
100
AcDbLine
 62
7
  6
CONTINUOUS
 10
169.4150200913
 20
117.230919214
 11
168.9656666212
 21
114.2849539698
  0
LINE
  5
353
100
AcDbEntity
  8
RACCORDO
100
AcDbLine
 62
253
  6
CONTINUOUS
 10
168.9719299165
 20
114.3429486986
 11
168.9248391003
 21
114.073016243
  0
LWPOLYLINE
  5
354
100
AcDbEntity
  8
RACCORDO
100
AcDbPolyline
 62
7
  6
CONTINUOUS
 90
13
 70
0
 10
169.4150200913
 20
117.230919214
 10
169.485240839
 20
117.593358599
 10
169.5841183059
 20
117.9513321284
 10
169.7107414691
 20
118.3043359948
 10
169.8638518448
 20
118.651215976
 10
170.0426152551
 20
118.9920017796
 10
170.2470847589
 20
119.3278574605
 10
170.4765244818
 20
119.6581404987
 10
170.7300605767
 20
119.9821240854
 10
171.0082322502
 20
120.3007330421
 10
171.3109567578
 20
120.6137746028
 10
171.6370887148
 20
120.9199978037
 10
171.9858507608
 20
121.2187091636
  0
LWPOLYLINE
  5
355
100
AcDbEntity
  8
RACCORDO
100
AcDbPolyline
 62
253
  6
CONTINUOUS
 90
63
 70
0
 10
168.9248391003
 20
114.073016243
 10
168.862080188
 20
113.7875043365
 10
168.7814345975
 20
113.4867772356
 10
168.6804901266
 20
113.171014722
 10
168.556898168
 20
112.841025022
 10
168.4085280111
 20
112.4982369652
 10
168.232957761
 20
112.1433867241
 10
168.0277142999
 20
111.7773116542
 10
167.7907930448
 20
111.4017214199
 10
167.5198181481
 20
111.0176663117
 10
167.2124459872
 20
110.6263557812
 10
166.8670400655
 20
110.2298669875
 10
166.4814706935
 20
109.8295960927
 10
166.053745085
 20
109.4271366823
 10
165.5828976272
 20
109.0249634692
 10
165.0667400586
 20
108.6244108643
 10
164.5043552981
 20
108.2278540605
 10
163.8975999109
 20
107.8392304141
 10
163.2441633099
 20
107.4594729294
 10
162.5452784955
 20
107.0916377811
 10
161.8101291744
 20
106.7419975977
 10
161.0404918716
 20
106.4120881843
 10
160.2372555309
 20
106.1029588732
 10
159.4105281799
 20
105.8186632026
 10
158.5659509527
 20
105.560613872
 10
157.7028491427
 20
105.3280948803
 10
156.8226509798
 20
105.1212186679
 10
155.9283281327
 20
104.9404356628
 10
155.0216278868
 20
104.7858563899
 10
154.1019613678
 20
104.657306287
 10
153.170636623
 20
104.5550708038
 10
152.2308973138
 20
104.4796076215
 10
151.2849798942
 20
104.4311594489
 10
150.3349118262
 20
104.4099116207
 10
149.3834043545
 20
104.416006079
 10
148.4337448546
 20
104.4494501311
 10
147.4885823527
 20
104.5101287876
 10
146.5500254833
 20
104.5978848874
 10
145.6205288954
 20
104.712474047
 10
144.7025249405
 20
104.8535720258
 10
143.7982003453
 20
105.0208180541
 10
142.9096024832
 20
105.2138237146
 10
142.0389132003
 20
105.432118009
 10
141.1883658083
 20
105.6751439783
 10
140.3600327799
 20
105.942313429
 10
139.5559348424
 20
106.2329859454
 10
138.7781629782
 20
106.5464173525
 10
138.0287963143
 20
106.8817697016
 10
137.3097660587
 20
107.2381658795
 10
136.6228054423
 20
107.6147333797
 10
135.9695764953
 20
108.0105564736
 10
135.351748211
 20
108.4246208639
 10
134.7708361274
 20
108.8559077036
 10
134.2281740559
 20
109.303442553
 10
133.7250923767
 20
109.7661708291
 10
133.2629515687
 20
110.2428871447
 10
132.8429941635
 20
110.7323385259
 10
132.466193127
 20
111.2334355734
 10
132.1336288945
 20
111.7447911517
 10
131.846400814
 20
112.264629212
 10
131.6051982452
 20
112.7914246672
 10
131.4103938188
 20
113.324033999
 10
131.2623350464
 20
113.8612109906
  0
LINE
  5
356
100
AcDbEntity
  8
RACCORDO
100
AcDbLine
 62
7
  6
CONTINUOUS
 10
185.1312874389
 20
131.9868210687
 11
185.1342591946
 21
131.9929099674
  0
LWPOLYLINE
  5
357
100
AcDbEntity
  8
RACCORDO
100
AcDbPolyline
 62
253
  6
CONTINUOUS
 90
13
 70
0
 10
118.7710181714
 20
50.8798875598
 10
118.7316447901
 20
50.8456901973
 10
118.6934483405
 20
50.8079971832
 10
118.6564288225
 20
50.7668085173
 10
118.6203358891
 20
50.7217596203
 10
118.5854198874
 20
50.6732150716
 10
118.5524318584
 20
50.6222686092
 10
118.5214003112
 20
50.5688883782
 10
118.4922967367
 20
50.5131062334
 10
118.4657866486
 20
50.4561114769
 10
118.4420918848
 20
50.3983005427
 10
118.4209906074
 20
50.3392769968
 10
118.4024828165
 20
50.2790408391
  0
LWPOLYLINE
  5
358
100
AcDbEntity
  8
RACCORDO
100
AcDbPolyline
 62
253
  6
CONTINUOUS
 90
7
 70
0
 10
126.802837868
 20
68.3420757257
 10
126.8377036088
 20
68.3669673659
 10
126.871946625
 20
68.3849087758
 10
126.9049873315
 20
68.3955951779
 10
126.9362695345
 20
68.3988433915
 10
126.9652603839
 20
68.3945978019
 10
126.9752096002
 20
68.3911767359
  0
LWPOLYLINE
  5
359
100
AcDbEntity
  8
RACCORDO
100
AcDbPolyline
 62
253
  6
CONTINUOUS
 90
7
 70
0
 10
169.1875253825
 20
136.3458318682
 10
169.3134602113
 20
134.5343525318
 10
169.4395532803
 20
132.7239489906
 10
169.5658045897
 20
130.9146212446
 10
169.6922141393
 20
129.1063692939
 10
169.8187819292
 20
127.2991931384
 10
169.9455079593
 20
125.4930927781
  0
LWPOLYLINE
  5
35A
100
AcDbEntity
  8
RACCORDO
100
AcDbPolyline
 62
253
  6
CONTINUOUS
 90
3
 70
0
 10
172.4067182719
 20
133.8510376753
 10
172.5072334523
 20
131.7684859127
 10
172.6081984811
 20
129.6872524227
  0
LWPOLYLINE
  5
35B
100
AcDbEntity
  8
RACCORDO
100
AcDbPolyline
 62
253
  6
CONTINUOUS
 90
5
 70
0
 10
172.009665868
 20
142.1943068843
 10
172.1081270165
 20
140.1065426435
 10
172.2071396452
 20
138.0200721679
 10
172.3066785146
 20
135.9349017809
 10
172.4067182719
 20
133.8510376753
  0
LWPOLYLINE
  5
35C
100
AcDbEntity
  8
RACCORDO
100
AcDbPolyline
 62
7
  6
CONTINUOUS
 90
7
 70
0
 10
130.79516969
 20
51.2485684483
 10
130.786590803
 20
51.240673949
 10
130.7780722374
 20
51.2331756966
 10
130.7696139932
 20
51.2260736914
 10
130.7612160705
 20
51.2193679331
 10
130.7528784692
 20
51.2130584219
 10
130.7446011894
 20
51.2071451577
  0
LINE
  5
35D
100
AcDbEntity
  8
DRAFT
100
AcDbLine
 62
7
  6
CONTINUOUS
 10
121.5416589563
 20
52.8792484509
 11
119.1221055123
 21
50.8540508272
  0
LINE
  5
35E
100
AcDbEntity
  8
DRAFT
100
AcDbLine
 62
7
  6
CONTINUOUS
 10
119.8558837094
 20
50.5543061908
 11
124.1404023703
 21
54.1299893438
  0
LINE
  5
35F
100
AcDbEntity
  8
DRAFT
100
AcDbLine
 62
7
  6
CONTINUOUS
 10
122.8114987633
 20
50.7425447778
 11
121.698975809
 21
49.8140788521
  0
LWPOLYLINE
  5
360
100
AcDbEntity
  8
RACCORDO
100
AcDbPolyline
 62
253
  6
CONTINUOUS
 90
13
 70
0
 10
118.9346240564
 20
50.650573863
 10
118.9058909251
 20
50.6267593582
 10
118.8776598417
 20
50.5999200817
 10
118.8501372178
 20
50.5703126861
 10
118.8235252097
 20
50.5382492376
 10
118.7980064468
 20
50.5039881321
 10
118.7737516995
 20
50.4677127055
 10
118.7509316864
 20
50.4297127622
 10
118.7297166729
 20
50.3903150558
 10
118.7102765749
 20
50.3497543523
 10
118.6927668679
 20
50.3083302246
 10
118.6773183879
 20
50.2664113711
 10
118.6640523253
 20
50.2243424075
  0
LINE
  5
361
100
AcDbEntity
  8
DRAFT
100
AcDbLine
 62
7
  6
CONTINUOUS
 10
124.1404023703
 20
52.7585827044
 11
120.9325229382
 21
50.1219036043
  0
LINE
  5
362
100
AcDbEntity
  8
DRAFT
100
AcDbLine
 62
7
  6
CONTINUOUS
 10
122.7756150378
 20
49.3816762655
 11
122.8114987633
 21
49.4111704753
  0
LINE
  5
363
100
AcDbEntity
  8
RACCORDO
100
AcDbLine
 62
7
  6
CONTINUOUS
 10
126.9877277349
 20
55.2520191614
 11
124.1404023703
 21
52.9196267682
  0
LINE
  5
364
100
AcDbEntity
  8
RACCORDO
100
AcDbLine
 62
253
  6
CONTINUOUS
 10
133.5845786351
 20
62.7906894758
 11
121.5416589563
 21
53.052006673
  0
LINE
  5
365
100
AcDbEntity
  8
RACCORDO
100
AcDbLine
 62
253
  6
CONTINUOUS
 10
133.7483092429
 20
62.5612009646
 11
123.5937242744
 21
54.3495475916
  0
LINE
  5
366
100
AcDbEntity
  8
DRAFT
100
AcDbLine
 62
7
  6
CONTINUOUS
 10
127.8063697631
 20
55.0980715385
 11
124.6516993632
 21
52.5532343051
  0
LINE
  5
367
100
AcDbEntity
  8
DRAFT
100
AcDbLine
 62
7
  6
CONTINUOUS
 10
119.1342207082
 20
50.8467866252
 11
123.5246922675
 21
54.3772724019
  0
LINE
  5
368
100
AcDbEntity
  8
DRAFT
100
AcDbLine
 62
7
  6
CONTINUOUS
 10
122.1157239866
 20
51.021983614
 11
120.9751197247
 21
50.1047957745
  0
LINE
  5
369
100
AcDbEntity
  8
DRAFT
100
AcDbLine
 62
7
  6
CONTINUOUS
 10
122.8182118244
 20
49.3645684358
 11
128.2480575128
 21
53.7308404214
  0
LINE
  5
36A
100
AcDbEntity
  8
RACCORDO
100
AcDbLine
 62
253
  6
CONTINUOUS
 10
118.9981052121
 20
51.0624152585
 11
118.7710181714
 21
50.8798875598
  0
LINE
  5
36B
100
AcDbEntity
  8
RACCORDO
100
AcDbLine
 62
253
  6
CONTINUOUS
 10
119.1617110971
 20
50.8331015617
 11
118.9346240564
 21
50.650573863
  0
LWPOLYLINE
  5
36C
100
AcDbEntity
  8
RACCORDO
100
AcDbPolyline
 62
253
  6
CONTINUOUS
 90
16
 70
0
 10
168.8162021675
 20
133.2629237796
 10
168.8040480578
 20
133.3417922095
 10
168.7808842432
 20
133.4198560051
 10
168.7469702484
 20
133.4962405549
 10
168.7026860401
 20
133.5700900627
 10
168.6485277718
 20
133.6405771322
 10
168.585102227
 20
133.7069120375
 10
168.5131200159
 20
133.7683515768
 10
168.4333876151
 20
133.8242073953
 10
168.3467983357
 20
133.873853696
 10
168.2543223095
 20
133.9167342543
 10
168.1569956204
 20
133.9523686485
 10
168.0559087002
 20
133.9803576411
 10
167.9521941075
 20
134.000387653
 10
167.847013838
 20
134.0122342766
 10
167.7415463083
 20
134.0157647891
  0
LWPOLYLINE
  5
36D
100
AcDbEntity
  8
RACCORDO
100
AcDbPolyline
 62
253
  6
CONTINUOUS
 90
16
 70
0
 10
169.1875253825
 20
136.3458318682
 10
169.1753712837
 20
136.424700249
 10
169.1522074922
 20
136.5027640012
 10
169.1182935302
 20
136.5791485144
 10
169.074009363
 20
136.6529979923
 10
169.019851141
 20
136.7234850405
 10
168.9564256421
 20
136.7898199366
 10
168.8844434723
 20
136.8512594779
 10
168.8047111053
 20
136.9071153086
 10
168.718121846
 20
136.9567616313
 10
168.6256458226
 20
136.9996422188
 10
168.5283191177
 20
137.035276646
 10
168.4272321596
 20
137.0632656718
 10
168.3235175057
 20
137.0832957132
 10
168.2183371539
 20
137.0951423575
 10
168.1128695231
 20
137.0986728774
  0
LINE
  5
36E
100
AcDbEntity
  8
RACCORDO
100
AcDbLine
 62
7
  6
CONTINUOUS
 10
179.6452106353
 20
162.1483644232
 11
179.6481181771
 21
162.0764584727
  0
LWPOLYLINE
  5
36F
100
AcDbEntity
  8
RACCORDO
100
AcDbPolyline
 62
7
  6
CONTINUOUS
 90
3
 70
0
 10
179.6481181771
 20
162.0764584727
 10
179.6452118052
 20
162.1483309468
 10
179.6361335298
 20
162.2217611504
  0
LINE
  5
370
100
AcDbEntity
  8
RACCORDO
100
AcDbLine
 62
7
  6
CONTINUOUS
 10
178.4025425691
 20
163.6944467557
 11
178.4025425691
 21
163.395861762
  0
LINE
  5
371
100
AcDbEntity
  8
RACCORDO
100
AcDbLine
 62
7
  6
CONTINUOUS
 10
179.6481181771
 20
135.4540170333
 11
179.6481181771
 21
162.0764584727
  0
LINE
  5
372
100
AcDbEntity
  8
DRAFT
100
AcDbLine
 62
7
  6
CONTINUOUS
 10
182.028074853
 20
168.6137377765
 11
182.0069568263
 21
167.9000118114
  0
LINE
  5
373
100
AcDbEntity
  8
RACCORDO
100
AcDbLine
 62
7
  6
CONTINUOUS
 10
131.933403665
 20
50.7800880493
 11
131.941982552
 21
50.7879825487
  0
LWPOLYLINE
  5
374
100
AcDbEntity
  8
RACCORDO
100
AcDbPolyline
 62
7
  6
CONTINUOUS
 90
7
 70
0
 10
132.9249650051
 20
50.3931946346
 10
132.9163861181
 20
50.3853001353
 10
132.9078675525
 20
50.377801883
 10
132.8994093084
 20
50.3706998777
 10
132.8910113857
 20
50.3639941194
 10
132.8826737844
 20
50.3576846082
 10
132.8743965045
 20
50.351771344
  0
LINE
  5
375
100
AcDbEntity
  8
RACCORDO
100
AcDbLine
 62
7
  6
CONTINUOUS
 10
134.0631989801
 20
49.9247142356
 11
134.0717778671
 21
49.932608735
  0
LWPOLYLINE
  5
376
100
AcDbEntity
  8
RACCORDO
100
AcDbPolyline
 62
7
  6
CONTINUOUS
 90
7
 70
0
 10
134.8909299114
 20
49.6036188066
 10
134.8823510244
 20
49.5957243073
 10
134.8738324588
 20
49.588226055
 10
134.8653742147
 20
49.5811240497
 10
134.8569762919
 20
49.5744182914
 10
134.8486386907
 20
49.5681087802
 10
134.8403614108
 20
49.562195516
  0
LWPOLYLINE
  5
377
100
AcDbEntity
  8
RACCORDO
100
AcDbPolyline
 62
7
  6
CONTINUOUS
 90
25
 70
0
 10
134.6709819719
 20
49.4234480023
 10
134.6567199795
 20
49.4111196643
 10
134.6426191596
 20
49.3976963664
 10
134.6286795122
 20
49.3831781085
 10
134.6148491552
 20
49.3675012325
 10
134.6011799707
 20
49.3507293965
 10
134.5878276045
 20
49.3330535752
 10
134.5747956779
 20
49.3144634359
 10
134.5620805695
 20
49.2949693112
 10
134.5498270615
 20
49.2747931733
 10
134.5380404301
 20
49.2539272269
 10
134.5267153991
 20
49.2323792673
 10
134.5159809224
 20
49.2103946531
 10
134.50584375
 20
49.1879683933
 10
134.4962971319
 20
49.1651054787
 10
134.4874497719
 20
49.1420662409
 10
134.4793096623
 20
49.1188486644
 10
134.4718688108
 20
49.0954547647
 10
134.4652119435
 20
49.0721509191
 10
134.4593480213
 20
49.0489381571
 10
134.4542680833
 20
49.0258154493
 10
134.4500299729
 20
49.0030460852
 10
134.446652971
 20
48.9807178281
 10
134.4441177967
 20
48.9587429148
 10
134.44242445
 20
48.9371213452
  0
LINE
  5
378
100
AcDbEntity
  8
RACCORDO
100
AcDbLine
 62
7
  6
CONTINUOUS
 10
129.4860116663
 20
50.1996192612
 11
128.5258010786
 21
49.4010934422
  0
LINE
  5
379
100
AcDbEntity
  8
RACCORDO
100
AcDbLine
 62
7
  6
CONTINUOUS
 10
126.9901001385
 20
49.1571642669
 11
125.78748645
 21
48.1720408054
  0
LINE
  5
37A
100
AcDbEntity
  8
RACCORDO
100
AcDbLine
 62
7
  6
CONTINUOUS
 10
130.0378365611
 20
51.6537237878
 11
132.1887481974
 21
53.4156474518
  0
LINE
  5
37B
100
AcDbEntity
  8
RACCORDO
100
AcDbLine
 62
7
  6
CONTINUOUS
 10
129.9254491451
 20
51.536135086
 11
129.7560697062
 21
51.3973875724
  0
LINE
  5
37C
100
AcDbEntity
  8
0
100
AcDbLine
 62
7
  6
CONTINUOUS
 10
128.185762351
 20
49.5376606612
 11
127.7390695439
 21
49.1717513351
  0
LINE
  5
37D
100
AcDbEntity
  8
RACCORDO
100
AcDbLine
 62
7
  6
CONTINUOUS
 10
130.6230967591
 20
51.1076145552
 11
130.7446011894
 21
51.2071451577
  0
LINE
  5
37E
100
AcDbEntity
  8
RACCORDO
100
AcDbLine
 62
7
  6
CONTINUOUS
 10
131.7699096211
 20
50.6470286555
 11
131.8914140514
 21
50.746559258
  0
LINE
  5
37F
100
AcDbEntity
  8
RACCORDO
100
AcDbLine
 62
7
  6
CONTINUOUS
 10
133.8340426454
 20
52.2633937624
 11
132.0852553447
 21
50.83087107
  0
LINE
  5
380
100
AcDbEntity
  8
RACCORDO
100
AcDbLine
 62
7
  6
CONTINUOUS
 10
132.7528920742
 20
50.2522407415
 11
132.8743965045
 21
50.351771344
  0
LINE
  5
381
100
AcDbEntity
  8
RACCORDO
100
AcDbLine
 62
7
  6
CONTINUOUS
 10
132.1343937548
 20
54.5859370769
 11
124.7166388179
 21
48.6021173561
  0
LINE
  5
382
100
AcDbEntity
  8
RACCORDO
100
AcDbLine
 62
7
  6
CONTINUOUS
 10
131.4110708035
 20
54.8764398811
 11
123.9008664668
 21
48.9297499235
  0
LWPOLYLINE
  5
383
100
AcDbEntity
  8
RACCORDO
100
AcDbPolyline
 62
7
  6
CONTINUOUS
 90
10
 70
0
 10
133.8340426454
 20
52.2633937624
 10
133.7894504301
 20
52.2281134504
 10
133.7450583237
 20
52.1954421077
 10
133.700866326
 20
52.1653797342
 10
133.6568086362
 20
52.1378889989
 10
133.6129510552
 20
52.1130072328
 10
133.5694909862
 20
52.0908464289
 10
133.5264942305
 20
52.0714439182
 10
133.4838949869
 20
52.0547623697
 10
133.4416932555
 20
52.0408017835
  0
LWPOLYLINE
  5
384
100
AcDbEntity
  8
RACCORDO
100
AcDbPolyline
 62
7
  6
CONTINUOUS
 90
12
 70
0
 10
132.1887481974
 20
53.4156474518
 10
132.2076369673
 20
53.4302121903
 10
132.2262868359
 20
53.4428659722
 10
132.2446978032
 20
53.4536087974
 10
132.2629464427
 20
53.4624702178
 10
132.2809561808
 20
53.4694206815
 10
132.2984972971
 20
53.4743715329
 10
132.3155637886
 20
53.4772971574
 10
132.3321616583
 20
53.4782231697
 10
132.3480791946
 20
53.4771377581
 10
132.3633076825
 20
53.4740151566
 10
132.3750999038
 20
53.4700295084
  0
LWPOLYLINE
  5
385
100
AcDbEntity
  8
RACCORDO
100
AcDbPolyline
 62
7
  6
CONTINUOUS
 90
12
 70
0
 10
130.6230967591
 20
51.1076145552
 10
130.634430021
 20
51.1163533983
 10
130.6456199422
 20
51.1239456674
 10
130.6566665226
 20
51.1303913626
 10
130.6676157063
 20
51.1357082148
 10
130.6784215491
 20
51.139878493
 10
130.6889462189
 20
51.1428490039
 10
130.6991861138
 20
51.1446043786
 10
130.7091448356
 20
51.1451599859
 10
130.7186953574
 20
51.144508739
 10
130.7278324501
 20
51.1426351781
 10
130.7349077829
 20
51.1402437891
  0
LWPOLYLINE
  5
386
100
AcDbEntity
  8
RACCORDO
100
AcDbPolyline
 62
7
  6
CONTINUOUS
 90
4
 70
0
 10
130.0378365611
 20
51.6537237878
 10
130.0936154748
 20
51.6936992733
 10
130.155047504
 20
51.7289286785
 10
130.2221326486
 20
51.7594120035
  0
LWPOLYLINE
  5
387
100
AcDbEntity
  8
RACCORDO
100
AcDbPolyline
 62
7
  6
CONTINUOUS
 90
8
 70
0
 10
131.4110708035
 20
54.8764398811
 10
131.4476797887
 20
54.9026393211
 10
131.4832052266
 20
54.9228939488
 10
131.5176471173
 20
54.9372037642
 10
131.5514102418
 20
54.9456031577
 10
131.5840898191
 20
54.9480577389
 10
131.614471506
 20
54.9444643363
 10
131.6343263761
 20
54.9381962019
  0
LWPOLYLINE
  5
388
100
AcDbEntity
  8
RACCORDO
100
AcDbPolyline
 62
7
  6
CONTINUOUS
 90
7
 70
0
 10
129.9254491451
 20
51.536135086
 10
129.9337264249
 20
51.5420483502
 10
129.9420640262
 20
51.5483578614
 10
129.9504619489
 20
51.5550636197
 10
129.9589201931
 20
51.562165625
 10
129.9674387587
 20
51.5696638773
 10
129.9760176457
 20
51.5775583767
  0
LINE
  5
389
100
AcDbEntity
  8
DRAFT
100
AcDbLine
 62
7
  6
CONTINUOUS
 10
128.2480575128
 20
53.7308404214
 11
130.4048643405
 21
55.1990129511
  0
LWPOLYLINE
  5
38A
100
AcDbEntity
  8
RACCORDO
100
AcDbPolyline
 62
253
  6
CONTINUOUS
 90
6
 70
0
 10
136.1837160113
 20
64.1456261978
 10
136.1565598941
 20
64.1320225427
 10
135.5042357445
 20
63.7688185977
 10
134.8864265088
 20
63.3864255636
 10
134.301117675
 20
62.9838863526
 10
133.7483092429
 20
62.5612009646
  0
LWPOLYLINE
  5
38B
100
AcDbEntity
  8
RACCORDO
100
AcDbPolyline
 62
253
  6
CONTINUOUS
 90
6
 70
0
 10
136.1837160113
 20
64.4604800993
 10
136.0241250989
 20
64.3805981354
 10
135.3631473978
 20
64.0128426224
 10
134.7349424271
 20
63.6246011832
 10
134.14148151
 20
63.2168568086
 10
133.5845786351
 20
62.7906894758
  0
LWPOLYLINE
  5
38C
100
AcDbEntity
  8
RACCORDO
100
AcDbPolyline
 62
253
  6
CONTINUOUS
 90
16
 70
0
 10
171.3067591481
 20
140.880835396
 10
171.292124611
 20
140.9598379119
 10
171.2685693523
 20
141.0409428037
 10
171.2363445418
 20
141.1232852505
 10
171.1957937922
 20
141.2059872354
 10
171.1473494959
 20
141.2881669079
 10
171.0915282141
 20
141.3689479869
 10
171.0289251687
 20
141.4474691043
 10
170.9602078954
 20
141.5228929903
 10
170.8861091259
 20
141.5944154003
 10
170.8074189749
 20
141.6612736917
 10
170.7249765147
 20
141.7227549549
 10
170.6396608286
 20
141.7782036157
 10
170.552381637
 20
141.8270284254
 10
170.4640695972
 20
141.8687087654
 10
170.3756663799
 20
141.9028001985
  0
LWPOLYLINE
  5
38D
100
AcDbEntity
  8
RACCORDO
100
AcDbPolyline
 62
7
  6
CONTINUOUS
 90
12
 70
0
 10
178.4025415555
 20
163.694426015
 10
178.4063928202
 20
163.6443990071
 10
178.4176780714
 20
163.5950310151
 10
178.4364391818
 20
163.5464382655
 10
178.4626341412
 20
163.4986113186
 10
178.4959029142
 20
163.4524515086
 10
178.5366996778
 20
163.4077871622
 10
178.584570255
 20
163.3647899528
 10
178.6377920797
 20
163.3248762356
 10
178.6957909631
 20
163.2885181289
 10
178.7591410941
 20
163.2552435144
 10
178.8278424725
 20
163.225052392
  0
LWPOLYLINE
  5
38E
100
AcDbEntity
  8
RACCORDO
100
AcDbPolyline
 62
7
  6
CONTINUOUS
 90
6
 70
0
 10
185.1342591946
 20
131.9929099674
 10
185.1342091475
 20
131.9943796628
 10
185.1293291299
 20
132.0051458924
 10
185.1166129755
 20
132.0193150037
 10
185.0961477357
 20
132.0375588684
 10
185.0674536521
 20
132.0600643692
  0
LINE
  5
38F
100
AcDbEntity
  8
DRAFT
100
AcDbLine
 62
7
  6
CONTINUOUS
 10
182.7989418628
 20
167.4766141803
 11
182.7985742301
 21
167.5820804155
  0
LINE
  5
390
100
AcDbEntity
  8
0
100
AcDbLine
 62
7
  6
CONTINUOUS
 10
182.8037236064
 20
169.2491120385
 11
182.8037236064
 21
169.3305311554
  0
LINE
  5
391
100
AcDbEntity
  8
RACCORDO
100
AcDbLine
 62
253
  6
CONTINUOUS
 10
184.982355037
 20
166.9728301053
 11
184.982355037
 21
132.1159971175
  0
LINE
  5
392
100
AcDbEntity
  8
RACCORDO
100
AcDbLine
 62
7
  6
CONTINUOUS
 10
185.1343069409
 20
167.7103936001
 11
185.1343069409
 21
131.9938421433
  0
LWPOLYLINE
  5
393
100
AcDbEntity
  8
RACCORDO
100
AcDbPolyline
 62
7
  6
CONTINUOUS
 90
10
 70
0
 10
185.1343068926
 20
167.7105469527
 10
185.1328370367
 20
167.641618775
 10
185.1270903167
 20
167.5555803962
 10
185.1171858539
 20
167.4697520775
 10
185.1033193941
 20
167.3842407114
 10
185.0857223722
 20
167.2992093414
 10
185.0646019226
 20
167.2153937392
 10
185.0401752114
 20
167.1331042891
 10
185.0126811669
 20
167.0522239175
 10
184.982355037
 20
166.9728301053
  0
LINE
  5
394
100
AcDbEntity
  8
DRAFT
100
AcDbLine
 62
7
  6
CONTINUOUS
 10
133.1671044291
 20
45.2082198554
 11
136.1837160113
 21
47.7257598796
  0
LINE
  5
395
100
AcDbEntity
  8
DRAFT
100
AcDbLine
 62
7
  6
CONTINUOUS
 10
134.5187053022
 20
44.6653864736
 11
136.1837160113
 21
46.0549359687
  0
LINE
  5
396
100
AcDbEntity
  8
RACCORDO
100
AcDbLine
 62
7
  6
CONTINUOUS
 10
136.1837160113
 20
48.008659016
 11
132.9047795676
 21
45.3135754337
  0
LINE
  5
397
100
AcDbEntity
  8
RACCORDO
100
AcDbLine
 62
7
  6
CONTINUOUS
 10
133.8997049362
 20
49.7916548419
 11
134.0212093665
 21
49.8911854443
  0
LINE
  5
398
100
AcDbEntity
  8
RACCORDO
100
AcDbLine
 62
7
  6
CONTINUOUS
 10
135.9638379606
 20
51.4080199487
 11
134.2150506599
 21
49.9754972563
  0
LINE
  5
399
100
AcDbEntity
  8
RACCORDO
100
AcDbLine
 62
7
  6
CONTINUOUS
 10
134.8403614108
 20
49.562195516
 11
134.6709819719
 21
49.4234480023
  0
LINE
  5
39A
100
AcDbEntity
  8
0
100
AcDbLine
 62
7
  6
CONTINUOUS
 10
133.1006746167
 20
47.5637210912
 11
132.6539818097
 21
47.1978117651
  0
LINE
  5
39B
100
AcDbEntity
  8
0
100
AcDbLine
 62
7
  6
CONTINUOUS
 10
133.1337404707
 20
46.6897398044
 11
132.0230477297
 21
45.779913575
  0
LINE
  5
39C
100
AcDbEntity
  8
RACCORDO
100
AcDbLine
 62
7
  6
CONTINUOUS
 10
136.1837160113
 20
48.9443636655
 11
132.0890072165
 21
45.6412080011
  0
LWPOLYLINE
  5
39D
100
AcDbEntity
  8
RACCORDO
100
AcDbPolyline
 62
7
  6
CONTINUOUS
 90
10
 70
0
 10
135.9638379606
 20
51.4080199487
 10
135.9192457453
 20
51.3727396368
 10
135.8748536388
 20
51.340068294
 10
135.8306616412
 20
51.3100059205
 10
135.7866039513
 20
51.2825151852
 10
135.7427463703
 20
51.2576334191
 10
135.6992863014
 20
51.2354726152
 10
135.6562895457
 20
51.2160701045
 10
135.6136903021
 20
51.199388556
 10
135.5714885706
 20
51.1854279698
  0
LWPOLYLINE
  5
39E
100
AcDbEntity
  8
RACCORDO
100
AcDbPolyline
 62
7
  6
CONTINUOUS
 90
12
 70
0
 10
132.7528920742
 20
50.2522407415
 10
132.7642253362
 20
50.2609795846
 10
132.7754152574
 20
50.2685718538
 10
132.7864618377
 20
50.2750175489
 10
132.7974110214
 20
50.2803344011
 10
132.8082168643
 20
50.2845046793
 10
132.8187415341
 20
50.2874751902
 10
132.828981429
 20
50.2892305649
 10
132.8389401508
 20
50.2897861723
 10
132.8484906726
 20
50.2891349253
 10
132.8576277653
 20
50.2872613644
 10
132.8647030981
 20
50.2848699755
  0
LWPOLYLINE
  5
39F
100
AcDbEntity
  8
RACCORDO
100
AcDbPolyline
 62
7
  6
CONTINUOUS
 90
6
 70
0
 10
131.8914140514
 20
50.746559258
 10
131.8996913312
 20
50.7524725222
 10
131.9080289325
 20
50.7587820334
 10
131.9164268552
 20
50.7654877917
 10
131.9248850994
 20
50.772589797
 10
131.933403665
 20
50.7800880493
  0
LWPOLYLINE
  5
3A0
100
AcDbEntity
  8
RACCORDO
100
AcDbPolyline
 62
7
  6
CONTINUOUS
 90
6
 70
0
 10
134.0212093665
 20
49.8911854443
 10
134.0294866464
 20
49.8970987085
 10
134.0378242477
 20
49.9034082197
 10
134.0462221704
 20
49.910113978
 10
134.0546804145
 20
49.9172159833
 10
134.0631989801
 20
49.9247142356
  0
LINE
  5
3A1
100
AcDbEntity
  8
DRAFT
100
AcDbLine
 62
7
  6
CONTINUOUS
 10
136.1837160113
 20
44.7165889658
 11
135.595344531
 21
44.2329838871
  0
LINE
  5
3A2
100
AcDbEntity
  8
DRAFT
100
AcDbLine
 62
7
  6
CONTINUOUS
 10
136.1837160113
 20
44.6547468637
 11
135.6379413175
 21
44.2158760573
  0
LINE
  5
3A3
100
AcDbEntity
  8
RACCORDO
100
AcDbLine
 62
7
  6
CONTINUOUS
 10
130.0155507395
 20
51.5884698219
 11
130.0235364926
 21
51.5917830807
  0
LWPOLYLINE
  5
3A4
100
AcDbEntity
  8
RACCORDO
100
AcDbPolyline
 62
7
  6
CONTINUOUS
 90
7
 70
0
 10
130.8426885369
 20
51.2627931524
 10
130.8347027838
 20
51.2594798936
 10
130.8267434088
 20
51.2565436247
 10
130.818810412
 20
51.2539843457
 10
130.8109037932
 20
51.2518020566
 10
130.8030235525
 20
51.2499967575
 10
130.79516969
 20
51.2485684483
  0
LWPOLYLINE
  5
3A5
100
AcDbEntity
  8
RACCORDO
100
AcDbPolyline
 62
253
  6
CONTINUOUS
 90
16
 70
0
 10
172.0096665456
 20
142.1941928496
 10
171.9539128521
 20
142.2044159618
 10
171.8903886409
 20
142.2179134305
 10
171.8197558024
 20
142.23454192
 10
171.7427505422
 20
142.2541251944
 10
171.6601748537
 20
142.2764561134
 10
171.5728879668
 20
142.30129891
 10
171.4817986382
 20
142.3283913831
 10
171.3878559047
 20
142.3574475832
 10
171.2920382162
 20
142.3881610206
 10
171.1953434913
 20
142.4202077827
 10
171.0987787094
 20
142.4532498636
 10
171.0033494661
 20
142.4869387522
 10
170.9100494854
 20
142.5209191673
 10
170.8198502617
 20
142.5548327729
 10
170.7336909313
 20
142.5883218651
  0
LWPOLYLINE
  5
3A6
100
AcDbEntity
  8
RACCORDO
100
AcDbPolyline
 62
253
  6
CONTINUOUS
 90
16
 70
0
 10
170.8195177469
 20
143.0176611805
 10
170.9063961628
 20
142.9876101401
 10
170.9983179303
 20
142.9615563426
 10
171.0943194684
 20
142.9397728996
 10
171.1933944293
 20
142.9224881582
 10
171.2945042479
 20
142.9098833077
 10
171.3965890292
 20
142.9020904796
 10
171.4985786573
 20
142.899191363
 10
171.5994040143
 20
142.9012163479
 10
171.6980081874
 20
142.9081442068
 10
171.7933575469
 20
142.9199023176
 10
171.8844525827
 20
142.9363674243
 10
171.9703383817
 20
142.9573669292
 10
172.0501146366
 20
142.9826807027
 10
172.1229450834
 20
143.0120433903
 10
172.1880662684
 20
143.0451471942
  0
LINE
  5
3A7
100
AcDbEntity
  8
RACCORDO
100
AcDbLine
 62
253
  6
CONTINUOUS
 10
152.4125083954
 20
149.1172118161
 11
170.3756661113
 21
141.9028027075
  0
LINE
  5
3A8
100
AcDbEntity
  8
RACCORDO
100
AcDbLine
 62
253
  6
CONTINUOUS
 10
152.9445287206
 20
150.1966597543
 11
170.8195177469
 21
143.0176611791
  0
LWPOLYLINE
  5
3A9
100
AcDbEntity
  8
RACCORDO
100
AcDbPolyline
 62
253
  6
CONTINUOUS
 90
12
 70
0
 10
152.841779203
 20
149.775793316
 10
152.7608323986
 20
149.8093129372
 10
152.6856722399
 20
149.8417207101
 10
152.6170824789
 20
149.8726786757
 10
152.5557783242
 20
149.9018639922
 10
152.5023990555
 20
149.9289723061
 10
152.4575013338
 20
149.9537209375
 10
152.4215533053
 20
149.9758518165
 10
152.3949297587
 20
149.995134172
 10
152.3779082688
 20
150.0113669552
 10
152.3706662699
 20
150.0243809157
 10
152.3709389385
 20
150.0302811806
  0
LWPOLYLINE
  5
3AA
100
AcDbEntity
  8
RACCORDO
100
AcDbPolyline
 62
253
  6
CONTINUOUS
 90
10
 70
0
 10
152.4120495371
 20
149.1173959231
 10
152.3319538942
 20
149.1511299585
 10
152.2535679082
 20
149.1765549024
 10
152.177732463
 20
149.193404526
 10
152.1052620758
 20
149.2015046546
 10
152.0369337646
 20
149.2007734276
 10
151.9734786346
 20
149.1912216941
 10
151.9155772163
 20
149.1729550176
 10
151.8638523471
 20
149.1461730711
 10
151.823499122
 20
149.1154397762
  0
LWPOLYLINE
  5
3AB
100
AcDbEntity
  8
RACCORDO
100
AcDbPolyline
 62
253
  6
CONTINUOUS
 90
11
 70
0
 10
152.9445124207
 20
150.1966496751
 10
152.863906602
 20
150.2338643393
 10
152.7901001554
 20
150.2743712519
 10
152.7238668224
 20
150.3177457621
 10
152.6659009525
 20
150.3635331571
 10
152.6168102242
 20
150.4112534291
 10
152.5771092746
 20
150.4604063072
 10
152.5472143038
 20
150.5104765018
 10
152.5274387124
 20
150.5609391068
 10
152.5179898154
 20
150.6112651024
 10
152.5185155654
 20
150.6570930965
  0
LWPOLYLINE
  5
3AC
100
AcDbEntity
  8
RACCORDO
100
AcDbPolyline
 62
7
  6
CONTINUOUS
 90
3
 70
0
 10
185.0674536521
 20
132.0600643692
 10
185.029718329
 20
132.0863227792
 10
179.6481181771
 20
135.4540170333
  0
LINE
  5
3AD
100
AcDbEntity
  8
RACCORDO
100
AcDbLine
 62
7
  6
CONTINUOUS
 10
179.6361500126
 20
162.2216839538
 11
179.6208868608
 21
162.2966486541
  0
LWPOLYLINE
  5
3AE
100
AcDbEntity
  8
RACCORDO
100
AcDbPolyline
 62
7
  6
CONTINUOUS
 90
13
 70
0
 10
161.8980582073
 20
50.6555442129
 10
162.28405847
 20
51.0587270239
 10
162.7186407695
 20
51.5617113098
 10
163.1125767902
 20
52.0756085132
 10
163.4652877419
 20
52.5990226263
 10
163.7765125572
 20
53.1308582098
 10
164.046073847
 20
53.6702731327
 10
164.2736885564
 20
54.2160566994
 10
164.4590287864
 20
54.7667367546
 10
164.6018513717
 20
55.3209370176
 10
164.7020952635
 20
55.8772539315
 10
164.7597946703
 20
56.4340773701
 10
164.7754678723
 20
56.9093335685
  0
LWPOLYLINE
  5
3AF
100
AcDbEntity
  8
RACCORDO
100
AcDbPolyline
 62
253
  6
CONTINUOUS
 90
13
 70
0
 10
162.0394146217
 20
51.059114001
 10
162.3805048778
 20
51.4123884737
 10
162.7177544988
 20
51.7928433514
 10
163.0468370956
 20
52.2011443526
 10
163.3644797366
 20
52.6399528858
 10
163.6640167976
 20
53.1075802836
 10
163.9368968344
 20
53.597616764
 10
164.1789756187
 20
54.1097341949
 10
164.3860116992
 20
54.6434478127
 10
164.551984282
 20
55.1913135796
 10
164.6740455329
 20
55.7521337224
 10
164.7494491
 20
56.324826305
 10
164.7754695136
 20
56.9095201279
  0
LINE
  5
3B0
100
AcDbEntity
  8
RACCORDO
100
AcDbLine
 62
253
  6
CONTINUOUS
 10
151.7256094563
 20
40.7575267926
 11
162.0394146217
 21
51.059114001
  0
LINE
  5
3B1
100
AcDbEntity
  8
RACCORDO
100
AcDbLine
 62
7
  6
CONTINUOUS
 10
151.5734424469
 20
40.3431565701
 11
161.8980541077
 21
50.6555374723
  0
LINE
  5
3B2
100
AcDbEntity
  8
RACCORDO
100
AcDbLine
 62
7
  6
CONTINUOUS
 10
131.9815156458
 20
50.7988939939
 11
131.9895013989
 21
50.8022072527
  0
LWPOLYLINE
  5
3B3
100
AcDbEntity
  8
RACCORDO
100
AcDbPolyline
 62
7
  6
CONTINUOUS
 90
7
 70
0
 10
132.972483852
 20
50.4074193387
 10
132.9644980989
 20
50.4041060799
 10
132.956538724
 20
50.401169811
 10
132.9486057271
 20
50.398610532
 10
132.9406991083
 20
50.396428243
 10
132.9328188677
 20
50.3946229438
 10
132.9249650051
 20
50.3931946346
  0
LINE
  5
3B4
100
AcDbEntity
  8
RACCORDO
100
AcDbLine
 62
7
  6
CONTINUOUS
 10
134.1113109609
 20
49.9435201802
 11
134.119296714
 21
49.946833439
  0
LWPOLYLINE
  5
3B5
100
AcDbEntity
  8
RACCORDO
100
AcDbPolyline
 62
7
  6
CONTINUOUS
 90
7
 70
0
 10
134.9384487583
 20
49.6178435107
 10
134.9304630052
 20
49.6145302519
 10
134.9225036303
 20
49.611593983
 10
134.9145706334
 20
49.609034704
 10
134.9066640146
 20
49.606852415
 10
134.898783774
 20
49.6050471158
 10
134.8909299114
 20
49.6036188066
  0
LWPOLYLINE
  5
3B6
100
AcDbEntity
  8
RACCORDO
100
AcDbPolyline
 62
7
  6
CONTINUOUS
 90
9
 70
0
 10
130.2221326486
 20
51.7594120035
 10
130.2958141517
 20
51.7854134658
 10
130.3751487702
 20
51.8066688479
 10
130.4573067751
 20
51.8223854973
 10
130.5426660191
 20
51.8323612272
 10
130.6308486493
 20
51.8367982245
 10
130.7178913783
 20
51.835510397
 10
130.8033995598
 20
51.8283041541
 10
130.810182529
 20
51.8272645331
  0
LWPOLYLINE
  5
3B7
100
AcDbEntity
  8
RACCORDO
100
AcDbPolyline
 62
7
  6
CONTINUOUS
 90
10
 70
0
 10
132.6225412112
 20
52.3697917118
 10
132.6647429427
 20
52.3837522981
 10
132.7073421862
 20
52.4004338465
 10
132.750338942
 20
52.4198363572
 10
132.7937990109
 20
52.4419971611
 10
132.8376565919
 20
52.4668789272
 10
132.8817142818
 20
52.4943696625
 10
132.9259062794
 20
52.524432036
 10
132.9702983858
 20
52.5571033788
 10
133.0148906011
 20
52.5923836907
  0
LWPOLYLINE
  5
3B8
100
AcDbEntity
  8
RACCORDO
100
AcDbPolyline
 62
7
  6
CONTINUOUS
 90
10
 70
0
 10
134.5885061175
 20
51.5802158838
 10
134.630707849
 20
51.5941764701
 10
134.6733070925
 20
51.6108580185
 10
134.7163038482
 20
51.6302605292
 10
134.7597639172
 20
51.6524213331
 10
134.8036214982
 20
51.6773030992
 10
134.8476791881
 20
51.7047938345
 10
134.8918711857
 20
51.734856208
 10
134.9362632921
 20
51.7675275508
 10
134.9808555074
 20
51.8028078627
  0
LINE
  5
3B9
100
AcDbEntity
  8
RACCORDO
100
AcDbLine
 62
7
  6
CONTINUOUS
 10
132.6225412112
 20
52.3697917118
 11
130.0235364926
 21
51.5917830807
  0
LINE
  5
3BA
100
AcDbEntity
  8
RACCORDO
100
AcDbLine
 62
7
  6
CONTINUOUS
 10
133.4416932555
 20
52.0408017835
 11
130.8426885369
 21
51.2627931524
  0
LINE
  5
3BB
100
AcDbEntity
  8
RACCORDO
100
AcDbLine
 62
7
  6
CONTINUOUS
 10
134.5885061175
 20
51.5802158838
 11
131.9895013989
 21
50.8022072527
  0
LINE
  5
3BC
100
AcDbEntity
  8
RACCORDO
100
AcDbLine
 62
7
  6
CONTINUOUS
 10
135.5714885706
 20
51.1854279698
 11
132.972483852
 21
50.4074193387
  0
LINE
  5
3BD
100
AcDbEntity
  8
RACCORDO
100
AcDbLine
 62
7
  6
CONTINUOUS
 10
136.1837160113
 20
50.56481463
 11
134.119296714
 21
49.946833439
  0
LWPOLYLINE
  5
3BE
100
AcDbEntity
  8
RACCORDO
100
AcDbPolyline
 62
7
  6
CONTINUOUS
 90
15
 70
0
 10
179.6209327992
 20
162.2965174936
 10
179.599271443
 20
162.3737518412
 10
179.5714546661
 20
162.4524667216
 10
179.5383486341
 20
162.5299013102
 10
179.4999347041
 20
162.6055868139
 10
179.4562315191
 20
162.6799920257
 10
179.408161174
 20
162.7517625002
 10
179.3557045324
 20
162.8208726573
 10
179.2988807307
 20
162.887348077
 10
179.2386692728
 20
162.9499110546
 10
179.1746282385
 20
163.0087272644
 10
179.1071995479
 20
163.0636310321
 10
179.0386884655
 20
163.1128476298
 10
178.969863413
 20
163.1557854818
 10
178.8999559687
 20
163.1930361639
  0
LWPOLYLINE
  5
3BF
100
AcDbEntity
  8
RACCORDO
100
AcDbPolyline
 62
253
  6
CONTINUOUS
 90
10
 70
0
 10
136.1457329943
 20
39.8623162679
 10
136.1554885997
 20
39.8677365492
 10
136.1647516089
 20
39.8730643718
 10
136.1734819002
 20
39.8782766569
 10
136.1816416593
 20
39.8833508259
 10
136.189195543
 20
39.8882648987
 10
136.1961108327
 20
39.8929975884
 10
136.2023575755
 20
39.8975283941
 10
136.2079087147
 20
39.9018376889
 10
136.2127402063
 20
39.9059068057
  0
LINE
  5
3C0
100
AcDbEntity
  8
RACCORDO
100
AcDbLine
 62
7
  6
CONTINUOUS
 10
136.1837160113
 20
49.9906126188
 11
134.9384487583
 21
49.6178435107
  0
LINE
  5
3C1
100
AcDbEntity
  8
RACCORDO
100
AcDbLine
 62
253
  6
CONTINUOUS
 10
142.3852298876
 20
34.5507498403
 11
151.7256094563
 21
40.7575267926
  0
LINE
  5
3C2
100
AcDbEntity
  8
RACCORDO
100
AcDbLine
 62
7
  6
CONTINUOUS
 10
151.5041546769
 20
40.2864823572
 11
142.1512228363
 21
34.0713643756
  0
LWPOLYLINE
  5
3C3
100
AcDbEntity
  8
RACCORDO
100
AcDbPolyline
 62
253
  6
CONTINUOUS
 90
13
 70
0
 10
142.3852298876
 20
34.5507498403
 10
142.3114546023
 20
34.5029931156
 10
142.2279714862
 20
34.4608217961
 10
142.1360560923
 20
34.4248800995
 10
142.0371127681
 20
34.3957170542
 10
141.932653215
 20
34.3737781232
 10
141.8242733934
 20
34.3593983966
 10
141.7136291254
 20
34.3527974669
 10
141.6024107521
 20
34.354076077
 10
141.4923173295
 20
34.3632146
 10
141.3850307242
 20
34.3800733422
 10
141.2821899194
 20
34.4043946704
 10
141.1853659366
 20
34.4358069527
  0
LWPOLYLINE
  5
3C4
100
AcDbEntity
  8
RACCORDO
100
AcDbPolyline
 62
253
  6
CONTINUOUS
 90
16
 70
0
 10
171.9278799246
 20
157.5040891735
 10
172.0126694817
 20
157.4727082424
 10
172.1028871959
 20
157.4464391827
 10
172.1973918777
 20
157.424971837
 10
172.2946471409
 20
157.4071511289
 10
172.3936213786
 20
157.3932166463
 10
172.4939042971
 20
157.3847897656
 10
172.5942652131
 20
157.3810008338
 10
172.6932581225
 20
157.3812143474
 10
172.7903569111
 20
157.3871588344
 10
172.8850154846
 20
157.3979763787
 10
172.9754720134
 20
157.4124643156
 10
173.0601976974
 20
157.4318056528
 10
173.1387986711
 20
157.4559492095
 10
173.2112756019
 20
157.4834834126
 10
173.2773334675
 20
157.513774928
  0
LINE
  5
3C5
100
AcDbEntity
  8
RACCORDO
100
AcDbLine
 62
253
  6
CONTINUOUS
 10
154.4597485554
 20
164.5196845412
 11
171.9278818282
 21
157.504088409
  0
LINE
  5
3C6
100
AcDbEntity
  8
RACCORDO
100
AcDbLine
 62
253
  6
CONTINUOUS
 10
155.0277448894
 20
165.690105689
 11
172.495874354
 21
158.6745110862
  0
LWPOLYLINE
  5
3C7
100
AcDbEntity
  8
RACCORDO
100
AcDbPolyline
 62
253
  6
CONTINUOUS
 90
11
 70
0
 10
154.4597504589
 20
164.5196837767
 10
154.3805978845
 20
164.5553743402
 10
154.3079630627
 20
164.5942432664
 10
154.2425775365
 20
164.6358990861
 10
154.1850998374
 20
164.679922262
 10
154.136108853
 20
164.7258694139
 10
154.0960979971
 20
164.7732777843
 10
154.0654702395
 20
164.8216698988
 10
154.0445340484
 20
164.8705583755
 10
154.0335002829
 20
164.9194508332
 10
154.032863562
 20
164.9720038576
  0
LWPOLYLINE
  5
3C8
100
AcDbEntity
  8
RACCORDO
100
AcDbPolyline
 62
253
  6
CONTINUOUS
 90
16
 70
0
 10
172.4958743545
 20
158.674511086
 10
172.5765546885
 20
158.6332043796
 10
172.6563730691
 20
158.5835875147
 10
172.7344767519
 20
158.5261905763
 10
172.8100313113
 20
158.461626768
 10
172.8822295556
 20
158.3905858613
 10
172.9503001504
 20
158.313826826
 10
173.0135158593
 20
158.232169722
 10
173.0712013135
 20
158.146486938
 10
173.1227402267
 20
158.0576938712
 10
173.16758198
 20
157.9667391479
 10
173.2052475036
 20
157.8745944883
 10
173.2353343957
 20
157.7822443257
 10
173.257521221
 20
157.6906752886
 10
173.2715709453
 20
157.6008656605
 10
173.2773334675
 20
157.513774928
  0
LWPOLYLINE
  5
3C9
100
AcDbEntity
  8
RACCORDO
100
AcDbPolyline
 62
7
  6
CONTINUOUS
 90
8
 70
0
 10
159.8468693152
 20
170.7000309079
 10
159.907203227
 20
170.7141716559
 10
159.9714010679
 20
170.7214726156
 10
160.0390056765
 20
170.7221254595
 10
160.1076759941
 20
170.7162093196
 10
160.1766316674
 20
170.7037505733
 10
160.2466530497
 20
170.6847228433
 10
160.3177401408
 20
170.6591261295
  0
LWPOLYLINE
  5
3CA
100
AcDbEntity
  8
RACCORDO
100
AcDbPolyline
 62
253
  6
CONTINUOUS
 90
10
 70
0
 10
155.0277448888
 20
165.6901056892
 10
154.9405712136
 20
165.7172285038
 10
154.8529887035
 20
165.7345986951
 10
154.7666171102
 20
165.7422770894
 10
154.6837449734
 20
165.7409999497
 10
154.6052194348
 20
165.7308114294
 10
154.5305353738
 20
165.710880193
 10
154.4612172413
 20
165.6819673208
 10
154.3986732588
 20
165.6449203364
 10
154.3431934224
 20
165.5999181676
  0
LWPOLYLINE
  5
3CB
100
AcDbEntity
  8
RACCORDO
100
AcDbPolyline
 62
7
  6
CONTINUOUS
 90
8
 70
0
 10
160.3161299318
 20
170.6597720565
 10
160.2451400959
 20
170.6852307814
 10
160.1752326516
 20
170.7041329106
 10
160.1064075991
 20
170.7164784441
 10
160.0378965167
 20
170.7222930367
 10
159.9704678261
 20
170.7215510337
 10
159.9064267918
 20
170.7141754702
 10
159.8462153339
 20
170.6999770505
  0
LWPOLYLINE
  5
3CC
100
AcDbEntity
  8
RACCORDO
100
AcDbPolyline
 62
7
  6
CONTINUOUS
 90
19
 70
0
 10
160.3172546724
 20
170.6593217639
 10
160.3902141669
 20
170.6326186861
 10
160.4663951248
 20
170.6098544697
 10
160.5457975461
 20
170.5910291148
 10
160.6293912883
 20
170.5759946159
 10
160.7162064939
 20
170.5648989785
 10
160.8033335902
 20
170.5581862188
 10
160.8903359861
 20
170.5560424159
 10
160.9776502726
 20
170.5582814907
 10
161.0636766505
 20
170.5647892225
 10
161.148416217
 20
170.575591483
 10
161.2318678748
 20
170.5906624005
 10
161.3124285326
 20
170.6098101397
 10
161.3904163039
 20
170.6333150869
 10
161.4655130752
 20
170.6608968558
 10
161.5351614148
 20
170.6915224518
 10
161.5985088457
 20
170.7248475433
 10
161.6564078449
 20
170.761216462
 10
161.7088584125
 20
170.8006292078
  0
LINE
  5
3CD
100
AcDbEntity
  8
RACCORDO
100
AcDbLine
 62
7
  6
CONTINUOUS
 10
178.8273559242
 20
163.2252471414
 11
177.9231745211
 21
163.5883867771
  0
LINE
  5
3CE
100
AcDbEntity
  8
RACCORDO
100
AcDbLine
 62
7
  6
CONTINUOUS
 10
161.2219215435
 20
170.2959864939
 11
160.3177401404
 21
170.6591261296
  0
LINE
  5
3CF
100
AcDbEntity
  8
RACCORDO
100
AcDbLine
 62
7
  6
CONTINUOUS
 10
178.8999559687
 20
163.1930361639
 11
178.8273559238
 21
163.2252471415
  0
LWPOLYLINE
  5
3D0
100
AcDbEntity
  8
RACCORDO
100
AcDbPolyline
 62
7
  6
CONTINUOUS
 90
15
 70
0
 10
178.8984430149
 20
163.1937434985
 10
178.9684643971
 20
163.1565268971
 10
179.0374200705
 20
163.1135973374
 10
179.106090388
 20
163.064354382
 10
179.1736949967
 20
163.0093984682
 10
179.2378928376
 20
162.950530908
 10
179.2982267494
 20
162.8879272417
 10
179.3551538934
 20
162.821411929
 10
179.4077046951
 20
162.7522596619
 10
179.4558626409
 20
162.6804461058
 10
179.4996442445
 20
162.6059955953
 10
179.5381294716
 20
162.5302558253
 10
179.5713027068
 20
162.452749349
 10
179.5991795656
 20
162.3739536133
 10
179.6208868608
 20
162.2966486541
  0
LWPOLYLINE
  5
3D1
100
AcDbEntity
  8
RACCORDO
100
AcDbPolyline
 62
7
  6
CONTINUOUS
 90
9
 70
0
 10
166.8965643035
 20
175.6836732528
 10
166.8155651483
 20
175.6836734253
 10
166.7351534293
 20
175.673539466
 10
166.6559122839
 20
175.6542291877
 10
166.5778352289
 20
175.6278905863
 10
166.5014816078
 20
175.5950063926
 10
166.4273286984
 20
175.555655654
 10
166.3550924965
 20
175.5112243835
 10
166.2957219799
 20
175.4699820627
  0
LWPOLYLINE
  5
3D2
100
AcDbEntity
  8
RACCORDO
100
AcDbPolyline
 62
7
  6
CONTINUOUS
 90
3
 70
0
 10
167.0558942871
 20
175.6540918171
 10
166.9770163891
 20
175.6738867248
 10
166.8965643035
 20
175.6836732528
  0
LINE
  5
3D3
100
AcDbEntity
  8
DRAFT
100
AcDbLine
 62
7
  6
CONTINUOUS
 10
166.0973212525
 20
174.2896801322
 11
167.526112967
 21
173.7158451683
  0
LINE
  5
3D4
100
AcDbEntity
  8
DRAFT
100
AcDbLine
 62
7
  6
CONTINUOUS
 10
181.3697825155
 20
168.1559153794
 11
182.7985742301
 21
167.5820804155
  0
LINE
  5
3D5
100
AcDbEntity
  8
DRAFT
100
AcDbLine
 62
7
  6
CONTINUOUS
 10
183.4768114989
 20
168.0318924785
 11
182.028074853
 21
168.6137377765
  0
LINE
  5
3D6
100
AcDbEntity
  8
DRAFT
100
AcDbLine
 62
7
  6
CONTINUOUS
 10
168.0510160324
 20
174.2272397043
 11
166.6022793865
 21
174.8090850023
  0
LINE
  5
3D7
100
AcDbEntity
  8
RACCORDO
100
AcDbLine
 62
7
  6
CONTINUOUS
 10
184.6649534377
 20
168.5830192947
 11
182.8704182424
 21
169.303745086
  0
LINE
  5
3D8
100
AcDbEntity
  8
0
100
AcDbLine
 62
7
  6
CONTINUOUS
 10
182.8037236064
 20
169.3305311554
 11
168.9600540579
 21
174.8904609443
  0
LINE
  5
3D9
100
AcDbEntity
  8
RACCORDO
100
AcDbLine
 62
7
  6
CONTINUOUS
 10
168.8933594219
 20
174.9172470137
 11
167.0988242266
 21
175.637972805
  0
LWPOLYLINE
  5
3DA
100
AcDbEntity
  8
RACCORDO
100
AcDbPolyline
 62
7
  6
CONTINUOUS
 90
14
 70
0
 10
184.7078833772
 20
168.5646550437
 10
184.7817637092
 20
168.5230988024
 10
184.8479014112
 20
168.4740115669
 10
184.9063089312
 20
168.4180228758
 10
184.9569933932
 20
168.3552377347
 10
185.00035963
 20
168.2866855676
 10
185.0370341965
 20
168.214260128
 10
185.067272604
 20
168.1385661726
 10
185.0913851593
 20
168.059749808
 10
185.1098771005
 20
167.9788800698
 10
185.1230035877
 20
167.8962938284
 10
185.1310179182
 20
167.8121549378
 10
185.1342236184
 20
167.7271993059
 10
185.1343068926
 20
167.7105469527
  0
ELLIPSE
  5
3DB
100
AcDbEntity
  8
RACCORDO
100
AcDbEllipse
 62
7
  6
CONTINUOUS
 10
121.6626592875
 20
52.9516523212
 30
0.0
 11
-0.126784393
 21
0.1546824951
 31
0.0
 40
0.6718117768
 41
1.4248414727
 42
1.518134728
  0
ELLIPSE
  5
3DC
100
AcDbEntity
  8
RACCORDO
100
AcDbEllipse
 62
7
  6
CONTINUOUS
 10
167.0988242266
 20
174.8188207607
 30
0.0
 11
0.635477171
 21
-0.7731842656
 31
0.0
 40
0.6708273225
 41
2.2553344044
 42
2.307694282
  0
ELLIPSE
  5
3DD
100
AcDbEntity
  8
RACCORDO
100
AcDbEllipse
 62
7
  6
CONTINUOUS
 10
184.6649534377
 20
167.7638672504
 30
0.0
 11
0.635477171
 21
-0.7731842656
 31
0.0
 40
0.6708273225
 41
2.2029745268
 42
2.2553344044
  0
ELLIPSE
  5
3DE
100
AcDbEntity
  8
RACCORDO
100
AcDbEllipse
 62
7
  6
CONTINUOUS
 10
150.905333252
 20
41.0892149884
 30
0.0
 11
-0.6349013301
 21
0.7761056187
 31
0.0
 40
0.6692102709
 41
-3.2080734708
 42
-2.4559451104
  0
ELLIPSE
  5
3DF
100
AcDbEntity
  8
RACCORDO
100
AcDbEllipse
 62
7
  6
CONTINUOUS
 10
150.905333252
 20
91.05524137
 30
0.0
 11
-0.6342170824
 21
0.7731899447
 31
0.0
 40
0.6728141967
 41
-2.454628732
 42
-0.886571461
  0
ELLIPSE
  5
3E0
100
AcDbEntity
  8
RACCORDO
100
AcDbEllipse
 62
7
  6
CONTINUOUS
 10
121.4181079777
 20
102.8979758141
 30
0.0
 11
-0.6349013301
 21
0.7761056187
 31
0.0
 40
0.6692102709
 41
-0.8824097279
 42
0.0654467185
  0
ELLIPSE
  5
3E1
100
AcDbEntity
  8
RACCORDO
100
AcDbEllipse
 62
7
  6
CONTINUOUS
 10
119.162160453
 20
50.9969763311
 30
0.0
 11
-0.1268434165
 21
0.1546379889
 31
0.0
 40
0.6728141967
 41
0.6869639216
 42
2.2550211926
  0
ELLIPSE
  5
3E2
100
AcDbEntity
  8
RACCORDO
100
AcDbEllipse
 62
7
  6
CONTINUOUS
 10
121.2812095317
 20
76.9260640077
 30
0.0
 11
0.1660235768
 21
0.4621732978
 31
0.0
 40
0.4341965489
 41
-0.0170556887
 42
0.6824579491
  0
ENDSEC
  0
SECTION
  2
OBJECTS
  0
DICTIONARY
  5
C
100
AcDbDictionary
280
0
281
1
  3
ACAD_GROUP
350
D
  3
ACAD_MLINESTYLE
350
17
  3
ACAD_LAYOUT
350
1A
  3
ACAD_PLOTSETTINGS
350
19
  3
ACAD_PLOTSTYLENAME
350
E
  0
DICTIONARY
  5
D
102
{ACAD_REACTORS
330
C
102
}
100
AcDbDictionary
280
0
281
1
  0
ACDBDICTIONARYWDFLT
  5
E
102
{ACAD_REACTORS
330
C
102
}
100
AcDbDictionary
281
1
  3
Normal
350
F
100
AcDbDictionaryWithDefault
340
F
  0
DICTIONARY
  5
17
102
{ACAD_REACTORS
330
C
102
}
100
AcDbDictionary
280
0
281
1
  3
Standard
350
18
  0
DICTIONARY
  5
19
102
{ACAD_REACTORS
330
C
102
}
100
AcDbDictionary
281
1
  0
DICTIONARY
  5
1A
102
{ACAD_REACTORS
330
C
102
}
100
AcDbDictionary
281
1
  3
Model
350
3E3
  3
Layout1
350
3E4
  0
ACDBPLACEHOLDER
  5
F
102
{ACAD_REACTORS
330
E
102
}
  0
MLINESTYLE
  5
18
102
{ACAD_REACTORS
330
17
102
}
100
AcDbMlineStyle
  2
STANDARD
 70
0
  3

 62
256
 51
90.0
 52
90.0
 71
2
 49
0.5
 62
256
  6
BYLAYER
 49
-0.5
 62
256
  6
BYLAYER
  0
LAYOUT
  5
3E3
102
{ACAD_REACTORS
330
1A
102
}
100
AcDbPlotSettings
  1

  2
none_device
  4
ISO_A4_(297.00_x_210.00_MM)
  6

 40
0.0
 41
0.0
 42
0.0
 43
0.0
 44
297.0
 45
210.0
 46
0.0
 47
0.0
 48
0.0
 49
0.0
140
0.0
141
0.0
142
1.0
143
1.0
 70
1024
 72
1
 73
0
 74
0
  7

 75
0
147
1.0
148
0.0
149
0.0
100
AcDbLayout
  1
Model
 70
0
 71
0
 10
0.0
 20
0.0
 11
297.0
 21
210.0
 12
0.0
 22
0.0
 32
0.0
 14
0.0
 24
0.0
 34
0.0
 15
0.0
 25
0.0
 35
0.0
146
0.0
 13
0.0
 23
0.0
 33
0.0
 16
1.0
 26
0.0
 36
0.0
 17
0.0
 27
1.0
 37
0.0
 76
0
330
217
345
0
346
0
  0
LAYOUT
  5
3E4
102
{ACAD_REACTORS
330
1A
102
}
100
AcDbPlotSettings
  1

  2
none_device
  4
ISO_A4_(297.00_x_210.00_MM)
  6

 40
0.0
 41
0.0
 42
0.0
 43
0.0
 44
297.0
 45
210.0
 46
0.0
 47
0.0
 48
0.0
 49
0.0
140
0.0
141
0.0
142
1.0
143
1.0
 70
0
 72
1
 73
0
 74
0
  7

 75
0
147
1.0
148
0.0
149
0.0
100
AcDbLayout
  1
Layout1
 70
0
 71
1
 10
0.0
 20
0.0
 11
297.0
 21
210.0
 12
0.0
 22
0.0
 32
0.0
 14
0.0
 24
0.0
 34
0.0
 15
0.0
 25
0.0
 35
0.0
146
0.0
 13
0.0
 23
0.0
 33
0.0
 16
1.0
 26
0.0
 36
0.0
 17
0.0
 27
1.0
 37
0.0
 76
0
330
218
345
0
346
0
  0
ENDSEC
  0
EOF
