  0
SECTION
  2
HEADER
  9
$ACADVER
  1
AC1021
  9
$DWGCODEPAGE
  3
ANSI_1252
  9
$EXTMAX
 10
297.0
 20
210.0
 30
0.0
  9
$EXTMIN
 10
0.0
 20
0.0
 30
0.0
  9
$LIMMIN
 10
0.0
 20
0.0
  9
$LIMMAX
 10
297.0
 20
210.0
  9
$VIEWCTR
 10
148.5
 20
105.0
  9
$VIEWSIZE
 40
210.0
  9
$CLAYER
  8
0
  9
$LTSCALE
 40
16.335
  9
$CELTYPE
  6
BYLAYER
  9
$DIMSCALE
 40
1.0
  9
$DIMASZ
 40
3.0
  9
$DIMEXO
 40
1.85625
  9
$DIMDLI
 40
11.286
  9
$DIMEXE
 40
5.346
  9
$DIMCEN
 40
2.673
  9
$DIMLFAC
 40
1.0
  9
$DIMBLK
  1
_FILLED
  9
$DIMTXT
 40
3.0
  9
$DIMTOL
 70
1
  9
$DIMLIM
 70
0
  9
$DIMTFAC
 40
1.0
  9
$DIMTP
 40
0.01
  9
$DIMTM
 40
0.01
  9
$PDMODE
 70
3
  9
$PDSIZE
 40
3.0
  9
$HANDSEED
  5
47C
  9
$TILEMODE
 70
1
  9
$MEASUREMENT
 70
1
  9
$INSUNITS
 70
4
  0
ENDSEC
  0
SECTION
  2
CLASSES
  0
CLASS
  1
ACDBDICTIONARYWDFLT
  2
AcDbDictionaryWithDefault
  3
AutoCAD 2000
 90
0
 91
1
280
0
281
0
  0
CLASS
  1
ACDBPLACEHOLDER
  2
AcDbPlaceHolder
  3
AutoCAD 2000
 90
0
 91
1
280
0
281
0
  0
CLASS
  1
LAYOUT
  2
AcDbLayout
  3
AutoCAD 2000
 90
0
 91
0
280
0
281
0
  0
ENDSEC
  0
SECTION
  2
TABLES
  0
TABLE
  2
VPORT
  5
8
100
AcDbSymbolTable
 70
2
  0
VPORT
  5
1F4
100
AcDbSymbolTableRecord
100
AcDbViewportTableRecord
  2
*ACTIVE
 70
0
 10
0.0
 20
0.0
 11
1.0
 21
1.0
 12
148.5
 22
105.0
 13
0.0
 23
0.0
 14
1.0
 24
1.0
 15
0.0
 25
0.0
 16
0.0
 26
0.0
 36
1.0
 17
0.0
 27
0.0
 37
0.0
 40
210.0
 41
1.4142857143
 42
50.0
 43
0.0
 44
0.0
 50
0.0
 51
0.0
 71
0
 72
100
 73
1
 74
1
 75
0
 76
0
 77
0
 78
0
  0
ENDTAB
  0
TABLE
  2
LTYPE
  5
5
100
AcDbSymbolTable
 70
6
  0
LTYPE
  5
14
100
AcDbSymbolTableRecord
100
AcDbLinetypeTableRecord
  2
BYBLOCK
 70
0
  3

 72
65
 73
0
 40
0.0
  0
LTYPE
  5
15
100
AcDbSymbolTableRecord
100
AcDbLinetypeTableRecord
  2
BYLAYER
 70
0
  3

 72
65
 73
0
 40
0.0
  0
LTYPE
  5
16
100
AcDbSymbolTableRecord
100
AcDbLinetypeTableRecord
  2
CONTINUOUS
 70
64
  3
Solid line
 72
65
 73
0
 40
0.0
  0
LTYPE
  5
1F5
100
AcDbSymbolTableRecord
100
AcDbLinetypeTableRecord
  2
CENTER
 70
64
  3
____ _ ____ _ ____ _ ____ _ ____ _ ____ _ ____
 72
65
 73
4
 40
0.6
 49
0.375
 74
0
 49
-0.075
 74
0
 49
0.075
 74
0
 49
-0.075
 74
0
  0
LTYPE
  5
1F6
100
AcDbSymbolTableRecord
100
AcDbLinetypeTableRecord
  2
HIDDEN
 70
64
  3
- - - - - - - - - - - - - - - - - - - -
 72
65
 73
2
 40
0.2
 49
0.1
 74
0
 49
-0.1
 74
0
  0
LTYPE
  5
1F7
100
AcDbSymbolTableRecord
100
AcDbLinetypeTableRecord
  2
PHANTOM
 70
64
  3
_____ _ _ _____ _ _ _____ _ _ _____
 72
65
 73
6
 40
0.8
 49
0.45
 74
0
 49
-0.05
 74
0
 49
0.1
 74
0
 49
-0.05
 74
0
 49
0.1
 74
0
 49
-0.05
 74
0
  0
LTYPE
  5
1F8
100
AcDbSymbolTableRecord
100
AcDbLinetypeTableRecord
  2
DOT
 70
64
  3
. . . . . . . . . . . . . . . . . . . .
 72
65
 73
2
 40
0.2
 49
0.1
 74
0
 49
-0.1
 74
0
  0
LTYPE
  5
1F9
100
AcDbSymbolTableRecord
100
AcDbLinetypeTableRecord
  2
DASHED
 70
64
  3
- - - - - - - - - - - - - - - - - - - -
 72
65
 73
2
 40
0.2
 49
0.1
 74
0
 49
-0.1
 74
0
  0
ENDTAB
  0
TABLE
  2
LAYER
  5
2
100
AcDbSymbolTable
 70
36
  0
LAYER
  5
10
100
AcDbSymbolTableRecord
100
AcDbLayerTableRecord
  2
0
 70
0
 62
7
  6
CONTINUOUS
370
-3
390
F
  0
LAYER
  5
1FA
100
AcDbSymbolTableRecord
100
AcDbLayerTableRecord
  2
DEFAULT_1
 70
0
 62
7
  6
CENTER
370
-3
390
F
  0
LAYER
  5
1FB
100
AcDbSymbolTableRecord
100
AcDbLayerTableRecord
  2
DEFAULT_2
 70
0
 62
7
  6
HIDDEN
370
-3
390
F
  0
LAYER
  5
1FC
100
AcDbSymbolTableRecord
100
AcDbLayerTableRecord
  2
DEFAULT_3
 70
0
 62
7
  6
PHANTOM
370
-3
390
F
  0
LAYER
  5
1FD
100
AcDbSymbolTableRecord
100
AcDbLayerTableRecord
  2
ASSI
 70
0
 62
7
  6
CONTINUOUS
370
-3
390
F
  0
LAYER
  5
1FE
100
AcDbSymbolTableRecord
100
AcDbLayerTableRecord
  2
COLORE
 70
0
 62
7
  6
CONTINUOUS
370
-3
390
F
  0
LAYER
  5
1FF
100
AcDbSymbolTableRecord
100
AcDbLayerTableRecord
  2
COORDINATE
 70
0
 62
7
  6
CONTINUOUS
370
-3
390
F
  0
LAYER
  5
200
100
AcDbSymbolTableRecord
100
AcDbLayerTableRecord
  2
COORD_ORIGINE
 70
0
 62
7
  6
CONTINUOUS
370
-3
390
F
  0
LAYER
  5
201
100
AcDbSymbolTableRecord
100
AcDbLayerTableRecord
  2
CURVE
 70
0
 62
7
  6
CONTINUOUS
370
-3
390
F
  0
LAYER
  5
202
100
AcDbSymbolTableRecord
100
AcDbLayerTableRecord
  2
DRAFT
 70
0
 62
7
  6
CONTINUOUS
370
-3
390
F
  0
LAYER
  5
203
100
AcDbSymbolTableRecord
100
AcDbLayerTableRecord
  2
IGES_SCRITTE
 70
0
 62
7
  6
CONTINUOUS
370
-3
390
F
  0
LAYER
  5
204
100
AcDbSymbolTableRecord
100
AcDbLayerTableRecord
  2
IMPORT
 70
0
 62
7
  6
CONTINUOUS
370
-3
390
F
  0
LAYER
  5
205
100
AcDbSymbolTableRecord
100
AcDbLayerTableRecord
  2
INTF_1
 70
0
 62
7
  6
CONTINUOUS
370
-3
390
F
  0
LAYER
  5
206
100
AcDbSymbolTableRecord
100
AcDbLayerTableRecord
  2
INTF_RED
 70
0
 62
7
  6
CONTINUOUS
370
-3
390
F
  0
LAYER
  5
207
100
AcDbSymbolTableRecord
100
AcDbLayerTableRecord
  2
INTF_YELLOW
 70
0
 62
7
  6
CONTINUOUS
370
-3
390
F
  0
LAYER
  5
208
100
AcDbSymbolTableRecord
100
AcDbLayerTableRecord
  2
NOTE
 70
0
 62
7
  6
CONTINUOUS
370
-3
390
F
  0
LAYER
  5
209
100
AcDbSymbolTableRecord
100
AcDbLayerTableRecord
  2
PIANI
 70
0
 62
7
  6
CONTINUOUS
370
-3
390
F
  0
LAYER
  5
20A
100
AcDbSymbolTableRecord
100
AcDbLayerTableRecord
  2
PIANI_DI_RIFERIMENTO
 70
0
 62
7
  6
CONTINUOUS
370
-3
390
F
  0
LAYER
  5
20B
100
AcDbSymbolTableRecord
100
AcDbLayerTableRecord
  2
PIANI_ORIGINE
 70
0
 62
7
  6
CONTINUOUS
370
-3
390
F
  0
LAYER
  5
20C
100
AcDbSymbolTableRecord
100
AcDbLayerTableRecord
  2
PUNTI
 70
0
 62
7
  6
CONTINUOUS
370
-3
390
F
  0
LAYER
  5
20D
100
AcDbSymbolTableRecord
100
AcDbLayerTableRecord
  2
RACCORDO
 70
0
 62
7
  6
CONTINUOUS
370
-3
390
F
  0
LAYER
  5
20E
100
AcDbSymbolTableRecord
100
AcDbLayerTableRecord
  2
RGB____0____0____0__
 70
0
 62
7
  6
CONTINUOUS
370
-3
390
F
  0
LAYER
  5
20F
100
AcDbSymbolTableRecord
100
AcDbLayerTableRecord
  2
SMUSSO
 70
0
 62
7
  6
CONTINUOUS
370
-3
390
F
  0
LAYER
  5
210
100
AcDbSymbolTableRecord
100
AcDbLayerTableRecord
  2
SNAPLINE
 70
0
 62
7
  6
CONTINUOUS
370
-3
390
F
  0
LAYER
  5
211
100
AcDbSymbolTableRecord
100
AcDbLayerTableRecord
  2
SUPERFICI
 70
0
 62
7
  6
CONTINUOUS
370
-3
390
F
  0
LAYER
  5
212
100
AcDbSymbolTableRecord
100
AcDbLayerTableRecord
  2
SUP_COSTRUZIONE
 70
0
 62
7
  6
CONTINUOUS
370
-3
390
F
  0
LAYER
  5
213
100
AcDbSymbolTableRecord
100
AcDbLayerTableRecord
  2
TRASH
 70
0
 62
7
  6
CONTINUOUS
370
-3
390
F
  0
LAYER
  5
214
100
AcDbSymbolTableRecord
100
AcDbLayerTableRecord
  2
XSEC_DATUMS
 70
0
 62
7
  6
CONTINUOUS
370
-3
390
F
  0
ENDTAB
  0
TABLE
  2
STYLE
  5
3
100
AcDbSymbolTable
 70
1
  0
STYLE
  5
11
100
AcDbSymbolTableRecord
100
AcDbTextStyleTableRecord
  2
STANDARD
 70
0
 40
0.0
 41
0.8
 50
0.0
 71
0
 42
0.2
  3
txt
  4

  0
STYLE
  5
215
100
AcDbSymbolTableRecord
100
AcDbTextStyleTableRecord
  2
TEXTSTYLE_1
 70
0
 40
0.0
 41
0.8
 50
0.0
 71
0
 42
0.2
  3
gdt
  4

  0
ENDTAB
  0
TABLE
  2
VIEW
  5
6
100
AcDbSymbolTable
 70
0
  0
ENDTAB
  0
TABLE
  2
UCS
  5
7
100
AcDbSymbolTable
 70
0
  0
ENDTAB
  0
TABLE
  2
APPID
  5
9
100
AcDbSymbolTable
 70
1
  0
APPID
  5
216
100
AcDbSymbolTableRecord
100
AcDbRegAppTableRecord
  2
ACAD
 70
0
  0
ENDTAB
  0
TABLE
  2
BLOCK_RECORD
  5
1
100
AcDbSymbolTable
 70
0
  0
BLOCK_RECORD
  5
217
100
AcDbSymbolTableRecord
100
AcDbBlockTableRecord
  2
*Model_Space
  0
BLOCK_RECORD
  5
218
100
AcDbSymbolTableRecord
100
AcDbBlockTableRecord
  2
*Paper_Space
  0
ENDTAB
  0
TABLE
  2
DIMSTYLE
  5
A
100
AcDbSymbolTable
 70
1
100
AcDbDimStyleTable
 71
0
  0
DIMSTYLE
105
219
100
AcDbSymbolTableRecord
100
AcDbDimStyleTableRecord
  2
STANDARD
 70
0
  3

  4

 40
1.0
 41
3.0
 42
0.0625
 43
0.38
 44
0.18
 45
0.0
 46
0.0
 47
0.01
 48
0.01
140
3.0
141
0.09
142
0.0
143
25.4
144
1.0
145
0.0
146
1.0
147
0.09
 71
1.0
 72
0.0
 73
0
 74
0
 75
0
 76
0
 77
1
 78
8
170
0
171
2
172
0
173
0
174
0
175
0
176
0
177
0
178
0
270
2
271
2
272
2
273
2
274
2
275
0
280
0
281
0
282
0
283
1
284
8
285
0
286
0
287
3
288
0
340
11
  0
ENDTAB
  0
ENDSEC
  0
SECTION
  2
BLOCKS
  0
BLOCK
  5
20
100
AcDbEntity
  8
0
100
AcDbBlockBegin
  2
*Model_Space
 70
0
 10
0.0
 20
0.0
 30
0.0
  3
*Model_Space
  1

  0
ENDBLK
  5
21
100
AcDbEntity
  8
0
100
AcDbBlockEnd
  0
BLOCK
  5
1C
100
AcDbEntity
  8
0
100
AcDbBlockBegin
  2
*Paper_Space
 70
0
 10
0.0
 20
0.0
 30
0.0
  3
*Paper_Space
  1

  0
ENDBLK
  5
1D
100
AcDbEntity
  8
0
100
AcDbBlockEnd
  0
ENDSEC
  0
SECTION
  2
ENTITIES
  0
LWPOLYLINE
  5
21A
100
AcDbEntity
  8
RACCORDO
100
AcDbPolyline
 62
7
  6
CONTINUOUS
 90
12
 70
0
 10
156.2173649442
 20
32.4176543851
 10
156.2385339258
 20
32.410388548
 10
156.3283682429
 20
32.385223421
 10
156.4199044143
 20
32.3686367272
 10
156.5125334137
 20
32.3607783748
 10
156.6053745706
 20
32.3617457645
 10
156.6972137935
 20
32.3715197694
 10
156.7873655658
 20
32.3899783777
 10
156.8753889178
 20
32.4170027738
 10
156.9602180537
 20
32.452268238
 10
157.040975974
 20
32.4953762346
 10
157.0788024775
 20
32.5192101592
  0
LWPOLYLINE
  5
21B
100
AcDbEntity
  8
RACCORDO
100
AcDbPolyline
 62
253
  6
CONTINUOUS
 90
8
 70
0
 10
107.4289276575
 20
52.0122835781
 10
107.3957441835
 20
52.0307160024
 10
107.3502315997
 20
52.0695425851
 10
107.3119039326
 20
52.1205690719
 10
107.2813741171
 20
52.18297945
 10
107.2591303854
 20
52.2557756565
 10
107.2455284586
 20
52.337793539
 10
107.2407858582
 20
52.4277214731
  0
LWPOLYLINE
  5
21C
100
AcDbEntity
  8
RACCORDO
100
AcDbPolyline
 62
253
  6
CONTINUOUS
 90
28
 70
0
 10
149.6450386468
 20
39.391333965
 10
149.6554005498
 20
39.3917079373
 10
149.6652732744
 20
39.3937244258
 10
149.6746923882
 20
39.3973996219
 10
149.6836640401
 20
39.4029440834
 10
149.6922748018
 20
39.410168954
 10
149.7006560829
 20
39.4184862907
 10
149.7088547521
 20
39.4278035674
 10
149.7168573217
 20
39.4382222138
 10
149.7246675354
 20
39.4494438892
 10
149.7322921758
 20
39.461425097
 10
149.7397514231
 20
39.4742141499
 10
149.747055131
 20
39.4876505361
 10
149.7541964324
 20
39.5016821091
 10
149.7612012273
 20
39.5163640459
 10
149.7681150979
 20
39.5316978514
 10
149.7749352808
 20
39.5476579145
 10
149.7816700214
 20
39.5642733583
 10
149.7883672826
 20
39.5816295994
 10
149.7950279941
 20
39.5997344594
 10
149.8016443283
 20
39.6185853126
 10
149.8082403766
 20
39.6382537186
 10
149.8148142845
 20
39.6587575488
 10
149.8213539426
 20
39.6800857992
 10
149.8278619087
 20
39.7022680421
 10
149.8343324947
 20
39.7253186342
 10
149.8407544533
 20
39.7492314325
 10
149.8474844851
 20
39.7754643313
  0
LWPOLYLINE
  5
21D
100
AcDbEntity
  8
RACCORDO
100
AcDbPolyline
 62
253
  6
CONTINUOUS
 90
31
 70
0
 10
149.6416034152
 20
39.3104904826
 10
149.6611625983
 20
39.3070560672
 10
149.6795366641
 20
39.305489029
 10
149.6967255152
 20
39.30578928
 10
149.7125637934
 20
39.3081779216
 10
149.7272166735
 20
39.3124336873
 10
149.7411798997
 20
39.3178929761
 10
149.7545682576
 20
39.324438389
 10
149.7672668819
 20
39.3321872531
 10
149.7794270854
 20
39.3408280968
 10
149.7910666978
 20
39.3503144271
 10
149.8021678327
 20
39.360692686
 10
149.8128282437
 20
39.371790818
 10
149.8230438312
 20
39.3835570571
 10
149.8328186536
 20
39.3960431323
 10
149.8422627127
 20
39.409232241
 10
149.8513897498
 20
39.4230937671
 10
149.8601859965
 20
39.4376583023
 10
149.8687201988
 20
39.4530008631
 10
149.8770124995
 20
39.4691216634
 10
149.8850427366
 20
39.486020472
 10
149.8928192017
 20
39.503771641
 10
149.9003556884
 20
39.5223857238
 10
149.9076383862
 20
39.5418521516
 10
149.9146341805
 20
39.5622135934
 10
149.9213496159
 20
39.5834780681
 10
149.9277781304
 20
39.605637541
 10
149.9338669478
 20
39.6287105992
 10
149.9396183923
 20
39.6526910747
 10
149.9450301219
 20
39.6775851192
 10
149.9500423587
 20
39.7034297974
  0
LINE
  5
21E
100
AcDbEntity
  8
RACCORDO
100
AcDbLine
 62
7
  6
CONTINUOUS
 10
156.217356268
 20
32.4176298785
 11
156.2169989511
 21
32.4177566831
  0
LWPOLYLINE
  5
21F
100
AcDbEntity
  8
RACCORDO
100
AcDbPolyline
 62
253
  6
CONTINUOUS
 90
12
 70
0
 10
156.0470563606
 20
32.8260229258
 10
151.8296593754
 20
34.3435628143
 10
147.6382465532
 20
35.8826901266
 10
143.4732218989
 20
37.443257377
 10
139.3349873832
 20
39.0251149156
 10
135.2239413667
 20
40.6281106261
 10
131.1404785953
 20
42.2520899694
 10
127.0849927196
 20
43.8968958918
 10
123.0578746464
 20
45.5623703494
 10
119.0595110244
 20
47.2483540567
 10
115.0902868
 20
48.9546845376
 10
111.1505851424
 20
50.6811961124
  0
LWPOLYLINE
  5
220
100
AcDbEntity
  8
RACCORDO
100
AcDbPolyline
 62
7
  6
CONTINUOUS
 90
10
 70
0
 10
107.429514495
 20
52.0119905567
 10
112.5586815894
 20
49.7275870818
 10
117.8561016653
 20
47.427430172
 10
123.205919464
 20
45.163768226
 10
128.6071832962
 20
42.9369982319
 10
134.058985406
 20
40.7474900141
 10
139.5604228623
 20
38.5956030914
 10
145.1105730654
 20
36.4816965492
 10
150.7084527099
 20
34.4061442566
 10
156.2169989511
 20
32.4177566831
  0
LINE
  5
221
100
AcDbEntity
  8
RACCORDO
100
AcDbLine
 62
253
  6
CONTINUOUS
 10
111.1505851424
 20
50.6811961124
 11
107.2407858565
 21
52.4277214718
  0
LINE
  5
222
100
AcDbEntity
  8
RACCORDO
100
AcDbLine
 62
7
  6
CONTINUOUS
 10
107.4295247524
 20
52.0120133572
 11
107.4289276575
 21
52.0122835781
  0
LWPOLYLINE
  5
223
100
AcDbEntity
  8
RACCORDO
100
AcDbPolyline
 62
253
  6
CONTINUOUS
 90
19
 70
0
 10
107.2407858565
 20
52.4277214718
 10
107.2338854051
 20
52.4311504977
 10
107.2271223903
 20
52.4351179829
 10
107.2204968066
 20
52.4396239234
 10
107.2139557951
 20
52.4447116107
 10
107.2075522053
 20
52.4503377465
 10
107.2014445883
 20
52.4563724378
 10
107.195642792
 20
52.4628247154
 10
107.1901369472
 20
52.4696855331
 10
107.1850560195
 20
52.4767978749
 10
107.1804103748
 20
52.4841692374
 10
107.1761896223
 20
52.491792106
 10
107.1724915882
 20
52.4994869444
 10
107.1693300772
 20
52.5072582491
 10
107.1666912628
 20
52.5151015078
 10
107.1646315229
 20
52.52282367
 10
107.1631696457
 20
52.5303603822
 10
107.1622868306
 20
52.5377759889
 10
107.1619830746
 20
52.5450704879
  0
LWPOLYLINE
  5
224
100
AcDbEntity
  8
RACCORDO
100
AcDbPolyline
 62
253
  6
CONTINUOUS
 90
13
 70
0
 10
113.2004608819
 20
53.9460748703
 10
116.1515462874
 20
52.3936614274
 10
119.1184269776
 20
50.9016981757
 10
122.1009333639
 20
49.4702460149
 10
125.0986875324
 20
48.0994670171
 10
128.1117240273
 20
46.789316892
 10
131.1405007941
 20
45.5395537339
 10
134.1848579541
 20
44.3502106702
 10
137.244629484
 20
43.2213855248
 10
140.320282111
 20
42.1529481786
 10
143.4118713558
 20
41.144906384
 10
146.5190310795
 20
40.1973969878
 10
149.6416034152
 20
39.3104904826
  0
LWPOLYLINE
  5
225
100
AcDbEntity
  8
RACCORDO
100
AcDbPolyline
 62
253
  6
CONTINUOUS
 90
13
 70
0
 10
113.2182997271
 20
54.0211335367
 10
116.1684944295
 20
52.4691334332
 10
119.1341412198
 20
50.9776974972
 10
122.1152400979
 20
49.5468257288
 10
125.1117506904
 20
48.1765564399
 10
128.1237133709
 20
46.8668513186
 10
131.1512492596
 20
45.6175954292
 10
134.194350788
 20
44.4287478721
 10
137.2530255247
 20
43.300349547
 10
140.3274172963
 20
42.2324082174
 10
143.4175740449
 20
41.2249264711
 10
146.5234478284
 20
40.2779017203
 10
149.6450386468
 20
39.391333965
  0
LWPOLYLINE
  5
226
100
AcDbEntity
  8
RACCORDO
100
AcDbPolyline
 62
253
  6
CONTINUOUS
 90
8
 70
0
 10
156.2169989511
 20
32.4177566831
 10
156.1750444157
 20
32.4398241192
 10
156.1370111629
 20
32.4756504367
 10
156.1050862793
 20
32.5241093697
 10
156.0797803077
 20
32.5844259627
 10
156.0614979414
 20
32.6556356324
 10
156.0505315522
 20
32.7365995933
 10
156.0470565146
 20
32.8260230692
  0
LWPOLYLINE
  5
227
100
AcDbEntity
  8
RACCORDO
100
AcDbPolyline
 62
7
  6
CONTINUOUS
 90
4
 70
0
 10
164.1742692828
 20
173.0208861979
 10
164.1174454811
 20
173.0000542178
 10
164.0649888396
 20
172.9730796005
 10
164.0295074241
 20
172.9495064326
  0
LWPOLYLINE
  5
228
100
AcDbEntity
  8
RACCORDO
100
AcDbPolyline
 62
7
  6
CONTINUOUS
 90
7
 70
0
 10
147.6152923144
 20
48.5523811886
 10
147.6184020455
 20
48.5529386105
 10
147.6215350534
 20
48.5536523891
 10
147.6246913381
 20
48.5545225244
 10
147.6278708996
 20
48.5555490163
 10
147.631073738
 20
48.5567318649
 10
147.6342998531
 20
48.5580710702
  0
LINE
  5
229
100
AcDbEntity
  8
RACCORDO
100
AcDbLine
 62
253
  6
CONTINUOUS
 10
113.8078813973
 20
56.2483625241
 11
149.8813009716
 21
41.7604639668
  0
LINE
  5
22A
100
AcDbEntity
  8
RACCORDO
100
AcDbLine
 62
253
  6
CONTINUOUS
 10
114.0716910652
 20
56.6900215681
 11
149.8813009716
 21
42.308074921
  0
LINE
  5
22B
100
AcDbEntity
  8
RACCORDO
100
AcDbLine
 62
7
  6
CONTINUOUS
 10
149.8813009716
 20
42.5545748982
 11
114.2745041195
 21
56.8550672504
  0
LINE
  5
22C
100
AcDbEntity
  8
0
100
AcDbLine
 62
7
  6
CONTINUOUS
 10
127.1356411804
 20
51.8019594162
 11
122.2207289147
 21
53.7758989862
  0
LINE
  5
22D
100
AcDbEntity
  8
0
100
AcDbLine
 62
7
  6
CONTINUOUS
 10
140.6516499112
 20
46.3736255986
 11
145.5665621769
 21
44.3996860286
  0
LINE
  5
22E
100
AcDbEntity
  8
RACCORDO
100
AcDbLine
 62
7
  6
CONTINUOUS
 10
135.8572994858
 20
48.6306292524
 11
136.7297132332
 21
48.2802482233
  0
LINE
  5
22F
100
AcDbEntity
  8
DRAFT
100
AcDbLine
 62
7
  6
CONTINUOUS
 10
117.2283174374
 20
57.0440294552
 11
117.924092214
 21
56.764590619
  0
LINE
  5
230
100
AcDbEntity
  8
0
100
AcDbLine
 62
7
  6
CONTINUOUS
 10
146.8765144748
 20
45.2644955046
 11
146.7059337398
 21
45.3330045735
  0
LINE
  5
231
100
AcDbEntity
  8
0
100
AcDbLine
 62
7
  6
CONTINUOUS
 10
141.1856178846
 20
47.5500878735
 11
140.5622934076
 21
47.800429036
  0
LINE
  5
232
100
AcDbEntity
  8
0
100
AcDbLine
 62
7
  6
CONTINUOUS
 10
122.1313724111
 20
55.2027024236
 11
122.7546968881
 21
54.9523612611
  0
LINE
  5
233
100
AcDbEntity
  8
0
100
AcDbLine
 62
7
  6
CONTINUOUS
 10
128.2750127433
 20
52.7352779611
 11
128.4455934783
 21
52.6667688922
  0
LINE
  5
234
100
AcDbEntity
  8
0
100
AcDbLine
 62
7
  6
CONTINUOUS
 10
127.7665752604
 20
53.2198576063
 11
122.8516629946
 21
55.1937971763
  0
LINE
  5
235
100
AcDbEntity
  8
0
100
AcDbLine
 62
7
  6
CONTINUOUS
 10
141.2825839912
 20
47.7915237887
 11
146.1974962569
 21
45.8175842187
  0
LINE
  5
236
100
AcDbEntity
  8
RACCORDO
100
AcDbLine
 62
253
  6
CONTINUOUS
 10
137.8520795435
 20
49.1827704789
 11
135.8968709579
 21
49.9680263261
  0
LINE
  5
237
100
AcDbEntity
  8
DRAFT
100
AcDbLine
 62
7
  6
CONTINUOUS
 10
128.7893565209
 20
52.9440786835
 11
128.2590552261
 21
53.1570596389
  0
LINE
  5
238
100
AcDbEntity
  8
DRAFT
100
AcDbLine
 62
7
  6
CONTINUOUS
 10
146.6899762226
 20
45.7547862513
 11
147.2202775174
 21
45.5418052959
  0
LINE
  5
239
100
AcDbEntity
  8
RACCORDO
100
AcDbLine
 62
253
  6
CONTINUOUS
 10
138.1017101375
 20
49.3835045572
 11
136.0115687734
 21
50.2229524502
  0
LINE
  5
23A
100
AcDbEntity
  8
0
100
AcDbLine
 62
7
  6
CONTINUOUS
 10
128.2419468892
 20
53.6092592479
 11
123.3270346235
 21
55.5831988179
  0
LINE
  5
23B
100
AcDbEntity
  8
0
100
AcDbLine
 62
7
  6
CONTINUOUS
 10
141.75795562
 20
48.1809254303
 11
146.6728678857
 21
46.2069858603
  0
LWPOLYLINE
  5
23C
100
AcDbEntity
  8
RACCORDO
100
AcDbPolyline
 62
7
  6
CONTINUOUS
 90
3
 70
0
 10
164.0654453185
 20
172.9732100977
 10
164.1179961202
 20
173.0001511915
 10
164.1749232642
 20
173.0209400553
  0
LWPOLYLINE
  5
23D
100
AcDbEntity
  8
RACCORDO
100
AcDbPolyline
 62
7
  6
CONTINUOUS
 90
7
 70
0
 10
145.4854969992
 20
49.4077550023
 10
145.4886067303
 20
49.4083124242
 10
145.4917397382
 20
49.4090262028
 10
145.4948960229
 20
49.4098963381
 10
145.4980755845
 20
49.41092283
 10
145.5012784228
 20
49.4121056786
 10
145.504504538
 20
49.4134448839
  0
LWPOLYLINE
  5
23E
100
AcDbEntity
  8
RACCORDO
100
AcDbPolyline
 62
7
  6
CONTINUOUS
 90
7
 70
0
 10
143.5195320929
 20
50.1973308303
 10
143.522641824
 20
50.1978882522
 10
143.5257748319
 20
50.1986020308
 10
143.5289311166
 20
50.1994721661
 10
143.5321106782
 20
50.200498658
 10
143.5353135165
 20
50.2016815066
 10
143.5385396317
 20
50.2030207119
  0
LWPOLYLINE
  5
23F
100
AcDbEntity
  8
RACCORDO
100
AcDbPolyline
 62
7
  6
CONTINUOUS
 90
8
 70
0
 10
137.7580823217
 20
50.6466914988
 10
137.7881974295
 20
50.649023983
 10
137.818399003
 20
50.6491248894
 10
137.8484455611
 20
50.6469700085
 10
137.8781871059
 20
50.6428015922
 10
137.9072112962
 20
50.6364698105
 10
137.9348000333
 20
50.6273714879
 10
137.9388062227
 20
50.6257402453
  0
LWPOLYLINE
  5
240
100
AcDbEntity
  8
RACCORDO
100
AcDbPolyline
 62
7
  6
CONTINUOUS
 90
8
 70
0
 10
145.8582136331
 20
53.1977994466
 10
145.8320513253
 20
53.206018802
 10
145.7919875609
 20
53.2105899302
 10
145.74887983
 20
53.207076033
 10
145.7043812908
 20
53.1956414154
 10
145.6590429961
 20
53.1763408455
 10
145.6123138931
 20
53.1491195552
 10
145.5641939818
 20
53.1139775443
  0
LINE
  5
241
100
AcDbEntity
  8
DRAFT
100
AcDbLine
 62
7
  6
CONTINUOUS
 10
136.6745105609
 20
50.8607072713
 11
136.4647425352
 21
50.9449548395
  0
LINE
  5
242
100
AcDbEntity
  8
DRAFT
100
AcDbLine
 62
7
  6
CONTINUOUS
 10
115.7104135072
 20
59.2803612726
 11
115.6303123516
 21
59.3125317025
  0
LINE
  5
243
100
AcDbEntity
  8
RACCORDO
100
AcDbLine
 62
253
  6
CONTINUOUS
 10
139.0348894995
 20
50.1338969513
 11
137.7580823217
 21
50.6466914988
  0
LINE
  5
244
100
AcDbEntity
  8
RACCORDO
100
AcDbLine
 62
7
  6
CONTINUOUS
 10
139.0777649214
 20
50.1683741288
 11
137.9386185879
 21
50.6258809778
  0
LINE
  5
245
100
AcDbEntity
  8
SMUSSO
100
AcDbLine
 62
7
  6
CONTINUOUS
 10
139.0969610805
 20
50.4777452743
 11
139.3407394445
 21
50.3798383874
  0
LINE
  5
246
100
AcDbEntity
  8
RACCORDO
100
AcDbLine
 62
253
  6
CONTINUOUS
 10
148.0237792861
 20
47.7374424787
 11
143.1088670204
 21
49.7113820487
  0
LINE
  5
247
100
AcDbEntity
  8
RACCORDO
100
AcDbLine
 62
253
  6
CONTINUOUS
 10
129.5928582896
 20
55.1397158662
 11
124.6779460239
 21
57.1136554363
  0
LINE
  5
248
100
AcDbEntity
  8
DRAFT
100
AcDbLine
 62
7
  6
CONTINUOUS
 10
141.2369676525
 20
50.5525481884
 11
140.1155933393
 21
51.0029173934
  0
LINE
  5
249
100
AcDbEntity
  8
DRAFT
100
AcDbLine
 62
7
  6
CONTINUOUS
 10
133.2927468285
 20
53.7431263695
 11
131.9411459555
 21
54.2859597513
  0
LINE
  5
24A
100
AcDbEntity
  8
DRAFT
100
AcDbLine
 62
7
  6
CONTINUOUS
 10
122.806046656
 20
57.954821576
 11
121.6846723428
 21
58.4051907809
  0
LINE
  5
24B
100
AcDbEntity
  8
DRAFT
100
AcDbLine
 62
7
  6
CONTINUOUS
 10
118.6299252358
 20
59.6320460868
 11
116.9745480881
 21
60.2968828689
  0
LINE
  5
24C
100
AcDbEntity
  8
RACCORDO
100
AcDbLine
 62
253
  6
CONTINUOUS
 10
148.1380580471
 20
47.9806058072
 11
143.2231457813
 21
49.9545453772
  0
LINE
  5
24D
100
AcDbEntity
  8
RACCORDO
100
AcDbLine
 62
253
  6
CONTINUOUS
 10
129.7071370506
 20
55.3828791948
 11
124.7922247848
 21
57.3568187648
  0
LINE
  5
24E
100
AcDbEntity
  8
RACCORDO
100
AcDbLine
 62
253
  6
CONTINUOUS
 10
147.5005770271
 20
48.4584119265
 11
146.3537641651
 21
48.9189978262
  0
LINE
  5
24F
100
AcDbEntity
  8
RACCORDO
100
AcDbLine
 62
253
  6
CONTINUOUS
 10
145.3707817119
 20
49.3137857402
 11
144.2239688499
 21
49.7743716399
  0
LINE
  5
250
100
AcDbEntity
  8
RACCORDO
100
AcDbLine
 62
253
  6
CONTINUOUS
 10
129.0696560306
 20
55.8606853141
 11
127.9228431686
 21
56.3212712138
  0
LINE
  5
251
100
AcDbEntity
  8
RACCORDO
100
AcDbLine
 62
253
  6
CONTINUOUS
 10
126.9398607154
 20
56.7160591278
 11
125.7930478534
 21
57.1766450274
  0
LINE
  5
252
100
AcDbEntity
  8
RACCORDO
100
AcDbLine
 62
7
  6
CONTINUOUS
 10
147.5429246596
 20
48.4931010762
 11
146.4283018228
 21
48.9407587361
  0
LINE
  5
253
100
AcDbEntity
  8
RACCORDO
100
AcDbLine
 62
7
  6
CONTINUOUS
 10
145.4131293444
 20
49.3484748899
 11
144.2985065076
 21
49.7961325497
  0
LINE
  5
254
100
AcDbEntity
  8
RACCORDO
100
AcDbLine
 62
7
  6
CONTINUOUS
 10
129.1120036631
 20
55.8953744638
 11
127.9973808263
 21
56.3430321236
  0
LINE
  5
255
100
AcDbEntity
  8
RACCORDO
100
AcDbLine
 62
7
  6
CONTINUOUS
 10
126.9822083479
 20
56.7507482775
 11
125.8675855111
 21
57.1984059373
  0
LINE
  5
256
100
AcDbEntity
  8
RACCORDO
100
AcDbLine
 62
253
  6
CONTINUOUS
 10
148.4142169584
 20
48.206821944
 11
147.5950649141
 21
48.5358118723
  0
LINE
  5
257
100
AcDbEntity
  8
RACCORDO
100
AcDbLine
 62
253
  6
CONTINUOUS
 10
146.4482520521
 20
48.996397772
 11
145.465269599
 21
49.391185686
  0
LINE
  5
258
100
AcDbEntity
  8
RACCORDO
100
AcDbLine
 62
253
  6
CONTINUOUS
 10
144.318456737
 20
49.8517715857
 11
143.4993046927
 21
50.180761514
  0
LINE
  5
259
100
AcDbEntity
  8
RACCORDO
100
AcDbLine
 62
253
  6
CONTINUOUS
 10
129.9832959619
 20
55.6090953316
 11
129.1641439176
 21
55.9380852599
  0
LINE
  5
25A
100
AcDbEntity
  8
RACCORDO
100
AcDbLine
 62
253
  6
CONTINUOUS
 10
128.0173310556
 20
56.3986711596
 11
127.0343486025
 21
56.7934590736
  0
LINE
  5
25B
100
AcDbEntity
  8
RACCORDO
100
AcDbLine
 62
253
  6
CONTINUOUS
 10
125.8875357405
 20
57.2540449733
 11
125.0683836962
 21
57.5830349016
  0
LINE
  5
25C
100
AcDbEntity
  8
RACCORDO
100
AcDbLine
 62
253
  6
CONTINUOUS
 10
148.4534518974
 20
48.2290811419
 11
147.6342998531
 21
48.5580710702
  0
LINE
  5
25D
100
AcDbEntity
  8
RACCORDO
100
AcDbLine
 62
253
  6
CONTINUOUS
 10
146.4874869911
 20
49.0186569699
 11
145.504504538
 21
49.4134448839
  0
LINE
  5
25E
100
AcDbEntity
  8
RACCORDO
100
AcDbLine
 62
253
  6
CONTINUOUS
 10
144.357691676
 20
49.8740307836
 11
143.5385396317
 21
50.2030207119
  0
LINE
  5
25F
100
AcDbEntity
  8
RACCORDO
100
AcDbLine
 62
253
  6
CONTINUOUS
 10
130.0225309009
 20
55.6313545295
 11
129.2033788566
 21
55.9603444578
  0
LINE
  5
260
100
AcDbEntity
  8
RACCORDO
100
AcDbLine
 62
253
  6
CONTINUOUS
 10
128.0565659946
 20
56.4209303575
 11
127.0735835415
 21
56.8157182715
  0
LINE
  5
261
100
AcDbEntity
  8
RACCORDO
100
AcDbLine
 62
253
  6
CONTINUOUS
 10
125.9267706795
 20
57.2763041712
 11
125.1076186352
 21
57.6052940995
  0
LINE
  5
262
100
AcDbEntity
  8
DRAFT
100
AcDbLine
 62
7
  6
CONTINUOUS
 10
117.6133456628
 20
60.7317224842
 11
118.6174799519
 21
60.328439516
  0
LINE
  5
263
100
AcDbEntity
  8
0
100
AcDbLine
 62
7
  6
CONTINUOUS
 10
132.8401223151
 20
56.4747967993
 11
132.0209702708
 21
56.8037867276
  0
LINE
  5
264
100
AcDbEntity
  8
0
100
AcDbLine
 62
7
  6
CONTINUOUS
 10
130.8741574088
 20
57.2643726273
 11
129.8911749557
 21
57.6591605413
  0
LINE
  5
265
100
AcDbEntity
  8
0
100
AcDbLine
 62
7
  6
CONTINUOUS
 10
128.7443620937
 20
58.119746441
 11
127.9252100494
 21
58.4487363693
  0
LINE
  5
266
100
AcDbEntity
  8
0
100
AcDbLine
 62
7
  6
CONTINUOUS
 10
146.3561310459
 20
51.0464629817
 11
147.1752830902
 21
50.7174730534
  0
LINE
  5
267
100
AcDbEntity
  8
0
100
AcDbLine
 62
7
  6
CONTINUOUS
 10
148.3220959522
 20
50.2568871537
 11
149.3050784053
 21
49.8620992397
  0
LINE
  5
268
100
AcDbEntity
  8
RACCORDO
100
AcDbLine
 62
7
  6
CONTINUOUS
 10
140.4874498654
 20
53.8893795967
 11
141.3122713386
 21
53.5581126979
  0
LINE
  5
269
100
AcDbEntity
  8
DRAFT
100
AcDbLine
 62
7
  6
CONTINUOUS
 10
122.3683487472
 20
61.3412565628
 11
124.6510696751
 21
60.4244643754
  0
LINE
  5
26A
100
AcDbEntity
  8
RACCORDO
100
AcDbLine
 62
253
  6
CONTINUOUS
 10
127.3013416481
 20
59.437693293
 11
133.6688889262
 21
56.8803427531
  0
LINE
  5
26B
100
AcDbEntity
  8
RACCORDO
100
AcDbLine
 62
253
  6
CONTINUOUS
 10
145.7322626446
 20
52.0354199054
 11
149.8813009716
 21
50.3690725754
  0
LINE
  5
26C
100
AcDbEntity
  8
DRAFT
100
AcDbLine
 62
7
  6
CONTINUOUS
 10
137.8808120471
 20
55.1965960733
 11
137.3651827866
 21
55.4036844089
  0
LINE
  5
26D
100
AcDbEntity
  8
RACCORDO
100
AcDbLine
 62
7
  6
CONTINUOUS
 10
127.4876857922
 20
59.4920955677
 11
133.7758500056
 21
56.9666270563
  0
LINE
  5
26E
100
AcDbEntity
  8
RACCORDO
100
AcDbLine
 62
7
  6
CONTINUOUS
 10
145.9186067888
 20
52.0898221801
 11
149.8813009716
 21
50.4983148594
  0
LINE
  5
26F
100
AcDbEntity
  8
DRAFT
100
AcDbLine
 62
7
  6
CONTINUOUS
 10
137.03117034
 20
56.3900619427
 11
135.6795694669
 21
56.9328953245
  0
LINE
  5
270
100
AcDbEntity
  8
DRAFT
100
AcDbLine
 62
7
  6
CONTINUOUS
 10
122.3683487472
 20
62.27898166
 11
121.7721503518
 21
62.5184283765
  0
LINE
  5
271
100
AcDbEntity
  8
DRAFT
100
AcDbLine
 62
7
  6
CONTINUOUS
 10
125.5174577912
 20
61.0142284729
 11
126.2820323978
 21
60.707158074
  0
LINE
  5
272
100
AcDbEntity
  8
DRAFT
100
AcDbLine
 62
7
  6
CONTINUOUS
 10
143.9483787877
 20
53.6119550853
 11
144.7129533943
 21
53.3048846864
  0
LWPOLYLINE
  5
273
100
AcDbEntity
  8
RACCORDO
100
AcDbPolyline
 62
7
  6
CONTINUOUS
 90
12
 70
0
 10
106.820883283
 20
52.9486019756
 10
106.8262532696
 20
52.8465634743
 10
106.843203195
 20
52.7400988075
 10
106.8718481918
 20
52.6346201297
 10
106.910311257
 20
52.5354762346
 10
106.9580413418
 20
52.4419009862
 10
107.0154034197
 20
52.3527953597
 10
107.080645714
 20
52.2708054565
 10
107.1550188133
 20
52.1944741848
 10
107.2395197614
 20
52.1241000185
 10
107.3298084238
 20
52.0638505683
 10
107.4289276575
 20
52.0122835781
  0
LWPOLYLINE
  5
274
100
AcDbEntity
  8
RACCORDO
100
AcDbPolyline
 62
7
  6
CONTINUOUS
 90
3
 70
0
 10
164.0295074241
 20
172.9495064326
 10
164.0169184944
 20
172.9399213946
 10
164.0129088837
 20
172.936315683
  0
LINE
  5
275
100
AcDbEntity
  8
RACCORDO
100
AcDbLine
 62
7
  6
CONTINUOUS
 10
170.6233869149
 20
177.7904027973
 11
164.029446529
 21
172.949498652
  0
LINE
  5
276
100
AcDbEntity
  8
RACCORDO
100
AcDbLine
 62
253
  6
CONTINUOUS
 10
171.4268781756
 20
177.9588819524
 11
164.6453086214
 21
172.9802309113
  0
LWPOLYLINE
  5
277
100
AcDbEntity
  8
RACCORDO
100
AcDbPolyline
 62
7
  6
CONTINUOUS
 90
7
 70
0
 10
129.1843713179
 20
55.9546545762
 10
129.187481049
 20
55.9552119981
 10
129.1906140569
 20
55.9559257767
 10
129.1937703416
 20
55.956795912
 10
129.1969499031
 20
55.9578224039
 10
129.2001527414
 20
55.9590052525
 10
129.2033788566
 20
55.9603444578
  0
LWPOLYLINE
  5
278
100
AcDbEntity
  8
RACCORDO
100
AcDbPolyline
 62
253
  6
CONTINUOUS
 90
10
 70
0
 10
113.5421106403
 20
56.2998631268
 10
113.5628357014
 20
56.30141437
 10
113.5877616729
 20
56.3009116096
 10
113.6161463305
 20
56.2983698162
 10
113.64714446
 20
56.2938646773
 10
113.6798330255
 20
56.287530343
 10
113.713238655
 20
56.2795554317
 10
113.7463666241
 20
56.2701774135
 10
113.7782304765
 20
56.259675539
 10
113.8078813973
 20
56.2483625241
  0
LWPOLYLINE
  5
279
100
AcDbEntity
  8
RACCORDO
100
AcDbPolyline
 62
7
  6
CONTINUOUS
 90
8
 70
0
 10
127.4272926366
 20
60.6000728342
 10
127.4011303288
 20
60.6082921896
 10
127.3610665644
 20
60.6128633178
 10
127.3179588335
 20
60.6093494206
 10
127.2734602943
 20
60.597914803
 10
127.2281219996
 20
60.5786142331
 10
127.1813928966
 20
60.5513929428
 10
127.1332729853
 20
60.5162509319
  0
LINE
  5
27A
100
AcDbEntity
  8
RACCORDO
100
AcDbLine
 62
253
  6
CONTINUOUS
 10
126.4085327842
 20
60.8073229356
 11
127.1332729853
 21
60.5162509319
  0
LINE
  5
27B
100
AcDbEntity
  8
RACCORDO
100
AcDbLine
 62
253
  6
CONTINUOUS
 10
134.5056413839
 20
57.5553415769
 11
135.230381585
 21
57.2642695733
  0
LINE
  5
27C
100
AcDbEntity
  8
RACCORDO
100
AcDbLine
 62
253
  6
CONTINUOUS
 10
144.8394537807
 20
53.405049548
 11
145.5641939818
 21
53.1139775443
  0
LINE
  5
27D
100
AcDbEntity
  8
RACCORDO
100
AcDbLine
 62
7
  6
CONTINUOUS
 10
126.7063107802
 20
60.8896528774
 11
127.4274193478
 21
60.6000394197
  0
LINE
  5
27E
100
AcDbEntity
  8
RACCORDO
100
AcDbLine
 62
7
  6
CONTINUOUS
 10
134.7997877464
 20
57.6391300646
 11
135.5208963141
 21
57.3495166069
  0
LINE
  5
27F
100
AcDbEntity
  8
RACCORDO
100
AcDbLine
 62
7
  6
CONTINUOUS
 10
145.1372317767
 20
53.4873794899
 11
145.8583403443
 21
53.1977660321
  0
LINE
  5
280
100
AcDbEntity
  8
RACCORDO
100
AcDbLine
 62
7
  6
CONTINUOUS
 10
141.3114337605
 20
53.5584490881
 11
141.3346366261
 21
53.5467988197
  0
LINE
  5
281
100
AcDbEntity
  8
RACCORDO
100
AcDbLine
 62
253
  6
CONTINUOUS
 10
141.4285601675
 20
53.2924302168
 11
142.4889177298
 21
52.6520249295
  0
LINE
  5
282
100
AcDbEntity
  8
RACCORDO
100
AcDbLine
 62
7
  6
CONTINUOUS
 10
141.3350644976
 20
53.5465409329
 11
142.5024835
 21
52.8414756528
  0
LWPOLYLINE
  5
283
100
AcDbEntity
  8
RACCORDO
100
AcDbPolyline
 62
7
  6
CONTINUOUS
 90
5
 70
0
 10
141.3346366261
 20
53.5467988197
 10
141.3404955426
 20
53.5430723615
 10
141.3664788167
 20
53.521922957
 10
141.3887564464
 20
53.4958569714
 10
141.4070315114
 20
53.4657511786
  0
LWPOLYLINE
  5
284
100
AcDbEntity
  8
RACCORDO
100
AcDbPolyline
 62
253
  6
CONTINUOUS
 90
10
 70
0
 10
113.9078856085
 20
56.9196149891
 10
113.9106989583
 20
56.8904331024
 10
113.9183412721
 20
56.8600895776
 10
113.930580432
 20
56.8295060307
 10
113.9470447013
 20
56.7996113675
 10
113.967234015
 20
56.7713135716
 10
113.9905351671
 20
56.7454721258
 10
114.0162404368
 20
56.7228719057
 10
114.0435690848
 20
56.704199341
 10
114.0716910652
 20
56.6900215681
  0
LWPOLYLINE
  5
285
100
AcDbEntity
  8
RACCORDO
100
AcDbPolyline
 62
253
  6
CONTINUOUS
 90
9
 70
0
 10
106.820853411
 20
52.9486020046
 10
106.8219559042
 20
52.9241353473
 10
106.8340021479
 20
52.8617779087
 10
106.8591479988
 20
52.8007192022
 10
106.8970220288
 20
52.741861123
 10
106.9470648023
 20
52.6860730609
 10
107.0085371399
 20
52.6341790587
 10
107.0805310368
 20
52.5869456402
 10
107.1619830746
 20
52.5450704879
  0
LWPOLYLINE
  5
286
100
AcDbEntity
  8
RACCORDO
100
AcDbPolyline
 62
253
  6
CONTINUOUS
 90
9
 70
0
 10
106.8208513653
 20
101.6696721468
 10
106.8219563434
 20
101.6441001306
 10
106.8340036975
 20
101.5817426555
 10
106.8591505338
 20
101.5206842426
 10
106.8970252281
 20
101.4618267412
 10
106.9470681951
 20
101.4060394558
 10
107.0085401316
 20
101.3541463443
 10
107.0805329201
 20
101.306913845
 10
107.1619830746
 20
101.2650395319
  0
LINE
  5
287
100
AcDbEntity
  8
RACCORDO
100
AcDbLine
 62
7
  6
CONTINUOUS
 10
106.820853411
 20
52.9486020046
 11
106.8208513653
 21
101.6696724266
  0
LINE
  5
288
100
AcDbEntity
  8
RACCORDO
100
AcDbLine
 62
253
  6
CONTINUOUS
 10
107.1619830746
 20
52.5450704879
 11
107.1619830746
 21
101.2650395319
  0
LINE
  5
289
100
AcDbEntity
  8
RACCORDO
100
AcDbLine
 62
7
  6
CONTINUOUS
 10
106.8208522181
 20
101.6703830925
 11
106.8208513653
 21
101.6696721468
  0
LWPOLYLINE
  5
28A
100
AcDbEntity
  8
RACCORDO
100
AcDbPolyline
 62
253
  6
CONTINUOUS
 90
19
 70
0
 10
107.1619830746
 20
101.2650395319
 10
107.1622882131
 20
101.2720622089
 10
107.1631717688
 20
101.278677902
 10
107.1646337446
 20
101.2848866136
 10
107.1666929644
 20
101.2907347954
 10
107.1693306167
 20
101.2961760045
 10
107.1724902535
 20
101.301070903
 10
107.1761847914
 20
101.3054030684
 10
107.1804013354
 20
101.3091889388
 10
107.1850447187
 20
101.3123384661
 10
107.1901266946
 20
101.3148355837
 10
107.1956355348
 20
101.3166963764
 10
107.2014408448
 20
101.3178790194
 10
107.2075529571
 20
101.3183644684
 10
107.2139615606
 20
101.3181717831
 10
107.2205052857
 20
101.3173162875
 10
107.2271303433
 20
101.3158030902
 10
107.2338905318
 20
101.3136270894
 10
107.2407858565
 20
101.3107882889
  0
LWPOLYLINE
  5
28B
100
AcDbEntity
  8
RACCORDO
100
AcDbPolyline
 62
7
  6
CONTINUOUS
 90
4
 70
0
 10
160.4259250199
 20
169.5690851745
 10
159.8194872487
 20
168.9994326168
 10
159.213034977
 20
168.4297609017
 10
158.6711343775
 20
167.9207211989
  0
LWPOLYLINE
  5
28C
100
AcDbEntity
  8
RACCORDO
100
AcDbPolyline
 62
7
  6
CONTINUOUS
 90
3
 70
0
 10
163.9873876188
 20
172.9144053538
 10
163.4578963646
 20
172.4170606017
 10
160.4259250199
 20
169.5690851745
  0
LWPOLYLINE
  5
28D
100
AcDbEntity
  8
RACCORDO
100
AcDbPolyline
 62
253
  6
CONTINUOUS
 90
13
 70
0
 10
159.3557988378
 20
168.0110148366
 10
159.2875537773
 20
167.9492928727
 10
159.2202782804
 20
167.8768100321
 10
159.1549281361
 20
167.794596085
 10
159.0924317798
 20
167.7038190523
 10
159.0336771028
 20
167.6057686114
 10
158.9794988379
 20
167.5018377736
 10
158.9306667007
 20
167.3935030937
 10
158.8878744537
 20
167.282303692
 10
158.8517300501
 20
167.1698193883
 10
158.8227469967
 20
167.0576482573
 10
158.8013370584
 20
166.9473839242
 10
158.7878044079
 20
166.8405929241
  0
LWPOLYLINE
  5
28E
100
AcDbEntity
  8
RACCORDO
100
AcDbPolyline
 62
7
  6
CONTINUOUS
 90
3
 70
0
 10
163.9874006933
 20
172.9143903392
 10
164.0172873726
 20
172.9400791751
 10
164.0654453185
 20
172.9732100977
  0
LINE
  5
28F
100
AcDbEntity
  8
RACCORDO
100
AcDbLine
 62
7
  6
CONTINUOUS
 10
166.0369123614
 20
173.1215383552
 11
170.9303333355
 21
177.1299941497
  0
LINE
  5
290
100
AcDbEntity
  8
DRAFT
100
AcDbLine
 62
7
  6
CONTINUOUS
 10
170.4253752015
 20
176.6105892796
 11
165.5499754925
 21
172.6168956413
  0
LINE
  5
291
100
AcDbEntity
  8
DRAFT
100
AcDbLine
 62
7
  6
CONTINUOUS
 10
173.2214133709
 20
177.2381561611
 11
172.3790699814
 21
176.5481488517
  0
LINE
  5
292
100
AcDbEntity
  8
0
100
AcDbLine
 62
7
  6
CONTINUOUS
 10
173.2881080069
 20
177.2113700917
 11
171.854166916
 21
176.0367543157
  0
LWPOLYLINE
  5
293
100
AcDbEntity
  8
RACCORDO
100
AcDbPolyline
 62
7
  6
CONTINUOUS
 90
23
 70
0
 10
146.5197840938
 20
146.6813500574
 10
145.7777254328
 20
146.3916321327
 10
144.9422932234
 20
146.0318036969
 10
144.1278710278
 20
145.6438560553
 10
143.3361523451
 20
145.2281377605
 10
142.569908703
 20
144.7856076911
 10
141.8328511945
 20
144.3180101445
 10
141.1268940804
 20
143.8263348636
 10
140.4539732366
 20
143.3115921491
 10
139.8172407675
 20
142.7759611359
 10
139.2181900863
 20
142.2206743338
 10
138.6583575557
 20
141.6469938931
 10
138.1402234575
 20
141.0574625617
 10
137.6648918691
 20
140.4536139201
 10
137.2333150656
 20
139.836789505
 10
136.847018505
 20
139.2094867662
 10
136.5067700754
 20
138.5736599078
 10
136.2128969798
 20
137.9305058265
 10
135.9658161129
 20
137.2815403571
 10
135.7658557266
 20
136.628447112
 10
135.6133110497
 20
135.9728914724
 10
135.5083235404
 20
135.3164890827
 10
135.4571280999
 20
134.7695940351
  0
LWPOLYLINE
  5
294
100
AcDbEntity
  8
RACCORDO
100
AcDbPolyline
 62
253
  6
CONTINUOUS
 90
13
 70
0
 10
150.9649498912
 20
148.0448171751
 10
151.5148357658
 20
148.2578613524
 10
152.0544004503
 20
148.4846096407
 10
152.5836439447
 20
148.7250620402
 10
153.1039099915
 20
148.9797702886
 10
153.6138548482
 20
149.2481826481
 10
154.1094472874
 20
149.5286439055
 10
154.5905649129
 20
149.8214544309
 10
155.0573301209
 20
150.1263138542
 10
155.5060788719
 20
150.4406658515
 10
155.9355898196
 20
150.7636583148
 10
156.3470843104
 20
151.0961433522
 10
156.7405623443
 20
151.4381209635
  0
LINE
  5
295
100
AcDbEntity
  8
RACCORDO
100
AcDbLine
 62
7
  6
CONTINUOUS
 10
146.519775785
 20
146.6813484424
 11
150.6958571729
 21
148.236179868
  0
LINE
  5
296
100
AcDbEntity
  8
RACCORDO
100
AcDbLine
 62
253
  6
CONTINUOUS
 10
146.7888685032
 20
146.4899857497
 11
150.9649498912
 21
148.0448171751
  0
LWPOLYLINE
  5
297
100
AcDbEntity
  8
RACCORDO
100
AcDbPolyline
 62
253
  6
CONTINUOUS
 90
9
 70
0
 10
150.6958598088
 20
148.2361808493
 10
150.6999237781
 20
148.237559029
 10
150.7291773113
 20
148.2406803759
 10
150.7619667678
 20
148.2332516252
 10
150.7979247851
 20
148.2153559921
 10
150.8366485035
 20
148.1871939588
 10
150.8777040745
 20
148.1490810302
 10
150.9206315205
 20
148.101444202
 10
150.9649498912
 20
148.0448171751
  0
LWPOLYLINE
  5
298
100
AcDbEntity
  8
RACCORDO
100
AcDbPolyline
 62
253
  6
CONTINUOUS
 90
9
 70
0
 10
146.5197836105
 20
146.6813513555
 10
146.5238426949
 20
146.6827276968
 10
146.553096268
 20
146.6858489264
 10
146.5858857435
 20
146.6784200656
 10
146.6218437549
 20
146.6605243459
 10
146.660567436
 20
146.6323622671
 10
146.7016229346
 20
146.5942493514
 10
146.7445502734
 20
146.5466126082
 10
146.7888685032
 20
146.4899857497
  0
LWPOLYLINE
  5
299
100
AcDbEntity
  8
RACCORDO
100
AcDbPolyline
 62
7
  6
CONTINUOUS
 90
7
 70
0
 10
127.0545760027
 20
56.8100283899
 10
127.0576857338
 20
56.8105858118
 10
127.0608187417
 20
56.8112995904
 10
127.0639750264
 20
56.8121697256
 10
127.067154588
 20
56.8131962176
 10
127.0703574263
 20
56.8143790662
 10
127.0735835415
 20
56.8157182715
  0
LWPOLYLINE
  5
29A
100
AcDbEntity
  8
RACCORDO
100
AcDbPolyline
 62
7
  6
CONTINUOUS
 90
7
 70
0
 10
125.0886110964
 20
57.5996042179
 10
125.0917208275
 20
57.6001616398
 10
125.0948538354
 20
57.6008754184
 10
125.0980101201
 20
57.6017455537
 10
125.1011896817
 20
57.6027720456
 10
125.10439252
 20
57.6039548942
 10
125.1076186352
 20
57.6052940995
  0
LINE
  5
29B
100
AcDbEntity
  8
RACCORDO
100
AcDbLine
 62
253
  6
CONTINUOUS
 10
121.9154313188
 20
74.3641215669
 11
117.5849314088
 21
76.1033479596
  0
LINE
  5
29C
100
AcDbEntity
  8
RACCORDO
100
AcDbLine
 62
7
  6
CONTINUOUS
 10
122.0878036287
 20
74.4132223451
 11
117.7574470223
 21
76.1523911838
  0
LINE
  5
29D
100
AcDbEntity
  8
RACCORDO
100
AcDbLine
 62
7
  6
CONTINUOUS
 10
117.757791624
 20
76.1522520804
 11
117.7574502831
 21
76.1523898742
  0
LWPOLYLINE
  5
29E
100
AcDbEntity
  8
RACCORDO
100
AcDbPolyline
 62
253
  6
CONTINUOUS
 90
40
 70
0
 10
112.8880773216
 20
54.8774974118
 10
112.8885048929
 20
54.8411356025
 10
112.8894838222
 20
54.8055654317
 10
112.8910141127
 20
54.7707869016
 10
112.8931320465
 20
54.7368253643
 10
112.8958013533
 20
54.7036554765
 10
112.898913208
 20
54.6712011988
 10
112.9024544998
 20
54.6394576225
 10
112.9064383562
 20
54.6084296689
 10
112.9107953087
 20
54.5780560425
 10
112.9155209922
 20
54.5483154725
 10
112.9206197911
 20
54.5192292442
 10
112.9260353585
 20
54.4907998952
 10
112.9317654299
 20
54.463022012
 10
112.9378122901
 20
54.4359010232
 10
112.9441264129
 20
54.4094557269
 10
112.9507013962
 20
54.383699404
 10
112.9575436618
 20
54.3586187883
 10
112.9646229182
 20
54.3341928556
 10
112.9719260969
 20
54.3104425084
 10
112.9794662855
 20
54.2873468585
 10
112.9872524256
 20
54.2648221951
 10
112.9952656342
 20
54.2428838716
 10
113.003524816
 20
54.2215165507
 10
113.0120955971
 20
54.2005904886
 10
113.0209649394
 20
54.1800855842
 10
113.0301459118
 20
54.1600219614
 10
113.039743311
 20
54.1403302209
 10
113.0497617016
 20
54.1209544215
 10
113.0601965659
 20
54.1019505394
 10
113.0711390896
 20
54.0834170607
 10
113.0825752249
 20
54.0653178855
 10
113.0945190842
 20
54.0476891619
 10
113.1071041093
 20
54.0307377601
 10
113.1202225242
 20
54.01444357
 10
113.1339821943
 20
53.9988267684
 10
113.1488400732
 20
53.9841546918
 10
113.1649485603
 20
53.9705165134
 10
113.1821554604
 20
53.9578232125
 10
113.2004608819
 20
53.9460748703
  0
LINE
  5
29F
100
AcDbEntity
  8
RACCORDO
100
AcDbLine
 62
253
  6
CONTINUOUS
 10
112.8880773216
 20
93.8051265979
 11
112.8880773216
 21
54.8774974118
  0
LINE
  5
2A0
100
AcDbEntity
  8
RACCORDO
100
AcDbLine
 62
253
  6
CONTINUOUS
 10
113.1718103956
 20
93.828630237
 11
113.1718103956
 21
54.9010010509
  0
LINE
  5
2A1
100
AcDbEntity
  8
RACCORDO
100
AcDbLine
 62
7
  6
CONTINUOUS
 10
114.1106986628
 20
57.0846606714
 11
114.1106986628
 21
92.9313771735
  0
LINE
  5
2A2
100
AcDbEntity
  8
RACCORDO
100
AcDbLine
 62
7
  6
CONTINUOUS
 10
115.6303123516
 20
84.479447406
 11
115.6303123516
 21
83.7836654462
  0
LINE
  5
2A3
100
AcDbEntity
  8
RACCORDO
100
AcDbLine
 62
7
  6
CONTINUOUS
 10
115.6303123516
 20
76.1824656452
 11
115.6303123516
 21
75.2964164352
  0
LINE
  5
2A4
100
AcDbEntity
  8
RACCORDO
100
AcDbLine
 62
7
  6
CONTINUOUS
 10
115.6303123516
 20
59.3125317025
 11
115.6303123516
 21
67.6632843846
  0
LINE
  5
2A5
100
AcDbEntity
  8
RACCORDO
100
AcDbLine
 62
7
  6
CONTINUOUS
 10
115.6303123516
 20
92.2364955874
 11
115.6303123516
 21
92.3210660571
  0
LINE
  5
2A6
100
AcDbEntity
  8
RACCORDO
100
AcDbLine
 62
253
  6
CONTINUOUS
 10
113.9106991388
 20
92.9999176686
 11
113.9078856085
 21
92.9722205228
  0
LWPOLYLINE
  5
2A7
100
AcDbEntity
  8
RACCORDO
100
AcDbPolyline
 62
253
  6
CONTINUOUS
 90
4
 70
0
 10
161.1194514773
 20
169.6677032184
 10
160.531602918
 20
169.1155124508
 10
159.9437187051
 20
168.5632829901
 10
159.3557988383
 20
168.0110148364
  0
LWPOLYLINE
  5
2A8
100
AcDbEntity
  8
RACCORDO
100
AcDbPolyline
 62
253
  6
CONTINUOUS
 90
3
 70
0
 10
164.6457940894
 20
172.9800352771
 10
164.0581594593
 20
172.4280766648
 10
161.1194514773
 20
169.6677032184
  0
LWPOLYLINE
  5
2A9
100
AcDbEntity
  8
RACCORDO
100
AcDbPolyline
 62
7
  6
CONTINUOUS
 90
3
 70
0
 10
117.6916336111
 20
76.1764769426
 10
117.5940348307
 20
76.2044035896
 10
117.493318468
 20
76.2245569279
  0
LWPOLYLINE
  5
2AA
100
AcDbEntity
  8
RACCORDO
100
AcDbPolyline
 62
253
  6
CONTINUOUS
 90
7
 70
0
 10
122.0877482463
 20
74.4132445694
 10
122.0778625003
 20
74.4166407134
 10
122.048885589
 20
74.4208833463
 10
122.017610798
 20
74.4176351811
 10
121.9845673267
 20
74.40695118
 10
121.9503143022
 20
74.3890121266
 10
121.9154313188
 20
74.3641215669
  0
LWPOLYLINE
  5
2AB
100
AcDbEntity
  8
RACCORDO
100
AcDbPolyline
 62
253
  6
CONTINUOUS
 90
7
 70
0
 10
117.7574502831
 20
76.1523898742
 10
117.7474851564
 20
76.1558136856
 10
117.7185294257
 20
76.1600347085
 10
117.687254315
 20
76.156775131
 10
117.6541828835
 20
76.14609899
 10
117.61988215
 20
76.1281875147
 10
117.5849314088
 20
76.1033479596
  0
LWPOLYLINE
  5
2AC
100
AcDbEntity
  8
RACCORDO
100
AcDbPolyline
 62
253
  6
CONTINUOUS
 90
16
 70
0
 10
117.5849314088
 20
76.1033479596
 10
117.5379901157
 20
76.1201376051
 10
117.489270164
 20
76.1338976588
 10
117.4387715537
 20
76.1446281208
 10
117.3858696715
 20
76.1523886261
 10
117.3311891307
 20
76.1571195397
 10
117.2766037713
 20
76.1586419563
 10
117.2221454431
 20
76.1568311234
 10
117.1677822963
 20
76.1518117936
 10
117.1152926211
 20
76.1437793196
 10
117.0647637567
 20
76.132633015
 10
117.016108364
 20
76.1184735662
 10
116.9708427156
 20
76.101798386
 10
116.9294722361
 20
76.0827732784
 10
116.891491501
 20
76.0612324392
 10
116.8569005103
 20
76.0371758686
  0
LINE
  5
2AD
100
AcDbEntity
  8
RACCORDO
100
AcDbLine
 62
7
  6
CONTINUOUS
 10
117.7577793282
 20
76.1522308891
 11
117.6916336111
 21
76.1764769426
  0
LWPOLYLINE
  5
2AE
100
AcDbEntity
  8
RACCORDO
100
AcDbPolyline
 62
253
  6
CONTINUOUS
 90
10
 70
0
 10
113.218300706
 20
94.3977455121
 10
113.2152515804
 20
94.4035271799
 10
113.2124558338
 20
94.4096614851
 10
113.2099200792
 20
94.4161338852
 10
113.2076503144
 20
94.4229290355
 10
113.2056519071
 20
94.4300308254
 10
113.2039295825
 20
94.4374224171
 10
113.202487412
 20
94.4450862847
 10
113.2013288039
 20
94.4530042564
 10
113.2004564948
 20
94.4611575572
  0
LWPOLYLINE
  5
2AF
100
AcDbEntity
  8
RACCORDO
100
AcDbPolyline
 62
253
  6
CONTINUOUS
 90
8
 70
0
 10
122.1270103949
 20
74.1839571231
 10
122.1121041675
 20
74.2143582596
 10
122.0914244169
 20
74.2437106575
 10
122.0652026528
 20
74.2720376805
 10
122.0343966805
 20
74.2983420143
 10
121.9993257682
 20
74.322291221
 10
121.9596706476
 20
74.3442177385
 10
121.9154313188
 20
74.3641215669
  0
LWPOLYLINE
  5
2B0
100
AcDbEntity
  8
RACCORDO
100
AcDbPolyline
 62
253
  6
CONTINUOUS
 90
8
 70
0
 10
120.6717874366
 20
81.5437679986
 10
120.6574985909
 20
81.5729088234
 10
120.6376763386
 20
81.6010448143
 10
120.6125422149
 20
81.6281980524
 10
120.5830134819
 20
81.6534122454
 10
120.5493958938
 20
81.6763686291
 10
120.5113836965
 20
81.6973859677
 10
120.46897689
 20
81.7164642612
  0
LINE
  5
2B1
100
AcDbEntity
  8
RACCORDO
100
AcDbLine
 62
253
  6
CONTINUOUS
 10
113.5421106403
 20
93.0144427991
 11
113.1718103956
 21
93.828630237
  0
LINE
  5
2B2
100
AcDbEntity
  8
RACCORDO
100
AcDbLine
 62
253
  6
CONTINUOUS
 10
113.8078813973
 20
93.1014176416
 11
113.2182997271
 21
94.3977440587
  0
LINE
  5
2B3
100
AcDbEntity
  8
DRAFT
100
AcDbLine
 62
7
  6
CONTINUOUS
 10
117.924092214
 20
56.764590619
 11
117.924092214
 21
55.4332163165
  0
LWPOLYLINE
  5
2B4
100
AcDbEntity
  8
RACCORDO
100
AcDbPolyline
 62
253
  6
CONTINUOUS
 90
40
 70
0
 10
113.1718103956
 20
54.9010010509
 10
113.1669963529
 20
54.8640505621
 10
113.1626661259
 20
54.8280101841
 10
113.1587848386
 20
54.7928895523
 10
113.1553159445
 20
54.7587405898
 10
113.1522299528
 20
54.7255315892
 10
113.1495107336
 20
54.6931439995
 10
113.147136785
 20
54.6615737518
 10
113.145084937
 20
54.6308388309
 10
113.1433471761
 20
54.6008490409
 10
113.1419067834
 20
54.5715849464
 10
113.1407477836
 20
54.5430761286
 10
113.1398690447
 20
54.515303111
 10
113.1392579389
 20
54.4882632228
 10
113.1389004737
 20
54.461967713
 10
113.1387962654
 20
54.4364165864
 10
113.1389342477
 20
54.4116249953
 10
113.1393028799
 20
54.3875855218
 10
113.1399031229
 20
54.3642630655
 10
113.1407229571
 20
54.341677827
 10
113.1417555002
 20
54.3198159682
 10
113.1430116059
 20
54.2985892719
 10
113.1444760419
 20
54.2780089945
 10
113.1461481627
 20
54.2580678222
 10
113.1480626234
 20
54.2386463861
 10
113.1502014415
 20
54.2197191924
 10
113.1525674052
 20
54.2013120893
 10
113.1552267214
 20
54.1833786675
 10
113.1581607696
 20
54.1658597546
 10
113.1613687138
 20
54.1488115664
 10
113.1649412915
 20
54.1323572837
 10
113.168845964
 20
54.116451765
 10
113.1730857182
 20
54.1011362939
 10
113.1777989645
 20
54.0866606429
 10
113.1828736655
 20
54.072981351
 10
113.1883749403
 20
54.0601387676
 10
113.1946861205
 20
54.0485008691
 10
113.2018906662
 20
54.0381841894
 10
113.2097864624
 20
54.0290618514
 10
113.2182997271
 20
54.0211335367
  0
LWPOLYLINE
  5
2B5
100
AcDbEntity
  8
RACCORDO
100
AcDbPolyline
 62
7
  6
CONTINUOUS
 90
9
 70
0
 10
107.1001036758
 20
102.347887261
 10
107.0400483298
 20
102.2820770941
 10
106.9834494943
 20
102.2064529244
 10
106.9346924944
 20
102.1255523454
 10
106.8940791018
 20
102.0398352873
 10
106.8620817171
 20
101.9502058791
 10
106.8391227835
 20
101.857870953
 10
106.8253609926
 20
101.7634995586
 10
106.8208828779
 20
101.6703829963
  0
LINE
  5
2B6
100
AcDbEntity
  8
RACCORDO
100
AcDbLine
 62
7
  6
CONTINUOUS
 10
156.1515530709
 20
151.4363489236
 11
156.1513457175
 21
151.4361616518
  0
LWPOLYLINE
  5
2B7
100
AcDbEntity
  8
RACCORDO
100
AcDbPolyline
 62
7
  6
CONTINUOUS
 90
13
 70
0
 10
156.1515391629
 20
151.4363639187
 10
155.8503810631
 20
151.1728154034
 10
155.4537778976
 20
150.8485278178
 10
155.0383259175
 20
150.5332018497
 10
154.604694662
 20
150.2274189508
 10
154.153602806
 20
149.9317803233
 10
153.6858258593
 20
149.6468843168
 10
153.2021908443
 20
149.3732803453
 10
152.7034572398
 20
149.1114545541
 10
152.1903386237
 20
148.8618639534
 10
151.6637087774
 20
148.6249832829
 10
151.1246195122
 20
148.4013014226
 10
150.6958586342
 20
148.2361840041
  0
LINE
  5
2B8
100
AcDbEntity
  8
RACCORDO
100
AcDbLine
 62
253
  6
CONTINUOUS
 10
176.823928303
 20
160.9954202337
 11
176.9177853695
 21
161.0628774395
  0
LINE
  5
2B9
100
AcDbEntity
  8
RACCORDO
100
AcDbLine
 62
253
  6
CONTINUOUS
 10
176.9177853695
 20
161.0628774395
 11
178.5923539238
 21
162.2664367051
  0
LINE
  5
2BA
100
AcDbEntity
  8
RACCORDO
100
AcDbLine
 62
253
  6
CONTINUOUS
 10
178.5923539238
 20
162.2664367051
 11
183.1554098731
 21
165.5461562888
  0
LWPOLYLINE
  5
2BB
100
AcDbEntity
  8
RACCORDO
100
AcDbPolyline
 62
253
  6
CONTINUOUS
 90
10
 70
0
 10
177.6054110825
 20
159.8347009803
 10
178.3134878153
 20
160.3417829238
 10
179.0215116057
 20
160.8488355722
 10
179.7294824543
 20
161.3558589254
 10
180.4374012381
 20
161.8628535831
 10
181.1452670808
 20
162.3698189452
 10
181.8530773529
 20
162.8767532114
 10
182.5608311787
 20
163.3836557811
 10
183.2685294361
 20
163.890527254
 10
183.976172126
 20
164.3973676294
  0
LWPOLYLINE
  5
2BC
100
AcDbEntity
  8
RACCORDO
100
AcDbPolyline
 62
7
  6
CONTINUOUS
 90
4
 70
0
 10
117.3901806789
 20
76.2370040019
 10
117.2861771389
 20
76.2416359023
 10
117.1817865942
 20
76.2385038828
 10
117.0777599565
 20
76.2274647041
  0
LINE
  5
2BD
100
AcDbEntity
  8
RACCORDO
100
AcDbLine
 62
7
  6
CONTINUOUS
 10
117.493318468
 20
76.2245569279
 11
117.3901806789
 21
76.2370040019
  0
LWPOLYLINE
  5
2BE
100
AcDbEntity
  8
RACCORDO
100
AcDbPolyline
 62
253
  6
CONTINUOUS
 90
7
 70
0
 10
120.6494381443
 20
81.7678713743
 10
120.6390334907
 20
81.7714489481
 10
120.6086962424
 20
81.7758907536
 10
120.5759532392
 20
81.7724901014
 10
120.5413585244
 20
81.7613045339
 10
120.5054974735
 20
81.7425233217
 10
120.46897689
 20
81.7164642612
  0
LWPOLYLINE
  5
2BF
100
AcDbEntity
  8
RACCORDO
100
AcDbPolyline
 62
253
  6
CONTINUOUS
 90
31
 70
0
 10
149.8813009716
 20
71.6050214038
 10
149.5120762147
 20
71.7448720143
 10
148.7935525796
 20
71.9867254942
 10
148.0564069339
 20
72.2053319489
 10
147.2986509905
 20
72.4011158696
 10
146.5222730365
 20
72.5736527651
 10
145.7332379332
 20
72.7216691625
 10
144.9313847953
 20
72.8449898108
 10
144.116874508
 20
72.943789961
 10
143.2961545883
 20
73.0173218932
 10
142.4691832962
 20
73.0653792359
 10
141.6360023715
 20
73.0881683607
 10
140.8031845503
 20
73.0855606623
 10
139.9708379369
 20
73.0573708862
 10
139.1388544269
 20
73.0037842869
 10
138.313482443
 20
72.9252280231
 10
137.4947634115
 20
72.8215355512
 10
136.6826559061
 20
72.6928734147
 10
135.8832840701
 20
72.5401684027
 10
135.0966377844
 20
72.3632206933
 10
134.3227271681
 20
72.1622301083
 10
133.5677067216
 20
71.9387229022
 10
132.8317201572
 20
71.6925107877
 10
132.1146237626
 20
71.4237820521
 10
131.4221409016
 20
71.134627811
 10
130.7545158848
 20
70.8249159728
 10
130.1115044016
 20
70.4947786291
 10
129.4980968835
 20
70.1467031706
 10
128.9159568076
 20
69.7815187275
 10
128.3634206967
 20
69.3983961697
 10
127.8404885509
 20
68.9973354971
  0
LWPOLYLINE
  5
2C0
100
AcDbEntity
  8
RACCORDO
100
AcDbPolyline
 62
253
  6
CONTINUOUS
 90
31
 70
0
 10
149.8813009716
 20
71.9015585914
 10
149.6168991475
 20
72.0018150407
 10
148.8884560606
 20
72.2469878816
 10
148.1393118404
 20
72.4690961428
 10
147.3715797358
 20
72.6675422058
 10
146.5871958668
 20
72.8418804102
 10
145.7878903859
 20
72.9917846795
 10
144.9756213566
 20
73.1168642768
 10
144.1526563786
 20
73.216759753
 10
143.3212197677
 20
73.2912607799
 10
142.4834956425
 20
73.3401510908
 10
141.6416762707
 20
73.3632968007
 10
140.798022653
 20
73.3607181926
 10
139.9548442822
 20
73.3324043317
 10
139.1142400532
 20
73.2784196201
 10
138.278153087
 20
73.1989770561
 10
137.4487663816
 20
73.094233167
 10
136.6282480008
 20
72.9644202258
 10
135.8185050306
 20
72.8099170158
 10
135.0215674649
 20
72.6310255623
 10
134.239636161
 20
72.4281632784
 10
133.4748341791
 20
72.2019596155
 10
132.7291743973
 20
71.9529292014
 10
132.0046307988
 20
71.6816583918
 10
131.3031864605
 20
71.388984123
 10
130.6268038494
 20
71.0756567137
 10
129.9771494097
 20
70.7423848399
 10
129.3556937433
 20
70.3900063636
 10
128.7640407871
 20
70.0193632254
 10
128.2038854904
 20
69.6313253594
 10
127.6767579431
 20
69.2268240082
  0
LINE
  5
2C1
100
AcDbEntity
  8
RACCORDO
100
AcDbLine
 62
253
  6
CONTINUOUS
 10
120.46897689
 20
81.7164642612
 11
115.3721357482
 21
83.7634705694
  0
LINE
  5
2C2
100
AcDbEntity
  8
RACCORDO
100
AcDbLine
 62
7
  6
CONTINUOUS
 10
120.649441311
 20
81.7678701025
 11
115.539251124
 21
83.8202376881
  0
LWPOLYLINE
  5
2C3
100
AcDbEntity
  8
RACCORDO
100
AcDbPolyline
 62
253
  6
CONTINUOUS
 90
10
 70
0
 10
127.6767579431
 20
69.2268240082
 10
127.6799092292
 20
69.1979215245
 10
127.6878106361
 20
69.1678014477
 10
127.7002224546
 20
69.1373775462
 10
127.7167681411
 20
69.1075728054
 10
127.7369457407
 20
69.079291427
 10
127.7601431152
 20
69.0533913976
 10
127.7856565139
 20
69.0306584596
 10
127.8127119237
 20
69.011782274
 10
127.8404885509
 20
68.9973354971
  0
LWPOLYLINE
  5
2C4
100
AcDbEntity
  8
RACCORDO
100
AcDbPolyline
 62
7
  6
CONTINUOUS
 90
10
 70
0
 10
127.5881298663
 20
60.233551193
 10
127.5855215571
 20
60.300291765
 10
127.5781748914
 20
60.3611596519
 10
127.5660898693
 20
60.4161548537
 10
127.5490051544
 20
60.4658146848
 10
127.527182083
 20
60.5096018309
 10
127.5014046639
 20
60.5459043487
 10
127.4716307729
 20
60.5743850563
 10
127.4379025341
 20
60.5953811356
 10
127.4272926366
 20
60.6000728342
  0
LINE
  5
2C5
100
AcDbEntity
  8
0
100
AcDbLine
 62
7
  6
CONTINUOUS
 10
128.2750127433
 20
52.7352779611
 11
128.2419468892
 21
53.6092592479
  0
LINE
  5
2C6
100
AcDbEntity
  8
DRAFT
100
AcDbLine
 62
7
  6
CONTINUOUS
 10
122.3683487472
 20
61.3412565628
 11
122.3683487472
 21
62.27898166
  0
LINE
  5
2C7
100
AcDbEntity
  8
RACCORDO
100
AcDbLine
 62
253
  6
CONTINUOUS
 10
125.1504300118
 20
57.675769629
 11
125.1504300118
 21
57.6181096286
  0
LINE
  5
2C8
100
AcDbEntity
  8
RACCORDO
100
AcDbLine
 62
7
  6
CONTINUOUS
 10
107.0994242411
 20
102.3472576041
 11
114.8385493666
 21
110.0772147943
  0
LINE
  5
2C9
100
AcDbEntity
  8
RACCORDO
100
AcDbLine
 62
253
  6
CONTINUOUS
 10
107.7724971801
 20
102.4295797291
 11
115.5045145936
 21
110.1524376273
  0
LWPOLYLINE
  5
2CA
100
AcDbEntity
  8
RACCORDO
100
AcDbPolyline
 62
7
  6
CONTINUOUS
 90
8
 70
0
 10
182.9114444738
 20
166.3443458314
 10
182.8648135619
 20
166.3025957807
 10
182.8250328377
 20
166.2589501543
 10
182.7921023014
 20
166.2134089522
 10
182.7657493974
 20
166.1653949332
 10
182.7462466811
 20
166.1154853385
 10
182.7344118187
 20
166.0654118917
 10
182.7305955045
 20
166.0153351624
  0
LWPOLYLINE
  5
2CB
100
AcDbEntity
  8
RACCORDO
100
AcDbPolyline
 62
253
  6
CONTINUOUS
 90
12
 70
0
 10
107.1000760939
 20
102.3479075245
 10
107.1379631684
 20
102.3814835906
 10
107.1858379206
 20
102.4144092693
 10
107.2383635235
 20
102.441406748
 10
107.2951432375
 20
102.4622729953
 10
107.3557542388
 20
102.4768571457
 10
107.4197354214
 20
102.4850469125
 10
107.4865981401
 20
102.4867767482
 10
107.5558398943
 20
102.4820374566
 10
107.6269349519
 20
102.4708639094
 10
107.6993382908
 20
102.4533349553
 10
107.7724971801
 20
102.4295797291
  0
LWPOLYLINE
  5
2CC
100
AcDbEntity
  8
RACCORDO
100
AcDbPolyline
 62
253
  6
CONTINUOUS
 90
13
 70
0
 10
107.7724971801
 20
102.4295797291
 10
107.7022800601
 20
102.3680097569
 10
107.6336179083
 20
102.296004593
 10
107.5676087704
 20
102.2147157445
 10
107.5053082648
 20
102.1254431831
 10
107.4477127016
 20
102.0296145563
 10
107.3957431496
 20
101.9287623559
 10
107.3502307065
 20
101.8244994108
 10
107.3119032072
 20
101.7184930947
 10
107.2813735856
 20
101.6124386614
 10
107.2591300713
 20
101.5080321338
 10
107.245528383
 20
101.4069431819
 10
107.2407860388
 20
101.3107884209
  0
LINE
  5
2CD
100
AcDbEntity
  8
0
100
AcDbLine
 62
7
  6
CONTINUOUS
 10
187.1317775554
 20
171.6514403028
 11
185.6978364645
 21
170.4768245268
  0
LINE
  5
2CE
100
AcDbEntity
  8
DRAFT
100
AcDbLine
 62
7
  6
CONTINUOUS
 10
187.1984721914
 20
171.6246542334
 11
186.356128802
 21
170.9346469239
  0
LINE
  5
2CF
100
AcDbEntity
  8
DRAFT
100
AcDbLine
 62
7
  6
CONTINUOUS
 10
182.2512284701
 20
165.9092959245
 11
187.126628179
 21
169.9029895629
  0
LINE
  5
2D0
100
AcDbEntity
  8
RACCORDO
100
AcDbLine
 62
7
  6
CONTINUOUS
 10
187.8048654479
 20
170.3528016259
 11
182.9114444738
 21
166.3443458314
  0
LINE
  5
2D1
100
AcDbEntity
  8
RACCORDO
100
AcDbLine
 62
7
  6
CONTINUOUS
 10
114.9080162042
 20
110.1340423698
 11
126.9071858821
 21
118.1076123149
  0
LINE
  5
2D2
100
AcDbEntity
  8
RACCORDO
100
AcDbLine
 62
253
  6
CONTINUOUS
 10
115.5045145936
 20
110.1524376273
 11
127.4906606603
 21
118.1173532506
  0
LWPOLYLINE
  5
2D3
100
AcDbEntity
  8
RACCORDO
100
AcDbPolyline
 62
253
  6
CONTINUOUS
 90
15
 70
0
 10
127.4906606603
 20
118.1173532506
 10
127.8165417736
 20
118.3308362508
 10
128.1762112089
 20
118.5464463292
 10
128.5696689663
 20
118.7641834856
 10
128.9962466769
 20
118.9858574574
 10
129.4566127096
 20
119.2096585073
 10
129.9527721709
 20
119.4301574238
 10
130.4853661228
 20
119.6474682767
 10
131.0537535033
 20
119.8614769962
 10
131.6580162325
 20
120.0664121613
 10
132.2990161411
 20
120.2622981895
 10
132.9758913984
 20
120.4491106634
 10
133.686138432
 20
120.6210049088
 10
134.4316777347
 20
120.7779017837
 10
135.2013903735
 20
120.9182037535
  0
LINE
  5
2D4
100
AcDbEntity
  8
RACCORDO
100
AcDbLine
 62
7
  6
CONTINUOUS
 10
127.4511859883
 20
118.4515011928
 11
126.907094256
 21
118.1075501064
  0
LWPOLYLINE
  5
2D5
100
AcDbEntity
  8
RACCORDO
100
AcDbPolyline
 62
253
  6
CONTINUOUS
 90
9
 70
0
 10
126.9071858888
 20
118.1076123193
 10
126.956385996
 20
118.1360548704
 10
127.0224147881
 20
118.1628666452
 10
127.0932281649
 20
118.179981726
 10
127.16805298
 20
118.1872132529
 10
127.2460722883
 20
118.1844822755
 10
127.3264342686
 20
118.1718186155
 10
127.4082615242
 20
118.1493605396
 10
127.4906606603
 20
118.1173532506
  0
LWPOLYLINE
  5
2D6
100
AcDbEntity
  8
RACCORDO
100
AcDbPolyline
 62
7
  6
CONTINUOUS
 90
7
 70
0
 10
117.0777599565
 20
76.2274647041
 10
116.9761056619
 20
76.208578542
 10
116.8767571582
 20
76.1816165464
 10
116.7808687483
 20
76.1463613817
 10
116.6914542359
 20
76.1036968984
 10
116.6094870733
 20
76.0541324652
 10
116.5656266363
 20
76.0224239309
  0
LINE
  5
2D7
100
AcDbEntity
  8
RACCORDO
100
AcDbLine
 62
253
  6
CONTINUOUS
 10
113.8078813973
 20
93.1014176416
 11
113.7782304768
 21
93.1102923564
  0
LINE
  5
2D8
100
AcDbEntity
  8
RACCORDO
100
AcDbLine
 62
7
  6
CONTINUOUS
 10
113.8806597354
 20
93.0235996762
 11
113.8838916821
 21
93.0224727994
  0
LINE
  5
2D9
100
AcDbEntity
  8
RACCORDO
100
AcDbLine
 62
7
  6
CONTINUOUS
 10
149.8813009716
 20
78.5650968569
 11
113.8840866841
 21
93.022389653
  0
LINE
  5
2DA
100
AcDbEntity
  8
RACCORDO
100
AcDbLine
 62
253
  6
CONTINUOUS
 10
149.8813009716
 20
78.6135190843
 11
113.8078813973
 21
93.1014176416
  0
LINE
  5
2DB
100
AcDbEntity
  8
RACCORDO
100
AcDbLine
 62
7
  6
CONTINUOUS
 10
113.884047232
 20
93.0224055005
 11
113.8839806334
 21
93.0224322555
  0
LWPOLYLINE
  5
2DC
100
AcDbEntity
  8
RACCORDO
100
AcDbPolyline
 62
253
  6
CONTINUOUS
 90
13
 70
0
 10
149.6450386468
 20
79.767944487
 10
146.5234478284
 20
81.1795145165
 10
143.4175740449
 20
82.5560611757
 10
140.3274172963
 20
83.8975844645
 10
137.2530255247
 20
85.204055736
 10
134.194350788
 20
86.475503637
 10
131.1512492596
 20
87.7120141087
 10
128.1237133708
 20
88.9136090849
 10
125.1117506904
 20
90.0802666317
 10
122.1152400979
 20
91.2120068886
 10
119.1341412198
 20
92.3088365686
 10
116.1684944295
 20
93.3707489587
 10
113.2182997271
 20
94.3977440587
  0
LWPOLYLINE
  5
2DD
100
AcDbEntity
  8
RACCORDO
100
AcDbPolyline
 62
253
  6
CONTINUOUS
 90
13
 70
0
 10
149.6416034152
 20
79.8255764498
 10
146.5190310795
 20
81.2374860368
 10
143.4118713558
 20
82.6145178259
 10
140.320282111
 20
83.9566013245
 10
137.244629484
 20
85.2635682394
 10
134.1848579541
 20
86.5354422646
 10
131.1405007941
 20
87.7724478586
 10
128.1117240273
 20
88.9745504466
 10
125.0986875324
 20
90.141653652
 10
122.1009333639
 20
91.2739039721
 10
119.1184269776
 20
92.3713138943
 10
116.1515462874
 20
93.4337531494
 10
113.2004608819
 20
94.4611608376
  0
LWPOLYLINE
  5
2DE
100
AcDbEntity
  8
RACCORDO
100
AcDbPolyline
 62
253
  6
CONTINUOUS
 90
6
 70
0
 10
113.8839806334
 20
93.0224322555
 10
113.8720979421
 20
93.0279938477
 10
113.8530400706
 20
93.0406773153
 10
113.8358814177
 20
93.057230203
 10
113.8207822466
 20
93.077528489
 10
113.8078813973
 20
93.1014176416
  0
LWPOLYLINE
  5
2DF
100
AcDbEntity
  8
RACCORDO
100
AcDbPolyline
 62
7
  6
CONTINUOUS
 90
6
 70
0
 10
141.4070315114
 20
53.4657511786
 10
141.4209246272
 20
53.4326730645
 10
141.4299298997
 20
53.3978263708
 10
141.4339649026
 20
53.3622556606
 10
141.4333913301
 20
53.3268328075
 10
141.4285601675
 20
53.2924302168
  0
LINE
  5
2E0
100
AcDbEntity
  8
RACCORDO
100
AcDbLine
 62
7
  6
CONTINUOUS
 10
127.5881298663
 20
60.233551193
 11
127.5881298663
 21
59.4517549631
  0
LINE
  5
2E1
100
AcDbEntity
  8
RACCORDO
100
AcDbLine
 62
253
  6
CONTINUOUS
 10
127.6767579431
 20
87.4829419268
 11
127.6767579431
 21
69.2268240082
  0
LINE
  5
2E2
100
AcDbEntity
  8
RACCORDO
100
AcDbLine
 62
253
  6
CONTINUOUS
 10
131.2940703439
 20
54.9646032353
 11
131.2940703439
 21
55.2083451665
  0
LINE
  5
2E3
100
AcDbEntity
  8
RACCORDO
100
AcDbLine
 62
7
  6
CONTINUOUS
 10
124.6779460239
 20
57.1136554363
 11
124.5597891359
 21
55.0880968139
  0
LWPOLYLINE
  5
2E4
100
AcDbEntity
  8
RACCORDO
100
AcDbPolyline
 62
7
  6
CONTINUOUS
 90
13
 70
0
 10
124.6779460239
 20
57.1136554363
 10
124.6801206535
 20
57.135696975
 10
124.683866563
 20
57.158008106
 10
124.6891837522
 20
57.1805888292
 10
124.6961936333
 20
57.2038056638
 10
124.7047747941
 20
57.2272920907
 10
124.7145629986
 20
57.2499485521
 10
124.7256474602
 20
57.2717581645
 10
124.7379389655
 20
57.2927378115
 10
124.7508056382
 20
57.3118385857
 10
124.7640368529
 20
57.3287108515
 10
124.7778432352
 20
57.3437042445
 10
124.7922247848
 20
57.3568187648
  0
LWPOLYLINE
  5
2E5
100
AcDbEntity
  8
RACCORDO
100
AcDbPolyline
 62
253
  6
CONTINUOUS
 90
23
 70
0
 10
136.4463028725
 20
136.1254502378
 10
136.5548282444
 20
136.7185825725
 10
136.7067429635
 20
137.3096827982
 10
136.9017737719
 20
137.8990716618
 10
137.1385712904
 20
138.4828207214
 10
137.4169455804
 20
139.060493962
 10
137.7370865806
 20
139.6325273985
 10
138.0982147272
 20
140.1963006337
 10
138.5013314429
 20
140.7528301626
 10
138.9454353051
 20
141.3010994901
 10
139.4267424819
 20
141.8354387334
 10
139.9480595683
 20
142.3569044322
 10
140.5065799695
 20
142.8644400468
 10
141.0901000691
 20
143.3492060749
 10
141.70028501
 20
143.8101748611
 10
142.3354696494
 20
144.2483740608
 10
142.978454943
 20
144.6580471383
 10
143.6300602412
 20
145.037850738
 10
144.2894661935
 20
145.3891282156
 10
144.9370157054
 20
145.7101531024
 10
145.5661564119
 20
146.0003499089
 10
146.1834406778
 20
146.2602941247
 10
146.7888685032
 20
146.4899857497
  0
LINE
  5
2E6
100
AcDbEntity
  8
RACCORDO
100
AcDbLine
 62
253
  6
CONTINUOUS
 10
113.5421106403
 20
56.2998631268
 11
113.1718103956
 21
54.9010010509
  0
LINE
  5
2E7
100
AcDbEntity
  8
RACCORDO
100
AcDbLine
 62
253
  6
CONTINUOUS
 10
113.8078813973
 20
56.2483625241
 11
113.2182997271
 21
54.0211335367
  0
LWPOLYLINE
  5
2E8
100
AcDbEntity
  8
RACCORDO
100
AcDbPolyline
 62
253
  6
CONTINUOUS
 90
10
 70
0
 10
113.2182997271
 20
54.0211335367
 10
113.2152490349
 20
54.0123699473
 10
113.2124522193
 20
54.003664938
 10
113.209915915
 20
53.9950391596
 10
113.2076461347
 20
53.98651308
 10
113.2056482666
 20
53.9781069206
 10
113.2039270621
 20
53.969840609
 10
113.202486609
 20
53.9617337509
 10
113.2013303209
 20
53.9538055834
 10
113.2004609416
 20
53.946074915
  0
LINE
  5
2E9
100
AcDbEntity
  8
0
100
AcDbLine
 62
7
  6
CONTINUOUS
 10
186.2211794184
 20
170.266638198
 11
186.3401329232
 21
170.3940341984
  0
LINE
  5
2EA
100
AcDbEntity
  8
RACCORDO
100
AcDbLine
 62
253
  6
CONTINUOUS
 10
183.1558964214
 20
165.5459615394
 11
188.9930073867
 21
170.9039284421
  0
LINE
  5
2EB
100
AcDbEntity
  8
RACCORDO
100
AcDbLine
 62
253
  6
CONTINUOUS
 10
183.976172126
 20
164.3973676201
 11
189.310408986
 21
169.2937392527
  0
LWPOLYLINE
  5
2EC
100
AcDbEntity
  8
RACCORDO
100
AcDbPolyline
 62
253
  6
CONTINUOUS
 90
9
 70
0
 10
113.7782304768
 20
93.1102923564
 10
113.7463666246
 20
93.1143051331
 10
113.7132386556
 20
93.1133364825
 10
113.6798330259
 20
93.1074152486
 10
113.6471444601
 20
93.0967177488
 10
113.6161463304
 20
93.0815625233
 10
113.5877616728
 20
93.0624008515
 10
113.5628357013
 20
93.0398033133
 10
113.5421106403
 20
93.0144427991
  0
LWPOLYLINE
  5
2ED
100
AcDbEntity
  8
RACCORDO
100
AcDbPolyline
 62
253
  6
CONTINUOUS
 90
34
 70
0
 10
113.2182997271
 20
94.3977440587
 10
113.2098977111
 20
94.3990234739
 10
113.2019571053
 20
94.3985903985
 10
113.1945269297
 20
94.3964725068
 10
113.1877181185
 20
94.3926297537
 10
113.1815070863
 20
94.3871654865
 10
113.1757293972
 20
94.3803089403
 10
113.1703729476
 20
94.3720439048
 10
113.1655052305
 20
94.3624165219
 10
113.1610739874
 20
94.3517425025
 10
113.1571203126
 20
94.340115855
 10
113.1536493641
 20
94.3274982485
 10
113.1505520374
 20
94.3140046654
 10
113.1478311181
 20
94.2996813759
 10
113.1455163043
 20
94.2845157081
 10
113.1435372708
 20
94.2685164908
 10
113.1418978711
 20
94.2517008594
 10
113.1406227475
 20
94.2340693468
 10
113.1396746197
 20
94.2155916677
 10
113.139063565
 20
94.1962729598
 10
113.1388097456
 20
94.176116307
 10
113.1388949153
 20
94.1550782766
 10
113.1393355652
 20
94.1331560788
 10
113.140151039
 20
94.110355436
 10
113.1413326999
 20
94.086638455
 10
113.1429023697
 20
94.0620188137
 10
113.1448822641
 20
94.0364845003
 10
113.1472725989
 20
94.0099522195
 10
113.1501049317
 20
93.9824285768
 10
113.1534070957
 20
93.9539072054
 10
113.1571876877
 20
93.9242775145
 10
113.1614813187
 20
93.8935007733
 10
113.1663403092
 20
93.8616165424
 10
113.1718103956
 20
93.828630237
  0
LWPOLYLINE
  5
2EE
100
AcDbEntity
  8
RACCORDO
100
AcDbPolyline
 62
253
  6
CONTINUOUS
 90
34
 70
0
 10
113.2004608819
 20
94.4611608376
 10
113.1824855332
 20
94.4657975473
 10
113.1651119821
 20
94.4682556253
 10
113.1483401686
 20
94.4685350269
 10
113.132211934
 20
94.4665061959
 10
113.116685321
 20
94.4622986016
 10
113.1016345862
 20
94.4563007478
 10
113.0869696955
 20
94.448504434
 10
113.0727806071
 20
94.4389178038
 10
113.0592115676
 20
94.427953879
 10
113.0463425425
 20
94.4156787038
 10
113.034093468
 20
94.4020261606
 10
113.0223685452
 20
94.387211027
 10
113.0111595698
 20
94.3712865505
 10
113.0004746774
 20
94.3541994324
 10
112.9902425925
 20
94.3360046405
 10
112.9804472465
 20
94.316726093
 10
112.9711046565
 20
94.2963398334
 10
112.962191684
 20
94.2748290231
 10
112.9536943716
 20
94.2522047051
 10
112.945626634
 20
94.2284558047
 10
112.9380071424
 20
94.2035323085
 10
112.9308236226
 20
94.1774354551
 10
112.924088311
 20
94.1501639777
 10
112.9178566432
 20
94.1216641046
 10
112.9121192614
 20
94.0919569297
 10
112.906885489
 20
94.0610213334
 10
112.9022387808
 20
94.028740222
 10
112.8981616007
 20
93.9951277561
 10
112.8946714556
 20
93.9601697534
 10
112.8919043624
 20
93.9237066039
 10
112.8899056522
 20
93.8856850985
 10
112.8886299737
 20
93.8461584311
 10
112.8880773216
 20
93.8051265979
  0
LWPOLYLINE
  5
2EF
100
AcDbEntity
  8
RACCORDO
100
AcDbPolyline
 62
253
  6
CONTINUOUS
 90
3
 70
0
 10
148.0977161469
 20
85.8723697126
 10
152.2814850239
 20
84.354838269
 10
156.4919581121
 20
82.8627458643
  0
LWPOLYLINE
  5
2F0
100
AcDbEntity
  8
RACCORDO
100
AcDbPolyline
 62
253
  6
CONTINUOUS
 90
4
 70
0
 10
143.4732219103
 20
86.269907741
 10
147.6382465678
 20
84.7239675763
 10
151.8296593863
 20
83.2036457484
 10
156.0470563606
 20
81.7090897428
  0
LINE
  5
2F1
100
AcDbEntity
  8
RACCORDO
100
AcDbLine
 62
253
  6
CONTINUOUS
 10
143.9406514812
 20
87.415340195
 11
148.0977161469
 21
85.8723697126
  0
LINE
  5
2F2
100
AcDbEntity
  8
RACCORDO
100
AcDbLine
 62
253
  6
CONTINUOUS
 10
139.3349873786
 20
87.8413159949
 11
143.4732219103
 21
86.269907741
  0
LINE
  5
2F3
100
AcDbEntity
  8
RACCORDO
100
AcDbLine
 62
253
  6
CONTINUOUS
 10
139.8098837588
 20
88.9839074607
 11
143.9406514812
 21
87.415340195
  0
LINE
  5
2F4
100
AcDbEntity
  8
RACCORDO
100
AcDbLine
 62
253
  6
CONTINUOUS
 10
135.2239413395
 20
89.4380408198
 11
139.3349873786
 21
87.8413159949
  0
LWPOLYLINE
  5
2F5
100
AcDbEntity
  8
RACCORDO
100
AcDbPolyline
 62
253
  6
CONTINUOUS
 90
19
 70
0
 10
156.0470563606
 20
81.7090897428
 10
156.05455138
 20
81.7061477585
 10
156.0618972988
 20
81.7026577604
 10
156.0690941123
 20
81.6986197439
 10
156.0761992281
 20
81.6939941438
 10
156.0831552306
 20
81.688820518
 10
156.0897898752
 20
81.6832175424
 10
156.0960924429
 20
81.6771754727
 10
156.1020736347
 20
81.6707040365
 10
156.1075933278
 20
81.6639511103
 10
156.112640236
 20
81.6569084436
 10
156.1172256245
 20
81.6495842673
 10
156.1212431928
 20
81.642151176
 10
156.1246779207
 20
81.6346036775
 10
156.1275448102
 20
81.6269472469
 10
156.1297825939
 20
81.6193709297
 10
156.1313708456
 20
81.6119377374
 10
156.1323299812
 20
81.6045846488
 10
156.132659998
 20
81.5973116614
  0
LINE
  5
2F6
100
AcDbEntity
  8
RACCORDO
100
AcDbLine
 62
253
  6
CONTINUOUS
 10
131.1404785568
 20
91.0599294696
 11
135.2239413395
 21
89.4380408198
  0
LWPOLYLINE
  5
2F7
100
AcDbEntity
  8
RACCORDO
100
AcDbPolyline
 62
253
  6
CONTINUOUS
 90
3
 70
0
 10
131.6296827514
 20
92.196885875
 10
135.7058202476
 20
90.5779137653
 10
139.8098837588
 20
88.9839074607
  0
LINE
  5
2F8
100
AcDbEntity
  8
RACCORDO
100
AcDbLine
 62
253
  6
CONTINUOUS
 10
127.0849926928
 20
92.7068260857
 11
131.1404785568
 21
91.0599294696
  0
LINE
  5
2F9
100
AcDbEntity
  8
RACCORDO
100
AcDbLine
 62
253
  6
CONTINUOUS
 10
123.0578746419
 20
94.3785714287
 11
127.0849926928
 21
92.7068260857
  0
LWPOLYLINE
  5
2FA
100
AcDbEntity
  8
RACCORDO
100
AcDbPolyline
 62
253
  6
CONTINUOUS
 90
5
 70
0
 10
107.2407858565
 20
101.3107882889
 10
111.1505851525
 20
99.5412790458
 10
115.0902868138
 20
97.7959619865
 10
119.0595110354
 20
96.0750044201
 10
123.0578746419
 20
94.3785714287
  0
LWPOLYLINE
  5
2FB
100
AcDbEntity
  8
RACCORDO
100
AcDbPolyline
 62
253
  6
CONTINUOUS
 90
7
 70
0
 10
107.7724971801
 20
102.4295797291
 10
111.67589377
 20
100.6629590864
 10
115.6084107621
 20
98.9208071106
 10
119.5700481562
 20
97.2031238015
 10
123.5612040816
 20
95.5097434464
 10
127.581480409
 20
93.8408317581
 10
131.6296827514
 20
92.196885875
  0
LWPOLYLINE
  5
2FC
100
AcDbEntity
  8
RACCORDO
100
AcDbPolyline
 62
253
  6
CONTINUOUS
 90
19
 70
0
 10
156.4919581121
 20
82.8627458643
 10
156.5612395183
 20
82.8292934864
 10
156.6301845416
 20
82.7900532067
 10
156.6982745815
 20
82.7453275038
 10
156.7649964785
 20
82.6954651389
 10
156.8298495867
 20
82.6408438883
 10
156.8923484221
 20
82.5818651075
 10
156.9520269773
 20
82.5189726516
 10
157.0084288117
 20
82.4526489067
 10
157.0611137671
 20
82.3833955999
 10
157.1096804735
 20
82.3117396605
 10
157.1537659826
 20
82.238225802
 10
157.1930344497
 20
82.1634098377
 10
157.22718719
 20
82.087858213
 10
157.255966633
 20
82.0121456277
 10
157.2791558494
 20
81.9368480603
 10
157.2965788606
 20
81.8625367331
 10
157.3081018724
 20
81.7897737875
 10
157.3136359725
 20
81.7191099146
  0
LWPOLYLINE
  5
2FD
100
AcDbEntity
  8
RACCORDO
100
AcDbPolyline
 62
7
  6
CONTINUOUS
 90
61
 70
0
 10
135.4386028849
 20
117.2129859553
 10
135.4971325102
 20
116.6538711893
 10
135.601635546
 20
116.094263692
 10
135.7526096854
 20
115.5358255902
 10
135.9505394574
 20
114.9798879801
 10
136.195569863
 20
114.4284079806
 10
136.4872953694
 20
113.883834416
 10
136.825791576
 20
113.3472025511
 10
137.2105889174
 20
112.820299015
 10
137.6396641583
 20
112.3063511998
 10
138.1116292916
 20
111.8069942385
 10
138.6259722672
 20
111.322782266
 10
139.1813162003
 20
110.8550896108
 10
139.7770121508
 20
110.4045810996
 10
140.4114079787
 20
109.9726499306
 10
141.0810091585
 20
109.5615731593
 10
141.7835172179
 20
109.1724410472
 10
142.5176787587
 20
108.8056700276
 10
143.2809450402
 20
108.4622867815
 10
144.0710463147
 20
108.1430287871
 10
144.886215797
 20
107.848356473
 10
145.724413974
 20
107.578800276
 10
146.5835072933
 20
107.3348635554
 10
147.46133611
 20
107.1169960311
 10
148.355698222
 20
106.9255983713
 10
149.2642372461
 20
106.7610384182
 10
150.1848048941
 20
106.6235825869
 10
151.1154412004
 20
106.5134339601
 10
152.0539238765
 20
106.4307952066
 10
152.9978724547
 20
106.3758257535
 10
153.9450588258
 20
106.3486156675
 10
154.8931347221
 20
106.3492049615
 10
155.839801062
 20
106.3775738204
 10
156.7829008114
 20
106.4336564121
 10
157.720098519
 20
106.5173277721
 10
158.6491257981
 20
106.6284087227
 10
159.5679540598
 20
106.7667025599
 10
160.4744010356
 20
106.9319526576
 10
161.3661542696
 20
107.1238210134
 10
162.2410548318
 20
107.3419378183
 10
163.0969508767
 20
107.5858784022
 10
163.9317053887
 20
107.8551614294
 10
164.7432929639
 20
108.1492816034
 10
165.5298605118
 20
108.4677507796
 10
166.289237587
 20
108.8098976947
 10
167.0191208545
 20
109.1748786374
 10
167.7181669646
 20
109.5622553645
 10
168.3841059968
 20
109.9710392014
 10
169.0137313
 20
110.3993739337
 10
169.6053519648
 20
110.846053965
 10
170.1580762818
 20
111.31037922
 10
170.6704122309
 20
111.7911031464
 10
171.1417764494
 20
112.287764478
 10
171.5705698193
 20
112.798811829
 10
171.9544415073
 20
113.3211546787
 10
172.2926940676
 20
113.853056379
 10
172.5853190459
 20
114.3936480423
 10
172.8317301843
 20
114.9408262861
 10
173.0318058114
 20
115.4928356714
 10
173.1857384528
 20
116.0483746893
 10
173.2937205702
 20
116.6058631172
  0
LWPOLYLINE
  5
2FE
100
AcDbEntity
  8
DRAFT
100
AcDbPolyline
 62
7
  6
CONTINUOUS
 90
16
 70
0
 10
134.9125987452
 20
125.4355144034
 10
134.9658083762
 20
124.9216961708
 10
135.0722190863
 20
124.3590450571
 10
135.2284239977
 20
123.7994115506
 10
135.4335366198
 20
123.2458840248
 10
135.6882132263
 20
122.6977662448
 10
135.9917975435
 20
122.1557544454
 10
136.3414342595
 20
121.6250257043
 10
136.7371015794
 20
121.1062580639
 10
137.1788212981
 20
120.5987734817
 10
137.6638034881
 20
120.1057149084
 10
138.1927435376
 20
119.6267874222
 10
138.7649460585
 20
119.1622859449
 10
139.375534959
 20
118.7162381923
 10
140.0228848752
 20
118.2899867365
 10
140.7086211709
 20
117.8821890054
  0
LWPOLYLINE
  5
2FF
100
AcDbEntity
  8
DRAFT
100
AcDbPolyline
 62
7
  6
CONTINUOUS
 90
18
 70
0
 10
134.9009629342
 20
125.7062021066
 10
134.9370233283
 20
125.1486256996
 10
135.0215996523
 20
124.5942465118
 10
135.1544132372
 20
124.0422251715
 10
135.3347514766
 20
123.4954625148
 10
135.563232373
 20
122.9532423047
 10
135.8392379238
 20
122.4162807782
 10
136.160201515
 20
121.8896274828
 10
136.5260627839
 20
121.3740028269
 10
136.9368820932
 20
120.868686402
 10
137.3902739166
 20
120.3765665299
 10
137.8870000472
 20
119.8972430687
 10
138.4262986918
 20
119.4311161604
 10
139.0034989452
 20
118.9822745527
 10
139.6184893869
 20
118.5511800145
 10
140.2713814374
 20
118.137370777
 10
140.957838452
 20
117.743550282
 10
141.6783440696
 20
117.3696979519
  0
LINE
  5
300
100
AcDbEntity
  8
SUP_COSTRUZIONE
100
AcDbLine
 62
7
  6
CONTINUOUS
 10
135.4386028857
 20
117.2129859416
 11
134.912137114
 21
125.4362889054
  0
LINE
  5
301
100
AcDbEntity
  8
RACCORDO
100
AcDbLine
 62
253
  6
CONTINUOUS
 10
135.4386531351
 20
117.2122018264
 11
135.4386028857
 21
117.2129859431
  0
LWPOLYLINE
  5
302
100
AcDbEntity
  8
RACCORDO
100
AcDbPolyline
 62
253
  6
CONTINUOUS
 90
9
 70
0
 10
135.8116542963
 20
50.0649694582
 10
135.8117804705
 20
50.0586584834
 10
135.8145405216
 20
50.0436675116
 10
135.820701994
 20
50.028976937
 10
135.8301600275
 20
50.0148080221
 10
135.8427494457
 20
50.0014064711
 10
135.8582510362
 20
49.9890036406
 10
135.8763962854
 20
49.977812747
 10
135.8968709579
 20
49.9680263261
  0
LINE
  5
303
100
AcDbEntity
  8
DRAFT
100
AcDbLine
 62
7
  6
CONTINUOUS
 10
134.9029263702
 20
126.0577878817
 11
134.9125987452
 21
125.4355144034
  0
LINE
  5
304
100
AcDbEntity
  8
RACCORDO
100
AcDbLine
 62
7
  6
CONTINUOUS
 10
135.6795694669
 20
56.9328953245
 11
135.6795694669
 21
56.9838466322
  0
LINE
  5
305
100
AcDbEntity
  8
DRAFT
100
AcDbLine
 62
7
  6
CONTINUOUS
 10
137.03117034
 20
56.3900619427
 11
137.03117034
 21
54.4875200303
  0
LINE
  5
306
100
AcDbEntity
  8
DRAFT
100
AcDbLine
 62
7
  6
CONTINUOUS
 10
137.8808120471
 20
52.4449148218
 11
137.8808120471
 21
55.1965960733
  0
LINE
  5
307
100
AcDbEntity
  8
DRAFT
100
AcDbLine
 62
7
  6
CONTINUOUS
 10
134.9126064629
 20
126.2578261353
 11
134.9009629342
 21
125.7062021066
  0
LINE
  5
308
100
AcDbEntity
  8
RACCORDO
100
AcDbLine
 62
7
  6
CONTINUOUS
 10
135.7719775944
 20
48.7240171275
 11
135.8116562635
 21
50.0650371375
  0
LINE
  5
309
100
AcDbEntity
  8
RACCORDO
100
AcDbLine
 62
253
  6
CONTINUOUS
 10
135.8572994858
 20
48.6306292524
 11
135.8968709579
 21
49.9680263261
  0
LINE
  5
30A
100
AcDbEntity
  8
RACCORDO
100
AcDbLine
 62
7
  6
CONTINUOUS
 10
129.5928582896
 20
55.1397158662
 11
129.4981327894
 21
53.5158405506
  0
LINE
  5
30B
100
AcDbEntity
  8
RACCORDO
100
AcDbLine
 62
7
  6
CONTINUOUS
 10
135.4571287639
 20
134.7698154355
 11
135.4574400068
 21
134.7747019914
  0
LINE
  5
30C
100
AcDbEntity
  8
DRAFT
100
AcDbLine
 62
7
  6
CONTINUOUS
 10
134.912137114
 20
126.2571665864
 11
135.4576179436
 21
134.7774814165
  0
LWPOLYLINE
  5
30D
100
AcDbEntity
  8
RACCORDO
100
AcDbPolyline
 62
7
  6
CONTINUOUS
 90
24
 70
0
 10
114.1106986628
 20
91.0364594755
 10
114.1646329776
 20
91.0809467068
 10
114.215365171
 20
91.1226826038
 10
114.2646389279
 20
91.1631102454
 10
114.312454361
 20
91.2022288599
 10
114.3589416617
 20
91.2401629174
 10
114.4041007834
 20
91.2769132563
 10
114.4479317726
 20
91.3124790381
 10
114.4905649598
 20
91.3469822174
 10
114.5320003443
 20
91.3804236881
 10
114.5722379267
 20
91.4128025563
 10
114.6114080389
 20
91.4442380939
 10
114.6495107104
 20
91.474731244
 10
114.6865459117
 20
91.5042810635
 10
114.7226438861
 20
91.5330039959
 10
114.7578046821
 20
91.5609010322
 10
114.7920282514
 20
91.5879711814
 10
114.8254446915
 20
91.6143279128
 10
114.8580540636
 20
91.6399722738
 10
114.8898563065
 20
91.6649032171
 10
114.9209813348
 20
91.6892310708
 10
114.9514292196
 20
91.7129569566
 10
114.9811998897
 20
91.7360797527
 10
115.0104230462
 20
91.7587064221
  0
LINE
  5
30E
100
AcDbEntity
  8
DRAFT
100
AcDbLine
 62
7
  6
CONTINUOUS
 10
141.4761371895
 20
116.6917836358
 11
142.0759433439
 21
117.1831160734
  0
LINE
  5
30F
100
AcDbEntity
  8
RACCORDO
100
AcDbLine
 62
253
  6
CONTINUOUS
 10
113.9426921857
 20
92.9988523623
 11
113.9078856085
 21
92.9722205228
  0
LWPOLYLINE
  5
310
100
AcDbEntity
  8
RACCORDO
100
AcDbPolyline
 62
253
  6
CONTINUOUS
 90
11
 70
0
 10
149.7908222439
 20
79.6770358881
 10
149.7791785116
 20
79.6949949704
 10
149.7670100131
 20
79.7124942288
 10
149.7543017965
 20
79.7294968275
 10
149.7409119568
 20
79.7457889638
 10
149.7269552448
 20
79.7613964611
 10
149.7123169885
 20
79.7762935671
 10
149.6965111918
 20
79.7901891549
 10
149.679375928
 20
79.8029862471
 10
149.6610733039
 20
79.8147819833
 10
149.6416034152
 20
79.8255764498
  0
LWPOLYLINE
  5
311
100
AcDbEntity
  8
RACCORDO
100
AcDbPolyline
 62
253
  6
CONTINUOUS
 90
3
 70
0
 10
135.5903889954
 20
116.182120138
 10
135.4894321225
 20
116.7219689016
 10
135.4386531351
 20
117.2122018264
  0
LWPOLYLINE
  5
312
100
AcDbEntity
  8
RACCORDO
100
AcDbPolyline
 62
253
  6
CONTINUOUS
 90
7
 70
0
 10
149.8813010586
 20
40.0796545712
 10
149.8826648663
 20
40.0663873233
 10
149.8899067597
 20
40.0464731226
 10
149.9031674185
 20
40.0276057429
 10
149.9220298353
 20
40.0103785059
 10
149.9459008446
 20
39.9953331558
 10
149.9740297757
 20
39.982942823
  0
LINE
  5
313
100
AcDbEntity
  8
DRAFT
100
AcDbLine
 62
7
  6
CONTINUOUS
 10
141.4761371895
 20
116.6917836358
 11
141.4327438461
 21
117.4928449991
  0
LINE
  5
314
100
AcDbEntity
  8
DRAFT
100
AcDbLine
 62
7
  6
CONTINUOUS
 10
142.0235185605
 20
117.1401722049
 11
142.0215799984
 21
117.2086272244
  0
LINE
  5
315
100
AcDbEntity
  8
DRAFT
100
AcDbLine
 62
7
  6
CONTINUOUS
 10
141.9541435631
 20
117.1393093354
 11
141.9528804264
 21
117.2408659532
  0
LINE
  5
316
100
AcDbEntity
  8
RACCORDO
100
AcDbLine
 62
253
  6
CONTINUOUS
 10
143.5813510083
 20
50.2734962414
 11
143.5813510083
 21
50.215836241
  0
LWPOLYLINE
  5
317
100
AcDbEntity
  8
RACCORDO
100
AcDbPolyline
 62
253
  6
CONTINUOUS
 90
6
 70
0
 10
135.8968709579
 20
49.9680263261
 10
135.8980991002
 20
49.9902504643
 10
135.9012438273
 20
50.0136394285
 10
135.9062524293
 20
50.0377983736
 10
135.9130407034
 20
50.0623193543
 10
135.9214943201
 20
50.0867880614
  0
LWPOLYLINE
  5
318
100
AcDbEntity
  8
RACCORDO
100
AcDbPolyline
 62
7
  6
CONTINUOUS
 90
14
 70
0
 10
156.6989944158
 20
152.351194721
 10
156.6785372534
 20
152.2940023337
 10
156.6385064732
 20
152.1911263392
 10
156.5956270128
 20
152.0916569642
 10
156.5503221915
 20
151.9963346066
 10
156.5030085433
 20
151.9057364055
 10
156.4541595981
 20
151.8204248141
 10
156.4043762129
 20
151.7410750577
 10
156.3544105929
 20
151.6683941115
 10
156.3048793467
 20
151.6026846076
 10
156.2564830203
 20
151.5442350957
 10
156.2102336616
 20
151.4935213484
 10
156.1669483179
 20
151.4505658065
 10
156.1513457175
 20
151.4361616518
  0
LWPOLYLINE
  5
319
100
AcDbEntity
  8
RACCORDO
100
AcDbPolyline
 62
253
  6
CONTINUOUS
 90
13
 70
0
 10
157.1698408764
 20
152.0967012739
 10
157.146342316
 20
152.0325787293
 10
157.1202476561
 20
151.9689481367
 10
157.0916482556
 20
151.9061228988
 10
157.0606938013
 20
151.8443017191
 10
157.0274514974
 20
151.7839276827
 10
156.9919290845
 20
151.7256630117
 10
156.9542562054
 20
151.6698250862
 10
156.9146311017
 20
151.6166700981
 10
156.8732097166
 20
151.5667055337
 10
156.830176492
 20
151.5202326854
 10
156.7857291123
 20
151.4773761388
 10
156.7400582032
 20
151.4383234379
  0
LINE
  5
31A
100
AcDbEntity
  8
RACCORDO
100
AcDbLine
 62
7
  6
CONTINUOUS
 10
114.1106986628
 20
82.6225731011
 11
115.3721357482
 21
83.7634705694
  0
LINE
  5
31B
100
AcDbEntity
  8
RACCORDO
100
AcDbLine
 62
253
  6
CONTINUOUS
 10
114.1106986628
 20
84.8988177253
 11
120.8413109864
 21
90.2282115262
  0
LINE
  5
31C
100
AcDbEntity
  8
RACCORDO
100
AcDbLine
 62
253
  6
CONTINUOUS
 10
115.9629236259
 20
92.1874818709
 11
114.1106986628
 21
90.7477552929
  0
LINE
  5
31D
100
AcDbEntity
  8
RACCORDO
100
AcDbLine
 62
7
  6
CONTINUOUS
 10
115.702450576
 20
92.2920937199
 11
115.0104230462
 21
91.7587064221
  0
LINE
  5
31E
100
AcDbEntity
  8
RACCORDO
100
AcDbLine
 62
253
  6
CONTINUOUS
 10
113.9078856085
 20
92.9722205228
 11
113.8688896167
 21
92.9451350523
  0
LWPOLYLINE
  5
31F
100
AcDbEntity
  8
RACCORDO
100
AcDbPolyline
 62
253
  6
CONTINUOUS
 90
10
 70
0
 10
113.1718103956
 20
93.828630237
 10
113.1485016586
 20
93.8132975934
 10
113.1208376861
 20
93.8005675186
 10
113.0896884258
 20
93.7908403349
 10
113.056033427
 20
93.7844219324
 10
113.0209310371
 20
93.7815141505
 10
112.9854851194
 20
93.78220843
 10
112.9508103401
 20
93.7864829379
 10
112.9179971155
 20
93.794203254
 10
112.8880773216
 20
93.8051265979
  0
LINE
  5
320
100
AcDbEntity
  8
RACCORDO
100
AcDbLine
 62
253
  6
CONTINUOUS
 10
113.8688896167
 20
92.9451350523
 11
113.8310237454
 21
92.9236305014
  0
LWPOLYLINE
  5
321
100
AcDbEntity
  8
RACCORDO
100
AcDbPolyline
 62
7
  6
CONTINUOUS
 90
3
 70
0
 10
113.8762794913
 20
93.0250212975
 10
113.8750453714
 20
93.0248155415
 10
113.8756836623
 20
93.0246518645
  0
LINE
  5
322
100
AcDbEntity
  8
RACCORDO
100
AcDbLine
 62
7
  6
CONTINUOUS
 10
165.475034534
 20
90.0831502602
 11
115.5045145936
 21
110.1524376273
  0
LWPOLYLINE
  5
323
100
AcDbEntity
  8
RACCORDO
100
AcDbPolyline
 62
253
  6
CONTINUOUS
 90
17
 70
0
 10
149.7735727221
 20
79.5808472938
 10
149.7679322308
 20
79.5935653011
 10
149.7610261097
 20
79.6085873488
 10
149.7540282227
 20
79.6232002024
 10
149.7468925077
 20
79.637466773
 10
149.7395923991
 20
79.6514092186
 10
149.732135092
 20
79.6649765325
 10
149.7245117805
 20
79.6781126483
 10
149.7167009461
 20
79.6908184265
 10
149.7086969334
 20
79.7030503975
 10
149.7005013537
 20
79.714673488
 10
149.6921301792
 20
79.725652467
 10
149.6835350001
 20
79.7359606723
 10
149.6745846804
 20
79.7454367143
 10
149.6651935514
 20
79.7539622498
 10
149.6553564591
 20
79.7614943711
 10
149.6450386468
 20
79.767944487
  0
LINE
  5
324
100
AcDbEntity
  8
RACCORDO
100
AcDbLine
 62
253
  6
CONTINUOUS
 10
149.859000604
 20
79.2778409335
 11
149.6450386468
 21
79.767944487
  0
LINE
  5
325
100
AcDbEntity
  8
RACCORDO
100
AcDbLine
 62
7
  6
CONTINUOUS
 10
149.7735846546
 20
79.5808199561
 11
149.7735727221
 21
79.5808472938
  0
LWPOLYLINE
  5
326
100
AcDbEntity
  8
RACCORDO
100
AcDbPolyline
 62
7
  6
CONTINUOUS
 90
48
 70
0
 10
149.7735723194
 20
79.5808482574
 10
149.7772137613
 20
79.5723858625
 10
149.7807602122
 20
79.5639077719
 10
149.784222878
 20
79.5553955878
 10
149.7876031697
 20
79.5468533974
 10
149.7909061042
 20
79.5382758371
 10
149.7941327312
 20
79.5296672716
 10
149.7972844498
 20
79.5210311628
 10
149.8003662334
 20
79.5123598451
 10
149.8033785064
 20
79.5036568839
 10
149.8063222645
 20
79.4949242585
 10
149.8092026349
 20
79.4861511924
 10
149.8120200774
 20
79.4773403261
 10
149.8147753452
 20
79.4684934563
 10
149.8174734615
 20
79.4595980884
 10
149.8201146589
 20
79.4506559435
 10
149.8226990145
 20
79.4416687321
 10
149.8252306497
 20
79.4326235923
 10
149.8277119148
 20
79.4235127303
 10
149.8301400938
 20
79.4143468043
 10
149.8325117408
 20
79.4051405179
 10
149.8348264002
 20
79.3958980782
 10
149.8370850262
 20
79.3866179502
 10
149.8392865586
 20
79.3773062023
 10
149.8414305111
 20
79.3679668507
 10
149.8435177105
 20
79.3585983086
 10
149.8455490862
 20
79.3491981797
 10
149.8475247727
 20
79.3397674903
 10
149.8494448834
 20
79.3303073774
 10
149.8513101996
 20
79.3208155356
 10
149.8531207496
 20
79.3112929928
 10
149.8548764619
 20
79.3017407351
 10
149.8565778438
 20
79.2921563553
 10
149.8582247336
 20
79.282540942
 10
149.8598170132
 20
79.2728953517
 10
149.8613551309
 20
79.2632168015
 10
149.8628388991
 20
79.2535061475
 10
149.8642681086
 20
79.2437643819
 10
149.865643032
 20
79.2339889169
 10
149.8669632992
 20
79.2241808016
 10
149.8682285291
 20
79.2143409153
 10
149.8694387791
 20
79.2044664595
 10
149.8705935777
 20
79.1945584948
 10
149.8716924715
 20
79.1846179253
 10
149.8727354007
 20
79.1746417382
 10
149.8737218688
 20
79.1646304558
 10
149.8746512782
 20
79.1545855556
 10
149.8755232676
 20
79.1445055084
  0
LWPOLYLINE
  5
327
100
AcDbEntity
  8
RACCORDO
100
AcDbPolyline
 62
253
  6
CONTINUOUS
 90
23
 70
0
 10
141.3646037527
 20
109.4044849068
 10
141.3905807675
 20
109.324138379
 10
141.5393428249
 20
108.972339277
 10
141.7178737644
 20
108.6334294079
 10
141.9157531217
 20
108.3100891378
 10
142.1322373301
 20
108.003443877
 10
142.3680699563
 20
107.7123682152
 10
142.6150612358
 20
107.4361662881
 10
142.8724995458
 20
107.1750862781
 10
143.1410965092
 20
106.9288800029
 10
143.4147972307
 20
106.69610705
 10
143.6929826521
 20
106.4768660215
 10
143.9762718316
 20
106.2710583154
 10
144.2604670486
 20
106.0769477142
 10
144.5450495897
 20
105.8945544852
 10
144.8305381684
 20
105.723858361
 10
145.1142912042
 20
105.5630623213
 10
145.3958741312
 20
105.4121440888
 10
145.6757215154
 20
105.2711259407
 10
145.9524954752
 20
105.1382776882
 10
146.2257500501
 20
105.0130226017
 10
146.4959312006
 20
104.8959374108
 10
146.7630389268
 20
104.7870221155
  0
LWPOLYLINE
  5
328
100
AcDbEntity
  8
RACCORDO
100
AcDbPolyline
 62
253
  6
CONTINUOUS
 90
10
 70
0
 10
149.6450386468
 20
79.767944487
 10
149.6436401318
 20
79.7730634993
 10
149.6424915826
 20
79.778536655
 10
149.6415957237
 20
79.78435097
 10
149.6409546851
 20
79.7904926465
 10
149.6405699823
 20
79.796947118
 10
149.6404425134
 20
79.803699085
 10
149.6405725764
 20
79.8107325343
 10
149.6409598681
 20
79.8180307769
 10
149.6416034702
 20
79.8255764994
  0
LWPOLYLINE
  5
329
100
AcDbEntity
  8
RACCORDO
100
AcDbPolyline
 62
253
  6
CONTINUOUS
 90
16
 70
0
 10
149.9210794319
 20
79.3495345164
 10
149.9143577594
 20
79.3756459677
 10
149.907358547
 20
79.4010547824
 10
149.9000749779
 20
79.4257739034
 10
149.8925393166
 20
79.4498259711
 10
149.8847654922
 20
79.4731907879
 10
149.8767395926
 20
79.4958885666
 10
149.8684521207
 20
79.518002563
 10
149.8599231956
 20
79.5395184364
 10
149.8511327174
 20
79.5604505447
 10
149.8420108641
 20
79.5809251949
 10
149.8325715413
 20
79.6009631986
 10
149.8228008704
 20
79.6205437687
 10
149.8125873613
 20
79.6397308214
 10
149.801926201
 20
79.6585800947
 10
149.7908222439
 20
79.6770358881
  0
LWPOLYLINE
  5
32A
100
AcDbEntity
  8
RACCORDO
100
AcDbPolyline
 62
253
  6
CONTINUOUS
 90
6
 70
0
 10
149.9658057789
 20
79.084004397
 10
149.9624925613
 20
79.1162937279
 10
149.9587221625
 20
79.1478496307
 10
149.9544806228
 20
79.1786665025
 10
149.9498419222
 20
79.2088093343
 10
149.9448107261
 20
79.2382996431
  0
LWPOLYLINE
  5
32B
100
AcDbEntity
  8
RACCORDO
100
AcDbPolyline
 62
253
  6
CONTINUOUS
 90
7
 70
0
 10
149.8813009716
 20
79.0073905416
 10
149.8826648928
 20
78.9940163798
 10
149.8899068299
 20
78.9741021759
 10
149.9031675219
 20
78.9552348127
 10
149.9220299445
 20
78.9380076095
 10
149.9459009216
 20
78.9229623012
 10
149.9740297757
 20
78.9105720091
  0
LWPOLYLINE
  5
32C
100
AcDbEntity
  8
RACCORDO
100
AcDbPolyline
 62
7
  6
CONTINUOUS
 90
13
 70
0
 10
149.8755232676
 20
79.1445055084
 10
149.8763371384
 20
79.1343913898
 10
149.8770921647
 20
79.1242443908
 10
149.8777877767
 20
79.114063261
 10
149.8784231801
 20
79.1038494502
 10
149.878997607
 20
79.0936039115
 10
149.87951041
 20
79.083324707
 10
149.879960728
 20
79.0730130104
 10
149.8803476791
 20
79.0626702035
 10
149.8806704382
 20
79.0522947604
 10
149.8809279557
 20
79.0418882619
 10
149.8811191534
 20
79.031452166
 10
149.8812429626
 20
79.0209849526
  0
LWPOLYLINE
  5
32D
100
AcDbEntity
  8
RACCORDO
100
AcDbPolyline
 62
7
  6
CONTINUOUS
 90
10
 70
0
 10
146.0190508628
 20
52.8312778055
 10
146.0164425536
 20
52.8980183774
 10
146.0090958879
 20
52.9588862643
 10
145.9970108658
 20
53.0138814661
 10
145.9799261509
 20
53.0635412972
 10
145.9581030795
 20
53.1073284433
 10
145.9323256604
 20
53.1436309611
 10
145.9025517694
 20
53.1721116687
 10
145.8688235306
 20
53.193107748
 10
145.8582136331
 20
53.1977994466
  0
LINE
  5
32E
100
AcDbEntity
  8
0
100
AcDbLine
 62
7
  6
CONTINUOUS
 10
146.7059337398
 20
45.3330045735
 11
146.6728678857
 21
46.2069858603
  0
LINE
  5
32F
100
AcDbEntity
  8
DRAFT
100
AcDbLine
 62
7
  6
CONTINUOUS
 10
145.1475247497
 20
116.0009052405
 11
145.1623213888
 21
115.2113289583
  0
LINE
  5
330
100
AcDbEntity
  8
RACCORDO
100
AcDbLine
 62
7
  6
CONTINUOUS
 10
146.0190508628
 20
52.8312778055
 11
146.0190508628
 21
52.0494815755
  0
LINE
  5
331
100
AcDbEntity
  8
RACCORDO
100
AcDbLine
 62
7
  6
CONTINUOUS
 10
143.1088670204
 20
49.7113820487
 11
142.9907101324
 21
47.6858234264
  0
LWPOLYLINE
  5
332
100
AcDbEntity
  8
RACCORDO
100
AcDbPolyline
 62
7
  6
CONTINUOUS
 90
13
 70
0
 10
143.1088670204
 20
49.7113820487
 10
143.1110416501
 20
49.7334235875
 10
143.1147875595
 20
49.7557347184
 10
143.1201047487
 20
49.7783154416
 10
143.1271146298
 20
49.8015322763
 10
143.1356957906
 20
49.8250187031
 10
143.1454839951
 20
49.8476751645
 10
143.1565684567
 20
49.8694847769
 10
143.168859962
 20
49.8904644239
 10
143.1817266347
 20
49.9095651981
 10
143.1949578495
 20
49.9264374639
 10
143.2087642317
 20
49.9414308569
 10
143.2231457813
 20
49.9545453772
  0
LWPOLYLINE
  5
333
100
AcDbEntity
  8
RACCORDO
100
AcDbPolyline
 62
7
  6
CONTINUOUS
 90
9
 70
0
 10
158.3609175134
 20
167.2929130288
 10
158.3739000618
 20
167.3812677384
 10
158.3948338229
 20
167.468532063
 10
158.4236570364
 20
167.5539562362
 10
158.4603684743
 20
167.6370643357
 10
158.504677819
 20
167.7168323255
 10
158.555866886
 20
167.7919535125
 10
158.6137481475
 20
167.8622065272
 10
158.6712473714
 20
167.920827315
  0
LINE
  5
334
100
AcDbEntity
  8
0
100
AcDbLine
 62
7
  6
CONTINUOUS
 10
122.8516629946
 20
55.1937971763
 11
122.2207289147
 21
53.7758989862
  0
LWPOLYLINE
  5
335
100
AcDbEntity
  8
RACCORDO
100
AcDbPolyline
 62
253
  6
CONTINUOUS
 90
13
 70
0
 10
175.6347885554
 20
143.2017525062
 10
175.344824922
 20
142.8477764298
 10
175.0738025963
 20
142.4870775583
 10
174.8222605464
 20
142.1200986453
 10
174.590480683
 20
141.7468315806
 10
174.3792290869
 20
141.3682031701
 10
174.189528615
 20
140.9861184297
 10
174.0216015664
 20
140.6011003381
 10
173.8756410741
 20
140.2136822186
 10
173.7521576167
 20
139.8258514797
 10
173.6511504603
 20
139.4386401372
 10
173.572346278
 20
139.052096543
 10
173.5155793309
 20
138.6667410158
  0
LWPOLYLINE
  5
336
100
AcDbEntity
  8
RACCORDO
100
AcDbPolyline
 62
253
  6
CONTINUOUS
 90
13
 70
0
 10
174.7037200602
 20
144.2237118549
 10
174.3936504096
 20
143.8485144348
 10
174.1047838538
 20
143.4670040457
 10
173.8371203928
 20
143.0791806875
 10
173.5900094669
 20
142.6839879685
 10
173.3641016358
 20
142.2824822805
 10
173.1613485786
 20
141.8778327987
 10
172.9821808686
 20
141.4700097135
 10
172.8261679325
 20
141.0590428345
 10
172.6939697289
 20
140.6481907658
 10
172.5858062441
 20
140.2385397086
 10
172.5014574918
 20
139.8290034616
 10
172.440923472
 20
139.4195820248
  0
LWPOLYLINE
  5
337
100
AcDbEntity
  8
RACCORDO
100
AcDbPolyline
 62
253
  6
CONTINUOUS
 90
18
 70
0
 10
120.9102570883
 20
80.5313055073
 10
120.9395583446
 20
80.5634400773
 10
120.962883702
 20
80.6014896063
 10
120.9798340317
 20
80.6448030142
 10
120.9901192899
 20
80.692639149
 10
120.9935634819
 20
80.7441794682
 10
120.9901076727
 20
80.798542046
 10
120.979810996
 20
80.8547966636
 10
120.9628496421
 20
80.9119807267
 10
120.9395138432
 20
80.9691157372
 10
120.910202907
 20
81.0252240362
 10
120.8754183839
 20
81.079345533
 10
120.8357554852
 20
81.1305541341
 10
120.7918928977
 20
81.1779735898
 10
120.7445811711
 20
81.2207924874
 10
120.6946298743
 20
81.2582781366
 10
120.642893743
 20
81.2897891063
 10
120.5902580539
 20
81.3147862002
  0
LWPOLYLINE
  5
338
100
AcDbEntity
  8
RACCORDO
100
AcDbPolyline
 62
253
  6
CONTINUOUS
 90
9
 70
0
 10
120.5904026356
 20
81.3148288333
 10
120.619078685
 20
81.3403817699
 10
120.6425359293
 20
81.3669623181
 10
120.6607743687
 20
81.3945704779
 10
120.6739092443
 20
81.4235355253
 10
120.6818253148
 20
81.4535281844
 10
120.684176857
 20
81.4835606266
 10
120.680764411
 20
81.513644421
 10
120.6717874366
 20
81.5437679986
  0
LWPOLYLINE
  5
339
100
AcDbEntity
  8
RACCORDO
100
AcDbPolyline
 62
7
  6
CONTINUOUS
 90
20
 70
0
 10
120.9036082176
 20
80.5255437955
 10
120.9388554544
 20
80.5563109806
 10
121.0000014202
 20
80.6192978634
 10
121.051583545
 20
80.6858472623
 10
121.0940143588
 20
80.7555041961
 10
121.1278363557
 20
80.8287103297
 10
121.1526453277
 20
80.9046452674
 10
121.1681515013
 20
80.9822223538
 10
121.1743334067
 20
81.0614400982
 10
121.1709160507
 20
81.1413558118
 10
121.1577997241
 20
81.2206299845
 10
121.1349181994
 20
81.2986327749
 10
121.1023969612
 20
81.3743289192
 10
121.0606166225
 20
81.4465903169
 10
121.0097448627
 20
81.5148795395
 10
120.9496847216
 20
81.5788443428
 10
120.8811595876
 20
81.63741789
 10
120.8053836982
 20
81.6896008098
 10
120.722874817
 20
81.7351352468
 10
120.6494299234
 20
81.7678480977
  0
LWPOLYLINE
  5
33A
100
AcDbEntity
  8
RACCORDO
100
AcDbPolyline
 62
7
  6
CONTINUOUS
 90
13
 70
0
 10
176.936246254
 20
132.0081565109
 10
176.5703953251
 20
131.6939423072
 10
176.2299221269
 20
131.3721245648
 10
175.9148266596
 20
131.0427032838
 10
175.6245727778
 20
130.7049714934
 10
175.3596966269
 20
130.3596361643
 10
175.121806642
 20
130.0088182086
 10
174.9110994915
 20
129.6524480973
 10
174.7273785071
 20
129.2905953593
 10
174.5716621191
 20
128.9255894929
 10
174.4442898043
 20
128.5582069976
 10
174.3449220859
 20
128.1876713739
 10
174.2735589639
 20
127.8139826219
  0
LWPOLYLINE
  5
33B
100
AcDbEntity
  8
0
100
AcDbPolyline
 62
7
  6
CONTINUOUS
 90
12
 70
0
 10
176.9297930352
 20
132.0028703436
 10
176.5652040886
 20
131.6897140303
 10
176.2259101442
 20
131.369005009
 10
175.9119112019
 20
131.0407432796
 10
175.6227064839
 20
130.7042760525
 10
175.3587967681
 20
130.3602561173
 10
175.1216843877
 20
130.0106418431
 10
174.9115221795
 20
129.6554013229
 10
174.7281573066
 20
129.2945664638
 10
174.5726335927
 20
128.9301913553
 10
174.4452989789
 20
128.562960694
 10
174.3458055241
 20
128.1921897834
  0
LINE
  5
33C
100
AcDbEntity
  8
RACCORDO
100
AcDbLine
 62
7
  6
CONTINUOUS
 10
114.1106986628
 20
83.2279050858
 11
122.0305105684
 21
89.7506021642
  0
LINE
  5
33D
100
AcDbEntity
  8
RACCORDO
100
AcDbLine
 62
7
  6
CONTINUOUS
 10
183.976172126
 20
137.7749261807
 11
176.936246254
 21
132.0081565109
  0
LINE
  5
33E
100
AcDbEntity
  8
0
100
AcDbLine
 62
7
  6
CONTINUOUS
 10
176.9297930352
 20
132.0028703436
 11
183.976172126
 21
137.7749261807
  0
LINE
  5
33F
100
AcDbEntity
  8
RACCORDO
100
AcDbLine
 62
253
  6
CONTINUOUS
 10
113.8310237454
 20
92.9236305014
 11
113.7942879946
 21
92.9077068702
  0
LWPOLYLINE
  5
340
100
AcDbEntity
  8
RACCORDO
100
AcDbPolyline
 62
253
  6
CONTINUOUS
 90
27
 70
0
 10
149.0835301475
 20
105.4719508175
 10
149.4232684842
 20
105.3788518589
 10
149.7797771521
 20
105.2883208473
 10
150.1549090033
 20
105.200544378
 10
150.5488100438
 20
105.1164115231
 10
150.9615114939
 20
105.0368344897
 10
151.3946992271
 20
104.9622921151
 10
151.8482891155
 20
104.8939048326
 10
152.3220454083
 20
104.8328214628
 10
152.8173363681
 20
104.7798500919
 10
153.3338064634
 20
104.7363459821
 10
153.8706477305
 20
104.7037242901
 10
154.4283250631
 20
104.6831614621
 10
155.0070967185
 20
104.6762105919
 10
155.6042331119
 20
104.6845607445
 10
156.2153768002
 20
104.7094953672
 10
156.8402595642
 20
104.7524499808
 10
157.4751151834
 20
104.8147807512
 10
158.1102526996
 20
104.8966948208
 10
158.742866113
 20
104.9985700099
 10
159.3710893524
 20
105.1210009932
 10
159.9870911771
 20
105.2631993235
 10
160.587743984
 20
105.4246294118
 10
161.1718795773
 20
105.6052482866
 10
161.7352062913
 20
105.8041475976
 10
162.2755671667
 20
106.0205394194
 10
162.7914379247
 20
106.2538203392
  0
LINE
  5
341
100
AcDbEntity
  8
RACCORDO
100
AcDbLine
 62
253
  6
CONTINUOUS
 10
148.7604247536
 20
105.5669048402
 11
149.0835301475
 21
105.4719508175
  0
LWPOLYLINE
  5
342
100
AcDbEntity
  8
RACCORDO
100
AcDbPolyline
 62
253
  6
CONTINUOUS
 90
6
 70
0
 10
147.3658479678
 20
106.0559726931
 10
147.6173144125
 20
105.9575237316
 10
147.8823471292
 20
105.8588548039
 10
148.1612363521
 20
105.7604450661
 10
148.453662237
 20
105.6630370163
 10
148.7604247536
 20
105.5669048402
  0
LWPOLYLINE
  5
343
100
AcDbEntity
  8
RACCORDO
100
AcDbPolyline
 62
253
  6
CONTINUOUS
 90
46
 70
0
 10
146.7630389268
 20
104.7870221155
 10
147.0344484893
 20
104.6796726354
 10
147.3211589323
 20
104.5731896873
 10
147.6231702556
 20
104.4675732713
 10
147.9396086106
 20
104.3624103604
 10
148.271347846
 20
104.2581139816
 10
148.6210095083
 20
104.1559232152
 10
148.988693249
 20
104.0556018787
 10
149.3742994167
 20
103.9573861547
 10
149.7801506029
 20
103.8632236711
 10
150.2064430392
 20
103.7728494391
 10
150.652980494
 20
103.6865284475
 10
151.1214968646
 20
103.6070032898
 10
151.6123506027
 20
103.5339811571
 10
152.1251832566
 20
103.4677548583
 10
152.660653368
 20
103.4119454143
 10
153.21947338
 20
103.3662594332
 10
153.8009308495
 20
103.3309903069
 10
154.4035469889
 20
103.3106392309
 10
155.0295619999
 20
103.3051878328
 10
155.6767356806
 20
103.314654485
 10
156.3368686383
 20
103.3435955004
 10
157.0122715288
 20
103.392797479
 10
157.7006336962
 20
103.4614738208
 10
158.3868237799
 20
103.5518210389
 10
159.0702361399
 20
103.6647773451
 10
159.7514764162
 20
103.7994045277
 10
160.4172301689
 20
103.9550844648
 10
161.066051411
 20
104.1322878912
 10
161.6993861295
 20
104.3305440722
 10
162.3082578457
 20
104.547822682
 10
162.8918806093
 20
104.7844320684
 10
163.4510403706
 20
105.0400638837
 10
163.9791185015
 20
105.3117627594
 10
164.4752958401
 20
105.5995441727
 10
164.9403915483
 20
105.9033926463
 10
165.3702444841
 20
106.2203063801
 10
165.7644693008
 20
106.5503270089
 10
166.1234513451
 20
106.8934128978
 10
166.4441855145
 20
107.2464373418
 10
166.7263732215
 20
107.6093862307
 10
166.9703130536
 20
107.9822736747
 10
167.1738956705
 20
108.3620152993
 10
167.3369149443
 20
108.7487471846
 10
167.4595770029
 20
109.1423332505
 10
167.5230561023
 20
109.4541345894
  0
LWPOLYLINE
  5
344
100
AcDbEntity
  8
RACCORDO
100
AcDbPolyline
 62
253
  6
CONTINUOUS
 90
16
 70
0
 10
143.7618098311
 20
108.2679826668
 10
143.7704979968
 20
108.2592410673
 10
144.0173411599
 20
108.0322160572
 10
144.2707364546
 20
107.8178282357
 10
144.5287205455
 20
107.6158180673
 10
144.7894660443
 20
107.4258367424
 10
145.0524276532
 20
107.2469508502
 10
145.3161186186
 20
107.0788400084
 10
145.5791679854
 20
106.9211145344
 10
145.8416237242
 20
106.7728297593
 10
146.1023634316
 20
106.6336759782
 10
146.3604065198
 20
106.5032627849
 10
146.6163630924
 20
106.3806444132
 10
146.8699850904
 20
106.2653317981
 10
147.1200390068
 20
106.157213544
 10
147.3658479678
 20
106.0559726931
  0
LWPOLYLINE
  5
345
100
AcDbEntity
  8
RACCORDO
100
AcDbPolyline
 62
253
  6
CONTINUOUS
 90
5
 70
0
 10
149.9448107261
 20
79.2382996431
 10
149.9393823863
 20
79.2671159272
 10
149.9336169111
 20
79.2952586486
 10
149.9275167303
 20
79.3227333559
 10
149.9210794319
 20
79.3495345164
  0
LWPOLYLINE
  5
346
100
AcDbEntity
  8
RACCORDO
100
AcDbPolyline
 62
253
  6
CONTINUOUS
 90
6
 70
0
 10
149.9740297757
 20
78.9105720091
 10
149.9735745225
 20
78.9469111427
 10
149.9725322178
 20
78.9824293994
 10
149.9709028643
 20
79.0171267818
 10
149.9686478408
 20
79.0509760219
 10
149.9658057789
 20
79.084004397
  0
LINE
  5
347
100
AcDbEntity
  8
RACCORDO
100
AcDbLine
 62
7
  6
CONTINUOUS
 10
149.8812429626
 20
79.0209849526
 11
149.8813012406
 21
79.0073905401
  0
LINE
  5
348
100
AcDbEntity
  8
RACCORDO
100
AcDbLine
 62
253
  6
CONTINUOUS
 10
149.7249913404
 20
47.8060717789
 11
149.7249913404
 21
47.5623298477
  0
LINE
  5
349
100
AcDbEntity
  8
RACCORDO
100
AcDbLine
 62
7
  6
CONTINUOUS
 10
149.8813010586
 20
40.0796545712
 11
149.8813009716
 21
79.0073907779
  0
LINE
  5
34A
100
AcDbEntity
  8
RACCORDO
100
AcDbLine
 62
253
  6
CONTINUOUS
 10
149.9740297757
 20
39.982942823
 11
149.9740297757
 21
78.9105720091
  0
LWPOLYLINE
  5
34B
100
AcDbEntity
  8
RACCORDO
100
AcDbPolyline
 62
7
  6
CONTINUOUS
 90
4
 70
0
 10
149.8813013298
 20
40.0796545697
 10
149.881259532
 20
40.0682906761
 10
149.8798519224
 20
40.0126972124
 10
149.8765876133
 20
39.9599138073
  0
LINE
  5
34C
100
AcDbEntity
  8
RACCORDO
100
AcDbLine
 62
253
  6
CONTINUOUS
 10
149.9735862876
 20
39.9472482052
 11
149.9740297757
 21
39.982942823
  0
LINE
  5
34D
100
AcDbEntity
  8
RACCORDO
100
AcDbLine
 62
7
  6
CONTINUOUS
 10
148.0237792861
 20
47.7374424787
 11
147.9290537859
 21
46.113567163
  0
LWPOLYLINE
  5
34E
100
AcDbEntity
  8
RACCORDO
100
AcDbPolyline
 62
253
  6
CONTINUOUS
 90
4
 70
0
 10
149.9687202952
 20
39.8473840097
 10
149.9709499807
 20
39.8794448607
 10
149.9725596884
 20
39.9127488837
 10
149.9735862876
 20
39.9472482052
  0
LWPOLYLINE
  5
34F
100
AcDbEntity
  8
RACCORDO
100
AcDbPolyline
 62
7
  6
CONTINUOUS
 90
10
 70
0
 10
158.3609175438
 20
167.2929130017
 10
158.2078723904
 20
165.7926325123
 10
158.0413836821
 20
164.1751063087
 10
157.8734212267
 20
162.5582202348
 10
157.7039854256
 20
160.9419761133
 10
157.5330766551
 20
159.3263755241
 10
157.3606952327
 20
157.711419791
 10
157.1868412323
 20
156.0971103656
 10
157.0115146224
 20
154.4834488854
 10
156.8465754184
 20
152.9782018567
  0
LWPOLYLINE
  5
350
100
AcDbEntity
  8
RACCORDO
100
AcDbPolyline
 62
253
  6
CONTINUOUS
 90
7
 70
0
 10
158.7878025044
 20
166.8405936886
 10
158.5432321399
 20
164.4492535208
 10
158.2954752655
 20
162.059581101
 10
158.0445318813
 20
159.6715764292
 10
157.7904019872
 20
157.2852395054
 10
157.5330855833
 20
154.9005703295
 10
157.2725826696
 20
152.5175689017
  0
LINE
  5
351
100
AcDbEntity
  8
RACCORDO
100
AcDbLine
 62
7
  6
CONTINUOUS
 10
156.8465695143
 20
152.9780022439
 11
156.8465912272
 21
152.9782001051
  0
LWPOLYLINE
  5
352
100
AcDbEntity
  8
RACCORDO
100
AcDbPolyline
 62
7
  6
CONTINUOUS
 90
8
 70
0
 10
156.8465695143
 20
152.9780022439
 10
156.8415152045
 20
152.9359477949
 10
156.8281761795
 20
152.8469454213
 10
156.8102697485
 20
152.7516650853
 10
156.7876004856
 20
152.6509824429
 10
156.7600214372
 20
152.5457788914
 10
156.7274692121
 20
152.436955788
 10
156.6989885647
 20
152.3511918284
  0
LWPOLYLINE
  5
353
100
AcDbEntity
  8
RACCORDO
100
AcDbPolyline
 62
253
  6
CONTINUOUS
 90
7
 70
0
 10
157.2725826696
 20
152.5175689017
 10
157.2624464529
 20
152.4498596936
 10
157.2493605082
 20
152.3806054208
 10
157.2334284132
 20
152.3102367518
 10
157.2147708851
 20
152.239182062
 10
157.1935245878
 20
152.1678648508
 10
157.1698408764
 20
152.0967012739
  0
LINE
  5
354
100
AcDbEntity
  8
0
100
AcDbLine
 62
7
  6
CONTINUOUS
 10
127.7665752604
 20
53.2198576063
 11
127.1356411804
 21
51.8019594162
  0
LWPOLYLINE
  5
355
100
AcDbEntity
  8
RACCORDO
100
AcDbPolyline
 62
253
  6
CONTINUOUS
 90
18
 70
0
 10
122.3478652945
 20
73.1961160411
 10
122.3758758184
 20
73.2268350716
 10
122.3981736834
 20
73.2632085052
 10
122.4143773425
 20
73.3046139424
 10
122.4242095285
 20
73.350342879
 10
122.4275019994
 20
73.3996128297
 10
122.4241984164
 20
73.4515807179
 10
122.4143553084
 20
73.5053573013
 10
122.3981411044
 20
73.5600223882
 10
122.3758332519
 20
73.6146405837
 10
122.347813469
 20
73.6682772951
 10
122.3145612126
 20
73.720014724
 10
122.2766454748
 20
73.7689675719
 10
122.2347150462
 20
73.8142981878
 10
122.1894874143
 20
73.8552309023
 10
122.1417364863
 20
73.8910653002
 10
122.0922793467
 20
73.9211882055
 10
122.0419622753
 20
73.9450841739
  0
LWPOLYLINE
  5
356
100
AcDbEntity
  8
RACCORDO
100
AcDbPolyline
 62
253
  6
CONTINUOUS
 90
12
 70
0
 10
176.1257089604
 20
123.6221627741
 10
175.7761276235
 20
123.2921721878
 10
175.4504802223
 20
122.9523344701
 10
175.1493020404
 20
122.6026842787
 10
174.8739971597
 20
122.2442792056
 10
174.6264439866
 20
121.8792982077
 10
174.4071191778
 20
121.5084527093
 10
174.2164388858
 20
121.1324561713
 10
174.0553907236
 20
120.7536573508
 10
173.9240763145
 20
120.3733796317
 10
173.8221201892
 20
119.9918516147
 10
173.7493373355
 20
119.6098230901
  0
LWPOLYLINE
  5
357
100
AcDbEntity
  8
RACCORDO
100
AcDbPolyline
 62
253
  6
CONTINUOUS
 90
9
 70
0
 10
122.0421054268
 20
73.9451263251
 10
122.0720188968
 20
73.9717829839
 10
122.0964888525
 20
73.9995116328
 10
122.115515294
 20
74.0283122719
 10
122.1292188131
 20
74.0585282213
 10
122.137478818
 20
74.0898161608
 10
122.1399335334
 20
74.1211461305
 10
122.1363746089
 20
74.1525306118
 10
122.1270103949
 20
74.1839571231
  0
LINE
  5
358
100
AcDbEntity
  8
RACCORDO
100
AcDbLine
 62
253
  6
CONTINUOUS
 10
176.4982468604
 20
123.9417974679
 11
176.1257089604
 21
123.6221627741
  0
LWPOLYLINE
  5
359
100
AcDbEntity
  8
RACCORDO
100
AcDbPolyline
 62
7
  6
CONTINUOUS
 90
37
 70
0
 10
114.1106986628
 20
74.067206642
 10
114.1724669355
 20
74.1199641003
 10
114.2240661213
 20
74.16390143
 10
114.2742324451
 20
74.206516028
 10
114.3229691976
 20
74.2478114712
 10
114.370273088
 20
74.2877841827
 10
114.4162448975
 20
74.3265375821
 10
114.4608838399
 20
74.3640717288
 10
114.5041907015
 20
74.4003865634
 10
114.5462686228
 20
74.4355853272
 10
114.5871174251
 20
74.4696685868
 10
114.6267372871
 20
74.5026357757
 10
114.6652318855
 20
74.5345884348
 10
114.7026011126
 20
74.5655271867
 10
114.738845076
 20
74.5954514089
 10
114.7740677756
 20
74.6244607755
 10
114.8082691578
 20
74.6525559559
 10
114.8414492762
 20
74.6797362808
 10
114.8737122908
 20
74.706099416
 10
114.9050581867
 20
74.7316460698
 10
114.9354869789
 20
74.756375534
 10
114.9651028717
 20
74.7803833501
 10
114.993905869
 20
74.8036702541
 10
115.0218959669
 20
74.82623551
 10
115.0491773577
 20
74.8481724524
 10
115.0757500302
 20
74.8694818245
 10
115.1016139955
 20
74.8901628831
 10
115.1268734789
 20
74.910306732
 10
115.1515285592
 20
74.9299142162
 10
115.1755791574
 20
74.9489844908
 10
115.199129263
 20
74.9676061254
 10
115.2221789332
 20
74.9857799937
 10
115.2447281106
 20
75.003505222
 10
115.2668806128
 20
75.020867759
 10
115.2886364978
 20
75.0378685531
 10
115.3099957076
 20
75.0545066558
 10
115.3310618855
 20
75.0708651707
  0
LWPOLYLINE
  5
35A
100
AcDbEntity
  8
RACCORDO
100
AcDbPolyline
 62
253
  6
CONTINUOUS
 90
8
 70
0
 10
176.3139047176
 20
123.5396183174
 10
176.3274751262
 20
123.5511910555
 10
176.3748982278
 20
123.6001244538
 10
176.4152087862
 20
123.6563587704
 10
176.4479940933
 20
123.7193182503
 10
176.4729184822
 20
123.78835828
 10
176.4897267667
 20
123.8627719828
 10
176.4982468605
 20
123.9417974681
  0
LINE
  5
35B
100
AcDbEntity
  8
RACCORDO
100
AcDbLine
 62
7
  6
CONTINUOUS
 10
114.1106986628
 20
74.930923325
 11
120.9036082176
 21
80.5255437955
  0
LINE
  5
35C
100
AcDbEntity
  8
RACCORDO
100
AcDbLine
 62
253
  6
CONTINUOUS
 10
189.310408986
 20
134.4369062649
 11
176.4982468604
 21
123.9417974679
  0
LINE
  5
35D
100
AcDbEntity
  8
RACCORDO
100
AcDbLine
 62
7
  6
CONTINUOUS
 10
189.4567580746
 20
134.3056135126
 11
176.3139047098
 21
123.539618311
  0
LINE
  5
35E
100
AcDbEntity
  8
RACCORDO
100
AcDbLine
 62
253
  6
CONTINUOUS
 10
114.1106986628
 20
76.1841078046
 11
120.5904026356
 21
81.3148288333
  0
LINE
  5
35F
100
AcDbEntity
  8
RACCORDO
100
AcDbLine
 62
253
  6
CONTINUOUS
 10
116.8569005103
 20
76.0371758686
 11
114.1106986628
 21
73.9025648644
  0
LINE
  5
360
100
AcDbEntity
  8
RACCORDO
100
AcDbLine
 62
7
  6
CONTINUOUS
 10
115.3310618855
 20
75.0708651707
 11
115.3682950006
 21
75.0996481817
  0
LINE
  5
361
100
AcDbEntity
  8
RACCORDO
100
AcDbLine
 62
7
  6
CONTINUOUS
 10
116.5655919643
 20
76.0224242632
 11
115.3682949606
 21
75.0996474955
  0
LWPOLYLINE
  5
362
100
AcDbEntity
  8
RACCORDO
100
AcDbPolyline
 62
253
  6
CONTINUOUS
 90
8
 70
0
 10
116.5656136927
 20
76.0224410073
 10
116.586179495
 20
76.0364152121
 10
116.6238306078
 20
76.0541632952
 10
116.6654698367
 20
76.0649878525
 10
116.7103848607
 20
76.0687037086
 10
116.7578073199
 20
76.0652472968
 10
116.80692596
 20
76.0546777458
 10
116.8569005103
 20
76.0371758686
  0
LINE
  5
363
100
AcDbEntity
  8
RACCORDO
100
AcDbLine
 62
253
  6
CONTINUOUS
 10
162.7914379247
 20
106.2538203392
 11
163.2799745877
 21
106.5029316767
  0
LWPOLYLINE
  5
364
100
AcDbEntity
  8
RACCORDO
100
AcDbPolyline
 62
253
  6
CONTINUOUS
 90
10
 70
0
 10
113.7942879946
 20
92.9077068702
 10
113.7584209303
 20
92.897351646
 10
113.7236839865
 20
92.8925773415
 10
113.6908614654
 20
92.893421495
 10
113.6599772891
 20
92.8999746307
 10
113.6310075355
 20
92.9121462244
 10
113.6046647402
 20
92.9297022415
 10
113.5811864152
 20
92.9525646706
 10
113.5603350486
 20
92.9808115231
 10
113.5421106403
 20
93.0144427991
  0
LINE
  5
365
100
AcDbEntity
  8
RACCORDO
100
AcDbLine
 62
253
  6
CONTINUOUS
 10
156.132659998
 20
81.5973116614
 11
156.132659998
 21
32.8773426174
  0
LINE
  5
366
100
AcDbEntity
  8
RACCORDO
100
AcDbLine
 62
253
  6
CONTINUOUS
 10
157.3136359725
 20
81.7191099146
 11
157.3136359725
 21
32.9991408707
  0
LWPOLYLINE
  5
367
100
AcDbEntity
  8
RACCORDO
100
AcDbPolyline
 62
253
  6
CONTINUOUS
 90
19
 70
0
 10
156.132659998
 20
32.8773426174
 10
156.1323284791
 20
32.870298331
 10
156.1313685389
 20
32.8636200673
 10
156.1297801801
 20
32.8573078287
 10
156.1275429614
 20
32.8513138388
 10
156.1246773345
 20
32.8456858838
 10
156.1212446428
 20
32.8405673119
 10
156.1172308728
 20
32.8359736468
 10
156.1126500563
 20
32.8318893819
 10
156.1076056047
 20
32.8284113186
 10
156.1020847726
 20
32.8255547111
 10
156.0961003267
 20
32.8233043249
 10
156.0897939418
 20
32.8217112255
 10
156.083154414
 20
32.820793743
 10
156.0761929654
 20
32.8205335641
 10
156.0690849021
 20
32.8209267809
 10
156.0618886602
 20
32.8219720914
 10
156.0545458115
 20
32.8236708049
 10
156.0470563606
 20
32.8260229258
  0
LWPOLYLINE
  5
368
100
AcDbEntity
  8
RACCORDO
100
AcDbPolyline
 62
7
  6
CONTINUOUS
 90
5
 70
0
 10
149.8765876133
 20
39.9599138073
 10
149.8716492549
 20
39.9100895934
 10
149.8652585282
 20
39.8636568861
 10
149.8576298065
 20
39.8207624325
 10
149.8489205033
 20
39.7812776007
  0
LWPOLYLINE
  5
369
100
AcDbEntity
  8
RACCORDO
100
AcDbPolyline
 62
253
  6
CONTINUOUS
 90
10
 70
0
 10
149.6450252558
 20
39.3913318705
 10
149.6436316525
 20
39.3819073052
 10
149.6424886667
 20
39.3725434436
 10
149.6415990102
 20
39.3632625851
 10
149.6409647974
 20
39.3540868335
 10
149.6405875257
 20
39.3450380372
 10
149.6404680687
 20
39.3361377383
 10
149.6406066955
 20
39.3274071313
 10
149.6410030723
 20
39.3188670106
 10
149.6416562469
 20
39.3105377144
  0
LWPOLYLINE
  5
36A
100
AcDbEntity
  8
RACCORDO
100
AcDbPolyline
 62
253
  6
CONTINUOUS
 90
16
 70
0
 10
175.0617398644
 20
144.9092336396
 10
175.0430317246
 20
144.856186433
 10
175.0231544879
 20
144.8036700223
 10
175.0021887497
 20
144.7518437405
 10
174.9801849082
 20
144.7009075009
 10
174.9572627119
 20
144.6509618998
 10
174.9336044508
 20
144.6020131043
 10
174.9093056012
 20
144.554201211
 10
174.8844409261
 20
144.5076619527
 10
174.859153817
 20
144.4623990926
 10
174.8335403624
 20
144.4185373166
 10
174.8076768716
 20
144.3762117819
 10
174.7816718095
 20
144.3354510318
 10
174.7556197514
 20
144.2963513343
 10
174.7296048593
 20
144.2590662811
 10
174.7037200602
 20
144.2237118549
  0
LWPOLYLINE
  5
36B
100
AcDbEntity
  8
RACCORDO
100
AcDbPolyline
 62
253
  6
CONTINUOUS
 90
6
 70
0
 10
135.9214943201
 20
50.0867880614
 10
135.9314707085
 20
50.1107908248
 10
135.9428280674
 20
50.1339719406
 10
135.9553533167
 20
50.1558836909
 10
135.9687416947
 20
50.1760251532
 10
135.9827202902
 20
50.1940560991
  0
LWPOLYLINE
  5
36C
100
AcDbEntity
  8
RACCORDO
100
AcDbPolyline
 62
7
  6
CONTINUOUS
 90
20
 70
0
 10
122.3414788759
 20
73.1905828127
 10
122.375964033
 20
73.2206537819
 10
122.4364621133
 20
73.2828467591
 10
122.4874454212
 20
73.3484823799
 10
122.5293408213
 20
73.4171276971
 10
122.5626912654
 20
73.4892184585
 10
122.5871075338
 20
73.5639523744
 10
122.6023146071
 20
73.640276434
 10
122.6082944137
 20
73.7181969473
 10
122.6047768049
 20
73.796786199
 10
122.5916636695
 20
73.8747355806
 10
122.5688811046
 20
73.9514473496
 10
122.5365386555
 20
74.0259235811
 10
122.4950000925
 20
74.0970541525
 10
122.4444169018
 20
74.1643101892
 10
122.3846131979
 20
74.2274096392
 10
122.3163076094
 20
74.2852620584
 10
122.2408711924
 20
74.3367557237
 10
122.158922747
 20
74.3816314947
 10
122.0877397085
 20
74.4132205262
  0
LINE
  5
36D
100
AcDbEntity
  8
RACCORDO
100
AcDbLine
 62
7
  6
CONTINUOUS
 10
114.1106986628
 20
66.4117420644
 11
122.3414788759
 21
73.1905828127
  0
LINE
  5
36E
100
AcDbEntity
  8
RACCORDO
100
AcDbLine
 62
253
  6
CONTINUOUS
 10
114.1106986628
 20
67.664926544
 11
122.0421054268
 21
73.9451263251
  0
LWPOLYLINE
  5
36F
100
AcDbEntity
  8
RACCORDO
100
AcDbPolyline
 62
253
  6
CONTINUOUS
 90
7
 70
0
 10
163.7393553545
 20
106.7667236768
 10
164.1685776026
 20
107.0444000962
 10
164.5663462643
 20
107.3352504896
 10
164.9314229225
 20
107.6381606806
 10
165.2628156282
 20
107.9520868151
 10
165.5597038441
 20
108.2763886878
 10
165.807958127
 20
108.5930511663
  0
LINE
  5
370
100
AcDbEntity
  8
RACCORDO
100
AcDbLine
 62
253
  6
CONTINUOUS
 10
163.2799745877
 20
106.5029316767
 11
163.7393553545
 21
106.7667236768
  0
LWPOLYLINE
  5
371
100
AcDbEntity
  8
DRAFT
100
AcDbPolyline
 62
7
  6
CONTINUOUS
 90
40
 70
0
 10
145.7206834506
 20
115.8306843547
 10
146.6006633044
 20
115.5953884889
 10
147.5019109027
 20
115.3850202062
 10
148.4185139663
 20
115.2009922637
 10
149.3512671206
 20
115.0434025417
 10
150.2993757401
 20
114.91215316
 10
151.2545436687
 20
114.8083632348
 10
152.2158548035
 20
114.7323065051
 10
153.1842252475
 20
114.683709232
 10
154.1541071531
 20
114.6628693154
 10
155.1267014138
 20
114.670000615
 10
156.100807136
 20
114.7048892711
 10
157.0672737921
 20
114.7671916046
 10
158.0247165984
 20
114.8569957427
 10
158.9745203386
 20
114.9742135582
 10
159.911688835
 20
115.1182369914
 10
160.8375019235
 20
115.2895033229
 10
161.7506797683
 20
115.487575272
 10
162.6423866851
 20
115.7105329369
 10
163.511134482
 20
115.9582061262
 10
164.3584113509
 20
116.2307650312
 10
165.1798461821
 20
116.526800324
 10
165.9764475806
 20
116.8469374043
 10
166.7472069415
 20
117.1905508725
 10
167.4847273413
 20
117.5543552019
 10
168.1877534928
 20
117.9379916799
 10
168.8575406832
 20
118.3418190193
 10
169.4904578508
 20
118.763627831
 10
170.0870053978
 20
119.2040699834
 10
170.646682922
 20
119.6624936082
 10
171.1643581553
 20
120.1347337113
 10
171.6391890542
 20
120.6204231403
 10
172.0720176623
 20
121.1199290476
 10
172.4602378424
 20
121.6301878956
 10
172.8038242119
 20
122.1516419228
 10
173.1028021534
 20
122.6838488906
 10
173.3546416776
 20
123.2224185455
 10
173.558499455
 20
123.7658874697
 10
173.7152188151
 20
124.315719081
 10
173.8247997581
 20
124.8719133794
  0
LWPOLYLINE
  5
372
100
AcDbEntity
  8
DRAFT
100
AcDbPolyline
 62
7
  6
CONTINUOUS
 90
40
 70
0
 10
145.1475247497
 20
116.0009052405
 10
146.0330531683
 20
115.7437770787
 10
146.9356854845
 20
115.5136501663
 10
147.8554216985
 20
115.3105245032
 10
148.7950172585
 20
115.1339832283
 10
149.7517167162
 20
114.9844432028
 10
150.7172537265
 20
114.8631550095
 10
151.6909072812
 20
114.7703925836
 10
152.6733983885
 20
114.7058819899
 10
153.6586237283
 20
114.6700520067
 10
154.6477015945
 20
114.663122791
 10
155.6395136932
 20
114.6848741858
 10
156.6246018227
 20
114.735074498
 10
157.6016008798
 20
114.8138393233
 10
158.5718759677
 20
114.9210530662
 10
159.530064194
 20
115.0561372462
 10
160.4774929286
 20
115.2195389063
 10
161.4128348017
 20
115.4108110037
 10
162.3267448118
 20
115.6280339293
 10
163.2176410737
 20
115.871042034
 10
164.0871054727
 20
116.1400009669
 10
164.9305386631
 20
116.433488067
 10
165.7490514373
 20
116.7521708014
 10
166.5415330029
 20
117.0953817029
 10
167.3000516368
 20
117.4596957094
 10
168.0232255492
 20
117.8447214109
 10
168.7124365299
 20
118.2508502173
 10
169.3638982247
 20
118.6758312956
 10
169.9781939621
 20
119.1203837545
 10
170.5547404136
 20
119.5837884853
 10
171.0880012405
 20
120.0616373278
 10
171.5770396104
 20
120.5535135231
 10
172.0227923557
 20
121.0598338301
 10
172.4225336339
 20
121.5774403653
 10
172.776261833
 20
122.1068309169
 10
173.083978565
 20
122.6475076967
 10
173.3429628241
 20
123.1948194576
 10
173.5523076084
 20
123.7472157838
 10
173.7129199197
 20
124.3062470911
 10
173.8247997581
 20
124.8719133794
  0
LINE
  5
373
100
AcDbEntity
  8
DRAFT
100
AcDbLine
 62
7
  6
CONTINUOUS
 10
144.8617722151
 20
116.0911614399
 11
145.7206834506
 21
115.8306843547
  0
LWPOLYLINE
  5
374
100
AcDbEntity
  8
DRAFT
100
AcDbPolyline
 62
7
  6
CONTINUOUS
 90
5
 70
0
 10
141.6783440696
 20
117.3696979519
 10
142.4324146514
 20
117.0158343642
 10
143.2142626365
 20
116.6847246932
 10
144.0241287241
 20
116.3765661082
 10
144.8617722151
 20
116.0911614399
  0
LWPOLYLINE
  5
375
100
AcDbEntity
  8
DRAFT
100
AcDbPolyline
 62
7
  6
CONTINUOUS
 90
10
 70
0
 10
141.4761371895
 20
116.6917836358
 10
141.8553070165
 20
116.5033788423
 10
142.2422826617
 20
116.320869467
 10
142.6370641251
 20
116.1442555098
 10
143.0399237659
 20
115.9734275851
 10
143.4505892249
 20
115.8084950785
 10
143.8682434244
 20
115.6497861468
 10
144.2926140053
 20
115.4974101757
 10
144.7239733268
 20
115.3512577796
 10
145.1623213888
 20
115.2113289583
  0
LINE
  5
376
100
AcDbEntity
  8
DRAFT
100
AcDbLine
 62
7
  6
CONTINUOUS
 10
140.7086211709
 20
117.8821890054
 11
141.4327438461
 21
117.4928449991
  0
LINE
  5
377
100
AcDbEntity
  8
RACCORDO
100
AcDbLine
 62
253
  6
CONTINUOUS
 10
166.0369123614
 20
173.0157709729
 11
166.0369123614
 21
173.1215383552
  0
LWPOLYLINE
  5
378
100
AcDbEntity
  8
RACCORDO
100
AcDbPolyline
 62
253
  6
CONTINUOUS
 90
10
 70
0
 10
157.3136359725
 20
32.9991408707
 10
157.3081016608
 20
32.927416069
 10
157.296578716
 20
32.8588807357
 10
157.2791567558
 20
32.7940552587
 10
157.2559708187
 20
32.7334333066
 10
157.2271972315
 20
32.6774724496
 10
157.1930508628
 20
32.6265919431
 10
157.1537871289
 20
32.5811756205
 10
157.1097049744
 20
32.5415709933
 10
157.0794217778
 20
32.5196176744
  0
LWPOLYLINE
  5
379
100
AcDbEntity
  8
RACCORDO
100
AcDbPolyline
 62
253
  6
CONTINUOUS
 90
6
 70
0
 10
149.9500423587
 20
39.7034297974
 10
149.9546594833
 20
39.7302037561
 10
149.9588770982
 20
39.7579283331
 10
149.9626222567
 20
39.7867046282
 10
149.9659075115
 20
39.8165184666
 10
149.9687202952
 20
39.8473840097
  0
LINE
  5
37A
100
AcDbEntity
  8
RACCORDO
100
AcDbLine
 62
7
  6
CONTINUOUS
 10
149.8474844851
 20
39.7754643313
 11
149.8489205033
 21
39.7812776007
  0
LINE
  5
37B
100
AcDbEntity
  8
RACCORDO
100
AcDbLine
 62
253
  6
CONTINUOUS
 10
149.6450386468
 20
39.391333965
 11
149.8813009716
 21
40.3343360032
  0
LWPOLYLINE
  5
37C
100
AcDbEntity
  8
RACCORDO
100
AcDbPolyline
 62
253
  6
CONTINUOUS
 90
7
 70
0
 10
175.0617398644
 20
144.9092336396
 10
175.0843415013
 20
144.9811308872
 10
175.1038128716
 20
145.0534585768
 10
175.1200012121
 20
145.1257962998
 10
175.1327686739
 20
145.1977162855
 10
175.1419935931
 20
145.2687859109
 10
175.1475716958
 20
145.3385703265
  0
LWPOLYLINE
  5
37D
100
AcDbEntity
  8
RACCORDO
100
AcDbPolyline
 62
253
  6
CONTINUOUS
 90
7
 70
0
 10
176.337719817
 20
144.5152160317
 10
176.3835406252
 20
144.6593366443
 10
176.4229336198
 20
144.8025285622
 10
176.4558938004
 20
144.9447939801
 10
176.4824156957
 20
145.0861352983
 10
176.5024933639
 20
145.2265551232
 10
176.5161203928
 20
145.3660562676
  0
LWPOLYLINE
  5
37E
100
AcDbEntity
  8
RACCORDO
100
AcDbPolyline
 62
253
  6
CONTINUOUS
 90
16
 70
0
 10
176.3377237154
 20
144.5151467109
 10
176.3024965663
 20
144.4106769837
 10
176.2650896928
 20
144.3081367785
 10
176.2255460287
 20
144.2075100342
 10
176.1837789349
 20
144.1085571442
 10
176.1399704943
 20
144.011483168
 10
176.0945608267
 20
143.916942005
 10
176.0475975133
 20
143.8249414824
 10
175.999119911
 20
143.7354454183
 10
175.9495384414
 20
143.6490489683
 10
175.8988892178
 20
143.5657493826
 10
175.847211116
 20
143.4855282218
 10
175.7948988017
 20
143.4089649334
 10
175.7420980026
 20
143.3362501778
 10
175.688718022
 20
143.2671814267
 10
175.6347885554
 20
143.2017525062
  0
LINE
  5
37F
100
AcDbEntity
  8
0
100
AcDbLine
 62
7
  6
CONTINUOUS
 10
141.2825839912
 20
47.7915237887
 11
140.6516499112
 21
46.3736255986
  0
LWPOLYLINE
  5
380
100
AcDbEntity
  8
RACCORDO
100
AcDbPolyline
 62
253
  6
CONTINUOUS
 90
13
 70
0
 10
113.9078856085
 20
56.9196149891
 10
113.8719174537
 20
56.8886464424
 10
113.836031542
 20
56.8527517727
 10
113.8002278731
 20
56.8119309799
 10
113.7638959662
 20
56.7655444171
 10
113.7276463022
 20
56.7142317312
 10
113.6933103246
 20
56.6599118637
 10
113.6610923709
 20
56.6022917431
 10
113.6307881036
 20
56.5416644409
 10
113.6036159538
 20
56.4808281126
 10
113.5799820651
 20
56.4207154768
 10
113.559480294
 20
56.3603938148
 10
113.5421106403
 20
56.2998631268
  0
LWPOLYLINE
  5
381
100
AcDbEntity
  8
RACCORDO
100
AcDbPolyline
 62
253
  6
CONTINUOUS
 90
13
 70
0
 10
114.0716910652
 20
56.6900215681
 10
114.0462272701
 20
56.6681037576
 10
114.0203268051
 20
56.6426389702
 10
113.9942106897
 20
56.6136001732
 10
113.9679465693
 20
56.580786208
 10
113.9420085406
 20
56.5444719096
 10
113.9172049128
 20
56.5055802682
 10
113.8937785589
 20
56.4644380273
 10
113.8719610983
 20
56.4214133237
 10
113.8523653633
 20
56.3777701057
 10
113.8351941574
 20
56.334253801
 10
113.8203580022
 20
56.2909914655
 10
113.8078813973
 20
56.2483625241
  0
LINE
  5
382
100
AcDbEntity
  8
DRAFT
100
AcDbLine
 62
7
  6
CONTINUOUS
 10
115.6303123516
 20
59.3125317025
 11
114.1106986628
 21
58.0405953296
  0
LINE
  5
383
100
AcDbEntity
  8
DRAFT
100
AcDbLine
 62
7
  6
CONTINUOUS
 10
114.9684771601
 20
56.576352032
 11
118.6299252358
 21
59.6320460868
  0
LINE
  5
384
100
AcDbEntity
  8
DRAFT
100
AcDbLine
 62
7
  6
CONTINUOUS
 10
122.3683487472
 20
61.3412565628
 11
116.0451163889
 21
56.1439494455
  0
LINE
  5
385
100
AcDbEntity
  8
RACCORDO
100
AcDbLine
 62
253
  6
CONTINUOUS
 10
114.1106986628
 20
57.0846606714
 11
113.9078856085
 21
56.9196149891
  0
LINE
  5
386
100
AcDbEntity
  8
RACCORDO
100
AcDbLine
 62
253
  6
CONTINUOUS
 10
114.2745041195
 20
56.8550672504
 11
114.0716910652
 21
56.6900215681
  0
LINE
  5
387
100
AcDbEntity
  8
RACCORDO
100
AcDbLine
 62
253
  6
CONTINUOUS
 10
127.6767579431
 20
69.2268240082
 11
115.6303123516
 21
59.4852899246
  0
LINE
  5
388
100
AcDbEntity
  8
RACCORDO
100
AcDbLine
 62
253
  6
CONTINUOUS
 10
127.8404885509
 20
68.9973354971
 11
117.6156511669
 21
60.7288714826
  0
LINE
  5
389
100
AcDbEntity
  8
DRAFT
100
AcDbLine
 62
7
  6
CONTINUOUS
 10
114.1106986628
 20
57.9939913625
 11
116.9745480881
 21
60.2968828689
  0
LWPOLYLINE
  5
38A
100
AcDbEntity
  8
RACCORDO
100
AcDbPolyline
 62
7
  6
CONTINUOUS
 90
11
 70
0
 10
135.19048348
 20
121.0885675163
 10
134.905118699
 20
121.0448981881
 10
133.9704515625
 20
120.8694447753
 10
133.0562034451
 20
120.6646272022
 10
132.165193676
 20
120.4308813228
 10
131.300024314
 20
120.1687092654
 10
130.4634278207
 20
119.8786554638
 10
129.6579567106
 20
119.5613509057
 10
128.8858566995
 20
119.2173087921
 10
128.1494269128
 20
118.8471134579
 10
127.4511859883
 20
118.4515011928
  0
LWPOLYLINE
  5
38B
100
AcDbEntity
  8
RACCORDO
100
AcDbPolyline
 62
253
  6
CONTINUOUS
 90
7
 70
0
 10
171.4684805291
 20
111.2667623804
 10
171.4587566392
 20
111.2704014631
 10
171.3998009701
 20
111.2824427919
 10
171.3359851357
 20
111.279394892
 10
171.2683295601
 20
111.2613065069
 10
171.1979160625
 20
111.2284668782
 10
171.1258705615
 20
111.181401121
  0
LINE
  5
38C
100
AcDbEntity
  8
RACCORDO
100
AcDbLine
 62
253
  6
CONTINUOUS
 10
170.3519010978
 20
111.4922447064
 11
171.1258705615
 21
111.181401121
  0
LINE
  5
38D
100
AcDbEntity
  8
RACCORDO
100
AcDbLine
 62
7
  6
CONTINUOUS
 10
171.4685401723
 20
111.2667384364
 11
171.4684805291
 21
111.2667623804
  0
LINE
  5
38E
100
AcDbEntity
  8
RACCORDO
100
AcDbLine
 62
7
  6
CONTINUOUS
 10
170.5182998556
 20
111.6483763703
 11
171.4685401787
 21
111.2667384338
  0
LINE
  5
38F
100
AcDbEntity
  8
RACCORDO
100
AcDbLine
 62
253
  6
CONTINUOUS
 10
171.1258705615
 20
111.181401121
 11
171.5339215265
 21
111.0154602303
  0
LWPOLYLINE
  5
390
100
AcDbEntity
  8
RACCORDO
100
AcDbPolyline
 62
253
  6
CONTINUOUS
 90
36
 70
0
 10
171.5339215265
 20
111.0154602303
 10
171.949816422
 20
110.8324225649
 10
172.3735552479
 20
110.6322881249
 10
172.8079801647
 20
110.4155474208
 10
173.250249012
 20
110.1817099421
 10
173.6918353082
 20
109.9293041572
 10
174.1331252991
 20
109.6580682265
 10
174.5737327389
 20
109.3682639896
 10
175.0039724091
 20
109.0592054343
 10
175.4241573447
 20
108.7305026741
 10
175.8339745107
 20
108.3825455955
 10
176.2227995827
 20
108.0158178449
 10
176.5908842986
 20
107.6295023355
 10
176.9379769206
 20
107.2244161541
 10
177.2526979116
 20
106.8034942079
 10
177.5346957937
 20
106.3642340139
 10
177.7843220448
 20
105.909138055
 10
177.9912515614
 20
105.4486486873
 10
178.1522652865
 20
104.9821509794
 10
178.2705822771
 20
104.5102598628
 10
178.3455346011
 20
104.0452624879
 10
178.3744717694
 20
103.5892442872
 10
178.3600442709
 20
103.1401198281
 10
178.3095356404
 20
102.7039199633
 10
178.2222244137
 20
102.2816314698
 10
178.0988320548
 20
101.8722675705
 10
177.9488064903
 20
101.4788987866
 10
177.7719307048
 20
101.101985339
 10
177.5684217136
 20
100.7410670068
 10
177.3483784892
 20
100.3978336484
 10
177.1118047415
 20
100.0726524963
 10
176.8586967606
 20
99.7651563181
 10
176.5991423895
 20
99.4759332745
 10
176.3365042426
 20
99.2051794192
 10
176.0674197055
 20
98.9526986987
 10
175.7918887782
 20
98.7184911128
  0
LWPOLYLINE
  5
391
100
AcDbEntity
  8
RACCORDO
100
AcDbPolyline
 62
253
  6
CONTINUOUS
 90
22
 70
0
 10
143.6296434805
 20
125.8099406646
 10
142.9367025229
 20
126.1231630913
 10
142.2710551929
 20
126.4606355551
 10
141.6325379948
 20
126.8221919601
 10
141.0257103507
 20
127.205306212
 10
140.4507802523
 20
127.6101264074
 10
139.9075397078
 20
128.0365044497
 10
139.3999241643
 20
128.4814699555
 10
138.9281573015
 20
128.9451748397
 10
138.4920154396
 20
129.4274671873
 10
138.0947629858
 20
129.9249208698
 10
137.7366810997
 20
130.4376258106
 10
137.4174886218
 20
130.9654920862
 10
137.1396064808
 20
131.5048237975
 10
136.9033061927
 20
132.0556946911
 10
136.7083162416
 20
132.6180310204
 10
136.5562430088
 20
133.1879156464
 10
136.4473789627
 20
133.7654991813
 10
136.3814316349
 20
134.3506310128
 10
136.3591300016
 20
134.9389421653
 10
136.3808935898
 20
135.5306065411
 10
136.4463028725
 20
136.1254502378
  0
LINE
  5
392
100
AcDbEntity
  8
RACCORDO
100
AcDbLine
 62
7
  6
CONTINUOUS
 10
166.2930639589
 20
38.9660618358
 11
166.2930639589
 21
88.9365817763
  0
LINE
  5
393
100
AcDbEntity
  8
DRAFT
100
AcDbLine
 62
7
  6
CONTINUOUS
 10
170.9303333355
 20
177.1299941497
 11
170.9216361611
 21
176.4112796903
  0
LINE
  5
394
100
AcDbEntity
  8
RACCORDO
100
AcDbLine
 62
253
  6
CONTINUOUS
 10
172.440923472
 20
139.4195820248
 11
172.0696002573
 21
136.3366739365
  0
LINE
  5
395
100
AcDbEntity
  8
RACCORDO
100
AcDbLine
 62
253
  6
CONTINUOUS
 10
173.5155793314
 20
138.6667410156
 11
173.1442561164
 21
135.583832927
  0
LWPOLYLINE
  5
396
100
AcDbEntity
  8
RACCORDO
100
AcDbPolyline
 62
253
  6
CONTINUOUS
 90
13
 70
0
 10
176.2559338736
 20
159.8249983209
 10
176.269466524
 20
159.931789321
 10
176.2908764624
 20
160.0420536542
 10
176.3198595158
 20
160.1542247852
 10
176.3560039194
 20
160.2667090888
 10
176.3987961664
 20
160.3779084905
 10
176.4476283036
 20
160.4862431705
 10
176.5018065684
 20
160.5901740082
 10
176.5605612455
 20
160.6882244492
 10
176.6230576018
 20
160.7790014818
 10
176.688407746
 20
160.8612154289
 10
176.7556832429
 20
160.9336982695
 10
176.8239283035
 20
160.9954202334
  0
LWPOLYLINE
  5
397
100
AcDbEntity
  8
RACCORDO
100
AcDbPolyline
 62
253
  6
CONTINUOUS
 90
45
 70
0
 10
172.0696002573
 20
136.3366739365
 10
172.0097895737
 20
135.8881250377
 10
171.9126009521
 20
135.4195776438
 10
171.7780343926
 20
134.9310317548
 10
171.6081362327
 20
134.4184704708
 10
171.4008601349
 20
133.8859106918
 10
171.1500670863
 20
133.3454031177
 10
170.8535123325
 20
132.7968271291
 10
170.513440628
 20
132.2403033454
 10
170.1304472235
 20
131.6882443252
 10
169.7023566639
 20
131.1411560594
 10
169.2313444044
 20
130.5985325572
 10
168.7245320607
 20
130.0712684041
 10
168.1821783619
 20
129.5614395982
 10
167.604024579
 20
129.0669701416
 10
166.9964161412
 20
128.5925266258
 10
166.3603501303
 20
128.1391339297
 10
165.6948294645
 20
127.7057671745
 10
165.0032083271
 20
127.2940183162
 10
164.2849600789
 20
126.9035904914
 10
163.5406113592
 20
126.5347805635
 10
162.7750962692
 20
126.190071079
 10
161.9878434733
 20
125.8694786898
 10
161.1794243071
 20
125.5729867439
 10
160.3564868783
 20
125.3030278322
 10
159.5190919684
 20
125.0599189484
 10
158.6671787958
 20
124.8433430987
 10
157.807213123
 20
124.6547818931
 10
156.9392799722
 20
124.4944696603
 10
156.0632943211
 20
124.3621720715
 10
155.1854668654
 20
124.2586677497
 10
154.3057836672
 20
124.184145298
 10
153.4242586645
 20
124.1384161133
 10
152.5471443669
 20
124.1216930095
 10
151.6744448394
 20
124.1341770802
 10
150.806156017
 20
124.1756672317
 10
149.9485182149
 20
124.2457729978
 10
149.1016477442
 20
124.3446893754
 10
148.2654282938
 20
124.4722213675
 10
147.4457512442
 20
124.627393516
 10
146.6427344487
 20
124.8103901376
 10
145.8562600542
 20
125.0210269156
 10
145.0918658822
 20
125.2577754409
 10
144.3497145701
 20
125.5208021791
 10
143.6296434805
 20
125.8099406646
  0
LWPOLYLINE
  5
398
100
AcDbEntity
  8
RACCORDO
100
AcDbPolyline
 62
253
  6
CONTINUOUS
 90
65
 70
0
 10
173.1442561164
 20
135.583832927
 10
173.0740939427
 20
135.1155205752
 10
172.9724430334
 20
134.6241998296
 10
172.835376971
 20
134.1108228917
 10
172.6578862068
 20
133.5737921287
 10
172.4365139491
 20
133.0172948566
 10
172.1711893884
 20
132.4510509203
 10
171.8595204401
 20
131.8765050022
 10
171.4991414716
 20
131.2954661249
 10
171.0934251915
 20
130.7178023706
 10
170.6421173852
 20
130.145158394
 10
170.1448053189
 20
129.5790042106
 10
169.6079279722
 20
129.0281370943
 10
169.0347445295
 20
128.4952630459
 10
168.425173296
 20
127.9797161002
 10
167.7825075658
 20
127.4845382729
 10
167.1099840839
 20
127.0114137329
 10
166.4084060528
 20
126.5601118567
 10
165.67750528
 20
126.1307541026
 10
164.9184877641
 20
125.7238233259
 10
164.1338005618
 20
125.3404002097
 10
163.3248155006
 20
124.9816507424
 10
162.4930495511
 20
124.6480996544
 10
161.6409413691
 20
124.3405426758
 10
160.7713441119
 20
124.0604504785
 10
159.8866355322
 20
123.8083459544
 10
158.9888072135
 20
123.5845032017
 10
158.0802489958
 20
123.3898474297
 10
157.1633474284
 20
123.2246594397
 10
156.2402288958
 20
123.0890455172
 10
155.3129222123
 20
122.983577809
 10
154.383677124
 20
122.908337729
 10
153.4547791589
 20
122.8632893018
 10
152.52831126
 20
122.8487664088
 10
151.6064844209
 20
122.8646779491
 10
150.6915744471
 20
122.9108049738
 10
149.7857447515
 20
122.9872132506
 10
148.8912206395
 20
123.0936224828
 10
148.0101231991
 20
123.2296302215
 10
147.1444244826
 20
123.3950438365
 10
146.2962141999
 20
123.589418243
 10
145.4675335504
 20
123.8121824736
 10
144.6602342972
 20
124.0628924868
 10
143.8762831359
 20
124.3409377754
 10
143.1175540424
 20
124.6455967756
 10
142.385702716
 20
124.9762046883
 10
141.682498867
 20
125.3320199286
 10
141.0096691418
 20
125.7121699224
 10
140.3687354069
 20
126.1157441466
 10
139.7612779011
 20
126.5418593648
 10
139.1887943675
 20
126.989520115
 10
138.6525966881
 20
127.457600521
 10
138.1540139923
 20
127.9451176404
 10
137.6943228901
 20
128.4509455519
 10
137.274645326
 20
128.9736993072
 10
136.8960717595
 20
129.5122461904
 10
136.5595549224
 20
130.0654068384
 10
136.2658907325
 20
130.6316911604
 10
136.0158778763
 20
131.2098963694
 10
135.8101948574
 20
131.7987653817
 10
135.6493553312
 20
132.396705635
 10
135.5338507615
 20
133.0025593413
 10
135.4640997643
 20
133.6149196054
 10
135.4403476305
 20
134.2318047418
 10
135.4571287639
 20
134.7698154355
  0
LINE
  5
399
100
AcDbEntity
  8
RACCORDO
100
AcDbLine
 62
7
  6
CONTINUOUS
 10
173.8247997581
 20
124.8719133794
 11
174.2735619083
 21
127.8140019255
  0
LINE
  5
39A
100
AcDbEntity
  8
0
100
AcDbLine
 62
7
  6
CONTINUOUS
 10
173.8247997581
 20
124.8719133794
 11
174.2741532282
 21
127.8178786235
  0
LINE
  5
39B
100
AcDbEntity
  8
RACCORDO
100
AcDbLine
 62
253
  6
CONTINUOUS
 10
173.7493373355
 20
119.6098230901
 11
173.2999838655
 21
116.663857846
  0
LINE
  5
39C
100
AcDbEntity
  8
RACCORDO
100
AcDbLine
 62
7
  6
CONTINUOUS
 10
173.7430740402
 20
119.5518283614
 11
173.2937205702
 21
116.6058631172
  0
LINE
  5
39D
100
AcDbEntity
  8
RACCORDO
100
AcDbLine
 62
253
  6
CONTINUOUS
 10
173.2999838655
 20
116.663857846
 11
173.2528930492
 21
116.3939253904
  0
LINE
  5
39E
100
AcDbEntity
  8
0
100
AcDbLine
 62
7
  6
CONTINUOUS
 10
174.3458055241
 20
128.1921897834
 11
174.2741532282
 21
127.8178786235
  0
LWPOLYLINE
  5
39F
100
AcDbEntity
  8
RACCORDO
100
AcDbPolyline
 62
7
  6
CONTINUOUS
 90
13
 70
0
 10
173.7430740402
 20
119.5518283614
 10
173.813294788
 20
119.9142677464
 10
173.9121722549
 20
120.2722412758
 10
174.038795418
 20
120.6252451422
 10
174.1919057937
 20
120.9721251234
 10
174.3706692041
 20
121.312910927
 10
174.5751387078
 20
121.6487666079
 10
174.8045784308
 20
121.9790496461
 10
175.0581145257
 20
122.3030332328
 10
175.3362861991
 20
122.6216421896
 10
175.6390107067
 20
122.9346837502
 10
175.9651426637
 20
123.2409069511
 10
176.3139047098
 20
123.539618311
  0
LWPOLYLINE
  5
3A0
100
AcDbEntity
  8
RACCORDO
100
AcDbPolyline
 62
253
  6
CONTINUOUS
 90
63
 70
0
 10
173.2528930492
 20
116.3939253904
 10
173.1901341369
 20
116.1084134839
 10
173.1094885465
 20
115.807686383
 10
173.0085440755
 20
115.4919238694
 10
172.8849521169
 20
115.1619341694
 10
172.7365819601
 20
114.8191461126
 10
172.56101171
 20
114.4642958715
 10
172.3557682489
 20
114.0982208017
 10
172.1188469937
 20
113.7226305673
 10
171.8478720971
 20
113.3385754591
 10
171.5404999361
 20
112.9472649286
 10
171.1950940145
 20
112.5507761349
 10
170.8095246424
 20
112.1505052401
 10
170.381799034
 20
111.7480458297
 10
169.9109515761
 20
111.3458726166
 10
169.3947940075
 20
110.9453200117
 10
168.8324092471
 20
110.5487632079
 10
168.2256538599
 20
110.1601395615
 10
167.5722172589
 20
109.7803820768
 10
166.8733324444
 20
109.4125469285
 10
166.1381831234
 20
109.0629067451
 10
165.3685458206
 20
108.7329973317
 10
164.5653094799
 20
108.4238680206
 10
163.7385821288
 20
108.13957235
 10
162.8940049017
 20
107.8815230194
 10
162.0309030917
 20
107.6490040277
 10
161.1507049288
 20
107.4421278153
 10
160.2563820817
 20
107.2613448102
 10
159.3496818358
 20
107.1067655374
 10
158.4300153167
 20
106.9782154344
 10
157.498690572
 20
106.8759799512
 10
156.5589512628
 20
106.8005167689
 10
155.6130338432
 20
106.7520685963
 10
154.6629657752
 20
106.7308207681
 10
153.7114583035
 20
106.7369152264
 10
152.7617988036
 20
106.7703592785
 10
151.8166363017
 20
106.831037935
 10
150.8780794322
 20
106.9187940348
 10
149.9485828443
 20
107.0333831944
 10
149.0305788895
 20
107.1744811732
 10
148.1262542943
 20
107.3417272015
 10
147.2376564322
 20
107.534732862
 10
146.3669671493
 20
107.7530271564
 10
145.5164197573
 20
107.9960531257
 10
144.6880867288
 20
108.2632225764
 10
143.8839887914
 20
108.5538950928
 10
143.1062169272
 20
108.8673264999
 10
142.3568502633
 20
109.202678849
 10
141.6378200076
 20
109.5590750269
 10
140.9508593912
 20
109.9356425271
 10
140.2976304443
 20
110.331465621
 10
139.6798021599
 20
110.7455300113
 10
139.0988900763
 20
111.176816851
 10
138.5562280049
 20
111.6243517004
 10
138.0531463257
 20
112.0870799765
 10
137.5910055177
 20
112.5637962921
 10
137.1710481124
 20
113.0532476733
 10
136.7942470759
 20
113.5543447208
 10
136.4616828435
 20
114.0657002991
 10
136.1744547629
 20
114.5855383594
 10
135.9332521942
 20
115.1123338146
 10
135.7384477678
 20
115.6449431464
 10
135.5903889954
 20
116.182120138
  0
LINE
  5
3A1
100
AcDbEntity
  8
0
100
AcDbLine
 62
7
  6
CONTINUOUS
 10
146.1974962569
 20
45.8175842187
 11
145.5665621769
 21
44.3996860286
  0
LWPOLYLINE
  5
3A2
100
AcDbEntity
  8
RACCORDO
100
AcDbPolyline
 62
253
  6
CONTINUOUS
 90
13
 70
0
 10
156.4919594045
 20
82.8627116707
 10
156.4327134467
 20
82.7967363482
 10
156.3748469686
 20
82.7203968051
 10
156.3192853635
 20
82.6349138592
 10
156.266917165
 20
82.5416545491
 10
156.2185798385
 20
82.4421102723
 10
156.175046388
 20
82.3378729351
 10
156.1370129947
 20
82.2306094945
 10
156.1050878837
 20
82.1220353009
 10
156.0797815972
 20
82.0138866657
 10
156.06149883
 20
81.9078930949
 10
156.050531958
 20
81.8057496306
 10
156.047056362
 20
81.7090897441
  0
LWPOLYLINE
  5
3A3
100
AcDbEntity
  8
RACCORDO
100
AcDbPolyline
 62
7
  6
CONTINUOUS
 90
7
 70
0
 10
125.9077631407
 20
57.2706142895
 10
125.9043326511
 20
57.2674572292
 10
125.900925864
 20
57.2644583719
 10
125.8975427794
 20
57.2616177176
 10
125.8941833973
 20
57.2589352664
 10
125.8908477176
 20
57.2564110183
 10
125.8875357405
 20
57.2540449733
  0
LWPOLYLINE
  5
3A4
100
AcDbEntity
  8
RACCORDO
100
AcDbPolyline
 62
7
  6
CONTINUOUS
 90
7
 70
0
 10
128.0375584559
 20
56.4152404758
 10
128.0341279663
 20
56.4120834155
 10
128.0307211792
 20
56.4090845582
 10
128.0273380946
 20
56.4062439039
 10
128.0239787124
 20
56.4035614528
 10
128.0206430328
 20
56.4010372046
 10
128.0173310556
 20
56.3986711596
  0
LINE
  5
3A5
100
AcDbEntity
  8
RACCORDO
100
AcDbLine
 62
253
  6
CONTINUOUS
 10
175.7918887782
 20
98.7184911128
 11
165.475034534
 21
90.0831502602
  0
LINE
  5
3A6
100
AcDbEntity
  8
DRAFT
100
AcDbLine
 62
7
  6
CONTINUOUS
 10
117.924092214
 20
56.764590619
 11
116.8115692598
 21
55.8361246933
  0
LINE
  5
3A7
100
AcDbEntity
  8
RACCORDO
100
AcDbLine
 62
7
  6
CONTINUOUS
 10
124.6273058519
 20
56.2455330727
 11
123.6667835193
 21
55.4467480019
  0
LINE
  5
3A8
100
AcDbEntity
  8
DRAFT
100
AcDbLine
 62
7
  6
CONTINUOUS
 10
117.8882084886
 20
55.4037221067
 11
117.924092214
 21
55.4332163165
  0
LINE
  5
3A9
100
AcDbEntity
  8
0
100
AcDbLine
 62
7
  6
CONTINUOUS
 10
122.1313724111
 20
55.2027024236
 11
120.9000799007
 21
54.1940866466
  0
LINE
  5
3AA
100
AcDbEntity
  8
RACCORDO
100
AcDbLine
 62
7
  6
CONTINUOUS
 10
125.1504300118
 20
57.675769629
 11
127.3013416481
 21
59.437693293
  0
LINE
  5
3AB
100
AcDbEntity
  8
RACCORDO
100
AcDbLine
 62
7
  6
CONTINUOUS
 10
125.0683836962
 20
57.5830349016
 11
124.7922247848
 21
57.3568187648
  0
LINE
  5
3AC
100
AcDbEntity
  8
0
100
AcDbLine
 62
7
  6
CONTINUOUS
 10
123.3270346235
 20
55.5831988179
 11
122.8516629946
 21
55.1937971763
  0
LINE
  5
3AD
100
AcDbEntity
  8
RACCORDO
100
AcDbLine
 62
7
  6
CONTINUOUS
 10
125.7930478534
 20
57.1766450274
 11
125.8875357405
 21
57.2540449733
  0
LINE
  5
3AE
100
AcDbEntity
  8
RACCORDO
100
AcDbLine
 62
7
  6
CONTINUOUS
 10
127.1332729853
 20
60.5162509319
 11
119.8292322686
 21
54.6241631973
  0
LINE
  5
3AF
100
AcDbEntity
  8
DRAFT
100
AcDbLine
 62
7
  6
CONTINUOUS
 10
117.2283174374
 20
57.0440294552
 11
116.0877131754
 21
56.1268416157
  0
LINE
  5
3B0
100
AcDbEntity
  8
DRAFT
100
AcDbLine
 62
7
  6
CONTINUOUS
 10
117.9308052751
 20
55.3866142769
 11
121.6846723428
 21
58.4051907809
  0
LINE
  5
3B1
100
AcDbEntity
  8
RACCORDO
100
AcDbLine
 62
253
  6
CONTINUOUS
 10
156.4919581121
 20
82.8627458643
 11
165.475034534
 21
90.0831502602
  0
LINE
  5
3B2
100
AcDbEntity
  8
RACCORDO
100
AcDbLine
 62
7
  6
CONTINUOUS
 10
126.4085327842
 20
60.8073229356
 11
119.0134599175
 21
54.9517957647
  0
LINE
  5
3B3
100
AcDbEntity
  8
DRAFT
100
AcDbLine
 62
7
  6
CONTINUOUS
 10
118.6299252358
 20
59.6320460868
 11
122.3683487472
 21
62.27898166
  0
LINE
  5
3B4
100
AcDbEntity
  8
0
100
AcDbLine
 62
7
  6
CONTINUOUS
 10
121.7721503518
 20
62.5184283765
 11
118.6174799519
 21
60.328439516
  0
LINE
  5
3B5
100
AcDbEntity
  8
DRAFT
100
AcDbLine
 62
7
  6
CONTINUOUS
 10
116.9745480881
 20
60.2968828689
 11
117.6133456628
 21
60.7317224842
  0
LWPOLYLINE
  5
3B6
100
AcDbEntity
  8
RACCORDO
100
AcDbPolyline
 62
253
  6
CONTINUOUS
 90
10
 70
0
 10
113.1718103956
 20
54.9010010509
 10
113.1485015988
 20
54.8856683744
 10
113.120837563
 20
54.8729382856
 10
113.0896882471
 20
54.8632111044
 10
113.0560332058
 20
54.8567927164
 10
113.0209307957
 20
54.8538849569
 10
112.9854848937
 20
54.85457926
 10
112.9508101677
 20
54.8588537826
 10
112.9179970225
 20
54.8665740956
 10
112.8880773216
 20
54.8774974118
  0
LWPOLYLINE
  5
3B7
100
AcDbEntity
  8
RACCORDO
100
AcDbPolyline
 62
253
  6
CONTINUOUS
 90
7
 70
0
 10
173.5155793314
 20
138.6667410156
 10
173.6415141602
 20
136.8552616792
 10
173.7676072293
 20
135.044858138
 10
173.8938585387
 20
133.235530392
 10
174.0202680883
 20
131.4272784413
 10
174.1468358782
 20
129.6201022858
 10
174.2735619083
 20
127.8140019255
  0
LINE
  5
3B8
100
AcDbEntity
  8
RACCORDO
100
AcDbLine
 62
253
  6
CONTINUOUS
 10
173.8247997581
 20
124.8719133794
 11
173.1442561164
 21
135.583832927
  0
LWPOLYLINE
  5
3B9
100
AcDbEntity
  8
RACCORDO
100
AcDbPolyline
 62
253
  6
CONTINUOUS
 90
16
 70
0
 10
176.6099182031
 20
97.5719226288
 10
176.6081786627
 20
97.6615937747
 10
176.5971990681
 20
97.753604423
 10
176.5770992952
 20
97.8469499951
 10
176.5480987948
 20
97.9406113378
 10
176.5105141962
 20
98.0335658502
 10
176.4647558506
 20
98.1247986486
 10
176.4113233507
 20
98.2133136472
 10
176.3508000763
 20
98.2981444331
 10
176.2838468245
 20
98.378364818
 10
176.2111945955
 20
98.4530989505
 10
176.1336366113
 20
98.5215308781
 10
176.0520196551
 20
98.5829134564
 10
175.9672348264
 20
98.6365765064
 10
175.8802078119
 20
98.681934131
 10
175.7918887782
 20
98.7184911128
  0
LINE
  5
3BA
100
AcDbEntity
  8
DRAFT
100
AcDbLine
 62
7
  6
CONTINUOUS
 10
173.2214133709
 20
177.2381561611
 11
173.2228048953
 21
177.1578769143
  0
LINE
  5
3BB
100
AcDbEntity
  8
DRAFT
100
AcDbLine
 62
7
  6
CONTINUOUS
 10
172.3790699814
 20
176.5481488517
 11
172.3794871499
 21
176.4670714592
  0
LINE
  5
3BC
100
AcDbEntity
  8
RACCORDO
100
AcDbLine
 62
253
  6
CONTINUOUS
 10
176.6099182031
 20
49.270694511
 11
176.6099182031
 21
97.5719226288
  0
LINE
  5
3BD
100
AcDbEntity
  8
RACCORDO
100
AcDbLine
 62
253
  6
CONTINUOUS
 10
176.9297930352
 20
132.0028703436
 11
176.4982468604
 21
123.9417974679
  0
LINE
  5
3BE
100
AcDbEntity
  8
RACCORDO
100
AcDbLine
 62
253
  6
CONTINUOUS
 10
173.8247997581
 20
124.8719133794
 11
173.2999838655
 21
116.663857846
  0
LINE
  5
3BF
100
AcDbEntity
  8
RACCORDO
100
AcDbLine
 62
253
  6
CONTINUOUS
 10
174.2741532282
 20
127.8178786235
 11
173.7493373355
 21
119.6098230901
  0
LWPOLYLINE
  5
3C0
100
AcDbEntity
  8
RACCORDO
100
AcDbPolyline
 62
253
  6
CONTINUOUS
 90
7
 70
0
 10
176.5161203928
 20
145.3660562676
 10
176.6895538852
 20
147.7797432435
 10
176.8662563716
 20
150.1925509671
 10
177.0462107246
 20
152.6044649688
 10
177.2293996419
 20
155.0154708479
 10
177.4158056455
 20
157.4255542726
 10
177.6054110825
 20
159.8347009803
  0
LWPOLYLINE
  5
3C1
100
AcDbEntity
  8
RACCORDO
100
AcDbPolyline
 62
253
  6
CONTINUOUS
 90
7
 70
0
 10
175.1475716958
 20
145.3385703265
 10
175.3241623436
 20
147.7552728121
 10
175.5040076711
 20
150.1710561188
 10
175.6871076782
 20
152.5859202466
 10
175.8734623649
 20
154.9998651955
 10
176.0630717312
 20
157.4128909654
 10
176.2559357771
 20
159.8249975564
  0
LINE
  5
3C2
100
AcDbEntity
  8
RACCORDO
100
AcDbLine
 62
253
  6
CONTINUOUS
 10
173.2937205702
 20
116.6058631172
 11
173.2999838655
 21
116.663857846
  0
LINE
  5
3C3
100
AcDbEntity
  8
RACCORDO
100
AcDbLine
 62
253
  6
CONTINUOUS
 10
173.7430740402
 20
119.5518283614
 11
173.7493373355
 21
119.6098230901
  0
LINE
  5
3C4
100
AcDbEntity
  8
RACCORDO
100
AcDbLine
 62
7
  6
CONTINUOUS
 10
189.4593413879
 20
134.3077302161
 11
189.4623131436
 21
134.3138191148
  0
LINE
  5
3C5
100
AcDbEntity
  8
RACCORDO
100
AcDbLine
 62
253
  6
CONTINUOUS
 10
135.9827202902
 20
50.1940560991
 11
135.9970760772
 21
50.2097680338
  0
LINE
  5
3C6
100
AcDbEntity
  8
DRAFT
100
AcDbLine
 62
7
  6
CONTINUOUS
 10
137.8808120471
 20
52.4449148218
 11
136.4935317643
 21
50.9333924361
  0
LWPOLYLINE
  5
3C7
100
AcDbEntity
  8
RACCORDO
100
AcDbPolyline
 62
7
  6
CONTINUOUS
 90
7
 70
0
 10
130.0035233622
 20
55.6256646478
 10
130.0000935921
 20
55.6225080869
 10
129.9966872367
 20
55.6195095292
 10
129.993304296
 20
55.6166689749
 10
129.9899447699
 20
55.6139864238
 10
129.9866086586
 20
55.611461876
 10
129.9832959619
 20
55.6090953316
  0
LWPOLYLINE
  5
3C8
100
AcDbEntity
  8
RACCORDO
100
AcDbPolyline
 62
7
  6
CONTINUOUS
 90
13
 70
0
 10
129.7071370506
 20
55.3828791948
 10
129.6927555009
 20
55.3697646745
 10
129.6789491187
 20
55.3547712815
 10
129.6657179039
 20
55.3378990157
 10
129.6528512312
 20
55.3187982414
 10
129.6405597259
 20
55.2978185945
 10
129.6294752644
 20
55.276008982
 10
129.6196870598
 20
55.2533525207
 10
129.611105899
 20
55.2298660938
 10
129.604096018
 20
55.2066492592
 10
129.5987788287
 20
55.184068536
 10
129.5950329193
 20
55.161757405
 10
129.5928582896
 20
55.1397158662
  0
LINE
  5
3C9
100
AcDbEntity
  8
RACCORDO
100
AcDbLine
 62
253
  6
CONTINUOUS
 10
176.6099182031
 20
97.5719226288
 11
166.2930639589
 21
88.9365817763
  0
LINE
  5
3CA
100
AcDbEntity
  8
DRAFT
100
AcDbLine
 62
7
  6
CONTINUOUS
 10
128.2796978798
 20
51.2302656966
 11
131.9411459555
 21
54.2859597513
  0
LINE
  5
3CB
100
AcDbEntity
  8
RACCORDO
100
AcDbLine
 62
7
  6
CONTINUOUS
 10
135.230381585
 20
57.2642695733
 11
128.0173730183
 21
51.3356212749
  0
LINE
  5
3CC
100
AcDbEntity
  8
RACCORDO
100
AcDbLine
 62
7
  6
CONTINUOUS
 10
126.9398607154
 20
56.7160591278
 11
127.0343486025
 21
56.7934590736
  0
LINE
  5
3CD
100
AcDbEntity
  8
0
100
AcDbLine
 62
7
  6
CONTINUOUS
 10
128.7443620937
 20
58.119746441
 11
127.1978487955
 21
56.8529169112
  0
LINE
  5
3CE
100
AcDbEntity
  8
RACCORDO
100
AcDbLine
 62
7
  6
CONTINUOUS
 10
127.9228431686
 20
56.3212712138
 11
128.0173310556
 21
56.3986711596
  0
LINE
  5
3CF
100
AcDbEntity
  8
RACCORDO
100
AcDbLine
 62
7
  6
CONTINUOUS
 10
129.0696560306
 20
55.8606853141
 11
129.1641439176
 21
55.9380852599
  0
LINE
  5
3D0
100
AcDbEntity
  8
0
100
AcDbLine
 62
7
  6
CONTINUOUS
 10
130.8741574088
 20
57.2643726273
 11
129.3276441106
 21
55.9975430975
  0
LINE
  5
3D1
100
AcDbEntity
  8
RACCORDO
100
AcDbLine
 62
7
  6
CONTINUOUS
 10
129.9832959619
 20
55.6090953316
 11
129.7071370506
 21
55.3828791948
  0
LINE
  5
3D2
100
AcDbEntity
  8
0
100
AcDbLine
 62
7
  6
CONTINUOUS
 10
128.2419468892
 20
53.6092592479
 11
127.7665752604
 21
53.2198576063
  0
LINE
  5
3D3
100
AcDbEntity
  8
0
100
AcDbLine
 62
7
  6
CONTINUOUS
 10
128.2750127433
 20
52.7352779611
 11
127.1356411804
 21
51.8019594162
  0
LINE
  5
3D4
100
AcDbEntity
  8
RACCORDO
100
AcDbLine
 62
7
  6
CONTINUOUS
 10
131.2940703439
 20
55.2083451665
 11
132.8401223151
 21
56.4747967993
  0
LINE
  5
3D5
100
AcDbEntity
  8
RACCORDO
100
AcDbLine
 62
7
  6
CONTINUOUS
 10
134.5056413839
 20
57.5553415769
 11
127.2016006672
 21
51.6632538423
  0
LINE
  5
3D6
100
AcDbEntity
  8
RACCORDO
100
AcDbLine
 62
253
  6
CONTINUOUS
 10
157.3136359725
 20
81.7191099146
 11
166.2930639589
 21
88.9365817763
  0
LWPOLYLINE
  5
3D7
100
AcDbEntity
  8
RACCORDO
100
AcDbPolyline
 62
7
  6
CONTINUOUS
 90
8
 70
0
 10
127.3013416481
 20
59.437693293
 10
127.3318409226
 20
59.4602444193
 10
127.3613893829
 20
59.4777635251
 10
127.3899870291
 20
59.4902506106
 10
127.417939812
 20
59.4977267455
 10
127.4449417808
 20
59.5001708601
 10
127.4700750825
 20
59.4975197448
 10
127.4875824304
 20
59.4920938298
  0
LWPOLYLINE
  5
3D8
100
AcDbEntity
  8
RACCORDO
100
AcDbPolyline
 62
7
  6
CONTINUOUS
 90
4
 70
0
 10
125.1504300118
 20
57.675769629
 10
125.2060939511
 20
57.7160208954
 10
125.2682275817
 20
57.7515309434
 10
125.3368309033
 20
57.7822997731
  0
LWPOLYLINE
  5
3D9
100
AcDbEntity
  8
RACCORDO
100
AcDbPolyline
 62
7
  6
CONTINUOUS
 90
7
 70
0
 10
125.7930478534
 20
57.1766450274
 10
125.8082415912
 20
57.1875856099
 10
125.8227541012
 20
57.1953876716
 10
125.8365853835
 20
57.2000512124
 10
125.8499641536
 20
57.201574686
 10
125.862661696
 20
57.1999596389
 10
125.8676407731
 20
57.1983409269
  0
LWPOLYLINE
  5
3DA
100
AcDbEntity
  8
RACCORDO
100
AcDbPolyline
 62
7
  6
CONTINUOUS
 90
7
 70
0
 10
127.9228431686
 20
56.3212712138
 10
127.9380369063
 20
56.3322117963
 10
127.9525494163
 20
56.3400138579
 10
127.9663806986
 20
56.3446773987
 10
127.9797594688
 20
56.3462008724
 10
127.9924570112
 20
56.3445858252
 10
127.9974360883
 20
56.3429671133
  0
LWPOLYLINE
  5
3DB
100
AcDbEntity
  8
RACCORDO
100
AcDbPolyline
 62
7
  6
CONTINUOUS
 90
7
 70
0
 10
125.0683836962
 20
57.5830349016
 10
125.0716956733
 20
57.5854009467
 10
125.075031353
 20
57.5879251948
 10
125.0783907351
 20
57.590607646
 10
125.0817738197
 20
57.5934483002
 10
125.0851806068
 20
57.5964471575
 10
125.0886110964
 20
57.5996042179
  0
LWPOLYLINE
  5
3DC
100
AcDbEntity
  8
RACCORDO
100
AcDbPolyline
 62
7
  6
CONTINUOUS
 90
7
 70
0
 10
127.0343486025
 20
56.7934590736
 10
127.0376605796
 20
56.7958251186
 10
127.0409962593
 20
56.7983493668
 10
127.0443556414
 20
56.8010318179
 10
127.047738726
 20
56.8038724722
 10
127.0511455131
 20
56.8068713295
 10
127.0545760027
 20
56.8100283899
  0
LINE
  5
3DD
100
AcDbEntity
  8
DRAFT
100
AcDbLine
 62
7
  6
CONTINUOUS
 10
121.6846723428
 20
58.4051907809
 11
125.5174577912
 21
61.0142284729
  0
LWPOLYLINE
  5
3DE
100
AcDbEntity
  8
RACCORDO
100
AcDbPolyline
 62
253
  6
CONTINUOUS
 90
13
 70
0
 10
157.3136359725
 20
81.7191099146
 10
157.2411801532
 20
81.6721094441
 10
157.1593188733
 20
81.6304976609
 10
157.0692613018
 20
81.5948892106
 10
156.9723376749
 20
81.565810064
 10
156.8699796466
 20
81.5436897477
 10
156.7636991426
 20
81.5288549994
 10
156.6550660271
 20
81.5215249423
 10
156.5456849145
 20
81.5218078486
 10
156.4371714679
 20
81.5296995393
 10
156.3311285343
 20
81.5450834468
 10
156.2291224688
 20
81.567732336
 10
156.132659998
 20
81.5973116614
  0
LWPOLYLINE
  5
3DF
100
AcDbEntity
  8
RACCORDO
100
AcDbPolyline
 62
253
  6
CONTINUOUS
 90
3
 70
0
 10
176.7347722208
 20
136.1719468227
 10
176.8352874012
 20
134.0893950601
 10
176.93625243
 20
132.0081615701
  0
LWPOLYLINE
  5
3E0
100
AcDbEntity
  8
RACCORDO
100
AcDbPolyline
 62
253
  6
CONTINUOUS
 90
5
 70
0
 10
176.337719817
 20
144.5152160317
 10
176.4361809654
 20
142.4274517909
 10
176.5351935941
 20
140.3409813153
 10
176.6347324636
 20
138.2558109283
 10
176.7347722208
 20
136.1719468227
  0
LWPOLYLINE
  5
3E1
100
AcDbEntity
  8
RACCORDO
100
AcDbPolyline
 62
7
  6
CONTINUOUS
 90
20
 70
0
 10
179.3450323053
 20
102.6612007946
 10
179.3426640301
 20
102.8304384923
 10
179.3020710976
 20
103.376794195
 10
179.2111519778
 20
103.9222973259
 10
179.0698230241
 20
104.4660932628
 10
178.8780601044
 20
105.0065078669
 10
178.6360279568
 20
105.5416782005
 10
178.3436420495
 20
106.0707783377
 10
178.0004156593
 20
106.593219713
 10
177.6069680598
 20
107.1066598982
 10
177.1653086461
 20
107.6079669214
 10
176.6761667859
 20
108.0960353141
 10
176.1404863198
 20
108.5696100605
 10
175.5618005257
 20
109.0256569739
 10
174.9417201019
 20
109.4631753169
 10
174.2819292696
 20
109.8812568804
 10
173.5872138511
 20
110.2773157505
 10
172.8609780336
 20
110.6501699931
 10
172.1045641687
 20
110.9998010143
 10
171.4684802283
 20
111.2667616326
  0
LINE
  5
3E2
100
AcDbEntity
  8
ASSI
100
AcDbLine
 62
7
  6
CONTINUOUS
 10
179.3450524723
 20
55.1211176901
 11
179.3450524723
 21
102.6636707625
  0
LINE
  5
3E3
100
AcDbEntity
  8
RACCORDO
100
AcDbLine
 62
7
  6
CONTINUOUS
 10
182.7305965181
 20
166.0153559031
 11
182.7305965181
 21
165.7167709094
  0
LINE
  5
3E4
100
AcDbEntity
  8
RACCORDO
100
AcDbLine
 62
7
  6
CONTINUOUS
 10
179.3450433494
 20
55.1112124586
 11
179.3450524637
 21
55.1225473945
  0
LINE
  5
3E5
100
AcDbEntity
  8
RACCORDO
100
AcDbLine
 62
7
  6
CONTINUOUS
 10
179.345052234
 20
102.6609952598
 11
179.3450433494
 21
102.6527867534
  0
LWPOLYLINE
  5
3E6
100
AcDbEntity
  8
RACCORDO
100
AcDbPolyline
 62
253
  6
CONTINUOUS
 90
7
 70
0
 10
176.6099182031
 20
49.270694511
 10
176.6081786587
 20
49.1896473652
 10
176.5971990491
 20
49.1128036451
 10
176.5770992522
 20
49.0410023359
 10
176.54809872
 20
48.9750273682
 10
176.5105140844
 20
48.915599062
 10
176.4685628249
 20
48.8671231121
  0
LINE
  5
3E7
100
AcDbEntity
  8
RACCORDO
100
AcDbLine
 62
253
  6
CONTINUOUS
 10
179.3307342757
 20
54.6862497442
 11
179.3450433494
 21
55.1112124586
  0
LWPOLYLINE
  5
3E8
100
AcDbEntity
  8
RACCORDO
100
AcDbPolyline
 62
253
  6
CONTINUOUS
 90
15
 70
0
 10
179.3450433494
 20
102.6527867534
 10
179.3307342757
 20
102.2751018087
 10
179.275728079
 20
101.811385239
 10
179.1824770027
 20
101.3620195027
 10
179.0539832299
 20
100.9272984382
 10
178.8939153821
 20
100.5091125256
 10
178.7056309297
 20
100.10798149
 10
178.4923861155
 20
99.724284077
 10
178.2583001316
 20
99.3593889986
 10
178.0067303284
 20
99.0133204116
 10
177.740890452
 20
98.6860432813
 10
177.4650859919
 20
98.3785323357
 10
177.1829135689
 20
98.0908248171
 10
176.8969384901
 20
97.8221152928
 10
176.6099182031
 20
97.5719226288
  0
LWPOLYLINE
  5
3E9
100
AcDbEntity
  8
RACCORDO
100
AcDbPolyline
 62
7
  6
CONTINUOUS
 90
7
 70
0
 10
135.8848313186
 20
50.2138399056
 10
135.8617433775
 20
50.1915989087
 10
135.8421244282
 20
50.1653630579
 10
135.8268417909
 20
50.1357767341
 10
135.816482516
 20
50.1031788447
 10
135.8118221681
 20
50.0691851428
 10
135.8116542963
 20
50.0649694582
  0
LINE
  5
3EA
100
AcDbEntity
  8
RACCORDO
100
AcDbLine
 62
253
  6
CONTINUOUS
 10
135.9970760772
 20
50.2097680338
 11
136.0115687734
 21
50.2229524502
  0
LINE
  5
3EB
100
AcDbEntity
  8
DRAFT
100
AcDbLine
 62
7
  6
CONTINUOUS
 10
129.6312987529
 20
50.6874323148
 11
133.2927468285
 21
53.7431263695
  0
LINE
  5
3EC
100
AcDbEntity
  8
DRAFT
100
AcDbLine
 62
7
  6
CONTINUOUS
 10
137.03117034
 20
54.4875200303
 11
137.8808120471
 21
55.1965960733
  0
LINE
  5
3ED
100
AcDbEntity
  8
DRAFT
100
AcDbLine
 62
7
  6
CONTINUOUS
 10
137.03117034
 20
55.1350968151
 11
137.3651827866
 21
55.4036844089
  0
LWPOLYLINE
  5
3EE
100
AcDbEntity
  8
RACCORDO
100
AcDbPolyline
 62
7
  6
CONTINUOUS
 90
8
 70
0
 10
134.5056413839
 20
57.5553415769
 10
134.5537612952
 20
57.5904835877
 10
134.6004903982
 20
57.6177048781
 10
134.6458286929
 20
57.6370054479
 10
134.6903272321
 20
57.6484400656
 10
134.733434963
 20
57.6519539627
 10
134.7734987274
 20
57.6473828346
 10
134.7996610352
 20
57.6391634791
  0
LWPOLYLINE
  5
3EF
100
AcDbEntity
  8
RACCORDO
100
AcDbPolyline
 62
7
  6
CONTINUOUS
 90
9
 70
0
 10
131.2940703439
 20
55.2083451665
 10
131.3495357877
 20
55.2485201313
 10
131.4115570575
 20
55.2839853722
 10
131.4801341535
 20
55.3147408892
 10
131.5568244658
 20
55.3411927869
 10
131.6400706043
 20
55.3629349607
 10
131.7252003982
 20
55.3787490968
 10
131.8117942407
 20
55.3881540877
 10
131.8194940827
 20
55.388456673
  0
LWPOLYLINE
  5
3F0
100
AcDbEntity
  8
RACCORDO
100
AcDbPolyline
 62
7
  6
CONTINUOUS
 90
7
 70
0
 10
129.1641439176
 20
55.9380852599
 10
129.1674558948
 20
55.940451305
 10
129.1707915744
 20
55.9429755531
 10
129.1741509566
 20
55.9456580043
 10
129.1775340412
 20
55.9484986585
 10
129.1809408283
 20
55.9514975158
 10
129.1843713179
 20
55.9546545762
  0
LINE
  5
3F1
100
AcDbEntity
  8
DRAFT
100
AcDbLine
 62
7
  6
CONTINUOUS
 10
131.9411459555
 20
54.2859597513
 11
135.6795694669
 21
56.9328953245
  0
LINE
  5
3F2
100
AcDbEntity
  8
DRAFT
100
AcDbLine
 62
7
  6
CONTINUOUS
 10
133.2927468285
 20
53.7431263695
 11
137.03117034
 21
56.3900619427
  0
LWPOLYLINE
  5
3F3
100
AcDbEntity
  8
RACCORDO
100
AcDbPolyline
 62
253
  6
CONTINUOUS
 90
16
 70
0
 10
175.6348130971
 20
143.2017445434
 10
175.6201785599
 20
143.2807470593
 10
175.5966233013
 20
143.3618519511
 10
175.5643984907
 20
143.4441943979
 10
175.5238477411
 20
143.5268963828
 10
175.4754034449
 20
143.6090760553
 10
175.4195821631
 20
143.6898571343
 10
175.3569791177
 20
143.7683782517
 10
175.2882618444
 20
143.8438021377
 10
175.2141630749
 20
143.9153245478
 10
175.1354729239
 20
143.9821828391
 10
175.0530304637
 20
144.0436641023
 10
174.9677147776
 20
144.0991127631
 10
174.880435586
 20
144.1479375728
 10
174.7921235462
 20
144.1896179128
 10
174.7037203288
 20
144.2237093459
  0
LWPOLYLINE
  5
3F4
100
AcDbEntity
  8
RACCORDO
100
AcDbPolyline
 62
253
  6
CONTINUOUS
 90
16
 70
0
 10
173.1442561164
 20
135.583832927
 10
173.1321020067
 20
135.6627013569
 10
173.1089381922
 20
135.7407651525
 10
173.0750241974
 20
135.8171497023
 10
173.030739989
 20
135.8909992101
 10
172.9765817207
 20
135.9614862796
 10
172.913156176
 20
136.0278211849
 10
172.8411739649
 20
136.0892607242
 10
172.761441564
 20
136.1451165427
 10
172.6748522847
 20
136.1947628434
 10
172.5823762585
 20
136.2376434017
 10
172.4850495694
 20
136.2732777959
 10
172.3839626492
 20
136.3012667885
 10
172.2802480565
 20
136.3212968004
 10
172.1750677869
 20
136.333143424
 10
172.0696002573
 20
136.3366739365
  0
LWPOLYLINE
  5
3F5
100
AcDbEntity
  8
RACCORDO
100
AcDbPolyline
 62
253
  6
CONTINUOUS
 90
16
 70
0
 10
173.5155793314
 20
138.6667410156
 10
173.5034252327
 20
138.7456093964
 10
173.4802614411
 20
138.8236731486
 10
173.4463474792
 20
138.9000576618
 10
173.4020633119
 20
138.9739071397
 10
173.34790509
 20
139.0443941879
 10
173.284479591
 20
139.110729084
 10
173.2124974213
 20
139.1721686253
 10
173.1327650543
 20
139.228024456
 10
173.0461757949
 20
139.2776707787
 10
172.9536997716
 20
139.3205513663
 10
172.8563730667
 20
139.3561857934
 10
172.7552861085
 20
139.3841748192
 10
172.6515714547
 20
139.4042048606
 10
172.5463911028
 20
139.4160515049
 10
172.440923472
 20
139.4195820248
  0
LWPOLYLINE
  5
3F6
100
AcDbEntity
  8
RACCORDO
100
AcDbPolyline
 62
7
  6
CONTINUOUS
 90
12
 70
0
 10
182.7305955045
 20
166.0153351624
 10
182.7344467692
 20
165.9653081545
 10
182.7457320204
 20
165.9159401625
 10
182.7644931308
 20
165.8673474129
 10
182.7906880902
 20
165.819520466
 10
182.8239568632
 20
165.773360656
 10
182.8647536268
 20
165.7286963096
 10
182.912624204
 20
165.6856991002
 10
182.9658460286
 20
165.645785383
 10
183.0238449121
 20
165.6094272763
 10
183.087195043
 20
165.5761526618
 10
183.1558964214
 20
165.5459615394
  0
LINE
  5
3F7
100
AcDbEntity
  8
RACCORDO
100
AcDbLine
 62
7
  6
CONTINUOUS
 10
183.9732645842
 20
164.4692735706
 11
183.976172126
 21
164.3973676201
  0
LWPOLYLINE
  5
3F8
100
AcDbEntity
  8
RACCORDO
100
AcDbPolyline
 62
7
  6
CONTINUOUS
 90
3
 70
0
 10
183.976172126
 20
164.3973676201
 10
183.9732657542
 20
164.4692400942
 10
183.9641874788
 20
164.5426702978
  0
LINE
  5
3F9
100
AcDbEntity
  8
DRAFT
100
AcDbLine
 62
7
  6
CONTINUOUS
 10
187.1269958117
 20
169.7975233277
 11
187.126628179
 21
169.9029895629
  0
LINE
  5
3FA
100
AcDbEntity
  8
RACCORDO
100
AcDbLine
 62
7
  6
CONTINUOUS
 10
183.976172126
 20
137.7749261807
 11
183.976172126
 21
164.3973676201
  0
LINE
  5
3FB
100
AcDbEntity
  8
0
100
AcDbLine
 62
7
  6
CONTINUOUS
 10
187.1317775554
 20
171.5700211859
 11
187.1317775554
 21
171.6514403028
  0
LWPOLYLINE
  5
3FC
100
AcDbEntity
  8
RACCORDO
100
AcDbPolyline
 62
7
  6
CONTINUOUS
 90
10
 70
0
 10
189.4623608416
 20
170.0314561001
 10
189.4608909857
 20
169.9625279224
 10
189.4551442657
 20
169.8764895436
 10
189.4452398028
 20
169.7906612249
 10
189.4313733431
 20
169.7051498588
 10
189.4137763212
 20
169.6201184888
 10
189.3926558716
 20
169.5363028866
 10
189.3682291604
 20
169.4540134365
 10
189.3407351159
 20
169.3731330649
 10
189.310408986
 20
169.2937392527
  0
LINE
  5
3FD
100
AcDbEntity
  8
DRAFT
100
AcDbLine
 62
7
  6
CONTINUOUS
 10
186.356128802
 20
170.9346469239
 11
186.3350107753
 21
170.2209209588
  0
LINE
  5
3FE
100
AcDbEntity
  8
RACCORDO
100
AcDbLine
 62
253
  6
CONTINUOUS
 10
179.275728079
 20
54.1629094744
 11
179.3307342757
 21
54.6862497442
  0
LWPOLYLINE
  5
3FF
100
AcDbEntity
  8
RACCORDO
100
AcDbPolyline
 62
7
  6
CONTINUOUS
 90
7
 70
0
 10
144.3386841372
 20
49.8683409019
 10
144.3352543671
 20
49.865184341
 10
144.3318480117
 20
49.8621857833
 10
144.328465071
 20
49.859345229
 10
144.325105545
 20
49.8566626779
 10
144.3217694336
 20
49.8541381301
 10
144.318456737
 20
49.8517715857
  0
LINE
  5
400
100
AcDbEntity
  8
RACCORDO
100
AcDbLine
 62
7
  6
CONTINUOUS
 10
142.3118038997
 20
52.4979126674
 11
142.4889177298
 21
52.6520249295
  0
LINE
  5
401
100
AcDbEntity
  8
RACCORDO
100
AcDbLine
 62
7
  6
CONTINUOUS
 10
143.0582268484
 20
48.8432596851
 11
142.0977045158
 21
48.0444746143
  0
LINE
  5
402
100
AcDbEntity
  8
RACCORDO
100
AcDbLine
 62
7
  6
CONTINUOUS
 10
135.8848313186
 20
50.2138399056
 11
140.3417405697
 21
53.8647262299
  0
LINE
  5
403
100
AcDbEntity
  8
RACCORDO
100
AcDbLine
 62
253
  6
CONTINUOUS
 10
136.0115687734
 20
50.2229524502
 11
140.4874498654
 21
53.8893795967
  0
LINE
  5
404
100
AcDbEntity
  8
RACCORDO
100
AcDbLine
 62
253
  6
CONTINUOUS
 10
137.7580823217
 20
50.6466914988
 11
141.3122713386
 21
53.5581126979
  0
LINE
  5
405
100
AcDbEntity
  8
RACCORDO
100
AcDbLine
 62
253
  6
CONTINUOUS
 10
138.0960952771
 20
50.5626347892
 11
141.4285601675
 21
53.2924302168
  0
LINE
  5
406
100
AcDbEntity
  8
SMUSSO
100
AcDbLine
 62
7
  6
CONTINUOUS
 10
139.0969610805
 20
50.4777452743
 11
138.8372237313
 21
50.2649808937
  0
LINE
  5
407
100
AcDbEntity
  8
0
100
AcDbLine
 62
7
  6
CONTINUOUS
 10
140.5622934076
 20
47.800429036
 11
139.3310008972
 21
46.791813259
  0
LINE
  5
408
100
AcDbEntity
  8
RACCORDO
100
AcDbLine
 62
7
  6
CONTINUOUS
 10
143.5813510083
 20
50.2734962414
 11
145.7322626446
 21
52.0354199054
  0
LINE
  5
409
100
AcDbEntity
  8
RACCORDO
100
AcDbLine
 62
7
  6
CONTINUOUS
 10
143.4993046927
 20
50.180761514
 11
143.2231457813
 21
49.9545453772
  0
LINE
  5
40A
100
AcDbEntity
  8
0
100
AcDbLine
 62
7
  6
CONTINUOUS
 10
141.75795562
 20
48.1809254303
 11
141.2825839912
 21
47.7915237887
  0
LINE
  5
40B
100
AcDbEntity
  8
RACCORDO
100
AcDbLine
 62
7
  6
CONTINUOUS
 10
145.5641939818
 20
53.1139775443
 11
138.2601532651
 21
47.2218898097
  0
LINE
  5
40C
100
AcDbEntity
  8
DRAFT
100
AcDbLine
 62
7
  6
CONTINUOUS
 10
136.3617262716
 20
47.9843408894
 11
140.1155933393
 21
51.0029173934
  0
LINE
  5
40D
100
AcDbEntity
  8
RACCORDO
100
AcDbLine
 62
7
  6
CONTINUOUS
 10
144.8394537807
 20
53.405049548
 11
137.444380914
 21
47.5495223771
  0
LINE
  5
40E
100
AcDbEntity
  8
DRAFT
100
AcDbLine
 62
7
  6
CONTINUOUS
 10
133.8776936963
 20
48.9819843728
 11
136.4647425352
 21
50.9449548395
  0
LWPOLYLINE
  5
40F
100
AcDbEntity
  8
RACCORDO
100
AcDbPolyline
 62
253
  6
CONTINUOUS
 90
8
 70
0
 10
135.8848313186
 20
50.2138399056
 10
135.8967385221
 20
50.2220925717
 10
135.9127829763
 20
50.2294938868
 10
135.9304803825
 20
50.2340444228
 10
135.9495346156
 20
50.2356680368
 10
135.969626847
 20
50.2343375615
 10
135.9904208797
 20
50.2300752594
 10
136.0115687734
 20
50.2229524502
  0
LWPOLYLINE
  5
410
100
AcDbEntity
  8
RACCORDO
100
AcDbPolyline
 62
7
  6
CONTINUOUS
 90
6
 70
0
 10
140.3423047875
 20
53.865187947
 10
140.3686318844
 20
53.8828419288
 10
140.3966927529
 20
53.8941998522
 10
140.4262633994
 20
53.8991417123
 10
140.4567983558
 20
53.8975636547
 10
140.4874498654
 20
53.8893795967
  0
LWPOLYLINE
  5
411
100
AcDbEntity
  8
RACCORDO
100
AcDbPolyline
 62
7
  6
CONTINUOUS
 90
7
 70
0
 10
125.9267706795
 20
57.2763041712
 10
125.9235445643
 20
57.2749649659
 10
125.9203417259
 20
57.2737821173
 10
125.9171621644
 20
57.2727556253
 10
125.9140058797
 20
57.27188549
 10
125.9108728718
 20
57.2711717114
 10
125.9077631407
 20
57.2706142895
  0
LWPOLYLINE
  5
412
100
AcDbEntity
  8
RACCORDO
100
AcDbPolyline
 62
7
  6
CONTINUOUS
 90
7
 70
0
 10
128.0565659946
 20
56.4209303575
 10
128.0533398794
 20
56.4195911522
 10
128.0501370411
 20
56.4184083036
 10
128.0469574796
 20
56.4173818116
 10
128.0438011948
 20
56.4165116764
 10
128.0406681869
 20
56.4157978978
 10
128.0375584559
 20
56.4152404758
  0
LWPOLYLINE
  5
413
100
AcDbEntity
  8
RACCORDO
100
AcDbPolyline
 62
7
  6
CONTINUOUS
 90
7
 70
0
 10
130.0225309009
 20
55.6313545295
 10
130.0193054537
 20
55.6300156163
 10
130.0161030162
 20
55.628832943
 10
130.0129235883
 20
55.6278065095
 10
130.00976717
 20
55.6269363158
 10
130.0066337612
 20
55.6262223619
 10
130.0035233622
 20
55.6256646478
  0
LWPOLYLINE
  5
414
100
AcDbEntity
  8
RACCORDO
100
AcDbPolyline
 62
7
  6
CONTINUOUS
 90
8
 70
0
 10
125.3368309033
 20
57.7822997731
 10
125.4134368416
 20
57.8087154693
 10
125.496512471
 20
57.8303899471
 10
125.5814590152
 20
57.8461589521
 10
125.6678451442
 20
57.8555668404
 10
125.756102188
 20
57.859069256
 10
125.84292536
 20
57.8568688765
 10
125.9228922969
 20
57.8493451937
  0
LINE
  5
415
100
AcDbEntity
  8
RACCORDO
100
AcDbLine
 62
7
  6
CONTINUOUS
 10
127.9252100494
 20
58.4487363693
 11
125.1076186352
 21
57.6052940995
  0
LINE
  5
416
100
AcDbEntity
  8
RACCORDO
100
AcDbLine
 62
7
  6
CONTINUOUS
 10
128.7443620937
 20
58.119746441
 11
125.9267706795
 21
57.2763041712
  0
LWPOLYLINE
  5
417
100
AcDbEntity
  8
RACCORDO
100
AcDbPolyline
 62
7
  6
CONTINUOUS
 90
6
 70
0
 10
189.4623131436
 20
134.3138191148
 10
189.4622630964
 20
134.3152888102
 10
189.4573830789
 20
134.3260550398
 10
189.4446669245
 20
134.3402241511
 10
189.4242016847
 20
134.3584680158
 10
189.3955076011
 20
134.3809735166
  0
LINE
  5
418
100
AcDbEntity
  8
RACCORDO
100
AcDbLine
 62
253
  6
CONTINUOUS
 10
189.310408986
 20
169.2937392527
 11
189.310408986
 21
134.4369062649
  0
LINE
  5
419
100
AcDbEntity
  8
RACCORDO
100
AcDbLine
 62
7
  6
CONTINUOUS
 10
189.4623608898
 20
170.0313027475
 11
189.4623608898
 21
134.3147512907
  0
LWPOLYLINE
  5
41A
100
AcDbEntity
  8
RACCORDO
100
AcDbPolyline
 62
7
  6
CONTINUOUS
 90
7
 70
0
 10
146.4684794524
 20
49.0129670883
 10
146.4650496823
 20
49.0098105273
 10
146.4616433269
 20
49.0068119696
 10
146.4582603862
 20
49.0039714153
 10
146.4549008601
 20
49.0012888642
 10
146.4515647488
 20
48.9987643165
 10
146.4482520521
 20
48.996397772
  0
LWPOLYLINE
  5
41B
100
AcDbEntity
  8
RACCORDO
100
AcDbPolyline
 62
7
  6
CONTINUOUS
 90
7
 70
0
 10
148.4344443587
 20
48.2233912603
 10
148.4310145886
 20
48.2202346993
 10
148.4276082332
 20
48.2172361416
 10
148.4242252925
 20
48.2143955873
 10
148.4208657664
 20
48.2117130362
 10
148.4175296551
 20
48.2091884884
 10
148.4142169584
 20
48.206821944
  0
LWPOLYLINE
  5
41C
100
AcDbEntity
  8
RACCORDO
100
AcDbPolyline
 62
7
  6
CONTINUOUS
 90
13
 70
0
 10
148.1380580471
 20
47.9806058072
 10
148.1236764974
 20
47.9674912869
 10
148.1098701152
 20
47.9524978939
 10
148.0966389004
 20
47.9356256281
 10
148.0837722277
 20
47.9165248539
 10
148.0714807224
 20
47.8955452069
 10
148.0603962609
 20
47.8737355945
 10
148.0506080563
 20
47.8510791331
 10
148.0420268955
 20
47.8275927062
 10
148.0350170145
 20
47.8043758716
 10
148.0296998252
 20
47.7817951484
 10
148.0259539158
 20
47.7594840174
 10
148.0237792861
 20
47.7374424787
  0
LINE
  5
41D
100
AcDbEntity
  8
RACCORDO
100
AcDbLine
 62
7
  6
CONTINUOUS
 10
144.2239688499
 20
49.7743716399
 11
144.318456737
 21
49.8517715857
  0
LINE
  5
41E
100
AcDbEntity
  8
RACCORDO
100
AcDbLine
 62
7
  6
CONTINUOUS
 10
145.3707817119
 20
49.3137857402
 11
145.465269599
 21
49.391185686
  0
LINE
  5
41F
100
AcDbEntity
  8
0
100
AcDbLine
 62
7
  6
CONTINUOUS
 10
147.1752830902
 20
50.7174730534
 11
145.628769792
 21
49.4506435236
  0
LINE
  5
420
100
AcDbEntity
  8
RACCORDO
100
AcDbLine
 62
7
  6
CONTINUOUS
 10
146.3537641651
 20
48.9189978262
 11
146.4482520521
 21
48.996397772
  0
LINE
  5
421
100
AcDbEntity
  8
RACCORDO
100
AcDbLine
 62
7
  6
CONTINUOUS
 10
147.5005770271
 20
48.4584119265
 11
147.5950649141
 21
48.5358118723
  0
LINE
  5
422
100
AcDbEntity
  8
0
100
AcDbLine
 62
7
  6
CONTINUOUS
 10
149.3050784053
 20
49.8620992397
 11
147.7585651071
 21
48.5952697099
  0
LINE
  5
423
100
AcDbEntity
  8
RACCORDO
100
AcDbLine
 62
7
  6
CONTINUOUS
 10
148.4142169584
 20
48.206821944
 11
148.1380580471
 21
47.9806058072
  0
LINE
  5
424
100
AcDbEntity
  8
0
100
AcDbLine
 62
7
  6
CONTINUOUS
 10
146.6728678857
 20
46.2069858603
 11
146.1974962569
 21
45.8175842187
  0
LINE
  5
425
100
AcDbEntity
  8
0
100
AcDbLine
 62
7
  6
CONTINUOUS
 10
146.7059337398
 20
45.3330045735
 11
145.5665621769
 21
44.3996860286
  0
LINE
  5
426
100
AcDbEntity
  8
RACCORDO
100
AcDbLine
 62
7
  6
CONTINUOUS
 10
149.7249913404
 20
47.8060717789
 11
149.8813009716
 21
47.9341131328
  0
LWPOLYLINE
  5
427
100
AcDbEntity
  8
RACCORDO
100
AcDbPolyline
 62
7
  6
CONTINUOUS
 90
8
 70
0
 10
145.7322626446
 20
52.0354199054
 10
145.7627619191
 20
52.0579710317
 10
145.7923103794
 20
52.0754901375
 10
145.8209080256
 20
52.087977223
 10
145.8488608085
 20
52.095453358
 10
145.8758627773
 20
52.0978974725
 10
145.900996079
 20
52.0952463572
 10
145.9185034269
 20
52.0898204422
  0
LWPOLYLINE
  5
428
100
AcDbEntity
  8
RACCORDO
100
AcDbPolyline
 62
7
  6
CONTINUOUS
 90
4
 70
0
 10
143.5813510083
 20
50.2734962414
 10
143.6370149477
 20
50.3137475078
 10
143.6991485782
 20
50.3492575558
 10
143.7677518998
 20
50.3800263855
  0
LWPOLYLINE
  5
429
100
AcDbEntity
  8
RACCORDO
100
AcDbPolyline
 62
7
  6
CONTINUOUS
 90
7
 70
0
 10
144.2239688499
 20
49.7743716399
 10
144.2391625877
 20
49.7853122224
 10
144.2536750977
 20
49.793114284
 10
144.26750638
 20
49.7977778248
 10
144.2808851501
 20
49.7993012985
 10
144.2935826925
 20
49.7976862513
 10
144.2985617696
 20
49.7960675393
  0
LWPOLYLINE
  5
42A
100
AcDbEntity
  8
RACCORDO
100
AcDbPolyline
 62
7
  6
CONTINUOUS
 90
7
 70
0
 10
146.3537641651
 20
48.9189978262
 10
146.3689579028
 20
48.9299384087
 10
146.3834704128
 20
48.9377404703
 10
146.3973016951
 20
48.9424040111
 10
146.4106804653
 20
48.9439274848
 10
146.4233780077
 20
48.9423124376
 10
146.4283570848
 20
48.9406937257
  0
LWPOLYLINE
  5
42B
100
AcDbEntity
  8
RACCORDO
100
AcDbPolyline
 62
7
  6
CONTINUOUS
 90
7
 70
0
 10
143.4993046927
 20
50.180761514
 10
143.5026166698
 20
50.1831275591
 10
143.5059523495
 20
50.1856518072
 10
143.5093117316
 20
50.1883342584
 10
143.5126948162
 20
50.1911749126
 10
143.5161016033
 20
50.1941737699
 10
143.5195320929
 20
50.1973308303
  0
LWPOLYLINE
  5
42C
100
AcDbEntity
  8
RACCORDO
100
AcDbPolyline
 62
7
  6
CONTINUOUS
 90
7
 70
0
 10
145.465269599
 20
49.391185686
 10
145.4685815761
 20
49.3935517311
 10
145.4719172558
 20
49.3960759792
 10
145.4752766379
 20
49.3987584304
 10
145.4786597225
 20
49.4015990846
 10
145.4820665096
 20
49.4045979419
 10
145.4854969992
 20
49.4077550023
  0
LINE
  5
42D
100
AcDbEntity
  8
DRAFT
100
AcDbLine
 62
7
  6
CONTINUOUS
 10
140.1155933393
 20
51.0029173934
 11
143.9483787877
 21
53.6119550853
  0
LINE
  5
42E
100
AcDbEntity
  8
RACCORDO
100
AcDbLine
 62
7
  6
CONTINUOUS
 10
129.8911749557
 20
57.6591605413
 11
127.0735835415
 21
56.8157182715
  0
LINE
  5
42F
100
AcDbEntity
  8
RACCORDO
100
AcDbLine
 62
7
  6
CONTINUOUS
 10
130.8741574088
 20
57.2643726273
 11
128.0565659946
 21
56.4209303575
  0
LINE
  5
430
100
AcDbEntity
  8
RACCORDO
100
AcDbLine
 62
7
  6
CONTINUOUS
 10
132.0209702708
 20
56.8037867276
 11
129.2033788566
 21
55.9603444578
  0
LINE
  5
431
100
AcDbEntity
  8
RACCORDO
100
AcDbLine
 62
7
  6
CONTINUOUS
 10
132.8401223151
 20
56.4747967993
 11
130.0225309009
 21
55.6313545295
  0
LWPOLYLINE
  5
432
100
AcDbEntity
  8
RACCORDO
100
AcDbPolyline
 62
253
  6
CONTINUOUS
 90
16
 70
0
 10
176.3377204946
 20
144.515101997
 10
176.2819668011
 20
144.5253251092
 10
176.2184425899
 20
144.5388225779
 10
176.1478097513
 20
144.5554510674
 10
176.0708044912
 20
144.5750343419
 10
175.9882288026
 20
144.5973652608
 10
175.9009419158
 20
144.6222080574
 10
175.8098525872
 20
144.6493005305
 10
175.7159098536
 20
144.6783567306
 10
175.6200921652
 20
144.709070168
 10
175.5233974403
 20
144.7411169301
 10
175.4268326584
 20
144.774159011
 10
175.3314034151
 20
144.8078478996
 10
175.2381034343
 20
144.8418283147
 10
175.1479042107
 20
144.8757419203
 10
175.0617448803
 20
144.9092310125
  0
LWPOLYLINE
  5
433
100
AcDbEntity
  8
RACCORDO
100
AcDbPolyline
 62
253
  6
CONTINUOUS
 90
10
 70
0
 10
156.7401034861
 20
151.4383050706
 10
156.6600078432
 20
151.4720391059
 10
156.5816218572
 20
151.4974640498
 10
156.505786412
 20
151.5143136734
 10
156.4333160248
 20
151.522413802
 10
156.3649877135
 20
151.521682575
 10
156.3015325835
 20
151.5121308415
 10
156.2436311652
 20
151.493864165
 10
156.1919062961
 20
151.4670822185
 10
156.1515530709
 20
151.4363489236
  0
LINE
  5
434
100
AcDbEntity
  8
DRAFT
100
AcDbLine
 62
7
  6
CONTINUOUS
 10
146.7106188763
 20
43.827992309
 11
149.8813009716
 21
46.4741132501
  0
LINE
  5
435
100
AcDbEntity
  8
DRAFT
100
AcDbLine
 62
7
  6
CONTINUOUS
 10
148.0622197494
 20
43.2851589272
 11
149.8813009716
 21
44.8032893393
  0
LINE
  5
436
100
AcDbEntity
  8
RACCORDO
100
AcDbLine
 62
7
  6
CONTINUOUS
 10
149.8813009716
 20
46.7550679317
 11
146.4482940148
 21
43.9333478873
  0
LINE
  5
437
100
AcDbEntity
  8
DRAFT
100
AcDbLine
 62
7
  6
CONTINUOUS
 10
149.8813009716
 20
43.4629978814
 11
149.1388589782
 21
42.8527563407
  0
LINE
  5
438
100
AcDbEntity
  8
RACCORDO
100
AcDbLine
 62
7
  6
CONTINUOUS
 10
149.8813009716
 20
47.6884230742
 11
145.6325216637
 21
44.2609804547
  0
LINE
  5
439
100
AcDbEntity
  8
DRAFT
100
AcDbLine
 62
7
  6
CONTINUOUS
 10
149.8813009716
 20
43.3984111926
 11
149.1814557647
 21
42.8356485109
  0
LWPOLYLINE
  5
43A
100
AcDbEntity
  8
RACCORDO
100
AcDbPolyline
 62
7
  6
CONTINUOUS
 90
4
 70
0
 10
149.7249913404
 20
47.8060717789
 10
149.7806552798
 20
47.8463230453
 10
149.8427889103
 20
47.8818330933
 10
149.8813009716
 20
47.8991058875
  0
LWPOLYLINE
  5
43B
100
AcDbEntity
  8
RACCORDO
100
AcDbPolyline
 62
7
  6
CONTINUOUS
 90
7
 70
0
 10
147.5950649141
 20
48.5358118723
 10
147.5983768913
 20
48.5381779174
 10
147.6017125709
 20
48.5407021655
 10
147.6050719531
 20
48.5433846167
 10
147.6084550377
 20
48.5462252709
 10
147.6118618248
 20
48.5492241282
 10
147.6152923144
 20
48.5523811886
  0
LWPOLYLINE
  5
43C
100
AcDbEntity
  8
RACCORDO
100
AcDbPolyline
 62
7
  6
CONTINUOUS
 90
7
 70
0
 10
144.357691676
 20
49.8740307836
 10
144.3544662288
 20
49.8726918704
 10
144.3512637913
 20
49.8715091971
 10
144.3480843633
 20
49.8704827636
 10
144.344927945
 20
49.8696125699
 10
144.3417945363
 20
49.868898616
 10
144.3386841372
 20
49.8683409019
  0
LWPOLYLINE
  5
43D
100
AcDbEntity
  8
RACCORDO
100
AcDbPolyline
 62
7
  6
CONTINUOUS
 90
8
 70
0
 10
143.7677518998
 20
50.3800263855
 10
143.8443578381
 20
50.4064420817
 10
143.9274334675
 20
50.4281165595
 10
144.0123800117
 20
50.4438855645
 10
144.0987661407
 20
50.4532934528
 10
144.1870231845
 20
50.4567958684
 10
144.2738463565
 20
50.4545954889
 10
144.3538132934
 20
50.4470718062
  0
LWPOLYLINE
  5
43E
100
AcDbEntity
  8
RACCORDO
100
AcDbPolyline
 62
253
  6
CONTINUOUS
 90
16
 70
0
 10
175.1475716959
 20
145.3385703279
 10
175.2344501118
 20
145.3085192875
 10
175.3263718793
 20
145.28246549
 10
175.4223734174
 20
145.260682047
 10
175.5214483782
 20
145.2433973056
 10
175.6225581969
 20
145.2307924551
 10
175.7246429781
 20
145.222999627
 10
175.8266326062
 20
145.2201005104
 10
175.9274579632
 20
145.2221254953
 10
176.0260621364
 20
145.2290533542
 10
176.1214114959
 20
145.240811465
 10
176.2125065317
 20
145.2572765717
 10
176.2983923307
 20
145.2782760766
 10
176.3781685856
 20
145.3035898502
 10
176.4509990323
 20
145.3329525377
 10
176.5161202174
 20
145.3660563416
  0
LINE
  5
43F
100
AcDbEntity
  8
RACCORDO
100
AcDbLine
 62
253
  6
CONTINUOUS
 10
156.7405623443
 20
151.4381209635
 11
174.7037200602
 21
144.2237118549
  0
LINE
  5
440
100
AcDbEntity
  8
RACCORDO
100
AcDbLine
 62
253
  6
CONTINUOUS
 10
157.2725826696
 20
152.5175689017
 11
175.1475716958
 21
145.3385703265
  0
LWPOLYLINE
  5
441
100
AcDbEntity
  8
RACCORDO
100
AcDbPolyline
 62
253
  6
CONTINUOUS
 90
12
 70
0
 10
157.169833152
 20
152.0967024634
 10
157.0888863476
 20
152.1302220846
 10
157.0137261888
 20
152.1626298575
 10
156.9451364279
 20
152.1935878231
 10
156.8838322732
 20
152.2227731396
 10
156.8304530045
 20
152.2498814535
 10
156.7855552827
 20
152.2746300849
 10
156.7496072542
 20
152.296760964
 10
156.7229837077
 20
152.3160433194
 10
156.7059622178
 20
152.3322761026
 10
156.6987202188
 20
152.3452900631
 10
156.6989928875
 20
152.351190328
  0
LWPOLYLINE
  5
442
100
AcDbEntity
  8
RACCORDO
100
AcDbPolyline
 62
253
  6
CONTINUOUS
 90
11
 70
0
 10
157.2725663697
 20
152.5175588225
 10
157.191960551
 20
152.5547734868
 10
157.1181541044
 20
152.5952803993
 10
157.0519207714
 20
152.6386549095
 10
156.9939549015
 20
152.6844423045
 10
156.9448641732
 20
152.7321625765
 10
156.9051632235
 20
152.7813154546
 10
156.8752682528
 20
152.8313856492
 10
156.8554926614
 20
152.8818482542
 10
156.8460437644
 20
152.9321742498
 10
156.8465695143
 20
152.9780022439
  0
LWPOLYLINE
  5
443
100
AcDbEntity
  8
RACCORDO
100
AcDbPolyline
 62
7
  6
CONTINUOUS
 90
3
 70
0
 10
189.3955076011
 20
134.3809735166
 10
189.357772278
 20
134.4072319266
 10
183.976172126
 20
137.7749261807
  0
LWPOLYLINE
  5
444
100
AcDbEntity
  8
RACCORDO
100
AcDbPolyline
 62
7
  6
CONTINUOUS
 90
15
 70
0
 10
183.9489867481
 20
164.617426641
 10
183.927325392
 20
164.6946609886
 10
183.899508615
 20
164.773375869
 10
183.8664025831
 20
164.8508104576
 10
183.8279886531
 20
164.9264959613
 10
183.7842854681
 20
165.0009011731
 10
183.736215123
 20
165.0726716477
 10
183.6837584814
 20
165.1417818047
 10
183.6269346797
 20
165.2082572244
 10
183.5667232218
 20
165.270820202
 10
183.5026821874
 20
165.3296364118
 10
183.4352534968
 20
165.3845401795
 10
183.3667424145
 20
165.4337567772
 10
183.297917362
 20
165.4766946292
 10
183.2280099177
 20
165.5139453113
  0
LINE
  5
445
100
AcDbEntity
  8
RACCORDO
100
AcDbLine
 62
7
  6
CONTINUOUS
 10
183.9642039615
 20
164.5425931012
 11
183.9489408097
 21
164.6175578016
  0
LWPOLYLINE
  5
446
100
AcDbEntity
  8
RACCORDO
100
AcDbPolyline
 62
7
  6
CONTINUOUS
 90
7
 70
0
 10
146.4874869911
 20
49.0186569699
 10
146.484261544
 20
49.0173180568
 10
146.4810591064
 20
49.0161353834
 10
146.4778796785
 20
49.0151089499
 10
146.4747232602
 20
49.0142387562
 10
146.4715898515
 20
49.0135248023
 10
146.4684794524
 20
49.0129670883
  0
LWPOLYLINE
  5
447
100
AcDbEntity
  8
RACCORDO
100
AcDbPolyline
 62
7
  6
CONTINUOUS
 90
7
 70
0
 10
148.4534518974
 20
48.2290811419
 10
148.4502264502
 20
48.2277422288
 10
148.4470240127
 20
48.2265595554
 10
148.4438445848
 20
48.2255331219
 10
148.4406881665
 20
48.2246629282
 10
148.4375547577
 20
48.2239489743
 10
148.4344443587
 20
48.2233912603
  0
LINE
  5
448
100
AcDbEntity
  8
RACCORDO
100
AcDbLine
 62
7
  6
CONTINUOUS
 10
146.3561310459
 20
51.0464629817
 11
143.5385396317
 21
50.2030207119
  0
LINE
  5
449
100
AcDbEntity
  8
RACCORDO
100
AcDbLine
 62
7
  6
CONTINUOUS
 10
147.1752830902
 20
50.7174730534
 11
144.357691676
 21
49.8740307836
  0
LINE
  5
44A
100
AcDbEntity
  8
RACCORDO
100
AcDbLine
 62
7
  6
CONTINUOUS
 10
148.3220959522
 20
50.2568871537
 11
145.504504538
 21
49.4134448839
  0
LINE
  5
44B
100
AcDbEntity
  8
RACCORDO
100
AcDbLine
 62
7
  6
CONTINUOUS
 10
149.3050784053
 20
49.8620992397
 11
146.4874869911
 21
49.0186569699
  0
LINE
  5
44C
100
AcDbEntity
  8
RACCORDO
100
AcDbLine
 62
7
  6
CONTINUOUS
 10
149.8813009716
 20
49.2307078883
 11
147.6342998531
 21
48.5580710702
  0
LINE
  5
44D
100
AcDbEntity
  8
RACCORDO
100
AcDbLine
 62
7
  6
CONTINUOUS
 10
149.8813009716
 20
48.6565058771
 11
148.4534518974
 21
48.2290811419
  0
LWPOLYLINE
  5
44E
100
AcDbEntity
  8
RACCORDO
100
AcDbPolyline
 62
7
  6
CONTINUOUS
 90
12
 70
0
 10
176.8541001311
 20
49.269799716
 10
177.2975280931
 20
49.7836232487
 10
177.6984858334
 20
50.3087435846
 10
178.0563578229
 20
50.8436135404
 10
178.3709076715
 20
51.3871612932
 10
178.6421401853
 20
51.9387337106
 10
178.8696476625
 20
52.4970404789
 10
179.0530007237
 20
53.0605330967
 10
179.1920654044
 20
53.6280432541
 10
179.286604694
 20
54.1980795542
 10
179.3364879814
 20
54.7689166865
 10
179.3450325716
 20
55.1227135548
  0
LINE
  5
44F
100
AcDbEntity
  8
RACCORDO
100
AcDbLine
 62
7
  6
CONTINUOUS
 10
176.4685618645
 20
48.8671240738
 11
176.8541001311
 21
49.269799716
  0
LWPOLYLINE
  5
450
100
AcDbEntity
  8
RACCORDO
100
AcDbPolyline
 62
253
  6
CONTINUOUS
 90
13
 70
0
 10
176.6099182031
 20
49.270694511
 10
176.8969384901
 20
49.56597147
 10
177.1829135688
 20
49.881805378
 10
177.4650859919
 20
50.2186773689
 10
177.740890452
 20
50.5775922508
 10
178.0067303284
 20
50.9583134062
 10
178.2583001317
 20
51.3592679801
 10
178.4923861155
 20
51.78054184
 10
178.7056309297
 20
52.2220599963
 10
178.8939153821
 20
52.6817031133
 10
179.0539832299
 20
53.1591411315
 10
179.1824770027
 20
53.6538056397
 10
179.275728079
 20
54.1629094744
  0
LINE
  5
451
100
AcDbEntity
  8
RACCORDO
100
AcDbLine
 62
253
  6
CONTINUOUS
 10
166.2930639589
 20
38.9660618358
 11
176.6099182031
 21
49.270694511
  0
LINE
  5
452
100
AcDbEntity
  8
RACCORDO
100
AcDbLine
 62
7
  6
CONTINUOUS
 10
166.1409004945
 20
38.5516951541
 11
176.4685576889
 21
48.8671179821
  0
LWPOLYLINE
  5
453
100
AcDbEntity
  8
RACCORDO
100
AcDbPolyline
 62
7
  6
CONTINUOUS
 90
8
 70
0
 10
164.1749232642
 20
173.0209400553
 10
164.2352571759
 20
173.0350808033
 10
164.2994550169
 20
173.042381763
 10
164.3670596255
 20
173.0430346069
 10
164.435729943
 20
173.037118467
 10
164.5046856164
 20
173.0246597207
 10
164.5747069987
 20
173.0056319907
 10
164.6457940897
 20
172.9800352769
  0
LWPOLYLINE
  5
454
100
AcDbEntity
  8
RACCORDO
100
AcDbPolyline
 62
253
  6
CONTINUOUS
 90
16
 70
0
 10
176.2559338736
 20
159.8249983209
 10
176.3407234306
 20
159.7936173898
 10
176.4309411449
 20
159.7673483301
 10
176.5254458267
 20
159.7458809845
 10
176.6227010899
 20
159.7280602763
 10
176.7216753276
 20
159.7141257937
 10
176.8219582461
 20
159.705698913
 10
176.922319162
 20
159.7019099812
 10
177.0213120715
 20
159.7021234948
 10
177.11841086
 20
159.7080679818
 10
177.2130694336
 20
159.7188855261
 10
177.3035259624
 20
159.733373463
 10
177.3882516463
 20
159.7527148002
 10
177.4668526201
 20
159.7768583569
 10
177.5393295509
 20
159.80439256
 10
177.6053874164
 20
159.8346840754
  0
LINE
  5
455
100
AcDbEntity
  8
RACCORDO
100
AcDbLine
 62
253
  6
CONTINUOUS
 10
158.7878025044
 20
166.8405936886
 11
176.2559357771
 21
159.8249975564
  0
LINE
  5
456
100
AcDbEntity
  8
RACCORDO
100
AcDbLine
 62
253
  6
CONTINUOUS
 10
159.3557988383
 20
168.0110148364
 11
176.823928303
 21
160.9954202337
  0
LWPOLYLINE
  5
457
100
AcDbEntity
  8
RACCORDO
100
AcDbPolyline
 62
253
  6
CONTINUOUS
 90
11
 70
0
 10
158.7878044079
 20
166.8405929241
 10
158.7086518334
 20
166.8762834876
 10
158.6360170116
 20
166.9151524138
 10
158.5706314854
 20
166.9568082335
 10
158.5131537863
 20
167.0008314094
 10
158.464162802
 20
167.0467785613
 10
158.424151946
 20
167.0941869317
 10
158.3935241885
 20
167.1425790463
 10
158.3725879973
 20
167.1914675229
 10
158.3615542319
 20
167.2403599806
 10
158.360917511
 20
167.292913005
  0
LWPOLYLINE
  5
458
100
AcDbEntity
  8
RACCORDO
100
AcDbPolyline
 62
253
  6
CONTINUOUS
 90
16
 70
0
 10
176.8239283035
 20
160.9954202334
 10
176.9046086374
 20
160.954113527
 10
176.9844270181
 20
160.9044966621
 10
177.0625307009
 20
160.8470997237
 10
177.1380852603
 20
160.7825359155
 10
177.2102835046
 20
160.7114950087
 10
177.2783540994
 20
160.6347359734
 10
177.3415698083
 20
160.5530788694
 10
177.3992552625
 20
160.4673960854
 10
177.4507941757
 20
160.3786030186
 10
177.495635929
 20
160.2876482953
 10
177.5333014526
 20
160.1955036357
 10
177.5633883446
 20
160.1031534731
 10
177.58557517
 20
160.011584436
 10
177.5996248943
 20
159.9217748079
 10
177.6053874164
 20
159.8346840754
  0
LINE
  5
459
100
AcDbEntity
  8
RACCORDO
100
AcDbLine
 62
253
  6
CONTINUOUS
 10
157.3136359725
 20
32.9991408707
 11
166.2930639589
 21
38.9660618358
  0
LINE
  5
45A
100
AcDbEntity
  8
RACCORDO
100
AcDbLine
 62
7
  6
CONTINUOUS
 10
166.0716055113
 20
38.4950149629
 11
157.0789260657
 21
32.5192887318
  0
LWPOLYLINE
  5
45B
100
AcDbEntity
  8
RACCORDO
100
AcDbPolyline
 62
253
  6
CONTINUOUS
 90
13
 70
0
 10
157.3136359725
 20
32.9991408707
 10
157.2411781789
 20
32.9521390134
 10
157.1593148765
 20
32.9105263606
 10
157.0692554376
 20
32.8749175135
 10
156.9723302707
 20
32.8458383738
 10
156.8699711748
 20
32.8237183845
 10
156.7636901886
 20
32.8088841872
 10
156.6550572578
 20
32.8015547951
 10
156.5456769853
 20
32.8018383559
 10
156.4371649401
 20
32.8097305765
 10
156.3311238709
 20
32.8251147918
 10
156.2291200329
 20
32.8477636786
 10
156.132659998
 20
32.8773426174
  0
LWPOLYLINE
  5
45C
100
AcDbEntity
  8
RACCORDO
100
AcDbPolyline
 62
253
  6
CONTINUOUS
 90
10
 70
0
 10
159.3557988378
 20
168.0110148366
 10
159.2686251626
 20
168.0381376512
 10
159.1810426525
 20
168.0555078425
 10
159.0946710592
 20
168.0631862368
 10
159.0117989224
 20
168.0619090971
 10
158.9332733838
 20
168.0517205769
 10
158.8585893228
 20
168.0317893404
 10
158.7892711902
 20
168.0028764682
 10
158.7267272078
 20
167.9658294838
 10
158.6712473714
 20
167.920827315
  0
LWPOLYLINE
  5
45D
100
AcDbEntity
  8
RACCORDO
100
AcDbPolyline
 62
7
  6
CONTINUOUS
 90
9
 70
0
 10
171.2246182524
 20
178.0045824002
 10
171.1436190973
 20
178.0045825727
 10
171.0632073782
 20
177.9944486134
 10
170.9839662329
 20
177.9751383351
 10
170.9058891778
 20
177.9487997337
 10
170.8295355568
 20
177.91591554
 10
170.7553826474
 20
177.8765648014
 10
170.6831464454
 20
177.8321335309
 10
170.6237759289
 20
177.7908912101
  0
LWPOLYLINE
  5
45E
100
AcDbEntity
  8
RACCORDO
100
AcDbPolyline
 62
7
  6
CONTINUOUS
 90
8
 70
0
 10
164.6441838808
 20
172.9806812039
 10
164.5731940448
 20
173.0061399288
 10
164.5032866006
 20
173.025042058
 10
164.434461548
 20
173.0373875915
 10
164.3659504657
 20
173.0432021842
 10
164.2985217751
 20
173.0424601811
 10
164.2344807407
 20
173.0350846176
 10
164.1742692828
 20
173.0208861979
  0
LWPOLYLINE
  5
45F
100
AcDbEntity
  8
RACCORDO
100
AcDbPolyline
 62
7
  6
CONTINUOUS
 90
19
 70
0
 10
164.6453086214
 20
172.9802309113
 10
164.7182681159
 20
172.9535278335
 10
164.7944490738
 20
172.9307636171
 10
164.873851495
 20
172.9119382622
 10
164.9574452373
 20
172.8969037633
 10
165.0442604429
 20
172.8858081259
 10
165.1313875392
 20
172.8790953662
 10
165.218389935
 20
172.8769515633
 10
165.3057042216
 20
172.8791906381
 10
165.3917305995
 20
172.8856983699
 10
165.4764701659
 20
172.8965006304
 10
165.5599218237
 20
172.9115715479
 10
165.6404824815
 20
172.9307192871
 10
165.7184702528
 20
172.9542242343
 10
165.7935670241
 20
172.9818060032
 10
165.8632153638
 20
173.0124315992
 10
165.9265627946
 20
173.0457566907
 10
165.9844617939
 20
173.0821256094
 10
166.0369123614
 20
173.1215383552
  0
LINE
  5
460
100
AcDbEntity
  8
RACCORDO
100
AcDbLine
 62
7
  6
CONTINUOUS
 10
183.1554098731
 20
165.5461562888
 11
182.2512284701
 21
165.9092959245
  0
LINE
  5
461
100
AcDbEntity
  8
RACCORDO
100
AcDbLine
 62
7
  6
CONTINUOUS
 10
165.5499754925
 20
172.6168956413
 11
164.6457940894
 21
172.9800352771
  0
LINE
  5
462
100
AcDbEntity
  8
RACCORDO
100
AcDbLine
 62
7
  6
CONTINUOUS
 10
183.2280099177
 20
165.5139453113
 11
183.1554098728
 21
165.5461562889
  0
LWPOLYLINE
  5
463
100
AcDbEntity
  8
RACCORDO
100
AcDbPolyline
 62
7
  6
CONTINUOUS
 90
15
 70
0
 10
183.2264969639
 20
165.5146526459
 10
183.2965183461
 20
165.4774360445
 10
183.3654740195
 20
165.4345064848
 10
183.434144337
 20
165.3852635294
 10
183.5017489457
 20
165.3303076156
 10
183.5659467866
 20
165.2714400554
 10
183.6262806984
 20
165.2088363891
 10
183.6832078424
 20
165.1423210765
 10
183.7357586441
 20
165.0731688093
 10
183.7839165899
 20
165.0013552532
 10
183.8276981934
 20
164.9269047427
 10
183.8661834206
 20
164.8511649727
 10
183.8993566558
 20
164.7736584964
 10
183.9272335146
 20
164.6948627607
 10
183.9489408097
 20
164.6175578016
  0
LWPOLYLINE
  5
464
100
AcDbEntity
  8
RACCORDO
100
AcDbPolyline
 62
7
  6
CONTINUOUS
 90
3
 70
0
 10
171.3839482361
 20
177.9750009645
 10
171.3050703381
 20
177.9947958722
 10
171.2246182524
 20
178.0045824002
  0
LINE
  5
465
100
AcDbEntity
  8
DRAFT
100
AcDbLine
 62
7
  6
CONTINUOUS
 10
170.4253752015
 20
176.6105892796
 11
171.854166916
 21
176.0367543157
  0
LINE
  5
466
100
AcDbEntity
  8
DRAFT
100
AcDbLine
 62
7
  6
CONTINUOUS
 10
185.6978364645
 20
170.4768245268
 11
187.126628179
 21
169.9029895629
  0
LINE
  5
467
100
AcDbEntity
  8
DRAFT
100
AcDbLine
 62
7
  6
CONTINUOUS
 10
187.8048654479
 20
170.3528016259
 11
186.356128802
 21
170.9346469239
  0
LINE
  5
468
100
AcDbEntity
  8
DRAFT
100
AcDbLine
 62
7
  6
CONTINUOUS
 10
172.3790699814
 20
176.5481488517
 11
170.9303333355
 21
177.1299941497
  0
LINE
  5
469
100
AcDbEntity
  8
RACCORDO
100
AcDbLine
 62
7
  6
CONTINUOUS
 10
188.9930073867
 20
170.9039284421
 11
187.1984721914
 21
171.6246542334
  0
LINE
  5
46A
100
AcDbEntity
  8
0
100
AcDbLine
 62
7
  6
CONTINUOUS
 10
187.1317775554
 20
171.6514403028
 11
173.2881080069
 21
177.2113700917
  0
LINE
  5
46B
100
AcDbEntity
  8
RACCORDO
100
AcDbLine
 62
7
  6
CONTINUOUS
 10
173.2214133709
 20
177.2381561611
 11
171.4268781756
 21
177.9588819524
  0
LWPOLYLINE
  5
46C
100
AcDbEntity
  8
RACCORDO
100
AcDbPolyline
 62
7
  6
CONTINUOUS
 90
14
 70
0
 10
189.0359373262
 20
170.8855641911
 10
189.1098176582
 20
170.8440079498
 10
189.1759553602
 20
170.7949207143
 10
189.2343628802
 20
170.7389320232
 10
189.2850473422
 20
170.6761468821
 10
189.328413579
 20
170.607594715
 10
189.3650881455
 20
170.5351692754
 10
189.395326553
 20
170.45947532
 10
189.4194391083
 20
170.3806589554
 10
189.4379310495
 20
170.2997892172
 10
189.4510575367
 20
170.2172029758
 10
189.4590718672
 20
170.1330640852
 10
189.4622775674
 20
170.0481084533
 10
189.4623608416
 20
170.0314561001
  0
ELLIPSE
  5
46D
100
AcDbEntity
  8
RACCORDO
100
AcDbEllipse
 62
7
  6
CONTINUOUS
 10
171.4268781756
 20
177.1397299081
 30
0.0
 11
0.635477171
 21
-0.7731842656
 31
0.0
 40
0.6708273225
 41
2.2553344044
 42
2.307694282
  0
ELLIPSE
  5
46E
100
AcDbEntity
  8
RACCORDO
100
AcDbEllipse
 62
7
  6
CONTINUOUS
 10
188.9930073867
 20
170.0847763978
 30
0.0
 11
0.635477171
 21
-0.7731842656
 31
0.0
 40
0.6708273225
 41
2.2029745268
 42
2.2553344044
  0
ELLIPSE
  5
46F
100
AcDbEntity
  8
RACCORDO
100
AcDbEllipse
 62
7
  6
CONTINUOUS
 10
135.9719124472
 20
48.7188571508
 30
0.0
 11
0.1999442657
 21
-0.0048106337
 31
0.0
 40
0.5499648967
 41
3.1383004401
 42
4.1152458008
  0
ELLIPSE
  5
470
100
AcDbEntity
  8
RACCORDO
100
AcDbEllipse
 62
7
  6
CONTINUOUS
 10
142.3231295456
 20
52.7161511316
 30
0.0
 11
0.2239779889
 21
0.0730785886
 31
0.0
 40
0.5879451193
 41
-0.9464652938
 42
0.4674336817
  0
ELLIPSE
  5
471
100
AcDbEntity
  8
RACCORDO
100
AcDbEllipse
 62
7
  6
CONTINUOUS
 10
115.7513126828
 20
59.3849355728
 30
0.0
 11
-0.126784393
 21
0.1546824951
 31
0.0
 40
0.6718117768
 41
1.4248414727
 42
1.518134728
  0
ELLIPSE
  5
472
100
AcDbEntity
  8
RACCORDO
100
AcDbEllipse
 62
7
  6
CONTINUOUS
 10
165.4727877546
 20
39.2977500316
 30
0.0
 11
-0.6349013301
 21
0.7761056187
 31
0.0
 40
0.6692102709
 41
-3.2080451393
 42
-2.4559451104
  0
ELLIPSE
  5
473
100
AcDbEntity
  8
RACCORDO
100
AcDbEllipse
 62
7
  6
CONTINUOUS
 10
165.4727877546
 20
89.2637764132
 30
0.0
 11
-0.6342170824
 21
0.7731899447
 31
0.0
 40
0.6728141967
 41
-2.454628732
 42
-0.886571461
  0
ELLIPSE
  5
474
100
AcDbEntity
  8
RACCORDO
100
AcDbEllipse
 62
7
  6
CONTINUOUS
 10
115.506761373
 20
109.3312590657
 30
0.0
 11
-0.6349013301
 21
0.7761056187
 31
0.0
 40
0.6692102709
 41
-0.8824097279
 42
0.0654874884
  0
ELLIPSE
  5
475
100
AcDbEntity
  8
RACCORDO
100
AcDbEllipse
 62
7
  6
CONTINUOUS
 10
114.2745540277
 20
57.018902571
 30
0.0
 11
-0.1267491661
 21
0.1547090416
 31
0.0
 40
0.6712104788
 41
0.6863835468
 42
2.2568752871
  0
ELLIPSE
  5
476
100
AcDbEntity
  8
RACCORDO
100
AcDbEllipse
 62
7
  6
CONTINUOUS
 10
144.8353996064
 20
52.7464928042
 30
0.0
 11
0.3029519069
 21
0.7404328918
 31
0.0
 40
0.4756867224
 41
0.0034232604
 42
0.701622345
  0
ELLIPSE
  5
477
100
AcDbEntity
  8
RACCORDO
100
AcDbEllipse
 62
7
  6
CONTINUOUS
 10
126.4044786099
 20
60.1487661918
 30
0.0
 11
0.3029519069
 21
0.7404328918
 31
0.0
 40
0.4756867224
 41
0.0034232604
 42
0.701622345
  0
ELLIPSE
  5
478
100
AcDbEntity
  8
RACCORDO
100
AcDbEllipse
 62
7
  6
CONTINUOUS
 10
115.369862927
 20
83.3593472593
 30
0.0
 11
0.1660235768
 21
0.4621732978
 31
0.0
 40
0.4341965489
 41
-0.0170556887
 42
0.6824579491
  0
ELLIPSE
  5
479
100
AcDbEntity
  8
RACCORDO
100
AcDbEllipse
 62
7
  6
CONTINUOUS
 10
135.2264272231
 20
56.6056727426
 30
0.0
 11
0.2934139879
 21
0.7442638418
 31
0.0
 40
0.4639756799
 41
5.4167009666
 42
6.9787706471
  0
ENDSEC
  0
SECTION
  2
OBJECTS
  0
DICTIONARY
  5
C
100
AcDbDictionary
280
0
281
1
  3
ACAD_GROUP
350
D
  3
ACAD_MLINESTYLE
350
17
  3
ACAD_LAYOUT
350
1A
  3
ACAD_PLOTSETTINGS
350
19
  3
ACAD_PLOTSTYLENAME
350
E
  0
DICTIONARY
  5
D
102
{ACAD_REACTORS
330
C
102
}
100
AcDbDictionary
280
0
281
1
  0
ACDBDICTIONARYWDFLT
  5
E
102
{ACAD_REACTORS
330
C
102
}
100
AcDbDictionary
281
1
  3
Normal
350
F
100
AcDbDictionaryWithDefault
340
F
  0
DICTIONARY
  5
17
102
{ACAD_REACTORS
330
C
102
}
100
AcDbDictionary
280
0
281
1
  3
Standard
350
18
  0
DICTIONARY
  5
19
102
{ACAD_REACTORS
330
C
102
}
100
AcDbDictionary
281
1
  0
DICTIONARY
  5
1A
102
{ACAD_REACTORS
330
C
102
}
100
AcDbDictionary
281
1
  3
Model
350
47A
  3
Layout1
350
47B
  0
ACDBPLACEHOLDER
  5
F
102
{ACAD_REACTORS
330
E
102
}
  0
MLINESTYLE
  5
18
102
{ACAD_REACTORS
330
17
102
}
100
AcDbMlineStyle
  2
STANDARD
 70
0
  3

 62
256
 51
90.0
 52
90.0
 71
2
 49
0.5
 62
256
  6
BYLAYER
 49
-0.5
 62
256
  6
BYLAYER
  0
LAYOUT
  5
47A
102
{ACAD_REACTORS
330
1A
102
}
100
AcDbPlotSettings
  1

  2
none_device
  4
ISO_A4_(297.00_x_210.00_MM)
  6

 40
0.0
 41
0.0
 42
0.0
 43
0.0
 44
297.0
 45
210.0
 46
0.0
 47
0.0
 48
0.0
 49
0.0
140
0.0
141
0.0
142
1.0
143
1.0
 70
1024
 72
1
 73
0
 74
0
  7

 75
0
147
1.0
148
0.0
149
0.0
100
AcDbLayout
  1
Model
 70
0
 71
0
 10
0.0
 20
0.0
 11
297.0
 21
210.0
 12
0.0
 22
0.0
 32
0.0
 14
0.0
 24
0.0
 34
0.0
 15
0.0
 25
0.0
 35
0.0
146
0.0
 13
0.0
 23
0.0
 33
0.0
 16
1.0
 26
0.0
 36
0.0
 17
0.0
 27
1.0
 37
0.0
 76
0
330
217
345
0
346
0
  0
LAYOUT
  5
47B
102
{ACAD_REACTORS
330
1A
102
}
100
AcDbPlotSettings
  1

  2
none_device
  4
ISO_A4_(297.00_x_210.00_MM)
  6

 40
0.0
 41
0.0
 42
0.0
 43
0.0
 44
297.0
 45
210.0
 46
0.0
 47
0.0
 48
0.0
 49
0.0
140
0.0
141
0.0
142
1.0
143
1.0
 70
0
 72
1
 73
0
 74
0
  7

 75
0
147
1.0
148
0.0
149
0.0
100
AcDbLayout
  1
Layout1
 70
0
 71
1
 10
0.0
 20
0.0
 11
297.0
 21
210.0
 12
0.0
 22
0.0
 32
0.0
 14
0.0
 24
0.0
 34
0.0
 15
0.0
 25
0.0
 35
0.0
146
0.0
 13
0.0
 23
0.0
 33
0.0
 16
1.0
 26
0.0
 36
0.0
 17
0.0
 27
1.0
 37
0.0
 76
0
330
218
345
0
346
0
  0
ENDSEC
  0
EOF
