  0
SECTION
  2
HEADER
  9
$ACADVER
  1
AC1015
  9
$DWGCODEPAGE
  3
ANSI_1252
  9
$EXTMAX
 10
297.0
 20
210.0
 30
0.0
  9
$EXTMIN
 10
0.0
 20
0.0
 30
0.0
  9
$LIMMIN
 10
0.0
 20
0.0
  9
$LIMMAX
 10
297.0
 20
210.0
  9
$VIEWCTR
 10
148.5
 20
105.0
  9
$VIEWSIZE
 40
210.0
  9
$CLAYER
  8
0
  9
$LTSCALE
 40
16.335
  9
$CELTYPE
  6
BYLAYER
  9
$DIMSCALE
 40
1.0
  9
$DIMASZ
 40
3.0
  9
$DIMEXO
 40
1.85625
  9
$DIMDLI
 40
11.286
  9
$DIMEXE
 40
5.346
  9
$DIMCEN
 40
2.673
  9
$DIMLFAC
 40
1.0
  9
$DIMBLK
  1
_FILLED
  9
$DIMTXT
 40
3.0
  9
$DIMTOL
 70
1
  9
$DIMLIM
 70
0
  9
$DIMTFAC
 40
1.0
  9
$DIMTP
 40
0.01
  9
$DIMTM
 40
0.01
  9
$PDMODE
 70
3
  9
$PDSIZE
 40
3.0
  9
$HANDSEED
  5
713
  9
$TILEMODE
 70
1
  9
$MEASUREMENT
 70
1
  9
$INSUNITS
 70
4
  0
ENDSEC
  0
SECTION
  2
CLASSES
  0
CLASS
  1
ACDBDICTIONARYWDFLT
  2
AcDbDictionaryWithDefault
  3
AutoCAD 2000
 90
0
280
0
281
0
  0
CLASS
  1
ACDBPLACEHOLDER
  2
AcDbPlaceHolder
  3
AutoCAD 2000
 90
0
280
0
281
0
  0
CLASS
  1
LAYOUT
  2
AcDbLayout
  3
AutoCAD 2000
 90
0
280
0
281
0
  0
ENDSEC
  0
SECTION
  2
TABLES
  0
TABLE
  2
VPORT
  5
8
100
AcDbSymbolTable
 70
2
  0
VPORT
  5
1F4
100
AcDbSymbolTableRecord
100
AcDbViewportTableRecord
  2
*ACTIVE
 70
0
 10
0.0
 20
0.0
 11
1.0
 21
1.0
 12
148.5
 22
105.0
 13
0.0
 23
0.0
 14
1.0
 24
1.0
 15
0.0
 25
0.0
 16
0.0
 26
0.0
 36
1.0
 17
0.0
 27
0.0
 37
0.0
 40
210.0
 41
1.4142857143
 42
50.0
 43
0.0
 44
0.0
 50
0.0
 51
0.0
 71
0
 72
100
 73
1
 74
1
 75
0
 76
0
 77
0
 78
0
  0
ENDTAB
  0
TABLE
  2
LTYPE
  5
5
100
AcDbSymbolTable
 70
6
  0
LTYPE
  5
14
100
AcDbSymbolTableRecord
100
AcDbLinetypeTableRecord
  2
BYBLOCK
 70
0
  3

 72
65
 73
0
 40
0.0
  0
LTYPE
  5
15
100
AcDbSymbolTableRecord
100
AcDbLinetypeTableRecord
  2
BYLAYER
 70
0
  3

 72
65
 73
0
 40
0.0
  0
LTYPE
  5
16
100
AcDbSymbolTableRecord
100
AcDbLinetypeTableRecord
  2
CONTINUOUS
 70
64
  3
Solid line
 72
65
 73
0
 40
0.0
  0
LTYPE
  5
1F5
100
AcDbSymbolTableRecord
100
AcDbLinetypeTableRecord
  2
CENTER
 70
64
  3
____ _ ____ _ ____ _ ____ _ ____ _ ____ _ ____
 72
65
 73
4
 40
0.6
 49
0.375
 74
0
 49
-0.075
 74
0
 49
0.075
 74
0
 49
-0.075
 74
0
  0
LTYPE
  5
1F6
100
AcDbSymbolTableRecord
100
AcDbLinetypeTableRecord
  2
HIDDEN
 70
64
  3
- - - - - - - - - - - - - - - - - - - -
 72
65
 73
2
 40
0.2
 49
0.1
 74
0
 49
-0.1
 74
0
  0
LTYPE
  5
1F7
100
AcDbSymbolTableRecord
100
AcDbLinetypeTableRecord
  2
PHANTOM
 70
64
  3
_____ _ _ _____ _ _ _____ _ _ _____
 72
65
 73
6
 40
0.8
 49
0.45
 74
0
 49
-0.05
 74
0
 49
0.1
 74
0
 49
-0.05
 74
0
 49
0.1
 74
0
 49
-0.05
 74
0
  0
LTYPE
  5
1F8
100
AcDbSymbolTableRecord
100
AcDbLinetypeTableRecord
  2
DOT
 70
64
  3
. . . . . . . . . . . . . . . . . . . .
 72
65
 73
2
 40
0.2
 49
0.1
 74
0
 49
-0.1
 74
0
  0
LTYPE
  5
1F9
100
AcDbSymbolTableRecord
100
AcDbLinetypeTableRecord
  2
DASHED
 70
64
  3
- - - - - - - - - - - - - - - - - - - -
 72
65
 73
2
 40
0.2
 49
0.1
 74
0
 49
-0.1
 74
0
  0
ENDTAB
  0
TABLE
  2
LAYER
  5
2
100
AcDbSymbolTable
 70
36
  0
LAYER
  5
10
100
AcDbSymbolTableRecord
100
AcDbLayerTableRecord
  2
0
 70
0
 62
7
  6
CONTINUOUS
370
-3
390
F
  0
LAYER
  5
1FA
100
AcDbSymbolTableRecord
100
AcDbLayerTableRecord
  2
DEFAULT_1
 70
0
 62
7
  6
CENTER
370
-3
390
F
  0
LAYER
  5
1FB
100
AcDbSymbolTableRecord
100
AcDbLayerTableRecord
  2
DEFAULT_2
 70
0
 62
7
  6
HIDDEN
370
-3
390
F
  0
LAYER
  5
1FC
100
AcDbSymbolTableRecord
100
AcDbLayerTableRecord
  2
DEFAULT_3
 70
0
 62
7
  6
PHANTOM
370
-3
390
F
  0
LAYER
  5
1FD
100
AcDbSymbolTableRecord
100
AcDbLayerTableRecord
  2
ASSI
 70
0
 62
7
  6
CONTINUOUS
370
-3
390
F
  0
LAYER
  5
1FE
100
AcDbSymbolTableRecord
100
AcDbLayerTableRecord
  2
COORDINATE
 70
0
 62
7
  6
CONTINUOUS
370
-3
390
F
  0
LAYER
  5
1FF
100
AcDbSymbolTableRecord
100
AcDbLayerTableRecord
  2
COPY_PUBLISH
 70
0
 62
7
  6
CONTINUOUS
370
-3
390
F
  0
LAYER
  5
200
100
AcDbSymbolTableRecord
100
AcDbLayerTableRecord
  2
COSMETIC
 70
0
 62
7
  6
CONTINUOUS
370
-3
390
F
  0
LAYER
  5
201
100
AcDbSymbolTableRecord
100
AcDbLayerTableRecord
  2
CURVE
 70
0
 62
7
  6
CONTINUOUS
370
-3
390
F
  0
LAYER
  5
202
100
AcDbSymbolTableRecord
100
AcDbLayerTableRecord
  2
DRAFT
 70
0
 62
7
  6
CONTINUOUS
370
-3
390
F
  0
LAYER
  5
203
100
AcDbSymbolTableRecord
100
AcDbLayerTableRecord
  2
IMPORT_IGES
 70
0
 62
7
  6
CONTINUOUS
370
-3
390
F
  0
LAYER
  5
204
100
AcDbSymbolTableRecord
100
AcDbLayerTableRecord
  2
NOTE
 70
0
 62
7
  6
CONTINUOUS
370
-3
390
F
  0
LAYER
  5
205
100
AcDbSymbolTableRecord
100
AcDbLayerTableRecord
  2
PIANI
 70
0
 62
7
  6
CONTINUOUS
370
-3
390
F
  0
LAYER
  5
206
100
AcDbSymbolTableRecord
100
AcDbLayerTableRecord
  2
PUNTI
 70
0
 62
7
  6
CONTINUOUS
370
-3
390
F
  0
LAYER
  5
207
100
AcDbSymbolTableRecord
100
AcDbLayerTableRecord
  2
RACCORDO
 70
0
 62
7
  6
CONTINUOUS
370
-3
390
F
  0
LAYER
  5
208
100
AcDbSymbolTableRecord
100
AcDbLayerTableRecord
  2
SMUSSO
 70
0
 62
7
  6
CONTINUOUS
370
-3
390
F
  0
LAYER
  5
209
100
AcDbSymbolTableRecord
100
AcDbLayerTableRecord
  2
SNAPLINE
 70
0
 62
7
  6
CONTINUOUS
370
-3
390
F
  0
LAYER
  5
20A
100
AcDbSymbolTableRecord
100
AcDbLayerTableRecord
  2
TRASH
 70
0
 62
7
  6
CONTINUOUS
370
-3
390
F
  0
ENDTAB
  0
TABLE
  2
STYLE
  5
3
100
AcDbSymbolTable
 70
1
  0
STYLE
  5
11
100
AcDbSymbolTableRecord
100
AcDbTextStyleTableRecord
  2
STANDARD
 70
0
 40
0.0
 41
0.8
 50
0.0
 71
0
 42
0.2
  3
txt
  4

  0
STYLE
  5
20B
100
AcDbSymbolTableRecord
100
AcDbTextStyleTableRecord
  2
TEXTSTYLE_1
 70
0
 40
0.0
 41
0.8
 50
0.0
 71
0
 42
0.2
  3
gdt
  4

  0
ENDTAB
  0
TABLE
  2
VIEW
  5
6
100
AcDbSymbolTable
 70
0
  0
ENDTAB
  0
TABLE
  2
UCS
  5
7
100
AcDbSymbolTable
 70
0
  0
ENDTAB
  0
TABLE
  2
APPID
  5
9
100
AcDbSymbolTable
 70
1
  0
APPID
  5
20C
100
AcDbSymbolTableRecord
100
AcDbRegAppTableRecord
  2
ACAD
 70
0
  0
ENDTAB
  0
TABLE
  2
BLOCK_RECORD
  5
1
100
AcDbSymbolTable
 70
0
  0
BLOCK_RECORD
  5
20D
100
AcDbSymbolTableRecord
100
AcDbBlockTableRecord
  2
*Model_Space
  0
BLOCK_RECORD
  5
20E
100
AcDbSymbolTableRecord
100
AcDbBlockTableRecord
  2
*Paper_Space
  0
ENDTAB
  0
TABLE
  2
DIMSTYLE
  5
A
100
AcDbSymbolTable
 70
1
100
AcDbDimStyleTable
 71
0
  0
DIMSTYLE
105
20F
100
AcDbSymbolTableRecord
100
AcDbDimStyleTableRecord
  2
STANDARD
 70
0
  3

  4

 40
1.0
 41
3.0
 42
0.0625
 43
0.38
 44
0.18
 45
0.0
 46
0.0
 47
0.01
 48
0.01
140
3.0
141
0.09
142
0.0
143
25.4
144
1.0
145
0.0
146
1.0
147
0.09
 71
1.0
 72
0.0
 73
0
 74
0
 75
0
 76
0
 77
1
 78
8
170
0
171
2
172
0
173
0
174
0
175
0
176
0
177
0
178
0
270
2
271
2
272
2
273
2
274
2
275
0
280
0
281
0
282
0
283
1
284
8
285
0
286
0
287
3
288
0
340
11
  0
ENDTAB
  0
ENDSEC
  0
SECTION
  2
BLOCKS
  0
BLOCK
  5
20
100
AcDbEntity
  8
0
100
AcDbBlockBegin
  2
*Model_Space
 70
0
 10
0.0
 20
0.0
 30
0.0
  3
*Model_Space
  1

  0
ENDBLK
  5
21
100
AcDbEntity
  8
0
100
AcDbBlockEnd
  0
BLOCK
  5
1C
100
AcDbEntity
  8
0
100
AcDbBlockBegin
  2
*Paper_Space
 70
0
 10
0.0
 20
0.0
 30
0.0
  3
*Paper_Space
  1

  0
ENDBLK
  5
1D
100
AcDbEntity
  8
0
100
AcDbBlockEnd
  0
ENDSEC
  0
SECTION
  2
ENTITIES
  0
LINE
  5
210
100
AcDbEntity
  8
DRAFT
100
AcDbLine
 62
7
  6
CONTINUOUS
 10
-13.8776531476
 20
19.201730766
 11
-13.5979843124
 21
19.3493706123
  0
LINE
  5
211
100
AcDbEntity
  8
DRAFT
100
AcDbLine
 62
253
  6
CONTINUOUS
 10
-12.971670478
 20
19.1526681422
 11
-12.6888277655
 21
19.3001361103
  0
LINE
  5
212
100
AcDbEntity
  8
DRAFT
100
AcDbLine
 62
7
  6
CONTINUOUS
 10
-13.5983346646
 20
19.3491855398
 11
-13.576163488
 21
19.3604388106
  0
LINE
  5
213
100
AcDbEntity
  8
DRAFT
100
AcDbLine
 62
253
  6
CONTINUOUS
 10
-12.6888277655
 20
19.3001361103
 11
-11.5574569156
 21
19.8537292325
  0
LINE
  5
214
100
AcDbEntity
  8
DRAFT
100
AcDbLine
 62
7
  6
CONTINUOUS
 10
-13.575829528
 20
19.3606013099
 11
-12.4382660804
 21
19.9137722947
  0
LINE
  5
215
100
AcDbEntity
  8
RACCORDO
100
AcDbLine
 62
253
  6
CONTINUOUS
 10
-11.5574569156
 20
19.8658215353
 11
-7.585318226
 21
21.7669744942
  0
LINE
  5
216
100
AcDbEntity
  8
DRAFT
100
AcDbLine
 62
7
  6
CONTINUOUS
 10
-12.4369912351
 20
19.929867151
 11
-8.4217320577
 21
21.8278801777
  0
LINE
  5
217
100
AcDbEntity
  8
0
100
AcDbLine
 62
7
  6
CONTINUOUS
 10
-12.9205180955
 20
15.7037373238
 11
-13.0649483995
 21
15.4872764602
  0
LINE
  5
218
100
AcDbEntity
  8
0
100
AcDbLine
 62
7
  6
CONTINUOUS
 10
-12.8242312261
 20
15.3091837276
 11
-12.7279443567
 21
15.4342453736
  0
LINE
  5
219
100
AcDbEntity
  8
0
100
AcDbLine
 62
7
  6
CONTINUOUS
 10
-12.5413885136
 20
15.4506050838
 11
-12.5018526874
 21
15.5019559642
  0
LINE
  5
21A
100
AcDbEntity
  8
0
100
AcDbLine
 62
7
  6
CONTINUOUS
 10
-12.7760877914
 20
15.8047272525
 11
-12.9205180955
 21
15.7037373238
  0
LINE
  5
21B
100
AcDbEntity
  8
DRAFT
100
AcDbLine
 62
7
  6
CONTINUOUS
 10
-9.0875202193
 20
17.2105930129
 11
-8.799740469
 21
17.355592462
  0
LINE
  5
21C
100
AcDbEntity
  8
0
100
AcDbLine
 62
7
  6
CONTINUOUS
 10
-12.4932450789
 20
15.9461486087
 11
-12.7760877914
 21
15.8047272525
  0
LINE
  5
21D
100
AcDbEntity
  8
0
100
AcDbLine
 62
7
  6
CONTINUOUS
 10
-12.3006713402
 20
15.9653313527
 11
-12.5835140527
 21
15.8239099965
  0
LINE
  5
21E
100
AcDbEntity
  8
0
100
AcDbLine
 62
7
  6
CONTINUOUS
 10
-12.1562409013
 20
15.9508516007
 11
-12.4390836138
 21
15.8094302444
  0
LINE
  5
21F
100
AcDbEntity
  8
0
100
AcDbLine
 62
7
  6
CONTINUOUS
 10
-11.9155237279
 20
15.8882271599
 11
-12.1983664404
 21
15.7468058037
  0
LINE
  5
220
100
AcDbEntity
  8
0
100
AcDbLine
 62
7
  6
CONTINUOUS
 10
-12.5413885136
 20
15.4506050838
 11
-12.8242312261
 21
15.3091837276
  0
LINE
  5
221
100
AcDbEntity
  8
0
100
AcDbLine
 62
7
  6
CONTINUOUS
 10
-12.5895319483
 20
15.1860007856
 11
-12.8723746608
 21
15.0445794293
  0
LINE
  5
222
100
AcDbEntity
  8
0
100
AcDbLine
 62
7
  6
CONTINUOUS
 10
-11.4822328157
 20
15.6715817038
 11
-11.7650755282
 21
15.5301603476
  0
LINE
  5
223
100
AcDbEntity
  8
0
100
AcDbLine
 62
7
  6
CONTINUOUS
 10
-12.9686615301
 20
13.2452024431
 11
-13.0649483995
 21
13.0624059903
  0
LINE
  5
224
100
AcDbEntity
  8
0
100
AcDbLine
 62
7
  6
CONTINUOUS
 10
-12.8242312261
 20
12.8843119362
 11
-12.7279443567
 21
13.0093735823
  0
LINE
  5
225
100
AcDbEntity
  8
0
100
AcDbLine
 62
7
  6
CONTINUOUS
 10
-11.1392107762
 20
13.8893227929
 11
-11.2354976456
 21
13.7642611469
  0
LINE
  5
226
100
AcDbEntity
  8
0
100
AcDbLine
 62
7
  6
CONTINUOUS
 10
-12.7760877914
 20
13.3798554612
 11
-12.9686615301
 21
13.2452024431
  0
LINE
  5
227
100
AcDbEntity
  8
0
100
AcDbLine
 62
7
  6
CONTINUOUS
 10
-11.1873542109
 20
13.393779268
 11
-11.04292389
 21
13.4947691883
  0
LINE
  5
228
100
AcDbEntity
  8
0
100
AcDbLine
 62
7
  6
CONTINUOUS
 10
-10.9045114984
 20
13.5352006242
 11
-10.7600811775
 21
13.6361905446
  0
LINE
  5
229
100
AcDbEntity
  8
0
100
AcDbLine
 62
7
  6
CONTINUOUS
 10
-12.5413885136
 20
14.8732543741
 11
-12.8242312261
 21
14.7318330179
  0
LINE
  5
22A
100
AcDbEntity
  8
0
100
AcDbLine
 62
7
  6
CONTINUOUS
 10
-11.2415155749
 20
15.4934889375
 11
-11.5243582874
 21
15.3520675812
  0
LINE
  5
22B
100
AcDbEntity
  8
0
100
AcDbLine
 62
7
  6
CONTINUOUS
 10
-11.0970852709
 20
15.363538318
 11
-11.3799279833
 21
15.2221169618
  0
LINE
  5
22C
100
AcDbEntity
  8
0
100
AcDbLine
 62
7
  6
CONTINUOUS
 10
-12.4451016443
 20
14.6519058587
 11
-12.7279443567
 21
14.5104845024
  0
LINE
  5
22D
100
AcDbEntity
  8
0
100
AcDbLine
 62
7
  6
CONTINUOUS
 10
-10.9045114984
 20
15.1517818185
 11
-11.1873542109
 21
15.0103604622
  0
LINE
  5
22E
100
AcDbEntity
  8
0
100
AcDbLine
 62
7
  6
CONTINUOUS
 10
-12.1562409013
 20
14.2765355998
 11
-12.4390836138
 21
14.1351142435
  0
LINE
  5
22F
100
AcDbEntity
  8
0
100
AcDbLine
 62
7
  6
CONTINUOUS
 10
-10.7600811775
 20
14.9063615773
 11
-11.04292389
 21
14.764940221
  0
LINE
  5
230
100
AcDbEntity
  8
0
100
AcDbLine
 62
7
  6
CONTINUOUS
 10
-11.8673802932
 20
14.0743698283
 11
-12.1502230057
 21
13.9329484721
  0
LINE
  5
231
100
AcDbEntity
  8
0
100
AcDbLine
 62
7
  6
CONTINUOUS
 10
-10.6156508608
 20
14.5454704033
 11
-10.8984935733
 21
14.4040490471
  0
LINE
  5
232
100
AcDbEntity
  8
0
100
AcDbLine
 62
7
  6
CONTINUOUS
 10
-12.4932450789
 20
13.5212768174
 11
-12.7760877914
 21
13.3798554612
  0
LINE
  5
233
100
AcDbEntity
  8
0
100
AcDbLine
 62
7
  6
CONTINUOUS
 10
-11.5303762504
 20
13.9058678069
 11
-11.8132189629
 21
13.7644464507
  0
LINE
  5
234
100
AcDbEntity
  8
0
100
AcDbLine
 62
7
  6
CONTINUOUS
 10
-12.3006713402
 20
13.4827254154
 11
-12.5835140527
 21
13.3413040592
  0
LINE
  5
235
100
AcDbEntity
  8
0
100
AcDbLine
 62
7
  6
CONTINUOUS
 10
-12.204384336
 20
13.4345819133
 11
-12.4872270485
 21
13.2931605571
  0
LINE
  5
236
100
AcDbEntity
  8
0
100
AcDbLine
 62
7
  6
CONTINUOUS
 10
-10.5675074219
 20
14.1749885224
 11
-10.8503501344
 21
14.0335671661
  0
LINE
  5
237
100
AcDbEntity
  8
0
100
AcDbLine
 62
7
  6
CONTINUOUS
 10
-11.2415155749
 20
13.8191729366
 11
-11.5243582874
 21
13.6777515803
  0
LINE
  5
238
100
AcDbEntity
  8
DRAFT
100
AcDbLine
 62
7
  6
CONTINUOUS
 10
-6.6175827711
 20
17.3837921603
 11
-7.7390802972
 21
16.8252623762
  0
LINE
  5
239
100
AcDbEntity
  8
0
100
AcDbLine
 62
7
  6
CONTINUOUS
 10
-12.7279443567
 20
15.4342453736
 11
-12.4390836138
 21
15.5207542289
  0
LINE
  5
23A
100
AcDbEntity
  8
DRAFT
100
AcDbLine
 62
7
  6
CONTINUOUS
 10
-12.971670478
 20
-12.7049734933
 11
-8.0268600476
 21
-15.1773787085
  0
LINE
  5
23B
100
AcDbEntity
  8
DRAFT
100
AcDbLine
 62
7
  6
CONTINUOUS
 10
-0.9459181599
 20
-18.7178496524
 11
3.9988922705
 21
-21.1902548676
  0
LINE
  5
23C
100
AcDbEntity
  8
0
100
AcDbLine
 62
7
  6
CONTINUOUS
 10
-13.0649483995
 20
15.4872764602
 11
-13.1130918342
 21
15.164938016
  0
LINE
  5
23D
100
AcDbEntity
  8
0
100
AcDbLine
 62
7
  6
CONTINUOUS
 10
-12.8723746608
 20
15.0445794293
 11
-12.8242312261
 21
15.3091837276
  0
LINE
  5
23E
100
AcDbEntity
  8
0
100
AcDbLine
 62
7
  6
CONTINUOUS
 10
-12.8723746608
 20
10.1371023615
 11
-12.8242312261
 21
10.2862357249
  0
LINE
  5
23F
100
AcDbEntity
  8
0
100
AcDbLine
 62
7
  6
CONTINUOUS
 10
-11.9095058323
 20
12.8888296749
 11
-12.0057927016
 21
12.6482977548
  0
LINE
  5
240
100
AcDbEntity
  8
0
100
AcDbLine
 62
7
  6
CONTINUOUS
 10
-12.9205180955
 20
10.6807893211
 11
-13.0649483995
 21
10.464329779
  0
LINE
  5
241
100
AcDbEntity
  8
0
100
AcDbLine
 62
7
  6
CONTINUOUS
 10
-11.04292389
 20
13.4947691883
 11
-10.8984935733
 21
13.7112293848
  0
LINE
  5
242
100
AcDbEntity
  8
0
100
AcDbLine
 62
7
  6
CONTINUOUS
 10
-10.7600811775
 20
13.6361905446
 11
-10.6156508608
 21
13.852650741
  0
LINE
  5
243
100
AcDbEntity
  8
0
100
AcDbLine
 62
7
  6
CONTINUOUS
 10
-11.8613623976
 20
12.4606129894
 11
-11.7650755282
 21
12.5856746355
  0
LINE
  5
244
100
AcDbEntity
  8
0
100
AcDbLine
 62
7
  6
CONTINUOUS
 10
-12.8242312261
 20
10.2862357249
 11
-12.7279443567
 21
10.411297371
  0
LINE
  5
245
100
AcDbEntity
  8
0
100
AcDbLine
 62
7
  6
CONTINUOUS
 10
-12.5413885136
 20
10.4276570811
 11
-12.5251838746
 21
10.4487043833
  0
LINE
  5
246
100
AcDbEntity
  8
RACCORDO
100
AcDbLine
 62
7
  6
CONTINUOUS
 10
-1.5230749298
 20
18.7358528461
 11
-3.1428862195
 21
17.8729049921
  0
LINE
  5
247
100
AcDbEntity
  8
DRAFT
100
AcDbLine
 62
7
  6
CONTINUOUS
 10
-0.8647200102
 20
17.2569155026
 11
-1.3712275699
 21
16.9870756673
  0
LINE
  5
248
100
AcDbEntity
  8
DRAFT
100
AcDbLine
 62
7
  6
CONTINUOUS
 10
-7.7390802972
 20
15.3670623878
 11
-6.6175827711
 21
15.9618709221
  0
LINE
  5
249
100
AcDbEntity
  8
DRAFT
100
AcDbLine
 62
7
  6
CONTINUOUS
 10
-4.579502189
 20
15.5591916631
 11
-5.1934958849
 21
15.249827479
  0
LINE
  5
24A
100
AcDbEntity
  8
0
100
AcDbLine
 62
7
  6
CONTINUOUS
 10
-12.5413885136
 20
13.0257332925
 11
-12.8242312261
 21
12.8843119362
  0
LINE
  5
24B
100
AcDbEntity
  8
0
100
AcDbLine
 62
7
  6
CONTINUOUS
 10
-12.0118105973
 20
13.2805595766
 11
-12.2946533097
 21
13.1391382203
  0
LINE
  5
24C
100
AcDbEntity
  8
0
100
AcDbLine
 62
7
  6
CONTINUOUS
 10
-10.6156508608
 20
13.852650741
 11
-10.8984935733
 21
13.7112293848
  0
LINE
  5
24D
100
AcDbEntity
  8
0
100
AcDbLine
 62
7
  6
CONTINUOUS
 10
-12.5895319483
 20
12.7611303157
 11
-12.8723746608
 21
12.6197089595
  0
LINE
  5
24E
100
AcDbEntity
  8
0
100
AcDbLine
 62
7
  6
CONTINUOUS
 10
-11.8673802932
 20
13.0928748112
 11
-12.1502230057
 21
12.9514534549
  0
LINE
  5
24F
100
AcDbEntity
  8
0
100
AcDbLine
 62
7
  6
CONTINUOUS
 10
-10.7600811775
 20
13.6361905446
 11
-11.04292389
 21
13.4947691883
  0
LINE
  5
250
100
AcDbEntity
  8
0
100
AcDbLine
 62
7
  6
CONTINUOUS
 10
-10.9045114984
 20
13.5352006242
 11
-11.1873542109
 21
13.393779268
  0
LINE
  5
251
100
AcDbEntity
  8
0
100
AcDbLine
 62
7
  6
CONTINUOUS
 10
-11.6266631198
 20
13.0302510312
 11
-11.9095058323
 21
12.8888296749
  0
LINE
  5
252
100
AcDbEntity
  8
0
100
AcDbLine
 62
7
  6
CONTINUOUS
 10
-12.5895319483
 20
12.5301897675
 11
-12.8723746608
 21
12.3887684113
  0
LINE
  5
253
100
AcDbEntity
  8
0
100
AcDbLine
 62
7
  6
CONTINUOUS
 10
-11.4822328157
 20
13.0735061532
 11
-11.7650755282
 21
12.932084797
  0
LINE
  5
254
100
AcDbEntity
  8
0
100
AcDbLine
 62
7
  6
CONTINUOUS
 10
-11.2896590096
 20
13.0349540568
 11
-11.5725017221
 21
12.8935327006
  0
LINE
  5
255
100
AcDbEntity
  8
0
100
AcDbLine
 62
7
  6
CONTINUOUS
 10
-12.5413885136
 20
12.2174433561
 11
-12.8242312261
 21
12.0760219999
  0
LINE
  5
256
100
AcDbEntity
  8
0
100
AcDbLine
 62
7
  6
CONTINUOUS
 10
-11.0970852709
 20
12.9386671874
 11
-11.3799279833
 21
12.7972458312
  0
LINE
  5
257
100
AcDbEntity
  8
0
100
AcDbLine
 62
7
  6
CONTINUOUS
 10
-11.5785196851
 20
12.6020343456
 11
-11.8613623976
 21
12.4606129894
  0
LINE
  5
258
100
AcDbEntity
  8
0
100
AcDbLine
 62
7
  6
CONTINUOUS
 10
-10.9526549331
 20
12.8087172119
 11
-11.2354976456
 21
12.6672958556
  0
LINE
  5
259
100
AcDbEntity
  8
0
100
AcDbLine
 62
7
  6
CONTINUOUS
 10
-12.4451016443
 20
11.9960948407
 11
-12.7279443567
 21
11.8546734844
  0
LINE
  5
25A
100
AcDbEntity
  8
0
100
AcDbLine
 62
7
  6
CONTINUOUS
 10
-11.6266631198
 20
12.2796959014
 11
-11.9095058323
 21
12.1382745452
  0
LINE
  5
25B
100
AcDbEntity
  8
0
100
AcDbLine
 62
7
  6
CONTINUOUS
 10
-10.808224629
 20
12.6210317858
 11
-11.0910673415
 21
12.4796104295
  0
LINE
  5
25C
100
AcDbEntity
  8
0
100
AcDbLine
 62
7
  6
CONTINUOUS
 10
-12.3006713402
 20
11.8084094146
 11
-12.5835140527
 21
11.6669880583
  0
LINE
  5
25D
100
AcDbEntity
  8
0
100
AcDbLine
 62
7
  6
CONTINUOUS
 10
-11.6266631198
 20
12.0487553533
 11
-11.9095058323
 21
11.9073339971
  0
LINE
  5
25E
100
AcDbEntity
  8
0
100
AcDbLine
 62
7
  6
CONTINUOUS
 10
-10.7119377428
 20
12.3996832619
 11
-10.9947804553
 21
12.2582619057
  0
LINE
  5
25F
100
AcDbEntity
  8
0
100
AcDbLine
 62
7
  6
CONTINUOUS
 10
-12.3006713402
 20
11.5197340597
 11
-12.5835140527
 21
11.3783127035
  0
LINE
  5
260
100
AcDbEntity
  8
DRAFT
100
AcDbLine
 62
7
  6
CONTINUOUS
 10
-4.7759469235
 20
15.6574140303
 11
-5.4316180033
 21
15.3688885382
  0
LINE
  5
261
100
AcDbEntity
  8
RACCORDO
100
AcDbLine
 62
253
  6
CONTINUOUS
 10
-5.5242131868
 20
15.7719373063
 11
-5.245029363
 21
15.8919552501
  0
LINE
  5
262
100
AcDbEntity
  8
0
100
AcDbLine
 62
7
  6
CONTINUOUS
 10
-11.1787471833
 20
13.8379711582
 11
-11.2415155749
 21
13.8191729366
  0
LINE
  5
263
100
AcDbEntity
  8
0
100
AcDbLine
 62
7
  6
CONTINUOUS
 10
-11.2354976456
 20
13.7642611469
 11
-11.5243582874
 21
13.6777515803
  0
LINE
  5
264
100
AcDbEntity
  8
0
100
AcDbLine
 62
7
  6
CONTINUOUS
 10
-12.7279443567
 20
13.0093735823
 11
-12.5835140527
 21
13.0526287044
  0
LINE
  5
265
100
AcDbEntity
  8
0
100
AcDbLine
 62
7
  6
CONTINUOUS
 10
-11.4822328157
 20
13.0735061532
 11
-11.6266631198
 21
13.0302510312
  0
LINE
  5
266
100
AcDbEntity
  8
0
100
AcDbLine
 62
7
  6
CONTINUOUS
 10
-11.7650755282
 20
12.932084797
 11
-11.9095058323
 21
12.8888296749
  0
LINE
  5
267
100
AcDbEntity
  8
DRAFT
100
AcDbLine
 62
7
  6
CONTINUOUS
 10
-5.8685143636
 20
-15.0974651536
 11
-3.1042638438
 21
-16.4795904135
  0
LINE
  5
268
100
AcDbEntity
  8
DRAFT
100
AcDbLine
 62
7
  6
CONTINUOUS
 10
-6.6224196922
 20
-14.4714319357
 11
-5.8685143636
 21
-14.8483846
  0
LINE
  5
269
100
AcDbEntity
  8
DRAFT
100
AcDbLine
 62
7
  6
CONTINUOUS
 10
-2.8502951322
 20
-16.3574942157
 11
-0.9459181599
 21
-17.3096827019
  0
LINE
  5
26A
100
AcDbEntity
  8
DRAFT
100
AcDbLine
 62
7
  6
CONTINUOUS
 10
-0.9459181599
 20
-17.259649664
 11
-3.1042638438
 21
-16.180476822
  0
LINE
  5
26B
100
AcDbEntity
  8
DRAFT
100
AcDbLine
 62
7
  6
CONTINUOUS
 10
-5.8685143636
 20
-14.7983515621
 11
-8.0268600476
 21
-13.7191787201
  0
LINE
  5
26C
100
AcDbEntity
  8
0
100
AcDbLine
 62
7
  6
CONTINUOUS
 10
-13.4222318479
 20
-9.1017041334
 11
-11.6701697365
 21
-10.5901277328
  0
LINE
  5
26D
100
AcDbEntity
  8
0
100
AcDbLine
 62
7
  6
CONTINUOUS
 10
-10.8768539108
 20
-10.726176085
 11
-13.4222318479
 21
-8.45141605
  0
LINE
  5
26E
100
AcDbEntity
  8
DRAFT
100
AcDbLine
 62
7
  6
CONTINUOUS
 10
-14.3809470024
 20
18.1313022087
 11
-14.3809470024
 21
-10.2743310354
  0
LINE
  5
26F
100
AcDbEntity
  8
0
100
AcDbLine
 62
7
  6
CONTINUOUS
 10
-13.4223845829
 20
-7.5591204743
 11
-13.4223845829
 21
-8.2098519627
  0
LINE
  5
270
100
AcDbEntity
  8
0
100
AcDbLine
 62
7
  6
CONTINUOUS
 10
-13.4222318479
 20
-2.3377512812
 11
-13.4222318479
 21
-2.9672564869
  0
LINE
  5
271
100
AcDbEntity
  8
0
100
AcDbLine
 62
7
  6
CONTINUOUS
 10
-13.4222318479
 20
-4.338782651
 11
-13.4222318479
 21
-4.9826171131
  0
LINE
  5
272
100
AcDbEntity
  8
0
100
AcDbLine
 62
7
  6
CONTINUOUS
 10
-13.4222318479
 20
-6.2772073123
 11
-13.4222318479
 21
-6.9274018649
  0
LINE
  5
273
100
AcDbEntity
  8
0
100
AcDbLine
 62
7
  6
CONTINUOUS
 10
-13.4222318479
 20
-8.45141605
 11
-13.4222318479
 21
-9.1017041334
  0
LINE
  5
274
100
AcDbEntity
  8
0
100
AcDbLine
 62
7
  6
CONTINUOUS
 10
-13.4222318479
 20
-10.3083373285
 11
-13.4222318479
 21
-11.0152322964
  0
LINE
  5
275
100
AcDbEntity
  8
0
100
AcDbLine
 62
7
  6
CONTINUOUS
 10
-13.0649483995
 20
13.0624059903
 11
-13.1130918342
 21
12.6823320788
  0
LINE
  5
276
100
AcDbEntity
  8
0
100
AcDbLine
 62
7
  6
CONTINUOUS
 10
-13.0649483995
 20
7.8662532373
 11
-13.1130918342
 21
7.5439147931
  0
LINE
  5
277
100
AcDbEntity
  8
0
100
AcDbLine
 62
7
  6
CONTINUOUS
 10
-13.0649483995
 20
5.325912163
 11
-13.1130918342
 21
5.0035737188
  0
LINE
  5
278
100
AcDbEntity
  8
0
100
AcDbLine
 62
7
  6
CONTINUOUS
 10
-11.9095058323
 20
12.1382745452
 11
-11.8613623976
 21
12.4606129894
  0
LINE
  5
279
100
AcDbEntity
  8
0
100
AcDbLine
 62
7
  6
CONTINUOUS
 10
-12.5895319483
 20
15.1860007856
 11
-12.5413885136
 21
15.4506050838
  0
LINE
  5
27A
100
AcDbEntity
  8
0
100
AcDbLine
 62
7
  6
CONTINUOUS
 10
-12.8723746608
 20
12.6197089595
 11
-12.8242312261
 21
12.8843119362
  0
LINE
  5
27B
100
AcDbEntity
  8
0
100
AcDbLine
 62
7
  6
CONTINUOUS
 10
-13.0649483995
 20
10.464329779
 11
-13.1130918342
 21
10.1997261415
  0
LINE
  5
27C
100
AcDbEntity
  8
0
100
AcDbLine
 62
7
  6
CONTINUOUS
 10
-12.5895319483
 20
12.7611303157
 11
-12.5413885136
 21
13.0257332925
  0
LINE
  5
27D
100
AcDbEntity
  8
0
100
AcDbLine
 62
7
  6
CONTINUOUS
 10
-12.8723746608
 20
7.4235562064
 11
-12.8242312261
 21
7.6881598439
  0
LINE
  5
27E
100
AcDbEntity
  8
0
100
AcDbLine
 62
7
  6
CONTINUOUS
 10
-12.5895319483
 20
7.5649775626
 11
-12.5413885136
 21
7.8295812001
  0
LINE
  5
27F
100
AcDbEntity
  8
0
100
AcDbLine
 62
7
  6
CONTINUOUS
 10
-12.8723746608
 20
4.8832151321
 11
-12.8242312261
 21
5.1478185218
  0
LINE
  5
280
100
AcDbEntity
  8
0
100
AcDbLine
 62
7
  6
CONTINUOUS
 10
-11.0910673415
 20
14.1539257697
 11
-11.1392107762
 21
13.8893227929
  0
LINE
  5
281
100
AcDbEntity
  8
0
100
AcDbLine
 62
7
  6
CONTINUOUS
 10
-12.5895319483
 20
10.2785237177
 11
-12.5413885136
 21
10.4276570811
  0
LINE
  5
282
100
AcDbEntity
  8
0
100
AcDbLine
 62
7
  6
CONTINUOUS
 10
-11.9095058323
 20
9.251522979
 11
-11.957649267
 21
9.1023896156
  0
LINE
  5
283
100
AcDbEntity
  8
0
100
AcDbLine
 62
7
  6
CONTINUOUS
 10
-11.1392107762
 20
11.1757763075
 11
-11.1873542109
 21
11.0843784115
  0
LINE
  5
284
100
AcDbEntity
  8
0
100
AcDbLine
 62
7
  6
CONTINUOUS
 10
-10.9947804553
 20
10.8726212596
 11
-10.8984935733
 21
11.055417706
  0
LINE
  5
285
100
AcDbEntity
  8
0
100
AcDbLine
 62
7
  6
CONTINUOUS
 10
-10.7119377428
 20
11.0140426159
 11
-10.6156508608
 21
11.1968390623
  0
LINE
  5
286
100
AcDbEntity
  8
0
100
AcDbLine
 62
7
  6
CONTINUOUS
 10
-12.9205180955
 20
8.0827134401
 11
-13.0649483995
 21
7.8662532373
  0
LINE
  5
287
100
AcDbEntity
  8
0
100
AcDbLine
 62
7
  6
CONTINUOUS
 10
-11.8613623976
 20
8.7078360194
 11
-11.7169320935
 21
8.9242962222
  0
LINE
  5
288
100
AcDbEntity
  8
0
100
AcDbLine
 62
7
  6
CONTINUOUS
 10
-11.5785196851
 20
8.8492573756
 11
-11.4340893811
 21
9.0657175785
  0
LINE
  5
289
100
AcDbEntity
  8
0
100
AcDbLine
 62
7
  6
CONTINUOUS
 10
-12.9205180955
 20
5.5423722006
 11
-13.0649483995
 21
5.325912163
  0
LINE
  5
28A
100
AcDbEntity
  8
0
100
AcDbLine
 62
7
  6
CONTINUOUS
 10
-11.04292389
 20
8.3563519026
 11
-10.8984935733
 21
8.5728117688
  0
LINE
  5
28B
100
AcDbEntity
  8
0
100
AcDbLine
 62
7
  6
CONTINUOUS
 10
-10.7600811775
 20
8.4977732589
 11
-10.6156508608
 21
8.714233125
  0
LINE
  5
28C
100
AcDbEntity
  8
0
100
AcDbLine
 62
7
  6
CONTINUOUS
 10
-11.0910673415
 20
10.747559622
 11
-10.9947804553
 21
10.8726212596
  0
LINE
  5
28D
100
AcDbEntity
  8
0
100
AcDbLine
 62
7
  6
CONTINUOUS
 10
-10.808224629
 20
10.8889809782
 11
-10.7119377428
 21
11.0140426159
  0
LINE
  5
28E
100
AcDbEntity
  8
0
100
AcDbLine
 62
7
  6
CONTINUOUS
 10
-11.957649267
 20
9.1023896156
 11
-12.0539361363
 21
8.9773279695
  0
LINE
  5
28F
100
AcDbEntity
  8
0
100
AcDbLine
 62
7
  6
CONTINUOUS
 10
-12.8242312261
 20
7.6881598439
 11
-12.7279443567
 21
7.81322149
  0
LINE
  5
290
100
AcDbEntity
  8
0
100
AcDbLine
 62
7
  6
CONTINUOUS
 10
-12.5413885136
 20
7.8295812001
 11
-12.5018521699
 21
7.8809327527
  0
LINE
  5
291
100
AcDbEntity
  8
0
100
AcDbLine
 62
7
  6
CONTINUOUS
 10
-11.1392107762
 20
8.7509051769
 11
-11.2354976456
 21
8.6258435308
  0
LINE
  5
292
100
AcDbEntity
  8
0
100
AcDbLine
 62
7
  6
CONTINUOUS
 10
-11.1873542109
 20
11.0843784115
 11
-11.283641114
 21
11.017051589
  0
LINE
  5
293
100
AcDbEntity
  8
0
100
AcDbLine
 62
7
  6
CONTINUOUS
 10
-12.7760877914
 20
8.1837033688
 11
-12.9205180955
 21
8.0827134401
  0
LINE
  5
294
100
AcDbEntity
  8
DRAFT
100
AcDbLine
 62
7
  6
CONTINUOUS
 10
-5.5881399821
 20
14.5876822855
 11
-4.1406619812
 21
15.3397715592
  0
LINE
  5
295
100
AcDbEntity
  8
0
100
AcDbLine
 62
7
  6
CONTINUOUS
 10
-10.6156508608
 20
12.1205999335
 11
-10.8984935733
 21
11.9791785772
  0
LINE
  5
296
100
AcDbEntity
  8
0
100
AcDbLine
 62
7
  6
CONTINUOUS
 10
-10.5675074219
 20
11.8655876659
 11
-10.8503501344
 21
11.7241663096
  0
LINE
  5
297
100
AcDbEntity
  8
0
100
AcDbLine
 62
7
  6
CONTINUOUS
 10
-12.637675383
 20
10.8222106773
 11
-12.9205180955
 21
10.6807893211
  0
LINE
  5
298
100
AcDbEntity
  8
0
100
AcDbLine
 62
7
  6
CONTINUOUS
 10
-12.4451016443
 20
10.8991288887
 11
-12.7279443567
 21
10.7577075325
  0
LINE
  5
299
100
AcDbEntity
  8
0
100
AcDbLine
 62
7
  6
CONTINUOUS
 10
-12.204384336
 20
10.8942405086
 11
-12.4872270485
 21
10.7528191524
  0
LINE
  5
29A
100
AcDbEntity
  8
0
100
AcDbLine
 62
7
  6
CONTINUOUS
 10
-11.8673802932
 20
10.7834732939
 11
-12.1502230057
 21
10.6420519377
  0
LINE
  5
29B
100
AcDbEntity
  8
0
100
AcDbLine
 62
7
  6
CONTINUOUS
 10
-12.5413885136
 20
10.4276570811
 11
-12.8242312261
 21
10.2862357249
  0
LINE
  5
29C
100
AcDbEntity
  8
0
100
AcDbLine
 62
7
  6
CONTINUOUS
 10
-11.1951016876
 20
11.0998733648
 11
-11.3799279833
 21
11.007460217
  0
LINE
  5
29D
100
AcDbEntity
  8
0
100
AcDbLine
 62
7
  6
CONTINUOUS
 10
-10.5675074219
 20
11.403707891
 11
-10.8503501344
 21
11.2622865348
  0
LINE
  5
29E
100
AcDbEntity
  8
0
100
AcDbLine
 62
7
  6
CONTINUOUS
 10
-12.5895319483
 20
10.2785237177
 11
-12.8723746608
 21
10.1371023615
  0
LINE
  5
29F
100
AcDbEntity
  8
0
100
AcDbLine
 62
7
  6
CONTINUOUS
 10
-10.6156508608
 20
11.1968390623
 11
-10.8984935733
 21
11.055417706
  0
LINE
  5
2A0
100
AcDbEntity
  8
0
100
AcDbLine
 62
7
  6
CONTINUOUS
 10
-11.5303762504
 20
10.6149712726
 11
-11.8132189629
 21
10.4735499163
  0
LINE
  5
2A1
100
AcDbEntity
  8
0
100
AcDbLine
 62
7
  6
CONTINUOUS
 10
-10.7119377428
 20
11.0140426159
 11
-10.9947804553
 21
10.8726212596
  0
LINE
  5
2A2
100
AcDbEntity
  8
0
100
AcDbLine
 62
7
  6
CONTINUOUS
 10
-10.808224629
 20
10.8889809782
 11
-11.0910673415
 21
10.747559622
  0
LINE
  5
2A3
100
AcDbEntity
  8
0
100
AcDbLine
 62
7
  6
CONTINUOUS
 10
-12.5895319483
 20
9.8743787495
 11
-12.8723746608
 21
9.7329573933
  0
LINE
  5
2A4
100
AcDbEntity
  8
0
100
AcDbLine
 62
7
  6
CONTINUOUS
 10
-11.1933721402
 20
10.3887344108
 11
-11.4762148527
 21
10.2473130545
  0
LINE
  5
2A5
100
AcDbEntity
  8
0
100
AcDbLine
 62
7
  6
CONTINUOUS
 10
-12.5413885136
 20
9.6771019514
 11
-12.8242312261
 21
9.5356805952
  0
LINE
  5
2A6
100
AcDbEntity
  8
0
100
AcDbLine
 62
7
  6
CONTINUOUS
 10
-12.4451016443
 20
9.455753436
 11
-12.7279443567
 21
9.3143320797
  0
LINE
  5
2A7
100
AcDbEntity
  8
0
100
AcDbLine
 62
7
  6
CONTINUOUS
 10
-11.455702126
 20
9.9209366098
 11
-11.7169320935
 21
9.790321626
  0
LINE
  5
2A8
100
AcDbEntity
  8
0
100
AcDbLine
 62
7
  6
CONTINUOUS
 10
-10.9526549331
 20
10.1529055331
 11
-11.2354976456
 21
10.0114841769
  0
LINE
  5
2A9
100
AcDbEntity
  8
0
100
AcDbLine
 62
7
  6
CONTINUOUS
 10
-12.4451016443
 20
10.8991288887
 11
-12.637675383
 21
10.8222106773
  0
LINE
  5
2AA
100
AcDbEntity
  8
0
100
AcDbLine
 62
7
  6
CONTINUOUS
 10
-12.7279443567
 20
10.7577075325
 11
-12.9205180955
 21
10.6807893211
  0
LINE
  5
2AB
100
AcDbEntity
  8
0
100
AcDbLine
 62
7
  6
CONTINUOUS
 10
3.0110490538
 20
-14.1872147299
 11
3.2036228263
 21
-14.1680316724
  0
LINE
  5
2AC
100
AcDbEntity
  8
0
100
AcDbLine
 62
7
  6
CONTINUOUS
 10
3.2036228263
 20
-13.8216213457
 11
3.0110490538
 21
-13.8408047336
  0
LINE
  5
2AD
100
AcDbEntity
  8
0
100
AcDbLine
 62
7
  6
CONTINUOUS
 10
1.8556064191
 20
-14.071373683
 11
1.6630326804
 21
-14.0328217855
  0
LINE
  5
2AE
100
AcDbEntity
  8
0
100
AcDbLine
 62
7
  6
CONTINUOUS
 10
0.6047797208
 20
-16.4681562913
 11
4.8474204079
 21
-18.5894766349
  0
LINE
  5
2AF
100
AcDbEntity
  8
0
100
AcDbLine
 62
7
  6
CONTINUOUS
 10
0.6189218565
 20
-16.4610852235
 11
4.8530772622
 21
-18.5781629264
  0
LINE
  5
2B0
100
AcDbEntity
  8
0
100
AcDbLine
 62
7
  6
CONTINUOUS
 10
3.3480531303
 20
-16.8960580076
 11
3.5887703374
 21
-17.0164166112
  0
LINE
  5
2B1
100
AcDbEntity
  8
0
100
AcDbLine
 62
7
  6
CONTINUOUS
 10
-13.4223845829
 20
-8.2098519627
 11
-10.8768539108
 21
-9.4826172988
  0
LINE
  5
2B2
100
AcDbEntity
  8
0
100
AcDbLine
 62
7
  6
CONTINUOUS
 10
-10.5940111983
 20
-10.5847547288
 11
-13.0343426076
 21
-8.4038729503
  0
LINE
  5
2B3
100
AcDbEntity
  8
0
100
AcDbLine
 62
7
  6
CONTINUOUS
 10
-13.1130918342
 20
12.6823320788
 11
-13.1130918342
 21
12.5668624654
  0
LINE
  5
2B4
100
AcDbEntity
  8
0
100
AcDbLine
 62
7
  6
CONTINUOUS
 10
-13.1130918342
 20
10.1997261415
 11
-13.1130918342
 21
9.9110507867
  0
LINE
  5
2B5
100
AcDbEntity
  8
0
100
AcDbLine
 62
7
  6
CONTINUOUS
 10
-12.8723746608
 20
9.7329573933
 11
-12.8723746608
 21
10.1371023615
  0
LINE
  5
2B6
100
AcDbEntity
  8
0
100
AcDbLine
 62
7
  6
CONTINUOUS
 10
-12.8723746608
 20
12.3887684113
 11
-12.8723746608
 21
12.6197089595
  0
LINE
  5
2B7
100
AcDbEntity
  8
0
100
AcDbLine
 62
7
  6
CONTINUOUS
 10
-12.5895319483
 20
9.8743787495
 11
-12.5895319483
 21
10.2785237177
  0
LINE
  5
2B8
100
AcDbEntity
  8
0
100
AcDbLine
 62
7
  6
CONTINUOUS
 10
-12.5895319483
 20
12.5301897675
 11
-12.5895319483
 21
12.7611303157
  0
LINE
  5
2B9
100
AcDbEntity
  8
0
100
AcDbLine
 62
7
  6
CONTINUOUS
 10
-12.5835140527
 20
11.3783127035
 11
-12.5835140527
 21
11.6669880583
  0
LINE
  5
2BA
100
AcDbEntity
  8
0
100
AcDbLine
 62
7
  6
CONTINUOUS
 10
-12.3006713402
 20
11.5197340597
 11
-12.3006713402
 21
11.8084094146
  0
LINE
  5
2BB
100
AcDbEntity
  8
0
100
AcDbLine
 62
7
  6
CONTINUOUS
 10
-12.2898453456
 20
-0.7579290423
 11
-12.2898453456
 21
-1.1298157359
  0
LINE
  5
2BC
100
AcDbEntity
  8
0
100
AcDbLine
 62
7
  6
CONTINUOUS
 10
-12.102079571
 20
12.2345614146
 11
-12.102079571
 21
12.0036208664
  0
LINE
  5
2BD
100
AcDbEntity
  8
0
100
AcDbLine
 62
7
  6
CONTINUOUS
 10
-11.9095058323
 20
9.6556679472
 11
-11.9095058323
 21
9.251522979
  0
LINE
  5
2BE
100
AcDbEntity
  8
0
100
AcDbLine
 62
7
  6
CONTINUOUS
 10
-11.9095058323
 20
11.9073339971
 11
-11.9095058323
 21
12.1382745452
  0
LINE
  5
2BF
100
AcDbEntity
  8
0
100
AcDbLine
 62
7
  6
CONTINUOUS
 10
-11.8729739834
 20
-1.3166741341
 11
-11.8729739834
 21
-0.9677673637
  0
LINE
  5
2C0
100
AcDbEntity
  8
0
100
AcDbLine
 62
7
  6
CONTINUOUS
 10
-11.778204339
 20
-3.1877255318
 11
-11.778204339
 21
-3.8107545996
  0
LINE
  5
2C1
100
AcDbEntity
  8
0
100
AcDbLine
 62
7
  6
CONTINUOUS
 10
-11.6687885914
 20
9.1888991653
 11
-11.6687885914
 21
9.4775745201
  0
LINE
  5
2C2
100
AcDbEntity
  8
0
100
AcDbLine
 62
7
  6
CONTINUOUS
 10
-11.6266631198
 20
12.0487553533
 11
-11.6266631198
 21
12.2796959014
  0
LINE
  5
2C3
100
AcDbEntity
  8
0
100
AcDbLine
 62
7
  6
CONTINUOUS
 10
-11.5901312709
 20
-1.1752527778
 11
-11.5901312709
 21
-0.8263460074
  0
LINE
  5
2C4
100
AcDbEntity
  8
0
100
AcDbLine
 62
7
  6
CONTINUOUS
 10
-11.6266631198
 20
12.2796959014
 11
-11.5785196851
 21
12.6020343456
  0
LINE
  5
2C5
100
AcDbEntity
  8
0
100
AcDbLine
 62
7
  6
CONTINUOUS
 10
-10.8984935733
 20
13.7112293848
 11
-10.8503501344
 21
14.0335671661
  0
LINE
  5
2C6
100
AcDbEntity
  8
0
100
AcDbLine
 62
7
  6
CONTINUOUS
 10
-10.6156508608
 20
13.852650741
 11
-10.5675074219
 21
14.1749885224
  0
LINE
  5
2C7
100
AcDbEntity
  8
0
100
AcDbLine
 62
7
  6
CONTINUOUS
 10
-10.8984935733
 20
6.0902055011
 11
-10.8503501344
 21
6.4125439432
  0
LINE
  5
2C8
100
AcDbEntity
  8
0
100
AcDbLine
 62
7
  6
CONTINUOUS
 10
-12.5895319483
 20
5.0246364883
 11
-12.5413885136
 21
5.289239878
  0
LINE
  5
2C9
100
AcDbEntity
  8
0
100
AcDbLine
 62
7
  6
CONTINUOUS
 10
-11.7169320935
 20
8.9242962222
 11
-11.6687885914
 21
9.1888991653
  0
LINE
  5
2CA
100
AcDbEntity
  8
0
100
AcDbLine
 62
7
  6
CONTINUOUS
 10
-11.0910673415
 20
11.440379945
 11
-11.1392107762
 21
11.1757763075
  0
LINE
  5
2CB
100
AcDbEntity
  8
0
100
AcDbLine
 62
7
  6
CONTINUOUS
 10
-11.4340893811
 20
9.0657175785
 11
-11.3859458789
 21
9.3303205215
  0
LINE
  5
2CC
100
AcDbEntity
  8
0
100
AcDbLine
 62
7
  6
CONTINUOUS
 10
-10.8984935733
 20
8.5728117688
 11
-10.8503501344
 21
8.8374154042
  0
LINE
  5
2CD
100
AcDbEntity
  8
0
100
AcDbLine
 62
7
  6
CONTINUOUS
 10
-11.0910673415
 20
6.5329025468
 11
-11.1392107762
 21
6.2682992396
  0
LINE
  5
2CE
100
AcDbEntity
  8
0
100
AcDbLine
 62
7
  6
CONTINUOUS
 10
-10.6156508608
 20
8.714233125
 11
-10.5675074219
 21
8.9788367604
  0
LINE
  5
2CF
100
AcDbEntity
  8
0
100
AcDbLine
 62
7
  6
CONTINUOUS
 10
-10.8984935733
 20
11.055417706
 11
-10.8503501344
 21
11.2622865348
  0
LINE
  5
2D0
100
AcDbEntity
  8
0
100
AcDbLine
 62
7
  6
CONTINUOUS
 10
-10.6156508608
 20
11.1968390623
 11
-10.5675074219
 21
11.403707891
  0
LINE
  5
2D1
100
AcDbEntity
  8
0
100
AcDbLine
 62
7
  6
CONTINUOUS
 10
-11.0910673415
 20
8.9000385403
 11
-11.1392107762
 21
8.7509051769
  0
LINE
  5
2D2
100
AcDbEntity
  8
0
100
AcDbLine
 62
7
  6
CONTINUOUS
 10
-11.04292389
 20
5.873745635
 11
-10.8984935733
 21
6.0902055011
  0
LINE
  5
2D3
100
AcDbEntity
  8
0
100
AcDbLine
 62
7
  6
CONTINUOUS
 10
-10.7600811775
 20
6.0151669912
 11
-10.6156508608
 21
6.2316268574
  0
LINE
  5
2D4
100
AcDbEntity
  8
0
100
AcDbLine
 62
7
  6
CONTINUOUS
 10
-12.8242312261
 20
5.1478185218
 11
-12.7279443567
 21
5.2728802505
  0
LINE
  5
2D5
100
AcDbEntity
  8
0
100
AcDbLine
 62
7
  6
CONTINUOUS
 10
-12.5413885136
 20
5.289239878
 11
-12.5018519918
 21
5.3405916958
  0
LINE
  5
2D6
100
AcDbEntity
  8
0
100
AcDbLine
 62
7
  6
CONTINUOUS
 10
-11.1392107762
 20
6.2682992396
 11
-11.2354976456
 21
6.1432375936
  0
LINE
  5
2D7
100
AcDbEntity
  8
DRAFT
100
AcDbLine
 62
7
  6
CONTINUOUS
 10
-1.0689820508
 20
13.803931594
 11
-2.8189528004
 21
12.9069986394
  0
LINE
  5
2D8
100
AcDbEntity
  8
DRAFT
100
AcDbLine
 62
7
  6
CONTINUOUS
 10
-2.8189528004
 20
13.2030886947
 11
-1.3459884854
 21
13.9424348113
  0
LINE
  5
2D9
100
AcDbEntity
  8
0
100
AcDbLine
 62
7
  6
CONTINUOUS
 10
-12.3006713402
 20
9.2680683402
 11
-12.5835140527
 21
9.126646984
  0
LINE
  5
2DA
100
AcDbEntity
  8
0
100
AcDbLine
 62
7
  6
CONTINUOUS
 10
-11.3859458789
 20
9.6189958764
 11
-11.6687885914
 21
9.4775745201
  0
LINE
  5
2DB
100
AcDbEntity
  8
0
100
AcDbLine
 62
7
  6
CONTINUOUS
 10
-10.7600811775
 20
9.8834135746
 11
-11.04292389
 21
9.7419922183
  0
LINE
  5
2DC
100
AcDbEntity
  8
0
100
AcDbLine
 62
7
  6
CONTINUOUS
 10
-12.1562409013
 20
9.1381179837
 11
-12.4390836138
 21
8.9966966275
  0
LINE
  5
2DD
100
AcDbEntity
  8
0
100
AcDbLine
 62
7
  6
CONTINUOUS
 10
-12.0599540319
 20
9.0899745491
 11
-12.3427967444
 21
8.9485531928
  0
LINE
  5
2DE
100
AcDbEntity
  8
0
100
AcDbLine
 62
7
  6
CONTINUOUS
 10
-12.0176833116
 20
9.0244147422
 11
-12.1983664404
 21
8.9340731778
  0
LINE
  5
2DF
100
AcDbEntity
  8
0
100
AcDbLine
 62
7
  6
CONTINUOUS
 10
-11.3859458789
 20
9.3303205215
 11
-11.6687885914
 21
9.1888991653
  0
LINE
  5
2E0
100
AcDbEntity
  8
0
100
AcDbLine
 62
7
  6
CONTINUOUS
 10
-10.6156508608
 20
9.5225237221
 11
-10.8984935733
 21
9.3811023659
  0
LINE
  5
2E1
100
AcDbEntity
  8
0
100
AcDbLine
 62
7
  6
CONTINUOUS
 10
-11.4340893811
 20
9.0657175785
 11
-11.7169320935
 21
8.9242962222
  0
LINE
  5
2E2
100
AcDbEntity
  8
0
100
AcDbLine
 62
7
  6
CONTINUOUS
 10
-11.5785196851
 20
8.8492573756
 11
-11.8613623976
 21
8.7078360194
  0
LINE
  5
2E3
100
AcDbEntity
  8
0
100
AcDbLine
 62
7
  6
CONTINUOUS
 10
-12.4932450789
 20
8.3251247251
 11
-12.7760877914
 21
8.1837033688
  0
LINE
  5
2E4
100
AcDbEntity
  8
0
100
AcDbLine
 62
7
  6
CONTINUOUS
 10
-12.3006713402
 20
8.3443077994
 11
-12.5835140527
 21
8.2028864432
  0
LINE
  5
2E5
100
AcDbEntity
  8
0
100
AcDbLine
 62
7
  6
CONTINUOUS
 10
-10.5675074219
 20
9.2097766478
 11
-10.8503501344
 21
9.0683552916
  0
LINE
  5
2E6
100
AcDbEntity
  8
0
100
AcDbLine
 62
7
  6
CONTINUOUS
 10
-12.1562409013
 20
8.329827717
 11
-12.4390836138
 21
8.1884063608
  0
LINE
  5
2E7
100
AcDbEntity
  8
0
100
AcDbLine
 62
7
  6
CONTINUOUS
 10
-11.1992447787
 20
8.6729303583
 11
-11.3799279833
 21
8.582588756
  0
LINE
  5
2E8
100
AcDbEntity
  8
0
100
AcDbLine
 62
7
  6
CONTINUOUS
 10
-10.5675074219
 20
8.9788367604
 11
-10.8503501344
 21
8.8374154042
  0
LINE
  5
2E9
100
AcDbEntity
  8
0
100
AcDbLine
 62
7
  6
CONTINUOUS
 10
-11.9155237279
 20
8.267203937
 11
-12.1983664404
 21
8.1257825807
  0
LINE
  5
2EA
100
AcDbEntity
  8
0
100
AcDbLine
 62
7
  6
CONTINUOUS
 10
-12.5413885136
 20
7.8295812001
 11
-12.8242312261
 21
7.6881598439
  0
LINE
  5
2EB
100
AcDbEntity
  8
0
100
AcDbLine
 62
7
  6
CONTINUOUS
 10
-10.6156508608
 20
8.714233125
 11
-10.8984935733
 21
8.5728117688
  0
LINE
  5
2EC
100
AcDbEntity
  8
0
100
AcDbLine
 62
7
  6
CONTINUOUS
 10
-10.7600811775
 20
8.4977732589
 11
-11.04292389
 21
8.3563519026
  0
LINE
  5
2ED
100
AcDbEntity
  8
0
100
AcDbLine
 62
7
  6
CONTINUOUS
 10
-12.5895319483
 20
7.5649775626
 11
-12.8723746608
 21
7.4235562064
  0
LINE
  5
2EE
100
AcDbEntity
  8
0
100
AcDbLine
 62
7
  6
CONTINUOUS
 10
-11.4822328157
 20
8.0505584809
 11
-11.7650755282
 21
7.9091371247
  0
LINE
  5
2EF
100
AcDbEntity
  8
0
100
AcDbLine
 62
7
  6
CONTINUOUS
 10
-12.5413885136
 20
7.2522308208
 11
-12.8242312261
 21
7.1108094646
  0
LINE
  5
2F0
100
AcDbEntity
  8
DRAFT
100
AcDbLine
 62
7
  6
CONTINUOUS
 10
0.4732316884
 20
13.8383849305
 11
-0.6680124853
 21
13.2897284702
  0
LINE
  5
2F1
100
AcDbEntity
  8
RACCORDO
100
AcDbLine
 62
7
  6
CONTINUOUS
 10
1.5240185364
 20
15.5394526142
 11
3.3230012263
 21
16.312814768
  0
LINE
  5
2F2
100
AcDbEntity
  8
0
100
AcDbLine
 62
7
  6
CONTINUOUS
 10
-12.0539361363
 20
8.630917808
 11
-11.8613623976
 21
8.7078360194
  0
LINE
  5
2F3
100
AcDbEntity
  8
0
100
AcDbLine
 62
7
  6
CONTINUOUS
 10
-12.7279443567
 20
10.411297371
 11
-12.5835140527
 21
10.454552493
  0
LINE
  5
2F4
100
AcDbEntity
  8
0
100
AcDbLine
 62
7
  6
CONTINUOUS
 10
-11.2354976456
 20
10.7043044999
 11
-11.0910673415
 21
10.747559622
  0
LINE
  5
2F5
100
AcDbEntity
  8
0
100
AcDbLine
 62
7
  6
CONTINUOUS
 10
3.0591924885
 20
-11.555475264
 11
3.2517662609
 21
-11.5362922065
  0
LINE
  5
2F6
100
AcDbEntity
  8
0
100
AcDbLine
 62
7
  6
CONTINUOUS
 10
2.7703318804
 20
-11.9883953393
 11
2.5296146396
 21
-11.9835066626
  0
LINE
  5
2F7
100
AcDbEntity
  8
0
100
AcDbLine
 62
7
  6
CONTINUOUS
 10
3.0531745929
 20
-11.846973983
 11
2.812457352
 21
-11.8420853063
  0
LINE
  5
2F8
100
AcDbEntity
  8
0
100
AcDbLine
 62
7
  6
CONTINUOUS
 10
2.6740449436
 20
-12.2866620324
 11
2.8184753151
 21
-12.3011420811
  0
LINE
  5
2F9
100
AcDbEntity
  8
0
100
AcDbLine
 62
7
  6
CONTINUOUS
 10
-13.4222318479
 20
-11.0152322964
 11
-10.8768539108
 21
-11.2996338587
  0
LINE
  5
2FA
100
AcDbEntity
  8
0
100
AcDbLine
 62
7
  6
CONTINUOUS
 10
-11.6701697365
 20
-10.5901277328
 11
-13.4222318479
 21
-10.3083373285
  0
LINE
  5
2FB
100
AcDbEntity
  8
0
100
AcDbLine
 62
7
  6
CONTINUOUS
 10
-11.941570659
 20
-10.3595653941
 11
-13.1393891354
 21
-10.1669159722
  0
LINE
  5
2FC
100
AcDbEntity
  8
0
100
AcDbLine
 62
7
  6
CONTINUOUS
 10
2.1384491316
 20
-13.9299523267
 11
1.9458753929
 21
-13.8914004292
  0
LINE
  5
2FD
100
AcDbEntity
  8
0
100
AcDbLine
 62
7
  6
CONTINUOUS
 10
-10.8768539108
 20
-8.8318858104
 11
-13.4223845829
 21
-7.5591204743
  0
LINE
  5
2FE
100
AcDbEntity
  8
0
100
AcDbLine
 62
7
  6
CONTINUOUS
 10
-10.5940111983
 20
-8.6904644541
 11
-13.1395418704
 21
-7.4176991181
  0
LINE
  5
2FF
100
AcDbEntity
  8
0
100
AcDbLine
 62
7
  6
CONTINUOUS
 10
1.8556064191
 20
-14.4177838445
 11
1.9518934234
 21
-14.4659273466
  0
LINE
  5
300
100
AcDbEntity
  8
0
100
AcDbLine
 62
7
  6
CONTINUOUS
 10
3.5887703374
 20
-14.9379556421
 11
3.3480531303
 21
-14.8175970385
  0
LINE
  5
301
100
AcDbEntity
  8
0
100
AcDbLine
 62
7
  6
CONTINUOUS
 10
1.9518934234
 20
-14.1195171851
 11
1.8556064191
 21
-14.071373683
  0
LINE
  5
302
100
AcDbEntity
  8
0
100
AcDbLine
 62
7
  6
CONTINUOUS
 10
-10.8768539108
 20
-7.8590379051
 11
-12.5389380984
 21
-6.88756806
  0
LINE
  5
303
100
AcDbEntity
  8
0
100
AcDbLine
 62
7
  6
CONTINUOUS
 10
-10.5940111983
 20
-7.7176165489
 11
-11.9748534346
 21
-6.9105295172
  0
LINE
  5
304
100
AcDbEntity
  8
0
100
AcDbLine
 62
7
  6
CONTINUOUS
 10
-13.4222318479
 20
-6.9274018649
 11
-10.8768539108
 21
-8.4815768025
  0
LINE
  5
305
100
AcDbEntity
  8
0
100
AcDbLine
 62
7
  6
CONTINUOUS
 10
-13.4222318479
 20
-4.9826171131
 11
-12.0090294482
 21
-6.3399498013
  0
LINE
  5
306
100
AcDbEntity
  8
0
100
AcDbLine
 62
7
  6
CONTINUOUS
 10
-10.8768539108
 20
-6.8639591277
 11
-12.532008452
 21
-5.2626609049
  0
LINE
  5
307
100
AcDbEntity
  8
0
100
AcDbLine
 62
7
  6
CONTINUOUS
 10
-10.5940111983
 20
-6.7225377715
 11
-11.7749236352
 21
-5.5800505055
  0
LINE
  5
308
100
AcDbEntity
  8
0
100
AcDbLine
 62
7
  6
CONTINUOUS
 10
-12.8242312261
 20
4.5704683077
 11
-12.8723746608
 21
4.8832151321
  0
LINE
  5
309
100
AcDbEntity
  8
0
100
AcDbLine
 62
7
  6
CONTINUOUS
 10
-12.5413885136
 20
4.7118896639
 11
-12.5895319483
 21
5.0246364883
  0
LINE
  5
30A
100
AcDbEntity
  8
0
100
AcDbLine
 62
7
  6
CONTINUOUS
 10
-12.8242312261
 20
7.1108094646
 11
-12.8723746608
 21
7.4235562064
  0
LINE
  5
30B
100
AcDbEntity
  8
0
100
AcDbLine
 62
7
  6
CONTINUOUS
 10
-13.1130918342
 20
5.0035737188
 11
-13.0649483995
 21
4.6330918399
  0
LINE
  5
30C
100
AcDbEntity
  8
0
100
AcDbLine
 62
7
  6
CONTINUOUS
 10
-13.1130918342
 20
7.5439147931
 11
-13.0649483995
 21
7.1734329142
  0
LINE
  5
30D
100
AcDbEntity
  8
0
100
AcDbLine
 62
7
  6
CONTINUOUS
 10
-13.1130918342
 20
12.5668624654
 11
-13.0649483995
 21
12.1386451192
  0
LINE
  5
30E
100
AcDbEntity
  8
0
100
AcDbLine
 62
7
  6
CONTINUOUS
 10
-11.3859458789
 20
9.3303205215
 11
-11.3859458789
 21
9.6189958764
  0
LINE
  5
30F
100
AcDbEntity
  8
0
100
AcDbLine
 62
7
  6
CONTINUOUS
 10
-11.3850020569
 20
-4.1404655772
 11
-11.3850020569
 21
-3.25427737
  0
LINE
  5
310
100
AcDbEntity
  8
0
100
AcDbLine
 62
7
  6
CONTINUOUS
 10
-11.3799279833
 20
11.007460217
 11
-11.3799279833
 21
10.7187848621
  0
LINE
  5
311
100
AcDbEntity
  8
0
100
AcDbLine
 62
7
  6
CONTINUOUS
 10
-11.3799279833
 20
8.582588756
 11
-11.3799279833
 21
8.2939137315
  0
LINE
  5
312
100
AcDbEntity
  8
0
100
AcDbLine
 62
7
  6
CONTINUOUS
 10
-11.1021593445
 20
-3.999044221
 11
-11.1021593445
 21
-3.3018682004
  0
LINE
  5
313
100
AcDbEntity
  8
0
100
AcDbLine
 62
7
  6
CONTINUOUS
 10
-11.0910673415
 20
11.7867901065
 11
-11.0910673415
 21
11.440379945
  0
LINE
  5
314
100
AcDbEntity
  8
0
100
AcDbLine
 62
7
  6
CONTINUOUS
 10
-11.0910673415
 20
9.2464487018
 11
-11.0910673415
 21
8.9000385403
  0
LINE
  5
315
100
AcDbEntity
  8
0
100
AcDbLine
 62
7
  6
CONTINUOUS
 10
-10.8768539108
 20
-11.2996338587
 11
-10.8768539108
 21
-10.726176085
  0
LINE
  5
316
100
AcDbEntity
  8
0
100
AcDbLine
 62
7
  6
CONTINUOUS
 10
-10.8768539108
 20
-9.4826172988
 11
-10.8768539108
 21
-8.8318858104
  0
LINE
  5
317
100
AcDbEntity
  8
0
100
AcDbLine
 62
7
  6
CONTINUOUS
 10
-10.8768539108
 20
-8.4815768025
 11
-10.8768539108
 21
-7.8590379051
  0
LINE
  5
318
100
AcDbEntity
  8
0
100
AcDbLine
 62
7
  6
CONTINUOUS
 10
-10.8768539108
 20
-6.9552243488
 11
-10.8768539108
 21
-6.8639591277
  0
LINE
  5
319
100
AcDbEntity
  8
0
100
AcDbLine
 62
7
  6
CONTINUOUS
 10
-10.8768539108
 20
-5.9565446378
 11
-10.8768539108
 21
-5.3199553442
  0
LINE
  5
31A
100
AcDbEntity
  8
0
100
AcDbLine
 62
7
  6
CONTINUOUS
 10
-10.8768539108
 20
-5.2177730069
 11
-10.8768539108
 21
-4.5741013575
  0
LINE
  5
31B
100
AcDbEntity
  8
0
100
AcDbLine
 62
7
  6
CONTINUOUS
 10
-10.8768539108
 20
-3.3397778662
 11
-10.8768539108
 21
-2.6539342438
  0
LINE
  5
31C
100
AcDbEntity
  8
0
100
AcDbLine
 62
7
  6
CONTINUOUS
 10
-10.8768537552
 20
-2.4628475682
 11
-10.8768537552
 21
-1.8147342481
  0
LINE
  5
31D
100
AcDbEntity
  8
0
100
AcDbLine
 62
7
  6
CONTINUOUS
 10
-10.8768537552
 20
-0.8182284592
 11
-10.8768537552
 21
-0.1923002329
  0
LINE
  5
31E
100
AcDbEntity
  8
0
100
AcDbLine
 62
7
  6
CONTINUOUS
 10
-10.8503501344
 20
8.8374154042
 11
-10.8503501344
 21
9.0683552916
  0
LINE
  5
31F
100
AcDbEntity
  8
0
100
AcDbLine
 62
7
  6
CONTINUOUS
 10
-10.8503501344
 20
11.2622865348
 11
-10.8503501344
 21
11.7241663096
  0
LINE
  5
320
100
AcDbEntity
  8
0
100
AcDbLine
 62
7
  6
CONTINUOUS
 10
-10.5940111983
 20
-11.1582125025
 11
-10.5940111983
 21
-10.5847547288
  0
LINE
  5
321
100
AcDbEntity
  8
0
100
AcDbLine
 62
7
  6
CONTINUOUS
 10
-10.5940111983
 20
-9.3411959426
 11
-10.5940111983
 21
-8.6904644541
  0
LINE
  5
322
100
AcDbEntity
  8
0
100
AcDbLine
 62
7
  6
CONTINUOUS
 10
-10.5940111983
 20
-8.3401554463
 11
-10.5940111983
 21
-7.7176165489
  0
LINE
  5
323
100
AcDbEntity
  8
0
100
AcDbLine
 62
7
  6
CONTINUOUS
 10
-10.5940111983
 20
-6.8138029926
 11
-10.5940111983
 21
-6.7225377715
  0
LINE
  5
324
100
AcDbEntity
  8
0
100
AcDbLine
 62
7
  6
CONTINUOUS
 10
-10.5940111983
 20
-5.8151232816
 11
-10.5940111983
 21
-5.178533988
  0
LINE
  5
325
100
AcDbEntity
  8
0
100
AcDbLine
 62
7
  6
CONTINUOUS
 10
-10.5940111983
 20
-5.0763516506
 11
-10.5940111983
 21
-4.4326800013
  0
LINE
  5
326
100
AcDbEntity
  8
0
100
AcDbLine
 62
7
  6
CONTINUOUS
 10
-10.5940111983
 20
-3.19835651
 11
-10.5940111983
 21
-2.5125128876
  0
LINE
  5
327
100
AcDbEntity
  8
0
100
AcDbLine
 62
7
  6
CONTINUOUS
 10
-10.5940110427
 20
-2.321426212
 11
-10.5940110427
 21
-1.6733128919
  0
LINE
  5
328
100
AcDbEntity
  8
0
100
AcDbLine
 62
7
  6
CONTINUOUS
 10
-10.5940110427
 20
-0.6768071029
 11
-10.5940110427
 21
-0.0508788767
  0
LINE
  5
329
100
AcDbEntity
  8
0
100
AcDbLine
 62
7
  6
CONTINUOUS
 10
-10.5675074219
 20
8.9788367604
 11
-10.5675074219
 21
9.2097766478
  0
LINE
  5
32A
100
AcDbEntity
  8
0
100
AcDbLine
 62
7
  6
CONTINUOUS
 10
-10.5675074219
 20
11.403707891
 11
-10.5675074219
 21
11.8655876659
  0
LINE
  5
32B
100
AcDbEntity
  8
0
100
AcDbLine
 62
7
  6
CONTINUOUS
 10
-10.6156508608
 20
6.2316268574
 11
-10.5675074219
 21
6.5539652994
  0
LINE
  5
32C
100
AcDbEntity
  8
0
100
AcDbLine
 62
7
  6
CONTINUOUS
 10
-10.8984935733
 20
3.5498644268
 11
-10.8503501344
 21
3.8722028689
  0
LINE
  5
32D
100
AcDbEntity
  8
0
100
AcDbLine
 62
7
  6
CONTINUOUS
 10
-10.6156508608
 20
3.6912857831
 11
-10.5675074219
 21
4.0136242251
  0
LINE
  5
32E
100
AcDbEntity
  8
0
100
AcDbLine
 62
7
  6
CONTINUOUS
 10
-11.0910673415
 20
3.9925614725
 11
-11.1392107762
 21
3.7279580827
  0
LINE
  5
32F
100
AcDbEntity
  8
0
100
AcDbLine
 62
7
  6
CONTINUOUS
 10
-11.04292389
 20
3.3334044368
 11
-10.8984935733
 21
3.5498644268
  0
LINE
  5
330
100
AcDbEntity
  8
0
100
AcDbLine
 62
7
  6
CONTINUOUS
 10
-10.7600811775
 20
3.474825793
 11
-10.6156508608
 21
3.6912857831
  0
LINE
  5
331
100
AcDbEntity
  8
0
100
AcDbLine
 62
7
  6
CONTINUOUS
 10
-11.1392107762
 20
3.7279580827
 11
-11.2354976456
 21
3.6028963954
  0
LINE
  5
332
100
AcDbEntity
  8
0
100
AcDbLine
 62
7
  6
CONTINUOUS
 10
-12.7760877914
 20
5.6433621293
 11
-12.9205180955
 21
5.5423722006
  0
LINE
  5
333
100
AcDbEntity
  8
0
100
AcDbLine
 62
7
  6
CONTINUOUS
 10
-11.1873542109
 20
5.7727557147
 11
-11.04292389
 21
5.873745635
  0
LINE
  5
334
100
AcDbEntity
  8
0
100
AcDbLine
 62
7
  6
CONTINUOUS
 10
-10.9045114984
 20
5.9141770709
 11
-10.7600811775
 21
6.0151669912
  0
LINE
  5
335
100
AcDbEntity
  8
DRAFT
100
AcDbLine
 62
7
  6
CONTINUOUS
 10
-0.6644098282
 20
13.2830509838
 11
-0.9508551978
 21
13.1285071354
  0
LINE
  5
336
100
AcDbEntity
  8
DRAFT
100
AcDbLine
 62
7
  6
CONTINUOUS
 10
0.101674446
 20
12.6159956802
 11
0.3795753892
 21
12.765934533
  0
LINE
  5
337
100
AcDbEntity
  8
0
100
AcDbLine
 62
7
  6
CONTINUOUS
 10
-11.2415155749
 20
7.8724650538
 11
-11.5243582874
 21
7.7310436976
  0
LINE
  5
338
100
AcDbEntity
  8
0
100
AcDbLine
 62
7
  6
CONTINUOUS
 10
-11.0970852709
 20
7.7425147647
 11
-11.3799279833
 21
7.6010934085
  0
LINE
  5
339
100
AcDbEntity
  8
0
100
AcDbLine
 62
7
  6
CONTINUOUS
 10
-12.4451016443
 20
7.0308823054
 11
-12.7279443567
 21
6.8894609491
  0
LINE
  5
33A
100
AcDbEntity
  8
0
100
AcDbLine
 62
7
  6
CONTINUOUS
 10
-10.9045114984
 20
7.5307579348
 11
-11.1873542109
 21
7.3893365786
  0
LINE
  5
33B
100
AcDbEntity
  8
0
100
AcDbLine
 62
7
  6
CONTINUOUS
 10
-12.1562409013
 20
6.6555117161
 11
-12.4390836138
 21
6.5140903599
  0
LINE
  5
33C
100
AcDbEntity
  8
0
100
AcDbLine
 62
7
  6
CONTINUOUS
 10
-10.7600811775
 20
7.2853376936
 11
-11.04292389
 21
7.1439163373
  0
LINE
  5
33D
100
AcDbEntity
  8
0
100
AcDbLine
 62
7
  6
CONTINUOUS
 10
-11.8673802932
 20
6.4533466054
 11
-12.1502230057
 21
6.3119252491
  0
LINE
  5
33E
100
AcDbEntity
  8
0
100
AcDbLine
 62
7
  6
CONTINUOUS
 10
-10.6156508608
 20
6.9244471804
 11
-10.8984935733
 21
6.7830258242
  0
LINE
  5
33F
100
AcDbEntity
  8
0
100
AcDbLine
 62
7
  6
CONTINUOUS
 10
-11.5303762504
 20
6.284844584
 11
-11.8132189629
 21
6.1434232278
  0
LINE
  5
340
100
AcDbEntity
  8
0
100
AcDbLine
 62
7
  6
CONTINUOUS
 10
-12.4932450789
 20
5.7847834856
 11
-12.7760877914
 21
5.6433621293
  0
LINE
  5
341
100
AcDbEntity
  8
0
100
AcDbLine
 62
7
  6
CONTINUOUS
 10
-12.3006713402
 20
5.8039665599
 11
-12.5835140527
 21
5.6625452037
  0
LINE
  5
342
100
AcDbEntity
  8
0
100
AcDbLine
 62
7
  6
CONTINUOUS
 10
-12.1562409013
 20
5.7894864775
 11
-12.4390836138
 21
5.6480651213
  0
LINE
  5
343
100
AcDbEntity
  8
0
100
AcDbLine
 62
7
  6
CONTINUOUS
 10
-10.5675074219
 20
6.5539652994
 11
-10.8503501344
 21
6.4125439432
  0
LINE
  5
344
100
AcDbEntity
  8
0
100
AcDbLine
 62
7
  6
CONTINUOUS
 10
-11.2415155749
 20
6.1981490529
 11
-11.5243582874
 21
6.0567276967
  0
LINE
  5
345
100
AcDbEntity
  8
0
100
AcDbLine
 62
7
  6
CONTINUOUS
 10
-11.9155237279
 20
5.7268628627
 11
-12.1983664404
 21
5.5854415064
  0
LINE
  5
346
100
AcDbEntity
  8
0
100
AcDbLine
 62
7
  6
CONTINUOUS
 10
-11.2354976456
 20
8.2794336997
 11
-11.04292389
 21
8.3563519026
  0
LINE
  5
347
100
AcDbEntity
  8
0
100
AcDbLine
 62
7
  6
CONTINUOUS
 10
-12.0539361363
 20
8.9773279695
 11
-12.1983664404
 21
8.9340731778
  0
LINE
  5
348
100
AcDbEntity
  8
0
100
AcDbLine
 62
7
  6
CONTINUOUS
 10
-11.2354976456
 20
8.6258435308
 11
-11.3799279833
 21
8.582588756
  0
LINE
  5
349
100
AcDbEntity
  8
0
100
AcDbLine
 62
7
  6
CONTINUOUS
 10
-12.7279443567
 20
7.81322149
 11
-12.4390836138
 21
7.8997310059
  0
LINE
  5
34A
100
AcDbEntity
  8
0
100
AcDbLine
 62
7
  6
CONTINUOUS
 10
2.9147621845
 20
-11.540995249
 11
3.0591924885
 21
-11.555475264
  0
LINE
  5
34B
100
AcDbEntity
  8
0
100
AcDbLine
 62
7
  6
CONTINUOUS
 10
2.6740449436
 20
-11.4783714353
 11
2.9147621845
 21
-11.540995249
  0
LINE
  5
34C
100
AcDbEntity
  8
0
100
AcDbLine
 62
7
  6
CONTINUOUS
 10
2.9147621845
 20
-11.2523198942
 11
2.6259015089
 21
-11.1656246935
  0
LINE
  5
34D
100
AcDbEntity
  8
0
100
AcDbLine
 62
7
  6
CONTINUOUS
 10
3.8716130499
 20
-14.7965342859
 11
3.6308958428
 21
-14.6761756823
  0
LINE
  5
34E
100
AcDbEntity
  8
0
100
AcDbLine
 62
7
  6
CONTINUOUS
 10
2.2347361358
 20
-13.9780958288
 11
2.1384491316
 21
-13.9299523267
  0
LINE
  5
34F
100
AcDbEntity
  8
0
100
AcDbLine
 62
7
  6
CONTINUOUS
 10
1.3260286376
 20
-13.3447045218
 11
2.5777580742
 21
-13.9705692401
  0
LINE
  5
350
100
AcDbEntity
  8
0
100
AcDbLine
 62
7
  6
CONTINUOUS
 10
2.3370409008
 20
-13.5615354637
 11
1.566745811
 21
-13.1763879189
  0
LINE
  5
351
100
AcDbEntity
  8
0
100
AcDbLine
 62
7
  6
CONTINUOUS
 10
2.190277672
 20
-13.2053111368
 11
1.8495885235
 21
-13.0349665626
  0
LINE
  5
352
100
AcDbEntity
  8
0
100
AcDbLine
 62
7
  6
CONTINUOUS
 10
1.6630326804
 20
-15.9380777254
 11
1.8556064191
 21
-16.0920996234
  0
LINE
  5
353
100
AcDbEntity
  8
0
100
AcDbLine
 62
7
  6
CONTINUOUS
 10
2.1444671621
 20
-14.2735390263
 11
1.9518934234
 21
-14.1195171851
  0
LINE
  5
354
100
AcDbEntity
  8
0
100
AcDbLine
 62
7
  6
CONTINUOUS
 10
-11.778204339
 20
-3.8107545996
 11
-12.7228268737
 21
-3.0144337838
  0
LINE
  5
355
100
AcDbEntity
  8
0
100
AcDbLine
 62
7
  6
CONTINUOUS
 10
-11.778204339
 20
-3.4308956334
 11
-12.1468933289
 21
-3.1200892462
  0
LINE
  5
356
100
AcDbEntity
  8
0
100
AcDbLine
 62
7
  6
CONTINUOUS
 10
-10.8768539108
 20
-4.5741013575
 11
-11.3850020569
 21
-4.1404655772
  0
LINE
  5
357
100
AcDbEntity
  8
0
100
AcDbLine
 62
7
  6
CONTINUOUS
 10
-10.5940111983
 20
-4.4326800013
 11
-11.1021593445
 21
-3.999044221
  0
LINE
  5
358
100
AcDbEntity
  8
0
100
AcDbLine
 62
7
  6
CONTINUOUS
 10
-13.4222318479
 20
-2.9672564869
 11
-10.8768539108
 21
-5.2177730069
  0
LINE
  5
359
100
AcDbEntity
  8
0
100
AcDbLine
 62
7
  6
CONTINUOUS
 10
-12.7279443567
 20
4.3491197509
 11
-12.8242312261
 21
4.5704683077
  0
LINE
  5
35A
100
AcDbEntity
  8
0
100
AcDbLine
 62
7
  6
CONTINUOUS
 10
-13.0649483995
 20
4.6330918399
 11
-12.9205180955
 21
4.2722015396
  0
LINE
  5
35B
100
AcDbEntity
  8
0
100
AcDbLine
 62
7
  6
CONTINUOUS
 10
-12.8242312261
 20
9.5356805952
 11
-12.8723746608
 21
9.7329573933
  0
LINE
  5
35C
100
AcDbEntity
  8
0
100
AcDbLine
 62
7
  6
CONTINUOUS
 10
-12.5413885136
 20
9.6771019514
 11
-12.5895319483
 21
9.8743787495
  0
LINE
  5
35D
100
AcDbEntity
  8
0
100
AcDbLine
 62
7
  6
CONTINUOUS
 10
-13.1130918342
 20
9.9110507867
 11
-13.0649483995
 21
9.5983043752
  0
LINE
  5
35E
100
AcDbEntity
  8
0
100
AcDbLine
 62
7
  6
CONTINUOUS
 10
-12.5413885136
 20
7.2522308208
 11
-12.5895319483
 21
7.5649775626
  0
LINE
  5
35F
100
AcDbEntity
  8
0
100
AcDbLine
 62
7
  6
CONTINUOUS
 10
-12.8242312261
 20
12.0760219999
 11
-12.8723746608
 21
12.3887684113
  0
LINE
  5
360
100
AcDbEntity
  8
0
100
AcDbLine
 62
7
  6
CONTINUOUS
 10
-12.5413885136
 20
12.2174433561
 11
-12.5895319483
 21
12.5301897675
  0
LINE
  5
361
100
AcDbEntity
  8
0
100
AcDbLine
 62
7
  6
CONTINUOUS
 10
-12.8242312261
 20
14.7318330179
 11
-12.8723746608
 21
15.0445794293
  0
LINE
  5
362
100
AcDbEntity
  8
0
100
AcDbLine
 62
7
  6
CONTINUOUS
 10
-11.1392107762
 20
4.3053082969
 11
-11.0910673415
 21
3.9925614725
  0
LINE
  5
363
100
AcDbEntity
  8
0
100
AcDbLine
 62
7
  6
CONTINUOUS
 10
-12.5413885136
 20
14.8732543741
 11
-12.5895319483
 21
15.1860007856
  0
LINE
  5
364
100
AcDbEntity
  8
0
100
AcDbLine
 62
7
  6
CONTINUOUS
 10
-11.6687885914
 20
9.4775745201
 11
-11.7169320935
 21
9.790321626
  0
LINE
  5
365
100
AcDbEntity
  8
0
100
AcDbLine
 62
7
  6
CONTINUOUS
 10
-11.1392107762
 20
6.8456496189
 11
-11.0910673415
 21
6.5329025468
  0
LINE
  5
366
100
AcDbEntity
  8
0
100
AcDbLine
 62
7
  6
CONTINUOUS
 10
-11.3859458789
 20
9.6189958764
 11
-11.4286837188
 21
9.8966270238
  0
LINE
  5
367
100
AcDbEntity
  8
0
100
AcDbLine
 62
7
  6
CONTINUOUS
 10
-13.1130918342
 20
15.164938016
 11
-13.0649483995
 21
14.7944567979
  0
LINE
  5
368
100
AcDbEntity
  8
0
100
AcDbLine
 62
7
  6
CONTINUOUS
 10
-10.8503501344
 20
3.8722028689
 11
-10.8984935733
 21
4.2426847499
  0
LINE
  5
369
100
AcDbEntity
  8
0
100
AcDbLine
 62
7
  6
CONTINUOUS
 10
-10.5675074219
 20
4.0136242251
 11
-10.6156508608
 21
4.3841061061
  0
LINE
  5
36A
100
AcDbEntity
  8
0
100
AcDbLine
 62
7
  6
CONTINUOUS
 10
-10.8503501344
 20
6.4125439432
 11
-10.8984935733
 21
6.7830258242
  0
LINE
  5
36B
100
AcDbEntity
  8
DRAFT
100
AcDbLine
 62
7
  6
CONTINUOUS
 10
-9.0875202193
 20
17.2105930129
 11
-9.0875202193
 21
0.5023493317
  0
LINE
  5
36C
100
AcDbEntity
  8
DRAFT
100
AcDbLine
 62
7
  6
CONTINUOUS
 10
-8.799740469
 20
17.355592462
 11
-8.799740469
 21
0.641302169
  0
LINE
  5
36D
100
AcDbEntity
  8
0
100
AcDbLine
 62
7
  6
CONTINUOUS
 10
-11.1873542109
 20
3.2324145372
 11
-11.04292389
 21
3.3334044368
  0
LINE
  5
36E
100
AcDbEntity
  8
0
100
AcDbLine
 62
7
  6
CONTINUOUS
 10
-10.9045114984
 20
3.3738358934
 11
-10.7600811775
 21
3.474825793
  0
LINE
  5
36F
100
AcDbEntity
  8
0
100
AcDbLine
 62
7
  6
CONTINUOUS
 10
-12.5413885136
 20
5.289239878
 11
-12.8242312261
 21
5.1478185218
  0
LINE
  5
370
100
AcDbEntity
  8
0
100
AcDbLine
 62
7
  6
CONTINUOUS
 10
-10.6156508608
 20
6.2316268574
 11
-10.8984935733
 21
6.0902055011
  0
LINE
  5
371
100
AcDbEntity
  8
0
100
AcDbLine
 62
7
  6
CONTINUOUS
 10
-10.7600811775
 20
6.0151669912
 11
-11.04292389
 21
5.873745635
  0
LINE
  5
372
100
AcDbEntity
  8
0
100
AcDbLine
 62
7
  6
CONTINUOUS
 10
-10.9045114984
 20
5.9141770709
 11
-11.1873542109
 21
5.7727557147
  0
LINE
  5
373
100
AcDbEntity
  8
0
100
AcDbLine
 62
7
  6
CONTINUOUS
 10
-12.5895319483
 20
5.0246364883
 11
-12.8723746608
 21
4.8832151321
  0
LINE
  5
374
100
AcDbEntity
  8
0
100
AcDbLine
 62
7
  6
CONTINUOUS
 10
-11.4822328157
 20
5.5102174066
 11
-11.7650755282
 21
5.3687960503
  0
LINE
  5
375
100
AcDbEntity
  8
0
100
AcDbLine
 62
7
  6
CONTINUOUS
 10
-12.5413885136
 20
4.7118896639
 11
-12.8242312261
 21
4.5704683077
  0
LINE
  5
376
100
AcDbEntity
  8
0
100
AcDbLine
 62
7
  6
CONTINUOUS
 10
-11.2415155749
 20
5.3321238143
 11
-11.5243582874
 21
5.1907024581
  0
LINE
  5
377
100
AcDbEntity
  8
0
100
AcDbLine
 62
7
  6
CONTINUOUS
 10
-11.0970852709
 20
5.2021735252
 11
-11.3799279833
 21
5.060752169
  0
LINE
  5
378
100
AcDbEntity
  8
0
100
AcDbLine
 62
7
  6
CONTINUOUS
 10
-12.4451016443
 20
4.4905411072
 11
-12.7279443567
 21
4.3491197509
  0
LINE
  5
379
100
AcDbEntity
  8
0
100
AcDbLine
 62
7
  6
CONTINUOUS
 10
-10.9045114984
 20
4.9904166953
 11
-11.1873542109
 21
4.8489953391
  0
LINE
  5
37A
100
AcDbEntity
  8
0
100
AcDbLine
 62
7
  6
CONTINUOUS
 10
-12.1562409013
 20
4.1151706418
 11
-12.4390836138
 21
3.9737492856
  0
LINE
  5
37B
100
AcDbEntity
  8
0
100
AcDbLine
 62
7
  6
CONTINUOUS
 10
-10.7600811775
 20
4.7449964541
 11
-11.04292389
 21
4.6035750979
  0
LINE
  5
37C
100
AcDbEntity
  8
0
100
AcDbLine
 62
7
  6
CONTINUOUS
 10
-11.8673802932
 20
3.9130053039
 11
-12.1502230057
 21
3.7715839477
  0
LINE
  5
37D
100
AcDbEntity
  8
0
100
AcDbLine
 62
7
  6
CONTINUOUS
 10
-10.6156508608
 20
4.3841061061
 11
-10.8984935733
 21
4.2426847499
  0
LINE
  5
37E
100
AcDbEntity
  8
0
100
AcDbLine
 62
7
  6
CONTINUOUS
 10
-11.178747442
 20
6.2169472688
 11
-11.2415155749
 21
6.1981490529
  0
LINE
  5
37F
100
AcDbEntity
  8
0
100
AcDbLine
 62
7
  6
CONTINUOUS
 10
-11.2354976456
 20
6.1432375936
 11
-11.5243582874
 21
6.0567276967
  0
LINE
  5
380
100
AcDbEntity
  8
0
100
AcDbLine
 62
7
  6
CONTINUOUS
 10
-12.7279443567
 20
5.2728802505
 11
-12.4390836138
 21
5.3593899316
  0
LINE
  5
381
100
AcDbEntity
  8
0
100
AcDbLine
 62
7
  6
CONTINUOUS
 10
1.8556064191
 20
-9.1061611477
 11
1.6630326804
 21
-9.1253445524
  0
LINE
  5
382
100
AcDbEntity
  8
0
100
AcDbLine
 62
7
  6
CONTINUOUS
 10
2.1384491316
 20
-8.9647397915
 11
1.9458753929
 21
-8.9839231962
  0
LINE
  5
383
100
AcDbEntity
  8
0
100
AcDbLine
 62
7
  6
CONTINUOUS
 10
2.0000368581
 20
-9.1206415605
 11
1.8556064191
 21
-9.1061611477
  0
LINE
  5
384
100
AcDbEntity
  8
0
100
AcDbLine
 62
7
  6
CONTINUOUS
 10
2.2828795705
 20
-8.9792202042
 11
2.1384491316
 21
-8.9647397915
  0
LINE
  5
385
100
AcDbEntity
  8
0
100
AcDbLine
 62
7
  6
CONTINUOUS
 10
2.2407540315
 20
-9.1832653405
 11
2.0000368581
 21
-9.1206415605
  0
LINE
  5
386
100
AcDbEntity
  8
0
100
AcDbLine
 62
7
  6
CONTINUOUS
 10
2.5235967439
 20
-9.0418439843
 11
2.2828795705
 21
-8.9792202042
  0
LINE
  5
387
100
AcDbEntity
  8
0
100
AcDbLine
 62
7
  6
CONTINUOUS
 10
3.1976048969
 20
-11.110898538
 11
2.9087442214
 21
-11.0242033372
  0
LINE
  5
388
100
AcDbEntity
  8
0
100
AcDbLine
 62
7
  6
CONTINUOUS
 10
2.0000368581
 20
-9.4093169153
 11
2.2888974661
 21
-9.496011752
  0
LINE
  5
389
100
AcDbEntity
  8
0
100
AcDbLine
 62
7
  6
CONTINUOUS
 10
-10.8768539108
 20
-5.3199553442
 11
-13.4222318479
 21
-4.338782651
  0
LINE
  5
38A
100
AcDbEntity
  8
0
100
AcDbLine
 62
7
  6
CONTINUOUS
 10
-10.5940111983
 20
-5.178533988
 11
-10.7094098812
 21
-5.1340509921
  0
LINE
  5
38B
100
AcDbEntity
  8
0
100
AcDbLine
 62
7
  6
CONTINUOUS
 10
-11.1741694772
 20
-4.9548990406
 11
-13.1393891354
 21
-4.1973612947
  0
LINE
  5
38C
100
AcDbEntity
  8
0
100
AcDbLine
 62
7
  6
CONTINUOUS
 10
-12.532008452
 20
-5.2626609049
 11
-10.8768539108
 21
-5.9565446378
  0
LINE
  5
38D
100
AcDbEntity
  8
0
100
AcDbLine
 62
7
  6
CONTINUOUS
 10
2.8184753151
 20
-12.3011420811
 11
2.9147621845
 21
-12.3492855158
  0
LINE
  5
38E
100
AcDbEntity
  8
0
100
AcDbLine
 62
7
  6
CONTINUOUS
 10
1.566745811
 20
-11.5020722483
 11
1.3260286376
 21
-11.3817136616
  0
LINE
  5
38F
100
AcDbEntity
  8
0
100
AcDbLine
 62
7
  6
CONTINUOUS
 10
2.9629056191
 20
-12.0846822086
 11
2.7703318804
 21
-11.9883953393
  0
LINE
  5
390
100
AcDbEntity
  8
0
100
AcDbLine
 62
7
  6
CONTINUOUS
 10
1.8495885235
 20
-11.3606508921
 11
1.6088713501
 21
-11.2402923054
  0
LINE
  5
391
100
AcDbEntity
  8
0
100
AcDbLine
 62
7
  6
CONTINUOUS
 10
3.2457483316
 20
-11.9432608524
 11
3.0531745929
 21
-11.846973983
  0
LINE
  5
392
100
AcDbEntity
  8
0
100
AcDbLine
 62
7
  6
CONTINUOUS
 10
2.2407540315
 20
-11.2617259792
 11
2.6740449436
 21
-11.4783714353
  0
LINE
  5
393
100
AcDbEntity
  8
0
100
AcDbLine
 62
7
  6
CONTINUOUS
 10
2.6259015089
 20
-11.1656246935
 11
2.2888974661
 21
-10.9971226721
  0
LINE
  5
394
100
AcDbEntity
  8
0
100
AcDbLine
 62
7
  6
CONTINUOUS
 10
2.9087442214
 20
-11.0242033372
 11
2.5717401786
 21
-10.8557013158
  0
LINE
  5
395
100
AcDbEntity
  8
0
100
AcDbLine
 62
7
  6
CONTINUOUS
 10
2.4273098746
 20
-14.1321176701
 11
2.2347361358
 21
-13.9780958288
  0
LINE
  5
396
100
AcDbEntity
  8
0
100
AcDbLine
 62
7
  6
CONTINUOUS
 10
1.9518934234
 20
-14.4659273466
 11
2.1444671621
 21
-14.6776843249
  0
LINE
  5
397
100
AcDbEntity
  8
0
100
AcDbLine
 62
7
  6
CONTINUOUS
 10
1.8556064191
 20
-15.8034244905
 11
1.7111761151
 21
-15.6157392709
  0
LINE
  5
398
100
AcDbEntity
  8
0
100
AcDbLine
 62
7
  6
CONTINUOUS
 10
-12.9205180955
 20
4.2722015396
 11
-12.7760877914
 21
4.0267813274
  0
LINE
  5
399
100
AcDbEntity
  8
0
100
AcDbLine
 62
7
  6
CONTINUOUS
 10
-12.4451016443
 20
4.4905411072
 11
-12.5413885136
 21
4.7118896639
  0
LINE
  5
39A
100
AcDbEntity
  8
0
100
AcDbLine
 62
7
  6
CONTINUOUS
 10
-12.7279443567
 20
6.8894609491
 11
-12.8242312261
 21
7.1108094646
  0
LINE
  5
39B
100
AcDbEntity
  8
0
100
AcDbLine
 62
7
  6
CONTINUOUS
 10
-12.4451016443
 20
7.0308823054
 11
-12.5413885136
 21
7.2522308208
  0
LINE
  5
39C
100
AcDbEntity
  8
0
100
AcDbLine
 62
7
  6
CONTINUOUS
 10
-11.2354976456
 20
4.5266568949
 11
-11.1392107762
 21
4.3053082969
  0
LINE
  5
39D
100
AcDbEntity
  8
0
100
AcDbLine
 62
7
  6
CONTINUOUS
 10
-13.0649483995
 20
7.1734329142
 11
-12.9205180955
 21
6.8125427378
  0
LINE
  5
39E
100
AcDbEntity
  8
0
100
AcDbLine
 62
7
  6
CONTINUOUS
 10
-13.0649483995
 20
9.5983043752
 11
-12.9205180955
 21
9.2374138683
  0
LINE
  5
39F
100
AcDbEntity
  8
0
100
AcDbLine
 62
7
  6
CONTINUOUS
 10
-10.8984935733
 20
4.2426847499
 11
-11.04292389
 21
4.6035750979
  0
LINE
  5
3A0
100
AcDbEntity
  8
0
100
AcDbLine
 62
7
  6
CONTINUOUS
 10
-10.6156508608
 20
4.3841061061
 11
-10.7600811775
 21
4.7449964541
  0
LINE
  5
3A1
100
AcDbEntity
  8
0
100
AcDbLine
 62
7
  6
CONTINUOUS
 10
-13.0649483995
 20
12.1386451192
 11
-12.9686615301
 21
11.859561797
  0
LINE
  5
3A2
100
AcDbEntity
  8
0
100
AcDbLine
 62
7
  6
CONTINUOUS
 10
-11.957649267
 20
9.8529447453
 11
-11.9095058323
 21
9.6556679472
  0
LINE
  5
3A3
100
AcDbEntity
  8
0
100
AcDbLine
 62
7
  6
CONTINUOUS
 10
-12.1983664404
 20
12.6291150108
 11
-12.102079571
 21
12.2345614146
  0
LINE
  5
3A4
100
AcDbEntity
  8
0
100
AcDbLine
 62
7
  6
CONTINUOUS
 10
-11.1392107762
 20
9.4437254999
 11
-11.0910673415
 21
9.2464487018
  0
LINE
  5
3A5
100
AcDbEntity
  8
0
100
AcDbLine
 62
7
  6
CONTINUOUS
 10
-10.8503501344
 20
11.7241663096
 11
-10.8984935733
 21
11.9791785772
  0
LINE
  5
3A6
100
AcDbEntity
  8
0
100
AcDbLine
 62
7
  6
CONTINUOUS
 10
-10.5675074219
 20
11.8655876659
 11
-10.6156508608
 21
12.1205999335
  0
LINE
  5
3A7
100
AcDbEntity
  8
0
100
AcDbLine
 62
7
  6
CONTINUOUS
 10
-10.8503501344
 20
9.0683552916
 11
-10.8984935733
 21
9.3811023659
  0
LINE
  5
3A8
100
AcDbEntity
  8
0
100
AcDbLine
 62
7
  6
CONTINUOUS
 10
-11.1392107762
 20
12.0995371787
 11
-11.0910673415
 21
11.7867901065
  0
LINE
  5
3A9
100
AcDbEntity
  8
0
100
AcDbLine
 62
7
  6
CONTINUOUS
 10
-10.5675074219
 20
9.2097766478
 11
-10.6156508608
 21
9.5225237221
  0
LINE
  5
3AA
100
AcDbEntity
  8
0
100
AcDbLine
 62
7
  6
CONTINUOUS
 10
-11.1392107762
 20
14.4666735026
 11
-11.0910673415
 21
14.1539257697
  0
LINE
  5
3AB
100
AcDbEntity
  8
0
100
AcDbLine
 62
7
  6
CONTINUOUS
 10
-10.5675074219
 20
6.5539652994
 11
-10.6156508608
 21
6.9244471804
  0
LINE
  5
3AC
100
AcDbEntity
  8
0
100
AcDbLine
 62
7
  6
CONTINUOUS
 10
-10.8503501344
 20
14.0335671661
 11
-10.8984935733
 21
14.4040490471
  0
LINE
  5
3AD
100
AcDbEntity
  8
0
100
AcDbLine
 62
7
  6
CONTINUOUS
 10
-10.5675074219
 20
14.1749885224
 11
-10.6156508608
 21
14.5454704033
  0
LINE
  5
3AE
100
AcDbEntity
  8
DRAFT
100
AcDbLine
 62
7
  6
CONTINUOUS
 10
-8.0268600476
 20
-15.1773787085
 11
-8.0268600476
 21
-13.7191787201
  0
LINE
  5
3AF
100
AcDbEntity
  8
DRAFT
100
AcDbLine
 62
7
  6
CONTINUOUS
 10
-7.7390802972
 20
16.8252623762
 11
-7.7390802972
 21
15.3670623878
  0
LINE
  5
3B0
100
AcDbEntity
  8
DRAFT
100
AcDbLine
 62
7
  6
CONTINUOUS
 10
-7.7390802972
 20
-13.8630685953
 11
-7.7390802972
 21
-15.0444724831
  0
LINE
  5
3B1
100
AcDbEntity
  8
DRAFT
100
AcDbLine
 62
7
  6
CONTINUOUS
 10
-6.6175827711
 20
17.3837921603
 11
-6.6175827711
 21
15.9618709221
  0
LINE
  5
3B2
100
AcDbEntity
  8
DRAFT
100
AcDbLine
 62
7
  6
CONTINUOUS
 10
-6.6175827711
 20
-14.4617580935
 11
-6.6175827711
 21
-14.4238173584
  0
LINE
  5
3B3
100
AcDbEntity
  8
DRAFT
100
AcDbLine
 62
253
  6
CONTINUOUS
 10
3.9988922705
 20
10.667386768
 11
4.281734983
 21
10.8148547361
  0
LINE
  5
3B4
100
AcDbEntity
  8
0
100
AcDbLine
 62
7
  6
CONTINUOUS
 10
-11.5303762504
 20
3.7445032826
 11
-11.8132189629
 21
3.6030819263
  0
LINE
  5
3B5
100
AcDbEntity
  8
0
100
AcDbLine
 62
7
  6
CONTINUOUS
 10
-10.5675074219
 20
4.0136242251
 11
-10.8503501344
 21
3.8722028689
  0
LINE
  5
3B6
100
AcDbEntity
  8
0
100
AcDbLine
 62
7
  6
CONTINUOUS
 10
-11.2415155749
 20
3.6578079786
 11
-11.5243582874
 21
3.5163866224
  0
LINE
  5
3B7
100
AcDbEntity
  8
0
100
AcDbLine
 62
7
  6
CONTINUOUS
 10
-10.6156508608
 20
3.6912857831
 11
-10.8984935733
 21
3.5498644268
  0
LINE
  5
3B8
100
AcDbEntity
  8
0
100
AcDbLine
 62
7
  6
CONTINUOUS
 10
-10.7600811775
 20
3.474825793
 11
-11.04292389
 21
3.3334044368
  0
LINE
  5
3B9
100
AcDbEntity
  8
0
100
AcDbLine
 62
7
  6
CONTINUOUS
 10
-10.9045114984
 20
3.3738358934
 11
-11.1873542109
 21
3.2324145372
  0
LINE
  5
3BA
100
AcDbEntity
  8
DRAFT
100
AcDbLine
 62
253
  6
CONTINUOUS
 10
4.281734983
 20
10.8148547361
 11
5.4131058329
 21
11.3684478583
  0
LINE
  5
3BB
100
AcDbEntity
  8
RACCORDO
100
AcDbLine
 62
253
  6
CONTINUOUS
 10
5.4131058329
 20
11.380540161
 11
9.3852445225
 21
13.2816931199
  0
LINE
  5
3BC
100
AcDbEntity
  8
0
100
AcDbLine
 62
7
  6
CONTINUOUS
 10
-12.5389380984
 20
-6.88756806
 11
-10.8768539108
 21
-6.9552243488
  0
LINE
  5
3BD
100
AcDbEntity
  8
0
100
AcDbLine
 62
7
  6
CONTINUOUS
 10
-12.0090294482
 20
-6.3399498013
 11
-13.4222318479
 21
-6.2772073123
  0
LINE
  5
3BE
100
AcDbEntity
  8
0
100
AcDbLine
 62
7
  6
CONTINUOUS
 10
-12.1771160411
 20
-6.1785083637
 11
-13.1393891354
 21
-6.135785956
  0
LINE
  5
3BF
100
AcDbEntity
  8
0
100
AcDbLine
 62
7
  6
CONTINUOUS
 10
3.2999096956
 20
-8.0962619784
 11
1.3260286376
 21
-7.9176120465
  0
LINE
  5
3C0
100
AcDbEntity
  8
0
100
AcDbLine
 62
7
  6
CONTINUOUS
 10
3.0959738194
 20
-7.9107837822
 11
1.6088713501
 21
-7.7761906902
  0
LINE
  5
3C1
100
AcDbEntity
  8
0
100
AcDbLine
 62
7
  6
CONTINUOUS
 10
1.3260286376
 20
-8.264022208
 11
3.5887703374
 21
-8.4716328474
  0
LINE
  5
3C2
100
AcDbEntity
  8
0
100
AcDbLine
 62
7
  6
CONTINUOUS
 10
2.2888974661
 20
-9.496011752
 11
2.6259015089
 21
-9.6645137733
  0
LINE
  5
3C3
100
AcDbEntity
  8
0
100
AcDbLine
 62
7
  6
CONTINUOUS
 10
2.6740449436
 20
-9.3999107966
 11
2.2407540315
 21
-9.1832653405
  0
LINE
  5
3C4
100
AcDbEntity
  8
0
100
AcDbLine
 62
7
  6
CONTINUOUS
 10
-13.3924930039
 20
-1.2050279439
 11
-10.8768537552
 21
-2.4628475682
  0
LINE
  5
3C5
100
AcDbEntity
  8
0
100
AcDbLine
 62
7
  6
CONTINUOUS
 10
2.9568876561
 20
-9.2584894403
 11
2.5235967439
 21
-9.0418439843
  0
LINE
  5
3C6
100
AcDbEntity
  8
0
100
AcDbLine
 62
7
  6
CONTINUOUS
 10
-12.2898453456
 20
-1.1298157359
 11
-12.9886011529
 21
-0.7804378323
  0
LINE
  5
3C7
100
AcDbEntity
  8
0
100
AcDbLine
 62
7
  6
CONTINUOUS
 10
-10.8768537552
 20
-1.8147342481
 11
-11.8729739834
 21
-1.3166741341
  0
LINE
  5
3C8
100
AcDbEntity
  8
0
100
AcDbLine
 62
7
  6
CONTINUOUS
 10
2.2888974661
 20
-10.9971226721
 11
2.0000368581
 21
-10.794957231
  0
LINE
  5
3C9
100
AcDbEntity
  8
0
100
AcDbLine
 62
7
  6
CONTINUOUS
 10
2.5717401786
 20
-10.8557013158
 11
2.2828795705
 21
-10.6535358748
  0
LINE
  5
3CA
100
AcDbEntity
  8
0
100
AcDbLine
 62
7
  6
CONTINUOUS
 10
2.6259015089
 20
-9.6645137733
 11
2.9147621845
 21
-9.8666795785
  0
LINE
  5
3CB
100
AcDbEntity
  8
0
100
AcDbLine
 62
7
  6
CONTINUOUS
 10
2.0000368581
 20
-11.0836325858
 11
2.2407540315
 21
-11.2617259792
  0
LINE
  5
3CC
100
AcDbEntity
  8
0
100
AcDbLine
 62
7
  6
CONTINUOUS
 10
2.9147621845
 20
-12.3492855158
 11
3.0591924885
 21
-12.4792358048
  0
LINE
  5
3CD
100
AcDbEntity
  8
0
100
AcDbLine
 62
7
  6
CONTINUOUS
 10
1.8556064191
 20
-10.9536822293
 11
2.0000368581
 21
-11.0836325858
  0
LINE
  5
3CE
100
AcDbEntity
  8
0
100
AcDbLine
 62
7
  6
CONTINUOUS
 10
3.2036228263
 20
-12.3205107559
 11
2.9629056191
 21
-12.0846822086
  0
LINE
  5
3CF
100
AcDbEntity
  8
0
100
AcDbLine
 62
7
  6
CONTINUOUS
 10
3.4864655387
 20
-12.1790893997
 11
3.2457483316
 21
-11.9432608524
  0
LINE
  5
3D0
100
AcDbEntity
  8
0
100
AcDbLine
 62
7
  6
CONTINUOUS
 10
-12.7760877914
 20
4.0267813274
 11
-12.5835140527
 21
3.8150244008
  0
LINE
  5
3D1
100
AcDbEntity
  8
0
100
AcDbLine
 62
7
  6
CONTINUOUS
 10
2.1384491316
 20
-15.6620031343
 11
1.9940188276
 21
-15.4743179147
  0
LINE
  5
3D2
100
AcDbEntity
  8
0
100
AcDbLine
 62
7
  6
CONTINUOUS
 10
-12.4390836138
 20
3.9737492856
 11
-12.7279443567
 21
4.3491197509
  0
LINE
  5
3D3
100
AcDbEntity
  8
0
100
AcDbLine
 62
7
  6
CONTINUOUS
 10
-12.1562409013
 20
4.1151706418
 11
-12.4451016443
 21
4.4905411072
  0
LINE
  5
3D4
100
AcDbEntity
  8
0
100
AcDbLine
 62
7
  6
CONTINUOUS
 10
2.2888974661
 20
-14.4612242872
 11
2.1444671621
 21
-14.2735390263
  0
LINE
  5
3D5
100
AcDbEntity
  8
0
100
AcDbLine
 62
7
  6
CONTINUOUS
 10
2.5717401786
 20
-14.319802931
 11
2.4273098746
 21
-14.1321176701
  0
LINE
  5
3D6
100
AcDbEntity
  8
0
100
AcDbLine
 62
7
  6
CONTINUOUS
 10
-12.9205180955
 20
6.8125427378
 11
-12.7760877914
 21
6.567122505
  0
LINE
  5
3D7
100
AcDbEntity
  8
0
100
AcDbLine
 62
7
  6
CONTINUOUS
 10
-11.04292389
 20
4.6035750979
 11
-11.1873542109
 21
4.8489953391
  0
LINE
  5
3D8
100
AcDbEntity
  8
0
100
AcDbLine
 62
7
  6
CONTINUOUS
 10
-10.7600811775
 20
4.7449964541
 11
-10.9045114984
 21
4.9904166953
  0
LINE
  5
3D9
100
AcDbEntity
  8
0
100
AcDbLine
 62
7
  6
CONTINUOUS
 10
1.4704589417
 20
-15.6108507518
 11
1.6630326804
 21
-15.9380777254
  0
LINE
  5
3DA
100
AcDbEntity
  8
0
100
AcDbLine
 62
7
  6
CONTINUOUS
 10
-12.7279443567
 20
9.3143320797
 11
-12.8242312261
 21
9.5356805952
  0
LINE
  5
3DB
100
AcDbEntity
  8
0
100
AcDbLine
 62
7
  6
CONTINUOUS
 10
-12.4451016443
 20
9.455753436
 11
-12.5413885136
 21
9.6771019514
  0
LINE
  5
3DC
100
AcDbEntity
  8
0
100
AcDbLine
 62
7
  6
CONTINUOUS
 10
-11.2354976456
 20
7.0669981344
 11
-11.1392107762
 21
6.8456496189
  0
LINE
  5
3DD
100
AcDbEntity
  8
0
100
AcDbLine
 62
7
  6
CONTINUOUS
 10
-12.0539361363
 20
10.0742932608
 11
-11.957649267
 21
9.8529447453
  0
LINE
  5
3DE
100
AcDbEntity
  8
0
100
AcDbLine
 62
7
  6
CONTINUOUS
 10
-12.7279443567
 20
11.8546734844
 11
-12.8242312261
 21
12.0760219999
  0
LINE
  5
3DF
100
AcDbEntity
  8
0
100
AcDbLine
 62
7
  6
CONTINUOUS
 10
-11.7169320935
 20
9.790321626
 11
-11.9095058323
 21
10.2330186569
  0
LINE
  5
3E0
100
AcDbEntity
  8
0
100
AcDbLine
 62
7
  6
CONTINUOUS
 10
-12.4451016443
 20
11.9960948407
 11
-12.5413885136
 21
12.2174433561
  0
LINE
  5
3E1
100
AcDbEntity
  8
0
100
AcDbLine
 62
7
  6
CONTINUOUS
 10
-11.2354976456
 20
9.6650740154
 11
-11.1392107762
 21
9.4437254999
  0
LINE
  5
3E2
100
AcDbEntity
  8
0
100
AcDbLine
 62
7
  6
CONTINUOUS
 10
-10.8984935733
 20
6.7830258242
 11
-11.04292389
 21
7.1439163373
  0
LINE
  5
3E3
100
AcDbEntity
  8
0
100
AcDbLine
 62
7
  6
CONTINUOUS
 10
-10.6156508608
 20
6.9244471804
 11
-10.7600811775
 21
7.2853376936
  0
LINE
  5
3E4
100
AcDbEntity
  8
0
100
AcDbLine
 62
7
  6
CONTINUOUS
 10
-13.0649483995
 20
14.7944567979
 11
-12.9205180955
 21
14.4335662911
  0
LINE
  5
3E5
100
AcDbEntity
  8
0
100
AcDbLine
 62
7
  6
CONTINUOUS
 10
-10.8984935733
 20
9.3811023659
 11
-11.04292389
 21
9.7419922183
  0
LINE
  5
3E6
100
AcDbEntity
  8
0
100
AcDbLine
 62
7
  6
CONTINUOUS
 10
-10.6156508608
 20
9.5225237221
 11
-10.7600811775
 21
9.8834135746
  0
LINE
  5
3E7
100
AcDbEntity
  8
0
100
AcDbLine
 62
7
  6
CONTINUOUS
 10
-11.1873542109
 20
12.2390785094
 11
-11.1392107762
 21
12.0995371787
  0
LINE
  5
3E8
100
AcDbEntity
  8
0
100
AcDbLine
 62
7
  6
CONTINUOUS
 10
-10.8984935733
 20
11.9791785772
 11
-10.9947804553
 21
12.2582619057
  0
LINE
  5
3E9
100
AcDbEntity
  8
DRAFT
100
AcDbLine
 62
7
  6
CONTINUOUS
 10
-5.8685143636
 20
-14.7983515621
 11
-5.8685143636
 21
-15.0974651536
  0
LINE
  5
3EA
100
AcDbEntity
  8
DRAFT
100
AcDbLine
 62
7
  6
CONTINUOUS
 10
-5.5881399821
 20
14.5876822855
 11
-5.5881399821
 21
14.2915922302
  0
LINE
  5
3EB
100
AcDbEntity
  8
RACCORDO
100
AcDbLine
 62
7
  6
CONTINUOUS
 10
-5.5242131868
 20
15.4151861299
 11
-5.5242131868
 21
15.7719373063
  0
LINE
  5
3EC
100
AcDbEntity
  8
0
100
AcDbLine
 62
7
  6
CONTINUOUS
 10
-12.8915227917
 20
0.7486907303
 11
-13.1743655042
 21
0.6072693741
  0
LINE
  5
3ED
100
AcDbEntity
  8
0
100
AcDbLine
 62
7
  6
CONTINUOUS
 10
1.6088713501
 20
7.8122665779
 11
1.3260286376
 21
7.6708452216
  0
LINE
  5
3EE
100
AcDbEntity
  8
0
100
AcDbLine
 62
253
  6
CONTINUOUS
 10
-12.7207421409
 20
-0.121735015
 11
-13.0035848534
 21
-0.2631563712
  0
LINE
  5
3EF
100
AcDbEntity
  8
0
100
AcDbLine
 62
7
  6
CONTINUOUS
 10
-11.6761888608
 20
0.0616280452
 11
-11.9590315733
 21
-0.079793311
  0
LINE
  5
3F0
100
AcDbEntity
  8
0
100
AcDbLine
 62
7
  6
CONTINUOUS
 10
1.6088713501
 20
6.6575651585
 11
1.3260286376
 21
6.5161438023
  0
LINE
  5
3F1
100
AcDbEntity
  8
0
100
AcDbLine
 62
7
  6
CONTINUOUS
 10
-12.071029873
 20
-0.183735734
 11
-12.0800544508
 21
-0.188248023
  0
LINE
  5
3F2
100
AcDbEntity
  8
0
100
AcDbLine
 62
7
  6
CONTINUOUS
 10
-12.7057584404
 20
-0.6390164761
 11
-12.9886011529
 21
-0.7804378323
  0
LINE
  5
3F3
100
AcDbEntity
  8
0
100
AcDbLine
 62
253
  6
CONTINUOUS
 10
-11.2829367789
 20
0.0711252426
 11
-11.5657794914
 21
-0.0702961137
  0
LINE
  5
3F4
100
AcDbEntity
  8
0
100
AcDbLine
 62
7
  6
CONTINUOUS
 10
-11.1787473694
 20
3.6766061893
 11
-11.2415155749
 21
3.6578079786
  0
LINE
  5
3F5
100
AcDbEntity
  8
0
100
AcDbLine
 62
7
  6
CONTINUOUS
 10
-11.2354976456
 20
3.6028963954
 11
-11.5243582874
 21
3.5163866224
  0
LINE
  5
3F6
100
AcDbEntity
  8
0
100
AcDbLine
 62
7
  6
CONTINUOUS
 10
2.4333277702
 20
-6.0463904822
 11
2.5296146396
 21
-6.0367991102
  0
LINE
  5
3F7
100
AcDbEntity
  8
0
100
AcDbLine
 62
7
  6
CONTINUOUS
 10
2.5296146396
 20
-5.1130388997
 11
2.4333277702
 21
-5.122629611
  0
LINE
  5
3F8
100
AcDbEntity
  8
0
100
AcDbLine
 62
7
  6
CONTINUOUS
 10
2.812457352
 20
-4.9716175435
 11
2.7161704827
 21
-4.9812082547
  0
LWPOLYLINE
  5
3F9
100
AcDbEntity
  8
0
100
AcDbPolyline
 62
7
  6
CONTINUOUS
 90
9
 70
0
 10
14.8263949952
 20
-3.9727975177
 10
14.844742209
 20
-3.9712856111
 10
14.8502997722
 20
-3.9710851514
 10
14.8428520219
 20
-3.9707496255
 10
14.8224876108
 20
-3.9688431667
 10
14.7898363684
 20
-3.9639233538
 10
14.7468209829
 20
-3.9547309623
 10
14.6963363696
 20
-3.9404166396
 10
14.6408063326
 20
-3.9202849784
  0
LINE
  5
3FA
100
AcDbEntity
  8
0
100
AcDbLine
 62
7
  6
CONTINUOUS
 10
-11.3850020569
 20
-3.25427737
 11
-10.8768539108
 21
-3.3397778662
  0
LINE
  5
3FB
100
AcDbEntity
  8
0
100
AcDbLine
 62
7
  6
CONTINUOUS
 10
-12.7228268737
 20
-3.0144337838
 11
-11.778204339
 21
-3.1877255318
  0
LINE
  5
3FC
100
AcDbEntity
  8
0
100
AcDbLine
 62
7
  6
CONTINUOUS
 10
-12.2898453456
 20
-0.8469730235
 11
-12.7057584404
 21
-0.6390164761
  0
LINE
  5
3FD
100
AcDbEntity
  8
0
100
AcDbLine
 62
7
  6
CONTINUOUS
 10
-10.5940110427
 20
-1.6733128919
 11
-11.5901312709
 21
-1.1752527778
  0
LINE
  5
3FE
100
AcDbEntity
  8
0
100
AcDbLine
 62
7
  6
CONTINUOUS
 10
-12.0650134878
 20
-0.1957685045
 11
-12.0800544508
 21
-0.188248023
  0
LINE
  5
3FF
100
AcDbEntity
  8
0
100
AcDbLine
 62
7
  6
CONTINUOUS
 10
2.9147621845
 20
-9.5780042237
 11
2.6740449436
 21
-9.3999107966
  0
LINE
  5
400
100
AcDbEntity
  8
0
100
AcDbLine
 62
7
  6
CONTINUOUS
 10
3.1976048969
 20
-9.4365828674
 11
2.9568876561
 21
-9.2584894403
  0
LINE
  5
401
100
AcDbEntity
  8
0
100
AcDbLine
 62
7
  6
CONTINUOUS
 10
-12.5835140527
 20
3.8150244008
 11
-12.4390836138
 21
3.6850741527
  0
LINE
  5
402
100
AcDbEntity
  8
0
100
AcDbLine
 62
7
  6
CONTINUOUS
 10
3.0591924885
 20
-9.7079541824
 11
2.9147621845
 21
-9.5780042237
  0
LINE
  5
403
100
AcDbEntity
  8
0
100
AcDbLine
 62
7
  6
CONTINUOUS
 10
3.342035201
 20
-9.5665328261
 11
3.1976048969
 21
-9.4365828674
  0
LINE
  5
404
100
AcDbEntity
  8
0
100
AcDbLine
 62
7
  6
CONTINUOUS
 10
1.6630326804
 20
-10.7419254163
 11
1.8556064191
 21
-10.9536822293
  0
LINE
  5
405
100
AcDbEntity
  8
0
100
AcDbLine
 62
7
  6
CONTINUOUS
 10
-12.7760877914
 20
6.567122505
 11
-12.5835140527
 21
6.3553655267
  0
LINE
  5
406
100
AcDbEntity
  8
0
100
AcDbLine
 62
7
  6
CONTINUOUS
 10
-11.1873542109
 20
4.8489953391
 11
-11.3799279833
 21
5.060752169
  0
LINE
  5
407
100
AcDbEntity
  8
0
100
AcDbLine
 62
7
  6
CONTINUOUS
 10
-10.9045114984
 20
4.9904166953
 11
-11.0970852709
 21
5.2021735252
  0
LINE
  5
408
100
AcDbEntity
  8
0
100
AcDbLine
 62
7
  6
CONTINUOUS
 10
-11.5243582874
 20
4.9020272684
 11
-11.2354976456
 21
4.5266568949
  0
LINE
  5
409
100
AcDbEntity
  8
0
100
AcDbLine
 62
7
  6
CONTINUOUS
 10
-12.4390836138
 20
6.5140903599
 11
-12.7279443567
 21
6.8894609491
  0
LINE
  5
40A
100
AcDbEntity
  8
0
100
AcDbLine
 62
7
  6
CONTINUOUS
 10
-12.1562409013
 20
6.6555117161
 11
-12.4451016443
 21
7.0308823054
  0
LINE
  5
40B
100
AcDbEntity
  8
0
100
AcDbLine
 62
7
  6
CONTINUOUS
 10
3.0591924885
 20
-12.4792358048
 11
3.2036228263
 21
-12.6669209174
  0
LINE
  5
40C
100
AcDbEntity
  8
0
100
AcDbLine
 62
7
  6
CONTINUOUS
 10
2.0000368581
 20
-10.794957231
 11
1.7111761151
 21
-10.4195866417
  0
LINE
  5
40D
100
AcDbEntity
  8
0
100
AcDbLine
 62
7
  6
CONTINUOUS
 10
2.2828795705
 20
-10.6535358748
 11
1.9940188276
 21
-10.2781652855
  0
LINE
  5
40E
100
AcDbEntity
  8
0
100
AcDbLine
 62
7
  6
CONTINUOUS
 10
-11.5243582874
 20
7.4423683427
 11
-11.2354976456
 21
7.0669981344
  0
LINE
  5
40F
100
AcDbEntity
  8
0
100
AcDbLine
 62
7
  6
CONTINUOUS
 10
-12.9205180955
 20
9.2374138683
 11
-12.7279443567
 21
8.9679219182
  0
LINE
  5
410
100
AcDbEntity
  8
0
100
AcDbLine
 62
7
  6
CONTINUOUS
 10
3.3961965818
 20
-12.5900027145
 11
3.2036228263
 21
-12.3205107559
  0
LINE
  5
411
100
AcDbEntity
  8
0
100
AcDbLine
 62
7
  6
CONTINUOUS
 10
-11.04292389
 20
7.1439163373
 11
-11.1873542109
 21
7.3893365786
  0
LINE
  5
412
100
AcDbEntity
  8
0
100
AcDbLine
 62
7
  6
CONTINUOUS
 10
-10.7600811775
 20
7.2853376936
 11
-10.9045114984
 21
7.5307579348
  0
LINE
  5
413
100
AcDbEntity
  8
0
100
AcDbLine
 62
7
  6
CONTINUOUS
 10
-12.9686615301
 20
11.859561797
 11
-12.7760877914
 21
11.5323350402
  0
LINE
  5
414
100
AcDbEntity
  8
0
100
AcDbLine
 62
7
  6
CONTINUOUS
 10
2.1444671621
 20
-14.6776843249
 11
3.3480531303
 21
-16.8960580076
  0
LINE
  5
415
100
AcDbEntity
  8
0
100
AcDbLine
 62
7
  6
CONTINUOUS
 10
3.3480531303
 20
-16.4341777785
 11
2.2888974661
 21
-14.4612242872
  0
LINE
  5
416
100
AcDbEntity
  8
0
100
AcDbLine
 62
7
  6
CONTINUOUS
 10
3.3480531303
 20
-15.7658881479
 11
2.5717401786
 21
-14.319802931
  0
LINE
  5
417
100
AcDbEntity
  8
0
100
AcDbLine
 62
7
  6
CONTINUOUS
 10
-12.0057927016
 20
12.6482977548
 11
-12.1502230057
 21
12.9514534549
  0
LINE
  5
418
100
AcDbEntity
  8
0
100
AcDbLine
 62
7
  6
CONTINUOUS
 10
-11.7959445282
 20
12.9429328756
 11
-11.8673802932
 21
13.0928748112
  0
LINE
  5
419
100
AcDbEntity
  8
0
100
AcDbLine
 62
7
  6
CONTINUOUS
 10
-12.7279443567
 20
14.5104845024
 11
-12.8242312261
 21
14.7318330179
  0
LINE
  5
41A
100
AcDbEntity
  8
0
100
AcDbLine
 62
7
  6
CONTINUOUS
 10
-12.4451016443
 20
14.6519058587
 11
-12.5413885136
 21
14.8732543741
  0
LINE
  5
41B
100
AcDbEntity
  8
0
100
AcDbLine
 62
7
  6
CONTINUOUS
 10
-10.9947804553
 20
12.2582619057
 11
-11.0910673415
 21
12.4796104295
  0
LINE
  5
41C
100
AcDbEntity
  8
0
100
AcDbLine
 62
7
  6
CONTINUOUS
 10
-10.7119377428
 20
12.3996832619
 11
-10.808224629
 21
12.6210317858
  0
LINE
  5
41D
100
AcDbEntity
  8
0
100
AcDbLine
 62
7
  6
CONTINUOUS
 10
1.7111761151
 20
-15.6157392709
 11
1.6148892457
 21
-15.3943907555
  0
LINE
  5
41E
100
AcDbEntity
  8
0
100
AcDbLine
 62
7
  6
CONTINUOUS
 10
-10.8984935733
 20
14.4040490471
 11
-11.04292389
 21
14.764940221
  0
LINE
  5
41F
100
AcDbEntity
  8
0
100
AcDbLine
 62
7
  6
CONTINUOUS
 10
-10.6156508608
 20
12.1205999335
 11
-10.7119377428
 21
12.3996832619
  0
LINE
  5
420
100
AcDbEntity
  8
DRAFT
100
AcDbLine
 62
7
  6
CONTINUOUS
 10
-3.1042638438
 20
-16.4795904135
 11
-3.1042638438
 21
-16.180476822
  0
LINE
  5
421
100
AcDbEntity
  8
RACCORDO
100
AcDbLine
 62
253
  6
CONTINUOUS
 10
6.8273193953
 20
8.9413825723
 11
10.7301241461
 21
10.9621188864
  0
LINE
  5
422
100
AcDbEntity
  8
DRAFT
100
AcDbLine
 62
253
  6
CONTINUOUS
 10
5.6959485454
 20
8.3756971473
 11
6.8174460714
 21
8.9463192342
  0
LINE
  5
423
100
AcDbEntity
  8
0
100
AcDbLine
 62
7
  6
CONTINUOUS
 10
-10.5940110427
 20
-0.0508788767
 11
-10.8768537552
 21
-0.1923002329
  0
LINE
  5
424
100
AcDbEntity
  8
0
100
AcDbLine
 62
253
  6
CONTINUOUS
 10
-11.5901312709
 20
-0.8263460074
 11
-11.8729739834
 21
-0.9677673637
  0
LINE
  5
425
100
AcDbEntity
  8
0
100
AcDbLine
 62
7
  6
CONTINUOUS
 10
-10.5940110427
 20
-0.6768071029
 11
-10.8768537552
 21
-0.8182284592
  0
LINE
  5
426
100
AcDbEntity
  8
0
100
AcDbLine
 62
7
  6
CONTINUOUS
 10
-11.5901312709
 20
-1.1752527778
 11
-11.8729739834
 21
-1.3166741341
  0
LINE
  5
427
100
AcDbEntity
  8
0
100
AcDbLine
 62
7
  6
CONTINUOUS
 10
1.6088713501
 20
5.3873954473
 11
1.3260286376
 21
5.245974091
  0
LINE
  5
428
100
AcDbEntity
  8
0
100
AcDbLine
 62
7
  6
CONTINUOUS
 10
-13.1393891354
 20
-2.196329925
 11
-13.4222318479
 21
-2.3377512812
  0
LINE
  5
429
100
AcDbEntity
  8
0
100
AcDbLine
 62
7
  6
CONTINUOUS
 10
3.8716130499
 20
6.2190146317
 11
3.5887703374
 21
6.0775932754
  0
LINE
  5
42A
100
AcDbEntity
  8
0
100
AcDbLine
 62
7
  6
CONTINUOUS
 10
3.8716130499
 20
5.7571361782
 11
3.5887703374
 21
5.615714822
  0
LINE
  5
42B
100
AcDbEntity
  8
DRAFT
100
AcDbLine
 62
253
  6
CONTINUOUS
 10
5.408168795
 20
8.23674431
 11
5.6959485454
 21
8.3756971473
  0
LINE
  5
42C
100
AcDbEntity
  8
DRAFT
100
AcDbLine
 62
253
  6
CONTINUOUS
 10
-9.0875202193
 20
0.5023493317
 11
-8.799740469
 21
0.641302169
  0
LINE
  5
42D
100
AcDbEntity
  8
0
100
AcDbLine
 62
7
  6
CONTINUOUS
 10
-10.8768539108
 20
-2.6539342438
 11
-13.4222318479
 21
-2.3377512812
  0
LINE
  5
42E
100
AcDbEntity
  8
0
100
AcDbLine
 62
7
  6
CONTINUOUS
 10
-10.5940111983
 20
-2.5125128876
 11
-13.1393891354
 21
-2.196329925
  0
LINE
  5
42F
100
AcDbEntity
  8
0
100
AcDbLine
 62
7
  6
CONTINUOUS
 10
-12.1502230057
 20
3.7715839477
 11
-12.4390836138
 21
3.9737492856
  0
LINE
  5
430
100
AcDbEntity
  8
0
100
AcDbLine
 62
7
  6
CONTINUOUS
 10
-11.8673802932
 20
3.9130053039
 11
-12.1562409013
 21
4.1151706418
  0
LINE
  5
431
100
AcDbEntity
  8
0
100
AcDbLine
 62
7
  6
CONTINUOUS
 10
-12.4390836138
 20
3.6850741527
 11
-12.1983664404
 21
3.5069805373
  0
LINE
  5
432
100
AcDbEntity
  8
0
100
AcDbLine
 62
7
  6
CONTINUOUS
 10
-11.3799279833
 20
5.060752169
 11
-11.5243582874
 21
5.1907024581
  0
LINE
  5
433
100
AcDbEntity
  8
0
100
AcDbLine
 62
7
  6
CONTINUOUS
 10
-12.5835140527
 20
6.3553655267
 11
-12.4390836138
 21
6.2254153354
  0
LINE
  5
434
100
AcDbEntity
  8
0
100
AcDbLine
 62
7
  6
CONTINUOUS
 10
-11.0970852709
 20
5.2021735252
 11
-11.2415155749
 21
5.3321238143
  0
LINE
  5
435
100
AcDbEntity
  8
0
100
AcDbLine
 62
7
  6
CONTINUOUS
 10
3.5887703374
 20
-8.0097524118
 11
1.3260286376
 21
-5.9546213515
  0
LINE
  5
436
100
AcDbEntity
  8
0
100
AcDbLine
 62
7
  6
CONTINUOUS
 10
3.8716130499
 20
-7.8683310556
 11
1.6088713501
 21
-5.8131999952
  0
LINE
  5
437
100
AcDbEntity
  8
0
100
AcDbLine
 62
7
  6
CONTINUOUS
 10
1.3260286376
 20
-6.301031513
 11
3.2999096956
 21
-8.0962619784
  0
LINE
  5
438
100
AcDbEntity
  8
0
100
AcDbLine
 62
7
  6
CONTINUOUS
 10
3.2517662609
 20
-9.9197113427
 11
3.0591924885
 21
-9.7079541824
  0
LINE
  5
439
100
AcDbEntity
  8
0
100
AcDbLine
 62
7
  6
CONTINUOUS
 10
3.5346089734
 20
-9.7782899864
 11
3.342035201
 21
-9.5665328261
  0
LINE
  5
43A
100
AcDbEntity
  8
0
100
AcDbLine
 62
7
  6
CONTINUOUS
 10
-11.1873542109
 20
7.3893365786
 11
-11.3799279833
 21
7.6010934085
  0
LINE
  5
43B
100
AcDbEntity
  8
0
100
AcDbLine
 62
7
  6
CONTINUOUS
 10
-10.9045114984
 20
7.5307579348
 11
-11.0970852709
 21
7.7425147647
  0
LINE
  5
43C
100
AcDbEntity
  8
0
100
AcDbLine
 62
7
  6
CONTINUOUS
 10
-12.5835140527
 20
9.126646984
 11
-12.7279443567
 21
9.3143320797
  0
LINE
  5
43D
100
AcDbEntity
  8
0
100
AcDbLine
 62
7
  6
CONTINUOUS
 10
-12.3006713402
 20
9.2680683402
 11
-12.4451016443
 21
9.455753436
  0
LINE
  5
43E
100
AcDbEntity
  8
0
100
AcDbLine
 62
7
  6
CONTINUOUS
 10
2.9147621845
 20
-9.8666795785
 11
3.2036228263
 21
-10.2420497868
  0
LINE
  5
43F
100
AcDbEntity
  8
0
100
AcDbLine
 62
7
  6
CONTINUOUS
 10
-12.1983664404
 20
10.2619786869
 11
-12.0539361363
 21
10.0742932608
  0
LINE
  5
440
100
AcDbEntity
  8
0
100
AcDbLine
 62
7
  6
CONTINUOUS
 10
-11.3799279833
 20
9.8527594583
 11
-11.2354976456
 21
9.6650740154
  0
LINE
  5
441
100
AcDbEntity
  8
0
100
AcDbLine
 62
7
  6
CONTINUOUS
 10
-12.5835140527
 20
11.6669880583
 11
-12.7279443567
 21
11.8546734844
  0
LINE
  5
442
100
AcDbEntity
  8
0
100
AcDbLine
 62
7
  6
CONTINUOUS
 10
3.6790392943
 20
-12.4485813582
 11
3.4864655387
 21
-12.1790893997
  0
LINE
  5
443
100
AcDbEntity
  8
0
100
AcDbLine
 62
7
  6
CONTINUOUS
 10
-11.04292389
 20
9.7419922183
 11
-11.2354976456
 21
10.0114841769
  0
LINE
  5
444
100
AcDbEntity
  8
0
100
AcDbLine
 62
7
  6
CONTINUOUS
 10
-10.7600811775
 20
9.8834135746
 11
-10.9526549331
 21
10.1529055331
  0
LINE
  5
445
100
AcDbEntity
  8
0
100
AcDbLine
 62
7
  6
CONTINUOUS
 10
-12.2946533097
 20
12.7927280588
 11
-12.1983664404
 21
12.6291150108
  0
LINE
  5
446
100
AcDbEntity
  8
0
100
AcDbLine
 62
7
  6
CONTINUOUS
 10
1.5186023764
 20
-10.4965051835
 11
1.6630326804
 21
-10.7419254163
  0
LINE
  5
447
100
AcDbEntity
  8
0
100
AcDbLine
 62
7
  6
CONTINUOUS
 10
-12.9205180955
 20
14.4335662911
 11
-12.7760877914
 21
14.1881460583
  0
LINE
  5
448
100
AcDbEntity
  8
0
100
AcDbLine
 62
7
  6
CONTINUOUS
 10
-11.283641114
 20
12.402692235
 11
-11.1873542109
 21
12.2390785094
  0
LINE
  5
449
100
AcDbEntity
  8
0
100
AcDbLine
 62
7
  6
CONTINUOUS
 10
2.5777580742
 20
-13.5664241067
 11
2.4333277702
 21
-13.2632687369
  0
LINE
  5
44A
100
AcDbEntity
  8
0
100
AcDbLine
 62
7
  6
CONTINUOUS
 10
2.8606007867
 20
-13.4250027505
 11
2.7161704827
 21
-13.1218473807
  0
LINE
  5
44B
100
AcDbEntity
  8
0
100
AcDbLine
 62
7
  6
CONTINUOUS
 10
-11.2354976456
 20
14.6880220181
 11
-11.1392107762
 21
14.4666735026
  0
LINE
  5
44C
100
AcDbEntity
  8
0
100
AcDbLine
 62
7
  6
CONTINUOUS
 10
1.9940188276
 20
-15.4743179147
 11
1.8977319582
 21
-15.2529693992
  0
LINE
  5
44D
100
AcDbEntity
  8
0
100
AcDbLine
 62
7
  6
CONTINUOUS
 10
-10.6156508608
 20
14.5454704033
 11
-10.7600811775
 21
14.9063615773
  0
LINE
  5
44E
100
AcDbEntity
  8
0
100
AcDbLine
 62
7
  6
CONTINUOUS
 10
2.1926105968
 20
-13.2006452872
 11
2.3370409008
 21
-13.5615354637
  0
LINE
  5
44F
100
AcDbEntity
  8
0
100
AcDbLine
 62
7
  6
CONTINUOUS
 10
1.3741720723
 20
-15.3317672232
 11
1.4704589417
 21
-15.6108507518
  0
LINE
  5
450
100
AcDbEntity
  8
DRAFT
100
AcDbLine
 62
7
  6
CONTINUOUS
 10
-2.8189528004
 20
12.9069986394
 11
-2.8189528004
 21
13.2030886947
  0
LINE
  5
451
100
AcDbEntity
  8
0
100
AcDbLine
 62
7
  6
CONTINUOUS
 10
1.6630326804
 20
4.1537111985
 11
1.4704589417
 21
4.0190588411
  0
LINE
  5
452
100
AcDbEntity
  8
0
100
AcDbLine
 62
7
  6
CONTINUOUS
 10
-10.5940110427
 20
-1.6733128919
 11
-10.8768537552
 21
-1.8147342481
  0
LINE
  5
453
100
AcDbEntity
  8
0
100
AcDbLine
 62
7
  6
CONTINUOUS
 10
1.9458753929
 20
4.2951325547
 11
1.6630326804
 21
4.1537111985
  0
LINE
  5
454
100
AcDbEntity
  8
0
100
AcDbLine
 62
7
  6
CONTINUOUS
 10
2.1384491316
 20
4.2565811527
 11
1.8556064191
 21
4.1151597965
  0
LINE
  5
455
100
AcDbEntity
  8
0
100
AcDbLine
 62
7
  6
CONTINUOUS
 10
2.2347361358
 20
4.2084376506
 11
1.9518934234
 21
4.0670162944
  0
LINE
  5
456
100
AcDbEntity
  8
0
100
AcDbLine
 62
7
  6
CONTINUOUS
 10
-10.5940110427
 20
-2.321426212
 11
-10.8768537552
 21
-2.4628475682
  0
LINE
  5
457
100
AcDbEntity
  8
0
100
AcDbLine
 62
7
  6
CONTINUOUS
 10
3.8716130499
 20
4.8333753071
 11
3.5887703374
 21
4.6919539508
  0
LINE
  5
458
100
AcDbEntity
  8
0
100
AcDbLine
 62
7
  6
CONTINUOUS
 10
1.8977319582
 20
3.7995890298
 11
1.6148892457
 21
3.6581676735
  0
LINE
  5
459
100
AcDbEntity
  8
0
100
AcDbLine
 62
7
  6
CONTINUOUS
 10
2.4273098746
 20
4.0544153139
 11
2.1444671621
 21
3.9129939576
  0
LINE
  5
45A
100
AcDbEntity
  8
0
100
AcDbLine
 62
7
  6
CONTINUOUS
 10
-10.5940111983
 20
-2.5125128876
 11
-10.8768539108
 21
-2.6539342438
  0
LINE
  5
45B
100
AcDbEntity
  8
0
100
AcDbLine
 62
7
  6
CONTINUOUS
 10
1.8495885235
 20
3.534986053
 11
1.566745811
 21
3.3935646968
  0
LINE
  5
45C
100
AcDbEntity
  8
0
100
AcDbLine
 62
7
  6
CONTINUOUS
 10
2.5717401786
 20
3.8667305485
 11
2.2888974661
 21
3.7253091922
  0
LINE
  5
45D
100
AcDbEntity
  8
0
100
AcDbLine
 62
7
  6
CONTINUOUS
 10
3.8716130499
 20
4.3714942107
 11
3.5887703374
 21
4.2300728545
  0
LINE
  5
45E
100
AcDbEntity
  8
0
100
AcDbLine
 62
7
  6
CONTINUOUS
 10
2.812457352
 20
3.8041074292
 11
2.5296146396
 21
3.6626860729
  0
LINE
  5
45F
100
AcDbEntity
  8
0
100
AcDbLine
 62
7
  6
CONTINUOUS
 10
1.8495885235
 20
3.3040455048
 11
1.566745811
 21
3.1626241486
  0
LINE
  5
460
100
AcDbEntity
  8
0
100
AcDbLine
 62
7
  6
CONTINUOUS
 10
-13.1393891354
 20
-4.1973612947
 11
-13.4222318479
 21
-4.338782651
  0
LINE
  5
461
100
AcDbEntity
  8
0
100
AcDbLine
 62
7
  6
CONTINUOUS
 10
2.9568876561
 20
3.8473618905
 11
2.6740449436
 21
3.7059405343
  0
LINE
  5
462
100
AcDbEntity
  8
0
100
AcDbLine
 62
7
  6
CONTINUOUS
 10
3.1494614622
 20
3.8088104548
 11
2.8666187498
 21
3.6673890986
  0
LINE
  5
463
100
AcDbEntity
  8
0
100
AcDbLine
 62
7
  6
CONTINUOUS
 10
-10.5940111983
 20
-3.19835651
 11
-10.8768539108
 21
-3.3397778662
  0
LINE
  5
464
100
AcDbEntity
  8
0
100
AcDbLine
 62
7
  6
CONTINUOUS
 10
1.8977319582
 20
2.9912990934
 11
1.6148892457
 21
2.8498777372
  0
LINE
  5
465
100
AcDbEntity
  8
0
100
AcDbLine
 62
7
  6
CONTINUOUS
 10
3.342035201
 20
3.7125235855
 11
3.0591924885
 21
3.5711022292
  0
LINE
  5
466
100
AcDbEntity
  8
0
100
AcDbLine
 62
7
  6
CONTINUOUS
 10
2.8606007867
 20
3.3758900829
 11
2.5777580742
 21
3.2344687267
  0
LINE
  5
467
100
AcDbEntity
  8
0
100
AcDbLine
 62
7
  6
CONTINUOUS
 10
3.4864655387
 20
3.5825729492
 11
3.2036228263
 21
3.4411515929
  0
LINE
  5
468
100
AcDbEntity
  8
0
100
AcDbLine
 62
7
  6
CONTINUOUS
 10
1.7111761151
 20
3.7832293196
 11
1.8556064191
 21
3.8264851024
  0
LINE
  5
469
100
AcDbEntity
  8
0
100
AcDbLine
 62
7
  6
CONTINUOUS
 10
2.9568876561
 20
3.8473618905
 11
2.812457352
 21
3.8041074292
  0
LINE
  5
46A
100
AcDbEntity
  8
0
100
AcDbLine
 62
7
  6
CONTINUOUS
 10
2.6740449436
 20
3.7059405343
 11
2.5296146396
 21
3.6626860729
  0
LINE
  5
46B
100
AcDbEntity
  8
0
100
AcDbLine
 62
7
  6
CONTINUOUS
 10
3.0591924885
 20
-2.0291958224
 11
3.2517662609
 21
-2.0100130953
  0
LINE
  5
46C
100
AcDbEntity
  8
0
100
AcDbLine
 62
7
  6
CONTINUOUS
 10
2.9147621845
 20
-2.0147161378
 11
3.0591924885
 21
-2.0291958224
  0
LINE
  5
46D
100
AcDbEntity
  8
0
100
AcDbLine
 62
7
  6
CONTINUOUS
 10
2.6740449436
 20
-1.9520916633
 11
2.9147621845
 21
-2.0147161378
  0
LINE
  5
46E
100
AcDbEntity
  8
0
100
AcDbLine
 62
7
  6
CONTINUOUS
 10
-12.1983664404
 20
3.5069805373
 11
-11.7650755282
 21
3.2903350813
  0
LINE
  5
46F
100
AcDbEntity
  8
0
100
AcDbLine
 62
7
  6
CONTINUOUS
 10
-11.8132189629
 20
3.6030819263
 11
-12.1502230057
 21
3.7715839477
  0
LINE
  5
470
100
AcDbEntity
  8
0
100
AcDbLine
 62
7
  6
CONTINUOUS
 10
-11.5303762504
 20
3.7445032826
 11
-11.8673802932
 21
3.9130053039
  0
LINE
  5
471
100
AcDbEntity
  8
RACCORDO
100
AcDbLine
 62
7
  6
CONTINUOUS
 10
9.7971678763
 20
-6.5827856341
 11
10.717891127
 21
-7.0431472595
  0
LINE
  5
472
100
AcDbEntity
  8
0
100
AcDbLine
 62
7
  6
CONTINUOUS
 10
-11.8132189629
 20
5.104192578
 11
-11.5243582874
 21
4.9020272684
  0
LINE
  5
473
100
AcDbEntity
  8
0
100
AcDbLine
 62
7
  6
CONTINUOUS
 10
-12.1502230057
 20
6.3119252491
 11
-12.4390836138
 21
6.5140903599
  0
LINE
  5
474
100
AcDbEntity
  8
0
100
AcDbLine
 62
7
  6
CONTINUOUS
 10
-11.8673802932
 20
6.4533466054
 11
-12.1562409013
 21
6.6555117161
  0
LINE
  5
475
100
AcDbEntity
  8
0
100
AcDbLine
 62
7
  6
CONTINUOUS
 10
-11.5243582874
 20
5.1907024581
 11
-11.7650755282
 21
5.3687960503
  0
LINE
  5
476
100
AcDbEntity
  8
0
100
AcDbLine
 62
7
  6
CONTINUOUS
 10
-11.2415155749
 20
5.3321238143
 11
-11.4822328157
 21
5.5102174066
  0
LINE
  5
477
100
AcDbEntity
  8
0
100
AcDbLine
 62
7
  6
CONTINUOUS
 10
-12.4390836138
 20
6.2254153354
 11
-12.1983664404
 21
6.0473217768
  0
LINE
  5
478
100
AcDbEntity
  8
0
100
AcDbLine
 62
7
  6
CONTINUOUS
 10
-11.3799279833
 20
7.6010934085
 11
-11.5243582874
 21
7.7310436976
  0
LINE
  5
479
100
AcDbEntity
  8
0
100
AcDbLine
 62
7
  6
CONTINUOUS
 10
-11.0970852709
 20
7.7425147647
 11
-11.2415155749
 21
7.8724650538
  0
LINE
  5
47A
100
AcDbEntity
  8
0
100
AcDbLine
 62
7
  6
CONTINUOUS
 10
-12.4390836138
 20
8.9966966275
 11
-12.5835140527
 21
9.126646984
  0
LINE
  5
47B
100
AcDbEntity
  8
0
100
AcDbLine
 62
7
  6
CONTINUOUS
 10
-12.1562409013
 20
9.1381179837
 11
-12.3006713402
 21
9.2680683402
  0
LINE
  5
47C
100
AcDbEntity
  8
0
100
AcDbLine
 62
7
  6
CONTINUOUS
 10
-12.7279443567
 20
8.9679219182
 11
-12.4872270485
 21
8.7320933204
  0
LINE
  5
47D
100
AcDbEntity
  8
0
100
AcDbLine
 62
7
  6
CONTINUOUS
 10
-12.3006713402
 20
11.8084094146
 11
-12.4451016443
 21
11.9960948407
  0
LINE
  5
47E
100
AcDbEntity
  8
0
100
AcDbLine
 62
7
  6
CONTINUOUS
 10
-12.1502230057
 20
12.9514534549
 11
-12.2946533097
 21
13.1391382203
  0
LINE
  5
47F
100
AcDbEntity
  8
0
100
AcDbLine
 62
7
  6
CONTINUOUS
 10
-11.8673802932
 20
13.0928748112
 11
-12.0118105973
 21
13.2805595766
  0
LINE
  5
480
100
AcDbEntity
  8
0
100
AcDbLine
 62
7
  6
CONTINUOUS
 10
-12.4390836138
 20
14.1351142435
 11
-12.7279443567
 21
14.5104845024
  0
LINE
  5
481
100
AcDbEntity
  8
0
100
AcDbLine
 62
7
  6
CONTINUOUS
 10
-11.0910673415
 20
12.4796104295
 11
-11.2354976456
 21
12.6672958556
  0
LINE
  5
482
100
AcDbEntity
  8
0
100
AcDbLine
 62
7
  6
CONTINUOUS
 10
3.3961965818
 20
-10.1651315839
 11
3.2517662609
 21
-9.9197113427
  0
LINE
  5
483
100
AcDbEntity
  8
0
100
AcDbLine
 62
7
  6
CONTINUOUS
 10
-11.04292389
 20
14.764940221
 11
-11.1873542109
 21
15.0103604622
  0
LINE
  5
484
100
AcDbEntity
  8
0
100
AcDbLine
 62
7
  6
CONTINUOUS
 10
3.6790392943
 20
-10.0237102276
 11
3.5346089734
 21
-9.7782899864
  0
LINE
  5
485
100
AcDbEntity
  8
0
100
AcDbLine
 62
7
  6
CONTINUOUS
 10
-10.7600811775
 20
14.9063615773
 11
-10.9045114984
 21
15.1517818185
  0
LINE
  5
486
100
AcDbEntity
  8
0
100
AcDbLine
 62
7
  6
CONTINUOUS
 10
1.7111761151
 20
-10.4195866417
 11
1.6148892457
 21
-10.1982381263
  0
LINE
  5
487
100
AcDbEntity
  8
0
100
AcDbLine
 62
7
  6
CONTINUOUS
 10
1.9940188276
 20
-10.2781652855
 11
1.8977319582
 21
-10.05681677
  0
LINE
  5
488
100
AcDbEntity
  8
0
100
AcDbLine
 62
7
  6
CONTINUOUS
 10
3.2036228263
 20
-12.6669209174
 11
3.2999096956
 21
-12.8882694329
  0
LINE
  5
489
100
AcDbEntity
  8
0
100
AcDbLine
 62
7
  6
CONTINUOUS
 10
3.2036228263
 20
-10.2420497868
 11
3.2999096956
 21
-10.4633983023
  0
LINE
  5
48A
100
AcDbEntity
  8
0
100
AcDbLine
 62
7
  6
CONTINUOUS
 10
1.3741720723
 20
-10.135615007
 11
1.5186023764
 21
-10.4965051835
  0
LINE
  5
48B
100
AcDbEntity
  8
0
100
AcDbLine
 62
7
  6
CONTINUOUS
 10
3.5406268985
 20
-12.9508928973
 11
3.3961965818
 21
-12.5900027145
  0
LINE
  5
48C
100
AcDbEntity
  8
0
100
AcDbLine
 62
7
  6
CONTINUOUS
 10
3.823469611
 20
-12.8094715411
 11
3.6790392943
 21
-12.4485813582
  0
LINE
  5
48D
100
AcDbEntity
  8
DRAFT
100
AcDbLine
 62
7
  6
CONTINUOUS
 10
0.101674446
 20
12.6159956802
 11
0.1147339182
 21
-4.0882079605
  0
LINE
  5
48E
100
AcDbEntity
  8
DRAFT
100
AcDbLine
 62
7
  6
CONTINUOUS
 10
-0.9459181599
 20
-18.7178496524
 11
-0.9459181599
 21
-17.259649664
  0
LINE
  5
48F
100
AcDbEntity
  8
RACCORDO
100
AcDbLine
 62
7
  6
CONTINUOUS
 10
-0.8647200102
 20
18.2355479486
 11
-0.8647200102
 21
17.2569155026
  0
LINE
  5
490
100
AcDbEntity
  8
DRAFT
100
AcDbLine
 62
7
  6
CONTINUOUS
 10
-0.6680124853
 20
11.8315284818
 11
-0.6680124853
 21
13.2897284702
  0
LINE
  5
491
100
AcDbEntity
  8
0
100
AcDbLine
 62
7
  6
CONTINUOUS
 10
0.6047797208
 20
9.5126058222
 11
0.6047797208
 21
-16.4681562913
  0
LINE
  5
492
100
AcDbEntity
  8
0
100
AcDbLine
 62
7
  6
CONTINUOUS
 10
0.6189218565
 20
9.5055347544
 11
0.6189218565
 21
-16.4610852235
  0
LINE
  5
493
100
AcDbEntity
  8
0
100
AcDbLine
 62
7
  6
CONTINUOUS
 10
1.4704589417
 20
4.0190588411
 11
1.3741720723
 21
3.8362617276
  0
LINE
  5
494
100
AcDbEntity
  8
0
100
AcDbLine
 62
7
  6
CONTINUOUS
 10
1.6148892457
 20
3.6581676735
 11
1.7111761151
 21
3.7832293196
  0
LINE
  5
495
100
AcDbEntity
  8
0
100
AcDbLine
 62
7
  6
CONTINUOUS
 10
2.5777580742
 20
3.2344687267
 11
2.6740449436
 21
3.3595303728
  0
LINE
  5
496
100
AcDbEntity
  8
0
100
AcDbLine
 62
7
  6
CONTINUOUS
 10
1.9940188276
 20
2.769950578
 11
1.7111761151
 21
2.6285292217
  0
LINE
  5
497
100
AcDbEntity
  8
0
100
AcDbLine
 62
7
  6
CONTINUOUS
 10
2.812457352
 20
3.0535516388
 11
2.5296146396
 21
2.9121302825
  0
LINE
  5
498
100
AcDbEntity
  8
0
100
AcDbLine
 62
7
  6
CONTINUOUS
 10
3.6308958428
 20
3.3948881838
 11
3.3480531303
 21
3.2534668276
  0
LINE
  5
499
100
AcDbEntity
  8
0
100
AcDbLine
 62
7
  6
CONTINUOUS
 10
-11.1021593445
 20
-3.999044221
 11
-11.3850020569
 21
-4.1404655772
  0
LINE
  5
49A
100
AcDbEntity
  8
0
100
AcDbLine
 62
7
  6
CONTINUOUS
 10
2.1384491316
 20
2.5822658126
 11
1.8556064191
 21
2.4408444563
  0
LINE
  5
49B
100
AcDbEntity
  8
0
100
AcDbLine
 62
7
  6
CONTINUOUS
 10
2.812457352
 20
2.8226110906
 11
2.5296146396
 21
2.6811897344
  0
LINE
  5
49C
100
AcDbEntity
  8
0
100
AcDbLine
 62
7
  6
CONTINUOUS
 10
3.727182729
 20
3.1735396599
 11
3.4443400165
 21
3.0321183037
  0
LINE
  5
49D
100
AcDbEntity
  8
0
100
AcDbLine
 62
7
  6
CONTINUOUS
 10
2.1384491316
 20
2.293589797
 11
1.8556064191
 21
2.1521684408
  0
LINE
  5
49E
100
AcDbEntity
  8
0
100
AcDbLine
 62
7
  6
CONTINUOUS
 10
3.823469611
 20
2.8944556708
 11
3.5406268985
 21
2.7530343145
  0
LINE
  5
49F
100
AcDbEntity
  8
0
100
AcDbLine
 62
7
  6
CONTINUOUS
 10
-10.5940111983
 20
-4.4326800013
 11
-10.8768539108
 21
-4.5741013575
  0
LINE
  5
4A0
100
AcDbEntity
  8
0
100
AcDbLine
 62
7
  6
CONTINUOUS
 10
3.8716130499
 20
2.6394434032
 11
3.5887703374
 21
2.4980220469
  0
LINE
  5
4A1
100
AcDbEntity
  8
0
100
AcDbLine
 62
7
  6
CONTINUOUS
 10
-13.1393891354
 20
-6.135785956
 11
-13.4222318479
 21
-6.2772073123
  0
LINE
  5
4A2
100
AcDbEntity
  8
0
100
AcDbLine
 62
7
  6
CONTINUOUS
 10
3.2440187843
 20
1.8737291021
 11
3.0591924885
 21
1.7813159543
  0
LINE
  5
4A3
100
AcDbEntity
  8
0
100
AcDbLine
 62
7
  6
CONTINUOUS
 10
3.8716130499
 20
2.1775636283
 11
3.5887703374
 21
2.0361422721
  0
LINE
  5
4A4
100
AcDbEntity
  8
0
100
AcDbLine
 62
7
  6
CONTINUOUS
 10
-10.5940111983
 20
-5.0763516506
 11
-10.8768539108
 21
-5.2177730069
  0
LINE
  5
4A5
100
AcDbEntity
  8
0
100
AcDbLine
 62
7
  6
CONTINUOUS
 10
-10.5940111983
 20
-5.178533988
 11
-10.8768539108
 21
-5.3199553442
  0
LINE
  5
4A6
100
AcDbEntity
  8
0
100
AcDbLine
 62
7
  6
CONTINUOUS
 10
3.823469611
 20
1.9706947996
 11
3.5406268985
 21
1.8292734434
  0
LINE
  5
4A7
100
AcDbEntity
  8
0
100
AcDbLine
 62
7
  6
CONTINUOUS
 10
3.727182729
 20
1.7878990139
 11
3.4443400165
 21
1.6464776576
  0
LINE
  5
4A8
100
AcDbEntity
  8
0
100
AcDbLine
 62
7
  6
CONTINUOUS
 10
3.6308958428
 20
1.6628373762
 11
3.3480531303
 21
1.52141602
  0
LINE
  5
4A9
100
AcDbEntity
  8
0
100
AcDbLine
 62
7
  6
CONTINUOUS
 10
3.2036228263
 20
1.4781602372
 11
3.3480531303
 21
1.52141602
  0
LINE
  5
4AA
100
AcDbEntity
  8
0
100
AcDbLine
 62
7
  6
CONTINUOUS
 10
1.8556064191
 20
0.4201176332
 11
1.6630326804
 21
0.4009348892
  0
LINE
  5
4AB
100
AcDbEntity
  8
0
100
AcDbLine
 62
7
  6
CONTINUOUS
 10
2.1384491316
 20
0.5615389894
 11
1.9458753929
 21
0.5423562455
  0
LINE
  5
4AC
100
AcDbEntity
  8
ASSI
100
AcDbLine
 62
7
  6
CONTINUOUS
 10
14.0259384925
 20
-3.8887819595
 11
14.9590473789
 21
-4.0820351374
  0
LINE
  5
4AD
100
AcDbEntity
  8
ASSI
100
AcDbLine
 62
7
  6
CONTINUOUS
 10
13.6016744238
 20
-3.6766499251
 11
14.5347833102
 21
-3.869903103
  0
LINE
  5
4AE
100
AcDbEntity
  8
ASSI
100
AcDbLine
 62
7
  6
CONTINUOUS
 10
12.409385492
 20
-3.6120687232
 11
13.2843573933
 21
-3.8353084403
  0
LINE
  5
4AF
100
AcDbEntity
  8
ASSI
100
AcDbLine
 62
7
  6
CONTINUOUS
 10
12.0572948869
 20
-3.3691529941
 11
13.4870796982
 21
-3.7339472879
  0
LINE
  5
4B0
100
AcDbEntity
  8
0
100
AcDbLine
 62
7
  6
CONTINUOUS
 10
-11.7650755282
 20
3.2903350813
 11
-11.5243582874
 21
3.2277114895
  0
LINE
  5
4B1
100
AcDbEntity
  8
0
100
AcDbLine
 62
7
  6
CONTINUOUS
 10
2.9147621845
 20
-1.7260401222
 11
2.6259015089
 21
-1.6393452518
  0
LINE
  5
4B2
100
AcDbEntity
  8
0
100
AcDbLine
 62
7
  6
CONTINUOUS
 10
3.1976048969
 20
-1.584618766
 11
2.9087442214
 21
-1.4979238956
  0
LINE
  5
4B3
100
AcDbEntity
  8
0
100
AcDbLine
 62
7
  6
CONTINUOUS
 10
-11.5243582874
 20
3.5163866224
 11
-11.8132189629
 21
3.6030819263
  0
LINE
  5
4B4
100
AcDbEntity
  8
0
100
AcDbLine
 62
7
  6
CONTINUOUS
 10
-11.2415155749
 20
3.6578079786
 11
-11.5303762504
 21
3.7445032826
  0
LINE
  5
4B5
100
AcDbEntity
  8
0
100
AcDbLine
 62
7
  6
CONTINUOUS
 10
-12.1502230057
 20
5.2726945994
 11
-11.8132189629
 21
5.104192578
  0
LINE
  5
4B6
100
AcDbEntity
  8
0
100
AcDbLine
 62
7
  6
CONTINUOUS
 10
2.2407540315
 20
-1.7354462072
 11
2.6740449436
 21
-1.9520916633
  0
LINE
  5
4B7
100
AcDbEntity
  8
0
100
AcDbLine
 62
7
  6
CONTINUOUS
 10
-11.7650755282
 20
5.3687960503
 11
-12.1983664404
 21
5.5854415064
  0
LINE
  5
4B8
100
AcDbEntity
  8
0
100
AcDbLine
 62
7
  6
CONTINUOUS
 10
2.6259015089
 20
-1.6393452518
 11
2.2888974661
 21
-1.4708432305
  0
LINE
  5
4B9
100
AcDbEntity
  8
0
100
AcDbLine
 62
7
  6
CONTINUOUS
 10
-11.4822328157
 20
5.5102174066
 11
-11.9155237279
 21
5.7268628627
  0
LINE
  5
4BA
100
AcDbEntity
  8
0
100
AcDbLine
 62
7
  6
CONTINUOUS
 10
-12.1983664404
 20
6.0473217768
 11
-11.7650755282
 21
5.8306763208
  0
LINE
  5
4BB
100
AcDbEntity
  8
0
100
AcDbLine
 62
7
  6
CONTINUOUS
 10
2.9087442214
 20
-1.4979238956
 11
2.5717401786
 21
-1.3294218742
  0
LINE
  5
4BC
100
AcDbEntity
  8
0
100
AcDbLine
 62
7
  6
CONTINUOUS
 10
-11.8132189629
 20
6.1434232278
 11
-12.1502230057
 21
6.3119252491
  0
LINE
  5
4BD
100
AcDbEntity
  8
0
100
AcDbLine
 62
7
  6
CONTINUOUS
 10
-11.5303762504
 20
6.284844584
 11
-11.8673802932
 21
6.4533466054
  0
LINE
  5
4BE
100
AcDbEntity
  8
0
100
AcDbLine
 62
7
  6
CONTINUOUS
 10
-11.8132189629
 20
7.6445338175
 11
-11.5243582874
 21
7.4423683427
  0
LINE
  5
4BF
100
AcDbEntity
  8
0
100
AcDbLine
 62
7
  6
CONTINUOUS
 10
2.2888974661
 20
-1.4708432305
 11
2.0000368581
 21
-1.268677459
  0
LINE
  5
4C0
100
AcDbEntity
  8
0
100
AcDbLine
 62
7
  6
CONTINUOUS
 10
2.5717401786
 20
-1.3294218742
 11
2.2828795705
 21
-1.1272561028
  0
LINE
  5
4C1
100
AcDbEntity
  8
0
100
AcDbLine
 62
7
  6
CONTINUOUS
 10
-11.5243582874
 20
7.7310436976
 11
-11.7650755282
 21
7.9091371247
  0
LINE
  5
4C2
100
AcDbEntity
  8
0
100
AcDbLine
 62
7
  6
CONTINUOUS
 10
-11.2415155749
 20
7.8724650538
 11
-11.4822328157
 21
8.0505584809
  0
LINE
  5
4C3
100
AcDbEntity
  8
0
100
AcDbLine
 62
7
  6
CONTINUOUS
 10
2.0000368581
 20
-1.5573534746
 11
2.2407540315
 21
-1.7354462072
  0
LINE
  5
4C4
100
AcDbEntity
  8
0
100
AcDbLine
 62
7
  6
CONTINUOUS
 10
-12.3427967444
 20
10.3919286456
 11
-12.1983664404
 21
10.2619786869
  0
LINE
  5
4C5
100
AcDbEntity
  8
0
100
AcDbLine
 62
7
  6
CONTINUOUS
 10
-11.5243582874
 20
9.982709417
 11
-11.3799279833
 21
9.8527594583
  0
LINE
  5
4C6
100
AcDbEntity
  8
0
100
AcDbLine
 62
7
  6
CONTINUOUS
 10
1.8556064191
 20
-1.4274027877
 11
2.0000368581
 21
-1.5573534746
  0
LINE
  5
4C7
100
AcDbEntity
  8
0
100
AcDbLine
 62
7
  6
CONTINUOUS
 10
-11.2354976456
 20
10.0114841769
 11
-11.4762148527
 21
10.2473130545
  0
LINE
  5
4C8
100
AcDbEntity
  8
0
100
AcDbLine
 62
7
  6
CONTINUOUS
 10
-10.9526549331
 20
10.1529055331
 11
-11.1933721402
 21
10.3887344108
  0
LINE
  5
4C9
100
AcDbEntity
  8
0
100
AcDbLine
 62
7
  6
CONTINUOUS
 10
-12.4872270485
 20
13.0044852023
 11
-12.2946533097
 21
12.7927280588
  0
LINE
  5
4CA
100
AcDbEntity
  8
0
100
AcDbLine
 62
7
  6
CONTINUOUS
 10
-11.3799279833
 20
12.5085704764
 11
-11.283641114
 21
12.402692235
  0
LINE
  5
4CB
100
AcDbEntity
  8
0
100
AcDbLine
 62
7
  6
CONTINUOUS
 10
-12.7760877914
 20
14.1881460583
 11
-12.5835140527
 21
13.9763889148
  0
LINE
  5
4CC
100
AcDbEntity
  8
0
100
AcDbLine
 62
7
  6
CONTINUOUS
 10
1.6630326804
 20
-1.215646305
 11
1.8556064191
 21
-1.4274027877
  0
LINE
  5
4CD
100
AcDbEntity
  8
0
100
AcDbLine
 62
7
  6
CONTINUOUS
 10
-12.1562409013
 20
14.2765355998
 11
-12.4451016443
 21
14.6519058587
  0
LINE
  5
4CE
100
AcDbEntity
  8
0
100
AcDbLine
 62
7
  6
CONTINUOUS
 10
-10.808224629
 20
12.6210317858
 11
-10.9526549331
 21
12.8087172119
  0
LINE
  5
4CF
100
AcDbEntity
  8
0
100
AcDbLine
 62
7
  6
CONTINUOUS
 10
-11.5243582874
 20
15.0633915657
 11
-11.2354976456
 21
14.6880220181
  0
LINE
  5
4D0
100
AcDbEntity
  8
0
100
AcDbLine
 62
7
  6
CONTINUOUS
 10
2.5296146396
 20
-6.0367991102
 11
2.4333277702
 21
-5.8154505947
  0
LINE
  5
4D1
100
AcDbEntity
  8
0
100
AcDbLine
 62
7
  6
CONTINUOUS
 10
2.812457352
 20
-5.8953777539
 11
2.7161704827
 21
-5.6740292385
  0
LINE
  5
4D2
100
AcDbEntity
  8
0
100
AcDbLine
 62
7
  6
CONTINUOUS
 10
3.5406268985
 20
-10.5260220971
 11
3.3961965818
 21
-10.1651315839
  0
LINE
  5
4D3
100
AcDbEntity
  8
0
100
AcDbLine
 62
7
  6
CONTINUOUS
 10
3.823469611
 20
-10.3846007408
 11
3.6790392943
 21
-10.0237102276
  0
LINE
  5
4D4
100
AcDbEntity
  8
0
100
AcDbLine
 62
7
  6
CONTINUOUS
 10
2.3370409008
 20
-5.76730716
 11
2.4333277702
 21
-6.0463904822
  0
LINE
  5
4D5
100
AcDbEntity
  8
0
100
AcDbLine
 62
7
  6
CONTINUOUS
 10
2.4333277702
 20
-5.122629611
 11
2.5296146396
 21
-5.4017135938
  0
LINE
  5
4D6
100
AcDbEntity
  8
0
100
AcDbLine
 62
7
  6
CONTINUOUS
 10
2.4333277702
 20
-13.2632687369
 11
2.3851843355
 21
-13.0082571321
  0
LINE
  5
4D7
100
AcDbEntity
  8
0
100
AcDbLine
 62
7
  6
CONTINUOUS
 10
2.7161704827
 20
-13.1218473807
 11
2.668027048
 21
-12.8668357759
  0
LINE
  5
4D8
100
AcDbEntity
  8
0
100
AcDbLine
 62
7
  6
CONTINUOUS
 10
1.6148892457
 20
-15.3943907555
 11
1.566745811
 21
-15.0816438898
  0
LINE
  5
4D9
100
AcDbEntity
  8
0
100
AcDbLine
 62
7
  6
CONTINUOUS
 10
1.8977319582
 20
-15.2529693992
 11
1.8495885235
 21
-14.9402225335
  0
LINE
  5
4DA
100
AcDbEntity
  8
0
100
AcDbLine
 62
7
  6
CONTINUOUS
 10
1.6148892457
 20
-10.1982381263
 11
1.566745811
 21
-9.8854917148
  0
LINE
  5
4DB
100
AcDbEntity
  8
0
100
AcDbLine
 62
7
  6
CONTINUOUS
 10
2.1444671621
 20
-12.8878985454
 11
2.1926105968
 21
-13.2006452872
  0
LINE
  5
4DC
100
AcDbEntity
  8
0
100
AcDbLine
 62
7
  6
CONTINUOUS
 10
1.8977319582
 20
-10.05681677
 11
1.8495885235
 21
-9.7440703586
  0
LINE
  5
4DD
100
AcDbEntity
  8
0
100
AcDbLine
 62
7
  6
CONTINUOUS
 10
1.3260286376
 20
-9.7651331281
 11
1.3741720723
 21
-10.135615007
  0
LINE
  5
4DE
100
AcDbEntity
  8
0
100
AcDbLine
 62
7
  6
CONTINUOUS
 10
1.3260286376
 20
-14.9035503312
 11
1.3741720723
 21
-15.3317672232
  0
LINE
  5
4DF
100
AcDbEntity
  8
0
100
AcDbLine
 62
7
  6
CONTINUOUS
 10
1.3260286376
 20
7.6708452216
 11
1.3260286376
 21
7.3244350601
  0
LINE
  5
4E0
100
AcDbEntity
  8
0
100
AcDbLine
 62
7
  6
CONTINUOUS
 10
1.3260286376
 20
6.5161438023
 11
1.3260286376
 21
6.0542640274
  0
LINE
  5
4E1
100
AcDbEntity
  8
0
100
AcDbLine
 62
7
  6
CONTINUOUS
 10
1.3260286376
 20
5.245974091
 11
1.3260286376
 21
4.8995639295
  0
LINE
  5
4E2
100
AcDbEntity
  8
0
100
AcDbLine
 62
7
  6
CONTINUOUS
 10
1.3260286376
 20
3.4561878161
 11
1.3260286376
 21
3.3407182027
  0
LINE
  5
4E3
100
AcDbEntity
  8
0
100
AcDbLine
 62
7
  6
CONTINUOUS
 10
1.3260286376
 20
-5.9546213515
 11
1.3260286376
 21
-6.301031513
  0
LINE
  5
4E4
100
AcDbEntity
  8
0
100
AcDbLine
 62
7
  6
CONTINUOUS
 10
1.3260286376
 20
-7.9176120465
 11
1.3260286376
 21
-8.264022208
  0
LINE
  5
4E5
100
AcDbEntity
  8
0
100
AcDbLine
 62
7
  6
CONTINUOUS
 10
1.3260286376
 20
-11.3817136616
 11
1.3260286376
 21
-13.3447045218
  0
LINE
  5
4E6
100
AcDbEntity
  8
0
100
AcDbLine
 62
7
  6
CONTINUOUS
 10
1.3260286376
 20
-14.672610196
 11
1.3260286376
 21
-14.9035503312
  0
LINE
  5
4E7
100
AcDbEntity
  8
0
100
AcDbLine
 62
7
  6
CONTINUOUS
 10
1.566745811
 20
-15.0816438898
 11
1.566745811
 21
-14.8507038372
  0
LINE
  5
4E8
100
AcDbEntity
  8
0
100
AcDbLine
 62
7
  6
CONTINUOUS
 10
1.566745811
 20
-13.1763879189
 11
1.566745811
 21
-11.5020722483
  0
LINE
  5
4E9
100
AcDbEntity
  8
0
100
AcDbLine
 62
7
  6
CONTINUOUS
 10
1.566745811
 20
3.1626241486
 11
1.566745811
 21
3.3935646968
  0
LINE
  5
4EA
100
AcDbEntity
  8
0
100
AcDbLine
 62
7
  6
CONTINUOUS
 10
1.8495885235
 20
-14.9402225335
 11
1.8495885235
 21
-14.7092824809
  0
LINE
  5
4EB
100
AcDbEntity
  8
0
100
AcDbLine
 62
7
  6
CONTINUOUS
 10
1.8495885235
 20
-13.0349665626
 11
1.8495885235
 21
-11.3606508921
  0
LINE
  5
4EC
100
AcDbEntity
  8
0
100
AcDbLine
 62
7
  6
CONTINUOUS
 10
1.8495885235
 20
3.3040455048
 11
1.8495885235
 21
3.534986053
  0
LINE
  5
4ED
100
AcDbEntity
  8
0
100
AcDbLine
 62
7
  6
CONTINUOUS
 10
1.8556064191
 20
-16.0920996234
 11
1.8556064191
 21
-15.8034244905
  0
LINE
  5
4EE
100
AcDbEntity
  8
0
100
AcDbLine
 62
7
  6
CONTINUOUS
 10
1.8556064191
 20
2.1521684408
 11
1.8556064191
 21
2.4408444563
  0
LINE
  5
4EF
100
AcDbEntity
  8
0
100
AcDbLine
 62
7
  6
CONTINUOUS
 10
2.1384491316
 20
-15.9506782672
 11
2.1384491316
 21
-15.6620031343
  0
LINE
  5
4F0
100
AcDbEntity
  8
0
100
AcDbLine
 62
7
  6
CONTINUOUS
 10
2.1384491316
 20
2.293589797
 11
2.1384491316
 21
2.5822658126
  0
LINE
  5
4F1
100
AcDbEntity
  8
0
100
AcDbLine
 62
7
  6
CONTINUOUS
 10
2.1444671621
 20
-12.5414883839
 11
2.1444671621
 21
-12.8878985454
  0
LINE
  5
4F2
100
AcDbEntity
  8
0
100
AcDbLine
 62
7
  6
CONTINUOUS
 10
2.3370409008
 20
3.0084171519
 11
2.3370409008
 21
2.7774766037
  0
LINE
  5
4F3
100
AcDbEntity
  8
0
100
AcDbLine
 62
7
  6
CONTINUOUS
 10
2.3851843355
 20
-13.0082571321
 11
2.3851843355
 21
-12.6618469706
  0
LINE
  5
4F4
100
AcDbEntity
  8
0
100
AcDbLine
 62
7
  6
CONTINUOUS
 10
1.3741720723
 20
3.8362617276
 11
1.3260286376
 21
3.4561878161
  0
LINE
  5
4F5
100
AcDbEntity
  8
0
100
AcDbLine
 62
7
  6
CONTINUOUS
 10
1.3741720723
 20
0.0834854184
 11
1.3260286376
 21
-0.2388530258
  0
LINE
  5
4F6
100
AcDbEntity
  8
0
100
AcDbLine
 62
7
  6
CONTINUOUS
 10
2.5296146396
 20
2.9121302825
 11
2.5777580742
 21
3.2344687267
  0
LINE
  5
4F7
100
AcDbEntity
  8
0
100
AcDbLine
 62
7
  6
CONTINUOUS
 10
2.812457352
 20
3.0535516388
 11
2.8606007867
 21
3.3758900829
  0
LINE
  5
4F8
100
AcDbEntity
  8
0
100
AcDbLine
 62
7
  6
CONTINUOUS
 10
1.566745811
 20
3.3935646968
 11
1.6148892457
 21
3.6581676735
  0
LINE
  5
4F9
100
AcDbEntity
  8
0
100
AcDbLine
 62
7
  6
CONTINUOUS
 10
1.8495885235
 20
3.534986053
 11
1.8977319582
 21
3.7995890298
  0
LINE
  5
4FA
100
AcDbEntity
  8
0
100
AcDbLine
 62
7
  6
CONTINUOUS
 10
1.566745811
 20
-0.3592116125
 11
1.6148892457
 21
-0.0946086357
  0
LINE
  5
4FB
100
AcDbEntity
  8
0
100
AcDbLine
 62
7
  6
CONTINUOUS
 10
1.8495885235
 20
-0.2177902562
 11
1.8977319582
 21
0.0468127205
  0
LINE
  5
4FC
100
AcDbEntity
  8
0
100
AcDbLine
 62
7
  6
CONTINUOUS
 10
2.5296146396
 20
3.6626860729
 11
2.4333277702
 21
3.4221534921
  0
LINE
  5
4FD
100
AcDbEntity
  8
0
100
AcDbLine
 62
7
  6
CONTINUOUS
 10
3.2999096956
 20
1.9496320448
 11
3.2517662609
 21
1.8582341488
  0
LINE
  5
4FE
100
AcDbEntity
  8
0
100
AcDbLine
 62
7
  6
CONTINUOUS
 10
1.5186023764
 20
0.2999449605
 11
1.3741720723
 21
0.0834854184
  0
LINE
  5
4FF
100
AcDbEntity
  8
0
100
AcDbLine
 62
7
  6
CONTINUOUS
 10
1.6148892457
 20
-0.0946086357
 11
1.7111761151
 21
0.0304530104
  0
LINE
  5
500
100
AcDbEntity
  8
0
100
AcDbLine
 62
7
  6
CONTINUOUS
 10
1.8977319582
 20
0.0468127205
 11
1.9372688194
 21
0.0981649452
  0
LINE
  5
501
100
AcDbEntity
  8
0
100
AcDbLine
 62
7
  6
CONTINUOUS
 10
3.3480531303
 20
1.52141602
 11
3.4443400165
 21
1.6464776576
  0
LINE
  5
502
100
AcDbEntity
  8
0
100
AcDbLine
 62
7
  6
CONTINUOUS
 10
3.6308958428
 20
1.6628373762
 11
3.727182729
 21
1.7878990139
  0
LINE
  5
503
100
AcDbEntity
  8
0
100
AcDbLine
 62
7
  6
CONTINUOUS
 10
3.2517662609
 20
1.8582341488
 11
3.1554793579
 21
1.790907987
  0
LINE
  5
504
100
AcDbEntity
  8
0
100
AcDbLine
 62
7
  6
CONTINUOUS
 10
1.6630326804
 20
0.4009348892
 11
1.5186023764
 21
0.2999449605
  0
LINE
  5
505
100
AcDbEntity
  8
0
100
AcDbLine
 62
7
  6
CONTINUOUS
 10
1.9458753929
 20
0.5423562455
 11
1.6630326804
 21
0.4009348892
  0
LINE
  5
506
100
AcDbEntity
  8
0
100
AcDbLine
 62
7
  6
CONTINUOUS
 10
2.1384491316
 20
0.5615389894
 11
1.8556064191
 21
0.4201176332
  0
LINE
  5
507
100
AcDbEntity
  8
0
100
AcDbLine
 62
7
  6
CONTINUOUS
 10
-10.5940111983
 20
-5.8151232816
 11
-10.8768539108
 21
-5.9565446378
  0
LINE
  5
508
100
AcDbEntity
  8
0
100
AcDbLine
 62
7
  6
CONTINUOUS
 10
2.2828795705
 20
0.5470592374
 11
2.0000368581
 21
0.4056378812
  0
LINE
  5
509
100
AcDbEntity
  8
0
100
AcDbLine
 62
7
  6
CONTINUOUS
 10
2.5235967439
 20
0.4844361181
 11
2.2407540315
 21
0.3430147619
  0
LINE
  5
50A
100
AcDbEntity
  8
0
100
AcDbLine
 62
7
  6
CONTINUOUS
 10
3.6308958428
 20
1.0277511992
 11
3.3480531303
 21
0.8863298429
  0
LINE
  5
50B
100
AcDbEntity
  8
0
100
AcDbLine
 62
7
  6
CONTINUOUS
 10
-13.1395418704
 20
-7.4176991181
 11
-13.4223845829
 21
-7.5591204743
  0
LINE
  5
50C
100
AcDbEntity
  8
0
100
AcDbLine
 62
7
  6
CONTINUOUS
 10
1.8977319582
 20
0.0468127205
 11
1.6148892457
 21
-0.0946086357
  0
LINE
  5
50D
100
AcDbEntity
  8
0
100
AcDbLine
 62
7
  6
CONTINUOUS
 10
1.8495885235
 20
-0.2177902562
 11
1.566745811
 21
-0.3592116125
  0
LINE
  5
50E
100
AcDbEntity
  8
0
100
AcDbLine
 62
7
  6
CONTINUOUS
 10
2.9568876561
 20
0.267790662
 11
2.6740449436
 21
0.1263693058
  0
LINE
  5
50F
100
AcDbEntity
  8
0
100
AcDbLine
 62
7
  6
CONTINUOUS
 10
-10.5940111983
 20
-6.7225377715
 11
-10.8768539108
 21
-6.8639591277
  0
LINE
  5
510
100
AcDbEntity
  8
0
100
AcDbLine
 62
7
  6
CONTINUOUS
 10
1.8977319582
 20
-0.5305379891
 11
1.6148892457
 21
-0.6719593454
  0
LINE
  5
511
100
AcDbEntity
  8
0
100
AcDbLine
 62
7
  6
CONTINUOUS
 10
3.1976048969
 20
0.0896965742
 11
2.9147621845
 21
-0.051724782
  0
LINE
  5
512
100
AcDbEntity
  8
0
100
AcDbLine
 62
7
  6
CONTINUOUS
 10
-10.5940111983
 20
-6.8138029926
 11
-10.8768539108
 21
-6.9552243488
  0
LINE
  5
513
100
AcDbEntity
  8
0
100
AcDbLine
 62
7
  6
CONTINUOUS
 10
4.1604736917
 20
0.4165521132
 11
3.8776309792
 21
0.2751307569
  0
LINE
  5
514
100
AcDbEntity
  8
0
100
AcDbLine
 62
7
  6
CONTINUOUS
 10
3.342035201
 20
-0.0402540452
 11
3.0591924885
 21
-0.1816754015
  0
LINE
  5
515
100
AcDbEntity
  8
0
100
AcDbLine
 62
7
  6
CONTINUOUS
 10
-13.1807441281
 20
-8.3306721901
 11
-13.4222318479
 21
-8.45141605
  0
LINE
  5
516
100
AcDbEntity
  8
0
100
AcDbLine
 62
7
  6
CONTINUOUS
 10
1.9940188276
 20
-0.7518865046
 11
1.7111761151
 21
-0.8933078608
  0
LINE
  5
517
100
AcDbEntity
  8
0
100
AcDbLine
 62
7
  6
CONTINUOUS
 10
4.1604736917
 20
0.1278774191
 11
3.8776309792
 21
-0.0135439372
  0
LINE
  5
518
100
AcDbEntity
  8
0
100
AcDbLine
 62
7
  6
CONTINUOUS
 10
3.5346089734
 20
-0.2520105448
 11
3.2517662609
 21
-0.393431901
  0
LINE
  5
519
100
AcDbEntity
  8
0
100
AcDbLine
 62
7
  6
CONTINUOUS
 10
1.7111761151
 20
0.0304530104
 11
2.0000368581
 21
0.116963187
  0
LINE
  5
51A
100
AcDbEntity
  8
0
100
AcDbLine
 62
7
  6
CONTINUOUS
 10
3.1554793579
 20
1.790907987
 11
3.0591924885
 21
1.7813159543
  0
LINE
  5
51B
100
AcDbEntity
  8
0
100
AcDbLine
 62
7
  6
CONTINUOUS
 10
2.0000368581
 20
0.4056378812
 11
1.8556064191
 21
0.4201176332
  0
LINE
  5
51C
100
AcDbEntity
  8
0
100
AcDbLine
 62
7
  6
CONTINUOUS
 10
2.2828795705
 20
0.5470592374
 11
2.1384491316
 21
0.5615389894
  0
LINE
  5
51D
100
AcDbEntity
  8
0
100
AcDbLine
 62
7
  6
CONTINUOUS
 10
3.0591924885
 20
1.4926412602
 11
3.2036228263
 21
1.4781602372
  0
LINE
  5
51E
100
AcDbEntity
  8
0
100
AcDbLine
 62
7
  6
CONTINUOUS
 10
-11.5243582874
 20
3.2277114895
 11
-11.3799279833
 21
3.2132313661
  0
LINE
  5
51F
100
AcDbEntity
  8
0
100
AcDbLine
 62
7
  6
CONTINUOUS
 10
2.2407540315
 20
0.3430147619
 11
2.0000368581
 21
0.4056378812
  0
LINE
  5
520
100
AcDbEntity
  8
0
100
AcDbLine
 62
7
  6
CONTINUOUS
 10
2.5235967439
 20
0.4844361181
 11
2.2828795705
 21
0.5470592374
  0
LINE
  5
521
100
AcDbEntity
  8
0
100
AcDbLine
 62
7
  6
CONTINUOUS
 10
-12.1983664404
 20
5.5854415064
 11
-12.4390836138
 21
5.6480651213
  0
LINE
  5
522
100
AcDbEntity
  8
0
100
AcDbLine
 62
7
  6
CONTINUOUS
 10
2.0000368581
 20
0.116963187
 11
2.2888974661
 21
0.030267029
  0
LINE
  5
523
100
AcDbEntity
  8
0
100
AcDbLine
 62
7
  6
CONTINUOUS
 10
-12.4390836138
 20
5.3593899316
 11
-12.1502230057
 21
5.2726945994
  0
LINE
  5
524
100
AcDbEntity
  8
0
100
AcDbLine
 62
7
  6
CONTINUOUS
 10
2.2888974661
 20
0.030267029
 11
2.6259015089
 21
-0.1382349924
  0
LINE
  5
525
100
AcDbEntity
  8
0
100
AcDbLine
 62
7
  6
CONTINUOUS
 10
2.6740449436
 20
0.1263693058
 11
2.2407540315
 21
0.3430147619
  0
LINE
  5
526
100
AcDbEntity
  8
0
100
AcDbLine
 62
7
  6
CONTINUOUS
 10
-12.1502230057
 20
7.8130358389
 11
-11.8132189629
 21
7.6445338175
  0
LINE
  5
527
100
AcDbEntity
  8
0
100
AcDbLine
 62
7
  6
CONTINUOUS
 10
2.9568876561
 20
0.267790662
 11
2.5235967439
 21
0.4844361181
  0
LINE
  5
528
100
AcDbEntity
  8
0
100
AcDbLine
 62
7
  6
CONTINUOUS
 10
-11.7650755282
 20
7.9091371247
 11
-12.1983664404
 21
8.1257825807
  0
LINE
  5
529
100
AcDbEntity
  8
0
100
AcDbLine
 62
7
  6
CONTINUOUS
 10
-11.4822328157
 20
8.0505584809
 11
-11.9155237279
 21
8.267203937
  0
LINE
  5
52A
100
AcDbEntity
  8
0
100
AcDbLine
 62
7
  6
CONTINUOUS
 10
-12.4872270485
 20
8.7320933204
 11
-12.2946533097
 21
8.635806451
  0
LINE
  5
52B
100
AcDbEntity
  8
0
100
AcDbLine
 62
7
  6
CONTINUOUS
 10
-11.4762148527
 20
10.2473130545
 11
-11.8132189629
 21
10.4735499163
  0
LINE
  5
52C
100
AcDbEntity
  8
0
100
AcDbLine
 62
7
  6
CONTINUOUS
 10
-11.1933721402
 20
10.3887344108
 11
-11.5303762504
 21
10.6149712726
  0
LINE
  5
52D
100
AcDbEntity
  8
0
100
AcDbLine
 62
7
  6
CONTINUOUS
 10
2.6259015089
 20
-0.1382349924
 11
2.9147621845
 21
-0.3403994762
  0
LINE
  5
52E
100
AcDbEntity
  8
0
100
AcDbLine
 62
7
  6
CONTINUOUS
 10
-11.8132189629
 20
10.1848752222
 11
-11.5243582874
 21
9.982709417
  0
LINE
  5
52F
100
AcDbEntity
  8
0
100
AcDbLine
 62
7
  6
CONTINUOUS
 10
2.9147621845
 20
-0.051724782
 11
2.6740449436
 21
0.1263693058
  0
LINE
  5
530
100
AcDbEntity
  8
0
100
AcDbLine
 62
7
  6
CONTINUOUS
 10
3.1976048969
 20
0.0896965742
 11
2.9568876561
 21
0.267790662
  0
LINE
  5
531
100
AcDbEntity
  8
0
100
AcDbLine
 62
7
  6
CONTINUOUS
 10
-12.7760877914
 20
11.5323350402
 11
-12.5835140527
 21
11.3783127035
  0
LINE
  5
532
100
AcDbEntity
  8
0
100
AcDbLine
 62
7
  6
CONTINUOUS
 10
-11.2354976456
 20
12.6672958556
 11
-11.3799279833
 21
12.7972458312
  0
LINE
  5
533
100
AcDbEntity
  8
0
100
AcDbLine
 62
7
  6
CONTINUOUS
 10
3.0591924885
 20
-0.1816754015
 11
2.9147621845
 21
-0.051724782
  0
LINE
  5
534
100
AcDbEntity
  8
0
100
AcDbLine
 62
7
  6
CONTINUOUS
 10
-12.5835140527
 20
13.9763889148
 11
-12.4390836138
 21
13.8464388887
  0
LINE
  5
535
100
AcDbEntity
  8
0
100
AcDbLine
 62
7
  6
CONTINUOUS
 10
-10.9526549331
 20
12.8087172119
 11
-11.0970852709
 21
12.9386671874
  0
LINE
  5
536
100
AcDbEntity
  8
0
100
AcDbLine
 62
7
  6
CONTINUOUS
 10
3.342035201
 20
-0.0402540452
 11
3.1976048969
 21
0.0896965742
  0
LINE
  5
537
100
AcDbEntity
  8
0
100
AcDbLine
 62
7
  6
CONTINUOUS
 10
-11.1873542109
 20
15.0103604622
 11
-11.3799279833
 21
15.2221169618
  0
LINE
  5
538
100
AcDbEntity
  8
0
100
AcDbLine
 62
7
  6
CONTINUOUS
 10
-10.9045114984
 20
15.1517818185
 11
-11.0970852709
 21
15.363538318
  0
LINE
  5
539
100
AcDbEntity
  8
0
100
AcDbLine
 62
7
  6
CONTINUOUS
 10
3.2517662609
 20
-0.393431901
 11
3.0591924885
 21
-0.1816754015
  0
LINE
  5
53A
100
AcDbEntity
  8
0
100
AcDbLine
 62
7
  6
CONTINUOUS
 10
3.5346089734
 20
-0.2520105448
 11
3.342035201
 21
-0.0402540452
  0
LINE
  5
53B
100
AcDbEntity
  8
0
100
AcDbLine
 62
7
  6
CONTINUOUS
 10
2.0000368581
 20
-1.268677459
 11
1.7111761151
 21
-0.8933078608
  0
LINE
  5
53C
100
AcDbEntity
  8
0
100
AcDbLine
 62
7
  6
CONTINUOUS
 10
2.2828795705
 20
-1.1272561028
 11
1.9940188276
 21
-0.7518865046
  0
LINE
  5
53D
100
AcDbEntity
  8
0
100
AcDbLine
 62
7
  6
CONTINUOUS
 10
2.9147621845
 20
-0.3403994762
 11
3.2036228263
 21
-0.7157703452
  0
LINE
  5
53E
100
AcDbEntity
  8
0
100
AcDbLine
 62
7
  6
CONTINUOUS
 10
1.5186023764
 20
-0.9702260722
 11
1.6630326804
 21
-1.215646305
  0
LINE
  5
53F
100
AcDbEntity
  8
0
100
AcDbLine
 62
7
  6
CONTINUOUS
 10
1.7111761151
 20
-0.8933078608
 11
1.6148892457
 21
-0.6719593454
  0
LINE
  5
540
100
AcDbEntity
  8
0
100
AcDbLine
 62
7
  6
CONTINUOUS
 10
1.9940188276
 20
-0.7518865046
 11
1.8977319582
 21
-0.5305379891
  0
LINE
  5
541
100
AcDbEntity
  8
0
100
AcDbLine
 62
7
  6
CONTINUOUS
 10
1.3741720723
 20
-0.6093349046
 11
1.5186023764
 21
-0.9702260722
  0
LINE
  5
542
100
AcDbEntity
  8
0
100
AcDbLine
 62
7
  6
CONTINUOUS
 10
1.3741720723
 20
2.9125008565
 11
1.4704589417
 21
2.6334181951
  0
LINE
  5
543
100
AcDbEntity
  8
0
100
AcDbLine
 62
7
  6
CONTINUOUS
 10
2.6259015089
 20
-5.4498570285
 11
2.5296146396
 21
-5.1130388997
  0
LINE
  5
544
100
AcDbEntity
  8
0
100
AcDbLine
 62
7
  6
CONTINUOUS
 10
2.9087442214
 20
-5.3084356723
 11
2.812457352
 21
-4.9716175435
  0
LINE
  5
545
100
AcDbEntity
  8
0
100
AcDbLine
 62
7
  6
CONTINUOUS
 10
3.2999096956
 20
-12.8882694329
 11
3.3480531303
 21
-13.143281368
  0
LINE
  5
546
100
AcDbEntity
  8
0
100
AcDbLine
 62
7
  6
CONTINUOUS
 10
1.6148892457
 20
-0.6719593454
 11
1.566745811
 21
-0.3592116125
  0
LINE
  5
547
100
AcDbEntity
  8
0
100
AcDbLine
 62
7
  6
CONTINUOUS
 10
3.5887703374
 20
-13.2636399716
 11
3.5406268985
 21
-12.9508928973
  0
LINE
  5
548
100
AcDbEntity
  8
0
100
AcDbLine
 62
7
  6
CONTINUOUS
 10
3.2999096956
 20
-10.4633983023
 11
3.3480531303
 21
-10.7761453745
  0
LINE
  5
549
100
AcDbEntity
  8
0
100
AcDbLine
 62
7
  6
CONTINUOUS
 10
1.8977319582
 20
-0.5305379891
 11
1.8495885235
 21
-0.2177902562
  0
LINE
  5
54A
100
AcDbEntity
  8
0
100
AcDbLine
 62
7
  6
CONTINUOUS
 10
3.8716130499
 20
-13.1222186153
 11
3.823469611
 21
-12.8094715411
  0
LINE
  5
54B
100
AcDbEntity
  8
0
100
AcDbLine
 62
7
  6
CONTINUOUS
 10
1.6148892457
 20
2.8498777372
 11
1.566745811
 21
3.1626241486
  0
LINE
  5
54C
100
AcDbEntity
  8
0
100
AcDbLine
 62
7
  6
CONTINUOUS
 10
1.8977319582
 20
2.9912990934
 11
1.8495885235
 21
3.3040455048
  0
LINE
  5
54D
100
AcDbEntity
  8
0
100
AcDbLine
 62
7
  6
CONTINUOUS
 10
1.3260286376
 20
-0.2388530258
 11
1.3741720723
 21
-0.6093349046
  0
LINE
  5
54E
100
AcDbEntity
  8
0
100
AcDbLine
 62
7
  6
CONTINUOUS
 10
3.5887703374
 20
-10.896503978
 11
3.5406268985
 21
-10.5260220971
  0
LINE
  5
54F
100
AcDbEntity
  8
0
100
AcDbLine
 62
7
  6
CONTINUOUS
 10
1.3260286376
 20
3.3407182027
 11
1.3741720723
 21
2.9125008565
  0
LINE
  5
550
100
AcDbEntity
  8
0
100
AcDbLine
 62
7
  6
CONTINUOUS
 10
2.5296146396
 20
2.6811897344
 11
2.5296146396
 21
2.9121302825
  0
LINE
  5
551
100
AcDbEntity
  8
0
100
AcDbLine
 62
7
  6
CONTINUOUS
 10
2.5777580742
 20
-13.9705692401
 11
2.5777580742
 21
-13.5664241067
  0
LINE
  5
552
100
AcDbEntity
  8
0
100
AcDbLine
 62
7
  6
CONTINUOUS
 10
2.668027048
 20
-12.8668357759
 11
2.668027048
 21
-12.5204256144
  0
LINE
  5
553
100
AcDbEntity
  8
0
100
AcDbLine
 62
7
  6
CONTINUOUS
 10
2.812457352
 20
2.8226110906
 11
2.812457352
 21
3.0535516388
  0
LINE
  5
554
100
AcDbEntity
  8
0
100
AcDbLine
 62
7
  6
CONTINUOUS
 10
2.8606007867
 20
-13.8291478839
 11
2.8606007867
 21
-13.4250027505
  0
LINE
  5
555
100
AcDbEntity
  8
0
100
AcDbLine
 62
7
  6
CONTINUOUS
 10
3.0110490538
 20
-13.8408047336
 11
3.0110490538
 21
-14.1872147299
  0
LINE
  5
556
100
AcDbEntity
  8
0
100
AcDbLine
 62
7
  6
CONTINUOUS
 10
3.0591924885
 20
1.7813159543
 11
3.0591924885
 21
1.4926412602
  0
LINE
  5
557
100
AcDbEntity
  8
0
100
AcDbLine
 62
7
  6
CONTINUOUS
 10
3.3480531303
 20
2.5606465045
 11
3.3480531303
 21
2.214236343
  0
LINE
  5
558
100
AcDbEntity
  8
0
100
AcDbLine
 62
7
  6
CONTINUOUS
 10
3.3480531303
 20
0.8863298429
 11
3.3480531303
 21
0.5976551488
  0
LINE
  5
559
100
AcDbEntity
  8
0
100
AcDbLine
 62
7
  6
CONTINUOUS
 10
3.3480531303
 20
-13.143281368
 11
3.3480531303
 21
-13.4896915295
  0
LINE
  5
55A
100
AcDbEntity
  8
0
100
AcDbLine
 62
7
  6
CONTINUOUS
 10
3.3480531303
 20
-14.8175970385
 11
3.3480531303
 21
-16.4341777785
  0
LINE
  5
55B
100
AcDbEntity
  8
0
100
AcDbLine
 62
7
  6
CONTINUOUS
 10
3.5887703374
 20
-17.0164166112
 11
3.5887703374
 21
-14.9379556421
  0
LINE
  5
55C
100
AcDbEntity
  8
0
100
AcDbLine
 62
7
  6
CONTINUOUS
 10
3.5887703374
 20
-13.6100501331
 11
3.5887703374
 21
-13.2636399716
  0
LINE
  5
55D
100
AcDbEntity
  8
0
100
AcDbLine
 62
7
  6
CONTINUOUS
 10
3.5887703374
 20
-8.4716328474
 11
3.5887703374
 21
-8.0097524118
  0
LINE
  5
55E
100
AcDbEntity
  8
0
100
AcDbLine
 62
7
  6
CONTINUOUS
 10
3.5887703374
 20
2.0361422721
 11
3.5887703374
 21
2.4980220469
  0
LINE
  5
55F
100
AcDbEntity
  8
0
100
AcDbLine
 62
7
  6
CONTINUOUS
 10
3.5887703374
 20
4.2300728545
 11
3.5887703374
 21
4.6919539508
  0
LINE
  5
560
100
AcDbEntity
  8
0
100
AcDbLine
 62
7
  6
CONTINUOUS
 10
3.5887703374
 20
5.615714822
 11
3.5887703374
 21
6.0775932754
  0
LINE
  5
561
100
AcDbEntity
  8
0
100
AcDbLine
 62
7
  6
CONTINUOUS
 10
3.8716130499
 20
-16.874995255
 11
3.8716130499
 21
-14.7965342859
  0
LINE
  5
562
100
AcDbEntity
  8
0
100
AcDbLine
 62
7
  6
CONTINUOUS
 10
3.8716130499
 20
-13.4686287769
 11
3.8716130499
 21
-13.1222186153
  0
LINE
  5
563
100
AcDbEntity
  8
0
100
AcDbLine
 62
7
  6
CONTINUOUS
 10
3.8716130499
 20
-8.3302114912
 11
3.8716130499
 21
-7.8683310556
  0
LINE
  5
564
100
AcDbEntity
  8
0
100
AcDbLine
 62
7
  6
CONTINUOUS
 10
3.8716130499
 20
2.1775636283
 11
3.8716130499
 21
2.6394434032
  0
LINE
  5
565
100
AcDbEntity
  8
0
100
AcDbLine
 62
7
  6
CONTINUOUS
 10
3.8716130499
 20
4.3714942107
 11
3.8716130499
 21
4.8333753071
  0
LINE
  5
566
100
AcDbEntity
  8
0
100
AcDbLine
 62
7
  6
CONTINUOUS
 10
3.8716130499
 20
5.7571361782
 11
3.8716130499
 21
6.2190146317
  0
LINE
  5
567
100
AcDbEntity
  8
0
100
AcDbLine
 62
7
  6
CONTINUOUS
 10
3.8776309792
 20
-0.0135439372
 11
3.8776309792
 21
0.2751307569
  0
LINE
  5
568
100
AcDbEntity
  8
0
100
AcDbLine
 62
7
  6
CONTINUOUS
 10
1.3741720723
 20
-9.442794684
 11
1.3260286376
 21
-9.7651331281
  0
LINE
  5
569
100
AcDbEntity
  8
0
100
AcDbLine
 62
7
  6
CONTINUOUS
 10
1.3741720723
 20
-14.3502717518
 11
1.3260286376
 21
-14.672610196
  0
LINE
  5
56A
100
AcDbEntity
  8
0
100
AcDbLine
 62
7
  6
CONTINUOUS
 10
3.5406268985
 20
-1.6925623177
 11
3.5887703374
 21
-1.3702238757
  0
LINE
  5
56B
100
AcDbEntity
  8
0
100
AcDbLine
 62
7
  6
CONTINUOUS
 10
3.823469611
 20
-1.5511409615
 11
3.8716130499
 21
-1.2288025194
  0
LINE
  5
56C
100
AcDbEntity
  8
0
100
AcDbLine
 62
7
  6
CONTINUOUS
 10
3.3480531303
 20
2.214236343
 11
3.2999096956
 21
1.9496320448
  0
LINE
  5
56D
100
AcDbEntity
  8
0
100
AcDbLine
 62
7
  6
CONTINUOUS
 10
1.566745811
 20
-9.8854917148
 11
1.6148892457
 21
-9.6208880773
  0
LINE
  5
56E
100
AcDbEntity
  8
0
100
AcDbLine
 62
7
  6
CONTINUOUS
 10
3.3480531303
 20
-1.2498652721
 11
3.2999096956
 21
-1.5144695703
  0
LINE
  5
56F
100
AcDbEntity
  8
0
100
AcDbLine
 62
7
  6
CONTINUOUS
 10
1.8495885235
 20
-9.7440703586
 11
1.8977319582
 21
-9.4794667211
  0
LINE
  5
570
100
AcDbEntity
  8
0
100
AcDbLine
 62
7
  6
CONTINUOUS
 10
3.5406268985
 20
1.8292734434
 11
3.5887703374
 21
2.0361422721
  0
LINE
  5
571
100
AcDbEntity
  8
0
100
AcDbLine
 62
7
  6
CONTINUOUS
 10
3.823469611
 20
1.9706947996
 11
3.8716130499
 21
2.1775636283
  0
LINE
  5
572
100
AcDbEntity
  8
0
100
AcDbLine
 62
7
  6
CONTINUOUS
 10
3.4443400165
 20
1.6464776576
 11
3.5406268985
 21
1.8292734434
  0
LINE
  5
573
100
AcDbEntity
  8
0
100
AcDbLine
 62
7
  6
CONTINUOUS
 10
3.727182729
 20
1.7878990139
 11
3.823469611
 21
1.9706947996
  0
LINE
  5
574
100
AcDbEntity
  8
0
100
AcDbLine
 62
7
  6
CONTINUOUS
 10
3.3961965818
 20
-1.909023175
 11
3.5406268985
 21
-1.6925623177
  0
LINE
  5
575
100
AcDbEntity
  8
0
100
AcDbLine
 62
7
  6
CONTINUOUS
 10
3.2999096956
 20
-1.5144695703
 11
3.2036228263
 21
-1.6395312164
  0
LINE
  5
576
100
AcDbEntity
  8
0
100
AcDbLine
 62
7
  6
CONTINUOUS
 10
3.2517662609
 20
-2.0100130953
 11
3.3961965818
 21
-1.909023175
  0
LINE
  5
577
100
AcDbEntity
  8
0
100
AcDbLine
 62
7
  6
CONTINUOUS
 10
3.5346089734
 20
-1.868591739
 11
3.6790392943
 21
-1.7676018187
  0
LINE
  5
578
100
AcDbEntity
  8
RACCORDO
100
AcDbLine
 62
7
  6
CONTINUOUS
 10
9.7971678763
 20
2.9960963929
 11
10.7301241461
 21
3.499447704
  0
LINE
  5
579
100
AcDbEntity
  8
0
100
AcDbLine
 62
7
  6
CONTINUOUS
 10
2.2828795705
 20
-1.1272561028
 11
2.0000368581
 21
-1.268677459
  0
LINE
  5
57A
100
AcDbEntity
  8
0
100
AcDbLine
 62
7
  6
CONTINUOUS
 10
3.6790392943
 20
-0.497430786
 11
3.3961965818
 21
-0.6388521423
  0
LINE
  5
57B
100
AcDbEntity
  8
0
100
AcDbLine
 62
7
  6
CONTINUOUS
 10
-10.5940111983
 20
-7.7176165489
 11
-10.8768539108
 21
-7.8590379051
  0
LINE
  5
57C
100
AcDbEntity
  8
0
100
AcDbLine
 62
7
  6
CONTINUOUS
 10
2.5717401786
 20
-1.3294218742
 11
2.2888974661
 21
-1.4708432305
  0
LINE
  5
57D
100
AcDbEntity
  8
0
100
AcDbLine
 62
7
  6
CONTINUOUS
 10
3.823469611
 20
-0.8583206385
 11
3.5406268985
 21
-0.9997419947
  0
LINE
  5
57E
100
AcDbEntity
  8
0
100
AcDbLine
 62
7
  6
CONTINUOUS
 10
2.9087442214
 20
-1.4979238956
 11
2.6259015089
 21
-1.6393452518
  0
LINE
  5
57F
100
AcDbEntity
  8
0
100
AcDbLine
 62
7
  6
CONTINUOUS
 10
-10.5940111983
 20
-8.3401554463
 11
-10.8768539108
 21
-8.4815768025
  0
LINE
  5
580
100
AcDbEntity
  8
0
100
AcDbLine
 62
7
  6
CONTINUOUS
 10
3.8716130499
 20
-1.2288025194
 11
3.5887703374
 21
-1.3702238757
  0
LINE
  5
581
100
AcDbEntity
  8
0
100
AcDbLine
 62
7
  6
CONTINUOUS
 10
3.1976048969
 20
-1.584618766
 11
2.9147621845
 21
-1.7260401222
  0
LINE
  5
582
100
AcDbEntity
  8
0
100
AcDbLine
 62
7
  6
CONTINUOUS
 10
-10.5940111983
 20
-8.6904644541
 11
-10.8768539108
 21
-8.8318858104
  0
LINE
  5
583
100
AcDbEntity
  8
0
100
AcDbLine
 62
7
  6
CONTINUOUS
 10
3.823469611
 20
-1.5511409615
 11
3.5406268985
 21
-1.6925623177
  0
LINE
  5
584
100
AcDbEntity
  8
0
100
AcDbLine
 62
7
  6
CONTINUOUS
 10
-13.1393891354
 20
-10.1669159722
 11
-13.4222318479
 21
-10.3083373285
  0
LINE
  5
585
100
AcDbEntity
  8
0
100
AcDbLine
 62
7
  6
CONTINUOUS
 10
3.6790392943
 20
-1.7676018187
 11
3.3961965818
 21
-1.909023175
  0
LINE
  5
586
100
AcDbEntity
  8
0
100
AcDbLine
 62
7
  6
CONTINUOUS
 10
3.5346089734
 20
-1.868591739
 11
3.2517662609
 21
-2.0100130953
  0
LINE
  5
587
100
AcDbEntity
  8
0
100
AcDbLine
 62
7
  6
CONTINUOUS
 10
-10.5940111983
 20
-9.3411959426
 11
-10.8768539108
 21
-9.4826172988
  0
LINE
  5
588
100
AcDbEntity
  8
0
100
AcDbLine
 62
7
  6
CONTINUOUS
 10
3.260373806
 20
-1.565820533
 11
3.1976048969
 21
-1.584618766
  0
LINE
  5
589
100
AcDbEntity
  8
0
100
AcDbLine
 62
7
  6
CONTINUOUS
 10
3.2036228263
 20
-1.6395312164
 11
2.9147621845
 21
-1.7260401222
  0
LINE
  5
58A
100
AcDbEntity
  8
0
100
AcDbLine
 62
7
  6
CONTINUOUS
 10
2.6740449436
 20
3.3595303728
 11
2.8666187498
 21
3.378713083
  0
LINE
  5
58B
100
AcDbEntity
  8
0
100
AcDbLine
 62
7
  6
CONTINUOUS
 10
-11.9155237279
 20
5.7268628627
 11
-12.1562409013
 21
5.7894864775
  0
LINE
  5
58C
100
AcDbEntity
  8
0
100
AcDbLine
 62
7
  6
CONTINUOUS
 10
-11.7650755282
 20
5.8306763208
 11
-11.5243582874
 21
5.7680526722
  0
LINE
  5
58D
100
AcDbEntity
  8
0
100
AcDbLine
 62
7
  6
CONTINUOUS
 10
-11.5243582874
 20
6.0567276967
 11
-11.8132189629
 21
6.1434232278
  0
LINE
  5
58E
100
AcDbEntity
  8
0
100
AcDbLine
 62
7
  6
CONTINUOUS
 10
-11.2415155749
 20
6.1981490529
 11
-11.5303762504
 21
6.284844584
  0
LINE
  5
58F
100
AcDbEntity
  8
0
100
AcDbLine
 62
7
  6
CONTINUOUS
 10
-12.4390836138
 20
7.8997310059
 11
-12.1502230057
 21
7.8130358389
  0
LINE
  5
590
100
AcDbEntity
  8
0
100
AcDbLine
 62
7
  6
CONTINUOUS
 10
14.6408063326
 20
-3.9202849784
 11
14.5866899654
 21
-3.8958564306
  0
LINE
  5
591
100
AcDbEntity
  8
0
100
AcDbLine
 62
7
  6
CONTINUOUS
 10
-12.3427967444
 20
8.9485531928
 11
-12.4390836138
 21
8.9966966275
  0
LINE
  5
592
100
AcDbEntity
  8
0
100
AcDbLine
 62
7
  6
CONTINUOUS
 10
-12.0599540319
 20
9.0899745491
 11
-12.1562409013
 21
9.1381179837
  0
LINE
  5
593
100
AcDbEntity
  8
ASSI
100
AcDbLine
 62
7
  6
CONTINUOUS
 10
14.0259384925
 20
-3.8887819595
 11
13.6016744238
 21
-3.6766499251
  0
LINE
  5
594
100
AcDbEntity
  8
0
100
AcDbLine
 62
7
  6
CONTINUOUS
 10
14.9590473789
 20
-4.0820351374
 11
14.5347833102
 21
-3.869903103
  0
LINE
  5
595
100
AcDbEntity
  8
0
100
AcDbLine
 62
7
  6
CONTINUOUS
 10
2.3370409008
 20
2.7774766037
 11
2.5296146396
 21
2.6811897344
  0
LINE
  5
596
100
AcDbEntity
  8
0
100
AcDbLine
 62
7
  6
CONTINUOUS
 10
-12.4390836138
 20
10.4400720802
 11
-12.3427967444
 21
10.3919286456
  0
LINE
  5
597
100
AcDbEntity
  8
0
100
AcDbLine
 62
7
  6
CONTINUOUS
 10
-11.9095058323
 20
10.2330186569
 11
-11.8132189629
 21
10.1848752222
  0
LINE
  5
598
100
AcDbEntity
  8
0
100
AcDbLine
 62
7
  6
CONTINUOUS
 10
-11.8132189629
 20
10.4735499163
 11
-12.1502230057
 21
10.6420519377
  0
LINE
  5
599
100
AcDbEntity
  8
ASSI
100
AcDbLine
 62
7
  6
CONTINUOUS
 10
12.0572948869
 20
-3.3691529941
 11
12.409385492
 21
-3.6120687232
  0
LINE
  5
59A
100
AcDbEntity
  8
0
100
AcDbLine
 62
7
  6
CONTINUOUS
 10
-12.4390836138
 20
13.8464388887
 11
-12.1983664404
 21
13.6683454953
  0
LINE
  5
59B
100
AcDbEntity
  8
0
100
AcDbLine
 62
7
  6
CONTINUOUS
 10
-12.2946533097
 20
13.1391382203
 11
-12.4872270485
 21
13.2931605571
  0
LINE
  5
59C
100
AcDbEntity
  8
0
100
AcDbLine
 62
7
  6
CONTINUOUS
 10
1.6630326804
 20
2.3061907775
 11
1.8556064191
 21
2.1521684408
  0
LINE
  5
59D
100
AcDbEntity
  8
0
100
AcDbLine
 62
7
  6
CONTINUOUS
 10
-12.0118105973
 20
13.2805595766
 11
-12.204384336
 21
13.4345819133
  0
LINE
  5
59E
100
AcDbEntity
  8
0
100
AcDbLine
 62
7
  6
CONTINUOUS
 10
-11.3799279833
 20
15.2221169618
 11
-11.5243582874
 21
15.3520675812
  0
LINE
  5
59F
100
AcDbEntity
  8
0
100
AcDbLine
 62
7
  6
CONTINUOUS
 10
-11.0970852709
 20
15.363538318
 11
-11.2415155749
 21
15.4934889375
  0
LINE
  5
5A0
100
AcDbEntity
  8
0
100
AcDbLine
 62
7
  6
CONTINUOUS
 10
1.9518934234
 20
3.7783416003
 11
2.1444671621
 21
3.5665837961
  0
LINE
  5
5A1
100
AcDbEntity
  8
0
100
AcDbLine
 62
7
  6
CONTINUOUS
 10
3.3480531303
 20
0.5976551488
 11
3.8776309792
 21
-0.0135439372
  0
LINE
  5
5A2
100
AcDbEntity
  8
0
100
AcDbLine
 62
7
  6
CONTINUOUS
 10
3.8776309792
 20
0.2751307569
 11
3.3480531303
 21
0.8863298429
  0
LINE
  5
5A3
100
AcDbEntity
  8
0
100
AcDbLine
 62
7
  6
CONTINUOUS
 10
4.1604736917
 20
0.4165521132
 11
3.6308958428
 21
1.0277511992
  0
LINE
  5
5A4
100
AcDbEntity
  8
0
100
AcDbLine
 62
7
  6
CONTINUOUS
 10
1.8556064191
 20
2.4408444563
 11
1.7111761151
 21
2.6285292217
  0
LINE
  5
5A5
100
AcDbEntity
  8
0
100
AcDbLine
 62
7
  6
CONTINUOUS
 10
2.1384491316
 20
2.5822658126
 11
1.9940188276
 21
2.769950578
  0
LINE
  5
5A6
100
AcDbEntity
  8
0
100
AcDbLine
 62
7
  6
CONTINUOUS
 10
2.2888974661
 20
3.7253091922
 11
2.1444671621
 21
3.9129939576
  0
LINE
  5
5A7
100
AcDbEntity
  8
0
100
AcDbLine
 62
7
  6
CONTINUOUS
 10
1.4704589417
 20
2.6334181951
 11
1.6630326804
 21
2.3061907775
  0
LINE
  5
5A8
100
AcDbEntity
  8
0
100
AcDbLine
 62
7
  6
CONTINUOUS
 10
3.3961965818
 20
-0.6388521423
 11
3.2517662609
 21
-0.393431901
  0
LINE
  5
5A9
100
AcDbEntity
  8
0
100
AcDbLine
 62
7
  6
CONTINUOUS
 10
3.6790392943
 20
-0.497430786
 11
3.5346089734
 21
-0.2520105448
  0
LINE
  5
5AA
100
AcDbEntity
  8
0
100
AcDbLine
 62
7
  6
CONTINUOUS
 10
2.1444671621
 20
3.5665837961
 11
2.2407540315
 21
3.4029707481
  0
LINE
  5
5AB
100
AcDbEntity
  8
0
100
AcDbLine
 62
7
  6
CONTINUOUS
 10
2.4333277702
 20
3.4221534921
 11
2.2888974661
 21
3.7253091922
  0
LINE
  5
5AC
100
AcDbEntity
  8
0
100
AcDbLine
 62
7
  6
CONTINUOUS
 10
2.640586331
 20
3.7222241467
 11
2.5717401786
 21
3.8667305485
  0
LINE
  5
5AD
100
AcDbEntity
  8
0
100
AcDbLine
 62
7
  6
CONTINUOUS
 10
1.7111761151
 20
2.6285292217
 11
1.6148892457
 21
2.8498777372
  0
LINE
  5
5AE
100
AcDbEntity
  8
0
100
AcDbLine
 62
7
  6
CONTINUOUS
 10
3.2036228263
 20
-0.7157703452
 11
3.2999096956
 21
-0.9371188607
  0
LINE
  5
5AF
100
AcDbEntity
  8
0
100
AcDbLine
 62
7
  6
CONTINUOUS
 10
1.9940188276
 20
2.769950578
 11
1.8977319582
 21
2.9912990934
  0
LINE
  5
5B0
100
AcDbEntity
  8
0
100
AcDbLine
 62
7
  6
CONTINUOUS
 10
3.5406268985
 20
-0.9997419947
 11
3.3961965818
 21
-0.6388521423
  0
LINE
  5
5B1
100
AcDbEntity
  8
0
100
AcDbLine
 62
7
  6
CONTINUOUS
 10
3.823469611
 20
-0.8583206385
 11
3.6790392943
 21
-0.497430786
  0
LINE
  5
5B2
100
AcDbEntity
  8
0
100
AcDbLine
 62
7
  6
CONTINUOUS
 10
3.2517662609
 20
3.0129342467
 11
3.2999096956
 21
2.873392916
  0
LINE
  5
5B3
100
AcDbEntity
  8
0
100
AcDbLine
 62
7
  6
CONTINUOUS
 10
2.2407540315
 20
3.4029707481
 11
2.3370409008
 21
3.0084171519
  0
LINE
  5
5B4
100
AcDbEntity
  8
0
100
AcDbLine
 62
7
  6
CONTINUOUS
 10
3.5887703374
 20
2.4980220469
 11
3.5406268985
 21
2.7530343145
  0
LINE
  5
5B5
100
AcDbEntity
  8
0
100
AcDbLine
 62
7
  6
CONTINUOUS
 10
3.2999096956
 20
-0.9371188607
 11
3.3480531303
 21
-1.2498652721
  0
LINE
  5
5B6
100
AcDbEntity
  8
0
100
AcDbLine
 62
7
  6
CONTINUOUS
 10
3.2999096956
 20
2.873392916
 11
3.3480531303
 21
2.5606465045
  0
LINE
  5
5B7
100
AcDbEntity
  8
0
100
AcDbLine
 62
7
  6
CONTINUOUS
 10
3.8716130499
 20
-10.7550826218
 11
3.823469611
 21
-10.3846007408
  0
LINE
  5
5B8
100
AcDbEntity
  8
0
100
AcDbLine
 62
7
  6
CONTINUOUS
 10
3.5887703374
 20
-1.3702238757
 11
3.5406268985
 21
-0.9997419947
  0
LINE
  5
5B9
100
AcDbEntity
  8
0
100
AcDbLine
 62
7
  6
CONTINUOUS
 10
3.8716130499
 20
-1.2288025194
 11
3.823469611
 21
-0.8583206385
  0
LINE
  5
5BA
100
AcDbEntity
  8
0
100
AcDbLine
 62
7
  6
CONTINUOUS
 10
4.1604736917
 20
0.1278774191
 11
4.1604736917
 21
0.4165521132
  0
LINE
  5
5BB
100
AcDbEntity
  8
0
100
AcDbLine
 62
7
  6
CONTINUOUS
 10
4.8474204079
 20
-18.5894766349
 11
4.8474204079
 21
7.3912854786
  0
LINE
  5
5BC
100
AcDbEntity
  8
DRAFT
100
AcDbLine
 62
7
  6
CONTINUOUS
 10
5.408168795
 20
-20.1688889341
 11
5.408168795
 21
8.23674431
  0
LINE
  5
5BD
100
AcDbEntity
  8
DRAFT
100
AcDbLine
 62
7
  6
CONTINUOUS
 10
5.6959485454
 20
-20.0299360968
 11
5.6959485454
 21
8.3756971473
  0
LINE
  5
5BE
100
AcDbEntity
  8
0
100
AcDbLine
 62
7
  6
CONTINUOUS
 10
3.5406268985
 20
-11.2188424201
 11
3.5887703374
 21
-10.896503978
  0
LINE
  5
5BF
100
AcDbEntity
  8
0
100
AcDbLine
 62
7
  6
CONTINUOUS
 10
3.823469611
 20
-11.0774210639
 11
3.8716130499
 21
-10.7550826218
  0
LINE
  5
5C0
100
AcDbEntity
  8
0
100
AcDbLine
 62
7
  6
CONTINUOUS
 10
1.566745811
 20
-14.8507038372
 11
1.6148892457
 21
-14.5861004474
  0
LINE
  5
5C1
100
AcDbEntity
  8
0
100
AcDbLine
 62
7
  6
CONTINUOUS
 10
2.1926105968
 20
-12.2768847464
 11
2.1444671621
 21
-12.5414883839
  0
LINE
  5
5C2
100
AcDbEntity
  8
0
100
AcDbLine
 62
7
  6
CONTINUOUS
 10
1.8495885235
 20
-14.7092824809
 11
1.8977319582
 21
-14.4446790912
  0
LINE
  5
5C3
100
AcDbEntity
  8
0
100
AcDbLine
 62
7
  6
CONTINUOUS
 10
3.3480531303
 20
-10.7761453745
 11
3.2999096956
 21
-11.0407483512
  0
LINE
  5
5C4
100
AcDbEntity
  8
0
100
AcDbLine
 62
7
  6
CONTINUOUS
 10
2.3851843355
 20
-12.6618469706
 11
2.4333277702
 21
-12.4549784702
  0
LINE
  5
5C5
100
AcDbEntity
  8
0
100
AcDbLine
 62
7
  6
CONTINUOUS
 10
2.668027048
 20
-12.5204256144
 11
2.7161704827
 21
-12.3135571139
  0
LINE
  5
5C6
100
AcDbEntity
  8
0
100
AcDbLine
 62
7
  6
CONTINUOUS
 10
2.5296146396
 20
-5.4017135938
 11
2.3370409008
 21
-5.76730716
  0
LINE
  5
5C7
100
AcDbEntity
  8
0
100
AcDbLine
 62
7
  6
CONTINUOUS
 10
2.4333277702
 20
-5.8154505947
 11
2.6259015089
 21
-5.4498570285
  0
LINE
  5
5C8
100
AcDbEntity
  8
0
100
AcDbLine
 62
7
  6
CONTINUOUS
 10
2.7161704827
 20
-5.6740292385
 11
2.9087442214
 21
-5.3084356723
  0
LINE
  5
5C9
100
AcDbEntity
  8
0
100
AcDbLine
 62
7
  6
CONTINUOUS
 10
3.6790392943
 20
-1.7676018187
 11
3.823469611
 21
-1.5511409615
  0
LINE
  5
5CA
100
AcDbEntity
  8
0
100
AcDbLine
 62
7
  6
CONTINUOUS
 10
-10.5940111983
 20
-10.5847547288
 11
-10.8768539108
 21
-10.726176085
  0
LINE
  5
5CB
100
AcDbEntity
  8
0
100
AcDbLine
 62
7
  6
CONTINUOUS
 10
-10.5940111983
 20
-11.1582125025
 11
-10.8768539108
 21
-11.2996338587
  0
LINE
  5
5CC
100
AcDbEntity
  8
0
100
AcDbLine
 62
7
  6
CONTINUOUS
 10
-11.3799279833
 20
3.2132313661
 11
-11.1873542109
 21
3.2324145372
  0
LINE
  5
5CD
100
AcDbEntity
  8
0
100
AcDbLine
 62
7
  6
CONTINUOUS
 10
-12.4390836138
 20
5.6480651213
 11
-12.5835140527
 21
5.6625452037
  0
LINE
  5
5CE
100
AcDbEntity
  8
0
100
AcDbLine
 62
7
  6
CONTINUOUS
 10
-12.1562409013
 20
5.7894864775
 11
-12.3006713402
 21
5.8039665599
  0
LINE
  5
5CF
100
AcDbEntity
  8
0
100
AcDbLine
 62
7
  6
CONTINUOUS
 10
-11.5243582874
 20
5.7680526722
 11
-11.3799279833
 21
5.753572492
  0
LINE
  5
5D0
100
AcDbEntity
  8
0
100
AcDbLine
 62
7
  6
CONTINUOUS
 10
2.8666187498
 20
3.6673890986
 11
2.6740449436
 21
3.7059405343
  0
LINE
  5
5D1
100
AcDbEntity
  8
0
100
AcDbLine
 62
7
  6
CONTINUOUS
 10
3.1494614622
 20
3.8088104548
 11
2.9568876561
 21
3.8473618905
  0
LINE
  5
5D2
100
AcDbEntity
  8
0
100
AcDbLine
 62
7
  6
CONTINUOUS
 10
1.8556064191
 20
4.1151597965
 11
1.6630326804
 21
4.1537111985
  0
LINE
  5
5D3
100
AcDbEntity
  8
0
100
AcDbLine
 62
7
  6
CONTINUOUS
 10
2.1384491316
 20
4.2565811527
 11
1.9458753929
 21
4.2951325547
  0
LINE
  5
5D4
100
AcDbEntity
  8
0
100
AcDbLine
 62
7
  6
CONTINUOUS
 10
-12.1983664404
 20
8.1257825807
 11
-12.4390836138
 21
8.1884063608
  0
LINE
  5
5D5
100
AcDbEntity
  8
0
100
AcDbLine
 62
7
  6
CONTINUOUS
 10
-11.9155237279
 20
8.267203937
 11
-12.1562409013
 21
8.329827717
  0
LINE
  5
5D6
100
AcDbEntity
  8
0
100
AcDbLine
 62
7
  6
CONTINUOUS
 10
1.3260286376
 20
4.8995639295
 11
3.5887703374
 21
4.2300728545
  0
LINE
  5
5D7
100
AcDbEntity
  8
0
100
AcDbLine
 62
7
  6
CONTINUOUS
 10
3.0591924885
 20
4.7258023271
 11
1.3260286376
 21
5.245974091
  0
LINE
  5
5D8
100
AcDbEntity
  8
0
100
AcDbLine
 62
7
  6
CONTINUOUS
 10
2.5739295186
 20
5.097754044
 11
1.6088713501
 21
5.3873954473
  0
LINE
  5
5D9
100
AcDbEntity
  8
0
100
AcDbLine
 62
7
  6
CONTINUOUS
 10
1.8556064191
 20
3.8264851024
 11
1.9518934234
 21
3.7783416003
  0
LINE
  5
5DA
100
AcDbEntity
  8
0
100
AcDbLine
 62
7
  6
CONTINUOUS
 10
2.8666187498
 20
3.378713083
 11
3.0591924885
 21
3.2824262137
  0
LINE
  5
5DB
100
AcDbEntity
  8
0
100
AcDbLine
 62
7
  6
CONTINUOUS
 10
-11.5303762504
 20
10.6149712726
 11
-11.8673802932
 21
10.7834732939
  0
LINE
  5
5DC
100
AcDbEntity
  8
0
100
AcDbLine
 62
7
  6
CONTINUOUS
 10
1.9518934234
 20
4.0670162944
 11
1.8556064191
 21
4.1151597965
  0
LINE
  5
5DD
100
AcDbEntity
  8
0
100
AcDbLine
 62
7
  6
CONTINUOUS
 10
3.0591924885
 20
3.5711022292
 11
2.8666187498
 21
3.6673890986
  0
LINE
  5
5DE
100
AcDbEntity
  8
0
100
AcDbLine
 62
7
  6
CONTINUOUS
 10
2.2347361358
 20
4.2084376506
 11
2.1384491316
 21
4.2565811527
  0
LINE
  5
5DF
100
AcDbEntity
  8
0
100
AcDbLine
 62
7
  6
CONTINUOUS
 10
3.342035201
 20
3.7125235855
 11
3.1494614622
 21
3.8088104548
  0
LINE
  5
5E0
100
AcDbEntity
  8
0
100
AcDbLine
 62
7
  6
CONTINUOUS
 10
-12.102079571
 20
12.0036208664
 11
-11.9095058323
 21
11.9073339971
  0
LINE
  5
5E1
100
AcDbEntity
  8
0
100
AcDbLine
 62
7
  6
CONTINUOUS
 10
-12.1502230057
 20
13.9329484721
 11
-12.4390836138
 21
14.1351142435
  0
LINE
  5
5E2
100
AcDbEntity
  8
0
100
AcDbLine
 62
7
  6
CONTINUOUS
 10
-11.8673802932
 20
14.0743698283
 11
-12.1562409013
 21
14.2765355998
  0
LINE
  5
5E3
100
AcDbEntity
  8
0
100
AcDbLine
 62
7
  6
CONTINUOUS
 10
-11.8132189629
 20
15.2655573708
 11
-11.5243582874
 21
15.0633915657
  0
LINE
  5
5E4
100
AcDbEntity
  8
0
100
AcDbLine
 62
7
  6
CONTINUOUS
 10
-11.5243582874
 20
15.3520675812
 11
-11.7650755282
 21
15.5301603476
  0
LINE
  5
5E5
100
AcDbEntity
  8
0
100
AcDbLine
 62
7
  6
CONTINUOUS
 10
-11.2415155749
 20
15.4934889375
 11
-11.4822328157
 21
15.6715817038
  0
LINE
  5
5E6
100
AcDbEntity
  8
0
100
AcDbLine
 62
7
  6
CONTINUOUS
 10
3.5887703374
 20
4.6919539508
 11
1.7593195498
 21
6.0685591195
  0
LINE
  5
5E7
100
AcDbEntity
  8
0
100
AcDbLine
 62
7
  6
CONTINUOUS
 10
1.3260286376
 20
6.0542640274
 11
3.0591924885
 21
4.7258023271
  0
LINE
  5
5E8
100
AcDbEntity
  8
0
100
AcDbLine
 62
7
  6
CONTINUOUS
 10
2.1444671621
 20
3.9129939576
 11
1.9518934234
 21
4.0670162944
  0
LINE
  5
5E9
100
AcDbEntity
  8
0
100
AcDbLine
 62
7
  6
CONTINUOUS
 10
2.4273098746
 20
4.0544153139
 11
2.2347361358
 21
4.2084376506
  0
LINE
  5
5EA
100
AcDbEntity
  8
0
100
AcDbLine
 62
7
  6
CONTINUOUS
 10
3.2036228263
 20
3.4411515929
 11
3.0591924885
 21
3.5711022292
  0
LINE
  5
5EB
100
AcDbEntity
  8
0
100
AcDbLine
 62
7
  6
CONTINUOUS
 10
3.4864655387
 20
3.5825729492
 11
3.342035201
 21
3.7125235855
  0
LINE
  5
5EC
100
AcDbEntity
  8
0
100
AcDbLine
 62
7
  6
CONTINUOUS
 10
3.0591924885
 20
3.2824262137
 11
3.1554793579
 21
3.176548633
  0
LINE
  5
5ED
100
AcDbEntity
  8
0
100
AcDbLine
 62
7
  6
CONTINUOUS
 10
2.5717401786
 20
3.8667305485
 11
2.4273098746
 21
4.0544153139
  0
LINE
  5
5EE
100
AcDbEntity
  8
0
100
AcDbLine
 62
7
  6
CONTINUOUS
 10
3.3480531303
 20
3.2534668276
 11
3.2036228263
 21
3.4411515929
  0
LINE
  5
5EF
100
AcDbEntity
  8
0
100
AcDbLine
 62
7
  6
CONTINUOUS
 10
3.6308958428
 20
3.3948881838
 11
3.4864655387
 21
3.5825729492
  0
LINE
  5
5F0
100
AcDbEntity
  8
0
100
AcDbLine
 62
7
  6
CONTINUOUS
 10
3.1554793579
 20
3.176548633
 11
3.2517662609
 21
3.0129342467
  0
LINE
  5
5F1
100
AcDbEntity
  8
0
100
AcDbLine
 62
7
  6
CONTINUOUS
 10
3.4443400165
 20
3.0321183037
 11
3.3480531303
 21
3.2534668276
  0
LINE
  5
5F2
100
AcDbEntity
  8
0
100
AcDbLine
 62
7
  6
CONTINUOUS
 10
3.727182729
 20
3.1735396599
 11
3.6308958428
 21
3.3948881838
  0
LINE
  5
5F3
100
AcDbEntity
  8
0
100
AcDbLine
 62
7
  6
CONTINUOUS
 10
3.5406268985
 20
2.7530343145
 11
3.4443400165
 21
3.0321183037
  0
LINE
  5
5F4
100
AcDbEntity
  8
0
100
AcDbLine
 62
7
  6
CONTINUOUS
 10
3.823469611
 20
2.8944556708
 11
3.727182729
 21
3.1735396599
  0
LINE
  5
5F5
100
AcDbEntity
  8
0
100
AcDbLine
 62
7
  6
CONTINUOUS
 10
3.8716130499
 20
2.6394434032
 11
3.823469611
 21
2.8944556708
  0
LINE
  5
5F6
100
AcDbEntity
  8
DRAFT
100
AcDbLine
 62
7
  6
CONTINUOUS
 10
6.8174460714
 20
-19.4593140099
 11
6.8174460714
 21
8.9463192342
  0
LINE
  5
5F7
100
AcDbEntity
  8
DRAFT
100
AcDbLine
 62
7
  6
CONTINUOUS
 10
6.8273193953
 20
-19.4642506719
 11
6.8273193953
 21
8.9413825723
  0
LINE
  5
5F8
100
AcDbEntity
  8
0
100
AcDbLine
 62
7
  6
CONTINUOUS
 10
3.5406268985
 20
-13.8746534381
 11
3.5887703374
 21
-13.6100501331
  0
LINE
  5
5F9
100
AcDbEntity
  8
0
100
AcDbLine
 62
7
  6
CONTINUOUS
 10
3.823469611
 20
-13.7332320819
 11
3.8716130499
 21
-13.4686287769
  0
LINE
  5
5FA
100
AcDbEntity
  8
0
100
AcDbLine
 62
7
  6
CONTINUOUS
 10
3.3480531303
 20
-13.4896915295
 11
3.2999096956
 21
-13.6965596996
  0
LINE
  5
5FB
100
AcDbEntity
  8
0
100
AcDbLine
 62
7
  6
CONTINUOUS
 10
1.5186023764
 20
-9.2263344811
 11
1.3741720723
 21
-9.442794684
  0
LINE
  5
5FC
100
AcDbEntity
  8
0
100
AcDbLine
 62
7
  6
CONTINUOUS
 10
1.6148892457
 20
-9.6208880773
 11
1.7111761151
 21
-9.4958264313
  0
LINE
  5
5FD
100
AcDbEntity
  8
0
100
AcDbLine
 62
7
  6
CONTINUOUS
 10
1.8977319582
 20
-9.4794667211
 11
1.937268302
 21
-9.4281151686
  0
LINE
  5
5FE
100
AcDbEntity
  8
0
100
AcDbLine
 62
7
  6
CONTINUOUS
 10
2.7161704827
 20
-4.9812082547
 11
2.4333277702
 21
-5.122629611
  0
LINE
  5
5FF
100
AcDbEntity
  8
0
100
AcDbLine
 62
7
  6
CONTINUOUS
 10
2.812457352
 20
-4.9716175435
 11
2.5296146396
 21
-5.1130388997
  0
LINE
  5
600
100
AcDbEntity
  8
0
100
AcDbLine
 62
7
  6
CONTINUOUS
 10
1.6088713501
 20
-5.8131999952
 11
1.3260286376
 21
-5.9546213515
  0
LINE
  5
601
100
AcDbEntity
  8
0
100
AcDbLine
 62
7
  6
CONTINUOUS
 10
2.9087442214
 20
-5.3084356723
 11
2.6259015089
 21
-5.4498570285
  0
LINE
  5
602
100
AcDbEntity
  8
0
100
AcDbLine
 62
7
  6
CONTINUOUS
 10
2.7161704827
 20
-5.6740292385
 11
2.4333277702
 21
-5.8154505947
  0
LINE
  5
603
100
AcDbEntity
  8
0
100
AcDbLine
 62
7
  6
CONTINUOUS
 10
2.812457352
 20
-5.8953777539
 11
2.5296146396
 21
-6.0367991102
  0
LINE
  5
604
100
AcDbEntity
  8
0
100
AcDbLine
 62
7
  6
CONTINUOUS
 10
-11.3799279833
 20
5.753572492
 11
-11.1873542109
 21
5.7727557147
  0
LINE
  5
605
100
AcDbEntity
  8
0
100
AcDbLine
 62
7
  6
CONTINUOUS
 10
-12.5835140527
 20
5.6625452037
 11
-12.7760877914
 21
5.6433621293
  0
LINE
  5
606
100
AcDbEntity
  8
0
100
AcDbLine
 62
7
  6
CONTINUOUS
 10
-12.3006713402
 20
5.8039665599
 11
-12.4932450789
 21
5.7847834856
  0
LINE
  5
607
100
AcDbEntity
  8
0
100
AcDbLine
 62
7
  6
CONTINUOUS
 10
-12.4390836138
 20
8.1884063608
 11
-12.5835140527
 21
8.2028864432
  0
LINE
  5
608
100
AcDbEntity
  8
0
100
AcDbLine
 62
7
  6
CONTINUOUS
 10
-12.1562409013
 20
8.329827717
 11
-12.3006713402
 21
8.3443077994
  0
LINE
  5
609
100
AcDbEntity
  8
0
100
AcDbLine
 62
7
  6
CONTINUOUS
 10
-11.3799279833
 20
8.2939137315
 11
-11.2354976456
 21
8.2794336997
  0
LINE
  5
60A
100
AcDbEntity
  8
0
100
AcDbLine
 62
7
  6
CONTINUOUS
 10
3.0591924885
 20
6.1114429732
 11
1.3260286376
 21
6.5161438023
  0
LINE
  5
60B
100
AcDbEntity
  8
0
100
AcDbLine
 62
7
  6
CONTINUOUS
 10
2.614336678
 20
6.422784903
 11
1.6088713501
 21
6.6575651585
  0
LINE
  5
60C
100
AcDbEntity
  8
0
100
AcDbLine
 62
7
  6
CONTINUOUS
 10
1.7593195498
 20
6.0685591195
 11
3.5887703374
 21
5.615714822
  0
LINE
  5
60D
100
AcDbEntity
  8
0
100
AcDbLine
 62
7
  6
CONTINUOUS
 10
-12.1502230057
 20
10.6420519377
 11
-12.4872270485
 21
10.7528191524
  0
LINE
  5
60E
100
AcDbEntity
  8
0
100
AcDbLine
 62
7
  6
CONTINUOUS
 10
-11.8673802932
 20
10.7834732939
 11
-12.204384336
 21
10.8942405086
  0
LINE
  5
60F
100
AcDbEntity
  8
0
100
AcDbLine
 62
7
  6
CONTINUOUS
 10
-12.5835140527
 20
13.0526287044
 11
-12.4872270485
 21
13.0044852023
  0
LINE
  5
610
100
AcDbEntity
  8
0
100
AcDbLine
 62
7
  6
CONTINUOUS
 10
-11.5725017221
 20
12.6048573457
 11
-11.3799279833
 21
12.5085704764
  0
LINE
  5
611
100
AcDbEntity
  8
0
100
AcDbLine
 62
7
  6
CONTINUOUS
 10
-12.4872270485
 20
13.2931605571
 11
-12.5835140527
 21
13.3413040592
  0
LINE
  5
612
100
AcDbEntity
  8
0
100
AcDbLine
 62
7
  6
CONTINUOUS
 10
-11.3799279833
 20
12.7972458312
 11
-11.5725017221
 21
12.8935327006
  0
LINE
  5
613
100
AcDbEntity
  8
0
100
AcDbLine
 62
7
  6
CONTINUOUS
 10
-12.204384336
 20
13.4345819133
 11
-12.3006713402
 21
13.4827254154
  0
LINE
  5
614
100
AcDbEntity
  8
0
100
AcDbLine
 62
7
  6
CONTINUOUS
 10
-11.0970852709
 20
12.9386671874
 11
-11.2896590096
 21
13.0349540568
  0
LINE
  5
615
100
AcDbEntity
  8
0
100
AcDbLine
 62
7
  6
CONTINUOUS
 10
-12.1983664404
 20
13.6683454953
 11
-11.7650755282
 21
13.4517000392
  0
LINE
  5
616
100
AcDbEntity
  8
0
100
AcDbLine
 62
7
  6
CONTINUOUS
 10
-11.8132189629
 20
13.7644464507
 11
-12.1502230057
 21
13.9329484721
  0
LINE
  5
617
100
AcDbEntity
  8
0
100
AcDbLine
 62
7
  6
CONTINUOUS
 10
-11.5303762504
 20
13.9058678069
 11
-11.8673802932
 21
14.0743698283
  0
LINE
  5
618
100
AcDbEntity
  8
0
100
AcDbLine
 62
7
  6
CONTINUOUS
 10
1.3260286376
 20
7.3244350601
 11
3.0591924885
 21
6.1114429732
  0
LINE
  5
619
100
AcDbEntity
  8
0
100
AcDbLine
 62
7
  6
CONTINUOUS
 10
3.5887703374
 20
6.0775932754
 11
1.3260286376
 21
7.6708452216
  0
LINE
  5
61A
100
AcDbEntity
  8
0
100
AcDbLine
 62
7
  6
CONTINUOUS
 10
3.8716130499
 20
6.2190146317
 11
1.6088713501
 21
7.8122665779
  0
LINE
  5
61B
100
AcDbEntity
  8
0
100
AcDbLine
 62
7
  6
CONTINUOUS
 10
3.8716130499
 20
4.8333753071
 11
2.460893054
 21
5.8948984981
  0
LINE
  5
61C
100
AcDbEntity
  8
0
100
AcDbLine
 62
7
  6
CONTINUOUS
 10
1.4704589417
 20
-14.1674751339
 11
1.3741720723
 21
-14.3502717518
  0
LINE
  5
61D
100
AcDbEntity
  8
0
100
AcDbLine
 62
7
  6
CONTINUOUS
 10
2.3370409008
 20
-12.060424874
 11
2.1926105968
 21
-12.2768847464
  0
LINE
  5
61E
100
AcDbEntity
  8
0
100
AcDbLine
 62
7
  6
CONTINUOUS
 10
1.6630326804
 20
-9.1253445524
 11
1.5186023764
 21
-9.2263344811
  0
LINE
  5
61F
100
AcDbEntity
  8
0
100
AcDbLine
 62
7
  6
CONTINUOUS
 10
1.6088713501
 20
-7.7761906902
 11
1.3260286376
 21
-7.9176120465
  0
LINE
  5
620
100
AcDbEntity
  8
0
100
AcDbLine
 62
7
  6
CONTINUOUS
 10
3.8716130499
 20
-7.8683310556
 11
3.5887703374
 21
-8.0097524118
  0
LINE
  5
621
100
AcDbEntity
  8
ASSI
100
AcDbLine
 62
7
  6
CONTINUOUS
 10
12.0572948869
 20
-3.3691529941
 11
9.7971678763
 21
-4.1881298979
  0
LINE
  5
622
100
AcDbEntity
  8
ASSI
100
AcDbLine
 62
7
  6
CONTINUOUS
 10
12.409385492
 20
-3.6120687232
 11
9.7971678763
 21
-4.558628755
  0
LINE
  5
623
100
AcDbEntity
  8
0
100
AcDbLine
 62
253
  6
CONTINUOUS
 10
15.0940180304
 20
-3.8820002197
 11
14.8108891875
 21
-3.9670955434
  0
LINE
  5
624
100
AcDbEntity
  8
0
100
AcDbLine
 62
7
  6
CONTINUOUS
 10
-12.2946533097
 20
8.635806451
 11
-12.0539361363
 21
8.630917808
  0
LINE
  5
625
100
AcDbEntity
  8
0
100
AcDbLine
 62
7
  6
CONTINUOUS
 10
-12.1983664404
 20
8.9340731778
 11
-12.3427967444
 21
8.9485531928
  0
LINE
  5
626
100
AcDbEntity
  8
0
100
AcDbLine
 62
7
  6
CONTINUOUS
 10
-11.9738537808
 20
9.0813424761
 11
-12.0599540319
 21
9.0899745491
  0
LINE
  5
627
100
AcDbEntity
  8
0
100
AcDbLine
 62
7
  6
CONTINUOUS
 10
-12.5835140527
 20
10.454552493
 11
-12.4390836138
 21
10.4400720802
  0
LINE
  5
628
100
AcDbEntity
  8
0
100
AcDbLine
 62
7
  6
CONTINUOUS
 10
-12.1502230057
 20
15.4340593922
 11
-11.8132189629
 21
15.2655573708
  0
LINE
  5
629
100
AcDbEntity
  8
0
100
AcDbLine
 62
7
  6
CONTINUOUS
 10
-11.7650755282
 20
15.5301603476
 11
-12.1983664404
 21
15.7468058037
  0
LINE
  5
62A
100
AcDbEntity
  8
0
100
AcDbLine
 62
7
  6
CONTINUOUS
 10
4.8474204079
 20
7.3912854786
 11
0.6047797208
 21
9.5126058222
  0
LINE
  5
62B
100
AcDbEntity
  8
0
100
AcDbLine
 62
7
  6
CONTINUOUS
 10
-11.4822328157
 20
15.6715817038
 11
-11.9155237279
 21
15.8882271599
  0
LINE
  5
62C
100
AcDbEntity
  8
DRAFT
100
AcDbLine
 62
7
  6
CONTINUOUS
 10
9.7971678763
 20
2.9960963929
 11
9.7971678763
 21
-8.1919303132
  0
LINE
  5
62D
100
AcDbEntity
  8
RACCORDO
100
AcDbLine
 62
253
  6
CONTINUOUS
 10
10.7301241461
 20
10.9621188864
 11
10.7301241461
 21
3.499447704
  0
LINE
  5
62E
100
AcDbEntity
  8
RACCORDO
100
AcDbLine
 62
253
  6
CONTINUOUS
 10
10.7301241461
 20
-7.7291771255
 11
10.7301241461
 21
-17.4435143577
  0
LINE
  5
62F
100
AcDbEntity
  8
RACCORDO
100
AcDbLine
 62
7
  6
CONTINUOUS
 10
11.0107843458
 20
11.3094480717
 11
11.0107843458
 21
3.857186672
  0
LINE
  5
630
100
AcDbEntity
  8
RACCORDO
100
AcDbLine
 62
7
  6
CONTINUOUS
 10
11.0107843458
 20
-7.392257723
 11
11.0107843458
 21
-17.0961851725
  0
LINE
  5
631
100
AcDbEntity
  8
0
100
AcDbLine
 62
7
  6
CONTINUOUS
 10
3.3961965818
 20
-11.4353022862
 11
3.5406268985
 21
-11.2188424201
  0
LINE
  5
632
100
AcDbEntity
  8
0
100
AcDbLine
 62
7
  6
CONTINUOUS
 10
3.6790392943
 20
-11.29388093
 11
3.823469611
 21
-11.0774210639
  0
LINE
  5
633
100
AcDbEntity
  8
0
100
AcDbLine
 62
7
  6
CONTINUOUS
 10
3.3961965818
 20
-14.0911133043
 11
3.5406268985
 21
-13.8746534381
  0
LINE
  5
634
100
AcDbEntity
  8
0
100
AcDbLine
 62
7
  6
CONTINUOUS
 10
3.6790392943
 20
-13.949691948
 11
3.823469611
 21
-13.7332320819
  0
LINE
  5
635
100
AcDbEntity
  8
0
100
AcDbLine
 62
7
  6
CONTINUOUS
 10
3.2999096956
 20
-11.0407483512
 11
3.2036228263
 21
-11.1658099973
  0
LINE
  5
636
100
AcDbEntity
  8
0
100
AcDbLine
 62
7
  6
CONTINUOUS
 10
2.4333277702
 20
-12.4549784702
 11
2.5296146396
 21
-12.3299168241
  0
LINE
  5
637
100
AcDbEntity
  8
0
100
AcDbLine
 62
7
  6
CONTINUOUS
 10
2.7161704827
 20
-12.3135571139
 11
2.7323749887
 21
-12.2925099845
  0
LINE
  5
638
100
AcDbEntity
  8
0
100
AcDbLine
 62
7
  6
CONTINUOUS
 10
1.6148892457
 20
-14.5861004474
 11
1.7111761151
 21
-14.4610388014
  0
LINE
  5
639
100
AcDbEntity
  8
DRAFT
100
AcDbLine
 62
7
  6
CONTINUOUS
 10
-6.6175827711
 20
-14.4617580935
 11
-7.7390802972
 21
-15.0444724831
  0
LINE
  5
63A
100
AcDbEntity
  8
0
100
AcDbLine
 62
7
  6
CONTINUOUS
 10
1.9458753929
 20
-8.9839231962
 11
1.6630326804
 21
-9.1253445524
  0
LINE
  5
63B
100
AcDbEntity
  8
0
100
AcDbLine
 62
7
  6
CONTINUOUS
 10
2.1384491316
 20
-8.9647397915
 11
1.8556064191
 21
-9.1061611477
  0
LINE
  5
63C
100
AcDbEntity
  8
0
100
AcDbLine
 62
7
  6
CONTINUOUS
 10
2.2828795705
 20
-8.9792202042
 11
2.0000368581
 21
-9.1206415605
  0
LINE
  5
63D
100
AcDbEntity
  8
0
100
AcDbLine
 62
7
  6
CONTINUOUS
 10
3.8716130499
 20
-8.3302114912
 11
3.5887703374
 21
-8.4716328474
  0
LINE
  5
63E
100
AcDbEntity
  8
0
100
AcDbLine
 62
7
  6
CONTINUOUS
 10
2.5235967439
 20
-9.0418439843
 11
2.2407540315
 21
-9.1832653405
  0
LINE
  5
63F
100
AcDbEntity
  8
0
100
AcDbLine
 62
7
  6
CONTINUOUS
 10
1.8977319582
 20
-9.4794667211
 11
1.6148892457
 21
-9.6208880773
  0
LINE
  5
640
100
AcDbEntity
  8
ASSI
100
AcDbLine
 62
7
  6
CONTINUOUS
 10
9.7971678763
 20
-5.5789031989
 11
13.6016744238
 21
-3.6766499251
  0
LINE
  5
641
100
AcDbEntity
  8
0
100
AcDbLine
 62
7
  6
CONTINUOUS
 10
1.8495885235
 20
-9.7440703586
 11
1.566745811
 21
-9.8854917148
  0
LINE
  5
642
100
AcDbEntity
  8
0
100
AcDbLine
 62
7
  6
CONTINUOUS
 10
2.9568876561
 20
-9.2584894403
 11
2.6740449436
 21
-9.3999107966
  0
LINE
  5
643
100
AcDbEntity
  8
ASSI
100
AcDbLine
 62
7
  6
CONTINUOUS
 10
9.7971678763
 20
-6.0031672676
 11
14.0259384925
 21
-3.8887819595
  0
LINE
  5
644
100
AcDbEntity
  8
0
100
AcDbLine
 62
7
  6
CONTINUOUS
 10
1.8977319582
 20
-10.05681677
 11
1.6148892457
 21
-10.1982381263
  0
LINE
  5
645
100
AcDbEntity
  8
0
100
AcDbLine
 62
7
  6
CONTINUOUS
 10
3.1976048969
 20
-9.4365828674
 11
2.9147621845
 21
-9.5780042237
  0
LINE
  5
646
100
AcDbEntity
  8
0
100
AcDbLine
 62
7
  6
CONTINUOUS
 10
3.342035201
 20
-9.5665328261
 11
3.0591924885
 21
-9.7079541824
  0
LINE
  5
647
100
AcDbEntity
  8
0
100
AcDbLine
 62
7
  6
CONTINUOUS
 10
1.9940188276
 20
-10.2781652855
 11
1.7111761151
 21
-10.4195866417
  0
LINE
  5
648
100
AcDbEntity
  8
0
100
AcDbLine
 62
7
  6
CONTINUOUS
 10
3.5346089734
 20
-9.7782899864
 11
3.2517662609
 21
-9.9197113427
  0
LINE
  5
649
100
AcDbEntity
  8
0
100
AcDbLine
 62
7
  6
CONTINUOUS
 10
2.2828795705
 20
-10.6535358748
 11
2.0000368581
 21
-10.794957231
  0
LINE
  5
64A
100
AcDbEntity
  8
0
100
AcDbLine
 62
7
  6
CONTINUOUS
 10
3.6790392943
 20
-10.0237102276
 11
3.3961965818
 21
-10.1651315839
  0
LINE
  5
64B
100
AcDbEntity
  8
DRAFT
100
AcDbLine
 62
7
  6
CONTINUOUS
 10
-7.7390802972
 20
-15.0444724831
 11
-8.0268600476
 21
-15.1773787085
  0
LINE
  5
64C
100
AcDbEntity
  8
0
100
AcDbLine
 62
7
  6
CONTINUOUS
 10
1.7111761151
 20
-9.4958264313
 11
2.0000368581
 21
-9.4093169153
  0
LINE
  5
64D
100
AcDbEntity
  8
0
100
AcDbLine
 62
7
  6
CONTINUOUS
 10
-12.5835140527
 20
8.2028864432
 11
-12.7760877914
 21
8.1837033688
  0
LINE
  5
64E
100
AcDbEntity
  8
0
100
AcDbLine
 62
7
  6
CONTINUOUS
 10
-12.3006713402
 20
8.3443077994
 11
-12.4932450789
 21
8.3251247251
  0
LINE
  5
64F
100
AcDbEntity
  8
0
100
AcDbLine
 62
7
  6
CONTINUOUS
 10
-12.4872270485
 20
10.7528191524
 11
-12.7279443567
 21
10.7577075325
  0
LINE
  5
650
100
AcDbEntity
  8
0
100
AcDbLine
 62
7
  6
CONTINUOUS
 10
-12.204384336
 20
10.8942405086
 11
-12.4451016443
 21
10.8991288887
  0
LINE
  5
651
100
AcDbEntity
  8
0
100
AcDbLine
 62
7
  6
CONTINUOUS
 10
-11.3799279833
 20
10.7187848621
 11
-11.2354976456
 21
10.7043044999
  0
LINE
  5
652
100
AcDbEntity
  8
0
100
AcDbLine
 62
7
  6
CONTINUOUS
 10
-11.5725017221
 20
12.8935327006
 11
-11.7650755282
 21
12.932084797
  0
LINE
  5
653
100
AcDbEntity
  8
0
100
AcDbLine
 62
7
  6
CONTINUOUS
 10
-11.2896590096
 20
13.0349540568
 11
-11.4822328157
 21
13.0735061532
  0
LINE
  5
654
100
AcDbEntity
  8
0
100
AcDbLine
 62
7
  6
CONTINUOUS
 10
-12.5835140527
 20
13.3413040592
 11
-12.7760877914
 21
13.3798554612
  0
LINE
  5
655
100
AcDbEntity
  8
0
100
AcDbLine
 62
7
  6
CONTINUOUS
 10
-12.3006713402
 20
13.4827254154
 11
-12.4932450789
 21
13.5212768174
  0
LINE
  5
656
100
AcDbEntity
  8
0
100
AcDbLine
 62
7
  6
CONTINUOUS
 10
-11.7650755282
 20
13.4517000392
 11
-11.5243582874
 21
13.3890762255
  0
LINE
  5
657
100
AcDbEntity
  8
0
100
AcDbLine
 62
7
  6
CONTINUOUS
 10
-11.5243582874
 20
13.6777515803
 11
-11.8132189629
 21
13.7644464507
  0
LINE
  5
658
100
AcDbEntity
  8
0
100
AcDbLine
 62
7
  6
CONTINUOUS
 10
-11.2415155749
 20
13.8191729366
 11
-11.5303762504
 21
13.9058678069
  0
LINE
  5
659
100
AcDbEntity
  8
DRAFT
100
AcDbLine
 62
7
  6
CONTINUOUS
 10
-7.7390802972
 20
15.3670623878
 11
-5.5881399821
 21
14.2915922302
  0
LINE
  5
65A
100
AcDbEntity
  8
DRAFT
100
AcDbLine
 62
7
  6
CONTINUOUS
 10
-2.8189528004
 20
12.9069986394
 11
-0.6680124853
 21
11.8315284818
  0
LINE
  5
65B
100
AcDbEntity
  8
DRAFT
100
AcDbLine
 62
7
  6
CONTINUOUS
 10
-2.8189528004
 20
13.2030886947
 11
-5.5881399821
 21
14.5876822855
  0
LINE
  5
65C
100
AcDbEntity
  8
0
100
AcDbLine
 62
7
  6
CONTINUOUS
 10
3.2999096956
 20
-13.6965596996
 11
3.2036228263
 21
-13.8216213457
  0
LINE
  5
65D
100
AcDbEntity
  8
0
100
AcDbLine
 62
7
  6
CONTINUOUS
 10
3.2517662609
 20
-11.5362922065
 11
3.3961965818
 21
-11.4353022862
  0
LINE
  5
65E
100
AcDbEntity
  8
0
100
AcDbLine
 62
7
  6
CONTINUOUS
 10
3.5346089734
 20
-11.3948708503
 11
3.6790392943
 21
-11.29388093
  0
LINE
  5
65F
100
AcDbEntity
  8
0
100
AcDbLine
 62
7
  6
CONTINUOUS
 10
1.6630326804
 20
-14.0328217855
 11
1.4704589417
 21
-14.1674751339
  0
LINE
  5
660
100
AcDbEntity
  8
0
100
AcDbLine
 62
7
  6
CONTINUOUS
 10
1.6088713501
 20
-11.2402923054
 11
1.3260286376
 21
-11.3817136616
  0
LINE
  5
661
100
AcDbEntity
  8
0
100
AcDbLine
 62
7
  6
CONTINUOUS
 10
2.5717401786
 20
-10.8557013158
 11
2.2888974661
 21
-10.9971226721
  0
LINE
  5
662
100
AcDbEntity
  8
0
100
AcDbLine
 62
7
  6
CONTINUOUS
 10
1.8495885235
 20
-11.3606508921
 11
1.566745811
 21
-11.5020722483
  0
LINE
  5
663
100
AcDbEntity
  8
0
100
AcDbLine
 62
7
  6
CONTINUOUS
 10
3.823469611
 20
-10.3846007408
 11
3.5406268985
 21
-10.5260220971
  0
LINE
  5
664
100
AcDbEntity
  8
0
100
AcDbLine
 62
7
  6
CONTINUOUS
 10
2.9087442214
 20
-11.0242033372
 11
2.6259015089
 21
-11.1656246935
  0
LINE
  5
665
100
AcDbEntity
  8
0
100
AcDbLine
 62
7
  6
CONTINUOUS
 10
3.8716130499
 20
-10.7550826218
 11
3.5887703374
 21
-10.896503978
  0
LINE
  5
666
100
AcDbEntity
  8
0
100
AcDbLine
 62
7
  6
CONTINUOUS
 10
3.1976048969
 20
-11.110898538
 11
2.9147621845
 21
-11.2523198942
  0
LINE
  5
667
100
AcDbEntity
  8
0
100
AcDbLine
 62
7
  6
CONTINUOUS
 10
3.823469611
 20
-11.0774210639
 11
3.5406268985
 21
-11.2188424201
  0
LINE
  5
668
100
AcDbEntity
  8
0
100
AcDbLine
 62
7
  6
CONTINUOUS
 10
3.6790392943
 20
-11.29388093
 11
3.3961965818
 21
-11.4353022862
  0
LINE
  5
669
100
AcDbEntity
  8
0
100
AcDbLine
 62
7
  6
CONTINUOUS
 10
3.5346089734
 20
-11.3948708503
 11
3.2517662609
 21
-11.5362922065
  0
LINE
  5
66A
100
AcDbEntity
  8
0
100
AcDbLine
 62
7
  6
CONTINUOUS
 10
2.6198836133
 20
-11.9190035177
 11
2.3370409008
 21
-12.060424874
  0
LINE
  5
66B
100
AcDbEntity
  8
0
100
AcDbLine
 62
7
  6
CONTINUOUS
 10
2.812457352
 20
-11.8420853063
 11
2.5296146396
 21
-11.9835066626
  0
LINE
  5
66C
100
AcDbEntity
  8
0
100
AcDbLine
 62
7
  6
CONTINUOUS
 10
3.0531745929
 20
-11.846973983
 11
2.7703318804
 21
-11.9883953393
  0
LINE
  5
66D
100
AcDbEntity
  8
0
100
AcDbLine
 62
7
  6
CONTINUOUS
 10
3.2457483316
 20
-11.9432608524
 11
2.9629056191
 21
-12.0846822086
  0
LINE
  5
66E
100
AcDbEntity
  8
0
100
AcDbLine
 62
7
  6
CONTINUOUS
 10
2.7161704827
 20
-12.3135571139
 11
2.4333277702
 21
-12.4549784702
  0
LINE
  5
66F
100
AcDbEntity
  8
RACCORDO
100
AcDbLine
 62
7
  6
CONTINUOUS
 10
9.7971678763
 20
-8.1919303132
 11
10.7301241461
 21
-7.7291771255
  0
LINE
  5
670
100
AcDbEntity
  8
0
100
AcDbLine
 62
7
  6
CONTINUOUS
 10
2.812457352
 20
-11.8420853063
 11
2.6198836133
 21
-11.9190035177
  0
LINE
  5
671
100
AcDbEntity
  8
0
100
AcDbLine
 62
7
  6
CONTINUOUS
 10
2.5296146396
 20
-11.9835066626
 11
2.3370409008
 21
-12.060424874
  0
LINE
  5
672
100
AcDbEntity
  8
0
100
AcDbLine
 62
7
  6
CONTINUOUS
 10
3.2603730298
 20
-11.0921003221
 11
3.1976048969
 21
-11.110898538
  0
LINE
  5
673
100
AcDbEntity
  8
0
100
AcDbLine
 62
7
  6
CONTINUOUS
 10
3.2036228263
 20
-11.1658099973
 11
2.9147621845
 21
-11.2523198942
  0
LINE
  5
674
100
AcDbEntity
  8
0
100
AcDbLine
 62
7
  6
CONTINUOUS
 10
-11.283641114
 20
11.017051589
 11
-11.3799279833
 21
11.007460217
  0
LINE
  5
675
100
AcDbEntity
  8
0
100
AcDbLine
 62
7
  6
CONTINUOUS
 10
-11.5243582874
 20
13.3890762255
 11
-11.3799279833
 21
13.3745958802
  0
LINE
  5
676
100
AcDbEntity
  8
0
100
AcDbLine
 62
7
  6
CONTINUOUS
 10
-12.1983664404
 20
15.7468058037
 11
-12.4390836138
 21
15.8094302444
  0
LINE
  5
677
100
AcDbEntity
  8
0
100
AcDbLine
 62
7
  6
CONTINUOUS
 10
-11.9155237279
 20
15.8882271599
 11
-12.1562409013
 21
15.9508516007
  0
LINE
  5
678
100
AcDbEntity
  8
0
100
AcDbLine
 62
7
  6
CONTINUOUS
 10
-12.4390836138
 20
15.5207542289
 11
-12.1502230057
 21
15.4340593922
  0
LINE
  5
679
100
AcDbEntity
  8
DRAFT
100
AcDbLine
 62
7
  6
CONTINUOUS
 10
-0.6680124853
 20
12.9870857792
 11
-0.9508551978
 21
13.1285071354
  0
LINE
  5
67A
100
AcDbEntity
  8
DRAFT
100
AcDbLine
 62
7
  6
CONTINUOUS
 10
-5.1934958849
 20
15.249827479
 11
-6.6175827711
 21
15.9618709221
  0
LINE
  5
67B
100
AcDbEntity
  8
DRAFT
100
AcDbLine
 62
7
  6
CONTINUOUS
 10
3.9988922705
 20
10.667386768
 11
0.101674446
 21
12.6159956802
  0
LINE
  5
67C
100
AcDbEntity
  8
DRAFT
100
AcDbLine
 62
7
  6
CONTINUOUS
 10
-9.0875202193
 20
17.2105930129
 11
-12.971670478
 21
19.1526681422
  0
LINE
  5
67D
100
AcDbEntity
  8
DRAFT
100
AcDbLine
 62
7
  6
CONTINUOUS
 10
4.281734983
 20
10.8148547361
 11
-0.6680124853
 21
13.2897284702
  0
LINE
  5
67E
100
AcDbEntity
  8
DRAFT
100
AcDbLine
 62
7
  6
CONTINUOUS
 10
-7.7390802972
 20
16.8252623762
 11
-12.6888277655
 21
19.3001361103
  0
LINE
  5
67F
100
AcDbEntity
  8
RACCORDO
100
AcDbLine
 62
7
  6
CONTINUOUS
 10
-5.3119840588
 20
15.925432598
 11
-0.8323670239
 21
13.6856240805
  0
LINE
  5
680
100
AcDbEntity
  8
DRAFT
100
AcDbLine
 62
7
  6
CONTINUOUS
 10
5.4131058329
 20
11.3684478583
 11
0.4732316884
 21
13.8383849305
  0
LINE
  5
681
100
AcDbEntity
  8
DRAFT
100
AcDbLine
 62
7
  6
CONTINUOUS
 10
-6.6175827711
 20
17.3837921603
 11
-11.5574569156
 21
19.8537292325
  0
LINE
  5
682
100
AcDbEntity
  8
DRAFT
100
AcDbLine
 62
7
  6
CONTINUOUS
 10
5.4131058329
 20
11.380540161
 11
-11.5574569156
 21
19.8658215353
  0
LINE
  5
683
100
AcDbEntity
  8
0
100
AcDbLine
 62
7
  6
CONTINUOUS
 10
2.668027048
 20
-12.5204256144
 11
2.3851843355
 21
-12.6618469706
  0
LINE
  5
684
100
AcDbEntity
  8
0
100
AcDbLine
 62
7
  6
CONTINUOUS
 10
3.4864655387
 20
-12.1790893997
 11
3.2036228263
 21
-12.3205107559
  0
LINE
  5
685
100
AcDbEntity
  8
0
100
AcDbLine
 62
7
  6
CONTINUOUS
 10
1.8495885235
 20
-13.0349665626
 11
1.566745811
 21
-13.1763879189
  0
LINE
  5
686
100
AcDbEntity
  8
0
100
AcDbLine
 62
7
  6
CONTINUOUS
 10
2.668027048
 20
-12.8668357759
 11
2.3851843355
 21
-13.0082571321
  0
LINE
  5
687
100
AcDbEntity
  8
0
100
AcDbLine
 62
7
  6
CONTINUOUS
 10
3.6790392943
 20
-12.4485813582
 11
3.3961965818
 21
-12.5900027145
  0
LINE
  5
688
100
AcDbEntity
  8
0
100
AcDbLine
 62
7
  6
CONTINUOUS
 10
2.7161704827
 20
-13.1218473807
 11
2.4333277702
 21
-13.2632687369
  0
LINE
  5
689
100
AcDbEntity
  8
0
100
AcDbLine
 62
7
  6
CONTINUOUS
 10
3.823469611
 20
-12.8094715411
 11
3.5406268985
 21
-12.9508928973
  0
LINE
  5
68A
100
AcDbEntity
  8
0
100
AcDbLine
 62
7
  6
CONTINUOUS
 10
2.8606007867
 20
-13.4250027505
 11
2.5777580742
 21
-13.5664241067
  0
LINE
  5
68B
100
AcDbEntity
  8
0
100
AcDbLine
 62
7
  6
CONTINUOUS
 10
1.9458753929
 20
-13.8914004292
 11
1.6630326804
 21
-14.0328217855
  0
LINE
  5
68C
100
AcDbEntity
  8
0
100
AcDbLine
 62
7
  6
CONTINUOUS
 10
2.1384491316
 20
-13.9299523267
 11
1.8556064191
 21
-14.071373683
  0
LINE
  5
68D
100
AcDbEntity
  8
0
100
AcDbLine
 62
7
  6
CONTINUOUS
 10
3.8716130499
 20
-13.1222186153
 11
3.5887703374
 21
-13.2636399716
  0
LINE
  5
68E
100
AcDbEntity
  8
0
100
AcDbLine
 62
7
  6
CONTINUOUS
 10
2.2347361358
 20
-13.9780958288
 11
1.9518934234
 21
-14.1195171851
  0
LINE
  5
68F
100
AcDbEntity
  8
0
100
AcDbLine
 62
7
  6
CONTINUOUS
 10
2.8606007867
 20
-13.8291478839
 11
2.5777580742
 21
-13.9705692401
  0
LINE
  5
690
100
AcDbEntity
  8
0
100
AcDbLine
 62
7
  6
CONTINUOUS
 10
2.4273098746
 20
-14.1321176701
 11
2.1444671621
 21
-14.2735390263
  0
LINE
  5
691
100
AcDbEntity
  8
0
100
AcDbLine
 62
7
  6
CONTINUOUS
 10
3.2938917663
 20
-13.6993833773
 11
3.0110490538
 21
-13.8408047336
  0
LINE
  5
692
100
AcDbEntity
  8
0
100
AcDbLine
 62
7
  6
CONTINUOUS
 10
1.8977319582
 20
-14.4446790912
 11
1.6148892457
 21
-14.5861004474
  0
LINE
  5
693
100
AcDbEntity
  8
0
100
AcDbLine
 62
7
  6
CONTINUOUS
 10
3.8716130499
 20
-13.4686287769
 11
3.5887703374
 21
-13.6100501331
  0
LINE
  5
694
100
AcDbEntity
  8
0
100
AcDbLine
 62
7
  6
CONTINUOUS
 10
2.5717401786
 20
-14.319802931
 11
2.2888974661
 21
-14.4612242872
  0
LINE
  5
695
100
AcDbEntity
  8
0
100
AcDbLine
 62
7
  6
CONTINUOUS
 10
1.8495885235
 20
-14.7092824809
 11
1.566745811
 21
-14.8507038372
  0
LINE
  5
696
100
AcDbEntity
  8
0
100
AcDbLine
 62
7
  6
CONTINUOUS
 10
3.823469611
 20
-13.7332320819
 11
3.5406268985
 21
-13.8746534381
  0
LINE
  5
697
100
AcDbEntity
  8
0
100
AcDbLine
 62
7
  6
CONTINUOUS
 10
3.6790392943
 20
-13.949691948
 11
3.3961965818
 21
-14.0911133043
  0
LINE
  5
698
100
AcDbEntity
  8
DRAFT
100
AcDbLine
 62
7
  6
CONTINUOUS
 10
-3.1042638438
 20
-16.4795904135
 11
-2.7992802055
 21
-16.3329686412
  0
LINE
  5
699
100
AcDbEntity
  8
0
100
AcDbLine
 62
7
  6
CONTINUOUS
 10
2.5296146396
 20
-12.3299168241
 11
2.6740449436
 21
-12.2866620324
  0
LINE
  5
69A
100
AcDbEntity
  8
0
100
AcDbLine
 62
7
  6
CONTINUOUS
 10
-11.7650755282
 20
12.5856746355
 11
-11.5725017221
 21
12.6048573457
  0
LINE
  5
69B
100
AcDbEntity
  8
0
100
AcDbLine
 62
7
  6
CONTINUOUS
 10
-11.3799279833
 20
13.3745958802
 11
-11.1873542109
 21
13.393779268
  0
LINE
  5
69C
100
AcDbEntity
  8
0
100
AcDbLine
 62
7
  6
CONTINUOUS
 10
-12.4390836138
 20
15.8094302444
 11
-12.5835140527
 21
15.8239099965
  0
LINE
  5
69D
100
AcDbEntity
  8
DRAFT
100
AcDbLine
 62
7
  6
CONTINUOUS
 10
1.5240185364
 20
15.5394526142
 11
-3.1428862195
 21
17.8729049921
  0
LINE
  5
69E
100
AcDbEntity
  8
0
100
AcDbLine
 62
253
  6
CONTINUOUS
 10
14.9590473789
 20
-4.0820351374
 11
14.9590473789
 21
-8.8245977216
  0
LINE
  5
69F
100
AcDbEntity
  8
0
100
AcDbLine
 62
7
  6
CONTINUOUS
 10
15.2226512758
 20
-3.9710728552
 11
15.2226512758
 21
-8.2991639008
  0
LINE
  5
6A0
100
AcDbEntity
  8
0
100
AcDbLine
 62
7
  6
CONTINUOUS
 10
1.8495885235
 20
-14.9402225335
 11
1.566745811
 21
-15.0816438898
  0
LINE
  5
6A1
100
AcDbEntity
  8
0
100
AcDbLine
 62
7
  6
CONTINUOUS
 10
1.8977319582
 20
-15.2529693992
 11
1.6148892457
 21
-15.3943907555
  0
LINE
  5
6A2
100
AcDbEntity
  8
0
100
AcDbLine
 62
7
  6
CONTINUOUS
 10
1.9940188276
 20
-15.4743179147
 11
1.7111761151
 21
-15.6157392709
  0
LINE
  5
6A3
100
AcDbEntity
  8
0
100
AcDbLine
 62
7
  6
CONTINUOUS
 10
3.6308958428
 20
-14.6761756823
 11
3.3480531303
 21
-14.8175970385
  0
LINE
  5
6A4
100
AcDbEntity
  8
0
100
AcDbLine
 62
7
  6
CONTINUOUS
 10
2.1384491316
 20
-15.6620031343
 11
1.8556064191
 21
-15.8034244905
  0
LINE
  5
6A5
100
AcDbEntity
  8
0
100
AcDbLine
 62
7
  6
CONTINUOUS
 10
3.8716130499
 20
-14.7965342859
 11
3.5887703374
 21
-14.9379556421
  0
LINE
  5
6A6
100
AcDbEntity
  8
0
100
AcDbLine
 62
7
  6
CONTINUOUS
 10
0.6047797208
 20
-16.4681562913
 11
0.6189218565
 21
-16.4610852235
  0
LINE
  5
6A7
100
AcDbEntity
  8
ASSI
100
AcDbLine
 62
7
  6
CONTINUOUS
 10
11.0107843458
 20
-11.4585368593
 11
14.0259384925
 21
-9.9509597859
  0
LINE
  5
6A8
100
AcDbEntity
  8
0
100
AcDbLine
 62
7
  6
CONTINUOUS
 10
2.1384491316
 20
-15.9506782672
 11
1.8556064191
 21
-16.0920996234
  0
LINE
  5
6A9
100
AcDbEntity
  8
0
100
AcDbLine
 62
7
  6
CONTINUOUS
 10
3.2036228263
 20
-14.1680316724
 11
3.3961965818
 21
-14.0911133043
  0
LINE
  5
6AA
100
AcDbEntity
  8
0
100
AcDbLine
 62
7
  6
CONTINUOUS
 10
1.7111761151
 20
-14.4610388014
 11
1.8556064191
 21
-14.4177838445
  0
LINE
  5
6AB
100
AcDbEntity
  8
0
100
AcDbLine
 62
7
  6
CONTINUOUS
 10
-12.1562409013
 20
15.9508516007
 11
-12.3006713402
 21
15.9653313527
  0
LINE
  5
6AC
100
AcDbEntity
  8
DRAFT
100
AcDbLine
 62
7
  6
CONTINUOUS
 10
-0.8647200102
 20
17.2569155026
 11
2.086552171
 21
15.781279412
  0
LINE
  5
6AD
100
AcDbEntity
  8
RACCORDO
100
AcDbLine
 62
253
  6
CONTINUOUS
 10
-7.585318226
 20
21.7669744942
 11
-1.5230749298
 21
18.7358528461
  0
LINE
  5
6AE
100
AcDbEntity
  8
RACCORDO
100
AcDbLine
 62
253
  6
CONTINUOUS
 10
3.3230012263
 20
16.312814768
 11
9.3852445225
 21
13.2816931199
  0
LINE
  5
6AF
100
AcDbEntity
  8
RACCORDO
100
AcDbLine
 62
7
  6
CONTINUOUS
 10
-7.1504453454
 20
21.7893378238
 11
-1.1106606326
 21
18.7694454674
  0
LINE
  5
6B0
100
AcDbEntity
  8
RACCORDO
100
AcDbLine
 62
7
  6
CONTINUOUS
 10
3.7803326902
 20
16.323948806
 11
9.820117403
 21
13.3040564496
  0
LINE
  5
6B1
100
AcDbEntity
  8
ASSI
100
AcDbLine
 62
7
  6
CONTINUOUS
 10
14.9590473789
 20
-8.8245977216
 11
14.0259384925
 21
-9.9509597859
  0
LINE
  5
6B2
100
AcDbEntity
  8
0
100
AcDbLine
 62
7
  6
CONTINUOUS
 10
3.8716130499
 20
-16.874995255
 11
3.5887703374
 21
-17.0164166112
  0
LINE
  5
6B3
100
AcDbEntity
  8
0
100
AcDbLine
 62
7
  6
CONTINUOUS
 10
-12.5835140527
 20
15.8239099965
 11
-12.7760877914
 21
15.8047272525
  0
LINE
  5
6B4
100
AcDbEntity
  8
0
100
AcDbLine
 62
7
  6
CONTINUOUS
 10
-12.3006713402
 20
15.9653313527
 11
-12.4932450789
 21
15.9461486087
  0
LINE
  5
6B5
100
AcDbEntity
  8
DRAFT
100
AcDbLine
 62
7
  6
CONTINUOUS
 10
6.3222623799
 20
-20.5384292003
 11
10.2498283076
 21
-18.4650296744
  0
LINE
  5
6B6
100
AcDbEntity
  8
RACCORDO
100
AcDbLine
 62
253
  6
CONTINUOUS
 10
6.8273193953
 20
-19.4642506719
 11
10.7301241461
 21
-17.4435143577
  0
LINE
  5
6B7
100
AcDbEntity
  8
DRAFT
100
AcDbLine
 62
253
  6
CONTINUOUS
 10
5.6959485454
 20
-20.0299360968
 11
6.8174460714
 21
-19.4593140099
  0
LINE
  5
6B8
100
AcDbEntity
  8
DRAFT
100
AcDbLine
 62
253
  6
CONTINUOUS
 10
5.408168795
 20
-20.1688889341
 11
5.6959485454
 21
-20.0299360968
  0
LINE
  5
6B9
100
AcDbEntity
  8
DRAFT
100
AcDbLine
 62
7
  6
CONTINUOUS
 10
5.1835467312
 20
-21.1079403299
 11
6.3086215876
 21
-20.5297921627
  0
LINE
  5
6BA
100
AcDbEntity
  8
DRAFT
100
AcDbLine
 62
7
  6
CONTINUOUS
 10
5.1838981859
 20
-21.107759609
 11
5.161583524
 21
-21.1187771174
  0
LINE
  5
6BB
100
AcDbEntity
  8
DRAFT
100
AcDbLine
 62
7
  6
CONTINUOUS
 10
4.8753561243
 20
-21.2540768993
 11
5.1612693025
 21
-21.118925739
  0
ARC
  5
6BC
100
AcDbEntity
  8
0
100
AcDbCircle
 62
7
  6
CONTINUOUS
 10
14.2348475217
 20
-7.7847580534
 40
4.0065706271
100
AcDbArc
 50
87.9204726467
 51
91.8834564183
  0
ARC
  5
6BD
100
AcDbEntity
  8
0
100
AcDbCircle
 62
7
  6
CONTINUOUS
 10
14.2466857233
 20
-7.5031565614
 40
3.7247253717
100
AcDbArc
 50
86.0490618046
 51
87.94526987
  0
ARC
  5
6BE
100
AcDbEntity
  8
0
100
AcDbCircle
 62
7
  6
CONTINUOUS
 10
14.258469076
 20
-7.3155629761
 40
3.5367659124
100
AcDbArc
 50
84.0844302199
 51
86.0301033664
  0
ARC
  5
6BF
100
AcDbEntity
  8
0
100
AcDbCircle
 62
7
  6
CONTINUOUS
 10
14.2610751646
 20
-7.2961399249
 40
3.5171777506
100
AcDbArc
 50
82.2250380561
 51
84.0940482565
  0
ARC
  5
6C0
100
AcDbEntity
  8
DRAFT
100
AcDbCircle
 62
7
  6
CONTINUOUS
 10
-2.3961580418
 20
-5.2683201069
 40
2.4614964932
100
AcDbArc
 50
288.8462656934
 51
293.9082780862
  0
ARC
  5
6C1
100
AcDbEntity
  8
DRAFT
100
AcDbCircle
 62
7
  6
CONTINUOUS
 10
4.8341741612
 20
-19.4650863067
 40
1.9931454092
100
AcDbArc
 50
354.8359509558
 51
0.0240215046
  0
ARC
  5
6C2
100
AcDbEntity
  8
0
100
AcDbCircle
 62
7
  6
CONTINUOUS
 10
-10.8833147026
 20
-0.3030413391
 40
1.8463508806
100
AcDbArc
 50
174.3646383992
 51
177.7351674664
  0
ARC
  5
6C3
100
AcDbEntity
  8
0
100
AcDbCircle
 62
7
  6
CONTINUOUS
 10
-11.2307789577
 20
-0.4392724842
 40
1.7815323823
100
AcDbArc
 50
174.3266716833
 51
176.0677168536
  0
ARC
  5
6C4
100
AcDbEntity
  8
DRAFT
100
AcDbCircle
 62
7
  6
CONTINUOUS
 10
-12.1025903233
 20
19.2143915769
 40
0.7760381853
100
AcDbArc
 50
101.6831890432
 51
107.6329720936
  0
ARC
  5
6C5
100
AcDbEntity
  8
DRAFT
100
AcDbCircle
 62
7
  6
CONTINUOUS
 10
-12.1100898073
 20
19.235906446
 40
0.7671354959
100
AcDbArc
 50
101.6529370268
 51
111.2966388498
  0
ARC
  5
6C6
100
AcDbEntity
  8
DRAFT
100
AcDbCircle
 62
7
  6
CONTINUOUS
 10
-12.111306705
 20
19.2433692188
 40
0.7598112621
100
AcDbArc
 50
116.0379768683
 51
125.6534095131
  0
ARC
  5
6C7
100
AcDbEntity
  8
DRAFT
100
AcDbCircle
 62
7
  6
CONTINUOUS
 10
5.968916236
 20
-19.8679729877
 40
0.7578817303
100
AcDbArc
 50
287.335579106
 51
291.3115228199
  0
ARC
  5
6C8
100
AcDbEntity
  8
DRAFT
100
AcDbCircle
 62
7
  6
CONTINUOUS
 10
-12.1097872402
 20
19.2377991602
 40
0.7515503293
100
AcDbArc
 50
107.6506442722
 51
115.9139786535
  0
ARC
  5
6C9
100
AcDbEntity
  8
DRAFT
100
AcDbCircle
 62
7
  6
CONTINUOUS
 10
5.9715181095
 20
-19.8750443911
 40
0.7503482755
100
AcDbArc
 50
291.3226764396
 51
297.8196747345
  0
ARC
  5
6CA
100
AcDbEntity
  8
DRAFT
100
AcDbCircle
 62
7
  6
CONTINUOUS
 10
-12.1161735537
 20
19.2523643654
 40
0.7495928285
100
AcDbArc
 50
111.3192691519
 51
116.0055444466
  0
ARC
  5
6CB
100
AcDbEntity
  8
DRAFT
100
AcDbCircle
 62
7
  6
CONTINUOUS
 10
-13.2476966804
 20
18.6867909746
 40
0.7494328489
100
AcDbArc
 50
111.4930582465
 51
115.9935829032
  0
ARC
  5
6CC
100
AcDbEntity
  8
DRAFT
100
AcDbCircle
 62
7
  6
CONTINUOUS
 10
5.9676168751
 20
-19.8661909605
 40
0.7460833679
100
AcDbArc
 50
297.1985524577
 51
297.754393667
  0
ARC
  5
6CD
100
AcDbEntity
  8
RACCORDO
100
AcDbCircle
 62
253
  6
CONTINUOUS
 10
-8.11653457
 20
21.1833075421
 40
0.7131472761
100
AcDbArc
 50
110.723445804
 51
115.3369679606
  0
ARC
  5
6CE
100
AcDbEntity
  8
RACCORDO
100
AcDbCircle
 62
253
  6
CONTINUOUS
 10
-7.3187502478
 20
21.4524169299
 40
0.3765960776
100
AcDbArc
 50
63.4561147367
 51
65.9714525686
  0
SPLINE
  5
6CF
100
AcDbEntity
  8
0
100
AcDbSpline
 62
7
  6
CONTINUOUS
 70
0
 71
3
 72
9
 73
5
 74
3
 42
0.0000001
 43
0.0000001
 44
0.0000000001
 12
0.1034439321
 22
0.0517221511
 32
0.0
 13
0.1155597958
 23
-0.0046649307
 33
0.0
 40
0.0
 40
0.0
 40
0.0
 40
0.0
 40
0.2463742241
 40
1.0
 40
1.0
 40
1.0
 40
1.0
 10
-11.761403287
 20
-0.7393876665
 30
0.0
 10
-11.7529079808
 20
-0.7351399982
 30
0.0
 10
-11.7171766954
 20
-0.7204109921
 30
0.0
 10
-11.6777252771
 20
-0.7156845931
 30
0.0
 10
-11.6486956635
 20
-0.7168564637
 30
0.0
 11
-11.761403287
 21
-0.7393876665
 31
0.0
 11
-11.7350756323
 21
-0.7284894641
 31
0.0
 11
-11.6486956635
 21
-0.7168564637
 31
0.0
  0
SPLINE
  5
6D0
100
AcDbEntity
  8
0
100
AcDbSpline
 62
7
  6
CONTINUOUS
 70
0
 71
3
 72
10
 73
6
 74
4
 42
0.0000001
 43
0.0000001
 44
0.0000000001
 12
-0.2661151241
 22
-0.1330567555
 32
0.0
 13
-0.0971412881
 23
-0.2812204289
 33
0.0
 40
0.0
 40
0.0
 40
0.0
 40
0.0
 40
0.2366480009
 40
0.6030135567
 40
1.0
 40
1.0
 40
1.0
 40
1.0
 10
-13.1743647318
 20
0.6072697603
 30
0.0
 10
-13.1953566025
 20
0.5967738885
 30
0.0
 10
-13.2462644651
 20
0.5645391134
 30
0.0
 10
-13.3157666222
 20
0.4922524914
 30
0.0
 10
-13.3528395391
 20
0.4246924227
 30
0.0
 10
-13.3656941306
 20
0.3874788567
 30
0.0
 11
-13.1743647318
 21
0.6072697603
 31
0.0
 11
-13.2339277407
 21
0.5697245129
 31
0.0
 11
-13.3099570946
 21
0.4916143115
 31
0.0
 11
-13.3656941306
 21
0.3874788567
 31
0.0
  0
SPLINE
  5
6D1
100
AcDbEntity
  8
0
100
AcDbSpline
 62
7
  6
CONTINUOUS
 70
0
 71
3
 72
9
 73
5
 74
3
 42
0.0000001
 43
0.0000001
 44
0.0000000001
 12
-0.1431000327
 22
-0.0715503833
 32
0.0
 13
-0.0579874654
 23
-0.1491124763
 33
0.0
 40
0.0
 40
0.0
 40
0.0
 40
0.0
 40
0.4833850948
 40
1.0
 40
1.0
 40
1.0
 40
1.0
 10
-11.9590320364
 20
-0.0797935426
 30
0.0
 10
-11.9820895107
 20
-0.0913223389
 30
0.0
 10
-12.02658185
 20
-0.1230761396
 30
0.0
 10
-12.0550277581
 20
-0.1700905952
 30
0.0
 10
-12.0650134878
 20
-0.1957685045
 30
0.0
 11
-11.9590320364
 21
-0.0797935426
 31
0.0
 11
-12.0213539505
 21
-0.125586789
 31
0.0
 11
-12.0650134878
 21
-0.1957685045
 31
0.0
  0
SPLINE
  5
6D2
100
AcDbEntity
  8
0
100
AcDbSpline
 62
7
  6
CONTINUOUS
 70
0
 71
3
 72
9
 73
5
 74
3
 42
0.0000001
 43
0.0000001
 44
0.0000000001
 12
0.1835201581
 22
0.0917602228
 32
0.0
 13
0.1849152018
 23
-0.0889154376
 33
0.0
 40
0.0
 40
0.0
 40
0.0
 40
0.0
 40
0.4683247794
 40
1.0
 40
1.0
 40
1.0
 40
1.0
 10
-12.8850960674
 20
-0.0441053967
 30
0.0
 10
-12.8564470549
 20
-0.029780868
 30
0.0
 10
-12.7853152408
 20
-0.0184858152
 30
0.0
 10
-12.7181675621
 20
-0.0389075135
 30
0.0
 10
-12.6853959519
 20
-0.0546655585
 30
0.0
 11
-12.8850960674
 21
-0.0441053967
 31
0.0
 11
-12.7906953054
 21
-0.0261577365
 31
0.0
 11
-12.6853959519
 21
-0.0546655585
 31
0.0
  0
SPLINE
  5
6D3
100
AcDbEntity
  8
DRAFT
100
AcDbSpline
 62
7
  6
CONTINUOUS
 70
0
 71
3
 72
11
 73
7
 74
5
 42
0.0000001
 43
0.0000001
 44
0.0000000001
 12
0.0
 22
-1.0492641372
 32
0.0
 13
-0.781305988
 23
-0.7003686049
 33
0.0
 40
0.0
 40
0.0
 40
0.0
 40
0.0
 40
0.2834827023
 40
0.5434574183
 40
0.7807766877
 40
1.0
 40
1.0
 40
1.0
 40
1.0
 10
6.8174460714
 20
-19.4593140099
 30
0.0
 10
6.8174460714
 20
-19.5584634209
 30
0.0
 10
6.8041156339
 20
-19.7489782736
 30
0.0
 10
6.7385785971
 20
-20.0156979345
 30
0.0
 10
6.629587796
 20
-20.2435805335
 30
0.0
 10
6.5259484132
 20
-20.3680048523
 30
0.0
 10
6.4688549177
 20
-20.4191838941
 30
0.0
 11
6.8174460714
 21
-19.4593140099
 31
0.0
 11
6.794754
 21
-19.7558954005
 31
0.0
 11
6.7274115112
 21
-20.0202343656
 31
0.0
 11
6.6175956289
 21
-20.2437220612
 31
0.0
 11
6.4688549177
 21
-20.4191838941
 31
0.0
  0
SPLINE
  5
6D4
100
AcDbEntity
  8
DRAFT
100
AcDbSpline
 62
7
  6
CONTINUOUS
 70
0
 71
3
 72
9
 73
5
 74
3
 42
0.0000001
 43
0.0000001
 44
0.0000000001
 12
-0.139819449
 22
-0.125335213
 32
0.0
 13
-0.1661693745
 23
-0.087442169
 33
0.0
 40
0.0
 40
0.0
 40
0.0
 40
0.0
 40
0.2526262229
 40
1.0
 40
1.0
 40
1.0
 40
1.0
 10
6.4688549177
 20
-20.4191838941
 30
0.0
 10
6.457080898
 20
-20.4297382146
 30
0.0
 10
6.4092500285
 20
-20.4701277114
 30
0.0
 10
6.3564516337
 20
-20.504654882
 30
0.0
 10
6.315054756
 20
-20.5264388767
 30
0.0
 11
6.4688549177
 21
-20.4191838941
 31
0.0
 11
6.4325972067
 21
-20.4497709729
 31
0.0
 11
6.315054756
 21
-20.5264388767
 31
0.0
  0
SPLINE
  5
6D5
100
AcDbEntity
  8
DRAFT
100
AcDbSpline
 62
7
  6
CONTINUOUS
 70
0
 71
3
 72
14
 73
10
 74
8
 42
0.0000001
 43
0.0000001
 44
0.0000000001
 12
2.6129879824
 22
-1.3064939912
 32
0.0
 13
-0.0
 23
-2.9214093765
 33
0.0
 40
0.0
 40
0.0
 40
0.0
 40
0.0
 40
0.1103744083
 40
0.229992742
 40
0.356938178
 40
0.4885712501
 40
0.7530669901
 40
0.880167166
 40
1.0
 40
1.0
 40
1.0
 40
1.0
 10
5.4131058329
 20
11.3684478583
 30
0.0
 10
5.5092415004
 20
11.3203800246
 30
0.0
 10
5.6997922021
 20
11.2000768406
 30
0.0
 10
5.9614577112
 20
10.9695752142
 30
0.0
 10
6.2024547777
 20
10.6895540519
 30
0.0
 10
6.4841354299
 20
10.2641001654
 30
0.0
 10
6.6885872334
 20
9.7907627352
 30
0.0
 10
6.7975995698
 20
9.3037671187
 30
0.0
 10
6.8174460714
 20
9.0630128224
 30
0.0
 10
6.8174460714
 20
8.9463192342
 30
0.0
 11
5.4131058329
 21
11.3684478583
 31
0.0
 11
5.6870790223
 21
11.1984127432
 31
0.0
 11
5.9505235756
 21
10.9688149415
 31
0.0
 11
6.1933154665
 21
10.6884777679
 31
0.0
 11
6.4061243387
 21
10.3681744227
 31
0.0
 11
6.710547036
 21
9.6579683761
 31
0.0
 11
6.7904620675
 21
9.2953584947
 31
0.0
 11
6.8174460714
 21
8.9463192342
 31
0.0
  0
SPLINE
  5
6D6
100
AcDbEntity
  8
DRAFT
100
AcDbSpline
 62
7
  6
CONTINUOUS
 70
0
 71
3
 72
14
 73
10
 74
8
 42
0.0000001
 43
0.0000001
 44
0.0000000001
 12
3.5869054297
 22
1.9002919953
 32
0.0
 13
-0.006211791
 23
4.059182386
 33
0.0
 40
0.0
 40
0.0
 40
0.0
 40
0.0
 40
0.1075706678
 40
0.2174735805
 40
0.3315478364
 40
0.451256924
 40
0.5776201146
 40
0.7111947644
 40
1.0
 40
1.0
 40
1.0
 40
1.0
 10
-1.525193261
 20
-7.5918841606
 30
0.0
 10
-1.3965779902
 20
-7.523745601
 30
0.0
 10
-1.1484592331
 20
-7.3621717402
 30
0.0
 10
-0.819459494
 20
-7.0541806757
 30
0.0
 10
-0.5353812376
 20
-6.6835373285
 30
0.0
 10
-0.2994488377
 20
-6.255293341
 30
0.0
 10
-0.1139946983
 20
-5.7746982349
 30
0.0
 10
0.068164273
 20
-5.0535308424
 30
0.0
 10
0.1153319175
 20
-4.4789790023
 30
0.0
 10
0.1147339182
 20
-4.0882079605
 30
0.0
 11
-1.525193261
 21
-7.5918841606
 31
0.0
 11
-1.1590269088
 21
-7.3540082198
 31
0.0
 11
-0.8325374481
 21
-7.0499941499
 31
0.0
 11
-0.5495827405
 21
-6.6834552292
 31
0.0
 11
-0.3135106508
 21
-6.2587320735
 31
0.0
 11
-0.1271331395
 21
-5.7808591887
 31
0.0
 11
0.0073291181
 21
-5.2555919982
 31
0.0
 11
0.1147339182
 21
-4.0882079605
 31
0.0
  0
SPLINE
  5
6D7
100
AcDbEntity
  8
DRAFT
100
AcDbSpline
 62
7
  6
CONTINUOUS
 70
0
 71
3
 72
10
 73
6
 74
4
 42
0.0000001
 43
0.0000001
 44
0.0000000001
 12
0.7090236312
 22
0.1468780084
 32
0.0
 13
0.6476342542
 23
-0.3238171271
 33
0.0
 40
0.0
 40
0.0
 40
0.0
 40
0.0
 40
0.2287898069
 40
0.46988636
 40
1.0
 40
1.0
 40
1.0
 40
1.0
 10
-12.2597380374
 20
19.9743520107
 30
0.0
 10
-12.2056655775
 20
19.9855534077
 30
0.0
 10
-12.0919152708
 20
19.9969154225
 30
0.0
 10
-11.8504934989
 20
19.9752741404
 30
0.0
 10
-11.6718968329
 20
19.9109491912
 30
0.0
 10
-11.5574569156
 20
19.8537292325
 30
0.0
 11
-12.2597380374
 21
19.9743520107
 31
0.0
 11
-12.0949678708
 21
19.9915133668
 31
0.0
 11
-11.9210103274
 21
19.9768733829
 31
0.0
 11
-11.5574569156
 21
19.8537292325
 31
0.0
  0
SPLINE
  5
6D8
100
AcDbEntity
  8
DRAFT
100
AcDbSpline
 62
7
  6
CONTINUOUS
 70
0
 71
3
 72
12
 73
8
 74
6
 42
0.0000001
 43
0.0000001
 44
0.0000000001
 12
-1.096313363
 22
-0.5788047607
 32
0.0
 13
0.0
 23
-1.2397249457
 33
0.0
 40
0.0
 40
0.0
 40
0.0
 40
0.0
 40
0.1077293137
 40
0.2177897669
 40
0.4512067487
 40
0.7109118218
 40
1.0
 40
1.0
 40
1.0
 40
1.0
 10
-13.8776878918
 20
19.2017046525
 30
0.0
 10
-13.9170562539
 20
19.1809199059
 30
0.0
 10
-13.993029135
 20
19.1316213651
 30
0.0
 10
-14.1299843418
 20
19.0039081591
 30
0.0
 10
-14.2663965605
 20
18.7902089852
 30
0.0
 10
-14.3618639191
 20
18.4784113587
 30
0.0
 10
-14.3809470024
 20
18.2507654841
 30
0.0
 10
-14.3809470024
 20
18.1313022087
 30
0.0
 11
-13.8776878918
 21
19.2017046525
 31
0.0
 11
-13.989801736
 21
19.1291281513
 31
0.0
 11
-14.0898129976
 21
19.0363116613
 31
0.0
 11
-14.2489490673
 21
18.794625169
 31
0.0
 11
-14.3475516116
 21
18.4881327222
 31
0.0
 11
-14.3809470024
 21
18.1313022087
 31
0.0
  0
SPLINE
  5
6D9
100
AcDbEntity
  8
DRAFT
100
AcDbSpline
 62
7
  6
CONTINUOUS
 70
0
 71
3
 72
11
 73
7
 74
5
 42
0.0000001
 43
0.0000001
 44
0.0000000001
 12
0.8120693782
 22
-0.4060346891
 32
0.0
 13
0.8208494602
 23
0.3879781018
 33
0.0
 40
0.0
 40
0.0
 40
0.0
 40
0.0
 40
0.2788741731
 40
0.5351273625
 40
0.7729426298
 40
1.0
 40
1.0
 40
1.0
 40
1.0
 10
3.9988922705
 20
-21.1902548676
 30
0.0
 10
4.0743806627
 20
-21.2279990636
 30
0.0
 10
4.22534726
 20
-21.2892836781
 30
0.0
 10
4.45666278
 20
-21.334218632
 30
0.0
 10
4.6768790195
 20
-21.3258796088
 30
0.0
 10
4.8131711315
 20
-21.2834617581
 30
0.0
 10
4.8752977714
 20
-21.2540973289
 30
0.0
 11
3.9988922705
 21
-21.1902548676
 31
0.0
 11
4.2342217678
 21
-21.2836792909
 31
0.0
 11
4.4629929979
 21
-21.3260269831
 31
0.0
 11
4.6786803982
 21
-21.3160611113
 31
0.0
 11
4.8752977714
 21
-21.2540973289
 31
0.0
  0
SPLINE
  5
6DA
100
AcDbEntity
  8
DRAFT
100
AcDbSpline
 62
7
  6
CONTINUOUS
 70
0
 71
3
 72
14
 73
10
 74
8
 42
0.0000001
 43
0.0000001
 44
0.0000000001
 12
0.0
 22
-2.9316781929
 32
0.0
 13
2.6221726909
 23
-1.3110863455
 33
0.0
 40
0.0
 40
0.0
 40
0.0
 40
0.0
 40
0.119832834
 40
0.2469330099
 40
0.5114287499
 40
0.643061822
 40
0.770007258
 40
0.8896255917
 40
1.0
 40
1.0
 40
1.0
 40
1.0
 10
-14.3809470024
 20
-10.2743310354
 30
0.0
 10
-14.3809470024
 20
-10.3914348041
 30
0.0
 10
-14.3610307399
 20
-10.6330353568
 30
0.0
 10
-14.2516352228
 20
-11.1217427733
 30
0.0
 10
-14.0464647669
 20
-11.5967439948
 30
0.0
 10
-13.7637940012
 20
-12.0236933607
 30
0.0
 10
-13.5219498248
 20
-12.3046988034
 30
0.0
 10
-13.2593645558
 20
-12.5360106479
 30
0.0
 10
-13.0681440644
 20
-12.6567367001
 30
0.0
 10
-12.971670478
 20
-12.7049734933
 30
0.0
 11
-14.3809470024
 21
-10.2743310354
 31
0.0
 11
-14.3538681492
 21
-10.6245971764
 31
0.0
 11
-14.2736722146
 21
-10.9884816392
 31
0.0
 11
-13.968179465
 21
-11.7011840753
 31
0.0
 11
-13.754622565
 21
-12.0226132935
 31
0.0
 11
-13.5109772555
 21
-12.3039358583
 31
0.0
 11
-13.2466066889
 21
-12.5343407012
 31
0.0
 11
-12.971670478
 21
-12.7049734933
 31
0.0
  0
SPLINE
  5
6DB
100
AcDbEntity
  8
0
100
AcDbSpline
 62
7
  6
CONTINUOUS
 70
0
 71
3
 72
13
 73
9
 74
7
 42
0.0000001
 43
0.0000001
 44
0.0000000001
 12
-0.5244394764
 22
-1.5156524372
 32
0.0
 13
0.1805809539
 23
-1.5936215341
 33
0.0
 40
0.0
 40
0.0
 40
0.0
 40
0.0
 40
0.110413708
 40
0.2265216428
 40
0.3475998113
 40
0.4731172605
 40
0.7338688534
 40
1.0
 40
1.0
 40
1.0
 40
1.0
 10
-13.3656941306
 20
0.3874788567
 30
0.0
 10
-13.3849958997
 20
0.3316959215
 30
0.0
 10
-13.4143388878
 20
0.2137536616
 30
0.0
 10
-13.4421090366
 20
0.0298745907
 30
0.0
 10
-13.4559444167
 20
-0.163717313
 30
0.0
 10
-13.458922578
 20
-0.4350459188
 30
0.0
 10
-13.4384218585
 20
-0.7835666402
 30
0.0
 10
-13.4085124093
 20
-1.0636571685
 30
0.0
 10
-13.3924930039
 20
-1.2050279439
 30
0.0
 11
-13.3656941306
 21
0.3874788567
 31
0.0
 11
-13.4109293665
 21
0.2162701514
 31
0.0
 11
-13.4393392226
 21
0.032233823
 31
0.0
 11
-13.4538563506
 21
-0.1614103855
 31
0.0
 11
-13.4566076628
 21
-0.3626989974
 31
0.0
 11
-13.43532049
 21
-0.7803555245
 31
0.0
 11
-13.3924930039
 21
-1.2050279439
 31
0.0
  0
SPLINE
  5
6DC
100
AcDbEntity
  8
0
100
AcDbSpline
 62
7
  6
CONTINUOUS
 70
0
 71
3
 72
10
 73
6
 74
4
 42
0.0000001
 43
0.0000001
 44
0.0000000001
 12
0.7779156672
 22
-0.0310235235
 32
0.0
 13
0.770158371
 23
-0.1138917374
 33
0.0
 40
0.0
 40
0.0
 40
0.0
 40
0.0
 40
0.4976748419
 40
0.7490586208
 40
1.0
 40
1.0
 40
1.0
 40
1.0
 10
-11.6486956635
 20
-0.7168564637
 30
0.0
 10
-11.5196459779
 20
-0.7220030061
 30
0.0
 10
-11.3271072633
 20
-0.7536424837
 30
0.0
 10
-11.0704422111
 20
-0.7908994262
 30
0.0
 10
-10.9412752898
 20
-0.8087017426
 30
0.0
 10
-10.8768537552
 20
-0.8182284592
 30
0.0
 11
-11.6486956635
 21
-0.7168564637
 31
0.0
 11
-11.2639246643
 21
-0.7623982289
 31
0.0
 11
-11.0702691558
 21
-0.7906873108
 31
0.0
 11
-10.8768537552
 21
-0.8182284592
 31
0.0
  0
SPLINE
  5
6DD
100
AcDbEntity
  8
0
100
AcDbSpline
 62
7
  6
CONTINUOUS
 70
0
 71
3
 72
14
 73
10
 74
8
 42
0.0000001
 43
0.0000001
 44
0.0000000001
 12
0.7665928898
 22
-0.3688092288
 32
0.0
 13
0.0153714969
 23
-0.8505578305
 33
0.0
 40
0.0
 40
0.0
 40
0.0
 40
0.0
 40
0.1105432458
 40
0.2325558483
 40
0.3612888228
 40
0.4925219827
 40
0.6235484849
 40
0.75350933
 40
1.0
 40
1.0
 40
1.0
 40
1.0
 10
-12.6853959519
 20
-0.0546655585
 30
0.0
 10
-12.6571487298
 20
-0.0682553483
 30
0.0
 10
-12.6004115995
 20
-0.1025313892
 30
0.0
 10
-12.5209563086
 20
-0.1676710737
 30
0.0
 10
-12.4471920203
 20
-0.2474691628
 30
0.0
 10
-12.3844381055
 20
-0.3395086132
 30
0.0
 10
-12.3391186452
 20
-0.4417095802
 30
0.0
 10
-12.3013684085
 20
-0.5809495769
 30
0.0
 10
-12.2911083225
 20
-0.6880441857
 30
0.0
 10
-12.2898453456
 20
-0.7579290423
 30
0.0
 11
-12.6853959519
 21
-0.0546655585
 31
0.0
 11
-12.6044735396
 21
-0.1025701999
 31
0.0
 11
-12.5240260569
 21
-0.1681579587
 31
0.0
 11
-12.4497537662
 21
-0.2486356726
 31
0.0
 11
-12.3873569299
 21
-0.341210179
 31
0.0
 11
-12.3417029136
 21
-0.4428954431
 31
0.0
 11
-12.3121514915
 21
-0.5494300485
 31
0.0
 11
-12.2898453456
 21
-0.7579290423
 31
0.0
  0
SPLINE
  5
6DE
100
AcDbEntity
  8
DRAFT
100
AcDbSpline
 62
7
  6
CONTINUOUS
 70
0
 71
3
 72
22
 73
18
 74
16
 42
0.0000001
 43
0.0000001
 44
0.0000000001
 12
0.0
 22
-12.6556203105
 32
0.0
 13
11.1831535858
 23
5.9246773179
 33
0.0
 40
0.0
 40
0.0
 40
0.0
 40
0.0
 40
0.0648490088
 40
0.1328209133
 40
0.2032273506
 40
0.2752620627
 40
0.4205560202
 40
0.4921553113
 40
0.5618599895
 40
0.6288981939
 40
0.6926239496
 40
0.7525690047
 40
0.8085229907
 40
0.8605776314
 40
0.9091988204
 40
0.9552591222
 40
1.0
 40
1.0
 40
1.0
 40
1.0
 10
-9.0875202193
 20
0.5023493317
 30
0.0
 10
-9.0875202193
 20
0.2287811875
 30
0.0
 10
-9.0543230675
 20
-0.331890572
 30
0.0
 10
-8.9152426143
 20
-1.1791582533
 30
0.0
 10
-8.6883621045
 20
-2.0387271437
 30
0.0
 10
-8.2738396137
 20
-3.1808110272
 30
0.0
 10
-7.7096322233
 20
-4.2695684308
 30
0.0
 10
-7.0168541855
 20
-5.2619182224
 30
0.0
 10
-6.4489673163
 20
-5.9345277431
 30
0.0
 10
-5.841825738
 20
-6.52530196
 30
0.0
 10
-5.2071794132
 20
-7.0225321767
 30
0.0
 10
-4.5572700181
 20
-7.4161353338
 30
0.0
 10
-3.9045562239
 20
-7.6982290116
 30
0.0
 10
-3.2612316869
 20
-7.8622930747
 30
0.0
 10
-2.6396009511
 20
-7.9038780873
 30
0.0
 10
-2.0528593795
 20
-7.8203059294
 30
0.0
 10
-1.6919746304
 20
-7.6802425819
 30
0.0
 10
-1.525193261
 20
-7.5918841606
 30
0.0
 11
-9.0875202193
 21
0.5023493317
 31
0.0
 11
-9.0413489442
 21
-0.3170553176
 31
0.0
 11
-8.9037570451
 21
-1.1662068341
 31
0.0
 11
-8.6775068106
 21
-2.0280409325
 31
0.0
 11
-8.3671521863
 21
-2.88523095
 31
0.0
 11
-7.5205154768
 21
-4.5175106898
 31
0.0
 11
-7.00108238
 21
-5.2599843074
 31
0.0
 11
-6.4309376361
 21
-5.9331366497
 31
0.0
 11
-5.8215101663
 21
-6.5233889616
 31
0.0
 11
-5.1850645424
 21
-7.0187286667
 31
0.0
 11
-4.5345166737
 21
-7.4090169395
 31
0.0
 11
-3.8829955832
 21
-7.6864548038
 31
0.0
 11
-3.24365499
 21
-7.8453247453
 31
0.0
 11
-2.6294514094
 21
-7.8825615483
 31
0.0
 11
-2.0527723533
 21
-7.7974794513
 31
0.0
 11
-1.525193261
 21
-7.5918841606
 31
0.0
  0
SPLINE
  5
6DF
100
AcDbEntity
  8
DRAFT
100
AcDbSpline
 62
7
  6
CONTINUOUS
 70
0
 71
3
 72
19
 73
15
 74
13
 42
0.0000001
 43
0.0000001
 44
0.0000000001
 12
0.0
 22
-12.2508337851
 32
0.0
 13
11.5937048417
 23
3.958400747
 33
0.0
 40
0.0
 40
0.0
 40
0.0
 40
0.0
 40
0.1307831376
 40
0.2709424984
 40
0.4145132784
 40
0.5550214691
 40
0.6222827344
 40
0.686627752
 40
0.7475645818
 40
0.8047862712
 40
0.8582343979
 40
0.908146521
 40
0.9550919889
 40
1.0
 40
1.0
 40
1.0
 40
1.0
 10
-8.799740469
 20
0.641302169
 30
0.0
 10
-8.799740469
 20
0.1072346753
 30
0.0
 10
-8.6728006947
 20
-1.0007918077
 30
0.0
 10
-8.1783857269
 20
-2.6276163632
 30
0.0
 10
-7.4060702072
 20
-4.1868557307
 30
0.0
 10
-6.562347763
 20
-5.357032876
 30
0.0
 10
-5.7937489621
 20
-6.161597704
 30
0.0
 10
-5.195945671
 20
-6.6745537231
 30
0.0
 10
-4.5795656789
 20
-7.0964071054
 30
0.0
 10
-3.955283992
 20
-7.4191843375
 30
0.0
 10
-3.334063976
 20
-7.6367054147
 30
0.0
 10
-2.7266149006
 20
-7.7443324735
 30
0.0
 10
-2.1442053345
 20
-7.7386347639
 30
0.0
 10
-1.7745709082
 20
-7.6571072711
 30
0.0
 10
-1.601020833
 20
-7.5978526362
 30
0.0
 11
-8.799740469
 21
0.641302169
 31
0.0
 11
-8.631472756
 21
-0.9520398429
 31
0.0
 11
-8.1389935574
 21
-2.5969685039
 31
0.0
 11
-7.3583404816
 21
-4.1730952358
 31
0.0
 11
-6.3462458901
 21
-5.5654617477
 31
0.0
 11
-5.7758786109
 21
-6.1601616831
 31
0.0
 11
-5.1763557636
 21
-6.671979909
 31
0.0
 11
-4.5588315769
 21
-7.0914634009
 31
0.0
 11
-3.9347309833
 21
-7.4107097702
 31
0.0
 11
-3.3156069488
 21
-7.6238474471
 31
0.0
 11
-2.7129063987
 21
-7.7270057945
 31
0.0
 11
-2.1378523696
 21
-7.7182210898
 31
0.0
 11
-1.601020833
 21
-7.5978526362
 31
0.0
  0
SPLINE
  5
6E0
100
AcDbEntity
  8
0
100
AcDbSpline
 62
7
  6
CONTINUOUS
 70
0
 71
3
 72
10
 73
6
 74
4
 42
0.0000001
 43
0.0000001
 44
0.0000000001
 12
-0.6900498436
 22
0.1154886477
 32
0.0
 13
-0.6901661249
 23
0.1147917003
 33
0.0
 40
0.0
 40
0.0
 40
0.0
 40
0.0
 40
0.2499236606
 40
0.5003183778
 40
1.0
 40
1.0
 40
1.0
 40
1.0
 10
-10.8768537552
 20
-0.1923002329
 30
0.0
 10
-10.9343403495
 20
-0.1826791177
 30
0.0
 10
-11.0491743508
 20
-0.1619652943
 30
0.0
 10
-11.2786239852
 20
-0.1202456297
 30
0.0
 10
-11.4508250484
 20
-0.0894158813
 30
0.0
 10
-11.5657794914
 20
-0.0702961137
 30
0.0
 11
-10.8768537552
 21
-0.1923002329
 31
0.0
 11
-11.0490572169
 21
-0.1619450487
 31
0.0
 11
-11.22143593
 21
-0.1306974129
 31
0.0
 11
-11.5657794914
 21
-0.0702961137
 31
0.0
  0
SPLINE
  5
6E1
100
AcDbEntity
  8
0
100
AcDbSpline
 62
7
  6
CONTINUOUS
 70
0
 71
3
 72
11
 73
7
 74
5
 42
0.0000001
 43
0.0000001
 44
0.0000000001
 12
-0.3940132002
 22
0.0655411845
 32
0.0
 13
-0.357258138
 23
-0.1786299851
 33
0.0
 40
0.0
 40
0.0
 40
0.0
 40
0.0
 40
0.2535756341
 40
0.5095028326
 40
0.7620259383
 40
1.0
 40
1.0
 40
1.0
 40
1.0
 10
-11.5657794914
 20
-0.0702961137
 30
0.0
 10
-11.5990835404
 20
-0.0647562312
 30
0.0
 10
-11.6658460372
 20
-0.0527116962
 30
0.0
 10
-11.7670566977
 20
-0.0428112594
 30
0.0
 10
-11.8667349027
 20
-0.0474681146
 30
0.0
 10
-11.9306926464
 20
-0.0656237749
 30
0.0
 10
-11.9590320364
 20
-0.0797935426
 30
0.0
 11
-11.5657794914
 21
-0.0702961137
 31
0.0
 11
-11.6657629548
 21
-0.0541110322
 31
0.0
 11
-11.7676019673
 21
-0.0452443943
 31
0.0
 11
-11.8682686353
 21
-0.0515599612
 31
0.0
 11
-11.9590320364
 21
-0.0797935426
 31
0.0
  0
SPLINE
  5
6E2
100
AcDbEntity
  8
0
100
AcDbSpline
 62
7
  6
CONTINUOUS
 70
0
 71
3
 72
19
 73
15
 74
13
 42
0.0000001
 43
0.0000001
 44
0.0000000001
 12
-0.1484074967
 22
1.4828539818
 32
0.0
 13
-1.3329324369
 23
-0.6664621783
 33
0.0
 40
0.0
 40
0.0
 40
0.0
 40
0.0
 40
0.0355994142
 40
0.0739772544
 40
0.1503937444
 40
0.2244175967
 40
0.2975734494
 40
0.3700697576
 40
0.4409015464
 40
0.5740094819
 40
0.6958746213
 40
0.8069726347
 40
0.9070894305
 40
1.0
 40
1.0
 40
1.0
 40
1.0
 10
-12.0800544508
 20
-0.188248023
 30
0.0
 10
-12.0818155241
 20
-0.1706517786
 30
0.0
 10
-12.0921484954
 20
-0.1348481962
 30
0.0
 10
-12.1242722736
 20
-0.0674428074
 30
0.0
 10
-12.1674726312
 20
0.0158635244
 30
0.0
 10
-12.2225985308
 20
0.1123588227
 30
0.0
 10
-12.284100083
 20
0.2026600922
 30
0.0
 10
-12.3517428677
 20
0.286414066
 30
0.0
 10
-12.4460214669
 20
0.3863832496
 30
0.0
 10
-12.5705588097
 20
0.4910533129
 30
0.0
 10
-12.7286701024
 20
0.5825614394
 30
0.0
 10
-12.8852187889
 20
0.6396142099
 30
0.0
 10
-13.0379574383
 20
0.6538922107
 30
0.0
 10
-13.1330835612
 20
0.6279102204
 30
0.0
 10
-13.1743647318
 20
0.6072697603
 30
0.0
 11
-12.0800544508
 21
-0.188248023
 31
0.0
 11
-12.0930267514
 21
-0.1368059956
 31
0.0
 11
-12.116342266
 21
-0.0845811923
 31
0.0
 11
-12.1687089865
 21
0.0165450405
 31
0.0
 11
-12.2240568595
 21
0.1119703886
 31
0.0
 11
-12.2854787569
 21
0.202042653
 31
0.0
 11
-12.3533113115
 21
0.2861322479
 31
0.0
 11
-12.4257956059
 21
0.3628688211
 31
0.0
 11
-12.5783077428
 21
0.4897112287
 31
0.0
 11
-12.7357487133
 21
0.5802368575
 31
0.0
 11
-12.8922627985
 21
0.6342290595
 31
0.0
 11
-13.041087879
 21
0.6448031222
 31
0.0
 11
-13.1743647318
 21
0.6072697603
 31
0.0
  0
SPLINE
  5
6E3
100
AcDbEntity
  8
0
100
AcDbSpline
 62
7
  6
CONTINUOUS
 70
0
 71
3
 72
11
 73
7
 74
5
 42
0.0000001
 43
0.0000001
 44
0.0000000001
 12
0.0
 22
0.2678876468
 32
0.0
 13
0.239605824
 23
0.1198033407
 33
0.0
 40
0.0
 40
0.0
 40
0.0
 40
0.0
 40
0.2889499513
 40
0.5490927186
 40
0.7806445671
 40
1.0
 40
1.0
 40
1.0
 40
1.0
 10
-11.8729739834
 20
-0.9677673637
 30
0.0
 10
-11.8729739834
 20
-0.9419653228
 30
0.0
 10
-11.8690996553
 20
-0.8928248028
 30
0.0
 10
-11.8493428315
 20
-0.8251101439
 30
0.0
 10
-11.8125051712
 20
-0.7718668868
 30
0.0
 10
-11.7789229001
 20
-0.7481475043
 30
0.0
 10
-11.761403287
 20
-0.7393876665
 30
0.0
 11
-11.8729739834
 21
-0.9677673637
 31
0.0
 11
-11.8661210227
 21
-0.890665193
 31
0.0
 11
-11.8449720512
 21
-0.824262765
 31
0.0
 11
-11.8091777089
 21
-0.7736024152
 31
0.0
 11
-11.761403287
 21
-0.7393876665
 31
0.0
  0
SPLINE
  5
6E4
100
AcDbEntity
  8
DRAFT
100
AcDbSpline
 62
7
  6
CONTINUOUS
 70
0
 71
3
 72
14
 73
10
 74
8
 42
0.0000001
 43
0.0000001
 44
0.0000000001
 12
0.0
 22
2.9316781929
 32
0.0
 13
-2.6221726909
 23
1.3110863455
 33
0.0
 40
0.0
 40
0.0
 40
0.0
 40
0.0
 40
0.119832834
 40
0.2469330099
 40
0.5114287499
 40
0.643061822
 40
0.770007258
 40
0.8896255917
 40
1.0
 40
1.0
 40
1.0
 40
1.0
 10
5.408168795
 20
8.23674431
 30
0.0
 10
5.408168795
 20
8.3538480787
 30
0.0
 10
5.3882525325
 20
8.5954486315
 30
0.0
 10
5.2788570154
 20
9.084156048
 30
0.0
 10
5.0736865594
 20
9.5591572694
 30
0.0
 10
4.7910157937
 20
9.9861066354
 30
0.0
 10
4.5491716174
 20
10.267112078
 30
0.0
 10
4.2865863484
 20
10.4984239225
 30
0.0
 10
4.0953658569
 20
10.6191499748
 30
0.0
 10
3.9988922705
 20
10.667386768
 30
0.0
 11
5.408168795
 21
8.23674431
 31
0.0
 11
5.3810899417
 21
8.587010451
 31
0.0
 11
5.3008940071
 21
8.9508949139
 31
0.0
 11
4.9954012575
 21
9.6635973499
 31
0.0
 11
4.7818443576
 21
9.9850265682
 31
0.0
 11
4.5381990481
 21
10.2663491329
 31
0.0
 11
4.2738284815
 21
10.4967539758
 31
0.0
 11
3.9988922705
 21
10.667386768
 31
0.0
  0
SPLINE
  5
6E5
100
AcDbEntity
  8
0
100
AcDbSpline
 62
7
  6
CONTINUOUS
 70
0
 71
3
 72
9
 73
5
 74
3
 42
0.0000001
 43
0.0000001
 44
0.0000000001
 12
-0.0599769441
 22
0.4604786718
 32
0.0
 13
0.0319104707
 23
0.4632705072
 33
0.0
 40
0.0
 40
0.0
 40
0.0
 40
0.0
 40
0.5121441323
 40
1.0
 40
1.0
 40
1.0
 40
1.0
 10
-12.9886011529
 20
-0.7804378323
 30
0.0
 10
-12.9988400995
 20
-0.701827349
 30
0.0
 10
-13.0147172909
 20
-0.5476453772
 30
0.0
 10
-13.0133064887
 20
-0.3924359975
 30
0.0
 10
-13.0081172519
 20
-0.3170995857
 30
0.0
 11
-12.9886011529
 21
-0.7804378323
 31
0.0
 11
-13.0105684246
 21
-0.5436310842
 31
0.0
 11
-13.0081172519
 21
-0.3170995857
 31
0.0
  0
SPLINE
  5
6E6
100
AcDbEntity
  8
0
100
AcDbSpline
 62
7
  6
CONTINUOUS
 70
0
 71
3
 72
9
 73
5
 74
3
 42
0.0000001
 43
0.0000001
 44
0.0000000001
 12
0.0094731409
 22
0.0951962758
 32
0.0
 13
0.0313576484
 23
0.0903812437
 33
0.0
 40
0.0
 40
0.0
 40
0.0
 40
0.0
 40
0.2586032702
 40
1.0
 40
1.0
 40
1.0
 40
1.0
 10
-13.0035848534
 20
-0.2631563712
 30
0.0
 10
-13.0027682583
 20
-0.2549503485
 30
0.0
 10
-12.998784569
 20
-0.2233135751
 30
0.0
 10
-12.9914156511
 20
-0.1920435604
 30
0.0
 10
-12.9836661651
 20
-0.1697074409
 30
0.0
 11
-13.0035848534
 21
-0.2631563712
 31
0.0
 11
-13.0004814788
 21
-0.2386121296
 31
0.0
 11
-12.9836661651
 21
-0.1697074409
 31
0.0
  0
SPLINE
  5
6E7
100
AcDbEntity
  8
0
100
AcDbSpline
 62
7
  6
CONTINUOUS
 70
0
 71
3
 72
9
 73
5
 74
3
 42
0.0000001
 43
0.0000001
 44
0.0000000001
 12
0.0533319137
 22
0.1537170334
 32
0.0
 13
0.1455285616
 23
0.0727643948
 33
0.0
 40
0.0
 40
0.0
 40
0.0
 40
0.0
 40
0.5262746604
 40
1.0
 40
1.0
 40
1.0
 40
1.0
 10
-12.9836661651
 20
-0.1697074409
 30
0.0
 10
-12.9743104202
 20
-0.1427416477
 30
0.0
 10
-12.9503029869
 20
-0.0930408912
 30
0.0
 10
-12.9080762565
 20
-0.0555955093
 30
0.0
 10
-12.8850960674
 20
-0.0441053967
 30
0.0
 11
-12.9836661651
 21
-0.1697074409
 31
0.0
 11
-12.9439953046
 21
-0.0938234603
 31
0.0
 11
-12.8850960674
 21
-0.0441053967
 31
0.0
  0
SPLINE
  5
6E8
100
AcDbEntity
  8
DRAFT
100
AcDbSpline
 62
7
  6
CONTINUOUS
 70
0
 71
3
 72
11
 73
7
 74
5
 42
0.0000001
 43
0.0000001
 44
0.0000000001
 12
0.8014130031
 22
0.3155625613
 32
0.0
 13
0.7703726536
 23
-0.3851863268
 33
0.0
 40
0.0
 40
0.0
 40
0.0
 40
0.0
 40
0.2270233494
 40
0.4657590963
 40
0.7226060446
 40
1.0
 40
1.0
 40
1.0
 40
1.0
 10
-13.5222802562
 20
19.384109736
 30
0.0
 10
-13.4616337681
 20
19.4079897592
 30
0.0
 10
-13.3302455628
 20
19.4406599361
 30
0.0
 10
-13.1210725914
 20
19.4410312324
 30
0.0
 10
-12.9027152213
 20
19.3942447941
 30
0.0
 10
-12.7600600046
 20
19.3357522299
 30
0.0
 10
-12.6888277655
 20
19.3001361103
 30
0.0
 11
-13.5222802562
 21
19.384109736
 31
0.0
 11
-13.332733416
 21
19.432133309
 31
0.0
 11
-13.1271181359
 21
19.4340018211
 31
0.0
 11
-12.9104291865
 21
19.3894427117
 31
0.0
 11
-12.6888277655
 21
19.3001361103
 31
0.0
  0
SPLINE
  5
6E9
100
AcDbEntity
  8
DRAFT
100
AcDbSpline
 62
7
  6
CONTINUOUS
 70
0
 71
3
 72
11
 73
7
 74
5
 42
0.0000001
 43
0.0000001
 44
0.0000000001
 12
0.0
 22
-1.2508538845
 32
0.0
 13
-1.1119161841
 23
-0.5729553559
 33
0.0
 40
0.0
 40
0.0
 40
0.0
 40
0.0
 40
0.2893305879
 40
0.5494721582
 40
0.7828648107
 40
1.0
 40
1.0
 40
1.0
 40
1.0
 10
5.6959485454
 20
-20.0299360968
 30
0.0
 10
5.6959485454
 20
-20.1505728601
 30
0.0
 10
5.6764870396
 20
-20.380511146
 30
0.0
 10
5.5792085578
 20
-20.6953584097
 30
0.0
 10
5.4164271733
 20
-20.9482531925
 30
0.0
 10
5.2643597479
 20
-21.0662561096
 30
0.0
 10
5.1838810375
 20
-21.1077256994
 30
0.0
 11
5.6959485454
 21
-20.0299360968
 31
0.0
 11
5.6619182529
 21
-20.3902429064
 31
0.0
 11
5.5615153496
 21
-20.6997648397
 31
0.0
 11
5.3995875429
 21
-20.9426813088
 31
0.0
 11
5.1838810375
 21
-21.1077256994
 31
0.0
  0
SPLINE
  5
6EA
100
AcDbEntity
  8
DRAFT
100
AcDbSpline
 62
7
  6
CONTINUOUS
 70
0
 71
3
 72
12
 73
8
 74
6
 42
0.0000001
 43
0.0000001
 44
0.0000000001
 12
1.1504809186
 22
0.5437798581
 32
0.0
 13
-0.0
 23
1.2725183214
 33
0.0
 40
0.0
 40
0.0
 40
0.0
 40
0.0
 40
0.1079616925
 40
0.217884217
 40
0.4505984419
 40
0.7100912976
 40
1.0
 40
1.0
 40
1.0
 40
1.0
 10
4.8752977714
 20
-21.2540973289
 30
0.0
 10
4.9167003938
 20
-21.2345281976
 30
0.0
 10
4.996795985
 20
-21.1871802181
 30
0.0
 10
5.1416824474
 20
-21.061142178
 30
0.0
 10
5.2866592365
 20
-20.8450836155
 30
0.0
 10
5.3879923817
 20
-20.5258501255
 30
0.0
 10
5.408168795
 20
-20.2918603125
 30
0.0
 10
5.408168795
 20
-20.1688889341
 30
0.0
 11
4.8752977714
 21
-21.2540973289
 31
0.0
 11
4.9936109802
 21
-21.184267987
 31
0.0
 11
5.0993514343
 21
-21.0926987207
 31
0.0
 11
5.2679755271
 21
-20.8492634376
 31
0.0
 11
5.3726730129
 21
-20.5360914513
 31
0.0
 11
5.408168795
 21
-20.1688889341
 31
0.0
  0
SPLINE
  5
6EB
100
AcDbEntity
  8
DRAFT
100
AcDbSpline
 62
7
  6
CONTINUOUS
 70
0
 71
3
 72
14
 73
10
 74
8
 42
0.0000001
 43
0.0000001
 44
0.0000000001
 12
2.6313339931
 22
-1.3156669966
 32
0.0
 13
-0.0
 23
-2.94192084
 33
0.0
 40
0.0
 40
0.0
 40
0.0
 40
0.0
 40
0.1102905691
 40
0.2300173247
 40
0.3569558166
 40
0.4885728566
 40
0.7530398506
 40
0.8802603888
 40
1.0
 40
1.0
 40
1.0
 40
1.0
 10
4.281734983
 20
10.8148547361
 30
0.0
 10
4.3784720909
 20
10.7664861821
 30
0.0
 10
4.5703117812
 20
10.6452250125
 30
0.0
 10
4.8339484543
 20
10.4132419192
 30
0.0
 10
5.0766706332
 20
10.1311538364
 30
0.0
 10
5.3601940688
 20
9.7027011655
 30
0.0
 10
5.5663092528
 20
9.2260410394
 30
0.0
 10
5.6758471061
 20
8.73557499
 30
0.0
 10
5.6959485454
 20
8.4931186331
 30
0.0
 10
5.6959485454
 20
8.3756971473
 30
0.0
 11
4.281734983
 21
10.8148547361
 31
0.0
 11
4.5573939281
 21
10.6437103193
 31
0.0
 11
4.8229893816
 21
10.4123606723
 31
0.0
 11
5.0674642363
 21
10.1300634604
 31
0.0
 11
5.281695644
 21
9.8075202891
 31
0.0
 11
5.5882797014
 21
9.0924301181
 31
0.0
 11
5.6687470073
 21
8.7269097956
 31
0.0
 11
5.6959485454
 21
8.3756971473
 31
0.0
  0
SPLINE
  5
6EC
100
AcDbEntity
  8
DRAFT
100
AcDbSpline
 62
7
  6
CONTINUOUS
 70
0
 71
3
 72
11
 73
7
 74
5
 42
0.0000001
 43
0.0000001
 44
0.0000000001
 12
-0.8414405374
 22
0.4207202687
 32
0.0
 13
-0.8319319528
 23
-0.4392231192
 33
0.0
 40
0.0
 40
0.0
 40
0.0
 40
0.0
 40
0.27951758
 40
0.5355104268
 40
0.7727918505
 40
1.0
 40
1.0
 40
1.0
 40
1.0
 10
-12.971670478
 20
19.1526681422
 30
0.0
 10
-13.0500696189
 20
19.1918677127
 30
0.0
 10
-13.2068768629
 20
19.2549916291
 30
0.0
 10
-13.4472423022
 20
19.2986589818
 30
0.0
 10
-13.6751986037
 20
19.2844203384
 30
0.0
 10
-13.814680652
 20
19.2349696765
 30
0.0
 10
-13.8776878918
 20
19.2017046525
 30
0.0
 11
-12.971670478
 21
19.1526681422
 31
0.0
 11
-13.2164231472
 21
19.2488108251
 31
0.0
 11
-13.453774141
 21
19.289583871
 31
0.0
 11
-13.6764338285
 21
19.2737120747
 31
0.0
 11
-13.8776878918
 21
19.2017046525
 31
0.0
  0
SPLINE
  5
6ED
100
AcDbEntity
  8
0
100
AcDbSpline
 62
7
  6
CONTINUOUS
 70
0
 71
3
 72
9
 73
5
 74
3
 42
0.0000001
 43
0.0000001
 44
0.0000000001
 12
-0.052949543
 22
0.4065251342
 32
0.0
 13
0.0163042651
 23
0.4096346052
 33
0.0
 40
0.0
 40
0.0
 40
0.0
 40
0.0
 40
0.5101576112
 40
1.0
 40
1.0
 40
1.0
 40
1.0
 10
-12.7057584404
 20
-0.6390164761
 30
0.0
 10
-12.7147626445
 20
-0.5698858456
 30
0.0
 10
-12.7294148417
 20
-0.4338853255
 30
0.0
 10
-12.7308854599
 20
-0.2969618023
 30
0.0
 10
-12.7282232865
 20
-0.2300763377
 30
0.0
 11
-12.7057584404
 21
-0.6390164761
 31
0.0
 11
-12.7262818562
 21
-0.4308822232
 31
0.0
 11
-12.7282232865
 21
-0.2300763377
 31
0.0
  0
SPLINE
  5
6EE
100
AcDbEntity
  8
0
100
AcDbSpline
 62
7
  6
CONTINUOUS
 70
0
 71
3
 72
9
 73
5
 74
3
 42
0.0000001
 43
0.0000001
 44
0.0000000001
 12
0.0076485916
 22
0.0768612481
 32
0.0
 13
0.0214840581
 23
0.0741929084
 33
0.0
 40
0.0
 40
0.0
 40
0.0
 40
0.0
 40
0.2565512052
 40
1.0
 40
1.0
 40
1.0
 40
1.0
 10
-12.7207421409
 20
-0.121735015
 30
0.0
 10
-12.7200880558
 20
-0.1151620664
 30
0.0
 10
-12.7170041297
 20
-0.0896004278
 30
0.0
 10
-12.711740241
 20
-0.0642801003
 30
0.0
 10
-12.7064161419
 20
-0.0458938909
 30
0.0
 11
-12.7207421409
 21
-0.121735015
 31
0.0
 11
-12.718362204
 21
-0.1020622107
 31
0.0
 11
-12.7064161419
 21
-0.0458938909
 31
0.0
  0
SPLINE
  5
6EF
100
AcDbEntity
  8
0
100
AcDbSpline
 62
7
  6
CONTINUOUS
 70
0
 71
3
 72
10
 73
6
 74
4
 42
0.0000001
 43
0.0000001
 44
0.0000000001
 12
-0.6900498436
 22
0.1154886477
 32
0.0
 13
-0.6901661249
 23
0.1147917003
 33
0.0
 40
0.0
 40
0.0
 40
0.0
 40
0.0
 40
0.2499236606
 40
0.5003183778
 40
1.0
 40
1.0
 40
1.0
 40
1.0
 10
-10.5940110427
 20
-0.0508788767
 30
0.0
 10
-10.651497637
 20
-0.0412577615
 30
0.0
 10
-10.7663316384
 20
-0.0205439381
 30
0.0
 10
-10.9957812727
 20
0.0211757266
 30
0.0
 10
-11.167982336
 20
0.0520054749
 30
0.0
 10
-11.2829367789
 20
0.0711252426
 30
0.0
 11
-10.5940110427
 21
-0.0508788767
 31
0.0
 11
-10.7662145045
 21
-0.0205236925
 31
0.0
 11
-10.9385932175
 21
0.0107239433
 31
0.0
 11
-11.2829367789
 21
0.0711252426
 31
0.0
  0
SPLINE
  5
6F0
100
AcDbEntity
  8
0
100
AcDbSpline
 62
7
  6
CONTINUOUS
 70
0
 71
3
 72
11
 73
7
 74
5
 42
0.0000001
 43
0.0000001
 44
0.0000000001
 12
-0.3940126047
 22
0.0655410855
 32
0.0
 13
-0.357258029
 23
-0.1786288534
 33
0.0
 40
0.0
 40
0.0
 40
0.0
 40
0.0
 40
0.2535756008
 40
0.5095027589
 40
0.7620258785
 40
1.0
 40
1.0
 40
1.0
 40
1.0
 10
-11.2829367789
 20
0.0711252426
 30
0.0
 10
-11.3162407733
 20
0.0766651159
 30
0.0
 10
-11.3830031596
 20
0.0887096296
 30
0.0
 10
-11.4842136551
 20
0.0986100783
 30
0.0
 10
-11.5838917144
 20
0.0939532969
 30
0.0
 10
-11.6478493908
 20
0.0757977674
 30
0.0
 10
-11.6761887794
 20
0.0616280859
 30
0.0
 11
-11.2829367789
 21
0.0711252426
 31
0.0
 11
-11.3829200775
 21
0.087310301
 31
0.0
 11
-11.4847589174
 21
0.096176954
 31
0.0
 11
-11.5854254437
 21
0.0898614747
 31
0.0
 11
-11.6761887794
 21
0.0616280859
 31
0.0
  0
SPLINE
  5
6F1
100
AcDbEntity
  8
0
100
AcDbSpline
 62
7
  6
CONTINUOUS
 70
0
 71
3
 72
9
 73
5
 74
3
 42
0.0000001
 43
0.0000001
 44
0.0000000001
 12
-0.0413105488
 22
0.1218290447
 32
0.0
 13
-0.0592133948
 23
0.1142044283
 33
0.0
 40
0.0
 40
0.0
 40
0.0
 40
0.0
 40
0.4971937579
 40
1.0
 40
1.0
 40
1.0
 40
1.0
 10
-11.8069958119
 20
-0.0043122681
 30
0.0
 10
-11.8138422609
 20
0.015878612
 30
0.0
 10
-11.8320864393
 20
0.0548595502
 30
0.0
 10
-11.8516407041
 20
0.0929724958
 30
0.0
 10
-11.8615649923
 20
0.1121133956
 30
0.0
 11
-11.8069958119
 21
-0.0043122681
 31
0.0
 11
-11.8323078997
 21
0.0544262011
 31
0.0
 11
-11.8615649923
 21
0.1121133956
 31
0.0
  0
SPLINE
  5
6F2
100
AcDbEntity
  8
0
100
AcDbSpline
 62
7
  6
CONTINUOUS
 70
0
 71
3
 72
15
 73
11
 74
9
 42
0.0000001
 43
0.0000001
 44
0.0000000001
 12
-0.6067547636
 22
1.1702433393
 32
0.0
 13
-1.1790237357
 23
-0.5895115326
 33
0.0
 40
0.0
 40
0.0
 40
0.0
 40
0.0
 40
0.1517278039
 40
0.3001047178
 40
0.4417402404
 40
0.5725879695
 40
0.6934922975
 40
0.8042847978
 40
0.9052127623
 40
1.0
 40
1.0
 40
1.0
 40
1.0
 10
-11.8615649923
 20
0.1121133956
 30
0.0
 10
-11.8922521815
 20
0.1712995462
 30
0.0
 10
-11.9567291625
 20
0.286730563
 30
0.0
 10
-12.0761799118
 20
0.4406383161
 30
0.0
 10
-12.2088713289
 20
0.5702955269
 30
0.0
 10
-12.3497318943
 20
0.6717164372
 30
0.0
 10
-12.4926417045
 20
0.7434961661
 30
0.0
 10
-12.6334403195
 20
0.7864353984
 30
0.0
 10
-12.7698647519
 20
0.7921774076
 30
0.0
 10
-12.8542705849
 20
0.7673168231
 30
0.0
 10
-12.8915227193
 20
0.7486907666
 30
0.0
 11
-11.8615649923
 21
0.1121133956
 31
0.0
 11
-11.96171125
 21
0.285240699
 31
0.0
 11
-12.0814095761
 21
0.439925101
 31
0.0
 11
-12.2154224273
 21
0.5699185961
 31
0.0
 11
-12.3557484271
 21
0.6702113804
 31
0.0
 11
-12.4984642099
 21
0.7411514758
 31
0.0
 11
-12.6388796876
 21
0.7813105489
 31
0.0
 11
-12.7718784265
 21
0.7847061339
 31
0.0
 11
-12.8915227193
 21
0.7486907666
 31
0.0
  0
SPLINE
  5
6F3
100
AcDbEntity
  8
0
100
AcDbSpline
 62
7
  6
CONTINUOUS
 70
0
 71
3
 72
9
 73
5
 74
3
 42
0.0000001
 43
0.0000001
 44
0.0000000001
 12
0.0
 22
0.1048220944
 32
0.0
 13
0.0285647201
 23
0.1008549862
 33
0.0
 40
0.0
 40
0.0
 40
0.0
 40
0.0
 40
0.2617107361
 40
1.0
 40
1.0
 40
1.0
 40
1.0
 10
-11.5901312709
 20
-0.8263460074
 30
0.0
 10
-11.5901312709
 20
-0.8172016516
 30
0.0
 10
-11.5891358628
 20
-0.7822870985
 30
0.0
 10
-11.5840285485
 20
-0.7473442197
 30
0.0
 10
-11.5769988731
 20
-0.7225241685
 30
0.0
 11
-11.5901312709
 21
-0.8263460074
 31
0.0
 11
-11.5893286181
 21
-0.7989246847
 31
0.0
 11
-11.5769988731
 21
-0.7225241685
 31
0.0
  0
SPLINE
  5
6F4
100
AcDbEntity
  8
RACCORDO
100
AcDbSpline
 62
7
  6
CONTINUOUS
 70
0
 71
3
 72
9
 73
5
 74
3
 42
0.0000001
 43
0.0000001
 44
0.0000000001
 12
0.6289124322
 22
0.2972869088
 32
0.0
 13
0.6941023434
 23
-0.0461767292
 33
0.0
 40
0.0
 40
0.0
 40
0.0
 40
0.0
 40
0.500686824
 40
1.0
 40
1.0
 40
1.0
 40
1.0
 10
-8.4217320577
 20
21.8278801777
 30
0.0
 10
-8.316769335
 20
21.8774960571
 30
0.0
 10
-8.0931922052
 20
21.9495307778
 30
0.0
 10
-7.8589430719
 20
21.9618733357
 30
0.0
 10
-7.7434182567
 20
21.9541877859
 30
0.0
 11
-8.4217320577
 21
21.8278801777
 31
0.0
 11
-8.0902097532
 21
21.9346656613
 31
0.0
 11
-7.7434182567
 21
21.9541877859
 31
0.0
  0
SPLINE
  5
6F5
100
AcDbEntity
  8
RACCORDO
100
AcDbSpline
 62
7
  6
CONTINUOUS
 70
0
 71
3
 72
9
 73
5
 74
3
 42
0.0000001
 43
0.0000001
 44
0.0000000001
 12
0.2997954105
 22
-0.0199445681
 32
0.0
 13
0.2896902315
 23
-0.0797160192
 33
0.0
 40
0.0
 40
0.0
 40
0.0
 40
0.0
 40
0.2505383965
 40
1.0
 40
1.0
 40
1.0
 40
1.0
 10
-7.7434182567
 20
21.9541877859
 30
0.0
 10
-7.7183815029
 20
21.9525221592
 30
0.0
 10
-7.618633261
 20
21.9433030464
 30
0.0
 10
-7.5198696654
 20
21.9237849404
 30
0.0
 10
-7.4474990969
 20
21.9038702418
 30
0.0
 11
-7.7434182567
 21
21.9541877859
 31
0.0
 11
-7.6684617795
 21
21.9472562132
 31
0.0
 11
-7.4474990969
 21
21.9038702418
 31
0.0
  0
SPLINE
  5
6F6
100
AcDbEntity
  8
RACCORDO
100
AcDbSpline
 62
7
  6
CONTINUOUS
 70
0
 71
3
 72
9
 73
5
 74
3
 42
0.0000001
 43
0.0000001
 44
0.0000000001
 12
0.3072378634
 22
-0.0845447197
 32
0.0
 13
0.2850163705
 23
-0.1425081852
 33
0.0
 40
0.0
 40
0.0
 40
0.0
 40
0.0
 40
0.2493023589
 40
1.0
 40
1.0
 40
1.0
 40
1.0
 10
-7.4474990969
 20
21.9038702418
 30
0.0
 10
-7.4219673889
 20
21.8968445092
 30
0.0
 10
-7.3202888893
 20
21.8660360547
 30
0.0
 10
-7.221765718
 20
21.8249980101
 30
0.0
 10
-7.1504453456
 20
21.7893378239
 30
0.0
 11
-7.4474990969
 21
21.9038702418
 31
0.0
 11
-7.3714661182
 21
21.8808474823
 31
0.0
 11
-7.1504453456
 21
21.7893378239
 31
0.0
  0
SPLINE
  5
6F7
100
AcDbEntity
  8
RACCORDO
100
AcDbSpline
 62
7
  6
CONTINUOUS
 70
0
 71
3
 72
11
 73
7
 74
5
 42
0.0000001
 43
0.0000001
 44
0.0000000001
 12
2.1717149693
 22
-1.0858574848
 32
0.0
 13
0.0000000001
 23
-2.4280511496
 33
0.0
 40
0.0
 40
0.0
 40
0.0
 40
0.0
 40
0.2448071375
 40
0.4968132865
 40
0.7511383014
 40
1.0
 40
1.0
 40
1.0
 40
1.0
 10
9.820117403
 20
13.3040564496
 30
0.0
 10
9.9973345113
 20
13.2154478954
 30
0.0
 10
10.3271581709
 20
12.9722896539
 30
0.0
 10
10.7017050533
 20
12.4854722215
 30
0.0
 10
10.9477647101
 20
11.9195790509
 30
0.0
 10
11.0107843458
 20
11.5108643827
 30
0.0
 10
11.0107843458
 20
11.3094480716
 30
0.0
 11
9.820117403
 21
13.3040564496
 31
0.0
 11
10.3024460833
 21
12.956672716
 31
0.0
 11
10.6788732245
 21
12.4742782544
 31
0.0
 11
10.9237612724
 21
11.9073977002
 31
0.0
 11
11.0107843458
 21
11.3094480716
 31
0.0
  0
SPLINE
  5
6F8
100
AcDbEntity
  8
RACCORDO
100
AcDbSpline
 62
7
  6
CONTINUOUS
 70
0
 71
3
 72
11
 73
7
 74
5
 42
0.0000001
 43
0.0000001
 44
0.0000000001
 12
-0.0000000001
 22
-1.6423521502
 32
0.0
 13
-1.4523921955
 23
-0.7667316972
 33
0.0
 40
0.0
 40
0.0
 40
0.0
 40
0.0
 40
0.2515731831
 40
0.5008416832
 40
0.7498785563
 40
1.0
 40
1.0
 40
1.0
 40
1.0
 10
11.0107843458
 20
-17.0961851727
 30
0.0
 10
11.0107843458
 20
-17.2339090921
 30
0.0
 10
10.9820006051
 20
-17.5094129699
 30
0.0
 10
10.8382496172
 20
-17.8988897842
 30
0.0
 10
10.5943236583
 20
-18.2349605695
 30
0.0
 10
10.3709197852
 20
-18.401104328
 30
0.0
 10
10.2498283076
 20
-18.4650296744
 30
0.0
 11
11.0107843458
 21
-17.0961851727
 31
0.0
 11
10.9649063402
 21
-17.5068019165
 31
0.0
 11
10.8214691262
 21
-17.8902379616
 31
0.0
 11
10.5795632662
 21
-18.2200373895
 31
0.0
 11
10.2498283076
 21
-18.4650296744
 31
0.0
  0
SPLINE
  5
6F9
100
AcDbEntity
  8
DRAFT
100
AcDbSpline
 62
7
  6
CONTINUOUS
 70
0
 71
3
 72
11
 73
7
 74
5
 42
0.0000001
 43
0.0000001
 44
0.0000000001
 12
-0.0815516097
 22
-0.8887366739
 32
0.0
 13
-0.6764995454
 23
-0.5821098742
 33
0.0
 40
0.0
 40
0.0
 40
0.0
 40
0.0
 40
0.2794191638
 40
0.5376699569
 40
0.7763407615
 40
1.0
 40
1.0
 40
1.0
 40
1.0
 10
6.819229535
 20
-19.6444847054
 30
0.0
 10
6.8116338408
 20
-19.7272613914
 30
0.0
 10
6.7864189255
 20
-19.8859084285
 30
0.0
 10
6.7133927596
 20
-20.1062519217
 30
0.0
 10
6.6079619589
 20
-20.2945479917
 30
0.0
 10
6.5148312073
 20
-20.397817829
 30
0.0
 10
6.4643960829
 20
-20.4412159128
 30
0.0
 11
6.819229535
 21
-19.6444847054
 31
0.0
 11
6.7785769427
 21
-19.8905221735
 31
0.0
 11
6.7045384596
 21
-20.1087878137
 31
0.0
 11
6.5989737042
 21
-20.2937956874
 31
0.0
 11
6.4643960829
 21
-20.4412159128
 31
0.0
  0
SPLINE
  5
6FA
100
AcDbEntity
  8
DRAFT
100
AcDbSpline
 62
7
  6
CONTINUOUS
 70
0
 71
3
 72
9
 73
5
 74
3
 42
0.0000001
 43
0.0000001
 44
0.0000000001
 12
-0.1311382434
 22
-0.1128409722
 32
0.0
 13
-0.1530059216
 23
-0.0807434942
 33
0.0
 40
0.0
 40
0.0
 40
0.0
 40
0.0
 40
0.2522266276
 40
1.0
 40
1.0
 40
1.0
 40
1.0
 10
6.4643960829
 20
-20.4412159128
 30
0.0
 10
6.4533705639
 20
-20.4507030787
 30
0.0
 10
6.408642032
 20
-20.4871176343
 30
0.0
 10
6.3598363404
 20
-20.5185420465
 30
0.0
 10
6.3216984224
 20
-20.5386679915
 30
0.0
 11
6.4643960829
 21
-20.4412159128
 31
0.0
 11
6.4305477285
 21
-20.4687550555
 31
0.0
 11
6.3216984224
 21
-20.5386679915
 31
0.0
  0
SPLINE
  5
6FB
100
AcDbEntity
  8
DRAFT
100
AcDbSpline
 62
7
  6
CONTINUOUS
 70
0
 71
3
 72
9
 73
5
 74
3
 42
0.0000001
 43
0.0000001
 44
0.0000000001
 12
0.1546661364
 22
-0.0773330682
 32
0.0
 13
0.1462019865
 23
-0.0923417366
 33
0.0
 40
0.0
 40
0.0
 40
0.0
 40
0.0
 40
0.2449088982
 40
1.0
 40
1.0
 40
1.0
 40
1.0
 10
5.4131058329
 20
11.380540161
 30
0.0
 10
5.4257322039
 20
11.3742269755
 30
0.0
 10
5.4769423235
 20
11.34776199
 30
0.0
 10
5.5267703703
 20
11.3186427154
 30
0.0
 10
5.5635689766
 20
11.2954005742
 30
0.0
 11
5.4131058329
 21
11.380540161
 31
0.0
 11
5.4507329346
 21
11.3611047494
 31
0.0
 11
5.5635689766
 21
11.2954005742
 31
0.0
  0
SPLINE
  5
6FC
100
AcDbEntity
  8
DRAFT
100
AcDbSpline
 62
7
  6
CONTINUOUS
 70
0
 71
3
 72
11
 73
7
 74
5
 42
0.0000001
 43
0.0000001
 44
0.0000000001
 12
2.1800590198
 22
-1.3769336554
 32
0.0
 13
0.2159575495
 23
-2.5694291113
 33
0.0
 40
0.0
 40
0.0
 40
0.0
 40
0.0
 40
0.2336998144
 40
0.4896717205
 40
0.7511515996
 40
1.0
 40
1.0
 40
1.0
 40
1.0
 10
5.5635689766
 20
11.2954005742
 30
0.0
 10
5.7333954395
 20
11.1881375277
 30
0.0
 10
6.0546701231
 20
10.9074468849
 30
0.0
 10
6.4349330838
 20
10.3803410015
 30
0.0
 10
6.7073642193
 20
9.7760015086
 30
0.0
 10
6.8013159714
 20
9.3428392408
 30
0.0
 10
6.819229535
 20
9.1297064661
 30
0.0
 11
5.5635689766
 21
11.2954005742
 31
0.0
 11
6.0233424524
 21
10.9058805508
 31
0.0
 11
6.4130593749
 21
10.3732005546
 31
0.0
 11
6.6888895031
 21
9.7579816884
 31
0.0
 11
6.819229535
 21
9.1297064661
 31
0.0
  0
SPLINE
  5
6FD
100
AcDbEntity
  8
DRAFT
100
AcDbSpline
 62
7
  6
CONTINUOUS
 70
0
 71
3
 72
9
 73
5
 74
3
 42
0.0000001
 43
0.0000001
 44
0.0000000001
 12
0.0157899023
 22
-0.1878657853
 32
0.0
 13
0.0
 23
-0.188528179
 33
0.0
 40
0.0
 40
0.0
 40
0.0
 40
0.0
 40
0.2541482694
 40
1.0
 40
1.0
 40
1.0
 40
1.0
 10
6.819229535
 20
9.1297064661
 30
0.0
 10
6.8205671938
 20
9.1137912113
 30
0.0
 10
6.8252073
 20
9.0511192533
 30
0.0
 10
6.8273193953
 20
8.9882539285
 30
0.0
 10
6.8273193953
 20
8.9413825723
 30
0.0
 11
6.819229535
 21
9.1297064661
 31
0.0
 11
6.8227624561
 21
9.0819227822
 31
0.0
 11
6.8273193953
 21
8.9413825723
 31
0.0
  0
SPLINE
  5
6FE
100
AcDbEntity
  8
RACCORDO
100
AcDbSpline
 62
253
  6
CONTINUOUS
 70
0
 71
3
 72
11
 73
7
 74
5
 42
0.0000001
 43
0.0000001
 44
0.0000000001
 12
-0.396099216
 22
0.1765952536
 32
0.0
 13
-0.3911847819
 23
-0.1872296422
 33
0.0
 40
0.0
 40
0.0
 40
0.0
 40
0.0
 40
0.2278773975
 40
0.4667157693
 40
0.7232308033
 40
1.0
 40
1.0
 40
1.0
 40
1.0
 10
-7.1654034268
 20
21.7963782041
 30
0.0
 10
-7.1954907796
 20
21.8097922263
 30
0.0
 10
-7.2610427702
 20
21.8291740481
 30
0.0
 10
-7.3664733342
 20
21.8328483814
 30
0.0
 10
-7.4769147895
 20
21.8121925433
 30
0.0
 10
-7.5492289267
 20
21.7842476267
 30
0.0
 10
-7.585318226
 20
21.7669744942
 30
0.0
 11
-7.1654034268
 21
21.7963782041
 31
0.0
 11
-7.2600955599
 21
21.8246635903
 31
0.0
 11
-7.363580828
 21
21.8290928224
 31
0.0
 11
-7.4731003751
 21
21.8095695834
 31
0.0
 11
-7.585318226
 21
21.7669744942
 31
0.0
  0
SPLINE
  5
6FF
100
AcDbEntity
  8
RACCORDO
100
AcDbSpline
 62
253
  6
CONTINUOUS
 70
0
 71
3
 72
11
 73
7
 74
5
 42
0.0000001
 43
0.0000001
 44
0.0000000001
 12
-0.4026457076
 22
0.2011438493
 32
0.0
 13
-0.4059859168
 23
-0.1943137909
 33
0.0
 40
0.0
 40
0.0
 40
0.0
 40
0.0
 40
0.227948374
 40
0.4662107205
 40
0.7225385011
 40
1.0
 40
1.0
 40
1.0
 40
1.0
 10
9.8201069431
 20
13.3040355205
 30
0.0
 10
9.7895127983
 20
13.3193189916
 30
0.0
 10
9.7222858149
 20
13.3420259778
 30
0.0
 10
9.6129834049
 20
13.3485607039
 30
0.0
 10
9.4980400885
 20
13.3284765288
 30
0.0
 10
9.4227929973
 20
13.2996646579
 30
0.0
 10
9.3852445104
 20
13.281693126
 30
0.0
 11
9.8201069431
 21
13.3040355205
 31
0.0
 11
9.7229843428
 21
13.3371032719
 31
0.0
 11
9.6159911841
 21
13.3443733509
 31
0.0
 11
9.502160439
 21
13.3255844593
 31
0.0
 11
9.3852445104
 21
13.281693126
 31
0.0
  0
SPLINE
  5
700
100
AcDbEntity
  8
RACCORDO
100
AcDbSpline
 62
253
  6
CONTINUOUS
 70
0
 71
3
 72
11
 73
7
 74
5
 42
0.0000001
 43
0.0000001
 44
0.0000000001
 12
-0.0000649282
 22
-0.4676204693
 32
0.0
 13
-0.4152599635
 23
-0.2150071402
 33
0.0
 40
0.0
 40
0.0
 40
0.0
 40
0.0
 40
0.2076695446
 40
0.4361879292
 40
0.699291716
 40
1.0
 40
1.0
 40
1.0
 40
1.0
 10
11.0107840347
 20
11.3094480717
 30
0.0
 10
11.0107795401
 20
11.277077895
 30
0.0
 10
10.9968224218
 20
11.2085944687
 30
0.0
 10
10.9384735075
 20
11.1145399741
 30
0.0
 10
10.8470223181
 20
11.0299693973
 30
0.0
 10
10.7717481831
 20
10.9836703625
 30
0.0
 10
10.7301241461
 20
10.9621188864
 30
0.0
 11
11.0107840347
 21
11.3094480717
 31
0.0
 11
10.9924033771
 21
11.2140929112
 31
0.0
 11
10.9379623104
 21
11.1221407323
 31
0.0
 11
10.8491417518
 21
11.0370057927
 31
0.0
 11
10.7301241461
 21
10.9621188864
 31
0.0
  0
SPLINE
  5
701
100
AcDbEntity
  8
RACCORDO
100
AcDbSpline
 62
253
  6
CONTINUOUS
 70
0
 71
3
 72
11
 73
7
 74
5
 42
0.0000001
 43
0.0000001
 44
0.0000000001
 12
-0.0000649286
 22
-0.4676204599
 32
0.0
 13
-0.4152599551
 23
-0.2150071357
 33
0.0
 40
0.0
 40
0.0
 40
0.0
 40
0.0
 40
0.2076695526
 40
0.4361879379
 40
0.6992917168
 40
1.0
 40
1.0
 40
1.0
 40
1.0
 10
11.0107840347
 20
-17.0961851727
 30
0.0
 10
11.0107795401
 20
-17.12855535
 30
0.0
 10
10.9968224224
 20
-17.1970387763
 30
0.0
 10
10.938473509
 20
-17.2910932696
 30
0.0
 10
10.8470223163
 20
-17.375663838
 30
0.0
 10
10.7717481822
 20
-17.4219628672
 30
0.0
 10
10.7301241462
 20
-17.4435143428
 30
0.0
 11
11.0107840347
 21
-17.0961851727
 31
0.0
 11
10.992403377
 21
-17.191540335
 31
0.0
 11
10.9379623104
 21
-17.2834925118
 31
0.0
 11
10.8491417517
 21
-17.3686274424
 31
0.0
 11
10.7301241462
 21
-17.4435143428
 31
0.0
  0
SPLINE
  5
702
100
AcDbEntity
  8
RACCORDO
100
AcDbSpline
 62
253
  6
CONTINUOUS
 70
0
 71
3
 72
11
 73
7
 74
5
 42
0.0000001
 43
0.0000001
 44
0.0000000001
 12
0.7570981148
 22
0.286438377
 32
0.0
 13
0.7240135339
 23
-0.3620067708
 33
0.0
 40
0.0
 40
0.0
 40
0.0
 40
0.0
 40
0.2270556486
 40
0.4659542698
 40
0.722846699
 40
1.0
 40
1.0
 40
1.0
 40
1.0
 10
-8.3688871563
 20
21.8503136961
 30
0.0
 10
-8.3115860218
 20
21.8719928466
 30
0.0
 10
-8.1877578007
 20
21.9012825723
 30
0.0
 10
-7.9911657378
 20
21.9001815662
 30
0.0
 10
-7.7861609177
 20
21.8554793472
 30
0.0
 10
-7.6522058063
 20
21.8004182847
 30
0.0
 10
-7.585318226
 20
21.7669744942
 30
0.0
 11
-8.3688871563
 21
21.8503136961
 31
0.0
 11
-8.1902171899
 21
21.8934146628
 31
0.0
 11
-7.996835759
 21
21.8937268363
 31
0.0
 11
-7.7933134675
 21
21.8510571868
 31
0.0
 11
-7.585318226
 21
21.7669744942
 31
0.0
  0
SPLINE
  5
703
100
AcDbEntity
  8
DRAFT
100
AcDbSpline
 62
7
  6
CONTINUOUS
 70
0
 71
3
 72
9
 73
5
 74
3
 42
0.0000001
 43
0.0000001
 44
0.0000000001
 12
0.5536429496
 22
0.1149742608
 32
0.0
 13
0.5305952906
 23
-0.1954692659
 33
0.0
 40
0.0
 40
0.0
 40
0.0
 40
0.0
 40
0.4760898252
 40
1.0
 40
1.0
 40
1.0
 40
1.0
 10
-12.2650380515
 20
19.987230551
 30
0.0
 10
-12.1771767931
 20
20.0054765762
 30
0.0
 10
-11.985345178
 20
20.0122093403
 30
0.0
 10
-11.8005814832
 20
19.9652812046
 30
0.0
 10
-11.7079200593
 20
19.9311450922
 30
0.0
 11
-12.2650380515
 21
19.987230551
 31
0.0
 11
-11.9961206585
 21
19.999724516
 31
0.0
 11
-11.7079200593
 21
19.9311450922
 31
0.0
  0
SPLINE
  5
704
100
AcDbEntity
  8
DRAFT
100
AcDbSpline
 62
7
  6
CONTINUOUS
 70
0
 71
3
 72
9
 73
5
 74
3
 42
0.0000001
 43
0.0000001
 44
0.0000000001
 12
0.1539636676
 22
-0.0567196234
 32
0.0
 13
0.1467567419
 23
-0.0733783709
 33
0.0
 40
0.0
 40
0.0
 40
0.0
 40
0.0
 40
0.245364538
 40
1.0
 40
1.0
 40
1.0
 40
1.0
 10
-11.7079200593
 20
19.9311450922
 30
0.0
 10
-11.6953276513
 20
19.9265060975
 30
0.0
 10
-11.6442837968
 20
19.9068520117
 30
0.0
 10
-11.5943728628
 20
19.8842795089
 30
0.0
 10
-11.5574569156
 20
19.8658215353
 30
0.0
 11
-11.7079200593
 21
19.9311450922
 31
0.0
 11
-11.6703471538
 21
19.9166855665
 31
0.0
 11
-11.5574569156
 21
19.8658215353
 31
0.0
  0
SPLINE
  5
705
100
AcDbEntity
  8
RACCORDO
100
AcDbSpline
 62
253
  6
CONTINUOUS
 70
0
 71
3
 72
14
 73
10
 74
8
 42
0.0000001
 43
0.0000001
 44
0.0000000001
 12
2.502328112
 22
-1.251164042
 32
0.0
 13
-0.0000000099
 23
-2.797687874
 33
0.0
 40
0.0
 40
0.0
 40
0.0
 40
0.0
 40
0.1102947093
 40
0.2300178757
 40
0.3569451425
 40
0.4885732525
 40
0.7530389646
 40
0.8802561007
 40
1.0
 40
1.0
 40
1.0
 40
1.0
 10
9.3852445225
 20
13.2816931199
 30
0.0
 10
9.477242373
 20
13.2356941952
 30
0.0
 10
9.6596720889
 20
13.1203700906
 30
0.0
 10
9.9103853036
 20
12.8997788917
 30
0.0
 10
10.1412061043
 20
12.6315221096
 30
0.0
 10
10.4108090217
 20
12.2240649179
 30
0.0
 10
10.6068530548
 20
11.7707816028
 30
0.0
 10
10.7109991795
 20
11.3043566815
 30
0.0
 10
10.7301241465
 20
11.0737875715
 30
0.0
 10
10.7301241461
 20
10.9621188864
 30
0.0
 11
9.3852445225
 21
13.2816931199
 31
0.0
 11
9.647396105
 21
13.1189291865
 31
0.0
 11
9.8999673024
 21
12.8989337615
 31
0.0
 11
10.1324360351
 21
12.6305006407
 31
0.0
 11
10.3361738435
 21
12.3237398472
 31
0.0
 11
10.6277371335
 21
11.6437164778
 31
0.0
 11
10.7042508863
 21
11.2961243226
 31
0.0
 11
10.7301241461
 21
10.9621188864
 31
0.0
  0
SPLINE
  5
706
100
AcDbEntity
  8
RACCORDO
100
AcDbSpline
 62
253
  6
CONTINUOUS
 70
0
 71
3
 72
11
 73
7
 74
5
 42
0.0000001
 43
0.0000001
 44
0.0000000001
 12
0.0000000044
 22
-1.1821217698
 32
0.0
 13
-1.0450288888
 23
-0.5525635713
 33
0.0
 40
0.0
 40
0.0
 40
0.0
 40
0.0
 40
0.2891238504
 40
0.5493013458
 40
0.7828410491
 40
1.0
 40
1.0
 40
1.0
 40
1.0
 10
10.7301241461
 20
-17.4435143577
 30
0.0
 10
10.7301241466
 20
-17.5574408903
 30
0.0
 10
10.7118475106
 20
-17.7746603789
 30
0.0
 10
10.6206893841
 20
-18.0723759198
 30
0.0
 10
10.4681316981
 20
-18.3121807203
 30
0.0
 10
10.325451491
 20
-18.4249873626
 30
0.0
 10
10.2498056986
 20
-18.4649854044
 30
0.0
 11
10.7301241461
 21
-17.4435143577
 31
0.0
 11
10.6982271763
 21
-17.7838022898
 31
0.0
 11
10.6041290816
 21
-18.0766155637
 31
0.0
 11
10.4522764622
 21
-18.3071730056
 31
0.0
 11
10.2498056986
 21
-18.4649854044
 31
0.0
  0
SPLINE
  5
707
100
AcDbEntity
  8
0
100
AcDbSpline
 62
7
  6
CONTINUOUS
 70
0
 71
3
 72
9
 73
5
 74
3
 42
0.0000001
 43
0.0000001
 44
0.0000000001
 12
-0.3522726336
 22
0.0925800872
 32
0.0
 13
-0.3608828905
 23
0.0493013213
 33
0.0
 40
0.0
 40
0.0
 40
0.0
 40
0.0
 40
0.4229715525
 40
1.0
 40
1.0
 40
1.0
 40
1.0
 10
15.0940180304
 20
-3.8820002197
 30
0.0
 10
15.0443509295
 20
-3.8689473053
 30
0.0
 10
14.9261523757
 20
-3.840935735
 30
0.0
 10
14.8063013683
 20
-3.8207781576
 30
0.0
 10
14.7368881369
 20
-3.8112954026
 30
0.0
 11
15.0940180304
 21
-3.8820002197
 31
0.0
 11
14.9440660458
 21
-3.8466562286
 31
0.0
 11
14.7368881369
 21
-3.8112954026
 31
0.0
  0
SPLINE
  5
708
100
AcDbEntity
  8
0
100
AcDbSpline
 62
7
  6
CONTINUOUS
 70
0
 71
3
 72
11
 73
7
 74
5
 42
0.0000001
 43
0.0000001
 44
0.0000000001
 12
0.445912707
 22
0.407815197
 32
0.0
 13
-0.0001190853
 23
0.6042775546
 33
0.0
 40
0.0
 40
0.0
 40
0.0
 40
0.0
 40
0.2707486665
 40
0.5261852196
 40
0.7672502343
 40
1.0
 40
1.0
 40
1.0
 40
1.0
 10
14.9590473789
 20
-8.8245977216
 30
0.0
 10
14.9992908025
 20
-8.7877925814
 30
0.0
 10
15.0722984396
 20
-8.7102208686
 30
0.0
 10
15.1574877863
 20
-8.5801378267
 30
0.0
 10
15.2106318263
 20
-8.4418794604
 30
0.0
 10
15.2227130965
 20
-8.3460521576
 30
0.0
 10
15.2227038575
 20
-8.2991703379
 30
0.0
 11
14.9590473789
 21
-8.8245977216
 31
0.0
 11
15.0705616324
 21
-8.704881663
 31
0.0
 11
15.1540690487
 21
-8.5750669975
 31
0.0
 11
15.2054271236
 21
-8.4387506389
 31
0.0
 11
15.2227038575
 21
-8.2991703379
 31
0.0
  0
SPLINE
  5
709
100
AcDbEntity
  8
0
100
AcDbSpline
 62
7
  6
CONTINUOUS
 70
0
 71
3
 72
11
 73
7
 74
5
 42
0.0000001
 43
0.0000001
 44
0.0000000001
 12
-0.0001247377
 22
0.1648402758
 32
0.0
 13
-0.1594265971
 23
0.0418985946
 33
0.0
 40
0.0
 40
0.0
 40
0.0
 40
0.0
 40
0.159832922
 40
0.3687701007
 40
0.6471200871
 40
1.0
 40
1.0
 40
1.0
 40
1.0
 10
15.2227038575
 20
-3.9710778226
 30
0.0
 10
15.2226972118
 20
-3.9622955216
 30
0.0
 10
15.2147735634
 20
-3.9421231892
 30
0.0
 10
15.1872394278
 20
-3.9186307303
 30
0.0
 10
15.1459560451
 20
-3.8975081248
 30
0.0
 10
15.112770845
 20
-3.8869286105
 30
0.0
 10
15.0940180304
 20
-3.8820002197
 30
0.0
 11
15.2227038575
 21
-3.9710778226
 31
0.0
 11
15.2143695778
 21
-3.9460838338
 31
0.0
 11
15.1896026188
 21
-3.9221506151
 31
0.0
 11
15.1491965882
 21
-3.9004105584
 31
0.0
 11
15.0940180304
 21
-3.8820002197
 31
0.0
  0
SPLINE
  5
70A
100
AcDbEntity
  8
0
100
AcDbSpline
 62
7
  6
CONTINUOUS
 70
0
 71
3
 72
13
 73
9
 74
7
 42
0.0000001
 43
0.0000001
 44
0.0000000001
 12
0.3008258409
 22
0.0257017019
 32
0.0
 13
-0.0002284698
 23
0.3019216982
 33
0.0
 40
0.0
 40
0.0
 40
0.0
 40
0.0
 40
0.3733298259
 40
0.6630405975
 40
0.7748065029
 40
0.86533564
 40
0.9381082146
 40
1.0
 40
1.0
 40
1.0
 40
1.0
 10
14.9590473789
 20
-4.0820351374
 30
0.0
 10
14.9964831319
 20
-4.0788367334
 30
0.0
 10
15.0627095323
 20
-4.0696863743
 30
0.0
 10
15.1382564219
 20
-4.0482471602
 30
0.0
 10
15.1826100802
 20
-4.0258418401
 30
0.0
 10
15.2048747975
 20
-4.0090654714
 30
0.0
 10
15.2191317253
 20
-3.9909536124
 30
0.0
 10
15.222708571
 20
-3.9773066469
 30
0.0
 10
15.2227038575
 20
-3.9710778226
 30
0.0
 11
14.9590473789
 21
-4.0820351374
 31
0.0
 11
15.0705616324
 21
-4.065616863
 31
0.0
 11
15.1540690487
 21
-4.0395878188
 31
0.0
 11
15.1839560839
 21
-4.0239206376
 31
0.0
 11
15.2054271236
 21
-4.0070069756
 31
0.0
 11
15.2183754034
 21
-3.9892560776
 31
0.0
 11
15.2227038575
 21
-3.9710778226
 31
0.0
  0
ELLIPSE
  5
70B
100
AcDbEntity
  8
RACCORDO
100
AcDbEllipse
 62
7
  6
CONTINUOUS
 10
10.0107843458
 20
3.8465130695
 30
0.0
 11
0.9999727455
 21
0.0144591093
 31
0.0
 40
0.5106100819
 41
-0.775327905
 42
-0.0071782256
  0
ELLIPSE
  5
70C
100
AcDbEntity
  8
RACCORDO
100
AcDbEllipse
 62
7
  6
CONTINUOUS
 10
-0.8325610488
 20
13.4258738958
 30
0.0
 11
-0.1344566101
 21
0.2682464128
 31
0.0
 40
0.6130694813
 41
-2.2561745771
 42
-0.6862916389
  0
ELLIPSE
  5
70D
100
AcDbEntity
  8
RACCORDO
100
AcDbEllipse
 62
7
  6
CONTINUOUS
 10
3.3100137619
 20
15.4410742814
 30
0.0
 11
0.4870649883
 21
0.8740372672
 31
0.0
 40
0.6437101552
 41
0.0279305163
 42
0.6960841813
  0
ELLIPSE
  5
70E
100
AcDbEntity
  8
RACCORDO
100
AcDbEllipse
 62
7
  6
CONTINUOUS
 10
-1.5347688953
 20
17.86346561
 30
0.0
 11
0.4117883376
 21
0.9118470558
 31
0.0
 40
0.5796795686
 41
5.3742229208
 42
6.927565955
  0
ELLIPSE
  5
70F
100
AcDbEntity
  8
RACCORDO
100
AcDbEllipse
 62
7
  6
CONTINUOUS
 10
-5.3117900339
 20
15.6654883884
 30
0.0
 11
-0.1346719736
 21
0.2684391146
 31
0.0
 40
0.6119725648
 41
5.5974101744
 42
7.1672931127
  0
ELLIPSE
  5
710
100
AcDbEntity
  8
RACCORDO
100
AcDbEllipse
 62
7
  6
CONTINUOUS
 10
10.0107843458
 20
-7.3815841204
 30
0.0
 11
0.9999763657
 21
-0.0140528498
 31
0.0
 40
0.4892375088
 41
-0.7610696355
 42
0.7922733988
  0
ENDSEC
  0
SECTION
  2
OBJECTS
  0
DICTIONARY
  5
C
100
AcDbDictionary
280
0
281
1
  3
ACAD_GROUP
350
D
  3
ACAD_MLINESTYLE
350
17
  3
ACAD_LAYOUT
350
1A
  3
ACAD_PLOTSETTINGS
350
19
  3
ACAD_PLOTSTYLENAME
350
E
  0
DICTIONARY
  5
D
102
{ACAD_REACTORS
330
C
102
}
100
AcDbDictionary
280
0
281
1
  0
ACDBDICTIONARYWDFLT
  5
E
102
{ACAD_REACTORS
330
C
102
}
100
AcDbDictionary
281
1
  3
Normal
350
F
100
AcDbDictionaryWithDefault
340
F
  0
DICTIONARY
  5
17
102
{ACAD_REACTORS
330
C
102
}
100
AcDbDictionary
280
0
281
1
  3
Standard
350
18
  0
DICTIONARY
  5
19
102
{ACAD_REACTORS
330
C
102
}
100
AcDbDictionary
281
1
  0
DICTIONARY
  5
1A
102
{ACAD_REACTORS
330
C
102
}
100
AcDbDictionary
281
1
  3
Model
350
711
  3
Layout1
350
712
  0
ACDBPLACEHOLDER
  5
F
102
{ACAD_REACTORS
330
E
102
}
  0
MLINESTYLE
  5
18
102
{ACAD_REACTORS
330
17
102
}
100
AcDbMlineStyle
  2
STANDARD
 70
0
  3

 62
256
 51
90.0
 52
90.0
 71
2
 49
0.5
 62
256
  6
BYLAYER
 49
-0.5
 62
256
  6
BYLAYER
  0
LAYOUT
  5
711
102
{ACAD_REACTORS
330
1A
102
}
100
AcDbPlotSettings
  1

  2
none_device
  4
ISO_A4_(297.00_x_210.00_MM)
  6

 40
0.0
 41
0.0
 42
0.0
 43
0.0
 44
297.0
 45
210.0
 46
0.0
 47
0.0
 48
0.0
 49
0.0
140
0.0
141
0.0
142
1.0
143
1.0
 70
1024
 72
1
 73
0
 74
0
  7

 75
0
147
1.0
148
0.0
149
0.0
100
AcDbLayout
  1
Model
 70
0
 71
0
 10
0.0
 20
0.0
 11
297.0
 21
210.0
 12
0.0
 22
0.0
 32
0.0
 14
0.0
 24
0.0
 34
0.0
 15
0.0
 25
0.0
 35
0.0
146
0.0
 13
0.0
 23
0.0
 33
0.0
 16
1.0
 26
0.0
 36
0.0
 17
0.0
 27
1.0
 37
0.0
 76
0
330
20D
345
0
346
0
  0
LAYOUT
  5
712
102
{ACAD_REACTORS
330
1A
102
}
100
AcDbPlotSettings
  1

  2
none_device
  4
ISO_A4_(297.00_x_210.00_MM)
  6

 40
0.0
 41
0.0
 42
0.0
 43
0.0
 44
297.0
 45
210.0
 46
0.0
 47
0.0
 48
0.0
 49
0.0
140
0.0
141
0.0
142
1.0
143
1.0
 70
0
 72
1
 73
0
 74
0
  7

 75
0
147
1.0
148
0.0
149
0.0
100
AcDbLayout
  1
Layout1
 70
0
 71
1
 10
0.0
 20
0.0
 11
297.0
 21
210.0
 12
0.0
 22
0.0
 32
0.0
 14
0.0
 24
0.0
 34
0.0
 15
0.0
 25
0.0
 35
0.0
146
0.0
 13
0.0
 23
0.0
 33
0.0
 16
1.0
 26
0.0
 36
0.0
 17
0.0
 27
1.0
 37
0.0
 76
0
330
20E
345
0
346
0
  0
ENDSEC
  0
EOF
