  0
SECTION
  2
HEADER
  9
$ACADVER
  1
AC1015
  9
$DWGCODEPAGE
  3
ANSI_1252
  9
$EXTMAX
 10
558.8
 20
431.8
 30
0.0
  9
$EXTMIN
 10
0.0
 20
0.0
 30
0.0
  9
$LIMMIN
 10
0.0
 20
0.0
  9
$LIMMAX
 10
558.8
 20
431.8
  9
$VIEWCTR
 10
279.4
 20
215.9
  9
$VIEWSIZE
 40
431.8
  9
$CLAYER
  8
0
  9
$LTSCALE
 40
30.734
  9
$CELTYPE
  6
BYLAYER
  9
$DIMSCALE
 40
1.0
  9
$DIMASZ
 40
3.0
  9
$DIMEXO
 40
3.4925
  9
$DIMDLI
 40
21.2344
  9
$DIMEXE
 40
10.0584
  9
$DIMCEN
 40
5.0292
  9
$DIMLFAC
 40
1.0
  9
$DIMBLK
  1
_FILLED
  9
$DIMTXT
 40
3.0
  9
$DIMTOL
 70
1
  9
$DIMLIM
 70
0
  9
$DIMTFAC
 40
1.0
  9
$DIMTP
 40
0.01
  9
$DIMTM
 40
0.01
  9
$PDMODE
 70
3
  9
$PDSIZE
 40
3.0
  9
$HANDSEED
  5
3CF
  9
$TILEMODE
 70
1
  9
$MEASUREMENT
 70
1
  9
$INSUNITS
 70
4
  0
ENDSEC
  0
SECTION
  2
CLASSES
  0
CLASS
  1
ACDBDICTIONARYWDFLT
  2
AcDbDictionaryWithDefault
  3
AutoCAD 2000
 90
0
280
0
281
0
  0
CLASS
  1
ACDBPLACEHOLDER
  2
AcDbPlaceHolder
  3
AutoCAD 2000
 90
0
280
0
281
0
  0
CLASS
  1
LAYOUT
  2
AcDbLayout
  3
AutoCAD 2000
 90
0
280
0
281
0
  0
ENDSEC
  0
SECTION
  2
TABLES
  0
TABLE
  2
VPORT
  5
8
100
AcDbSymbolTable
 70
2
  0
VPORT
  5
1F4
100
AcDbSymbolTableRecord
100
AcDbViewportTableRecord
  2
*ACTIVE
 70
0
 10
0.0
 20
0.0
 11
1.0
 21
1.0
 12
279.4
 22
215.9
 13
0.0
 23
0.0
 14
1.0
 24
1.0
 15
0.0
 25
0.0
 16
0.0
 26
0.0
 36
1.0
 17
0.0
 27
0.0
 37
0.0
 40
431.8
 41
1.2941176471
 42
50.0
 43
0.0
 44
0.0
 50
0.0
 51
0.0
 71
0
 72
100
 73
1
 74
1
 75
0
 76
0
 77
0
 78
0
  0
ENDTAB
  0
TABLE
  2
LTYPE
  5
5
100
AcDbSymbolTable
 70
6
  0
LTYPE
  5
14
100
AcDbSymbolTableRecord
100
AcDbLinetypeTableRecord
  2
BYBLOCK
 70
0
  3

 72
65
 73
0
 40
0.0
  0
LTYPE
  5
15
100
AcDbSymbolTableRecord
100
AcDbLinetypeTableRecord
  2
BYLAYER
 70
0
  3

 72
65
 73
0
 40
0.0
  0
LTYPE
  5
16
100
AcDbSymbolTableRecord
100
AcDbLinetypeTableRecord
  2
CONTINUOUS
 70
64
  3
Solid line
 72
65
 73
0
 40
0.0
  0
LTYPE
  5
1F5
100
AcDbSymbolTableRecord
100
AcDbLinetypeTableRecord
  2
CENTER
 70
64
  3
____ _ ____ _ ____ _ ____ _ ____ _ ____ _ ____
 72
65
 73
4
 40
0.6
 49
0.375
 74
0
 49
-0.075
 74
0
 49
0.075
 74
0
 49
-0.075
 74
0
  0
LTYPE
  5
1F6
100
AcDbSymbolTableRecord
100
AcDbLinetypeTableRecord
  2
HIDDEN
 70
64
  3
- - - - - - - - - - - - - - - - - - - -
 72
65
 73
2
 40
0.2
 49
0.1
 74
0
 49
-0.1
 74
0
  0
LTYPE
  5
1F7
100
AcDbSymbolTableRecord
100
AcDbLinetypeTableRecord
  2
PHANTOM
 70
64
  3
_____ _ _ _____ _ _ _____ _ _ _____
 72
65
 73
6
 40
0.8
 49
0.45
 74
0
 49
-0.05
 74
0
 49
0.1
 74
0
 49
-0.05
 74
0
 49
0.1
 74
0
 49
-0.05
 74
0
  0
LTYPE
  5
1F8
100
AcDbSymbolTableRecord
100
AcDbLinetypeTableRecord
  2
DOT
 70
64
  3
. . . . . . . . . . . . . . . . . . . .
 72
65
 73
2
 40
0.2
 49
0.1
 74
0
 49
-0.1
 74
0
  0
LTYPE
  5
1F9
100
AcDbSymbolTableRecord
100
AcDbLinetypeTableRecord
  2
DASHED
 70
64
  3
- - - - - - - - - - - - - - - - - - - -
 72
65
 73
2
 40
0.2
 49
0.1
 74
0
 49
-0.1
 74
0
  0
ENDTAB
  0
TABLE
  2
LAYER
  5
2
100
AcDbSymbolTable
 70
36
  0
LAYER
  5
10
100
AcDbSymbolTableRecord
100
AcDbLayerTableRecord
  2
0
 70
0
 62
7
  6
CONTINUOUS
370
-3
390
F
  0
LAYER
  5
1FA
100
AcDbSymbolTableRecord
100
AcDbLayerTableRecord
  2
DEFAULT_1
 70
0
 62
7
  6
CENTER
370
-3
390
F
  0
LAYER
  5
1FB
100
AcDbSymbolTableRecord
100
AcDbLayerTableRecord
  2
DEFAULT_2
 70
0
 62
7
  6
HIDDEN
370
-3
390
F
  0
LAYER
  5
1FC
100
AcDbSymbolTableRecord
100
AcDbLayerTableRecord
  2
DEFAULT_3
 70
0
 62
7
  6
PHANTOM
370
-3
390
F
  0
LAYER
  5
1FD
100
AcDbSymbolTableRecord
100
AcDbLayerTableRecord
  2
ASSI
 70
0
 62
7
  6
CONTINUOUS
370
-3
390
F
  0
LAYER
  5
1FE
100
AcDbSymbolTableRecord
100
AcDbLayerTableRecord
  2
COORDINATE
 70
0
 62
7
  6
CONTINUOUS
370
-3
390
F
  0
LAYER
  5
1FF
100
AcDbSymbolTableRecord
100
AcDbLayerTableRecord
  2
COORD_ORIGINE
 70
0
 62
7
  6
CONTINUOUS
370
-3
390
F
  0
LAYER
  5
200
100
AcDbSymbolTableRecord
100
AcDbLayerTableRecord
  2
COPY_PUBLISH
 70
0
 62
7
  6
CONTINUOUS
370
-3
390
F
  0
LAYER
  5
201
100
AcDbSymbolTableRecord
100
AcDbLayerTableRecord
  2
COSMETIC
 70
0
 62
7
  6
CONTINUOUS
370
-3
390
F
  0
LAYER
  5
202
100
AcDbSymbolTableRecord
100
AcDbLayerTableRecord
  2
CURVE
 70
0
 62
7
  6
CONTINUOUS
370
-3
390
F
  0
LAYER
  5
203
100
AcDbSymbolTableRecord
100
AcDbLayerTableRecord
  2
DRAFT
 70
0
 62
7
  6
CONTINUOUS
370
-3
390
F
  0
LAYER
  5
204
100
AcDbSymbolTableRecord
100
AcDbLayerTableRecord
  2
IMPORT_IGES
 70
0
 62
7
  6
CONTINUOUS
370
-3
390
F
  0
LAYER
  5
205
100
AcDbSymbolTableRecord
100
AcDbLayerTableRecord
  2
NOTE
 70
0
 62
7
  6
CONTINUOUS
370
-3
390
F
  0
LAYER
  5
206
100
AcDbSymbolTableRecord
100
AcDbLayerTableRecord
  2
PIANI
 70
0
 62
7
  6
CONTINUOUS
370
-3
390
F
  0
LAYER
  5
207
100
AcDbSymbolTableRecord
100
AcDbLayerTableRecord
  2
PIANI_ORIGINE
 70
0
 62
7
  6
CONTINUOUS
370
-3
390
F
  0
LAYER
  5
208
100
AcDbSymbolTableRecord
100
AcDbLayerTableRecord
  2
PUNTI
 70
0
 62
7
  6
CONTINUOUS
370
-3
390
F
  0
LAYER
  5
209
100
AcDbSymbolTableRecord
100
AcDbLayerTableRecord
  2
RACCORDO
 70
0
 62
7
  6
CONTINUOUS
370
-3
390
F
  0
LAYER
  5
20A
100
AcDbSymbolTableRecord
100
AcDbLayerTableRecord
  2
SCRITTE
 70
0
 62
7
  6
CONTINUOUS
370
-3
390
F
  0
LAYER
  5
20B
100
AcDbSymbolTableRecord
100
AcDbLayerTableRecord
  2
SMUSSO
 70
0
 62
7
  6
CONTINUOUS
370
-3
390
F
  0
LAYER
  5
20C
100
AcDbSymbolTableRecord
100
AcDbLayerTableRecord
  2
SNAPLINE
 70
0
 62
7
  6
CONTINUOUS
370
-3
390
F
  0
LAYER
  5
20D
100
AcDbSymbolTableRecord
100
AcDbLayerTableRecord
  2
SUPERFICI
 70
0
 62
7
  6
CONTINUOUS
370
-3
390
F
  0
LAYER
  5
20E
100
AcDbSymbolTableRecord
100
AcDbLayerTableRecord
  2
TRASH
 70
0
 62
7
  6
CONTINUOUS
370
-3
390
F
  0
LAYER
  5
20F
100
AcDbSymbolTableRecord
100
AcDbLayerTableRecord
  2
XSEC_DATUMS
 70
0
 62
7
  6
CONTINUOUS
370
-3
390
F
  0
ENDTAB
  0
TABLE
  2
STYLE
  5
3
100
AcDbSymbolTable
 70
1
  0
STYLE
  5
11
100
AcDbSymbolTableRecord
100
AcDbTextStyleTableRecord
  2
STANDARD
 70
0
 40
0.0
 41
0.8
 50
0.0
 71
0
 42
0.2
  3
txt
  4

  0
STYLE
  5
210
100
AcDbSymbolTableRecord
100
AcDbTextStyleTableRecord
  2
TEXTSTYLE_1
 70
0
 40
0.0
 41
0.8
 50
0.0
 71
0
 42
0.2
  3
gdt
  4

  0
ENDTAB
  0
TABLE
  2
VIEW
  5
6
100
AcDbSymbolTable
 70
0
  0
ENDTAB
  0
TABLE
  2
UCS
  5
7
100
AcDbSymbolTable
 70
0
  0
ENDTAB
  0
TABLE
  2
APPID
  5
9
100
AcDbSymbolTable
 70
1
  0
APPID
  5
211
100
AcDbSymbolTableRecord
100
AcDbRegAppTableRecord
  2
ACAD
 70
0
  0
ENDTAB
  0
TABLE
  2
BLOCK_RECORD
  5
1
100
AcDbSymbolTable
 70
0
  0
BLOCK_RECORD
  5
212
100
AcDbSymbolTableRecord
100
AcDbBlockTableRecord
  2
*Model_Space
  0
BLOCK_RECORD
  5
213
100
AcDbSymbolTableRecord
100
AcDbBlockTableRecord
  2
*Paper_Space
  0
ENDTAB
  0
TABLE
  2
DIMSTYLE
  5
A
100
AcDbSymbolTable
 70
1
100
AcDbDimStyleTable
 71
0
  0
DIMSTYLE
105
214
100
AcDbSymbolTableRecord
100
AcDbDimStyleTableRecord
  2
STANDARD
 70
0
  3

  4

 40
1.0
 41
3.0
 42
0.0625
 43
0.38
 44
0.18
 45
0.0
 46
0.0
 47
0.01
 48
0.01
140
3.0
141
0.09
142
0.0
143
25.4
144
1.0
145
0.0
146
1.0
147
0.09
 71
1.0
 72
0.0
 73
0
 74
0
 75
0
 76
0
 77
1
 78
8
170
0
171
2
172
0
173
0
174
0
175
0
176
0
177
0
178
0
270
2
271
2
272
2
273
2
274
2
275
0
280
0
281
0
282
0
283
1
284
8
285
0
286
0
287
3
288
0
340
11
  0
ENDTAB
  0
ENDSEC
  0
SECTION
  2
BLOCKS
  0
BLOCK
  5
20
100
AcDbEntity
  8
0
100
AcDbBlockBegin
  2
*Model_Space
 70
0
 10
0.0
 20
0.0
 30
0.0
  3
*Model_Space
  1

  0
ENDBLK
  5
21
100
AcDbEntity
  8
0
100
AcDbBlockEnd
  0
BLOCK
  5
1C
100
AcDbEntity
  8
0
100
AcDbBlockBegin
  2
*Paper_Space
 70
0
 10
0.0
 20
0.0
 30
0.0
  3
*Paper_Space
  1

  0
ENDBLK
  5
1D
100
AcDbEntity
  8
0
100
AcDbBlockEnd
  0
ENDSEC
  0
SECTION
  2
ENTITIES
  0
LINE
  5
215
100
AcDbEntity
  8
RACCORDO
100
AcDbLine
 62
7
  6
CONTINUOUS
 10
-16.5672948165
 20
-56.9857832629
 11
-32.9438878688
 21
-48.7974867368
  0
LINE
  5
216
100
AcDbEntity
  8
ASSI
100
AcDbLine
 62
7
  6
CONTINUOUS
 10
-16.5672948165
 20
-56.9857832629
 11
-32.9438878688
 21
-48.7974867368
  0
LINE
  5
217
100
AcDbEntity
  8
RACCORDO
100
AcDbLine
 62
253
  6
CONTINUOUS
 10
-17.1910384621
 20
-55.6876861419
 11
-33.5676315144
 21
-47.4993896158
  0
LINE
  5
218
100
AcDbEntity
  8
ASSI
100
AcDbLine
 62
253
  6
CONTINUOUS
 10
-17.1910384621
 20
-55.6876861419
 11
-33.5676315144
 21
-47.4993896158
  0
LINE
  5
219
100
AcDbEntity
  8
RACCORDO
100
AcDbLine
 62
7
  6
CONTINUOUS
 10
-17.1910384621
 20
-54.9082632785
 11
-33.5676315144
 21
-46.7199667524
  0
LINE
  5
21A
100
AcDbEntity
  8
ASSI
100
AcDbLine
 62
7
  6
CONTINUOUS
 10
-17.1910384621
 20
-54.9082632785
 11
-33.5676315144
 21
-46.7199667524
  0
LINE
  5
21B
100
AcDbEntity
  8
CURVE
100
AcDbLine
 62
252
  6
CONTINUOUS
 10
-34.2227824034
 20
-45.350485922
 11
-14.4520768014
 21
-55.235838723
  0
LINE
  5
21C
100
AcDbEntity
  8
ASSI
100
AcDbLine
 62
252
  6
CONTINUOUS
 10
-34.2227824034
 20
-45.350485922
 11
-32.5259845984
 21
-46.1988848245
  0
LINE
  5
21D
100
AcDbEntity
  8
ASSI
100
AcDbLine
 62
252
  6
CONTINUOUS
 10
-16.1488746063
 20
-54.3874398205
 11
-14.4520768014
 21
-55.235838723
  0
LINE
  5
21E
100
AcDbEntity
  8
RACCORDO
100
AcDbLine
 62
7
  6
CONTINUOUS
 10
-16.1488746063
 20
-54.3874398205
 11
-32.5259845984
 21
-46.1988848245
  0
LINE
  5
21F
100
AcDbEntity
  8
ASSI
100
AcDbLine
 62
7
  6
CONTINUOUS
 10
-16.1488746063
 20
-54.3874398205
 11
-32.5259845984
 21
-46.1988848245
  0
LINE
  5
220
100
AcDbEntity
  8
ASSI
100
AcDbLine
 62
253
  6
CONTINUOUS
 10
-34.2705752396
 20
-46.6508614784
 11
-34.2705750596
 21
-46.6513262283
  0
LINE
  5
221
100
AcDbEntity
  8
RACCORDO
100
AcDbLine
 62
7
  6
CONTINUOUS
 10
-34.2705752396
 20
-46.6508614784
 11
-34.2705752396
 21
-45.871438615
  0
LINE
  5
222
100
AcDbEntity
  8
ASSI
100
AcDbLine
 62
7
  6
CONTINUOUS
 10
-34.2705752396
 20
-46.6508614784
 11
-34.2705752396
 21
-45.871438615
  0
LINE
  5
223
100
AcDbEntity
  8
RACCORDO
100
AcDbLine
 62
253
  6
CONTINUOUS
 10
-33.5676315144
 20
-47.4993896158
 11
-33.5676315144
 21
-46.7199667524
  0
LINE
  5
224
100
AcDbEntity
  8
ASSI
100
AcDbLine
 62
253
  6
CONTINUOUS
 10
-33.5676315144
 20
-47.4993896158
 11
-33.5676315144
 21
-46.7199667524
  0
LINE
  5
225
100
AcDbEntity
  8
RACCORDO
100
AcDbLine
 62
7
  6
CONTINUOUS
 10
-33.2286377598
 20
-45.3333005775
 11
-32.9859038102
 21
-36.8175155851
  0
LINE
  5
226
100
AcDbEntity
  8
ASSI
100
AcDbLine
 62
7
  6
CONTINUOUS
 10
-33.2286377598
 20
-45.3333005775
 11
-32.9859038102
 21
-36.8175155851
  0
LINE
  5
227
100
AcDbEntity
  8
RACCORDO
100
AcDbLine
 62
7
  6
CONTINUOUS
 10
-32.7536257862
 20
-28.6685536721
 11
-32.554732085
 21
-21.6908070542
  0
LINE
  5
228
100
AcDbEntity
  8
ASSI
100
AcDbLine
 62
7
  6
CONTINUOUS
 10
-32.7536257862
 20
-28.6685536721
 11
-32.554732085
 21
-21.6908070542
  0
LINE
  5
229
100
AcDbEntity
  8
RACCORDO
100
AcDbLine
 62
7
  6
CONTINUOUS
 10
-32.4330564163
 20
-17.5095620786
 11
-32.5522736675
 21
-21.692036263
  0
LINE
  5
22A
100
AcDbEntity
  8
RACCORDO
100
AcDbLine
 62
7
  6
CONTINUOUS
 10
-28.4801117091
 20
-41.3705508804
 11
-31.245200838
 21
-39.9880063159
  0
LINE
  5
22B
100
AcDbEntity
  8
ASSI
100
AcDbLine
 62
7
  6
CONTINUOUS
 10
-28.4801117091
 20
-41.3705508804
 11
-31.245200838
 21
-39.9880063159
  0
LINE
  5
22C
100
AcDbEntity
  8
RACCORDO
100
AcDbLine
 62
7
  6
CONTINUOUS
 10
-28.0129999784
 20
-39.3963042749
 11
-29.0373983671
 21
-38.8841050805
  0
LINE
  5
22D
100
AcDbEntity
  8
ASSI
100
AcDbLine
 62
7
  6
CONTINUOUS
 10
-28.0129999784
 20
-39.3963042749
 11
-29.0373983671
 21
-38.8841050805
  0
LINE
  5
22E
100
AcDbEntity
  8
0
100
AcDbLine
 62
7
  6
CONTINUOUS
 10
-35.4401610161
 20
-35.5903869822
 11
-32.4703125352
 21
-37.0753112226
  0
LINE
  5
22F
100
AcDbEntity
  8
0
100
AcDbLine
 62
253
  6
CONTINUOUS
 10
-32.4856548877
 20
-34.2810902819
 11
-32.0765873578
 21
-34.6736290703
  0
LINE
  5
230
100
AcDbEntity
  8
RACCORDO
100
AcDbLine
 62
7
  6
CONTINUOUS
 10
-29.5695625614
 20
-30.8436899839
 11
-29.48581859
 21
-36.7200824093
  0
LINE
  5
231
100
AcDbEntity
  8
ASSI
100
AcDbLine
 62
7
  6
CONTINUOUS
 10
-29.5695625614
 20
-30.8436899839
 11
-29.48581859
 21
-36.7200824093
  0
LINE
  5
232
100
AcDbEntity
  8
DRAFT
100
AcDbLine
 62
7
  6
CONTINUOUS
 10
-31.3190319502
 20
-22.8229147878
 11
-31.3190319502
 21
-23.8621452724
  0
LINE
  5
233
100
AcDbEntity
  8
RACCORDO
100
AcDbLine
 62
7
  6
CONTINUOUS
 10
-31.5454291016
 20
-22.7097162122
 11
-31.5747470731
 21
-26.8676007385
  0
LINE
  5
234
100
AcDbEntity
  8
ASSI
100
AcDbLine
 62
7
  6
CONTINUOUS
 10
-31.5454291016
 20
-22.7097162122
 11
-31.5747470731
 21
-26.8676007385
  0
LINE
  5
235
100
AcDbEntity
  8
RACCORDO
100
AcDbLine
 62
7
  6
CONTINUOUS
 10
-31.6249234394
 20
-33.9836297941
 11
-31.6391699949
 21
-36.0040810622
  0
LINE
  5
236
100
AcDbEntity
  8
ASSI
100
AcDbLine
 62
7
  6
CONTINUOUS
 10
-31.6249234394
 20
-33.9836297941
 11
-31.6391699949
 21
-36.0040810622
  0
LINE
  5
237
100
AcDbEntity
  8
RACCORDO
100
AcDbLine
 62
7
  6
CONTINUOUS
 10
-31.6488373092
 20
-37.3751028059
 11
-31.66210782
 21
-39.2571310915
  0
LINE
  5
238
100
AcDbEntity
  8
ASSI
100
AcDbLine
 62
7
  6
CONTINUOUS
 10
-31.6488373092
 20
-37.3751028059
 11
-31.66210782
 21
-39.2571310915
  0
LINE
  5
239
100
AcDbEntity
  8
RACCORDO
100
AcDbLine
 62
253
  6
CONTINUOUS
 10
-32.5259845984
 20
-46.1988848245
 11
-32.268159165
 21
-37.153648427
  0
LINE
  5
23A
100
AcDbEntity
  8
ASSI
100
AcDbLine
 62
253
  6
CONTINUOUS
 10
-32.5259845984
 20
-46.1988848245
 11
-32.268159165
 21
-37.153648427
  0
LINE
  5
23B
100
AcDbEntity
  8
RACCORDO
100
AcDbLine
 62
253
  6
CONTINUOUS
 10
-32.2293763143
 20
-35.7930376885
 11
-32.2039373012
 21
-34.9005660496
  0
LINE
  5
23C
100
AcDbEntity
  8
ASSI
100
AcDbLine
 62
253
  6
CONTINUOUS
 10
-32.2293763143
 20
-35.7930376885
 11
-32.2039373012
 21
-34.9005660496
  0
LINE
  5
23D
100
AcDbEntity
  8
RACCORDO
100
AcDbLine
 62
253
  6
CONTINUOUS
 10
-31.9931866276
 20
-27.5068437198
 11
-31.8520789236
 21
-22.5563913012
  0
LINE
  5
23E
100
AcDbEntity
  8
ASSI
100
AcDbLine
 62
253
  6
CONTINUOUS
 10
-31.9931866276
 20
-27.5068437198
 11
-31.8520789236
 21
-22.5563913012
  0
LINE
  5
23F
100
AcDbEntity
  8
RACCORDO
100
AcDbLine
 62
253
  6
CONTINUOUS
 10
-31.730614617
 20
-18.382561499
 11
-31.849620506
 21
-22.55762051
  0
LINE
  5
240
100
AcDbEntity
  8
0
100
AcDbLine
 62
7
  6
CONTINUOUS
 10
-32.3828815387
 20
-37.1126265064
 11
-28.5009398588
 21
-38.5007140982
  0
LINE
  5
241
100
AcDbEntity
  8
0
100
AcDbLine
 62
7
  6
CONTINUOUS
 10
-32.0178597298
 20
-36.29164977
 11
-28.1359180498
 21
-37.6797373618
  0
LINE
  5
242
100
AcDbEntity
  8
0
100
AcDbLine
 62
7
  6
CONTINUOUS
 10
-32.3734023445
 20
-35.7415374956
 11
-31.1057665308
 21
-36.1948131213
  0
LINE
  5
243
100
AcDbEntity
  8
0
100
AcDbLine
 62
7
  6
CONTINUOUS
 10
-30.1034989015
 20
-36.6122150277
 11
-31.1057665308
 21
-36.1948131213
  0
LINE
  5
244
100
AcDbEntity
  8
0
100
AcDbLine
 62
253
  6
CONTINUOUS
 10
-30.1034989015
 20
-36.6122150277
 11
-27.9763503337
 21
-37.6757893116
  0
LINE
  5
245
100
AcDbEntity
  8
0
100
AcDbLine
 62
253
  6
CONTINUOUS
 10
-28.6953602675
 20
-36.5008017273
 11
-27.959162351
 21
-36.8689006856
  0
LINE
  5
246
100
AcDbEntity
  8
0
100
AcDbLine
 62
7
  6
CONTINUOUS
 10
-27.9584678538
 20
-36.8362975656
 11
-28.6668625621
 21
-36.4821002114
  0
LINE
  5
247
100
AcDbEntity
  8
0
100
AcDbLine
 62
253
  6
CONTINUOUS
 10
-32.4856548877
 20
-34.2810902819
 11
-35.4555033687
 21
-32.7961660415
  0
LINE
  5
248
100
AcDbEntity
  8
DRAFT
100
AcDbLine
 62
7
  6
CONTINUOUS
 10
-27.9249194005
 20
-24.5199710627
 11
-27.9249194005
 21
-25.5592015472
  0
LINE
  5
249
100
AcDbEntity
  8
RACCORDO
100
AcDbLine
 62
7
  6
CONTINUOUS
 10
-27.7095333677
 20
-25.1500858126
 11
-28.048522863
 21
-41.06392357
  0
LINE
  5
24A
100
AcDbEntity
  8
ASSI
100
AcDbLine
 62
7
  6
CONTINUOUS
 10
-27.7095333677
 20
-25.1500858126
 11
-28.048522863
 21
-41.06392357
  0
LINE
  5
24B
100
AcDbEntity
  8
0
100
AcDbLine
 62
7
  6
CONTINUOUS
 10
-28.5009398588
 20
-38.5007140982
 11
-28.3273990851
 21
-38.5037525767
  0
LINE
  5
24C
100
AcDbEntity
  8
0
100
AcDbLine
 62
7
  6
CONTINUOUS
 10
-28.1359180498
 20
-37.6797373618
 11
-27.9764938926
 21
-37.6825286763
  0
LINE
  5
24D
100
AcDbEntity
  8
0
100
AcDbLine
 62
253
  6
CONTINUOUS
 10
-32.3828815387
 20
-37.1126265064
 11
-32.0178597298
 21
-36.29164977
  0
LINE
  5
24E
100
AcDbEntity
  8
0
100
AcDbLine
 62
7
  6
CONTINUOUS
 10
-30.0294793591
 20
-24.5069215679
 11
-35.4555033687
 21
-32.7961660415
  0
LINE
  5
24F
100
AcDbEntity
  8
0
100
AcDbLine
 62
7
  6
CONTINUOUS
 10
4.9337615405
 20
-36.9127623191
 11
5.1073023141
 21
-36.9097238405
  0
LINE
  5
250
100
AcDbEntity
  8
0
100
AcDbLine
 62
7
  6
CONTINUOUS
 10
4.5687397316
 20
-36.0917855827
 11
4.7422805052
 21
-36.0887471041
  0
LINE
  5
251
100
AcDbEntity
  8
DRAFT
100
AcDbLine
 62
7
  6
CONTINUOUS
 10
-27.9249194005
 20
-25.5592015472
 11
-31.3190319502
 21
-23.8621452724
  0
LINE
  5
252
100
AcDbEntity
  8
RACCORDO
100
AcDbLine
 62
7
  6
CONTINUOUS
 10
-31.8520789236
 20
-22.5563913012
 11
-31.3190319502
 21
-22.8229147878
  0
LINE
  5
253
100
AcDbEntity
  8
ASSI
100
AcDbLine
 62
7
  6
CONTINUOUS
 10
-31.8520789236
 20
-22.5563913012
 11
-31.5454291016
 21
-22.7097162122
  0
LINE
  5
254
100
AcDbEntity
  8
DRAFT
100
AcDbLine
 62
7
  6
CONTINUOUS
 10
-31.3190319502
 20
-22.8229147878
 11
-27.9249194005
 21
-24.5199710627
  0
LINE
  5
255
100
AcDbEntity
  8
CURVE
100
AcDbLine
 62
252
  6
CONTINUOUS
 10
-31.3190319502
 20
-22.8229147878
 11
-27.9249194005
 21
-24.5199710627
  0
LINE
  5
256
100
AcDbEntity
  8
RACCORDO
100
AcDbLine
 62
7
  6
CONTINUOUS
 10
-27.9249194005
 20
-24.5199710627
 11
-16.1488746063
 21
-30.4079934598
  0
LINE
  5
257
100
AcDbEntity
  8
ASSI
100
AcDbLine
 62
7
  6
CONTINUOUS
 10
-27.2779445216
 20
-24.8434585022
 11
-16.1488746063
 21
-30.4079934598
  0
LINE
  5
258
100
AcDbEntity
  8
RACCORDO
100
AcDbLine
 62
253
  6
CONTINUOUS
 10
3.8161403759
 20
-39.2504597456
 11
3.3945653615
 21
-39.0396722384
  0
LINE
  5
259
100
AcDbEntity
  8
ASSI
100
AcDbLine
 62
253
  6
CONTINUOUS
 10
3.8161403759
 20
-39.2504597456
 11
3.3945653615
 21
-39.0396722384
  0
LINE
  5
25A
100
AcDbEntity
  8
RACCORDO
100
AcDbLine
 62
253
  6
CONTINUOUS
 10
-17.1910384621
 20
-55.6876861419
 11
-17.1910384621
 21
-54.9082632785
  0
LINE
  5
25B
100
AcDbEntity
  8
ASSI
100
AcDbLine
 62
253
  6
CONTINUOUS
 10
-17.1910384621
 20
-55.6876861419
 11
-17.1910384621
 21
-54.9082632785
  0
LINE
  5
25C
100
AcDbEntity
  8
RACCORDO
100
AcDbLine
 62
253
  6
CONTINUOUS
 10
-16.1513330239
 20
-26.1722022955
 11
-16.1513330239
 21
-30.406764251
  0
LINE
  5
25D
100
AcDbEntity
  8
RACCORDO
100
AcDbLine
 62
253
  6
CONTINUOUS
 10
-16.1488746063
 20
-54.3874398205
 11
-16.1488746063
 21
-30.4079934598
  0
LINE
  5
25E
100
AcDbEntity
  8
ASSI
100
AcDbLine
 62
253
  6
CONTINUOUS
 10
-16.1488746063
 20
-54.3874398205
 11
-16.1488746063
 21
-30.4079934598
  0
LINE
  5
25F
100
AcDbEntity
  8
RACCORDO
100
AcDbLine
 62
253
  6
CONTINUOUS
 10
-13.7969259124
 20
-55.6876861419
 11
-13.7969259124
 21
-54.9082632785
  0
LINE
  5
260
100
AcDbEntity
  8
ASSI
100
AcDbLine
 62
253
  6
CONTINUOUS
 10
-13.7969259124
 20
-55.6876861419
 11
-13.7969259124
 21
-54.9082632785
  0
LINE
  5
261
100
AcDbEntity
  8
0
100
AcDbLine
 62
7
  6
CONTINUOUS
 10
-28.1359180498
 20
-37.6797373618
 11
-28.5009398588
 21
-38.5007140982
  0
LINE
  5
262
100
AcDbEntity
  8
0
100
AcDbLine
 62
7
  6
CONTINUOUS
 10
-27.9772097782
 20
-37.716135872
 11
-28.3273990851
 21
-38.5037525767
  0
LINE
  5
263
100
AcDbEntity
  8
0
100
AcDbLine
 62
7
  6
CONTINUOUS
 10
-27.7499278241
 20
-27.0464006969
 11
-32.4856548877
 21
-34.2810902819
  0
LINE
  5
264
100
AcDbEntity
  8
0
100
AcDbLine
 62
7
  6
CONTINUOUS
 10
-27.7723304218
 20
-28.0980890512
 11
-32.0765873578
 21
-34.6736290703
  0
LWPOLYLINE
  5
265
100
AcDbEntity
  8
RACCORDO
100
AcDbPolyline
 62
7
  6
CONTINUOUS
 90
16
 70
0
 10
-31.4194173168
 20
-16.0550810847
 10
-31.4489997031
 20
-16.0701457972
 10
-31.5855070984
 20
-16.1468768664
 10
-31.7113431281
 20
-16.2297299144
 10
-31.8264489639
 20
-16.3181012434
 10
-31.931252512
 20
-16.4116846579
 10
-32.0261736748
 20
-16.5103399011
 10
-32.1110217553
 20
-16.6133961069
 10
-32.1858479942
 20
-16.7203648396
 10
-32.2509621338
 20
-16.8311872502
 10
-32.3061424087
 20
-16.9450231918
 10
-32.3513682662
 20
-17.0612513805
 10
-32.3868590489
 20
-17.1800696244
 10
-32.4124848207
 20
-17.3010271402
 10
-32.4280690523
 20
-17.42301199
 10
-32.4330522375
 20
-17.5100298435
  0
LINE
  5
266
100
AcDbEntity
  8
0
100
AcDbLine
 62
7
  6
CONTINUOUS
 10
15.3282312239
 20
-31.7155274773
 11
15.5017719976
 21
-31.7124889988
  0
LINE
  5
267
100
AcDbEntity
  8
0
100
AcDbLine
 62
7
  6
CONTINUOUS
 10
14.963209415
 20
-30.894550741
 11
15.1367501887
 21
-30.8915122624
  0
LINE
  5
268
100
AcDbEntity
  8
RACCORDO
100
AcDbLine
 62
253
  6
CONTINUOUS
 10
4.4770346335
 20
-36.8158177455
 11
6.5812295048
 21
-37.8679151811
  0
LINE
  5
269
100
AcDbEntity
  8
ASSI
100
AcDbLine
 62
253
  6
CONTINUOUS
 10
4.4770346335
 20
-36.8158177455
 11
6.5812295048
 21
-37.8679151811
  0
LINE
  5
26A
100
AcDbEntity
  8
RACCORDO
100
AcDbLine
 62
253
  6
CONTINUOUS
 10
-31.730614617
 20
-18.382561499
 11
-16.1513330239
 21
-26.1722022955
  0
LINE
  5
26B
100
AcDbEntity
  8
RACCORDO
100
AcDbLine
 62
253
  6
CONTINUOUS
 10
5.9446640317
 20
-36.6103037291
 11
6.9981364868
 21
-37.1370399567
  0
LINE
  5
26C
100
AcDbEntity
  8
ASSI
100
AcDbLine
 62
253
  6
CONTINUOUS
 10
5.9446640317
 20
-36.6103037291
 11
6.9981364868
 21
-37.1370399567
  0
LINE
  5
26D
100
AcDbEntity
  8
RACCORDO
100
AcDbLine
 62
253
  6
CONTINUOUS
 10
-30.8822157145
 20
-16.937268636
 11
-15.3029341214
 21
-24.7269094326
  0
LINE
  5
26E
100
AcDbEntity
  8
RACCORDO
100
AcDbLine
 62
253
  6
CONTINUOUS
 10
-12.757737414
 20
-26.1722022955
 11
-12.757737414
 21
-30.406764251
  0
LINE
  5
26F
100
AcDbEntity
  8
RACCORDO
100
AcDbLine
 62
253
  6
CONTINUOUS
 10
-12.7552789964
 20
-54.3874398205
 11
-12.7552789964
 21
-30.4079934598
  0
LINE
  5
270
100
AcDbEntity
  8
ASSI
100
AcDbLine
 62
253
  6
CONTINUOUS
 10
-12.7552789964
 20
-54.3874398205
 11
-12.7552789964
 21
-30.4079934598
  0
LINE
  5
271
100
AcDbEntity
  8
RACCORDO
100
AcDbLine
 62
7
  6
CONTINUOUS
 10
7.595624396
 20
3.4524606237
 11
-31.418872052
 21
-16.0547876003
  0
LINE
  5
272
100
AcDbEntity
  8
RACCORDO
100
AcDbLine
 62
253
  6
CONTINUOUS
 10
7.5894668369
 20
3.1469715422
 11
-30.8822157145
 21
-16.0888697335
  0
LINE
  5
273
100
AcDbEntity
  8
0
100
AcDbLine
 62
7
  6
CONTINUOUS
 10
5.3017227228
 20
-34.9098114697
 11
5.2732250175
 21
-34.8911099537
  0
LINE
  5
274
100
AcDbEntity
  8
RACCORDO
100
AcDbLine
 62
253
  6
CONTINUOUS
 10
14.2106100593
 20
-34.0532249039
 11
13.789035045
 21
-33.8424373967
  0
LINE
  5
275
100
AcDbEntity
  8
ASSI
100
AcDbLine
 62
253
  6
CONTINUOUS
 10
14.2106100593
 20
-34.0532249039
 11
13.789035045
 21
-33.8424373967
  0
LINE
  5
276
100
AcDbEntity
  8
RACCORDO
100
AcDbLine
 62
253
  6
CONTINUOUS
 10
14.871504317
 20
-31.6185829038
 11
16.9756991882
 21
-32.6706803394
  0
LINE
  5
277
100
AcDbEntity
  8
ASSI
100
AcDbLine
 62
253
  6
CONTINUOUS
 10
14.871504317
 20
-31.6185829038
 11
16.9756991882
 21
-32.6706803394
  0
LINE
  5
278
100
AcDbEntity
  8
RACCORDO
100
AcDbLine
 62
7
  6
CONTINUOUS
 10
3.9496519315
 20
-25.8516602475
 11
3.096582042
 21
-25.4251253027
  0
LINE
  5
279
100
AcDbEntity
  8
RACCORDO
100
AcDbLine
 62
7
  6
CONTINUOUS
 10
-27.4291496726
 20
-24.7678559267
 11
-27.5479692474
 21
-24.8272657141
  0
LINE
  5
27A
100
AcDbEntity
  8
ASSI
100
AcDbLine
 62
7
  6
CONTINUOUS
 10
-27.4291496726
 20
-24.7678559267
 11
-27.5479692474
 21
-24.8272657141
  0
LINE
  5
27B
100
AcDbEntity
  8
SMUSSO
100
AcDbLine
 62
7
  6
CONTINUOUS
 10
-27.7160232628
 20
-25.4547534784
 11
-27.9249194005
 21
-25.5592015472
  0
LINE
  5
27C
100
AcDbEntity
  8
RACCORDO
100
AcDbLine
 62
253
  6
CONTINUOUS
 10
16.3391337152
 20
-31.4130688874
 11
17.3926061703
 21
-31.939805115
  0
LINE
  5
27D
100
AcDbEntity
  8
ASSI
100
AcDbLine
 62
253
  6
CONTINUOUS
 10
16.3391337152
 20
-31.4130688874
 11
17.3926061703
 21
-31.939805115
  0
LINE
  5
27E
100
AcDbEntity
  8
SMUSSO
100
AcDbLine
 62
7
  6
CONTINUOUS
 10
3.2733007635
 20
-23.4452867605
 11
3.0520519296
 21
-23.3346623436
  0
LINE
  5
27F
100
AcDbEntity
  8
RACCORDO
100
AcDbLine
 62
7
  6
CONTINUOUS
 10
2.8839979142
 20
-22.7071745793
 11
2.7627199218
 21
-22.6465355831
  0
LINE
  5
280
100
AcDbEntity
  8
ASSI
100
AcDbLine
 62
7
  6
CONTINUOUS
 10
2.8839979142
 20
-22.7071745793
 11
2.7627199218
 21
-22.6465355831
  0
LINE
  5
281
100
AcDbEntity
  8
0
100
AcDbLine
 62
7
  6
CONTINUOUS
 10
15.6961924063
 20
-29.7125766279
 11
15.6676947009
 21
-29.693875112
  0
LINE
  5
282
100
AcDbEntity
  8
0
100
AcDbLine
 62
7
  6
CONTINUOUS
 10
4.5687397316
 20
-36.0917855827
 11
4.9337615405
 21
-36.9127623191
  0
LINE
  5
283
100
AcDbEntity
  8
0
100
AcDbLine
 62
7
  6
CONTINUOUS
 10
4.7422805052
 20
-36.0887471041
 11
5.1073023141
 21
-36.9097238405
  0
LINE
  5
284
100
AcDbEntity
  8
RACCORDO
100
AcDbLine
 62
253
  6
CONTINUOUS
 10
6.6567688266
 20
-20.9960315944
 11
6.8851285139
 21
-21.110211438
  0
LINE
  5
285
100
AcDbEntity
  8
ASSI
100
AcDbLine
 62
253
  6
CONTINUOUS
 10
6.6567688266
 20
-20.9960315944
 11
6.8851285139
 21
-21.110211438
  0
LINE
  5
286
100
AcDbEntity
  8
0
100
AcDbLine
 62
7
  6
CONTINUOUS
 10
3.0772791235
 20
-24.5189511653
 11
8.6829498132
 21
-33.0826388127
  0
LINE
  5
287
100
AcDbEntity
  8
0
100
AcDbLine
 62
7
  6
CONTINUOUS
 10
3.0548765258
 20
-23.467262811
 11
9.0920173431
 21
-32.6901000243
  0
LINE
  5
288
100
AcDbEntity
  8
0
100
AcDbLine
 62
253
  6
CONTINUOUS
 10
8.9892439941
 20
-35.5216362488
 11
8.6242221852
 21
-34.7006595124
  0
LINE
  5
289
100
AcDbEntity
  8
RACCORDO
100
AcDbLine
 62
7
  6
CONTINUOUS
 10
3.0455620345
 20
-23.0299946778
 11
3.3845515298
 21
-38.9438324352
  0
LINE
  5
28A
100
AcDbEntity
  8
ASSI
100
AcDbLine
 62
7
  6
CONTINUOUS
 10
3.0455620345
 20
-23.0299946778
 11
3.3845515298
 21
-38.9438324352
  0
LINE
  5
28B
100
AcDbEntity
  8
DRAFT
100
AcDbLine
 62
7
  6
CONTINUOUS
 10
3.2584896498
 20
-22.3986507191
 11
3.2733007635
 21
-23.4452867605
  0
LINE
  5
28C
100
AcDbEntity
  8
0
100
AcDbLine
 62
7
  6
CONTINUOUS
 10
-28.6668625621
 20
-36.4821002114
 11
-28.6953602675
 21
-36.5008017273
  0
LINE
  5
28D
100
AcDbEntity
  8
RACCORDO
100
AcDbLine
 62
253
  6
CONTINUOUS
 10
-13.6061363165
 20
-24.7269094326
 11
22.9182619232
 21
-6.4647103128
  0
LINE
  5
28E
100
AcDbEntity
  8
RACCORDO
100
AcDbLine
 62
253
  6
CONTINUOUS
 10
30.5732815843
 20
-2.6372004822
 11
33.5808183957
 21
-1.1334320765
  0
LINE
  5
28F
100
AcDbEntity
  8
RACCORDO
100
AcDbLine
 62
253
  6
CONTINUOUS
 10
-12.757737414
 20
-26.1722022955
 11
24.825431852
 21
-7.3806176625
  0
LINE
  5
290
100
AcDbEntity
  8
RACCORDO
100
AcDbLine
 62
253
  6
CONTINUOUS
 10
30.3629094604
 20
-4.6118788584
 11
34.4292172982
 21
-2.5787249395
  0
LINE
  5
291
100
AcDbEntity
  8
SMUSSO
100
AcDbLine
 62
7
  6
CONTINUOUS
 10
13.667770447
 20
-18.2480519188
 11
13.4465216131
 21
-18.1374275019
  0
LINE
  5
292
100
AcDbEntity
  8
CURVE
100
AcDbLine
 62
252
  6
CONTINUOUS
 10
36.9213850845
 20
-29.5491077801
 11
35.9133639744
 21
-29.045097225
  0
LINE
  5
293
100
AcDbEntity
  8
ASSI
100
AcDbLine
 62
252
  6
CONTINUOUS
 10
36.9213850845
 20
-29.5491077801
 11
35.9133639744
 21
-29.045097225
  0
LINE
  5
294
100
AcDbEntity
  8
0
100
AcDbLine
 62
7
  6
CONTINUOUS
 10
6.0677475452
 20
-22.0480633697
 11
12.0618658241
 21
-31.2051757838
  0
LINE
  5
295
100
AcDbEntity
  8
0
100
AcDbLine
 62
7
  6
CONTINUOUS
 10
4.0156293502
 20
-35.7079128108
 11
4.0196321581
 21
-35.7388617755
  0
LINE
  5
296
100
AcDbEntity
  8
0
100
AcDbLine
 62
7
  6
CONTINUOUS
 10
4.4246968801
 20
-35.3153740224
 11
4.428699688
 21
-35.3463229871
  0
LINE
  5
297
100
AcDbEntity
  8
DRAFT
100
AcDbLine
 62
7
  6
CONTINUOUS
 10
6.6526021995
 20
-20.7015944443
 11
6.6674133132
 21
-21.7482304857
  0
LINE
  5
298
100
AcDbEntity
  8
RACCORDO
100
AcDbLine
 62
7
  6
CONTINUOUS
 10
6.8851285139
 20
-21.110211438
 11
6.900714155
 21
-23.3205722741
  0
LINE
  5
299
100
AcDbEntity
  8
ASSI
100
AcDbLine
 62
7
  6
CONTINUOUS
 10
6.8851285139
 20
-21.110211438
 11
6.900714155
 21
-23.3205722741
  0
LINE
  5
29A
100
AcDbEntity
  8
RACCORDO
100
AcDbLine
 62
7
  6
CONTINUOUS
 10
6.9508905214
 20
-30.4366013298
 11
6.9824171395
 21
-34.9077168606
  0
LINE
  5
29B
100
AcDbEntity
  8
ASSI
100
AcDbLine
 62
7
  6
CONTINUOUS
 10
6.9508905214
 20
-30.4366013298
 11
6.9824171395
 21
-34.9077168606
  0
LINE
  5
29C
100
AcDbEntity
  8
RACCORDO
100
AcDbLine
 62
7
  6
CONTINUOUS
 10
6.9917822489
 20
-36.2358798134
 11
6.9981364868
 21
-37.1370399567
  0
LINE
  5
29D
100
AcDbEntity
  8
ASSI
100
AcDbLine
 62
7
  6
CONTINUOUS
 10
6.9917822489
 20
-36.2358798134
 11
6.9981364868
 21
-37.1370399567
  0
LINE
  5
29E
100
AcDbEntity
  8
RACCORDO
100
AcDbLine
 62
7
  6
CONTINUOUS
 10
5.0274012809
 20
-27.4981195744
 11
4.9195241195
 21
-35.0679604028
  0
LINE
  5
29F
100
AcDbEntity
  8
ASSI
100
AcDbLine
 62
7
  6
CONTINUOUS
 10
5.0274012809
 20
-27.4981195744
 11
4.9195241195
 21
-35.0679604028
  0
LINE
  5
2A0
100
AcDbEntity
  8
RACCORDO
100
AcDbLine
 62
253
  6
CONTINUOUS
 10
7.9215232811
 20
19.6209700177
 11
7.9213773526
 21
19.6131912413
  0
LINE
  5
2A1
100
AcDbEntity
  8
DRAFT
100
AcDbLine
 62
7
  6
CONTINUOUS
 10
7.5232024685
 20
-0.1405391307
 11
7.9215232811
 21
19.6209700177
  0
LINE
  5
2A2
100
AcDbEntity
  8
RACCORDO
100
AcDbLine
 62
253
  6
CONTINUOUS
 10
-31.66210782
 20
-39.2571310915
 11
-29.4653164676
 21
-38.1587354153
  0
LINE
  5
2A3
100
AcDbEntity
  8
ASSI
100
AcDbLine
 62
253
  6
CONTINUOUS
 10
-31.66210782
 20
-39.2571310915
 11
-29.4653164676
 21
-38.1587354153
  0
LINE
  5
2A4
100
AcDbEntity
  8
RACCORDO
100
AcDbLine
 62
7
  6
CONTINUOUS
 10
-12.757737414
 20
-30.406764251
 11
3.2584896498
 21
-22.3986507191
  0
LINE
  5
2A5
100
AcDbEntity
  8
CURVE
100
AcDbLine
 62
252
  6
CONTINUOUS
 10
3.2584896498
 20
-22.3986507191
 11
6.6526021995
 21
-20.7015944443
  0
LINE
  5
2A6
100
AcDbEntity
  8
DRAFT
100
AcDbLine
 62
7
  6
CONTINUOUS
 10
6.6526021995
 20
-20.7015944443
 11
13.6529593332
 21
-17.2014158774
  0
LINE
  5
2A7
100
AcDbEntity
  8
CURVE
100
AcDbLine
 62
252
  6
CONTINUOUS
 10
13.6529593332
 20
-17.2014158774
 11
17.0470718829
 21
-15.5043596026
  0
LINE
  5
2A8
100
AcDbEntity
  8
RACCORDO
100
AcDbLine
 62
7
  6
CONTINUOUS
 10
17.0470718829
 20
-15.5043596026
 11
34.5482231872
 21
-6.7537839504
  0
LINE
  5
2A9
100
AcDbEntity
  8
RACCORDO
100
AcDbLine
 62
7
  6
CONTINUOUS
 10
-12.7552789964
 20
-30.4079934598
 11
2.6139731884
 21
-22.7233673674
  0
LINE
  5
2AA
100
AcDbEntity
  8
ASSI
100
AcDbLine
 62
7
  6
CONTINUOUS
 10
-12.7552789964
 20
-30.4079934598
 11
2.6139731884
 21
-22.7233673674
  0
LINE
  5
2AB
100
AcDbEntity
  8
RACCORDO
100
AcDbLine
 62
7
  6
CONTINUOUS
 10
7.302035496
 20
-20.3793362136
 11
13.0084428719
 21
-17.5261325257
  0
LINE
  5
2AC
100
AcDbEntity
  8
ASSI
100
AcDbLine
 62
7
  6
CONTINUOUS
 10
7.302035496
 20
-20.3793362136
 11
13.0084428719
 21
-17.5261325257
  0
LINE
  5
2AD
100
AcDbEntity
  8
RACCORDO
100
AcDbLine
 62
7
  6
CONTINUOUS
 10
17.6965051794
 20
-15.1821013719
 11
34.5506816047
 21
-6.7550131592
  0
LINE
  5
2AE
100
AcDbEntity
  8
ASSI
100
AcDbLine
 62
7
  6
CONTINUOUS
 10
17.6965051794
 20
-15.1821013719
 11
34.5506816047
 21
-6.7550131592
  0
LINE
  5
2AF
100
AcDbEntity
  8
RACCORDO
100
AcDbLine
 62
253
  6
CONTINUOUS
 10
-31.245200838
 20
-39.9880063159
 11
-29.0373983671
 21
-38.8841050805
  0
LINE
  5
2B0
100
AcDbEntity
  8
ASSI
100
AcDbLine
 62
253
  6
CONTINUOUS
 10
-31.245200838
 20
-39.9880063159
 11
-29.0373983671
 21
-38.8841050805
  0
LINE
  5
2B1
100
AcDbEntity
  8
RACCORDO
100
AcDbLine
 62
7
  6
CONTINUOUS
 10
13.2784675976
 20
-17.5099397376
 11
13.1571896053
 21
-17.4493007414
  0
LINE
  5
2B2
100
AcDbEntity
  8
ASSI
100
AcDbLine
 62
7
  6
CONTINUOUS
 10
13.2784675976
 20
-17.5099397376
 11
13.1571896053
 21
-17.4493007414
  0
LINE
  5
2B3
100
AcDbEntity
  8
RACCORDO
100
AcDbLine
 62
7
  6
CONTINUOUS
 10
35.8832361193
 20
-27.9881279115
 11
36.2662341956
 21
-28.1796269497
  0
LINE
  5
2B4
100
AcDbEntity
  8
ASSI
100
AcDbLine
 62
7
  6
CONTINUOUS
 10
35.8832361193
 20
-27.9881279115
 11
36.2662341956
 21
-28.1796269497
  0
LINE
  5
2B5
100
AcDbEntity
  8
RACCORDO
100
AcDbLine
 62
253
  6
CONTINUOUS
 10
17.05123851
 20
-15.7987967527
 11
17.2795981974
 21
-15.9129765963
  0
LINE
  5
2B6
100
AcDbEntity
  8
ASSI
100
AcDbLine
 62
253
  6
CONTINUOUS
 10
17.05123851
 20
-15.7987967527
 11
17.2795981974
 21
-15.9129765963
  0
LINE
  5
2B7
100
AcDbEntity
  8
0
100
AcDbLine
 62
7
  6
CONTINUOUS
 10
14.963209415
 20
-30.894550741
 11
15.3282312239
 21
-31.7155274773
  0
LINE
  5
2B8
100
AcDbEntity
  8
0
100
AcDbLine
 62
7
  6
CONTINUOUS
 10
15.1367501887
 20
-30.8915122624
 11
15.5017719976
 21
-31.7124889988
  0
LINE
  5
2B9
100
AcDbEntity
  8
0
100
AcDbLine
 62
7
  6
CONTINUOUS
 10
11.8623262093
 20
20.5949923078
 11
11.8623262093
 21
17.2004655511
  0
LINE
  5
2BA
100
AcDbEntity
  8
DRAFT
100
AcDbLine
 62
7
  6
CONTINUOUS
 10
17.0618829966
 20
-16.550995644
 11
13.667770447
 21
-18.2480519188
  0
LINE
  5
2BB
100
AcDbEntity
  8
DRAFT
100
AcDbLine
 62
7
  6
CONTINUOUS
 10
6.6674133132
 20
-21.7482304857
 11
3.2733007635
 21
-23.4452867605
  0
LINE
  5
2BC
100
AcDbEntity
  8
RACCORDO
100
AcDbLine
 62
253
  6
CONTINUOUS
 10
-28.0585366984
 20
-41.159763375
 11
-28.4801117091
 21
-41.3705508804
  0
LINE
  5
2BD
100
AcDbEntity
  8
ASSI
100
AcDbLine
 62
253
  6
CONTINUOUS
 10
-28.0585366984
 20
-41.159763375
 11
-28.4801117091
 21
-41.3705508804
  0
LINE
  5
2BE
100
AcDbEntity
  8
RACCORDO
100
AcDbLine
 62
7
  6
CONTINUOUS
 10
-33.5676315144
 20
-45.0229104775
 11
-33.2147612932
 21
-44.8464753669
  0
LINE
  5
2BF
100
AcDbEntity
  8
ASSI
100
AcDbLine
 62
7
  6
CONTINUOUS
 10
-33.5676315144
 20
-45.0229104775
 11
-33.2147612932
 21
-44.8464753669
  0
LINE
  5
2C0
100
AcDbEntity
  8
CURVE
100
AcDbLine
 62
252
  6
CONTINUOUS
 10
-33.2147612932
 20
-44.8464753669
 11
-34.2227824034
 21
-45.350485922
  0
LINE
  5
2C1
100
AcDbEntity
  8
ASSI
100
AcDbLine
 62
252
  6
CONTINUOUS
 10
-33.5676315144
 20
-45.0229104775
 11
-34.2227824034
 21
-45.350485922
  0
LINE
  5
2C2
100
AcDbEntity
  8
0
100
AcDbLine
 62
7
  6
CONTINUOUS
 10
13.4717488069
 20
-19.3217163236
 11
19.0774194966
 21
-27.885403971
  0
LINE
  5
2C3
100
AcDbEntity
  8
0
100
AcDbLine
 62
7
  6
CONTINUOUS
 10
13.4493462092
 20
-18.2700279693
 11
19.4864870265
 21
-27.4928651826
  0
LINE
  5
2C4
100
AcDbEntity
  8
0
100
AcDbLine
 62
253
  6
CONTINUOUS
 10
19.3837136775
 20
-30.324401407
 11
19.0186918686
 21
-29.5034246707
  0
LINE
  5
2C5
100
AcDbEntity
  8
RACCORDO
100
AcDbLine
 62
7
  6
CONTINUOUS
 10
13.4400317179
 20
-17.8327598361
 11
13.7790212133
 21
-33.7465975935
  0
LINE
  5
2C6
100
AcDbEntity
  8
ASSI
100
AcDbLine
 62
7
  6
CONTINUOUS
 10
13.4400317179
 20
-17.8327598361
 11
13.7790212133
 21
-33.7465975935
  0
LINE
  5
2C7
100
AcDbEntity
  8
DRAFT
100
AcDbLine
 62
7
  6
CONTINUOUS
 10
13.6529593332
 20
-17.2014158774
 11
13.667770447
 21
-18.2480519188
  0
LINE
  5
2C8
100
AcDbEntity
  8
RACCORDO
100
AcDbLine
 62
253
  6
CONTINUOUS
 10
14.983467986
 20
-24.3892281012
 11
14.9834728552
 21
-24.3866642222
  0
LINE
  5
2C9
100
AcDbEntity
  8
RACCORDO
100
AcDbLine
 62
7
  6
CONTINUOUS
 10
15.4218709644
 20
-22.3008847327
 11
15.3139938029
 21
-29.870725561
  0
LINE
  5
2CA
100
AcDbEntity
  8
ASSI
100
AcDbLine
 62
7
  6
CONTINUOUS
 10
15.4218709644
 20
-22.3008847327
 11
15.3139938029
 21
-29.870725561
  0
LINE
  5
2CB
100
AcDbEntity
  8
RACCORDO
100
AcDbLine
 62
253
  6
CONTINUOUS
 10
15.1378835737
 20
-22.3370130317
 11
15.3696609306
 21
-22.2211243533
  0
LINE
  5
2CC
100
AcDbEntity
  8
0
100
AcDbLine
 62
7
  6
CONTINUOUS
 10
16.4622172286
 20
-16.850828528
 11
22.4563355075
 21
-26.0079409421
  0
LINE
  5
2CD
100
AcDbEntity
  8
0
100
AcDbLine
 62
7
  6
CONTINUOUS
 10
14.4100990336
 20
-30.5106779691
 11
14.4141018415
 21
-30.5416269338
  0
LINE
  5
2CE
100
AcDbEntity
  8
0
100
AcDbLine
 62
7
  6
CONTINUOUS
 10
14.8191665635
 20
-30.1181391807
 11
14.8231693714
 21
-30.1490881454
  0
LINE
  5
2CF
100
AcDbEntity
  8
DRAFT
100
AcDbLine
 62
7
  6
CONTINUOUS
 10
17.0470718829
 20
-15.5043596026
 11
17.0618829966
 21
-16.550995644
  0
LINE
  5
2D0
100
AcDbEntity
  8
RACCORDO
100
AcDbLine
 62
7
  6
CONTINUOUS
 10
17.2795981974
 20
-15.9129765963
 11
17.2951838385
 21
-18.1233374324
  0
LINE
  5
2D1
100
AcDbEntity
  8
ASSI
100
AcDbLine
 62
7
  6
CONTINUOUS
 10
17.2795981974
 20
-15.9129765963
 11
17.2951838385
 21
-18.1233374324
  0
LINE
  5
2D2
100
AcDbEntity
  8
RACCORDO
100
AcDbLine
 62
7
  6
CONTINUOUS
 10
17.3453602048
 20
-25.239366488
 11
17.3768868229
 21
-29.7104820189
  0
LINE
  5
2D3
100
AcDbEntity
  8
ASSI
100
AcDbLine
 62
7
  6
CONTINUOUS
 10
17.3453602048
 20
-25.239366488
 11
17.3768868229
 21
-29.7104820189
  0
LINE
  5
2D4
100
AcDbEntity
  8
RACCORDO
100
AcDbLine
 62
7
  6
CONTINUOUS
 10
17.3862519324
 20
-31.0386449717
 11
17.3926061703
 21
-31.939805115
  0
LINE
  5
2D5
100
AcDbEntity
  8
ASSI
100
AcDbLine
 62
7
  6
CONTINUOUS
 10
17.3862519324
 20
-31.0386449717
 11
17.3926061703
 21
-31.939805115
  0
LINE
  5
2D6
100
AcDbEntity
  8
0
100
AcDbLine
 62
7
  6
CONTINUOUS
 10
4.4246968801
 20
-35.3153740224
 11
4.0156293502
 21
-35.7079128108
  0
LINE
  5
2D7
100
AcDbEntity
  8
0
100
AcDbLine
 62
7
  6
CONTINUOUS
 10
4.428699688
 20
-35.3463229871
 11
4.0196321581
 21
-35.7388617755
  0
LINE
  5
2D8
100
AcDbEntity
  8
0
100
AcDbLine
 62
253
  6
CONTINUOUS
 10
9.0920173431
 20
-32.6901000243
 11
8.6829498132
 21
-33.0826388127
  0
LINE
  5
2D9
100
AcDbEntity
  8
RACCORDO
100
AcDbLine
 62
253
  6
CONTINUOUS
 10
3.3059383601
 20
-35.2533427722
 11
4.9284433416
 21
-34.4420902815
  0
LINE
  5
2DA
100
AcDbEntity
  8
RACCORDO
100
AcDbLine
 62
253
  6
CONTINUOUS
 10
13.7004080436
 20
-30.0561079305
 11
15.3229130251
 21
-29.2448554398
  0
LINE
  5
2DB
100
AcDbEntity
  8
0
100
AcDbLine
 62
253
  6
CONTINUOUS
 10
22.4563355075
 20
-26.0079409421
 11
19.4864870265
 21
-27.4928651826
  0
LINE
  5
2DC
100
AcDbEntity
  8
0
100
AcDbLine
 62
253
  6
CONTINUOUS
 10
12.0618658241
 20
-31.2051757838
 11
9.0920173431
 21
-32.6901000243
  0
LINE
  5
2DD
100
AcDbEntity
  8
0
100
AcDbLine
 62
7
  6
CONTINUOUS
 10
19.3742344833
 20
-28.9533123962
 11
18.1065986696
 21
-29.4065880219
  0
LINE
  5
2DE
100
AcDbEntity
  8
0
100
AcDbLine
 62
7
  6
CONTINUOUS
 10
14.8191665635
 20
-30.1181391807
 11
14.4100990336
 21
-30.5106779691
  0
LINE
  5
2DF
100
AcDbEntity
  8
0
100
AcDbLine
 62
7
  6
CONTINUOUS
 10
14.8231693714
 20
-30.1490881454
 11
14.4141018415
 21
-30.5416269338
  0
LINE
  5
2E0
100
AcDbEntity
  8
0
100
AcDbLine
 62
253
  6
CONTINUOUS
 10
19.4864870265
 20
-27.4928651826
 11
19.0774194966
 21
-27.885403971
  0
LINE
  5
2E1
100
AcDbEntity
  8
0
100
AcDbLine
 62
7
  6
CONTINUOUS
 10
15.6676947009
 20
-29.693875112
 11
14.8191665635
 21
-30.1181391807
  0
LINE
  5
2E2
100
AcDbEntity
  8
0
100
AcDbLine
 62
7
  6
CONTINUOUS
 10
5.2732250175
 20
-34.8911099537
 11
4.4246968801
 21
-35.3153740224
  0
LINE
  5
2E3
100
AcDbEntity
  8
0
100
AcDbLine
 62
253
  6
CONTINUOUS
 10
4.428699688
 20
-35.3463229871
 11
5.3017227228
 21
-34.9098114697
  0
LINE
  5
2E4
100
AcDbEntity
  8
0
100
AcDbLine
 62
253
  6
CONTINUOUS
 10
14.8231693714
 20
-30.1490881454
 11
15.6961924063
 21
-29.7125766279
  0
LINE
  5
2E5
100
AcDbEntity
  8
RACCORDO
100
AcDbLine
 62
253
  6
CONTINUOUS
 10
3.335779673
 20
-36.6542410823
 11
4.2021403439
 21
-36.2210607468
  0
LINE
  5
2E6
100
AcDbEntity
  8
RACCORDO
100
AcDbLine
 62
253
  6
CONTINUOUS
 10
13.7302493564
 20
-31.4570062406
 11
14.5966100274
 21
-31.0238259051
  0
LINE
  5
2E7
100
AcDbEntity
  8
0
100
AcDbLine
 62
253
  6
CONTINUOUS
 10
4.5687397316
 20
-36.0917855827
 11
6.7098613569
 21
-35.02122477
  0
LINE
  5
2E8
100
AcDbEntity
  8
0
100
AcDbLine
 62
253
  6
CONTINUOUS
 10
14.963209415
 20
-30.894550741
 11
17.1043310403
 21
-29.8239899283
  0
LINE
  5
2E9
100
AcDbEntity
  8
RACCORDO
100
AcDbLine
 62
7
  6
CONTINUOUS
 10
3.3512123896
 20
-37.3787288675
 11
4.4770346335
 21
-36.8158177455
  0
LINE
  5
2EA
100
AcDbEntity
  8
ASSI
100
AcDbLine
 62
7
  6
CONTINUOUS
 10
3.3512123896
 20
-37.3787288675
 11
4.4770346335
 21
-36.8158177455
  0
LINE
  5
2EB
100
AcDbEntity
  8
RACCORDO
100
AcDbLine
 62
7
  6
CONTINUOUS
 10
13.745682073
 20
-32.1814940258
 11
14.871504317
 21
-31.6185829038
  0
LINE
  5
2EC
100
AcDbEntity
  8
ASSI
100
AcDbLine
 62
7
  6
CONTINUOUS
 10
13.745682073
 20
-32.1814940258
 11
14.871504317
 21
-31.6185829038
  0
LINE
  5
2ED
100
AcDbEntity
  8
0
100
AcDbLine
 62
7
  6
CONTINUOUS
 10
9.0766749905
 20
-35.484320965
 11
12.0465234715
 21
-33.9993967245
  0
LINE
  5
2EE
100
AcDbEntity
  8
0
100
AcDbLine
 62
7
  6
CONTINUOUS
 10
19.471144674
 20
-30.2870861233
 11
22.4409931549
 21
-28.8021618828
  0
LINE
  5
2EF
100
AcDbEntity
  8
RACCORDO
100
AcDbLine
 62
7
  6
CONTINUOUS
 10
16.9756991882
 20
-32.6706803394
 11
14.2106100593
 21
-34.0532249039
  0
LINE
  5
2F0
100
AcDbEntity
  8
ASSI
100
AcDbLine
 62
7
  6
CONTINUOUS
 10
16.9756991882
 20
-32.6706803394
 11
14.2106100593
 21
-34.0532249039
  0
LINE
  5
2F1
100
AcDbEntity
  8
RACCORDO
100
AcDbLine
 62
7
  6
CONTINUOUS
 10
6.5812295048
 20
-37.8679151811
 11
3.8161403759
 21
-39.2504597456
  0
LINE
  5
2F2
100
AcDbEntity
  8
ASSI
100
AcDbLine
 62
7
  6
CONTINUOUS
 10
6.5812295048
 20
-37.8679151811
 11
3.8161403759
 21
-39.2504597456
  0
LINE
  5
2F3
100
AcDbEntity
  8
0
100
AcDbLine
 62
7
  6
CONTINUOUS
 10
18.1065986696
 20
-29.4065880219
 11
17.1043310403
 21
-29.8239899283
  0
LINE
  5
2F4
100
AcDbEntity
  8
0
100
AcDbLine
 62
7
  6
CONTINUOUS
 10
7.7121289862
 20
-34.6038228636
 11
6.7098613569
 21
-35.02122477
  0
LINE
  5
2F5
100
AcDbEntity
  8
0
100
AcDbLine
 62
7
  6
CONTINUOUS
 10
19.0186918686
 20
-29.5034246707
 11
15.1367501887
 21
-30.8915122624
  0
LINE
  5
2F6
100
AcDbEntity
  8
0
100
AcDbLine
 62
7
  6
CONTINUOUS
 10
19.3837136775
 20
-30.324401407
 11
15.5017719976
 21
-31.7124889988
  0
LINE
  5
2F7
100
AcDbEntity
  8
0
100
AcDbLine
 62
7
  6
CONTINUOUS
 10
8.9797647999
 20
-34.1505472379
 11
7.7121289862
 21
-34.6038228636
  0
LINE
  5
2F8
100
AcDbEntity
  8
0
100
AcDbLine
 62
7
  6
CONTINUOUS
 10
8.6242221852
 20
-34.7006595124
 11
4.7422805052
 21
-36.0887471041
  0
LINE
  5
2F9
100
AcDbEntity
  8
0
100
AcDbLine
 62
7
  6
CONTINUOUS
 10
8.9892439941
 20
-35.5216362488
 11
5.1073023141
 21
-36.9097238405
  0
LINE
  5
2FA
100
AcDbEntity
  8
0
100
AcDbLine
 62
7
  6
CONTINUOUS
 10
26.2623262093
 20
20.5949923078
 11
26.2623262093
 21
17.2013337282
  0
LINE
  5
2FB
100
AcDbEntity
  8
RACCORDO
100
AcDbLine
 62
7
  6
CONTINUOUS
 10
36.2662341956
 20
-29.8766832245
 11
-13.7969259124
 21
-54.9082632785
  0
LINE
  5
2FC
100
AcDbEntity
  8
ASSI
100
AcDbLine
 62
7
  6
CONTINUOUS
 10
36.2662341956
 20
-29.8766832245
 11
-13.7969259124
 21
-54.9082632785
  0
LINE
  5
2FD
100
AcDbEntity
  8
CURVE
100
AcDbLine
 62
252
  6
CONTINUOUS
 10
-14.4520768014
 20
-55.235838723
 11
36.9213850845
 21
-29.5491077801
  0
LINE
  5
2FE
100
AcDbEntity
  8
ASSI
100
AcDbLine
 62
252
  6
CONTINUOUS
 10
-14.4520768014
 20
-55.235838723
 11
-13.7969259124
 21
-54.9082632785
  0
LINE
  5
2FF
100
AcDbEntity
  8
ASSI
100
AcDbLine
 62
252
  6
CONTINUOUS
 10
36.2662341956
 20
-29.8766832245
 11
36.9213850845
 21
-29.5491077801
  0
LINE
  5
300
100
AcDbEntity
  8
RACCORDO
100
AcDbLine
 62
253
  6
CONTINUOUS
 10
36.2662341956
 20
-30.6561060879
 11
-13.7969259124
 21
-55.6876861419
  0
LINE
  5
301
100
AcDbEntity
  8
ASSI
100
AcDbLine
 62
253
  6
CONTINUOUS
 10
36.2662341956
 20
-30.6561060879
 11
-13.7969259124
 21
-55.6876861419
  0
LINE
  5
302
100
AcDbEntity
  8
RACCORDO
100
AcDbLine
 62
253
  6
CONTINUOUS
 10
33.5808183957
 20
-0.285033174
 11
30.5732815843
 21
1.2187352317
  0
LINE
  5
303
100
AcDbEntity
  8
RACCORDO
100
AcDbLine
 62
7
  6
CONTINUOUS
 10
34.1174747097
 20
-0.250951029
 11
30.5679021603
 21
1.5238352456
  0
LINE
  5
304
100
AcDbEntity
  8
DRAFT
100
AcDbLine
 62
7
  6
CONTINUOUS
 10
30.6014499499
 20
-0.1405391222
 11
30.2031291375
 21
19.6209700167
  0
LINE
  5
305
100
AcDbEntity
  8
ASSI
100
AcDbLine
 62
253
  6
CONTINUOUS
 10
-14.4206872948
 20
-56.985792131
 11
-14.4204725939
 21
-56.9856847507
  0
LINE
  5
306
100
AcDbEntity
  8
RACCORDO
100
AcDbLine
 62
7
  6
CONTINUOUS
 10
35.6424905499
 20
-31.9542032089
 11
34.921419926
 21
-32.3147385209
  0
LINE
  5
307
100
AcDbEntity
  8
ASSI
100
AcDbLine
 62
7
  6
CONTINUOUS
 10
35.6424905499
 20
-31.9542032089
 11
34.913248029
 21
-32.3188244694
  0
LINE
  5
308
100
AcDbEntity
  8
RACCORDO
100
AcDbLine
 62
7
  6
CONTINUOUS
 10
33.4006725894
 20
-33.0751121892
 11
31.0988941978
 21
-34.226001385
  0
LINE
  5
309
100
AcDbEntity
  8
ASSI
100
AcDbLine
 62
7
  6
CONTINUOUS
 10
33.4006725894
 20
-33.0751121892
 11
31.0988941978
 21
-34.226001385
  0
LINE
  5
30A
100
AcDbEntity
  8
RACCORDO
100
AcDbLine
 62
7
  6
CONTINUOUS
 10
29.5842207727
 20
-34.9833380975
 11
27.2805175794
 21
-36.1351896942
  0
LINE
  5
30B
100
AcDbEntity
  8
ASSI
100
AcDbLine
 62
7
  6
CONTINUOUS
 10
29.5842207727
 20
-34.9833380975
 11
27.2805175794
 21
-36.1351896942
  0
LINE
  5
30C
100
AcDbEntity
  8
RACCORDO
100
AcDbLine
 62
7
  6
CONTINUOUS
 10
25.7658441543
 20
-36.8925264067
 11
-4.539287574
 21
-52.0450922709
  0
LINE
  5
30D
100
AcDbEntity
  8
ASSI
100
AcDbLine
 62
7
  6
CONTINUOUS
 10
25.7658441543
 20
-36.8925264067
 11
-4.539287574
 21
-52.0450922709
  0
LINE
  5
30E
100
AcDbEntity
  8
RACCORDO
100
AcDbLine
 62
7
  6
CONTINUOUS
 10
-6.0539609991
 20
-52.8024289834
 11
-8.3576641924
 21
-53.9542805801
  0
LINE
  5
30F
100
AcDbEntity
  8
ASSI
100
AcDbLine
 62
7
  6
CONTINUOUS
 10
-6.0539609991
 20
-52.8024289834
 11
-8.3576641924
 21
-53.9542805801
  0
LINE
  5
310
100
AcDbEntity
  8
RACCORDO
100
AcDbLine
 62
7
  6
CONTINUOUS
 10
-9.8723376175
 20
-54.7116172926
 11
-12.1760408108
 21
-55.8634688893
  0
LINE
  5
311
100
AcDbEntity
  8
ASSI
100
AcDbLine
 62
7
  6
CONTINUOUS
 10
-9.8723376175
 20
-54.7116172926
 11
-12.1760408108
 21
-55.8634688893
  0
LINE
  5
312
100
AcDbEntity
  8
RACCORDO
100
AcDbLine
 62
7
  6
CONTINUOUS
 10
-13.6907142359
 20
-56.6208056018
 11
-14.4206695581
 21
-56.9857832629
  0
LINE
  5
313
100
AcDbEntity
  8
ASSI
100
AcDbLine
 62
7
  6
CONTINUOUS
 10
-13.6907142359
 20
-56.6208056018
 11
-14.4206695581
 21
-56.9857832629
  0
LWPOLYLINE
  5
314
100
AcDbEntity
  8
RACCORDO
100
AcDbPolyline
 62
7
  6
CONTINUOUS
 90
13
 70
0
 10
35.1316615599
 20
-1.7063765845
 10
35.1238363345
 20
-1.5897122557
 10
35.0999199877
 20
-1.4383879047
 10
35.060394612
 20
-1.2888959719
 10
35.0056528418
 20
-1.1432842966
 10
34.9359708474
 20
-1.002467962
 10
34.8508293148
 20
-0.8662223561
 10
34.7501134992
 20
-0.7356028863
 10
34.6343123464
 20
-0.6121560438
 10
34.5027802279
 20
-0.4960925044
 10
34.3547959661
 20
-0.3879994759
 10
34.1905345819
 20
-0.2891210746
 10
34.1184374752
 20
-0.2514473911
  0
LINE
  5
315
100
AcDbEntity
  8
RACCORDO
100
AcDbLine
 62
253
  6
CONTINUOUS
 10
34.4292172982
 20
-2.5787249395
 11
34.5482231872
 21
-6.7537839504
  0
LINE
  5
316
100
AcDbEntity
  8
RACCORDO
100
AcDbLine
 62
253
  6
CONTINUOUS
 10
35.2245872795
 20
-30.3975066825
 11
34.5506816047
 21
-6.7550131592
  0
LINE
  5
317
100
AcDbEntity
  8
ASSI
100
AcDbLine
 62
253
  6
CONTINUOUS
 10
35.2245872795
 20
-30.3975066825
 11
34.5506816047
 21
-6.7550131592
  0
LINE
  5
318
100
AcDbEntity
  8
RACCORDO
100
AcDbLine
 62
7
  6
CONTINUOUS
 10
35.1316545513
 20
-1.7055660279
 11
35.2508763486
 21
-5.8881997035
  0
LINE
  5
319
100
AcDbEntity
  8
RACCORDO
100
AcDbLine
 62
7
  6
CONTINUOUS
 10
35.927240441
 20
-29.5319224356
 11
35.2533347662
 21
-5.8894289123
  0
LINE
  5
31A
100
AcDbEntity
  8
ASSI
100
AcDbLine
 62
7
  6
CONTINUOUS
 10
35.927240441
 20
-29.5319224356
 11
35.2533347662
 21
-5.8894289123
  0
LINE
  5
31B
100
AcDbEntity
  8
RACCORDO
100
AcDbLine
 62
253
  6
CONTINUOUS
 10
36.2662341956
 20
-30.6561060879
 11
36.2662341956
 21
-29.8766832245
  0
LINE
  5
31C
100
AcDbEntity
  8
ASSI
100
AcDbLine
 62
253
  6
CONTINUOUS
 10
36.2662341956
 20
-30.6561060879
 11
36.2662341956
 21
-29.8766832245
  0
LINE
  5
31D
100
AcDbEntity
  8
RACCORDO
100
AcDbLine
 62
7
  6
CONTINUOUS
 10
36.9691779207
 20
-29.8075779505
 11
36.9691779207
 21
-29.0281550871
  0
LINE
  5
31E
100
AcDbEntity
  8
ASSI
100
AcDbLine
 62
7
  6
CONTINUOUS
 10
36.9691779207
 20
-29.8075779505
 11
36.9691779207
 21
-29.0281550871
  0
LINE
  5
31F
100
AcDbEntity
  8
RACCORDO
100
AcDbLine
 62
253
  6
CONTINUOUS
 10
36.9691779102
 20
-29.8076903993
 11
36.9691779207
 21
-29.8075779505
  0
LINE
  5
320
100
AcDbEntity
  8
0
100
AcDbLine
 62
7
  6
CONTINUOUS
 10
24.1534950338
 20
23.1405767201
 11
23.6579763265
 21
23.3662736
  0
ARC
  5
321
100
AcDbEntity
  8
0
100
AcDbCircle
 62
7
  6
CONTINUOUS
 10
19.0623262093
 20
12.2807048487
 40
12.0004243652
100
AcDbArc
 50
67.4829857278
 51
112.5170142721
  0
ARC
  5
322
100
AcDbEntity
  8
RACCORDO
100
AcDbCircle
 62
7
  6
CONTINUOUS
 10
21.780942941
 20
13.8110412739
 40
11.1894366563
100
AcDbArc
 50
63.4373467616
 51
64.6329690554
  0
ARC
  5
323
100
AcDbEntity
  8
RACCORDO
100
AcDbCircle
 62
253
  6
CONTINUOUS
 10
21.9588733837
 20
14.6858341898
 40
10.1921831939
100
AcDbArc
 50
62.4826976405
 51
63.4392990026
  0
ARC
  5
324
100
AcDbEntity
  8
RACCORDO
100
AcDbCircle
 62
253
  6
CONTINUOUS
 10
22.1346740559
 20
15.0220600328
 40
9.8127713391
100
AcDbArc
 50
61.4891622264
 51
62.4860299469
  0
ARC
  5
325
100
AcDbEntity
  8
ASSI
100
AcDbCircle
 62
7
  6
CONTINUOUS
 10
-31.8687679075
 20
-46.6451662835
 40
2.4057854854
100
AcDbArc
 50
238.772670109
 51
243.4798204464
  0
ARC
  5
326
100
AcDbEntity
  8
RACCORDO
100
AcDbCircle
 62
7
  6
CONTINUOUS
 10
34.5650922903
 20
-29.807232866
 40
2.4040667391
100
AcDbArc
 50
359.1288634427
 51
359.9890961236
  0
ARC
  5
327
100
AcDbEntity
  8
ASSI
100
AcDbCircle
 62
7
  6
CONTINUOUS
 10
34.5656487979
 20
-29.8076524534
 40
2.4035308394
100
AcDbArc
 50
359.1386127825
 51
0.0179169744
  0
ARC
  5
328
100
AcDbEntity
  8
ASSI
100
AcDbCircle
 62
7
  6
CONTINUOUS
 10
-31.8701751422
 20
-46.6505813246
 40
2.4004398597
100
AcDbArc
 50
184.2660439857
 51
238.7343843137
  0
ARC
  5
329
100
AcDbEntity
  8
ASSI
100
AcDbCircle
 62
7
  6
CONTINUOUS
 10
-15.4939789827
 20
-54.8387322162
 40
2.4003753504
100
AcDbArc
 50
243.4394255846
 51
296.5656940583
  0
ARC
  5
32A
100
AcDbEntity
  8
ASSI
100
AcDbCircle
 62
7
  6
CONTINUOUS
 10
34.5688597935
 20
-29.8074102412
 40
2.4002955929
100
AcDbArc
 50
296.5700529619
 51
359.1316795616
  0
ARC
  5
32B
100
AcDbEntity
  8
RACCORDO
100
AcDbCircle
 62
7
  6
CONTINUOUS
 10
-31.870504878
 20
-46.6508256158
 40
2.4000733336
100
AcDbArc
 50
184.2608286028
 51
238.7380577732
  0
ARC
  5
32C
100
AcDbEntity
  8
RACCORDO
100
AcDbCircle
 62
7
  6
CONTINUOUS
 10
-15.4939573113
 20
-54.8395415971
 40
2.3996170126
100
AcDbArc
 50
248.5966535607
 51
296.5685229293
  0
ARC
  5
32D
100
AcDbEntity
  8
RACCORDO
100
AcDbCircle
 62
7
  6
CONTINUOUS
 10
34.5696238978
 20
-29.8091387289
 40
2.398404569
100
AcDbArc
 50
296.5721965881
 51
359.1359043177
  0
ARC
  5
32E
100
AcDbEntity
  8
RACCORDO
100
AcDbCircle
 62
7
  6
CONTINUOUS
 10
-15.4958876784
 20
-54.8422958445
 40
2.396341288
100
AcDbArc
 50
243.4421465583
 51
248.6155930895
  0
ARC
  5
32F
100
AcDbEntity
  8
RACCORDO
100
AcDbCircle
 62
7
  6
CONTINUOUS
 10
-31.8743702608
 20
-46.6566910851
 40
2.3930547112
100
AcDbArc
 50
238.7442888127
 51
243.4633248394
  0
ARC
  5
330
100
AcDbEntity
  8
RACCORDO
100
AcDbCircle
 62
7
  6
CONTINUOUS
 10
-31.8793989359
 20
-46.6513147926
 40
2.391173725
100
AcDbArc
 50
179.9898727225
 51
184.2649733609
  0
ARC
  5
331
100
AcDbEntity
  8
ASSI
100
AcDbCircle
 62
7
  6
CONTINUOUS
 10
-31.8815287002
 20
-46.6524724635
 40
2.3889692139
100
AcDbArc
 50
179.9724842803
 51
184.2410691831
  0
ARC
  5
332
100
AcDbEntity
  8
RACCORDO
100
AcDbCircle
 62
253
  6
CONTINUOUS
 10
35.2390543069
 20
-31.1469590536
 40
0.9024105617
100
AcDbArc
 50
296.5544979797
 51
299.1046112683
  0
ARC
  5
333
100
AcDbEntity
  8
ASSI
100
AcDbCircle
 62
253
  6
CONTINUOUS
 10
35.2391120423
 20
-31.1470683273
 40
0.9022870049
100
AcDbArc
 50
296.554320548
 51
298.4119701086
  0
ARC
  5
334
100
AcDbEntity
  8
RACCORDO
100
AcDbCircle
 62
253
  6
CONTINUOUS
 10
-32.5405664914
 20
-47.9904565977
 40
0.9021686406
100
AcDbArc
 50
241.0846943615
 51
243.4472105688
  0
ARC
  5
335
100
AcDbEntity
  8
ASSI
100
AcDbCircle
 62
253
  6
CONTINUOUS
 10
-32.5405664914
 20
-47.9904565977
 40
0.9021686406
100
AcDbArc
 50
241.0846943615
 51
243.4472105688
  0
ARC
  5
336
100
AcDbEntity
  8
0
100
AcDbCircle
 62
7
  6
CONTINUOUS
 10
19.1172555343
 20
-29.5791906125
 40
0.7914158643
100
AcDbArc
 50
289.6750570664
 51
296.5903819
  0
ARC
  5
337
100
AcDbEntity
  8
0
100
AcDbCircle
 62
7
  6
CONTINUOUS
 10
8.7227858508
 20
-34.7764254543
 40
0.7914158643
100
AcDbArc
 50
289.6750570664
 51
296.5903819
  0
ARC
  5
338
100
AcDbEntity
  8
0
100
AcDbCircle
 62
7
  6
CONTINUOUS
 10
-32.1164233955
 20
-36.3674157119
 40
0.7914158643
100
AcDbArc
 50
243.4096181
 51
250.3249429336
  0
ARC
  5
339
100
AcDbEntity
  8
0
100
AcDbCircle
 62
7
  6
CONTINUOUS
 10
18.8668513242
 20
-29.0785331998
 40
0.4512069828
100
AcDbArc
 50
289.6744849609
 51
299.1917637567
  0
ARC
  5
33A
100
AcDbEntity
  8
0
100
AcDbCircle
 62
7
  6
CONTINUOUS
 10
8.4723816407
 20
-34.2757680415
 40
0.4512069828
100
AcDbArc
 50
289.6744849609
 51
299.1917637567
  0
ARC
  5
33B
100
AcDbEntity
  8
0
100
AcDbCircle
 62
7
  6
CONTINUOUS
 10
-31.8660191854
 20
-35.8667582992
 40
0.4512069828
100
AcDbArc
 50
240.8082362433
 51
250.3255150391
  0
SPLINE
  5
33C
100
AcDbEntity
  8
0
100
AcDbSpline
 62
7
  6
CONTINUOUS
 70
0
 71
3
 72
11
 73
7
 74
5
 42
0.0000001
 43
0.0000001
 44
0.0000000001
 12
-1.3398406875
 22
-0.5710039114
 32
0.0
 13
-1.2937073262
 23
0.6689842217
 33
0.0
 40
0.0
 40
0.0
 40
0.0
 40
0.0
 40
0.2460961175
 40
0.4963116713
 40
0.7496653602
 40
1.0
 40
1.0
 40
1.0
 40
1.0
 10
17.1043310403
 20
-29.8239899283
 30
0.0
 10
16.9944211766
 20
-29.8708305435
 30
0.0
 10
16.7587655064
 20
-29.9352117831
 30
0.0
 10
16.3915429731
 20
-29.9396700986
 30
0.0
 10
16.0310075915
 20
-29.8633562092
 30
0.0
 10
15.8041456588
 20
-29.768399936
 30
0.0
 10
15.6961924063
 20
-29.7125766279
 30
0.0
 11
17.1043310403
 21
-29.8239899283
 31
0.0
 11
16.7588868329
 21
-29.9195738811
 31
0.0
 11
16.3945253757
 21
-29.9263269372
 31
0.0
 11
16.0331094876
 21
-29.8519258236
 31
0.0
 11
15.6961924063
 21
-29.7125766279
 31
0.0
  0
SPLINE
  5
33D
100
AcDbEntity
  8
0
100
AcDbSpline
 62
7
  6
CONTINUOUS
 70
0
 71
3
 72
14
 73
10
 74
8
 42
0.0000001
 43
0.0000001
 44
0.0000000001
 12
0.9537885493
 22
-1.4570865236
 32
0.0
 13
-1.5203167034
 23
-0.8493826319
 33
0.0
 40
0.0
 40
0.0
 40
0.0
 40
0.0
 40
0.2957285656
 40
0.4388395288
 40
0.5734305929
 40
0.6967784578
 40
0.8077503035
 40
0.9074994037
 40
1.0
 40
1.0
 40
1.0
 40
1.0
 10
19.0774194966
 20
-27.885403971
 30
0.0
 10
19.1714403365
 20
-28.0290380068
 30
0.0
 10
19.2834566649
 20
-28.2622979634
 30
0.0
 10
19.3644664138
 20
-28.5859658782
 30
0.0
 10
19.3869360806
 20
-28.8187378319
 30
0.0
 10
19.3704891251
 20
-29.0335160838
 30
0.0
 10
19.3150972069
 20
-29.2212454788
 30
0.0
 10
19.2217575961
 20
-29.3733495013
 30
0.0
 10
19.1337971222
 20
-29.4462439088
 30
0.0
 10
19.0869203883
 20
-29.4724333754
 30
0.0
 11
19.0774194966
 21
-27.885403971
 31
0.0
 11
19.2996976294
 21
-28.3499772407
 31
0.0
 11
19.3593831508
 21
-28.5919523049
 31
0.0
 11
19.3805003089
 21
-28.82538911
 31
0.0
 11
19.3620659104
 21
-29.039406659
 31
0.0
 11
19.3049367705
 21
-29.2240268257
 31
0.0
 11
19.2117782811
 21
-29.3706475528
 31
0.0
 11
19.0869203883
 21
-29.4724333754
 31
0.0
  0
SPLINE
  5
33E
100
AcDbEntity
  8
0
100
AcDbSpline
 62
7
  6
CONTINUOUS
 70
0
 71
3
 72
15
 73
11
 74
9
 42
0.0000001
 43
0.0000001
 44
0.0000000001
 12
0.002422337
 22
-0.763876248
 32
0.0
 13
0.4216552282
 23
-0.6369612693
 33
0.0
 40
0.0
 40
0.0
 40
0.0
 40
0.0
 40
0.3907614843
 40
0.5576100181
 40
0.7013176235
 40
0.819314962
 40
0.9095290489
 40
0.9700975905
 40
0.9889383855
 40
1.0
 40
1.0
 40
1.0
 40
1.0
 10
14.8231693714
 20
-30.1490881454
 30
0.0
 10
14.8234848901
 20
-30.2485859509
 30
0.0
 10
14.8328530056
 20
-30.3907854044
 30
0.0
 10
14.8613250625
 20
-30.5671433363
 30
0.0
 10
14.8849336599
 20
-30.673744583
 30
0.0
 10
14.9092396122
 20
-30.7600487459
 30
0.0
 10
14.9315250051
 20
-30.8247816878
 30
0.0
 10
14.9479056109
 20
-30.8648031716
 30
0.0
 10
14.9580213313
 20
-30.8854927451
 30
0.0
 10
14.9616546858
 20
-30.8922021343
 30
0.0
 10
14.963209415
 20
-30.894550741
 30
0.0
 11
14.8231693714
 21
-30.1490881454
 31
0.0
 11
14.8431314902
 21
-30.4469148223
 31
0.0
 11
14.8635635261
 21
-30.5727186925
 31
0.0
 11
14.8874530456
 21
-30.6798631023
 31
0.0
 11
14.9120844325
 21
-30.7665681215
 31
0.0
 11
14.9347201701
 21
-30.8316572125
 31
0.0
 11
14.9526393976
 21
-30.8743133504
 31
0.0
 11
14.9590062295
 21
-30.8872205666
 31
0.0
 11
14.963209415
 21
-30.894550741
 31
0.0
  0
SPLINE
  5
33F
100
AcDbEntity
  8
0
100
AcDbSpline
 62
7
  6
CONTINUOUS
 70
0
 71
3
 72
11
 73
7
 74
5
 42
0.0000001
 43
0.0000001
 44
0.0000000001
 12
-1.3398406875
 22
-0.5710039114
 32
0.0
 13
-1.2937073262
 23
0.6689842217
 33
0.0
 40
0.0
 40
0.0
 40
0.0
 40
0.0
 40
0.2460961175
 40
0.4963116713
 40
0.7496653602
 40
1.0
 40
1.0
 40
1.0
 40
1.0
 10
6.7098613569
 20
-35.02122477
 30
0.0
 10
6.5999514931
 20
-35.0680653852
 30
0.0
 10
6.364295823
 20
-35.1324466248
 30
0.0
 10
5.9970732896
 20
-35.1369049403
 30
0.0
 10
5.636537908
 20
-35.060591051
 30
0.0
 10
5.4096759753
 20
-34.9656347777
 30
0.0
 10
5.3017227228
 20
-34.9098114697
 30
0.0
 11
6.7098613569
 21
-35.02122477
 31
0.0
 11
6.3644171495
 21
-35.1168087228
 31
0.0
 11
6.0000556922
 21
-35.1235617789
 31
0.0
 11
5.6386398041
 21
-35.0491606653
 31
0.0
 11
5.3017227228
 21
-34.9098114697
 31
0.0
  0
SPLINE
  5
340
100
AcDbEntity
  8
0
100
AcDbSpline
 62
7
  6
CONTINUOUS
 70
0
 71
3
 72
14
 73
10
 74
8
 42
0.0000001
 43
0.0000001
 44
0.0000000001
 12
0.9537885493
 22
-1.4570865236
 32
0.0
 13
-1.5203167034
 23
-0.8493826319
 33
0.0
 40
0.0
 40
0.0
 40
0.0
 40
0.0
 40
0.2957285656
 40
0.4388395288
 40
0.5734305929
 40
0.6967784578
 40
0.8077503035
 40
0.9074994037
 40
1.0
 40
1.0
 40
1.0
 40
1.0
 10
8.6829498132
 20
-33.0826388127
 30
0.0
 10
8.776970653
 20
-33.2262728485
 30
0.0
 10
8.8889869815
 20
-33.4595328051
 30
0.0
 10
8.9699967303
 20
-33.7832007199
 30
0.0
 10
8.9924663971
 20
-34.0159726737
 30
0.0
 10
8.9760194416
 20
-34.2307509255
 30
0.0
 10
8.9206275235
 20
-34.4184803205
 30
0.0
 10
8.8272879127
 20
-34.570584343
 30
0.0
 10
8.7393274387
 20
-34.6434787505
 30
0.0
 10
8.6924507049
 20
-34.6696682171
 30
0.0
 11
8.6829498132
 21
-33.0826388127
 31
0.0
 11
8.9052279459
 21
-33.5472120824
 31
0.0
 11
8.9649134673
 21
-33.7891871466
 31
0.0
 11
8.9860306255
 21
-34.0226239517
 31
0.0
 11
8.967596227
 21
-34.2366415007
 31
0.0
 11
8.910467087
 21
-34.4212616674
 31
0.0
 11
8.8173085976
 21
-34.5678823945
 31
0.0
 11
8.6924507049
 21
-34.6696682171
 31
0.0
  0
SPLINE
  5
341
100
AcDbEntity
  8
0
100
AcDbSpline
 62
7
  6
CONTINUOUS
 70
0
 71
3
 72
15
 73
11
 74
9
 42
0.0000001
 43
0.0000001
 44
0.0000000001
 12
0.002422337
 22
-0.763876248
 32
0.0
 13
0.4216552282
 23
-0.6369612693
 33
0.0
 40
0.0
 40
0.0
 40
0.0
 40
0.0
 40
0.3907614843
 40
0.5576100181
 40
0.7013176235
 40
0.819314962
 40
0.9095290489
 40
0.9700975905
 40
0.9889383855
 40
1.0
 40
1.0
 40
1.0
 40
1.0
 10
4.428699688
 20
-35.3463229871
 30
0.0
 10
4.4290152066
 20
-35.4458207926
 30
0.0
 10
4.4383833221
 20
-35.5880202462
 30
0.0
 10
4.4668553791
 20
-35.764378178
 30
0.0
 10
4.4904639765
 20
-35.8709794247
 30
0.0
 10
4.5147699288
 20
-35.9572835876
 30
0.0
 10
4.5370553217
 20
-36.0220165295
 30
0.0
 10
4.5534359275
 20
-36.0620380134
 30
0.0
 10
4.5635516479
 20
-36.0827275868
 30
0.0
 10
4.5671850024
 20
-36.089436976
 30
0.0
 10
4.5687397316
 20
-36.0917855827
 30
0.0
 11
4.428699688
 21
-35.3463229871
 31
0.0
 11
4.4486618067
 21
-35.644149664
 31
0.0
 11
4.4690938427
 21
-35.7699535342
 31
0.0
 11
4.4929833621
 21
-35.877097944
 31
0.0
 11
4.5176147491
 21
-35.9638029632
 31
0.0
 11
4.5402504867
 21
-36.0288920542
 31
0.0
 11
4.5581697142
 21
-36.0715481921
 31
0.0
 11
4.564536546
 21
-36.0844554083
 31
0.0
 11
4.5687397316
 21
-36.0917855827
 31
0.0
  0
SPLINE
  5
342
100
AcDbEntity
  8
0
100
AcDbSpline
 62
7
  6
CONTINUOUS
 70
0
 71
3
 72
11
 73
7
 74
5
 42
0.0000001
 43
0.0000001
 44
0.0000000001
 12
-1.2937073262
 22
-0.6689842217
 32
0.0
 13
-1.3398406875
 23
0.5710039114
 33
0.0
 40
0.0
 40
0.0
 40
0.0
 40
0.0
 40
0.2503346398
 40
0.5036883287
 40
0.7539038825
 40
1.0
 40
1.0
 40
1.0
 40
1.0
 10
-28.6953602675
 20
-36.5008017273
 30
0.0
 10
-28.80331352
 20
-36.5566250354
 30
0.0
 10
-29.0301754527
 20
-36.6515813086
 30
0.0
 10
-29.3907108343
 20
-36.727895198
 30
0.0
 10
-29.7579333676
 20
-36.7234368825
 30
0.0
 10
-29.9935890378
 20
-36.6590556429
 30
0.0
 10
-30.1034989015
 20
-36.6122150277
 30
0.0
 11
-28.6953602675
 21
-36.5008017273
 31
0.0
 11
-29.0322773488
 21
-36.640150923
 31
0.0
 11
-29.3936932369
 21
-36.7145520366
 31
0.0
 11
-29.7580546941
 21
-36.7077989805
 31
0.0
 11
-30.1034989015
 21
-36.6122150277
 31
0.0
  0
SPLINE
  5
343
100
AcDbEntity
  8
0
100
AcDbSpline
 62
7
  6
CONTINUOUS
 70
0
 71
3
 72
14
 73
10
 74
8
 42
0.0000001
 43
0.0000001
 44
0.0000000001
 12
-0.9537885493
 22
-1.4570865236
 32
0.0
 13
1.5203167034
 23
-0.8493826319
 33
0.0
 40
0.0
 40
0.0
 40
0.0
 40
0.0
 40
0.2957285656
 40
0.4388395288
 40
0.5734305929
 40
0.6967784578
 40
0.8077503035
 40
0.9074994037
 40
1.0
 40
1.0
 40
1.0
 40
1.0
 10
-32.0765873578
 20
-34.6736290703
 30
0.0
 10
-32.1706081977
 20
-34.8172631062
 30
0.0
 10
-32.2826245261
 20
-35.0505230628
 30
0.0
 10
-32.363634275
 20
-35.3741909776
 30
0.0
 10
-32.3861039418
 20
-35.6069629313
 30
0.0
 10
-32.3696569863
 20
-35.8217411832
 30
0.0
 10
-32.3142650681
 20
-36.0094705782
 30
0.0
 10
-32.2209254573
 20
-36.1615746006
 30
0.0
 10
-32.1329649834
 20
-36.2344690081
 30
0.0
 10
-32.0860882495
 20
-36.2606584748
 30
0.0
 11
-32.0765873578
 21
-34.6736290703
 31
0.0
 11
-32.2988654906
 21
-35.13820234
 31
0.0
 11
-32.358551012
 21
-35.3801774043
 31
0.0
 11
-32.3796681701
 21
-35.6136142094
 31
0.0
 11
-32.3612337716
 21
-35.8276317584
 31
0.0
 11
-32.3041046317
 21
-36.012251925
 31
0.0
 11
-32.2109461423
 21
-36.1588726522
 31
0.0
 11
-32.0860882495
 21
-36.2606584748
 31
0.0
  0
SPLINE
  5
344
100
AcDbEntity
  8
0
100
AcDbSpline
 62
7
  6
CONTINUOUS
 70
0
 71
3
 72
14
 73
10
 74
8
 42
0.0000001
 43
0.0000001
 44
0.0000000001
 12
-3.7102632168
 22
-1.536737844
 32
0.0
 13
-0.0025481779
 23
-4.0159195517
 33
0.0
 40
0.0
 40
0.0
 40
0.0
 40
0.0
 40
0.307510892
 40
0.4455309163
 40
0.5729072328
 40
0.6902067861
 40
0.7988797476
 40
0.9011789253
 40
1.0
 40
1.0
 40
1.0
 40
1.0
 10
14.4668217075
 20
23.3661857073
 30
0.0
 10
14.0865062571
 20
23.2086644989
 30
0.0
 10
13.5494659054
 20
22.9391643141
 30
0.0
 10
12.9254769483
 20
22.4910391948
 30
0.0
 10
12.5467221512
 20
22.1439007464
 30
0.0
 10
12.245809179
 20
21.7765176739
 30
0.0
 10
12.0269964169
 20
21.3926598079
 30
0.0
 10
11.8930768721
 20
20.997330244
 30
0.0
 10
11.8624101472
 20
20.7272781366
 30
0.0
 10
11.8623262093
 20
20.5949923078
 30
0.0
 11
14.4668217075
 21
23.3661857073
 31
0.0
 11
13.3698325574
 21
22.7990086969
 31
0.0
 11
12.9210232677
 21
22.4737492833
 31
0.0
 11
12.5459066322
 21
22.1259653474
 31
0.0
 11
12.2497297958
 21
21.7596565412
 31
0.0
 11
12.0358620608
 21
21.3792295205
 31
0.0
 11
11.9061328716
 21
20.98942469
 31
0.0
 11
11.8623262093
 21
20.5949923078
 31
0.0
  0
SPLINE
  5
345
100
AcDbEntity
  8
0
100
AcDbSpline
 62
7
  6
CONTINUOUS
 70
0
 71
3
 72
13
 73
9
 74
7
 42
0.0000001
 43
0.0000001
 44
0.0000000001
 12
3.1036405414
 22
-1.5518202707
 32
0.0
 13
-0.0022017656
 23
-3.4699749156
 33
0.0
 40
0.0
 40
0.0
 40
0.0
 40
0.0
 40
0.3014514498
 40
0.4381014834
 40
0.5651357017
 40
0.7928638833
 40
0.8978735267
 40
1.0
 40
1.0
 40
1.0
 40
1.0
 10
24.1534950338
 20
23.1405767201
 30
0.0
 10
24.4653606808
 20
22.9846438966
 30
0.0
 10
24.9038627634
 20
22.7236372598
 30
0.0
 10
25.4088068841
 20
22.3064573366
 30
0.0
 10
25.8027521764
 20
21.8958628832
 30
0.0
 10
26.092787257
 20
21.4374766735
 30
0.0
 10
26.2383660689
 20
20.9533607957
 30
0.0
 10
26.2624011621
 20
20.7131177414
 30
0.0
 10
26.2623262093
 20
20.5949923078
 30
0.0
 11
24.1534950338
 21
23.1405767201
 31
0.0
 11
25.0465327981
 21
22.5959111381
 31
0.0
 11
25.410895259
 21
22.2924653402
 31
0.0
 11
25.7142588434
 21
21.9726526644
 31
0.0
 11
26.1240581864
 21
21.2970060873
 31
0.0
 11
26.2276868645
 21
20.9476716648
 31
0.0
 11
26.2623262093
 21
20.5949923078
 31
0.0
  0
SPLINE
  5
346
100
AcDbEntity
  8
0
100
AcDbSpline
 62
7
  6
CONTINUOUS
 70
0
 71
3
 72
21
 73
17
 74
15
 42
0.0000001
 43
0.0000001
 44
0.0000000001
 12
-0.0088513738
 22
-13.9497344412
 32
0.0
 13
-12.4770243032
 23
6.2385121516
 33
0.0
 40
0.0
 40
0.0
 40
0.0
 40
0.0
 40
0.0382734503
 40
0.0788839963
 40
0.1236145691
 40
0.1735518802
 40
0.2290262791
 40
0.2899369707
 40
0.3557663293
 40
0.4257002867
 40
0.4987928617
 40
0.5738984964
 40
0.7251676153
 40
0.870159524
 40
0.9375397551
 40
1.0
 40
1.0
 40
1.0
 40
1.0
 10
26.2623262093
 20
20.5949923078
 30
0.0
 10
26.2622132851
 20
20.4170241521
 30
0.0
 10
26.2053603898
 20
20.0484071411
 30
0.0
 10
25.9618615438
 20
19.5210846778
 30
0.0
 10
25.5692507037
 20
19.0234936815
 30
0.0
 10
25.0386414441
 20
18.5648255757
 30
0.0
 10
24.3829390386
 20
18.1503294701
 30
0.0
 10
23.6143712862
 20
17.7893654252
 30
0.0
 10
22.7493995108
 20
17.4881615866
 30
0.0
 10
21.8060234878
 20
17.2525115428
 30
0.0
 10
20.8038835599
 20
17.0890085432
 30
0.0
 10
19.4154310865
 20
16.9693758795
 30
0.0
 10
17.6828341677
 20
17.0105933087
 30
0.0
 10
16.0086460352
 20
17.2997127771
 30
0.0
 10
14.7879041501
 20
17.6828300776
 30
0.0
 10
14.2309300491
 20
17.9195215634
 30
0.0
 10
13.9711573848
 20
18.0494078956
 30
0.0
 11
26.2623262093
 21
20.5949923078
 31
0.0
 11
26.1838491327
 21
20.066886785
 31
0.0
 11
25.951958268
 21
19.5500152526
 31
0.0
 11
25.5710087039
 21
19.0558208148
 31
0.0
 11
25.0485502047
 21
18.5950541614
 31
0.0
 11
24.3970842811
 21
18.1773927403
 31
0.0
 11
23.6298466865
 21
17.8122675348
 31
0.0
 11
22.7636569947
 21
17.5073176178
 31
0.0
 11
21.8176469223
 21
17.2690259908
 31
0.0
 11
20.8116098941
 21
17.1031375858
 31
0.0
 11
19.7678320258
 21
17.0125221268
 31
0.0
 11
17.6582986503
 21
17.0641263193
 31
0.0
 11
15.6673801446
 21
17.420707783
 31
0.0
 11
14.7713687499
 21
17.7046870826
 31
0.0
 11
13.9711573848
 21
18.0494078956
 31
0.0
  0
SPLINE
  5
347
100
AcDbEntity
  8
0
100
AcDbSpline
 62
7
  6
CONTINUOUS
 70
0
 71
3
 72
13
 73
9
 74
7
 42
0.0000001
 43
0.0000001
 44
0.0000000001
 12
-0.0022017656
 22
-3.4699749156
 32
0.0
 13
3.1036405414
 23
-1.5518202707
 33
0.0
 40
0.0
 40
0.0
 40
0.0
 40
0.0
 40
0.1021264733
 40
0.2071361167
 40
0.4348642983
 40
0.5618985166
 40
0.6985485502
 40
1.0
 40
1.0
 40
1.0
 40
1.0
 10
11.8623262093
 20
20.5949923078
 30
0.0
 10
11.8622512564
 20
20.4768668743
 30
0.0
 10
11.8862863497
 20
20.23662382
 30
0.0
 10
12.0318651616
 20
19.7525079422
 30
0.0
 10
12.3219002422
 20
19.2941217325
 30
0.0
 10
12.7158455345
 20
18.8835272791
 30
0.0
 10
13.2207896552
 20
18.4663473559
 30
0.0
 10
13.6592917378
 20
18.205340719
 30
0.0
 10
13.9711573848
 20
18.0494078956
 30
0.0
 11
11.8623262093
 21
20.5949923078
 31
0.0
 11
11.8969655541
 21
20.2423129509
 31
0.0
 11
12.0005942322
 21
19.8929785284
 31
0.0
 11
12.4103935752
 21
19.2173319513
 31
0.0
 11
12.7137571596
 21
18.8975192755
 31
0.0
 11
13.0781196205
 21
18.5940734776
 31
0.0
 11
13.9711573848
 21
18.0494078956
 31
0.0
  0
SPLINE
  5
348
100
AcDbEntity
  8
RACCORDO
100
AcDbSpline
 62
7
  6
CONTINUOUS
 70
0
 71
3
 72
20
 73
16
 74
14
 42
0.0000001
 43
0.0000001
 44
0.0000000001
 12
0.0
 22
0.5679163227
 32
0.0
 13
0.4877422104
 23
-0.2909235051
 33
0.0
 40
0.0
 40
0.0
 40
0.0
 40
0.0
 40
0.0023587963
 40
0.00453753
 40
0.0121675336
 40
0.0264578304
 40
0.0487144739
 40
0.0801412112
 40
0.1213977492
 40
0.1731380444
 40
0.2361458061
 40
0.3112689752
 40
0.4975570143
 40
0.7284302887
 40
1.0
 40
1.0
 40
1.0
 40
1.0
 10
14.983467986
 20
-24.3892281012
 30
0.0
 10
14.983467986
 20
-24.3887815683
 30
0.0
 10
14.9832339739
 20
-24.387146391
 30
0.0
 10
14.9831107995
 20
-24.3909073609
 30
0.0
 10
14.9842742806
 20
-24.3941080814
 30
0.0
 10
14.9866681419
 20
-24.4029206721
 30
0.0
 10
14.9916385686
 20
-24.4144098204
 30
0.0
 10
14.9995272234
 20
-24.4307442465
 30
0.0
 10
15.0113845188
 20
-24.4510519227
 30
0.0
 10
15.0279438363
 20
-24.4755563618
 30
0.0
 10
15.0500240317
 20
-24.5039426389
 30
0.0
 10
15.0907325929
 20
-24.5499761601
 30
0.0
 10
15.1584878365
 20
-24.6142327376
 30
0.0
 10
15.2613507917
 20
-24.6946280868
 30
0.0
 10
15.3414094162
 20
-24.7462359156
 30
0.0
 10
15.3855614199
 20
-24.772571253
 30
0.0
 11
14.983467986
 21
-24.3892281012
 31
0.0
 11
14.9832755128
 21
-24.3879024017
 31
0.0
 11
14.9831942473
 21
-24.3891370686
 31
0.0
 11
14.9839684203
 21
-24.3934005542
 31
0.0
 11
14.9863422629
 21
-24.4011613107
 31
0.0
 11
14.9910600062
 21
-24.4128877872
 31
0.0
 11
14.9988763245
 21
-24.428932961
 31
0.0
 11
15.0105839978
 21
-24.4492284662
 31
0.0
 11
15.0269844948
 21
-24.4736098618
 31
0.0
 11
15.0488792842
 21
-24.5019127069
 31
0.0
 11
15.0770458275
 21
-24.5339569718
 31
0.0
 11
15.1533261107
 21
-24.6072653332
 31
0.0
 11
15.2563322405
 21
-24.6883907084
 31
0.0
 11
15.3855614199
 21
-24.772571253
 31
0.0
  0
SPLINE
  5
349
100
AcDbEntity
  8
RACCORDO
100
AcDbSpline
 62
253
  6
CONTINUOUS
 70
0
 71
3
 72
21
 73
17
 74
15
 42
0.0000001
 43
0.0000001
 44
0.0000000001
 12
-3.4556359517
 22
1.4351062465
 32
0.0
 13
3.3467536233
 23
1.6733768117
 33
0.0
 40
0.0
 40
0.0
 40
0.0
 40
0.0
 40
0.1567966019
 40
0.2276208936
 40
0.2932850949
 40
0.3540319973
 40
0.410417642
 40
0.4633365805
 40
0.5140333388
 40
0.564016563
 40
0.6148874068
 40
0.6681283896
 40
0.7249426099
 40
0.7861840498
 40
0.8523653535
 40
1.0
 40
1.0
 40
1.0
 40
1.0
 10
15.3832585725
 20
-24.9944549386
 30
0.0
 10
15.2026479143
 20
-24.9194483443
 30
0.0
 10
14.946865566
 20
-24.7920211518
 30
0.0
 10
14.6464678221
 20
-24.5823215763
 30
0.0
 10
14.4611264761
 20
-24.4196430806
 30
0.0
 10
14.3102089457
 20
-24.2477596538
 30
0.0
 10
14.1954224347
 20
-24.0682862324
 30
0.0
 10
14.1184757622
 20
-23.8828989332
 30
0.0
 10
14.0807526735
 20
-23.6937117578
 30
0.0
 10
14.0831376973
 20
-23.5033027728
 30
0.0
 10
14.1255743369
 20
-23.3144993635
 30
0.0
 10
14.2070344982
 20
-23.1298191015
 30
0.0
 10
14.3260472723
 20
-22.9512889277
 30
0.0
 10
14.4809539904
 20
-22.7805569819
 30
0.0
 10
14.742406669
 20
-22.5573837244
 30
0.0
 10
14.9731846444
 20
-22.4193624964
 30
0.0
 10
15.1378835737
 20
-22.3370130317
 30
0.0
 11
15.3832585725
 21
-24.9944549386
 31
0.0
 11
14.8610002875
 21
-24.7271310244
 31
0.0
 11
14.6442900843
 21
-24.5745971719
 31
0.0
 11
14.4603973438
 21
-24.4116475549
 31
0.0
 11
14.311352602
 21
-24.2400323577
 31
0.0
 11
14.1987280884
 21
-24.0616240852
 31
0.0
 11
14.1237670083
 21
-23.878350266
 31
0.0
 11
14.0872487287
 21
-23.6922021672
 31
0.0
 11
14.089555818
 21
-23.505189954
 31
0.0
 11
14.13065856
 21
-23.3193329634
 31
0.0
 11
14.2100828306
 21
-23.1366340061
 31
0.0
 11
14.3269639525
 21
-22.9590619144
 31
0.0
 11
14.4800305075
 21
-22.7885292568
 31
0.0
 11
14.6676203776
 21
-22.6268700159
 31
0.0
 11
15.1378835737
 21
-22.3370130317
 31
0.0
  0
SPLINE
  5
34A
100
AcDbEntity
  8
RACCORDO
100
AcDbSpline
 62
253
  6
CONTINUOUS
 70
0
 71
3
 72
9
 73
5
 74
3
 42
0.0000001
 43
0.0000001
 44
0.0000000001
 12
0.3204426623
 22
-0.1602213312
 32
0.0
 13
0.2407621969
 23
-0.2653072546
 33
0.0
 40
0.0
 40
0.0
 40
0.0
 40
0.0
 40
0.4773049012
 40
1.0
 40
1.0
 40
1.0
 40
1.0
 10
15.1378835737
 20
-22.3370130317
 30
0.0
 10
15.1888665248
 20
-22.3625045072
 30
0.0
 10
15.2895416322
 20
-22.4284688431
 30
0.0
 10
15.3766150004
 20
-22.511028654
 30
0.0
 10
15.4185634071
 20
-22.5572535879
 30
0.0
 11
15.1378835737
 21
-22.3370130317
 31
0.0
 11
15.2818732214
 21
-22.4292554895
 31
0.0
 11
15.4185634071
 21
-22.5572535879
 31
0.0
  0
SPLINE
  5
34B
100
AcDbEntity
  8
RACCORDO
100
AcDbSpline
 62
253
  6
CONTINUOUS
 70
0
 71
3
 72
11
 73
7
 74
5
 42
0.0000001
 43
0.0000001
 44
0.0000000001
 12
0.0032379753
 22
0.8598758125
 32
0.0
 13
0.6748329787
 23
0.5329140159
 33
0.0
 40
0.0
 40
0.0
 40
0.0
 40
0.0
 40
0.2223915184
 40
0.4573371503
 40
0.7145568417
 40
1.0
 40
1.0
 40
1.0
 40
1.0
 10
14.9834781673
 20
-24.3866642272
 30
0.0
 10
14.9837182001
 20
-24.322921198
 30
0.0
 10
15.0033246194
 20
-24.1912659179
 30
0.0
 10
15.0873512675
 20
-24.0022505611
 30
0.0
 10
15.2225205361
 20
-23.8230842642
 30
0.0
 10
15.3380789234
 20
-23.7177475742
 30
0.0
 10
15.4022877423
 20
-23.667042021
 30
0.0
 11
14.9834781673
 21
-24.3866642272
 31
0.0
 11
15.0108670881
 21
-24.1974053318
 31
0.0
 11
15.0910390248
 21
-24.011968651
 31
0.0
 11
15.22238409
 21
-23.8340123953
 31
0.0
 11
15.4022877423
 21
-23.667042021
 31
0.0
  0
SPLINE
  5
34C
100
AcDbEntity
  8
DRAFT
100
AcDbSpline
 62
7
  6
CONTINUOUS
 70
0
 71
3
 72
24
 73
20
 74
18
 42
0.0000001
 43
0.0000001
 44
0.0000000001
 12
15.9989160173
 22
-7.9994580086
 32
0.0
 13
-0.1809430603
 23
17.8864166833
 33
0.0
 40
0.0
 40
0.0
 40
0.0
 40
0.0
 40
0.0626518247
 40
0.1300068585
 40
0.2011636928
 40
0.2751038465
 40
0.3506626235
 40
0.426619248
 40
0.5017385463
 40
0.5748155457
 40
0.6447283832
 40
0.7104915204
 40
0.7713144008
 40
0.8266892733
 40
0.8764903205
 40
0.9211154461
 40
0.9616433107
 40
0.9809641605
 40
1.0
 40
1.0
 40
1.0
 40
1.0
 10
12.5449282185
 20
16.8166780702
 30
0.0
 10
12.8790486456
 20
16.6496178566
 30
0.0
 10
13.5938721756
 20
16.3451025486
 30
0.0
 10
14.7400175445
 20
15.9862777774
 30
0.0
 10
15.9788795905
 20
15.7148672327
 30
0.0
 10
17.2837053874
 20
15.5366067121
 30
0.0
 10
18.6267570498
 20
15.4554323777
 30
0.0
 10
19.9791507819
 20
15.4730819325
 30
0.0
 10
21.311856413
 20
15.5891727532
 30
0.0
 10
22.5963004171
 20
15.8011659811
 30
0.0
 10
23.8050408489
 20
16.1045095108
 30
0.0
 10
24.9124207977
 20
16.4927334882
 30
0.0
 10
25.8951912511
 20
16.9578076683
 30
0.0
 10
26.7330308997
 20
17.4904437138
 30
0.0
 10
27.4087174668
 20
18.0811364721
 30
0.0
 10
27.9074281642
 20
18.7199485435
 30
0.0
 10
28.1672027362
 20
19.294815517
 30
0.0
 10
28.265615139
 20
19.7562009796
 30
0.0
 10
28.2803330465
 20
19.9854253531
 30
0.0
 10
28.2791849122
 20
20.0989196723
 30
0.0
 11
12.5449282185
 21
16.8166780702
 31
0.0
 11
13.5740273513
 21
16.3729831884
 31
0.0
 11
14.7227349373
 21
16.009639872
 31
0.0
 11
15.965515848
 21
15.7348117519
 31
0.0
 11
17.2757303598
 21
15.5542910775
 31
0.0
 11
18.6247724126
 21
15.4720766232
 31
0.0
 11
19.9833161759
 21
15.48995145
 31
0.0
 11
21.3218467025
 21
15.6075194732
 31
0.0
 11
22.6112477797
 21
15.8222114169
 31
0.0
 11
23.8234943449
 21
16.1293659235
 31
0.0
 11
24.932248318
 21
16.5223162769
 31
0.0
 11
25.9133539652
 21
16.9925147465
 31
0.0
 11
26.7455160125
 21
17.5297426845
 31
0.0
 11
27.4106535475
 21
18.1223055096
 31
0.0
 11
27.8942975098
 21
18.7573257952
 31
0.0
 11
28.1859317973
 21
19.4210130147
 31
0.0
 11
28.2575636525
 21
19.7591064452
 31
0.0
 11
28.2791849122
 21
20.0989196723
 31
0.0
  0
SPLINE
  5
34D
100
AcDbEntity
  8
RACCORDO
100
AcDbSpline
 62
7
  6
CONTINUOUS
 70
0
 71
3
 72
15
 73
11
 74
9
 42
0.0000001
 43
0.0000001
 44
0.0000000001
 12
-0.1145530705
 22
5.683211857
 32
0.0
 13
-5.0842517182
 23
2.5421258591
 33
0.0
 40
0.0
 40
0.0
 40
0.0
 40
0.0
 40
0.1093286957
 40
0.2202045276
 40
0.3345810084
 40
0.4537841546
 40
0.579126985
 40
0.7116098116
 40
0.8519115297
 40
1.0
 40
1.0
 40
1.0
 40
1.0
 10
30.2031291385
 20
19.6209699694
 30
0.0
 10
30.1989544926
 20
19.8280826827
 30
0.0
 10
30.1500563312
 20
20.2454781084
 30
0.0
 10
29.9592278682
 20
20.8534540294
 30
0.0
 10
29.6588569058
 20
21.4362009954
 30
0.0
 10
29.2569412785
 20
21.9877017218
 30
0.0
 10
28.7614799554
 20
22.5049124374
 30
0.0
 10
28.1789593451
 20
22.9865406487
 30
0.0
 10
27.5152759016
 20
23.43071327
 30
0.0
 10
27.0355652954
 20
23.6939005824
 30
0.0
 10
26.7845922755
 20
23.8193870924
 30
0.0
 11
30.2031291385
 21
19.6209699694
 31
0.0
 11
30.1314944634
 21
20.2382919328
 31
0.0
 11
29.9447606187
 21
20.8402526202
 31
0.0
 11
29.6491892658
 21
21.4193404773
 31
0.0
 11
29.2525244332
 21
21.9686956436
 31
0.0
 11
28.7617814569
 21
22.4852416896
 31
0.0
 11
28.1830793266
 21
22.9671490406
 31
0.0
 11
27.5216516511
 21
23.4127516725
 31
0.0
 11
26.7845922755
 21
23.8193870924
 31
0.0
  0
SPLINE
  5
34E
100
AcDbEntity
  8
RACCORDO
100
AcDbSpline
 62
7
  6
CONTINUOUS
 70
0
 71
3
 72
24
 73
20
 74
18
 42
0.0000001
 43
0.0000001
 44
0.0000000001
 12
-19.29260175
 22
9.1501049222
 32
0.0
 13
-0.4303018823
 23
-21.3481554862
 33
0.0
 40
0.0
 40
0.0
 40
0.0
 40
0.0
 40
0.0628801356
 40
0.1297684983
 40
0.1999450123
 40
0.2724993198
 40
0.3463861031
 40
0.4205017148
 40
0.4937288614
 40
0.5649938023
 40
0.6333213668
 40
0.6978974785
 40
0.7581402569
 40
0.813784339
 40
0.8649657137
 40
0.9123003464
 40
0.9568283075
 40
0.9784798556
 40
1.0
 40
1.0
 40
1.0
 40
1.0
 10
26.5746684283
 20
23.9216143851
 30
0.0
 10
26.1702946237
 20
24.1134009978
 30
0.0
 10
25.3124869241
 20
24.4611737862
 30
0.0
 10
23.9467574965
 20
24.8674396016
 30
0.0
 10
22.4840174914
 20
25.1697651194
 30
0.0
 10
20.9529013043
 20
25.3628919778
 30
0.0
 10
19.3837385124
 20
25.4432491464
 30
0.0
 10
17.8081130294
 20
25.4093691746
 30
0.0
 10
16.2577304709
 20
25.2618660905
 30
0.0
 10
14.7635940019
 20
25.0034789177
 30
0.0
 10
13.3550717655
 20
24.6388014391
 30
0.0
 10
12.0590838374
 20
24.1738406612
 30
0.0
 10
10.8994147485
 20
23.6152832511
 30
0.0
 10
9.8968029518
 20
22.9692948919
 30
0.0
 10
9.0698070016
 20
22.2404291575
 30
0.0
 10
8.4391960946
 20
21.4323566532
 30
0.0
 10
8.0959514574
 20
20.6906157911
 30
0.0
 10
7.9527886861
 20
20.0813302156
 30
0.0
 10
7.9246099996
 20
19.7741084322
 30
0.0
 10
7.9215232801
 20
19.6209699694
 30
0.0
 11
26.5746684283
 21
23.9216143851
 31
0.0
 11
25.3322722104
 21
24.4306862322
 31
0.0
 11
23.9644007417
 21
24.8415119233
 31
0.0
 11
22.4974974224
 21
25.1473343852
 31
0.0
 11
20.9606565623
 21
25.3427520347
 31
0.0
 11
19.3850871237
 21
25.4240777973
 31
0.0
 11
17.8029056804
 21
25.3897874007
 31
0.0
 11
16.2464643275
 21
25.2405254998
 31
0.0
 11
14.7474048731
 21
24.9791003151
 31
0.0
 11
13.33582852
 21
24.6102813368
 31
0.0
 11
12.0394889988
 21
24.1404290187
 31
0.0
 11
10.8831685738
 21
23.5768895252
 31
0.0
 11
9.8884751722
 21
22.9270732258
 31
0.0
 11
9.0745914409
 21
22.1977487902
 31
0.0
 11
8.4605964142
 21
21.3949103474
 31
0.0
 11
8.0684635313
 21
20.5287579575
 31
0.0
 11
7.9632125711
 21
20.0785836195
 31
0.0
 11
7.9215232801
 21
19.6209699694
 31
0.0
  0
SPLINE
  5
34F
100
AcDbEntity
  8
DRAFT
100
AcDbSpline
 62
7
  6
CONTINUOUS
 70
0
 71
3
 72
15
 73
11
 74
9
 42
0.0000001
 43
0.0000001
 44
0.0000000001
 12
-0.0448630293
 22
-4.4693063295
 32
0.0
 13
3.9976704975
 23
-1.9988352487
 33
0.0
 40
0.0
 40
0.0
 40
0.0
 40
0.0
 40
0.1021261799
 40
0.2070187478
 40
0.3172736688
 40
0.434932399
 40
0.5614184587
 40
0.6976132249
 40
0.8439026689
 40
1.0
 40
1.0
 40
1.0
 40
1.0
 10
9.8454657261
 20
20.098291633
 30
0.0
 10
9.8439384961
 20
19.946147239
 30
0.0
 10
9.8718614287
 20
19.6366023869
 30
0.0
 10
10.0053275153
 20
19.180397603
 30
0.0
 10
10.2281714662
 20
18.7347879181
 30
0.0
 10
10.5369829853
 20
18.3041682767
 30
0.0
 10
10.9282275409
 20
17.8921599532
 30
0.0
 10
11.3979252373
 20
17.5021183469
 30
0.0
 10
11.9414414392
 20
17.1377170545
 30
0.0
 10
12.3369196535
 20
16.9206823527
 30
0.0
 10
12.5449282185
 20
16.8166780702
 30
0.0
 11
9.8454657261
 21
20.098291633
 31
0.0
 11
9.8858863191
 21
19.643628662
 31
0.0
 11
10.0158015715
 21
19.1931679913
 31
0.0
 11
10.233975909
 21
18.7513084942
 31
0.0
 11
10.5382108144
 21
18.3223676297
 31
0.0
 11
10.9255379821
 21
17.9105672543
 31
0.0
 11
11.3922919644
 21
17.5198128135
 31
0.0
 11
11.9341416447
 21
17.1538721485
 31
0.0
 11
12.5449282185
 21
16.8166780702
 31
0.0
  0
SPLINE
  5
350
100
AcDbEntity
  8
RACCORDO
100
AcDbSpline
 62
253
  6
CONTINUOUS
 70
0
 71
3
 72
12
 73
8
 74
6
 42
0.0000001
 43
0.0000001
 44
0.0000000001
 12
-0.0325585668
 22
-1.1769117825
 32
0.0
 13
1.0484315093
 23
-0.5356983987
 33
0.0
 40
0.0
 40
0.0
 40
0.0
 40
0.0
 40
0.1020424965
 40
0.2068663258
 40
0.4341239995
 40
0.6969505944
 40
1.0
 40
1.0
 40
1.0
 40
1.0
 10
-32.4330592981
 20
-17.5100358714
 30
0.0
 10
-32.4341667505
 20
-17.5500675436
 30
0.0
 10
-32.4281940656
 20
-17.6316781766
 30
0.0
 10
-32.3824340617
 20
-17.7967776584
 30
0.0
 10
-32.2582039057
 20
-17.999809241
 30
0.0
 10
-32.0275680487
 20
-18.2126051764
 30
0.0
 10
-31.8365234656
 20
-18.3284471386
 30
0.0
 10
-31.730614617
 20
-18.382561499
 30
0.0
 11
-32.4330592981
 21
-17.5100358714
 31
0.0
 11
-32.424421935
 21
-17.6298659469
 31
0.0
 11
-32.3919177039
 21
-17.7489242729
 31
0.0
 11
-32.2569935213
 21
-17.9799789406
 31
0.0
 11
-32.033549293
 21
-18.1940515098
 31
0.0
 11
-31.730614617
 21
-18.382561499
 31
0.0
  0
SPLINE
  5
351
100
AcDbEntity
  8
DRAFT
100
AcDbSpline
 62
7
  6
CONTINUOUS
 70
0
 71
3
 72
24
 73
20
 74
18
 42
0.0000001
 43
0.0000001
 44
0.0000000001
 12
-15.9575768979
 22
7.978788449
 32
0.0
 13
-0.1790806021
 23
-17.8402145644
 33
0.0
 40
0.0
 40
0.0
 40
0.0
 40
0.0
 40
0.0625355414
 40
0.1297500923
 40
0.2007517068
 40
0.2745343415
 40
0.3499463735
 40
0.4257800596
 40
0.5008126552
 40
0.5738500169
 40
0.643778118
 40
0.709615527
 40
0.7705703583
 40
0.8261256676
 40
0.8761353634
 40
0.9209611956
 40
0.961628505
 40
0.9809755966
 40
1.0
 40
1.0
 40
1.0
 40
1.0
 10
25.5797242001
 20
23.334076061
 30
0.0
 10
25.2470856298
 20
23.5003953462
 30
0.0
 10
24.5356104118
 20
23.8037060108
 30
0.0
 10
23.3949993327
 20
24.1615752411
 30
0.0
 10
22.1622288748
 20
24.4328206309
 30
0.0
 10
20.8637006942
 20
24.6117615324
 30
0.0
 10
19.526783198
 20
24.694478036
 30
0.0
 10
18.1799873323
 20
24.6792152862
 30
0.0
 10
16.8519799209
 20
24.5663035138
 30
0.0
 10
15.5709967016
 20
24.3581905863
 30
0.0
 10
14.3641811749
 20
24.0593087363
 30
0.0
 10
13.2569475188
 20
23.6759783167
 30
0.0
 10
12.2723607094
 20
23.2160804856
 30
0.0
 10
11.4306271119
 20
22.6887561807
 30
0.0
 10
10.7488974454
 20
22.1034010235
 30
0.0
 10
10.2418983122
 20
21.4698807015
 30
0.0
 10
9.9727780226
 20
20.8989414331
 30
0.0
 10
9.8658248367
 20
20.4397960382
 30
0.0
 10
9.84660136
 20
20.2114247793
 30
0.0
 10
9.8454657261
 20
20.098291633
 30
0.0
 11
25.5797242001
 21
23.334076061
 31
0.0
 11
24.5552914301
 21
23.7760400954
 31
0.0
 11
23.4121596028
 21
24.1383770991
 31
0.0
 11
22.1755400462
 21
24.4130081097
 31
0.0
 11
20.8717051765
 21
24.5941978754
 31
0.0
 11
19.5288808018
 21
24.677965382
 31
0.0
 11
18.1760116939
 21
24.6625098545
 31
0.0
 11
16.8422383611
 21
24.5481735426
 31
0.0
 11
15.5563245309
 21
24.3374333209
 31
0.0
 11
14.345984924
 21
24.0348250536
 31
0.0
 11
13.2372933667
 21
23.646858598
 31
0.0
 11
12.2541968518
 21
23.1819048793
 31
0.0
 11
11.4178506974
 21
22.6499836023
 31
0.0
 11
10.7462703111
 21
22.0625725424
 31
0.0
 11
10.2539468172
 21
21.4323296931
 31
0.0
 11
9.9514984447
 21
20.7728238968
 31
0.0
 11
9.8737012075
 21
20.4365317012
 31
0.0
 11
9.8454657261
 21
20.098291633
 31
0.0
  0
SPLINE
  5
352
100
AcDbEntity
  8
DRAFT
100
AcDbSpline
 62
7
  6
CONTINUOUS
 70
0
 71
3
 72
15
 73
11
 74
9
 42
0.0000001
 43
0.0000001
 44
0.0000000001
 12
-0.0447442074
 22
4.4230131679
 32
0.0
 13
-3.9562656663
 23
1.9781328331
 33
0.0
 40
0.0
 40
0.0
 40
0.0
 40
0.0
 40
0.1020208414
 40
0.207011401
 40
0.3174599111
 40
0.4353070598
 40
0.5619054942
 40
0.6980896129
 40
0.8442184662
 40
1.0
 40
1.0
 40
1.0
 40
1.0
 10
28.2791849122
 20
20.0989196723
 30
0.0
 10
28.2776632983
 20
20.2493328473
 30
0.0
 10
28.2442091962
 20
20.5550067949
 30
0.0
 10
28.1051408891
 20
21.0045620713
 30
0.0
 10
27.8791704158
 20
21.4434853814
 30
0.0
 10
27.5696529441
 20
21.8676258752
 30
0.0
 10
27.1799413521
 20
22.2734761143
 30
0.0
 10
26.7139035498
 20
22.6578200948
 30
0.0
 10
26.1760127707
 20
23.0170975815
 30
0.0
 10
25.7851619113
 20
23.2313572054
 30
0.0
 10
25.5797242001
 20
23.334076061
 30
0.0
 11
28.2791849122
 21
20.0989196723
 31
0.0
 11
28.2307890539
 21
20.5475796634
 31
0.0
 11
28.0952551356
 21
20.9917602799
 31
0.0
 11
27.8738133317
 21
21.4272313643
 31
0.0
 11
27.568665474
 21
21.8498460773
 31
0.0
 11
27.1826904372
 21
22.2555497725
 31
0.0
 11
26.7194504912
 21
22.640600883
 31
0.0
 11
26.1831399156
 21
23.0013722549
 31
0.0
 11
25.5797242001
 21
23.334076061
 31
0.0
  0
SPLINE
  5
353
100
AcDbEntity
  8
RACCORDO
100
AcDbSpline
 62
253
  6
CONTINUOUS
 70
0
 71
3
 72
15
 73
11
 74
9
 42
0.0000001
 43
0.0000001
 44
0.0000000001
 12
-0.0939264793
 22
-5.422496998
 32
0.0
 13
4.850756302
 23
-2.425378151
 33
0.0
 40
0.0
 40
0.0
 40
0.0
 40
0.0
 40
0.1022080826
 40
0.2070929479
 40
0.3172900795
 40
0.4348862613
 40
0.5613402657
 40
0.6975149565
 40
0.8437589708
 40
1.0
 40
1.0
 40
1.0
 40
1.0
 10
7.921383738
 20
19.6131912139
 30
0.0
 10
7.9181837229
 20
19.4284502069
 30
0.0
 10
7.9494154206
 20
19.0524520839
 30
0.0
 10
8.1083163718
 20
18.4979280044
 30
0.0
 10
8.3762986564
 20
17.956236675
 30
0.0
 10
8.7493501288
 20
17.4328308412
 30
0.0
 10
9.222976245
 20
16.9321025259
 30
0.0
 10
9.7922452095
 20
16.4582865627
 30
0.0
 10
10.4515222692
 20
16.015514304
 30
0.0
 10
10.9315597968
 20
15.7520762058
 30
0.0
 10
11.1841888492
 20
15.6257616796
 30
0.0
 11
7.921383738
 21
19.6131912139
 31
0.0
 11
7.9666667819
 21
19.0607378098
 31
0.0
 11
8.1212417002
 21
18.5133198633
 31
0.0
 11
8.3835352149
 21
17.9763211527
 31
0.0
 11
8.7509336411
 21
17.4550180005
 31
0.0
 11
9.2197962328
 21
16.9545296622
 31
0.0
 11
9.7854907926
 21
16.4797687346
 31
0.0
 11
10.4424397948
 21
16.0353950756
 31
0.0
 11
11.1841888492
 21
15.6257616796
 31
0.0
  0
SPLINE
  5
354
100
AcDbEntity
  8
RACCORDO
100
AcDbSpline
 62
253
  6
CONTINUOUS
 70
0
 71
3
 72
15
 73
11
 74
9
 42
0.0000001
 43
0.0000001
 44
0.0000000001
 12
-0.1129588909
 22
-5.6240748324
 32
0.0
 13
5.0313461817
 23
-2.5156575743
 33
0.0
 40
0.0
 40
0.0
 40
0.0
 40
0.0
 40
0.102188268
 40
0.207033267
 40
0.3171862404
 40
0.4347534628
 40
0.5611863517
 40
0.6973725885
 40
0.8437185701
 40
1.0
 40
1.0
 40
1.0
 40
1.0
 10
7.5232067121
 20
-0.1405621191
 30
0.0
 10
7.5193590209
 20
-0.3321336079
 30
0.0
 10
7.5507192031
 20
-0.7221111762
 30
0.0
 10
7.7141958682
 20
-1.2974724518
 30
0.0
 10
7.9910581688
 20
-1.8596567792
 30
0.0
 10
8.3772686917
 20
-2.4028674995
 30
0.0
 10
8.8679954844
 20
-2.9226489014
 30
0.0
 10
9.4583335154
 20
-3.4145446722
 30
0.0
 10
10.1423199336
 20
-3.8740793665
 30
0.0
 10
10.6404172068
 20
-4.1475392371
 30
0.0
 10
10.9025191987
 20
-4.2785894247
 30
0.0
 11
7.5232067121
 21
-0.1405621191
 31
0.0
 11
7.5686724646
 21
-0.7135916348
 31
0.0
 11
7.7276733846
 21
-1.2815294023
 31
0.0
 11
7.9986335576
 21
-1.8387782421
 31
0.0
 11
8.3789433602
 21
-2.3798284494
 31
0.0
 11
8.8647033427
 21
-2.8993079466
 31
0.0
 11
9.4512318815
 21
-3.3921129796
 31
0.0
 11
10.133004017
 21
-3.8535119758
 31
0.0
 11
10.9025191987
 21
-4.2785894247
 31
0.0
  0
SPLINE
  5
355
100
AcDbEntity
  8
RACCORDO
100
AcDbSpline
 62
253
  6
CONTINUOUS
 70
0
 71
3
 72
15
 73
11
 74
9
 42
0.0000001
 43
0.0000001
 44
0.0000000001
 12
10.8065834861
 22
-5.4032584159
 32
0.0
 13
11.9161281494
 23
1.9958301728
 33
0.0
 40
0.0
 40
0.0
 40
0.0
 40
0.0
 40
0.1087536543
 40
0.2252465388
 40
0.3481832451
 40
0.476004875
 40
0.6069709072
 40
0.7392222079
 40
0.8708691204
 40
1.0
 40
1.0
 40
1.0
 40
1.0
 10
10.9025191987
 20
-4.2785894247
 30
0.0
 10
11.2942710137
 20
-4.474464124
 30
0.0
 10
12.1292185348
 20
-4.8339590593
 30
0.0
 10
13.4652398627
 20
-5.2653222426
 30
0.0
 10
14.9073055968
 20
-5.6011675474
 30
0.0
 10
16.4281577145
 20
-5.835016436
 30
0.0
 10
17.9991550755
 20
-5.9623950093
 30
0.0
 10
19.5905932325
 20
-5.9808468655
 30
0.0
 10
21.1720602113
 20
-5.8899292645
 30
0.0
 10
22.2147981592
 20
-5.7556505182
 30
0.0
 10
22.7277115291
 20
-5.6697427496
 30
0.0
 11
10.9025191987
 21
-4.2785894247
 31
0.0
 11
12.1073727529
 21
-4.8028559165
 31
0.0
 11
13.445588327
 21
-5.2389516473
 31
0.0
 11
14.8915908
 21
-5.5785062663
 31
0.0
 11
16.4177343379
 21
-5.8149789401
 31
0.0
 11
17.9948286537
 21
-5.9437948559
 31
0.0
 11
19.5925949177
 21
-5.9624464316
 31
0.0
 11
21.1805079638
 21
-5.8705002025
 31
0.0
 11
22.7277115291
 21
-5.6697427496
 31
0.0
  0
SPLINE
  5
356
100
AcDbEntity
  8
RACCORDO
100
AcDbSpline
 62
253
  6
CONTINUOUS
 70
0
 71
3
 72
26
 73
22
 74
20
 42
0.0000001
 43
0.0000001
 44
0.0000000001
 12
-20.3275681903
 22
-3.4046607605
 32
0.0
 13
11.4328289313
 23
17.1491156056
 33
0.0
 40
0.0
 40
0.0
 40
0.0
 40
0.0
 40
0.0795425785
 40
0.1606510236
 40
0.2421332078
 40
0.3228449029
 40
0.4016350503
 40
0.4774304662
 40
0.5492672335
 40
0.6163435558
 40
0.6780809284
 40
0.7342030264
 40
0.7848410358
 40
0.8306642727
 40
0.8521984852
 40
0.8730810774
 40
0.8935756346
 40
0.9139669355
 40
0.9345468663
 40
0.9555951538
 40
1.0
 40
1.0
 40
1.0
 40
1.0
 10
22.9182619232
 20
-6.4647103128
 30
0.0
 10
22.3792928603
 20
-6.5549821447
 30
0.0
 10
21.2834815919
 20
-6.6961235838
 30
0.0
 10
19.62146133
 20
-6.7918831821
 30
0.0
 10
17.9486811556
 20
-6.7727428322
 30
0.0
 10
16.2970963229
 20
-6.6392376048
 30
0.0
 10
14.6978096876
 20
-6.3937979646
 30
0.0
 10
13.1810606488
 20
-6.0411265547
 30
0.0
 10
11.7753133818
 20
-5.587876955
 30
0.0
 10
10.5067359845
 20
-5.0424500534
 30
0.0
 10
9.3986782366
 20
-4.4147006123
 30
0.0
 10
8.4712986745
 20
-3.7150826292
 30
0.0
 10
7.7419207339
 20
-2.954932229
 30
0.0
 10
7.3030651327
 20
-2.2646555498
 30
0.0
 10
7.0759376347
 20
-1.7010067453
 30
0.0
 10
6.9669780459
 20
-1.2814233643
 30
0.0
 10
6.9165850019
 20
-0.8587116178
 30
0.0
 10
6.9252946219
 20
-0.4351598378
 30
0.0
 10
6.9930123836
 20
-0.0130895841
 30
0.0
 10
7.1639367906
 20
0.5541507898
 30
0.0
 10
7.3766012314
 20
0.956594521
 30
0.0
 10
7.5458255682
 20
1.2104291347
 30
0.0
 11
22.9182619232
 21
-6.4647103128
 31
0.0
 11
21.2924686673
 21
-6.675722583
 31
0.0
 11
19.623571873
 21
-6.7725507043
 31
0.0
 11
17.944276661
 21
-6.7532247071
 31
0.0
 11
16.2862397047
 21
-6.6181970612
 31
0.0
 11
14.6813950582
 21
-6.3700136157
 31
0.0
 11
13.1604390296
 21
-6.013424998
 31
0.0
 11
11.7525009149
 21
-5.5552671216
 31
0.0
 11
10.4845337094
 21
-5.0043213934
 31
0.0
 11
9.3808077968
 21
-4.3711371364
 31
0.0
 11
8.4624639877
 21
-3.6678317966
 31
0.0
 11
7.7471077976
 21
-2.9078676218
 31
0.0
 11
7.2484305513
 21
-2.1058036877
 31
0.0
 11
7.0834657668
 21
-1.6937640478
 31
0.0
 11
6.9759611318
 21
-1.2770010148
 31
0.0
 11
6.9263376859
 21
-0.8575184015
 31
0.0
 11
6.93491099
 21
-0.4373264792
 31
0.0
 11
7.001605383
 21
-0.0184355035
 31
0.0
 11
7.1260782666
 21
0.3971443209
 31
0.0
 11
7.5458255682
 21
1.2104291347
 31
0.0
  0
SPLINE
  5
357
100
AcDbEntity
  8
RACCORDO
100
AcDbSpline
 62
253
  6
CONTINUOUS
 70
0
 71
3
 72
9
 73
5
 74
3
 42
0.0000001
 43
0.0000001
 44
0.0000000001
 12
1.4213356105
 22
0.2380310403
 32
0.0
 13
1.4304809291
 23
0.1748656781
 33
0.0
 40
0.0
 40
0.0
 40
0.0
 40
0.0
 40
0.2563879485
 40
1.0
 40
1.0
 40
1.0
 40
1.0
 10
22.7277115291
 20
-5.6697427496
 30
0.0
 10
22.8491826362
 20
-5.6493999862
 30
0.0
 10
23.3239257142
 20
-5.5757439223
 30
0.0
 10
23.8009316097
 20
-5.5181805169
 30
0.0
 10
24.1555058958
 20
-5.4748364417
 30
0.0
 11
22.7277115291
 21
-5.6697427496
 31
0.0
 11
23.0927681897
 21
-5.6126887794
 31
0.0
 11
24.1555058958
 21
-5.4748364417
 31
0.0
  0
SPLINE
  5
358
100
AcDbEntity
  8
RACCORDO
100
AcDbSpline
 62
253
  6
CONTINUOUS
 70
0
 71
3
 72
12
 73
8
 74
6
 42
0.0000001
 43
0.0000001
 44
0.0000000001
 12
-0.4594423217
 22
0.6857767514
 32
0.0
 13
-0.0052345449
 23
0.8254390343
 33
0.0
 40
0.0
 40
0.0
 40
0.0
 40
0.0
 40
0.0899738129
 40
0.1980199038
 40
0.4537717211
 40
0.7339070327
 40
1.0
 40
1.0
 40
1.0
 40
1.0
 10
22.9182619232
 20
-6.4647103127
 30
0.0
 10
22.904482664
 20
-6.4441429964
 30
0.0
 10
22.878125098
 20
-6.3962384204
 30
0.0
 10
22.8291951794
 20
-6.2812519307
 30
0.0
 10
22.7793680276
 20
-6.1105982031
 30
0.0
 10
22.7398367507
 20
-5.8932432342
 30
0.0
 10
22.7281758222
 20
-5.7429572567
 30
0.0
 10
22.7277115303
 20
-5.6697427494
 30
0.0
 11
22.9182619232
 21
-6.4647103127
 31
0.0
 11
22.8815639439
 21
-6.4001409649
 31
0.0
 11
22.8460993084
 21
-6.31830805
 31
0.0
 11
22.7846830683
 21
-6.116327288
 31
0.0
 11
22.7431592473
 21
-5.8888467998
 31
0.0
 11
22.7277115303
 21
-5.6697427494
 31
0.0
  0
SPLINE
  5
359
100
AcDbEntity
  8
RACCORDO
100
AcDbSpline
 62
253
  6
CONTINUOUS
 70
0
 71
3
 72
9
 73
5
 74
3
 42
0.0000001
 43
0.0000001
 44
0.0000000001
 12
1.3490323036
 22
0.338194425
 32
0.0
 13
1.3556334854
 23
0.3106790601
 33
0.0
 40
0.0
 40
0.0
 40
0.0
 40
0.0
 40
0.2559288508
 40
1.0
 40
1.0
 40
1.0
 40
1.0
 10
22.9182619232
 20
-6.4647103128
 30
0.0
 10
23.0333473522
 20
-6.4358590759
 30
0.0
 10
23.483849264
 20
-6.3264047634
 30
0.0
 10
23.9362782196
 20
-6.2251880556
 30
0.0
 10
24.2725074747
 20
-6.1481322805
 30
0.0
 11
22.9182619232
 21
-6.4647103128
 31
0.0
 11
23.2640664459
 21
-6.3803736027
 31
0.0
 11
24.2725074747
 21
-6.1481322805
 31
0.0
  0
SPLINE
  5
35A
100
AcDbEntity
  8
RACCORDO
100
AcDbSpline
 62
253
  6
CONTINUOUS
 70
0
 71
3
 72
13
 73
9
 74
7
 42
0.0000001
 43
0.0000001
 44
0.0000000001
 12
5.9758745443
 22
0.7304604219
 32
0.0
 13
3.7199327084
 23
4.7335768339
 33
0.0
 40
0.0
 40
0.0
 40
0.0
 40
0.0
 40
0.1399343413
 40
0.2759764474
 40
0.5343245879
 40
0.7744111452
 40
0.8884857783
 40
1.0
 40
1.0
 40
1.0
 40
1.0
 10
24.1555058958
 20
-5.4748364417
 30
0.0
 10
24.4342492517
 20
-5.4407642757
 30
0.0
 10
24.9808642578
 20
-5.3459608968
 30
0.0
 10
26.0197974035
 20
-5.07776575
 30
0.0
 10
27.2130368615
 20
-4.6160953279
 30
0.0
 10
28.2675109126
 20
-3.967359335
 30
0.0
 10
28.9754868492
 20
-3.3549062297
 30
0.0
 10
29.2811541802
 20
-3.0188374239
 30
0.0
 10
29.4194293139
 20
-2.8428837117
 30
0.0
 11
24.1555058958
 21
-5.4748364417
 31
0.0
 11
24.9859997774
 21
-5.333383795
 31
0.0
 11
25.7789971593
 21
-5.1285635094
 31
0.0
 11
27.2260758875
 21
-4.5584167113
 31
0.0
 11
28.4516951094
 21
-3.7922212727
 31
0.0
 11
28.9698416034
 21
-3.3414700967
 31
0.0
 11
29.4194293139
 21
-2.8428837117
 31
0.0
  0
SPLINE
  5
35B
100
AcDbEntity
  8
RACCORDO
100
AcDbSpline
 62
253
  6
CONTINUOUS
 70
0
 71
3
 72
11
 73
7
 74
5
 42
0.0000001
 43
0.0000001
 44
0.0000000001
 12
-0.3238766824
 22
0.6112077374
 32
0.0
 13
0.0767178949
 23
0.6874484477
 33
0.0
 40
0.0
 40
0.0
 40
0.0
 40
0.0
 40
0.2311868611
 40
0.4875262444
 40
0.7503791085
 40
1.0
 40
1.0
 40
1.0
 40
1.0
 10
24.2724519126
 20
-6.1481171519
 30
0.0
 10
24.2474932347
 20
-6.1010160858
 30
0.0
 10
24.2053928944
 20
-5.9960705689
 30
0.0
 10
24.1646502537
 20
-5.8274393051
 30
0.0
 10
24.1459732999
 20
-5.6506811732
 30
0.0
 10
24.1491060759
 20
-5.5320574918
 30
0.0
 10
24.155489539
 20
-5.4748569937
 30
0.0
 11
24.2724519126
 21
-6.1481171519
 31
0.0
 11
24.2110795545
 21
-6.0004470875
 31
0.0
 11
24.1688011229
 21
-5.8282471857
 31
0.0
 11
24.1497512217
 21
-5.647428376
 31
0.0
 11
24.155489539
 21
-5.4748569937
 31
0.0
  0
SPLINE
  5
35C
100
AcDbEntity
  8
RACCORDO
100
AcDbSpline
 62
253
  6
CONTINUOUS
 70
0
 71
3
 72
14
 73
10
 74
8
 42
0.0000001
 43
0.0000001
 44
0.0000000001
 12
6.06240178
 22
1.4707599703
 32
0.0
 13
4.6406916064
 23
4.1689125256
 33
0.0
 40
0.0
 40
0.0
 40
0.0
 40
0.0
 40
0.1360198672
 40
0.2702324778
 40
0.4013883951
 40
0.5286295822
 40
0.6515196371
 40
0.77024543
 40
1.0
 40
1.0
 40
1.0
 40
1.0
 10
24.2724519126
 20
-6.1481171519
 30
0.0
 10
24.5473209409
 20
-6.0814329599
 30
0.0
 10
25.0874427041
 20
-5.923954788
 30
0.0
 10
25.8725436636
 20
-5.6395952002
 30
0.0
 10
26.6253593709
 20
-5.3228949761
 30
0.0
 10
27.3422592744
 20
-4.9838045443
 30
0.0
 10
28.0212492612
 20
-4.6262222298
 30
0.0
 10
28.8646434232
 20
-4.1269602185
 30
0.0
 10
29.4545329147
 20
-3.6986600194
 30
0.0
 10
29.8099396163
 20
-3.3793844511
 30
0.0
 11
24.2724519126
 21
-6.1481171519
 31
0.0
 11
25.0881269074
 21
-5.9142963217
 31
0.0
 11
25.8759092636
 21
-5.630763015
 31
0.0
 11
26.6303855532
 21
-5.3142332287
 31
0.0
 11
27.3478890597
 21
-4.9747501288
 31
0.0
 11
28.0256923642
 21
-4.6165762728
 31
0.0
 11
28.6620834659
 21
-4.2376871753
 31
0.0
 11
29.8099396163
 21
-3.3793844511
 31
0.0
  0
SPLINE
  5
35D
100
AcDbEntity
  8
RACCORDO
100
AcDbSpline
 62
253
  6
CONTINUOUS
 70
0
 71
3
 72
9
 73
5
 74
3
 42
0.0000001
 43
0.0000001
 44
0.0000000001
 12
0.6182278755
 22
0.7866928696
 32
0.0
 13
0.5568716679
 23
0.8312552692
 33
0.0
 40
0.0
 40
0.0
 40
0.0
 40
0.0
 40
0.2682714095
 40
1.0
 40
1.0
 40
1.0
 40
1.0
 10
29.4194293139
 20
-2.8428837117
 30
0.0
 10
29.4747136017
 20
-2.7725346433
 30
0.0
 10
29.6775360586
 20
-2.5077384135
 30
0.0
 10
29.8686135629
 20
-2.2341296614
 30
0.0
 10
30.0044398698
 20
-2.0313785793
 30
0.0
 11
29.4194293139
 21
-2.8428837117
 31
0.0
 11
29.5826912556
 21
-2.6298258944
 31
0.0
 11
30.0044398698
 21
-2.0313785793
 31
0.0
  0
SPLINE
  5
35E
100
AcDbEntity
  8
RACCORDO
100
AcDbSpline
 62
253
  6
CONTINUOUS
 70
0
 71
3
 72
10
 73
6
 74
4
 42
0.0000001
 43
0.0000001
 44
0.0000000001
 12
-0.6007288075
 22
0.328276436
 32
0.0
 13
-0.0575951829
 23
0.6821461086
 33
0.0
 40
0.0
 40
0.0
 40
0.0
 40
0.0
 40
0.2650959145
 40
0.5279180686
 40
1.0
 40
1.0
 40
1.0
 40
1.0
 10
29.8100085999
 20
-3.3793877823
 30
0.0
 10
29.7569250157
 20
-3.350379535
 30
0.0
 10
29.6573044226
 20
-3.2802794659
 30
0.0
 10
29.501778519
 20
-3.1129606859
 30
0.0
 10
29.4284830188
 20
-2.9502185675
 30
0.0
 10
29.4194198037
 20
-2.8428756167
 30
0.0
 11
29.8100085999
 21
-3.3793877823
 31
0.0
 11
29.6612920696
 21
-3.2753805638
 31
0.0
 11
29.5395677827
 21
-3.1428861528
 31
0.0
 11
29.4194198037
 21
-2.8428756167
 31
0.0
  0
SPLINE
  5
35F
100
AcDbEntity
  8
RACCORDO
100
AcDbSpline
 62
253
  6
CONTINUOUS
 70
0
 71
3
 72
9
 73
5
 74
3
 42
0.0000001
 43
0.0000001
 44
0.0000000001
 12
0.7790713024
 22
0.725647668
 32
0.0
 13
0.7538804427
 23
0.751785149
 33
0.0
 40
0.0
 40
0.0
 40
0.0
 40
0.0
 40
0.5164740693
 40
1.0
 40
1.0
 40
1.0
 40
1.0
 10
29.8100084799
 20
-3.3793881152
 30
0.0
 10
29.9441318551
 20
-3.2544620472
 30
0.0
 10
30.2003118036
 20
-3.0087989969
 30
0.0
 10
30.4517746701
 20
-2.7583696868
 30
0.0
 10
30.5732815843
 20
-2.6372004822
 30
0.0
 11
29.8100084799
 21
-3.3793881152
 31
0.0
 11
30.2074941958
 21
-2.9994334785
 31
0.0
 11
30.5732815843
 21
-2.6372004822
 31
0.0
  0
SPLINE
  5
360
100
AcDbEntity
  8
RACCORDO
100
AcDbSpline
 62
253
  6
CONTINUOUS
 70
0
 71
3
 72
11
 73
7
 74
5
 42
0.0000001
 43
0.0000001
 44
0.0000000001
 12
1.1202296651
 22
1.6720861861
 32
0.0
 13
-0.0405348153
 23
2.0122484054
 33
0.0
 40
0.0
 40
0.0
 40
0.0
 40
0.0
 40
0.2650325179
 40
0.5174079449
 40
0.7608599146
 40
1.0
 40
1.0
 40
1.0
 40
1.0
 10
30.0044398698
 20
-2.0313785793
 30
0.0
 10
30.1034056327
 20
-1.8836595086
 30
0.0
 10
30.2789417808
 20
-1.5827692689
 30
0.0
 10
30.4715023794
 20
-1.1080137433
 30
0.0
 10
30.5839548808
 20
-0.6258188888
 30
0.0
 10
30.6046810578
 20
-0.3009422097
 30
0.0
 10
30.6014498915
 20
-0.1405391245
 30
0.0
 11
30.0044398698
 21
-2.0313785793
 31
0.0
 11
30.2715365156
 21
-1.5696473843
 31
0.0
 11
30.4609046703
 21
-1.0983216976
 31
0.0
 11
30.5710982714
 21
-0.6208880504
 31
0.0
 11
30.6014498915
 21
-0.1405391245
 31
0.0
  0
SPLINE
  5
361
100
AcDbEntity
  8
RACCORDO
100
AcDbSpline
 62
253
  6
CONTINUOUS
 70
0
 71
3
 72
11
 73
7
 74
5
 42
0.0000001
 43
0.0000001
 44
0.0000000001
 12
-0.8797425331
 22
0.1473479193
 32
0.0
 13
-0.016990014
 23
0.8918350034
 33
0.0
 40
0.0
 40
0.0
 40
0.0
 40
0.0
 40
0.2556413889
 40
0.5149494814
 40
0.7657802703
 40
1.0
 40
1.0
 40
1.0
 40
1.0
 10
30.5732815843
 20
-2.6372004822
 30
0.0
 10
30.4983153833
 20
-2.6246444066
 30
0.0
 10
30.350871023
 20
-2.5725720203
 30
0.0
 10
30.1674291129
 20
-2.4316940154
 30
0.0
 10
30.0405993401
 20
-2.2454963461
 30
0.0
 10
30.0057663351
 20
-2.1010070307
 30
0.0
 10
30.0044398696
 20
-2.0313785795
 30
0.0
 11
30.5732815843
 21
-2.6372004822
 31
0.0
 11
30.3578576253
 21
-2.5624288643
 31
0.0
 11
30.1745143996
 21
-2.4214115801
 31
0.0
 11
30.0505551956
 21
-2.2351488011
 31
0.0
 11
30.0044398696
 21
-2.0313785795
 31
0.0
  0
SPLINE
  5
362
100
AcDbEntity
  8
RACCORDO
100
AcDbSpline
 62
253
  6
CONTINUOUS
 70
0
 71
3
 72
15
 73
11
 74
9
 42
0.0000001
 43
0.0000001
 44
0.0000000001
 12
2.2890471064
 22
3.4166958487
 32
0.0
 13
-2.2890471064
 23
3.4166958487
 33
0.0
 40
0.0
 40
0.0
 40
0.0
 40
0.0
 40
0.132447205
 40
0.2587174515
 40
0.3805397713
 40
0.500064151
 40
0.619581421
 40
0.7413876337
 40
0.8675944313
 40
1.0
 40
1.0
 40
1.0
 40
1.0
 10
30.5732815843
 20
-2.6372004822
 30
0.0
 10
30.6743408814
 20
-2.4863565437
 30
0.0
 10
30.854211859
 20
-2.1793120421
 30
0.0
 10
31.0541399578
 20
-1.6955729132
 30
0.0
 10
31.1749381738
 20
-1.2041923904
 30
0.0
 10
31.2153354783
 20
-0.7089766412
 30
0.0
 10
31.1748618703
 20
-0.2137874493
 30
0.0
 10
31.0539960607
 20
0.2774505614
 30
0.0
 10
30.8541384802
 20
0.7610363177
 30
0.0
 10
30.6743091123
 20
1.0679387127
 30
0.0
 10
30.5732815843
 20
1.2187352317
 30
0.0
 11
30.5732815843
 21
-2.6372004822
 31
0.0
 11
30.8469889785
 21
-2.1662587235
 31
0.0
 11
31.0438301987
 21
-1.6857110227
 31
0.0
 11
31.1623711002
 21
-1.1989291872
 31
0.0
 11
31.2019426551
 21
-0.7089676221
 31
0.0
 11
31.1622919165
 21
-0.2190417937
 31
0.0
 11
31.0436879472
 21
0.2676564989
 31
0.0
 11
30.8469246178
 21
0.7479541209
 31
0.0
 11
30.5732815843
 21
1.2187352317
 31
0.0
  0
SPLINE
  5
363
100
AcDbEntity
  8
RACCORDO
100
AcDbSpline
 62
253
  6
CONTINUOUS
 70
0
 71
3
 72
11
 73
7
 74
5
 42
0.0000001
 43
0.0000001
 44
0.0000000001
 12
-1.5597475081
 22
-0.7798738724
 32
0.0
 13
-0.0246751386
 23
-1.743676198
 33
0.0
 40
0.0
 40
0.0
 40
0.0
 40
0.0
 40
0.2293229864
 40
0.4873252844
 40
0.7522480214
 40
1.0
 40
1.0
 40
1.0
 40
1.0
 10
-15.3029341214
 20
-24.7269094326
 30
0.0
 10
-15.4221627736
 20
-24.7865237677
 30
0.0
 10
-15.6502450331
 20
-24.9641305574
 30
0.0
 10
-15.9147810884
 20
-25.3169716405
 30
0.0
 10
-16.0968080959
 20
-25.7303604816
 30
0.0
 10
-16.1492952569
 20
-26.0282025506
 30
0.0
 10
-16.1513330284
 20
-26.1722022933
 30
0.0
 11
-15.3029341214
 21
-24.7269094326
 31
0.0
 11
-15.6242645881
 21
-24.9649657186
 31
0.0
 11
-15.8976488567
 21
-25.3222986256
 31
0.0
 11
-16.0825451065
 21
-25.7456710196
 31
0.0
 11
-16.1513330284
 21
-26.1722022933
 31
0.0
  0
SPLINE
  5
364
100
AcDbEntity
  8
RACCORDO
100
AcDbSpline
 62
253
  6
CONTINUOUS
 70
0
 71
3
 72
15
 73
11
 74
9
 42
0.0000001
 43
0.0000001
 44
0.0000000001
 12
3.1340922359
 22
-1.5328356461
 32
0.0
 13
3.1341303815
 23
1.5327576497
 33
0.0
 40
0.0
 40
0.0
 40
0.0
 40
0.0
 40
0.1123089665
 40
0.2352341728
 40
0.3656640414
 40
0.4999999762
 40
0.6343358942
 40
0.764765824
 40
0.8876909439
 40
1.0
 40
1.0
 40
1.0
 40
1.0
 10
-16.1513330239
 20
-26.1722022955
 30
0.0
 10
-16.0340041372
 20
-26.2295860246
 30
0.0
 10
-15.7784304272
 20
-26.3300651582
 30
0.0
 10
-15.3657714104
 20
-26.4361108111
 30
0.0
 10
-14.9188504764
 20
-26.5013929953
 30
0.0
 10
-14.4545352967
 20
-26.5234581092
 30
0.0
 10
-13.9902200057
 20
-26.5013931111
 30
0.0
 10
-13.543299184
 20
-26.4361114346
 30
0.0
 10
-13.1306395474
 20
-26.3300661711
 30
0.0
 10
-12.8750678223
 20
-26.2295831505
 30
0.0
 10
-12.757737414
 20
-26.1722022955
 30
0.0
 11
-16.1513330239
 21
-26.1722022955
 31
0.0
 11
-15.787709631
 21
-26.3181771846
 31
0.0
 11
-15.372793858
 21
-26.4266806583
 31
0.0
 11
-14.9226706433
 21
-26.4934682562
 31
0.0
 11
-14.4545352702
 21
-26.5160311066
 31
0.0
 11
-13.9863999472
 21
-26.4934684483
 31
0.0
 11
-13.5362764576
 21
-26.4266812463
 31
0.0
 11
-13.1213611616
 21
-26.3181771401
 31
0.0
 11
-12.757737414
 21
-26.1722022955
 31
0.0
  0
SPLINE
  5
365
100
AcDbEntity
  8
RACCORDO
100
AcDbSpline
 62
253
  6
CONTINUOUS
 70
0
 71
3
 72
13
 73
9
 74
7
 42
0.0000001
 43
0.0000001
 44
0.0000000001
 12
1.5611799489
 22
-0.7802891418
 32
0.0
 13
1.5612116462
 23
0.7802257196
 33
0.0
 40
0.0
 40
0.0
 40
0.0
 40
0.0
 40
0.1125922484
 40
0.2356292072
 40
0.499999689
 40
0.7643710158
 40
0.8874074689
 40
1.0
 40
1.0
 40
1.0
 40
1.0
 10
-15.3029341214
 20
-24.7269094326
 30
0.0
 10
-15.2443418679
 20
-24.7561942689
 30
0.0
 10
-15.1166515329
 20
-24.8075545404
 30
0.0
 10
-14.8347668393
 20
-24.881520935
 30
0.0
 10
-14.4545352237
 20
-24.9170372423
 30
0.0
 10
-14.0743032813
 20
-24.8815243269
 30
0.0
 10
-13.7924185428
 20
-24.8075550139
 30
0.0
 10
-13.6647299068
 20
-24.7561919621
 30
0.0
 10
-13.6061363165
 20
-24.7269094326
 30
0.0
 11
-15.3029341214
 21
-24.7269094326
 31
0.0
 11
-15.1211356963
 21
-24.8015098141
 31
0.0
 11
-14.9136803088
 21
-24.8569617964
 31
0.0
 11
-14.4545355906
 21
-24.9026319962
 31
0.0
 11
-13.9953891909
 21
-24.8569638002
 31
0.0
 11
-13.7879352111
 21
-24.8015099699
 31
0.0
 11
-13.6061363165
 21
-24.7269094326
 31
0.0
  0
SPLINE
  5
366
100
AcDbEntity
  8
RACCORDO
100
AcDbSpline
 62
253
  6
CONTINUOUS
 70
0
 71
3
 72
11
 73
7
 74
5
 42
0.0000001
 43
0.0000001
 44
0.0000000001
 12
-1.5597475703
 22
-0.7798737851
 32
0.0
 13
-0.0246750543
 23
-1.7436762157
 33
0.0
 40
0.0
 40
0.0
 40
0.0
 40
0.0
 40
0.2293230129
 40
0.4873253165
 40
0.7522480418
 40
1.0
 40
1.0
 40
1.0
 40
1.0
 10
-30.8822157145
 20
-16.937268636
 30
0.0
 10
-31.0014443853
 20
-16.9968829714
 30
0.0
 10
-31.2295266694
 20
-17.1744897683
 30
0.0
 10
-31.4940627293
 20
-17.5273308699
 30
0.0
 10
-31.6760897106
 20
-17.940719711
 30
0.0
 10
-31.7285768527
 20
-18.2385617667
 30
0.0
 10
-31.730614617
 20
-18.382561499
 30
0.0
 11
-30.8822157145
 21
-16.937268636
 31
0.0
 11
-31.2035462291
 21
-17.1753249415
 31
0.0
 11
-31.4769305001
 21
-17.5326578644
 31
0.0
 11
-31.6618267227
 21
-17.9560302527
 31
0.0
 11
-31.730614617
 21
-18.382561499
 31
0.0
  0
SPLINE
  5
367
100
AcDbEntity
  8
RACCORDO
100
AcDbSpline
 62
253
  6
CONTINUOUS
 70
0
 71
3
 72
11
 73
7
 74
5
 42
0.0000001
 43
0.0000001
 44
0.0000000001
 12
-0.4977881558
 22
0.2488940401
 32
0.0
 13
-0.4976254716
 23
-0.2492191432
 33
0.0
 40
0.0
 40
0.0
 40
0.0
 40
0.0
 40
0.278904963
 40
0.5353639044
 40
0.7729440561
 40
1.0
 40
1.0
 40
1.0
 40
1.0
 10
-30.8822157145
 20
-16.0888697335
 30
0.0
 10
-30.9284942436
 20
-16.0657304725
 30
0.0
 10
-31.0211824462
 20
-16.0283621657
 30
0.0
 10
-31.1631645369
 20
-16.0015193499
 30
0.0
 10
-31.2981572657
 20
-16.0083187096
 30
0.0
 10
-31.3811967943
 20
-16.0359497251
 30
0.0
 10
-31.4188597347
 20
-16.0548119544
 30
0.0
 11
-30.8822157145
 21
-16.0888697335
 31
0.0
 11
-31.0266027364
 21
-16.0318913447
 31
0.0
 11
-31.167100357
 21
-16.0067423583
 31
0.0
 11
-31.2990966044
 21
-16.0144967019
 31
0.0
 11
-31.4188597347
 21
-16.0548119544
 31
0.0
  0
SPLINE
  5
368
100
AcDbEntity
  8
RACCORDO
100
AcDbSpline
 62
253
  6
CONTINUOUS
 70
0
 71
3
 72
15
 73
11
 74
9
 42
0.0000001
 43
0.0000001
 44
0.0000000001
 12
-1.0329437865
 22
-0.5166710138
 32
0.0
 13
1.0329227854
 23
-0.5167129978
 33
0.0
 40
0.0
 40
0.0
 40
0.0
 40
0.0
 40
0.1512697976
 40
0.282748744
 40
0.3967137314
 40
0.4999992196
 40
0.6032847743
 40
0.717248999
 40
0.8487298663
 40
1.0
 40
1.0
 40
1.0
 40
1.0
 10
-30.8822157145
 20
-16.0888697335
 30
0.0
 10
-30.9343001137
 20
-16.1149219734
 30
0.0
 10
-31.0284595797
 20
-16.1707905579
 30
0.0
 10
-31.1427584291
 20
-16.2740204228
 30
0.0
 10
-31.2160787802
 20
-16.3891194713
 30
0.0
 10
-31.2420194056
 20
-16.5130690371
 30
0.0
 10
-31.2160802002
 20
-16.6370182306
 30
0.0
 10
-31.1427630536
 20
-16.7521202311
 30
0.0
 10
-31.0284596009
 20
-16.8553468725
 30
0.0
 10
-30.9342991705
 20
-16.9112142213
 30
0.0
 10
-30.8822157145
 20
-16.937268636
 30
0.0
 11
-30.8822157145
 21
-16.0888697335
 31
0.0
 11
-31.0314164777
 21
-16.1797689461
 31
0.0
 11
-31.1423204423
 21
-16.2834966398
 31
0.0
 11
-31.2105928632
 21
-16.3960305343
 31
0.0
 11
-31.2336608418
 21
-16.5130689989
 31
0.0
 11
-31.2105944217
 21
-16.6301078489
 31
0.0
 11
-31.1423244499
 21
-16.7426421988
 31
0.0
 11
-31.0314167892
 21
-16.8463691887
 31
0.0
 11
-30.8822157145
 21
-16.937268636
 31
0.0
  0
SPLINE
  5
369
100
AcDbEntity
  8
RACCORDO
100
AcDbSpline
 62
253
  6
CONTINUOUS
 70
0
 71
3
 72
31
 73
27
 74
25
 42
0.0000001
 43
0.0000001
 44
0.0000000001
 12
-22.8221260661
 22
11.4110630331
 32
0.0
 13
22.8221260661
 23
-11.4110630331
 33
0.0
 40
0.0
 40
0.0
 40
0.0
 40
0.0
 40
0.0676289517
 40
0.1415213788
 40
0.2198810639
 40
0.3005697693
 40
0.3812807027
 40
0.4596997739
 40
0.5336685966
 40
0.601369661
 40
0.632477952
 40
0.6616166391
 40
0.6887702445
 40
0.7140037387
 40
0.7374799154
 40
0.7594778801
 40
0.780396253
 40
0.8007423802
 40
0.8210877182
 40
0.8420033098
 40
0.8639948706
 40
0.8874606172
 40
0.9126779338
 40
0.9398102411
 40
0.9689226996
 40
1.0
 40
1.0
 40
1.0
 40
1.0
 10
26.5162641182
 20
23.80234602
 30
0.0
 10
26.0017852979
 20
24.0595854302
 30
0.0
 10
24.8805677222
 20
24.5103934394
 30
0.0
 10
23.0682040863
 20
24.9866388836
 30
0.0
 10
21.1051384086
 20
25.2801476397
 30
0.0
 10
19.0651015641
 20
25.3794291186
 30
0.0
 10
17.0245212497
 20
25.2806649974
 30
0.0
 10
15.0600810547
 20
24.9874495269
 30
0.0
 10
13.2458161352
 20
24.5109638787
 30
0.0
 10
11.8771828874
 20
23.9610096114
 30
0.0
 10
10.9218755841
 20
23.4373876886
 30
0.0
 10
10.3032711885
 20
23.0231491138
 30
0.0
 10
9.7680513087
 20
22.5801670172
 30
0.0
 10
9.3213515955
 20
22.1121846692
 30
0.0
 10
8.9677602537
 20
21.6230855942
 30
0.0
 10
8.711266741
 20
21.1170577669
 30
0.0
 10
8.5556494681
 20
20.5987456868
 30
0.0
 10
8.5035947515
 20
20.0739133705
 30
0.0
 10
8.5562053474
 20
19.5491585286
 30
0.0
 10
8.7123450654
 20
19.0310993858
 30
0.0
 10
8.969133212
 20
18.5254173128
 30
0.0
 10
9.3228794471
 20
18.0367816028
 30
0.0
 10
9.7694766356
 20
17.5692803848
 30
0.0
 10
10.3043993848
 20
17.1267727494
 30
0.0
 10
10.9224766519
 20
16.7130522062
 30
0.0
 10
11.3719716114
 20
16.4666164556
 30
0.0
 10
11.6083883004
 20
16.3484081111
 30
0.0
 11
26.5162641182
 21
23.80234602
 31
0.0
 11
24.9198532018
 21
24.4574928144
 31
0.0
 11
23.0983964825
 21
24.9444752979
 31
0.0
 11
21.1216243773
 21
25.2445551179
 31
0.0
 11
19.0652842746
 21
25.3461034431
 31
0.0
 11
17.008350187
 21
25.2450856918
 31
0.0
 11
15.0300088458
 21
24.9452472561
 31
0.0
 11
13.2065845834
 21
24.4580770167
 31
0.0
 11
11.6084235806
 21
23.8023482113
 31
0.0
 11
10.9134111405
 21
23.4189333096
 31
0.0
 11
10.2969553085
 21
23.0032714927
 31
0.0
 11
9.7649715186
 21
22.5593874802
 31
0.0
 11
9.3226050492
 21
22.0915606072
 31
0.0
 11
8.9741537312
 21
21.6043215118
 31
0.0
 11
8.7229204916
 21
21.1023877849
 31
0.0
 11
8.5713672107
 21
20.5906044952
 31
0.0
 11
8.5208772286
 21
20.0739155288
 31
0.0
 11
8.5719156025
 21
19.5573006783
 31
0.0
 11
8.723966412
 21
19.0457390224
 31
0.0
 11
8.9755202441
 21
18.54414868
 31
0.0
 11
9.3241258537
 21
18.057347264
 31
0.0
 11
9.766407085
 21
17.5900079767
 31
0.0
 11
10.2980928963
 21
17.1466151265
 31
0.0
 11
10.9140584603
 21
16.7314233133
 31
0.0
 11
11.6083883004
 21
16.3484081111
 31
0.0
  0
SPLINE
  5
36A
100
AcDbEntity
  8
RACCORDO
100
AcDbSpline
 62
253
  6
CONTINUOUS
 70
0
 71
3
 72
31
 73
27
 74
25
 42
0.0000001
 43
0.0000001
 44
0.0000000001
 12
22.5178028596
 22
-11.2589014298
 32
0.0
 13
-22.1221941526
 23
12.0176051235
 33
0.0
 40
0.0
 40
0.0
 40
0.0
 40
0.0
 40
0.067595222
 40
0.1413932586
 40
0.2196527421
 40
0.3002988753
 40
0.381088734
 40
0.4597641784
 40
0.5342059793
 40
0.6026067059
 40
0.6341397611
 40
0.6637414623
 40
0.6913816172
 40
0.7171013524
 40
0.7410342777
 40
0.763419638
 40
0.7846130048
 40
0.8050805254
 40
0.8253653417
 40
0.8460313583
 40
0.8675986321
 40
0.8904945589
 40
0.9150319845
 40
0.9414101755
 40
0.9697279343
 40
1.0
 40
1.0
 40
1.0
 40
1.0
 10
11.6083883004
 20
16.3484081111
 30
0.0
 10
12.1157535948
 20
16.0947254639
 30
0.0
 10
13.2204304187
 20
15.6491687081
 30
0.0
 10
15.0055719998
 20
15.1754951884
 30
0.0
 10
16.9394028119
 20
14.8795049693
 30
0.0
 10
18.9511636455
 20
14.7724783661
 30
0.0
 10
20.9674300871
 20
14.858414401
 30
0.0
 10
22.9143566588
 20
15.1342885977
 30
0.0
 10
24.7204094084
 20
15.5898574085
 30
0.0
 10
26.0900759548
 20
16.1192643231
 30
0.0
 10
27.0533860154
 20
16.6252617157
 30
0.0
 10
27.6819859027
 20
17.0270123938
 30
0.0
 10
28.2306740064
 20
17.4575600884
 30
0.0
 10
28.6942752046
 20
17.913426787
 30
0.0
 10
29.0683646283
 20
18.3907759065
 30
0.0
 10
29.3488962834
 20
18.8857504685
 30
0.0
 10
29.5322211073
 20
19.3940221666
 30
0.0
 10
29.6154499001
 20
19.9104010843
 30
0.0
 10
29.5968942649
 20
20.428784198
 30
0.0
 10
29.477025181
 20
20.9427304654
 30
0.0
 10
29.2580988549
 20
21.4464582365
 30
0.0
 10
28.9434218089
 20
21.9351756591
 30
0.0
 10
28.5367900332
 20
22.4047914019
 30
0.0
 10
28.0423688268
 20
22.8515294071
 30
0.0
 10
27.4648935977
 20
23.2716935621
 30
0.0
 10
27.0417831518
 20
23.5235396733
 30
0.0
 10
26.8185549806
 20
23.6448055838
 30
0.0
 11
11.6083883004
 21
16.3484081111
 31
0.0
 11
13.1821260313
 21
15.7008593469
 31
0.0
 11
14.9758736309
 21
15.2167958501
 31
0.0
 11
16.9227570525
 21
14.9143552759
 31
0.0
 11
18.9501275702
 21
14.8049499964
 31
0.0
 11
20.9821683698
 21
14.8927962931
 31
0.0
 11
22.9427057895
 21
15.1747413507
 31
0.0
 11
24.758086954
 21
15.6402786802
 31
0.0
 11
26.3600884387
 21
16.271937223
 31
0.0
 11
27.0619615099
 21
16.6428779644
 31
0.0
 11
27.6887253859
 21
17.0460573554
 31
0.0
 11
28.2345588693
 21
17.4776660896
 31
0.0
 11
28.6942671823
 21
17.93366988
 31
0.0
 11
29.0635693369
 21
18.4097530599
 31
0.0
 11
29.3389822556
 21
18.901438766
 31
0.0
 11
29.5179240494
 21
19.404094817
 31
0.0
 11
29.5987782207
 21
19.9129953098
 31
0.0
 11
29.5807795979
 21
20.4233618581
 31
0.0
 11
29.4641500946
 21
20.9304019577
 31
0.0
 11
29.2500209487
 21
21.4293666067
 31
0.0
 11
28.940424588
 21
21.915587158
 31
0.0
 11
28.5382866181
 21
22.3845171134
 31
0.0
 11
28.0473946669
 21
22.8317740493
 31
0.0
 11
27.4723564782
 21
23.2531810964
 31
0.0
 11
26.8185549806
 21
23.6448055838
 31
0.0
  0
SPLINE
  5
36B
100
AcDbEntity
  8
RACCORDO
100
AcDbSpline
 62
253
  6
CONTINUOUS
 70
0
 71
3
 72
25
 73
21
 74
19
 42
0.0000001
 43
0.0000001
 44
0.0000000001
 12
19.365572822
 22
-9.682786411
 32
0.0
 13
-0.4368157109
 23
21.6469618063
 33
0.0
 40
0.0
 40
0.0
 40
0.0
 40
0.0
 40
0.0626639578
 40
0.1300233782
 40
0.2012123222
 40
0.2751890038
 40
0.3507944979
 40
0.4268033715
 40
0.5019717937
 40
0.5750870235
 40
0.6450164764
 40
0.7107645586
 40
0.7715422054
 40
0.8268460504
 40
0.8765600665
 40
0.9210979464
 40
0.9417811069
 40
0.9616491303
 40
0.9809586357
 40
1.0
 40
1.0
 40
1.0
 40
1.0
 10
11.1841888492
 20
15.6257616796
 30
0.0
 10
11.5886966616
 20
15.4235077734
 30
0.0
 10
12.4540729858
 20
15.0549000233
 30
0.0
 10
13.8418515792
 20
14.6208141336
 30
0.0
 10
15.3420135504
 20
14.2925743596
 30
0.0
 10
16.9223412659
 20
14.0773851093
 30
0.0
 10
18.549043707
 20
13.979926251
 30
0.0
 10
20.1870835692
 20
14.0023858366
 30
0.0
 10
21.8011263922
 20
14.1443319578
 30
0.0
 10
23.3563341954
 20
14.4027170315
 30
0.0
 10
24.819221368
 20
14.7719560611
 30
0.0
 10
26.1585157559
 20
15.2441743182
 30
0.0
 10
27.3459350968
 20
15.8094467117
 30
0.0
 10
28.3568979166
 20
16.4567244969
 30
0.0
 10
29.1702907535
 20
17.173640389
 30
0.0
 10
29.6808486385
 20
17.8366143475
 30
0.0
 10
29.9612693799
 20
18.3846437417
 30
0.0
 10
30.1065479645
 20
18.7929596861
 30
0.0
 10
30.1908567588
 20
19.2059989074
 30
0.0
 10
30.2058917652
 20
19.4835740721
 30
0.0
 10
30.2031192428
 20
19.6209699672
 30
0.0
 11
11.1841888492
 21
15.6257616796
 31
0.0
 11
12.4301168007
 21
15.0886746702
 31
0.0
 11
13.8207334675
 21
14.6491467368
 31
0.0
 11
15.3258079711
 21
14.3167707725
 31
0.0
 11
16.9126073317
 21
14.0988277611
 31
0.0
 11
18.5465911776
 21
14.0001223037
 31
0.0
 11
20.1921301013
 21
14.0228696114
 31
0.0
 11
21.8132670364
 21
14.1666358873
 31
0.0
 11
23.3745319944
 21
14.4283275903
 31
0.0
 11
24.8417019799
 21
14.8022463544
 31
0.0
 11
26.1825984665
 21
15.2802120961
 31
0.0
 11
27.3679103697
 21
15.8517706019
 31
0.0
 11
28.3717924412
 21
16.5044550377
 31
0.0
 11
29.1723097963
 21
17.2240092781
 31
0.0
 11
29.7519443711
 21
17.9946647983
 31
0.0
 11
29.9547917612
 21
18.3939072729
 31
0.0
 11
30.0980413263
 21
18.7995249537
 31
0.0
 11
30.1809774229
 21
19.2092933834
 31
0.0
 11
30.2031192428
 21
19.6209699672
 31
0.0
  0
SPLINE
  5
36C
100
AcDbEntity
  8
RACCORDO
100
AcDbSpline
 62
253
  6
CONTINUOUS
 70
0
 71
3
 72
11
 73
7
 74
5
 42
0.0000001
 43
0.0000001
 44
0.0000000001
 12
1.5597475715
 22
-0.7798737858
 32
0.0
 13
0.0246750267
 23
-1.7436762175
 33
0.0
 40
0.0
 40
0.0
 40
0.0
 40
0.0
 40
0.2293230129
 40
0.4873253164
 40
0.7522480414
 40
1.0
 40
1.0
 40
1.0
 40
1.0
 10
-13.6061363165
 20
-24.7269094326
 30
0.0
 10
-13.4869076457
 20
-24.786523768
 30
0.0
 10
-13.2588253612
 20
-24.9641305647
 30
0.0
 10
-12.9942893007
 20
-25.3169716657
 30
0.0
 10
-12.8122623161
 20
-25.7303605059
 30
0.0
 10
-12.7597751761
 20
-26.0282025629
 30
0.0
 10
-12.757737414
 20
-26.1722022955
 30
0.0
 11
-13.6061363165
 21
-24.7269094326
 31
0.0
 11
-13.2848058015
 21
-24.9649657379
 31
0.0
 11
-13.0114215294
 21
-25.3222986602
 31
0.0
 11
-12.8265253052
 21
-25.7456710477
 31
0.0
 11
-12.757737414
 21
-26.1722022955
 31
0.0
  0
SPLINE
  5
36D
100
AcDbEntity
  8
RACCORDO
100
AcDbSpline
 62
253
  6
CONTINUOUS
 70
0
 71
3
 72
17
 73
13
 74
11
 42
0.0000001
 43
0.0000001
 44
0.0000000001
 12
5.5467356064
 22
2.774707167
 32
0.0
 13
5.5478120037
 23
2.7725543678
 33
0.0
 40
0.0
 40
0.0
 40
0.0
 40
0.0
 40
0.1272348544
 40
0.2569539856
 40
0.3863816587
 40
0.4502272782
 40
0.5131957202
 40
0.5752431092
 40
0.63639707
 40
0.7569659392
 40
0.8772394271
 40
1.0
 40
1.0
 40
1.0
 40
1.0
 10
24.825431852
 20
-7.3806176625
 30
0.0
 10
25.0606778845
 20
-7.2629378417
 30
0.0
 10
25.5249828901
 20
-7.0039026241
 30
0.0
 10
26.2072437768
 20
-6.5886510488
 30
0.0
 10
26.7796800176
 20
-6.2446722781
 30
0.0
 10
27.2423567378
 20
-5.9865559301
 30
0.0
 10
27.5889169781
 20
-5.8065883867
 30
0.0
 10
27.9357755245
 20
-5.6396496819
 30
0.0
 10
28.3966595303
 20
-5.4355993398
 30
0.0
 10
28.9764784596
 20
-5.2037867681
 30
0.0
 10
29.6763493194
 20
-4.9296985076
 30
0.0
 10
30.1358919337
 20
-4.7253323126
 30
0.0
 10
30.3629094604
 20
-4.6118788584
 30
0.0
 11
24.825431852
 21
-7.3806176625
 31
0.0
 11
25.5178989372
 21
-7.0022098669
 31
0.0
 11
26.2081818271
 21
-6.5889705103
 31
0.0
 11
26.8987997511
 21
-6.1798265049
 31
0.0
 11
27.2448846925
 21
-5.9874212065
 31
0.0
 11
27.5914993755
 21
-5.8074933607
 31
0.0
 11
27.9383000367
 21
-5.6407122514
 31
0.0
 11
28.2849298467
 21
-5.4867626517
 31
0.0
 11
28.9773394146
 21
-5.2043922926
 31
0.0
 11
29.6695404813
 21
-4.9263899904
 31
0.0
 11
30.3629094604
 21
-4.6118788584
 31
0.0
  0
SPLINE
  5
36E
100
AcDbEntity
  8
RACCORDO
100
AcDbSpline
 62
253
  6
CONTINUOUS
 70
0
 71
3
 72
11
 73
7
 74
5
 42
0.0000001
 43
0.0000001
 44
0.0000000001
 12
0.9990439114
 22
-0.9541479839
 32
0.0
 13
0.0196388288
 23
-1.3813404462
 33
0.0
 40
0.0
 40
0.0
 40
0.0
 40
0.0
 40
0.2476768067
 40
0.5062512698
 40
0.7615385211
 40
1.0
 40
1.0
 40
1.0
 40
1.0
 10
24.2725074747
 20
-6.1481322805
 30
0.0
 10
24.3549874766
 20
-6.2269057224
 30
0.0
 10
24.5058484813
 20
-6.4070605943
 30
0.0
 10
24.6785211987
 20
-6.7143533478
 30
0.0
 10
24.7922647654
 20
-7.0435179253
 30
0.0
 10
24.8238708549
 20
-7.270818465
 30
0.0
 10
24.8254318896
 20
-7.3806172936
 30
0.0
 11
24.2725074747
 21
-6.1481322805
 31
0.0
 11
24.4939669409
 21
-6.4089570447
 31
0.0
 11
24.6694361304
 21
-6.7201056409
 31
0.0
 11
24.7833018248
 21
-7.053892587
 31
0.0
 11
24.8254318896
 21
-7.3806172936
 31
0.0
  0
SPLINE
  5
36F
100
AcDbEntity
  8
RACCORDO
100
AcDbSpline
 62
253
  6
CONTINUOUS
 70
0
 71
3
 72
11
 73
7
 74
5
 42
0.0000001
 43
0.0000001
 44
0.0000000001
 12
0.9990791389
 22
-0.9541166984
 32
0.0
 13
0.0195479585
 23
-1.3813456038
 33
0.0
 40
0.0
 40
0.0
 40
0.0
 40
0.0
 40
0.2476771149
 40
0.5062500049
 40
0.7615361836
 40
1.0
 40
1.0
 40
1.0
 40
1.0
 10
29.8100084799
 20
-3.3793881152
 30
0.0
 10
29.8924914928
 20
-3.4581590722
 30
0.0
 10
30.0433566063
 20
-3.6383112201
 30
0.0
 10
30.2160280032
 20
-3.9456052197
 30
0.0
 10
30.3297617226
 20
-4.2747746185
 30
0.0
 10
30.3613556335
 20
-4.5020785435
 30
0.0
 10
30.3629094604
 20
-4.6118788584
 30
0.0
 11
29.8100084799
 21
-3.3793881152
 31
0.0
 11
30.0314742875
 21
-3.6402093104
 31
0.0
 11
30.2069413271
 21
-3.9513577723
 31
0.0
 11
30.3207966157
 21
-4.2851477458
 31
0.0
 11
30.3629094604
 21
-4.6118788584
 31
0.0
  0
SPLINE
  5
370
100
AcDbEntity
  8
RACCORDO
100
AcDbSpline
 62
253
  6
CONTINUOUS
 70
0
 71
3
 72
15
 73
11
 74
9
 42
0.0000001
 43
0.0000001
 44
0.0000000001
 12
1.0329437865
 22
0.5166710138
 32
0.0
 13
-1.0329227854
 23
0.5167129978
 33
0.0
 40
0.0
 40
0.0
 40
0.0
 40
0.0
 40
0.1512697976
 40
0.282748744
 40
0.3967137314
 40
0.4999992196
 40
0.6032847743
 40
0.717248999
 40
0.8487298663
 40
1.0
 40
1.0
 40
1.0
 40
1.0
 10
33.5808183957
 20
-1.1334320765
 30
0.0
 10
33.6329027949
 20
-1.1073798366
 30
0.0
 10
33.7270622609
 20
-1.0515112521
 30
0.0
 10
33.8413611102
 20
-0.9482813872
 30
0.0
 10
33.9146814614
 20
-0.8331823387
 30
0.0
 10
33.9406220868
 20
-0.709232773
 30
0.0
 10
33.9146828814
 20
-0.5852835794
 30
0.0
 10
33.8413657348
 20
-0.4701815789
 30
0.0
 10
33.7270622821
 20
-0.3669549375
 30
0.0
 10
33.6329018516
 20
-0.3110875888
 30
0.0
 10
33.5808183957
 20
-0.285033174
 30
0.0
 11
33.5808183957
 21
-1.1334320765
 31
0.0
 11
33.7300191588
 21
-1.0425328639
 31
0.0
 11
33.8409231234
 21
-0.9388051702
 31
0.0
 11
33.9091955443
 21
-0.8262712757
 31
0.0
 11
33.9322635229
 21
-0.7092328111
 31
0.0
 11
33.9091971028
 21
-0.5921939611
 31
0.0
 11
33.840927131
 21
-0.4796596112
 31
0.0
 11
33.7300194703
 21
-0.3759326213
 31
0.0
 11
33.5808183957
 21
-0.285033174
 31
0.0
  0
SPLINE
  5
371
100
AcDbEntity
  8
RACCORDO
100
AcDbSpline
 62
253
  6
CONTINUOUS
 70
0
 71
3
 72
12
 73
8
 74
6
 42
0.0000001
 43
0.0000001
 44
0.0000000001
 12
1.0482342967
 22
0.5355648563
 32
0.0
 13
-0.0320842112
 23
1.1766883442
 33
0.0
 40
0.0
 40
0.0
 40
0.0
 40
0.0
 40
0.3030401053
 40
0.5658691214
 40
0.7931345435
 40
0.8979600643
 40
1.0
 40
1.0
 40
1.0
 40
1.0
 10
34.4292172982
 20
-2.5787249395
 30
0.0
 10
34.5351029754
 20
-2.5246257293
 30
0.0
 10
34.7261066573
 20
-2.4088086054
 30
0.0
 10
34.9567110325
 20
-2.1960744108
 30
0.0
 10
35.0809558352
 20
-1.993106535
 30
0.0
 10
35.1267577128
 20
-1.8280523538
 30
0.0
 10
35.1327598302
 20
-1.7464610749
 30
0.0
 10
35.1316685399
 20
-1.7064380073
 30
0.0
 11
34.4292172982
 21
-2.5787249395
 31
0.0
 11
34.7320861476
 21
-2.3902654725
 31
0.0
 11
34.9555062259
 21
-2.1762533815
 31
0.0
 11
35.0904541674
 21
-1.945264239
 31
0.0
 11
35.1229886754
 21
-1.8262378056
 31
0.0
 11
35.1316685399
 21
-1.7064380073
 31
0.0
  0
SPLINE
  5
372
100
AcDbEntity
  8
RACCORDO
100
AcDbSpline
 62
253
  6
CONTINUOUS
 70
0
 71
3
 72
11
 73
7
 74
5
 42
0.0000001
 43
0.0000001
 44
0.0000000001
 12
1.5597476336
 22
-0.7798736984
 32
0.0
 13
0.0246749425
 23
-1.7436762352
 33
0.0
 40
0.0
 40
0.0
 40
0.0
 40
0.0
 40
0.2293229926
 40
0.4873252867
 40
0.7522480191
 40
1.0
 40
1.0
 40
1.0
 40
1.0
 10
33.5808183957
 20
-1.1334320765
 30
0.0
 10
33.7000470607
 20
-1.1930463999
 30
0.0
 10
33.9281293444
 20
-1.3706531736
 30
0.0
 10
34.1926654147
 20
-1.7234942579
 30
0.0
 10
34.3746924045
 20
-2.1368831148
 30
0.0
 10
34.4271795384
 20
-2.4347251946
 30
0.0
 10
34.4292172937
 20
-2.5787249417
 30
0.0
 11
33.5808183957
 21
-1.1334320765
 31
0.0
 11
33.9021488992
 21
-1.3714883441
 31
0.0
 11
34.175533178
 21
-1.728821246
 31
0.0
 11
34.3604294094
 21
-2.1521936492
 31
0.0
 11
34.4292172937
 21
-2.5787249417
 31
0.0
  0
SPLINE
  5
373
100
AcDbEntity
  8
RACCORDO
100
AcDbSpline
 62
253
  6
CONTINUOUS
 70
0
 71
3
 72
11
 73
7
 74
5
 42
0.0000001
 43
0.0000001
 44
0.0000000001
 12
0.4977882276
 22
0.2488941138
 32
0.0
 13
0.4976254896
 23
-0.249219324
 33
0.0
 40
0.0
 40
0.0
 40
0.0
 40
0.0
 40
0.2789049585
 40
0.5353639145
 40
0.7729440643
 40
1.0
 40
1.0
 40
1.0
 40
1.0
 10
33.5808183957
 20
-0.285033174
 30
0.0
 10
33.6270969307
 20
-0.2618939065
 30
0.0
 10
33.7197851521
 20
-0.2245255948
 30
0.0
 10
33.8617672697
 20
-0.1976827717
 30
0.0
 10
33.9967600228
 20
-0.204482156
 30
0.0
 10
34.0797995594
 20
-0.2321131916
 30
0.0
 10
34.1174624998
 20
-0.2509754339
 30
0.0
 11
33.5808183957
 21
-0.285033174
 31
0.0
 11
33.7252054397
 21
-0.2280547746
 31
0.0
 11
33.8657030934
 21
-0.2029057856
 31
0.0
 11
33.9976993617
 21
-0.21066015
 31
0.0
 11
34.1174624998
 21
-0.2509754339
 31
0.0
  0
SPLINE
  5
374
100
AcDbEntity
  8
ASSI
100
AcDbSpline
 62
7
  6
CONTINUOUS
 70
0
 71
3
 72
16
 73
12
 74
10
 42
0.0000001
 43
0.0000001
 44
0.0000000001
 12
1.5219507465
 22
0.7615594181
 32
0.0
 13
1.6419619692
 23
0.4475128084
 33
0.0
 40
0.0
 40
0.0
 40
0.0
 40
0.0
 40
0.3444782006
 40
0.5093761968
 40
0.6595473063
 40
0.7888012463
 40
0.8916501471
 40
0.9316436303
 40
0.963239319
 40
0.9860868693
 40
1.0
 40
1.0
 40
1.0
 40
1.0
 10
33.3962696589
 20
-33.0773005349
 30
0.0
 10
33.571029277
 20
-32.9898536622
 30
0.0
 10
33.8198930182
 20
-32.8422504577
 30
0.0
 10
34.1425847668
 20
-32.6530248581
 30
0.0
 10
34.3638232358
 20
-32.5320653779
 30
0.0
 10
34.5593689097
 20
-32.4380289275
 30
0.0
 10
34.702768006
 20
-32.3804995451
 30
0.0
 10
34.7966529639
 20
-32.3491596106
 30
0.0
 10
34.8480749047
 20
-32.3340899796
 30
0.0
 10
34.8856103844
 20
-32.324343763
 30
0.0
 10
34.9059182861
 20
-32.3195818126
 30
0.0
 10
34.91353323
 20
-32.3175063779
 30
0.0
 11
33.3962696589
 21
-33.0773005349
 31
0.0
 11
33.9077920685
 21
-32.7908817131
 31
0.0
 11
34.1505374696
 21
-32.6500656615
 31
0.0
 11
34.3753368005
 21
-32.5284888349
 31
0.0
 11
34.5739904156
 21
-32.4340212438
 31
0.0
 11
34.7367230389
 21
-32.3695625222
 31
0.0
 11
34.8013134946
 21
-32.3480996683
 31
0.0
 11
34.8529227643
 21
-32.333005619
 31
0.0
 11
34.8905635609
 21
-32.3232550728
 31
0.0
 11
34.91353323
 21
-32.3175063779
 31
0.0
  0
SPLINE
  5
375
100
AcDbEntity
  8
ASSI
100
AcDbSpline
 62
7
  6
CONTINUOUS
 70
0
 71
3
 72
9
 73
5
 74
3
 42
0.0000001
 43
0.0000001
 44
0.0000000001
 12
0.0066720208
 22
0.0018184433
 32
0.0
 13
0.0062534873
 23
0.0029523709
 33
0.0
 40
0.0
 40
0.0
 40
0.0
 40
0.0
 40
0.3276491532
 40
1.0
 40
1.0
 40
1.0
 40
1.0
 10
34.91353323
 20
-32.3175063779
 30
0.0
 10
34.914261924
 20
-32.3173077741
 30
0.0
 10
34.9164757815
 20
-32.3166770861
 30
0.0
 10
34.9187062245
 20
-32.3160323414
 30
0.0
 10
34.920107737
 20
-32.3153706651
 30
0.0
 11
34.91353323
 21
-32.3175063779
 31
0.0
 11
34.9157144416
 21
-32.3168929763
 31
0.0
 11
34.920107737
 21
-32.3153706651
 31
0.0
  0
SPLINE
  5
376
100
AcDbEntity
  8
RACCORDO
100
AcDbSpline
 62
7
  6
CONTINUOUS
 70
0
 71
3
 72
12
 73
8
 74
6
 42
0.0000001
 43
0.0000001
 44
0.0000000001
 12
0.0
 22
1.1561707076
 32
0.0
 13
-1.0341105183
 23
0.5170552592
 33
0.0
 40
0.0
 40
0.0
 40
0.0
 40
0.0
 40
0.1022305132
 40
0.2073244186
 40
0.4350064293
 40
0.6978158231
 40
1.0
 40
1.0
 40
1.0
 40
1.0
 10
36.9691779207
 20
-29.0281550871
 30
0.0
 10
36.9691779207
 20
-28.9887564455
 30
0.0
 10
36.9611431285
 20
-28.9086486796
 30
0.0
 10
36.9126474123
 20
-28.7472439839
 30
0.0
 10
36.7873898586
 20
-28.5497670481
 30
0.0
 10
36.5587009805
 20
-28.3435944343
 30
0.0
 10
36.3703981408
 20
-28.2317089223
 30
0.0
 10
36.2662341956
 20
-28.1796269497
 30
0.0
 11
36.9691779207
 21
-29.0281550871
 31
0.0
 11
36.9575879274
 21
-28.9105287776
 31
0.0
 11
36.9230338265
 21
-28.7940391109
 31
0.0
 11
36.7865134857
 21
-28.5689677655
 31
0.0
 11
36.5645864007
 21
-28.3614232534
 31
0.0
 11
36.2662341956
 21
-28.1796269497
 31
0.0
  0
SPLINE
  5
377
100
AcDbEntity
  8
RACCORDO
100
AcDbSpline
 62
7
  6
CONTINUOUS
 70
0
 71
3
 72
9
 73
5
 74
3
 42
0.0000001
 43
0.0000001
 44
0.0000000001
 12
-0.5271670227
 22
-0.2635835113
 32
0.0
 13
-0.402081794
 23
-0.4309426507
 33
0.0
 40
0.0
 40
0.0
 40
0.0
 40
0.0
 40
0.5304407287
 40
1.0
 40
1.0
 40
1.0
 40
1.0
 10
-33.5676315144
 20
-45.0229104775
 30
0.0
 10
-33.660841801
 20
-45.0695156208
 30
0.0
 10
-33.8311509136
 20
-45.1689762701
 30
0.0
 10
-33.9825469145
 20
-45.2965922215
 30
0.0
 10
-34.0454806592
 20
-45.3640432605
 30
0.0
 11
-33.5676315144
 21
-45.0229104775
 31
0.0
 11
-33.8361980481
 21
-45.1829535626
 31
0.0
 11
-34.0454806592
 21
-45.3640432605
 31
0.0
  0
SPLINE
  5
378
100
AcDbEntity
  8
RACCORDO
100
AcDbSpline
 62
7
  6
CONTINUOUS
 70
0
 71
3
 72
9
 73
5
 74
3
 42
0.0000001
 43
0.0000001
 44
0.0000000001
 12
-0.1663270219
 22
-0.1782657379
 32
0.0
 13
-0.115137819
 23
-0.2149107585
 33
0.0
 40
0.0
 40
0.0
 40
0.0
 40
0.0
 40
0.262214413
 40
1.0
 40
1.0
 40
1.0
 40
1.0
 10
-34.0454806592
 20
-45.3640432605
 30
0.0
 10
-34.06001844
 20
-45.3796245425
 30
0.0
 10
-34.1137776123
 20
-45.4405618601
 30
0.0
 10
-34.1604700715
 20
-45.5079816591
 30
0.0
 10
-34.188785746
 20
-45.5608343458
 30
0.0
 11
-34.0454806592
 21
-45.3640432605
 31
0.0
 11
-34.0877254179
 21
-45.4120275405
 31
0.0
 11
-34.188785746
 21
-45.5608343458
 31
0.0
  0
SPLINE
  5
379
100
AcDbEntity
  8
RACCORDO
100
AcDbSpline
 62
7
  6
CONTINUOUS
 70
0
 71
3
 72
9
 73
5
 74
3
 42
0.0000001
 43
0.0000001
 44
0.0000000001
 12
-0.1528526501
 22
-0.2853074626
 32
0.0
 13
0.0
 23
-0.323673108
 33
0.0
 40
0.0
 40
0.0
 40
0.0
 40
0.0
 40
0.5118685661
 40
1.0
 40
1.0
 40
1.0
 40
1.0
 10
-34.188785746
 20
-45.5608343458
 30
0.0
 10
-34.2148659016
 20
-45.6095143197
 30
0.0
 10
-34.2559643337
 20
-45.7104648763
 30
0.0
 10
-34.2705752396
 20
-45.8187736089
 30
0.0
 10
-34.2705752396
 20
-45.871438615
 30
0.0
 11
-34.188785746
 21
-45.5608343458
 31
0.0
 11
-34.249999911
 21
-45.7147890645
 31
0.0
 11
-34.2705752396
 21
-45.871438615
 31
0.0
  0
SPLINE
  5
37A
100
AcDbEntity
  8
RACCORDO
100
AcDbSpline
 62
7
  6
CONTINUOUS
 70
0
 71
3
 72
12
 73
8
 74
6
 42
0.0000001
 43
0.0000001
 44
0.0000000001
 12
0.0
 22
-1.1561707076
 32
0.0
 13
1.0341105183
 23
-0.5170552592
 33
0.0
 40
0.0
 40
0.0
 40
0.0
 40
0.0
 40
0.1022305132
 40
0.2073244186
 40
0.4350064293
 40
0.6978158231
 40
1.0
 40
1.0
 40
1.0
 40
1.0
 10
-34.2705752396
 20
-45.871438615
 30
0.0
 10
-34.2705752396
 20
-45.9108372566
 30
0.0
 10
-34.2625404474
 20
-45.9909450224
 30
0.0
 10
-34.2140447312
 20
-46.1523497182
 30
0.0
 10
-34.0887871775
 20
-46.3498266539
 30
0.0
 10
-33.8600982993
 20
-46.5559992677
 30
0.0
 10
-33.6717954597
 20
-46.6678847797
 30
0.0
 10
-33.5676315144
 20
-46.7199667524
 30
0.0
 11
-34.2705752396
 21
-45.871438615
 31
0.0
 11
-34.2589852463
 21
-45.9890649245
 31
0.0
 11
-34.2244311454
 21
-46.1055545911
 31
0.0
 11
-34.0879108046
 21
-46.3306259366
 31
0.0
 11
-33.8659837195
 21
-46.5381704487
 31
0.0
 11
-33.5676315144
 21
-46.7199667524
 31
0.0
  0
SPLINE
  5
37B
100
AcDbEntity
  8
RACCORDO
100
AcDbSpline
 62
253
  6
CONTINUOUS
 70
0
 71
3
 72
12
 73
8
 74
6
 42
0.0000001
 43
0.0000001
 44
0.0000000001
 12
1.2868408739
 22
0.7163845133
 32
0.0
 13
0.0
 23
1.4728089508
 33
0.0
 40
0.0
 40
0.0
 40
0.0
 40
0.0
 40
0.1076523281
 40
0.2178107036
 40
0.4515354699
 40
0.7114251996
 40
1.0
 40
1.0
 40
1.0
 40
1.0
 10
35.6779919493
 20
-31.9354250123
 30
0.0
 10
35.724169088
 20
-31.909718192
 30
0.0
 10
35.8131670923
 20
-31.84927432
 30
0.0
 10
35.973248987
 20
-31.6946202746
 30
0.0
 10
36.1325054602
 20
-31.4389084267
 30
0.0
 10
36.2438588241
 20
-31.068012128
 30
0.0
 10
36.2662341956
 20
-30.7977779376
 30
0.0
 10
36.2662341956
 20
-30.6561060879
 30
0.0
 11
35.6779919493
 21
-31.9354250123
 31
0.0
 11
35.8092659706
 21
-31.8465112899
 31
0.0
 11
35.9262385793
 21
-31.7340837411
 31
0.0
 11
36.112168026
 21
-31.4443841364
 31
0.0
 11
36.2272676208
 21
-31.0793315868
 31
0.0
 11
36.2662341956
 21
-30.6561060879
 31
0.0
  0
SPLINE
  5
37C
100
AcDbEntity
  8
RACCORDO
100
AcDbSpline
 62
253
  6
CONTINUOUS
 70
0
 71
3
 72
12
 73
8
 74
6
 42
0.0000001
 43
0.0000001
 44
0.0000000001
 12
0.0000595963
 22
-1.1561402986
 32
0.0
 13
1.0340833211
 23
-0.5170416605
 33
0.0
 40
0.0
 40
0.0
 40
0.0
 40
0.0
 40
0.1022301743
 40
0.2073242601
 40
0.435007305
 40
0.6978170542
 40
1.0
 40
1.0
 40
1.0
 40
1.0
 10
-34.2705752388
 20
-46.650892203
 30
0.0
 10
-34.2705732079
 20
-46.6902896777
 30
0.0
 10
-34.2625348004
 20
-46.7703948388
 30
0.0
 10
-34.2140340089
 20
-46.9317936403
 30
0.0
 10
-34.088774801
 20
-47.1292624327
 30
0.0
 10
-33.8600900627
 20
-47.3354272756
 30
0.0
 10
-33.6717922958
 20
-47.4473092251
 30
0.0
 10
-33.5676315144
 20
-47.4993896158
 30
0.0
 11
-34.2705752388
 21
-46.650892203
 31
0.0
 11
-34.2589799947
 21
-46.7685144776
 31
0.0
 11
-34.2244222278
 21
-46.884999941
 31
0.0
 11
-34.0878991047
 21
-47.1100629
 31
0.0
 11
-33.8659751829
 21
-47.3175996965
 31
0.0
 11
-33.5676315144
 21
-47.4993896158
 31
0.0
  0
SPLINE
  5
37D
100
AcDbEntity
  8
RACCORDO
100
AcDbSpline
 62
7
  6
CONTINUOUS
 70
0
 71
3
 72
15
 73
11
 74
9
 42
0.0000001
 43
0.0000001
 44
0.0000000001
 12
3.1246971571
 22
-1.5623485785
 32
0.0
 13
3.1246971571
 23
1.5623485785
 33
0.0
 40
0.0
 40
0.0
 40
0.0
 40
0.0
 40
0.1124955561
 40
0.2354847051
 40
0.3658085937
 40
0.5
 40
0.6341914063
 40
0.7645152949
 40
0.8875044439
 40
1.0
 40
1.0
 40
1.0
 40
1.0
 10
-17.1910384621
 20
-54.9082632785
 30
0.0
 10
-17.0738669473
 20
-54.9668490359
 30
0.0
 10
-16.8184102179
 20
-55.069499352
 30
0.0
 10
-16.4055944342
 20
-55.1780052455
 30
0.0
 10
-15.9584643083
 20
-55.2447521765
 30
0.0
 10
-15.4939821873
 20
-55.2673361575
 30
0.0
 10
-15.0295000662
 20
-55.2447521765
 30
0.0
 10
-14.5823699404
 20
-55.1780052455
 30
0.0
 10
-14.1695541567
 20
-55.069499352
 30
0.0
 10
-13.9140974273
 20
-54.9668490359
 30
0.0
 10
-13.7969259124
 20
-54.9082632785
 30
0.0
 11
-17.1910384621
 21
-54.9082632785
 31
0.0
 11
-16.8274458548
 21
-55.0574393811
 31
0.0
 11
-16.4123568305
 21
-55.1684029236
 31
0.0
 11
-15.9622141397
 21
-55.236663094
 31
0.0
 11
-15.4939821873
 21
-55.2597351411
 31
0.0
 11
-15.0257502349
 21
-55.236663094
 31
0.0
 11
-14.5756075441
 21
-55.1684029236
 31
0.0
 11
-14.1605185198
 21
-55.0574393811
 31
0.0
 11
-13.7969259124
 21
-54.9082632785
 31
0.0
  0
SPLINE
  5
37E
100
AcDbEntity
  8
RACCORDO
100
AcDbSpline
 62
7
  6
CONTINUOUS
 70
0
 71
3
 72
12
 73
8
 74
6
 42
0.0000001
 43
0.0000001
 44
0.0000000001
 12
1.0341105183
 22
0.5170552592
 32
0.0
 13
0.0
 23
1.1561707076
 33
0.0
 40
0.0
 40
0.0
 40
0.0
 40
0.0
 40
0.3021841769
 40
0.5649935707
 40
0.7926755814
 40
0.8977694868
 40
1.0
 40
1.0
 40
1.0
 40
1.0
 10
36.2662341956
 20
-29.8766832245
 30
0.0
 10
36.3703981408
 20
-29.8246012519
 30
0.0
 10
36.5587009805
 20
-29.7127157399
 30
0.0
 10
36.7873898586
 20
-29.5065431261
 30
0.0
 10
36.9126474123
 20
-29.3090661903
 30
0.0
 10
36.9611431285
 20
-29.1476614946
 30
0.0
 10
36.9691779207
 20
-29.0675537287
 30
0.0
 10
36.9691779207
 20
-29.0281550871
 30
0.0
 11
36.2662341956
 21
-29.8766832245
 31
0.0
 11
36.5645864007
 21
-29.6948869208
 31
0.0
 11
36.7865134857
 21
-29.4873424087
 31
0.0
 11
36.9230338265
 21
-29.2622710633
 31
0.0
 11
36.9575879274
 21
-29.1457813966
 31
0.0
 11
36.9691779207
 21
-29.0281550871
 31
0.0
  0
SPLINE
  5
37F
100
AcDbEntity
  8
RACCORDO
100
AcDbSpline
 62
253
  6
CONTINUOUS
 70
0
 71
3
 72
12
 73
8
 74
6
 42
0.0000001
 43
0.0000001
 44
0.0000000001
 12
-1.2917909533
 22
0.7135565622
 32
0.0
 13
0.0
 23
1.4757665244
 33
0.0
 40
0.0
 40
0.0
 40
0.0
 40
0.0
 40
0.1076628962
 40
0.2178076743
 40
0.4514804446
 40
0.7113590028
 40
1.0
 40
1.0
 40
1.0
 40
1.0
 10
-32.9767800422
 20
-48.7801565279
 30
0.0
 10
-33.0231393606
 20
-48.7545486726
 30
0.0
 10
-33.1125050424
 20
-48.6942586675
 30
0.0
 10
-33.2732879376
 20
-48.5397177705
 30
0.0
 10
-33.4332935858
 20
-48.2837656921
 30
0.0
 10
-33.5451593537
 20
-47.9121877091
 30
0.0
 10
-33.5676315144
 20
-47.6413785229
 30
0.0
 10
-33.5676315144
 20
-47.4993896158
 30
0.0
 11
-32.9767800422
 21
-48.7801565279
 31
0.0
 11
-33.1086037767
 21
-48.6914601866
 31
0.0
 11
-33.2260828478
 21
-48.5791191322
 31
0.0
 11
-33.4128476515
 21
-48.2892260768
 31
0.0
 11
-33.5284812722
 21
-47.9235533885
 31
0.0
 11
-33.5676315144
 21
-47.4993896158
 31
0.0
  0
SPLINE
  5
380
100
AcDbEntity
  8
RACCORDO
100
AcDbSpline
 62
253
  6
CONTINUOUS
 70
0
 71
3
 72
12
 73
8
 74
6
 42
0.0000001
 43
0.0000001
 44
0.0000000001
 12
1.3530526447
 22
0.6761941303
 32
0.0
 13
-0.0
 23
1.5126103137
 33
0.0
 40
0.0
 40
0.0
 40
0.0
 40
0.0
 40
0.1078401371
 40
0.2178361345
 40
0.4508606569
 40
0.7105559014
 40
1.0
 40
1.0
 40
1.0
 40
1.0
 10
-14.4206873054
 20
-56.9857564932
 30
0.0
 10
-14.3720495112
 20
-56.9614495373
 30
0.0
 10
-14.2780620769
 20
-56.9032390576
 30
0.0
 10
-14.1084567749
 20
-56.7503374875
 30
0.0
 10
-13.938973812
 20
-56.491575742
 30
0.0
 10
-13.8206087476
 20
-56.1115775757
 30
0.0
 10
-13.7969259124
 20
-55.8336248515
 30
0.0
 10
-13.7969259124
 20
-55.6876861419
 30
0.0
 11
-14.4206873054
 21
-56.9857564932
 31
0.0
 11
-14.2819433459
 21
-56.8999760648
 31
0.0
 11
-14.1580880388
 21
-56.7888791399
 31
0.0
 11
-13.9607858169
 21
-56.4967992407
 31
0.0
 11
-13.8383994275
 21
-56.1235334893
 31
0.0
 11
-13.7969259124
 21
-55.6876861419
 31
0.0
  0
SPLINE
  5
381
100
AcDbEntity
  8
RACCORDO
100
AcDbSpline
 62
253
  6
CONTINUOUS
 70
0
 71
3
 72
12
 73
8
 74
6
 42
0.0000001
 43
0.0000001
 44
0.0000000001
 12
1.0340109736
 22
0.5170054868
 32
0.0
 13
0.0002180998
 23
1.1560593926
 33
0.0
 40
0.0
 40
0.0
 40
0.0
 40
0.0
 40
0.3021796431
 40
0.564990133
 40
0.7926758744
 40
0.8977705723
 40
1.0
 40
1.0
 40
1.0
 40
1.0
 10
36.2662341956
 20
-30.6561060879
 30
0.0
 10
36.3703865512
 20
-30.6040299101
 30
0.0
 10
36.5586707181
 20
-30.4921574578
 30
0.0
 10
36.7873444823
 20
-30.2860134763
 30
0.0
 10
36.9126079817
 20
-30.0885663419
 30
0.0
 10
36.9611223898
 20
-29.9271831707
 30
0.0
 10
36.969170478
 20
-29.8470848293
 30
0.0
 10
36.9691779101
 20
-29.8076903993
 30
0.0
 11
36.2662341956
 21
-30.6561060879
 31
0.0
 11
36.5645551287
 21
-30.4743331685
 31
0.0
 11
36.7864705186
 21
-30.2668171179
 31
0.0
 11
36.9230010096
 21
-30.0417765231
 31
0.0
 11
36.957568632
 21
-29.9253021131
 31
0.0
 11
36.9691779101
 21
-29.8076903993
 31
0.0
  0
SPLINE
  5
382
100
AcDbEntity
  8
RACCORDO
100
AcDbSpline
 62
253
  6
CONTINUOUS
 70
0
 71
3
 72
12
 73
8
 74
6
 42
0.0000001
 43
0.0000001
 44
0.0000000001
 12
-1.3530438633
 22
0.6762035424
 32
0.0
 13
0.0
 23
1.5126066662
 33
0.0
 40
0.0
 40
0.0
 40
0.0
 40
0.0
 40
0.1078405481
 40
0.2178365252
 40
0.4508613079
 40
0.710555347
 40
1.0
 40
1.0
 40
1.0
 40
1.0
 10
-16.5672801729
 20
-56.9857539706
 30
0.0
 10
-16.6159178368
 20
-56.9614465837
 30
0.0
 10
-16.7099058425
 20
-56.9032372754
 30
0.0
 10
-16.8795105509
 20
-56.7503350467
 30
0.0
 10
-17.04899093
 20
-56.4915733264
 30
0.0
 10
-17.1673565107
 20
-56.1115766653
 30
0.0
 10
-17.1910384621
 20
-55.8336247791
 30
0.0
 10
-17.1910384621
 20
-55.6876861419
 30
0.0
 11
-16.5672801729
 21
-56.9857539706
 31
0.0
 11
-16.7060245404
 21
-56.8999737678
 31
0.0
 11
-16.8298793442
 21
-56.7888769285
 31
0.0
 11
-17.027179884
 21
-56.4967964438
 31
0.0
 11
-17.1495653684
 21
-56.1235333112
 31
0.0
 11
-17.1910384621
 21
-55.6876861419
 31
0.0
  0
SPLINE
  5
383
100
AcDbEntity
  8
RACCORDO
100
AcDbSpline
 62
253
  6
CONTINUOUS
 70
0
 71
3
 72
15
 73
11
 74
9
 42
0.0000001
 43
0.0000001
 44
0.0000000001
 12
3.1246971571
 22
-1.5623485785
 32
0.0
 13
3.1246971571
 23
1.5623485785
 33
0.0
 40
0.0
 40
0.0
 40
0.0
 40
0.0
 40
0.1124955604
 40
0.2354847574
 40
0.3658086584
 40
0.5
 40
0.6341913416
 40
0.7645152426
 40
0.8875044396
 40
1.0
 40
1.0
 40
1.0
 40
1.0
 10
-17.1910384621
 20
-55.6876861419
 30
0.0
 10
-17.0738669429
 20
-55.7462719015
 30
0.0
 10
-16.8184101582
 20
-55.8489222465
 30
0.0
 10
-16.4055942912
 20
-55.9574281181
 30
0.0
 10
-15.9584641739
 20
-56.0241750748
 30
0.0
 10
-15.4939821873
 20
-56.046759001
 30
0.0
 10
-15.0295002007
 20
-56.0241750748
 30
0.0
 10
-14.5823700834
 20
-55.9574281181
 30
0.0
 10
-14.1695542164
 20
-55.8489222465
 30
0.0
 10
-13.9140974316
 20
-55.7462719015
 30
0.0
 10
-13.7969259124
 20
-55.6876861419
 30
0.0
 11
-17.1910384621
 21
-55.6876861419
 31
0.0
 11
-16.8274458411
 21
-55.8368622499
 31
0.0
 11
-16.4123566489
 21
-55.9478258143
 31
0.0
 11
-15.962213915
 21
-56.0160859903
 31
0.0
 11
-15.4939821873
 21
-56.0391580045
 31
0.0
 11
-15.0257504596
 21
-56.0160859903
 31
0.0
 11
-14.5756077257
 21
-55.9478258143
 31
0.0
 11
-14.1605185335
 21
-55.8368622499
 31
0.0
 11
-13.7969259124
 21
-55.6876861419
 31
0.0
  0
SPLINE
  5
384
100
AcDbEntity
  8
ASSI
100
AcDbSpline
 62
7
  6
CONTINUOUS
 70
0
 71
3
 72
9
 73
5
 74
3
 42
0.0000001
 43
0.0000001
 44
0.0000000001
 12
-0.407725047
 22
-0.2038625235
 32
0.0
 13
-0.3446577836
 23
-0.2983465345
 33
0.0
 40
0.0
 40
0.0
 40
0.0
 40
0.0
 40
0.2664737967
 40
1.0
 40
1.0
 40
1.0
 40
1.0
 10
-33.5676315144
 20
-45.0229104775
 30
0.0
 10
-33.6038475282
 20
-45.0410184844
 30
0.0
 10
-33.7379070112
 20
-45.1124659392
 30
0.0
 10
-33.8647587442
 20
-45.1984854092
 30
0.0
 10
-33.9490305827
 20
-45.2714337427
 30
0.0
 11
-33.5676315144
 21
-45.0229104775
 31
0.0
 11
-33.6747823971
 21
-45.0801309673
 31
0.0
 11
-33.9490305827
 21
-45.2714337427
 31
0.0
  0
SPLINE
  5
385
100
AcDbEntity
  8
ASSI
100
AcDbSpline
 62
7
  6
CONTINUOUS
 70
0
 71
3
 72
9
 73
5
 74
3
 42
0.0000001
 43
0.0000001
 44
0.0000000001
 12
-0.2849863227
 22
-0.2466930556
 32
0.0
 13
-0.178001917
 23
-0.3322498839
 33
0.0
 40
0.0
 40
0.0
 40
0.0
 40
0.0
 40
0.2690591886
 40
1.0
 40
1.0
 40
1.0
 40
1.0
 10
-33.9490305827
 20
-45.2714337427
 30
0.0
 10
-33.9745899789
 20
-45.2935587539
 30
0.0
 10
-34.0664702871
 20
-45.3791474072
 30
0.0
 10
-34.1454161241
 20
-45.4798826792
 30
0.0
 10
-34.188785746
 20
-45.5608343458
 30
0.0
 11
-33.9490305827
 21
-45.2714337427
 31
0.0
 11
-34.0230960981
 21
-45.340712088
 31
0.0
 11
-34.188785746
 21
-45.5608343458
 31
0.0
  0
SPLINE
  5
386
100
AcDbEntity
  8
ASSI
100
AcDbSpline
 62
7
  6
CONTINUOUS
 70
0
 71
3
 72
9
 73
5
 74
3
 42
0.0000001
 43
0.0000001
 44
0.0000000001
 12
-0.1528526501
 22
-0.2853074626
 32
0.0
 13
0.0
 23
-0.323673108
 33
0.0
 40
0.0
 40
0.0
 40
0.0
 40
0.0
 40
0.5118685661
 40
1.0
 40
1.0
 40
1.0
 40
1.0
 10
-34.188785746
 20
-45.5608343458
 30
0.0
 10
-34.2148659016
 20
-45.6095143197
 30
0.0
 10
-34.2559643337
 20
-45.7104648763
 30
0.0
 10
-34.2705752396
 20
-45.8187736089
 30
0.0
 10
-34.2705752396
 20
-45.871438615
 30
0.0
 11
-34.188785746
 21
-45.5608343458
 31
0.0
 11
-34.249999911
 21
-45.7147890645
 31
0.0
 11
-34.2705752396
 21
-45.871438615
 31
0.0
  0
SPLINE
  5
387
100
AcDbEntity
  8
ASSI
100
AcDbSpline
 62
7
  6
CONTINUOUS
 70
0
 71
3
 72
11
 73
7
 74
5
 42
0.0000001
 43
0.0000001
 44
0.0000000001
 12
0.0
 22
1.1550884205
 32
0.0
 13
-1.0331424913
 23
0.5165712457
 33
0.0
 40
0.0
 40
0.0
 40
0.0
 40
0.0
 40
0.2065817027
 40
0.4344770453
 40
0.6975326845
 40
1.0
 40
1.0
 40
1.0
 40
1.0
 10
36.9691779207
 20
-29.0281550871
 30
0.0
 10
36.9691779207
 20
-28.9486150429
 30
0.0
 10
36.934004987
 20
-28.7800565184
 30
0.0
 10
36.7873720814
 20
-28.5500200548
 30
0.0
 10
36.5587072327
 20
-28.3435054517
 30
0.0
 10
36.3703981408
 20
-28.2317089223
 30
0.0
 10
36.2662341956
 20
-28.1796269497
 30
0.0
 11
36.9691779207
 21
-29.0281550871
 31
0.0
 11
36.9230338265
 21
-28.7940391109
 31
0.0
 11
36.7865134857
 21
-28.5689677655
 31
0.0
 11
36.5645864007
 21
-28.3614232534
 31
0.0
 11
36.2662341956
 21
-28.1796269497
 31
0.0
  0
SPLINE
  5
388
100
AcDbEntity
  8
ASSI
100
AcDbSpline
 62
7
  6
CONTINUOUS
 70
0
 71
3
 72
18
 73
14
 74
12
 42
0.0000001
 43
0.0000001
 44
0.0000000001
 12
1.5282125129
 22
0.7646927042
 32
0.0
 13
1.5452940363
 23
0.7295579194
 33
0.0
 40
0.0
 40
0.0
 40
0.0
 40
0.0
 40
0.1780615824
 40
0.3560625401
 40
0.5254015579
 40
0.6781199915
 40
0.8074397253
 40
0.8614268384
 40
0.9073754452
 40
0.9446395336
 40
0.9726533763
 40
0.991169539
 40
1.0
 40
1.0
 40
1.0
 40
1.0
 10
33.3962696589
 20
-33.0773005349
 30
0.0
 10
33.4869749716
 20
-33.0319130705
 30
0.0
 10
33.6648558699
 20
-32.9342119218
 30
0.0
 10
33.9224924701
 20
-32.7819703251
 30
0.0
 10
34.168412192
 20
-32.6381981265
 30
0.0
 10
34.3947575707
 20
-32.5160646226
 30
0.0
 10
34.5682387187
 20
-32.4348106391
 30
0.0
 10
34.6894803167
 20
-32.3862162335
 30
0.0
 10
34.7631453291
 20
-32.3600455878
 30
0.0
 10
34.8235312955
 20
-32.3408842353
 30
0.0
 10
34.8697185135
 20
-32.3285704248
 30
0.0
 10
34.9000691238
 20
-32.3204976503
 30
0.0
 10
34.9155591841
 20
-32.3175181093
 30
0.0
 10
34.920107737
 20
-32.3153706651
 30
0.0
 11
33.3962696589
 21
-33.0773005349
 31
0.0
 11
33.6640654768
 21
-32.9328267274
 31
0.0
 11
33.9268695445
 21
-32.7796658075
 31
0.0
 11
34.1774471781
 21
-32.6349270595
 31
0.0
 11
34.4077164147
 21
-32.5121125681
 31
0.0
 11
34.6082782749
 21
-32.419317178
 31
0.0
 11
34.693966789
 21
-32.3851311549
 31
0.0
 11
34.7679602291
 21
-32.358857783
 31
0.0
 11
34.8287296754
 21
-32.3398292808
 31
0.0
 11
34.8749036544
 21
-32.327193789
 31
0.0
 11
34.9056073258
 21
-32.3195474732
 31
0.0
 11
34.920107737
 21
-32.3153706651
 31
0.0
  0
SPLINE
  5
389
100
AcDbEntity
  8
ASSI
100
AcDbSpline
 62
7
  6
CONTINUOUS
 70
0
 71
3
 72
18
 73
14
 74
12
 42
0.0000001
 43
0.0000001
 44
0.0000000001
 12
1.5272393343
 22
0.7648668618
 32
0.0
 13
1.5359054371
 23
0.7473123769
 33
0.0
 40
0.0
 40
0.0
 40
0.0
 40
0.0
 40
0.1783151889
 40
0.3565563785
 40
0.5260673869
 40
0.6788671897
 40
0.8081778021
 40
0.8621266792
 40
0.9079692059
 40
0.9451296547
 40
0.9730389289
 40
0.9913268623
 40
1.0
 40
1.0
 40
1.0
 40
1.0
 10
29.5787342592
 20
-34.9860614542
 30
0.0
 10
29.669510916
 20
-34.9405989946
 30
0.0
 10
29.8475539537
 20
-34.8428066525
 30
0.0
 10
30.1053778315
 20
-34.6904081321
 30
0.0
 10
30.3514207636
 20
-34.5465519389
 30
0.0
 10
30.577843104
 20
-34.4245106641
 30
0.0
 10
30.7513310384
 20
-34.3434431082
 30
0.0
 10
30.8724205199
 20
-34.2948695058
 30
0.0
 10
30.9459425458
 20
-34.2688160502
 30
0.0
 10
31.0061634802
 20
-34.2498400995
 30
0.0
 10
31.0520876197
 20
-34.2375623101
 30
0.0
 10
31.0821278312
 20
-34.2295241821
 30
0.0
 10
31.0974359994
 20
-34.2266702478
 30
0.0
 10
31.1018763725
 20
-34.2245097334
 30
0.0
 11
29.5787342592
 21
-34.9860614542
 31
0.0
 11
29.8467665771
 21
-34.8414108183
 31
0.0
 11
30.1097886157
 21
-34.6880890665
 31
0.0
 11
30.3605097014
 21
-34.5432795632
 31
0.0
 11
30.5908516373
 21
-34.4205632097
 31
0.0
 11
30.791358004
 21
-34.3279290595
 31
0.0
 11
30.8769473033
 21
-34.2937860259
 31
0.0
 11
30.9507582917
 21
-34.2676492009
 31
0.0
 11
31.01135561
 21
-34.2487623827
 31
0.0
 11
31.0573300799
 21
-34.2361586225
 31
0.0
 11
31.087643666
 21
-34.2286198049
 31
0.0
 11
31.1018763725
 21
-34.2245097334
 31
0.0
  0
SPLINE
  5
38A
100
AcDbEntity
  8
ASSI
100
AcDbSpline
 62
7
  6
CONTINUOUS
 70
0
 71
3
 72
18
 73
14
 74
12
 42
0.0000001
 43
0.0000001
 44
0.0000000001
 12
1.5272393343
 22
0.7648668618
 32
0.0
 13
1.5359054371
 23
0.7473123769
 33
0.0
 40
0.0
 40
0.0
 40
0.0
 40
0.0
 40
0.1783151889
 40
0.3565563785
 40
0.5260673869
 40
0.6788671897
 40
0.8081778021
 40
0.8621266792
 40
0.9079692059
 40
0.9451296547
 40
0.9730389289
 40
0.9913268623
 40
1.0
 40
1.0
 40
1.0
 40
1.0
 10
25.7603576407
 20
-36.8952497634
 30
0.0
 10
25.8511342976
 20
-36.8497873038
 30
0.0
 10
26.0291773353
 20
-36.7519949617
 30
0.0
 10
26.2870012131
 20
-36.5995964413
 30
0.0
 10
26.5330441452
 20
-36.4557402481
 30
0.0
 10
26.7594664856
 20
-36.3336989733
 30
0.0
 10
26.93295442
 20
-36.2526314174
 30
0.0
 10
27.0540439015
 20
-36.204057815
 30
0.0
 10
27.1275659274
 20
-36.1780043594
 30
0.0
 10
27.1877868618
 20
-36.1590284087
 30
0.0
 10
27.2337110013
 20
-36.1467506193
 30
0.0
 10
27.2637512128
 20
-36.1387124913
 30
0.0
 10
27.279059381
 20
-36.135858557
 30
0.0
 10
27.2834997541
 20
-36.1336980426
 30
0.0
 11
25.7603576407
 21
-36.8952497634
 31
0.0
 11
26.0283899587
 21
-36.7505991275
 31
0.0
 11
26.2914119973
 21
-36.5972773757
 31
0.0
 11
26.542133083
 21
-36.4524678724
 31
0.0
 11
26.7724750189
 21
-36.3297515189
 31
0.0
 11
26.9729813856
 21
-36.2371173687
 31
0.0
 11
27.0585706848
 21
-36.2029743351
 31
0.0
 11
27.1323816733
 21
-36.1768375101
 31
0.0
 11
27.1929789916
 21
-36.1579506919
 31
0.0
 11
27.2389534615
 21
-36.1453469317
 31
0.0
 11
27.2692670476
 21
-36.1378081141
 31
0.0
 11
27.2834997541
 21
-36.1336980426
 31
0.0
  0
SPLINE
  5
38B
100
AcDbEntity
  8
ASSI
100
AcDbSpline
 62
7
  6
CONTINUOUS
 70
0
 71
3
 72
18
 73
14
 74
12
 42
0.0000001
 43
0.0000001
 44
0.0000000001
 12
1.5272393343
 22
0.7648668618
 32
0.0
 13
1.5359054371
 23
0.7473123769
 33
0.0
 40
0.0
 40
0.0
 40
0.0
 40
0.0
 40
0.1783151889
 40
0.3565563785
 40
0.5260673869
 40
0.6788671897
 40
0.8081778021
 40
0.8621266792
 40
0.9079692059
 40
0.9451296547
 40
0.9730389289
 40
0.9913268623
 40
1.0
 40
1.0
 40
1.0
 40
1.0
 10
-6.0594475126
 20
-52.8051523401
 30
0.0
 10
-5.9686708558
 20
-52.7596898805
 30
0.0
 10
-5.7906278181
 20
-52.6618975384
 30
0.0
 10
-5.5328039403
 20
-52.509499018
 30
0.0
 10
-5.2867610082
 20
-52.3656428248
 30
0.0
 10
-5.0603386678
 20
-52.24360155
 30
0.0
 10
-4.8868507334
 20
-52.1625339941
 30
0.0
 10
-4.7657612519
 20
-52.1139603917
 30
0.0
 10
-4.692239226
 20
-52.0879069361
 30
0.0
 10
-4.6320182916
 20
-52.0689309854
 30
0.0
 10
-4.5860941521
 20
-52.056653196
 30
0.0
 10
-4.5560539406
 20
-52.048615068
 30
0.0
 10
-4.5407457724
 20
-52.0457611337
 30
0.0
 10
-4.5363053993
 20
-52.0436006193
 30
0.0
 11
-6.0594475126
 21
-52.8051523401
 31
0.0
 11
-5.7914151947
 21
-52.6605017042
 31
0.0
 11
-5.5283931561
 21
-52.5071799524
 31
0.0
 11
-5.2776720704
 21
-52.3623704491
 31
0.0
 11
-5.0473301345
 21
-52.2396540956
 31
0.0
 11
-4.8468237678
 21
-52.1470199454
 31
0.0
 11
-4.7612344686
 21
-52.1128769118
 31
0.0
 11
-4.6874234801
 21
-52.0867400868
 31
0.0
 11
-4.6268261618
 21
-52.0678532686
 31
0.0
 11
-4.5808516919
 21
-52.0552495084
 31
0.0
 11
-4.5505381058
 21
-52.0477106908
 31
0.0
 11
-4.5363053993
 21
-52.0436006193
 31
0.0
  0
SPLINE
  5
38C
100
AcDbEntity
  8
ASSI
100
AcDbSpline
 62
7
  6
CONTINUOUS
 70
0
 71
3
 72
18
 73
14
 74
12
 42
0.0000001
 43
0.0000001
 44
0.0000000001
 12
1.5272393343
 22
0.7648668618
 32
0.0
 13
1.5359054371
 23
0.7473123769
 33
0.0
 40
0.0
 40
0.0
 40
0.0
 40
0.0
 40
0.1783151889
 40
0.3565563785
 40
0.5260673869
 40
0.6788671897
 40
0.8081778021
 40
0.8621266792
 40
0.9079692059
 40
0.9451296547
 40
0.9730389289
 40
0.9913268623
 40
1.0
 40
1.0
 40
1.0
 40
1.0
 10
-9.8778241311
 20
-54.7143406493
 30
0.0
 10
-9.7870474742
 20
-54.6688781897
 30
0.0
 10
-9.6090044365
 20
-54.5710858476
 30
0.0
 10
-9.3511805587
 20
-54.4186873272
 30
0.0
 10
-9.1051376266
 20
-54.274831134
 30
0.0
 10
-8.8787152862
 20
-54.1527898592
 30
0.0
 10
-8.7052273518
 20
-54.0717223033
 30
0.0
 10
-8.5841378703
 20
-54.0231487009
 30
0.0
 10
-8.5106158444
 20
-53.9970952453
 30
0.0
 10
-8.45039491
 20
-53.9781192946
 30
0.0
 10
-8.4044707705
 20
-53.9658415052
 30
0.0
 10
-8.374430559
 20
-53.9578033772
 30
0.0
 10
-8.3591223908
 20
-53.9549494429
 30
0.0
 10
-8.3546820177
 20
-53.9527889285
 30
0.0
 11
-9.8778241311
 21
-54.7143406493
 31
0.0
 11
-9.6097918131
 21
-54.5696900134
 31
0.0
 11
-9.3467697745
 21
-54.4163682616
 31
0.0
 11
-9.0960486888
 21
-54.2715587583
 31
0.0
 11
-8.8657067529
 21
-54.1488424048
 31
0.0
 11
-8.6652003862
 21
-54.0562082546
 31
0.0
 11
-8.579611087
 21
-54.022065221
 31
0.0
 11
-8.5058000985
 21
-53.995928396
 31
0.0
 11
-8.4452027802
 21
-53.9770415778
 31
0.0
 11
-8.3992283103
 21
-53.9644378176
 31
0.0
 11
-8.3689147242
 21
-53.956899
 31
0.0
 11
-8.3546820177
 21
-53.9527889285
 31
0.0
  0
SPLINE
  5
38D
100
AcDbEntity
  8
ASSI
100
AcDbSpline
 62
7
  6
CONTINUOUS
 70
0
 71
3
 72
18
 73
14
 74
12
 42
0.0000001
 43
0.0000001
 44
0.0000000001
 12
1.5272393343
 22
0.7648668618
 32
0.0
 13
1.5359054371
 23
0.7473123769
 33
0.0
 40
0.0
 40
0.0
 40
0.0
 40
0.0
 40
0.1783151889
 40
0.3565563785
 40
0.5260673869
 40
0.6788671897
 40
0.8081778021
 40
0.8621266792
 40
0.9079692059
 40
0.9451296547
 40
0.9730389289
 40
0.9913268623
 40
1.0
 40
1.0
 40
1.0
 40
1.0
 10
-13.6962007495
 20
-56.6235289586
 30
0.0
 10
-13.6054240926
 20
-56.5780664989
 30
0.0
 10
-13.4273810549
 20
-56.4802741568
 30
0.0
 10
-13.1695571771
 20
-56.3278756364
 30
0.0
 10
-12.923514245
 20
-56.1840194432
 30
0.0
 10
-12.6970919046
 20
-56.0619781684
 30
0.0
 10
-12.5236039702
 20
-55.9809106125
 30
0.0
 10
-12.4025144887
 20
-55.9323370101
 30
0.0
 10
-12.3289924628
 20
-55.9062835545
 30
0.0
 10
-12.2687715284
 20
-55.8873076038
 30
0.0
 10
-12.2228473889
 20
-55.8750298144
 30
0.0
 10
-12.1928071774
 20
-55.8669916864
 30
0.0
 10
-12.1774990092
 20
-55.8641377521
 30
0.0
 10
-12.1730586361
 20
-55.8619772377
 30
0.0
 11
-13.6962007495
 21
-56.6235289586
 31
0.0
 11
-13.4281684315
 21
-56.4788783226
 31
0.0
 11
-13.165146393
 21
-56.3255565708
 31
0.0
 11
-12.9144253072
 21
-56.1807470675
 31
0.0
 11
-12.6840833713
 21
-56.058030714
 31
0.0
 11
-12.4835770046
 21
-55.9653965638
 31
0.0
 11
-12.3979877054
 21
-55.9312535302
 31
0.0
 11
-12.3241767169
 21
-55.9051167052
 31
0.0
 11
-12.2635793986
 21
-55.886229887
 31
0.0
 11
-12.2176049287
 21
-55.8736261268
 31
0.0
 11
-12.1872913426
 21
-55.8660873092
 31
0.0
 11
-12.1730586361
 21
-55.8619772377
 31
0.0
  0
SPLINE
  5
38E
100
AcDbEntity
  8
ASSI
100
AcDbSpline
 62
253
  6
CONTINUOUS
 70
0
 71
3
 72
13
 73
9
 74
7
 42
0.0000001
 43
0.0000001
 44
0.0000000001
 12
3.1225793519
 22
-1.561289676
 32
0.0
 13
3.1225793519
 23
1.561289676
 33
0.0
 40
0.0
 40
0.0
 40
0.0
 40
0.0
 40
0.1125718574
 40
0.2356444686
 40
0.5
 40
0.7643555314
 40
0.8874281426
 40
1.0
 40
1.0
 40
1.0
 40
1.0
 10
-17.1910384621
 20
-55.6876861419
 30
0.0
 10
-17.0738669429
 20
-55.7462719015
 30
0.0
 10
-16.8184048477
 20
-55.84895104
 30
0.0
 10
-16.2545720943
 20
-55.9969654374
 30
0.0
 10
-15.4939821873
 20
-56.0679474425
 30
0.0
 10
-14.7333922803
 20
-55.9969654374
 30
0.0
 10
-14.1695595269
 20
-55.84895104
 30
0.0
 10
-13.9140974316
 20
-55.7462719015
 30
0.0
 10
-13.7969259124
 20
-55.6876861419
 30
0.0
 11
-17.1910384621
 21
-55.6876861419
 31
0.0
 11
-16.8274458411
 21
-55.8368622499
 31
0.0
 11
-16.4123566489
 21
-55.9478258143
 31
0.0
 11
-15.4939821873
 21
-56.0391580045
 31
0.0
 11
-14.5756077257
 21
-55.9478258143
 31
0.0
 11
-14.1605185335
 21
-55.8368622499
 31
0.0
 11
-13.7969259124
 21
-55.6876861419
 31
0.0
  0
SPLINE
  5
38F
100
AcDbEntity
  8
ASSI
100
AcDbSpline
 62
7
  6
CONTINUOUS
 70
0
 71
3
 72
11
 73
7
 74
5
 42
0.0000001
 43
0.0000001
 44
0.0000000001
 12
-0.0
 22
-1.1550884205
 32
0.0
 13
1.0331424913
 23
-0.5165712457
 33
0.0
 40
0.0
 40
0.0
 40
0.0
 40
0.0
 40
0.2065817027
 40
0.4344770453
 40
0.6975326845
 40
1.0
 40
1.0
 40
1.0
 40
1.0
 10
-34.2705752396
 20
-45.871438615
 30
0.0
 10
-34.2705752396
 20
-45.9509786592
 30
0.0
 10
-34.2354023058
 20
-46.1195371837
 30
0.0
 10
-34.0887694003
 20
-46.3495736472
 30
0.0
 10
-33.8601045516
 20
-46.5560882504
 30
0.0
 10
-33.6717954597
 20
-46.6678847797
 30
0.0
 10
-33.5676315144
 20
-46.7199667524
 30
0.0
 11
-34.2705752396
 21
-45.871438615
 31
0.0
 11
-34.2244311454
 21
-46.1055545911
 31
0.0
 11
-34.0879108046
 21
-46.3306259366
 31
0.0
 11
-33.8659837195
 21
-46.5381704487
 31
0.0
 11
-33.5676315144
 21
-46.7199667524
 31
0.0
  0
SPLINE
  5
390
100
AcDbEntity
  8
ASSI
100
AcDbSpline
 62
253
  6
CONTINUOUS
 70
0
 71
3
 72
11
 73
7
 74
5
 42
0.0000001
 43
0.0000001
 44
0.0000000001
 12
1.3038651355
 22
0.7053512597
 32
0.0
 13
-0.0
 23
1.4824252733
 33
0.0
 40
0.0
 40
0.0
 40
0.0
 40
0.0
 40
0.2171727055
 40
0.4508964655
 40
0.7109489722
 40
1.0
 40
1.0
 40
1.0
 40
1.0
 10
35.668427393
 20
-31.9406741291
 30
0.0
 10
35.7628153661
 20
-31.8896131153
 30
0.0
 10
35.9403346941
 20
-31.7463442597
 30
0.0
 10
36.1300339017
 20
-31.4447609508
 30
0.0
 10
36.2435857744
 20
-31.0712383975
 30
0.0
 10
36.2662341956
 20
-30.7989382709
 30
0.0
 10
36.2662341956
 20
-30.6561060879
 30
0.0
 11
35.668427393
 21
-31.9406741291
 31
0.0
 11
35.9205470219
 21
-31.7404678806
 31
0.0
 11
36.109537029
 21
-31.4500719649
 31
0.0
 11
36.2265945748
 21
-31.082765194
 31
0.0
 11
36.2662341956
 21
-30.6561060879
 31
0.0
  0
SPLINE
  5
391
100
AcDbEntity
  8
ASSI
100
AcDbSpline
 62
253
  6
CONTINUOUS
 70
0
 71
3
 72
11
 73
7
 74
5
 42
0.0000001
 43
0.0000001
 44
0.0000000001
 12
-1.3518851017
 22
0.6756244343
 32
0.0
 13
-0.0
 23
1.5113112533
 33
0.0
 40
0.0
 40
0.0
 40
0.0
 40
0.0
 40
0.2171660977
 40
0.4503906164
 40
0.710307251
 40
1.0
 40
1.0
 40
1.0
 40
1.0
 10
-16.5672801729
 20
-56.9857539706
 30
0.0
 10
-16.6651413769
 20
-56.9368463966
 30
0.0
 10
-16.8502597398
 20
-56.7959539458
 30
0.0
 10
-17.0487314998
 20
-56.4916706297
 30
0.0
 10
-17.1674435609
 20
-56.1115440157
 30
0.0
 10
-17.1910384621
 20
-55.8336247791
 30
0.0
 10
-17.1910384621
 20
-55.6876861419
 30
0.0
 11
-16.5672801729
 21
-56.9857539706
 31
0.0
 11
-16.8298793442
 21
-56.7888769285
 31
0.0
 11
-17.027179884
 21
-56.4967964438
 31
0.0
 11
-17.1495653684
 21
-56.1235333112
 31
0.0
 11
-17.1910384621
 21
-55.6876861419
 31
0.0
  0
SPLINE
  5
392
100
AcDbEntity
  8
ASSI
100
AcDbSpline
 62
253
  6
CONTINUOUS
 70
0
 71
3
 72
9
 73
5
 74
3
 42
0.0000001
 43
0.0000001
 44
0.0000000001
 12
0.6175117551
 22
0.3087959943
 32
0.0
 13
0.2943602812
 23
0.6245220241
 33
0.0
 40
0.0
 40
0.0
 40
0.0
 40
0.0
 40
0.4817511073
 40
1.0
 40
1.0
 40
1.0
 40
1.0
 10
-14.4204868326
 20
-56.9856562749
 30
0.0
 10
-14.3213245087
 20
-56.9360686708
 30
0.0
 10
-14.1339428293
 20
-56.7926837163
 30
0.0
 10
-14.0073072664
 20
-56.5955882769
 30
0.0
 10
-13.9564566365
 20
-56.4877023277
 30
0.0
 11
-14.4204868326
 21
-56.9856562749
 31
0.0
 11
-14.1548800552
 21
-56.7854515985
 31
0.0
 11
-13.9564566365
 21
-56.4877023277
 31
0.0
  0
SPLINE
  5
393
100
AcDbEntity
  8
ASSI
100
AcDbSpline
 62
253
  6
CONTINUOUS
 70
0
 71
3
 72
9
 73
5
 74
3
 42
0.0000001
 43
0.0000001
 44
0.0000000001
 12
0.3494497306
 22
0.7414011572
 32
0.0
 13
0.0
 23
0.8196284464
 33
0.0
 40
0.0
 40
0.0
 40
0.0
 40
0.0
 40
0.2307041523
 40
1.0
 40
1.0
 40
1.0
 40
1.0
 10
-13.9564566365
 20
-56.4877023277
 30
0.0
 10
-13.9295834685
 20
-56.4306875525
 30
0.0
 10
-13.830331174
 20
-56.1754060595
 30
0.0
 10
-13.7969259124
 20
-55.8978650621
 30
0.0
 10
-13.7969259124
 20
-55.6876861419
 30
0.0
 11
-13.9564566365
 21
-56.4877023277
 31
0.0
 11
-13.8872923048
 21
-56.3117138028
 31
0.0
 11
-13.7969259124
 21
-55.6876861419
 31
0.0
  0
SPLINE
  5
394
100
AcDbEntity
  8
ASSI
100
AcDbSpline
 62
253
  6
CONTINUOUS
 70
0
 71
3
 72
11
 73
7
 74
5
 42
0.0000001
 43
0.0000001
 44
0.0000000001
 12
-1.2907659338
 22
0.7129903642
 32
0.0
 13
0.0
 23
1.4745955226
 33
0.0
 40
0.0
 40
0.0
 40
0.0
 40
0.0
 40
0.2171865219
 40
0.4510448557
 40
0.711129788
 40
1.0
 40
1.0
 40
1.0
 40
1.0
 10
-32.9767800422
 20
-48.7801565279
 30
0.0
 10
-33.0702256968
 20
-48.7285392288
 30
0.0
 10
-33.245700775
 20
-48.5846860999
 30
0.0
 10
-33.4330639321
 20
-48.2838720219
 30
0.0
 10
-33.5452360629
 20
-47.9121521927
 30
0.0
 10
-33.5676315144
 20
-47.6413785229
 30
0.0
 10
-33.5676315144
 20
-47.4993896158
 30
0.0
 11
-32.9767800422
 21
-48.7801565279
 31
0.0
 11
-33.2260828478
 21
-48.5791191322
 31
0.0
 11
-33.4128476515
 21
-48.2892260768
 31
0.0
 11
-33.5284812722
 21
-47.9235533885
 31
0.0
 11
-33.5676315144
 21
-47.4993896158
 31
0.0
  0
SPLINE
  5
395
100
AcDbEntity
  8
ASSI
100
AcDbSpline
 62
253
  6
CONTINUOUS
 70
0
 71
3
 72
11
 73
7
 74
5
 42
0.0000001
 43
0.0000001
 44
0.0000000001
 12
0.0009002716
 22
-1.1546300234
 32
0.0
 13
1.0327328024
 23
-0.5163664012
 33
0.0
 40
0.0
 40
0.0
 40
0.0
 40
0.0
 40
0.206581885
 40
0.4344922978
 40
0.6975518781
 40
1.0
 40
1.0
 40
1.0
 40
1.0
 10
-34.2705750584
 20
-46.6513262283
 30
0.0
 10
-34.2705130651
 20
-46.7308347772
 30
0.0
 10
-34.2352408789
 20
-46.8993018566
 30
0.0
 10
-34.0885820333
 20
-47.1291933907
 30
0.0
 10
-33.8599792313
 20
-47.3355889338
 30
0.0
 10
-33.6717475466
 20
-47.4473315997
 30
0.0
 10
-33.5676315144
 20
-47.4993896158
 30
0.0
 11
-34.2705750584
 21
-46.6513262283
 31
0.0
 11
-34.2242952318
 21
-46.8853191692
 31
0.0
 11
-34.0877330191
 21
-47.1102633562
 31
0.0
 11
-33.8658544318
 21
-47.3176899782
 31
0.0
 11
-33.5676315144
 21
-47.4993896158
 31
0.0
  0
SPLINE
  5
396
100
AcDbEntity
  8
ASSI
100
AcDbSpline
 62
7
  6
CONTINUOUS
 70
0
 71
3
 72
13
 73
9
 74
7
 42
0.0000001
 43
0.0000001
 44
0.0000000001
 12
3.1225793534
 22
-1.5612896767
 32
0.0
 13
3.1225793534
 23
1.5612896767
 33
0.0
 40
0.0
 40
0.0
 40
0.0
 40
0.0
 40
0.1125718532
 40
0.2356444162
 40
0.5
 40
0.7643555838
 40
0.8874281468
 40
1.0
 40
1.0
 40
1.0
 40
1.0
 10
-17.1910384621
 20
-54.9082632785
 30
0.0
 10
-17.0738669473
 20
-54.9668490359
 30
0.0
 10
-16.8184049078
 20
-55.0695281476
 30
0.0
 10
-16.2545721656
 20
-55.2175425874
 30
0.0
 10
-15.4939821873
 20
-55.2885245754
 30
0.0
 10
-14.7333922089
 20
-55.2175425874
 30
0.0
 10
-14.1695594668
 20
-55.0695281476
 30
0.0
 10
-13.9140974273
 20
-54.9668490359
 30
0.0
 10
-13.7969259124
 20
-54.9082632785
 30
0.0
 11
-17.1910384621
 21
-54.9082632785
 31
0.0
 11
-16.8274458548
 21
-55.0574393811
 31
0.0
 11
-16.4123568305
 21
-55.1684029236
 31
0.0
 11
-15.4939821873
 21
-55.2597351411
 31
0.0
 11
-14.5756075441
 21
-55.1684029236
 31
0.0
 11
-14.1605185198
 21
-55.0574393811
 31
0.0
 11
-13.7969259124
 21
-54.9082632785
 31
0.0
  0
SPLINE
  5
397
100
AcDbEntity
  8
ASSI
100
AcDbSpline
 62
7
  6
CONTINUOUS
 70
0
 71
3
 72
11
 73
7
 74
5
 42
0.0000001
 43
0.0000001
 44
0.0000000001
 12
1.0331424913
 22
0.5165712457
 32
0.0
 13
0.0
 23
1.1550884205
 33
0.0
 40
0.0
 40
0.0
 40
0.0
 40
0.0
 40
0.3024673155
 40
0.5655229547
 40
0.7934182973
 40
1.0
 40
1.0
 40
1.0
 40
1.0
 10
36.2662341956
 20
-29.8766832245
 30
0.0
 10
36.3703981408
 20
-29.8246012519
 30
0.0
 10
36.5587072327
 20
-29.7128047225
 30
0.0
 10
36.7873720814
 20
-29.5062901194
 30
0.0
 10
36.934004987
 20
-29.2762536558
 30
0.0
 10
36.9691779207
 20
-29.1076951313
 30
0.0
 10
36.9691779207
 20
-29.0281550871
 30
0.0
 11
36.2662341956
 21
-29.8766832245
 31
0.0
 11
36.5645864007
 21
-29.6948869208
 31
0.0
 11
36.7865134857
 21
-29.4873424087
 31
0.0
 11
36.9230338265
 21
-29.2622710633
 31
0.0
 11
36.9691779207
 21
-29.0281550871
 31
0.0
  0
SPLINE
  5
398
100
AcDbEntity
  8
ASSI
100
AcDbSpline
 62
253
  6
CONTINUOUS
 70
0
 71
3
 72
11
 73
7
 74
5
 42
0.0000001
 43
0.0000001
 44
0.0000000001
 12
1.0331424944
 22
0.5165712472
 32
0.0
 13
0.0
 23
1.1550884239
 33
0.0
 40
0.0
 40
0.0
 40
0.0
 40
0.0
 40
0.3024673256
 40
0.5655230414
 40
0.7934184043
 40
1.0
 40
1.0
 40
1.0
 40
1.0
 10
36.2662341956
 20
-30.6561060879
 30
0.0
 10
36.3703981446
 20
-30.6040241134
 30
0.0
 10
36.5587072772
 20
-30.4922275759
 30
0.0
 10
36.7873721093
 20
-30.2857129013
 30
0.0
 10
36.9340050544
 20
-30.0556764573
 30
0.0
 10
36.9691779207
 20
-29.8871179538
 30
0.0
 10
36.9691779207
 20
-29.8075779505
 30
0.0
 11
36.2662341956
 21
-30.6561060879
 31
0.0
 11
36.5645864114
 21
-30.4743097774
 31
0.0
 11
36.7865135403
 21
-30.2667651813
 31
0.0
 11
36.9230338924
 21
-30.0416938143
 31
0.0
 11
36.9691779207
 21
-29.8075779505
 31
0.0
  0
SPLINE
  5
399
100
AcDbEntity
  8
0
100
AcDbSpline
 62
7
  6
CONTINUOUS
 70
0
 71
3
 72
16
 73
12
 74
10
 42
0.0000001
 43
0.0000001
 44
0.0000000001
 12
0.4300136879
 22
-1.5177321291
 32
0.0
 13
1.5359838311
 23
0.3594109876
 33
0.0
 40
0.0
 40
0.0
 40
0.0
 40
0.0
 40
0.1815755547
 40
0.3510404593
 40
0.505465308
 40
0.6424551403
 40
0.7601031638
 40
0.8577076855
 40
0.899249628
 40
0.9363820864
 40
1.0
 40
1.0
 40
1.0
 40
1.0
 10
14.4141018415
 20
-30.5416269338
 30
0.0
 10
14.4401284995
 20
-30.6334879515
 30
0.0
 10
14.4983687771
 20
-30.8089614622
 30
0.0
 10
14.6050700331
 20
-31.0528153177
 30
0.0
 10
14.7240415918
 20
-31.2644346762
 30
0.0
 10
14.8497395059
 20
-31.4396556455
 30
0.0
 10
14.9771479803
 20
-31.5748792823
 30
0.0
 10
15.0856577049
 20
-31.6570160666
 30
0.0
 10
15.1692002992
 20
-31.6980068996
 30
0.0
 10
15.2405270634
 20
-31.7207365319
 30
0.0
 10
15.295659195
 20
-31.7231491364
 30
0.0
 10
15.3282312239
 20
-31.7155274773
 30
0.0
 11
14.4141018415
 21
-30.5416269338
 31
0.0
 11
14.5046220329
 21
-30.8133779164
 31
0.0
 11
14.6124162672
 21
-31.0580078481
 31
0.0
 11
14.7325637003
 21
-31.2699184238
 31
0.0
 11
14.8596938374
 21
-31.4446645237
 31
0.0
 11
14.9883104616
 21
-31.578456018
 31
0.0
 11
15.112864118
 21
-31.6689695498
 31
0.0
 11
15.1718899031
 21
-31.6974354881
 31
0.0
 11
15.2278795115
 21
-31.7146473812
 31
0.0
 11
15.3282312239
 21
-31.7155274773
 31
0.0
  0
SPLINE
  5
39A
100
AcDbEntity
  8
0
100
AcDbSpline
 62
7
  6
CONTINUOUS
 70
0
 71
3
 72
16
 73
12
 74
10
 42
0.0000001
 43
0.0000001
 44
0.0000000001
 12
1.6902158678
 22
-2.5821139966
 32
0.0
 13
-2.7595297771
 23
-1.3817155209
 33
0.0
 40
0.0
 40
0.0
 40
0.0
 40
0.0
 40
0.1489870691
 40
0.2973115755
 40
0.4406225903
 40
0.5750869715
 40
0.6979615142
 40
0.8082224892
 40
0.9073048364
 40
0.9540968414
 40
1.0
 40
1.0
 40
1.0
 40
1.0
 10
22.4563355075
 20
-26.0079409421
 30
0.0
 10
22.5402756103
 20
-26.1361748076
 30
0.0
 10
22.6903380137
 20
-26.4039335302
 30
0.0
 10
22.8579934082
 20
-26.8264582377
 30
0.0
 10
22.9624009524
 20
-27.2537539309
 30
0.0
 10
22.9985769404
 20
-27.6661372603
 30
0.0
 10
22.9643387561
 20
-28.0451666329
 30
0.0
 10
22.8601917464
 20
-28.3740369457
 30
0.0
 10
22.7125944338
 20
-28.5978937979
 30
0.0
 10
22.5651595384
 20
-28.7303004955
 30
0.0
 10
22.4835725757
 20
-28.7808319942
 30
0.0
 10
22.4413488647
 20
-28.8019736964
 30
0.0
 11
22.4563355075
 21
-26.0079409421
 31
0.0
 11
22.6813971369
 21
-26.4088848896
 31
0.0
 11
22.8496818584
 21
-26.8345759757
 31
0.0
 11
22.9531277357
 21
-27.2645832244
 31
0.0
 11
22.9867353911
 21
-27.678193426
 31
0.0
 11
22.9488937656
 21
-28.055506257
 31
0.0
 11
22.8414278918
 21
-28.3783695117
 31
0.0
 11
22.6695047951
 21
-28.6312408653
 31
0.0
 11
22.5618452998
 21
-28.727482561
 31
0.0
 11
22.4413488647
 21
-28.8019736964
 31
0.0
  0
SPLINE
  5
39B
100
AcDbEntity
  8
0
100
AcDbSpline
 62
7
  6
CONTINUOUS
 70
0
 71
3
 72
16
 73
12
 74
10
 42
0.0000001
 43
0.0000001
 44
0.0000000001
 12
1.6902158678
 22
-2.5821139966
 32
0.0
 13
-2.7595297771
 23
-1.3817155209
 33
0.0
 40
0.0
 40
0.0
 40
0.0
 40
0.0
 40
0.1489870691
 40
0.2973115755
 40
0.4406225903
 40
0.5750869715
 40
0.6979615142
 40
0.8082224892
 40
0.9073048364
 40
0.9540968414
 40
1.0
 40
1.0
 40
1.0
 40
1.0
 10
19.4864870265
 20
-27.4928651826
 30
0.0
 10
19.5704271293
 20
-27.6210990481
 30
0.0
 10
19.7204895327
 20
-27.8888577707
 30
0.0
 10
19.8881449272
 20
-28.3113824782
 30
0.0
 10
19.9925524715
 20
-28.7386781714
 30
0.0
 10
20.0287284595
 20
-29.1510615008
 30
0.0
 10
19.9944902752
 20
-29.5300908734
 30
0.0
 10
19.8903432654
 20
-29.8589611862
 30
0.0
 10
19.7427459528
 20
-30.0828180384
 30
0.0
 10
19.5953110574
 20
-30.215224736
 30
0.0
 10
19.5137240948
 20
-30.2657562347
 30
0.0
 10
19.4715003837
 20
-30.2868979369
 30
0.0
 11
19.4864870265
 21
-27.4928651826
 31
0.0
 11
19.7115486559
 21
-27.8938091301
 31
0.0
 11
19.8798333774
 21
-28.3195002162
 31
0.0
 11
19.9832792547
 21
-28.7495074649
 31
0.0
 11
20.0168869101
 21
-29.1631176665
 31
0.0
 11
19.9790452846
 21
-29.5404304975
 31
0.0
 11
19.8715794109
 21
-29.8632937522
 31
0.0
 11
19.6996563141
 21
-30.1161651058
 31
0.0
 11
19.5919968188
 21
-30.2124068015
 31
0.0
 11
19.4715003837
 21
-30.2868979369
 31
0.0
  0
SPLINE
  5
39C
100
AcDbEntity
  8
0
100
AcDbSpline
 62
7
  6
CONTINUOUS
 70
0
 71
3
 72
16
 73
12
 74
10
 42
0.0000001
 43
0.0000001
 44
0.0000000001
 12
0.4300136879
 22
-1.5177321291
 32
0.0
 13
1.5359838311
 23
0.3594109876
 33
0.0
 40
0.0
 40
0.0
 40
0.0
 40
0.0
 40
0.1815755547
 40
0.3510404593
 40
0.505465308
 40
0.6424551403
 40
0.7601031638
 40
0.8577076855
 40
0.899249628
 40
0.9363820864
 40
1.0
 40
1.0
 40
1.0
 40
1.0
 10
4.0196321581
 20
-35.7388617755
 30
0.0
 10
4.0456588161
 20
-35.8307227932
 30
0.0
 10
4.1038990936
 20
-36.006196304
 30
0.0
 10
4.2106003496
 20
-36.2500501594
 30
0.0
 10
4.3295719084
 20
-36.4616695179
 30
0.0
 10
4.4552698225
 20
-36.6368904872
 30
0.0
 10
4.5826782969
 20
-36.772114124
 30
0.0
 10
4.6911880215
 20
-36.8542509084
 30
0.0
 10
4.7747306157
 20
-36.8952417414
 30
0.0
 10
4.84605738
 20
-36.9179713736
 30
0.0
 10
4.9011895116
 20
-36.9203839781
 30
0.0
 10
4.9337615405
 20
-36.9127623191
 30
0.0
 11
4.0196321581
 21
-35.7388617755
 31
0.0
 11
4.1101523494
 21
-36.0106127581
 31
0.0
 11
4.2179465837
 21
-36.2552426898
 31
0.0
 11
4.3380940169
 21
-36.4671532655
 31
0.0
 11
4.465224154
 21
-36.6418993655
 31
0.0
 11
4.5938407782
 21
-36.7756908597
 31
0.0
 11
4.7183944346
 21
-36.8662043915
 31
0.0
 11
4.7774202196
 21
-36.8946703298
 31
0.0
 11
4.833409828
 21
-36.9118822229
 31
0.0
 11
4.9337615405
 21
-36.9127623191
 31
0.0
  0
SPLINE
  5
39D
100
AcDbEntity
  8
0
100
AcDbSpline
 62
7
  6
CONTINUOUS
 70
0
 71
3
 72
16
 73
12
 74
10
 42
0.0000001
 43
0.0000001
 44
0.0000000001
 12
1.6902158678
 22
-2.5821139966
 32
0.0
 13
-2.7595297771
 23
-1.3817155209
 33
0.0
 40
0.0
 40
0.0
 40
0.0
 40
0.0
 40
0.1489870691
 40
0.2973115755
 40
0.4406225903
 40
0.5750869715
 40
0.6979615142
 40
0.8082224892
 40
0.9073048364
 40
0.9540968414
 40
1.0
 40
1.0
 40
1.0
 40
1.0
 10
12.0618658241
 20
-31.2051757838
 30
0.0
 10
12.1458059268
 20
-31.3334096493
 30
0.0
 10
12.2958683303
 20
-31.601168372
 30
0.0
 10
12.4635237248
 20
-32.0236930794
 30
0.0
 10
12.567931269
 20
-32.4509887727
 30
0.0
 10
12.604107257
 20
-32.8633721021
 30
0.0
 10
12.5698690727
 20
-33.2424014747
 30
0.0
 10
12.465722063
 20
-33.5712717874
 30
0.0
 10
12.3181247503
 20
-33.7951286397
 30
0.0
 10
12.1706898549
 20
-33.9275353372
 30
0.0
 10
12.0891028923
 20
-33.9780668359
 30
0.0
 10
12.0468791813
 20
-33.9992085381
 30
0.0
 11
12.0618658241
 21
-31.2051757838
 31
0.0
 11
12.2869274534
 21
-31.6061197313
 31
0.0
 11
12.4552121749
 21
-32.0318108174
 31
0.0
 11
12.5586580522
 21
-32.4618180661
 31
0.0
 11
12.5922657077
 21
-32.8754282677
 31
0.0
 11
12.5544240821
 21
-33.2527410988
 31
0.0
 11
12.4469582084
 21
-33.5756043534
 31
0.0
 11
12.2750351117
 21
-33.828475707
 31
0.0
 11
12.1673756164
 21
-33.9247174027
 31
0.0
 11
12.0468791813
 21
-33.9992085381
 31
0.0
  0
SPLINE
  5
39E
100
AcDbEntity
  8
0
100
AcDbSpline
 62
7
  6
CONTINUOUS
 70
0
 71
3
 72
16
 73
12
 74
10
 42
0.0000001
 43
0.0000001
 44
0.0000000001
 12
1.6902158678
 22
-2.5821139966
 32
0.0
 13
-2.7595297771
 23
-1.3817155209
 33
0.0
 40
0.0
 40
0.0
 40
0.0
 40
0.0
 40
0.1489870691
 40
0.2973115755
 40
0.4406225903
 40
0.5750869715
 40
0.6979615142
 40
0.8082224892
 40
0.9073048364
 40
0.9540968414
 40
1.0
 40
1.0
 40
1.0
 40
1.0
 10
9.0920173431
 20
-32.6901000243
 30
0.0
 10
9.1759574459
 20
-32.8183338898
 30
0.0
 10
9.3260198493
 20
-33.0860926125
 30
0.0
 10
9.4936752438
 20
-33.5086173199
 30
0.0
 10
9.598082788
 20
-33.9359130132
 30
0.0
 10
9.634258776
 20
-34.3482963425
 30
0.0
 10
9.6000205917
 20
-34.7273257152
 30
0.0
 10
9.495873582
 20
-35.0561960279
 30
0.0
 10
9.3482762693
 20
-35.2800528801
 30
0.0
 10
9.200841374
 20
-35.4124595777
 30
0.0
 10
9.1192544113
 20
-35.4629910764
 30
0.0
 10
9.0770307003
 20
-35.4841327786
 30
0.0
 11
9.0920173431
 21
-32.6901000243
 31
0.0
 11
9.3170789724
 21
-33.0910439718
 31
0.0
 11
9.4853636939
 21
-33.5167350579
 31
0.0
 11
9.5888095712
 21
-33.9467423066
 31
0.0
 11
9.6224172267
 21
-34.3603525082
 31
0.0
 11
9.5845756011
 21
-34.7376653393
 31
0.0
 11
9.4771097274
 21
-35.0605285939
 31
0.0
 11
9.3051866307
 21
-35.3133999475
 31
0.0
 11
9.1975271354
 21
-35.4096416432
 31
0.0
 11
9.0770307003
 21
-35.4841327786
 31
0.0
  0
SPLINE
  5
39F
100
AcDbEntity
  8
0
100
AcDbSpline
 62
7
  6
CONTINUOUS
 70
0
 71
3
 72
11
 73
7
 74
5
 42
0.0000001
 43
0.0000001
 44
0.0000000001
 12
0.3639286013
 22
-0.0851571061
 32
0.0
 13
0.281577665
 23
0.2457840071
 33
0.0
 40
0.0
 40
0.0
 40
0.0
 40
0.0
 40
0.1953312033
 40
0.4210963317
 40
0.6876624454
 40
1.0
 40
1.0
 40
1.0
 40
1.0
 10
-28.3273990851
 20
-38.5037525767
 30
0.0
 10
-28.3037035479
 20
-38.5092971901
 30
0.0
 10
-28.2500336887
 20
-38.5108961888
 30
0.0
 10
-28.1667080867
 20
-38.4875693635
 30
0.0
 10
-28.0778379628
 20
-38.4398971597
 30
0.0
 10
-28.0205689222
 20
-38.3955826994
 30
0.0
 10
-27.9912531624
 20
-38.3699935075
 30
0.0
 11
-28.3273990851
 21
-38.5037525767
 31
0.0
 11
-28.2544816264
 21
-38.5073630057
 31
0.0
 11
-28.1727627957
 21
-38.4863318227
 31
0.0
 11
-28.0843066816
 21
-38.4404848345
 31
0.0
 11
-27.9912531624
 21
-38.3699935075
 31
0.0
  0
SPLINE
  5
3A0
100
AcDbEntity
  8
0
100
AcDbSpline
 62
7
  6
CONTINUOUS
 70
0
 71
3
 72
16
 73
12
 74
10
 42
0.0000001
 43
0.0000001
 44
0.0000000001
 12
-1.6902158678
 22
-2.5821139966
 32
0.0
 13
2.7595297771
 23
-1.3817155209
 33
0.0
 40
0.0
 40
0.0
 40
0.0
 40
0.0
 40
0.1489870691
 40
0.2973115755
 40
0.4406225903
 40
0.5750869715
 40
0.6979615142
 40
0.8082224892
 40
0.9073048364
 40
0.9540968414
 40
1.0
 40
1.0
 40
1.0
 40
1.0
 10
-35.4555033687
 20
-32.7961660415
 30
0.0
 10
-35.5394434715
 20
-32.924399907
 30
0.0
 10
-35.6895058749
 20
-33.1921586296
 30
0.0
 10
-35.8571612694
 20
-33.6146833371
 30
0.0
 10
-35.9615688136
 20
-34.0419790303
 30
0.0
 10
-35.9977448016
 20
-34.4543623597
 30
0.0
 10
-35.9635066173
 20
-34.8333917323
 30
0.0
 10
-35.8593596076
 20
-35.1622620451
 30
0.0
 10
-35.711762295
 20
-35.3861188973
 30
0.0
 10
-35.5643273996
 20
-35.5185255949
 30
0.0
 10
-35.4827404369
 20
-35.5690570936
 30
0.0
 10
-35.4405167259
 20
-35.5901987958
 30
0.0
 11
-35.4555033687
 21
-32.7961660415
 31
0.0
 11
-35.6805649981
 21
-33.197109989
 31
0.0
 11
-35.8488497195
 21
-33.6228010751
 31
0.0
 11
-35.9522955969
 21
-34.0528083238
 31
0.0
 11
-35.9859032523
 21
-34.4664185254
 31
0.0
 11
-35.9480616267
 21
-34.8437313564
 31
0.0
 11
-35.840595753
 21
-35.1665946111
 31
0.0
 11
-35.6686726563
 21
-35.4194659647
 31
0.0
 11
-35.561013161
 21
-35.5157076604
 31
0.0
 11
-35.4405167259
 21
-35.5901987958
 31
0.0
  0
SPLINE
  5
3A1
100
AcDbEntity
  8
0
100
AcDbSpline
 62
7
  6
CONTINUOUS
 70
0
 71
3
 72
16
 73
12
 74
10
 42
0.0000001
 43
0.0000001
 44
0.0000000001
 12
-1.6902158678
 22
-2.5821139966
 32
0.0
 13
2.7595297771
 23
-1.3817155209
 33
0.0
 40
0.0
 40
0.0
 40
0.0
 40
0.0
 40
0.1489870691
 40
0.2973115755
 40
0.4406225903
 40
0.5750869715
 40
0.6979615142
 40
0.8082224892
 40
0.9073048364
 40
0.9540968414
 40
1.0
 40
1.0
 40
1.0
 40
1.0
 10
-32.4856548877
 20
-34.2810902819
 30
0.0
 10
-32.5695949905
 20
-34.4093241475
 30
0.0
 10
-32.7196573939
 20
-34.6770828701
 30
0.0
 10
-32.8873127884
 20
-35.0996075776
 30
0.0
 10
-32.9917203327
 20
-35.5269032708
 30
0.0
 10
-33.0278963206
 20
-35.9392866002
 30
0.0
 10
-32.9936581364
 20
-36.3183159728
 30
0.0
 10
-32.8895111266
 20
-36.6471862855
 30
0.0
 10
-32.741913814
 20
-36.8710431378
 30
0.0
 10
-32.5944789186
 20
-37.0034498353
 30
0.0
 10
-32.5128919559
 20
-37.0539813341
 30
0.0
 10
-32.4706682449
 20
-37.0751230363
 30
0.0
 11
-32.4856548877
 21
-34.2810902819
 31
0.0
 11
-32.7107165171
 21
-34.6820342295
 31
0.0
 11
-32.8790012386
 21
-35.1077253156
 31
0.0
 11
-32.9824471159
 21
-35.5377325643
 31
0.0
 11
-33.0160547713
 21
-35.9513427659
 31
0.0
 11
-32.9782131458
 21
-36.3286555969
 31
0.0
 11
-32.8707472721
 21
-36.6515188516
 31
0.0
 11
-32.6988241753
 21
-36.9043902052
 31
0.0
 11
-32.59116468
 21
-37.0006319009
 31
0.0
 11
-32.4706682449
 21
-37.0751230363
 31
0.0
  0
ELLIPSE
  5
3A2
100
AcDbEntity
  8
RACCORDO
100
AcDbEllipse
 62
7
  6
CONTINUOUS
 10
32.8503914239
 20
-5.905385048
 30
0.0
 11
2.4007311189
 21
-0.0
 31
0.0
 40
0.4998477299
 41
-0.7852458701
 42
0.0141098212
  0
ELLIPSE
  5
3A3
100
AcDbEntity
  8
RACCORDO
100
AcDbEllipse
 62
7
  6
CONTINUOUS
 10
-30.1517887428
 20
-21.7092216075
 30
0.0
 11
2.4007311189
 21
-0.0
 31
0.0
 40
0.4998477299
 41
3.1274828324
 42
3.9268385237
  0
ELLIPSE
  5
3A4
100
AcDbEntity
  8
RACCORDO
100
AcDbEllipse
 62
7
  6
CONTINUOUS
 10
-14.4545352189
 20
-29.5578483694
 30
0.0
 11
2.4
 21
-0.0
 31
0.0
 40
0.5001523164
 41
-2.3560421969
 42
-0.7855504566
  0
ELLIPSE
  5
3A5
100
AcDbEntity
  8
RACCORDO
100
AcDbEllipse
 62
7
  6
CONTINUOUS
 10
4.48073713
 20
-36.2980537515
 30
0.0
 11
0.2728743518
 21
0.534374306
 31
0.0
 40
0.6079814556
 41
-2.4517189759
 42
-2.22699704
  0
ELLIPSE
  5
3A6
100
AcDbEntity
  8
RACCORDO
100
AcDbEllipse
 62
7
  6
CONTINUOUS
 10
14.8752068134
 20
-31.1008189097
 30
0.0
 11
0.2728743518
 21
0.534374306
 31
0.0
 40
0.6079814556
 41
-2.4517189759
 42
-2.22699704
  0
ELLIPSE
  5
3A7
100
AcDbEntity
  8
RACCORDO
100
AcDbEllipse
 62
7
  6
CONTINUOUS
 10
-29.0411008636
 20
-38.3663410864
 30
0.0
 11
-0.2728743518
 21
0.534374306
 31
0.0
 40
0.6079814556
 41
0.8896492954
 42
2.4517189759
  0
ELLIPSE
  5
3A8
100
AcDbEntity
  8
RACCORDO
100
AcDbEllipse
 62
7
  6
CONTINUOUS
 10
33.5267555163
 20
-29.5491077801
 30
0.0
 11
2.4007311189
 21
0.0
 31
0.0
 40
0.4998477299
 41
-0.7852458701
 42
0.0141098212
  0
ELLIPSE
  5
3A9
100
AcDbEntity
  8
RACCORDO
100
AcDbEllipse
 62
7
  6
CONTINUOUS
 10
-30.1542471603
 20
-21.7079923987
 30
0.0
 11
2.4007311189
 21
-0.0
 31
0.0
 40
0.4998477299
 41
3.1274828324
 42
3.9268385237
  0
ELLIPSE
  5
3AA
100
AcDbEntity
  8
RACCORDO
100
AcDbEllipse
 62
7
  6
CONTINUOUS
 10
2.6213787453
 20
-23.2466853881
 30
0.0
 11
0.2589751619
 21
0.5412936558
 31
0.0
 40
0.6209844714
 41
5.3950300532
 42
6.9570997337
  0
ELLIPSE
  5
3AB
100
AcDbEntity
  8
RACCORDO
100
AcDbEllipse
 62
7
  6
CONTINUOUS
 10
13.0158484287
 20
-18.0494505464
 30
0.0
 11
0.2589751619
 21
0.5412936558
 31
0.0
 40
0.6209844714
 41
5.3950300532
 42
6.9570997337
  0
ELLIPSE
  5
3AC
100
AcDbEntity
  8
RACCORDO
100
AcDbEllipse
 62
7
  6
CONTINUOUS
 10
-28.4727061522
 20
-40.8472328597
 30
0.0
 11
-0.2589751619
 21
0.5412936558
 31
0.0
 40
0.6209844714
 41
-3.8155070801
 42
-2.2534373996
  0
ELLIPSE
  5
3AD
100
AcDbEntity
  8
RACCORDO
100
AcDbEllipse
 62
7
  6
CONTINUOUS
 10
6.5738239479
 20
-37.3445971604
 30
0.0
 11
0.2589751619
 21
0.5412936558
 31
0.0
 40
0.6209844714
 41
-2.467678227
 42
-0.9056085465
  0
ELLIPSE
  5
3AE
100
AcDbEntity
  8
RACCORDO
100
AcDbEllipse
 62
7
  6
CONTINUOUS
 10
16.9682936314
 20
-32.1473623187
 30
0.0
 11
0.2589751619
 21
0.5412936558
 31
0.0
 40
0.6209844714
 41
-2.467678227
 42
-0.9056085465
  0
ELLIPSE
  5
3AF
100
AcDbEntity
  8
RACCORDO
100
AcDbEllipse
 62
7
  6
CONTINUOUS
 10
3.808734819
 20
-38.7271417249
 30
0.0
 11
0.2589751619
 21
0.5412936558
 31
0.0
 40
0.6209844714
 41
2.2534373996
 42
3.8155070801
  0
ELLIPSE
  5
3B0
100
AcDbEntity
  8
RACCORDO
100
AcDbEllipse
 62
7
  6
CONTINUOUS
 10
14.2032045025
 20
-33.5299068832
 30
0.0
 11
0.2589751619
 21
0.5412936558
 31
0.0
 40
0.6209844714
 41
2.2534373996
 42
3.8155070801
  0
ELLIPSE
  5
3B1
100
AcDbEntity
  8
RACCORDO
100
AcDbEllipse
 62
7
  6
CONTINUOUS
 10
-31.2377952811
 20
-39.4646882952
 30
0.0
 11
-0.2589751619
 21
0.5412936558
 31
0.0
 40
0.6209844714
 41
0.9056085465
 42
2.467678227
  0
ELLIPSE
  5
3B2
100
AcDbEntity
  8
RACCORDO
100
AcDbEllipse
 62
7
  6
CONTINUOUS
 10
17.7039107363
 20
-15.7054193926
 30
0.0
 11
0.2589751619
 21
0.5412936558
 31
0.0
 40
0.6209844714
 41
0.6739144266
 42
2.2359841071
  0
ELLIPSE
  5
3B3
100
AcDbEntity
  8
RACCORDO
100
AcDbEllipse
 62
7
  6
CONTINUOUS
 10
7.3094410528
 20
-20.9026542343
 30
0.0
 11
0.2589751619
 21
0.5412936558
 31
0.0
 40
0.6209844714
 41
0.6739144266
 42
2.2359841071
  0
ELLIPSE
  5
3B4
100
AcDbEntity
  8
RACCORDO
100
AcDbEllipse
 62
7
  6
CONTINUOUS
 10
-27.2853500785
 20
-25.3667765229
 30
0.0
 11
-0.2589751619
 21
0.5412936558
 31
0.0
 40
0.6209844714
 41
-0.6739144266
 42
0.888155254
  0
ELLIPSE
  5
3B5
100
AcDbEntity
  8
RACCORDO
100
AcDbEllipse
 62
7
  6
CONTINUOUS
 10
-14.4520768014
 20
-29.5590775782
 30
0.0
 11
2.4
 21
-0.0
 31
0.0
 40
0.5001523164
 41
-2.3560421969
 42
-0.7855504566
  0
ELLIPSE
  5
3B6
100
AcDbEntity
  8
RACCORDO
100
AcDbEllipse
 62
7
  6
CONTINUOUS
 10
-14.4520768014
 20
-53.5385239389
 30
0.0
 11
2.4
 21
0.0
 31
0.0
 40
0.5001523164
 41
-2.3560421969
 42
-0.7855504566
  0
ELLIPSE
  5
3B7
100
AcDbEntity
  8
RACCORDO
100
AcDbEllipse
 62
7
  6
CONTINUOUS
 10
-30.8281528351
 20
-45.350485922
 30
0.0
 11
2.4007311189
 21
0.0
 31
0.0
 40
0.4998477299
 41
3.1274828324
 42
3.9268385237
  0
ELLIPSE
  5
3B8
100
AcDbEntity
  8
RACCORDO
100
AcDbEllipse
 62
7
  6
CONTINUOUS
 10
32.8528498415
 20
-5.9066142567
 30
0.0
 11
2.4007311189
 21
0.0
 31
0.0
 40
0.4998477299
 41
-0.7852458701
 42
0.0141098212
  0
ELLIPSE
  5
3B9
100
AcDbEntity
  8
ASSI
100
AcDbEllipse
 62
7
  6
CONTINUOUS
 10
4.48073713
 20
-36.2980537515
 30
0.0
 11
0.2728743518
 21
0.534374306
 31
0.0
 40
0.6079814556
 41
-2.4517189759
 42
-2.22699704
  0
ELLIPSE
  5
3BA
100
AcDbEntity
  8
ASSI
100
AcDbEllipse
 62
7
  6
CONTINUOUS
 10
14.8752068134
 20
-31.1008189097
 30
0.0
 11
0.2728743518
 21
0.534374306
 31
0.0
 40
0.6079814556
 41
-2.4517189759
 42
-2.22699704
  0
ELLIPSE
  5
3BB
100
AcDbEntity
  8
ASSI
100
AcDbEllipse
 62
7
  6
CONTINUOUS
 10
-29.0411008636
 20
-38.3663410864
 30
0.0
 11
-0.2728743518
 21
0.534374306
 31
0.0
 40
0.6079814556
 41
0.8896492954
 42
2.4517189759
  0
ELLIPSE
  5
3BC
100
AcDbEntity
  8
ASSI
100
AcDbEllipse
 62
7
  6
CONTINUOUS
 10
6.5738239479
 20
-37.3445971604
 30
0.0
 11
0.2589751619
 21
0.5412936558
 31
0.0
 40
0.6209844714
 41
-2.467678227
 42
-0.9056085465
  0
ELLIPSE
  5
3BD
100
AcDbEntity
  8
ASSI
100
AcDbEllipse
 62
7
  6
CONTINUOUS
 10
16.9682936314
 20
-32.1473623187
 30
0.0
 11
0.2589751619
 21
0.5412936558
 31
0.0
 40
0.6209844714
 41
-2.467678227
 42
-0.9056085465
  0
ELLIPSE
  5
3BE
100
AcDbEntity
  8
ASSI
100
AcDbEllipse
 62
7
  6
CONTINUOUS
 10
3.808734819
 20
-38.7271417249
 30
0.0
 11
0.2589751619
 21
0.5412936558
 31
0.0
 40
0.6209844714
 41
2.2534373996
 42
3.8155070801
  0
ELLIPSE
  5
3BF
100
AcDbEntity
  8
ASSI
100
AcDbEllipse
 62
7
  6
CONTINUOUS
 10
14.2032045025
 20
-33.5299068832
 30
0.0
 11
0.2589751619
 21
0.5412936558
 31
0.0
 40
0.6209844714
 41
2.2534373996
 42
3.8155070801
  0
ELLIPSE
  5
3C0
100
AcDbEntity
  8
ASSI
100
AcDbEllipse
 62
7
  6
CONTINUOUS
 10
-31.2377952811
 20
-39.4646882952
 30
0.0
 11
-0.2589751619
 21
0.5412936558
 31
0.0
 40
0.6209844714
 41
0.9056085465
 42
2.467678227
  0
ELLIPSE
  5
3C1
100
AcDbEntity
  8
ASSI
100
AcDbEllipse
 62
7
  6
CONTINUOUS
 10
17.7039107363
 20
-15.7054193926
 30
0.0
 11
0.2589751619
 21
0.5412936558
 31
0.0
 40
0.6209844714
 41
0.6739144266
 42
2.2359841071
  0
ELLIPSE
  5
3C2
100
AcDbEntity
  8
ASSI
100
AcDbEllipse
 62
7
  6
CONTINUOUS
 10
7.3094410528
 20
-20.9026542343
 30
0.0
 11
0.2589751619
 21
0.5412936558
 31
0.0
 40
0.6209844714
 41
0.6739144266
 42
2.2359841071
  0
ELLIPSE
  5
3C3
100
AcDbEntity
  8
ASSI
100
AcDbEllipse
 62
7
  6
CONTINUOUS
 10
-27.2853500785
 20
-25.3667765229
 30
0.0
 11
-0.2589751619
 21
0.5412936558
 31
0.0
 40
0.6209844714
 41
-0.6739144266
 42
0.888155254
  0
ELLIPSE
  5
3C4
100
AcDbEntity
  8
ASSI
100
AcDbEllipse
 62
7
  6
CONTINUOUS
 10
-28.4727061522
 20
-40.8472328597
 30
0.0
 11
-0.2589751619
 21
0.5412936558
 31
0.0
 40
0.6209844714
 41
-3.8155070801
 42
-2.2534373996
  0
ELLIPSE
  5
3C5
100
AcDbEntity
  8
ASSI
100
AcDbEllipse
 62
7
  6
CONTINUOUS
 10
13.0158484287
 20
-18.0494505464
 30
0.0
 11
0.2589751619
 21
0.5412936558
 31
0.0
 40
0.6209844714
 41
5.3950300532
 42
6.9570997337
  0
ELLIPSE
  5
3C6
100
AcDbEntity
  8
ASSI
100
AcDbEllipse
 62
7
  6
CONTINUOUS
 10
2.6213787453
 20
-23.2466853881
 30
0.0
 11
0.2589751619
 21
0.5412936558
 31
0.0
 40
0.6209844714
 41
5.3950300532
 42
6.9570997337
  0
ELLIPSE
  5
3C7
100
AcDbEntity
  8
ASSI
100
AcDbEllipse
 62
7
  6
CONTINUOUS
 10
-14.4520768014
 20
-29.5590775782
 30
0.0
 11
2.4
 21
0.0
 31
0.0
 40
0.5001523164
 41
-2.3560421969
 42
-0.7855504566
  0
ELLIPSE
  5
3C8
100
AcDbEntity
  8
ASSI
100
AcDbEllipse
 62
7
  6
CONTINUOUS
 10
-30.1542471603
 20
-21.7079923987
 30
0.0
 11
2.4007311189
 21
0.0
 31
0.0
 40
0.4998477299
 41
9.3830520524
 42
10.2100238309
  0
ELLIPSE
  5
3C9
100
AcDbEntity
  8
ASSI
100
AcDbEllipse
 62
7
  6
CONTINUOUS
 10
33.5267555163
 20
-29.5491077801
 30
0.0
 11
2.4007311189
 21
0.0
 31
0.0
 40
0.4998477299
 41
-0.7852458701
 42
0.0141098212
  0
ELLIPSE
  5
3CA
100
AcDbEntity
  8
ASSI
100
AcDbEllipse
 62
7
  6
CONTINUOUS
 10
-14.4520768014
 20
-53.5385239389
 30
0.0
 11
2.4
 21
0.0
 31
0.0
 40
0.5001523164
 41
-2.3560421969
 42
-0.7855504566
  0
ELLIPSE
  5
3CB
100
AcDbEntity
  8
ASSI
100
AcDbEllipse
 62
7
  6
CONTINUOUS
 10
-30.8281528351
 20
-45.350485922
 30
0.0
 11
2.4007311189
 21
0.0
 31
0.0
 40
0.4998477299
 41
3.1274828324
 42
3.9268385237
  0
ELLIPSE
  5
3CC
100
AcDbEntity
  8
ASSI
100
AcDbEllipse
 62
7
  6
CONTINUOUS
 10
32.8528498415
 20
-5.9066142567
 30
0.0
 11
2.4007311189
 21
-0.0
 31
0.0
 40
0.4998477299
 41
-0.7852458701
 42
0.0141098212
  0
ENDSEC
  0
SECTION
  2
OBJECTS
  0
DICTIONARY
  5
C
100
AcDbDictionary
280
0
281
1
  3
ACAD_GROUP
350
D
  3
ACAD_MLINESTYLE
350
17
  3
ACAD_LAYOUT
350
1A
  3
ACAD_PLOTSETTINGS
350
19
  3
ACAD_PLOTSTYLENAME
350
E
  0
DICTIONARY
  5
D
102
{ACAD_REACTORS
330
C
102
}
100
AcDbDictionary
280
0
281
1
  0
ACDBDICTIONARYWDFLT
  5
E
102
{ACAD_REACTORS
330
C
102
}
100
AcDbDictionary
281
1
  3
Normal
350
F
100
AcDbDictionaryWithDefault
340
F
  0
DICTIONARY
  5
17
102
{ACAD_REACTORS
330
C
102
}
100
AcDbDictionary
280
0
281
1
  3
Standard
350
18
  0
DICTIONARY
  5
19
102
{ACAD_REACTORS
330
C
102
}
100
AcDbDictionary
281
1
  0
DICTIONARY
  5
1A
102
{ACAD_REACTORS
330
C
102
}
100
AcDbDictionary
281
1
  3
Model
350
3CD
  3
Layout1
350
3CE
  0
ACDBPLACEHOLDER
  5
F
102
{ACAD_REACTORS
330
E
102
}
  0
MLINESTYLE
  5
18
102
{ACAD_REACTORS
330
17
102
}
100
AcDbMlineStyle
  2
STANDARD
 70
0
  3

 62
256
 51
90.0
 52
90.0
 71
2
 49
0.5
 62
256
  6
BYLAYER
 49
-0.5
 62
256
  6
BYLAYER
  0
LAYOUT
  5
3CD
102
{ACAD_REACTORS
330
1A
102
}
100
AcDbPlotSettings
  1

  2
none_device
  4
ANSI_C_(22.00_x_17.00_Inches)
  6

 40
0.0
 41
0.0
 42
0.0
 43
0.0
 44
558.8
 45
431.8
 46
0.0
 47
0.0
 48
0.0
 49
0.0
140
0.0
141
0.0
142
1.0
143
1.0
 70
1024
 72
1
 73
0
 74
0
  7

 75
0
147
1.0
148
0.0
149
0.0
100
AcDbLayout
  1
Model
 70
0
 71
0
 10
0.0
 20
0.0
 11
558.8
 21
431.8
 12
0.0
 22
0.0
 32
0.0
 14
0.0
 24
0.0
 34
0.0
 15
0.0
 25
0.0
 35
0.0
146
0.0
 13
0.0
 23
0.0
 33
0.0
 16
1.0
 26
0.0
 36
0.0
 17
0.0
 27
1.0
 37
0.0
 76
0
330
212
345
0
346
0
  0
LAYOUT
  5
3CE
102
{ACAD_REACTORS
330
1A
102
}
100
AcDbPlotSettings
  1

  2
none_device
  4
ANSI_C_(22.00_x_17.00_Inches)
  6

 40
0.0
 41
0.0
 42
0.0
 43
0.0
 44
558.8
 45
431.8
 46
0.0
 47
0.0
 48
0.0
 49
0.0
140
0.0
141
0.0
142
1.0
143
1.0
 70
0
 72
1
 73
0
 74
0
  7

 75
0
147
1.0
148
0.0
149
0.0
100
AcDbLayout
  1
Layout1
 70
0
 71
1
 10
0.0
 20
0.0
 11
558.8
 21
431.8
 12
0.0
 22
0.0
 32
0.0
 14
0.0
 24
0.0
 34
0.0
 15
0.0
 25
0.0
 35
0.0
146
0.0
 13
0.0
 23
0.0
 33
0.0
 16
1.0
 26
0.0
 36
0.0
 17
0.0
 27
1.0
 37
0.0
 76
0
330
213
345
0
346
0
  0
ENDSEC
  0
EOF
