  0
SECTION
  2
HEADER
  9
$ACADVER
  1
AC1024
  9
$DWGCODEPAGE
  3
ANSI_1252
  9
$EXTMAX
 10
297.0
 20
210.0
 30
0.0
  9
$EXTMIN
 10
0.0
 20
0.0
 30
0.0
  9
$LIMMIN
 10
0.0
 20
0.0
  9
$LIMMAX
 10
297.0
 20
210.0
  9
$VIEWCTR
 10
148.5
 20
105.0
  9
$VIEWSIZE
 40
210.0
  9
$CLAYER
  8
0
  9
$LTSCALE
 40
16.335
  9
$CELTYPE
  6
BYLAYER
  9
$DIMSCALE
 40
1.0
  9
$DIMASZ
 40
3.0
  9
$DIMEXO
 40
0.5
  9
$DIMDLI
 40
11.286
  9
$DIMEXE
 40
1.5
  9
$DIMCEN
 40
2.673
  9
$DIMLFAC
 40
1.0
  9
$DIMBLK
  1
_FILLED
  9
$DIMALT
 70
0
  9
$DIMALTF
 40
0.0393700787
  9
$DIMTXT
 40
3.0
  9
$DIMTOL
 70
1
  9
$DIMLIM
 70
0
  9
$DIMTFAC
 40
1.0
  9
$DIMTP
 40
0.01
  9
$DIMTM
 40
0.01
  9
$DIMGAP
 40
0.625
  9
$DIMDSEP
 70
44
  9
$AUNITS
 70
0
  9
$PDMODE
 70
3
  9
$PDSIZE
 40
3.0
  9
$HANDSEED
  5
3C5
  9
$TILEMODE
 70
1
  9
$MEASUREMENT
 70
1
  9
$INSUNITS
 70
4
  0
ENDSEC
  0
SECTION
  2
CLASSES
  0
CLASS
  1
ACDBDICTIONARYWDFLT
  2
AcDbDictionaryWithDefault
  3
AutoCAD 2000
 90
0
 91
1
280
0
281
0
  0
CLASS
  1
ACDBPLACEHOLDER
  2
AcDbPlaceHolder
  3
AutoCAD 2000
 90
0
 91
1
280
0
281
0
  0
CLASS
  1
LAYOUT
  2
AcDbLayout
  3
AutoCAD 2000
 90
0
 91
0
280
0
281
0
  0
ENDSEC
  0
SECTION
  2
TABLES
  0
TABLE
  2
VPORT
  5
8
100
AcDbSymbolTable
 70
2
  0
VPORT
  5
1F4
100
AcDbSymbolTableRecord
100
AcDbViewportTableRecord
  2
*ACTIVE
 70
0
 10
0.0
 20
0.0
 11
1.0
 21
1.0
 12
148.5
 22
105.0
 13
0.0
 23
0.0
 14
1.0
 24
1.0
 15
0.0
 25
0.0
 16
0.0
 26
0.0
 36
1.0
 17
0.0
 27
0.0
 37
0.0
 40
210.0
 41
1.4142857143
 42
50.0
 43
0.0
 44
0.0
 50
0.0
 51
0.0
 71
0
 72
100
 73
1
 74
1
 75
0
 76
0
 77
0
 78
0
  0
ENDTAB
  0
TABLE
  2
LTYPE
  5
5
100
AcDbSymbolTable
 70
6
  0
LTYPE
  5
14
100
AcDbSymbolTableRecord
100
AcDbLinetypeTableRecord
  2
BYBLOCK
 70
0
  3

 72
65
 73
0
 40
0.0
  0
LTYPE
  5
15
100
AcDbSymbolTableRecord
100
AcDbLinetypeTableRecord
  2
BYLAYER
 70
0
  3

 72
65
 73
0
 40
0.0
  0
LTYPE
  5
16
100
AcDbSymbolTableRecord
100
AcDbLinetypeTableRecord
  2
CONTINUOUS
 70
64
  3
Solid line
 72
65
 73
0
 40
0.0
  0
LTYPE
  5
1F5
100
AcDbSymbolTableRecord
100
AcDbLinetypeTableRecord
  2
CENTER
 70
64
  3
____ _ ____ _ ____ _ ____ _ ____ _ ____ _ ____
 72
65
 73
4
 40
0.6
 49
0.375
 74
0
 49
-0.075
 74
0
 49
0.075
 74
0
 49
-0.075
 74
0
  0
LTYPE
  5
1F6
100
AcDbSymbolTableRecord
100
AcDbLinetypeTableRecord
  2
HIDDEN
 70
64
  3
- - - - - - - - - - - - - - - - - - - -
 72
65
 73
2
 40
0.2
 49
0.1
 74
0
 49
-0.1
 74
0
  0
LTYPE
  5
1F7
100
AcDbSymbolTableRecord
100
AcDbLinetypeTableRecord
  2
PHANTOM
 70
64
  3
_____ _ _ _____ _ _ _____ _ _ _____
 72
65
 73
6
 40
0.8
 49
0.45
 74
0
 49
-0.05
 74
0
 49
0.1
 74
0
 49
-0.05
 74
0
 49
0.1
 74
0
 49
-0.05
 74
0
  0
LTYPE
  5
1F8
100
AcDbSymbolTableRecord
100
AcDbLinetypeTableRecord
  2
DOT
 70
64
  3
. . . . . . . . . . . . . . . . . . . .
 72
65
 73
2
 40
0.2
 49
0.1
 74
0
 49
-0.1
 74
0
  0
LTYPE
  5
1F9
100
AcDbSymbolTableRecord
100
AcDbLinetypeTableRecord
  2
DASHED
 70
64
  3
- - - - - - - - - - - - - - - - - - - -
 72
65
 73
2
 40
0.2
 49
0.1
 74
0
 49
-0.1
 74
0
  0
ENDTAB
  0
TABLE
  2
LAYER
  5
2
100
AcDbSymbolTable
 70
36
  0
LAYER
  5
10
100
AcDbSymbolTableRecord
100
AcDbLayerTableRecord
  2
0
 70
0
 62
7
  6
CONTINUOUS
370
-3
390
F
  0
LAYER
  5
1FA
100
AcDbSymbolTableRecord
100
AcDbLayerTableRecord
  2
DEFAULT_1
 70
0
 62
7
  6
CENTER
370
-3
390
F
  0
LAYER
  5
1FB
100
AcDbSymbolTableRecord
100
AcDbLayerTableRecord
  2
DEFAULT_2
 70
0
 62
7
  6
HIDDEN
370
-3
390
F
  0
LAYER
  5
1FC
100
AcDbSymbolTableRecord
100
AcDbLayerTableRecord
  2
DEFAULT_3
 70
0
 62
7
  6
PHANTOM
370
-3
390
F
  0
LAYER
  5
1FD
100
AcDbSymbolTableRecord
100
AcDbLayerTableRecord
  2
ASSI
 70
0
 62
7
  6
CONTINUOUS
370
-3
390
F
  0
LAYER
  5
1FE
100
AcDbSymbolTableRecord
100
AcDbLayerTableRecord
  2
COORDINATE
 70
0
 62
7
  6
CONTINUOUS
370
-3
390
F
  0
LAYER
  5
1FF
100
AcDbSymbolTableRecord
100
AcDbLayerTableRecord
  2
COORD_ORIGINE
 70
0
 62
7
  6
CONTINUOUS
370
-3
390
F
  0
LAYER
  5
200
100
AcDbSymbolTableRecord
100
AcDbLayerTableRecord
  2
COPY_PUBLISH
 70
0
 62
7
  6
CONTINUOUS
370
-3
390
F
  0
LAYER
  5
201
100
AcDbSymbolTableRecord
100
AcDbLayerTableRecord
  2
COSMETIC
 70
0
 62
7
  6
CONTINUOUS
370
-3
390
F
  0
LAYER
  5
202
100
AcDbSymbolTableRecord
100
AcDbLayerTableRecord
  2
CURVE
 70
0
 62
7
  6
CONTINUOUS
370
-3
390
F
  0
LAYER
  5
203
100
AcDbSymbolTableRecord
100
AcDbLayerTableRecord
  2
DRAFT
 70
0
 62
7
  6
CONTINUOUS
370
-3
390
F
  0
LAYER
  5
204
100
AcDbSymbolTableRecord
100
AcDbLayerTableRecord
  2
IMPORT_IGES
 70
0
 62
7
  6
CONTINUOUS
370
-3
390
F
  0
LAYER
  5
205
100
AcDbSymbolTableRecord
100
AcDbLayerTableRecord
  2
INTF_1
 70
0
 62
7
  6
CONTINUOUS
370
-3
390
F
  0
LAYER
  5
206
100
AcDbSymbolTableRecord
100
AcDbLayerTableRecord
  2
NOTE
 70
0
 62
7
  6
CONTINUOUS
370
-3
390
F
  0
LAYER
  5
207
100
AcDbSymbolTableRecord
100
AcDbLayerTableRecord
  2
PIANI
 70
0
 62
7
  6
CONTINUOUS
370
-3
390
F
  0
LAYER
  5
208
100
AcDbSymbolTableRecord
100
AcDbLayerTableRecord
  2
PIANI_ORIGINE
 70
0
 62
7
  6
CONTINUOUS
370
-3
390
F
  0
LAYER
  5
209
100
AcDbSymbolTableRecord
100
AcDbLayerTableRecord
  2
PUNTI
 70
0
 62
7
  6
CONTINUOUS
370
-3
390
F
  0
LAYER
  5
20A
100
AcDbSymbolTableRecord
100
AcDbLayerTableRecord
  2
RACCORDO
 70
0
 62
7
  6
CONTINUOUS
370
-3
390
F
  0
LAYER
  5
20B
100
AcDbSymbolTableRecord
100
AcDbLayerTableRecord
  2
SCRITTE
 70
0
 62
7
  6
CONTINUOUS
370
-3
390
F
  0
LAYER
  5
20C
100
AcDbSymbolTableRecord
100
AcDbLayerTableRecord
  2
SMUSSO
 70
0
 62
7
  6
CONTINUOUS
370
-3
390
F
  0
LAYER
  5
20D
100
AcDbSymbolTableRecord
100
AcDbLayerTableRecord
  2
SNAPLINE
 70
0
 62
7
  6
CONTINUOUS
370
-3
390
F
  0
LAYER
  5
20E
100
AcDbSymbolTableRecord
100
AcDbLayerTableRecord
  2
SUPERFICI
 70
0
 62
7
  6
CONTINUOUS
370
-3
390
F
  0
LAYER
  5
20F
100
AcDbSymbolTableRecord
100
AcDbLayerTableRecord
  2
TRASH
 70
0
 62
7
  6
CONTINUOUS
370
-3
390
F
  0
LAYER
  5
210
100
AcDbSymbolTableRecord
100
AcDbLayerTableRecord
  2
XSEC_DATUMS
 70
0
 62
7
  6
CONTINUOUS
370
-3
390
F
  0
ENDTAB
  0
TABLE
  2
STYLE
  5
3
100
AcDbSymbolTable
 70
1
  0
STYLE
  5
11
100
AcDbSymbolTableRecord
100
AcDbTextStyleTableRecord
  2
STANDARD
 70
0
 40
0.0
 41
0.8
 50
0.0
 71
0
 42
0.2
  3
txt
  4

  0
STYLE
  5
211
100
AcDbSymbolTableRecord
100
AcDbTextStyleTableRecord
  2
TEXTSTYLE_1
 70
0
 40
0.0
 41
0.8
 50
0.0
 71
0
 42
0.2
  3
gdt
  4

  0
ENDTAB
  0
TABLE
  2
VIEW
  5
6
100
AcDbSymbolTable
 70
0
  0
ENDTAB
  0
TABLE
  2
UCS
  5
7
100
AcDbSymbolTable
 70
0
  0
ENDTAB
  0
TABLE
  2
APPID
  5
9
100
AcDbSymbolTable
 70
1
  0
APPID
  5
212
100
AcDbSymbolTableRecord
100
AcDbRegAppTableRecord
  2
ACAD
 70
0
  0
ENDTAB
  0
TABLE
  2
BLOCK_RECORD
  5
1
100
AcDbSymbolTable
 70
0
  0
BLOCK_RECORD
  5
213
100
AcDbSymbolTableRecord
100
AcDbBlockTableRecord
  2
*Model_Space
  0
BLOCK_RECORD
  5
214
100
AcDbSymbolTableRecord
100
AcDbBlockTableRecord
  2
*Paper_Space
  0
BLOCK_RECORD
  5
215
100
AcDbSymbolTableRecord
100
AcDbBlockTableRecord
  2
_FILLED
  0
ENDTAB
  0
TABLE
  2
DIMSTYLE
  5
A
100
AcDbSymbolTable
 70
1
100
AcDbDimStyleTable
 71
0
  0
DIMSTYLE
105
216
100
AcDbSymbolTableRecord
100
AcDbDimStyleTableRecord
  2
STANDARD
 70
0
  3

  4

 40
1.0
 41
3.0
 42
0.5
 43
0.38
 44
1.5
 45
0.0
 46
0.0
 47
0.01
 48
0.01
140
3.0
141
0.09
142
0.0
143
25.4
144
1.0
145
0.0
146
1.0
147
0.625
 71
1.0
 72
0.0
 73
0
 74
0
 75
0
 76
0
 77
1
 78
8
 79
2
170
0
171
1
172
0
173
0
174
0
175
0
176
0
177
0
178
0
270
2
179
2
271
2
272
2
273
2
274
2
275
0
280
0
281
0
282
0
283
1
284
8
285
0
286
0
287
3
288
0
340
11
278
44
341
215
342
215
343
215
344
215
  0
ENDTAB
  0
ENDSEC
  0
SECTION
  2
BLOCKS
  0
BLOCK
  5
20
100
AcDbEntity
  8
0
100
AcDbBlockBegin
  2
*Model_Space
 70
0
 10
0.0
 20
0.0
 30
0.0
  3
*Model_Space
  1

  0
ENDBLK
  5
21
100
AcDbEntity
  8
0
100
AcDbBlockEnd
  0
BLOCK
  5
1C
100
AcDbEntity
  8
0
100
AcDbBlockBegin
  2
*Paper_Space
 70
0
 10
0.0
 20
0.0
 30
0.0
  3
*Paper_Space
  1

  0
ENDBLK
  5
1D
100
AcDbEntity
  8
0
100
AcDbBlockEnd
  0
BLOCK
  5
217
100
AcDbEntity
  8
0
100
AcDbBlockBegin
  2
_FILLED
 70
64
 10
0.0
 20
0.0
  3
_FILLED
  1

  0
SOLID
  5
218
100
AcDbEntity
  8
0
  6
BYBLOCK
 62
0
100
AcDbTrace
 10
0.0
 20
0.0
 11
-1.0
 21
0.3166666667
 12
-1.0
 22
-0.3166666667
 13
-1.0
 23
-0.3166666667
  0
ENDBLK
  5
219
100
AcDbEntity
  8
0
  6
BYBLOCK
 62
0
100
AcDbBlockEnd
  0
ENDSEC
  0
SECTION
  2
ENTITIES
  0
LINE
  5
21A
100
AcDbEntity
  8
RACCORDO
100
AcDbLine
 62
7
  6
CONTINUOUS
 10
-5.8923321973
 20
-13.9134238547
 11
-11.351196548
 21
-11.1839916794
  0
LINE
  5
21B
100
AcDbEntity
  8
ASSI
100
AcDbLine
 62
7
  6
CONTINUOUS
 10
-5.8923321973
 20
-13.9134238547
 11
-11.351196548
 21
-11.1839916794
  0
LINE
  5
21C
100
AcDbEntity
  8
RACCORDO
100
AcDbLine
 62
250
  6
CONTINUOUS
 10
-11.351196548
 20
-11.1839916794
 11
-11.3564162457
 21
-11.1813177427
  0
LINE
  5
21D
100
AcDbEntity
  8
ASSI
100
AcDbLine
 62
250
  6
CONTINUOUS
 10
-11.351196548
 20
-11.1839916794
 11
-11.3564162457
 21
-11.1813177427
  0
LWPOLYLINE
  5
21E
100
AcDbEntity
  8
RACCORDO
100
AcDbPolyline
 62
250
  6
CONTINUOUS
 90
12
 70
0
 10
-5.8923321973
 20
-13.9134238547
 10
-5.898176903
 20
-13.9104210516
 10
-5.9345613209
 20
-13.8877800505
 10
-5.9679014972
 20
-13.8598885095
 10
-5.9979436932
 20
-13.8269587
 10
-6.0244592694
 20
-13.7892412377
 10
-6.0472464265
 20
-13.7470231754
 10
-6.0661317404
 20
-13.7006258179
 10
-6.0809714824
 20
-13.6504022771
 10
-6.0916527131
 20
-13.5967347846
 10
-6.098094142
 20
-13.5400317824
 10
-6.1002467458
 20
-13.4807248144
  0
LWPOLYLINE
  5
21F
100
AcDbEntity
  8
ASSI
100
AcDbPolyline
 62
250
  6
CONTINUOUS
 90
12
 70
0
 10
-5.8923321973
 20
-13.9134238547
 10
-5.898176903
 20
-13.9104210516
 10
-5.9345613209
 20
-13.8877800505
 10
-5.9679014972
 20
-13.8598885095
 10
-5.9979436932
 20
-13.8269587
 10
-6.0244592694
 20
-13.7892412377
 10
-6.0472464265
 20
-13.7470231754
 10
-6.0661317404
 20
-13.7006258179
 10
-6.0809714824
 20
-13.6504022771
 10
-6.0916527131
 20
-13.5967347846
 10
-6.098094142
 20
-13.5400317824
 10
-6.1002467458
 20
-13.4807248144
  0
LWPOLYLINE
  5
220
100
AcDbEntity
  8
RACCORDO
100
AcDbPolyline
 62
250
  6
CONTINUOUS
 90
11
 70
0
 10
-11.3564162457
 20
-11.1813177427
 10
-11.3928896674
 20
-11.1587354629
 10
-11.4263283653
 20
-11.1308753609
 10
-11.4564687906
 20
-11.0979496324
 10
-11.4830724451
 20
-11.0602157522
 10
-11.5059346156
 20
-11.0179651588
 10
-11.5248827685
 20
-10.9715179602
 10
-11.5397719559
 20
-10.9212298796
 10
-11.5504886617
 20
-10.86748552
 10
-11.5569514075
 20
-10.810695168
 10
-11.5591110966
 20
-10.751292639
  0
LWPOLYLINE
  5
221
100
AcDbEntity
  8
ASSI
100
AcDbPolyline
 62
250
  6
CONTINUOUS
 90
11
 70
0
 10
-11.3564162457
 20
-11.1813177427
 10
-11.3928896674
 20
-11.1587354629
 10
-11.4263283653
 20
-11.1308753609
 10
-11.4564687906
 20
-11.0979496324
 10
-11.4830724451
 20
-11.0602157522
 10
-11.5059346156
 20
-11.0179651588
 10
-11.5248827685
 20
-10.9715179602
 10
-11.5397719559
 20
-10.9212298796
 10
-11.5504886617
 20
-10.86748552
 10
-11.5569514075
 20
-10.810695168
 10
-11.5591110966
 20
-10.751292639
  0
LWPOLYLINE
  5
222
100
AcDbEntity
  8
RACCORDO
100
AcDbPolyline
 62
7
  6
CONTINUOUS
 90
19
 70
0
 10
-6.1002467458
 20
-13.2209171933
 10
-6.0480473045
 20
-13.2447290657
 10
-5.9928199122
 20
-13.2659179028
 10
-5.934564569
 20
-13.2844837047
 10
-5.8727955052
 20
-13.3005272229
 10
-5.8079984904
 20
-13.3139477058
 10
-5.7416308337
 20
-13.3244428985
 10
-5.6736547574
 20
-13.3319466996
 10
-5.6041080391
 20
-13.3365252105
 10
-5.5345613209
 20
-13.3380744808
 10
-5.4650146026
 20
-13.3365252105
 10
-5.3954678844
 20
-13.3319466996
 10
-5.3274918081
 20
-13.3244428985
 10
-5.2611241514
 20
-13.3139477058
 10
-5.1963271366
 20
-13.3005272229
 10
-5.1345580727
 20
-13.2844837047
 10
-5.0763027295
 20
-13.2659179028
 10
-5.0210753372
 20
-13.2447290657
 10
-4.9688758959
 20
-13.2209171933
  0
LWPOLYLINE
  5
223
100
AcDbEntity
  8
ASSI
100
AcDbPolyline
 62
7
  6
CONTINUOUS
 90
19
 70
0
 10
-6.1002467458
 20
-13.2209171933
 10
-6.0480473045
 20
-13.2447290657
 10
-5.9928199122
 20
-13.2659179028
 10
-5.934564569
 20
-13.2844837047
 10
-5.8727955052
 20
-13.3005272229
 10
-5.8079984904
 20
-13.3139477058
 10
-5.7416308337
 20
-13.3244428985
 10
-5.6736547574
 20
-13.3319466996
 10
-5.6041080391
 20
-13.3365252105
 10
-5.5345613209
 20
-13.3380744808
 10
-5.4650146026
 20
-13.3365252105
 10
-5.3954678844
 20
-13.3319466996
 10
-5.3274918081
 20
-13.3244428985
 10
-5.2611241514
 20
-13.3139477058
 10
-5.1963271366
 20
-13.3005272229
 10
-5.1345580727
 20
-13.2844837047
 10
-5.0763027295
 20
-13.2659179028
 10
-5.0210753372
 20
-13.2447290657
 10
-4.9688758959
 20
-13.2209171933
  0
LWPOLYLINE
  5
224
100
AcDbEntity
  8
RACCORDO
100
AcDbPolyline
 62
250
  6
CONTINUOUS
 90
19
 70
0
 10
-6.1002467458
 20
-13.4807248144
 10
-6.0487914086
 20
-13.5042998792
 10
-5.99342247
 20
-13.5255429197
 10
-5.9345613209
 20
-13.5442922635
 10
-5.8726559303
 20
-13.5604052168
 10
-5.8081774355
 20
-13.5737591503
 10
-5.741616557
 20
-13.5842524325
 10
-5.673479863
 20
-13.5918052032
 10
-5.6042859151
 20
-13.5963599812
 10
-5.5345613209
 20
-13.5978821019
 10
-5.4648367267
 20
-13.5963599812
 10
-5.3956427787
 20
-13.5918052032
 10
-5.3275060848
 20
-13.5842524325
 10
-5.2609452062
 20
-13.5737591503
 10
-5.1964667115
 20
-13.5604052168
 10
-5.1345613209
 20
-13.5442922635
 10
-5.0757001718
 20
-13.5255429197
 10
-5.0203312331
 20
-13.5042998792
 10
-4.9688758959
 20
-13.4807248144
  0
LWPOLYLINE
  5
225
100
AcDbEntity
  8
ASSI
100
AcDbPolyline
 62
250
  6
CONTINUOUS
 90
19
 70
0
 10
-6.1002467458
 20
-13.4807248144
 10
-6.0487914086
 20
-13.5042998792
 10
-5.99342247
 20
-13.5255429197
 10
-5.9345613209
 20
-13.5442922635
 10
-5.8726559303
 20
-13.5604052168
 10
-5.8081774355
 20
-13.5737591503
 10
-5.741616557
 20
-13.5842524325
 10
-5.673479863
 20
-13.5918052032
 10
-5.6042859151
 20
-13.5963599812
 10
-5.5345613209
 20
-13.5978821019
 10
-5.4648367267
 20
-13.5963599812
 10
-5.3956427787
 20
-13.5918052032
 10
-5.3275060848
 20
-13.5842524325
 10
-5.2609452062
 20
-13.5737591503
 10
-5.1964667115
 20
-13.5604052168
 10
-5.1345613209
 20
-13.5442922635
 10
-5.0757001718
 20
-13.5255429197
 10
-5.0203312331
 20
-13.5042998792
 10
-4.9688758959
 20
-13.4807248144
  0
LINE
  5
226
100
AcDbEntity
  8
RACCORDO
100
AcDbLine
 62
250
  6
CONTINUOUS
 10
-6.1002467458
 20
-13.4807248144
 11
-11.5591110966
 21
-10.751292639
  0
LINE
  5
227
100
AcDbEntity
  8
ASSI
100
AcDbLine
 62
250
  6
CONTINUOUS
 10
-6.1002467458
 20
-13.4807248144
 11
-11.5591110966
 21
-10.751292639
  0
LINE
  5
228
100
AcDbEntity
  8
RACCORDO
100
AcDbLine
 62
7
  6
CONTINUOUS
 10
-6.1002467458
 20
-13.2209171933
 11
-11.5591110966
 21
-10.4914850179
  0
LINE
  5
229
100
AcDbEntity
  8
ASSI
100
AcDbLine
 62
7
  6
CONTINUOUS
 10
-6.1002467458
 20
-13.2209171933
 11
-11.5591110966
 21
-10.4914850179
  0
LINE
  5
22A
100
AcDbEntity
  8
RACCORDO
100
AcDbLine
 62
7
  6
CONTINUOUS
 10
-5.7528587939
 20
-13.0473093739
 11
-11.2118954579
 21
-10.3177910419
  0
LINE
  5
22B
100
AcDbEntity
  8
ASSI
100
AcDbLine
 62
7
  6
CONTINUOUS
 10
-5.7528587939
 20
-13.0473093739
 11
-11.2118954579
 21
-10.3177910419
  0
LWPOLYLINE
  5
22C
100
AcDbEntity
  8
RACCORDO
100
AcDbPolyline
 62
7
  6
CONTINUOUS
 90
10
 70
0
 10
-11.7934256716
 20
-10.2086423054
 10
-11.7903271309
 20
-10.2434156645
 10
-11.7811701092
 20
-10.2781890237
 10
-11.7661625071
 20
-10.3121770618
 10
-11.7451721216
 20
-10.3453608902
 10
-11.7183311557
 20
-10.3777593976
 10
-11.6862441193
 20
-10.4086439295
 10
-11.6491125156
 20
-10.4377716011
 10
-11.6067348414
 20
-10.4653852972
 10
-11.5591110966
 20
-10.4914850179
  0
LWPOLYLINE
  5
22D
100
AcDbEntity
  8
ASSI
100
AcDbPolyline
 62
7
  6
CONTINUOUS
 90
10
 70
0
 10
-11.7934256716
 20
-10.2086423054
 10
-11.7903271309
 20
-10.2434156645
 10
-11.7811701092
 20
-10.2781890237
 10
-11.7661625071
 20
-10.3121770618
 10
-11.7451721216
 20
-10.3453608902
 10
-11.7183311557
 20
-10.3777593976
 10
-11.6862441193
 20
-10.4086439295
 10
-11.6491125156
 20
-10.4377716011
 10
-11.6067348414
 20
-10.4653852972
 10
-11.5591110966
 20
-10.4914850179
  0
LWPOLYLINE
  5
22E
100
AcDbEntity
  8
ASSI
100
AcDbPolyline
 62
250
  6
CONTINUOUS
 90
10
 70
0
 10
-11.7934256116
 20
-10.4686048432
 10
-11.7903814301
 20
-10.5033122237
 10
-11.781271874
 20
-10.5379091976
 10
-11.7661663327
 20
-10.5719775446
 10
-11.7451797683
 20
-10.6052579839
 10
-11.7184719013
 20
-10.6374972313
 10
-11.6862459947
 20
-10.6684499266
 10
-11.6487473071
 20
-10.6978805011
 10
-11.6062612261
 20
-10.7255649704
 10
-11.5591110966
 20
-10.751292639
  0
LWPOLYLINE
  5
22F
100
AcDbEntity
  8
RACCORDO
100
AcDbPolyline
 62
250
  6
CONTINUOUS
 90
10
 70
0
 10
-11.7934256714
 20
-10.4684601681
 10
-11.7903814301
 20
-10.5033122237
 10
-11.781271874
 20
-10.5379091976
 10
-11.7661663327
 20
-10.5719775446
 10
-11.7451797683
 20
-10.6052579839
 10
-11.7184719013
 20
-10.6374972313
 10
-11.6862459947
 20
-10.6684499266
 10
-11.6487473071
 20
-10.6978805011
 10
-11.6062612261
 20
-10.7255649704
 10
-11.5591110966
 20
-10.751292639
  0
LWPOLYLINE
  5
230
100
AcDbEntity
  8
RACCORDO
100
AcDbPolyline
 62
250
  6
CONTINUOUS
 90
12
 70
0
 10
-11.1809238212
 20
-0.7548408616
 10
-11.1804422865
 20
-0.7753273009
 10
-11.1759779195
 20
-0.8051865655
 10
-11.1670673537
 20
-0.8348580188
 10
-11.1537578259
 20
-0.8641675525
 10
-11.136127816
 20
-0.8929422167
 10
-11.1142820943
 20
-0.9210140775
 10
-11.0883411909
 20
-0.948231602
 10
-11.0584443604
 20
-0.9744518641
 10
-11.0247547538
 20
-0.9995295795
 10
-10.9874615559
 20
-1.0233186095
 10
-10.9467721308
 20
-1.0456832668
  0
LINE
  5
231
100
AcDbEntity
  8
ASSI
100
AcDbLine
 62
250
  6
CONTINUOUS
 10
-11.7934256716
 20
-10.4684499266
 11
-11.7934256116
 21
-10.4686048432
  0
LINE
  5
232
100
AcDbEntity
  8
RACCORDO
100
AcDbLine
 62
7
  6
CONTINUOUS
 10
-11.7934256716
 20
-10.4684499266
 11
-11.7934256716
 21
-10.2086423054
  0
LINE
  5
233
100
AcDbEntity
  8
ASSI
100
AcDbLine
 62
7
  6
CONTINUOUS
 10
-11.7934256716
 20
-10.4684499266
 11
-11.7934256716
 21
-10.2086423054
  0
LINE
  5
234
100
AcDbEntity
  8
RACCORDO
100
AcDbLine
 62
250
  6
CONTINUOUS
 10
-11.5591110966
 20
-10.751292639
 11
-11.5591110966
 21
-10.4914850179
  0
LINE
  5
235
100
AcDbEntity
  8
ASSI
100
AcDbLine
 62
250
  6
CONTINUOUS
 10
-11.5591110966
 20
-10.751292639
 11
-11.5591110966
 21
-10.4914850179
  0
LINE
  5
236
100
AcDbEntity
  8
RACCORDO
100
AcDbLine
 62
7
  6
CONTINUOUS
 10
-11.4461140324
 20
-10.0292929219
 11
-11.3652018619
 21
-7.1906679621
  0
LINE
  5
237
100
AcDbEntity
  8
ASSI
100
AcDbLine
 62
7
  6
CONTINUOUS
 10
-11.4461140324
 20
-10.0292929219
 11
-11.3652018619
 21
-7.1906679621
  0
LINE
  5
238
100
AcDbEntity
  8
RACCORDO
100
AcDbLine
 62
7
  6
CONTINUOUS
 10
-11.2877758539
 20
-4.4743473245
 11
-11.2214788075
 21
-2.1484617475
  0
LINE
  5
239
100
AcDbEntity
  8
ASSI
100
AcDbLine
 62
7
  6
CONTINUOUS
 10
-11.2877758539
 20
-4.4743473245
 11
-11.2214788075
 21
-2.1484617475
  0
LINE
  5
23A
100
AcDbEntity
  8
RACCORDO
100
AcDbLine
 62
7
  6
CONTINUOUS
 10
-11.1809193753
 20
-0.7546826901
 11
-11.220659335
 21
-2.1488714837
  0
LWPOLYLINE
  5
23B
100
AcDbEntity
  8
0
100
AcDbPolyline
 62
7
  6
CONTINUOUS
 90
3
 70
0
 10
-11.1933301781
 20
-7.2765839845
 10
-11.1863707741
 20
-7.2799343737
 10
-11.164194438
 20
-7.2890382693
  0
LINE
  5
23C
100
AcDbEntity
  8
RACCORDO
100
AcDbLine
 62
7
  6
CONTINUOUS
 10
-9.8632711615
 20
-8.7083463939
 11
-10.7849675378
 21
-8.2474982057
  0
LINE
  5
23D
100
AcDbEntity
  8
ASSI
100
AcDbLine
 62
7
  6
CONTINUOUS
 10
-9.8632711615
 20
-8.7083463939
 11
-10.7849675378
 21
-8.2474982057
  0
LINE
  5
23E
100
AcDbEntity
  8
RACCORDO
100
AcDbLine
 62
7
  6
CONTINUOUS
 10
-9.7075672512
 20
-8.0502641921
 11
-10.0490333808
 21
-7.8795311273
  0
LINE
  5
23F
100
AcDbEntity
  8
ASSI
100
AcDbLine
 62
7
  6
CONTINUOUS
 10
-9.7075672512
 20
-8.0502641921
 11
-10.0490333808
 21
-7.8795311273
  0
LINE
  5
240
100
AcDbEntity
  8
0
100
AcDbLine
 62
7
  6
CONTINUOUS
 10
-12.1832875972
 20
-6.7816250945
 11
-11.1933381035
 21
-7.2765998413
  0
LINE
  5
241
100
AcDbEntity
  8
0
100
AcDbLine
 62
250
  6
CONTINUOUS
 10
-11.198452221
 20
-6.3451928611
 11
-11.0620963777
 21
-6.4760391239
  0
LINE
  5
242
100
AcDbEntity
  8
RACCORDO
100
AcDbLine
 62
7
  6
CONTINUOUS
 10
-10.2264214456
 20
-5.1993927617
 11
-10.1985067884
 21
-7.1581902369
  0
LINE
  5
243
100
AcDbEntity
  8
ASSI
100
AcDbLine
 62
7
  6
CONTINUOUS
 10
-10.2264214456
 20
-5.1993927617
 11
-10.1985067884
 21
-7.1581902369
  0
LINE
  5
244
100
AcDbEntity
  8
DRAFT
100
AcDbLine
 62
7
  6
CONTINUOUS
 10
-10.8095779085
 20
-2.5258010297
 11
-10.8095779085
 21
-2.8722111912
  0
LINE
  5
245
100
AcDbEntity
  8
RACCORDO
100
AcDbLine
 62
7
  6
CONTINUOUS
 10
-10.8850436256
 20
-2.4880681712
 11
-10.8948162828
 21
-3.8740296799
  0
LINE
  5
246
100
AcDbEntity
  8
ASSI
100
AcDbLine
 62
7
  6
CONTINUOUS
 10
-10.8850436256
 20
-2.4880681712
 11
-10.8948162828
 21
-3.8740296799
  0
LINE
  5
247
100
AcDbEntity
  8
RACCORDO
100
AcDbLine
 62
7
  6
CONTINUOUS
 10
-10.9115417383
 20
-6.2460393651
 11
-10.9162905901
 21
-6.9195231212
  0
LINE
  5
248
100
AcDbEntity
  8
ASSI
100
AcDbLine
 62
7
  6
CONTINUOUS
 10
-10.9115417383
 20
-6.2460393651
 11
-10.9162905901
 21
-6.9195231212
  0
LINE
  5
249
100
AcDbEntity
  8
RACCORDO
100
AcDbLine
 62
7
  6
CONTINUOUS
 10
-10.9195130282
 20
-7.3765303691
 11
-10.9239365318
 21
-8.0038731309
  0
LINE
  5
24A
100
AcDbEntity
  8
ASSI
100
AcDbLine
 62
7
  6
CONTINUOUS
 10
-10.9195130282
 20
-7.3765303691
 11
-10.9239365318
 21
-8.0038731309
  0
LINE
  5
24B
100
AcDbEntity
  8
RACCORDO
100
AcDbLine
 62
250
  6
CONTINUOUS
 10
-11.2118954579
 20
-10.3177910419
 11
-11.1259536468
 21
-7.3027122428
  0
LINE
  5
24C
100
AcDbEntity
  8
ASSI
100
AcDbLine
 62
250
  6
CONTINUOUS
 10
-11.2118954579
 20
-10.3177910419
 11
-11.1259536468
 21
-7.3027122428
  0
LINE
  5
24D
100
AcDbEntity
  8
RACCORDO
100
AcDbLine
 62
250
  6
CONTINUOUS
 10
-11.1130260299
 20
-6.84917533
 11
-11.1045463588
 21
-6.5516847836
  0
LINE
  5
24E
100
AcDbEntity
  8
ASSI
100
AcDbLine
 62
250
  6
CONTINUOUS
 10
-11.1130260299
 20
-6.84917533
 11
-11.1045463588
 21
-6.5516847836
  0
LINE
  5
24F
100
AcDbEntity
  8
RACCORDO
100
AcDbLine
 62
250
  6
CONTINUOUS
 10
-11.0342961343
 20
-4.0871106737
 11
-10.987260233
 21
-2.4369598675
  0
LINE
  5
250
100
AcDbEntity
  8
ASSI
100
AcDbLine
 62
250
  6
CONTINUOUS
 10
-11.0342961343
 20
-4.0871106737
 11
-10.987260233
 21
-2.4369598675
  0
LINE
  5
251
100
AcDbEntity
  8
RACCORDO
100
AcDbLine
 62
250
  6
CONTINUOUS
 10
-10.9467721308
 20
-1.0456832668
 11
-10.9864407605
 21
-2.4373696038
  0
LWPOLYLINE
  5
252
100
AcDbEntity
  8
0
100
AcDbPolyline
 62
7
  6
CONTINUOUS
 90
8
 70
0
 10
4.4523247722
 20
12.8705950995
 10
4.2871518698
 20
12.7953628063
 10
4.080160128
 20
12.6773483836
 10
3.9057471756
 20
12.5468346688
 10
3.7668972666
 20
12.4060547877
 10
3.6659861616
 20
12.257417523
 10
3.6047404774
 20
12.1034660995
 10
3.5842081446
 20
11.9468346688
  0
LINE
  5
253
100
AcDbEntity
  8
0
100
AcDbLine
 62
7
  6
CONTINUOUS
 10
-11.164194438
 20
-7.2890382693
 11
-9.870213878
 21
-7.7517341332
  0
LINE
  5
254
100
AcDbEntity
  8
0
100
AcDbLine
 62
7
  6
CONTINUOUS
 10
-11.0425205017
 20
-7.0153793571
 11
-9.7485399417
 21
-7.478075221
  0
LINE
  5
255
100
AcDbEntity
  8
0
100
AcDbLine
 62
7
  6
CONTINUOUS
 10
-11.1610347066
 20
-6.832008599
 11
-10.7384894354
 21
-6.9831004742
  0
LINE
  5
256
100
AcDbEntity
  8
0
100
AcDbLine
 62
7
  6
CONTINUOUS
 10
-10.4044002256
 20
-7.122234443
 11
-10.7384894354
 21
-6.9831004742
  0
LWPOLYLINE
  5
257
100
AcDbEntity
  8
0
100
AcDbPolyline
 62
7
  6
CONTINUOUS
 90
3
 70
0
 10
-11.0591715946
 20
-7.008266822
 10
-11.0541445158
 20
-7.0106632704
 10
-11.0425205017
 20
-7.0153793571
  0
LINE
  5
258
100
AcDbEntity
  8
0
100
AcDbLine
 62
250
  6
CONTINUOUS
 10
-10.4044002256
 20
-7.122234443
 11
-9.695350703
 21
-7.4767592043
  0
LINE
  5
259
100
AcDbEntity
  8
0
100
AcDbLine
 62
250
  6
CONTINUOUS
 10
-9.9350206809
 20
-7.0850966762
 11
-9.6896213754
 21
-7.207796329
  0
LINE
  5
25A
100
AcDbEntity
  8
0
100
AcDbLine
 62
7
  6
CONTINUOUS
 10
-9.6893898764
 20
-7.1969286223
 11
-9.9255214458
 21
-7.0788628376
  0
LINE
  5
25B
100
AcDbEntity
  8
0
100
AcDbLine
 62
250
  6
CONTINUOUS
 10
-11.198452221
 20
-6.3451928611
 11
-12.1884017147
 21
-5.8502181143
  0
LINE
  5
25C
100
AcDbEntity
  8
DRAFT
100
AcDbLine
 62
7
  6
CONTINUOUS
 10
-9.6782070586
 20
-3.0914864547
 11
-9.6782070586
 21
-3.4378966162
  0
LINE
  5
25D
100
AcDbEntity
  8
RACCORDO
100
AcDbLine
 62
7
  6
CONTINUOUS
 10
-9.6064117143
 20
-3.3015247046
 11
-9.7194082128
 21
-8.6061372904
  0
LINE
  5
25E
100
AcDbEntity
  8
ASSI
100
AcDbLine
 62
7
  6
CONTINUOUS
 10
-9.6064117143
 20
-3.3015247046
 11
-9.7194082128
 21
-8.6061372904
  0
LWPOLYLINE
  5
25F
100
AcDbEntity
  8
0
100
AcDbPolyline
 62
7
  6
CONTINUOUS
 90
7
 70
0
 10
-9.8123669535
 20
-7.7527469594
 10
-9.7952172462
 20
-7.7544498165
 10
-9.7764637978
 20
-7.7519129533
 10
-9.7563602244
 20
-7.7451114596
 10
-9.7351841487
 20
-7.734061911
 10
-9.7131918339
 20
-7.7188010903
 10
-9.7002695405
 20
-7.7076736821
  0
LINE
  5
260
100
AcDbEntity
  8
RACCORDO
100
AcDbLine
 62
250
  6
CONTINUOUS
 10
7.9180839078
 20
10.3068112102
 11
8.082230126
 21
10.3643617379
  0
LINE
  5
261
100
AcDbEntity
  8
0
100
AcDbLine
 62
7
  6
CONTINUOUS
 10
-9.870213878
 20
-7.7517341332
 11
-9.8123669535
 21
-7.7527469594
  0
LINE
  5
262
100
AcDbEntity
  8
0
100
AcDbLine
 62
7
  6
CONTINUOUS
 10
-9.7485399417
 20
-7.478075221
 11
-9.695398556
 21
-7.4790056592
  0
LINE
  5
263
100
AcDbEntity
  8
0
100
AcDbLine
 62
250
  6
CONTINUOUS
 10
-11.164194438
 20
-7.2890382693
 11
-11.0425205017
 21
-7.0153793571
  0
LWPOLYLINE
  5
264
100
AcDbEntity
  8
0
100
AcDbPolyline
 62
7
  6
CONTINUOUS
 90
33
 70
0
 10
-12.1884017147
 20
-5.8502181143
 10
-12.2090604389
 20
-5.8830337222
 10
-12.2285559331
 20
-5.9164707923
 10
-12.2468881972
 20
-5.9505293245
 10
-12.264102792
 20
-5.9853085662
 10
-12.2801541566
 20
-6.0207092699
 10
-12.294905609
 20
-6.0564336941
 10
-12.3083533474
 20
-6.092508757
 10
-12.3205011734
 20
-6.1289075404
 10
-12.3312238103
 20
-6.1652515479
 10
-12.3404999819
 20
-6.2015078363
 10
-12.3483509644
 20
-6.2377093488
 10
-12.3547153085
 20
-6.2735764185
 10
-12.3595846679
 20
-6.3091431489
 10
-12.3629673889
 20
-6.3443754364
 10
-12.3648270619
 20
-6.378891303
 10
-12.3651485507
 20
-6.412646184
 10
-12.3639469914
 20
-6.4456846441
 10
-12.3612313826
 20
-6.4777583988
 10
-12.3569837476
 20
-6.5088943449
 10
-12.3512220632
 20
-6.5390655858
 10
-12.3440092583
 20
-6.5679431464
 10
-12.3353397039
 20
-6.5954844564
 10
-12.3252190291
 20
-6.6217320862
 10
-12.3137270505
 20
-6.6464847727
 10
-12.3008416427
 20
-6.6697504788
 10
-12.2865849312
 20
-6.6915212415
 10
-12.271103109
 20
-6.7115719089
 10
-12.2543942891
 20
-6.7298733596
 10
-12.2364603585
 20
-6.746454715
 10
-12.2174531721
 20
-6.7611781878
 10
-12.1974233479
 20
-6.7739978487
 10
-12.1832796718
 20
-6.7816092377
  0
LWPOLYLINE
  5
265
100
AcDbEntity
  8
0
100
AcDbPolyline
 62
7
  6
CONTINUOUS
 90
33
 70
0
 10
-11.198452221
 20
-6.3451928611
 10
-11.2191109453
 20
-6.378008469
 10
-11.2386064394
 20
-6.4114455391
 10
-11.2569387035
 20
-6.4455040714
 10
-11.2741532983
 20
-6.480283313
 10
-11.290204663
 20
-6.5156840167
 10
-11.3049561154
 20
-6.551408441
 10
-11.3184038537
 20
-6.5874835039
 10
-11.3305516798
 20
-6.6238822872
 10
-11.3412743166
 20
-6.6602262947
 10
-11.3505504883
 20
-6.6964825831
 10
-11.3584014707
 20
-6.7326840957
 10
-11.3647658149
 20
-6.7685511653
 10
-11.3696351742
 20
-6.8041178957
 10
-11.3730178953
 20
-6.8393501832
 10
-11.3748775682
 20
-6.8738660498
 10
-11.375199057
 20
-6.9076209308
 10
-11.3739974977
 20
-6.9406593909
 10
-11.371281889
 20
-6.9727331456
 10
-11.367034254
 20
-7.0038690918
 10
-11.3612725695
 20
-7.0340403326
 10
-11.3540597647
 20
-7.0629178933
 10
-11.3453902103
 20
-7.0904592032
 10
-11.3352695354
 20
-7.1167068331
 10
-11.3237775569
 20
-7.1414595196
 10
-11.3108921491
 20
-7.1647252256
 10
-11.2966354375
 20
-7.1864959883
 10
-11.2811536154
 20
-7.2065466557
 10
-11.2644447954
 20
-7.2248481064
 10
-11.2465108649
 20
-7.2414294619
 10
-11.2275036784
 20
-7.2561529346
 10
-11.2074738542
 20
-7.2689725955
 10
-11.1933301781
 20
-7.2765839845
  0
LINE
  5
266
100
AcDbEntity
  8
0
100
AcDbLine
 62
7
  6
CONTINUOUS
 10
-10.3797270448
 20
-3.0871366231
 11
-12.1884017147
 21
-5.8502181143
  0
LWPOLYLINE
  5
267
100
AcDbEntity
  8
RACCORDO
100
AcDbPolyline
 62
250
  6
CONTINUOUS
 90
42
 70
0
 10
8.082230126
 20
10.3643617379
 10
8.2386706063
 20
10.4260086192
 10
8.3868768233
 20
10.4915558336
 10
8.5273773025
 20
10.5611994016
 10
8.6597371156
 20
10.6347184371
 10
8.7843336331
 20
10.7123509488
 10
8.9007894846
 20
10.7938589281
 10
9.0075376296
 20
10.8783074628
 10
9.1045294576
 20
10.9661132605
 10
9.1918135793
 20
11.0568596137
 10
9.2679687857
 20
11.1483614868
 10
9.3323071998
 20
11.2405549597
 10
9.3855166986
 20
11.3335039526
 10
9.4282397049
 20
11.4252151904
 10
9.4600357834
 20
11.5154425565
 10
9.4813453695
 20
11.6044321674
 10
9.4941321917
 20
11.6909290973
 10
9.498260513
 20
11.7747604201
 10
9.4938660705
 20
11.8560990619
 10
9.4833198047
 20
11.9342088755
 10
9.4667025547
 20
12.008842946
 10
9.4439334815
 20
12.0802481884
 10
9.4171410084
 20
12.1484292009
 10
9.3865052192
 20
12.213288903
 10
9.35184603
 20
12.2749243752
 10
9.3147516125
 20
12.3336314568
 10
9.275386282
 20
12.3893801065
 10
9.2335857232
 20
12.4422003655
 10
9.1904451616
 20
12.4924781971
 10
9.1461023846
 20
12.5402042584
 10
9.1004196049
 20
12.5853878921
 10
9.0540786856
 20
12.6284430893
 10
9.0071913959
 20
12.669372573
 10
8.9596459665
 20
12.7081736201
 10
8.9117889531
 20
12.7452520529
 10
8.8637087014
 20
12.7806179155
 10
8.8153168656
 20
12.8142611637
 10
8.766694963
 20
12.846557487
 10
8.7179235389
 20
12.8775154046
 10
8.668922048
 20
12.9071263973
 10
8.619530372
 20
12.9357405973
 10
8.5696951379
 20
12.9634747152
  0
LINE
  5
268
100
AcDbEntity
  8
0
100
AcDbLine
 62
7
  6
CONTINUOUS
 10
1.2746865884
 20
-7.2224168735
 11
1.3325335129
 21
-7.2214040473
  0
LINE
  5
269
100
AcDbEntity
  8
0
100
AcDbLine
 62
7
  6
CONTINUOUS
 10
1.1530126521
 20
-6.9487579613
 11
1.2108595766
 21
-6.9477451351
  0
LINE
  5
26A
100
AcDbEntity
  8
DRAFT
100
AcDbLine
 62
7
  6
CONTINUOUS
 10
-9.6782070586
 20
-3.4378966162
 11
-10.8095779085
 21
-2.8722111912
  0
LINE
  5
26B
100
AcDbEntity
  8
DRAFT
100
AcDbLine
 62
7
  6
CONTINUOUS
 10
-10.8095779085
 20
-2.5258010297
 11
-9.6782070586
 21
-3.0914864547
  0
LINE
  5
26C
100
AcDbEntity
  8
RACCORDO
100
AcDbLine
 62
7
  6
CONTINUOUS
 10
-10.987260233
 20
-2.4369598675
 11
-10.8095779085
 21
-2.5258010297
  0
LINE
  5
26D
100
AcDbEntity
  8
ASSI
100
AcDbLine
 62
7
  6
CONTINUOUS
 10
-10.987260233
 20
-2.4369598675
 11
-10.8850436256
 21
-2.4880681712
  0
LINE
  5
26E
100
AcDbEntity
  8
RACCORDO
100
AcDbLine
 62
7
  6
CONTINUOUS
 10
-9.6782070586
 20
-3.0914864547
 11
-5.7528587939
 21
-5.054160587
  0
LINE
  5
26F
100
AcDbEntity
  8
ASSI
100
AcDbLine
 62
7
  6
CONTINUOUS
 10
-9.4625487657
 20
-3.1993156012
 11
-5.7528587939
 21
-5.054160587
  0
LINE
  5
270
100
AcDbEntity
  8
RACCORDO
100
AcDbLine
 62
250
  6
CONTINUOUS
 10
0.9021462002
 20
-8.001649349
 11
0.7616211954
 21
-7.9313868466
  0
LINE
  5
271
100
AcDbEntity
  8
ASSI
100
AcDbLine
 62
250
  6
CONTINUOUS
 10
0.9021462002
 20
-8.001649349
 11
0.7616211954
 21
-7.9313868466
  0
LINE
  5
272
100
AcDbEntity
  8
RACCORDO
100
AcDbLine
 62
250
  6
CONTINUOUS
 10
-6.1002467458
 20
-13.4807248144
 11
-6.1002467458
 21
-13.2209171933
  0
LINE
  5
273
100
AcDbEntity
  8
ASSI
100
AcDbLine
 62
250
  6
CONTINUOUS
 10
-6.1002467458
 20
-13.4807248144
 11
-6.1002467458
 21
-13.2209171933
  0
LINE
  5
274
100
AcDbEntity
  8
RACCORDO
100
AcDbLine
 62
250
  6
CONTINUOUS
 10
-5.7536782664
 20
-3.642230199
 11
-5.7536782664
 21
-5.0537508508
  0
LINE
  5
275
100
AcDbEntity
  8
RACCORDO
100
AcDbLine
 62
250
  6
CONTINUOUS
 10
-5.7528587939
 20
-13.0473093739
 11
-5.7528587939
 21
-5.054160587
  0
LINE
  5
276
100
AcDbEntity
  8
ASSI
100
AcDbLine
 62
250
  6
CONTINUOUS
 10
-5.7528587939
 20
-13.0473093739
 11
-5.7528587939
 21
-5.054160587
  0
LINE
  5
277
100
AcDbEntity
  8
RACCORDO
100
AcDbLine
 62
250
  6
CONTINUOUS
 10
-4.9688758959
 20
-13.4807248144
 11
-4.9688758959
 21
-13.2209171933
  0
LINE
  5
278
100
AcDbEntity
  8
ASSI
100
AcDbLine
 62
250
  6
CONTINUOUS
 10
-4.9688758959
 20
-13.4807248144
 11
-4.9688758959
 21
-13.2209171933
  0
LINE
  5
279
100
AcDbEntity
  8
0
100
AcDbLine
 62
7
  6
CONTINUOUS
 10
-9.7485399417
 20
-7.478075221
 11
-9.870213878
 21
-7.7517341332
  0
LINE
  5
27A
100
AcDbEntity
  8
0
100
AcDbLine
 62
7
  6
CONTINUOUS
 10
-9.6956371845
 20
-7.4902080578
 11
-9.8123669535
 21
-7.7527469594
  0
LWPOLYLINE
  5
27B
100
AcDbEntity
  8
0
100
AcDbPolyline
 62
7
  6
CONTINUOUS
 90
36
 70
0
 10
-11.0620963777
 20
-6.4760391239
 10
-11.0729288076
 20
-6.4931861227
 10
-11.0832111631
 20
-6.510648936
 10
-11.0929434443
 20
-6.5284275638
 10
-11.1021479871
 20
-6.5465696368
 10
-11.1108024555
 20
-6.5650275244
 10
-11.1188398421
 20
-6.5836583337
 10
-11.1262553583
 20
-6.6024634257
 10
-11.1330537927
 20
-6.6214414395
 10
-11.1391825029
 20
-6.6404453996
 10
-11.1446362767
 20
-6.6594754653
 10
-11.1494203263
 20
-6.6785314773
 10
-11.1534976471
 20
-6.6974659831
 10
-11.1568627621
 20
-6.7162780168
 10
-11.1595211482
 20
-6.7349685443
 10
-11.1614522312
 20
-6.7533930101
 10
-11.1626503859
 20
-6.7715493617
 10
-11.1631212375
 20
-6.7894396518
 10
-11.1628610884
 20
-6.8069254829
 10
-11.1618642063
 20
-6.8240039539
 10
-11.1601363236
 20
-6.8406779661
 10
-11.1576909393
 20
-6.8568178259
 10
-11.1545223913
 20
-6.8724192547
 10
-11.1506363418
 20
-6.8874865312
 10
-11.1460632769
 20
-6.9019027976
 10
-11.1407979192
 20
-6.915662742
 10
-11.134845546
 20
-6.9287716764
 10
-11.1282524753
 20
-6.9411286787
 10
-11.1210140473
 20
-6.9527277494
 10
-11.1131349219
 20
-6.9635748879
 10
-11.1046753953
 20
-6.973587171
 10
-11.0956307482
 20
-6.9827585759
 10
-11.0860057
 20
-6.9910951254
 10
-11.0758747057
 20
-6.9985319639
 10
-11.0652625838
 20
-7.0050474727
 10
-11.0591715946
 20
-7.008266822
  0
LINE
  5
27C
100
AcDbEntity
  8
0
100
AcDbLine
 62
7
  6
CONTINUOUS
 10
-9.6198765331
 20
-3.9336296661
 11
-11.198452221
 21
-6.3451928611
  0
LINE
  5
27D
100
AcDbEntity
  8
0
100
AcDbLine
 62
7
  6
CONTINUOUS
 10
-9.6273440657
 20
-4.2841924508
 11
-11.0620963777
 21
-6.4760391239
  0
LWPOLYLINE
  5
27E
100
AcDbEntity
  8
RACCORDO
100
AcDbPolyline
 62
250
  6
CONTINUOUS
 90
16
 70
0
 10
-10.6639724966
 20
-0.5639189791
 10
-10.6932102912
 20
-0.5803936488
 10
-10.722134823
 20
-0.6004033486
 10
-10.7504361858
 20
-0.6237336885
 10
-10.7778111501
 20
-0.6501347001
 10
-10.8039664121
 20
-0.6793235148
 10
-10.8286217363
 20
-0.7109873947
 10
-10.851512958
 20
-0.7447870832
 10
-10.8723948136
 20
-0.7803604402
 10
-10.8910435686
 20
-0.8173263217
 10
-10.9072594143
 20
-0.855288664
 10
-10.9208686093
 20
-0.8938407268
 10
-10.9317253406
 20
-0.9325694516
 10
-10.9397132858
 20
-0.9710598868
 10
-10.9447468596
 20
-1.008899634
 10
-10.9467721308
 20
-1.0456832668
  0
LWPOLYLINE
  5
27F
100
AcDbEntity
  8
RACCORDO
100
AcDbPolyline
 62
250
  6
CONTINUOUS
 90
22
 70
0
 10
-10.6639724966
 20
-0.281119345
 10
-10.6843847265
 20
-0.2921316649
 10
-10.7029400943
 20
-0.3037549669
 10
-10.7196386
 20
-0.3159892508
 10
-10.7345632486
 20
-0.3289142385
 10
-10.7476310351
 20
-0.3424502082
 10
-10.7585929448
 20
-0.3563579942
 10
-10.7674042645
 20
-0.3706406165
 10
-10.7741097074
 20
-0.3852950552
 10
-10.7785943981
 20
-0.4000730842
 10
-10.780820511
 20
-0.4149735447
 10
-10.7808258717
 20
-0.4299975956
 10
-10.7786090815
 20
-0.4449004879
 10
-10.7741314198
 20
-0.4596844227
 10
-10.7674316071
 20
-0.474347199
 10
-10.7586244067
 20
-0.4886374639
 10
-10.7476659653
 20
-0.5025504938
 10
-10.7346001362
 20
-0.5160910124
 10
-10.7196732425
 20
-0.5290218384
 10
-10.7029673918
 20
-0.5412639113
 10
-10.6844004765
 20
-0.5528962915
 10
-10.6639724966
 20
-0.5639189791
  0
LWPOLYLINE
  5
280
100
AcDbEntity
  8
RACCORDO
100
AcDbPolyline
 62
7
  6
CONTINUOUS
 90
16
 70
0
 10
-10.8430396974
 20
-0.269856462
 10
-10.8529004928
 20
-0.2748780328
 10
-10.8984029579
 20
-0.3004550559
 10
-10.9403483011
 20
-0.3280727386
 10
-10.9787169131
 20
-0.3575298482
 10
-11.0136514291
 20
-0.3887243197
 10
-11.0452918167
 20
-0.4216094008
 10
-11.0735745102
 20
-0.4559614694
 10
-11.0985165899
 20
-0.4916177136
 10
-11.1202213031
 20
-0.5285585172
 10
-11.138614728
 20
-0.5665038311
 10
-11.1536900139
 20
-0.6052465606
 10
-11.1655202747
 20
-0.6448526419
 10
-11.1740621987
 20
-0.6851718138
 10
-11.1792569425
 20
-0.7258334305
 10
-11.1809180043
 20
-0.7548393816
  0
LINE
  5
281
100
AcDbEntity
  8
0
100
AcDbLine
 62
7
  6
CONTINUOUS
 10
4.7395098162
 20
-5.4900052596
 11
4.7973567407
 21
-5.4889924334
  0
LINE
  5
282
100
AcDbEntity
  8
0
100
AcDbLine
 62
7
  6
CONTINUOUS
 10
4.6178358799
 20
-5.2163463474
 11
4.6756828044
 21
-5.2153335212
  0
LWPOLYLINE
  5
283
100
AcDbEntity
  8
RACCORDO
100
AcDbPolyline
 62
250
  6
CONTINUOUS
 90
22
 70
0
 10
-5.7536782664
 20
-3.642230199
 10
-5.7098152111
 20
-3.6621420092
 10
-5.6630381425
 20
-3.6803886247
 10
-5.6136093103
 20
-3.6968706777
 10
-5.5618087964
 20
-3.7114992133
 10
-5.5079238431
 20
-3.7241942015
 10
-5.452246082
 20
-3.7348838398
 10
-5.3950766055
 20
-3.7435096824
 10
-5.3367439146
 20
-3.7500227483
 10
-5.277593301
 20
-3.7543832735
 10
-5.2179718047
 20
-3.7565677558
 10
-5.1581970557
 20
-3.7565679739
 10
-5.0985747
 20
-3.7543838771
 10
-5.0394216613
 20
-3.7500235281
 10
-4.9810857919
 20
-3.7435103632
 10
-4.9239145893
 20
-3.7348844212
 10
-4.868238093
 20
-3.724195173
 10
-4.8143555642
 20
-3.7115009814
 10
-4.7625559002
 20
-3.6968729964
 10
-4.7131256942
 20
-3.6803908053
 10
-4.6663461344
 20
-3.6621434565
 10
-4.6224797298
 20
-3.642230199
  0
LWPOLYLINE
  5
284
100
AcDbEntity
  8
RACCORDO
100
AcDbPolyline
 62
250
  6
CONTINUOUS
 90
22
 70
0
 10
-5.4708786323
 20
-3.1604659113
 10
-5.4488539923
 20
-3.1706720262
 10
-5.4256073884
 20
-3.1799497101
 10
-5.4011388206
 20
-3.188298963
 10
-5.3752888452
 20
-3.1957612873
 10
-5.3482169058
 20
-3.2022951805
 10
-5.3204013338
 20
-3.2077761354
 10
-5.2918360891
 20
-3.2121817952
 10
-5.2625272118
 20
-3.2155345167
 10
-5.2329711537
 20
-3.217776862
 10
-5.2031702327
 20
-3.2188899185
 10
-5.173122131
 20
-3.2188925989
 10
-5.1433163464
 20
-3.2177842038
 10
-5.1137484767
 20
-3.2155453729
 10
-5.0844229243
 20
-3.2121954665
 10
-5.0558423944
 20
-3.2077918663
 10
-5.0280163345
 20
-3.2023126457
 10
-5.0009352973
 20
-3.1957797311
 10
-4.9750736453
 20
-3.1883162842
 10
-4.9505894996
 20
-3.1799633589
 10
-4.9273247391
 20
-3.1706799013
 10
-4.9052793639
 20
-3.1604659113
  0
LINE
  5
285
100
AcDbEntity
  8
RACCORDO
100
AcDbLine
 62
250
  6
CONTINUOUS
 10
1.1224442861
 20
-7.1901020156
 11
1.8238425765
 21
-7.5408011608
  0
LINE
  5
286
100
AcDbEntity
  8
ASSI
100
AcDbLine
 62
250
  6
CONTINUOUS
 10
1.1224442861
 20
-7.1901020156
 11
1.8238425765
 21
-7.5408011608
  0
LINE
  5
287
100
AcDbEntity
  8
RACCORDO
100
AcDbLine
 62
250
  6
CONTINUOUS
 10
-10.9467721308
 20
-1.0456832668
 11
-5.7536782664
 21
-3.642230199
  0
LINE
  5
288
100
AcDbEntity
  8
RACCORDO
100
AcDbLine
 62
250
  6
CONTINUOUS
 10
1.6116540855
 20
-7.1215973435
 11
1.9628115705
 21
-7.297176086
  0
LINE
  5
289
100
AcDbEntity
  8
ASSI
100
AcDbLine
 62
250
  6
CONTINUOUS
 10
1.6116540855
 20
-7.1215973435
 11
1.9628115705
 21
-7.297176086
  0
LINE
  5
28A
100
AcDbEntity
  8
RACCORDO
100
AcDbLine
 62
250
  6
CONTINUOUS
 10
-10.6639724966
 20
-0.5639189791
 11
-5.4708786323
 21
-3.1604659113
  0
LWPOLYLINE
  5
28B
100
AcDbEntity
  8
RACCORDO
100
AcDbPolyline
 62
250
  6
CONTINUOUS
 90
16
 70
0
 10
-4.9052793639
 20
-3.1604659113
 10
-4.8760415694
 20
-3.176940581
 10
-4.8471170375
 20
-3.1969502808
 10
-4.8188156747
 20
-3.2202806207
 10
-4.7914407103
 20
-3.2466816322
 10
-4.7652854482
 20
-3.2758704469
 10
-4.7406301239
 20
-3.3075343267
 10
-4.7177389021
 20
-3.3413340152
 10
-4.6968570464
 20
-3.3769073721
 10
-4.6782082913
 20
-3.4138732535
 10
-4.6619924454
 20
-3.4518355957
 10
-4.6483832502
 20
-3.4903876585
 10
-4.6375265189
 20
-3.5291163832
 10
-4.6295385739
 20
-3.5676068185
 10
-4.6245050005
 20
-3.605446566
 10
-4.6224797298
 20
-3.642230199
  0
LINE
  5
28C
100
AcDbEntity
  8
RACCORDO
100
AcDbLine
 62
250
  6
CONTINUOUS
 10
-4.6224797298
 20
-3.642230199
 11
-4.6224797298
 21
-5.0537508508
  0
LINE
  5
28D
100
AcDbEntity
  8
RACCORDO
100
AcDbLine
 62
250
  6
CONTINUOUS
 10
-4.6216602573
 20
-13.0473093739
 11
-4.6216602573
 21
-5.054160587
  0
LINE
  5
28E
100
AcDbEntity
  8
ASSI
100
AcDbLine
 62
250
  6
CONTINUOUS
 10
-4.6216602573
 20
-13.0473093739
 11
-4.6216602573
 21
-5.054160587
  0
LINE
  5
28F
100
AcDbEntity
  8
RACCORDO
100
AcDbLine
 62
7
  6
CONTINUOUS
 10
2.1619742069
 20
6.2326574408
 11
-10.8428579427
 21
-0.269758634
  0
LINE
  5
290
100
AcDbEntity
  8
RACCORDO
100
AcDbLine
 62
250
  6
CONTINUOUS
 10
2.1599216872
 20
6.130827747
 11
-10.6639724966
 21
-0.281119345
  0
LWPOLYLINE
  5
291
100
AcDbEntity
  8
RACCORDO
100
AcDbPolyline
 62
250
  6
CONTINUOUS
 90
8
 70
0
 10
-10.6639724966
 20
-0.281119345
 10
-10.6932098534
 20
-0.2683563851
 10
-10.7221340292
 20
-0.2594415835
 10
-10.7504351262
 20
-0.2544704815
 10
-10.7778099199
 20
-0.253496368
 10
-10.803965104
 20
-0.2565297086
 10
-10.8286204337
 20
-0.2635380306
 10
-10.8428579427
 20
-0.269758634
  0
LINE
  5
292
100
AcDbEntity
  8
0
100
AcDbLine
 62
7
  6
CONTINUOUS
 10
1.3973403158
 20
-6.5547665903
 11
1.3878410807
 21
-6.5485327517
  0
LINE
  5
293
100
AcDbEntity
  8
RACCORDO
100
AcDbLine
 62
250
  6
CONTINUOUS
 10
4.366969428
 20
-6.2692377351
 11
4.2264444232
 21
-6.1989752327
  0
LINE
  5
294
100
AcDbEntity
  8
ASSI
100
AcDbLine
 62
250
  6
CONTINUOUS
 10
4.366969428
 20
-6.2692377351
 11
4.2264444232
 21
-6.1989752327
  0
LINE
  5
295
100
AcDbEntity
  8
RACCORDO
100
AcDbLine
 62
250
  6
CONTINUOUS
 10
4.5872675139
 20
-5.4576904017
 11
5.2886658043
 21
-5.8083895469
  0
LINE
  5
296
100
AcDbEntity
  8
ASSI
100
AcDbLine
 62
250
  6
CONTINUOUS
 10
4.5872675139
 20
-5.4576904017
 11
5.2886658043
 21
-5.8083895469
  0
LINE
  5
297
100
AcDbEntity
  8
RACCORDO
100
AcDbLine
 62
7
  6
CONTINUOUS
 10
0.946650052
 20
-3.5353828496
 11
0.6622934222
 21
-3.3932045347
  0
LINE
  5
298
100
AcDbEntity
  8
RACCORDO
100
AcDbLine
 62
7
  6
CONTINUOUS
 10
-9.5129504827
 20
-3.1741147427
 11
-9.5525478972
 21
-3.1939134499
  0
LINE
  5
299
100
AcDbEntity
  8
ASSI
100
AcDbLine
 62
7
  6
CONTINUOUS
 10
-9.5129504827
 20
-3.1741147427
 11
-9.5525478972
 21
-3.1939134499
  0
LINE
  5
29A
100
AcDbEntity
  8
SMUSSO
100
AcDbLine
 62
7
  6
CONTINUOUS
 10
-9.6085750127
 20
-3.4030805932
 11
-9.6782070586
 21
-3.4378966162
  0
LINE
  5
29B
100
AcDbEntity
  8
RACCORDO
100
AcDbLine
 62
250
  6
CONTINUOUS
 10
5.0764773133
 20
-5.3891857296
 11
5.4276347983
 21
-5.5647644721
  0
LINE
  5
29C
100
AcDbEntity
  8
ASSI
100
AcDbLine
 62
250
  6
CONTINUOUS
 10
5.0764773133
 20
-5.3891857296
 11
5.4276347983
 21
-5.5647644721
  0
LINE
  5
29D
100
AcDbEntity
  8
SMUSSO
100
AcDbLine
 62
7
  6
CONTINUOUS
 10
0.7211996627
 20
-2.733258354
 11
0.6474500514
 21
-2.6963835483
  0
LINE
  5
29E
100
AcDbEntity
  8
RACCORDO
100
AcDbLine
 62
7
  6
CONTINUOUS
 10
0.5914229359
 20
-2.487216405
 11
0.5510060488
 21
-2.4670079615
  0
LINE
  5
29F
100
AcDbEntity
  8
ASSI
100
AcDbLine
 62
7
  6
CONTINUOUS
 10
0.5914229359
 20
-2.487216405
 11
0.5510060488
 21
-2.4670079615
  0
LINE
  5
2A0
100
AcDbEntity
  8
0
100
AcDbLine
 62
7
  6
CONTINUOUS
 10
4.8621635436
 20
-4.8223549764
 11
4.8526643085
 21
-4.8161211378
  0
LINE
  5
2A1
100
AcDbEntity
  8
0
100
AcDbLine
 62
7
  6
CONTINUOUS
 10
1.1530126521
 20
-6.9487579613
 11
1.2746865884
 21
-7.2224168735
  0
LINE
  5
2A2
100
AcDbEntity
  8
0
100
AcDbLine
 62
7
  6
CONTINUOUS
 10
1.2108595766
 20
-6.9477451351
 11
1.3325335129
 21
-7.2214040473
  0
LWPOLYLINE
  5
2A3
100
AcDbEntity
  8
RACCORDO
100
AcDbPolyline
 62
250
  6
CONTINUOUS
 90
16
 70
0
 10
-5.4708786323
 20
-3.1604659113
 10
-5.5001159849
 20
-3.1769403061
 10
-5.5290401572
 20
-3.1969496786
 10
-5.5573412514
 20
-3.2202796722
 10
-5.5847160428
 20
-3.2466803512
 10
-5.6108712252
 20
-3.2758688751
 10
-5.6355265538
 20
-3.3075325262
 10
-5.6584178565
 20
-3.3413320707
 10
-5.6792998549
 20
-3.3769053814
 10
-5.6979487918
 20
-3.4138713112
 10
-5.7141648436
 20
-3.4518338021
 10
-5.7277742495
 20
-3.4903861108
 10
-5.738631172
 20
-3.5291151517
 10
-5.7466192723
 20
-3.5676059561
 10
-5.7516529528
 20
-3.6054461193
 10
-5.7536782679
 20
-3.6422301982
  0
LWPOLYLINE
  5
2A4
100
AcDbEntity
  8
RACCORDO
100
AcDbPolyline
 62
250
  6
CONTINUOUS
 90
8
 70
0
 10
10.8237055401
 20
4.9868261749
 10
10.8529433347
 20
4.9995892998
 10
10.8818678665
 20
5.0085041318
 10
10.9101692293
 20
5.0134751547
 10
10.9375441936
 20
5.0144491075
 10
10.9636994556
 20
5.0114155549
 10
10.9883547798
 20
5.0044069994
 10
11.0025909781
 20
4.9981868899
  0
LWPOLYLINE
  5
2A5
100
AcDbEntity
  8
RACCORDO
100
AcDbPolyline
 62
250
  6
CONTINUOUS
 90
35
 70
0
 10
4.7579284361
 20
-3.2496018934
 10
4.7550142818
 20
-3.2484654409
 10
4.696187618
 20
-3.2221725456
 10
4.6407120223
 20
-3.1938967575
 10
4.5892747383
 20
-3.1639924478
 10
4.5418818364
 20
-3.1323751189
 10
4.4985272463
 20
-3.0991292685
 10
4.4598800008
 20
-3.0648627611
 10
4.4260754761
 20
-3.029452061
 10
4.396978296
 20
-2.9930207038
 10
4.3728513652
 20
-2.9565471621
 10
4.3539864572
 20
-2.9200721629
 10
4.3400917985
 20
-2.8835549791
 10
4.3305549727
 20
-2.8478519013
 10
4.3255189435
 20
-2.8131344594
 10
4.3248407474
 20
-2.7792311235
 10
4.3274790771
 20
-2.7464835946
 10
4.3334138455
 20
-2.7149659326
 10
4.3426651398
 20
-2.6846040775
 10
4.3542519144
 20
-2.65551755
 10
4.3681245949
 20
-2.6277466274
 10
4.3843327558
 20
-2.6012510323
 10
4.4020440744
 20
-2.5760294538
 10
4.4211999256
 20
-2.5521096235
 10
4.4418589346
 20
-2.5294638096
 10
4.4633646549
 20
-2.5080075055
 10
4.4856822164
 20
-2.4877421122
 10
4.5088464893
 20
-2.4686662286
 10
4.5323056372
 20
-2.4506911448
 10
4.5559530716
 20
-2.4338593738
 10
4.579895381
 20
-2.4181284026
 10
4.6039004955
 20
-2.4032819823
 10
4.6278910584
 20
-2.3892480299
 10
4.6519444264
 20
-2.3760986283
 10
4.6760605995
 20
-2.3638337777
  0
LINE
  5
2A6
100
AcDbEntity
  8
RACCORDO
100
AcDbLine
 62
250
  6
CONTINUOUS
 10
1.8490223504
 20
-1.9168399652
 11
1.9251422462
 21
-1.9548999131
  0
LINE
  5
2A7
100
AcDbEntity
  8
ASSI
100
AcDbLine
 62
250
  6
CONTINUOUS
 10
1.8490223504
 20
-1.9168399652
 11
1.9251422462
 21
-1.9548999131
  0
LINE
  5
2A8
100
AcDbEntity
  8
0
100
AcDbLine
 62
7
  6
CONTINUOUS
 10
0.655859116
 20
-3.0911464889
 11
2.5244160126
 21
-5.945709038
  0
LINE
  5
2A9
100
AcDbEntity
  8
0
100
AcDbLine
 62
7
  6
CONTINUOUS
 10
0.6483915835
 20
-2.7405837041
 11
2.6607718559
 21
-5.8148627752
  0
LWPOLYLINE
  5
2AA
100
AcDbEntity
  8
0
100
AcDbPolyline
 62
7
  6
CONTINUOUS
 90
36
 70
0
 10
2.5244160126
 20
-5.945709038
 10
2.5352484424
 20
-5.9628560369
 10
2.545530798
 20
-5.9803188501
 10
2.5552630792
 20
-5.9980974779
 10
2.564467622
 20
-6.016239551
 10
2.5731220904
 20
-6.0346974385
 10
2.581159477
 20
-6.0533282478
 10
2.5885749932
 20
-6.0721333398
 10
2.5953734276
 20
-6.0911113536
 10
2.6015021378
 20
-6.1101153137
 10
2.6069559116
 20
-6.1291453794
 10
2.6117399612
 20
-6.1482013914
 10
2.615817282
 20
-6.1671358972
 10
2.619182397
 20
-6.1859479309
 10
2.621840783
 20
-6.2046384584
 10
2.6237718661
 20
-6.2230629242
 10
2.6249700207
 20
-6.2412192758
 10
2.6254408724
 20
-6.2591095659
 10
2.6251807233
 20
-6.276595397
 10
2.6241838412
 20
-6.293673868
 10
2.6224559585
 20
-6.3103478802
 10
2.6200105742
 20
-6.32648774
 10
2.6168420262
 20
-6.3420891688
 10
2.6129559767
 20
-6.3571564453
 10
2.6083829118
 20
-6.3715727117
 10
2.6031175541
 20
-6.3853326562
 10
2.5971651809
 20
-6.3984415906
 10
2.5905721101
 20
-6.4107985929
 10
2.5833336822
 20
-6.4223976635
 10
2.5754545567
 20
-6.433244802
 10
2.5669950302
 20
-6.4432570851
 10
2.5579503831
 20
-6.45242849
 10
2.5483253349
 20
-6.4607650395
 10
2.5381943406
 20
-6.468201878
 10
2.5275822187
 20
-6.4747173868
 10
2.5214912295
 20
-6.4779367361
  0
LWPOLYLINE
  5
2AB
100
AcDbEntity
  8
0
100
AcDbPolyline
 62
7
  6
CONTINUOUS
 90
33
 70
0
 10
2.6607718559
 20
-5.8148627752
 10
2.6814305802
 20
-5.8476783832
 10
2.7009260743
 20
-5.8811154533
 10
2.7192583384
 20
-5.9151739855
 10
2.7364729332
 20
-5.9499532271
 10
2.7525242979
 20
-5.9853539309
 10
2.7672757503
 20
-6.0210783551
 10
2.7807234886
 20
-6.057153418
 10
2.7928713147
 20
-6.0935522014
 10
2.8035939515
 20
-6.1298962088
 10
2.8128701232
 20
-6.1661524973
 10
2.8207211056
 20
-6.2023540098
 10
2.8270854497
 20
-6.2382210794
 10
2.8319548091
 20
-6.2737878098
 10
2.8353375302
 20
-6.3090200974
 10
2.8371972031
 20
-6.3435359639
 10
2.8375186919
 20
-6.3772908449
 10
2.8363171326
 20
-6.410329305
 10
2.8336015238
 20
-6.4424030597
 10
2.8293538888
 20
-6.4735390059
 10
2.8235922044
 20
-6.5037102467
 10
2.8163793996
 20
-6.5325878074
 10
2.8077098451
 20
-6.5601291174
 10
2.7975891703
 20
-6.5863767472
 10
2.7860971918
 20
-6.6111294337
 10
2.773211784
 20
-6.6343951397
 10
2.7589550724
 20
-6.6561659024
 10
2.7434732502
 20
-6.6762165698
 10
2.7267644303
 20
-6.6945180205
 10
2.7088304998
 20
-6.711099376
 10
2.6898233133
 20
-6.7258228487
 10
2.6697934891
 20
-6.7386425096
 10
2.655649813
 20
-6.7462538986
  0
LINE
  5
2AC
100
AcDbEntity
  8
0
100
AcDbLine
 62
250
  6
CONTINUOUS
 10
2.6265140729
 20
-6.7587081834
 11
2.5048401366
 21
-6.4850492712
  0
LWPOLYLINE
  5
2AD
100
AcDbEntity
  8
0
100
AcDbPolyline
 62
7
  6
CONTINUOUS
 90
16
 70
0
 10
0.9699767942
 20
-6.8311166923
 10
0.9852722108
 20
-6.8805018983
 10
1.0024106857
 20
-6.9275333304
 10
1.0211503647
 20
-6.9719118484
 10
1.0412240919
 20
-7.0133324952
 10
1.0623823681
 20
-7.0515721397
 10
1.0844019635
 20
-7.0864690421
 10
1.1070466099
 20
-7.1178433491
 10
1.1300037532
 20
-7.1454385692
 10
1.1529309982
 20
-7.1690269238
 10
1.1755114688
 20
-7.1884710044
 10
1.1975037836
 20
-7.2037318252
 10
1.2186798593
 20
-7.2147813737
 10
1.2387834327
 20
-7.2215828674
 10
1.2575368811
 20
-7.2241197306
 10
1.2746865884
 20
-7.2224168735
  0
LWPOLYLINE
  5
2AE
100
AcDbEntity
  8
0
100
AcDbPolyline
 62
7
  6
CONTINUOUS
 90
13
 70
0
 10
1.1063326375
 20
-6.7002704295
 10
1.1072344034
 20
-6.7353670055
 10
1.1095348984
 20
-6.7685750912
 10
1.1129948195
 20
-6.7996074895
 10
1.1173595447
 20
-6.8281993273
 10
1.1223687542
 20
-6.8541249315
 10
1.1277605289
 20
-6.8771954151
 10
1.1332620773
 20
-6.8972414948
 10
1.1385993056
 20
-6.9141297672
 10
1.1435067581
 20
-6.9277687767
 10
1.147718172
 20
-6.938096595
 10
1.1509702418
 20
-6.9450875879
 10
1.1530126521
 20
-6.9487579613
  0
LINE
  5
2AF
100
AcDbEntity
  8
RACCORDO
100
AcDbLine
 62
7
  6
CONTINUOUS
 10
0.645286753
 20
-2.5948276597
 11
0.7582832515
 21
-7.8994402455
  0
LINE
  5
2B0
100
AcDbEntity
  8
ASSI
100
AcDbLine
 62
7
  6
CONTINUOUS
 10
0.645286753
 20
-2.5948276597
 11
0.7582832515
 21
-7.8994402455
  0
LINE
  5
2B1
100
AcDbEntity
  8
DRAFT
100
AcDbLine
 62
7
  6
CONTINUOUS
 10
0.7162626248
 20
-2.3843796735
 11
0.7211996627
 21
-2.733258354
  0
LWPOLYLINE
  5
2B2
100
AcDbEntity
  8
ASSI
100
AcDbPolyline
 62
250
  6
CONTINUOUS
 90
6
 70
0
 10
-5.0220523769
 20
-13.7473973342
 10
-5.003104224
 20
-13.7009501356
 10
-4.9882150366
 20
-13.650662055
 10
-4.9774983309
 20
-13.5969176954
 10
-4.971035585
 20
-13.5401273434
 10
-4.9688758959
 20
-13.4807248144
  0
LINE
  5
2B3
100
AcDbEntity
  8
0
100
AcDbLine
 62
7
  6
CONTINUOUS
 10
-9.9255214458
 20
-7.0788628376
 11
-9.9350206809
 21
-7.0850966762
  0
LWPOLYLINE
  5
2B4
100
AcDbEntity
  8
RACCORDO
100
AcDbPolyline
 62
250
  6
CONTINUOUS
 90
22
 70
0
 10
10.8237055401
 20
4.7040265407
 10
10.84411777
 20
4.7150388607
 10
10.8626731378
 20
4.7266621626
 10
10.8793716435
 20
4.7388964465
 10
10.8942962921
 20
4.7518214343
 10
10.9073640786
 20
4.765357404
 10
10.9183259883
 20
4.7792651899
 10
10.927137308
 20
4.7935478123
 10
10.9338427509
 20
4.8082022509
 10
10.9383274416
 20
4.82298028
 10
10.9405535545
 20
4.8378807405
 10
10.9405589152
 20
4.8529047914
 10
10.938342125
 20
4.8678076836
 10
10.9338644633
 20
4.8825916185
 10
10.9271646506
 20
4.8972543947
 10
10.9183574502
 20
4.9115446597
 10
10.9073990088
 20
4.9254576896
 10
10.8943331797
 20
4.9389982082
 10
10.879406286
 20
4.9519290342
 10
10.8627004353
 20
4.9641711071
 10
10.84413352
 20
4.9758034873
 10
10.8237055401
 20
4.9868261749
  0
LWPOLYLINE
  5
2B5
100
AcDbEntity
  8
RACCORDO
100
AcDbPolyline
 62
250
  6
CONTINUOUS
 90
22
 70
0
 10
7.9052433589
 20
2.6216313454
 10
7.9892451273
 20
2.6663319191
 10
8.0752691969
 20
2.7136955556
 10
8.1633155679
 20
2.7637222548
 10
8.2545939996
 20
2.8178695549
 10
8.3478947326
 20
2.8746799176
 10
8.4395884887
 20
2.9297807287
 10
8.5283316647
 20
2.9820763236
 10
8.6154678639
 20
3.0326623669
 10
8.7013986176
 20
3.0804532376
 10
8.7854248416
 20
3.1246722789
 10
8.86824562
 20
3.1660961477
 10
8.9523597367
 20
3.2059691933
 10
9.0384780062
 20
3.2442174448
 10
9.1258896139
 20
3.2809148732
 10
9.2149608989
 20
3.3175277412
 10
9.3070697256
 20
3.3543158188
 10
9.4008382297
 20
3.391019336
 10
9.4924991574
 20
3.4283252454
 10
9.5807967574
 20
3.4664625314
 10
9.6669867811
 20
3.5052022096
 10
9.7510692283
 20
3.5445442801
  0
LINE
  5
2B6
100
AcDbEntity
  8
RACCORDO
100
AcDbLine
 62
250
  6
CONTINUOUS
 10
-4.9052793639
 20
-3.1604659113
 11
7.2695200493
 21
2.9269337953
  0
LINE
  5
2B7
100
AcDbEntity
  8
RACCORDO
100
AcDbLine
 62
250
  6
CONTINUOUS
 10
9.8211932696
 20
4.2027704055
 11
10.8237055401
 21
4.7040265407
  0
LINE
  5
2B8
100
AcDbEntity
  8
RACCORDO
100
AcDbLine
 62
250
  6
CONTINUOUS
 10
-4.6224797298
 20
-3.642230199
 11
7.9052433589
 21
2.6216313454
  0
LINE
  5
2B9
100
AcDbEntity
  8
RACCORDO
100
AcDbLine
 62
250
  6
CONTINUOUS
 10
9.7510692283
 20
3.5445442801
 11
11.1065051743
 21
4.2222622531
  0
LWPOLYLINE
  5
2BA
100
AcDbEntity
  8
RACCORDO
100
AcDbPolyline
 62
250
  6
CONTINUOUS
 90
40
 70
0
 10
7.7209167124
 20
3.0324648489
 10
7.7624777936
 20
3.0428716365
 10
7.8051629014
 20
3.0541580421
 10
7.8489442448
 20
3.0663341164
 10
7.8936455846
 20
3.0793896568
 10
7.9393796075
 20
3.0933656493
 10
7.9865368978
 20
3.1083627206
 10
8.0350760167
 20
3.1244433046
 10
8.0849282034
 20
3.141628314
 10
8.1364152791
 20
3.1599823123
 10
8.1896640551
 20
3.1796606823
 10
8.2443799023
 20
3.2006389141
 10
8.3002478448
 20
3.2227056661
 10
8.3573810016
 20
3.2459870951
 10
8.415490231
 20
3.2704783083
 10
8.4737086168
 20
3.2957115311
 10
8.5318567461
 20
3.3216235763
 10
8.5900123359
 20
3.3483253665
 10
8.6477628323
 20
3.3755487042
 10
8.7050881903
 20
3.4032717282
 10
8.761954033
 20
3.4315425814
 10
8.8179785753
 20
3.4601620131
 10
8.8731892594
 20
3.4891015307
 10
8.9275720961
 20
3.5183900229
 10
8.9807327415
 20
3.5478771702
 10
9.0329057058
 20
3.5776245571
 10
9.0839333444
 20
3.6075586895
 10
9.1329070356
 20
3.6372524237
 10
9.1798362544
 20
3.6665727627
 10
9.2249176879
 20
3.6955623876
 10
9.267593114
 20
3.7239632563
 10
9.3076964945
 20
3.7515226197
 10
9.3456415858
 20
3.7783573342
 10
9.381728733
 20
3.8047321307
 10
9.4159919386
 20
3.8305981858
 10
9.4485652918
 20
3.8559265728
 10
9.4798438467
 20
3.8810386282
 10
9.509984166
 20
3.9060414774
 10
9.5389337379
 20
3.9308193284
 10
9.566745947
 20
3.9553757492
  0
LINE
  5
2BB
100
AcDbEntity
  8
RACCORDO
100
AcDbLine
 62
250
  6
CONTINUOUS
 10
7.2695200493
 20
2.9269337953
 11
7.3150743185
 21
2.938200679
  0
LINE
  5
2BC
100
AcDbEntity
  8
RACCORDO
100
AcDbLine
 62
250
  6
CONTINUOUS
 10
7.3150743185
 20
2.938200679
 11
7.4096586369
 21
2.9609390091
  0
LINE
  5
2BD
100
AcDbEntity
  8
RACCORDO
100
AcDbLine
 62
250
  6
CONTINUOUS
 10
7.4096586369
 20
2.9609390091
 11
7.5086901343
 21
2.9839780446
  0
LINE
  5
2BE
100
AcDbEntity
  8
SMUSSO
100
AcDbLine
 62
7
  6
CONTINUOUS
 10
4.1860228905
 20
-1.00084674
 11
4.1122732792
 21
-0.9639719344
  0
LWPOLYLINE
  5
2BF
100
AcDbEntity
  8
RACCORDO
100
AcDbPolyline
 62
250
  6
CONTINUOUS
 90
6
 70
0
 10
4.6760605995
 20
-2.3638337777
 10
4.698234435
 20
-2.3763439488
 10
4.7201653294
 20
-2.3915635625
 10
4.7416130031
 20
-2.4093258696
 10
4.762342471
 20
-2.4294362624
 10
4.7695018638
 20
-2.4374836969
  0
LINE
  5
2C0
100
AcDbEntity
  8
0
100
AcDbLine
 62
7
  6
CONTINUOUS
 10
1.6526819233
 20
-2.2675172237
 11
3.6507213496
 21
-5.3198880284
  0
LWPOLYLINE
  5
2C1
100
AcDbEntity
  8
0
100
AcDbPolyline
 62
7
  6
CONTINUOUS
 90
33
 70
0
 10
3.6507213496
 20
-5.3198880284
 10
3.6713800738
 20
-5.3527036363
 10
3.690875568
 20
-5.3861407064
 10
3.7092078321
 20
-5.4201992387
 10
3.7264224268
 20
-5.4549784803
 10
3.7424737915
 20
-5.490379184
 10
3.7572252439
 20
-5.5261036082
 10
3.7706729823
 20
-5.5621786712
 10
3.7828208083
 20
-5.5985774545
 10
3.7935434452
 20
-5.634921462
 10
3.8028196168
 20
-5.6711777504
 10
3.8106705993
 20
-5.707379263
 10
3.8170349434
 20
-5.7432463326
 10
3.8219043028
 20
-5.778813063
 10
3.8252870238
 20
-5.8140453505
 10
3.8271466968
 20
-5.8485612171
 10
3.8274681856
 20
-5.8823160981
 10
3.8262666263
 20
-5.9153545582
 10
3.8235510175
 20
-5.9474283129
 10
3.8193033825
 20
-5.9785642591
 10
3.8135416981
 20
-6.0087354999
 10
3.8063288932
 20
-6.0376130605
 10
3.7976593388
 20
-6.0651543705
 10
3.787538664
 20
-6.0914020004
 10
3.7760466854
 20
-6.1161546868
 10
3.7631612776
 20
-6.1394203929
 10
3.7489045661
 20
-6.1611911556
 10
3.7334227439
 20
-6.181241823
 10
3.716713924
 20
-6.1995432737
 10
3.6987799934
 20
-6.2161246292
 10
3.679772807
 20
-6.2308481019
 10
3.6597429828
 20
-6.2436677628
 10
3.6455993066
 20
-6.2512791518
  0
LINE
  5
2C2
100
AcDbEntity
  8
0
100
AcDbLine
 62
7
  6
CONTINUOUS
 10
0.9686425249
 20
-6.8208003707
 11
0.9699767942
 21
-6.8311166923
  0
LINE
  5
2C3
100
AcDbEntity
  8
0
100
AcDbLine
 62
7
  6
CONTINUOUS
 10
1.1049983682
 20
-6.6899541079
 11
1.1063326375
 21
-6.7002704295
  0
LINE
  5
2C4
100
AcDbEntity
  8
DRAFT
100
AcDbLine
 62
7
  6
CONTINUOUS
 10
1.8476334747
 20
-1.8186942485
 11
1.8525705126
 21
-2.167572929
  0
LWPOLYLINE
  5
2C5
100
AcDbEntity
  8
RACCORDO
100
AcDbPolyline
 62
250
  6
CONTINUOUS
 90
16
 70
0
 10
2.1378335642
 20
5.0349908458
 10
2.138646135
 20
4.9715832306
 10
2.1490856157
 20
4.8673391708
 10
2.170823799
 20
4.7635173747
 10
2.2037997707
 20
4.660428137
 10
2.2479216939
 20
4.5583713289
 10
2.3030912692
 20
4.457603519
 10
2.3691668552
 20
4.3584220635
 10
2.4459708475
 20
4.2611258515
 10
2.5333285346
 20
4.1659719226
 10
2.6310204544
 20
4.0732402516
 10
2.7387773709
 20
3.9832230911
 10
2.8563160556
 20
3.896190061
 10
2.9833186724
 20
3.8124084117
 10
3.1194309967
 20
3.7321413989
 10
3.2642724744
 20
3.655640758
  0
LINE
  5
2C6
100
AcDbEntity
  8
RACCORDO
100
AcDbLine
 62
7
  6
CONTINUOUS
 10
1.9251422462
 20
-1.9548999131
 11
1.9303374599
 21
-2.6916868585
  0
LINE
  5
2C7
100
AcDbEntity
  8
ASSI
100
AcDbLine
 62
7
  6
CONTINUOUS
 10
1.9251422462
 20
-1.9548999131
 11
1.9303374599
 21
-2.6916868585
  0
LINE
  5
2C8
100
AcDbEntity
  8
RACCORDO
100
AcDbLine
 62
7
  6
CONTINUOUS
 10
1.9470629153
 20
-5.0636965437
 11
1.957571788
 21
-6.5540683873
  0
LINE
  5
2C9
100
AcDbEntity
  8
ASSI
100
AcDbLine
 62
7
  6
CONTINUOUS
 10
1.9470629153
 20
-5.0636965437
 11
1.957571788
 21
-6.5540683873
  0
LINE
  5
2CA
100
AcDbEntity
  8
RACCORDO
100
AcDbLine
 62
7
  6
CONTINUOUS
 10
1.9606934912
 20
-6.9967893716
 11
1.9628115705
 21
-7.297176086
  0
LINE
  5
2CB
100
AcDbEntity
  8
ASSI
100
AcDbLine
 62
7
  6
CONTINUOUS
 10
1.9606934912
 20
-6.9967893716
 11
1.9628115705
 21
-7.297176086
  0
LWPOLYLINE
  5
2CC
100
AcDbEntity
  8
RACCORDO
100
AcDbPolyline
 62
250
  6
CONTINUOUS
 90
28
 70
0
 10
2.2706071686
 20
11.6221605723
 10
2.2704193923
 20
11.6022176649
 10
2.2745050978
 20
11.5163608452
 10
2.2859492057
 20
11.4338052686
 10
2.3038515384
 20
11.3548471863
 10
2.3273968423
 20
11.2794241994
 10
2.3558823893
 20
11.2073775585
 10
2.3885686742
 20
11.1387943339
 10
2.4247816984
 20
11.0736558168
 10
2.4640925767
 20
11.0116240471
 10
2.5059428887
 20
10.95269707
 10
2.5498034857
 20
10.8968538428
 10
2.5954699766
 20
10.8437292233
 10
2.6425243374
 20
10.7932957852
 10
2.690571303
 20
10.7455153517
 10
2.7395948972
 20
10.7000208485
 10
2.7892910651
 20
10.656777165
 10
2.8393731142
 20
10.6157422401
 10
2.8899803763
 20
10.5765603767
 10
2.9408991771
 20
10.5391983858
 10
2.9919273386
 20
10.5036191275
 10
3.0433291806
 20
10.4694870536
 10
3.0949484687
 20
10.4367842208
 10
3.1466595331
 20
10.4054750224
 10
3.1988656971
 20
10.3752270551
 10
3.2516616897
 20
10.3459276886
 10
3.3047881287
 20
10.3176653602
 10
3.3581623579
 20
10.2904244594
  0
LINE
  5
2CD
100
AcDbEntity
  8
RACCORDO
100
AcDbLine
 62
7
  6
CONTINUOUS
 10
1.3058998352
 20
-4.0842026252
 11
1.2699407814
 21
-6.6074829014
  0
LINE
  5
2CE
100
AcDbEntity
  8
ASSI
100
AcDbLine
 62
7
  6
CONTINUOUS
 10
1.3058998352
 20
-4.0842026252
 11
1.2699407814
 21
-6.6074829014
  0
LINE
  5
2CF
100
AcDbEntity
  8
DRAFT
100
AcDbLine
 62
7
  6
CONTINUOUS
 10
2.1378335644
 20
5.0349908558
 11
2.2706071683
 21
11.6221605562
  0
LWPOLYLINE
  5
2D0
100
AcDbEntity
  8
RACCORDO
100
AcDbPolyline
 62
250
  6
CONTINUOUS
 90
12
 70
0
 10
11.1065051743
 20
4.2222622531
 10
11.1471917169
 20
4.2446252418
 10
11.1844834862
 20
4.2684130452
 10
11.2181728694
 20
4.2934901
 10
11.2480708683
 20
4.3197108207
 10
11.2740134156
 20
4.3469295829
 10
11.2958599201
 20
4.3750020774
 10
11.3134896875
 20
4.4037758567
 10
11.3267989615
 20
4.4330837733
 10
11.335709835
 20
4.4627539915
 10
11.3401749232
 20
4.4926128016
 10
11.3406590537
 20
4.5130250931
  0
LINE
  5
2D1
100
AcDbEntity
  8
RACCORDO
100
AcDbLine
 62
250
  6
CONTINUOUS
 10
-10.9239365318
 20
-8.0038731309
 11
-10.1916727477
 21
-7.6377412389
  0
LINE
  5
2D2
100
AcDbEntity
  8
ASSI
100
AcDbLine
 62
250
  6
CONTINUOUS
 10
-10.9239365318
 20
-8.0038731309
 11
-10.1916727477
 21
-7.6377412389
  0
LINE
  5
2D3
100
AcDbEntity
  8
RACCORDO
100
AcDbLine
 62
7
  6
CONTINUOUS
 10
-4.6224797298
 20
-5.0537508508
 11
0.7162626248
 21
-2.3843796735
  0
LINE
  5
2D4
100
AcDbEntity
  8
DRAFT
100
AcDbLine
 62
7
  6
CONTINUOUS
 10
1.8476334747
 20
-1.8186942485
 11
4.1810858526
 21
-0.6519680596
  0
LINE
  5
2D5
100
AcDbEntity
  8
RACCORDO
100
AcDbLine
 62
7
  6
CONTINUOUS
 10
5.3124567025
 20
-0.0862826346
 11
11.1461738039
 21
2.8305759161
  0
LINE
  5
2D6
100
AcDbEntity
  8
RACCORDO
100
AcDbLine
 62
7
  6
CONTINUOUS
 10
-4.6216602573
 20
-5.054160587
 11
0.5014238044
 21
-2.4926185562
  0
LINE
  5
2D7
100
AcDbEntity
  8
ASSI
100
AcDbLine
 62
7
  6
CONTINUOUS
 10
-4.6216602573
 20
-5.054160587
 11
0.5014238044
 21
-2.4926185562
  0
LINE
  5
2D8
100
AcDbEntity
  8
RACCORDO
100
AcDbLine
 62
7
  6
CONTINUOUS
 10
2.0641112402
 20
-1.7112748383
 11
3.9662470322
 21
-0.7602069423
  0
LINE
  5
2D9
100
AcDbEntity
  8
ASSI
100
AcDbLine
 62
7
  6
CONTINUOUS
 10
2.0641112402
 20
-1.7112748383
 11
3.9662470322
 21
-0.7602069423
  0
LINE
  5
2DA
100
AcDbEntity
  8
RACCORDO
100
AcDbLine
 62
7
  6
CONTINUOUS
 10
5.528934468
 20
0.0211367756
 11
11.1469932765
 21
2.8301661798
  0
LINE
  5
2DB
100
AcDbEntity
  8
ASSI
100
AcDbLine
 62
7
  6
CONTINUOUS
 10
5.528934468
 20
0.0211367756
 11
11.1469932765
 21
2.8301661798
  0
LINE
  5
2DC
100
AcDbEntity
  8
RACCORDO
100
AcDbLine
 62
250
  6
CONTINUOUS
 10
-10.7849675378
 20
-8.2474982057
 11
-10.0490333808
 21
-7.8795311273
  0
LINE
  5
2DD
100
AcDbEntity
  8
ASSI
100
AcDbLine
 62
250
  6
CONTINUOUS
 10
-10.7849675378
 20
-8.2474982057
 11
-10.0490333808
 21
-7.8795311273
  0
LWPOLYLINE
  5
2DE
100
AcDbEntity
  8
0
100
AcDbPolyline
 62
7
  6
CONTINUOUS
 90
13
 70
0
 10
-9.9350206809
 20
-7.0850966762
 10
-9.9711748053
 20
-7.1025670731
 10
-10.0087166997
 20
-7.1181544589
 10
-10.0474070612
 20
-7.1315716372
 10
-10.0869876146
 20
-7.1425555607
 10
-10.1272016934
 20
-7.1508787304
 10
-10.1677983374
 20
-7.1563467793
 10
-10.208504755
 20
-7.1587904243
 10
-10.2490468526
 20
-7.1580762622
 10
-10.2891701334
 20
-7.1541073575
 10
-10.3286119877
 20
-7.1468199556
 10
-10.3671054568
 20
-7.1361902488
 10
-10.4044002256
 20
-7.122234443
  0
LINE
  5
2DF
100
AcDbEntity
  8
RACCORDO
100
AcDbLine
 62
250
  6
CONTINUOUS
 10
7.5086901343
 20
2.9839780446
 11
7.7209352331
 21
3.032459806
  0
LWPOLYLINE
  5
2E0
100
AcDbEntity
  8
RACCORDO
100
AcDbPolyline
 62
250
  6
CONTINUOUS
 90
5
 70
0
 10
7.2060032513
 20
3.191922983
 10
7.25463954
 20
3.1998266584
 10
7.3043802294
 20
3.2074808925
 10
7.3551970122
 20
3.2149114957
 10
7.4070178903
 20
3.222123963
  0
LWPOLYLINE
  5
2E1
100
AcDbEntity
  8
RACCORDO
100
AcDbPolyline
 62
250
  6
CONTINUOUS
 90
40
 70
0
 10
7.2695200493
 20
2.9269337953
 10
7.0474237366
 20
2.8932436191
 10
6.8229466455
 20
2.8660727309
 10
6.5960887758
 20
2.8454211306
 10
6.3659561484
 20
2.8312441409
 10
6.1334427424
 20
2.8235864391
 10
5.9012304957
 20
2.8225820576
 10
5.6694785351
 20
2.8283142597
 10
5.4380277337
 20
2.8406997822
 10
5.2090826489
 20
2.8596228676
 10
4.9826329394
 20
2.8851488446
 10
4.7586889465
 20
2.9172123844
 10
4.5394862509
 20
2.9555017435
 10
4.3250800788
 20
3.0000786734
 10
4.115415204
 20
3.0508814225
 10
3.9125615284
 20
3.107412992
 10
3.7165677995
 20
3.1697413873
 10
3.5273852699
 20
3.2377986029
 10
3.3469375998
 20
3.3108836234
 10
3.1753457885
 20
3.3890354963
 10
3.0124888368
 20
3.4722151741
 10
2.8599274063
 20
3.5596044991
 10
2.7177631675
 20
3.6512366396
 10
2.5858944501
 20
3.7470784274
 10
2.4655769043
 20
3.8462121995
 10
2.3569064036
 20
3.9486816584
 10
2.2597870746
 20
4.0544431017
 10
2.1751869476
 20
4.1624477596
 10
2.1032345068
 20
4.27271417
 10
2.043801268
 20
4.3852237952
 10
1.99746981
 20
4.4988722522
 10
1.9643688142
 20
4.6136711069
 10
1.9443695992
 20
4.7296087935
 10
1.9376686991
 20
4.8455462313
 10
1.9443972494
 20
4.9614835948
 10
1.9644241145
 20
5.0774207096
 10
1.9975524225
 20
5.192217972
 10
2.0439113183
 20
5.3058639768
 10
2.1033716569
 20
5.4183701293
 10
2.1469053061
 20
5.4850584911
  0
LWPOLYLINE
  5
2E2
100
AcDbEntity
  8
RACCORDO
100
AcDbPolyline
 62
250
  6
CONTINUOUS
 90
40
 70
0
 10
7.6819347068
 20
3.2568917523
 10
7.7230851966
 20
3.2622357506
 10
7.7654981199
 20
3.2683822638
 10
7.8091380022
 20
3.2753577705
 10
7.8538344279
 20
3.28315803
 10
7.8996814316
 20
3.2918401282
 10
7.947027223
 20
3.3015314687
 10
7.9958327685
 20
3.3122590201
 10
8.0460205484
 20
3.3240708928
 10
8.0978560374
 20
3.3371432491
 10
8.1514736973
 20
3.3515748848
 10
8.2065679093
 20
3.3673661121
 10
8.2627365212
 20
3.3845461676
 10
8.3200883218
 20
3.4032271469
 10
8.3783295831
 20
3.4233825174
 10
8.436496925
 20
3.4447999427
 10
8.494392022
 20
3.4674528627
 10
8.5520940547
 20
3.4913940066
 10
8.60911498
 20
3.5164905711
 10
8.665405116
 20
3.5427523463
 10
8.7209288068
 20
3.5701685118
 10
8.7752645113
 20
3.5985496319
 10
8.8283971062
 20
3.6278985517
 10
8.8803033131
 20
3.6581856346
 10
8.9305995583
 20
3.6891491352
 10
8.9794582691
 20
3.7208888576
 10
9.0267179869
 20
3.75325932
 10
9.0715849019
 20
3.7855953285
 10
9.1140372812
 20
3.8177902713
 10
9.154252787
 20
3.849859328
 10
9.1918385792
 20
3.881285691
 10
9.2266673106
 20
3.9118026327
 10
9.2591007632
 20
3.9415761197
 10
9.2894949851
 20
3.970736873
 10
9.3179131473
 20
3.9992107602
 10
9.3444622285
 20
4.0270061578
 10
9.3695186401
 20
4.0543938175
 10
9.3932358771
 20
4.0814530408
 10
9.4155697834
 20
4.1080644647
 10
9.4365758462
 20
4.134209329
  0
LINE
  5
2E3
100
AcDbEntity
  8
RACCORDO
100
AcDbLine
 62
250
  6
CONTINUOUS
 10
7.4070178903
 20
3.222123963
 11
7.5137903645
 21
3.2361253422
  0
LWPOLYLINE
  5
2E4
100
AcDbEntity
  8
RACCORDO
100
AcDbPolyline
 62
250
  6
CONTINUOUS
 90
3
 70
0
 10
7.5137903645
 20
3.2361253422
 10
7.6248955464
 20
3.2499687243
 10
7.6819347068
 20
3.2568917523
  0
LINE
  5
2E5
100
AcDbEntity
  8
RACCORDO
100
AcDbLine
 62
7
  6
CONTINUOUS
 10
4.0562461637
 20
-0.7548047911
 11
4.0158292766
 21
-0.7345963476
  0
LINE
  5
2E6
100
AcDbEntity
  8
ASSI
100
AcDbLine
 62
7
  6
CONTINUOUS
 10
4.0562461637
 20
-0.7548047911
 11
4.0158292766
 21
-0.7345963476
  0
LINE
  5
2E7
100
AcDbEntity
  8
RACCORDO
100
AcDbLine
 62
7
  6
CONTINUOUS
 10
11.5911781146
 20
-4.2475387376
 11
11.7188441401
 21
-4.3113717503
  0
LINE
  5
2E8
100
AcDbEntity
  8
ASSI
100
AcDbLine
 62
7
  6
CONTINUOUS
 10
11.5911781146
 20
-4.2475387376
 11
11.7188441401
 21
-4.3113717503
  0
LINE
  5
2E9
100
AcDbEntity
  8
RACCORDO
100
AcDbLine
 62
250
  6
CONTINUOUS
 10
5.3138455782
 20
-0.1844283513
 11
5.389965474
 21
-0.2224882992
  0
LINE
  5
2EA
100
AcDbEntity
  8
ASSI
100
AcDbLine
 62
250
  6
CONTINUOUS
 10
5.3138455782
 20
-0.1844283513
 11
5.389965474
 21
-0.2224882992
  0
LINE
  5
2EB
100
AcDbEntity
  8
0
100
AcDbLine
 62
7
  6
CONTINUOUS
 10
4.6178358799
 20
-5.2163463474
 11
4.7395098162
 21
-5.4900052596
  0
LINE
  5
2EC
100
AcDbEntity
  8
0
100
AcDbLine
 62
7
  6
CONTINUOUS
 10
4.6756828044
 20
-5.2153335212
 11
4.7973567407
 21
-5.4889924334
  0
LWPOLYLINE
  5
2ED
100
AcDbEntity
  8
DRAFT
100
AcDbPolyline
 62
7
  6
CONTINUOUS
 90
14
 70
0
 10
2.9119131183
 20
11.7813695035
 10
2.9151274193
 20
11.7029887417
 10
2.9297668289
 20
11.6086686963
 10
2.9560257328
 20
11.5145013118
 10
2.9935641101
 20
11.4217541575
 10
3.0424675633
 20
11.3305606795
 10
3.1026504898
 20
11.2407874318
 10
3.1735160613
 20
11.1533016449
 10
3.255239751
 20
11.0680502284
 10
3.3476460857
 20
10.9850862729
 10
3.4496118175
 20
10.905436281
 10
3.5607625304
 20
10.8294424202
 10
3.6814726405
 20
10.7567625231
 10
3.8117421477
 20
10.6873965896
  0
LINE
  5
2EE
100
AcDbEntity
  8
0
100
AcDbLine
 62
7
  6
CONTINUOUS
 10
3.5842081446
 20
11.9468346688
 11
3.5842081446
 21
10.8153257499
  0
LWPOLYLINE
  5
2EF
100
AcDbEntity
  8
RACCORDO
100
AcDbPolyline
 62
250
  6
CONTINUOUS
 90
6
 70
0
 10
9.5667689015
 20
3.9553745278
 10
9.6006743131
 20
3.9872526217
 10
9.6330964941
 20
4.018060769
 10
9.6640507154
 20
4.047780821
 10
9.6935034805
 20
4.0763791988
 10
9.7482651951
 20
4.1302379383
  0
LWPOLYLINE
  5
2F0
100
AcDbEntity
  8
RACCORDO
100
AcDbPolyline
 62
7
  6
CONTINUOUS
 90
10
 70
0
 10
-11.5591110966
 20
-9.925799593
 10
-11.6067348414
 20
-9.9518993136
 10
-11.6491125156
 20
-9.9795130097
 10
-11.6862441193
 20
-10.0086406814
 10
-11.7183311557
 20
-10.0395252133
 10
-11.7451721216
 20
-10.0719237207
 10
-11.7661625071
 20
-10.105107549
 10
-11.7811701092
 20
-10.1390955872
 10
-11.7903271309
 20
-10.1738689463
 10
-11.7934256716
 20
-10.2086423054
  0
LWPOLYLINE
  5
2F1
100
AcDbEntity
  8
ASSI
100
AcDbPolyline
 62
7
  6
CONTINUOUS
 90
10
 70
0
 10
-11.5591110966
 20
-9.925799593
 10
-11.6067348414
 20
-9.9518993136
 10
-11.6491125156
 20
-9.9795130097
 10
-11.6862441193
 20
-10.0086406814
 10
-11.7183311557
 20
-10.0395252133
 10
-11.7451721216
 20
-10.0719237207
 10
-11.7661625071
 20
-10.105107549
 10
-11.7811701092
 20
-10.1390955872
 10
-11.7903271309
 20
-10.1738689463
 10
-11.7934256716
 20
-10.2086423054
  0
LINE
  5
2F2
100
AcDbEntity
  8
DRAFT
100
AcDbLine
 62
7
  6
CONTINUOUS
 10
5.3173937404
 20
-0.4351613151
 11
4.1860228905
 21
-1.00084674
  0
LINE
  5
2F3
100
AcDbEntity
  8
DRAFT
100
AcDbLine
 62
7
  6
CONTINUOUS
 10
1.8525705126
 20
-2.167572929
 11
0.7211996627
 21
-2.733258354
  0
LINE
  5
2F4
100
AcDbEntity
  8
RACCORDO
100
AcDbLine
 62
250
  6
CONTINUOUS
 10
-9.7227461579
 20
-8.6380838921
 11
-9.8632711615
 21
-8.7083463939
  0
LINE
  5
2F5
100
AcDbEntity
  8
ASSI
100
AcDbLine
 62
250
  6
CONTINUOUS
 10
-9.7227461579
 20
-8.6380838921
 11
-9.8632711615
 21
-8.7083463939
  0
LINE
  5
2F6
100
AcDbEntity
  8
RACCORDO
100
AcDbLine
 62
7
  6
CONTINUOUS
 10
-11.5591110966
 20
-9.925799593
 11
-11.4414876895
 21
-9.8669878894
  0
LINE
  5
2F7
100
AcDbEntity
  8
ASSI
100
AcDbLine
 62
7
  6
CONTINUOUS
 10
-11.5591110966
 20
-9.925799593
 11
-11.4414876895
 21
-9.8669878894
  0
LINE
  5
2F8
100
AcDbEntity
  8
0
100
AcDbLine
 62
7
  6
CONTINUOUS
 10
4.1206823439
 20
-1.358734875
 11
5.9892392404
 21
-4.2132974241
  0
LINE
  5
2F9
100
AcDbEntity
  8
0
100
AcDbLine
 62
7
  6
CONTINUOUS
 10
4.1132148113
 20
-1.0081720902
 11
6.1255950837
 21
-4.0824511613
  0
LWPOLYLINE
  5
2FA
100
AcDbEntity
  8
0
100
AcDbPolyline
 62
7
  6
CONTINUOUS
 90
36
 70
0
 10
5.9892392404
 20
-4.2132974241
 10
6.0000716703
 20
-4.2304444229
 10
6.0103540258
 20
-4.2479072362
 10
6.020086307
 20
-4.265685864
 10
6.0292908498
 20
-4.2838279371
 10
6.0379453182
 20
-4.3022858246
 10
6.0459827048
 20
-4.3209166339
 10
6.053398221
 20
-4.3397217259
 10
6.0601966554
 20
-4.3586997397
 10
6.0663253656
 20
-4.3777036998
 10
6.0717791394
 20
-4.3967337655
 10
6.076563189
 20
-4.4157897775
 10
6.0806405098
 20
-4.4347242833
 10
6.0840056248
 20
-4.453536317
 10
6.0866640109
 20
-4.4722268445
 10
6.0885950939
 20
-4.4906513103
 10
6.0897932486
 20
-4.5088076619
 10
6.0902641002
 20
-4.526697952
 10
6.0900039511
 20
-4.5441837831
 10
6.089007069
 20
-4.5612622541
 10
6.0872791863
 20
-4.5779362663
 10
6.084833802
 20
-4.5940761261
 10
6.081665254
 20
-4.6096775549
 10
6.0777792046
 20
-4.6247448314
 10
6.0732061396
 20
-4.6391610978
 10
6.0679407819
 20
-4.6529210422
 10
6.0619884087
 20
-4.6660299766
 10
6.055395338
 20
-4.6783869789
 10
6.0481569101
 20
-4.6899860496
 10
6.0402777846
 20
-4.7008331881
 10
6.031818258
 20
-4.7108454712
 10
6.0227736109
 20
-4.7200168761
 10
6.0131485627
 20
-4.7283534256
 10
6.0030175684
 20
-4.7357902641
 10
5.9924054465
 20
-4.7423057729
 10
5.9863144573
 20
-4.7455251222
  0
LWPOLYLINE
  5
2FB
100
AcDbEntity
  8
0
100
AcDbPolyline
 62
7
  6
CONTINUOUS
 90
33
 70
0
 10
6.1255950837
 20
-4.0824511613
 10
6.146253808
 20
-4.1152667692
 10
6.1657493021
 20
-4.1487038393
 10
6.1840815662
 20
-4.1827623716
 10
6.201296161
 20
-4.2175416132
 10
6.2173475257
 20
-4.2529423169
 10
6.2320989781
 20
-4.2886667412
 10
6.2455467164
 20
-4.3247418041
 10
6.2576945425
 20
-4.3611405874
 10
6.2684171793
 20
-4.3974845949
 10
6.277693351
 20
-4.4337408834
 10
6.2855443334
 20
-4.4699423959
 10
6.2919086776
 20
-4.5058094655
 10
6.2967780369
 20
-4.5413761959
 10
6.300160758
 20
-4.5766084834
 10
6.3020204309
 20
-4.61112435
 10
6.3023419197
 20
-4.644879231
 10
6.3011403604
 20
-4.6779176911
 10
6.2984247517
 20
-4.7099914458
 10
6.2941771167
 20
-4.741127392
 10
6.2884154322
 20
-4.7712986328
 10
6.2812026274
 20
-4.8001761935
 10
6.272533073
 20
-4.8277175034
 10
6.2624123981
 20
-4.8539651333
 10
6.2509204196
 20
-4.8787178198
 10
6.2380350118
 20
-4.9019835258
 10
6.2237783002
 20
-4.9237542885
 10
6.2082964781
 20
-4.9438049559
 10
6.1915876581
 20
-4.9621064066
 10
6.1736537276
 20
-4.9786877621
 10
6.1546465411
 20
-4.9934112348
 10
6.1346167169
 20
-5.0062308957
 10
6.1204730408
 20
-5.0138422847
  0
LINE
  5
2FC
100
AcDbEntity
  8
0
100
AcDbLine
 62
250
  6
CONTINUOUS
 10
6.0913373007
 20
-5.0262965695
 11
5.9696633644
 21
-4.7526376573
  0
LWPOLYLINE
  5
2FD
100
AcDbEntity
  8
0
100
AcDbPolyline
 62
7
  6
CONTINUOUS
 90
16
 70
0
 10
4.4348000221
 20
-5.0987050784
 10
4.4500954386
 20
-5.1480902844
 10
4.4672339136
 20
-5.1951217165
 10
4.4859735925
 20
-5.2395002345
 10
4.5060473198
 20
-5.2809208813
 10
4.5272055959
 20
-5.3191605258
 10
4.5492251913
 20
-5.3540574282
 10
4.5718698377
 20
-5.3854317352
 10
4.594826981
 20
-5.4130269553
 10
4.6177542261
 20
-5.4366153099
 10
4.6403346966
 20
-5.4560593905
 10
4.6623270114
 20
-5.4713202112
 10
4.6835030871
 20
-5.4823697598
 10
4.7036066605
 20
-5.4891712535
 10
4.7223601089
 20
-5.4917081167
 10
4.7395098162
 20
-5.4900052596
  0
LWPOLYLINE
  5
2FE
100
AcDbEntity
  8
0
100
AcDbPolyline
 62
7
  6
CONTINUOUS
 90
13
 70
0
 10
4.5711558654
 20
-4.9678588156
 10
4.5720576312
 20
-5.0029553916
 10
4.5743581262
 20
-5.0361634772
 10
4.5778180473
 20
-5.0671958756
 10
4.5821827725
 20
-5.0957877134
 10
4.587191982
 20
-5.1217133176
 10
4.5925837567
 20
-5.1447838012
 10
4.5980853051
 20
-5.1648298809
 10
4.6034225334
 20
-5.1817181533
 10
4.6083299859
 20
-5.1953571628
 10
4.6125413998
 20
-5.2056849811
 10
4.6157934696
 20
-5.212675974
 10
4.6178358799
 20
-5.2163463474
  0
LINE
  5
2FF
100
AcDbEntity
  8
RACCORDO
100
AcDbLine
 62
7
  6
CONTINUOUS
 10
4.1101099809
 20
-0.8624160458
 11
4.2231064793
 21
-6.1670286316
  0
LINE
  5
300
100
AcDbEntity
  8
ASSI
100
AcDbLine
 62
7
  6
CONTINUOUS
 10
4.1101099809
 20
-0.8624160458
 11
4.2231064793
 21
-6.1670286316
  0
LINE
  5
301
100
AcDbEntity
  8
DRAFT
100
AcDbLine
 62
7
  6
CONTINUOUS
 10
4.1810858526
 20
-0.6519680596
 11
4.1860228905
 21
-1.00084674
  0
LINE
  5
302
100
AcDbEntity
  8
RACCORDO
100
AcDbLine
 62
7
  6
CONTINUOUS
 10
4.770723063
 20
-2.3517910113
 11
4.7347640092
 21
-4.8750712875
  0
LINE
  5
303
100
AcDbEntity
  8
ASSI
100
AcDbLine
 62
7
  6
CONTINUOUS
 10
4.770723063
 20
-2.3517910113
 11
4.7347640092
 21
-4.8750712875
  0
LWPOLYLINE
  5
304
100
AcDbEntity
  8
RACCORDO
100
AcDbPolyline
 62
250
  6
CONTINUOUS
 90
15
 70
0
 10
4.6245887369
 20
-3.0479054675
 10
4.6246855137
 20
-3.0413064343
 10
4.6267495066
 20
-3.0167417201
 10
4.6312962105
 20
-2.9930682942
 10
4.6380648043
 20
-2.9703243537
 10
4.6468168954
 20
-2.9485115614
 10
4.6573129727
 20
-2.9276632651
 10
4.6693221147
 20
-2.9077992533
 10
4.6826537978
 20
-2.88888852
 10
4.6971025914
 20
-2.8709403021
 10
4.7124760019
 20
-2.8539512811
 10
4.728640631
 20
-2.8378658208
 10
4.7454436272
 20
-2.822665097
 10
4.7627193575
 20
-2.8083459505
 10
4.764233228
 20
-2.8071887742
  0
LWPOLYLINE
  5
305
100
AcDbEntity
  8
RACCORDO
100
AcDbPolyline
 62
250
  6
CONTINUOUS
 90
10
 70
0
 10
9.4365758462
 20
4.134209329
 10
9.4638919515
 20
4.1694617322
 10
9.489644356
 20
4.2034559248
 10
9.5138943015
 20
4.2361695143
 10
9.5366850379
 20
4.2675731872
 10
9.5580952412
 20
4.2976553108
 10
9.5782327643
 20
4.3264231446
 10
9.5971662651
 20
4.3538691874
 10
9.6149312774
 20
4.3799698676
 10
9.6315793648
 20
4.4047110398
  0
LINE
  5
306
100
AcDbEntity
  8
RACCORDO
100
AcDbLine
 62
250
  6
CONTINUOUS
 10
9.7482651951
 20
4.1302379383
 11
9.8211932696
 21
4.2027704055
  0
LINE
  5
307
100
AcDbEntity
  8
RACCORDO
100
AcDbLine
 62
250
  6
CONTINUOUS
 10
4.6760605995
 20
-2.3638337777
 11
4.7533197184
 21
-2.3252042182
  0
LWPOLYLINE
  5
308
100
AcDbEntity
  8
RACCORDO
100
AcDbPolyline
 62
250
  6
CONTINUOUS
 90
31
 70
0
 10
3.2642724744
 20
3.655640758
 10
3.3249291498
 20
3.6259741688
 10
3.3888957166
 20
3.5960617018
 10
3.4562664201
 20
3.5659870269
 10
3.5269789992
 20
3.535902117
 10
3.6012673763
 20
3.505832668
 10
3.6796920607
 20
3.4756974194
 10
3.762368088
 20
3.4456144182
 10
3.8493830479
 20
3.4157162618
 10
3.9413000099
 20
3.3859900457
 10
4.0382261741
 20
3.3565987786
 10
4.1402539478
 20
3.3277154531
 10
4.247957399
 20
3.2993966717
 10
4.361426993
 20
3.2718567885
 10
4.4807289927
 20
3.2453225616
 10
4.6064190405
 20
3.2199334219
 10
4.7385357661
 20
3.1959657421
 10
4.8770911773
 20
3.1737079365
 10
5.0225954925
 20
3.1533920909
 10
5.1750449172
 20
3.1353589425
 10
5.3342972345
 20
3.1199744009
 10
5.5006118969
 20
3.1075837761
 10
5.674343654
 20
3.098574164
 10
5.854665378
 20
3.0934146311
 10
6.0399604366
 20
3.0925256861
 10
6.2301328019
 20
3.0962583737
 10
6.4243608402
 20
3.1049564839
 10
6.6198602945
 20
3.1187660281
 10
6.8153305716
 20
3.1377550301
 10
7.0109214204
 20
3.162101093
 10
7.2060032513
 20
3.191922983
  0
LINE
  5
309
100
AcDbEntity
  8
0
100
AcDbLine
 62
7
  6
CONTINUOUS
 10
5.1175051511
 20
-0.5351056098
 11
7.1155445774
 21
-3.5874764145
  0
LWPOLYLINE
  5
30A
100
AcDbEntity
  8
0
100
AcDbPolyline
 62
7
  6
CONTINUOUS
 90
33
 70
0
 10
7.1155445774
 20
-3.5874764145
 10
7.1362033016
 20
-3.6202920224
 10
7.1556987958
 20
-3.6537290925
 10
7.1740310599
 20
-3.6877876248
 10
7.1912456547
 20
-3.7225668664
 10
7.2072970193
 20
-3.7579675701
 10
7.2220484717
 20
-3.7936919943
 10
7.2354962101
 20
-3.8297670572
 10
7.2476440361
 20
-3.8661658406
 10
7.258366673
 20
-3.9025098481
 10
7.2676428447
 20
-3.9387661365
 10
7.2754938271
 20
-3.9749676491
 10
7.2818581712
 20
-4.0108347187
 10
7.2867275306
 20
-4.0464014491
 10
7.2901102516
 20
-4.0816337366
 10
7.2919699246
 20
-4.1161496032
 10
7.2922914134
 20
-4.1499044842
 10
7.2910898541
 20
-4.1829429443
 10
7.2883742453
 20
-4.215016699
 10
7.2841266103
 20
-4.2461526451
 10
7.2783649259
 20
-4.276323886
 10
7.271152121
 20
-4.3052014466
 10
7.2624825666
 20
-4.3327427566
 10
7.2523618918
 20
-4.3589903864
 10
7.2408699133
 20
-4.3837430729
 10
7.2279845054
 20
-4.407008779
 10
7.2137277939
 20
-4.4287795417
 10
7.1982459717
 20
-4.4488302091
 10
7.1815371518
 20
-4.4671316598
 10
7.1636032213
 20
-4.4837130153
 10
7.1445960348
 20
-4.498436488
 10
7.1245662106
 20
-4.5112561489
 10
7.1104225345
 20
-4.5188675379
  0
LWPOLYLINE
  5
30B
100
AcDbEntity
  8
RACCORDO
100
AcDbPolyline
 62
7
  6
CONTINUOUS
 90
12
 70
0
 10
4.6245887369
 20
-3.0479054675
 10
4.6245333722
 20
-3.0476200164
 10
4.6250303627
 20
-3.0500813939
 10
4.62705717
 20
-3.0556510311
 10
4.6315015396
 20
-3.0643645179
 10
4.6390499214
 20
-3.0759375326
 10
4.6501781771
 20
-3.0899324406
 10
4.6652169364
 20
-3.105895689
 10
4.6843137297
 20
-3.1233243729
 10
4.7076338574
 20
-3.1418502949
 10
4.7353507407
 20
-3.1611647055
 10
4.7589819441
 20
-3.1756762545
  0
LINE
  5
30C
100
AcDbEntity
  8
0
100
AcDbLine
 62
7
  6
CONTINUOUS
 10
4.4334657528
 20
-5.0883887568
 11
4.4348000221
 21
-5.0987050784
  0
LINE
  5
30D
100
AcDbEntity
  8
0
100
AcDbLine
 62
7
  6
CONTINUOUS
 10
4.5698215961
 20
-4.957542494
 11
4.5711558654
 21
-4.9678588156
  0
LINE
  5
30E
100
AcDbEntity
  8
DRAFT
100
AcDbLine
 62
7
  6
CONTINUOUS
 10
5.3124567025
 20
-0.0862826346
 11
5.3173937404
 21
-0.4351613151
  0
LINE
  5
30F
100
AcDbEntity
  8
RACCORDO
100
AcDbLine
 62
7
  6
CONTINUOUS
 10
5.389965474
 20
-0.2224882992
 11
5.3951606877
 21
-0.9592752446
  0
LINE
  5
310
100
AcDbEntity
  8
ASSI
100
AcDbLine
 62
7
  6
CONTINUOUS
 10
5.389965474
 20
-0.2224882992
 11
5.3951606877
 21
-0.9592752446
  0
LINE
  5
311
100
AcDbEntity
  8
RACCORDO
100
AcDbLine
 62
7
  6
CONTINUOUS
 10
5.4118861431
 20
-3.3312849298
 11
5.4223950159
 21
-4.8216567734
  0
LINE
  5
312
100
AcDbEntity
  8
ASSI
100
AcDbLine
 62
7
  6
CONTINUOUS
 10
5.4118861431
 20
-3.3312849298
 11
5.4223950159
 21
-4.8216567734
  0
LINE
  5
313
100
AcDbEntity
  8
RACCORDO
100
AcDbLine
 62
7
  6
CONTINUOUS
 10
5.425516719
 20
-5.2643777577
 11
5.4276347983
 21
-5.5647644721
  0
LINE
  5
314
100
AcDbEntity
  8
ASSI
100
AcDbLine
 62
7
  6
CONTINUOUS
 10
5.425516719
 20
-5.2643777577
 11
5.4276347983
 21
-5.5647644721
  0
LWPOLYLINE
  5
315
100
AcDbEntity
  8
RACCORDO
100
AcDbPolyline
 62
250
  6
CONTINUOUS
 90
22
 70
0
 10
9.8211932696
 20
4.2027704055
 10
9.8716980212
 20
4.2859476919
 10
9.9149241647
 20
4.3668256152
 10
9.9508717003
 20
4.4454041754
 10
9.9789184391
 20
4.5217214592
 10
9.9996865699
 20
4.59573938
 10
10.0150426593
 20
4.667343678
 10
10.0251149467
 20
4.7364577463
 10
10.0297751926
 20
4.8031581918
 10
10.0305052457
 20
4.8675605756
 10
10.0274348237
 20
4.9296178483
 10
10.0204342088
 20
4.9893770593
 10
10.0105960964
 20
5.0470949168
 10
9.9980391531
 20
5.1027454801
 10
9.9826447123
 20
5.15635469
 10
9.9651494691
 20
5.2082570769
 10
9.9456634805
 20
5.258431368
 10
9.9240766895
 20
5.3068988362
 10
9.9007956205
 20
5.3540578297
 10
9.8759557816
 20
5.4000411312
 10
9.8494216647
 20
5.444715958
 10
9.8211932696
 20
5.4880823101
  0
LWPOLYLINE
  5
316
100
AcDbEntity
  8
RACCORDO
100
AcDbPolyline
 62
250
  6
CONTINUOUS
 90
10
 70
0
 10
9.6315793648
 20
4.4047110398
 10
9.6806503597
 20
4.4835336232
 10
9.7215551056
 20
4.5605432537
 10
9.754913409
 20
4.6355158529
 10
9.7813063864
 20
4.7081410842
 10
9.8014014805
 20
4.7783665508
 10
9.815862688
 20
4.8464019455
 10
9.8252068214
 20
4.9121324346
 10
9.829939966
 20
4.9754624325
 10
9.8305827249
 20
5.0349908581
  0
LINE
  5
317
100
AcDbEntity
  8
0
100
AcDbLine
 62
7
  6
CONTINUOUS
 10
1.1049983682
 20
-6.6899541079
 11
0.9686425249
 21
-6.8208003707
  0
LINE
  5
318
100
AcDbEntity
  8
0
100
AcDbLine
 62
7
  6
CONTINUOUS
 10
1.1063326375
 20
-6.7002704295
 11
0.9699767942
 21
-6.8311166923
  0
LINE
  5
319
100
AcDbEntity
  8
0
100
AcDbLine
 62
250
  6
CONTINUOUS
 10
2.6607718559
 20
-5.8148627752
 11
2.5244160126
 21
-5.945709038
  0
LINE
  5
31A
100
AcDbEntity
  8
RACCORDO
100
AcDbLine
 62
250
  6
CONTINUOUS
 10
0.7320788616
 20
-6.6692770245
 11
1.2729138554
 21
-6.3988595276
  0
LINE
  5
31B
100
AcDbEntity
  8
RACCORDO
100
AcDbLine
 62
250
  6
CONTINUOUS
 10
4.1969020894
 20
-4.9368654106
 11
4.7377370832
 21
-4.6664479137
  0
LINE
  5
31C
100
AcDbEntity
  8
0
100
AcDbLine
 62
250
  6
CONTINUOUS
 10
7.1155445774
 20
-3.5874764145
 11
6.1255950837
 21
-4.0824511613
  0
LINE
  5
31D
100
AcDbEntity
  8
0
100
AcDbLine
 62
250
  6
CONTINUOUS
 10
3.6507213496
 20
-5.3198880284
 11
2.6607718559
 21
-5.8148627752
  0
LWPOLYLINE
  5
31E
100
AcDbEntity
  8
0
100
AcDbPolyline
 62
7
  6
CONTINUOUS
 90
13
 70
0
 10
5.3315430883
 20
-4.8594927432
 10
5.2942483196
 20
-4.873448549
 10
5.2557548504
 20
-4.8840782558
 10
5.2163129961
 20
-4.8913656577
 10
5.1761897153
 20
-4.8953345624
 10
5.1356476177
 20
-4.8960487245
 10
5.0949412001
 20
-4.8936050795
 10
5.0543445561
 20
-4.8881370306
 10
5.0141304773
 20
-4.879813861
 10
4.9745499239
 20
-4.8688299374
 10
4.9358595624
 20
-4.8554127592
 10
4.898317668
 20
-4.8398253733
 10
4.8621635436
 20
-4.8223549764
  0
LINE
  5
31F
100
AcDbEntity
  8
0
100
AcDbLine
 62
7
  6
CONTINUOUS
 10
6.0881775693
 20
-4.5692668992
 11
5.6656322981
 21
-4.7203587744
  0
LWPOLYLINE
  5
320
100
AcDbEntity
  8
0
100
AcDbPolyline
 62
7
  6
CONTINUOUS
 90
7
 70
0
 10
3.5842081446
 20
11.9468346688
 10
3.6047404774
 20
11.7902032382
 10
3.6659861616
 20
11.6362518147
 10
3.7668972666
 20
11.48761455
 10
3.9057471756
 20
11.3468346688
 10
4.080160128
 20
11.216320954
 10
4.2871518698
 20
11.0983065314
  0
LWPOLYLINE
  5
321
100
AcDbEntity
  8
0
100
AcDbPolyline
 62
7
  6
CONTINUOUS
 90
19
 70
0
 10
8.3842081446
 20
11.9468346688
 10
8.3636758119
 20
11.7902032382
 10
8.3024301277
 20
11.6362518147
 10
8.2015190227
 20
11.48761455
 10
8.0626691137
 20
11.3468346688
 10
7.8882561613
 20
11.216320954
 10
7.6812644195
 20
11.0983065314
 10
7.4452355743
 20
10.9948106605
 10
7.1842081446
 20
10.9076041843
 10
6.9026483823
 20
10.8381792298
 10
6.6053738529
 20
10.7877236773
 10
6.297471006
 20
10.7571008352
 10
5.9842081446
 20
10.7468346688
 10
5.6709452833
 20
10.7571008352
 10
5.3630424364
 20
10.7877236773
 10
5.065767907
 20
10.8381792298
 10
4.7842081446
 20
10.9076041843
 10
4.523180715
 20
10.9948106605
 10
4.2871518698
 20
11.0983065314
  0
LINE
  5
322
100
AcDbEntity
  8
0
100
AcDbLine
 62
7
  6
CONTINUOUS
 10
4.5698215961
 20
-4.957542494
 11
4.4334657528
 21
-5.0883887568
  0
LINE
  5
323
100
AcDbEntity
  8
0
100
AcDbLine
 62
7
  6
CONTINUOUS
 10
4.5711558654
 20
-4.9678588156
 11
4.4348000221
 21
-5.0987050784
  0
LINE
  5
324
100
AcDbEntity
  8
0
100
AcDbLine
 62
250
  6
CONTINUOUS
 10
6.1255950837
 20
-4.0824511613
 11
5.9892392404
 21
-4.2132974241
  0
LINE
  5
325
100
AcDbEntity
  8
0
100
AcDbLine
 62
7
  6
CONTINUOUS
 10
4.8526643085
 20
-4.8161211378
 11
4.5698215961
 21
-4.957542494
  0
LINE
  5
326
100
AcDbEntity
  8
0
100
AcDbLine
 62
7
  6
CONTINUOUS
 10
1.3878410807
 20
-6.5485327517
 11
1.1049983682
 21
-6.6899541079
  0
LINE
  5
327
100
AcDbEntity
  8
0
100
AcDbLine
 62
250
  6
CONTINUOUS
 10
1.1063326375
 20
-6.7002704295
 11
1.3973403158
 21
-6.5547665903
  0
LINE
  5
328
100
AcDbEntity
  8
0
100
AcDbLine
 62
250
  6
CONTINUOUS
 10
4.5711558654
 20
-4.9678588156
 11
4.8621635436
 21
-4.8223549764
  0
LINE
  5
329
100
AcDbEntity
  8
RACCORDO
100
AcDbLine
 62
250
  6
CONTINUOUS
 10
0.7420259659
 20
-7.1362431279
 11
1.0308128562
 21
-6.9918496827
  0
LINE
  5
32A
100
AcDbEntity
  8
RACCORDO
100
AcDbLine
 62
250
  6
CONTINUOUS
 10
4.2068491937
 20
-5.403831514
 11
4.495636084
 21
-5.2594380688
  0
LINE
  5
32B
100
AcDbEntity
  8
0
100
AcDbLine
 62
250
  6
CONTINUOUS
 10
1.1530126521
 20
-6.9487579613
 11
1.8667198605
 21
-6.5919043571
  0
LINE
  5
32C
100
AcDbEntity
  8
0
100
AcDbLine
 62
250
  6
CONTINUOUS
 10
4.6178358799
 20
-5.2163463474
 11
5.3315430883
 21
-4.8594927432
  0
LINE
  5
32D
100
AcDbEntity
  8
RACCORDO
100
AcDbLine
 62
7
  6
CONTINUOUS
 10
0.7471702048
 20
-7.3777390563
 11
1.1224442861
 21
-7.1901020156
  0
LINE
  5
32E
100
AcDbEntity
  8
ASSI
100
AcDbLine
 62
7
  6
CONTINUOUS
 10
0.7471702048
 20
-7.3777390563
 11
1.1224442861
 21
-7.1901020156
  0
LINE
  5
32F
100
AcDbEntity
  8
RACCORDO
100
AcDbLine
 62
7
  6
CONTINUOUS
 10
4.2119934326
 20
-5.6453274424
 11
4.5872675139
 21
-5.4576904017
  0
LINE
  5
330
100
AcDbEntity
  8
ASSI
100
AcDbLine
 62
7
  6
CONTINUOUS
 10
4.2119934326
 20
-5.6453274424
 11
4.5872675139
 21
-5.4576904017
  0
LINE
  5
331
100
AcDbEntity
  8
0
100
AcDbLine
 62
7
  6
CONTINUOUS
 10
2.6556577384
 20
-6.7462697554
 11
3.645607232
 21
-6.2512950086
  0
LINE
  5
332
100
AcDbEntity
  8
0
100
AcDbLine
 62
7
  6
CONTINUOUS
 10
6.1204809662
 20
-5.0138581415
 11
7.1104304599
 21
-4.5188833947
  0
LINE
  5
333
100
AcDbEntity
  8
RACCORDO
100
AcDbLine
 62
7
  6
CONTINUOUS
 10
5.2886658043
 20
-5.8083895469
 11
4.366969428
 21
-6.2692377351
  0
LINE
  5
334
100
AcDbEntity
  8
ASSI
100
AcDbLine
 62
7
  6
CONTINUOUS
 10
5.2886658043
 20
-5.8083895469
 11
4.366969428
 21
-6.2692377351
  0
LINE
  5
335
100
AcDbEntity
  8
RACCORDO
100
AcDbLine
 62
7
  6
CONTINUOUS
 10
1.8238425765
 20
-7.5408011608
 11
0.9021462002
 21
-8.001649349
  0
LINE
  5
336
100
AcDbEntity
  8
ASSI
100
AcDbLine
 62
7
  6
CONTINUOUS
 10
1.8238425765
 20
-7.5408011608
 11
0.9021462002
 21
-8.001649349
  0
LWPOLYLINE
  5
337
100
AcDbEntity
  8
0
100
AcDbPolyline
 62
7
  6
CONTINUOUS
 90
3
 70
0
 10
6.1204730408
 20
-5.0138422847
 10
6.1135136368
 20
-5.0171926739
 10
6.0913373007
 20
-5.0262965695
  0
LWPOLYLINE
  5
338
100
AcDbEntity
  8
0
100
AcDbPolyline
 62
7
  6
CONTINUOUS
 90
3
 70
0
 10
2.655649813
 20
-6.7462538986
 10
2.648690409
 20
-6.7496042879
 10
2.6265140729
 20
-6.7587081834
  0
LWPOLYLINE
  5
339
100
AcDbEntity
  8
0
100
AcDbPolyline
 62
7
  6
CONTINUOUS
 90
3
 70
0
 10
5.9863144573
 20
-4.7455251222
 10
5.9812873785
 20
-4.7479215706
 10
5.9696633644
 20
-4.7526376573
  0
LWPOLYLINE
  5
33A
100
AcDbEntity
  8
0
100
AcDbPolyline
 62
7
  6
CONTINUOUS
 90
3
 70
0
 10
2.5214912295
 20
-6.4779367361
 10
2.5164641507
 20
-6.4803331846
 10
2.5048401366
 20
-6.4850492712
  0
LINE
  5
33B
100
AcDbEntity
  8
0
100
AcDbLine
 62
7
  6
CONTINUOUS
 10
5.6656322981
 20
-4.7203587744
 11
5.3315430883
 21
-4.8594927432
  0
LINE
  5
33C
100
AcDbEntity
  8
0
100
AcDbLine
 62
7
  6
CONTINUOUS
 10
2.2008090703
 20
-6.4527703883
 11
1.8667198605
 21
-6.5919043571
  0
LWPOLYLINE
  5
33D
100
AcDbEntity
  8
0
100
AcDbPolyline
 62
7
  6
CONTINUOUS
 90
13
 70
0
 10
1.8667198605
 20
-6.5919043571
 10
1.8294250917
 20
-6.6058601629
 10
1.7909316225
 20
-6.6164898697
 10
1.7514897683
 20
-6.6237772716
 10
1.7113664874
 20
-6.6277461763
 10
1.6708243899
 20
-6.6284603385
 10
1.6301179723
 20
-6.6260166934
 10
1.5895213283
 20
-6.6205486445
 10
1.5493072495
 20
-6.6122254749
 10
1.5097266961
 20
-6.6012415513
 10
1.4710363346
 20
-6.5878243731
 10
1.4334944401
 20
-6.5722369872
 10
1.3973403158
 20
-6.5547665903
  0
LINE
  5
33E
100
AcDbEntity
  8
0
100
AcDbLine
 62
7
  6
CONTINUOUS
 10
5.9696633644
 20
-4.7526376573
 11
4.6756828044
 21
-5.2153335212
  0
LINE
  5
33F
100
AcDbEntity
  8
0
100
AcDbLine
 62
7
  6
CONTINUOUS
 10
6.0913373007
 20
-5.0262965695
 11
4.7973567407
 21
-5.4889924334
  0
LINE
  5
340
100
AcDbEntity
  8
0
100
AcDbLine
 62
7
  6
CONTINUOUS
 10
2.6233543415
 20
-6.3016785131
 11
2.2008090703
 21
-6.4527703883
  0
LINE
  5
341
100
AcDbEntity
  8
0
100
AcDbLine
 62
7
  6
CONTINUOUS
 10
2.5048401366
 20
-6.4850492712
 11
1.2108595766
 21
-6.9477451351
  0
LINE
  5
342
100
AcDbEntity
  8
0
100
AcDbLine
 62
7
  6
CONTINUOUS
 10
2.6265140729
 20
-6.7587081834
 11
1.3325335129
 21
-7.2214040473
  0
LWPOLYLINE
  5
343
100
AcDbEntity
  8
RACCORDO
100
AcDbPolyline
 62
250
  6
CONTINUOUS
 90
13
 70
0
 10
9.8211932696
 20
4.2027704055
 10
9.7967131325
 20
4.2083197056
 10
9.7726426797
 20
4.2166743784
 10
9.7493846774
 20
4.2276946057
 10
9.727328296
 20
4.2411959665
 10
9.7068425873
 20
4.2569525294
 10
9.6882703128
 20
4.2747006381
 10
9.6719222262
 20
4.2941433061
 10
9.6580718584
 20
4.3149552001
 10
9.6469509385
 20
4.3367880955
 10
9.6387455366
 20
4.3592766767
 10
9.6335929434
 20
4.3820446462
 10
9.6315793648
 20
4.4047110397
  0
LINE
  5
344
100
AcDbEntity
  8
0
100
AcDbLine
 62
7
  6
CONTINUOUS
 10
8.3842081446
 20
11.9468346688
 11
8.3842081446
 21
10.8156151423
  0
LWPOLYLINE
  5
345
100
AcDbEntity
  8
RACCORDO
100
AcDbPolyline
 62
250
  6
CONTINUOUS
 90
10
 70
0
 10
9.5667689415
 20
3.9553746388
 10
9.5438733898
 20
3.9693906005
 10
9.5222961806
 20
3.9856673976
 10
9.5024316045
 20
4.0039075965
 10
9.4846426566
 20
4.0237778855
 10
9.4692544031
 20
4.0449151655
 10
9.4565480409
 20
4.066933185
 10
9.4467557596
 20
4.0894295985
 10
9.4400564984
 20
4.1119933185
 10
9.4365726761
 20
4.1342120273
  0
LWPOLYLINE
  5
346
100
AcDbEntity
  8
RACCORDO
100
AcDbPolyline
 62
250
  6
CONTINUOUS
 90
13
 70
0
 10
7.7209352331
 20
3.032459806
 10
7.7468537782
 20
3.0058684239
 10
7.7715366938
 20
2.9767997639
 10
7.794738175
 20
2.9455425332
 10
7.8162272141
 20
2.9124070915
 10
7.8357894817
 20
2.8777230064
 10
7.8532295966
 20
2.8418358721
 10
7.8683735726
 20
2.8051030669
 10
7.8810705305
 20
2.7678897748
 10
7.8911938007
 20
2.7305660386
 10
7.8986422019
 20
2.6935033245
 10
7.9033411313
 20
2.6570708314
 10
7.9052433714
 20
2.6216314684
  0
LWPOLYLINE
  5
347
100
AcDbEntity
  8
RACCORDO
100
AcDbPolyline
 62
250
  6
CONTINUOUS
 90
13
 70
0
 10
7.2695200493
 20
2.9269337953
 10
7.2613197922
 20
2.9406228284
 10
7.253256748
 20
2.9569809952
 10
7.2454658332
 20
2.9757345787
 10
7.2380774108
 20
2.99656978
 10
7.2312151091
 20
3.0191379695
 10
7.2249937525
 20
3.0430615195
 10
7.219517441
 20
3.0679401241
 10
7.2148778077
 20
3.0933574974
 10
7.2111524857
 20
3.1188883383
 10
7.2084038094
 20
3.1441054476
 10
7.2066777711
 20
3.1685868757
 10
7.2060032517
 20
3.1919229831
  0
LWPOLYLINE
  5
348
100
AcDbEntity
  8
RACCORDO
100
AcDbPolyline
 62
250
  6
CONTINUOUS
 90
10
 70
0
 10
7.7209167124
 20
3.0324648489
 10
7.7111328691
 20
3.053035714
 10
7.7024276627
 20
3.0757468575
 10
7.6949601361
 20
3.100183352
 10
7.6888667203
 20
3.1258987483
 10
7.6842587414
 20
3.1524232318
 10
7.681220387
 20
3.1792722063
 10
7.6798071682
 20
3.205955147
 10
7.6800449048
 20
3.2319845627
 10
7.6819292546
 20
3.2568849017
  0
LWPOLYLINE
  5
349
100
AcDbEntity
  8
DRAFT
100
AcDbPolyline
 62
7
  6
CONTINUOUS
 90
14
 70
0
 10
9.0565068461
 20
11.7813695122
 10
9.05328887
 20
11.8442704345
 10
9.0386494604
 20
11.9385904799
 10
9.0123905565
 20
12.0327578644
 10
8.9748521792
 20
12.1255050187
 10
8.925948726
 20
12.2166984966
 10
8.8657657995
 20
12.3064717444
 10
8.794900228
 20
12.3939575312
 10
8.7131765383
 20
12.4792089477
 10
8.6207702036
 20
12.5621729033
 10
8.5188044718
 20
12.6418228952
 10
8.4076537589
 20
12.7178167559
 10
8.2869436488
 20
12.7904966531
 10
8.1566741416
 20
12.8598625866
  0
LWPOLYLINE
  5
34A
100
AcDbEntity
  8
ASSI
100
AcDbPolyline
 62
7
  6
CONTINUOUS
 90
15
 70
0
 10
-4.8208042345
 20
-13.7299823168
 10
-4.7129465851
 20
-13.666895493
 10
-4.6777802753
 20
-13.6468015511
 10
-4.6438567588
 20
-13.62811145
 10
-4.610923607
 20
-13.6107626874
 10
-4.5799724569
 20
-13.5953563894
 10
-4.5511178797
 20
-13.5819687221
 10
-4.5242864367
 20
-13.5704619527
 10
-4.5002355436
 20
-13.5610429203
 10
-4.4791032238
 20
-13.5536337312
 10
-4.4609900353
 20
-13.5479277679
 10
-4.4465884169
 20
-13.5437901456
 10
-4.4364082512
 20
-13.5412098563
 10
-4.4301849103
 20
-13.539710222
 10
-4.4276669971
 20
-13.5388621269
  0
LWPOLYLINE
  5
34B
100
AcDbEntity
  8
ASSI
100
AcDbPolyline
 62
7
  6
CONTINUOUS
 90
15
 70
0
 10
-3.5480120284
 20
-13.0935862137
 10
-3.4401543789
 20
-13.0304993899
 10
-3.4049880692
 20
-13.010405448
 10
-3.3710645526
 20
-12.9917153469
 10
-3.3381314008
 20
-12.9743665843
 10
-3.3071802508
 20
-12.9589602863
 10
-3.2783256736
 20
-12.945572619
 10
-3.2514942306
 20
-12.9340658496
 10
-3.2274433375
 20
-12.9246468173
 10
-3.2063110177
 20
-12.9172376281
 10
-3.1881978291
 20
-12.9115316648
 10
-3.1737962108
 20
-12.9073940425
 10
-3.1636160451
 20
-12.9048137532
 10
-3.1573927042
 20
-12.9033141189
 10
-3.154874791
 20
-12.9024660238
  0
LWPOLYLINE
  5
34C
100
AcDbEntity
  8
ASSI
100
AcDbPolyline
 62
7
  6
CONTINUOUS
 90
15
 70
0
 10
-2.2752198222
 20
-12.4571901106
 10
-2.1673621728
 20
-12.3941032868
 10
-2.1321958631
 20
-12.3740093449
 10
-2.0982723465
 20
-12.3553192438
 10
-2.0653391947
 20
-12.3379704813
 10
-2.0343880446
 20
-12.3225641832
 10
-2.0055334674
 20
-12.309176516
 10
-1.9787020244
 20
-12.2976697466
 10
-1.9546511314
 20
-12.2882507142
 10
-1.9335188115
 20
-12.280841525
 10
-1.915405623
 20
-12.2751355618
 10
-1.9010040047
 20
-12.2709979395
 10
-1.890823839
 20
-12.2684176501
 10
-1.884600498
 20
-12.2669180158
 10
-1.8820825849
 20
-12.2660699208
  0
LWPOLYLINE
  5
34D
100
AcDbEntity
  8
RACCORDO
100
AcDbPolyline
 62
7
  6
CONTINUOUS
 90
10
 70
0
 10
11.7188441401
 20
-4.8770571753
 10
11.7664678849
 20
-4.8509574546
 10
11.8088455591
 20
-4.8233437585
 10
11.8459771628
 20
-4.7942160869
 10
11.8780641992
 20
-4.763331555
 10
11.9049051651
 20
-4.7309330476
 10
11.9258955506
 20
-4.6977492192
 10
11.9409031527
 20
-4.663761181
 10
11.9500601744
 20
-4.6289878219
 10
11.9531587151
 20
-4.5942144628
  0
LWPOLYLINE
  5
34E
100
AcDbEntity
  8
ASSI
100
AcDbPolyline
 62
7
  6
CONTINUOUS
 90
10
 70
0
 10
11.7188441401
 20
-4.8770571753
 10
11.7664678849
 20
-4.8509574546
 10
11.8088455591
 20
-4.8233437585
 10
11.8459771628
 20
-4.7942160869
 10
11.8780641992
 20
-4.763331555
 10
11.9049051651
 20
-4.7309330476
 10
11.9258955506
 20
-4.6977492192
 10
11.9409031527
 20
-4.663761181
 10
11.9500601744
 20
-4.6289878219
 10
11.9531587151
 20
-4.5942144628
  0
LWPOLYLINE
  5
34F
100
AcDbEntity
  8
ASSI
100
AcDbPolyline
 62
250
  6
CONTINUOUS
 90
7
 70
0
 10
-5.1767247898
 20
-13.9133910173
 10
-5.1715707468
 20
-13.9107499181
 10
-5.1350973251
 20
-13.8881676383
 10
-5.1016586273
 20
-13.8603075363
 10
-5.071518202
 20
-13.8273818078
 10
-5.0449145475
 20
-13.7896479276
 10
-5.0220523769
 20
-13.7473973342
  0
LWPOLYLINE
  5
350
100
AcDbEntity
  8
RACCORDO
100
AcDbPolyline
 62
250
  6
CONTINUOUS
 90
12
 70
0
 10
-5.1767904445
 20
-13.9134238547
 10
-5.1715707468
 20
-13.9107499181
 10
-5.1350973251
 20
-13.8881676383
 10
-5.1016586273
 20
-13.8603075363
 10
-5.071518202
 20
-13.8273818078
 10
-5.0449145475
 20
-13.7896479276
 10
-5.0220523769
 20
-13.7473973342
 10
-5.003104224
 20
-13.7009501356
 10
-4.9882150366
 20
-13.650662055
 10
-4.9774983309
 20
-13.5969176954
 10
-4.971035585
 20
-13.5401273434
 10
-4.9688758959
 20
-13.4807248144
  0
LINE
  5
351
100
AcDbEntity
  8
RACCORDO
100
AcDbLine
 62
7
  6
CONTINUOUS
 10
-4.9688758959
 20
-13.2209171933
 11
11.7188441401
 21
-4.8770571753
  0
LINE
  5
352
100
AcDbEntity
  8
ASSI
100
AcDbLine
 62
7
  6
CONTINUOUS
 10
-4.9688758959
 20
-13.2209171933
 11
11.7188441401
 21
-4.8770571753
  0
LINE
  5
353
100
AcDbEntity
  8
RACCORDO
100
AcDbLine
 62
250
  6
CONTINUOUS
 10
11.7188441401
 20
-5.1368647964
 11
-4.9688758959
 21
-13.4807248144
  0
LINE
  5
354
100
AcDbEntity
  8
ASSI
100
AcDbLine
 62
250
  6
CONTINUOUS
 10
11.7188441401
 20
-5.1368647964
 11
-4.9688758959
 21
-13.4807248144
  0
LINE
  5
355
100
AcDbEntity
  8
RACCORDO
100
AcDbLine
 62
250
  6
CONTINUOUS
 10
10.8237055401
 20
4.9868261749
 11
9.8211932696
 21
5.4880823101
  0
LINE
  5
356
100
AcDbEntity
  8
RACCORDO
100
AcDbLine
 62
7
  6
CONTINUOUS
 10
11.0025909781
 20
4.9981868899
 11
9.8194001283
 21
5.5897823148
  0
LWPOLYLINE
  5
357
100
AcDbEntity
  8
RACCORDO
100
AcDbPolyline
 62
250
  6
CONTINUOUS
 90
16
 70
0
 10
10.8237055401
 20
4.7040265407
 10
10.8529428968
 20
4.687552148
 10
10.8818670727
 20
4.6675427772
 10
10.9101681697
 20
4.6442127851
 10
10.9375429634
 20
4.6178121072
 10
10.9636981475
 20
4.5886235842
 10
10.9883534771
 20
4.5569599335
 10
11.0112447801
 20
4.5231603892
 10
11.0321267781
 20
4.4875870783
 10
11.050775714
 20
4.450621148
 10
11.0669917641
 20
4.4126586562
 10
11.0806011676
 20
4.3741063463
 10
11.0914580872
 20
4.3353773041
 10
11.0994461845
 20
4.2968864981
 10
11.1044798615
 20
4.2590463331
 10
11.1065051728
 20
4.2222622523
  0
LWPOLYLINE
  5
358
100
AcDbEntity
  8
RACCORDO
100
AcDbPolyline
 62
250
  6
CONTINUOUS
 90
13
 70
0
 10
9.5667689015
 20
3.9553745278
 10
9.5926938444
 20
3.9287777594
 10
9.6173814834
 20
3.8997035746
 10
9.6405860205
 20
3.868441068
 10
9.6620765979
 20
3.8353007964
 10
9.6816388995
 20
3.8006127478
 10
9.6990775016
 20
3.7647232116
 10
9.7142186842
 20
3.727989802
 10
9.7269119491
 20
3.6907777429
 10
9.7370309669
 20
3.6534573912
 10
9.7444750222
 20
3.6164001901
 10
9.74917002
 20
3.5799749732
 10
9.7510692283
 20
3.5445442801
  0
LWPOLYLINE
  5
359
100
AcDbEntity
  8
RACCORDO
100
AcDbPolyline
 62
7
  6
CONTINUOUS
 90
16
 70
0
 10
9.6978091211
 20
11.622160556
 10
9.6909901303
 20
11.7235527315
 10
9.6744587348
 20
11.8254170678
 10
9.6480196976
 20
11.9273805893
 10
9.6115022075
 20
12.0291015561
 10
9.564783829
 20
12.1301979196
 10
9.5077912969
 20
12.230286383
 10
9.4402731592
 20
12.3293011352
 10
9.3622752151
 20
12.4267278692
 10
9.2743979354
 20
12.5216224933
 10
9.1768398141
 20
12.6137364513
 10
9.0697089338
 20
12.7029216474
 10
8.9538619294
 20
12.7884939133
 10
8.8298897369
 20
12.8701465971
 10
8.697919827
 20
12.9479053873
 10
8.5582968334
 20
13.0216329303
  0
LINE
  5
35A
100
AcDbEntity
  8
DRAFT
100
AcDbLine
 62
7
  6
CONTINUOUS
 10
9.8305827249
 20
5.0349908558
 11
9.697809121
 21
11.6221605562
  0
LWPOLYLINE
  5
35B
100
AcDbEntity
  8
RACCORDO
100
AcDbPolyline
 62
250
  6
CONTINUOUS
 90
11
 70
0
 10
11.5167742973
 20
-5.5665610335
 10
11.5531587151
 20
-5.5439200325
 10
11.5864988915
 20
-5.5160284915
 10
11.6165410874
 20
-5.483098682
 10
11.6430566637
 20
-5.4453812197
 10
11.6658438208
 20
-5.4031631574
 10
11.6847291346
 20
-5.3567657999
 10
11.6995688766
 20
-5.3065422591
 10
11.7102501074
 20
-5.2528747666
 10
11.7166915362
 20
-5.1961717644
 10
11.7188441401
 20
-5.1368647964
  0
LWPOLYLINE
  5
35C
100
AcDbEntity
  8
ASSI
100
AcDbPolyline
 62
250
  6
CONTINUOUS
 90
11
 70
0
 10
11.5167742973
 20
-5.5665610335
 10
11.5531587151
 20
-5.5439200325
 10
11.5864988915
 20
-5.5160284915
 10
11.6165410874
 20
-5.483098682
 10
11.6430566637
 20
-5.4453812197
 10
11.6658438208
 20
-5.4031631574
 10
11.6847291346
 20
-5.3567657999
 10
11.6995688766
 20
-5.3065422591
 10
11.7102501074
 20
-5.2528747666
 10
11.7166915362
 20
-5.1961717644
 10
11.7188441401
 20
-5.1368647964
  0
LWPOLYLINE
  5
35D
100
AcDbEntity
  8
ASSI
100
AcDbPolyline
 62
7
  6
CONTINUOUS
 90
15
 70
0
 10
8.3313818956
 20
-7.1538892517
 10
8.439239545
 20
-7.0908024279
 10
8.4744058547
 20
-7.070708486
 10
8.5083293713
 20
-7.0520183849
 10
8.5412625231
 20
-7.0346696224
 10
8.5722136732
 20
-7.0192633243
 10
8.6010682504
 20
-7.0058756571
 10
8.6278996934
 20
-6.9943688877
 10
8.6519505864
 20
-6.9849498553
 10
8.6730829063
 20
-6.9775406661
 10
8.6911960948
 20
-6.9718347029
 10
8.7055977131
 20
-6.9676970806
 10
8.7157778788
 20
-6.9651167912
 10
8.7220012198
 20
-6.9636171569
 10
8.7245191329
 20
-6.9627690619
  0
LWPOLYLINE
  5
35E
100
AcDbEntity
  8
ASSI
100
AcDbPolyline
 62
7
  6
CONTINUOUS
 90
15
 70
0
 10
9.6041741017
 20
-6.5174931487
 10
9.7120317511
 20
-6.4544063249
 10
9.7471980609
 20
-6.434312383
 10
9.7811215774
 20
-6.4156222819
 10
9.8140547292
 20
-6.3982735193
 10
9.8450058793
 20
-6.3828672213
 10
9.8738604565
 20
-6.369479554
 10
9.9006918995
 20
-6.3579727846
 10
9.9247427926
 20
-6.3485537522
 10
9.9458751124
 20
-6.3411445631
 10
9.963988301
 20
-6.3354385998
 10
9.9783899193
 20
-6.3313009775
 10
9.988570085
 20
-6.3287206882
 10
9.9947934259
 20
-6.3272210538
 10
9.9973113391
 20
-6.3263729588
  0
LWPOLYLINE
  5
35F
100
AcDbEntity
  8
ASSI
100
AcDbPolyline
 62
7
  6
CONTINUOUS
 90
15
 70
0
 10
10.9610574563
 20
-5.8318240953
 10
10.9957687638
 20
-5.811678274
 10
11.0296948638
 20
-5.7925188011
 10
11.0629946439
 20
-5.7743618067
 10
11.0945198793
 20
-5.7579558979
 10
11.1240740533
 20
-5.7434713972
 10
11.1518660087
 20
-5.7307563897
 10
11.1773137178
 20
-5.7200122696
 10
11.2004019916
 20
-5.7111434833
 10
11.2209707288
 20
-5.703972009
 10
11.2382012129
 20
-5.6985381284
 10
11.251682543
 20
-5.6948063551
 10
11.2615639387
 20
-5.6923354648
 10
11.2679438182
 20
-5.6906648931
 10
11.2703888244
 20
-5.6898342085
  0
LWPOLYLINE
  5
360
100
AcDbEntity
  8
RACCORDO
100
AcDbPolyline
 62
250
  6
CONTINUOUS
 90
10
 70
0
 10
11.7188441401
 20
-5.1368647964
 10
11.7659942696
 20
-5.1111371278
 10
11.8084803506
 20
-5.0834526585
 10
11.8459790382
 20
-5.0540220839
 10
11.8782049448
 20
-5.0230693886
 10
11.9049128118
 20
-4.9908301413
 10
11.9258993762
 20
-4.957549702
 10
11.9410049175
 20
-4.923481355
 10
11.9501144736
 20
-4.888884381
 10
11.9531587116
 20
-4.8540595669
  0
LWPOLYLINE
  5
361
100
AcDbEntity
  8
ASSI
100
AcDbPolyline
 62
250
  6
CONTINUOUS
 90
10
 70
0
 10
11.7188441401
 20
-5.1368647964
 10
11.7659942696
 20
-5.1111371278
 10
11.8084803506
 20
-5.0834526585
 10
11.8459790382
 20
-5.0540220839
 10
11.8782049448
 20
-5.0230693886
 10
11.9049128118
 20
-4.9908301413
 10
11.9258993762
 20
-4.957549702
 10
11.9410049175
 20
-4.923481355
 10
11.9501144736
 20
-4.888884381
 10
11.9531587151
 20
-4.8540220839
  0
LWPOLYLINE
  5
362
100
AcDbEntity
  8
ASSI
100
AcDbPolyline
 62
7
  6
CONTINUOUS
 90
6
 70
0
 10
10.7616662684
 20
-5.9441954886
 10
10.7897735181
 20
-5.9297450132
 10
10.8224107042
 20
-5.9121071658
 10
10.8563076654
 20
-5.8930012997
 10
10.8905882469
 20
-5.8731631599
 10
10.9610574563
 20
-5.8318240953
  0
LINE
  5
363
100
AcDbEntity
  8
RACCORDO
100
AcDbLine
 62
250
  6
CONTINUOUS
 10
11.5109295915
 20
-5.5695638367
 11
11.5167742973
 21
-5.5665610335
  0
LINE
  5
364
100
AcDbEntity
  8
ASSI
100
AcDbLine
 62
250
  6
CONTINUOUS
 10
11.5109295915
 20
-5.5695638367
 11
11.5167742973
 21
-5.5665610335
  0
LWPOLYLINE
  5
365
100
AcDbEntity
  8
ASSI
100
AcDbPolyline
 62
7
  6
CONTINUOUS
 90
5
 70
0
 10
-4.9360836974
 20
-13.7930704797
 10
-4.9229162046
 20
-13.7863946505
 10
-4.890403664
 20
-13.7692190685
 10
-4.8562416441
 20
-13.7503110272
 10
-4.8208042345
 20
-13.7299823168
  0
LWPOLYLINE
  5
366
100
AcDbEntity
  8
ASSI
100
AcDbPolyline
 62
7
  6
CONTINUOUS
 90
5
 70
0
 10
-3.6632914913
 20
-13.1566743766
 10
-3.6501239985
 20
-13.1499985474
 10
-3.6176114579
 20
-13.1328229654
 10
-3.583449438
 20
-13.1139149241
 10
-3.5480120284
 20
-13.0935862137
  0
LWPOLYLINE
  5
367
100
AcDbEntity
  8
ASSI
100
AcDbPolyline
 62
7
  6
CONTINUOUS
 90
5
 70
0
 10
-2.3904992851
 20
-12.5202782736
 10
-2.3773317923
 20
-12.5136024444
 10
-2.3448192517
 20
-12.4964268623
 10
-2.3106572319
 20
-12.477518821
 10
-2.2752198222
 20
-12.4571901106
  0
LWPOLYLINE
  5
368
100
AcDbEntity
  8
ASSI
100
AcDbPolyline
 62
7
  6
CONTINUOUS
 90
5
 70
0
 10
8.2161024327
 20
-7.2169774147
 10
8.2292699255
 20
-7.2103015855
 10
8.2617824661
 20
-7.1931260034
 10
8.2959444859
 20
-7.1742179621
 10
8.3313818956
 20
-7.1538892517
  0
LWPOLYLINE
  5
369
100
AcDbEntity
  8
ASSI
100
AcDbPolyline
 62
7
  6
CONTINUOUS
 90
5
 70
0
 10
9.4888946388
 20
-6.5805813116
 10
9.5020621316
 20
-6.5739054824
 10
9.5345746722
 20
-6.5567299004
 10
9.5687366921
 20
-6.5378218591
 10
9.6041741017
 20
-6.5174931487
  0
LINE
  5
36A
100
AcDbEntity
  8
ASSI
100
AcDbLine
 62
250
  6
CONTINUOUS
 10
-5.1767904445
 20
-13.9134238547
 11
-5.1767247898
 21
-13.9133910173
  0
LINE
  5
36B
100
AcDbEntity
  8
RACCORDO
100
AcDbLine
 62
7
  6
CONTINUOUS
 10
11.5109295915
 20
-5.5695638367
 11
11.2702087904
 21
-5.6899242373
  0
LINE
  5
36C
100
AcDbEntity
  8
ASSI
100
AcDbLine
 62
7
  6
CONTINUOUS
 10
11.5109295915
 20
-5.5695638367
 11
11.2702087904
 21
-5.6899242373
  0
LINE
  5
36D
100
AcDbEntity
  8
RACCORDO
100
AcDbLine
 62
7
  6
CONTINUOUS
 10
10.7617008989
 20
-5.944178183
 11
9.9974165843
 21
-6.3263203404
  0
LINE
  5
36E
100
AcDbEntity
  8
ASSI
100
AcDbLine
 62
7
  6
CONTINUOUS
 10
10.7617008989
 20
-5.944178183
 11
9.9974165843
 21
-6.3263203404
  0
LINE
  5
36F
100
AcDbEntity
  8
RACCORDO
100
AcDbLine
 62
7
  6
CONTINUOUS
 10
9.4889086928
 20
-6.5805742861
 11
8.7246243782
 21
-6.9627164434
  0
LINE
  5
370
100
AcDbEntity
  8
ASSI
100
AcDbLine
 62
7
  6
CONTINUOUS
 10
9.4889086928
 20
-6.5805742861
 11
8.7246243782
 21
-6.9627164434
  0
LINE
  5
371
100
AcDbEntity
  8
RACCORDO
100
AcDbLine
 62
7
  6
CONTINUOUS
 10
8.2161164867
 20
-7.2169703892
 11
-1.8819773396
 21
-12.2660173023
  0
LINE
  5
372
100
AcDbEntity
  8
ASSI
100
AcDbLine
 62
7
  6
CONTINUOUS
 10
8.2161164867
 20
-7.2169703892
 11
-1.8819773396
 21
-12.2660173023
  0
LINE
  5
373
100
AcDbEntity
  8
RACCORDO
100
AcDbLine
 62
7
  6
CONTINUOUS
 10
-2.3904852311
 20
-12.5202712481
 11
-3.1547695458
 21
-12.9024134054
  0
LINE
  5
374
100
AcDbEntity
  8
ASSI
100
AcDbLine
 62
7
  6
CONTINUOUS
 10
-2.3904852311
 20
-12.5202712481
 11
-3.1547695458
 21
-12.9024134054
  0
LINE
  5
375
100
AcDbEntity
  8
RACCORDO
100
AcDbLine
 62
7
  6
CONTINUOUS
 10
-3.6632774373
 20
-13.1566673511
 11
-4.4275617519
 21
-13.5388095085
  0
LINE
  5
376
100
AcDbEntity
  8
ASSI
100
AcDbLine
 62
7
  6
CONTINUOUS
 10
-3.6632774373
 20
-13.1566673511
 11
-4.4275617519
 21
-13.5388095085
  0
LINE
  5
377
100
AcDbEntity
  8
RACCORDO
100
AcDbLine
 62
7
  6
CONTINUOUS
 10
-4.9360696434
 20
-13.7930634542
 11
-5.1767904445
 21
-13.9134238547
  0
LINE
  5
378
100
AcDbEntity
  8
ASSI
100
AcDbLine
 62
7
  6
CONTINUOUS
 10
-4.9360696434
 20
-13.7930634542
 11
-5.1767904445
 21
-13.9134238547
  0
LWPOLYLINE
  5
379
100
AcDbEntity
  8
RACCORDO
100
AcDbPolyline
 62
250
  6
CONTINUOUS
 90
57
 70
0
 10
3.3581623579
 20
10.2904244594
 10
3.4124982678
 20
10.2638073581
 10
3.4688320733
 20
10.2373291137
 10
3.5271927846
 20
10.2110296288
 10
3.5874033019
 20
10.1850363148
 10
3.6496849711
 20
10.1593010231
 10
3.7146944921
 20
10.1336224731
 10
3.7824986395
 20
10.1080621029
 10
3.8531329888
 20
10.0826949394
 10
3.9272662459
 20
10.0573859893
 10
4.0049704644
 20
10.0322335595
 10
4.0863100922
 20
10.0073414736
 10
4.1719945429
 20
9.9826362298
 10
4.2621062423
 20
9.9582575492
 10
4.3567142557
 20
9.9343535446
 10
4.4565518321
 20
9.9109271085
 10
4.561695415
 20
9.8881711032
 10
4.672199646
 20
9.8662897167
 10
4.7887942175
 20
9.8453789205
 10
4.9115212696
 20
9.8256976675
 10
5.0403892808
 20
9.8075187033
 10
5.1760820526
 20
9.7910480369
 10
5.3186233787
 20
9.7766174608
 10
5.4678653651
 20
9.7645874459
 10
5.6241971722
 20
9.7552979411
 10
5.7877617508
 20
9.7491522233
 10
5.9579736614
 20
9.7465989037
 10
6.134035386
 20
9.7480643261
 10
6.3156660811
 20
9.7539630633
 10
6.502243746
 20
9.764706477
 10
6.6923510147
 20
9.7806221692
 10
6.8857213987
 20
9.8020932243
 10
7.0812520236
 20
9.8294175004
 10
7.276256992
 20
9.8625537086
 10
7.4702596842
 20
9.9016920995
 10
7.6621666483
 20
9.9468930823
 10
7.8486071713
 20
9.9975014315
 10
8.0283555472
 20
10.0531494517
 10
8.2014872215
 20
10.1138243788
 10
8.3668950539
 20
10.1791022392
 10
8.5236140697
 20
10.2484888236
 10
8.6717814661
 20
10.3219265221
 10
8.8119017177
 20
10.3996635298
 10
8.9438317391
 20
10.4817453998
 10
9.0666174842
 20
10.5677126424
 10
9.179490454
 20
10.6570853908
 10
9.282420394
 20
10.7499210154
 10
9.3746235543
 20
10.8456023463
 10
9.4547650428
 20
10.9424882617
 10
9.5229390665
 20
11.0400610883
 10
9.5794671369
 20
11.1380588972
 10
9.6241954993
 20
11.2350980111
 10
9.6576933522
 20
11.3306198722
 10
9.6807098962
 20
11.424486658
 10
9.6938722298
 20
11.5159469111
 10
9.697996897
 20
11.6046770726
 10
9.6978091207
 20
11.6221605719
  0
LWPOLYLINE
  5
37A
100
AcDbEntity
  8
RACCORDO
100
AcDbPolyline
 62
7
  6
CONTINUOUS
 90
10
 70
0
 10
11.9531587151
 20
-4.5942144628
 10
11.9500601744
 20
-4.5594411037
 10
11.9409031527
 20
-4.5246677446
 10
11.9258955506
 20
-4.4906797064
 10
11.9049051651
 20
-4.4574958781
 10
11.8780641992
 20
-4.4250973707
 10
11.8459771628
 20
-4.3942128387
 10
11.8088455591
 20
-4.3650851671
 10
11.7664678849
 20
-4.337471471
 10
11.7188441401
 20
-4.3113717503
  0
LWPOLYLINE
  5
37B
100
AcDbEntity
  8
ASSI
100
AcDbPolyline
 62
7
  6
CONTINUOUS
 90
10
 70
0
 10
11.9531587151
 20
-4.5942144628
 10
11.9500601744
 20
-4.5594411037
 10
11.9409031527
 20
-4.5246677446
 10
11.9258955506
 20
-4.4906797064
 10
11.9049051651
 20
-4.4574958781
 10
11.8780641992
 20
-4.4250973707
 10
11.8459771628
 20
-4.3942128387
 10
11.8088455591
 20
-4.3650851671
 10
11.7664678849
 20
-4.337471471
 10
11.7188441401
 20
-4.3113717503
  0
LWPOLYLINE
  5
37C
100
AcDbEntity
  8
RACCORDO
100
AcDbPolyline
 62
7
  6
CONTINUOUS
 90
13
 70
0
 10
11.3406532615
 20
4.513045038
 10
11.338044853
 20
4.5519331477
 10
11.3300727374
 20
4.602374598
 10
11.3168976122
 20
4.6522052423
 10
11.2986503555
 20
4.7007424674
 10
11.275423024
 20
4.7476812456
 10
11.2470425132
 20
4.7930964475
 10
11.2134705746
 20
4.8366362708
 10
11.1748701904
 20
4.8777852183
 10
11.1310261509
 20
4.9164730648
 10
11.0816980636
 20
4.9525040743
 10
11.0269442688
 20
4.9854635414
 10
11.0029118999
 20
4.9980214359
  0
LINE
  5
37D
100
AcDbEntity
  8
RACCORDO
100
AcDbLine
 62
250
  6
CONTINUOUS
 10
11.1065051743
 20
4.2222622531
 11
11.1461738039
 21
2.8305759161
  0
LINE
  5
37E
100
AcDbEntity
  8
RACCORDO
100
AcDbLine
 62
250
  6
CONTINUOUS
 10
11.3716285014
 20
-5.0506649946
 11
11.1469932765
 21
2.8301661798
  0
LINE
  5
37F
100
AcDbEntity
  8
ASSI
100
AcDbLine
 62
250
  6
CONTINUOUS
 10
11.3716285014
 20
-5.0506649946
 11
11.1469932765
 21
2.8301661798
  0
LINE
  5
380
100
AcDbEntity
  8
RACCORDO
100
AcDbLine
 62
7
  6
CONTINUOUS
 10
11.3406524257
 20
4.5132625849
 11
11.3803923785
 21
3.1190740361
  0
LINE
  5
381
100
AcDbEntity
  8
RACCORDO
100
AcDbLine
 62
7
  6
CONTINUOUS
 10
11.6058470759
 20
-4.7621668746
 11
11.381211851
 21
3.1186642998
  0
LINE
  5
382
100
AcDbEntity
  8
ASSI
100
AcDbLine
 62
7
  6
CONTINUOUS
 10
11.6058470759
 20
-4.7621668746
 11
11.381211851
 21
3.1186642998
  0
LINE
  5
383
100
AcDbEntity
  8
RACCORDO
100
AcDbLine
 62
250
  6
CONTINUOUS
 10
11.7188441401
 20
-5.1368647964
 11
11.7188441401
 21
-4.8770571753
  0
LINE
  5
384
100
AcDbEntity
  8
ASSI
100
AcDbLine
 62
250
  6
CONTINUOUS
 10
11.7188441401
 20
-5.1368647964
 11
11.7188441401
 21
-4.8770571753
  0
LINE
  5
385
100
AcDbEntity
  8
RACCORDO
100
AcDbLine
 62
7
  6
CONTINUOUS
 10
11.9531587151
 20
-4.8540220839
 11
11.9531587151
 21
-4.5942144628
  0
LINE
  5
386
100
AcDbEntity
  8
ASSI
100
AcDbLine
 62
7
  6
CONTINUOUS
 10
11.9531587151
 20
-4.8540220839
 11
11.9531587151
 21
-4.5942144628
  0
LINE
  5
387
100
AcDbEntity
  8
RACCORDO
100
AcDbLine
 62
250
  6
CONTINUOUS
 10
11.9531587116
 20
-4.8540595669
 11
11.9531587151
 21
-4.8540220839
  0
LWPOLYLINE
  5
388
100
AcDbEntity
  8
DRAFT
100
AcDbPolyline
 62
7
  6
CONTINUOUS
 90
40
 70
0
 10
3.8117421477
 20
10.6873965896
 10
3.9504740147
 20
10.622261836
 10
4.095833809
 20
10.561906781
 10
4.2478215304
 20
10.5063314245
 10
4.4071215143
 20
10.4553485586
 10
4.5730494254
 20
10.4091453912
 10
4.7435522583
 20
10.3682835464
 10
4.918523832
 20
10.3328507606
 10
5.0980703276
 20
10.3027592974
 10
5.2804572835
 20
10.2783075708
 10
5.4659515921
 20
10.2595383822
 10
5.654286361
 20
10.2464089302
 10
5.8429264518
 20
10.2390892254
 10
6.0315764678
 20
10.2376470668
 10
6.2205318056
 20
10.2420146554
 10
6.4081435172
 20
10.2521586045
 10
6.5947384605
 20
10.2681722535
 10
6.7799897776
 20
10.289962263
 10
6.9612679467
 20
10.3172152275
 10
7.1381672285
 20
10.3499298076
 10
7.3110933622
 20
10.3881073427
 10
7.4786340434
 20
10.4314384459
 10
7.6410806986
 20
10.4800815843
 10
7.7981419011
 20
10.5338782907
 10
7.9475310676
 20
10.592043777
 10
8.088841178
 20
10.6544940343
 10
8.2224792522
 20
10.7213130714
 10
8.3473797668
 20
10.7919681266
 10
8.4637107394
 20
10.8666627098
 10
8.5713041523
 20
10.9451933111
 10
8.668590429
 20
11.0264166387
 10
8.7552526354
 20
11.1101869793
 10
8.8316077057
 20
11.1966500462
 10
8.8970368658
 20
11.2850996871
 10
8.9515427948
 20
11.3757387716
 10
8.9951228138
 20
11.4683644302
 10
9.0271501118
 20
11.5616619018
 10
9.0474380099
 20
11.6554677576
 10
9.0561731872
 20
11.7499454265
 10
9.0565068461
 20
11.7813695122
  0
LWPOLYLINE
  5
389
100
AcDbEntity
  8
RACCORDO
100
AcDbPolyline
 62
250
  6
CONTINUOUS
 90
38
 70
0
 10
3.499562175
 20
10.5313066033
 10
3.5509113481
 20
10.5060661824
 10
3.6042068471
 20
10.4810324867
 10
3.6594486721
 20
10.4562055161
 10
3.716407138
 20
10.4316131442
 10
3.77531193
 20
10.4072274974
 10
3.836852103
 20
10.3829649549
 10
3.9010090133
 20
10.3587865739
 10
3.9678013047
 20
10.3347312971
 10
4.0379739644
 20
10.3108323322
 10
4.1115064643
 20
10.2870463084
 10
4.1884193326
 20
10.2634165964
 10
4.2695191406
 20
10.2401065162
 10
4.3547994363
 20
10.2170611797
 10
4.4442666717
 20
10.1943354748
 10
4.5387467735
 20
10.1722573862
 10
4.6382570873
 20
10.1507590729
 10
4.7427802676
 20
10.1299083757
 10
4.8530902048
 20
10.1102368022
 10
4.9692421476
 20
10.0916635016
 10
5.0911808474
 20
10.0742693246
 10
5.2195144482
 20
10.0588283301
 10
5.3544139632
 20
10.0452503549
 10
5.4957083791
 20
10.0336255622
 10
5.6434928005
 20
10.0249985015
 10
5.7982627491
 20
10.0193221386
 10
5.9595227031
 20
10.0166435077
 10
6.1258812016
 20
10.0181482609
 10
6.2976763316
 20
10.0238956191
 10
6.4745700062
 20
10.0338263614
 10
6.6541565035
 20
10.048948477
 10
6.8369361709
 20
10.0694701846
 10
7.0224086611
 20
10.0951832655
 10
7.2066672111
 20
10.1264710525
 10
7.3898999975
 20
10.1636844585
 10
7.5719188436
 20
10.2064725705
 10
7.7482524568
 20
10.2541659831
 10
7.9180839078
 20
10.3068112102
  0
LINE
  5
38A
100
AcDbEntity
  8
0
100
AcDbLine
 62
7
  6
CONTINUOUS
 10
7.6812644195
 20
12.7953628063
 11
7.5160915171
 21
12.8705950995
  0
LWPOLYLINE
  5
38B
100
AcDbEntity
  8
DRAFT
100
AcDbPolyline
 62
7
  6
CONTINUOUS
 90
40
 70
0
 10
8.1566741416
 20
12.8598625866
 10
8.0179422746
 20
12.9249973401
 10
7.8725824803
 20
12.9853523952
 10
7.7205947589
 20
13.0409277517
 10
7.561294775
 20
13.0919106176
 10
7.3953668639
 20
13.1381137849
 10
7.224864031
 20
13.1789756298
 10
7.0498924573
 20
13.2144084155
 10
6.8703459617
 20
13.2444998788
 10
6.6879590058
 20
13.2689516053
 10
6.5024646972
 20
13.287720794
 10
6.3141299283
 20
13.300850246
 10
6.1254898375
 20
13.3081699508
 10
5.9368398215
 20
13.3096121093
 10
5.7478844837
 20
13.3052445207
 10
5.5602727721
 20
13.2951005717
 10
5.3736778288
 20
13.2790869226
 10
5.1884265117
 20
13.2572969132
 10
5.0071483426
 20
13.2300439487
 10
4.8302490608
 20
13.1973293686
 10
4.6573229271
 20
13.1591518335
 10
4.4897822459
 20
13.1158207303
 10
4.3273355907
 20
13.0671775919
 10
4.1702743882
 20
13.0133808854
 10
4.0208852217
 20
12.9552153992
 10
3.8795751113
 20
12.8927651419
 10
3.7459370371
 20
12.8259461047
 10
3.6210365225
 20
12.7552910496
 10
3.5047055499
 20
12.6805964663
 10
3.397112137
 20
12.602065865
 10
3.2998258603
 20
12.5208425375
 10
3.2131636539
 20
12.4370721969
 10
3.1368085836
 20
12.35060913
 10
3.0713794235
 20
12.2621594891
 10
3.0168734944
 20
12.1715204046
 10
2.9732934755
 20
12.078894746
 10
2.9412661775
 20
11.9855972743
 10
2.9209782794
 20
11.8917914185
 10
2.9122431021
 20
11.7973137496
 10
2.9119131183
 20
11.7813695035
  0
LWPOLYLINE
  5
38C
100
AcDbEntity
  8
RACCORDO
100
AcDbPolyline
 62
7
  6
CONTINUOUS
 90
43
 70
0
 10
8.5582968334
 20
13.0216329303
 10
8.4046020733
 20
13.0942202104
 10
8.2436780461
 20
13.1619718771
 10
8.0760470093
 20
13.2247447861
 10
7.902230764
 20
13.2824108592
 10
7.722774608
 20
13.334847996
 10
7.5382707834
 20
13.3819369212
 10
7.3493459088
 20
13.4235700175
 10
7.1565372187
 20
13.4596760817
 10
6.9603386672
 20
13.4901981243
 10
6.7613450768
 20
13.5150706638
 10
6.5601629723
 20
13.5342417567
 10
6.3573177035
 20
13.5476788175
 10
6.1534185547
 20
13.5553527162
 10
5.9490796791
 20
13.5572491519
 10
5.7448387669
 20
13.5533664646
 10
5.5413084721
 20
13.5437141214
 10
5.3390996799
 20
13.5283165871
 10
5.1387432524
 20
13.5072040345
 10
4.9408433341
 20
13.4804239138
 10
4.7459969261
 20
13.44803793
 10
4.5547106233
 20
13.4101040157
 10
4.3675624036
 20
13.3667024264
 10
4.1851327909
 20
13.3179291043
 10
4.007907569
 20
13.2638662534
 10
3.8364071401
 20
13.2046123023
 10
3.6712091354
 20
13.1402990776
 10
3.5128373536
 20
13.0710561567
 10
3.3616969745
 20
12.9969673698
 10
3.2183908725
 20
12.918221531
 10
3.0836216757
 20
12.8351149788
 10
2.9576281209
 20
12.7476931042
 10
2.8409907829
 20
12.6562355026
 10
2.7346450934
 20
12.5614440891
 10
2.6387532197
 20
12.4635085976
 10
2.553533455
 20
12.3626826212
 10
2.4796053061
 20
12.2598692956
 10
2.4170496727
 20
12.1555765533
 10
2.3656700952
 20
12.0499202259
 10
2.3254453399
 20
11.9433337334
 10
2.2962922607
 20
11.8362479634
 10
2.2780692428
 20
11.7290472122
 10
2.2706071682
 20
11.622160556
  0
LWPOLYLINE
  5
38D
100
AcDbEntity
  8
RACCORDO
100
AcDbPolyline
 62
250
  6
CONTINUOUS
 90
82
 70
0
 10
8.4688541143
 20
13.0159525729
 10
8.4175049412
 20
13.0411929937
 10
8.3642094422
 20
13.0662266895
 10
8.3089676172
 20
13.0910536601
 10
8.2520091513
 20
13.115646032
 10
8.1931043593
 20
13.1400316787
 10
8.1315641863
 20
13.1642942212
 10
8.067407276
 20
13.1884726023
 10
8.0006149846
 20
13.2125278791
 10
7.9304423249
 20
13.236426844
 10
7.856909825
 20
13.2602128678
 10
7.7799969567
 20
13.2838425797
 10
7.6988971487
 20
13.3071526599
 10
7.613616853
 20
13.3301979965
 10
7.5241496176
 20
13.3529237013
 10
7.4296695158
 20
13.3750017899
 10
7.330159202
 20
13.3965001033
 10
7.2256360217
 20
13.4173508004
 10
7.1153260845
 20
13.437022374
 10
6.9991741417
 20
13.4555956746
 10
6.8772354419
 20
13.4729898516
 10
6.7489018411
 20
13.488430846
 10
6.6140023261
 20
13.5020088213
 10
6.4727079102
 20
13.513633614
 10
6.3249234888
 20
13.5222606746
 10
6.1701535402
 20
13.5279370375
 10
6.0088935862
 20
13.5306156684
 10
5.8425350877
 20
13.5291109152
 10
5.6707399577
 20
13.523363557
 10
5.4938462831
 20
13.5134328147
 10
5.3142597858
 20
13.4983106992
 10
5.1314801184
 20
13.4777889915
 10
4.9460076282
 20
13.4520759106
 10
4.7617490781
 20
13.4207881236
 10
4.5785162918
 20
13.3835747177
 10
4.3964974457
 20
13.3407866057
 10
4.2201638325
 20
13.293093193
 10
4.0503323815
 20
13.2404479659
 10
3.8861861633
 20
13.1828974382
 10
3.729745683
 20
13.121250557
 10
3.581539466
 20
13.0557033425
 10
3.4410389868
 20
12.9860597746
 10
3.3086791737
 20
12.9125407391
 10
3.1840826562
 20
12.8349082273
 10
3.0676268047
 20
12.7534002481
 10
2.9608786597
 20
12.6689517134
 10
2.8638868317
 20
12.5811459156
 10
2.77660271
 20
12.4903995625
 10
2.7004475036
 20
12.3988976894
 10
2.6361090895
 20
12.3067042164
 10
2.5828995907
 20
12.2137552235
 10
2.5401765844
 20
12.1220439858
 10
2.5083805059
 20
12.0318166197
 10
2.4870709198
 20
11.9428270088
 10
2.4742840976
 20
11.8563300789
 10
2.4701557763
 20
11.7724987561
 10
2.4745502188
 20
11.6911601143
 10
2.4850964846
 20
11.6130503006
 10
2.5017137346
 20
11.5384162301
 10
2.5244828078
 20
11.4670109877
 10
2.5512752809
 20
11.3988299753
 10
2.5819110701
 20
11.3339702731
 10
2.6165702593
 20
11.2723348009
 10
2.6536646768
 20
11.2136277194
 10
2.6930300073
 20
11.1578790697
 10
2.7348305661
 20
11.1050588106
 10
2.7779711277
 20
11.0547809791
 10
2.8223139047
 20
11.0070549178
 10
2.8679966844
 20
10.961871284
 10
2.9143376037
 20
10.9188160868
 10
2.9612248934
 20
10.8778866032
 10
3.0087703228
 20
10.839085556
 10
3.0566273362
 20
10.8020071233
 10
3.1047075879
 20
10.7666412607
 10
3.1530994237
 20
10.7329980125
 10
3.2017213263
 20
10.7007016892
 10
3.2504927504
 20
10.6697437716
 10
3.2994942413
 20
10.6401327788
 10
3.3488859173
 20
10.6115185789
 10
3.3987211514
 20
10.5837844609
 10
3.4489465706
 20
10.5570471357
 10
3.499562175
 20
10.5313066033
  0
LINE
  5
38E
100
AcDbEntity
  8
RACCORDO
100
AcDbLine
 62
250
  6
CONTINUOUS
 10
8.5194697187
 20
12.9902120404
 11
8.4688541143
 21
13.0159525729
  0
LINE
  5
38F
100
AcDbEntity
  8
RACCORDO
100
AcDbLine
 62
250
  6
CONTINUOUS
 10
8.5696951379
 20
12.9634747152
 11
8.5194697187
 21
12.9902120404
  0
LWPOLYLINE
  5
390
100
AcDbEntity
  8
0
100
AcDbPolyline
 62
7
  6
CONTINUOUS
 90
7
 70
0
 10
7.6812644195
 20
12.7953628063
 10
7.8882561613
 20
12.6773483836
 10
8.0626691137
 20
12.5468346688
 10
8.2015190227
 20
12.4060547877
 10
8.3024301277
 20
12.257417523
 10
8.3636758119
 20
12.1034660995
 10
8.3842081446
 20
11.9468346688
  0
ARC
  5
391
100
AcDbEntity
  8
0
100
AcDbCircle
 62
7
  6
CONTINUOUS
 10
5.9842081446
 20
9.1755533767
 40
4.0
100
AcDbArc
 50
67.4821746418
 51
112.5178253582
  0
ARC
  5
392
100
AcDbEntity
  8
RACCORDO
100
AcDbCircle
 62
7
  6
CONTINUOUS
 10
-10.9934256716
 20
-10.4684499266
 40
0.8
100
AcDbArc
 50
180.0007334964
 51
243.4444366933
  0
ARC
  5
393
100
AcDbEntity
  8
RACCORDO
100
AcDbCircle
 62
7
  6
CONTINUOUS
 10
-5.5345613209
 20
-13.1978821019
 40
0.8
100
AcDbArc
 50
243.4349488229
 51
296.5649579693
  0
ARC
  5
394
100
AcDbEntity
  8
RACCORDO
100
AcDbCircle
 62
7
  6
CONTINUOUS
 10
11.1531587151
 20
-4.8540220839
 40
0.8
100
AcDbArc
 50
296.5650511771
 51
359.9973154837
  0
ARC
  5
395
100
AcDbEntity
  8
ASSI
100
AcDbCircle
 62
7
  6
CONTINUOUS
 10
11.1531587151
 20
-4.8540220839
 40
0.8
100
AcDbArc
 50
296.5650511771
 51
0.0162099074
  0
ARC
  5
396
100
AcDbEntity
  8
ASSI
100
AcDbCircle
 62
7
  6
CONTINUOUS
 10
-5.5345613209
 20
-13.1978821019
 40
0.8
100
AcDbArc
 50
243.4349488229
 51
296.5703086876
  0
ARC
  5
397
100
AcDbEntity
  8
ASSI
100
AcDbCircle
 62
7
  6
CONTINUOUS
 10
-10.9934256716
 20
-10.4684499266
 40
0.8
100
AcDbArc
 50
180.0110950872
 51
243.4576947121
  0
ELLIPSE
  5
398
100
AcDbEntity
  8
RACCORDO
100
AcDbEllipse
 62
7
  6
CONTINUOUS
 10
10.5802298829
 20
3.1133755502
 30
0.0
 11
0.8002437063
 21
-0.0
 31
0.0
 40
0.4998477299
 41
-0.7852458701
 42
0.0142466936
  0
ELLIPSE
  5
399
100
AcDbEntity
  8
RACCORDO
100
AcDbEllipse
 62
7
  6
CONTINUOUS
 10
-5.1880789981
 20
-4.7707788902
 30
0.0
 11
0.8
 21
-0.0
 31
0.0
 40
0.5001523164
 41
-2.3560421969
 42
-0.7855504566
  0
ELLIPSE
  5
39A
100
AcDbEntity
  8
RACCORDO
100
AcDbEllipse
 62
7
  6
CONTINUOUS
 10
-10.4204968394
 20
-2.1545699696
 30
0.0
 11
0.8002437063
 21
-0.0
 31
0.0
 40
0.4998477299
 41
3.12734596
 42
3.9268385237
  0
ELLIPSE
  5
39B
100
AcDbEntity
  8
RACCORDO
100
AcDbEllipse
 62
7
  6
CONTINUOUS
 10
1.1236784515
 20
-7.0175140176
 30
0.0
 11
0.0909581173
 21
0.1781247687
 31
0.0
 40
0.6079814556
 41
-2.4517189759
 42
-2.22699704
  0
ELLIPSE
  5
39C
100
AcDbEntity
  8
RACCORDO
100
AcDbEllipse
 62
7
  6
CONTINUOUS
 10
4.5885016794
 20
-5.2851024037
 30
0.0
 11
0.0909581173
 21
0.1781247687
 31
0.0
 40
0.6079814556
 41
-2.4517189759
 42
-2.22699704
  0
ELLIPSE
  5
39D
100
AcDbEntity
  8
RACCORDO
100
AcDbEllipse
 62
7
  6
CONTINUOUS
 10
-10.0502675463
 20
-7.7069431293
 30
0.0
 11
-0.0909581173
 21
0.1781247687
 31
0.0
 40
0.6079814556
 41
0.8896492954
 42
2.4517189759
  0
ELLIPSE
  5
39E
100
AcDbEntity
  8
RACCORDO
100
AcDbEllipse
 62
7
  6
CONTINUOUS
 10
3.9687155511
 20
-0.9346462826
 30
0.0
 11
0.086325054
 21
0.1804312186
 31
0.0
 40
0.6209844714
 41
5.3950300532
 42
6.9570997337
  0
ELLIPSE
  5
39F
100
AcDbEntity
  8
RACCORDO
100
AcDbEllipse
 62
7
  6
CONTINUOUS
 10
-9.8608026425
 20
-8.5339070537
 30
0.0
 11
-0.086325054
 21
0.1804312186
 31
0.0
 40
0.6209844714
 41
-3.8155070801
 42
-2.2534373996
  0
ELLIPSE
  5
3A0
100
AcDbEntity
  8
RACCORDO
100
AcDbEllipse
 62
7
  6
CONTINUOUS
 10
10.8056845803
 20
-4.7678653605
 30
0.0
 11
0.8002437063
 21
0.0
 31
0.0
 40
0.4998477299
 41
-0.7852458701
 42
0.0142466936
  0
ELLIPSE
  5
3A1
100
AcDbEntity
  8
RACCORDO
100
AcDbEllipse
 62
7
  6
CONTINUOUS
 10
-10.4213163119
 20
-2.1541602333
 30
0.0
 11
0.8002437063
 21
-0.0
 31
0.0
 40
0.4998477299
 41
3.12734596
 42
3.9268385237
  0
ELLIPSE
  5
3A2
100
AcDbEntity
  8
RACCORDO
100
AcDbEllipse
 62
7
  6
CONTINUOUS
 10
1.8213740575
 20
-7.3663618206
 30
0.0
 11
0.086325054
 21
0.1804312186
 31
0.0
 40
0.6209844714
 41
-2.467678227
 42
-0.9056085465
  0
ELLIPSE
  5
3A3
100
AcDbEntity
  8
RACCORDO
100
AcDbEllipse
 62
7
  6
CONTINUOUS
 10
5.2861972853
 20
-5.6339502067
 30
0.0
 11
0.086325054
 21
0.1804312186
 31
0.0
 40
0.6209844714
 41
-2.467678227
 42
-0.9056085465
  0
ELLIPSE
  5
3A4
100
AcDbEntity
  8
RACCORDO
100
AcDbEllipse
 62
7
  6
CONTINUOUS
 10
0.8996776812
 20
-7.8272100087
 30
0.0
 11
0.086325054
 21
0.1804312186
 31
0.0
 40
0.6209844714
 41
2.2534373996
 42
3.8155070801
  0
ELLIPSE
  5
3A5
100
AcDbEntity
  8
RACCORDO
100
AcDbEllipse
 62
7
  6
CONTINUOUS
 10
4.364500909
 20
-6.0947983948
 30
0.0
 11
0.086325054
 21
0.1804312186
 31
0.0
 40
0.6209844714
 41
2.2534373996
 42
3.8155070801
  0
ELLIPSE
  5
3A6
100
AcDbEntity
  8
RACCORDO
100
AcDbEllipse
 62
7
  6
CONTINUOUS
 10
-10.7824990188
 20
-8.0730588655
 30
0.0
 11
-0.086325054
 21
0.1804312186
 31
0.0
 40
0.6209844714
 41
0.9056085465
 42
2.467678227
  0
ELLIPSE
  5
3A7
100
AcDbEntity
  8
RACCORDO
100
AcDbEllipse
 62
7
  6
CONTINUOUS
 10
5.531402987
 20
-0.1533025646
 30
0.0
 11
0.086325054
 21
0.1804312186
 31
0.0
 40
0.6209844714
 41
0.6739144266
 42
2.2359841071
  0
ELLIPSE
  5
3A8
100
AcDbEntity
  8
RACCORDO
100
AcDbEllipse
 62
7
  6
CONTINUOUS
 10
2.0665797592
 20
-1.8857141785
 30
0.0
 11
0.086325054
 21
0.1804312186
 31
0.0
 40
0.6209844714
 41
0.6739144266
 42
2.2359841071
  0
ELLIPSE
  5
3A9
100
AcDbEntity
  8
RACCORDO
100
AcDbEllipse
 62
7
  6
CONTINUOUS
 10
-9.4650172846
 20
-3.3737549414
 30
0.0
 11
-0.086325054
 21
0.1804312186
 31
0.0
 40
0.6209844714
 41
-0.6739144266
 42
0.888155254
  0
ELLIPSE
  5
3AA
100
AcDbEntity
  8
RACCORDO
100
AcDbEllipse
 62
7
  6
CONTINUOUS
 10
-5.1872595256
 20
-4.7711886265
 30
0.0
 11
0.8
 21
-0.0
 31
0.0
 40
0.5001523164
 41
-2.3560421969
 42
-0.7855504566
  0
ELLIPSE
  5
3AB
100
AcDbEntity
  8
RACCORDO
100
AcDbEllipse
 62
7
  6
CONTINUOUS
 10
-5.1872595256
 20
-12.7643374134
 30
0.0
 11
0.8
 21
-0.0
 31
0.0
 40
0.5001523164
 41
-2.3560421969
 42
-0.7855504566
  0
ELLIPSE
  5
3AC
100
AcDbEntity
  8
RACCORDO
100
AcDbEllipse
 62
7
  6
CONTINUOUS
 10
-10.6459515368
 20
-10.0349914078
 30
0.0
 11
0.8002437063
 21
-0.0
 31
0.0
 40
0.4998477299
 41
3.12734596
 42
3.9268385237
  0
ELLIPSE
  5
3AD
100
AcDbEntity
  8
RACCORDO
100
AcDbEllipse
 62
7
  6
CONTINUOUS
 10
10.5810493554
 20
3.112965814
 30
0.0
 11
0.8002437063
 21
-0.0
 31
0.0
 40
0.4998477299
 41
-0.7852458701
 42
0.0142466936
  0
ELLIPSE
  5
3AE
100
AcDbEntity
  8
RACCORDO
100
AcDbEllipse
 62
7
  6
CONTINUOUS
 10
0.5038923233
 20
-2.6670578965
 30
0.0
 11
0.086325054
 21
0.1804312186
 31
0.0
 40
0.6209844714
 41
5.3950300532
 42
6.9570997337
  0
ELLIPSE
  5
3AF
100
AcDbEntity
  8
ASSI
100
AcDbEllipse
 62
7
  6
CONTINUOUS
 10
1.1236784515
 20
-7.0175140176
 30
0.0
 11
0.0909581173
 21
0.1781247687
 31
0.0
 40
0.6079814556
 41
-2.4517189759
 42
-2.22699704
  0
ELLIPSE
  5
3B0
100
AcDbEntity
  8
ASSI
100
AcDbEllipse
 62
7
  6
CONTINUOUS
 10
4.5885016794
 20
-5.2851024037
 30
0.0
 11
0.0909581173
 21
0.1781247687
 31
0.0
 40
0.6079814556
 41
-2.4517189759
 42
-2.22699704
  0
ELLIPSE
  5
3B1
100
AcDbEntity
  8
ASSI
100
AcDbEllipse
 62
7
  6
CONTINUOUS
 10
-10.0502675463
 20
-7.7069431293
 30
0.0
 11
-0.0909581173
 21
0.1781247687
 31
0.0
 40
0.6079814556
 41
0.8896492954
 42
2.4517189759
  0
ELLIPSE
  5
3B2
100
AcDbEntity
  8
ASSI
100
AcDbEllipse
 62
7
  6
CONTINUOUS
 10
2.0665797592
 20
-1.8857141785
 30
0.0
 11
0.086325054
 21
0.1804312186
 31
0.0
 40
0.6209844714
 41
0.6739144266
 42
2.2359841071
  0
ELLIPSE
  5
3B3
100
AcDbEntity
  8
ASSI
100
AcDbEllipse
 62
7
  6
CONTINUOUS
 10
-9.4650172846
 20
-3.3737549414
 30
0.0
 11
-0.086325054
 21
0.1804312186
 31
0.0
 40
0.6209844714
 41
-0.6739144266
 42
0.888155254
  0
ELLIPSE
  5
3B4
100
AcDbEntity
  8
ASSI
100
AcDbEllipse
 62
7
  6
CONTINUOUS
 10
-9.8608026425
 20
-8.5339070537
 30
0.0
 11
-0.086325054
 21
0.1804312186
 31
0.0
 40
0.6209844714
 41
-3.8155070801
 42
-2.2534373996
  0
ELLIPSE
  5
3B5
100
AcDbEntity
  8
ASSI
100
AcDbEllipse
 62
7
  6
CONTINUOUS
 10
3.9687155511
 20
-0.9346462826
 30
0.0
 11
0.086325054
 21
0.1804312186
 31
0.0
 40
0.6209844714
 41
5.3950300532
 42
6.9570997337
  0
ELLIPSE
  5
3B6
100
AcDbEntity
  8
ASSI
100
AcDbEllipse
 62
7
  6
CONTINUOUS
 10
0.5038923233
 20
-2.6670578965
 30
0.0
 11
0.086325054
 21
0.1804312186
 31
0.0
 40
0.6209844714
 41
5.3950300532
 42
6.9570997337
  0
ELLIPSE
  5
3B7
100
AcDbEntity
  8
ASSI
100
AcDbEllipse
 62
7
  6
CONTINUOUS
 10
-5.1872595256
 20
-4.7711886265
 30
0.0
 11
0.8
 21
-0.0
 31
0.0
 40
0.5001523164
 41
-2.3560421969
 42
-0.7855504566
  0
ELLIPSE
  5
3B8
100
AcDbEntity
  8
ASSI
100
AcDbEllipse
 62
7
  6
CONTINUOUS
 10
-10.4213163119
 20
-2.1541602333
 30
0.0
 11
0.8002437063
 21
-0.0
 31
0.0
 40
0.4998477299
 41
9.3829682531
 42
10.2100238309
  0
ELLIPSE
  5
3B9
100
AcDbEntity
  8
ASSI
100
AcDbEllipse
 62
7
  6
CONTINUOUS
 10
10.8056845803
 20
-4.7678653605
 30
0.0
 11
0.8002437063
 21
0.0
 31
0.0
 40
0.4998477299
 41
-0.7852458701
 42
0.0142466936
  0
ELLIPSE
  5
3BA
100
AcDbEntity
  8
ASSI
100
AcDbEllipse
 62
7
  6
CONTINUOUS
 10
-5.1872595256
 20
-12.7643374134
 30
0.0
 11
0.8
 21
-0.0
 31
0.0
 40
0.5001523164
 41
-2.3560421969
 42
-0.7855504566
  0
ELLIPSE
  5
3BB
100
AcDbEntity
  8
ASSI
100
AcDbEllipse
 62
7
  6
CONTINUOUS
 10
-10.6459515368
 20
-10.0349914078
 30
0.0
 11
0.8002437063
 21
-0.0
 31
0.0
 40
0.4998477299
 41
3.12734596
 42
3.9268385237
  0
ELLIPSE
  5
3BC
100
AcDbEntity
  8
ASSI
100
AcDbEllipse
 62
7
  6
CONTINUOUS
 10
10.5810493554
 20
3.112965814
 30
0.0
 11
0.8002437063
 21
-0.0
 31
0.0
 40
0.4998477299
 41
-0.7852458701
 42
0.0142466936
  0
ELLIPSE
  5
3BD
100
AcDbEntity
  8
ASSI
100
AcDbEllipse
 62
7
  6
CONTINUOUS
 10
1.8213740575
 20
-7.3663618206
 30
0.0
 11
0.086325054
 21
0.1804312186
 31
0.0
 40
0.6209844714
 41
-2.467678227
 42
-0.9056085465
  0
ELLIPSE
  5
3BE
100
AcDbEntity
  8
ASSI
100
AcDbEllipse
 62
7
  6
CONTINUOUS
 10
5.2861972853
 20
-5.6339502067
 30
0.0
 11
0.086325054
 21
0.1804312186
 31
0.0
 40
0.6209844714
 41
-2.467678227
 42
-0.9056085465
  0
ELLIPSE
  5
3BF
100
AcDbEntity
  8
ASSI
100
AcDbEllipse
 62
7
  6
CONTINUOUS
 10
0.8996776812
 20
-7.8272100087
 30
0.0
 11
0.086325054
 21
0.1804312186
 31
0.0
 40
0.6209844714
 41
2.2534373996
 42
3.8155070801
  0
ELLIPSE
  5
3C0
100
AcDbEntity
  8
ASSI
100
AcDbEllipse
 62
7
  6
CONTINUOUS
 10
4.364500909
 20
-6.0947983948
 30
0.0
 11
0.086325054
 21
0.1804312186
 31
0.0
 40
0.6209844714
 41
2.2534373996
 42
3.8155070801
  0
ELLIPSE
  5
3C1
100
AcDbEntity
  8
ASSI
100
AcDbEllipse
 62
7
  6
CONTINUOUS
 10
-10.7824990188
 20
-8.0730588655
 30
0.0
 11
-0.086325054
 21
0.1804312186
 31
0.0
 40
0.6209844714
 41
0.9056085465
 42
2.467678227
  0
ELLIPSE
  5
3C2
100
AcDbEntity
  8
ASSI
100
AcDbEllipse
 62
7
  6
CONTINUOUS
 10
5.531402987
 20
-0.1533025646
 30
0.0
 11
0.086325054
 21
0.1804312186
 31
0.0
 40
0.6209844714
 41
0.6739144266
 42
2.2359841071
  0
ENDSEC
  0
SECTION
  2
OBJECTS
  0
DICTIONARY
  5
C
100
AcDbDictionary
280
0
281
1
  3
ACAD_GROUP
350
D
  3
ACAD_MLINESTYLE
350
17
  3
ACAD_LAYOUT
350
1A
  3
ACAD_PLOTSETTINGS
350
19
  3
ACAD_PLOTSTYLENAME
350
E
  0
DICTIONARY
  5
D
102
{ACAD_REACTORS
330
C
102
}
100
AcDbDictionary
280
0
281
1
  0
ACDBDICTIONARYWDFLT
  5
E
102
{ACAD_REACTORS
330
C
102
}
100
AcDbDictionary
281
1
  3
Normal
350
F
100
AcDbDictionaryWithDefault
340
F
  0
DICTIONARY
  5
17
102
{ACAD_REACTORS
330
C
102
}
100
AcDbDictionary
280
0
281
1
  3
Standard
350
18
  0
DICTIONARY
  5
19
102
{ACAD_REACTORS
330
C
102
}
100
AcDbDictionary
281
1
  0
DICTIONARY
  5
1A
102
{ACAD_REACTORS
330
C
102
}
100
AcDbDictionary
281
1
  3
Model
350
3C3
  3
Layout1
350
3C4
  0
ACDBPLACEHOLDER
  5
F
102
{ACAD_REACTORS
330
E
102
}
  0
MLINESTYLE
  5
18
102
{ACAD_REACTORS
330
17
102
}
100
AcDbMlineStyle
  2
STANDARD
 70
0
  3

 62
256
 51
90.0
 52
90.0
 71
2
 49
0.5
 62
256
  6
BYLAYER
 49
-0.5
 62
256
  6
BYLAYER
  0
LAYOUT
  5
3C3
102
{ACAD_REACTORS
330
1A
102
}
100
AcDbPlotSettings
  1

  2
none_device
  4
ISO_A4_(297.00_x_210.00_MM)
  6

 40
0.0
 41
0.0
 42
0.0
 43
0.0
 44
297.0
 45
210.0
 46
0.0
 47
0.0
 48
0.0
 49
0.0
140
0.0
141
0.0
142
1.0
143
1.0
 70
1024
 72
1
 73
0
 74
0
  7

 75
0
147
1.0
148
0.0
149
0.0
100
AcDbLayout
  1
Model
 70
0
 71
0
 10
0.0
 20
0.0
 11
297.0
 21
210.0
 12
0.0
 22
0.0
 32
0.0
 14
0.0
 24
0.0
 34
0.0
 15
0.0
 25
0.0
 35
0.0
146
0.0
 13
0.0
 23
0.0
 33
0.0
 16
1.0
 26
0.0
 36
0.0
 17
0.0
 27
1.0
 37
0.0
 76
0
330
213
345
0
346
0
  0
LAYOUT
  5
3C4
102
{ACAD_REACTORS
330
1A
102
}
100
AcDbPlotSettings
  1

  2
none_device
  4
ISO_A4_(297.00_x_210.00_MM)
  6

 40
0.0
 41
0.0
 42
0.0
 43
0.0
 44
297.0
 45
210.0
 46
0.0
 47
0.0
 48
0.0
 49
0.0
140
0.0
141
0.0
142
1.0
143
1.0
 70
0
 72
1
 73
0
 74
0
  7

 75
0
147
1.0
148
0.0
149
0.0
100
AcDbLayout
  1
Layout1
 70
0
 71
1
 10
0.0
 20
0.0
 11
297.0
 21
210.0
 12
0.0
 22
0.0
 32
0.0
 14
0.0
 24
0.0
 34
0.0
 15
0.0
 25
0.0
 35
0.0
146
0.0
 13
0.0
 23
0.0
 33
0.0
 16
1.0
 26
0.0
 36
0.0
 17
0.0
 27
1.0
 37
0.0
 76
0
330
214
345
0
346
0
  0
ENDSEC
  0
EOF
