  0
SECTION
  2
HEADER
  9
$ACADVER
  1
AC1015
  9
$DWGCODEPAGE
  3
ANSI_1252
  9
$EXTMAX
 10
558.8
 20
431.8
 30
0.0
  9
$EXTMIN
 10
0.0
 20
0.0
 30
0.0
  9
$LIMMIN
 10
0.0
 20
0.0
  9
$LIMMAX
 10
558.8
 20
431.8
  9
$VIEWCTR
 10
279.4
 20
215.9
  9
$VIEWSIZE
 40
431.8
  9
$CLAYER
  8
0
  9
$LTSCALE
 40
30.734
  9
$CELTYPE
  6
BYLAYER
  9
$DIMSCALE
 40
1.0
  9
$DIMASZ
 40
3.0
  9
$DIMEXO
 40
3.4925
  9
$DIMDLI
 40
21.2344
  9
$DIMEXE
 40
10.0584
  9
$DIMCEN
 40
5.0292
  9
$DIMLFAC
 40
1.0
  9
$DIMBLK
  1
_FILLED
  9
$DIMTXT
 40
3.0
  9
$DIMTOL
 70
1
  9
$DIMLIM
 70
0
  9
$DIMTFAC
 40
1.0
  9
$DIMTP
 40
0.01
  9
$DIMTM
 40
0.01
  9
$PDMODE
 70
3
  9
$PDSIZE
 40
3.0
  9
$HANDSEED
  5
271
  9
$TILEMODE
 70
1
  9
$MEASUREMENT
 70
1
  9
$INSUNITS
 70
4
  0
ENDSEC
  0
SECTION
  2
CLASSES
  0
CLASS
  1
ACDBDICTIONARYWDFLT
  2
AcDbDictionaryWithDefault
  3
AutoCAD 2000
 90
0
280
0
281
0
  0
CLASS
  1
ACDBPLACEHOLDER
  2
AcDbPlaceHolder
  3
AutoCAD 2000
 90
0
280
0
281
0
  0
CLASS
  1
LAYOUT
  2
AcDbLayout
  3
AutoCAD 2000
 90
0
280
0
281
0
  0
ENDSEC
  0
SECTION
  2
TABLES
  0
TABLE
  2
VPORT
  5
8
100
AcDbSymbolTable
 70
2
  0
VPORT
  5
1F4
100
AcDbSymbolTableRecord
100
AcDbViewportTableRecord
  2
*ACTIVE
 70
0
 10
0.0
 20
0.0
 11
1.0
 21
1.0
 12
279.4
 22
215.9
 13
0.0
 23
0.0
 14
1.0
 24
1.0
 15
0.0
 25
0.0
 16
0.0
 26
0.0
 36
1.0
 17
0.0
 27
0.0
 37
0.0
 40
431.8
 41
1.2941176471
 42
50.0
 43
0.0
 44
0.0
 50
0.0
 51
0.0
 71
0
 72
100
 73
1
 74
1
 75
0
 76
0
 77
0
 78
0
  0
ENDTAB
  0
TABLE
  2
LTYPE
  5
5
100
AcDbSymbolTable
 70
6
  0
LTYPE
  5
14
100
AcDbSymbolTableRecord
100
AcDbLinetypeTableRecord
  2
BYBLOCK
 70
0
  3

 72
65
 73
0
 40
0.0
  0
LTYPE
  5
15
100
AcDbSymbolTableRecord
100
AcDbLinetypeTableRecord
  2
BYLAYER
 70
0
  3

 72
65
 73
0
 40
0.0
  0
LTYPE
  5
16
100
AcDbSymbolTableRecord
100
AcDbLinetypeTableRecord
  2
CONTINUOUS
 70
64
  3
Solid line
 72
65
 73
0
 40
0.0
  0
LTYPE
  5
1F5
100
AcDbSymbolTableRecord
100
AcDbLinetypeTableRecord
  2
CENTER
 70
64
  3
____ _ ____ _ ____ _ ____ _ ____ _ ____ _ ____
 72
65
 73
4
 40
0.6
 49
0.375
 74
0
 49
-0.075
 74
0
 49
0.075
 74
0
 49
-0.075
 74
0
  0
LTYPE
  5
1F6
100
AcDbSymbolTableRecord
100
AcDbLinetypeTableRecord
  2
HIDDEN
 70
64
  3
- - - - - - - - - - - - - - - - - - - -
 72
65
 73
2
 40
0.2
 49
0.1
 74
0
 49
-0.1
 74
0
  0
LTYPE
  5
1F7
100
AcDbSymbolTableRecord
100
AcDbLinetypeTableRecord
  2
PHANTOM
 70
64
  3
_____ _ _ _____ _ _ _____ _ _ _____
 72
65
 73
6
 40
0.8
 49
0.45
 74
0
 49
-0.05
 74
0
 49
0.1
 74
0
 49
-0.05
 74
0
 49
0.1
 74
0
 49
-0.05
 74
0
  0
LTYPE
  5
1F8
100
AcDbSymbolTableRecord
100
AcDbLinetypeTableRecord
  2
DOT
 70
64
  3
. . . . . . . . . . . . . . . . . . . .
 72
65
 73
2
 40
0.2
 49
0.1
 74
0
 49
-0.1
 74
0
  0
LTYPE
  5
1F9
100
AcDbSymbolTableRecord
100
AcDbLinetypeTableRecord
  2
DASHED
 70
64
  3
- - - - - - - - - - - - - - - - - - - -
 72
65
 73
2
 40
0.2
 49
0.1
 74
0
 49
-0.1
 74
0
  0
ENDTAB
  0
TABLE
  2
LAYER
  5
2
100
AcDbSymbolTable
 70
36
  0
LAYER
  5
10
100
AcDbSymbolTableRecord
100
AcDbLayerTableRecord
  2
0
 70
0
 62
7
  6
CONTINUOUS
370
-3
390
F
  0
LAYER
  5
1FA
100
AcDbSymbolTableRecord
100
AcDbLayerTableRecord
  2
DEFAULT_1
 70
0
 62
7
  6
CENTER
370
-3
390
F
  0
LAYER
  5
1FB
100
AcDbSymbolTableRecord
100
AcDbLayerTableRecord
  2
DEFAULT_2
 70
0
 62
7
  6
HIDDEN
370
-3
390
F
  0
LAYER
  5
1FC
100
AcDbSymbolTableRecord
100
AcDbLayerTableRecord
  2
DEFAULT_3
 70
0
 62
7
  6
PHANTOM
370
-3
390
F
  0
LAYER
  5
1FD
100
AcDbSymbolTableRecord
100
AcDbLayerTableRecord
  2
ASSI
 70
0
 62
7
  6
CONTINUOUS
370
-3
390
F
  0
LAYER
  5
1FE
100
AcDbSymbolTableRecord
100
AcDbLayerTableRecord
  2
COORDINATE
 70
0
 62
7
  6
CONTINUOUS
370
-3
390
F
  0
LAYER
  5
1FF
100
AcDbSymbolTableRecord
100
AcDbLayerTableRecord
  2
COORD_ORIGINE
 70
0
 62
7
  6
CONTINUOUS
370
-3
390
F
  0
LAYER
  5
200
100
AcDbSymbolTableRecord
100
AcDbLayerTableRecord
  2
CURVE
 70
0
 62
7
  6
CONTINUOUS
370
-3
390
F
  0
LAYER
  5
201
100
AcDbSymbolTableRecord
100
AcDbLayerTableRecord
  2
DRAFT
 70
0
 62
7
  6
CONTINUOUS
370
-3
390
F
  0
LAYER
  5
202
100
AcDbSymbolTableRecord
100
AcDbLayerTableRecord
  2
PIANI
 70
0
 62
7
  6
CONTINUOUS
370
-3
390
F
  0
LAYER
  5
203
100
AcDbSymbolTableRecord
100
AcDbLayerTableRecord
  2
PIANI_ORIGINE
 70
0
 62
7
  6
CONTINUOUS
370
-3
390
F
  0
LAYER
  5
204
100
AcDbSymbolTableRecord
100
AcDbLayerTableRecord
  2
PUNTI
 70
0
 62
7
  6
CONTINUOUS
370
-3
390
F
  0
LAYER
  5
205
100
AcDbSymbolTableRecord
100
AcDbLayerTableRecord
  2
RACCORDO
 70
0
 62
7
  6
CONTINUOUS
370
-3
390
F
  0
LAYER
  5
206
100
AcDbSymbolTableRecord
100
AcDbLayerTableRecord
  2
SNAPLINE
 70
0
 62
7
  6
CONTINUOUS
370
-3
390
F
  0
LAYER
  5
207
100
AcDbSymbolTableRecord
100
AcDbLayerTableRecord
  2
SUPERFICI
 70
0
 62
7
  6
CONTINUOUS
370
-3
390
F
  0
LAYER
  5
208
100
AcDbSymbolTableRecord
100
AcDbLayerTableRecord
  2
TRASH
 70
0
 62
7
  6
CONTINUOUS
370
-3
390
F
  0
ENDTAB
  0
TABLE
  2
STYLE
  5
3
100
AcDbSymbolTable
 70
1
  0
STYLE
  5
11
100
AcDbSymbolTableRecord
100
AcDbTextStyleTableRecord
  2
STANDARD
 70
0
 40
0.0
 41
0.8
 50
0.0
 71
0
 42
0.2
  3
txt
  4

  0
STYLE
  5
209
100
AcDbSymbolTableRecord
100
AcDbTextStyleTableRecord
  2
TEXTSTYLE_1
 70
0
 40
0.0
 41
0.8
 50
0.0
 71
0
 42
0.2
  3
gdt
  4

  0
ENDTAB
  0
TABLE
  2
VIEW
  5
6
100
AcDbSymbolTable
 70
0
  0
ENDTAB
  0
TABLE
  2
UCS
  5
7
100
AcDbSymbolTable
 70
0
  0
ENDTAB
  0
TABLE
  2
APPID
  5
9
100
AcDbSymbolTable
 70
1
  0
APPID
  5
20A
100
AcDbSymbolTableRecord
100
AcDbRegAppTableRecord
  2
ACAD
 70
0
  0
ENDTAB
  0
TABLE
  2
BLOCK_RECORD
  5
1
100
AcDbSymbolTable
 70
0
  0
BLOCK_RECORD
  5
20B
100
AcDbSymbolTableRecord
100
AcDbBlockTableRecord
  2
*Model_Space
  0
BLOCK_RECORD
  5
20C
100
AcDbSymbolTableRecord
100
AcDbBlockTableRecord
  2
*Paper_Space
  0
ENDTAB
  0
TABLE
  2
DIMSTYLE
  5
A
100
AcDbSymbolTable
 70
1
100
AcDbDimStyleTable
 71
0
  0
DIMSTYLE
105
20D
100
AcDbSymbolTableRecord
100
AcDbDimStyleTableRecord
  2
STANDARD
 70
0
  3

  4

 40
1.0
 41
3.0
 42
0.0625
 43
0.38
 44
0.18
 45
0.0
 46
0.0
 47
0.01
 48
0.01
140
3.0
141
0.09
142
0.0
143
25.4
144
1.0
145
0.0
146
1.0
147
0.09
 71
1.0
 72
0.0
 73
0
 74
0
 75
0
 76
0
 77
1
 78
8
170
0
171
2
172
0
173
0
174
0
175
0
176
0
177
0
178
0
270
2
271
2
272
2
273
2
274
2
275
0
280
0
281
0
282
0
283
1
284
8
285
0
286
0
287
3
288
0
340
11
  0
ENDTAB
  0
ENDSEC
  0
SECTION
  2
BLOCKS
  0
BLOCK
  5
20
100
AcDbEntity
  8
0
100
AcDbBlockBegin
  2
*Model_Space
 70
0
 10
0.0
 20
0.0
 30
0.0
  3
*Model_Space
  1

  0
ENDBLK
  5
21
100
AcDbEntity
  8
0
100
AcDbBlockEnd
  0
BLOCK
  5
1C
100
AcDbEntity
  8
0
100
AcDbBlockBegin
  2
*Paper_Space
 70
0
 10
0.0
 20
0.0
 30
0.0
  3
*Paper_Space
  1

  0
ENDBLK
  5
1D
100
AcDbEntity
  8
0
100
AcDbBlockEnd
  0
ENDSEC
  0
SECTION
  2
ENTITIES
  0
LINE
  5
20E
100
AcDbEntity
  8
0
100
AcDbLine
 62
7
  6
CONTINUOUS
 10
-1.8599890453
 20
23.1100223913
 11
-2.0251619477
 21
23.034790098
  0
LINE
  5
20F
100
AcDbEntity
  8
DRAFT
100
AcDbLine
 62
7
  6
CONTINUOUS
 10
-4.0763886702
 20
18.60568835
 11
-3.8668535363
 21
22.0666184931
  0
LINE
  5
210
100
AcDbEntity
  8
0
100
AcDbLine
 62
7
  6
CONTINUOUS
 10
-4.4781056729
 20
5.5585742079
 11
-4.4781056729
 21
18.5489552647
  0
LINE
  5
211
100
AcDbEntity
  8
ASSI
100
AcDbLine
 62
7
  6
CONTINUOUS
 10
-3.5862532181
 20
4.2529929099
 11
-3.5862532181
 21
2.7485463654
  0
LINE
  5
212
100
AcDbEntity
  8
ASSI
100
AcDbLine
 62
253
  6
CONTINUOUS
 10
-3.0151114414
 20
3.271552819
 11
-3.0151114414
 21
2.0591172537
  0
LINE
  5
213
100
AcDbEntity
  8
0
100
AcDbLine
 62
7
  6
CONTINUOUS
 10
-2.7281056729
 20
21.151773788
 11
-2.7281056729
 21
22.1862619606
  0
LINE
  5
214
100
AcDbEntity
  8
ASSI
100
AcDbLine
 62
7
  6
CONTINUOUS
 10
-2.6362532181
 20
-128.0212896061
 11
-2.6362532181
 21
-119.3610355682
  0
LINE
  5
215
100
AcDbEntity
  8
ASSI
100
AcDbLine
 62
7
  6
CONTINUOUS
 10
-2.6362532181
 20
1.8696881421
 11
-2.6362532181
 21
-118.4950101644
  0
LINE
  5
216
100
AcDbEntity
  8
ASSI
100
AcDbLine
 62
7
  6
CONTINUOUS
 10
-2.0612532181
 20
-118.9475021549
 11
-2.0612532181
 21
-119.3610355682
  0
LINE
  5
217
100
AcDbEntity
  8
ASSI
100
AcDbLine
 62
7
  6
CONTINUOUS
 10
-1.2112532181
 20
-118.9475021549
 11
-1.2112532181
 21
-119.3610355682
  0
LINE
  5
218
100
AcDbEntity
  8
ASSI
100
AcDbLine
 62
7
  6
CONTINUOUS
 10
-0.6362532181
 20
-128.0212896061
 11
-0.6362532181
 21
-119.3610355682
  0
LINE
  5
219
100
AcDbEntity
  8
ASSI
100
AcDbLine
 62
7
  6
CONTINUOUS
 10
-0.6362532181
 20
0.8696881421
 11
-0.6362532181
 21
-118.4950101644
  0
LINE
  5
21A
100
AcDbEntity
  8
ASSI
100
AcDbLine
 62
253
  6
CONTINUOUS
 10
-0.398816351
 20
3.4841795822
 11
-0.398816351
 21
3.0026357584
  0
LINE
  5
21B
100
AcDbEntity
  8
ASSI
100
AcDbLine
 62
253
  6
CONTINUOUS
 10
-0.398816351
 20
1.9634052738
 11
-0.398816351
 21
0.7509697085
  0
LINE
  5
21C
100
AcDbEntity
  8
ASSI
100
AcDbLine
 62
7
  6
CONTINUOUS
 10
-0.0199581277
 20
-129.3294371512
 11
-0.0199581277
 21
-120.6691831134
  0
LINE
  5
21D
100
AcDbEntity
  8
ASSI
100
AcDbLine
 62
7
  6
CONTINUOUS
 10
-0.0199581277
 20
0.6038185834
 11
-0.0199581277
 21
-119.8031577096
  0
LINE
  5
21E
100
AcDbEntity
  8
ASSI
100
AcDbLine
 62
7
  6
CONTINUOUS
 10
0.5550418723
 20
-120.2556497001
 11
0.5550418723
 21
-120.6691831134
  0
LINE
  5
21F
100
AcDbEntity
  8
ASSI
100
AcDbLine
 62
7
  6
CONTINUOUS
 10
0.9473013756
 20
2.4088210804
 11
0.9473013756
 21
1.986353051
  0
LINE
  5
220
100
AcDbEntity
  8
ASSI
100
AcDbLine
 62
7
  6
CONTINUOUS
 10
1.4050418723
 20
-120.2556497001
 11
1.4050418723
 21
-120.6691831134
  0
LINE
  5
221
100
AcDbEntity
  8
ASSI
100
AcDbLine
 62
7
  6
CONTINUOUS
 10
1.9800418723
 20
-129.3294371512
 11
1.9800418723
 21
-120.6691831134
  0
LINE
  5
222
100
AcDbEntity
  8
ASSI
100
AcDbLine
 62
7
  6
CONTINUOUS
 10
1.9800418723
 20
0.6038185834
 11
1.9800418723
 21
-119.8031577096
  0
LINE
  5
223
100
AcDbEntity
  8
0
100
AcDbLine
 62
7
  6
CONTINUOUS
 10
2.0718943271
 20
21.1517681284
 11
2.0718943271
 21
22.1862619606
  0
LINE
  5
224
100
AcDbEntity
  8
ASSI
100
AcDbLine
 62
7
  6
CONTINUOUS
 10
2.9300418723
 20
4.274322067
 11
2.9300418723
 21
1.4403988202
  0
LINE
  5
225
100
AcDbEntity
  8
0
100
AcDbLine
 62
7
  6
CONTINUOUS
 10
3.8218943271
 20
5.5585742079
 11
3.8218943271
 21
18.5489552647
  0
LINE
  5
226
100
AcDbEntity
  8
DRAFT
100
AcDbLine
 62
7
  6
CONTINUOUS
 10
3.4201773245
 20
18.60568835
 11
3.2106421906
 21
22.0666184931
  0
LINE
  5
227
100
AcDbEntity
  8
ASSI
100
AcDbLine
 62
7
  6
CONTINUOUS
 10
-0.398816351
 20
0.7509697085
 11
-3.0151114414
 21
2.0591172537
  0
LINE
  5
228
100
AcDbEntity
  8
ASSI
100
AcDbLine
 62
7
  6
CONTINUOUS
 10
-3.0151114414
 20
3.271552819
 11
-0.398816351
 21
1.9634052738
  0
LINE
  5
229
100
AcDbEntity
  8
ASSI
100
AcDbLine
 62
7
  6
CONTINUOUS
 10
-1.543678453
 20
3.5750668094
 11
-0.398816351
 21
3.0026357584
  0
ARC
  5
22A
100
AcDbEntity
  8
0
100
AcDbCircle
 62
7
  6
CONTINUOUS
 10
-0.3281056729
 20
19.4148275394
 40
4.0001414551
100
AcDbArc
 50
67.4830146254
 51
112.5169853746
  0
ARC
  5
22B
100
AcDbEntity
  8
0
100
AcDbCircle
 62
7
  6
CONTINUOUS
 10
-0.9129900815
 20
20.0130067272
 40
3.3965661271
100
AcDbArc
 50
111.544423984
 51
113.9510926643
  0
ARC
  5
22C
100
AcDbEntity
  8
0
100
AcDbCircle
 62
7
  6
CONTINUOUS
 10
-1.0456045099
 20
20.3109785594
 40
3.0704162535
100
AcDbArc
 50
113.9467700212
 51
116.5414742294
  0
ARC
  5
22D
100
AcDbEntity
  8
0
100
AcDbCircle
 62
7
  6
CONTINUOUS
 10
-1.0606571047
 20
21.1005024285
 40
2.1614204544
100
AcDbArc
 50
116.5024811284
 51
121.1506585894
  0
ARC
  5
22E
100
AcDbEntity
  8
ASSI
100
AcDbCircle
 62
7
  6
CONTINUOUS
 10
-1.5285786317
 20
-120.2866974812
 40
1.414115623
100
AcDbArc
 50
71.1760612299
 51
73.9062326359
  0
ARC
  5
22F
100
AcDbEntity
  8
ASSI
100
AcDbCircle
 62
7
  6
CONTINUOUS
 10
1.0877164587
 20
-121.5948450264
 40
1.4141156231
100
AcDbArc
 50
71.1760612299
 51
73.9062326359
  0
ARC
  5
230
100
AcDbEntity
  8
ASSI
100
AcDbCircle
 62
7
  6
CONTINUOUS
 10
-1.7468714456
 20
-120.2774708676
 40
1.4044782162
100
AcDbArc
 50
106.0838819056
 51
108.8330449299
  0
ARC
  5
231
100
AcDbEntity
  8
ASSI
100
AcDbCircle
 62
7
  6
CONTINUOUS
 10
0.8694236448
 20
-121.5856184127
 40
1.4044782162
100
AcDbArc
 50
106.0838819056
 51
108.83304493
  0
SPLINE
  5
232
100
AcDbEntity
  8
0
100
AcDbSpline
 62
7
  6
CONTINUOUS
 70
0
 71
3
 72
9
 73
5
 74
3
 42
0.0000001
 43
0.0000001
 44
0.0000000001
 12
-0.3941741718
 22
-0.2388627945
 32
0.0
 13
-0.2997729552
 23
-0.3500926843
 33
0.0
 40
0.0
 40
0.0
 40
0.0
 40
0.0
 40
0.2699817523
 40
1.0
 40
1.0
 40
1.0
 40
1.0
 10
-2.1787387309
 20
22.9502677806
 30
0.0
 10
-2.2142120088
 20
22.928771582
 30
0.0
 10
-2.3429757539
 20
22.8451316279
 30
0.0
 10
-2.4613884322
 20
22.7438345578
 30
0.0
 10
-2.5343350081
 20
22.6586432085
 30
0.0
 11
-2.1787387309
 21
22.9502677806
 31
0.0
 11
-2.2829852411
 21
22.8823220295
 31
0.0
 11
-2.5343350081
 21
22.6586432085
 31
0.0
  0
SPLINE
  5
233
100
AcDbEntity
  8
0
100
AcDbSpline
 62
7
  6
CONTINUOUS
 70
0
 71
3
 72
9
 73
5
 74
3
 42
0.0000001
 43
0.0000001
 44
0.0000000001
 12
-0.3374933543
 22
-0.3941448096
 32
0.0
 13
-0.0002528143
 23
-0.5188948171
 33
0.0
 40
0.0
 40
0.0
 40
0.0
 40
0.0
 40
0.5258307358
 40
1.0
 40
1.0
 40
1.0
 40
1.0
 10
-2.5343350081
 20
22.6586432085
 30
0.0
 10
-2.593489801
 20
22.5895587234
 30
0.0
 10
-2.6906648743
 20
22.4425022758
 30
0.0
 10
-2.7280319986
 20
22.2682766144
 30
0.0
 10
-2.7280719575
 20
22.1862619565
 30
0.0
 11
-2.5343350081
 21
22.6586432085
 31
0.0
 11
-2.6791483055
 21
22.4273928911
 31
0.0
 11
-2.7280719575
 21
22.1862619565
 31
0.0
  0
SPLINE
  5
234
100
AcDbEntity
  8
ASSI
100
AcDbSpline
 62
7
  6
CONTINUOUS
 70
0
 71
3
 72
9
 73
5
 74
3
 42
0.0000001
 43
0.0000001
 44
0.0000000001
 12
-0.4263489832
 22
0.2131744916
 32
0.0
 13
-0.0000366486
 23
0.4766726528
 33
0.0
 40
0.0
 40
0.0
 40
0.0
 40
0.0
 40
0.5680251163
 40
1.0
 40
1.0
 40
1.0
 40
1.0
 10
-2.3433599992
 20
-118.848563555
 30
0.0
 10
-2.4240856428
 20
-118.8082007332
 30
0.0
 10
-2.5618417284
 20
-118.7206675708
 30
0.0
 10
-2.636247941
 20
-118.5636470357
 30
0.0
 10
-2.6362532181
 20
-118.4950101644
 30
0.0
 11
-2.3433599992
 21
-118.848563555
 31
0.0
 11
-2.5601434789
 21
-118.6863383869
 31
0.0
 11
-2.6362532181
 21
-118.4950101644
 31
0.0
  0
SPLINE
  5
235
100
AcDbEntity
  8
ASSI
100
AcDbSpline
 62
7
  6
CONTINUOUS
 70
0
 71
3
 72
9
 73
5
 74
3
 42
0.0000001
 43
0.0000001
 44
0.0000000001
 12
-0.4263489832
 22
0.2131744916
 32
0.0
 13
-0.0000366486
 23
0.4766726528
 33
0.0
 40
0.0
 40
0.0
 40
0.0
 40
0.0
 40
0.5680251163
 40
1.0
 40
1.0
 40
1.0
 40
1.0
 10
0.2729350911
 20
-120.1567111002
 30
0.0
 10
0.1922094476
 20
-120.1163482784
 30
0.0
 10
0.054453362
 20
-120.028815116
 30
0.0
 10
-0.0199528506
 20
-119.8717945809
 30
0.0
 10
-0.0199581277
 20
-119.8031577096
 30
0.0
 11
0.2729350911
 21
-120.1567111002
 31
0.0
 11
0.0561516115
 21
-119.9944859321
 31
0.0
 11
-0.0199581277
 21
-119.8031577096
 31
0.0
  0
SPLINE
  5
236
100
AcDbEntity
  8
DRAFT
100
AcDbSpline
 62
7
  6
CONTINUOUS
 70
0
 71
3
 72
17
 73
13
 74
11
 42
0.0000001
 43
0.0000001
 44
0.0000000001
 12
-0.4092066599
 22
6.7902058984
 32
0.0
 13
-6.0843633181
 23
-3.042181659
 33
0.0
 40
0.0
 40
0.0
 40
0.0
 40
0.0
 40
0.0383921466
 40
0.0794672251
 40
0.1248426281
 40
0.1754153842
 40
0.2925814596
 40
0.4285367816
 40
0.5763053618
 40
0.7269146125
 40
0.8709285148
 40
1.0
 40
1.0
 40
1.0
 40
1.0
 10
3.2106631701
 20
22.0662063613
 30
0.0
 10
3.2054263961
 20
22.1531032213
 30
0.0
 10
3.1673595692
 20
22.332171193
 30
0.0
 10
3.0352511404
 20
22.5856162063
 30
0.0
 10
2.832846194
 20
22.8241251066
 30
0.0
 10
2.4577231521
 20
23.1319140974
 30
0.0
 10
1.8354598376
 20
23.4443498436
 30
0.0
 10
0.95592874
 20
23.6884386273
 30
0.0
 10
-0.0262465483
 20
23.8009792411
 30
0.0
 10
-1.032452979
 20
23.7723489867
 30
0.0
 10
-1.9819029124
 20
23.6053846725
 30
0.0
 10
-2.5697519146
 20
23.395652604
 30
0.0
 10
-2.8315245178
 20
23.2647663023
 30
0.0
 11
3.2106631701
 21
22.0662063613
 31
0.0
 11
3.1579022478
 21
22.3219849332
 31
0.0
 11
3.031625382
 21
22.5712367644
 31
0.0
 11
2.8344498384
 21
22.8087179526
 31
0.0
 11
2.5705372828
 21
23.0294023439
 31
0.0
 11
1.8660964809
 21
23.4022458171
 31
0.0
 11
0.9774558253
 21
23.6584602581
 31
0.0
 11
-0.0207835805
 21
23.7765451545
 31
0.0
 11
-1.0448680399
 21
23.7465653309
 31
0.0
 11
-2.0086838224
 21
23.5710966274
 31
0.0
 11
-2.8315245178
 21
23.2647663023
 31
0.0
  0
SPLINE
  5
237
100
AcDbEntity
  8
ASSI
100
AcDbSpline
 62
7
  6
CONTINUOUS
 70
0
 71
3
 72
14
 73
10
 74
8
 42
0.0000001
 43
0.0000001
 44
0.0000000001
 12
1.7279028973
 22
-0.8639514486
 32
0.0
 13
0.0012257982
 23
1.9318537795
 33
0.0
 40
0.0
 40
0.0
 40
0.0
 40
0.0
 40
0.2743848913
 40
0.4260932357
 40
0.5746121369
 40
0.7106265385
 40
0.827118799
 40
0.9216286763
 40
1.0
 40
1.0
 40
1.0
 40
1.0
 10
-2.3433599992
 20
-128.3748429966
 30
0.0
 10
-2.185323183
 20
-128.4538614048
 30
0.0
 10
-1.9101183543
 20
-128.516876383
 30
0.0
 10
-1.5402010622
 20
-128.5259807309
 30
0.0
 10
-1.2600366958
 20
-128.4920548942
 30
0.0
 10
-1.0105782491
 20
-128.4202439178
 30
0.0
 10
-0.8110138287
 20
-128.315623177
 30
0.0
 10
-0.673670254
 20
-128.1836708448
 30
0.0
 10
-0.6362852405
 20
-128.0717569187
 30
0.0
 10
-0.6362532181
 20
-128.0212896061
 30
0.0
 11
-2.3433599992
 21
-128.3748429966
 31
0.0
 11
-1.8312570457
 21
-128.51168766
 31
0.0
 11
-1.5382662991
 21
-128.518854909
 31
0.0
 11
-1.2535697857
 21
-128.4832293723
 31
0.0
 11
-1.001875374
 21
-128.4077791579
 31
0.0
 11
-0.8048332187
 21
-128.2990587931
 31
0.0
 11
-0.6793598766
 21
-128.1664253082
 31
0.0
 11
-0.6362532181
 21
-128.0212896061
 31
0.0
  0
SPLINE
  5
238
100
AcDbEntity
  8
ASSI
100
AcDbSpline
 62
7
  6
CONTINUOUS
 70
0
 71
3
 72
14
 73
10
 74
8
 42
0.0000001
 43
0.0000001
 44
0.0000000001
 12
1.7279028973
 22
-0.8639514486
 32
0.0
 13
0.0012257982
 23
1.9318537795
 33
0.0
 40
0.0
 40
0.0
 40
0.0
 40
0.0
 40
0.2743848913
 40
0.4260932357
 40
0.5746121369
 40
0.7106265385
 40
0.827118799
 40
0.9216286763
 40
1.0
 40
1.0
 40
1.0
 40
1.0
 10
0.2729350911
 20
-129.6829905418
 30
0.0
 10
0.4309719074
 20
-129.76200895
 30
0.0
 10
0.7061767361
 20
-129.8250239282
 30
0.0
 10
1.0760940282
 20
-129.8341282761
 30
0.0
 10
1.3562583946
 20
-129.8002024394
 30
0.0
 10
1.6057168413
 20
-129.728391463
 30
0.0
 10
1.8052812617
 20
-129.6237707222
 30
0.0
 10
1.9426248364
 20
-129.49181839
 30
0.0
 10
1.9800098499
 20
-129.3799044639
 30
0.0
 10
1.9800418723
 20
-129.3294371512
 30
0.0
 11
0.2729350911
 21
-129.6829905418
 31
0.0
 11
0.7850380447
 21
-129.8198352052
 31
0.0
 11
1.0780287913
 21
-129.8270024542
 31
0.0
 11
1.3627253047
 21
-129.7913769175
 31
0.0
 11
1.6144197164
 21
-129.7159267031
 31
0.0
 11
1.8114618717
 21
-129.6072063383
 31
0.0
 11
1.9369352138
 21
-129.4745728534
 31
0.0
 11
1.9800418723
 21
-129.3294371512
 31
0.0
  0
SPLINE
  5
239
100
AcDbEntity
  8
ASSI
100
AcDbSpline
 62
7
  6
CONTINUOUS
 70
0
 71
3
 72
9
 73
5
 74
3
 42
0.0000001
 43
0.0000001
 44
0.0000000001
 12
-0.1386384081
 22
0.0693192041
 32
0.0
 13
-0.1466930986
 23
0.0500689034
 33
0.0
 40
0.0
 40
0.0
 40
0.0
 40
0.0
 40
0.2399287296
 40
1.0
 40
1.0
 40
1.0
 40
1.0
 10
-0.9291464369
 20
-119.0074821776
 30
0.0
 10
-0.9402342159
 20
-119.0019382881
 30
0.0
 10
-0.9868923445
 20
-118.9797258945
 30
0.0
 10
-1.0351326696
 20
-118.9609018063
 30
0.0
 10
-1.0722984062
 20
-118.9482164947
 30
0.0
 11
-0.9291464369
 21
-119.0074821776
 31
0.0
 11
-0.9627145474
 21
-118.9914745558
 31
0.0
 11
-1.0722984062
 21
-118.9482164947
 31
0.0
  0
SPLINE
  5
23A
100
AcDbEntity
  8
ASSI
100
AcDbSpline
 62
7
  6
CONTINUOUS
 70
0
 71
3
 72
9
 73
5
 74
3
 42
0.0000001
 43
0.0000001
 44
0.0000000001
 12
-0.1466535936
 22
-0.0500819561
 32
0.0
 13
-0.138608741
 23
-0.0693043705
 33
0.0
 40
0.0
 40
0.0
 40
0.0
 40
0.0
 40
0.2591926907
 40
1.0
 40
1.0
 40
1.0
 40
1.0
 10
-2.2002533265
 20
-118.948183867
 30
0.0
 10
-2.2129238396
 20
-118.952510826
 30
0.0
 10
-2.2615507939
 20
-118.9699383395
 30
0.0
 10
-2.3091325431
 20
-118.9903684495
 30
0.0
 10
-2.3433599992
 20
-119.0074821776
 30
0.0
 11
-2.2002533265
 21
-118.948183867
 31
0.0
 11
-2.2380611241
 21
-118.9617467112
 31
0.0
 11
-2.3433599992
 21
-119.0074821776
 31
0.0
  0
SPLINE
  5
23B
100
AcDbEntity
  8
ASSI
100
AcDbSpline
 62
7
  6
CONTINUOUS
 70
0
 71
3
 72
10
 73
6
 74
4
 42
0.0000001
 43
0.0000001
 44
0.0000000001
 12
-0.4276106085
 22
-0.2138053042
 32
0.0
 13
-0.0003033529
 23
-0.478083098
 33
0.0
 40
0.0
 40
0.0
 40
0.0
 40
0.0
 40
0.3045327084
 40
0.5692650976
 40
1.0
 40
1.0
 40
1.0
 40
1.0
 10
-2.3433599992
 20
-119.0074821776
 30
0.0
 10
-2.3867671382
 20
-119.0291857471
 30
0.0
 10
-2.4652171432
 20
-119.0762350241
 30
0.0
 10
-2.5844349192
 20
-119.1818529699
 30
0.0
 10
-2.6362096632
 20
-119.2923932094
 30
0.0
 10
-2.6362532181
 20
-119.3610355682
 30
0.0
 11
-2.3433599992
 21
-119.0074821776
 31
0.0
 11
-2.4676732174
 21
-119.0832663812
 31
0.0
 11
-2.5601327506
 21
-119.169693852
 31
0.0
 11
-2.6362532181
 21
-119.3610355682
 31
0.0
  0
SPLINE
  5
23C
100
AcDbEntity
  8
ASSI
100
AcDbSpline
 62
7
  6
CONTINUOUS
 70
0
 71
3
 72
9
 73
5
 74
3
 42
0.0000001
 43
0.0000001
 44
0.0000000001
 12
-0.1386384081
 22
0.0693192041
 32
0.0
 13
-0.1466930986
 23
0.0500689034
 33
0.0
 40
0.0
 40
0.0
 40
0.0
 40
0.0
 40
0.2399287296
 40
1.0
 40
1.0
 40
1.0
 40
1.0
 10
1.6871486535
 20
-120.3156297228
 30
0.0
 10
1.6760608745
 20
-120.3100858333
 30
0.0
 10
1.6294027458
 20
-120.2878734397
 30
0.0
 10
1.5811624207
 20
-120.2690493515
 30
0.0
 10
1.5439966841
 20
-120.2563640399
 30
0.0
 11
1.6871486535
 21
-120.3156297228
 31
0.0
 11
1.653580543
 21
-120.299622101
 31
0.0
 11
1.5439966841
 21
-120.2563640399
 31
0.0
  0
SPLINE
  5
23D
100
AcDbEntity
  8
ASSI
100
AcDbSpline
 62
7
  6
CONTINUOUS
 70
0
 71
3
 72
9
 73
5
 74
3
 42
0.0000001
 43
0.0000001
 44
0.0000000001
 12
-0.1466535936
 22
-0.0500819561
 32
0.0
 13
-0.138608741
 23
-0.0693043705
 33
0.0
 40
0.0
 40
0.0
 40
0.0
 40
0.0
 40
0.2591926907
 40
1.0
 40
1.0
 40
1.0
 40
1.0
 10
0.4160417639
 20
-120.2563314122
 30
0.0
 10
0.4033712508
 20
-120.2606583712
 30
0.0
 10
0.3547442965
 20
-120.2780858847
 30
0.0
 10
0.3071625473
 20
-120.2985159947
 30
0.0
 10
0.2729350911
 20
-120.3156297228
 30
0.0
 11
0.4160417639
 21
-120.2563314122
 31
0.0
 11
0.3782339663
 21
-120.2698942564
 31
0.0
 11
0.2729350911
 21
-120.3156297228
 31
0.0
  0
SPLINE
  5
23E
100
AcDbEntity
  8
ASSI
100
AcDbSpline
 62
7
  6
CONTINUOUS
 70
0
 71
3
 72
10
 73
6
 74
4
 42
0.0000001
 43
0.0000001
 44
0.0000000001
 12
-0.4276106085
 22
-0.2138053042
 32
0.0
 13
-0.0003033529
 23
-0.478083098
 33
0.0
 40
0.0
 40
0.0
 40
0.0
 40
0.0
 40
0.3045327084
 40
0.5692650976
 40
1.0
 40
1.0
 40
1.0
 40
1.0
 10
0.2729350911
 20
-120.3156297228
 30
0.0
 10
0.2295279522
 20
-120.3373332923
 30
0.0
 10
0.1510779472
 20
-120.3843825693
 30
0.0
 10
0.0318601712
 20
-120.4900005151
 30
0.0
 10
-0.0199145728
 20
-120.6005407546
 30
0.0
 10
-0.0199581277
 20
-120.6691831134
 30
0.0
 11
0.2729350911
 21
-120.3156297228
 31
0.0
 11
0.148621873
 21
-120.3914139264
 31
0.0
 11
0.0561623398
 21
-120.4778413972
 31
0.0
 11
-0.0199581277
 21
-120.6691831134
 31
0.0
  0
SPLINE
  5
23F
100
AcDbEntity
  8
0
100
AcDbSpline
 62
7
  6
CONTINUOUS
 70
0
 71
3
 72
11
 73
7
 74
5
 42
0.0000001
 43
0.0000001
 44
0.0000000001
 12
1.7864981525
 22
0.8932490763
 32
0.0
 13
-0.0000005301
 23
1.9973656554
 33
0.0
 40
0.0
 40
0.0
 40
0.0
 40
0.0
 40
0.302580428
 40
0.5654850387
 40
0.793432444
 40
1.0
 40
1.0
 40
1.0
 40
1.0
 10
2.6063874691
 20
4.091327637
 30
0.0
 10
2.7865739276
 20
4.1814208663
 30
0.0
 10
3.1122399082
 20
4.374644086
 30
0.0
 10
3.5075156979
 20
4.7318788806
 30
0.0
 10
3.7611494547
 20
5.1295251279
 30
0.0
 10
3.8218899245
 20
5.421043894
 30
0.0
 10
3.821889888
 20
5.5585742079
 30
0.0
 11
2.6063874691
 21
4.091327637
 31
0.0
 11
3.122506004
 21
4.4057750987
 31
0.0
 11
3.5059899478
 21
4.7645055691
 31
0.0
 11
3.7421521713
 21
5.1537616812
 31
0.0
 11
3.821889888
 21
5.5585742079
 31
0.0
  0
SPLINE
  5
240
100
AcDbEntity
  8
ASSI
100
AcDbSpline
 62
7
  6
CONTINUOUS
 70
0
 71
3
 72
15
 73
11
 74
9
 42
0.0000001
 43
0.0000001
 44
0.0000000001
 12
-0.0000439136
 22
-3.7712941149
 32
0.0
 13
-3.3731480019
 23
1.6865740009
 33
0.0
 40
0.0
 40
0.0
 40
0.0
 40
0.0
 40
0.0782811391
 40
0.1726877547
 40
0.2890670969
 40
0.4249351162
 40
0.5732758541
 40
0.7248765353
 40
0.8700069285
 40
1.0
 40
1.0
 40
1.0
 40
1.0
 10
2.9300418723
 20
1.4403988202
 30
0.0
 10
2.9300407265
 20
1.3419917538
 30
0.0
 10
2.8571656827
 20
1.1237312553
 30
0.0
 10
2.5893447055
 20
0.8663952078
 30
0.0
 10
2.2001643598
 20
0.6624214481
 30
0.0
 10
1.7135789123
 20
0.5224156546
 30
0.0
 10
1.1677408514
 20
0.4562612163
 30
0.0
 10
0.6063608677
 20
0.4696390802
 30
0.0
 10
0.0759246733
 20
0.5612483808
 30
0.0
 10
-0.2526543945
 20
0.6778887303
 30
0.0
 10
-0.398816351
 20
0.7509697085
 30
0.0
 11
2.9300418723
 21
1.4403988202
 31
0.0
 11
2.8460683289
 21
1.1573723187
 31
0.0
 11
2.6014076163
 21
0.898717843
 31
0.0
 11
2.2171039468
 21
0.6867165712
 31
0.0
 11
1.7262745654
 21
0.539616276
 31
0.0
 11
1.1711741957
 21
0.4700976804
 31
0.0
 11
0.5996157444
 21
0.4841331718
 31
0.0
 11
0.0608401935
 21
0.5805197652
 31
0.0
 11
-0.398816351
 21
0.7509697085
 31
0.0
  0
SPLINE
  5
241
100
AcDbEntity
  8
0
100
AcDbSpline
 62
7
  6
CONTINUOUS
 70
0
 71
3
 72
9
 73
5
 74
3
 42
0.0000001
 43
0.0000001
 44
0.0000000001
 12
-0.7642244063
 22
-0.7479737161
 32
0.0
 13
0.0000002838
 23
-1.0693472884
 33
0.0
 40
0.0
 40
0.0
 40
0.0
 40
0.0
 40
0.5333799091
 40
1.0
 40
1.0
 40
1.0
 40
1.0
 10
-4.0237172626
 20
19.4930061389
 30
0.0
 10
-4.1595912441
 20
19.3600214214
 30
0.0
 10
-4.3860098863
 20
19.0744673883
 30
0.0
 10
-4.4781012778
 20
18.7152815744
 30
0.0
 10
-4.4781012337
 20
18.5489552647
 30
0.0
 11
-4.0237172626
 21
19.4930061389
 31
0.0
 11
-4.3629102397
 21
19.0344560437
 31
0.0
 11
-4.4781012337
 21
18.5489552647
 31
0.0
  0
SPLINE
  5
242
100
AcDbEntity
  8
0
100
AcDbSpline
 62
7
  6
CONTINUOUS
 70
0
 71
3
 72
17
 73
13
 74
11
 42
0.0000001
 43
0.0000001
 44
0.0000000001
 12
-0.0000081899
 22
-5.721692961
 32
0.0
 13
5.1176377629
 23
2.5588188815
 33
0.0
 40
0.0
 40
0.0
 40
0.0
 40
0.0
 40
0.0382998858
 40
0.0789362799
 40
0.123705983
 40
0.1736612131
 40
0.2899031783
 40
0.4256118168
 40
0.5737777176
 40
0.7251998889
 40
0.8701629849
 40
1.0
 40
1.0
 40
1.0
 40
1.0
 10
-3.2830981013
 20
22.0130568799
 30
0.0
 10
-3.2830982058
 20
21.9400101508
 30
0.0
 10
-3.2600590919
 20
21.7886575449
 30
0.0
 10
-3.1598838004
 20
21.5722688329
 30
0.0
 10
-2.9986799831
 20
21.3681361047
 30
0.0
 10
-2.6929817344
 20
21.1037057147
 30
0.0
 10
-2.1763599435
 20
20.8340877592
 30
0.0
 10
-1.4399161983
 20
20.6219761497
 30
0.0
 10
-0.6124803751
 20
20.5216945157
 30
0.0
 10
0.2381527473
 20
20.5419908128
 30
0.0
 10
1.0419892612
 20
20.6808047136
 30
0.0
 10
1.539908595
 20
20.8575634754
 30
0.0
 10
1.7613948655
 20
20.9683066106
 30
0.0
 11
-3.2830981013
 21
22.0130568799
 31
0.0
 11
-3.2511165681
 21
21.7962629613
 31
0.0
 11
-3.1558618001
 21
21.5841616874
 31
0.0
 11
-2.9993938448
 21
21.3813441502
 31
0.0
 11
-2.7850969171
 21
21.1922020035
 31
0.0
 11
-2.2027331109
 21
20.8709365105
 31
0.0
 11
-1.4589338406
 21
20.648026785
 31
0.0
 11
-0.6177460189
 21
20.5426716099
 31
0.0
 11
0.2483838414
 21
20.5639490102
 31
0.0
 11
1.0648557334
 21
20.7100138935
 31
0.0
 11
1.7613948655
 21
20.9683066106
 31
0.0
  0
SPLINE
  5
243
100
AcDbEntity
  8
DRAFT
100
AcDbSpline
 62
7
  6
CONTINUOUS
 70
0
 71
3
 72
11
 73
7
 74
5
 42
0.0000001
 43
0.0000001
 44
0.0000000001
 12
-1.4771286396
 22
-0.7385643198
 32
0.0
 13
-0.0995853955
 23
-1.6484747561
 33
0.0
 40
0.0
 40
0.0
 40
0.0
 40
0.0
 40
0.3009115646
 40
0.5642044937
 40
0.7932583179
 40
1.0
 40
1.0
 40
1.0
 40
1.0
 10
-2.8315245178
 20
23.2647663023
 30
0.0
 10
-2.9796862145
 20
23.190685454
 30
0.0
 10
-3.2485512919
 20
23.0319371868
 30
0.0
 10
-3.578581765
 20
22.7408512552
 30
0.0
 10
-3.797376063
 20
22.4178806048
 30
0.0
 10
-3.8600036271
 20
22.1798098201
 30
0.0
 10
-3.8668664445
 20
22.0662070054
 30
0.0
 11
-2.8315245178
 21
23.2647663023
 31
0.0
 11
-3.2567694497
 21
23.0076175281
 31
0.0
 11
-3.5783138685
 21
22.714905657
 31
0.0
 11
-3.7839815412
 21
22.3974235097
 31
0.0
 11
-3.8668664445
 21
22.0662070054
 31
0.0
  0
SPLINE
  5
244
100
AcDbEntity
  8
0
100
AcDbSpline
 62
7
  6
CONTINUOUS
 70
0
 71
3
 72
11
 73
7
 74
5
 42
0.0000001
 43
0.0000001
 44
0.0000000001
 12
1.2720700766
 22
0.6360350383
 32
0.0
 13
0.0000020357
 23
1.4222175817
 33
0.0
 40
0.0
 40
0.0
 40
0.0
 40
0.0
 40
0.3025821969
 40
0.5654827627
 40
0.7934330745
 40
1.0
 40
1.0
 40
1.0
 40
1.0
 10
1.7613948655
 20
20.9683066106
 30
0.0
 10
1.889696785
 20
21.0324575704
 30
0.0
 10
2.1215875018
 20
21.1700381146
 30
0.0
 10
2.403036924
 20
21.4244121378
 30
0.0
 10
2.5836369148
 20
21.7075529167
 30
0.0
 10
2.6268866154
 20
21.9151291754
 30
0.0
 10
2.6268867555
 20
22.0130568798
 30
0.0
 11
1.7613948655
 21
20.9683066106
 31
0.0
 11
2.128898048
 21
21.1922082954
 31
0.0
 11
2.4019494632
 21
21.4476402547
 31
0.0
 11
2.5701101398
 21
21.7248123073
 31
0.0
 11
2.6268867555
 21
22.0130568798
 31
0.0
  0
SPLINE
  5
245
100
AcDbEntity
  8
0
100
AcDbSpline
 62
7
  6
CONTINUOUS
 70
0
 71
3
 72
11
 73
7
 74
5
 42
0.0000001
 43
0.0000001
 44
0.0000000001
 12
0.0000006588
 22
-2.4821479542
 32
0.0
 13
2.3246456781
 23
-0.8701039812
 33
0.0
 40
0.0
 40
0.0
 40
0.0
 40
0.0
 40
0.1974033793
 40
0.4222086103
 40
0.6890941135
 40
1.0
 40
1.0
 40
1.0
 40
1.0
 10
-4.4781012337
 20
5.5585742079
 30
0.0
 10
-4.4781011904
 20
5.3952460765
 30
0.0
 10
-4.3893776031
 20
5.0430102886
 30
0.0
 10
-4.0335550531
 20
4.5839243424
 30
0.0
 10
-3.4930489895
 20
4.1882939607
 30
0.0
 10
-3.0560233306
 20
3.9876246162
 30
0.0
 10
-2.8151079889
 20
3.897451133
 30
0.0
 11
-4.4781012337
 21
5.5585742079
 31
0.0
 11
-4.3668729327
 21
5.0813814045
 31
0.0
 11
-4.0391381983
 21
4.6297689933
 31
0.0
 11
-3.5124715754
 21
4.2279464566
 31
0.0
 11
-2.8151079889
 21
3.897451133
 31
0.0
  0
SPLINE
  5
246
100
AcDbEntity
  8
0
100
AcDbSpline
 62
7
  6
CONTINUOUS
 70
0
 71
3
 72
11
 73
7
 74
5
 42
0.0000001
 43
0.0000001
 44
0.0000000001
 12
5.1947471783
 22
-1.94436952
 32
0.0
 13
4.9611265718
 23
2.4805632859
 33
0.0
 40
0.0
 40
0.0
 40
0.0
 40
0.0
 40
0.2449129506
 40
0.5094594248
 40
0.7689823727
 40
1.0
 40
1.0
 40
1.0
 40
1.0
 10
-2.8151079889
 20
3.897451133
 30
0.0
 10
-2.3910210359
 20
3.7387173743
 30
0.0
 10
-1.4663851104
 20
3.51977004
 30
0.0
 10
-0.0398766349
 20
3.4467587277
 30
0.0
 10
1.35242812
 20
3.6158245499
 30
0.0
 10
2.2243515727
 20
3.9003096888
 30
0.0
 10
2.6063874691
 20
4.091327637
 30
0.0
 11
-2.8151079889
 21
3.897451133
 31
0.0
 11
-1.4972945168
 21
3.5676284519
 31
0.0
 11
-0.0320480626
 21
3.4888610701
 31
0.0
 11
1.3958687942
 21
3.6710918917
 31
0.0
 11
2.6063874691
 21
4.091327637
 31
0.0
  0
SPLINE
  5
247
100
AcDbEntity
  8
0
100
AcDbSpline
 62
7
  6
CONTINUOUS
 70
0
 71
3
 72
9
 73
5
 74
3
 42
0.0000001
 43
0.0000001
 44
0.0000000001
 12
-0.0000002838
 22
1.0693466822
 32
0.0
 13
-0.76423216
 23
0.7479649272
 33
0.0
 40
0.0
 40
0.0
 40
0.0
 40
0.0
 40
0.4666216755
 40
1.0
 40
1.0
 40
1.0
 40
1.0
 10
3.821889888
 20
18.5489552647
 30
0.0
 10
3.8218898438
 20
18.7152820449
 30
0.0
 10
3.7297968619
 20
19.0744665537
 30
0.0
 10
3.5033821874
 20
19.3600237205
 30
0.0
 10
3.3675072311
 20
19.4930064804
 30
0.0
 11
3.821889888
 21
18.5489552647
 31
0.0
 11
3.7066980412
 21
19.0344572922
 31
0.0
 11
3.3675072311
 21
19.4930064804
 31
0.0
  0
SPLINE
  5
248
100
AcDbEntity
  8
ASSI
100
AcDbSpline
 62
7
  6
CONTINUOUS
 70
0
 71
3
 72
11
 73
7
 74
5
 42
0.0000001
 43
0.0000001
 44
0.0000000001
 12
-0.8394397092
 22
0.4197198546
 32
0.0
 13
0.0000109283
 23
0.9385221264
 33
0.0
 40
0.0
 40
0.0
 40
0.0
 40
0.0
 40
0.3025722896
 40
0.5654862393
 40
0.7934323727
 40
1.0
 40
1.0
 40
1.0
 40
1.0
 10
-3.0151114414
 20
2.0591172537
 30
0.0
 10
-3.099775173
 20
2.1014491195
 30
0.0
 10
-3.2527985779
 20
2.192241554
 30
0.0
 10
-3.4385345033
 20
2.3600959521
 30
0.0
 10
-3.5577094885
 20
2.5469458858
 30
0.0
 10
-3.5862539705
 20
2.6839236024
 30
0.0
 10
-3.5862532181
 20
2.7485463654
 30
0.0
 11
-3.0151114414
 21
2.0591172537
 31
0.0
 11
-3.257618962
 21
2.2068653882
 31
0.0
 11
-3.4378183065
 21
2.3754300188
 31
0.0
 11
-3.5487845148
 21
2.5583333014
 31
0.0
 11
-3.5862532181
 21
2.7485463654
 31
0.0
  0
SPLINE
  5
249
100
AcDbEntity
  8
ASSI
100
AcDbSpline
 62
7
  6
CONTINUOUS
 70
0
 71
3
 72
10
 73
6
 74
4
 42
0.0000001
 43
0.0000001
 44
0.0000000001
 12
-0.000303345
 22
-0.478070696
 32
0.0
 13
0.4275995158
 23
-0.2137997579
 33
0.0
 40
0.0
 40
0.0
 40
0.0
 40
0.0
 40
0.4307460764
 40
0.6961081228
 40
1.0
 40
1.0
 40
1.0
 40
1.0
 10
-0.0199581277
 20
-129.3294371512
 30
0.0
 10
-0.0200016826
 20
-129.3980795101
 30
0.0
 10
0.0318993709
 20
-129.5087525861
 30
0.0
 10
0.1512246071
 20
-129.6142114981
 30
0.0
 10
0.229620418
 20
-129.6613332052
 30
0.0
 10
0.2729350911
 20
-129.6829905418
 30
0.0
 11
-0.0199581277
 21
-129.3294371512
 31
0.0
 11
0.0561623398
 21
-129.5207788674
 31
0.0
 11
0.1489020683
 21
-129.6073425443
 31
0.0
 11
0.2729350911
 21
-129.6829905418
 31
0.0
  0
SPLINE
  5
24A
100
AcDbEntity
  8
ASSI
100
AcDbSpline
 62
7
  6
CONTINUOUS
 70
0
 71
3
 72
10
 73
6
 74
4
 42
0.0000001
 43
0.0000001
 44
0.0000000001
 12
0.000303345
 22
0.478070696
 32
0.0
 13
-0.4275995158
 23
0.2137997579
 33
0.0
 40
0.0
 40
0.0
 40
0.0
 40
0.0
 40
0.4307460764
 40
0.6961081228
 40
1.0
 40
1.0
 40
1.0
 40
1.0
 10
1.9800418723
 20
-120.6691831134
 30
0.0
 10
1.9800854272
 20
-120.6005407546
 30
0.0
 10
1.9281843737
 20
-120.4898676786
 30
0.0
 10
1.8088591376
 20
-120.3844087666
 30
0.0
 10
1.7304633267
 20
-120.3372870594
 30
0.0
 10
1.6871486535
 20
-120.3156297228
 30
0.0
 11
1.9800418723
 21
-120.6691831134
 31
0.0
 11
1.9039214048
 21
-120.4778413972
 31
0.0
 11
1.8111816763
 21
-120.3912777203
 31
0.0
 11
1.6871486535
 21
-120.3156297228
 31
0.0
  0
SPLINE
  5
24B
100
AcDbEntity
  8
ASSI
100
AcDbSpline
 62
7
  6
CONTINUOUS
 70
0
 71
3
 72
10
 73
6
 74
4
 42
0.0000001
 43
0.0000001
 44
0.0000000001
 12
-0.000303345
 22
-0.478070696
 32
0.0
 13
0.4275995158
 23
-0.2137997579
 33
0.0
 40
0.0
 40
0.0
 40
0.0
 40
0.0
 40
0.4307460764
 40
0.6961081228
 40
1.0
 40
1.0
 40
1.0
 40
1.0
 10
-2.6362532181
 20
-128.0212896061
 30
0.0
 10
-2.636296773
 20
-128.0899319649
 30
0.0
 10
-2.5843957195
 20
-128.2006050409
 30
0.0
 10
-2.4650704833
 20
-128.3060639529
 30
0.0
 10
-2.3866746724
 20
-128.3531856601
 30
0.0
 10
-2.3433599992
 20
-128.3748429966
 30
0.0
 11
-2.6362532181
 21
-128.0212896061
 31
0.0
 11
-2.5601327506
 21
-128.2126313222
 31
0.0
 11
-2.4673930221
 21
-128.2991949991
 31
0.0
 11
-2.3433599992
 21
-128.3748429966
 31
0.0
  0
SPLINE
  5
24C
100
AcDbEntity
  8
ASSI
100
AcDbSpline
 62
7
  6
CONTINUOUS
 70
0
 71
3
 72
10
 73
6
 74
4
 42
0.0000001
 43
0.0000001
 44
0.0000000001
 12
0.000303345
 22
0.478070696
 32
0.0
 13
-0.4275995158
 23
0.2137997579
 33
0.0
 40
0.0
 40
0.0
 40
0.0
 40
0.0
 40
0.4307460764
 40
0.6961081228
 40
1.0
 40
1.0
 40
1.0
 40
1.0
 10
-0.6362532181
 20
-119.3610355682
 30
0.0
 10
-0.6362096632
 20
-119.2923932094
 30
0.0
 10
-0.6881107167
 20
-119.1817201334
 30
0.0
 10
-0.8074359528
 20
-119.0762612214
 30
0.0
 10
-0.8858317637
 20
-119.0291395142
 30
0.0
 10
-0.9291464369
 20
-119.0074821776
 30
0.0
 11
-0.6362532181
 21
-119.3610355682
 31
0.0
 11
-0.7123736855
 21
-119.169693852
 31
0.0
 11
-0.8051134141
 21
-119.0831301751
 31
0.0
 11
-0.9291464369
 21
-119.0074821776
 31
0.0
  0
SPLINE
  5
24D
100
AcDbEntity
  8
ASSI
100
AcDbSpline
 62
7
  6
CONTINUOUS
 70
0
 71
3
 72
10
 73
6
 74
4
 42
0.0000001
 43
0.0000001
 44
0.0000000001
 12
1.0321662566
 22
-0.5160831283
 32
0.0
 13
1.0324481833
 23
-0.5155188892
 33
0.0
 40
0.0
 40
0.0
 40
0.0
 40
0.0
 40
0.4683657614
 40
0.7295429055
 40
1.0
 40
1.0
 40
1.0
 40
1.0
 10
-0.398816351
 20
3.0026357584
 30
0.0
 10
-0.2376725728
 20
2.9220638693
 30
0.0
 10
0.0307300479
 20
2.8334209443
 30
0.0
 10
0.3997488528
 20
2.7274942542
 30
0.0
 10
0.5931449317
 20
2.6577962025
 30
0.0
 10
0.686222577
 20
2.6113209555
 30
0.0
 11
-0.398816351
 21
3.0026357584
 31
0.0
 11
0.1072906688
 21
2.8129307145
 31
0.0
 11
0.39565175
 21
2.7252470906
 31
0.0
 11
0.686222577
 21
2.6113209555
 31
0.0
  0
SPLINE
  5
24E
100
AcDbEntity
  8
ASSI
100
AcDbSpline
 62
7
  6
CONTINUOUS
 70
0
 71
3
 72
11
 73
7
 74
5
 42
0.0000001
 43
0.0000001
 44
0.0000000001
 12
0.0000493492
 22
-0.6418646534
 32
0.0
 13
-0.6084202915
 23
-0.2044871257
 33
0.0
 40
0.0
 40
0.0
 40
0.0
 40
0.0
 40
0.1944092402
 40
0.4183810915
 40
0.6866980706
 40
1.0
 40
1.0
 40
1.0
 40
1.0
 10
1.9800418723
 20
-119.8031577096
 30
0.0
 10
1.9800450703
 20
-119.8447525161
 30
0.0
 10
1.9558530183
 20
-119.9350011639
 30
0.0
 10
1.8604233825
 20
-120.0504789684
 30
0.0
 10
1.7167960089
 20
-120.1484301818
 30
0.0
 10
1.6013312939
 20
-120.1968025604
 30
0.0
 10
1.5377915435
 20
-120.218157964
 30
0.0
 11
1.9800418723
 21
-119.8031577096
 31
0.0
 11
1.9502320118
 21
-119.9243291736
 31
0.0
 11
1.8625793923
 21
-120.0382758507
 31
0.0
 11
1.7223116021
 21
-120.1382046884
 31
0.0
 11
1.5377915435
 21
-120.218157964
 31
0.0
  0
SPLINE
  5
24F
100
AcDbEntity
  8
ASSI
100
AcDbSpline
 62
7
  6
CONTINUOUS
 70
0
 71
3
 72
9
 73
5
 74
3
 42
0.0000001
 43
0.0000001
 44
0.0000000001
 12
-1.0693929037
 22
-0.3594177975
 32
0.0
 13
-1.0694148683
 23
0.3593524386
 33
0.0
 40
0.0
 40
0.0
 40
0.0
 40
0.0
 40
0.4999621186
 40
1.0
 40
1.0
 40
1.0
 40
1.0
 10
1.5377915435
 20
-120.218157964
 30
0.0
 10
1.3595728962
 20
-120.2780563919
 30
0.0
 10
0.9801622032
 20
-120.3282308702
 30
0.0
 10
0.6007371931
 20
-120.2781127053
 30
0.0
 10
0.422487878
 20
-120.2182160946
 30
0.0
 11
1.5377915435
 21
-120.218157964
 31
0.0
 11
0.9801873697
 21
-120.3031577071
 31
0.0
 11
0.422487878
 21
-120.2182160946
 31
0.0
  0
SPLINE
  5
250
100
AcDbEntity
  8
ASSI
100
AcDbSpline
 62
7
  6
CONTINUOUS
 70
0
 71
3
 72
9
 73
5
 74
3
 42
0.0000001
 43
0.0000001
 44
0.0000000001
 12
-0.1533510943
 22
0.0515301324
 32
0.0
 13
-0.1446980654
 23
0.0723490327
 33
0.0
 40
0.0
 40
0.0
 40
0.0
 40
0.0
 40
0.2597994987
 40
1.0
 40
1.0
 40
1.0
 40
1.0
 10
0.422487878
 20
-120.2182160946
 30
0.0
 10
0.4092076989
 20
-120.2137535937
 30
0.0
 10
0.3583666034
 20
-120.1957796542
 30
0.0
 10
0.3086369513
 20
-120.1745620303
 30
0.0
 10
0.2729350911
 20
-120.1567111002
 30
0.0
 11
0.422487878
 21
-120.2182160946
 31
0.0
 11
0.3828657344
 21
-120.2041954177
 31
0.0
 11
0.2729350911
 21
-120.1567111002
 31
0.0
  0
SPLINE
  5
251
100
AcDbEntity
  8
0
100
AcDbSpline
 62
7
  6
CONTINUOUS
 70
0
 71
3
 72
11
 73
7
 74
5
 42
0.0000001
 43
0.0000001
 44
0.0000000001
 12
0.0006506695
 22
1.3354821004
 32
0.0
 13
-1.2335987705
 23
0.5116120964
 33
0.0
 40
0.0
 40
0.0
 40
0.0
 40
0.0
 40
0.2004719412
 40
0.4262308013
 40
0.6917161959
 40
1.0
 40
1.0
 40
1.0
 40
1.0
 10
2.0718606118
 20
22.1862619647
 30
0.0
 10
2.0719040921
 20
22.2755041944
 30
0.0
 10
2.0265899159
 20
22.46681011
 30
0.0
 10
1.8424602893
 20
22.7203898429
 30
0.0
 10
1.5601870733
 20
22.9422581587
 30
0.0
 10
1.3305353197
 20
23.0574433273
 30
0.0
 10
1.2037691458
 20
23.1100172351
 30
0.0
 11
2.0718606118
 21
22.1862619647
 31
0.0
 11
2.0142034092
 21
22.4477064981
 31
0.0
 11
1.8440236596
 21
22.6965825017
 31
0.0
 11
1.5694987778
 21
22.9209539021
 31
0.0
 11
1.2037691458
 21
23.1100172351
 31
0.0
  0
SPLINE
  5
252
100
AcDbEntity
  8
ASSI
100
AcDbSpline
 62
7
  6
CONTINUOUS
 70
0
 71
3
 72
11
 73
7
 74
5
 42
0.0000001
 43
0.0000001
 44
0.0000000001
 12
0.0000493492
 22
-0.6418646534
 32
0.0
 13
-0.6084202915
 23
-0.2044871257
 33
0.0
 40
0.0
 40
0.0
 40
0.0
 40
0.0
 40
0.1944092402
 40
0.4183810915
 40
0.6866980706
 40
1.0
 40
1.0
 40
1.0
 40
1.0
 10
-0.6362532181
 20
-118.4950101644
 30
0.0
 10
-0.6362500201
 20
-118.5366049709
 30
0.0
 10
-0.6604420721
 20
-118.6268536187
 30
0.0
 10
-0.7558717079
 20
-118.7423314232
 30
0.0
 10
-0.8994990815
 20
-118.8402826366
 30
0.0
 10
-1.0149637965
 20
-118.8886550152
 30
0.0
 10
-1.0785035469
 20
-118.9100104189
 30
0.0
 11
-0.6362532181
 21
-118.4950101644
 31
0.0
 11
-0.6660630786
 21
-118.6161816284
 31
0.0
 11
-0.7537156981
 21
-118.7301283055
 31
0.0
 11
-0.8939834883
 21
-118.8300571433
 31
0.0
 11
-1.0785035469
 21
-118.9100104189
 31
0.0
  0
SPLINE
  5
253
100
AcDbEntity
  8
ASSI
100
AcDbSpline
 62
7
  6
CONTINUOUS
 70
0
 71
3
 72
9
 73
5
 74
3
 42
0.0000001
 43
0.0000001
 44
0.0000000001
 12
-1.0693929037
 22
-0.3594177975
 32
0.0
 13
-1.0694148683
 23
0.3593524386
 33
0.0
 40
0.0
 40
0.0
 40
0.0
 40
0.0
 40
0.4999621186
 40
1.0
 40
1.0
 40
1.0
 40
1.0
 10
-1.0785035469
 20
-118.9100104189
 30
0.0
 10
-1.2567221942
 20
-118.9699088467
 30
0.0
 10
-1.6361328872
 20
-119.020083325
 30
0.0
 10
-2.0155578973
 20
-118.9699651601
 30
0.0
 10
-2.1938072123
 20
-118.9100685494
 30
0.0
 11
-1.0785035469
 21
-118.9100104189
 31
0.0
 11
-1.6361077207
 21
-118.9950101619
 31
0.0
 11
-2.1938072123
 21
-118.9100685494
 31
0.0
  0
SPLINE
  5
254
100
AcDbEntity
  8
ASSI
100
AcDbSpline
 62
7
  6
CONTINUOUS
 70
0
 71
3
 72
9
 73
5
 74
3
 42
0.0000001
 43
0.0000001
 44
0.0000000001
 12
-0.1533510943
 22
0.0515301324
 32
0.0
 13
-0.1446980654
 23
0.0723490327
 33
0.0
 40
0.0
 40
0.0
 40
0.0
 40
0.0
 40
0.2597994987
 40
1.0
 40
1.0
 40
1.0
 40
1.0
 10
-2.1938072123
 20
-118.9100685494
 30
0.0
 10
-2.2070873915
 20
-118.9056060485
 30
0.0
 10
-2.257928487
 20
-118.887632109
 30
0.0
 10
-2.3076581391
 20
-118.8664144851
 30
0.0
 10
-2.3433599992
 20
-118.848563555
 30
0.0
 11
-2.1938072123
 21
-118.9100685494
 31
0.0
 11
-2.233429356
 21
-118.8960478725
 31
0.0
 11
-2.3433599992
 21
-118.848563555
 31
0.0
  0
SPLINE
  5
255
100
AcDbEntity
  8
ASSI
100
AcDbSpline
 62
7
  6
CONTINUOUS
 70
0
 71
3
 72
10
 73
6
 74
4
 42
0.0000001
 43
0.0000001
 44
0.0000000001
 12
-0.000303345
 22
-0.478070696
 32
0.0
 13
0.4275995158
 23
-0.2137997579
 33
0.0
 40
0.0
 40
0.0
 40
0.0
 40
0.0
 40
0.4307460764
 40
0.6961081228
 40
1.0
 40
1.0
 40
1.0
 40
1.0
 10
-0.0199581277
 20
-120.6691831134
 30
0.0
 10
-0.0200016826
 20
-120.7378254722
 30
0.0
 10
0.0318993709
 20
-120.8484985482
 30
0.0
 10
0.1512246071
 20
-120.9539574602
 30
0.0
 10
0.229620418
 20
-121.0010791674
 30
0.0
 10
0.2729350911
 20
-121.022736504
 30
0.0
 11
-0.0199581277
 21
-120.6691831134
 31
0.0
 11
0.0561623398
 21
-120.8605248296
 31
0.0
 11
0.1489020683
 21
-120.9470885065
 31
0.0
 11
0.2729350911
 21
-121.022736504
 31
0.0
  0
SPLINE
  5
256
100
AcDbEntity
  8
ASSI
100
AcDbSpline
 62
7
  6
CONTINUOUS
 70
0
 71
3
 72
14
 73
10
 74
8
 42
0.0000001
 43
0.0000001
 44
0.0000000001
 12
1.7279028973
 22
-0.8639514486
 32
0.0
 13
0.0012257982
 23
1.9318537795
 33
0.0
 40
0.0
 40
0.0
 40
0.0
 40
0.0
 40
0.2743848913
 40
0.4260932357
 40
0.5746121369
 40
0.7106265385
 40
0.827118799
 40
0.9216286763
 40
1.0
 40
1.0
 40
1.0
 40
1.0
 10
-2.3433599992
 20
-119.7145889588
 30
0.0
 10
-2.185323183
 20
-119.7936073669
 30
0.0
 10
-1.9101183543
 20
-119.8566223452
 30
0.0
 10
-1.5402010622
 20
-119.8657266931
 30
0.0
 10
-1.2600366958
 20
-119.8318008563
 30
0.0
 10
-1.0105782491
 20
-119.7599898799
 30
0.0
 10
-0.8110138287
 20
-119.6553691392
 30
0.0
 10
-0.673670254
 20
-119.5234168069
 30
0.0
 10
-0.6362852405
 20
-119.4115028809
 30
0.0
 10
-0.6362532181
 20
-119.3610355682
 30
0.0
 11
-2.3433599992
 21
-119.7145889588
 31
0.0
 11
-1.8312570457
 21
-119.8514336222
 31
0.0
 11
-1.5382662991
 21
-119.8586008711
 31
0.0
 11
-1.2535697857
 21
-119.8229753345
 31
0.0
 11
-1.001875374
 21
-119.74752512
 31
0.0
 11
-0.8048332187
 21
-119.6388047552
 31
0.0
 11
-0.6793598766
 21
-119.5061712703
 31
0.0
 11
-0.6362532181
 21
-119.3610355682
 31
0.0
  0
SPLINE
  5
257
100
AcDbEntity
  8
ASSI
100
AcDbSpline
 62
7
  6
CONTINUOUS
 70
0
 71
3
 72
14
 73
10
 74
8
 42
0.0000001
 43
0.0000001
 44
0.0000000001
 12
1.7279028973
 22
-0.8639514486
 32
0.0
 13
0.0012257982
 23
1.9318537795
 33
0.0
 40
0.0
 40
0.0
 40
0.0
 40
0.0
 40
0.2743848913
 40
0.4260932357
 40
0.5746121369
 40
0.7106265385
 40
0.827118799
 40
0.9216286763
 40
1.0
 40
1.0
 40
1.0
 40
1.0
 10
0.2729350911
 20
-121.022736504
 30
0.0
 10
0.4309719074
 20
-121.1017549121
 30
0.0
 10
0.7061767361
 20
-121.1647698904
 30
0.0
 10
1.0760940282
 20
-121.1738742383
 30
0.0
 10
1.3562583946
 20
-121.1399484015
 30
0.0
 10
1.6057168413
 20
-121.0681374251
 30
0.0
 10
1.8052812617
 20
-120.9635166844
 30
0.0
 10
1.9426248364
 20
-120.8315643521
 30
0.0
 10
1.9800098499
 20
-120.719650426
 30
0.0
 10
1.9800418723
 20
-120.6691831134
 30
0.0
 11
0.2729350911
 21
-121.022736504
 31
0.0
 11
0.7850380447
 21
-121.1595811674
 31
0.0
 11
1.0780287913
 21
-121.1667484163
 31
0.0
 11
1.3627253047
 21
-121.1311228797
 31
0.0
 11
1.6144197164
 21
-121.0556726652
 31
0.0
 11
1.8114618717
 21
-120.9469523004
 31
0.0
 11
1.9369352138
 21
-120.8143188155
 31
0.0
 11
1.9800418723
 21
-120.6691831134
 31
0.0
  0
SPLINE
  5
258
100
AcDbEntity
  8
ASSI
100
AcDbSpline
 62
7
  6
CONTINUOUS
 70
0
 71
3
 72
10
 73
6
 74
4
 42
0.0000001
 43
0.0000001
 44
0.0000000001
 12
-1.0832094695
 22
0.5416047347
 32
0.0
 13
-0.0109734804
 23
1.2110152873
 33
0.0
 40
0.0
 40
0.0
 40
0.0
 40
0.0
 40
0.461759553
 40
0.6976179368
 40
1.0
 40
1.0
 40
1.0
 40
1.0
 10
-3.0151114414
 20
3.271552819
 30
0.0
 10
-3.1818388815
 20
3.3549165391
 30
0.0
 10
-3.4353068206
 20
3.522825122
 30
0.0
 10
-3.5794875095
 20
3.9121381329
 30
0.0
 10
-3.584872281
 20
4.1309298095
 30
0.0
 10
-3.5859783422
 20
4.2529929099
 30
0.0
 11
-3.0151114414
 21
3.271552819
 31
0.0
 11
-3.4504018121
 21
3.6226229478
 31
0.0
 11
-3.5560284546
 21
3.8880153504
 31
0.0
 11
-3.5859783422
 21
4.2529929099
 31
0.0
  0
SPLINE
  5
259
100
AcDbEntity
  8
ASSI
100
AcDbSpline
 62
7
  6
CONTINUOUS
 70
0
 71
3
 72
8
 73
4
 74
2
 42
0.0000001
 43
0.0000001
 44
0.0000000001
 12
-0.0486635711
 22
-0.0243317856
 32
0.0
 13
-0.0511271335
 23
-0.0186063206
 33
0.0
 40
0.0
 40
0.0
 40
0.0
 40
0.0
 40
1.0
 40
1.0
 40
1.0
 40
1.0
 10
-1.3357328361
 20
-119.5112957592
 30
0.0
 10
-1.3519540264
 20
-119.5194063544
 30
0.0
 10
-1.3687289633
 20
-119.5264554629
 30
0.0
 10
-1.3857713412
 20
-119.5326575698
 30
0.0
 11
-1.3357328361
 21
-119.5112957592
 31
0.0
 11
-1.3857713412
 21
-119.5326575698
 31
0.0
  0
SPLINE
  5
25A
100
AcDbEntity
  8
ASSI
100
AcDbSpline
 62
7
  6
CONTINUOUS
 70
0
 71
3
 72
11
 73
7
 74
5
 42
0.0000001
 43
0.0000001
 44
0.0000000001
 12
-0.7029584781
 22
-0.2558224937
 32
0.0
 13
-0.0017780331
 23
0.7480592282
 33
0.0
 40
0.0
 40
0.0
 40
0.0
 40
0.0
 40
0.2944575215
 40
0.4498652666
 40
0.5992252846
 40
1.0
 40
1.0
 40
1.0
 40
1.0
 10
-1.3857713412
 20
-119.5326575698
 30
0.0
 10
-1.4547684782
 20
-119.5577671889
 30
0.0
 10
-1.5670684521
 20
-119.5766965743
 30
0.0
 10
-1.7184107979
 20
-119.5717757371
 30
0.0
 10
-1.8842529233
 20
-119.5461488819
 30
0.0
 10
-2.0610140568
 20
-119.4612739093
 30
0.0
 10
-2.061251587
 20
-119.3613395012
 30
0.0
 11
-1.3857713412
 21
-119.5326575698
 31
0.0
 11
-1.6023447973
 21
-119.572854823
 31
0.0
 11
-1.7185508629
 21
-119.5694984575
 31
0.0
 11
-1.8286538099
 21
-119.5504975176
 31
0.0
 11
-2.061251587
 21
-119.3613395012
 31
0.0
  0
SPLINE
  5
25B
100
AcDbEntity
  8
ASSI
100
AcDbSpline
 62
7
  6
CONTINUOUS
 70
0
 71
3
 72
10
 73
6
 74
4
 42
0.0000001
 43
0.0000001
 44
0.0000000001
 12
-0.000303345
 22
-0.478070696
 32
0.0
 13
0.4275995158
 23
-0.2137997579
 33
0.0
 40
0.0
 40
0.0
 40
0.0
 40
0.0
 40
0.4307460764
 40
0.6961081228
 40
1.0
 40
1.0
 40
1.0
 40
1.0
 10
-2.6362532181
 20
-119.3610355682
 30
0.0
 10
-2.636296773
 20
-119.4296779271
 30
0.0
 10
-2.5843957195
 20
-119.540351003
 30
0.0
 10
-2.4650704833
 20
-119.645809915
 30
0.0
 10
-2.3866746724
 20
-119.6929316222
 30
0.0
 10
-2.3433599992
 20
-119.7145889588
 30
0.0
 11
-2.6362532181
 21
-119.3610355682
 31
0.0
 11
-2.5601327506
 21
-119.5523772844
 31
0.0
 11
-2.4673930221
 21
-119.6389409613
 31
0.0
 11
-2.3433599992
 21
-119.7145889588
 31
0.0
  0
SPLINE
  5
25C
100
AcDbEntity
  8
ASSI
100
AcDbSpline
 62
7
  6
CONTINUOUS
 70
0
 71
3
 72
8
 73
4
 74
2
 42
0.0000001
 43
0.0000001
 44
0.0000000001
 12
-0.0486635711
 22
-0.0243317856
 32
0.0
 13
-0.0511271335
 23
-0.0186063206
 33
0.0
 40
0.0
 40
0.0
 40
0.0
 40
0.0
 40
1.0
 40
1.0
 40
1.0
 40
1.0
 10
1.2805622543
 20
-120.8194433044
 30
0.0
 10
1.264341064
 20
-120.8275538996
 30
0.0
 10
1.2475661271
 20
-120.8346030081
 30
0.0
 10
1.2305237492
 20
-120.840805115
 30
0.0
 11
1.2805622543
 21
-120.8194433044
 31
0.0
 11
1.2305237492
 21
-120.840805115
 31
0.0
  0
SPLINE
  5
25D
100
AcDbEntity
  8
ASSI
100
AcDbSpline
 62
7
  6
CONTINUOUS
 70
0
 71
3
 72
11
 73
7
 74
5
 42
0.0000001
 43
0.0000001
 44
0.0000000001
 12
-0.7029584781
 22
-0.2558224937
 32
0.0
 13
-0.0017780331
 23
0.7480592282
 33
0.0
 40
0.0
 40
0.0
 40
0.0
 40
0.0
 40
0.2944575215
 40
0.4498652666
 40
0.5992252846
 40
1.0
 40
1.0
 40
1.0
 40
1.0
 10
1.2305237492
 20
-120.840805115
 30
0.0
 10
1.1615266122
 20
-120.8659147341
 30
0.0
 10
1.0492266383
 20
-120.8848441195
 30
0.0
 10
0.8978842924
 20
-120.8799232823
 30
0.0
 10
0.7320421671
 20
-120.8542964271
 30
0.0
 10
0.5552810336
 20
-120.7694214545
 30
0.0
 10
0.5550435034
 20
-120.6694870464
 30
0.0
 11
1.2305237492
 21
-120.840805115
 31
0.0
 11
1.0139502931
 21
-120.8810023682
 31
0.0
 11
0.8977442275
 21
-120.8776460027
 31
0.0
 11
0.7876412805
 21
-120.8586450628
 31
0.0
 11
0.5550435034
 21
-120.6694870464
 31
0.0
  0
SPLINE
  5
25E
100
AcDbEntity
  8
ASSI
100
AcDbSpline
 62
7
  6
CONTINUOUS
 70
0
 71
3
 72
11
 73
7
 74
5
 42
0.0000001
 43
0.0000001
 44
0.0000000001
 12
-0.8565068246
 22
-1.1518147124
 32
0.0
 13
-1.2838320988
 23
0.6419160494
 33
0.0
 40
0.0
 40
0.0
 40
0.0
 40
0.0
 40
0.2546796673
 40
0.5152837471
 40
0.767263546
 40
1.0
 40
1.0
 40
1.0
 40
1.0
 10
0.9473013756
 20
1.986353051
 30
0.0
 10
0.8745897512
 20
1.8885717884
 30
0.0
 10
0.6389933989
 20
1.7597106395
 30
0.0
 10
0.2675163069
 20
1.7495966664
 30
0.0
 10
-0.083111321
 20
1.8266605424
 30
0.0
 10
-0.2992181742
 20
1.9136061855
 30
0.0
 10
-0.398816351
 20
1.9634052738
 30
0.0
 11
0.9473013756
 21
1.986353051
 31
0.0
 11
0.6383108367
 21
1.7910116893
 31
0.0
 11
0.2651585546
 21
1.764929027
 31
0.0
 11
-0.0889421532
 21
1.8386026471
 31
0.0
 11
-0.398816351
 21
1.9634052738
 31
0.0
  0
SPLINE
  5
25F
100
AcDbEntity
  8
ASSI
100
AcDbSpline
 62
7
  6
CONTINUOUS
 70
0
 71
3
 72
9
 73
5
 74
3
 42
0.0000001
 43
0.0000001
 44
0.0000000001
 12
0.0004821591
 22
-0.2028553725
 32
0.0
 13
-0.1814398735
 23
-0.0907199367
 33
0.0
 40
0.0
 40
0.0
 40
0.0
 40
0.0
 40
0.4321819424
 40
1.0
 40
1.0
 40
1.0
 40
1.0
 10
1.4050402413
 20
-120.6688791804
 30
0.0
 10
1.4051097014
 20
-120.6981026567
 30
0.0
 10
1.3735105085
 20
-120.7649890658
 30
0.0
 10
1.3149038665
 20
-120.8022724983
 30
0.0
 10
1.2805622543
 20
-120.8194433044
 30
0.0
 11
1.4050402413
 21
-120.6688791804
 31
0.0
 11
1.3727520157
 21
-120.7503875727
 31
0.0
 11
1.2805622543
 21
-120.8194433044
 31
0.0
  0
SPLINE
  5
260
100
AcDbEntity
  8
DRAFT
100
AcDbSpline
 62
7
  6
CONTINUOUS
 70
0
 71
3
 72
17
 73
13
 74
11
 42
0.0000001
 43
0.0000001
 44
0.0000000001
 12
-0.41653596
 22
-6.8950774541
 32
0.0
 13
6.1783878352
 23
3.0891939176
 33
0.0
 40
0.0
 40
0.0
 40
0.0
 40
0.0
 40
0.0382977217
 40
0.0785452932
 40
0.1227310901
 40
0.1720624522
 40
0.2873442071
 40
0.422762691
 40
0.5712884185
 40
0.7235121229
 40
0.8693943931
 40
1.0
 40
1.0
 40
1.0
 40
1.0
 10
-3.8668664445
 20
22.0662070054
 30
0.0
 10
-3.8721839039
 20
21.9781850863
 30
0.0
 10
-3.8552137544
 20
21.7949073893
 30
0.0
 10
-3.7479701829
 20
21.5298853743
 30
0.0
 10
-3.5644689389
 20
21.2793163737
 30
0.0
 10
-3.2077349157
 20
20.953432745
 30
0.0
 10
-2.5925207061
 20
20.6197487597
 30
0.0
 10
-1.7078327064
 20
20.3555111198
 30
0.0
 10
-0.7075542124
 20
20.2276130017
 30
0.0
 10
0.3243773989
 20
20.2475486876
 30
0.0
 10
1.301081068
 20
20.4130407621
 30
0.0
 10
1.9063358077
 20
20.6268587752
 30
0.0
 10
2.1753131721
 20
20.7613474574
 30
0.0
 11
-3.8668664445
 21
22.0662070054
 31
0.0
 11
-3.8433524662
 21
21.8027069192
 31
0.0
 11
-3.7418570146
 21
21.5438795792
 31
0.0
 11
-3.5644986765
 21
21.295478259
 31
0.0
 11
-3.3153555986
 21
21.0629968584
 31
0.0
 11
-2.6250371639
 21
20.666014316
 31
0.0
 11
-1.7318845092
 21
20.3879948342
 31
0.0
 11
-0.7147775446
 21
20.2534798204
 31
0.0
 11
0.3365226684
 21
20.2743680185
 31
0.0
 11
1.3290229985
 21
20.4487499594
 31
0.0
 11
2.1753131721
 21
20.7613474574
 31
0.0
  0
SPLINE
  5
261
100
AcDbEntity
  8
DRAFT
100
AcDbSpline
 62
7
  6
CONTINUOUS
 70
0
 71
3
 72
17
 73
13
 74
11
 42
0.0000001
 43
0.0000001
 44
0.0000000001
 12
-0.4411968419
 22
-7.3033461802
 32
0.0
 13
6.5442200502
 23
3.2721100251
 33
0.0
 40
0.0
 40
0.0
 40
0.0
 40
0.0
 40
0.0382977162
 40
0.0785452852
 40
0.1227310847
 40
0.1720624514
 40
0.2873442147
 40
0.4227627037
 40
0.5712884157
 40
0.7235121016
 40
0.8693943704
 40
1.0
 40
1.0
 40
1.0
 40
1.0
 10
-4.0764023619
 20
18.6052520621
 30
0.0
 10
-4.082034639
 20
18.5120182357
 30
0.0
 10
-4.0640596001
 20
18.3178883984
 30
0.0
 10
-3.9504658512
 20
18.0371740677
 30
0.0
 10
-3.7560991434
 20
17.7717685133
 30
0.0
 10
-3.3782422469
 20
17.4265888276
 30
0.0
 10
-2.7266001488
 20
17.0731469286
 30
0.0
 10
-1.7895283463
 20
16.7932634229
 30
0.0
 10
-0.7300218337
 20
16.6577922804
 30
0.0
 10
0.3630120092
 20
16.6789084116
 30
0.0
 10
1.3975478713
 20
16.8541995204
 30
0.0
 10
2.0386407632
 20
17.0806780533
 30
0.0
 10
2.3235447566
 20
17.22313005
 30
0.0
 11
-4.0764023619
 21
18.6052520621
 31
0.0
 11
-4.0514959872
 21
18.3261497638
 31
0.0
 11
-3.943990733
 21
18.0519969002
 31
0.0
 11
-3.7561306498
 21
17.7888873708
 31
0.0
 11
-3.4922353477
 21
17.5426403947
 31
0.0
 11
-2.7610419559
 21
17.1221519327
 31
0.0
 11
-1.8150042489
 21
16.8276705283
 31
0.0
 11
-0.7376728643
 21
16.6851907118
 31
0.0
 11
0.3758763789
 21
16.7073157455
 31
0.0
 11
1.4271442312
 21
16.8920231049
 31
0.0
 11
2.3235447566
 21
17.22313005
 31
0.0
  0
SPLINE
  5
262
100
AcDbEntity
  8
ASSI
100
AcDbSpline
 62
7
  6
CONTINUOUS
 70
0
 71
3
 72
9
 73
5
 74
3
 42
0.0000001
 43
0.0000001
 44
0.0000000001
 12
0.0004821591
 22
-0.2028553725
 32
0.0
 13
-0.1814398735
 23
-0.0907199367
 33
0.0
 40
0.0
 40
0.0
 40
0.0
 40
0.0
 40
0.4321819424
 40
1.0
 40
1.0
 40
1.0
 40
1.0
 10
-1.2112548491
 20
-119.3607316352
 30
0.0
 10
-1.2111853889
 20
-119.3899551115
 30
0.0
 10
-1.2427845819
 20
-119.4568415206
 30
0.0
 10
-1.3013912239
 20
-119.4941249531
 30
0.0
 10
-1.3357328361
 20
-119.5112957592
 30
0.0
 11
-1.2112548491
 21
-119.3607316352
 31
0.0
 11
-1.2435430747
 21
-119.4422400275
 31
0.0
 11
-1.3357328361
 21
-119.5112957592
 31
0.0
  0
SPLINE
  5
263
100
AcDbEntity
  8
0
100
AcDbSpline
 62
7
  6
CONTINUOUS
 70
0
 71
3
 72
11
 73
7
 74
5
 42
0.0000001
 43
0.0000001
 44
0.0000000001
 12
1.033138547
 22
0.5165692735
 32
0.0
 13
0.0005627764
 23
1.1550838735
 33
0.0
 40
0.0
 40
0.0
 40
0.0
 40
0.0
 40
0.3023976666
 40
0.5655372606
 40
0.7934317267
 40
1.0
 40
1.0
 40
1.0
 40
1.0
 10
1.368950602
 20
21.3377338232
 30
0.0
 10
1.4730901639
 20
21.3898036041
 30
0.0
 10
1.6613842997
 20
21.5016357704
 30
0.0
 10
1.8900741978
 20
21.7081067853
 30
0.0
 10
2.0367862445
 20
21.9381604847
 30
0.0
 10
2.0718218612
 20
22.1067274043
 30
0.0
 10
2.0718606118
 20
22.1862619647
 30
0.0
 11
1.368950602
 21
21.3377338232
 31
0.0
 11
1.6672244247
 21
21.5195015891
 31
0.0
 11
1.889245109
 21
21.7270862892
 31
0.0
 11
2.0257707886
 21
21.9521520367
 31
0.0
 11
2.0718606118
 21
22.1862619647
 31
0.0
  0
SPLINE
  5
264
100
AcDbEntity
  8
0
100
AcDbSpline
 62
7
  6
CONTINUOUS
 70
0
 71
3
 72
11
 73
7
 74
5
 42
0.0000001
 43
0.0000001
 44
0.0000000001
 12
1.7864981525
 22
0.8932490763
 32
0.0
 13
-0.0000005301
 23
1.9973656554
 33
0.0
 40
0.0
 40
0.0
 40
0.0
 40
0.0
 40
0.302580428
 40
0.5654850387
 40
0.793432444
 40
1.0
 40
1.0
 40
1.0
 40
1.0
 10
2.6063874691
 20
17.0817086937
 30
0.0
 10
2.7865739276
 20
17.171801923
 30
0.0
 10
3.1122399082
 20
17.3650251428
 30
0.0
 10
3.5075156979
 20
17.7222599374
 30
0.0
 10
3.7611494547
 20
18.1199061846
 30
0.0
 10
3.8218899245
 20
18.4114249508
 30
0.0
 10
3.821889888
 20
18.5489552647
 30
0.0
 11
2.6063874691
 21
17.0817086937
 31
0.0
 11
3.122506004
 21
17.3961561554
 31
0.0
 11
3.5059899478
 21
17.7548866259
 31
0.0
 11
3.7421521713
 21
18.144142738
 31
0.0
 11
3.821889888
 21
18.5489552647
 31
0.0
  0
SPLINE
  5
265
100
AcDbEntity
  8
ASSI
100
AcDbSpline
 62
7
  6
CONTINUOUS
 70
0
 71
3
 72
9
 73
5
 74
3
 42
0.0000001
 43
0.0000001
 44
0.0000000001
 12
0.2969094599
 22
-0.1482519292
 32
0.0
 13
0.1964455876
 23
-0.2674752194
 33
0.0
 40
0.0
 40
0.0
 40
0.0
 40
0.0
 40
0.2588792004
 40
1.0
 40
1.0
 40
1.0
 40
1.0
 10
0.686222577
 20
2.6113209555
 30
0.0
 10
0.7118438048
 20
2.5985278419
 30
0.0
 10
0.8088222711
 20
2.5459576307
 30
0.0
 10
0.8987714053
 20
2.4748982299
 30
0.0
 10
0.9473013756
 20
2.4088210804
 30
0.0
 11
0.686222577
 21
2.6113209555
 31
0.0
 11
0.7615841256
 21
2.5700700567
 31
0.0
 11
0.9473013756
 21
2.4088210804
 31
0.0
  0
SPLINE
  5
266
100
AcDbEntity
  8
DRAFT
100
AcDbSpline
 62
7
  6
CONTINUOUS
 70
0
 71
3
 72
11
 73
7
 74
5
 42
0.0000001
 43
0.0000001
 44
0.0000000001
 12
1.6639083071
 22
0.8319541535
 32
0.0
 13
-0.1119074862
 23
1.8569370701
 33
0.0
 40
0.0
 40
0.0
 40
0.0
 40
0.0
 40
0.3038839486
 40
0.5665734211
 40
0.7932955867
 40
1.0
 40
1.0
 40
1.0
 40
1.0
 10
2.3235447566
 20
17.22313005
 30
0.0
 10
2.4920897654
 20
17.3074025544
 30
0.0
 10
2.7956409652
 20
17.4886042088
 30
0.0
 10
3.1602397256
 20
17.82579602
 30
0.0
 10
3.3856963081
 20
18.203025038
 30
0.0
 10
3.4279101196
 20
18.4773064999
 30
0.0
 10
3.4201995291
 20
18.6052521958
 30
0.0
 11
2.3235447566
 21
17.22313005
 31
0.0
 11
2.8052972464
 21
17.5189306813
 31
0.0
 11
3.1576338203
 21
17.8575600217
 31
0.0
 11
3.3653195685
 21
18.2246550615
 31
0.0
 11
3.4201995291
 21
18.6052521958
 31
0.0
  0
SPLINE
  5
267
100
AcDbEntity
  8
0
100
AcDbSpline
 62
7
  6
CONTINUOUS
 70
0
 71
3
 72
15
 73
11
 74
9
 42
0.0000001
 43
0.0000001
 44
0.0000000001
 12
-0.0022614539
 22
-4.6415750137
 32
0.0
 13
4.151551394
 23
2.075775697
 33
0.0
 40
0.0
 40
0.0
 40
0.0
 40
0.0
 40
0.0782808139
 40
0.172688117
 40
0.2890659945
 40
0.4249348038
 40
0.573274519
 40
0.7248775217
 40
0.8700096211
 40
1.0
 40
1.0
 40
1.0
 40
1.0
 10
-2.7280719575
 20
22.1862619565
 30
0.0
 10
-2.728130967
 20
22.0651465332
 30
0.0
 10
-2.6383817736
 20
21.7965058759
 30
0.0
 10
-2.308773825
 20
21.4798063169
 30
0.0
 10
-1.8297858425
 20
21.2287417143
 30
0.0
 10
-1.2309129527
 20
21.0564472666
 30
0.0
 10
-0.5591138697
 20
20.9750037833
 30
0.0
 10
0.1318171583
 20
20.9914916331
 30
0.0
 10
0.7846635965
 20
21.1042259558
 30
0.0
 10
1.1890633558
 20
21.2477902001
 30
0.0
 10
1.368950602
 20
21.3377338232
 30
0.0
 11
-2.7280719575
 21
22.1862619565
 31
0.0
 11
-2.6247432159
 21
21.8379177096
 31
0.0
 11
-2.3236145451
 21
21.5195789531
 31
0.0
 11
-1.8506369975
 21
21.2586515302
 31
0.0
 11
-1.2465365428
 21
21.0776095666
 31
0.0
 11
-0.5633443146
 21
20.9920412538
 31
0.0
 11
0.1401202007
 21
21.0093243285
 31
0.0
 11
0.8032346805
 21
21.1279506342
 31
0.0
 11
1.368950602
 21
21.3377338232
 31
0.0
  0
SPLINE
  5
268
100
AcDbEntity
  8
DRAFT
100
AcDbSpline
 62
7
  6
CONTINUOUS
 70
0
 71
3
 72
11
 73
7
 74
5
 42
0.0000001
 43
0.0000001
 44
0.0000000001
 12
1.5708928011
 22
0.7854464005
 32
0.0
 13
-0.1056511195
 23
1.7531309368
 33
0.0
 40
0.0
 40
0.0
 40
0.0
 40
0.0
 40
0.3038839143
 40
0.5665733605
 40
0.7932955615
 40
1.0
 40
1.0
 40
1.0
 40
1.0
 10
2.1753131721
 20
20.7613474574
 30
0.0
 10
2.3344361899
 20
20.8409089662
 30
0.0
 10
2.6210183145
 20
21.0119810678
 30
0.0
 10
2.9652353302
 20
21.3303232245
 30
0.0
 10
3.1780885903
 20
21.686464396
 30
0.0
 10
3.2179426886
 20
21.945413046
 30
0.0
 10
3.2106631701
 20
22.0662063613
 30
0.0
 11
2.1753131721
 21
20.7613474574
 31
0.0
 11
2.6301347852
 21
21.0406122361
 31
0.0
 11
2.9627750973
 21
21.3603115184
 31
0.0
 11
3.1588509622
 21
21.7068852753
 31
0.0
 11
3.2106631701
 21
22.0662063613
 31
0.0
  0
SPLINE
  5
269
100
AcDbEntity
  8
0
100
AcDbSpline
 62
7
  6
CONTINUOUS
 70
0
 71
3
 72
11
 73
7
 74
5
 42
0.0000001
 43
0.0000001
 44
0.0000000001
 12
-1.2720700766
 22
-0.6360350383
 32
0.0
 13
-0.0000020357
 23
-1.4222175817
 33
0.0
 40
0.0
 40
0.0
 40
0.0
 40
0.0
 40
0.3025821969
 40
0.5654827627
 40
0.7934330745
 40
1.0
 40
1.0
 40
1.0
 40
1.0
 10
-2.4176062113
 20
23.057807149
 30
0.0
 10
-2.5459081307
 20
22.9936561893
 30
0.0
 10
-2.7777988475
 20
22.8560756451
 30
0.0
 10
-3.0592482698
 20
22.6017016219
 30
0.0
 10
-3.2398482605
 20
22.3185608429
 30
0.0
 10
-3.2830979611
 20
22.1109845843
 30
0.0
 10
-3.2830981013
 20
22.0130568799
 30
0.0
 11
-2.4176062113
 21
23.057807149
 31
0.0
 11
-2.7851093937
 21
22.8339054643
 31
0.0
 11
-3.0581608089
 21
22.5784735049
 31
0.0
 11
-3.2263214856
 21
22.3013014524
 31
0.0
 11
-3.2830981013
 21
22.0130568799
 31
0.0
  0
SPLINE
  5
26A
100
AcDbEntity
  8
0
100
AcDbSpline
 62
7
  6
CONTINUOUS
 70
0
 71
3
 72
11
 73
7
 74
5
 42
0.0000001
 43
0.0000001
 44
0.0000000001
 12
0.0000024357
 22
1.7016632969
 32
0.0
 13
-1.5824944318
 23
0.6255951961
 33
0.0
 40
0.0
 40
0.0
 40
0.0
 40
0.0
 40
0.1990134506
 40
0.4243091904
 40
0.6904558103
 40
1.0
 40
1.0
 40
1.0
 40
1.0
 10
2.6268867555
 20
22.0130568798
 30
0.0
 10
2.6268869171
 20
22.125941508
 30
0.0
 10
2.567756193
 20
22.368618063
 30
0.0
 10
2.3286916861
 20
22.6878059491
 30
0.0
 10
1.963791335
 20
22.9650825008
 30
0.0
 10
1.6678181346
 20
23.1075393106
 30
0.0
 10
1.504534149
 20
23.1720890966
 30
0.0
 11
2.6268867555
 21
22.0130568798
 31
0.0
 11
2.5521076331
 21
22.3433515002
 31
0.0
 11
2.3315447301
 21
22.6569281364
 31
0.0
 11
1.9763570165
 21
22.9379135321
 31
0.0
 11
1.504534149
 21
23.1720890966
 31
0.0
  0
SPLINE
  5
26B
100
AcDbEntity
  8
0
100
AcDbSpline
 62
7
  6
CONTINUOUS
 70
0
 71
3
 72
9
 73
5
 74
3
 42
0.0000001
 43
0.0000001
 44
0.0000000001
 12
-0.5684434648
 22
0.2247183268
 32
0.0
 13
-0.595283876
 23
0.1387926726
 33
0.0
 40
0.0
 40
0.0
 40
0.0
 40
0.0
 40
0.2406212682
 40
1.0
 40
1.0
 40
1.0
 40
1.0
 10
1.504534149
 20
23.1720890966
 30
0.0
 10
1.4589409533
 20
23.1901130995
 30
0.0
 10
1.2679131858
 20
23.2610851853
 30
0.0
 10
1.0714132622
 20
23.3169945673
 30
0.0
 10
0.9207312906
 20
23.3521266352
 30
0.0
 11
1.504534149
 21
23.1720890966
 31
0.0
 11
1.3666934358
 21
23.2233957767
 31
0.0
 11
0.9207312906
 21
23.3521266352
 31
0.0
  0
SPLINE
  5
26C
100
AcDbEntity
  8
0
100
AcDbSpline
 62
7
  6
CONTINUOUS
 70
0
 71
3
 72
9
 73
5
 74
3
 42
0.0000001
 43
0.0000001
 44
0.0000000001
 12
-2.4473318054
 22
0.5706046069
 32
0.0
 13
-2.447341989
 23
-0.5705609277
 33
0.0
 40
0.0
 40
0.0
 40
0.0
 40
0.0
 40
0.5000001489
 40
1.0
 40
1.0
 40
1.0
 40
1.0
 10
0.9207312906
 20
23.3521266352
 30
0.0
 10
0.5128425349
 20
23.4472274313
 30
0.0
 10
-0.3281066521
 20
23.533882425
 30
0.0
 10
-1.1690524263
 20
23.4472200948
 30
0.0
 10
-1.5769426363
 20
23.3521266352
 30
0.0
 11
0.9207312906
 21
23.3521266352
 31
0.0
 11
-0.3281060493
 21
23.490553094
 31
0.0
 11
-1.5769426363
 21
23.3521266352
 31
0.0
  0
SPLINE
  5
26D
100
AcDbEntity
  8
0
100
AcDbSpline
 62
7
  6
CONTINUOUS
 70
0
 71
3
 72
9
 73
5
 74
3
 42
0.0000001
 43
0.0000001
 44
0.0000000001
 12
-0.594792124
 22
-0.1386668261
 32
0.0
 13
-0.5679985886
 23
-0.2244632772
 33
0.0
 40
0.0
 40
0.0
 40
0.0
 40
0.0
 40
0.258972452
 40
1.0
 40
1.0
 40
1.0
 40
1.0
 10
-1.5769426363
 20
23.3521266352
 30
0.0
 10
-1.6282875612
 20
23.3401563392
 30
0.0
 10
-1.8257516907
 20
23.2906381237
 30
0.0
 10
-2.019984756
 20
23.2277098789
 30
0.0
 10
-2.1602856231
 20
23.1722653882
 30
0.0
 11
-1.5769426363
 21
23.3521266352
 31
0.0
 11
-1.7303464039
 21
23.313609265
 31
0.0
 11
-2.1602856231
 21
23.1722653882
 31
0.0
  0
SPLINE
  5
26E
100
AcDbEntity
  8
0
100
AcDbSpline
 62
7
  6
CONTINUOUS
 70
0
 71
3
 72
17
 73
13
 74
11
 42
0.0000001
 43
0.0000001
 44
0.0000000001
 12
0.0000021328
 22
-8.035543934
 32
0.0
 13
7.1872089891
 23
3.5936044945
 33
0.0
 40
0.0
 40
0.0
 40
0.0
 40
0.0
 40
0.0382999413
 40
0.0789365133
 40
0.1237063366
 40
0.1736613519
 40
0.289902859
 40
0.4256118595
 40
0.5737777755
 40
0.7252003399
 40
0.8701660934
 40
1.0
 40
1.0
 40
1.0
 40
1.0
 10
-4.4781012337
 20
18.5489552647
 30
0.0
 10
-4.4781012065
 20
18.446368311
 30
0.0
 10
-4.4457424526
 20
18.2338082908
 30
0.0
 10
-4.3050521997
 20
17.9299129441
 30
0.0
 10
-4.0786546355
 20
17.6432313874
 30
0.0
 10
-3.6493361597
 20
17.2718636366
 30
0.0
 10
-2.923795914
 20
16.8932066401
 30
0.0
 10
-1.8895329623
 20
16.5953211464
 30
0.0
 10
-0.72748051
 20
16.4544896578
 30
0.0
 10
0.4671571497
 20
16.4829852816
 30
0.0
 10
1.5960634458
 20
16.6779458276
 30
0.0
 10
2.2953396622
 20
16.9261847903
 30
0.0
 10
2.6063874691
 20
17.0817086937
 30
0.0
 11
-4.4781012337
 21
18.5489552647
 31
0.0
 11
-4.4331837413
 21
18.2444898866
 31
0.0
 11
-4.2994038814
 21
17.9466151895
 31
0.0
 11
-4.0796574184
 21
17.6617793255
 31
0.0
 11
-3.77870122
 21
17.396148101
 31
0.0
 11
-2.9608355833
 21
16.9449598207
 31
0.0
 11
-1.916240794
 21
16.6319063776
 31
0.0
 11
-0.7348764632
 21
16.4839477916
 31
0.0
 11
0.4815193044
 21
16.513826335
 31
0.0
 11
1.6281921576
 21
16.7189694802
 31
0.0
 11
2.6063874691
 21
17.0817086937
 31
0.0
  0
ENDSEC
  0
SECTION
  2
OBJECTS
  0
DICTIONARY
  5
C
100
AcDbDictionary
280
0
281
1
  3
ACAD_GROUP
350
D
  3
ACAD_MLINESTYLE
350
17
  3
ACAD_LAYOUT
350
1A
  3
ACAD_PLOTSETTINGS
350
19
  3
ACAD_PLOTSTYLENAME
350
E
  0
DICTIONARY
  5
D
102
{ACAD_REACTORS
330
C
102
}
100
AcDbDictionary
280
0
281
1
  0
ACDBDICTIONARYWDFLT
  5
E
102
{ACAD_REACTORS
330
C
102
}
100
AcDbDictionary
281
1
  3
Normal
350
F
100
AcDbDictionaryWithDefault
340
F
  0
DICTIONARY
  5
17
102
{ACAD_REACTORS
330
C
102
}
100
AcDbDictionary
280
0
281
1
  3
Standard
350
18
  0
DICTIONARY
  5
19
102
{ACAD_REACTORS
330
C
102
}
100
AcDbDictionary
281
1
  0
DICTIONARY
  5
1A
102
{ACAD_REACTORS
330
C
102
}
100
AcDbDictionary
281
1
  3
Model
350
26F
  3
Layout1
350
270
  0
ACDBPLACEHOLDER
  5
F
102
{ACAD_REACTORS
330
E
102
}
  0
MLINESTYLE
  5
18
102
{ACAD_REACTORS
330
17
102
}
100
AcDbMlineStyle
  2
STANDARD
 70
0
  3

 62
256
 51
90.0
 52
90.0
 71
2
 49
0.5
 62
256
  6
BYLAYER
 49
-0.5
 62
256
  6
BYLAYER
  0
LAYOUT
  5
26F
102
{ACAD_REACTORS
330
1A
102
}
100
AcDbPlotSettings
  1

  2
none_device
  4
ANSI_C_(22.00_x_17.00_Inches)
  6

 40
0.0
 41
0.0
 42
0.0
 43
0.0
 44
558.8
 45
431.8
 46
0.0
 47
0.0
 48
0.0
 49
0.0
140
0.0
141
0.0
142
1.0
143
1.0
 70
1024
 72
1
 73
0
 74
0
  7

 75
0
147
1.0
148
0.0
149
0.0
100
AcDbLayout
  1
Model
 70
0
 71
0
 10
0.0
 20
0.0
 11
558.8
 21
431.8
 12
0.0
 22
0.0
 32
0.0
 14
0.0
 24
0.0
 34
0.0
 15
0.0
 25
0.0
 35
0.0
146
0.0
 13
0.0
 23
0.0
 33
0.0
 16
1.0
 26
0.0
 36
0.0
 17
0.0
 27
1.0
 37
0.0
 76
0
330
20B
345
0
346
0
  0
LAYOUT
  5
270
102
{ACAD_REACTORS
330
1A
102
}
100
AcDbPlotSettings
  1

  2
none_device
  4
ANSI_C_(22.00_x_17.00_Inches)
  6

 40
0.0
 41
0.0
 42
0.0
 43
0.0
 44
558.8
 45
431.8
 46
0.0
 47
0.0
 48
0.0
 49
0.0
140
0.0
141
0.0
142
1.0
143
1.0
 70
0
 72
1
 73
0
 74
0
  7

 75
0
147
1.0
148
0.0
149
0.0
100
AcDbLayout
  1
Layout1
 70
0
 71
1
 10
0.0
 20
0.0
 11
558.8
 21
431.8
 12
0.0
 22
0.0
 32
0.0
 14
0.0
 24
0.0
 34
0.0
 15
0.0
 25
0.0
 35
0.0
146
0.0
 13
0.0
 23
0.0
 33
0.0
 16
1.0
 26
0.0
 36
0.0
 17
0.0
 27
1.0
 37
0.0
 76
0
330
20C
345
0
346
0
  0
ENDSEC
  0
EOF
