  0
SECTION
  2
HEADER
  9
$ACADVER
  1
AC1021
  9
$DWGCODEPAGE
  3
ANSI_1252
  9
$EXTMAX
 10
297.0
 20
210.0
 30
0.0
  9
$EXTMIN
 10
0.0
 20
0.0
 30
0.0
  9
$LIMMIN
 10
0.0
 20
0.0
  9
$LIMMAX
 10
297.0
 20
210.0
  9
$VIEWCTR
 10
148.5
 20
105.0
  9
$VIEWSIZE
 40
210.0
  9
$CLAYER
  8
0
  9
$LTSCALE
 40
16.335
  9
$CELTYPE
  6
BYLAYER
  9
$DIMSCALE
 40
1.0
  9
$DIMASZ
 40
3.0
  9
$DIMEXO
 40
0.5
  9
$DIMDLI
 40
11.286
  9
$DIMEXE
 40
1.5
  9
$DIMCEN
 40
2.673
  9
$DIMLFAC
 40
1.0
  9
$DIMBLK
  1
_FILLED
  9
$DIMALT
 70
0
  9
$DIMALTF
 40
0.0393700787
  9
$DIMTXT
 40
3.0
  9
$DIMTOL
 70
1
  9
$DIMLIM
 70
0
  9
$DIMTFAC
 40
1.0
  9
$DIMTP
 40
0.01
  9
$DIMTM
 40
0.01
  9
$DIMGAP
 40
0.625
  9
$DIMDSEP
 70
44
  9
$AUNITS
 70
0
  9
$PDMODE
 70
3
  9
$PDSIZE
 40
3.0
  9
$HANDSEED
  5
44B
  9
$TILEMODE
 70
1
  9
$MEASUREMENT
 70
1
  9
$INSUNITS
 70
4
  0
ENDSEC
  0
SECTION
  2
CLASSES
  0
CLASS
  1
ACDBDICTIONARYWDFLT
  2
AcDbDictionaryWithDefault
  3
AutoCAD 2000
 90
0
 91
1
280
0
281
0
  0
CLASS
  1
ACDBPLACEHOLDER
  2
AcDbPlaceHolder
  3
AutoCAD 2000
 90
0
 91
1
280
0
281
0
  0
CLASS
  1
LAYOUT
  2
AcDbLayout
  3
AutoCAD 2000
 90
0
 91
0
280
0
281
0
  0
ENDSEC
  0
SECTION
  2
TABLES
  0
TABLE
  2
VPORT
  5
8
100
AcDbSymbolTable
 70
2
  0
VPORT
  5
1F4
100
AcDbSymbolTableRecord
100
AcDbViewportTableRecord
  2
*ACTIVE
 70
0
 10
0.0
 20
0.0
 11
1.0
 21
1.0
 12
148.5
 22
105.0
 13
0.0
 23
0.0
 14
1.0
 24
1.0
 15
0.0
 25
0.0
 16
0.0
 26
0.0
 36
1.0
 17
0.0
 27
0.0
 37
0.0
 40
210.0
 41
1.4142857143
 42
50.0
 43
0.0
 44
0.0
 50
0.0
 51
0.0
 71
0
 72
100
 73
1
 74
1
 75
0
 76
0
 77
0
 78
0
  0
ENDTAB
  0
TABLE
  2
LTYPE
  5
5
100
AcDbSymbolTable
 70
6
  0
LTYPE
  5
14
100
AcDbSymbolTableRecord
100
AcDbLinetypeTableRecord
  2
BYBLOCK
 70
0
  3

 72
65
 73
0
 40
0.0
  0
LTYPE
  5
15
100
AcDbSymbolTableRecord
100
AcDbLinetypeTableRecord
  2
BYLAYER
 70
0
  3

 72
65
 73
0
 40
0.0
  0
LTYPE
  5
16
100
AcDbSymbolTableRecord
100
AcDbLinetypeTableRecord
  2
CONTINUOUS
 70
64
  3
Solid line
 72
65
 73
0
 40
0.0
  0
LTYPE
  5
1F5
100
AcDbSymbolTableRecord
100
AcDbLinetypeTableRecord
  2
CENTER
 70
64
  3
____ _ ____ _ ____ _ ____ _ ____ _ ____ _ ____
 72
65
 73
4
 40
0.6
 49
0.375
 74
0
 49
-0.075
 74
0
 49
0.075
 74
0
 49
-0.075
 74
0
  0
LTYPE
  5
1F6
100
AcDbSymbolTableRecord
100
AcDbLinetypeTableRecord
  2
HIDDEN
 70
64
  3
- - - - - - - - - - - - - - - - - - - -
 72
65
 73
2
 40
0.2
 49
0.1
 74
0
 49
-0.1
 74
0
  0
LTYPE
  5
1F7
100
AcDbSymbolTableRecord
100
AcDbLinetypeTableRecord
  2
PHANTOM
 70
64
  3
_____ _ _ _____ _ _ _____ _ _ _____
 72
65
 73
6
 40
0.8
 49
0.45
 74
0
 49
-0.05
 74
0
 49
0.1
 74
0
 49
-0.05
 74
0
 49
0.1
 74
0
 49
-0.05
 74
0
  0
LTYPE
  5
1F8
100
AcDbSymbolTableRecord
100
AcDbLinetypeTableRecord
  2
DOT
 70
64
  3
. . . . . . . . . . . . . . . . . . . .
 72
65
 73
2
 40
0.2
 49
0.1
 74
0
 49
-0.1
 74
0
  0
LTYPE
  5
1F9
100
AcDbSymbolTableRecord
100
AcDbLinetypeTableRecord
  2
DASHED
 70
64
  3
- - - - - - - - - - - - - - - - - - - -
 72
65
 73
2
 40
0.2
 49
0.1
 74
0
 49
-0.1
 74
0
  0
ENDTAB
  0
TABLE
  2
LAYER
  5
2
100
AcDbSymbolTable
 70
36
  0
LAYER
  5
10
100
AcDbSymbolTableRecord
100
AcDbLayerTableRecord
  2
0
 70
0
 62
7
  6
CONTINUOUS
370
-3
390
F
  0
LAYER
  5
1FA
100
AcDbSymbolTableRecord
100
AcDbLayerTableRecord
  2
DEFAULT_1
 70
0
 62
7
  6
CENTER
370
-3
390
F
  0
LAYER
  5
1FB
100
AcDbSymbolTableRecord
100
AcDbLayerTableRecord
  2
DEFAULT_2
 70
0
 62
7
  6
HIDDEN
370
-3
390
F
  0
LAYER
  5
1FC
100
AcDbSymbolTableRecord
100
AcDbLayerTableRecord
  2
DEFAULT_3
 70
0
 62
7
  6
PHANTOM
370
-3
390
F
  0
LAYER
  5
1FD
100
AcDbSymbolTableRecord
100
AcDbLayerTableRecord
  2
ASSI
 70
0
 62
7
  6
CONTINUOUS
370
-3
390
F
  0
LAYER
  5
1FE
100
AcDbSymbolTableRecord
100
AcDbLayerTableRecord
  2
COLORI
 70
0
 62
7
  6
CONTINUOUS
370
-3
390
F
  0
LAYER
  5
1FF
100
AcDbSymbolTableRecord
100
AcDbLayerTableRecord
  2
COORDINATE
 70
0
 62
7
  6
CONTINUOUS
370
-3
390
F
  0
LAYER
  5
200
100
AcDbSymbolTableRecord
100
AcDbLayerTableRecord
  2
COPY_PUBLISH
 70
0
 62
7
  6
CONTINUOUS
370
-3
390
F
  0
LAYER
  5
201
100
AcDbSymbolTableRecord
100
AcDbLayerTableRecord
  2
COSMETICI
 70
0
 62
7
  6
CONTINUOUS
370
-3
390
F
  0
LAYER
  5
202
100
AcDbSymbolTableRecord
100
AcDbLayerTableRecord
  2
CURVE
 70
0
 62
7
  6
CONTINUOUS
370
-3
390
F
  0
LAYER
  5
203
100
AcDbSymbolTableRecord
100
AcDbLayerTableRecord
  2
DRAFT
 70
0
 62
7
  6
CONTINUOUS
370
-3
390
F
  0
LAYER
  5
204
100
AcDbSymbolTableRecord
100
AcDbLayerTableRecord
  2
IMPORT_IGES
 70
0
 62
7
  6
CONTINUOUS
370
-3
390
F
  0
LAYER
  5
205
100
AcDbSymbolTableRecord
100
AcDbLayerTableRecord
  2
NOTE
 70
0
 62
7
  6
CONTINUOUS
370
-3
390
F
  0
LAYER
  5
206
100
AcDbSymbolTableRecord
100
AcDbLayerTableRecord
  2
PIANI
 70
0
 62
7
  6
CONTINUOUS
370
-3
390
F
  0
LAYER
  5
207
100
AcDbSymbolTableRecord
100
AcDbLayerTableRecord
  2
PUNTI
 70
0
 62
7
  6
CONTINUOUS
370
-3
390
F
  0
LAYER
  5
208
100
AcDbSymbolTableRecord
100
AcDbLayerTableRecord
  2
RACCORDO
 70
0
 62
7
  6
CONTINUOUS
370
-3
390
F
  0
LAYER
  5
209
100
AcDbSymbolTableRecord
100
AcDbLayerTableRecord
  2
SCRITTE
 70
0
 62
7
  6
CONTINUOUS
370
-3
390
F
  0
LAYER
  5
20A
100
AcDbSymbolTableRecord
100
AcDbLayerTableRecord
  2
SIMBOLI
 70
0
 62
7
  6
CONTINUOUS
370
-3
390
F
  0
LAYER
  5
20B
100
AcDbSymbolTableRecord
100
AcDbLayerTableRecord
  2
SMUSSO
 70
0
 62
7
  6
CONTINUOUS
370
-3
390
F
  0
LAYER
  5
20C
100
AcDbSymbolTableRecord
100
AcDbLayerTableRecord
  2
SNAPLINE
 70
0
 62
7
  6
CONTINUOUS
370
-3
390
F
  0
LAYER
  5
20D
100
AcDbSymbolTableRecord
100
AcDbLayerTableRecord
  2
SUPERFICI
 70
0
 62
7
  6
CONTINUOUS
370
-3
390
F
  0
LAYER
  5
20E
100
AcDbSymbolTableRecord
100
AcDbLayerTableRecord
  2
TRASH
 70
0
 62
7
  6
CONTINUOUS
370
-3
390
F
  0
LAYER
  5
20F
100
AcDbSymbolTableRecord
100
AcDbLayerTableRecord
  2
XSEC_DATUMS
 70
0
 62
7
  6
CONTINUOUS
370
-3
390
F
  0
ENDTAB
  0
TABLE
  2
STYLE
  5
3
100
AcDbSymbolTable
 70
1
  0
STYLE
  5
11
100
AcDbSymbolTableRecord
100
AcDbTextStyleTableRecord
  2
STANDARD
 70
0
 40
0.0
 41
0.8
 50
0.0
 71
0
 42
0.2
  3
txt
  4

  0
STYLE
  5
210
100
AcDbSymbolTableRecord
100
AcDbTextStyleTableRecord
  2
TEXTSTYLE_1
 70
0
 40
0.0
 41
0.8
 50
0.0
 71
0
 42
0.2
  3
gdt
  4

  0
ENDTAB
  0
TABLE
  2
VIEW
  5
6
100
AcDbSymbolTable
 70
0
  0
ENDTAB
  0
TABLE
  2
UCS
  5
7
100
AcDbSymbolTable
 70
0
  0
ENDTAB
  0
TABLE
  2
APPID
  5
9
100
AcDbSymbolTable
 70
1
  0
APPID
  5
211
100
AcDbSymbolTableRecord
100
AcDbRegAppTableRecord
  2
ACAD
 70
0
  0
ENDTAB
  0
TABLE
  2
BLOCK_RECORD
  5
1
100
AcDbSymbolTable
 70
0
  0
BLOCK_RECORD
  5
212
100
AcDbSymbolTableRecord
100
AcDbBlockTableRecord
  2
*Model_Space
  0
BLOCK_RECORD
  5
213
100
AcDbSymbolTableRecord
100
AcDbBlockTableRecord
  2
*Paper_Space
  0
ENDTAB
  0
TABLE
  2
DIMSTYLE
  5
A
100
AcDbSymbolTable
 70
1
100
AcDbDimStyleTable
 71
0
  0
DIMSTYLE
105
214
100
AcDbSymbolTableRecord
100
AcDbDimStyleTableRecord
  2
STANDARD
 70
0
  3

  4

 40
1.0
 41
3.0
 42
0.5
 43
0.38
 44
1.5
 45
0.0
 46
0.0
 47
0.01
 48
0.01
140
3.0
141
0.09
142
0.0
143
25.4
144
1.0
145
0.0
146
1.0
147
0.625
 71
1.0
 72
0.0
 73
0
 74
0
 75
0
 76
0
 77
1
 78
8
170
0
171
2
172
0
173
0
174
0
175
0
176
0
177
0
178
0
270
2
271
2
272
2
273
2
274
2
275
0
280
0
281
0
282
0
283
1
284
8
285
0
286
0
287
3
288
0
340
11
278
44
  0
ENDTAB
  0
ENDSEC
  0
SECTION
  2
BLOCKS
  0
BLOCK
  5
20
100
AcDbEntity
  8
0
100
AcDbBlockBegin
  2
*Model_Space
 70
0
 10
0.0
 20
0.0
 30
0.0
  3
*Model_Space
  1

  0
ENDBLK
  5
21
100
AcDbEntity
  8
0
100
AcDbBlockEnd
  0
BLOCK
  5
1C
100
AcDbEntity
  8
0
100
AcDbBlockBegin
  2
*Paper_Space
 70
0
 10
0.0
 20
0.0
 30
0.0
  3
*Paper_Space
  1

  0
ENDBLK
  5
1D
100
AcDbEntity
  8
0
100
AcDbBlockEnd
  0
ENDSEC
  0
SECTION
  2
ENTITIES
  0
LWPOLYLINE
  5
215
100
AcDbEntity
  8
RACCORDO
100
AcDbPolyline
 62
253
  6
CONTINUOUS
 90
10
 70
0
 10
-70.5529516964
 20
3.5620360975
 10
-70.5537023148
 20
3.5733969733
 10
-70.5539394681
 20
3.584366496
 10
-70.5537082999
 20
3.5949752001
 10
-70.5530358916
 20
3.6052208596
 10
-70.5519486494
 20
3.6150930498
 10
-70.5504741138
 20
3.6246094073
 10
-70.5486327101
 20
3.6337731577
 10
-70.5464475254
 20
3.6425732143
 10
-70.5456920971
 20
3.6452679204
  0
LWPOLYLINE
  5
216
100
AcDbEntity
  8
RACCORDO
100
AcDbPolyline
 62
253
  6
CONTINUOUS
 90
16
 70
0
 10
-70.5472441385
 20
3.525670911
 10
-70.5395852482
 20
3.3906766457
 10
-70.528875051
 20
3.2572845735
 10
-70.5151135468
 20
3.1254946944
 10
-70.4982508994
 20
2.9950010713
 10
-70.4783369451
 20
2.8661096413
 10
-70.455521192
 20
2.7397382157
 10
-70.4298148587
 20
2.6160001827
 10
-70.4012067265
 20
2.494782154
 10
-70.3698126486
 20
2.3766617761
 10
-70.3357456039
 20
2.2618389583
 10
-70.2988926134
 20
2.1501137912
 10
-70.2590305931
 20
2.041464193
 10
-70.2160851816
 20
1.9358828028
 10
-70.1701307403
 20
1.8333769815
 10
-70.1211672691
 20
1.733946729
  0
LWPOLYLINE
  5
217
100
AcDbEntity
  8
RACCORDO
100
AcDbPolyline
 62
7
  6
CONTINUOUS
 90
12
 70
0
 10
-70.5597985444
 20
3.5203274303
 10
-70.5541451131
 20
3.4152548605
 10
-70.5396878896
 20
3.2320246297
 10
-70.5195009582
 20
3.0510065405
 10
-70.4936332054
 20
2.8729243801
 10
-70.4621591693
 20
2.6985019971
 10
-70.4251924241
 20
2.5284428738
 10
-70.382843888
 20
2.363435675
 10
-70.335244833
 20
2.2041584059
 10
-70.282563884
 20
2.0512448665
 10
-70.2249648263
 20
1.9053157018
 10
-70.16261905
 20
1.7669744049
  0
LWPOLYLINE
  5
218
100
AcDbEntity
  8
RACCORDO
100
AcDbPolyline
 62
7
  6
CONTINUOUS
 90
4
 70
0
 10
-70.5547084034
 20
3.6054435561
 10
-70.5585774278
 20
3.5753614843
 10
-70.5601757087
 20
3.5441968419
 10
-70.5597995793
 20
3.5203256411
  0
LWPOLYLINE
  5
219
100
AcDbEntity
  8
RACCORDO
100
AcDbPolyline
 62
253
  6
CONTINUOUS
 90
4
 70
0
 10
-70.0898984177
 20
1.6852985711
 10
-70.0930382574
 20
1.6704035753
 10
-70.0934298226
 20
1.6559344773
 10
-70.0910612204
 20
1.6423307436
  0
LWPOLYLINE
  5
21A
100
AcDbEntity
  8
RACCORDO
100
AcDbPolyline
 62
253
  6
CONTINUOUS
 90
6
 70
0
 10
-69.4382671066
 20
1.0561749693
 10
-69.4411884127
 20
1.0435905458
 10
-69.4428809734
 20
1.0318268283
 10
-69.4433078295
 20
1.0211406933
 10
-69.4424596599
 20
1.0117654869
 10
-69.4403549855
 20
1.0039059294
  0
LWPOLYLINE
  5
21B
100
AcDbEntity
  8
RACCORDO
100
AcDbPolyline
 62
253
  6
CONTINUOUS
 90
10
 70
0
 10
-68.7307389004
 20
6.5505318867
 10
-68.726776974
 20
6.567052646
 10
-68.7202938071
 20
6.5830474458
 10
-68.7114854336
 20
6.5980326543
 10
-68.7006181945
 20
6.6115551666
 10
-68.6880206828
 20
6.6232061077
 10
-68.6740738066
 20
6.6326331944
 10
-68.6591992747
 20
6.6395513841
 10
-68.6438468465
 20
6.6437514945
 10
-68.6284807297
 20
6.64510653
  0
LWPOLYLINE
  5
21C
100
AcDbEntity
  8
RACCORDO
100
AcDbPolyline
 62
7
  6
CONTINUOUS
 90
10
 70
0
 10
-69.661400097
 20
4.1079664509
 10
-69.6802366637
 20
4.0358722924
 10
-69.6959765986
 20
3.9620058646
 10
-69.7086199016
 20
3.8863671675
 10
-69.7182015384
 20
3.8084070472
 10
-69.7246865435
 20
3.7286746576
 10
-69.7279700197
 20
3.6488174608
 10
-69.7280170014
 20
3.5693846107
 10
-69.7248624544
 20
3.4898269535
 10
-69.7185063785
 20
3.410144489
  0
LWPOLYLINE
  5
21D
100
AcDbEntity
  8
ASSI
100
AcDbPolyline
 62
7
  6
CONTINUOUS
 90
10
 70
0
 10
-69.661400097
 20
4.1079664509
 10
-69.6802366637
 20
4.0358722924
 10
-69.6959765986
 20
3.9620058646
 10
-69.7086199016
 20
3.8863671675
 10
-69.7182015384
 20
3.8084070472
 10
-69.7246865435
 20
3.7286746576
 10
-69.7279700197
 20
3.6488174608
 10
-69.7280170014
 20
3.5693846107
 10
-69.7248624544
 20
3.4898269535
 10
-69.7185063785
 20
3.410144489
  0
LWPOLYLINE
  5
21E
100
AcDbEntity
  8
RACCORDO
100
AcDbPolyline
 62
7
  6
CONTINUOUS
 90
3
 70
0
 10
-70.5456925151
 20
3.6452664352
 10
-70.5487410254
 20
3.6339718561
 10
-70.5547084034
 20
3.6054435561
  0
LINE
  5
21F
100
AcDbEntity
  8
RACCORDO
100
AcDbLine
 62
7
  6
CONTINUOUS
 10
-70.5456920971
 20
3.6452679204
 11
-69.7434411416
 21
6.4243468461
  0
LINE
  5
220
100
AcDbEntity
  8
RACCORDO
100
AcDbLine
 62
253
  6
CONTINUOUS
 10
-70.5472441385
 20
3.525670911
 11
-69.7069366307
 21
6.4365815059
  0
LINE
  5
221
100
AcDbEntity
  8
RACCORDO
100
AcDbLine
 62
7
  6
CONTINUOUS
 10
-70.0551710599
 20
4.0548829914
 11
-69.6946159323
 21
5.3038825911
  0
LINE
  5
222
100
AcDbEntity
  8
RACCORDO
100
AcDbLine
 62
7
  6
CONTINUOUS
 10
-69.661400097
 20
4.1079664509
 11
-69.3603602326
 21
5.1507991316
  0
LINE
  5
223
100
AcDbEntity
  8
ASSI
100
AcDbLine
 62
7
  6
CONTINUOUS
 10
-69.661400097
 20
4.1079664509
 11
-69.3603602326
 21
5.1507991316
  0
LINE
  5
224
100
AcDbEntity
  8
RACCORDO
100
AcDbLine
 62
7
  6
CONTINUOUS
 10
-69.7185063785
 20
3.410144489
 11
-69.0867476001
 21
5.5986210935
  0
LINE
  5
225
100
AcDbEntity
  8
ASSI
100
AcDbLine
 62
7
  6
CONTINUOUS
 10
-69.7185063785
 20
3.410144489
 11
-69.0867476001
 21
5.5986210935
  0
LINE
  5
226
100
AcDbEntity
  8
RACCORDO
100
AcDbLine
 62
253
  6
CONTINUOUS
 10
-69.7802563124
 20
1.3078612964
 11
-69.5570804373
 21
2.0809652056
  0
LINE
  5
227
100
AcDbEntity
  8
RACCORDO
100
AcDbLine
 62
253
  6
CONTINUOUS
 10
-68.6051953806
 20
5.3783917681
 11
-68.3820195055
 21
6.1514956773
  0
LINE
  5
228
100
AcDbEntity
  8
RACCORDO
100
AcDbLine
 62
253
  6
CONTINUOUS
 10
-68.2629803707
 20
5.1274876495
 11
-68.0441192009
 21
5.8857431473
  0
LINE
  5
229
100
AcDbEntity
  8
RACCORDO
100
AcDbLine
 62
253
  6
CONTINUOUS
 10
-69.4382493581
 20
1.0561657884
 11
-69.2193815101
 21
1.8144169177
  0
LWPOLYLINE
  5
22A
100
AcDbEntity
  8
RACCORDO
100
AcDbPolyline
 62
253
  6
CONTINUOUS
 90
13
 70
0
 10
-69.7434323243
 20
6.4243768987
 10
-69.7433668401
 20
6.42457033
 10
-69.7427565317
 20
6.4256106204
 10
-69.7416878418
 20
6.4266656281
 10
-69.7401348411
 20
6.427741169
 10
-69.7380728801
 20
6.4288379427
 10
-69.7354777184
 20
6.429935018
 10
-69.7323251534
 20
6.4310410122
 10
-69.7285860097
 20
6.4321606089
 10
-69.7242155659
 20
6.4332671037
 10
-69.7191713123
 20
6.4343583218
 10
-69.7134251494
 20
6.435458392
 10
-69.7069460706
 20
6.4365822901
  0
LINE
  5
22B
100
AcDbEntity
  8
RACCORDO
100
AcDbLine
 62
7
  6
CONTINUOUS
 10
-69.7356926561
 20
6.4452058287
 11
-69.743434589
 21
6.4243733524
  0
LINE
  5
22C
100
AcDbEntity
  8
RACCORDO
100
AcDbLine
 62
253
  6
CONTINUOUS
 10
-70.0910612204
 20
1.6423307436
 11
-70.0860043916
 21
1.6300055567
  0
LWPOLYLINE
  5
22D
100
AcDbEntity
  8
RACCORDO
100
AcDbPolyline
 62
253
  6
CONTINUOUS
 90
4
 70
0
 10
-70.5472437653
 20
3.5256722035
 10
-70.54975238
 20
3.5381539818
 10
-70.5516445144
 20
3.5502801348
 10
-70.5529516964
 20
3.5620360975
  0
LINE
  5
22E
100
AcDbEntity
  8
ASSI
100
AcDbLine
 62
7
  6
CONTINUOUS
 10
-68.0188130869
 20
5.0011854818
 11
-68.8175401891
 21
2.2343136373
  0
LWPOLYLINE
  5
22F
100
AcDbEntity
  8
RACCORDO
100
AcDbPolyline
 62
253
  6
CONTINUOUS
 90
5
 70
0
 10
-70.1211672691
 20
1.733946729
 10
-70.1256565494
 20
1.7211912021
 10
-70.1273690609
 20
1.7087950144
 10
-70.126253023
 20
1.6971329833
 10
-70.1225094777
 20
1.686875662
  0
LWPOLYLINE
  5
230
100
AcDbEntity
  8
RACCORDO
100
AcDbPolyline
 62
253
  6
CONTINUOUS
 90
10
 70
0
 10
-68.6946483512
 20
6.5185865801
 10
-68.6891087382
 20
6.53375805
 10
-68.6810844578
 20
6.5484421942
 10
-68.6708192401
 20
6.5621930145
 10
-68.6586248788
 20
6.574592862
 10
-68.6448717562
 20
6.5852651263
 10
-68.6299775909
 20
6.593885672
 10
-68.6143947587
 20
6.6001926767
 10
-68.5985965539
 20
6.6039945851
 10
-68.5830628084
 20
6.6051759304
  0
LWPOLYLINE
  5
231
100
AcDbEntity
  8
RACCORDO
100
AcDbPolyline
 62
253
  6
CONTINUOUS
 90
6
 70
0
 10
-70.1211672691
 20
1.733946729
 10
-70.1163190903
 20
1.7249539437
 10
-70.1113255929
 20
1.7163150621
 10
-70.1061867769
 20
1.708030084
 10
-70.1009026424
 20
1.7000990095
 10
-70.0954731893
 20
1.6925218385
  0
LINE
  5
232
100
AcDbEntity
  8
RACCORDO
100
AcDbLine
 62
253
  6
CONTINUOUS
 10
-69.4403549855
 20
1.0039059294
 11
-69.4370397647
 21
0.9977336447
  0
LWPOLYLINE
  5
233
100
AcDbEntity
  8
RACCORDO
100
AcDbPolyline
 62
7
  6
CONTINUOUS
 90
4
 70
0
 10
-70.1225094777
 20
1.686875662
 10
-70.1196984487
 20
1.6815639693
 10
-70.1081760089
 20
1.6614226023
 10
-70.0959289097
 20
1.642521008
  0
LINE
  5
234
100
AcDbEntity
  8
RACCORDO
100
AcDbLine
 62
7
  6
CONTINUOUS
 10
-70.1225094777
 20
1.686875662
 11
-70.1224894342
 21
1.6868372179
  0
LINE
  5
235
100
AcDbEntity
  8
RACCORDO
100
AcDbLine
 62
7
  6
CONTINUOUS
 10
-70.16261905
 20
1.7669744049
 11
-70.1224914108
 21
1.6868361848
  0
LINE
  5
236
100
AcDbEntity
  8
RACCORDO
100
AcDbLine
 62
7
  6
CONTINUOUS
 10
-70.0805338461
 20
1.6218236893
 11
-69.8552990569
 21
1.341260035
  0
LINE
  5
237
100
AcDbEntity
  8
RACCORDO
100
AcDbLine
 62
253
  6
CONTINUOUS
 10
-70.0898984177
 20
1.6852985711
 11
-69.8651955245
 21
1.405397473
  0
LINE
  5
238
100
AcDbEntity
  8
RACCORDO
100
AcDbLine
 62
7
  6
CONTINUOUS
 10
-70.0829454304
 20
1.6248622093
 11
-70.0805301686
 21
1.6218182614
  0
LINE
  5
239
100
AcDbEntity
  8
RACCORDO
100
AcDbLine
 62
253
  6
CONTINUOUS
 10
-70.0954731893
 20
1.6925218385
 11
-70.0898984177
 21
1.6852985711
  0
LINE
  5
23A
100
AcDbEntity
  8
RACCORDO
100
AcDbLine
 62
7
  6
CONTINUOUS
 10
-70.0959289097
 20
1.642521008
 11
-70.0829454304
 21
1.6248622093
  0
LWPOLYLINE
  5
23B
100
AcDbEntity
  8
RACCORDO
100
AcDbPolyline
 62
253
  6
CONTINUOUS
 90
6
 70
0
 10
-69.768456922
 20
1.2414690414
 10
-69.7754149481
 20
1.2514286941
 10
-69.7806855362
 20
1.264005799
 10
-69.7832881151
 20
1.2778894219
 10
-69.783143576
 20
1.292657553
 10
-69.7802563124
 20
1.3078612964
  0
LWPOLYLINE
  5
23C
100
AcDbEntity
  8
RACCORDO
100
AcDbPolyline
 62
7
  6
CONTINUOUS
 90
6
 70
0
 10
-69.855299451
 20
1.341260526
 10
-69.8608347344
 20
1.3495203788
 10
-69.8659951375
 20
1.361971771
 10
-69.8684751781
 20
1.3757132771
 10
-69.8682048787
 20
1.390335047
 10
-69.8651955245
 20
1.405397473
  0
LINE
  5
23D
100
AcDbEntity
  8
RACCORDO
100
AcDbLine
 62
253
  6
CONTINUOUS
 10
-70.0860043916
 20
1.6300055567
 11
-70.0805338461
 21
1.6218236893
  0
LWPOLYLINE
  5
23E
100
AcDbEntity
  8
RACCORDO
100
AcDbPolyline
 62
253
  6
CONTINUOUS
 90
6
 70
0
 10
-57.5951263159
 20
8.2851255988
 10
-57.5978178069
 20
8.2727100008
 10
-57.5978613302
 20
8.2436328178
 10
-57.5897297683
 20
8.2129110631
 10
-57.5735606226
 20
8.1810645714
 10
-57.5496274065
 20
8.1486322268
  0
LWPOLYLINE
  5
23F
100
AcDbEntity
  8
ASSI
100
AcDbPolyline
 62
253
  6
CONTINUOUS
 90
6
 70
0
 10
-57.5951263159
 20
8.2851255988
 10
-57.5978178069
 20
8.2727100008
 10
-57.5978613302
 20
8.2436328178
 10
-57.5897297683
 20
8.2129110631
 10
-57.5735606226
 20
8.1810645714
 10
-57.5496274065
 20
8.1486322268
  0
LINE
  5
240
100
AcDbEntity
  8
RACCORDO
100
AcDbLine
 62
7
  6
CONTINUOUS
 10
-58.0297968236
 20
6.7793827913
 11
-57.5951263159
 21
8.2851255988
  0
LINE
  5
241
100
AcDbEntity
  8
ASSI
100
AcDbLine
 62
7
  6
CONTINUOUS
 10
-58.0297968236
 20
6.7793827913
 11
-57.5951263159
 21
8.2851255988
  0
LINE
  5
242
100
AcDbEntity
  8
RACCORDO
100
AcDbLine
 62
253
  6
CONTINUOUS
 10
-57.9448956716
 20
6.7793827913
 11
-57.5496274049
 21
8.1486322325
  0
LINE
  5
243
100
AcDbEntity
  8
ASSI
100
AcDbLine
 62
253
  6
CONTINUOUS
 10
-57.9448956716
 20
6.7793827913
 11
-57.5496274049
 21
8.1486322325
  0
LINE
  5
244
100
AcDbEntity
  8
RACCORDO
100
AcDbLine
 62
7
  6
CONTINUOUS
 10
-56.2738752202
 20
6.3408564622
 11
-56.1981885557
 21
6.603042759
  0
LWPOLYLINE
  5
245
100
AcDbEntity
  8
RACCORDO
100
AcDbPolyline
 62
253
  6
CONTINUOUS
 90
19
 70
0
 10
-57.5496274049
 20
8.1486322325
 10
-57.5347322938
 20
8.1940978736
 10
-57.5159824329
 20
8.2392012908
 10
-57.4935202952
 20
8.2835990087
 10
-57.4675165016
 20
8.326952794
 10
-57.4381689073
 20
8.3689327042
 10
-57.405701093
 20
8.4092195974
 10
-57.3703600974
 20
8.447506845
 10
-57.3324147125
 20
8.483502925
 10
-57.2921538148
 20
8.5169341085
 10
-57.2498838497
 20
8.5475461574
 10
-57.2059264067
 20
8.5751059222
 10
-57.1606159518
 20
8.5994033984
 10
-57.1142974843
 20
8.6202538176
 10
-57.0673234856
 20
8.6374986328
 10
-57.0200511448
 20
8.6510063872
 10
-56.9728402196
 20
8.6606743467
 10
-56.9260503
 20
8.6664292945
 10
-56.8800376595
 20
8.6682276894
  0
LWPOLYLINE
  5
246
100
AcDbEntity
  8
ASSI
100
AcDbPolyline
 62
253
  6
CONTINUOUS
 90
19
 70
0
 10
-57.5496274049
 20
8.1486322325
 10
-57.5347322938
 20
8.1940978736
 10
-57.5159824329
 20
8.2392012908
 10
-57.4935202952
 20
8.2835990087
 10
-57.4675165016
 20
8.326952794
 10
-57.4381689073
 20
8.3689327042
 10
-57.405701093
 20
8.4092195974
 10
-57.3703600974
 20
8.447506845
 10
-57.3324147125
 20
8.483502925
 10
-57.2921538148
 20
8.5169341085
 10
-57.2498838497
 20
8.5475461574
 10
-57.2059264067
 20
8.5751059222
 10
-57.1606159518
 20
8.5994033984
 10
-57.1142974843
 20
8.6202538176
 10
-57.0673234856
 20
8.6374986328
 10
-57.0200511448
 20
8.6510063872
 10
-56.9728402196
 20
8.6606743467
 10
-56.9260503
 20
8.6664292945
 10
-56.8800376595
 20
8.6682276894
  0
LWPOLYLINE
  5
247
100
AcDbEntity
  8
RACCORDO
100
AcDbPolyline
 62
253
  6
CONTINUOUS
 90
7
 70
0
 10
-68.0040988961
 20
5.9615859977
 10
-68.0124893082
 20
5.9501774187
 10
-68.0204049095
 20
5.9379074375
 10
-68.0276728509
 20
5.9250439875
 10
-68.034134426
 20
5.9118679616
 10
-68.0396485367
 20
5.898667078
 10
-68.0440947742
 20
5.8857295979
  0
LWPOLYLINE
  5
248
100
AcDbEntity
  8
RACCORDO
100
AcDbPolyline
 62
7
  6
CONTINUOUS
 90
7
 70
0
 10
-69.7684501517
 20
1.2414748987
 10
-69.7305101355
 20
1.2011656366
 10
-69.6889876231
 20
1.162811848
 10
-69.6434581781
 20
1.1256566111
 10
-69.5941861866
 20
1.0897365278
 10
-69.541387519
 20
1.0550903158
 10
-69.4853652361
 20
1.021829993
  0
LINE
  5
249
100
AcDbEntity
  8
RACCORDO
100
AcDbLine
 62
253
  6
CONTINUOUS
 10
-69.7501541603
 20
1.2753845055
 11
-69.7802563124
 21
1.3078612964
  0
LINE
  5
24A
100
AcDbEntity
  8
ASSI
100
AcDbLine
 62
7
  6
CONTINUOUS
 10
-68.0393644555
 20
1.3595798611
 11
-68.7887335915
 21
2.2007649199
  0
LINE
  5
24B
100
AcDbEntity
  8
RACCORDO
100
AcDbLine
 62
7
  6
CONTINUOUS
 10
-69.7683238724
 20
1.2413157252
 11
-69.8538210697
 21
1.3394926393
  0
LINE
  5
24C
100
AcDbEntity
  8
RACCORDO
100
AcDbLine
 62
253
  6
CONTINUOUS
 10
-69.7802563124
 20
1.3078612964
 11
-69.8651955245
 21
1.405397473
  0
LINE
  5
24D
100
AcDbEntity
  8
RACCORDO
100
AcDbLine
 62
7
  6
CONTINUOUS
 10
-69.8538211343
 20
1.3394927199
 11
-69.855299451
 21
1.341260526
  0
LINE
  5
24E
100
AcDbEntity
  8
RACCORDO
100
AcDbLine
 62
7
  6
CONTINUOUS
 10
-69.5570804373
 20
2.0809652056
 11
-69.6532549168
 21
2.2007649199
  0
LWPOLYLINE
  5
24F
100
AcDbEntity
  8
RACCORDO
100
AcDbPolyline
 62
253
  6
CONTINUOUS
 90
12
 70
0
 10
-56.257374067
 20
-0.4791869417
 10
-56.2677851992
 20
-0.5251457347
 10
-56.2742258536
 20
-0.570689664
 10
-56.2766480548
 20
-0.6154717206
 10
-56.2750348344
 20
-0.6591501953
 10
-56.2693986107
 20
-0.7013930994
 10
-56.2597810637
 20
-0.7418806808
 10
-56.2462554551
 20
-0.7803051185
 10
-56.228925198
 20
-0.8163738164
 10
-56.2079212786
 20
-0.8498134289
 10
-56.1834027076
 20
-0.8803704294
 10
-56.1715860035
 20
-0.8928038092
  0
LWPOLYLINE
  5
250
100
AcDbEntity
  8
RACCORDO
100
AcDbPolyline
 62
253
  6
CONTINUOUS
 90
19
 70
0
 10
-55.6156747565
 20
-0.7204620675
 10
-55.6175261003
 20
-0.7280257936
 10
-55.6186985149
 20
-0.7354445008
 10
-55.6191920003
 20
-0.742718189
 10
-55.6190030888
 20
-0.749907285
 10
-55.6181352481
 20
-0.7569513621
 10
-55.6165988815
 20
-0.7636691403
 10
-55.6143745216
 20
-0.7700482949
 10
-55.6114816357
 20
-0.7761011506
 10
-55.6079890299
 20
-0.781683401
 10
-55.6038832156
 20
-0.7867807092
 10
-55.5991776812
 20
-0.791407412
 10
-55.5939816983
 20
-0.7954622132
 10
-55.5882804007
 20
-0.7989323342
 10
-55.5820886546
 20
-0.8018305535
 10
-55.5755603288
 20
-0.804093911
 10
-55.5687467131
 20
-0.8057014199
 10
-55.5615965177
 20
-0.8066740669
 10
-55.5541097427
 20
-0.807011852
  0
LWPOLYLINE
  5
251
100
AcDbEntity
  8
RACCORDO
100
AcDbPolyline
 62
253
  6
CONTINUOUS
 90
13
 70
0
 10
-53.9598178021
 20
4.7157774345
 10
-53.9456338676
 20
4.7730912008
 10
-53.9352236192
 20
4.8335573139
 10
-53.9287574108
 20
4.8961866738
 10
-53.9263410807
 20
4.9599547653
 10
-53.9280142172
 20
5.0238184245
 10
-53.9337495112
 20
5.0867329036
 10
-53.9434532016
 20
5.1476689631
 10
-53.9569666001
 20
5.2056296721
 10
-53.9740686778
 20
5.2596667345
 10
-53.9944796913
 20
5.3088960516
 10
-54.0178657649
 20
5.3525121808
 10
-54.0438443398
 20
5.3898014825
  0
LINE
  5
252
100
AcDbEntity
  8
RACCORDO
100
AcDbLine
 62
253
  6
CONTINUOUS
 10
-54.6999498963
 20
6.4618349961
 11
-54.7110242122
 21
6.4234724407
  0
LINE
  5
253
100
AcDbEntity
  8
ASSI
100
AcDbLine
 62
253
  6
CONTINUOUS
 10
-54.6999498963
 20
6.4618349961
 11
-54.7110242122
 21
6.4234724407
  0
LINE
  5
254
100
AcDbEntity
  8
RACCORDO
100
AcDbLine
 62
253
  6
CONTINUOUS
 10
-54.7130516678
 20
4.8705027759
 11
-56.257374067
 21
-0.4791869417
  0
LINE
  5
255
100
AcDbEntity
  8
RACCORDO
100
AcDbLine
 62
253
  6
CONTINUOUS
 10
-54.0713523572
 20
4.6292276501
 11
-55.6156747565
 21
-0.7204620675
  0
LWPOLYLINE
  5
256
100
AcDbEntity
  8
RACCORDO
100
AcDbPolyline
 62
253
  6
CONTINUOUS
 90
10
 70
0
 10
-55.5541097427
 20
-0.807011852
 10
-55.5718358946
 20
-0.8602373947
 10
-55.5928139507
 20
-0.9085023807
 10
-55.6167007249
 20
-0.9510172288
 10
-55.6431054462
 20
-0.9870864259
 10
-55.6715961522
 20
-1.0161199054
 10
-55.7017067547
 20
-1.0376427
 10
-55.7329446656
 20
-1.0513027117
 10
-55.7647988546
 20
-1.0568764726
 10
-55.7706160937
 20
-1.057011852
  0
LWPOLYLINE
  5
257
100
AcDbEntity
  8
RACCORDO
100
AcDbPolyline
 62
253
  6
CONTINUOUS
 90
7
 70
0
 10
-69.686546497
 20
6.5099854583
 10
-69.6907153262
 20
6.5058662055
 10
-69.6989721643
 20
6.494723306
 10
-69.7048601204
 20
6.4818192281
 10
-69.7082034422
 20
6.4675389958
 10
-69.7089022885
 20
6.4523087808
 10
-69.7069357534
 20
6.4365830903
  0
LWPOLYLINE
  5
258
100
AcDbEntity
  8
RACCORDO
100
AcDbPolyline
 62
7
  6
CONTINUOUS
 90
5
 70
0
 10
-69.6864833913
 20
6.5100443072
 10
-69.6993233459
 20
6.4976087152
 10
-69.7137719509
 20
6.4809573331
 10
-69.7258679345
 20
6.4635870748
 10
-69.7356926561
 20
6.4452058287
  0
LINE
  5
259
100
AcDbEntity
  8
RACCORDO
100
AcDbLine
 62
7
  6
CONTINUOUS
 10
-69.6864823535
 20
6.5100431664
 11
-69.686546497
 21
6.5099854583
  0
LINE
  5
25A
100
AcDbEntity
  8
RACCORDO
100
AcDbLine
 62
253
  6
CONTINUOUS
 10
-69.6592253224
 20
6.4769110342
 11
-69.7069366307
 21
6.4365815059
  0
LWPOLYLINE
  5
25B
100
AcDbEntity
  8
RACCORDO
100
AcDbPolyline
 62
253
  6
CONTINUOUS
 90
3
 70
0
 10
-69.6823448358
 20
1.2137688493
 10
-69.717363797
 20
1.2439804452
 10
-69.7501541603
 20
1.2753845055
  0
LINE
  5
25C
100
AcDbEntity
  8
RACCORDO
100
AcDbLine
 62
7
  6
CONTINUOUS
 10
-67.9134964685
 20
5.8618369501
 11
-67.8996177522
 21
5.8474828998
  0
LINE
  5
25D
100
AcDbEntity
  8
RACCORDO
100
AcDbLine
 62
7
  6
CONTINUOUS
 10
-67.9264897671
 20
5.8754404474
 11
-67.9134964685
 21
5.8618369501
  0
LINE
  5
25E
100
AcDbEntity
  8
RACCORDO
100
AcDbLine
 62
7
  6
CONTINUOUS
 10
-67.9387012704
 20
5.8883776597
 11
-67.9264897671
 21
5.8754404474
  0
LINE
  5
25F
100
AcDbEntity
  8
RACCORDO
100
AcDbLine
 62
7
  6
CONTINUOUS
 10
-67.9502239167
 20
5.9007379183
 11
-67.9387012704
 21
5.8883776597
  0
LINE
  5
260
100
AcDbEntity
  8
RACCORDO
100
AcDbLine
 62
7
  6
CONTINUOUS
 10
-67.9611160661
 20
5.9125831389
 11
-67.9502239167
 21
5.9007379183
  0
LWPOLYLINE
  5
261
100
AcDbEntity
  8
RACCORDO
100
AcDbPolyline
 62
253
  6
CONTINUOUS
 90
7
 70
0
 10
-68.5830659365
 20
6.6051794966
 10
-68.59033508
 20
6.6131373598
 10
-68.5977360917
 20
6.6205850035
 10
-68.6052602758
 20
6.6275137615
 10
-68.6128987925
 20
6.6339155598
 10
-68.6206426684
 20
6.6397829259
 10
-68.6284828063
 20
6.6451089982
  0
LWPOLYLINE
  5
262
100
AcDbEntity
  8
RACCORDO
100
AcDbPolyline
 62
253
  6
CONTINUOUS
 90
7
 70
0
 10
-68.6946483512
 20
6.5185865801
 10
-68.7004605287
 20
6.5249874494
 10
-68.7063538718
 20
6.5309576581
 10
-68.7123283806
 20
6.5364972061
 10
-68.7183840549
 20
6.5416060936
 10
-68.7245208948
 20
6.5462843205
 10
-68.7307389004
 20
6.5505318867
  0
LINE
  5
263
100
AcDbEntity
  8
RACCORDO
100
AcDbLine
 62
7
  6
CONTINUOUS
 10
-67.9714651086
 20
5.9240027408
 11
-67.9611160661
 21
5.9125831389
  0
LINE
  5
264
100
AcDbEntity
  8
RACCORDO
100
AcDbLine
 62
7
  6
CONTINUOUS
 10
-68.7033996064
 20
5.4911602348
 11
-68.6051953806
 21
5.3783917681
  0
LINE
  5
265
100
AcDbEntity
  8
RACCORDO
100
AcDbLine
 62
253
  6
CONTINUOUS
 10
-68.4652031409
 20
6.2551133502
 11
-68.6946483512
 21
6.5185865801
  0
LINE
  5
266
100
AcDbEntity
  8
RACCORDO
100
AcDbLine
 62
253
  6
CONTINUOUS
 10
-68.3528806529
 20
6.3408564622
 11
-68.583065914
 21
6.6051794967
  0
LINE
  5
267
100
AcDbEntity
  8
RACCORDO
100
AcDbLine
 62
7
  6
CONTINUOUS
 10
-67.4868420591
 20
6.3408564622
 11
-67.6942534876
 21
6.5790281761
  0
LINE
  5
268
100
AcDbEntity
  8
ASSI
100
AcDbLine
 62
7
  6
CONTINUOUS
 10
-67.4868420591
 20
6.3408564622
 11
-67.6942534876
 21
6.5790281761
  0
LWPOLYLINE
  5
269
100
AcDbEntity
  8
RACCORDO
100
AcDbPolyline
 62
253
  6
CONTINUOUS
 90
10
 70
0
 10
-68.3820195055
 20
6.1514956773
 10
-68.3552476454
 20
6.1202612242
 10
-68.3256788647
 20
6.0894460661
 10
-68.2935184104
 20
6.059154511
 10
-68.2593582864
 20
6.0297958958
 10
-68.2230756612
 20
6.0011377836
 10
-68.1835647707
 20
5.9723511515
 10
-68.1403499398
 20
5.9432706143
 10
-68.0938549167
 20
5.9143492676
 10
-68.0441192072
 20
5.8857431247
  0
LWPOLYLINE
  5
26A
100
AcDbEntity
  8
RACCORDO
100
AcDbPolyline
 62
253
  6
CONTINUOUS
 90
10
 70
0
 10
-68.26892254
 20
6.2363397871
 10
-68.248790982
 20
6.2126703648
 10
-68.2271471464
 20
6.1893934613
 10
-68.2039910331
 20
6.1665090766
 10
-68.1794228034
 20
6.1441069426
 10
-68.153342296
 20
6.1220973275
 10
-68.1254490277
 20
6.1002110349
 10
-68.0956428375
 20
6.0783583329
 10
-68.0640238863
 20
6.0566289535
 10
-68.0305921744
 20
6.0350228967
  0
LWPOLYLINE
  5
26B
100
AcDbEntity
  8
RACCORDO
100
AcDbPolyline
 62
7
  6
CONTINUOUS
 90
7
 70
0
 10
-68.0040988436
 20
5.9615857995
 10
-67.9997768339
 20
5.9564254617
 10
-67.995340664
 20
5.9511962949
 10
-67.9907905633
 20
5.9458978944
 10
-67.9861265755
 20
5.9405315882
 10
-67.9813491205
 20
5.9350952412
 10
-67.9714651086
 20
5.9240027408
  0
LINE
  5
26C
100
AcDbEntity
  8
RACCORDO
100
AcDbLine
 62
253
  6
CONTINUOUS
 10
-68.4652031409
 20
6.2551133502
 11
-68.3820195055
 21
6.1514956773
  0
LINE
  5
26D
100
AcDbEntity
  8
RACCORDO
100
AcDbLine
 62
253
  6
CONTINUOUS
 10
-68.3528278889
 20
6.3408564622
 11
-68.26892254
 21
6.2363397871
  0
LINE
  5
26E
100
AcDbEntity
  8
0
100
AcDbLine
 62
7
  6
CONTINUOUS
 10
-47.3917121011
 20
2.3026116061
 11
-47.2696654348
 21
0.88901566
  0
LINE
  5
26F
100
AcDbEntity
  8
0
100
AcDbLine
 62
7
  6
CONTINUOUS
 10
-47.0224925482
 20
1.9269276559
 11
-47.1159866363
 21
3.0489929691
  0
LINE
  5
270
100
AcDbEntity
  8
0
100
AcDbLine
 62
7
  6
CONTINUOUS
 10
-46.9575406429
 20
1.8519276559
 11
-47.0576887204
 21
3.0538505388
  0
LINE
  5
271
100
AcDbEntity
  8
0
100
AcDbLine
 62
7
  6
CONTINUOUS
 10
-50.3479028268
 20
3.0538505388
 11
-50.2865420051
 21
0.88901566
  0
LINE
  5
272
100
AcDbEntity
  8
0
100
AcDbLine
 62
7
  6
CONTINUOUS
 10
-49.9394720097
 20
1.6387273919
 11
-49.922848322
 21
3.0538505388
  0
LINE
  5
273
100
AcDbEntity
  8
0
100
AcDbLine
 62
7
  6
CONTINUOUS
 10
-49.8745201044
 20
1.5637273919
 11
-49.8570153792
 21
3.0538505388
  0
LINE
  5
274
100
AcDbEntity
  8
RACCORDO
100
AcDbLine
 62
7
  6
CONTINUOUS
 10
-48.0918793653
 20
6.3269780555
 11
-48.1251248892
 21
6.2118121823
  0
LINE
  5
275
100
AcDbEntity
  8
ASSI
100
AcDbLine
 62
7
  6
CONTINUOUS
 10
-48.0918793653
 20
6.3269780555
 11
-48.1251248892
 21
6.2118121823
  0
LINE
  5
276
100
AcDbEntity
  8
RACCORDO
100
AcDbLine
 62
253
  6
CONTINUOUS
 10
-47.749447188
 20
6.029130977
 11
-47.8046396735
 21
5.8379385988
  0
LINE
  5
277
100
AcDbEntity
  8
ASSI
100
AcDbLine
 62
253
  6
CONTINUOUS
 10
-47.749447188
 20
6.029130977
 11
-47.8046396735
 21
5.8379385988
  0
LINE
  5
278
100
AcDbEntity
  8
0
100
AcDbLine
 62
7
  6
CONTINUOUS
 10
-48.3997853482
 20
3.0539804426
 11
-49.0247568482
 21
0.88901566
  0
LINE
  5
279
100
AcDbEntity
  8
RACCORDO
100
AcDbLine
 62
253
  6
CONTINUOUS
 10
-69.612523924
 20
6.5131091665
 11
-69.6592253224
 21
6.4769110342
  0
LWPOLYLINE
  5
27A
100
AcDbEntity
  8
RACCORDO
100
AcDbPolyline
 62
7
  6
CONTINUOUS
 90
10
 70
0
 10
-69.0867476001
 20
5.5986210935
 10
-69.1244291573
 20
5.5697889076
 10
-69.160455907
 20
5.5354739148
 10
-69.1948278491
 20
5.495676115
 10
-69.2277652915
 20
5.4500603689
 10
-69.2590479265
 20
5.3989618159
 10
-69.2880148304
 20
5.3433858739
 10
-69.3144456955
 20
5.2836676822
 10
-69.3385608295
 20
5.2194721014
 10
-69.3603602326
 20
5.1507991316
  0
LWPOLYLINE
  5
27B
100
AcDbEntity
  8
ASSI
100
AcDbPolyline
 62
7
  6
CONTINUOUS
 90
10
 70
0
 10
-69.0867476001
 20
5.5986210935
 10
-69.1244291573
 20
5.5697889076
 10
-69.160455907
 20
5.5354739148
 10
-69.1948278491
 20
5.495676115
 10
-69.2277652915
 20
5.4500603689
 10
-69.2590479265
 20
5.3989618159
 10
-69.2880148304
 20
5.3433858739
 10
-69.3144456955
 20
5.2836676822
 10
-69.3385608295
 20
5.2194721014
 10
-69.3603602326
 20
5.1507991316
  0
LWPOLYLINE
  5
27C
100
AcDbEntity
  8
RACCORDO
100
AcDbPolyline
 62
7
  6
CONTINUOUS
 90
4
 70
0
 10
-67.8428181267
 20
5.790366231
 10
-67.8334741488
 20
5.7812217254
 10
-67.8237666439
 20
5.7718070114
 10
-67.803314196
 20
5.7521699166
  0
LINE
  5
27D
100
AcDbEntity
  8
RACCORDO
100
AcDbLine
 62
7
  6
CONTINUOUS
 10
-67.8605032859
 20
5.8078795511
 11
-67.8428181267
 21
5.790366231
  0
LINE
  5
27E
100
AcDbEntity
  8
RACCORDO
100
AcDbLine
 62
7
  6
CONTINUOUS
 10
-67.8769701557
 20
5.8244034711
 11
-67.8605032859
 21
5.8078795511
  0
LWPOLYLINE
  5
27F
100
AcDbEntity
  8
RACCORDO
100
AcDbPolyline
 62
7
  6
CONTINUOUS
 90
3
 70
0
 10
-67.8996177522
 20
5.8474828998
 10
-67.8923351316
 20
5.8400112345
 10
-67.8769701557
 20
5.8244034711
  0
LINE
  5
280
100
AcDbEntity
  8
RACCORDO
100
AcDbLine
 62
7
  6
CONTINUOUS
 10
-67.8283527262
 20
6.6051759305
 11
-67.6185745078
 21
6.3876525904
  0
LINE
  5
281
100
AcDbEntity
  8
SCRITTE
100
AcDbLine
 62
253
  6
CONTINUOUS
 10
-52.7124272778
 20
6.7209319041
 11
-52.9752894678
 21
7.4103511392
  0
LWPOLYLINE
  5
282
100
AcDbEntity
  8
0
100
AcDbPolyline
 62
7
  6
CONTINUOUS
 90
6
 70
0
 10
-43.0160658094
 20
1.5454645946
 10
-43.0125050222
 20
1.4774083855
 10
-43.0098806612
 20
1.4080274591
 10
-43.0081927266
 20
1.3373218153
 10
-43.0078027894
 20
1.2651526778
 10
-43.0087474806
 20
1.1172565799
  0
LINE
  5
283
100
AcDbEntity
  8
0
100
AcDbLine
 62
7
  6
CONTINUOUS
 10
-44.3476835981
 20
0.96401566
 11
-44.3855924628
 21
3.0526967692
  0
LINE
  5
284
100
AcDbEntity
  8
0
100
AcDbLine
 62
7
  6
CONTINUOUS
 10
-44.2827316928
 20
0.88901566
 11
-44.322022723
 21
3.0538505388
  0
LINE
  5
285
100
AcDbEntity
  8
0
100
AcDbLine
 62
7
  6
CONTINUOUS
 10
-43.0087474806
 20
1.1172565799
 11
-43.0079676507
 21
0.88901585
  0
LINE
  5
286
100
AcDbEntity
  8
0
100
AcDbLine
 62
7
  6
CONTINUOUS
 10
-44.7513040174
 20
1.3211935134
 11
-44.7590006316
 21
0.88901566
  0
LINE
  5
287
100
AcDbEntity
  8
0
100
AcDbLine
 62
7
  6
CONTINUOUS
 10
-44.7208019236
 20
2.4590088658
 11
-44.7450751465
 21
1.6556109552
  0
LINE
  5
288
100
AcDbEntity
  8
0
100
AcDbLine
 62
7
  6
CONTINUOUS
 10
-46.1990423954
 20
0.96401566
 11
-45.7911817361
 21
3.0538505388
  0
LINE
  5
289
100
AcDbEntity
  8
0
100
AcDbLine
 62
7
  6
CONTINUOUS
 10
-46.1340904901
 20
0.88901566
 11
-45.7115925263
 21
3.0538505388
  0
LINE
  5
28A
100
AcDbEntity
  8
0
100
AcDbLine
 62
7
  6
CONTINUOUS
 10
-46.2626272769
 20
2.2967191693
 11
-46.5761548895
 21
0.88901566
  0
LINE
  5
28B
100
AcDbEntity
  8
0
100
AcDbLine
 62
7
  6
CONTINUOUS
 10
-48.63782276
 20
0.96401566
 11
-48.0345018951
 21
3.0539804426
  0
LINE
  5
28C
100
AcDbEntity
  8
0
100
AcDbLine
 62
7
  6
CONTINUOUS
 10
-48.5728708547
 20
0.88901566
 11
-47.9478993547
 21
3.0539804426
  0
LINE
  5
28D
100
AcDbEntity
  8
RACCORDO
100
AcDbLine
 62
253
  6
CONTINUOUS
 10
-47.1450039372
 20
5.8194203663
 11
-47.2280862925
 21
5.5316146452
  0
LINE
  5
28E
100
AcDbEntity
  8
ASSI
100
AcDbLine
 62
253
  6
CONTINUOUS
 10
-47.1450039372
 20
5.8194203663
 11
-47.2280862925
 21
5.5316146452
  0
LINE
  5
28F
100
AcDbEntity
  8
RACCORDO
100
AcDbLine
 62
253
  6
CONTINUOUS
 10
-45.4888938866
 20
5.5316146452
 11
-45.4058115314
 21
5.8194203663
  0
LINE
  5
290
100
AcDbEntity
  8
ASSI
100
AcDbLine
 62
253
  6
CONTINUOUS
 10
-45.4888938866
 20
5.5316146452
 11
-45.4058115314
 21
5.8194203663
  0
LINE
  5
291
100
AcDbEntity
  8
DRAFT
100
AcDbLine
 62
7
  6
CONTINUOUS
 10
-45.1886321225
 20
6.3269780555
 11
-45.2341654096
 21
6.1692461224
  0
LINE
  5
292
100
AcDbEntity
  8
RACCORDO
100
AcDbLine
 62
7
  6
CONTINUOUS
 10
-45.2368359333
 20
5.6019933705
 11
-45.1414476618
 21
5.932428036
  0
LINE
  5
293
100
AcDbEntity
  8
ASSI
100
AcDbLine
 62
7
  6
CONTINUOUS
 10
-45.2368359333
 20
5.6019933705
 11
-45.1414476618
 21
5.932428036
  0
LINE
  5
294
100
AcDbEntity
  8
RACCORDO
100
AcDbLine
 62
253
  6
CONTINUOUS
 10
-44.7516502741
 20
5.5465995002
 11
-44.7116582975
 21
5.6851357707
  0
LINE
  5
295
100
AcDbEntity
  8
0
100
AcDbLine
 62
7
  6
CONTINUOUS
 10
-47.9622510649
 20
0.96401566
 11
-47.4566640064
 21
2.3776116061
  0
LINE
  5
296
100
AcDbEntity
  8
0
100
AcDbLine
 62
7
  6
CONTINUOUS
 10
-47.8972991597
 20
0.88901566
 11
-47.3917121011
 21
2.3026116061
  0
LINE
  5
297
100
AcDbEntity
  8
0
100
AcDbLine
 62
7
  6
CONTINUOUS
 10
-47.5092005909
 20
3.0538505388
 11
-48.3296069169
 21
0.88901566
  0
LINE
  5
298
100
AcDbEntity
  8
0
100
AcDbLine
 62
7
  6
CONTINUOUS
 10
-49.0190959638
 20
3.0538505388
 11
-49.8745201044
 21
1.5637273919
  0
LINE
  5
299
100
AcDbEntity
  8
0
100
AcDbLine
 62
7
  6
CONTINUOUS
 10
-49.953269449
 20
0.96401566
 11
-48.6782296776
 21
3.0538505388
  0
LINE
  5
29A
100
AcDbEntity
  8
0
100
AcDbLine
 62
7
  6
CONTINUOUS
 10
-49.8883175437
 20
0.88901566
 11
-48.5675191414
 21
3.0538505388
  0
LWPOLYLINE
  5
29B
100
AcDbEntity
  8
RACCORDO
100
AcDbPolyline
 62
253
  6
CONTINUOUS
 90
5
 70
0
 10
-69.5263288075
 20
1.1051951074
 10
-69.5681654096
 20
1.1311277827
 10
-69.6079523272
 20
1.1577061448
 10
-69.6458186849
 20
1.1850610501
 10
-69.6823448358
 20
1.2137688493
  0
LWPOLYLINE
  5
29C
100
AcDbEntity
  8
RACCORDO
100
AcDbPolyline
 62
7
  6
CONTINUOUS
 90
11
 70
0
 10
-56.1716590419
 20
-0.8927122585
 10
-56.1527472933
 20
-0.9107209495
 10
-56.1141490353
 20
-0.9427484038
 10
-56.0726578567
 20
-0.9712985366
 10
-56.0286013624
 20
-0.9960806139
 10
-55.9822311052
 20
-1.0168987046
 10
-55.9339233923
 20
-1.0335459594
 10
-55.8841459823
 20
-1.0458325218
 10
-55.833226141
 20
-1.0536418086
 10
-55.7815186857
 20
-1.0568900547
 10
-55.7708134986
 20
-1.0569900398
  0
LINE
  5
29D
100
AcDbEntity
  8
RACCORDO
100
AcDbLine
 62
7
  6
CONTINUOUS
 10
-57.7165623329
 20
0.6448801604
 11
-56.1710638135
 21
-0.8933246824
  0
LINE
  5
29E
100
AcDbEntity
  8
RACCORDO
100
AcDbLine
 62
253
  6
CONTINUOUS
 10
-57.6223857042
 20
0.8793827913
 11
-56.257374067
 21
-0.4791869417
  0
LINE
  5
29F
100
AcDbEntity
  8
DRAFT
100
AcDbLine
 62
7
  6
CONTINUOUS
 10
-56.0014235969
 20
6.0350228967
 11
-56.2738752202
 21
6.3408564622
  0
LINE
  5
2A0
100
AcDbEntity
  8
RACCORDO
100
AcDbLine
 62
7
  6
CONTINUOUS
 10
-56.4282995596
 20
6.5790281761
 11
-56.2599464556
 21
6.389107118
  0
LINE
  5
2A1
100
AcDbEntity
  8
ASSI
100
AcDbLine
 62
7
  6
CONTINUOUS
 10
-56.4282995596
 20
6.5790281761
 11
-56.2599464556
 21
6.389107118
  0
LINE
  5
2A2
100
AcDbEntity
  8
RACCORDO
100
AcDbLine
 62
253
  6
CONTINUOUS
 10
-56.2034615726
 20
6.598463673
 11
-57.5496274049
 21
8.1486322325
  0
LINE
  5
2A3
100
AcDbEntity
  8
ASSI
100
AcDbLine
 62
253
  6
CONTINUOUS
 10
-56.2034615726
 20
6.598463673
 11
-57.5496274049
 21
8.1486322325
  0
LINE
  5
2A4
100
AcDbEntity
  8
RACCORDO
100
AcDbLine
 62
253
  6
CONTINUOUS
 10
-54.7130516678
 20
4.8705027759
 11
-56.1981885557
 21
6.603042759
  0
LINE
  5
2A5
100
AcDbEntity
  8
RACCORDO
100
AcDbLine
 62
253
  6
CONTINUOUS
 10
-54.043844337
 20
5.3898014826
 11
-55.5289812249
 21
7.1223414657
  0
LINE
  5
2A6
100
AcDbEntity
  8
SCRITTE
100
AcDbLine
 62
253
  6
CONTINUOUS
 10
-41.6850367818
 20
6.7209319041
 11
-41.6867821373
 21
7.1148857498
  0
LINE
  5
2A7
100
AcDbEntity
  8
0
100
AcDbLine
 62
7
  6
CONTINUOUS
 10
-42.6279333749
 20
1.3516493516
 11
-42.6235962162
 21
1.5499446909
  0
LINE
  5
2A8
100
AcDbEntity
  8
0
100
AcDbLine
 62
7
  6
CONTINUOUS
 10
-42.5629784749
 20
1.2767636053
 11
-42.5586443109
 21
1.4749446909
  0
LINE
  5
2A9
100
AcDbEntity
  8
0
100
AcDbLine
 62
7
  6
CONTINUOUS
 10
-42.6382578566
 20
0.96401585
 11
-42.6279333749
 21
1.3516493516
  0
LINE
  5
2AA
100
AcDbEntity
  8
0
100
AcDbLine
 62
7
  6
CONTINUOUS
 10
-42.5733059514
 20
0.88901585
 11
-42.5629784749
 21
1.2767636053
  0
LWPOLYLINE
  5
2AB
100
AcDbEntity
  8
0
100
AcDbPolyline
 62
7
  6
CONTINUOUS
 90
11
 70
0
 10
-42.5586443109
 20
1.4749446909
 10
-42.5567957339
 20
1.5250264758
 10
-42.55707948
 20
1.5730033303
 10
-42.5594955494
 20
1.6188752544
 10
-42.5638238624
 20
1.6629881664
 10
-42.5702844987
 20
1.7049961479
 10
-42.5795376964
 20
1.743861444
 10
-42.5917470541
 20
1.7795877629
 10
-42.6067489733
 20
1.8121713964
 10
-42.6247128975
 20
1.8405634643
 10
-42.6347520424
 20
1.8529197968
  0
LWPOLYLINE
  5
2AC
100
AcDbEntity
  8
0
100
AcDbPolyline
 62
7
  6
CONTINUOUS
 90
7
 70
0
 10
-42.6235962162
 20
1.5499446909
 10
-42.6216242018
 20
1.598787358
 10
-42.6218683319
 20
1.6461407885
 10
-42.6243286063
 20
1.6920049824
 10
-42.6287938716
 20
1.7370515532
 10
-42.6354752813
 20
1.7806088875
 10
-42.6450062959
 20
1.8206621447
  0
LWPOLYLINE
  5
2AD
100
AcDbEntity
  8
RACCORDO
100
AcDbPolyline
 62
253
  6
CONTINUOUS
 90
8
 70
0
 10
-41.5167049142
 20
0.3566492416
 10
-41.5239827992
 20
0.3224301005
 10
-41.5267319999
 20
0.2888410067
 10
-41.5249054947
 20
0.2564564563
 10
-41.5185345236
 20
0.2258303434
 10
-41.5077280535
 20
0.1974864863
 10
-41.4926709145
 20
0.1719096686
 10
-41.4785352223
 20
0.1545873193
  0
LWPOLYLINE
  5
2AE
100
AcDbEntity
  8
RACCORDO
100
AcDbPolyline
 62
253
  6
CONTINUOUS
 90
10
 70
0
 10
-40.723934261
 20
3.6401354067
 10
-40.7312344366
 20
3.6089040038
 10
-40.7357443677
 20
3.5756291242
 10
-40.7373300274
 20
3.5412995011
 10
-40.7359442802
 20
3.506935211
 10
-40.7316282846
 20
3.4735573874
 10
-40.7245102785
 20
3.4421578752
 10
-40.7148017645
 20
3.4136697214
 10
-40.7027912194
 20
3.3889394536
 10
-40.6888355281
 20
3.3687019466
  0
LWPOLYLINE
  5
2AF
100
AcDbEntity
  8
RACCORDO
100
AcDbPolyline
 62
253
  6
CONTINUOUS
 90
10
 70
0
 10
-40.3833860435
 20
3.6401354067
 10
-40.3906862621
 20
3.6089037672
 10
-40.3951961882
 20
3.5756286963
 10
-40.3967818108
 20
3.541298953
 10
-40.3953960134
 20
3.5069346352
 10
-40.3910799747
 20
3.4735568684
 10
-40.3839619445
 20
3.4421574631
 10
-40.3742534328
 20
3.4136694431
 10
-40.3622429253
 20
3.3889393215
 10
-40.3482873106
 20
3.3687019466
  0
LWPOLYLINE
  5
2B0
100
AcDbEntity
  8
RACCORDO
100
AcDbPolyline
 62
253
  6
CONTINUOUS
 90
19
 70
0
 10
-42.0051697773
 20
0.7015769278
 10
-42.0144657154
 20
0.6632821879
 10
-42.0203337092
 20
0.625842776
 10
-42.0227737588
 20
0.589258692
 10
-42.0217453919
 20
0.5532555944
 10
-42.0172890807
 20
0.5181078248
 10
-42.0095262423
 20
0.4846384076
 10
-41.9983854648
 20
0.4529061197
 10
-41.98393816
 20
0.4228521841
 10
-41.9665199804
 20
0.3951232941
 10
-41.9460740189
 20
0.3697694867
 10
-41.9226571825
 20
0.3467407247
 10
-41.8967758456
 20
0.3265335898
 10
-41.8683596169
 20
0.309199088
 10
-41.8374788876
 20
0.2946862132
 10
-41.8048512053
 20
0.2833385283
 10
-41.7707157524
 20
0.2752705542
 10
-41.7348333464
 20
0.2703677701
 10
-41.6972039873
 20
0.2686301758
  0
LWPOLYLINE
  5
2B1
100
AcDbEntity
  8
RACCORDO
100
AcDbPolyline
 62
253
  6
CONTINUOUS
 90
19
 70
0
 10
-40.0754202534
 20
3.2071886547
 10
-40.0661243154
 20
3.2454833946
 10
-40.0602563216
 20
3.2829228066
 10
-40.057816272
 20
3.3195068906
 10
-40.0588446389
 20
3.3555099881
 10
-40.06330095
 20
3.3906577577
 10
-40.0710637884
 20
3.4241271749
 10
-40.0822045659
 20
3.4558594628
 10
-40.0966518707
 20
3.4859133984
 10
-40.1140700503
 20
3.5136422885
 10
-40.1345160119
 20
3.5389960959
 10
-40.1579328482
 20
3.5620248578
 10
-40.1838141851
 20
3.5822319928
 10
-40.2122304138
 20
3.5995664945
 10
-40.2431111431
 20
3.6140793694
 10
-40.2757388255
 20
3.6254270543
 10
-40.3098742784
 20
3.6334950283
 10
-40.3457566844
 20
3.6383978125
 10
-40.3833860435
 20
3.6401354067
  0
LWPOLYLINE
  5
2B2
100
AcDbEntity
  8
RACCORDO
100
AcDbPolyline
 62
253
  6
CONTINUOUS
 90
13
 70
0
 10
-40.4104323085
 20
2.69949848
 10
-40.4019997361
 20
2.7335149441
 10
-40.3957483288
 20
2.7696393311
 10
-40.3918262273
 20
2.8073173435
 10
-40.3903461187
 20
2.8460344957
 10
-40.3913941431
 20
2.8850674438
 10
-40.3949712318
 20
2.9234998199
 10
-40.401002373
 20
2.9606039653
 10
-40.4093909669
 20
2.9958318955
 10
-40.419991371
 20
3.0285754648
 10
-40.4326208726
 20
3.0582799513
 10
-40.4470656595
 20
3.084450572
 10
-40.4630804078
 20
3.1066486702
  0
LWPOLYLINE
  5
2B3
100
AcDbEntity
  8
RACCORDO
100
AcDbPolyline
 62
253
  6
CONTINUOUS
 90
12
 70
0
 10
-41.7468980271
 20
0.6033287427
 10
-41.7525831972
 20
0.5808217657
 10
-41.7562304136
 20
0.5584702376
 10
-41.7578143528
 20
0.5364467111
 10
-41.7573263801
 20
0.514920352
 10
-41.7547704564
 20
0.4940574927
 10
-41.7501650662
 20
0.4740196085
 10
-41.7435488045
 20
0.4549619898
 10
-41.7349749052
 20
0.437026328
 10
-41.724506199
 20
0.4203421317
 10
-41.7122230507
 20
0.405036735
 10
-41.7106081428
 20
0.4032732307
  0
LINE
  5
2B4
100
AcDbEntity
  8
0
100
AcDbLine
 62
7
  6
CONTINUOUS
 10
-43.5324036005
 20
3.0285579104
 11
-44.1500361927
 21
0.88901585
  0
LINE
  5
2B5
100
AcDbEntity
  8
0
100
AcDbLine
 62
7
  6
CONTINUOUS
 10
-43.4329906423
 20
2.1657600748
 11
-43.2614341043
 21
2.7600493555
  0
LINE
  5
2B6
100
AcDbEntity
  8
0
100
AcDbLine
 62
7
  6
CONTINUOUS
 10
-43.764920462
 20
0.96401585
 11
-43.5203558572
 21
1.8112124925
  0
LINE
  5
2B7
100
AcDbEntity
  8
0
100
AcDbLine
 62
7
  6
CONTINUOUS
 10
-43.3680387371
 20
2.0907600748
 11
-43.196482199
 21
2.6850493555
  0
LINE
  5
2B8
100
AcDbEntity
  8
0
100
AcDbLine
 62
7
  6
CONTINUOUS
 10
-43.6999685567
 20
0.88901585
 11
-43.4554039519
 21
1.7362124925
  0
LINE
  5
2B9
100
AcDbEntity
  8
0
100
AcDbLine
 62
7
  6
CONTINUOUS
 10
-42.7614980479
 20
1.9745413948
 11
-42.7578052334
 21
1.9873336793
  0
LINE
  5
2BA
100
AcDbEntity
  8
0
100
AcDbLine
 62
7
  6
CONTINUOUS
 10
-42.6965461426
 20
1.8995413948
 11
-42.6928533281
 21
1.9123336793
  0
LINE
  5
2BB
100
AcDbEntity
  8
RACCORDO
100
AcDbLine
 62
253
  6
CONTINUOUS
 10
-41.2818619748
 20
3.2071886547
 11
-42.0051697773
 21
0.7015769278
  0
LINE
  5
2BC
100
AcDbEntity
  8
RACCORDO
100
AcDbLine
 62
253
  6
CONTINUOUS
 10
-41.0235727489
 20
3.109001125
 11
-41.7468980531
 21
0.6033287704
  0
LINE
  5
2BD
100
AcDbEntity
  8
RACCORDO
100
AcDbLine
 62
253
  6
CONTINUOUS
 10
-40.7978370361
 20
2.846880619
 11
-41.5167049142
 21
0.3566492416
  0
LINE
  5
2BE
100
AcDbEntity
  8
RACCORDO
100
AcDbLine
 62
253
  6
CONTINUOUS
 10
-40.4104323085
 20
2.69949848
 11
-41.1293001865
 21
0.2092671025
  0
LWPOLYLINE
  5
2BF
100
AcDbEntity
  8
0
100
AcDbPolyline
 62
7
  6
CONTINUOUS
 90
16
 70
0
 10
-42.6616511406
 20
2.4271744313
 10
-42.6763980659
 20
2.3842439755
 10
-42.6938948882
 20
2.3438103326
 10
-42.7141416073
 20
2.3058735025
 10
-42.7374308483
 20
2.2700879295
 10
-42.7634699862
 20
2.2367991694
 10
-42.791381146
 20
2.2070438895
 10
-42.8210270725
 20
2.181204039
 10
-42.852545021
 20
2.1588976687
 10
-42.8854688813
 20
2.140015599
 10
-42.9197104516
 20
2.1248049572
 10
-42.9553579337
 20
2.113018616
 10
-42.9922098235
 20
2.1038060133
 10
-43.0301989527
 20
2.0968836285
 10
-43.0693924896
 20
2.0925349824
 10
-43.109790434
 20
2.0907600748
  0
LINE
  5
2C0
100
AcDbEntity
  8
0
100
AcDbLine
 62
7
  6
CONTINUOUS
 10
-45.242676023
 20
1.7306109552
 11
-44.7857538289
 21
2.5340088658
  0
LINE
  5
2C1
100
AcDbEntity
  8
0
100
AcDbLine
 62
7
  6
CONTINUOUS
 10
-45.1777241178
 20
1.6556109552
 11
-44.7208019236
 21
2.4590088658
  0
LINE
  5
2C2
100
AcDbEntity
  8
0
100
AcDbLine
 62
7
  6
CONTINUOUS
 10
-45.6811011802
 20
0.96401566
 11
-45.4316492445
 21
1.3961935134
  0
LINE
  5
2C3
100
AcDbEntity
  8
0
100
AcDbLine
 62
7
  6
CONTINUOUS
 10
-45.6161492749
 20
0.88901566
 11
-45.3666973392
 21
1.3211935134
  0
LWPOLYLINE
  5
2C4
100
AcDbEntity
  8
RACCORDO
100
AcDbPolyline
 62
253
  6
CONTINUOUS
 90
5
 70
0
 10
-45.2405697771
 20
5.5915308513
 10
-45.253512803
 20
5.569701767
 10
-45.2727614158
 20
5.5501099848
 10
-45.2980303336
 20
5.5330616043
 10
-45.3011683167
 20
5.5316146452
  0
LWPOLYLINE
  5
2C5
100
AcDbEntity
  8
ASSI
100
AcDbPolyline
 62
253
  6
CONTINUOUS
 90
5
 70
0
 10
-45.2405697771
 20
5.5915308513
 10
-45.253512803
 20
5.569701767
 10
-45.2727614158
 20
5.5501099848
 10
-45.2980303336
 20
5.5330616043
 10
-45.3011683167
 20
5.5316146452
  0
LINE
  5
2C6
100
AcDbEntity
  8
0
100
AcDbLine
 62
7
  6
CONTINUOUS
 10
-44.7591680981
 20
3.0538505388
 11
-46.0631318326
 21
0.88901566
  0
LINE
  5
2C7
100
AcDbEntity
  8
0
100
AcDbLine
 62
7
  6
CONTINUOUS
 10
-46.1586893994
 20
3.0538505388
 11
-46.9575406429
 21
1.8519276559
  0
LINE
  5
2C8
100
AcDbEntity
  8
0
100
AcDbLine
 62
7
  6
CONTINUOUS
 10
-47.271239869
 20
0.96401566
 11
-46.3275791822
 21
2.3717191693
  0
LINE
  5
2C9
100
AcDbEntity
  8
0
100
AcDbLine
 62
7
  6
CONTINUOUS
 10
-47.2062879637
 20
0.88901566
 11
-46.2626272769
 21
2.2967191693
  0
LWPOLYLINE
  5
2CA
100
AcDbEntity
  8
RACCORDO
100
AcDbPolyline
 62
7
  6
CONTINUOUS
 90
4
 70
0
 10
-45.2701233308
 20
5.5316146452
 10
-45.2642325146
 20
5.5398629391
 10
-45.2474519531
 20
5.5722960869
 10
-45.2368761374
 20
5.6018540817
  0
LWPOLYLINE
  5
2CB
100
AcDbEntity
  8
ASSI
100
AcDbPolyline
 62
7
  6
CONTINUOUS
 90
4
 70
0
 10
-45.2701233308
 20
5.5316146452
 10
-45.2642325146
 20
5.5398629391
 10
-45.2474519531
 20
5.5722960869
 10
-45.2368761374
 20
5.6018540817
  0
LINE
  5
2CC
100
AcDbEntity
  8
SCRITTE
100
AcDbLine
 62
253
  6
CONTINUOUS
 10
-48.8441801989
 20
6.7209319041
 11
-48.7580140793
 21
6.8194203604
  0
LINE
  5
2CD
100
AcDbEntity
  8
RACCORDO
100
AcDbLine
 62
253
  6
CONTINUOUS
 10
-69.1952236492
 20
0.9304541314
 11
-69.4382493581
 21
1.0561657884
  0
LWPOLYLINE
  5
2CE
100
AcDbEntity
  8
RACCORDO
100
AcDbPolyline
 62
253
  6
CONTINUOUS
 90
3
 70
0
 10
-69.438249363
 20
1.0561657713
 10
-69.4829548626
 20
1.080187973
 10
-69.5263288075
 20
1.1051951074
  0
LINE
  5
2CF
100
AcDbEntity
  8
RACCORDO
100
AcDbLine
 62
7
  6
CONTINUOUS
 10
-69.2193815101
 20
1.8144169177
 11
-68.3994040406
 21
1.3595798611
  0
LINE
  5
2D0
100
AcDbEntity
  8
RACCORDO
100
AcDbLine
 62
7
  6
CONTINUOUS
 10
-69.4853652361
 20
1.021829993
 11
-69.4672416678
 21
1.0117354799
  0
LWPOLYLINE
  5
2D1
100
AcDbEntity
  8
RACCORDO
100
AcDbPolyline
 62
253
  6
CONTINUOUS
 90
23
 70
0
 10
-68.7307389004
 20
6.5505318867
 10
-68.7702753902
 20
6.574575443
 10
-68.8097342094
 20
6.5960971743
 10
-68.8491153581
 20
6.6150970804
 10
-68.8883720631
 20
6.6315169701
 10
-68.9275510976
 20
6.6454150347
 10
-68.966792781
 20
6.6569658483
 10
-69.0062923792
 20
6.6662056248
 10
-69.0458546265
 20
6.6730981502
 10
-69.085034045
 20
6.6777093564
 10
-69.1235597724
 20
6.6800234632
 10
-69.161702671
 20
6.6800562508
 10
-69.1998298507
 20
6.6779209917
 10
-69.2378110746
 20
6.6737746753
 10
-69.2757765795
 20
6.6674603122
 10
-69.3144841854
 20
6.6586202061
 10
-69.3540752821
 20
6.6473813352
 10
-69.3944084797
 20
6.6336167214
 10
-69.4358174287
 20
6.6165877342
 10
-69.4784352934
 20
6.5963371713
 10
-69.5221289095
 20
6.572822235
 10
-69.5668324354
 20
6.5451759026
 10
-69.612523924
 20
6.5131091665
  0
LWPOLYLINE
  5
2D2
100
AcDbEntity
  8
RACCORDO
100
AcDbPolyline
 62
253
  6
CONTINUOUS
 90
12
 70
0
 10
-68.6284827959
 20
6.6451089983
 10
-68.6694019281
 20
6.6700899276
 10
-68.7103204698
 20
6.6923585026
 10
-68.7511928286
 20
6.7119616935
 10
-68.7918841876
 20
6.7289142207
 10
-68.8324425467
 20
6.743313377
 10
-68.8731033396
 20
6.7552853653
 10
-68.9140463575
 20
6.7648821421
 10
-68.9550221902
 20
6.772044329
 10
-68.9956244103
 20
6.7767516299
 10
-69.0355301703
 20
6.7790744805
 10
-69.0542661466
 20
6.7793798021
  0
LINE
  5
2D3
100
AcDbEntity
  8
RACCORDO
100
AcDbLine
 62
7
  6
CONTINUOUS
 10
-54.9527802398
 20
6.7055016512
 11
-54.6999498963
 21
6.4618349961
  0
LINE
  5
2D4
100
AcDbEntity
  8
ASSI
100
AcDbLine
 62
7
  6
CONTINUOUS
 10
-54.9527802398
 20
6.7055016512
 11
-54.6999498963
 21
6.4618349961
  0
LINE
  5
2D5
100
AcDbEntity
  8
SCRITTE
100
AcDbLine
 62
253
  6
CONTINUOUS
 10
-52.0196061289
 20
6.7209319041
 11
-52.6288783152
 21
7.4103511392
  0
LINE
  5
2D6
100
AcDbEntity
  8
SCRITTE
100
AcDbLine
 62
253
  6
CONTINUOUS
 10
-51.4133883462
 20
6.7209319041
 11
-52.0226605326
 21
7.4103511392
  0
LINE
  5
2D7
100
AcDbEntity
  8
SCRITTE
100
AcDbLine
 62
253
  6
CONTINUOUS
 10
-50.8649065265
 20
6.7209319041
 11
-51.4741787129
 21
7.4103511392
  0
LINE
  5
2D8
100
AcDbEntity
  8
RACCORDO
100
AcDbLine
 62
253
  6
CONTINUOUS
 10
-55.5371963331
 20
7.1218874432
 11
-56.8800376595
 21
8.6682276894
  0
LINE
  5
2D9
100
AcDbEntity
  8
ASSI
100
AcDbLine
 62
253
  6
CONTINUOUS
 10
-55.5371963331
 20
7.1218874432
 11
-56.8800376595
 21
8.6682276894
  0
LINE
  5
2DA
100
AcDbEntity
  8
0
100
AcDbLine
 62
7
  6
CONTINUOUS
 10
-49.8883175437
 20
0.88901566
 11
-49.953269449
 21
0.96401566
  0
LINE
  5
2DB
100
AcDbEntity
  8
0
100
AcDbLine
 62
7
  6
CONTINUOUS
 10
-49.8745201044
 20
1.5637273919
 11
-49.9394720097
 21
1.6387273919
  0
LINE
  5
2DC
100
AcDbEntity
  8
0
100
AcDbLine
 62
7
  6
CONTINUOUS
 10
-48.5728708547
 20
0.88901566
 11
-48.63782276
 21
0.96401566
  0
LINE
  5
2DD
100
AcDbEntity
  8
0
100
AcDbLine
 62
7
  6
CONTINUOUS
 10
-47.8972991597
 20
0.88901566
 11
-47.9622510649
 21
0.96401566
  0
LINE
  5
2DE
100
AcDbEntity
  8
0
100
AcDbLine
 62
7
  6
CONTINUOUS
 10
-47.2062879637
 20
0.88901566
 11
-47.271239869
 21
0.96401566
  0
LINE
  5
2DF
100
AcDbEntity
  8
0
100
AcDbLine
 62
7
  6
CONTINUOUS
 10
-47.3917121011
 20
2.3026116061
 11
-47.4566640064
 21
2.3776116061
  0
LINE
  5
2E0
100
AcDbEntity
  8
0
100
AcDbLine
 62
7
  6
CONTINUOUS
 10
-46.1340904901
 20
0.88901566
 11
-46.1990423954
 21
0.96401566
  0
LINE
  5
2E1
100
AcDbEntity
  8
0
100
AcDbLine
 62
7
  6
CONTINUOUS
 10
-46.9575406429
 20
1.8519276559
 11
-47.0224925482
 21
1.9269276559
  0
LINE
  5
2E2
100
AcDbEntity
  8
0
100
AcDbLine
 62
7
  6
CONTINUOUS
 10
-45.6161492749
 20
0.88901566
 11
-45.6811011802
 21
0.96401566
  0
LINE
  5
2E3
100
AcDbEntity
  8
0
100
AcDbLine
 62
7
  6
CONTINUOUS
 10
-46.2626272769
 20
2.2967191693
 11
-46.3275791822
 21
2.3717191693
  0
LINE
  5
2E4
100
AcDbEntity
  8
DRAFT
100
AcDbLine
 62
7
  6
CONTINUOUS
 10
-55.3100961983
 20
7.1223414657
 11
-54.6283090238
 21
6.3269780555
  0
LINE
  5
2E5
100
AcDbEntity
  8
RACCORDO
100
AcDbLine
 62
7
  6
CONTINUOUS
 10
-45.3205980732
 20
6.3269780555
 11
-45.1573862501
 21
6.029130977
  0
LINE
  5
2E6
100
AcDbEntity
  8
ASSI
100
AcDbLine
 62
7
  6
CONTINUOUS
 10
-45.3205980732
 20
6.3269780555
 11
-45.1573862501
 21
6.029130977
  0
LINE
  5
2E7
100
AcDbEntity
  8
SCRITTE
100
AcDbLine
 62
253
  6
CONTINUOUS
 10
-42.3778571358
 20
6.7209319041
 11
-42.6407191091
 21
7.4103511392
  0
LWPOLYLINE
  5
2E8
100
AcDbEntity
  8
0
100
AcDbPolyline
 62
7
  6
CONTINUOUS
 90
3
 70
0
 10
-42.6450062959
 20
1.8206621447
 10
-42.6576648456
 20
1.8568665632
 10
-42.6709156934
 20
1.8848071699
  0
LWPOLYLINE
  5
2E9
100
AcDbEntity
  8
0
100
AcDbPolyline
 62
7
  6
CONTINUOUS
 90
7
 70
0
 10
-37.928553534
 20
1.1062145303
 10
-37.929062502
 20
1.113879151
 10
-37.9288076073
 20
1.122283722
 10
-37.9278238938
 20
1.1314356798
 10
-37.9261481807
 20
1.1413365266
 10
-37.9238188702
 20
1.1519811903
 10
-37.920875712
 20
1.1633573875
  0
LWPOLYLINE
  5
2EA
100
AcDbEntity
  8
RACCORDO
100
AcDbPolyline
 62
253
  6
CONTINUOUS
 90
19
 70
0
 10
-37.2036302812
 20
4.6292276501
 10
-37.2017786718
 20
4.6368119352
 10
-37.2006061812
 20
4.6442429095
 10
-37.2001128096
 20
4.6515205731
 10
-37.2003029886
 20
4.6587022739
 10
-37.2011722865
 20
4.665730664
 10
-37.2027074079
 20
4.6724336991
 10
-37.2049243579
 20
4.6788002024
 10
-37.2078071314
 20
4.6848413508
 10
-37.2112944175
 20
4.6904186312
 10
-37.2154032518
 20
4.6955226939
 10
-37.2201165987
 20
4.7001628887
 10
-37.2253220397
 20
4.704228752
 10
-37.2310364922
 20
4.7077043741
 10
-37.2372430388
 20
4.7106056647
 10
-37.2437785094
 20
4.7128698894
 10
-37.2505885139
 20
4.7144761369
 10
-37.2577274424
 20
4.7154453186
 10
-37.2651952949
 20
4.7157774345
  0
LWPOLYLINE
  5
2EB
100
AcDbEntity
  8
RACCORDO
100
AcDbPolyline
 62
253
  6
CONTINUOUS
 90
13
 70
0
 10
-37.2651952949
 20
4.7157774345
 10
-37.2510110348
 20
4.7730928014
 10
-37.2406007109
 20
4.8335603535
 10
-37.2341346287
 20
4.896190884
 10
-37.2317185689
 20
4.9599598016
 10
-37.2333920565
 20
5.0238238916
 10
-37.2391277143
 20
5.0867383823
 10
-37.2488317112
 20
5.147674037
 10
-37.2623452964
 20
5.2056339911
 10
-37.2794473973
 20
5.2596700607
 10
-37.2998582355
 20
5.3088982534
 10
-37.323243904
 20
5.3525132309
 10
-37.3492218298
 20
5.3898014826
  0
LWPOLYLINE
  5
2EC
100
AcDbEntity
  8
RACCORDO
100
AcDbPolyline
 62
7
  6
CONTINUOUS
 90
10
 70
0
 10
-36.939663025
 20
4.7409372385
 10
-36.9312550561
 20
4.7735453913
 10
-36.9204211802
 20
4.8368076875
 10
-36.9166114164
 20
4.9002755178
 10
-36.9197561391
 20
4.9633857132
 10
-36.9298235847
 20
5.0256012634
 10
-36.9466389898
 20
5.0859534234
 10
-36.9699039359
 20
5.1437443079
 10
-36.9994622216
 20
5.1986239624
 10
-37.0275269431
 20
5.2400718034
  0
LINE
  5
2ED
100
AcDbEntity
  8
RACCORDO
100
AcDbLine
 62
253
  6
CONTINUOUS
 10
-40.0865782344
 20
3.1685362747
 11
-40.0754202534
 21
3.2071886547
  0
LINE
  5
2EE
100
AcDbEntity
  8
RACCORDO
100
AcDbLine
 62
253
  6
CONTINUOUS
 10
-40.8041323185
 20
0.2092671025
 11
-40.0852644404
 21
2.69949848
  0
LINE
  5
2EF
100
AcDbEntity
  8
RACCORDO
100
AcDbLine
 62
7
  6
CONTINUOUS
 10
-40.6458054522
 20
0.2760620731
 11
-39.9269375742
 21
2.7662934506
  0
LINE
  5
2F0
100
AcDbEntity
  8
DRAFT
100
AcDbLine
 62
7
  6
CONTINUOUS
 10
-37.9830702901
 20
4.2917307546
 11
-39.3325387659
 21
-0.382965172
  0
LINE
  5
2F1
100
AcDbEntity
  8
RACCORDO
100
AcDbLine
 62
253
  6
CONTINUOUS
 10
-38.7479526804
 20
-0.7204620675
 11
-38.6505257187
 21
-0.382965172
  0
LINE
  5
2F2
100
AcDbEntity
  8
RACCORDO
100
AcDbLine
 62
253
  6
CONTINUOUS
 10
-37.3010572429
 20
4.2917307546
 11
-37.2036302812
 21
4.6292276501
  0
LINE
  5
2F3
100
AcDbEntity
  8
RACCORDO
100
AcDbLine
 62
7
  6
CONTINUOUS
 10
-38.4840745708
 20
-0.6091371195
 11
-38.3837304615
 21
-0.2615349284
  0
LINE
  5
2F4
100
AcDbEntity
  8
RACCORDO
100
AcDbLine
 62
7
  6
CONTINUOUS
 10
-37.0400962792
 20
4.3929504128
 11
-36.9397521772
 21
4.7405525783
  0
LINE
  5
2F5
100
AcDbEntity
  8
0
100
AcDbLine
 62
7
  6
CONTINUOUS
 10
-37.920875712
 20
1.1633573875
 11
-37.1610680909
 21
3.795408195
  0
LINE
  5
2F6
100
AcDbEntity
  8
0
100
AcDbLine
 62
7
  6
CONTINUOUS
 10
-37.1414528486
 20
1.1633573875
 11
-36.3816452275
 21
3.795408195
  0
LINE
  5
2F7
100
AcDbEntity
  8
RACCORDO
100
AcDbLine
 62
7
  6
CONTINUOUS
 10
-35.9279713461
 20
3.795408195
 11
-36.6877789673
 21
1.1633573875
  0
LINE
  5
2F8
100
AcDbEntity
  8
ASSI
100
AcDbLine
 62
7
  6
CONTINUOUS
 10
-35.9279713461
 20
3.795408195
 11
-36.6877789673
 21
1.1633573875
  0
LWPOLYLINE
  5
2F9
100
AcDbEntity
  8
0
100
AcDbPolyline
 62
7
  6
CONTINUOUS
 90
7
 70
0
 10
-37.1610680909
 20
3.795408195
 10
-37.1573262349
 20
3.8072082035
 10
-37.1531389728
 20
3.8191429154
 10
-37.1484927509
 20
3.8311384762
 10
-37.1433715837
 20
3.8431266636
 10
-37.1377574278
 20
3.8550449961
 10
-37.1316305384
 20
3.8668367665
  0
LWPOLYLINE
  5
2FA
100
AcDbEntity
  8
RACCORDO
100
AcDbPolyline
 62
253
  6
CONTINUOUS
 90
10
 70
0
 10
-40.8041323185
 20
0.2092671025
 10
-40.8146455933
 20
0.1776532266
 10
-40.8271622081
 20
0.1487632782
 10
-40.8415162153
 20
0.123130993
 10
-40.8575411797
 20
0.1012087934
 10
-40.8749669542
 20
0.0835075509
 10
-40.8933972056
 20
0.0704870624
 10
-40.9124793424
 20
0.0623812325
 10
-40.9319277806
 20
0.0592967382
 10
-40.9340361291
 20
0.0592671025
  0
LWPOLYLINE
  5
2FB
100
AcDbEntity
  8
RACCORDO
100
AcDbPolyline
 62
253
  6
CONTINUOUS
 90
10
 70
0
 10
-38.8594872356
 20
-0.807011852
 10
-38.877212888
 20
-0.8602361216
 10
-38.898190396
 20
-0.908500312
 10
-38.9220766385
 20
-0.9510148139
 10
-38.9484809018
 20
-0.9870840569
 10
-38.9769712727
 20
-1.016117896
 10
-39.0070817036
 20
-1.0376412661
 10
-39.0383196378
 20
-1.0513019559
 10
-39.0701740468
 20
-1.0568763671
 10
-39.0756330715
 20
-1.0570113322
  0
LWPOLYLINE
  5
2FC
100
AcDbEntity
  8
RACCORDO
100
AcDbPolyline
 62
253
  6
CONTINUOUS
 90
3
 70
0
 10
-41.6972039873
 20
0.2686301758
 10
-41.6873304
 20
0.2968903451
 10
-41.6751768347
 20
0.3213393018
  0
LWPOLYLINE
  5
2FD
100
AcDbEntity
  8
RACCORDO
100
AcDbPolyline
 62
7
  6
CONTINUOUS
 90
5
 70
0
 10
-40.6458054522
 20
0.2760620731
 10
-40.6595449478
 20
0.2382125709
 10
-40.6784310272
 20
0.2022136874
 10
-40.7021740615
 20
0.1688990862
 10
-40.7299756483
 20
0.1393933843
  0
LWPOLYLINE
  5
2FE
100
AcDbEntity
  8
RACCORDO
100
AcDbPolyline
 62
253
  6
CONTINUOUS
 90
9
 70
0
 10
-40.6458054522
 20
0.2760620731
 10
-40.6494122175
 20
0.2667460617
 10
-40.6592806092
 20
0.2522795351
 10
-40.6737463998
 20
0.2396031983
 10
-40.6925675376
 20
0.2289291605
 10
-40.7154290942
 20
0.2204360269
 10
-40.7419485345
 20
0.2142659106
 10
-40.7716821169
 20
0.2105220542
 10
-40.8041323185
 20
0.2092671025
  0
LINE
  5
2FF
100
AcDbEntity
  8
SCRITTE
100
AcDbLine
 62
253
  6
CONTINUOUS
 10
-44.1129622439
 20
7.4103511392
 11
-44.1991283544
 21
7.3118626726
  0
LWPOLYLINE
  5
300
100
AcDbEntity
  8
RACCORDO
100
AcDbPolyline
 62
7
  6
CONTINUOUS
 90
9
 70
0
 10
-69.437039671
 20
0.9977337947
 10
-69.4419539165
 20
0.9997601942
 10
-69.4466347712
 20
1.0017612552
 10
-69.4510823665
 20
1.0037359492
 10
-69.4553043355
 20
1.0056867541
 10
-69.4592932972
 20
1.0076092548
 10
-69.4630268953
 20
1.0094918856
 10
-69.4665013282
 20
1.0113295954
 10
-69.4672448957
 20
1.0117353979
  0
LINE
  5
301
100
AcDbEntity
  8
RACCORDO
100
AcDbLine
 62
7
  6
CONTINUOUS
 10
-68.2629803707
 20
5.1274876495
 11
-67.4352966736
 21
4.6993457481
  0
LINE
  5
302
100
AcDbEntity
  8
RACCORDO
100
AcDbLine
 62
253
  6
CONTINUOUS
 10
-68.0441192009
 20
5.8857431473
 11
-67.803314196
 21
5.7521699166
  0
LWPOLYLINE
  5
303
100
AcDbEntity
  8
RACCORDO
100
AcDbPolyline
 62
7
  6
CONTINUOUS
 90
8
 70
0
 10
-41.4785352223
 20
0.1545873193
 10
-41.45283052
 20
0.130121138
 10
-41.4239524437
 20
0.1085534115
 10
-41.3923134593
 20
0.0904142225
 10
-41.3584070857
 20
0.0761439465
 10
-41.322933711
 20
0.0661144756
 10
-41.2866365953
 20
0.0605239812
 10
-41.2588174848
 20
0.0592680985
  0
LWPOLYLINE
  5
304
100
AcDbEntity
  8
0
100
AcDbPolyline
 62
7
  6
CONTINUOUS
 90
4
 70
0
 10
-42.6347520424
 20
1.8529197968
 10
-42.6456953076
 20
1.86441434
 10
-42.6696397226
 20
1.8840736502
 10
-42.6965461426
 20
1.8995413948
  0
LINE
  5
305
100
AcDbEntity
  8
RACCORDO
100
AcDbLine
 62
7
  6
CONTINUOUS
 10
-41.4785352223
 20
0.1545873193
 11
-41.7103373393
 21
0.4029823563
  0
LINE
  5
306
100
AcDbEntity
  8
RACCORDO
100
AcDbLine
 62
253
  6
CONTINUOUS
 10
-41.5167049142
 20
0.3566492416
 11
-41.7468980531
 21
0.6033287704
  0
LINE
  5
307
100
AcDbEntity
  8
SCRITTE
100
AcDbLine
 62
253
  6
CONTINUOUS
 10
-50.8968277554
 20
7.4103511392
 11
-50.2875555691
 21
6.7209319041
  0
LINE
  5
308
100
AcDbEntity
  8
SCRITTE
100
AcDbLine
 62
253
  6
CONTINUOUS
 10
-49.6813377864
 20
6.7209319041
 11
-50.2906099728
 21
7.4103511392
  0
LINE
  5
309
100
AcDbEntity
  8
SCRITTE
100
AcDbLine
 62
253
  6
CONTINUOUS
 10
-48.7580140793
 20
6.8194203604
 11
-49.1932084995
 21
7.3118626726
  0
LINE
  5
30A
100
AcDbEntity
  8
SCRITTE
100
AcDbLine
 62
253
  6
CONTINUOUS
 10
-47.3719368473
 20
6.7209319041
 11
-47.9812090337
 21
7.4103511392
  0
LINE
  5
30B
100
AcDbEntity
  8
SCRITTE
100
AcDbLine
 62
253
  6
CONTINUOUS
 10
-46.7657190646
 20
6.7209319041
 11
-47.374991251
 21
7.4103511392
  0
LINE
  5
30C
100
AcDbEntity
  8
SCRITTE
100
AcDbLine
 62
253
  6
CONTINUOUS
 10
-46.2172360887
 20
6.7209319041
 11
-46.8265082751
 21
7.4103511392
  0
LINE
  5
30D
100
AcDbEntity
  8
RACCORDO
100
AcDbLine
 62
7
  6
CONTINUOUS
 10
-45.2305721162
 20
5.6236918695
 11
-45.1499138688
 21
5.5316146452
  0
LINE
  5
30E
100
AcDbEntity
  8
0
100
AcDbLine
 62
7
  6
CONTINUOUS
 10
-45.3666973392
 20
1.3211935134
 11
-45.4316492445
 21
1.3961935134
  0
LINE
  5
30F
100
AcDbEntity
  8
0
100
AcDbLine
 62
7
  6
CONTINUOUS
 10
-45.1777241178
 20
1.6556109552
 11
-45.242676023
 21
1.7306109552
  0
LINE
  5
310
100
AcDbEntity
  8
0
100
AcDbLine
 62
7
  6
CONTINUOUS
 10
-44.7513040174
 20
1.3211935134
 11
-44.8162559227
 21
1.3961935134
  0
LINE
  5
311
100
AcDbEntity
  8
0
100
AcDbLine
 62
7
  6
CONTINUOUS
 10
-44.2827316928
 20
0.88901566
 11
-44.3476835981
 21
0.96401566
  0
LINE
  5
312
100
AcDbEntity
  8
0
100
AcDbLine
 62
7
  6
CONTINUOUS
 10
-43.6999685567
 20
0.88901585
 11
-43.764920462
 21
0.96401585
  0
LINE
  5
313
100
AcDbEntity
  8
0
100
AcDbLine
 62
7
  6
CONTINUOUS
 10
-44.7208019236
 20
2.4590088658
 11
-44.7857538289
 21
2.5340088658
  0
LINE
  5
314
100
AcDbEntity
  8
0
100
AcDbLine
 62
7
  6
CONTINUOUS
 10
-43.4554039519
 20
1.7362124925
 11
-43.5203558572
 21
1.8112124925
  0
LINE
  5
315
100
AcDbEntity
  8
0
100
AcDbLine
 62
7
  6
CONTINUOUS
 10
-42.5733059514
 20
0.88901585
 11
-42.6382578566
 21
0.96401585
  0
LINE
  5
316
100
AcDbEntity
  8
0
100
AcDbLine
 62
253
  6
CONTINUOUS
 10
-43.2131135369
 20
1.7362124925
 11
-43.2780654422
 21
1.8112124925
  0
LINE
  5
317
100
AcDbEntity
  8
0
100
AcDbLine
 62
7
  6
CONTINUOUS
 10
-43.0674868023
 20
1.6771667519
 11
-43.1324387076
 21
1.7521667519
  0
LINE
  5
318
100
AcDbEntity
  8
0
100
AcDbLine
 62
7
  6
CONTINUOUS
 10
-43.3680387371
 20
2.0907600748
 11
-43.4329906423
 21
2.1657600748
  0
LINE
  5
319
100
AcDbEntity
  8
0
100
AcDbLine
 62
253
  6
CONTINUOUS
 10
-42.5586443109
 20
1.4749446909
 11
-42.6235962162
 21
1.5499446909
  0
LINE
  5
31A
100
AcDbEntity
  8
0
100
AcDbLine
 62
7
  6
CONTINUOUS
 10
-42.6965461426
 20
1.8995413948
 11
-42.7614980479
 21
1.9745413948
  0
LINE
  5
31B
100
AcDbEntity
  8
0
100
AcDbLine
 62
7
  6
CONTINUOUS
 10
-42.6928533281
 20
1.9123336793
 11
-42.7578052334
 21
1.9873336793
  0
LINE
  5
31C
100
AcDbEntity
  8
0
100
AcDbLine
 62
7
  6
CONTINUOUS
 10
-43.196482199
 20
2.6850493555
 11
-43.2614341043
 21
2.7600493555
  0
LINE
  5
31D
100
AcDbEntity
  8
0
100
AcDbLine
 62
253
  6
CONTINUOUS
 10
-42.8387915787
 20
2.6977929384
 11
-42.903743484
 21
2.7727929384
  0
LINE
  5
31E
100
AcDbEntity
  8
0
100
AcDbLine
 62
7
  6
CONTINUOUS
 10
-42.6958420545
 20
2.6280723113
 11
-42.7607939598
 21
2.7030723113
  0
LINE
  5
31F
100
AcDbEntity
  8
RACCORDO
100
AcDbLine
 62
7
  6
CONTINUOUS
 10
-48.2238453159
 20
6.3269780555
 11
-47.6736567704
 21
5.6851357707
  0
LWPOLYLINE
  5
320
100
AcDbEntity
  8
0
100
AcDbPolyline
 62
7
  6
CONTINUOUS
 90
7
 70
0
 10
-43.0674434709
 20
1.6772044506
 10
-43.0609735456
 20
1.6693391452
 10
-43.0475140367
 20
1.64937182
 10
-43.0362717728
 20
1.6269848458
 10
-43.0273192067
 20
1.6022310778
 10
-43.0205838856
 20
1.5750576607
 10
-43.0160658094
 20
1.5454645946
  0
LINE
  5
321
100
AcDbEntity
  8
RACCORDO
100
AcDbLine
 62
7
  6
CONTINUOUS
 10
-45.1886321225
 20
6.3269780555
 11
-44.7116582975
 21
5.6851357707
  0
LWPOLYLINE
  5
322
100
AcDbEntity
  8
0
100
AcDbPolyline
 62
7
  6
CONTINUOUS
 90
8
 70
0
 10
-42.6958692784
 20
2.6280487683
 10
-42.680823078
 20
2.6077819018
 10
-42.6676789388
 20
2.5821744212
 10
-42.6584485656
 20
2.553857816
 10
-42.6532216319
 20
2.5240752028
 10
-42.6520280287
 20
2.4932409537
 10
-42.6548378649
 20
2.4609406965
 10
-42.6616511406
 20
2.4271744313
  0
LWPOLYLINE
  5
323
100
AcDbEntity
  8
RACCORDO
100
AcDbPolyline
 62
253
  6
CONTINUOUS
 90
13
 70
0
 10
-40.1379125398
 20
3.1066486702
 10
-40.1219618928
 20
3.0845523019
 10
-40.1075708389
 20
3.058522851
 10
-40.0949801791
 20
3.0289958602
 10
-40.0844005889
 20
2.9964653955
 10
-40.0760090935
 20
2.961475779
 10
-40.0699461049
 20
2.9246124812
 10
-40.0663130735
 20
2.8864923242
 10
-40.0651707895
 20
2.8477531606
 10
-40.0665383664
 20
2.8090432009
 10
-40.070392921
 20
2.7710101669
 10
-40.0766699562
 20
2.7342904534
 10
-40.0852644404
 20
2.69949848
  0
LINE
  5
324
100
AcDbEntity
  8
RACCORDO
100
AcDbLine
 62
7
  6
CONTINUOUS
 10
-38.4204048379
 20
-0.1197887945
 11
-39.0159467922
 21
0.7137415955
  0
LWPOLYLINE
  5
325
100
AcDbEntity
  8
RACCORDO
100
AcDbPolyline
 62
7
  6
CONTINUOUS
 90
9
 70
0
 10
-39.9817349927
 20
3.0379352261
 10
-39.9575234055
 20
3.0031836568
 10
-39.9395803263
 20
2.9680363704
 10
-39.9263772373
 20
2.9307373252
 10
-39.918157404
 20
2.8917424945
 10
-39.9151763134
 20
2.8516978753
 10
-39.9175978857
 20
2.8113961389
 10
-39.9254720168
 20
2.7715491895
 10
-39.9269228272
 20
2.7663446266
  0
LWPOLYLINE
  5
326
100
AcDbEntity
  8
0
100
AcDbPolyline
 62
7
  6
CONTINUOUS
 90
7
 70
0
 10
-36.3863391969
 20
3.8668367665
 10
-36.3822682506
 20
3.8549836258
 10
-36.379491262
 20
3.8430298977
 10
-36.3780257482
 20
3.8310316778
 10
-36.3778874881
 20
3.8190502418
 10
-36.3790902032
 20
3.8071519685
 10
-36.3816452275
 20
3.795408195
  0
LWPOLYLINE
  5
327
100
AcDbEntity
  8
0
100
AcDbPolyline
 62
7
  6
CONTINUOUS
 90
7
 70
0
 10
-37.1414528486
 20
1.1633573875
 10
-37.1455561206
 20
1.1520469508
 10
-37.1508535689
 20
1.1414369064
 10
-37.1573082279
 20
1.1315428119
 10
-37.1648841347
 20
1.1223735321
 10
-37.1735465584
 20
1.113931757
 10
-37.1832621925
 20
1.1062145303
  0
LWPOLYLINE
  5
328
100
AcDbEntity
  8
0
100
AcDbPolyline
 62
7
  6
CONTINUOUS
 90
22
 70
0
 10
-37.1316305384
 20
3.8668367665
 10
-37.1019723904
 20
3.9186142933
 10
-37.0711459253
 20
3.9657718286
 10
-37.0389399808
 20
4.0082263639
 10
-37.0049404941
 20
4.0460864181
 10
-36.9692040777
 20
4.0791508887
 10
-36.932241421
 20
4.1069032558
 10
-36.8937766525
 20
4.1292765457
 10
-36.8538347664
 20
4.1463269377
 10
-36.8133969194
 20
4.1577344333
 10
-36.7723721303
 20
4.1633484219
 10
-36.730760514
 20
4.1633253005
 10
-36.6897194927
 20
4.1578051105
 10
-36.6494984582
 20
4.1468397537
 10
-36.6099327837
 20
4.130371876
 10
-36.5716017681
 20
4.1083768253
 10
-36.5344203499
 20
4.0806371246
 10
-36.4987345494
 20
4.0473803415
 10
-36.4657936905
 20
4.0092610488
 10
-36.43612831
 20
3.9665266905
 10
-36.4095715961
 20
3.919023712
 10
-36.3863391969
 20
3.8668367665
  0
LWPOLYLINE
  5
329
100
AcDbEntity
  8
RACCORDO
100
AcDbPolyline
 62
253
  6
CONTINUOUS
 90
3
 70
0
 10
-41.6751768347
 20
0.3213393018
 10
-41.6611044311
 20
0.3412505523
 10
-41.6566632218
 20
0.345466124
  0
LINE
  5
32A
100
AcDbEntity
  8
SCRITTE
100
AcDbLine
 62
253
  6
CONTINUOUS
 10
-53.6681094605
 20
7.4103511392
 11
-52.7124272778
 21
6.7209319041
  0
LINE
  5
32B
100
AcDbEntity
  8
RACCORDO
100
AcDbLine
 62
7
  6
CONTINUOUS
 10
-48.0918793653
 20
6.3269780555
 11
-47.749447188
 21
6.029130977
  0
LINE
  5
32C
100
AcDbEntity
  8
ASSI
100
AcDbLine
 62
7
  6
CONTINUOUS
 10
-48.0918793653
 20
6.3269780555
 11
-47.749447188
 21
6.029130977
  0
LWPOLYLINE
  5
32D
100
AcDbEntity
  8
RACCORDO
100
AcDbPolyline
 62
253
  6
CONTINUOUS
 90
13
 70
0
 10
-40.7978370361
 20
2.846880619
 10
-40.778331436
 20
2.8275428615
 10
-40.7548435343
 20
2.8085724805
 10
-40.7277663465
 20
2.7902869015
 10
-40.697552947
 20
2.7729920915
 10
-40.6647088871
 20
2.7569774392
 10
-40.6297837364
 20
2.7425109126
 10
-40.5933618864
 20
2.7298345758
 10
-40.5560527728
 20
2.719160538
 10
-40.5184806772
 20
2.7106674044
 10
-40.481274282
 20
2.7044972881
 10
-40.4450561502
 20
2.7007534317
 10
-40.4104323085
 20
2.69949848
  0
LWPOLYLINE
  5
32E
100
AcDbEntity
  8
0
100
AcDbPolyline
 62
7
  6
CONTINUOUS
 90
5
 70
0
 10
-42.2999739795
 20
2.9136607848
 10
-42.3249960125
 20
2.9399047402
 10
-42.3550100745
 20
2.9651436335
 10
-42.3879440436
 20
2.9870972421
 10
-42.4237979198
 20
3.0057655658
  0
LWPOLYLINE
  5
32F
100
AcDbEntity
  8
RACCORDO
100
AcDbPolyline
 62
253
  6
CONTINUOUS
 90
7
 70
0
 10
-39.9817349927
 20
3.0379352261
 10
-39.9951729848
 20
3.0526506735
 10
-40.0183663911
 20
3.0716141352
 10
-40.0447886516
 20
3.0866365353
 10
-40.0738575631
 20
3.0975194483
 10
-40.1050857216
 20
3.1041989761
 10
-40.1379125398
 20
3.1066486702
  0
LINE
  5
330
100
AcDbEntity
  8
SCRITTE
100
AcDbLine
 62
253
  6
CONTINUOUS
 10
-44.1676429359
 20
6.7209319041
 11
-44.7769151223
 21
7.4103511392
  0
LINE
  5
331
100
AcDbEntity
  8
SCRITTE
100
AcDbLine
 62
253
  6
CONTINUOUS
 10
-44.1991283544
 20
7.3118626726
 11
-43.7639339342
 21
6.8194203604
  0
LINE
  5
332
100
AcDbEntity
  8
SCRITTE
100
AcDbLine
 62
253
  6
CONTINUOUS
 10
-43.0706774175
 20
6.7209319041
 11
-43.6799496039
 21
7.4103511392
  0
LINE
  5
333
100
AcDbEntity
  8
SCRITTE
100
AcDbLine
 62
253
  6
CONTINUOUS
 10
-42.2943089682
 20
7.4103511392
 11
-41.6850367818
 21
6.7209319041
  0
LINE
  5
334
100
AcDbEntity
  8
SCRITTE
100
AcDbLine
 62
253
  6
CONTINUOUS
 10
-40.9922164278
 20
6.7209319041
 11
-41.6014886142
 21
7.4103511392
  0
LINE
  5
335
100
AcDbEntity
  8
RACCORDO
100
AcDbLine
 62
253
  6
CONTINUOUS
 10
-40.4630804078
 20
3.1066486702
 11
-40.6888289261
 21
3.3687019466
  0
LINE
  5
336
100
AcDbEntity
  8
RACCORDO
100
AcDbLine
 62
253
  6
CONTINUOUS
 10
-40.7978370361
 20
2.846880619
 11
-41.0235727489
 21
3.109001125
  0
LWPOLYLINE
  5
337
100
AcDbEntity
  8
RACCORDO
100
AcDbPolyline
 62
253
  6
CONTINUOUS
 90
10
 70
0
 10
-40.1930904257
 20
3.301213157
 10
-40.1994191024
 20
3.3086446421
 10
-40.2133743565
 20
3.322399455
 10
-40.2289232181
 20
3.3345268306
 10
-40.2459591165
 20
3.3449354902
 10
-40.2643458154
 20
3.3535353238
 10
-40.283924102
 20
3.3602539214
 10
-40.3045341423
 20
3.3650415669
 10
-40.3260217987
 20
3.3678645018
 10
-40.3482203247
 20
3.3687022385
  0
LINE
  5
338
100
AcDbEntity
  8
RACCORDO
100
AcDbLine
 62
253
  6
CONTINUOUS
 10
-39.9812267805
 20
3.0373052647
 11
-39.9817349927
 21
3.0379352261
  0
LINE
  5
339
100
AcDbEntity
  8
RACCORDO
100
AcDbLine
 62
253
  6
CONTINUOUS
 10
-40.1379125398
 20
3.1066486702
 11
-40.3482200809
 21
3.3687019466
  0
LINE
  5
33A
100
AcDbEntity
  8
RACCORDO
100
AcDbLine
 62
7
  6
CONTINUOUS
 10
-39.9812267805
 20
3.0373052647
 11
-40.193090606
 21
3.3012133816
  0
LINE
  5
33B
100
AcDbEntity
  8
RACCORDO
100
AcDbLine
 62
253
  6
CONTINUOUS
 10
-37.3492218298
 20
5.3898014826
 11
-38.0456681458
 21
6.3269780555
  0
LINE
  5
33C
100
AcDbEntity
  8
RACCORDO
100
AcDbLine
 62
7
  6
CONTINUOUS
 10
-37.0271829093
 20
5.2396169694
 11
-37.726470275
 21
6.1806166155
  0
LINE
  5
33D
100
AcDbEntity
  8
RACCORDO
100
AcDbLine
 62
7
  6
CONTINUOUS
 10
-40.7302269326
 20
0.1391266974
 11
-40.7620740514
 21
0.113443951
  0
LWPOLYLINE
  5
33E
100
AcDbEntity
  8
0
100
AcDbPolyline
 62
7
  6
CONTINUOUS
 90
38
 70
0
 10
-42.5938937438
 20
1.9636349204
 10
-42.5788248312
 20
1.9740459718
 10
-42.5635688253
 20
1.9849178094
 10
-42.548130244
 20
1.9961677715
 10
-42.5325045692
 20
2.0078785199
 10
-42.5167167548
 20
2.020287408
 10
-42.5007543813
 20
2.0333914009
 10
-42.484629868
 20
2.0471935336
 10
-42.4684054266
 20
2.0619402642
 10
-42.4520573268
 20
2.0776873286
 10
-42.4356092988
 20
2.094378991
 10
-42.4191947446
 20
2.112094502
 10
-42.4027914003
 20
2.1308559172
 10
-42.3864215298
 20
2.150641181
 10
-42.3702853261
 20
2.1714633777
 10
-42.3543605038
 20
2.1933388905
 10
-42.3386693483
 20
2.2162513361
 10
-42.3234789088
 20
2.2401646481
 10
-42.3088047219
 20
2.2650481556
 10
-42.2946312511
 20
2.2909325295
 10
-42.2811789359
 20
2.3178737158
 10
-42.2684438211
 20
2.3458421541
 10
-42.2564298618
 20
2.3748674048
 10
-42.2453693631
 20
2.4050940956
 10
-42.2351798493
 20
2.4365423006
 10
-42.2259437959
 20
2.4691919456
 10
-42.2181409347
 20
2.5031274363
 10
-42.2115637404
 20
2.5384944705
 10
-42.2064197383
 20
2.5751473504
 10
-42.203811235
 20
2.6127333872
 10
-42.2037774082
 20
2.651604062
 10
-42.2062790802
 20
2.6914078937
 10
-42.212301025
 20
2.7307377516
 10
-42.222146758
 20
2.7696447568
 10
-42.2355127637
 20
2.8080777881
 10
-42.2524732693
 20
2.8444763515
 10
-42.2732778814
 20
2.8787372212
 10
-42.2999739795
 20
2.9136607848
  0
LWPOLYLINE
  5
33F
100
AcDbEntity
  8
0
100
AcDbPolyline
 62
7
  6
CONTINUOUS
 90
35
 70
0
 10
-42.6844629487
 20
2.0213877588
 10
-42.653003924
 20
2.0426534839
 10
-42.6369856016
 20
2.0538107748
 10
-42.6207635066
 20
2.0655211539
 10
-42.6043342889
 20
2.0777049453
 10
-42.5877012986
 20
2.0904418248
 10
-42.5708805155
 20
2.1040473714
 10
-42.5538495721
 20
2.1185377974
 10
-42.5366308359
 20
2.1338968904
 10
-42.5193073889
 20
2.1503915931
 10
-42.5018437809
 20
2.1680859516
 10
-42.4842754623
 20
2.1869159198
 10
-42.4667918659
 20
2.2069563021
 10
-42.4493603566
 20
2.2282310366
 10
-42.4320135695
 20
2.2507161852
 10
-42.4150388432
 20
2.2744147388
 10
-42.3984273638
 20
2.2993180651
 10
-42.3821879452
 20
2.3254347964
 10
-42.3666343673
 20
2.3527938203
 10
-42.351766043
 20
2.3813851062
 10
-42.3375835593
 20
2.4112186847
 10
-42.3244024582
 20
2.4423535352
 10
-42.3121793476
 20
2.4748354521
 10
-42.3009576196
 20
2.508618641
 10
-42.2911829914
 20
2.5436246979
 10
-42.2826815919
 20
2.5799006096
 10
-42.2756272921
 20
2.6173993893
 10
-42.2709874233
 20
2.6559016721
 10
-42.2686110785
 20
2.6955478117
 10
-42.2686491646
 20
2.7361974544
 10
-42.2725217337
 20
2.7772101745
 10
-42.2804063399
 20
2.819019191
 10
-42.2921254291
 20
2.8611912849
 10
-42.3085663907
 20
2.9017863734
 10
-42.3307434075
 20
2.9411797643
  0
LINE
  5
340
100
AcDbEntity
  8
SCRITTE
100
AcDbLine
 62
253
  6
CONTINUOUS
 10
-52.6288783152
 20
7.4103511392
 11
-51.4133883462
 21
6.7209319041
  0
LINE
  5
341
100
AcDbEntity
  8
SCRITTE
100
AcDbLine
 62
253
  6
CONTINUOUS
 10
-43.3335394631
 20
7.4103511392
 11
-42.3778571358
 21
6.7209319041
  0
LWPOLYLINE
  5
342
100
AcDbEntity
  8
RACCORDO
100
AcDbPolyline
 62
7
  6
CONTINUOUS
 90
4
 70
0
 10
-40.6440630895
 20
8.6431366212
 10
-40.6737634084
 20
8.671165477
 10
-40.7057557943
 20
8.6942541295
 10
-40.7399641647
 20
8.7122552125
  0
LWPOLYLINE
  5
343
100
AcDbEntity
  8
ASSI
100
AcDbPolyline
 62
7
  6
CONTINUOUS
 90
4
 70
0
 10
-40.6440630895
 20
8.6431366212
 10
-40.6737634084
 20
8.671165477
 10
-40.7057557943
 20
8.6942541295
 10
-40.7399641647
 20
8.7122552125
  0
LWPOLYLINE
  5
344
100
AcDbEntity
  8
RACCORDO
100
AcDbPolyline
 62
253
  6
CONTINUOUS
 90
8
 70
0
 10
-39.8723727841
 20
8.4211264291
 10
-39.8915909279
 20
8.4401293487
 10
-39.9287420774
 20
8.4695571134
 10
-39.9701063023
 20
8.4939372344
 10
-40.0150394451
 20
8.5129359669
 10
-40.0629412627
 20
8.5263964997
 10
-40.1133155094
 20
8.5342694656
 10
-40.1655923484
 20
8.536538687
  0
LWPOLYLINE
  5
345
100
AcDbEntity
  8
RACCORDO
100
AcDbPolyline
 62
253
  6
CONTINUOUS
 90
7
 70
0
 10
-40.7139006067
 20
8.6682276894
 10
-40.7334689419
 20
8.6879426009
 10
-40.753810486
 20
8.7042264656
 10
-40.7747733176
 20
8.7169584283
 10
-40.7962011369
 20
8.7260440288
 10
-40.8179337993
 20
8.731417719
 10
-40.8383060398
 20
8.7330498414
  0
LWPOLYLINE
  5
346
100
AcDbEntity
  8
ASSI
100
AcDbPolyline
 62
253
  6
CONTINUOUS
 90
7
 70
0
 10
-40.7139006067
 20
8.6682276894
 10
-40.7334689419
 20
8.6879426009
 10
-40.753810486
 20
8.7042264656
 10
-40.7747733176
 20
8.7169584283
 10
-40.7962011369
 20
8.7260440288
 10
-40.8179337993
 20
8.731417719
 10
-40.8383060398
 20
8.7330498414
  0
LINE
  5
347
100
AcDbEntity
  8
RACCORDO
100
AcDbLine
 62
253
  6
CONTINUOUS
 10
-40.1655923484
 20
8.536538687
 11
-38.103631537
 21
6.3269780555
  0
LINE
  5
348
100
AcDbEntity
  8
RACCORDO
100
AcDbLine
 62
7
  6
CONTINUOUS
 10
-39.8723727841
 20
8.4211264291
 11
-37.8951401684
 21
6.3023590292
  0
LINE
  5
349
100
AcDbEntity
  8
RACCORDO
100
AcDbLine
 62
7
  6
CONTINUOUS
 10
-40.6396053548
 20
8.6382855813
 11
-40.6440630895
 21
8.6431366212
  0
LINE
  5
34A
100
AcDbEntity
  8
ASSI
100
AcDbLine
 62
7
  6
CONTINUOUS
 10
-40.6396053548
 20
8.6382855813
 11
-40.6440630895
 21
8.6431366212
  0
LINE
  5
34B
100
AcDbEntity
  8
RACCORDO
100
AcDbLine
 62
253
  6
CONTINUOUS
 10
-38.6088962475
 20
6.3269780555
 11
-40.7139006067
 21
8.6682276894
  0
LINE
  5
34C
100
AcDbEntity
  8
ASSI
100
AcDbLine
 62
253
  6
CONTINUOUS
 10
-38.6088962475
 20
6.3269780555
 11
-40.7139006067
 21
8.6682276894
  0
LINE
  5
34D
100
AcDbEntity
  8
RACCORDO
100
AcDbLine
 62
7
  6
CONTINUOUS
 10
-38.5614942896
 20
6.3269780555
 11
-40.6392880244
 21
8.6379632084
  0
LINE
  5
34E
100
AcDbEntity
  8
ASSI
100
AcDbLine
 62
7
  6
CONTINUOUS
 10
-38.5614942896
 20
6.3269780555
 11
-40.6392880244
 21
8.6379632084
  0
LINE
  5
34F
100
AcDbEntity
  8
RACCORDO
100
AcDbLine
 62
7
  6
CONTINUOUS
 10
-36.6778664477
 20
5.6688527181
 11
-36.2184211719
 21
5.1578437603
  0
LINE
  5
350
100
AcDbEntity
  8
ASSI
100
AcDbLine
 62
7
  6
CONTINUOUS
 10
-36.6778664477
 20
5.6688527181
 11
-36.2184211719
 21
5.1578437603
  0
LINE
  5
351
100
AcDbEntity
  8
RACCORDO
100
AcDbLine
 62
7
  6
CONTINUOUS
 10
-38.5095276991
 20
6.3269780555
 11
-40.4681645895
 21
8.536538687
  0
LINE
  5
352
100
AcDbEntity
  8
RACCORDO
100
AcDbLine
 62
7
  6
CONTINUOUS
 10
-36.2184211719
 20
5.1578437603
 11
-36.0368211155
 21
4.9400825505
  0
LINE
  5
353
100
AcDbEntity
  8
ASSI
100
AcDbLine
 62
7
  6
CONTINUOUS
 10
-36.2184211719
 20
5.1578437603
 11
-36.0368211155
 21
4.9400825505
  0
LWPOLYLINE
  5
354
100
AcDbEntity
  8
RACCORDO
100
AcDbPolyline
 62
253
  6
CONTINUOUS
 90
10
 70
0
 10
-37.0275956609
 20
5.2401712087
 10
-37.0476366329
 20
5.2645658752
 10
-37.0757246481
 20
5.2922866521
 10
-37.1070889009
 20
5.3168684667
 10
-37.1414905465
 20
5.3381238166
 10
-37.1786680393
 20
5.3558909872
 10
-37.218339928
 20
5.370036287
 10
-37.2602046963
 20
5.3804520643
 10
-37.3039430401
 20
5.3870575545
 10
-37.3492218298
 20
5.3898014826
  0
LWPOLYLINE
  5
355
100
AcDbEntity
  8
0
100
AcDbPolyline
 62
7
  6
CONTINUOUS
 90
22
 70
0
 10
-37.1832621925
 20
1.1062145303
 10
-37.2305341544
 20
1.0745103592
 10
-37.2785121211
 20
1.0469431514
 10
-37.3270531813
 20
1.0231852052
 10
-37.376355576
 20
1.0028445333
 10
-37.4260003543
 20
0.9857346598
 10
-37.4749405679
 20
0.9718489352
 10
-37.5230685551
 20
0.9609856759
 10
-37.570361317
 20
0.9529151549
 10
-37.6159142672
 20
0.947618322
 10
-37.6599323866
 20
0.9450521834
 10
-37.7021684231
 20
0.9451018828
 10
-37.7410593204
 20
0.9477105181
 10
-37.7761849023
 20
0.9529136378
 10
-37.8080060069
 20
0.960827534
 10
-37.8363019328
 20
0.9715900374
 10
-37.8613125453
 20
0.9855054185
 10
-37.8829323527
 20
1.0027141215
 10
-37.900438247
 20
1.0231391191
 10
-37.9136575836
 20
1.0469336607
 10
-37.9229820161
 20
1.0745171293
 10
-37.928553534
 20
1.1062145303
  0
LWPOLYLINE
  5
356
100
AcDbEntity
  8
RACCORDO
100
AcDbPolyline
 62
7
  6
CONTINUOUS
 90
6
 70
0
 10
-40.7620740514
 20
0.113443951
 10
-40.7973840744
 20
0.0921974188
 10
-40.8356246102
 20
0.0758678313
 10
-40.8758296949
 20
0.0649679295
 10
-40.917089596
 20
0.0597461266
 10
-40.934154629
 20
0.0592671961
  0
LWPOLYLINE
  5
357
100
AcDbEntity
  8
0
100
AcDbPolyline
 62
7
  6
CONTINUOUS
 90
4
 70
0
 10
-42.6518748798
 20
1.9267155265
 10
-42.6377307591
 20
1.9346184619
 10
-42.6233467077
 20
1.9439211655
 10
-42.5938937438
 20
1.9636349204
  0
LWPOLYLINE
  5
358
100
AcDbEntity
  8
RACCORDO
100
AcDbPolyline
 62
7
  6
CONTINUOUS
 90
31
 70
0
 10
-69.1952236492
 20
0.9304541314
 10
-69.207631881
 20
0.9328886737
 10
-69.2196356158
 20
0.9353226829
 10
-69.2312350998
 20
0.9377524086
 10
-69.2424150827
 20
0.9401731456
 10
-69.2531913328
 20
0.942582329
 10
-69.2636106149
 20
0.9449797368
 10
-69.2736742361
 20
0.9473616696
 10
-69.2833813974
 20
0.9497254627
 10
-69.2927756649
 20
0.9520729936
 10
-69.3018580562
 20
0.9544011198
 10
-69.3106280265
 20
0.9567075594
 10
-69.3191267428
 20
0.9589961079
 10
-69.3273552717
 20
0.9612642093
 10
-69.3353129653
 20
0.9635099283
 10
-69.3430383522
 20
0.9657386489
 10
-69.3505325244
 20
0.967948329
 10
-69.3577947434
 20
0.970137397
 10
-69.3648607203
 20
0.9723125997
 10
-69.3717316272
 20
0.9744723427
 10
-69.3784065744
 20
0.976615413
 10
-69.3849181034
 20
0.9787497736
 10
-69.3912677778
 20
0.9808742784
 10
-69.3974542422
 20
0.982988004
 10
-69.4035055801
 20
0.9850998711
 10
-69.4094310196
 20
0.9872118269
 10
-69.4152214579
 20
0.9893205769
 10
-69.4208774356
 20
0.9914275487
 10
-69.4263991692
 20
0.993532833
 10
-69.4317865606
 20
0.9956351173
 10
-69.437039671
 20
0.9977337947
  0
LINE
  5
359
100
AcDbEntity
  8
SCRITTE
100
AcDbLine
 62
253
  6
CONTINUOUS
 10
-47.9812090337
 20
7.4103511392
 11
-46.7657190646
 21
6.7209319041
  0
LINE
  5
35A
100
AcDbEntity
  8
SCRITTE
100
AcDbLine
 62
253
  6
CONTINUOUS
 10
-41.6867821373
 20
7.1148857498
 11
-40.9922164278
 21
6.7209319041
  0
LWPOLYLINE
  5
35B
100
AcDbEntity
  8
0
100
AcDbPolyline
 62
7
  6
CONTINUOUS
 90
13
 70
0
 10
-42.4237979198
 20
3.0057655658
 10
-42.49229073
 20
3.028379412
 10
-42.5654990619
 20
3.0468394514
 10
-42.6434229153
 20
3.061145684
 10
-42.7263247988
 20
3.0710338966
 10
-42.8139422038
 20
3.0767683025
 10
-42.9054876055
 20
3.0791415414
 10
-43.0008195805
 20
3.0782631536
 10
-43.1000795521
 20
3.0740235988
 10
-43.2029042654
 20
3.0668868952
 10
-43.3091726354
 20
3.0570077157
 10
-43.4190057471
 20
3.0442313874
 10
-43.5324036005
 20
3.0285579104
  0
LINE
  5
35C
100
AcDbEntity
  8
SCRITTE
100
AcDbLine
 62
253
  6
CONTINUOUS
 10
-49.1932084995
 20
7.3118626726
 11
-49.4534523853
 21
7.4103511392
  0
LINE
  5
35D
100
AcDbEntity
  8
SCRITTE
100
AcDbLine
 62
253
  6
CONTINUOUS
 10
-43.7639339342
 20
6.8194203604
 11
-43.5036900575
 21
6.7209319041
  0
LWPOLYLINE
  5
35E
100
AcDbEntity
  8
RACCORDO
100
AcDbPolyline
 62
7
  6
CONTINUOUS
 90
6
 70
0
 10
-40.0879339775
 20
8.5687460326
 10
-40.0351259032
 20
8.5445651744
 10
-39.9851828965
 20
8.5155726327
 10
-39.9382258362
 20
8.4818871893
 10
-39.8946760866
 20
8.4437912259
 10
-39.8723573255
 20
8.4211098629
  0
LWPOLYLINE
  5
35F
100
AcDbEntity
  8
RACCORDO
100
AcDbPolyline
 62
253
  6
CONTINUOUS
 90
19
 70
0
 10
-38.8594872356
 20
-0.807011852
 10
-38.8518276359
 20
-0.8066797361
 10
-38.8441291501
 20
-0.8057105544
 10
-38.8363917781
 20
-0.8041043069
 10
-38.8285490567
 20
-0.8018400821
 10
-38.8206674492
 20
-0.7989387915
 10
-38.8129463454
 20
-0.7954631695
 10
-38.8053934771
 20
-0.7913973062
 10
-38.7980011125
 20
-0.7867571114
 10
-38.7909454462
 20
-0.7816530487
 10
-38.7842381158
 20
-0.7760757682
 10
-38.7778674836
 20
-0.7700346198
 10
-38.7719748312
 20
-0.7636681166
 10
-38.7665697107
 20
-0.7569650814
 10
-38.7616425699
 20
-0.7499366914
 10
-38.757306034
 20
-0.7427549906
 10
-38.7535976446
 20
-0.735477327
 10
-38.7504798601
 20
-0.7280463527
 10
-38.7479526804
 20
-0.7204620675
  0
LWPOLYLINE
  5
360
100
AcDbEntity
  8
RACCORDO
100
AcDbPolyline
 62
253
  6
CONTINUOUS
 90
9
 70
0
 10
-38.7479526804
 20
-0.7204620675
 10
-38.6944531715
 20
-0.7184171554
 10
-38.6453707687
 20
-0.7123158725
 10
-38.6015084255
 20
-0.7022580316
 10
-38.5635836992
 20
-0.6884081718
 10
-38.5322170114
 20
-0.6709928671
 10
-38.5079214991
 20
-0.6502970197
 10
-38.4910946198
 20
-0.6266591991
 10
-38.4841505712
 20
-0.609398963
  0
LWPOLYLINE
  5
361
100
AcDbEntity
  8
RACCORDO
100
AcDbPolyline
 62
7
  6
CONTINUOUS
 90
14
 70
0
 10
-39.0756330456
 20
-1.0569913948
 10
-39.0567014284
 20
-1.0566729802
 10
-38.9916369858
 20
-1.0509482816
 10
-38.9264307333
 20
-1.0378531658
 10
-38.8622860527
 20
-1.0174138128
 10
-38.8010910927
 20
-0.9902780714
 10
-38.7425596557
 20
-0.9563531997
 10
-38.6872232252
 20
-0.9157331253
 10
-38.6373099708
 20
-0.8700388094
 10
-38.5927744954
 20
-0.8195614168
 10
-38.5535759924
 20
-0.7640676774
 10
-38.5210718976
 20
-0.7054529919
 10
-38.4955890553
 20
-0.6447691512
 10
-38.4841699183
 20
-0.6093934083
  0
LINE
  5
362
100
AcDbEntity
  8
RACCORDO
100
AcDbLine
 62
7
  6
CONTINUOUS
 10
-55.7706160937
 20
-1.057011852
 11
-39.0759935516
 21
-1.057011852
  0
LINE
  5
363
100
AcDbEntity
  8
RACCORDO
100
AcDbLine
 62
253
  6
CONTINUOUS
 10
-55.5541097427
 20
-0.807011852
 11
-38.8594872356
 21
-0.807011852
  0
LINE
  5
364
100
AcDbEntity
  8
RACCORDO
100
AcDbLine
 62
7
  6
CONTINUOUS
 10
-38.6505257187
 20
-0.382965172
 11
-39.3325387659
 21
-0.382965172
  0
LINE
  5
365
100
AcDbEntity
  8
RACCORDO
100
AcDbLine
 62
7
  6
CONTINUOUS
 10
-41.2592039971
 20
0.0592671025
 11
-40.9340361291
 21
0.0592671025
  0
LINE
  5
366
100
AcDbEntity
  8
RACCORDO
100
AcDbLine
 62
253
  6
CONTINUOUS
 10
-41.1293001865
 20
0.2092671025
 11
-40.8041323185
 21
0.2092671025
  0
LINE
  5
367
100
AcDbEntity
  8
RACCORDO
100
AcDbLine
 62
253
  6
CONTINUOUS
 10
-41.6972039873
 20
0.2686301758
 11
-41.5849599556
 21
0.2686301758
  0
LWPOLYLINE
  5
368
100
AcDbEntity
  8
RACCORDO
100
AcDbPolyline
 62
253
  6
CONTINUOUS
 90
13
 70
0
 10
-55.6156747565
 20
-0.7204620675
 10
-55.6727146974
 20
-0.7184172715
 10
-55.7323635438
 20
-0.7123162657
 10
-55.7936455515
 20
-0.7022587996
 10
-55.8555582353
 20
-0.6884093484
 10
-55.9170887736
 20
-0.6709944236
 10
-55.9772305773
 20
-0.6502988681
 10
-56.034999759
 20
-0.6266611957
 10
-56.0894511963
 20
-0.6004680704
 10
-56.1396940079
 20
-0.5721479846
 10
-56.1849061725
 20
-0.5421642287
 10
-56.2243479718
 20
-0.5110073079
 10
-56.2573740654
 20
-0.4791869362
  0
LWPOLYLINE
  5
369
100
AcDbEntity
  8
RACCORDO
100
AcDbPolyline
 62
253
  6
CONTINUOUS
 90
13
 70
0
 10
-41.1293001865
 20
0.2092671025
 10
-41.1640673911
 20
0.2105321897
 10
-41.2004523157
 20
0.2143078701
 10
-41.2378421582
 20
0.2205330124
 10
-41.2756115715
 20
0.2291063951
 10
-41.3131165774
 20
0.2398847076
 10
-41.3497062243
 20
0.2526817732
 10
-41.3848319347
 20
0.2673123118
 10
-41.4178212403
 20
0.2835031015
 10
-41.44792479
 20
0.3008600158
 10
-41.4746408868
 20
0.3190281847
 10
-41.4976671018
 20
0.3377292199
 10
-41.5167049142
 20
0.3566492416
  0
LWPOLYLINE
  5
36A
100
AcDbEntity
  8
RACCORDO
100
AcDbPolyline
 62
253
  6
CONTINUOUS
 90
10
 70
0
 10
-42.0051697773
 20
0.7015769278
 10
-41.9741374224
 20
0.700091214
 10
-41.9414537734
 20
0.6956782086
 10
-41.908089998
 20
0.6884690241
 10
-41.8750374752
 20
0.6786778591
 10
-41.8432783619
 20
0.6665956414
 10
-41.8137564034
 20
0.6525813893
 10
-41.7873488561
 20
0.6370515315
 10
-41.7648404234
 20
0.6204675278
 10
-41.7468999589
 20
0.6033221684
  0
LWPOLYLINE
  5
36B
100
AcDbEntity
  8
0
100
AcDbPolyline
 62
7
  6
CONTINUOUS
 90
8
 70
0
 10
-43.2780654422
 20
1.8112124925
 10
-43.2507862685
 20
1.8098203443
 10
-43.2254158709
 20
1.8057924947
 10
-43.2019542494
 20
1.7991289438
 10
-43.1803901822
 20
1.7898675349
 10
-43.1607348911
 20
1.7779704248
 10
-43.1430220418
 20
1.7633240831
 10
-43.1324293358
 20
1.7521748785
  0
LWPOLYLINE
  5
36C
100
AcDbEntity
  8
0
100
AcDbPolyline
 62
7
  6
CONTINUOUS
 90
8
 70
0
 10
-43.2131135369
 20
1.7362124925
 10
-43.1846777972
 20
1.7345192087
 10
-43.1585043137
 20
1.7302042893
 10
-43.1345930863
 20
1.7232677343
 10
-43.1130315716
 20
1.7136950701
 10
-43.093732313
 20
1.7015007702
 10
-43.0764329408
 20
1.6867282558
 10
-43.0674434709
 20
1.6772044506
  0
LWPOLYLINE
  5
36D
100
AcDbEntity
  8
0
100
AcDbPolyline
 62
7
  6
CONTINUOUS
 90
7
 70
0
 10
-42.8387915787
 20
2.6977929384
 10
-42.8034863232
 20
2.6907461321
 10
-42.7717719365
 20
2.6805173125
 10
-42.7436484186
 20
2.6671064797
 10
-42.7190081372
 20
2.6503560041
 10
-42.6979587246
 20
2.6304235152
 10
-42.6958692784
 20
2.6280487683
  0
LWPOLYLINE
  5
36E
100
AcDbEntity
  8
0
100
AcDbPolyline
 62
7
  6
CONTINUOUS
 90
7
 70
0
 10
-42.903743484
 20
2.7727929384
 10
-42.8683631429
 20
2.7656506737
 10
-42.8366346501
 20
2.7554136829
 10
-42.8085580054
 20
2.7420819661
 10
-42.7840778211
 20
2.7255449926
 10
-42.7632494851
 20
2.7059132931
 10
-42.7607692106
 20
2.7030936654
  0
LWPOLYLINE
  5
36F
100
AcDbEntity
  8
RACCORDO
100
AcDbPolyline
 62
7
  6
CONTINUOUS
 90
3
 70
0
 10
-40.7399641647
 20
8.7122552125
 10
-40.7758071286
 20
8.7248042533
 10
-40.8119302124
 20
8.7315969212
  0
LWPOLYLINE
  5
370
100
AcDbEntity
  8
ASSI
100
AcDbPolyline
 62
7
  6
CONTINUOUS
 90
3
 70
0
 10
-40.7399641647
 20
8.7122552125
 10
-40.7758071286
 20
8.7248042533
 10
-40.8119302124
 20
8.7315969212
  0
LWPOLYLINE
  5
371
100
AcDbEntity
  8
RACCORDO
100
AcDbPolyline
 62
253
  6
CONTINUOUS
 90
9
 70
0
 10
-41.2588174848
 20
0.0592680985
 10
-41.2388231718
 20
0.0620491895
 10
-41.2196704692
 20
0.0698739432
 10
-41.2012246304
 20
0.0825839405
 10
-41.1837581535
 20
0.0999763415
 10
-41.1675736415
 20
0.1217476049
 10
-41.1529452779
 20
0.1475211737
 10
-41.1401159398
 20
0.1768605828
 10
-41.1293001865
 20
0.2092671025
  0
LWPOLYLINE
  5
372
100
AcDbEntity
  8
RACCORDO
100
AcDbPolyline
 62
253
  6
CONTINUOUS
 90
9
 70
0
 10
-40.0852644404
 20
2.69949848
 10
-40.0534896217
 20
2.7006997741
 10
-40.0241150577
 20
2.7043169934
 10
-39.9976758618
 20
2.710339857
 10
-39.9746286138
 20
2.7187373333
 10
-39.9554984179
 20
2.7294031861
 10
-39.9407756557
 20
2.7421091298
 10
-39.930727307
 20
2.7566082876
 10
-39.9269375742
 20
2.7662934506
  0
LINE
  5
373
100
AcDbEntity
  8
RACCORDO
100
AcDbLine
 62
7
  6
CONTINUOUS
 10
-39.0015053669
 20
0.7637681601
 11
-37.1842128953
 21
0.7637681601
  0
LINE
  5
374
100
AcDbEntity
  8
ASSI
100
AcDbLine
 62
7
  6
CONTINUOUS
 10
-39.0015053669
 20
0.7637681601
 11
-37.1842128953
 21
0.7637681601
  0
LINE
  5
375
100
AcDbEntity
  8
0
100
AcDbLine
 62
7
  6
CONTINUOUS
 10
-56.9542678668
 20
0.8793827913
 11
-68.5384182673
 21
0.8793827913
  0
LINE
  5
376
100
AcDbEntity
  8
0
100
AcDbLine
 62
7
  6
CONTINUOUS
 10
-50.2865420051
 20
0.88901566
 11
-49.8883175437
 21
0.88901566
  0
LINE
  5
377
100
AcDbEntity
  8
0
100
AcDbLine
 62
7
  6
CONTINUOUS
 10
-49.0247568482
 20
0.88901566
 11
-48.5728708547
 21
0.88901566
  0
LINE
  5
378
100
AcDbEntity
  8
0
100
AcDbLine
 62
7
  6
CONTINUOUS
 10
-48.3296069169
 20
0.88901566
 11
-47.8972991597
 21
0.88901566
  0
LINE
  5
379
100
AcDbEntity
  8
0
100
AcDbLine
 62
7
  6
CONTINUOUS
 10
-47.2696654348
 20
0.88901566
 11
-47.2062879637
 21
0.88901566
  0
LINE
  5
37A
100
AcDbEntity
  8
0
100
AcDbLine
 62
7
  6
CONTINUOUS
 10
-46.5761548895
 20
0.88901566
 11
-46.1340904901
 21
0.88901566
  0
LINE
  5
37B
100
AcDbEntity
  8
0
100
AcDbLine
 62
7
  6
CONTINUOUS
 10
-46.0631318326
 20
0.88901566
 11
-45.6161492749
 21
0.88901566
  0
LINE
  5
37C
100
AcDbEntity
  8
0
100
AcDbLine
 62
7
  6
CONTINUOUS
 10
-44.7590006316
 20
0.88901566
 11
-44.2827316928
 21
0.88901566
  0
LINE
  5
37D
100
AcDbEntity
  8
0
100
AcDbLine
 62
7
  6
CONTINUOUS
 10
-44.1500361927
 20
0.88901585
 11
-43.6999685567
 21
0.88901585
  0
LINE
  5
37E
100
AcDbEntity
  8
0
100
AcDbLine
 62
7
  6
CONTINUOUS
 10
-43.0079676507
 20
0.88901585
 11
-42.5733059514
 21
0.88901585
  0
LINE
  5
37F
100
AcDbEntity
  8
RACCORDO
100
AcDbLine
 62
253
  6
CONTINUOUS
 10
-68.0858605692
 20
0.8967607438
 11
-68.3785527561
 21
0.8967607438
  0
LINE
  5
380
100
AcDbEntity
  8
0
100
AcDbLine
 62
7
  6
CONTINUOUS
 10
-50.2886678308
 20
0.96401566
 11
-49.953269449
 21
0.96401566
  0
LINE
  5
381
100
AcDbEntity
  8
0
100
AcDbLine
 62
7
  6
CONTINUOUS
 10
-49.0031062131
 20
0.96401566
 11
-48.63782276
 21
0.96401566
  0
LINE
  5
382
100
AcDbEntity
  8
0
100
AcDbLine
 62
7
  6
CONTINUOUS
 10
-48.3011842066
 20
0.96401566
 11
-47.9622510649
 21
0.96401566
  0
LINE
  5
383
100
AcDbEntity
  8
0
100
AcDbLine
 62
7
  6
CONTINUOUS
 10
-46.5594506824
 20
0.96401566
 11
-46.1990423954
 21
0.96401566
  0
LINE
  5
384
100
AcDbEntity
  8
0
100
AcDbLine
 62
7
  6
CONTINUOUS
 10
-46.0179564333
 20
0.96401566
 11
-45.6811011802
 21
0.96401566
  0
LINE
  5
385
100
AcDbEntity
  8
0
100
AcDbLine
 62
7
  6
CONTINUOUS
 10
-44.7576649637
 20
0.96401566
 11
-44.3476835981
 21
0.96401566
  0
LINE
  5
386
100
AcDbEntity
  8
0
100
AcDbLine
 62
7
  6
CONTINUOUS
 10
-44.1283855576
 20
0.96401585
 11
-43.764920462
 21
0.96401585
  0
LINE
  5
387
100
AcDbEntity
  8
0
100
AcDbLine
 62
7
  6
CONTINUOUS
 10
-43.0083653364
 20
0.96401585
 11
-42.6382578566
 21
0.96401585
  0
LINE
  5
388
100
AcDbEntity
  8
0
100
AcDbLine
 62
253
  6
CONTINUOUS
 10
-36.7124145832
 20
1.1062145303
 11
-37.1832621925
 21
1.1062145303
  0
LINE
  5
389
100
AcDbEntity
  8
0
100
AcDbLine
 62
253
  6
CONTINUOUS
 10
-37.928553534
 20
1.1062145303
 11
-38.9026496149
 21
1.1062145303
  0
LINE
  5
38A
100
AcDbEntity
  8
0
100
AcDbLine
 62
253
  6
CONTINUOUS
 10
-36.6877789673
 20
1.1633573875
 11
-37.1414528486
 21
1.1633573875
  0
LINE
  5
38B
100
AcDbEntity
  8
0
100
AcDbLine
 62
253
  6
CONTINUOUS
 10
-37.920875712
 20
1.1633573875
 11
-38.8861538929
 21
1.1633573875
  0
LINE
  5
38C
100
AcDbEntity
  8
0
100
AcDbLine
 62
7
  6
CONTINUOUS
 10
-45.3666973392
 20
1.3211935134
 11
-44.7513040174
 21
1.3211935134
  0
LINE
  5
38D
100
AcDbEntity
  8
RACCORDO
100
AcDbLine
 62
253
  6
CONTINUOUS
 10
-68.0393644555
 20
1.3595798611
 11
-68.3994040406
 21
1.3595798611
  0
LINE
  5
38E
100
AcDbEntity
  8
0
100
AcDbLine
 62
7
  6
CONTINUOUS
 10
-45.4316492445
 20
1.3961935134
 11
-44.8162559227
 21
1.3961935134
  0
LINE
  5
38F
100
AcDbEntity
  8
0
100
AcDbLine
 62
7
  6
CONTINUOUS
 10
-36.5578751567
 20
1.6133573875
 11
37.279859743
 21
1.6133573875
  0
LINE
  5
390
100
AcDbEntity
  8
0
100
AcDbLine
 62
7
  6
CONTINUOUS
 10
-44.7450751465
 20
1.6556109552
 11
-45.1777241178
 21
1.6556109552
  0
LINE
  5
391
100
AcDbEntity
  8
0
100
AcDbLine
 62
7
  6
CONTINUOUS
 10
-43.4554039519
 20
1.7362124925
 11
-43.2131135369
 21
1.7362124925
  0
LINE
  5
392
100
AcDbEntity
  8
0
100
AcDbLine
 62
7
  6
CONTINUOUS
 10
-43.5203558572
 20
1.8112124925
 11
-43.2780654422
 21
1.8112124925
  0
LINE
  5
393
100
AcDbEntity
  8
0
100
AcDbLine
 62
7
  6
CONTINUOUS
 10
37.5936871377
 20
1.9633573875
 11
45.9401137808
 21
1.9633573875
  0
LINE
  5
394
100
AcDbEntity
  8
0
100
AcDbLine
 62
7
  6
CONTINUOUS
 10
-43.109790434
 20
2.0907600748
 11
-43.3680387371
 21
2.0907600748
  0
LINE
  5
395
100
AcDbEntity
  8
ASSI
100
AcDbLine
 62
253
  6
CONTINUOUS
 10
-69.6532549168
 20
2.2007649199
 11
-68.7887335915
 21
2.2007649199
  0
LINE
  5
396
100
AcDbEntity
  8
RACCORDO
100
AcDbLine
 62
253
  6
CONTINUOUS
 10
-40.0852644404
 20
2.69949848
 11
-40.4104323085
 21
2.69949848
  0
LINE
  5
397
100
AcDbEntity
  8
0
100
AcDbLine
 62
7
  6
CONTINUOUS
 10
37.5948295144
 20
2.7633573875
 11
45.9401137808
 21
2.7633573875
  0
LINE
  5
398
100
AcDbEntity
  8
0
100
AcDbLine
 62
7
  6
CONTINUOUS
 10
-44.322022723
 20
3.0538505388
 11
-44.7591680981
 21
3.0538505388
  0
LINE
  5
399
100
AcDbEntity
  8
0
100
AcDbLine
 62
7
  6
CONTINUOUS
 10
-45.7115925263
 20
3.0538505388
 11
-46.1586893994
 21
3.0538505388
  0
LINE
  5
39A
100
AcDbEntity
  8
0
100
AcDbLine
 62
7
  6
CONTINUOUS
 10
-47.0576887204
 20
3.0538505388
 11
-47.5092005909
 21
3.0538505388
  0
LINE
  5
39B
100
AcDbEntity
  8
0
100
AcDbLine
 62
7
  6
CONTINUOUS
 10
-48.5675191414
 20
3.0538505388
 11
-49.0190959638
 21
3.0538505388
  0
LINE
  5
39C
100
AcDbEntity
  8
0
100
AcDbLine
 62
7
  6
CONTINUOUS
 10
-49.8570153792
 20
3.0538505388
 11
-50.3479028268
 21
3.0538505388
  0
LINE
  5
39D
100
AcDbEntity
  8
0
100
AcDbLine
 62
7
  6
CONTINUOUS
 10
-47.9478993547
 20
3.0539804426
 11
-48.3997853482
 21
3.0539804426
  0
LINE
  5
39E
100
AcDbEntity
  8
RACCORDO
100
AcDbLine
 62
253
  6
CONTINUOUS
 10
-40.1379125398
 20
3.1066486702
 11
-40.4630804078
 21
3.1066486702
  0
LINE
  5
39F
100
AcDbEntity
  8
0
100
AcDbLine
 62
7
  6
CONTINUOUS
 10
-36.1248624548
 20
3.1133573875
 11
37.279859743
 21
3.1133573875
  0
LINE
  5
3A0
100
AcDbEntity
  8
0
100
AcDbLine
 62
7
  6
CONTINUOUS
 10
-36.0578751567
 20
3.345408195
 11
37.779859743
 21
3.345408195
  0
LINE
  5
3A1
100
AcDbEntity
  8
RACCORDO
100
AcDbLine
 62
253
  6
CONTINUOUS
 10
-40.3482200809
 20
3.3687019466
 11
-40.6888289261
 21
3.3687019466
  0
LINE
  5
3A2
100
AcDbEntity
  8
RACCORDO
100
AcDbLine
 62
253
  6
CONTINUOUS
 10
-40.3833860435
 20
3.6401354067
 11
-40.723934261
 21
3.6401354067
  0
LINE
  5
3A3
100
AcDbEntity
  8
0
100
AcDbLine
 62
7
  6
CONTINUOUS
 10
38.0936871377
 20
3.695408195
 11
46.4401137808
 21
3.695408195
  0
LINE
  5
3A4
100
AcDbEntity
  8
0
100
AcDbLine
 62
253
  6
CONTINUOUS
 10
-35.9279713461
 20
3.795408195
 11
-36.3816452275
 21
3.795408195
  0
LINE
  5
3A5
100
AcDbEntity
  8
0
100
AcDbLine
 62
253
  6
CONTINUOUS
 10
-37.1610680909
 20
3.795408195
 11
-38.1263462718
 21
3.795408195
  0
LINE
  5
3A6
100
AcDbEntity
  8
RACCORDO
100
AcDbLine
 62
253
  6
CONTINUOUS
 10
-70.0897061775
 20
3.7961330629
 11
-69.7191998385
 21
3.7961330629
  0
LINE
  5
3A7
100
AcDbEntity
  8
0
100
AcDbLine
 62
253
  6
CONTINUOUS
 10
-35.9154915877
 20
3.8668367665
 11
-36.3863391969
 21
3.8668367665
  0
LINE
  5
3A8
100
AcDbEntity
  8
0
100
AcDbLine
 62
253
  6
CONTINUOUS
 10
-37.1316305384
 20
3.8668367665
 11
-38.1057266193
 21
3.8668367665
  0
LINE
  5
3A9
100
AcDbEntity
  8
RACCORDO
100
AcDbLine
 62
253
  6
CONTINUOUS
 10
-70.0551710599
 20
4.0548829914
 11
-69.6752695997
 21
4.0548829914
  0
LINE
  5
3AA
100
AcDbEntity
  8
RACCORDO
100
AcDbLine
 62
7
  6
CONTINUOUS
 10
-37.3010572429
 20
4.2917307546
 11
-37.9830702901
 21
4.2917307546
  0
LWPOLYLINE
  5
3AB
100
AcDbEntity
  8
RACCORDO
100
AcDbPolyline
 62
253
  6
CONTINUOUS
 90
13
 70
0
 10
-54.0713523572
 20
4.6292276501
 10
-54.1283937579
 20
4.6312725622
 10
-54.188043893
 20
4.6373738452
 10
-54.2493269283
 20
4.6474316864
 10
-54.3112403165
 20
4.6612815466
 10
-54.372771198
 20
4.6786968519
 10
-54.4329129708
 20
4.6993927
 10
-54.4906817579
 20
4.7230305214
 10
-54.5451325025
 20
4.7492236181
 10
-54.5953744287
 20
4.7775434893
 10
-54.6405856139
 20
4.8075268419
 10
-54.680026435
 20
4.8386831693
 10
-54.7130516678
 20
4.8705027759
  0
LWPOLYLINE
  5
3AC
100
AcDbEntity
  8
RACCORDO
100
AcDbPolyline
 62
253
  6
CONTINUOUS
 90
10
 70
0
 10
-41.2818619748
 20
3.2071886547
 10
-41.2508293861
 20
3.2057029196
 10
-41.2181455528
 20
3.2012898625
 10
-41.1847816653
 20
3.1940806161
 10
-41.1517291216
 20
3.1842894009
 10
-41.1199700682
 20
3.1722071601
 10
-41.0904482158
 20
3.1581929137
 10
-41.0640407976
 20
3.142663091
 10
-41.041532502
 20
3.126079156
 10
-41.0235921564
 20
3.1089338954
  0
LWPOLYLINE
  5
3AD
100
AcDbEntity
  8
RACCORDO
100
AcDbPolyline
 62
7
  6
CONTINUOUS
 90
10
 70
0
 10
-67.489815439
 20
6.3408564622
 10
-67.5059473585
 20
6.3417242384
 10
-67.5219572674
 20
6.3437964058
 10
-67.5378451658
 20
6.3470729646
 10
-67.5540568249
 20
6.3517158387
 10
-67.5701464735
 20
6.3575631041
 10
-67.5847767975
 20
6.3641289892
 10
-67.5975020255
 20
6.3712515699
 10
-67.608767929
 20
6.3790927703
 10
-67.6185745078
 20
6.3876525904
  0
LWPOLYLINE
  5
3AE
100
AcDbEntity
  8
RACCORDO
100
AcDbPolyline
 62
253
  6
CONTINUOUS
 90
5
 70
0
 10
-57.0031435528
 20
8.7330498414
 10
-56.9721349408
 20
8.7291887976
 10
-56.9401965898
 20
8.7169410685
 10
-56.9093233612
 20
8.6965054356
 10
-56.8800376595
 20
8.6682276894
  0
LWPOLYLINE
  5
3AF
100
AcDbEntity
  8
ASSI
100
AcDbPolyline
 62
253
  6
CONTINUOUS
 90
5
 70
0
 10
-57.0031435528
 20
8.7330498414
 10
-56.9721349408
 20
8.7291887976
 10
-56.9401965898
 20
8.7169410685
 10
-56.9093233612
 20
8.6965054356
 10
-56.8800376595
 20
8.6682276894
  0
LWPOLYLINE
  5
3B0
100
AcDbEntity
  8
0
100
AcDbPolyline
 62
7
  6
CONTINUOUS
 90
10
 70
0
 10
-43.2614341043
 20
2.7600493555
 10
-43.2197947742
 20
2.7666676676
 10
-43.1786332556
 20
2.771993305
 10
-43.1379495485
 20
2.7760262677
 10
-43.0977487589
 20
2.7787771088
 10
-43.0580257808
 20
2.7802352751
 10
-43.018765296
 20
2.7803691072
 10
-42.9799621987
 20
2.7791680519
 10
-42.9416215946
 20
2.7766426623
 10
-42.903743484
 20
2.7727929384
  0
LWPOLYLINE
  5
3B1
100
AcDbEntity
  8
0
100
AcDbPolyline
 62
7
  6
CONTINUOUS
 90
10
 70
0
 10
-43.196482199
 20
2.6850493555
 10
-43.154318656
 20
2.6917184285
 10
-43.1128059089
 20
2.6970740023
 10
-43.0719439578
 20
2.7011160768
 10
-43.031793817
 20
2.7038443595
 10
-42.9922944722
 20
2.7052591429
 10
-42.9532628803
 20
2.7053613047
 10
-42.9146380269
 20
2.7041511375
 10
-42.8764809263
 20
2.7016283488
 10
-42.8387915787
 20
2.6977929384
  0
LWPOLYLINE
  5
3B2
100
AcDbEntity
  8
RACCORDO
100
AcDbPolyline
 62
253
  6
CONTINUOUS
 90
13
 70
0
 10
-40.4630804078
 20
3.1066486702
 10
-40.4974939048
 20
3.1040777959
 10
-40.5326564326
 20
3.0971135405
 10
-40.5679615646
 20
3.0858723716
 10
-40.6028038165
 20
3.0705426606
 10
-40.6365760184
 20
3.0513870699
 10
-40.6686814594
 20
3.0287427272
 10
-40.6986244086
 20
3.0029461286
 10
-40.7258178886
 20
2.9744888358
 10
-40.7496456113
 20
2.9440711577
 10
-40.7697266222
 20
2.9123230154
 10
-40.7858530746
 20
2.8797406771
 10
-40.7978370361
 20
2.846880619
  0
LWPOLYLINE
  5
3B3
100
AcDbEntity
  8
RACCORDO
100
AcDbPolyline
 62
253
  6
CONTINUOUS
 90
19
 70
0
 10
-54.043844337
 20
5.3898014826
 10
-54.0890337074
 20
5.3870576736
 10
-54.1350739844
 20
5.380452263
 10
-54.1816162111
 20
5.370036513
 10
-54.2283079765
 20
5.3558911132
 10
-54.2747946914
 20
5.338123766
 10
-54.3207222767
 20
5.316868335
 10
-54.3657420554
 20
5.2922865876
 10
-54.4095123757
 20
5.2645659345
 10
-54.4516998089
 20
5.2339162008
 10
-54.4919832112
 20
5.2005697254
 10
-54.5300570673
 20
5.1647804884
 10
-54.5656327795
 20
5.1268211266
 10
-54.5984394072
 20
5.0869793759
 10
-54.6282274894
 20
5.0455577884
 10
-54.6547718291
 20
5.0028723325
 10
-54.6778705877
 20
4.9592471908
 10
-54.6973468433
 20
4.9150123105
 10
-54.7130516678
 20
4.8705027759
  0
LWPOLYLINE
  5
3B4
100
AcDbEntity
  8
RACCORDO
100
AcDbPolyline
 62
253
  6
CONTINUOUS
 90
3
 70
0
 10
-40.0754202534
 20
3.2071886547
 10
-40.1038792771
 20
3.2057029416
 10
-40.114861602
 20
3.203767444
  0
LWPOLYLINE
  5
3B5
100
AcDbEntity
  8
RACCORDO
100
AcDbPolyline
 62
253
  6
CONTINUOUS
 90
19
 70
0
 10
-40.723934261
 20
3.6401354067
 10
-40.762736723
 20
3.6383766055
 10
-40.801602142
 20
3.6334367721
 10
-40.8405305181
 20
3.6253159063
 10
-40.8798307377
 20
3.6138943403
 10
-40.9191939143
 20
3.5992917421
 10
-40.9576933881
 20
3.5818671152
 10
-40.9952860987
 20
3.5615660152
 10
-41.0320151066
 20
3.5384428865
 10
-41.0670829328
 20
3.5130200658
 10
-41.1004517982
 20
3.4852550905
 10
-41.132159482
 20
3.4551904232
 10
-41.1615218433
 20
3.4234757889
 10
-41.1885039456
 20
3.3900555206
 10
-41.2131407253
 20
3.3549852852
 10
-41.2348528512
 20
3.3190818084
 10
-41.2534472129
 20
3.2826173319
 10
-41.2691169208
 20
3.2453196141
 10
-41.2818619748
 20
3.2071886547
  0
LWPOLYLINE
  5
3B6
100
AcDbEntity
  8
RACCORDO
100
AcDbPolyline
 62
253
  6
CONTINUOUS
 90
19
 70
0
 10
-53.9598178021
 20
4.7157774345
 10
-53.9674995974
 20
4.7154396494
 10
-53.9752113508
 20
4.7144670024
 10
-53.9829530622
 20
4.7128594935
 10
-53.990788138
 20
4.7105961361
 10
-53.9986531719
 20
4.7076979167
 10
-54.0063579447
 20
4.7042277958
 10
-54.0138949682
 20
4.7001729945
 10
-54.0212717307
 20
4.6955462917
 10
-54.0283204773
 20
4.6904489835
 10
-54.0350359969
 20
4.6848667331
 10
-54.0414235006
 20
4.6788138774
 10
-54.0473308672
 20
4.6724347228
 10
-54.0527457448
 20
4.6657169446
 10
-54.0576804853
 20
4.6586728676
 10
-54.0620200233
 20
4.6514837716
 10
-54.0657260037
 20
4.6442100833
 10
-54.0688367817
 20
4.6367913761
 10
-54.0713523572
 20
4.6292276501
  0
LWPOLYLINE
  5
3B7
100
AcDbEntity
  8
RACCORDO
100
AcDbPolyline
 62
253
  6
CONTINUOUS
 90
9
 70
0
 10
-37.2036302812
 20
4.6292276501
 10
-37.1501335126
 20
4.6312723353
 10
-37.1010529212
 20
4.6373730377
 10
-37.0571914878
 20
4.6474300693
 10
-37.0192668872
 20
4.6612790028
 10
-36.9878996241
 20
4.6786933978
 10
-36.9636029446
 20
4.6993885354
 10
-36.9467745515
 20
4.7230260256
 10
-36.9397521772
 20
4.7405525783
  0
LWPOLYLINE
  5
3B8
100
AcDbEntity
  8
RACCORDO
100
AcDbPolyline
 62
253
  6
CONTINUOUS
 90
19
 70
0
 10
-40.6888289007
 20
3.368701917
 10
-40.7118980605
 20
3.3678668276
 10
-40.735345672
 20
3.3650415744
 10
-40.7589954
 20
3.3602504144
 10
-40.7826728081
 20
3.3535331013
 10
-40.8061956273
 20
3.3449416778
 10
-40.8293753162
 20
3.334541824
 10
-40.8520316919
 20
3.3224170205
 10
-40.8739993494
 20
3.3086611605
 10
-40.8951173044
 20
3.2933746397
 10
-40.9152224964
 20
3.2766747158
 10
-40.9341653479
 20
3.2586876062
 10
-40.9518133212
 20
3.2395391379
 10
-40.9680374849
 20
3.2193589217
 10
-40.9827007087
 20
3.1983100492
 10
-40.9956768437
 20
3.1765806787
 10
-41.0068657256
 20
3.1543457564
 10
-41.0161876491
 20
3.1317628849
 10
-41.0235729991
 20
3.1090014257
  0
LINE
  5
3B9
100
AcDbEntity
  8
0
100
AcDbLine
 62
7
  6
CONTINUOUS
 10
38.0948295144
 20
4.495408195
 11
46.4401137808
 21
4.495408195
  0
LINE
  5
3BA
100
AcDbEntity
  8
RACCORDO
100
AcDbLine
 62
7
  6
CONTINUOUS
 10
-67.3143770219
 20
4.6680006749
 11
-67.011007552
 21
4.6680006749
  0
LINE
  5
3BB
100
AcDbEntity
  8
RACCORDO
100
AcDbLine
 62
253
  6
CONTINUOUS
 10
-37.2651952949
 20
4.7157774345
 11
-53.9598178021
 21
4.7157774345
  0
LINE
  5
3BC
100
AcDbEntity
  8
0
100
AcDbLine
 62
7
  6
CONTINUOUS
 10
-35.9961548259
 20
4.845408195
 11
37.779859743
 21
4.845408195
  0
LINE
  5
3BD
100
AcDbEntity
  8
RACCORDO
100
AcDbLine
 62
253
  6
CONTINUOUS
 10
-36.0006337736
 20
4.8638065074
 11
-36.9188005304
 21
4.8638065074
  0
LINE
  5
3BE
100
AcDbEntity
  8
ASSI
100
AcDbLine
 62
253
  6
CONTINUOUS
 10
-36.0006337736
 20
4.8638065074
 11
-36.9188005304
 21
4.8638065074
  0
LINE
  5
3BF
100
AcDbEntity
  8
RACCORDO
100
AcDbLine
 62
253
  6
CONTINUOUS
 10
-36.0368211155
 20
4.9400825505
 11
-36.918594964
 21
4.9400825505
  0
LINE
  5
3C0
100
AcDbEntity
  8
ASSI
100
AcDbLine
 62
253
  6
CONTINUOUS
 10
-36.0368211155
 20
4.9400825505
 11
-36.918594964
 21
4.9400825505
  0
LINE
  5
3C1
100
AcDbEntity
  8
RACCORDO
100
AcDbLine
 62
253
  6
CONTINUOUS
 10
-67.1886229153
 20
5.0187986271
 11
-66.8959307284
 21
5.0187986271
  0
LINE
  5
3C2
100
AcDbEntity
  8
DRAFT
100
AcDbLine
 62
7
  6
CONTINUOUS
 10
-36.9774979276
 20
5.1578437603
 11
-36.2184211719
 21
5.1578437603
  0
LINE
  5
3C3
100
AcDbEntity
  8
ASSI
100
AcDbLine
 62
7
  6
CONTINUOUS
 10
-36.9774979276
 20
5.1578437603
 11
-36.2184211719
 21
5.1578437603
  0
LINE
  5
3C4
100
AcDbEntity
  8
RACCORDO
100
AcDbLine
 62
253
  6
CONTINUOUS
 10
-69.3054987144
 20
5.3038825911
 11
-69.6946159323
 21
5.3038825911
  0
LINE
  5
3C5
100
AcDbEntity
  8
RACCORDO
100
AcDbLine
 62
253
  6
CONTINUOUS
 10
-37.3492218298
 20
5.3898014826
 11
-54.043844337
 21
5.3898014826
  0
LINE
  5
3C6
100
AcDbEntity
  8
RACCORDO
100
AcDbLine
 62
253
  6
CONTINUOUS
 10
-69.1980570353
 20
5.4912039482
 11
-69.6003813615
 21
5.4912039482
  0
LINE
  5
3C7
100
AcDbEntity
  8
RACCORDO
100
AcDbLine
 62
7
  6
CONTINUOUS
 10
-44.8484650719
 20
5.5316146452
 11
-47.291164838
 21
5.5316146452
  0
LINE
  5
3C8
100
AcDbEntity
  8
RACCORDO
100
AcDbLine
 62
253
  6
CONTINUOUS
 10
-37.3461619198
 20
5.6688527181
 11
-36.6778664477
 21
5.6688527181
  0
LINE
  5
3C9
100
AcDbEntity
  8
ASSI
100
AcDbLine
 62
253
  6
CONTINUOUS
 10
-37.3461619198
 20
5.6688527181
 11
-36.6778664477
 21
5.6688527181
  0
LINE
  5
3CA
100
AcDbEntity
  8
RACCORDO
100
AcDbLine
 62
7
  6
CONTINUOUS
 10
-37.3654304975
 20
5.6947815789
 11
-36.7278513821
 21
5.6947815789
  0
LINE
  5
3CB
100
AcDbEntity
  8
ASSI
100
AcDbLine
 62
7
  6
CONTINUOUS
 10
-37.3654304975
 20
5.6947815789
 11
-36.7278513821
 21
5.6947815789
  0
LINE
  5
3CC
100
AcDbEntity
  8
RACCORDO
100
AcDbLine
 62
7
  6
CONTINUOUS
 10
-45.4058115314
 20
5.8194203663
 11
-47.1450039372
 21
5.8194203663
  0
LINE
  5
3CD
100
AcDbEntity
  8
ASSI
100
AcDbLine
 62
7
  6
CONTINUOUS
 10
-45.4058115314
 20
5.8194203663
 11
-47.1450039372
 21
5.8194203663
  0
LINE
  5
3CE
100
AcDbEntity
  8
RACCORDO
100
AcDbLine
 62
7
  6
CONTINUOUS
 10
-68.0305921744
 20
6.0350228967
 11
-56.0014235969
 21
6.0350228967
  0
LINE
  5
3CF
100
AcDbEntity
  8
DRAFT
100
AcDbLine
 62
7
  6
CONTINUOUS
 10
-54.6283090238
 20
6.3269780555
 11
-48.2238453159
 21
6.3269780555
  0
LINE
  5
3D0
100
AcDbEntity
  8
RACCORDO
100
AcDbLine
 62
7
  6
CONTINUOUS
 10
-38.0456681458
 20
6.3269780555
 11
-45.3205980732
 21
6.3269780555
  0
LINE
  5
3D1
100
AcDbEntity
  8
DRAFT
100
AcDbLine
 62
7
  6
CONTINUOUS
 10
-45.3205980732
 20
6.3269780555
 11
-48.0918793653
 21
6.3269780555
  0
LINE
  5
3D2
100
AcDbEntity
  8
RACCORDO
100
AcDbLine
 62
7
  6
CONTINUOUS
 10
-48.0918793653
 20
6.3269780555
 11
-54.3219515038
 21
6.3269780555
  0
LINE
  5
3D3
100
AcDbEntity
  8
ASSI
100
AcDbLine
 62
7
  6
CONTINUOUS
 10
-38.6088962475
 20
6.3269780555
 11
-54.3219515038
 21
6.3269780555
  0
LINE
  5
3D4
100
AcDbEntity
  8
DRAFT
100
AcDbLine
 62
7
  6
CONTINUOUS
 10
-67.4868420591
 20
6.3408564622
 11
-56.2738752202
 21
6.3408564622
  0
LINE
  5
3D5
100
AcDbEntity
  8
ASSI
100
AcDbLine
 62
7
  6
CONTINUOUS
 10
-67.4868420591
 20
6.3408564622
 11
-56.2738752202
 21
6.3408564622
  0
LINE
  5
3D6
100
AcDbEntity
  8
RACCORDO
100
AcDbLine
 62
7
  6
CONTINUOUS
 10
-56.2738752202
 20
6.3408564622
 11
-68.3528806529
 21
6.3408564622
  0
LINE
  5
3D7
100
AcDbEntity
  8
RACCORDO
100
AcDbLine
 62
253
  6
CONTINUOUS
 10
-67.6942534876
 20
6.5790281761
 11
-56.4282995596
 21
6.5790281761
  0
LINE
  5
3D8
100
AcDbEntity
  8
ASSI
100
AcDbLine
 62
253
  6
CONTINUOUS
 10
-67.6942534876
 20
6.5790281761
 11
-56.4282995596
 21
6.5790281761
  0
LINE
  5
3D9
100
AcDbEntity
  8
RACCORDO
100
AcDbLine
 62
253
  6
CONTINUOUS
 10
-68.583065914
 20
6.6051794967
 11
-67.8283527262
 21
6.6051759305
  0
LINE
  5
3DA
100
AcDbEntity
  8
RACCORDO
100
AcDbLine
 62
253
  6
CONTINUOUS
 10
-68.6284827959
 20
6.6451089983
 11
-67.8780354416
 21
6.6451075638
  0
LINE
  5
3DB
100
AcDbEntity
  8
RACCORDO
100
AcDbLine
 62
253
  6
CONTINUOUS
 10
-67.7959375322
 20
6.6659600986
 11
-56.5316880611
 21
6.6659600986
  0
LINE
  5
3DC
100
AcDbEntity
  8
ASSI
100
AcDbLine
 62
253
  6
CONTINUOUS
 10
-67.7959375322
 20
6.6659600986
 11
-56.5316880611
 21
6.6659600986
  0
LINE
  5
3DD
100
AcDbEntity
  8
SCRITTE
100
AcDbLine
 62
253
  6
CONTINUOUS
 10
-49.1905901952
 20
6.7209319041
 11
-48.8441801989
 21
6.7209319041
  0
LINE
  5
3DE
100
AcDbEntity
  8
SCRITTE
100
AcDbLine
 62
253
  6
CONTINUOUS
 10
-44.6872582195
 20
6.7209319041
 11
-44.1676429359
 21
6.7209319041
  0
LINE
  5
3DF
100
AcDbEntity
  8
SCRITTE
100
AcDbLine
 62
253
  6
CONTINUOUS
 10
-43.5036900575
 20
6.7209319041
 11
-43.0706774175
 21
6.7209319041
  0
LINE
  5
3E0
100
AcDbEntity
  8
0
100
AcDbLine
 62
7
  6
CONTINUOUS
 10
-56.9310276845
 20
6.7793827913
 11
-68.1895451779
 21
6.7793827913
  0
LINE
  5
3E1
100
AcDbEntity
  8
ASSI
100
AcDbLine
 62
7
  6
CONTINUOUS
 10
-56.9310276845
 20
6.7793827913
 11
-68.1895451779
 21
6.7793827913
  0
LINE
  5
3E2
100
AcDbEntity
  8
0
100
AcDbLine
 62
7
  6
CONTINUOUS
 10
-68.3430519529
 20
6.7793827913
 11
-69.0563132218
 21
6.7793827913
  0
LINE
  5
3E3
100
AcDbEntity
  8
SCRITTE
100
AcDbLine
 62
253
  6
CONTINUOUS
 10
-50.5486722048
 20
7.016397273
 11
-49.9424544221
 21
7.016397273
  0
LINE
  5
3E4
100
AcDbEntity
  8
SCRITTE
100
AcDbLine
 62
253
  6
CONTINUOUS
 10
-44.4287595716
 20
7.016397273
 11
-44.775169568
 21
7.016397273
  0
LINE
  5
3E5
100
AcDbEntity
  8
RACCORDO
100
AcDbLine
 62
7
  6
CONTINUOUS
 10
-55.5289812249
 20
7.1223414657
 11
-55.3100961983
 21
7.1223414657
  0
LINE
  5
3E6
100
AcDbEntity
  8
SCRITTE
100
AcDbLine
 62
253
  6
CONTINUOUS
 10
-53.3785609156
 20
7.2133742061
 11
-52.9166813059
 21
7.2133742061
  0
LINE
  5
3E7
100
AcDbEntity
  8
SCRITTE
100
AcDbLine
 62
253
  6
CONTINUOUS
 10
-43.0439916408
 20
7.2133742061
 11
-42.5821113807
 21
7.2133742061
  0
LINE
  5
3E8
100
AcDbEntity
  8
SCRITTE
100
AcDbLine
 62
253
  6
CONTINUOUS
 10
-43.6799496039
 20
7.4103511392
 11
-44.1129622439
 21
7.4103511392
  0
LINE
  5
3E9
100
AcDbEntity
  8
SCRITTE
100
AcDbLine
 62
253
  6
CONTINUOUS
 10
-44.7769151223
 20
7.4103511392
 11
-45.2965304058
 21
7.4103511392
  0
LINE
  5
3EA
100
AcDbEntity
  8
SCRITTE
100
AcDbLine
 62
253
  6
CONTINUOUS
 10
-49.4534523853
 20
7.4103511392
 11
-49.7998623816
 21
7.4103511392
  0
LINE
  5
3EB
100
AcDbEntity
  8
RACCORDO
100
AcDbLine
 62
7
  6
CONTINUOUS
 10
-69.0542661466
 20
6.7793798021
 11
-69.0563127641
 21
6.7793827913
  0
LINE
  5
3EC
100
AcDbEntity
  8
RACCORDO
100
AcDbLine
 62
7
  6
CONTINUOUS
 10
-40.3110352345
 20
8.6117668627
 11
-40.2545172513
 21
8.6090987526
  0
LINE
  5
3ED
100
AcDbEntity
  8
RACCORDO
100
AcDbLine
 62
7
  6
CONTINUOUS
 10
-40.8119302124
 20
8.7315969212
 11
-40.8389494244
 21
8.7330432021
  0
LINE
  5
3EE
100
AcDbEntity
  8
ASSI
100
AcDbLine
 62
7
  6
CONTINUOUS
 10
-40.8119302124
 20
8.7315969212
 11
-40.8389494244
 21
8.7330432021
  0
LWPOLYLINE
  5
3EF
100
AcDbEntity
  8
RACCORDO
100
AcDbPolyline
 62
253
  6
CONTINUOUS
 90
5
 70
0
 10
-40.7139006067
 20
8.6682276894
 10
-40.6920027556
 20
8.6663560031
 10
-40.6718930517
 20
8.660574152
 10
-40.6541824085
 20
8.6510580929
 10
-40.6395911564
 20
8.6382985469
  0
LWPOLYLINE
  5
3F0
100
AcDbEntity
  8
ASSI
100
AcDbPolyline
 62
253
  6
CONTINUOUS
 90
5
 70
0
 10
-40.7139006067
 20
8.6682276894
 10
-40.6920027556
 20
8.6663560031
 10
-40.6718930517
 20
8.660574152
 10
-40.6541824085
 20
8.6510580929
 10
-40.6395911564
 20
8.6382985469
  0
LWPOLYLINE
  5
3F1
100
AcDbEntity
  8
RACCORDO
100
AcDbPolyline
 62
253
  6
CONTINUOUS
 90
6
 70
0
 10
-40.3110352345
 20
8.6117668627
 10
-40.2834978501
 20
8.609233824
 10
-40.2527649295
 20
8.6003399561
 10
-40.2226563347
 20
8.5851399352
 10
-40.1934946586
 20
8.5637966193
 10
-40.1655923484
 20
8.536538687
  0
LWPOLYLINE
  5
3F2
100
AcDbEntity
  8
RACCORDO
100
AcDbPolyline
 62
7
  6
CONTINUOUS
 90
4
 70
0
 10
-40.2545172513
 20
8.6090987526
 10
-40.1981764459
 20
8.6010568456
 10
-40.1425482154
 20
8.587624592
 10
-40.0879339775
 20
8.5687460326
  0
LWPOLYLINE
  5
3F3
100
AcDbEntity
  8
0
100
AcDbPolyline
 62
7
  6
CONTINUOUS
 90
6
 70
0
 10
-42.7578052334
 20
1.9873336793
 10
-42.7438983297
 20
1.9909179239
 10
-42.7296213415
 20
1.9960444072
 10
-42.714974269
 20
2.0027131294
 10
-42.699903651
 20
2.0112793247
 10
-42.6844629487
 20
2.0213877588
  0
LWPOLYLINE
  5
3F4
100
AcDbEntity
  8
0
100
AcDbPolyline
 62
7
  6
CONTINUOUS
 90
4
 70
0
 10
-42.6928533281
 20
1.9123336793
 10
-42.679433776
 20
1.9157278602
 10
-42.6657742932
 20
1.9205218093
 10
-42.6518748798
 20
1.9267155265
  0
LWPOLYLINE
  5
3F5
100
AcDbEntity
  8
RACCORDO
100
AcDbPolyline
 62
7
  6
CONTINUOUS
 90
10
 70
0
 10
-68.3528278889
 20
6.3408564622
 10
-68.3683821013
 20
6.3396915583
 10
-68.3842256403
 20
6.3359310422
 10
-68.3998755652
 20
6.3296889983
 10
-68.4148519132
 20
6.3211509395
 10
-68.4287001227
 20
6.3105777607
 10
-68.441004893
 20
6.2982978265
 10
-68.4513924567
 20
6.2846842495
 10
-68.4595419915
 20
6.2701436372
 10
-68.4652031409
 20
6.2551133502
  0
LWPOLYLINE
  5
3F6
100
AcDbEntity
  8
RACCORDO
100
AcDbPolyline
 62
253
  6
CONTINUOUS
 90
10
 70
0
 10
-68.26892254
 20
6.2363397871
 10
-68.2844819367
 20
6.235193276
 10
-68.3003513475
 20
6.2314763486
 10
-68.316048442
 20
6.2253018666
 10
-68.3310961183
 20
6.2168573815
 10
-68.3450369236
 20
6.2063994851
 10
-68.3574469846
 20
6.1942460501
 10
-68.3679490049
 20
6.1807664902
 10
-68.3762237128
 20
6.1663705015
 10
-68.3820195059
 20
6.1514956778
  0
LWPOLYLINE
  5
3F7
100
AcDbEntity
  8
RACCORDO
100
AcDbPolyline
 62
7
  6
CONTINUOUS
 90
8
 70
0
 10
-69.0542627191
 20
6.7793794529
 10
-69.1033262745
 20
6.7779580096
 10
-69.2100244549
 20
6.7641218792
 10
-69.3163938421
 20
6.7354656458
 10
-69.4212432833
 20
6.692202792
 10
-69.5238799814
 20
6.6346626865
 10
-69.6240039775
 20
6.5630522466
 10
-69.686546497
 20
6.5099854583
  0
LWPOLYLINE
  5
3F8
100
AcDbEntity
  8
RACCORDO
100
AcDbPolyline
 62
7
  6
CONTINUOUS
 90
14
 70
0
 10
-57.0035869432
 20
8.7330273183
 10
-57.0338979617
 20
8.7322299778
 10
-57.0990255855
 20
8.7252196154
 10
-57.1640037233
 20
8.7108467654
 10
-57.2277146244
 20
8.6892059196
 10
-57.2883496055
 20
8.6609379842
 10
-57.3462374093
 20
8.6259604863
 10
-57.4008046112
 20
8.5843314567
 10
-57.4498206977
 20
8.5378084909
 10
-57.4932953074
 20
8.4867068699
 10
-57.5313357914
 20
8.430777416
 10
-57.5626207653
 20
8.3719741283
 10
-57.5868524062
 20
8.3114265833
 10
-57.5950420967
 20
8.285349045
  0
LWPOLYLINE
  5
3F9
100
AcDbEntity
  8
ASSI
100
AcDbPolyline
 62
7
  6
CONTINUOUS
 90
14
 70
0
 10
-57.0035869432
 20
8.7330273183
 10
-57.0338979617
 20
8.7322299778
 10
-57.0990255855
 20
8.7252196154
 10
-57.1640037233
 20
8.7108467654
 10
-57.2277146244
 20
8.6892059196
 10
-57.2883496055
 20
8.6609379842
 10
-57.3462374093
 20
8.6259604863
 10
-57.4008046112
 20
8.5843314567
 10
-57.4498206977
 20
8.5378084909
 10
-57.4932953074
 20
8.4867068699
 10
-57.5313357914
 20
8.430777416
 10
-57.5626207653
 20
8.3719741283
 10
-57.5868524062
 20
8.3114265833
 10
-57.5950420967
 20
8.285349045
  0
LINE
  5
3FA
100
AcDbEntity
  8
RACCORDO
100
AcDbLine
 62
253
  6
CONTINUOUS
 10
-40.4681645895
 20
8.536538687
 11
-40.1655923484
 21
8.536538687
  0
LINE
  5
3FB
100
AcDbEntity
  8
RACCORDO
100
AcDbLine
 62
7
  6
CONTINUOUS
 10
-40.6114193088
 20
8.6117668627
 11
-40.3110352345
 21
8.6117668627
  0
LINE
  5
3FC
100
AcDbEntity
  8
RACCORDO
100
AcDbLine
 62
253
  6
CONTINUOUS
 10
-56.8800376595
 20
8.6682276894
 11
-40.7139006067
 21
8.6682276894
  0
LINE
  5
3FD
100
AcDbEntity
  8
ASSI
100
AcDbLine
 62
253
  6
CONTINUOUS
 10
-56.8800376595
 20
8.6682276894
 11
-40.7139006067
 21
8.6682276894
  0
LINE
  5
3FE
100
AcDbEntity
  8
RACCORDO
100
AcDbLine
 62
7
  6
CONTINUOUS
 10
-57.0035869098
 20
8.7330490552
 11
-40.838305713
 21
8.7330498414
  0
LINE
  5
3FF
100
AcDbEntity
  8
ASSI
100
AcDbLine
 62
7
  6
CONTINUOUS
 10
-57.0035869098
 20
8.7330490552
 11
-40.838305713
 21
8.7330498414
  0
LWPOLYLINE
  5
400
100
AcDbEntity
  8
0
100
AcDbPolyline
 62
7
  6
CONTINUOUS
 90
21
 70
0
 10
45.94011372
 20
2.7632856276
 10
45.9610924918
 20
2.761078875
 10
45.981696119
 20
2.7546164278
 10
46.0018327261
 20
2.7437596668
 10
46.0215170699
 20
2.7286474434
 10
46.0401137808
 20
2.709767549
 10
46.0575873704
 20
2.6869970481
 10
46.073973327
 20
2.6604588761
 10
46.0887427459
 20
2.63100963
 10
46.1018428812
 20
2.5985543245
 10
46.113326479
 20
2.563187945
 10
46.1228228723
 20
2.5260520447
 10
46.1302672209
 20
2.487088886
 10
46.1357243652
 20
2.4463562066
 10
46.1390181599
 20
2.4051687728
 10
46.140078017
 20
2.3635117464
 10
46.1389745246
 20
2.3213999655
 10
46.135743301
 20
2.2801927111
 10
46.130396219
 20
2.2403430768
 10
46.1229214059
 20
2.2013979689
 10
46.1133188616
 20
2.1633573875
  0
LWPOLYLINE
  5
401
100
AcDbEntity
  8
0
100
AcDbPolyline
 62
7
  6
CONTINUOUS
 90
21
 70
0
 10
46.44011372
 20
4.4953364352
 10
46.4610924918
 20
4.4931296826
 10
46.481696119
 20
4.4866672353
 10
46.5018327261
 20
4.4758104743
 10
46.5215170699
 20
4.460698251
 10
46.5401137808
 20
4.4418183566
 10
46.5575873704
 20
4.4190478557
 10
46.573973327
 20
4.3925096836
 10
46.5887427459
 20
4.3630604376
 10
46.6018428812
 20
4.3306051321
 10
46.613326479
 20
4.2952387525
 10
46.6228228723
 20
4.2581028523
 10
46.6302672209
 20
4.2191396936
 10
46.6357243652
 20
4.1784070142
 10
46.6390181599
 20
4.1372195804
 10
46.640078017
 20
4.0955625539
 10
46.6389745246
 20
4.0534507731
 10
46.635743301
 20
4.0122435187
 10
46.630396219
 20
3.9723938844
 10
46.6229214059
 20
3.9334487765
 10
46.6133188616
 20
3.895408195
  0
LWPOLYLINE
  5
402
100
AcDbEntity
  8
0
100
AcDbPolyline
 62
7
  6
CONTINUOUS
 90
4
 70
0
 10
37.2798575951
 20
3.1129388808
 10
37.3145640305
 20
3.1087808162
 10
37.3901300884
 20
3.0766566933
 10
37.467359743
 20
3.0128764403
  0
LWPOLYLINE
  5
403
100
AcDbEntity
  8
0
100
AcDbPolyline
 62
7
  6
CONTINUOUS
 90
4
 70
0
 10
37.7798575951
 20
4.8449896884
 10
37.8145640305
 20
4.8408316238
 10
37.8901300884
 20
4.8087075009
 10
37.967359743
 20
4.7449272479
  0
LWPOLYLINE
  5
404
100
AcDbEntity
  8
RACCORDO
100
AcDbPolyline
 62
253
  6
CONTINUOUS
 90
4
 70
0
 10
-70.547243703
 20
3.5256722174
 10
-70.5542852568
 20
3.5238176133
 10
-70.5585100899
 20
3.5219923072
 10
-70.5597985444
 20
3.5203274303
  0
LWPOLYLINE
  5
405
100
AcDbEntity
  8
RACCORDO
100
AcDbPolyline
 62
7
  6
CONTINUOUS
 90
19
 70
0
 10
-68.0305921744
 20
6.0350228967
 10
-68.0350040489
 20
6.0341349687
 10
-68.0383219351
 20
6.0325779926
 10
-68.0405466297
 20
6.03035018
 10
-68.0415096617
 20
6.027298848
 10
-68.0413824091
 20
6.0235701927
 10
-68.0406747085
 20
6.0196124029
 10
-68.0394753689
 20
6.0155390906
 10
-68.0376967153
 20
6.0112342043
 10
-68.0355823117
 20
6.0068048925
 10
-68.0331924048
 20
6.0022862656
 10
-68.0304674618
 20
5.9976417506
 10
-68.0274710394
 20
5.992871726
 10
-68.0242187964
 20
5.9879751553
 10
-68.0206959275
 20
5.9829513551
 10
-68.0169203009
 20
5.9778012325
 10
-68.0128981729
 20
5.9725245002
 10
-68.0086241962
 20
5.9671196614
 10
-68.0040988436
 20
5.9615857995
  0
LWPOLYLINE
  5
406
100
AcDbEntity
  8
0
100
AcDbPolyline
 62
7
  6
CONTINUOUS
 90
14
 70
0
 10
37.467359743
 20
3.0128764403
 10
37.5335922299
 20
2.9110008812
 10
37.5852854122
 20
2.7961786911
 10
37.6224392896
 20
2.6684098698
 10
37.645396582
 20
2.521172896
 10
37.6538145697
 20
2.360989291
 10
37.6466650932
 20
2.2074236194
 10
37.6219660721
 20
2.0613184895
 10
37.5816995868
 20
1.9218312929
 10
37.5307837204
 20
1.8059987684
 10
37.4678625722
 20
1.7168326761
 10
37.3942920428
 20
1.651321256
 10
37.3190579167
 20
1.617465966
 10
37.2798618908
 20
1.6137758942
  0
LWPOLYLINE
  5
407
100
AcDbEntity
  8
0
100
AcDbPolyline
 62
7
  6
CONTINUOUS
 90
14
 70
0
 10
37.967359743
 20
4.7449272479
 10
38.0335922299
 20
4.6430516888
 10
38.0852854122
 20
4.5282294986
 10
38.1224392896
 20
4.4004606774
 10
38.145396582
 20
4.2532237035
 10
38.1538145697
 20
4.0930400986
 10
38.1466650932
 20
3.9394744269
 10
38.1219660721
 20
3.7933692971
 10
38.0816995868
 20
3.6538821005
 10
38.0307837204
 20
3.5380495759
 10
37.9678625722
 20
3.4488834837
 10
37.8942920428
 20
3.3833720636
 10
37.8190579167
 20
3.3495167735
 10
37.7798618908
 20
3.3458267017
  0
LWPOLYLINE
  5
408
100
AcDbEntity
  8
0
100
AcDbPolyline
 62
7
  6
CONTINUOUS
 90
11
 70
0
 10
46.6133188616
 20
3.895408195
 10
46.6016480788
 20
3.8597558097
 10
46.5885217589
 20
3.8273364997
 10
46.5739399021
 20
3.7981502649
 10
46.5577122493
 20
3.7719499942
 10
46.5400290596
 20
3.7489827988
 10
46.5214611094
 20
3.729990012
 10
46.5019795301
 20
3.7151013148
 10
46.4816131904
 20
3.7041870262
 10
46.4610194735
 20
3.6975994369
 10
46.4401138416
 20
3.6954799549
  0
LWPOLYLINE
  5
409
100
AcDbEntity
  8
0
100
AcDbPolyline
 62
7
  6
CONTINUOUS
 90
11
 70
0
 10
46.1133188616
 20
2.1633573875
 10
46.1016480788
 20
2.1277050022
 10
46.0885217589
 20
2.0952856921
 10
46.0739399021
 20
2.0660994573
 10
46.0577122493
 20
2.0398991866
 10
46.0400290596
 20
2.0169319912
 10
46.0214611094
 20
1.9979392044
 10
46.0019795301
 20
1.9830505072
 10
45.9816131904
 20
1.9721362187
 10
45.9610194735
 20
1.9655486293
 10
45.9401138416
 20
1.9634291473
  0
ELLIPSE
  5
40A
100
AcDbEntity
  8
RACCORDO
100
AcDbEllipse
 62
7
  6
CONTINUOUS
 10
-68.2118420591
 20
3.8293827913
 30
0.0
 11
1.1485183464
 21
-1.626644674
 31
0.0
 40
0.7672561401
 41
4.4794441267
 42
5.1865242134
  0
ELLIPSE
  5
40B
100
AcDbEntity
  8
RACCORDO
100
AcDbEllipse
 62
7
  6
CONTINUOUS
 10
-68.5905598736
 20
4.6507991316
 30
0.0
 11
0.6208207278
 21
-0.8792673914
 31
0.0
 40
0.7672561401
 41
2.9051875854
 42
2.9695816082
  0
ELLIPSE
  5
40C
100
AcDbEntity
  8
RACCORDO
100
AcDbEllipse
 62
7
  6
CONTINUOUS
 10
-68.8915997381
 20
3.6079664509
 30
0.0
 11
0.6208207278
 21
-0.8792673914
 31
0.0
 40
0.7672561401
 41
-1.8681352033
 42
-1.8037411805
  0
ELLIPSE
  5
40D
100
AcDbEntity
  8
RACCORDO
100
AcDbEllipse
 62
7
  6
CONTINUOUS
 10
-36.7270956132
 20
5.4947815789
 30
0.0
 11
-0.0010166118
 21
0.1999993371
 31
0.0
 40
0.5065354212
 41
-0.5174468816
 42
-0.0025747382
  0
ELLIPSE
  5
40E
100
AcDbEntity
  8
RACCORDO
100
AcDbEllipse
 62
7
  6
CONTINUOUS
 10
-36.0875617613
 20
4.7677567184
 30
0.0
 11
0.0009990214
 21
0.1999993925
 31
0.0
 40
0.493445535
 41
-1.0673930033
 42
-0.529860606
  0
ELLIPSE
  5
40F
100
AcDbEntity
  8
RACCORDO
100
AcDbEllipse
 62
7
  6
CONTINUOUS
 10
-37.1960576757
 20
2.3633573875
 30
0.0
 11
0.0079921716
 21
1.5999951397
 31
0.0
 40
0.493445535
 41
-3.1164675697
 42
-2.4721814932
  0
ELLIPSE
  5
410
100
AcDbEntity
  8
RACCORDO
100
AcDbEllipse
 62
7
  6
CONTINUOUS
 10
-36.7728699698
 20
1.2633573875
 30
0.0
 11
0.0009990214
 21
0.1999993925
 31
0.0
 40
0.493445535
 41
-2.4721814932
 42
-2.0919302865
  0
ELLIPSE
  5
411
100
AcDbEntity
  8
RACCORDO
100
AcDbEllipse
 62
7
  6
CONTINUOUS
 10
-36.0130623487
 20
3.895408195
 30
0.0
 11
0.0009990214
 21
0.1999993925
 31
0.0
 40
0.493445535
 41
-2.0919302865
 42
-1.7116790798
  0
ELLIPSE
  5
412
100
AcDbEntity
  8
RACCORDO
100
AcDbEllipse
 62
7
  6
CONTINUOUS
 10
-36.6960576757
 20
4.095408195
 30
0.0
 11
0.0079921716
 21
1.5999951397
 31
0.0
 40
0.493445535
 41
-1.7116790798
 42
-1.0673930033
  0
ELLIPSE
  5
413
100
AcDbEntity
  8
RACCORDO
100
AcDbEllipse
 62
7
  6
CONTINUOUS
 10
-68.2118420591
 20
3.8293827913
 30
0.0
 11
1.1485183464
 21
-1.626644674
 31
0.0
 40
0.7672561401
 41
2.8106542787
 42
2.9051875854
  0
ELLIPSE
  5
414
100
AcDbEntity
  8
RACCORDO
100
AcDbEllipse
 62
7
  6
CONTINUOUS
 10
-47.3604194297
 20
6.0731992109
 30
0.0
 11
0.4796331008
 21
-0.1412727446
 31
0.0
 40
0.4395474798
 41
-2.3766798959
 42
-0.9804164943
  0
ELLIPSE
  5
415
100
AcDbEntity
  8
RACCORDO
100
AcDbEllipse
 62
7
  6
CONTINUOUS
 10
-45.6212270238
 20
6.0731992109
 30
0.0
 11
0.4796331008
 21
-0.1412727446
 31
0.0
 40
0.4395474798
 41
-0.9804164943
 42
0.4158469073
  0
ELLIPSE
  5
416
100
AcDbEntity
  8
RACCORDO
100
AcDbEllipse
 62
7
  6
CONTINUOUS
 10
-56.9421752761
 20
3.8293827913
 30
0.0
 11
0.0147355663
 21
2.9499910389
 31
0.0
 40
0.493445535
 41
-0.2757340615
 42
0.0024648216
  0
ELLIPSE
  5
417
100
AcDbEntity
  8
DRAFT
100
AcDbEllipse
 62
7
  6
CONTINUOUS
 10
-68.2118420591
 20
3.8293827913
 30
0.0
 11
0.6208207278
 21
-0.8792673914
 31
0.0
 40
0.7672561401
 41
8.5468838422
 42
11.4041184099
  0
ELLIPSE
  5
418
100
AcDbEntity
  8
DRAFT
100
AcDbEllipse
 62
7
  6
CONTINUOUS
 10
-68.2118420591
 20
3.8293827913
 30
0.0
 11
-0.0319863755
 21
0.9998514159
 31
0.0
 40
0.5389145921
 41
6.4096225525
 42
8.6482669604
  0
ELLIPSE
  5
419
100
AcDbEntity
  8
RACCORDO
100
AcDbEllipse
 62
7
  6
CONTINUOUS
 10
-68.2118420591
 20
3.8293827913
 30
0.0
 11
0.0292246966
 21
2.9499656853
 31
0.0
 40
0.4868722452
 41
6.0098097345
 42
6.3407277555
  0
ELLIPSE
  5
41A
100
AcDbEntity
  8
RACCORDO
100
AcDbEllipse
 62
7
  6
CONTINUOUS
 10
-67.9369221176
 20
5.704408469
 30
0.0
 11
0.0099066768
 21
0.9999883679
 31
0.0
 40
0.4868722452
 41
5.7818631288
 42
6.0098097345
  0
ELLIPSE
  5
41B
100
AcDbEntity
  8
RACCORDO
100
AcDbEllipse
 62
7
  6
CONTINUOUS
 10
-56.6708362696
 20
5.704408469
 30
0.0
 11
0.0049951072
 21
0.9999969623
 31
0.0
 40
0.493445535
 41
-0.5036806672
 42
-0.2757340615
  0
ELLIPSE
  5
41C
100
AcDbEntity
  8
RACCORDO
100
AcDbEllipse
 62
7
  6
CONTINUOUS
 10
-54.4525098295
 20
6.4747107487
 30
0.0
 11
0.288673698
 21
-0.0816675612
 31
0.0
 40
0.4264576265
 41
3.8145872435
 42
5.2981171077
  0
ELLIPSE
  5
41D
100
AcDbEntity
  8
ASSI
100
AcDbEllipse
 62
7
  6
CONTINUOUS
 10
-68.2118420591
 20
3.8293827913
 30
0.0
 11
1.1485183464
 21
-1.626644674
 31
0.0
 40
0.7672561401
 41
4.4794441267
 42
5.1865242134
  0
ELLIPSE
  5
41E
100
AcDbEntity
  8
ASSI
100
AcDbEllipse
 62
7
  6
CONTINUOUS
 10
-68.5905598736
 20
4.6507991316
 30
0.0
 11
0.6208207278
 21
-0.8792673914
 31
0.0
 40
0.7672561401
 41
2.9051875854
 42
2.9695816082
  0
ELLIPSE
  5
41F
100
AcDbEntity
  8
ASSI
100
AcDbEllipse
 62
7
  6
CONTINUOUS
 10
-68.8915997381
 20
3.6079664509
 30
0.0
 11
0.6208207278
 21
-0.8792673914
 31
0.0
 40
0.7672561401
 41
-1.8681352033
 42
-1.8037411805
  0
ELLIPSE
  5
420
100
AcDbEntity
  8
ASSI
100
AcDbEllipse
 62
7
  6
CONTINUOUS
 10
-36.0875617613
 20
4.7677567184
 30
0.0
 11
0.0009990214
 21
0.1999993925
 31
0.0
 40
0.493445535
 41
-1.0673930033
 42
-0.529860606
  0
ELLIPSE
  5
421
100
AcDbEntity
  8
ASSI
100
AcDbEllipse
 62
7
  6
CONTINUOUS
 10
-37.1960576757
 20
2.3633573875
 30
0.0
 11
0.0079921716
 21
1.5999951397
 31
0.0
 40
0.493445535
 41
-3.1164675697
 42
-2.4721814932
  0
ELLIPSE
  5
422
100
AcDbEntity
  8
ASSI
100
AcDbEllipse
 62
7
  6
CONTINUOUS
 10
-36.7728699698
 20
1.2633573875
 30
0.0
 11
0.0009990214
 21
0.1999993925
 31
0.0
 40
0.493445535
 41
-2.4721814932
 42
-2.0919302865
  0
ELLIPSE
  5
423
100
AcDbEntity
  8
ASSI
100
AcDbEllipse
 62
7
  6
CONTINUOUS
 10
-36.0130623487
 20
3.895408195
 30
0.0
 11
0.0009990214
 21
0.1999993925
 31
0.0
 40
0.493445535
 41
-2.0919302865
 42
-1.7116790798
  0
ELLIPSE
  5
424
100
AcDbEntity
  8
ASSI
100
AcDbEllipse
 62
7
  6
CONTINUOUS
 10
-36.6960576757
 20
4.095408195
 30
0.0
 11
0.0079921716
 21
1.5999951397
 31
0.0
 40
0.493445535
 41
-1.7116790798
 42
-1.0673930033
  0
ELLIPSE
  5
425
100
AcDbEntity
  8
ASSI
100
AcDbEllipse
 62
7
  6
CONTINUOUS
 10
-36.7270956132
 20
5.4947815789
 30
0.0
 11
-0.0010166118
 21
0.1999993371
 31
0.0
 40
0.5065354212
 41
-0.5174468816
 42
-0.0025747382
  0
ELLIPSE
  5
426
100
AcDbEntity
  8
ASSI
100
AcDbEllipse
 62
7
  6
CONTINUOUS
 10
-68.2118420591
 20
3.8293827913
 30
0.0
 11
1.1485183464
 21
-1.626644674
 31
0.0
 40
0.7672561401
 41
2.8106542787
 42
2.9051875854
  0
ELLIPSE
  5
427
100
AcDbEntity
  8
ASSI
100
AcDbEllipse
 62
7
  6
CONTINUOUS
 10
-56.6708362696
 20
5.704408469
 30
0.0
 11
0.0049951072
 21
0.9999969623
 31
0.0
 40
0.493445535
 41
-0.5036806672
 42
-0.2757340615
  0
ELLIPSE
  5
428
100
AcDbEntity
  8
ASSI
100
AcDbEllipse
 62
7
  6
CONTINUOUS
 10
-47.3604194297
 20
6.0731992109
 30
0.0
 11
0.4796331008
 21
-0.1412727446
 31
0.0
 40
0.4395474798
 41
-2.3766798959
 42
-0.9804164943
  0
ELLIPSE
  5
429
100
AcDbEntity
  8
ASSI
100
AcDbEllipse
 62
7
  6
CONTINUOUS
 10
-45.6212270238
 20
6.0731992109
 30
0.0
 11
0.4796331008
 21
-0.1412727446
 31
0.0
 40
0.4395474798
 41
-0.9804164943
 42
0.4158469073
  0
ELLIPSE
  5
42A
100
AcDbEntity
  8
ASSI
100
AcDbEllipse
 62
7
  6
CONTINUOUS
 10
-56.9421752761
 20
3.8293827913
 30
0.0
 11
0.0147355663
 21
2.9499910389
 31
0.0
 40
0.493445535
 41
-0.2757340615
 42
0.0024648216
  0
ELLIPSE
  5
42B
100
AcDbEntity
  8
ASSI
100
AcDbEllipse
 62
7
  6
CONTINUOUS
 10
-54.4525098295
 20
6.4747107487
 30
0.0
 11
0.288673698
 21
-0.0816675612
 31
0.0
 40
0.4264576265
 41
3.8145872435
 42
5.2981171077
  0
ELLIPSE
  5
42C
100
AcDbEntity
  8
ASSI
100
AcDbEllipse
 62
7
  6
CONTINUOUS
 10
-68.2118420591
 20
3.8293827913
 30
0.0
 11
0.0292246966
 21
2.9499656853
 31
0.0
 40
0.4868722452
 41
6.0098097345
 42
6.3407277555
  0
ELLIPSE
  5
42D
100
AcDbEntity
  8
ASSI
100
AcDbEllipse
 62
7
  6
CONTINUOUS
 10
-67.9369221176
 20
5.704408469
 30
0.0
 11
0.0099066768
 21
0.9999883679
 31
0.0
 40
0.4868722452
 41
5.7818631288
 42
6.0098097345
  0
ELLIPSE
  5
42E
100
AcDbEntity
  8
ASSI
100
AcDbEllipse
 62
7
  6
CONTINUOUS
 10
-68.2118420591
 20
3.8293827913
 30
0.0
 11
-0.0319863755
 21
0.9998514159
 31
0.0
 40
0.5389145921
 41
6.4096225525
 42
8.6482669604
  0
ELLIPSE
  5
42F
100
AcDbEntity
  8
ASSI
100
AcDbEllipse
 62
7
  6
CONTINUOUS
 10
-68.2118420591
 20
3.8293827913
 30
0.0
 11
0.6208207278
 21
-0.8792673914
 31
0.0
 40
0.7672561401
 41
8.5468838422
 42
11.4041184099
  0
ELLIPSE
  5
430
100
AcDbEntity
  8
RACCORDO
100
AcDbEllipse
 62
7
  6
CONTINUOUS
 10
-68.2984445995
 20
3.8293827913
 30
0.0
 11
-0.0616758548
 21
2.9498215966
 31
0.0
 40
0.5260242705
 41
5.9693126347
 42
6.2721874693
  0
ELLIPSE
  5
431
100
AcDbEntity
  8
RACCORDO
100
AcDbEllipse
 62
7
  6
CONTINUOUS
 10
-67.7316686048
 20
5.3699293847
 30
0.0
 11
0.963698118
 21
-0.2671673861
 31
0.0
 40
0.4198825747
 41
-2.5754922843
 42
-2.0344402161
  0
ELLIPSE
  5
432
100
AcDbEntity
  8
RACCORDO
100
AcDbEllipse
 62
7
  6
CONTINUOUS
 10
-37.5241145663
 20
4.5190375204
 30
0.0
 11
0.4846481817
 21
-0.1237709985
 31
0.0
 40
0.3933872481
 41
-0.9949905188
 42
-0.0121969803
  0
ELLIPSE
  5
433
100
AcDbEntity
  8
RACCORDO
100
AcDbEllipse
 62
7
  6
CONTINUOUS
 10
-55.6784393925
 20
6.6024094949
 30
0.0
 11
0.4534425234
 21
0.3929305216
 31
0.0
 40
0.7509046167
 41
0.7140213679
 42
2.2835997195
  0
ELLIPSE
  5
434
100
AcDbEntity
  8
RACCORDO
100
AcDbEllipse
 62
7
  6
CONTINUOUS
 10
-38.1963928415
 20
5.8070460847
 30
0.0
 11
0.4542240827
 21
0.3931335717
 31
0.0
 40
0.7490963921
 41
6.2274555581
 42
6.9966101266
  0
ELLIPSE
  5
435
100
AcDbEntity
  8
RACCORDO
100
AcDbEllipse
 62
7
  6
CONTINUOUS
 10
-57.2794471063
 20
1.0563560876
 30
0.0
 11
0.4542240827
 21
0.3931335717
 31
0.0
 40
0.7490963921
 41
2.6319814844
 42
3.1973225641
  0
ELLIPSE
  5
436
100
AcDbEntity
  8
RACCORDO
100
AcDbEllipse
 62
7
  6
CONTINUOUS
 10
-67.9492912311
 20
6.1678660769
 30
0.0
 11
-0.0104535347
 21
0.4999697621
 31
0.0
 40
0.5260242705
 41
-0.5171433307
 42
-0.3138726725
  0
ELLIPSE
  5
437
100
AcDbEntity
  8
RACCORDO
100
AcDbEllipse
 62
7
  6
CONTINUOUS
 10
-47.4184495909
 20
5.6906873273
 30
0.0
 11
0.286375101
 21
-0.0895771599
 31
0.0
 40
0.4590259621
 41
-2.5085284289
 42
-0.9726386871
  0
ELLIPSE
  5
438
100
AcDbEntity
  8
RACCORDO
100
AcDbEllipse
 62
7
  6
CONTINUOUS
 10
-69.1644700033
 20
3.8293827913
 30
0.0
 11
0.018822686
 21
1.899977899
 31
0.0
 40
0.4868722452
 41
-4.6900649253
 42
-3.677821417
  0
ELLIPSE
  5
439
100
AcDbEntity
  8
DRAFT
100
AcDbEllipse
 62
7
  6
CONTINUOUS
 10
-56.9988752202
 20
3.8293827913
 30
0.0
 11
-0.0616758548
 21
2.9498215966
 31
0.0
 40
0.5260242705
 41
-3.1525905245
 42
-0.7372407792
  0
ELLIPSE
  5
43A
100
AcDbEntity
  8
RACCORDO
100
AcDbEllipse
 62
7
  6
CONTINUOUS
 10
-68.6837059779
 20
2.0719751826
 30
0.0
 11
0.9577356998
 21
-0.2878149084
 31
0.0
 40
0.4460615836
 41
-2.5661832464
 42
-2.0251311783
  0
ELLIPSE
  5
43B
100
AcDbEntity
  8
ASSI
100
AcDbEllipse
 62
7
  6
CONTINUOUS
 10
-68.2984445995
 20
3.8293827913
 30
0.0
 11
-0.0397234319
 21
1.8998850961
 31
0.0
 40
0.5260242705
 41
2.4100048611
 42
2.5895427378
  0
ELLIPSE
  5
43C
100
AcDbEntity
  8
RACCORDO
100
AcDbEllipse
 62
7
  6
CONTINUOUS
 10
-68.4659653507
 20
1.145288036
 30
0.0
 11
0.1817369112
 21
-0.207708802
 31
0.0
 40
0.7655551516
 41
-0.4815928231
 42
2.0103510393
  0
ELLIPSE
  5
43D
100
AcDbEntity
  8
RACCORDO
100
AcDbEllipse
 62
7
  6
CONTINUOUS
 10
-69.4100213731
 20
3.8293827913
 30
0.0
 11
2.1444955525
 21
-2.4509638639
 31
0.0
 40
0.7655551516
 41
1.3956088333
 42
1.6905520256
  0
ELLIPSE
  5
43E
100
AcDbEntity
  8
RACCORDO
100
AcDbEllipse
 62
7
  6
CONTINUOUS
 10
-67.3768770219
 20
4.9180006749
 30
0.0
 11
0.1817369112
 21
-0.207708802
 31
0.0
 40
0.7655551516
 41
5.186850278
 42
7.6787941405
  0
ELLIPSE
  5
43F
100
AcDbEntity
  8
RACCORDO
100
AcDbEllipse
 62
7
  6
CONTINUOUS
 10
-69.4100213731
 20
3.8293827913
 30
0.0
 11
2.1444955525
 21
-2.4509638639
 31
0.0
 40
0.7655551516
 41
5.5066492917
 42
5.801592484
  0
ELLIPSE
  5
440
100
AcDbEntity
  8
RACCORDO
100
AcDbEllipse
 62
7
  6
CONTINUOUS
 10
-40.6136866155
 20
8.0117668627
 30
0.0
 11
0.0029970643
 21
0.5999981774
 31
0.0
 40
0.493445535
 41
5.77950464
 42
6.2856503747
  0
ELLIPSE
  5
441
100
AcDbEntity
  8
RACCORDO
100
AcDbEllipse
 62
7
  6
CONTINUOUS
 10
-68.2984445995
 20
3.8293827913
 30
0.0
 11
-0.0616758548
 21
2.9498215966
 31
0.0
 40
0.5260242705
 41
-3.0439937783
 42
-1.1667921218
  0
ELLIPSE
  5
442
100
AcDbEntity
  8
RACCORDO
100
AcDbEllipse
 62
7
  6
CONTINUOUS
 10
-38.8604810972
 20
-0.1102719379
 30
0.0
 11
0.4756481843
 21
-0.1548538046
 31
0.0
 40
0.4719015717
 41
-0.9668827465
 42
0.5690069953
  0
ELLIPSE
  5
443
100
AcDbEntity
  8
RACCORDO
100
AcDbEllipse
 62
7
  6
CONTINUOUS
 10
-44.9757498247
 20
5.6906873273
 30
0.0
 11
0.286375101
 21
-0.0895771599
 31
0.0
 40
0.4590259621
 41
5.3105466201
 42
6.8464363618
  0
ELLIPSE
  5
444
100
AcDbEntity
  8
RACCORDO
100
AcDbEllipse
 62
7
  6
CONTINUOUS
 10
-68.103876165
 20
1.145288036
 30
0.0
 11
-0.0052267674
 21
0.2499848811
 31
0.0
 40
0.5260242705
 41
-3.0439937783
 42
-0.5520499158
  0
ELLIPSE
  5
445
100
AcDbEntity
  8
RACCORDO
100
AcDbEllipse
 62
7
  6
CONTINUOUS
 10
-67.0147878362
 20
4.9180006749
 30
0.0
 11
-0.0052267674
 21
0.2499848811
 31
0.0
 40
0.5260242705
 41
-3.1525921489
 42
-1.1667921218
  0
ELLIPSE
  5
446
100
AcDbEntity
  8
RACCORDO
100
AcDbEllipse
 62
7
  6
CONTINUOUS
 10
-69.4856678462
 20
5.0538825911
 30
0.0
 11
0.0049533384
 21
0.4999941839
 31
0.0
 40
0.4868722452
 41
0.5109213299
 42
1.0520208559
  0
ELLIPSE
  5
447
100
AcDbEntity
  8
RACCORDO
100
AcDbEllipse
 62
7
  6
CONTINUOUS
 10
-69.8462229737
 20
3.8048829914
 30
0.0
 11
0.0049533384
 21
0.4999941839
 31
0.0
 40
0.4868722452
 41
1.0520208559
 42
1.5931203818
  0
ELLIPSE
  5
448
100
AcDbEntity
  8
RACCORDO
100
AcDbEllipse
 62
7
  6
CONTINUOUS
 10
-69.1644700033
 20
3.8293827913
 30
0.0
 11
0.018822686
 21
1.899977899
 31
0.0
 40
0.4868722452
 41
5.7818631288
 42
6.7941066371
  0
ENDSEC
  0
SECTION
  2
OBJECTS
  0
DICTIONARY
  5
C
100
AcDbDictionary
280
0
281
1
  3
ACAD_GROUP
350
D
  3
ACAD_MLINESTYLE
350
17
  3
ACAD_LAYOUT
350
1A
  3
ACAD_PLOTSETTINGS
350
19
  3
ACAD_PLOTSTYLENAME
350
E
  0
DICTIONARY
  5
D
102
{ACAD_REACTORS
330
C
102
}
100
AcDbDictionary
280
0
281
1
  0
ACDBDICTIONARYWDFLT
  5
E
102
{ACAD_REACTORS
330
C
102
}
100
AcDbDictionary
281
1
  3
Normal
350
F
100
AcDbDictionaryWithDefault
340
F
  0
DICTIONARY
  5
17
102
{ACAD_REACTORS
330
C
102
}
100
AcDbDictionary
280
0
281
1
  3
Standard
350
18
  0
DICTIONARY
  5
19
102
{ACAD_REACTORS
330
C
102
}
100
AcDbDictionary
281
1
  0
DICTIONARY
  5
1A
102
{ACAD_REACTORS
330
C
102
}
100
AcDbDictionary
281
1
  3
Model
350
449
  3
Layout1
350
44A
  0
ACDBPLACEHOLDER
  5
F
102
{ACAD_REACTORS
330
E
102
}
  0
MLINESTYLE
  5
18
102
{ACAD_REACTORS
330
17
102
}
100
AcDbMlineStyle
  2
STANDARD
 70
0
  3

 62
256
 51
90.0
 52
90.0
 71
2
 49
0.5
 62
256
  6
BYLAYER
 49
-0.5
 62
256
  6
BYLAYER
  0
LAYOUT
  5
449
102
{ACAD_REACTORS
330
1A
102
}
100
AcDbPlotSettings
  1

  2
none_device
  4
ISO_A4_(297.00_x_210.00_MM)
  6

 40
0.0
 41
0.0
 42
0.0
 43
0.0
 44
297.0
 45
210.0
 46
0.0
 47
0.0
 48
0.0
 49
0.0
140
0.0
141
0.0
142
1.0
143
1.0
 70
1024
 72
1
 73
0
 74
0
  7

 75
0
147
1.0
148
0.0
149
0.0
100
AcDbLayout
  1
Model
 70
0
 71
0
 10
0.0
 20
0.0
 11
297.0
 21
210.0
 12
0.0
 22
0.0
 32
0.0
 14
0.0
 24
0.0
 34
0.0
 15
0.0
 25
0.0
 35
0.0
146
0.0
 13
0.0
 23
0.0
 33
0.0
 16
1.0
 26
0.0
 36
0.0
 17
0.0
 27
1.0
 37
0.0
 76
0
330
212
345
0
346
0
  0
LAYOUT
  5
44A
102
{ACAD_REACTORS
330
1A
102
}
100
AcDbPlotSettings
  1

  2
none_device
  4
ISO_A4_(297.00_x_210.00_MM)
  6

 40
0.0
 41
0.0
 42
0.0
 43
0.0
 44
297.0
 45
210.0
 46
0.0
 47
0.0
 48
0.0
 49
0.0
140
0.0
141
0.0
142
1.0
143
1.0
 70
0
 72
1
 73
0
 74
0
  7

 75
0
147
1.0
148
0.0
149
0.0
100
AcDbLayout
  1
Layout1
 70
0
 71
1
 10
0.0
 20
0.0
 11
297.0
 21
210.0
 12
0.0
 22
0.0
 32
0.0
 14
0.0
 24
0.0
 34
0.0
 15
0.0
 25
0.0
 35
0.0
146
0.0
 13
0.0
 23
0.0
 33
0.0
 16
1.0
 26
0.0
 36
0.0
 17
0.0
 27
1.0
 37
0.0
 76
0
330
213
345
0
346
0
  0
ENDSEC
  0
EOF
