  0
SECTION
  2
HEADER
  9
$ACADVER
  1
AC1021
  9
$DWGCODEPAGE
  3
ANSI_1252
  9
$EXTMAX
 10
297.0
 20
210.0
 30
0.0
  9
$EXTMIN
 10
0.0
 20
0.0
 30
0.0
  9
$LIMMIN
 10
0.0
 20
0.0
  9
$LIMMAX
 10
297.0
 20
210.0
  9
$VIEWCTR
 10
148.5
 20
105.0
  9
$VIEWSIZE
 40
210.0
  9
$CLAYER
  8
0
  9
$LTSCALE
 40
16.335
  9
$CELTYPE
  6
BYLAYER
  9
$DIMSCALE
 40
1.0
  9
$DIMASZ
 40
3.0
  9
$DIMEXO
 40
0.5
  9
$DIMDLI
 40
11.286
  9
$DIMEXE
 40
1.5
  9
$DIMCEN
 40
2.673
  9
$DIMLFAC
 40
1.0
  9
$DIMBLK
  1
_FILLED
  9
$DIMALT
 70
0
  9
$DIMALTF
 40
0.0393700787
  9
$DIMTXT
 40
3.0
  9
$DIMTOL
 70
1
  9
$DIMLIM
 70
0
  9
$DIMTFAC
 40
1.0
  9
$DIMTP
 40
0.01
  9
$DIMTM
 40
0.01
  9
$DIMGAP
 40
0.625
  9
$DIMDSEP
 70
44
  9
$AUNITS
 70
0
  9
$PDMODE
 70
3
  9
$PDSIZE
 40
3.0
  9
$HANDSEED
  5
44B
  9
$TILEMODE
 70
1
  9
$MEASUREMENT
 70
1
  9
$INSUNITS
 70
4
  0
ENDSEC
  0
SECTION
  2
CLASSES
  0
CLASS
  1
ACDBDICTIONARYWDFLT
  2
AcDbDictionaryWithDefault
  3
AutoCAD 2000
 90
0
 91
1
280
0
281
0
  0
CLASS
  1
ACDBPLACEHOLDER
  2
AcDbPlaceHolder
  3
AutoCAD 2000
 90
0
 91
1
280
0
281
0
  0
CLASS
  1
LAYOUT
  2
AcDbLayout
  3
AutoCAD 2000
 90
0
 91
0
280
0
281
0
  0
ENDSEC
  0
SECTION
  2
TABLES
  0
TABLE
  2
VPORT
  5
8
100
AcDbSymbolTable
 70
2
  0
VPORT
  5
1F4
100
AcDbSymbolTableRecord
100
AcDbViewportTableRecord
  2
*ACTIVE
 70
0
 10
0.0
 20
0.0
 11
1.0
 21
1.0
 12
148.5
 22
105.0
 13
0.0
 23
0.0
 14
1.0
 24
1.0
 15
0.0
 25
0.0
 16
0.0
 26
0.0
 36
1.0
 17
0.0
 27
0.0
 37
0.0
 40
210.0
 41
1.4142857143
 42
50.0
 43
0.0
 44
0.0
 50
0.0
 51
0.0
 71
0
 72
100
 73
1
 74
1
 75
0
 76
0
 77
0
 78
0
  0
ENDTAB
  0
TABLE
  2
LTYPE
  5
5
100
AcDbSymbolTable
 70
6
  0
LTYPE
  5
14
100
AcDbSymbolTableRecord
100
AcDbLinetypeTableRecord
  2
BYBLOCK
 70
0
  3

 72
65
 73
0
 40
0.0
  0
LTYPE
  5
15
100
AcDbSymbolTableRecord
100
AcDbLinetypeTableRecord
  2
BYLAYER
 70
0
  3

 72
65
 73
0
 40
0.0
  0
LTYPE
  5
16
100
AcDbSymbolTableRecord
100
AcDbLinetypeTableRecord
  2
CONTINUOUS
 70
64
  3
Solid line
 72
65
 73
0
 40
0.0
  0
LTYPE
  5
1F5
100
AcDbSymbolTableRecord
100
AcDbLinetypeTableRecord
  2
CENTER
 70
64
  3
____ _ ____ _ ____ _ ____ _ ____ _ ____ _ ____
 72
65
 73
4
 40
0.6
 49
0.375
 74
0
 49
-0.075
 74
0
 49
0.075
 74
0
 49
-0.075
 74
0
  0
LTYPE
  5
1F6
100
AcDbSymbolTableRecord
100
AcDbLinetypeTableRecord
  2
HIDDEN
 70
64
  3
- - - - - - - - - - - - - - - - - - - -
 72
65
 73
2
 40
0.2
 49
0.1
 74
0
 49
-0.1
 74
0
  0
LTYPE
  5
1F7
100
AcDbSymbolTableRecord
100
AcDbLinetypeTableRecord
  2
PHANTOM
 70
64
  3
_____ _ _ _____ _ _ _____ _ _ _____
 72
65
 73
6
 40
0.8
 49
0.45
 74
0
 49
-0.05
 74
0
 49
0.1
 74
0
 49
-0.05
 74
0
 49
0.1
 74
0
 49
-0.05
 74
0
  0
LTYPE
  5
1F8
100
AcDbSymbolTableRecord
100
AcDbLinetypeTableRecord
  2
DOT
 70
64
  3
. . . . . . . . . . . . . . . . . . . .
 72
65
 73
2
 40
0.2
 49
0.1
 74
0
 49
-0.1
 74
0
  0
LTYPE
  5
1F9
100
AcDbSymbolTableRecord
100
AcDbLinetypeTableRecord
  2
DASHED
 70
64
  3
- - - - - - - - - - - - - - - - - - - -
 72
65
 73
2
 40
0.2
 49
0.1
 74
0
 49
-0.1
 74
0
  0
ENDTAB
  0
TABLE
  2
LAYER
  5
2
100
AcDbSymbolTable
 70
36
  0
LAYER
  5
10
100
AcDbSymbolTableRecord
100
AcDbLayerTableRecord
  2
0
 70
0
 62
7
  6
CONTINUOUS
370
-3
390
F
  0
LAYER
  5
1FA
100
AcDbSymbolTableRecord
100
AcDbLayerTableRecord
  2
DEFAULT_1
 70
0
 62
7
  6
CENTER
370
-3
390
F
  0
LAYER
  5
1FB
100
AcDbSymbolTableRecord
100
AcDbLayerTableRecord
  2
DEFAULT_2
 70
0
 62
7
  6
HIDDEN
370
-3
390
F
  0
LAYER
  5
1FC
100
AcDbSymbolTableRecord
100
AcDbLayerTableRecord
  2
DEFAULT_3
 70
0
 62
7
  6
PHANTOM
370
-3
390
F
  0
LAYER
  5
1FD
100
AcDbSymbolTableRecord
100
AcDbLayerTableRecord
  2
ASSI
 70
0
 62
7
  6
CONTINUOUS
370
-3
390
F
  0
LAYER
  5
1FE
100
AcDbSymbolTableRecord
100
AcDbLayerTableRecord
  2
COLORI
 70
0
 62
7
  6
CONTINUOUS
370
-3
390
F
  0
LAYER
  5
1FF
100
AcDbSymbolTableRecord
100
AcDbLayerTableRecord
  2
COORDINATE
 70
0
 62
7
  6
CONTINUOUS
370
-3
390
F
  0
LAYER
  5
200
100
AcDbSymbolTableRecord
100
AcDbLayerTableRecord
  2
COPY_PUBLISH
 70
0
 62
7
  6
CONTINUOUS
370
-3
390
F
  0
LAYER
  5
201
100
AcDbSymbolTableRecord
100
AcDbLayerTableRecord
  2
COSMETICI
 70
0
 62
7
  6
CONTINUOUS
370
-3
390
F
  0
LAYER
  5
202
100
AcDbSymbolTableRecord
100
AcDbLayerTableRecord
  2
CURVE
 70
0
 62
7
  6
CONTINUOUS
370
-3
390
F
  0
LAYER
  5
203
100
AcDbSymbolTableRecord
100
AcDbLayerTableRecord
  2
DRAFT
 70
0
 62
7
  6
CONTINUOUS
370
-3
390
F
  0
LAYER
  5
204
100
AcDbSymbolTableRecord
100
AcDbLayerTableRecord
  2
IMPORT_IGES
 70
0
 62
7
  6
CONTINUOUS
370
-3
390
F
  0
LAYER
  5
205
100
AcDbSymbolTableRecord
100
AcDbLayerTableRecord
  2
NOTE
 70
0
 62
7
  6
CONTINUOUS
370
-3
390
F
  0
LAYER
  5
206
100
AcDbSymbolTableRecord
100
AcDbLayerTableRecord
  2
PIANI
 70
0
 62
7
  6
CONTINUOUS
370
-3
390
F
  0
LAYER
  5
207
100
AcDbSymbolTableRecord
100
AcDbLayerTableRecord
  2
PUNTI
 70
0
 62
7
  6
CONTINUOUS
370
-3
390
F
  0
LAYER
  5
208
100
AcDbSymbolTableRecord
100
AcDbLayerTableRecord
  2
RACCORDO
 70
0
 62
7
  6
CONTINUOUS
370
-3
390
F
  0
LAYER
  5
209
100
AcDbSymbolTableRecord
100
AcDbLayerTableRecord
  2
SCRITTE
 70
0
 62
7
  6
CONTINUOUS
370
-3
390
F
  0
LAYER
  5
20A
100
AcDbSymbolTableRecord
100
AcDbLayerTableRecord
  2
SIMBOLI
 70
0
 62
7
  6
CONTINUOUS
370
-3
390
F
  0
LAYER
  5
20B
100
AcDbSymbolTableRecord
100
AcDbLayerTableRecord
  2
SMUSSO
 70
0
 62
7
  6
CONTINUOUS
370
-3
390
F
  0
LAYER
  5
20C
100
AcDbSymbolTableRecord
100
AcDbLayerTableRecord
  2
SNAPLINE
 70
0
 62
7
  6
CONTINUOUS
370
-3
390
F
  0
LAYER
  5
20D
100
AcDbSymbolTableRecord
100
AcDbLayerTableRecord
  2
SUPERFICI
 70
0
 62
7
  6
CONTINUOUS
370
-3
390
F
  0
LAYER
  5
20E
100
AcDbSymbolTableRecord
100
AcDbLayerTableRecord
  2
TRASH
 70
0
 62
7
  6
CONTINUOUS
370
-3
390
F
  0
LAYER
  5
20F
100
AcDbSymbolTableRecord
100
AcDbLayerTableRecord
  2
XSEC_DATUMS
 70
0
 62
7
  6
CONTINUOUS
370
-3
390
F
  0
ENDTAB
  0
TABLE
  2
STYLE
  5
3
100
AcDbSymbolTable
 70
1
  0
STYLE
  5
11
100
AcDbSymbolTableRecord
100
AcDbTextStyleTableRecord
  2
STANDARD
 70
0
 40
0.0
 41
0.8
 50
0.0
 71
0
 42
0.2
  3
txt
  4

  0
STYLE
  5
210
100
AcDbSymbolTableRecord
100
AcDbTextStyleTableRecord
  2
TEXTSTYLE_1
 70
0
 40
0.0
 41
0.8
 50
0.0
 71
0
 42
0.2
  3
gdt
  4

  0
ENDTAB
  0
TABLE
  2
VIEW
  5
6
100
AcDbSymbolTable
 70
0
  0
ENDTAB
  0
TABLE
  2
UCS
  5
7
100
AcDbSymbolTable
 70
0
  0
ENDTAB
  0
TABLE
  2
APPID
  5
9
100
AcDbSymbolTable
 70
1
  0
APPID
  5
211
100
AcDbSymbolTableRecord
100
AcDbRegAppTableRecord
  2
ACAD
 70
0
  0
ENDTAB
  0
TABLE
  2
BLOCK_RECORD
  5
1
100
AcDbSymbolTable
 70
0
  0
BLOCK_RECORD
  5
212
100
AcDbSymbolTableRecord
100
AcDbBlockTableRecord
  2
*Model_Space
  0
BLOCK_RECORD
  5
213
100
AcDbSymbolTableRecord
100
AcDbBlockTableRecord
  2
*Paper_Space
  0
ENDTAB
  0
TABLE
  2
DIMSTYLE
  5
A
100
AcDbSymbolTable
 70
1
100
AcDbDimStyleTable
 71
0
  0
DIMSTYLE
105
214
100
AcDbSymbolTableRecord
100
AcDbDimStyleTableRecord
  2
STANDARD
 70
0
  3

  4

 40
1.0
 41
3.0
 42
0.5
 43
0.38
 44
1.5
 45
0.0
 46
0.0
 47
0.01
 48
0.01
140
3.0
141
0.09
142
0.0
143
25.4
144
1.0
145
0.0
146
1.0
147
0.625
 71
1.0
 72
0.0
 73
0
 74
0
 75
0
 76
0
 77
1
 78
8
170
0
171
2
172
0
173
0
174
0
175
0
176
0
177
0
178
0
270
2
271
2
272
2
273
2
274
2
275
0
280
0
281
0
282
0
283
1
284
8
285
0
286
0
287
3
288
0
340
11
278
44
  0
ENDTAB
  0
ENDSEC
  0
SECTION
  2
BLOCKS
  0
BLOCK
  5
20
100
AcDbEntity
  8
0
100
AcDbBlockBegin
  2
*Model_Space
 70
0
 10
0.0
 20
0.0
 30
0.0
  3
*Model_Space
  1

  0
ENDBLK
  5
21
100
AcDbEntity
  8
0
100
AcDbBlockEnd
  0
BLOCK
  5
1C
100
AcDbEntity
  8
0
100
AcDbBlockBegin
  2
*Paper_Space
 70
0
 10
0.0
 20
0.0
 30
0.0
  3
*Paper_Space
  1

  0
ENDBLK
  5
1D
100
AcDbEntity
  8
0
100
AcDbBlockEnd
  0
ENDSEC
  0
SECTION
  2
ENTITIES
  0
LWPOLYLINE
  5
215
100
AcDbEntity
  8
RACCORDO
100
AcDbPolyline
 62
253
  6
CONTINUOUS
 90
10
 70
0
 10
-7.2820040204
 20
-1.0026009682
 10
-7.2827546388
 20
-0.9912400925
 10
-7.282991792
 20
-0.9802705698
 10
-7.2827606239
 20
-0.9696618657
 10
-7.2820882156
 20
-0.9594162062
 10
-7.2810009734
 20
-0.949544016
 10
-7.2795264378
 20
-0.9400276584
 10
-7.2776850341
 20
-0.9308639081
 10
-7.2754998494
 20
-0.9220638514
 10
-7.2747444211
 20
-0.9193691454
  0
LWPOLYLINE
  5
216
100
AcDbEntity
  8
RACCORDO
100
AcDbPolyline
 62
253
  6
CONTINUOUS
 90
16
 70
0
 10
-7.2762964624
 20
-1.0389661548
 10
-7.2686375722
 20
-1.17396042
 10
-7.257927375
 20
-1.3073524922
 10
-7.2441658707
 20
-1.4391423713
 10
-7.2273032234
 20
-1.5696359944
 10
-7.2073892691
 20
-1.6985274244
 10
-7.184573516
 20
-1.8248988501
 10
-7.1588671826
 20
-1.9486368831
 10
-7.1302590505
 20
-2.0698549117
 10
-7.0988649726
 20
-2.1879752896
 10
-7.0647979279
 20
-2.3027981074
 10
-7.0279449374
 20
-2.4145232745
 10
-6.9880829171
 20
-2.5231728728
 10
-6.9451375056
 20
-2.6287542629
 10
-6.8991830642
 20
-2.7312600843
 10
-6.8502195931
 20
-2.8306903368
  0
LWPOLYLINE
  5
217
100
AcDbEntity
  8
RACCORDO
100
AcDbPolyline
 62
7
  6
CONTINUOUS
 90
12
 70
0
 10
-7.2888508684
 20
-1.0443096354
 10
-7.2831974371
 20
-1.1493822053
 10
-7.2687402136
 20
-1.332612436
 10
-7.2485532822
 20
-1.5136305253
 10
-7.2226855294
 20
-1.6917126857
 10
-7.1912114933
 20
-1.8661350686
 10
-7.1542447481
 20
-2.036194192
 10
-7.111896212
 20
-2.2012013908
 10
-7.064297157
 20
-2.3604786599
 10
-7.011616208
 20
-2.5133921993
 10
-6.9540171503
 20
-2.6593213639
 10
-6.891671374
 20
-2.7976626608
  0
LWPOLYLINE
  5
218
100
AcDbEntity
  8
RACCORDO
100
AcDbPolyline
 62
7
  6
CONTINUOUS
 90
4
 70
0
 10
-7.2837607274
 20
-0.9591935097
 10
-7.2876297518
 20
-0.9892755814
 10
-7.2892280326
 20
-1.0204402238
 10
-7.2888519033
 20
-1.0443114247
  0
LWPOLYLINE
  5
219
100
AcDbEntity
  8
RACCORDO
100
AcDbPolyline
 62
253
  6
CONTINUOUS
 90
4
 70
0
 10
-6.8189507417
 20
-2.8793384946
 10
-6.8220905814
 20
-2.8942334905
 10
-6.8224821466
 20
-2.9087025884
 10
-6.8201135443
 20
-2.9223063222
  0
LWPOLYLINE
  5
21A
100
AcDbEntity
  8
RACCORDO
100
AcDbPolyline
 62
253
  6
CONTINUOUS
 90
6
 70
0
 10
-6.1673194306
 20
-3.5084620964
 10
-6.1702407366
 20
-3.52104652
 10
-6.1719332974
 20
-3.5328102375
 10
-6.1723601534
 20
-3.5434963725
 10
-6.1715119839
 20
-3.5528715788
 10
-6.1694073095
 20
-3.5607311363
  0
LWPOLYLINE
  5
21B
100
AcDbEntity
  8
RACCORDO
100
AcDbPolyline
 62
253
  6
CONTINUOUS
 90
10
 70
0
 10
-5.4597912244
 20
1.9858948209
 10
-5.455829298
 20
2.0024155802
 10
-5.4493461311
 20
2.0184103801
 10
-5.4405377576
 20
2.0333955885
 10
-5.4296705185
 20
2.0469181008
 10
-5.4170730068
 20
2.0585690419
 10
-5.4031261305
 20
2.0679961287
 10
-5.3882515987
 20
2.0749143183
 10
-5.3728991704
 20
2.0791144287
 10
-5.3575330537
 20
2.0804694643
  0
LWPOLYLINE
  5
21C
100
AcDbEntity
  8
RACCORDO
100
AcDbPolyline
 62
7
  6
CONTINUOUS
 90
10
 70
0
 10
-6.390452421
 20
-0.4566706149
 10
-6.4092889877
 20
-0.5287647734
 10
-6.4250289225
 20
-0.6026312012
 10
-6.4376722255
 20
-0.6782698982
 10
-6.4472538624
 20
-0.7562300186
 10
-6.4537388674
 20
-0.8359624082
 10
-6.4570223436
 20
-0.915819605
 10
-6.4570693254
 20
-0.995252455
 10
-6.4539147783
 20
-1.0748101123
 10
-6.4475587025
 20
-1.1544925767
  0
LWPOLYLINE
  5
21D
100
AcDbEntity
  8
ASSI
100
AcDbPolyline
 62
7
  6
CONTINUOUS
 90
10
 70
0
 10
-6.390452421
 20
-0.4566706149
 10
-6.4092889877
 20
-0.5287647734
 10
-6.4250289225
 20
-0.6026312012
 10
-6.4376722255
 20
-0.6782698982
 10
-6.4472538624
 20
-0.7562300186
 10
-6.4537388674
 20
-0.8359624082
 10
-6.4570223436
 20
-0.915819605
 10
-6.4570693254
 20
-0.995252455
 10
-6.4539147783
 20
-1.0748101123
 10
-6.4475587025
 20
-1.1544925767
  0
LWPOLYLINE
  5
21E
100
AcDbEntity
  8
RACCORDO
100
AcDbPolyline
 62
7
  6
CONTINUOUS
 90
3
 70
0
 10
-7.274744839
 20
-0.9193706306
 10
-7.2777933494
 20
-0.9306652096
 10
-7.2837607274
 20
-0.9591935097
  0
LINE
  5
21F
100
AcDbEntity
  8
RACCORDO
100
AcDbLine
 62
7
  6
CONTINUOUS
 10
-7.2747444211
 20
-0.9193691454
 11
-6.4724934656
 21
1.8597097803
  0
LINE
  5
220
100
AcDbEntity
  8
RACCORDO
100
AcDbLine
 62
253
  6
CONTINUOUS
 10
-7.2762964624
 20
-1.0389661548
 11
-6.4359889547
 21
1.8719444402
  0
LINE
  5
221
100
AcDbEntity
  8
RACCORDO
100
AcDbLine
 62
7
  6
CONTINUOUS
 10
-6.7842233838
 20
-0.5097540743
 11
-6.4236682563
 21
0.7392455253
  0
LINE
  5
222
100
AcDbEntity
  8
RACCORDO
100
AcDbLine
 62
7
  6
CONTINUOUS
 10
-6.390452421
 20
-0.4566706149
 11
-6.0894125565
 21
0.5861620659
  0
LINE
  5
223
100
AcDbEntity
  8
ASSI
100
AcDbLine
 62
7
  6
CONTINUOUS
 10
-6.390452421
 20
-0.4566706149
 11
-6.0894125565
 21
0.5861620659
  0
LINE
  5
224
100
AcDbEntity
  8
RACCORDO
100
AcDbLine
 62
7
  6
CONTINUOUS
 10
-6.4475587025
 20
-1.1544925767
 11
-5.8157999241
 21
1.0339840277
  0
LINE
  5
225
100
AcDbEntity
  8
ASSI
100
AcDbLine
 62
7
  6
CONTINUOUS
 10
-6.4475587025
 20
-1.1544925767
 11
-5.8157999241
 21
1.0339840277
  0
LINE
  5
226
100
AcDbEntity
  8
RACCORDO
100
AcDbLine
 62
253
  6
CONTINUOUS
 10
-6.5093086363
 20
-3.2567757694
 11
-6.2861327613
 21
-2.4836718602
  0
LINE
  5
227
100
AcDbEntity
  8
RACCORDO
100
AcDbLine
 62
253
  6
CONTINUOUS
 10
-5.3342477045
 20
0.8137547023
 11
-5.1110718295
 21
1.5868586116
  0
LINE
  5
228
100
AcDbEntity
  8
RACCORDO
100
AcDbLine
 62
253
  6
CONTINUOUS
 10
-4.9920326947
 20
0.5628505838
 11
-4.7731715249
 21
1.3211060815
  0
LINE
  5
229
100
AcDbEntity
  8
RACCORDO
100
AcDbLine
 62
253
  6
CONTINUOUS
 10
-6.1673016821
 20
-3.5084712773
 11
-5.9484338341
 21
-2.750220148
  0
LWPOLYLINE
  5
22A
100
AcDbEntity
  8
RACCORDO
100
AcDbPolyline
 62
253
  6
CONTINUOUS
 90
13
 70
0
 10
-6.4724846482
 20
1.8597398329
 10
-6.4724191641
 20
1.8599332642
 10
-6.4718088557
 20
1.8609735546
 10
-6.4707401657
 20
1.8620285623
 10
-6.4691871651
 20
1.8631041033
 10
-6.4671252041
 20
1.8642008769
 10
-6.4645300423
 20
1.8652979522
 10
-6.4613774773
 20
1.8664039464
 10
-6.4576383337
 20
1.8675235432
 10
-6.4532678898
 20
1.868630038
 10
-6.4482236363
 20
1.869721256
 10
-6.4424774733
 20
1.8708213262
 10
-6.4359983946
 20
1.8719452243
  0
LINE
  5
22B
100
AcDbEntity
  8
RACCORDO
100
AcDbLine
 62
7
  6
CONTINUOUS
 10
-6.4647449801
 20
1.880568763
 11
-6.472486913
 21
1.8597362867
  0
LINE
  5
22C
100
AcDbEntity
  8
RACCORDO
100
AcDbLine
 62
253
  6
CONTINUOUS
 10
-6.8201135443
 20
-2.9223063222
 11
-6.8150567156
 21
-2.9346315091
  0
LWPOLYLINE
  5
22D
100
AcDbEntity
  8
RACCORDO
100
AcDbPolyline
 62
253
  6
CONTINUOUS
 90
4
 70
0
 10
-7.2762960893
 20
-1.0389648622
 10
-7.278804704
 20
-1.026483084
 10
-7.2806968383
 20
-1.014356931
 10
-7.2820040204
 20
-1.0026009682
  0
LINE
  5
22E
100
AcDbEntity
  8
ASSI
100
AcDbLine
 62
7
  6
CONTINUOUS
 10
-4.7478654109
 20
0.4365484161
 11
-5.546592513
 21
-2.3303234284
  0
LWPOLYLINE
  5
22F
100
AcDbEntity
  8
RACCORDO
100
AcDbPolyline
 62
253
  6
CONTINUOUS
 90
5
 70
0
 10
-6.850219593
 20
-2.8306903368
 10
-6.8547088734
 20
-2.8434458637
 10
-6.8564213848
 20
-2.8558420514
 10
-6.8553053469
 20
-2.8675040824
 10
-6.8515618017
 20
-2.8777614038
  0
LWPOLYLINE
  5
230
100
AcDbEntity
  8
RACCORDO
100
AcDbPolyline
 62
253
  6
CONTINUOUS
 90
10
 70
0
 10
-5.4237006752
 20
1.9539495143
 10
-5.4181610621
 20
1.9691209842
 10
-5.4101367817
 20
1.9838051284
 10
-5.399871564
 20
1.9975559488
 10
-5.3876772028
 20
2.0099557962
 10
-5.3739240802
 20
2.0206280605
 10
-5.3590299149
 20
2.0292486063
 10
-5.3434470827
 20
2.0355556109
 10
-5.3276488779
 20
2.0393575194
 10
-5.3121151324
 20
2.0405388647
  0
LWPOLYLINE
  5
231
100
AcDbEntity
  8
RACCORDO
100
AcDbPolyline
 62
253
  6
CONTINUOUS
 90
6
 70
0
 10
-6.8502195931
 20
-2.8306903368
 10
-6.8453714142
 20
-2.839683122
 10
-6.8403779168
 20
-2.8483220037
 10
-6.8352391009
 20
-2.8566069817
 10
-6.8299549664
 20
-2.8645380563
 10
-6.8245255133
 20
-2.8721152272
  0
LINE
  5
232
100
AcDbEntity
  8
RACCORDO
100
AcDbLine
 62
253
  6
CONTINUOUS
 10
-6.1694073095
 20
-3.5607311363
 11
-6.1660920887
 21
-3.566903421
  0
LWPOLYLINE
  5
233
100
AcDbEntity
  8
RACCORDO
100
AcDbPolyline
 62
7
  6
CONTINUOUS
 90
4
 70
0
 10
-6.8515618017
 20
-2.8777614038
 10
-6.8487507726
 20
-2.8830730964
 10
-6.8372283329
 20
-2.9032144635
 10
-6.8249812337
 20
-2.9221160578
  0
LINE
  5
234
100
AcDbEntity
  8
RACCORDO
100
AcDbLine
 62
7
  6
CONTINUOUS
 10
-6.8515618017
 20
-2.8777614038
 11
-6.8515417582
 21
-2.8777998478
  0
LINE
  5
235
100
AcDbEntity
  8
RACCORDO
100
AcDbLine
 62
7
  6
CONTINUOUS
 10
-6.891671374
 20
-2.7976626608
 11
-6.8515437348
 21
-2.877800881
  0
LINE
  5
236
100
AcDbEntity
  8
RACCORDO
100
AcDbLine
 62
7
  6
CONTINUOUS
 10
-6.8095861701
 20
-2.9428133765
 11
-6.5843513808
 21
-3.2233770308
  0
LINE
  5
237
100
AcDbEntity
  8
RACCORDO
100
AcDbLine
 62
253
  6
CONTINUOUS
 10
-6.8189507417
 20
-2.8793384946
 11
-6.5942478484
 21
-3.1592395928
  0
LINE
  5
238
100
AcDbEntity
  8
RACCORDO
100
AcDbLine
 62
7
  6
CONTINUOUS
 10
-6.8119977544
 20
-2.9397748565
 11
-6.8095824926
 21
-2.9428188044
  0
LINE
  5
239
100
AcDbEntity
  8
RACCORDO
100
AcDbLine
 62
253
  6
CONTINUOUS
 10
-6.8245255133
 20
-2.8721152272
 11
-6.8189507417
 21
-2.8793384946
  0
LINE
  5
23A
100
AcDbEntity
  8
RACCORDO
100
AcDbLine
 62
7
  6
CONTINUOUS
 10
-6.8249812337
 20
-2.9221160578
 11
-6.8119977544
 21
-2.9397748565
  0
LWPOLYLINE
  5
23B
100
AcDbEntity
  8
RACCORDO
100
AcDbPolyline
 62
253
  6
CONTINUOUS
 90
6
 70
0
 10
-6.4975092459
 20
-3.3231680244
 10
-6.504467272
 20
-3.3132083717
 10
-6.5097378602
 20
-3.3006312668
 10
-6.512340439
 20
-3.2867476438
 10
-6.5121959
 20
-3.2719795128
 10
-6.5093086363
 20
-3.2567757694
  0
LWPOLYLINE
  5
23C
100
AcDbEntity
  8
RACCORDO
100
AcDbPolyline
 62
7
  6
CONTINUOUS
 90
6
 70
0
 10
-6.584351775
 20
-3.2233765398
 10
-6.5898870583
 20
-3.215116687
 10
-6.5950474615
 20
-3.2026652947
 10
-6.5975275021
 20
-3.1889237887
 10
-6.5972572027
 20
-3.1743020187
 10
-6.5942478484
 20
-3.1592395928
  0
LINE
  5
23D
100
AcDbEntity
  8
RACCORDO
100
AcDbLine
 62
253
  6
CONTINUOUS
 10
-6.8150567156
 20
-2.9346315091
 11
-6.8095861701
 21
-2.9428133765
  0
LWPOLYLINE
  5
23E
100
AcDbEntity
  8
RACCORDO
100
AcDbPolyline
 62
253
  6
CONTINUOUS
 90
6
 70
0
 10
5.6758213601
 20
3.720488533
 10
5.6731298692
 20
3.7080729351
 10
5.6730863458
 20
3.6789957521
 10
5.6812179078
 20
3.6482739974
 10
5.6973870534
 20
3.6164275056
 10
5.7213202695
 20
3.5839951611
  0
LWPOLYLINE
  5
23F
100
AcDbEntity
  8
ASSI
100
AcDbPolyline
 62
253
  6
CONTINUOUS
 90
6
 70
0
 10
5.6758213601
 20
3.720488533
 10
5.6731298692
 20
3.7080729351
 10
5.6730863458
 20
3.6789957521
 10
5.6812179078
 20
3.6482739974
 10
5.6973870534
 20
3.6164275056
 10
5.7213202695
 20
3.5839951611
  0
LINE
  5
240
100
AcDbEntity
  8
RACCORDO
100
AcDbLine
 62
7
  6
CONTINUOUS
 10
5.2411508525
 20
2.2147457255
 11
5.6758213601
 21
3.720488533
  0
LINE
  5
241
100
AcDbEntity
  8
ASSI
100
AcDbLine
 62
7
  6
CONTINUOUS
 10
5.2411508525
 20
2.2147457255
 11
5.6758213601
 21
3.720488533
  0
LINE
  5
242
100
AcDbEntity
  8
RACCORDO
100
AcDbLine
 62
253
  6
CONTINUOUS
 10
5.3260520044
 20
2.2147457255
 11
5.7213202712
 21
3.5839951667
  0
LINE
  5
243
100
AcDbEntity
  8
ASSI
100
AcDbLine
 62
253
  6
CONTINUOUS
 10
5.3260520044
 20
2.2147457255
 11
5.7213202712
 21
3.5839951667
  0
LINE
  5
244
100
AcDbEntity
  8
RACCORDO
100
AcDbLine
 62
7
  6
CONTINUOUS
 10
6.9970724559
 20
1.7762193965
 11
7.0727591204
 21
2.0384056932
  0
LWPOLYLINE
  5
245
100
AcDbEntity
  8
RACCORDO
100
AcDbPolyline
 62
253
  6
CONTINUOUS
 90
19
 70
0
 10
5.7213202712
 20
3.5839951667
 10
5.7362153822
 20
3.6294608078
 10
5.7549652432
 20
3.6745642251
 10
5.7774273808
 20
3.718961943
 10
5.8034311745
 20
3.7623157283
 10
5.8327787688
 20
3.8042956385
 10
5.865246583
 20
3.8445825317
 10
5.9005875786
 20
3.8828697792
 10
5.9385329635
 20
3.9188658593
 10
5.9787938613
 20
3.9522970427
 10
6.0210638263
 20
3.9829090916
 10
6.0650212693
 20
4.0104688564
 10
6.1103317242
 20
4.0347663326
 10
6.1566501918
 20
4.0556167518
 10
6.2036241905
 20
4.0728615671
 10
6.2508965313
 20
4.0863693214
 10
6.2981074564
 20
4.0960372809
 10
6.344897376
 20
4.1017922288
 10
6.3909100165
 20
4.1035906236
  0
LWPOLYLINE
  5
246
100
AcDbEntity
  8
ASSI
100
AcDbPolyline
 62
253
  6
CONTINUOUS
 90
19
 70
0
 10
5.7213202712
 20
3.5839951667
 10
5.7362153822
 20
3.6294608078
 10
5.7549652432
 20
3.6745642251
 10
5.7774273808
 20
3.718961943
 10
5.8034311745
 20
3.7623157283
 10
5.8327787688
 20
3.8042956385
 10
5.865246583
 20
3.8445825317
 10
5.9005875786
 20
3.8828697792
 10
5.9385329635
 20
3.9188658593
 10
5.9787938613
 20
3.9522970427
 10
6.0210638263
 20
3.9829090916
 10
6.0650212693
 20
4.0104688564
 10
6.1103317242
 20
4.0347663326
 10
6.1566501918
 20
4.0556167518
 10
6.2036241905
 20
4.0728615671
 10
6.2508965313
 20
4.0863693214
 10
6.2981074564
 20
4.0960372809
 10
6.344897376
 20
4.1017922288
 10
6.3909100165
 20
4.1035906236
  0
LWPOLYLINE
  5
247
100
AcDbEntity
  8
RACCORDO
100
AcDbPolyline
 62
253
  6
CONTINUOUS
 90
7
 70
0
 10
-4.73315122
 20
1.396948932
 10
-4.7415416322
 20
1.385540353
 10
-4.7494572335
 20
1.3732703717
 10
-4.7567251749
 20
1.3604069217
 10
-4.76318675
 20
1.3472308958
 10
-4.7687008607
 20
1.3340300123
 10
-4.7731470982
 20
1.3210925322
  0
LWPOLYLINE
  5
248
100
AcDbEntity
  8
RACCORDO
100
AcDbPolyline
 62
7
  6
CONTINUOUS
 90
7
 70
0
 10
-6.4975024757
 20
-3.3231621671
 10
-6.4595624595
 20
-3.3634714292
 10
-6.4180399471
 20
-3.4018252178
 10
-6.3725105021
 20
-3.4389804546
 10
-6.3232385106
 20
-3.474900538
 10
-6.270439843
 20
-3.5095467499
 10
-6.2144175601
 20
-3.5428070728
  0
LINE
  5
249
100
AcDbEntity
  8
RACCORDO
100
AcDbLine
 62
253
  6
CONTINUOUS
 10
-6.4792064842
 20
-3.2892525603
 11
-6.5093086363
 21
-3.2567757694
  0
LINE
  5
24A
100
AcDbEntity
  8
ASSI
100
AcDbLine
 62
7
  6
CONTINUOUS
 10
-4.7684167795
 20
-3.2050572046
 11
-5.5177859155
 21
-2.3638721458
  0
LINE
  5
24B
100
AcDbEntity
  8
RACCORDO
100
AcDbLine
 62
7
  6
CONTINUOUS
 10
-6.4973761963
 20
-3.3233213406
 11
-6.5828733936
 21
-3.2251444264
  0
LINE
  5
24C
100
AcDbEntity
  8
RACCORDO
100
AcDbLine
 62
253
  6
CONTINUOUS
 10
-6.5093086363
 20
-3.2567757694
 11
-6.5942478484
 21
-3.1592395928
  0
LINE
  5
24D
100
AcDbEntity
  8
RACCORDO
100
AcDbLine
 62
7
  6
CONTINUOUS
 10
-6.5828734583
 20
-3.2251443458
 11
-6.584351775
 21
-3.2233765398
  0
LINE
  5
24E
100
AcDbEntity
  8
RACCORDO
100
AcDbLine
 62
7
  6
CONTINUOUS
 10
-6.2861327613
 20
-2.4836718602
 11
-6.3823072408
 21
-2.3638721458
  0
LWPOLYLINE
  5
24F
100
AcDbEntity
  8
RACCORDO
100
AcDbPolyline
 62
253
  6
CONTINUOUS
 90
12
 70
0
 10
7.013573609
 20
-5.0438240075
 10
7.0031624769
 20
-5.0897828005
 10
6.9967218225
 20
-5.1353267298
 10
6.9942996213
 20
-5.1801087863
 10
6.9959128417
 20
-5.2237872611
 10
7.0015490654
 20
-5.2660301652
 10
7.0111666124
 20
-5.3065177466
 10
7.024692221
 20
-5.3449421842
 10
7.0420224781
 20
-5.3810108821
 10
7.0630263974
 20
-5.4144504946
 10
7.0875449684
 20
-5.4450074952
 10
7.0993616725
 20
-5.4574408749
  0
LWPOLYLINE
  5
250
100
AcDbEntity
  8
RACCORDO
100
AcDbPolyline
 62
253
  6
CONTINUOUS
 90
19
 70
0
 10
7.6552729195
 20
-5.2850991333
 10
7.6534215758
 20
-5.2926628594
 10
7.6522491612
 20
-5.3000815666
 10
7.6517556757
 20
-5.3073552548
 10
7.6519445873
 20
-5.3145443508
 10
7.6528124279
 20
-5.3215884279
 10
7.6543487945
 20
-5.328306206
 10
7.6565731545
 20
-5.3346853607
 10
7.6594660403
 20
-5.3407382164
 10
7.6629586461
 20
-5.3463204667
 10
7.6670644605
 20
-5.3514177749
 10
7.6717699948
 20
-5.3560444778
 10
7.6769659778
 20
-5.360099279
 10
7.6826672753
 20
-5.3635694
 10
7.6888590215
 20
-5.3664676193
 10
7.6953873472
 20
-5.3687309768
 10
7.702200963
 20
-5.3703384856
 10
7.7093511583
 20
-5.3713111326
 10
7.7168379333
 20
-5.3716489178
  0
LWPOLYLINE
  5
251
100
AcDbEntity
  8
RACCORDO
100
AcDbPolyline
 62
253
  6
CONTINUOUS
 90
13
 70
0
 10
9.3111298739
 20
0.1511403688
 10
9.3253138084
 20
0.2084541351
 10
9.3357240569
 20
0.2689202481
 10
9.3421902652
 20
0.3315496081
 10
9.3446065954
 20
0.3953176996
 10
9.3429334588
 20
0.4591813587
 10
9.3371981649
 20
0.5220958379
 10
9.3274944745
 20
0.5830318973
 10
9.313981076
 20
0.6409926064
 10
9.2968789982
 20
0.6950296687
 10
9.2764679847
 20
0.7442589858
 10
9.2530819111
 20
0.787875115
 10
9.2271033362
 20
0.8251644168
  0
LINE
  5
252
100
AcDbEntity
  8
RACCORDO
100
AcDbLine
 62
253
  6
CONTINUOUS
 10
8.5709977797
 20
1.8971979303
 11
8.5599234639
 21
1.858835375
  0
LINE
  5
253
100
AcDbEntity
  8
ASSI
100
AcDbLine
 62
253
  6
CONTINUOUS
 10
8.5709977797
 20
1.8971979303
 11
8.5599234639
 21
1.858835375
  0
LINE
  5
254
100
AcDbEntity
  8
RACCORDO
100
AcDbLine
 62
253
  6
CONTINUOUS
 10
8.5578960083
 20
0.3058657101
 11
7.013573609
 21
-5.0438240075
  0
LINE
  5
255
100
AcDbEntity
  8
RACCORDO
100
AcDbLine
 62
253
  6
CONTINUOUS
 10
9.1995953188
 20
0.0645905843
 11
7.6552729195
 21
-5.2850991333
  0
LWPOLYLINE
  5
256
100
AcDbEntity
  8
RACCORDO
100
AcDbPolyline
 62
253
  6
CONTINUOUS
 90
10
 70
0
 10
7.7168379333
 20
-5.3716489178
 10
7.6991117815
 20
-5.4248744605
 10
7.6781337254
 20
-5.4731394465
 10
7.6542469512
 20
-5.5156542946
 10
7.6278422298
 20
-5.5517234917
 10
7.5993515239
 20
-5.5807569712
 10
7.5692409213
 20
-5.6022797657
 10
7.5380030104
 20
-5.6159397775
 10
7.5061488214
 20
-5.6215135383
 10
7.5003315823
 20
-5.6216489178
  0
LWPOLYLINE
  5
257
100
AcDbEntity
  8
RACCORDO
100
AcDbPolyline
 62
253
  6
CONTINUOUS
 90
7
 70
0
 10
-6.4155988209
 20
1.9453483925
 10
-6.4197676502
 20
1.9412291398
 10
-6.4280244882
 20
1.9300862403
 10
-6.4339124444
 20
1.9171821623
 10
-6.4372557662
 20
1.90290193
 10
-6.4379546125
 20
1.8876717151
 10
-6.4359880774
 20
1.8719460246
  0
LWPOLYLINE
  5
258
100
AcDbEntity
  8
RACCORDO
100
AcDbPolyline
 62
7
  6
CONTINUOUS
 90
5
 70
0
 10
-6.4155357153
 20
1.9454072415
 10
-6.4283756698
 20
1.9329716495
 10
-6.4428242749
 20
1.9163202673
 10
-6.4549202585
 20
1.8989500091
 10
-6.4647449801
 20
1.880568763
  0
LINE
  5
259
100
AcDbEntity
  8
RACCORDO
100
AcDbLine
 62
7
  6
CONTINUOUS
 10
-6.4155346774
 20
1.9454061007
 11
-6.4155988209
 21
1.9453483925
  0
LINE
  5
25A
100
AcDbEntity
  8
RACCORDO
100
AcDbLine
 62
253
  6
CONTINUOUS
 10
-6.3882776464
 20
1.9122739685
 11
-6.4359889547
 21
1.8719444402
  0
LWPOLYLINE
  5
25B
100
AcDbEntity
  8
RACCORDO
100
AcDbPolyline
 62
253
  6
CONTINUOUS
 90
3
 70
0
 10
-6.4113971597
 20
-3.3508682165
 10
-6.4464161209
 20
-3.3206566206
 10
-6.4792064842
 20
-3.2892525603
  0
LINE
  5
25C
100
AcDbEntity
  8
RACCORDO
100
AcDbLine
 62
7
  6
CONTINUOUS
 10
-4.6425487924
 20
1.2971998843
 11
-4.6286700761
 21
1.282845834
  0
LINE
  5
25D
100
AcDbEntity
  8
RACCORDO
100
AcDbLine
 62
7
  6
CONTINUOUS
 10
-4.6555420911
 20
1.3108033817
 11
-4.6425487924
 21
1.2971998843
  0
LINE
  5
25E
100
AcDbEntity
  8
RACCORDO
100
AcDbLine
 62
7
  6
CONTINUOUS
 10
-4.6677535944
 20
1.3237405939
 11
-4.6555420911
 21
1.3108033817
  0
LINE
  5
25F
100
AcDbEntity
  8
RACCORDO
100
AcDbLine
 62
7
  6
CONTINUOUS
 10
-4.6792762406
 20
1.3361008526
 11
-4.6677535944
 21
1.3237405939
  0
LINE
  5
260
100
AcDbEntity
  8
RACCORDO
100
AcDbLine
 62
7
  6
CONTINUOUS
 10
-4.6901683901
 20
1.3479460731
 11
-4.6792762406
 21
1.3361008526
  0
LWPOLYLINE
  5
261
100
AcDbEntity
  8
RACCORDO
100
AcDbPolyline
 62
253
  6
CONTINUOUS
 90
7
 70
0
 10
-5.3121182605
 20
2.0405424309
 10
-5.319387404
 20
2.0485002941
 10
-5.3267884157
 20
2.0559479378
 10
-5.3343125998
 20
2.0628766958
 10
-5.3419511165
 20
2.069278494
 10
-5.3496949924
 20
2.0751458601
 10
-5.3575351303
 20
2.0804719325
  0
LWPOLYLINE
  5
262
100
AcDbEntity
  8
RACCORDO
100
AcDbPolyline
 62
253
  6
CONTINUOUS
 90
7
 70
0
 10
-5.4237006752
 20
1.9539495143
 10
-5.4295128527
 20
1.9603503836
 10
-5.4354061958
 20
1.9663205923
 10
-5.4413807045
 20
1.9718601404
 10
-5.4474363789
 20
1.9769690278
 10
-5.4535732188
 20
1.9816472547
 10
-5.4597912244
 20
1.9858948209
  0
LINE
  5
263
100
AcDbEntity
  8
RACCORDO
100
AcDbLine
 62
7
  6
CONTINUOUS
 10
-4.7005174326
 20
1.359365675
 11
-4.6901683901
 21
1.3479460731
  0
LINE
  5
264
100
AcDbEntity
  8
RACCORDO
100
AcDbLine
 62
7
  6
CONTINUOUS
 10
-5.4324519304
 20
0.9265231691
 11
-5.3342477045
 21
0.8137547023
  0
LINE
  5
265
100
AcDbEntity
  8
RACCORDO
100
AcDbLine
 62
253
  6
CONTINUOUS
 10
-5.1942554648
 20
1.6904762844
 11
-5.4237006752
 21
1.9539495143
  0
LINE
  5
266
100
AcDbEntity
  8
RACCORDO
100
AcDbLine
 62
253
  6
CONTINUOUS
 10
-5.0819329769
 20
1.7762193965
 11
-5.312118238
 21
2.0405424309
  0
LINE
  5
267
100
AcDbEntity
  8
RACCORDO
100
AcDbLine
 62
7
  6
CONTINUOUS
 10
-4.2158943831
 20
1.7762193965
 11
-4.4233058116
 21
2.0143911104
  0
LINE
  5
268
100
AcDbEntity
  8
ASSI
100
AcDbLine
 62
7
  6
CONTINUOUS
 10
-4.2158943831
 20
1.7762193965
 11
-4.4233058116
 21
2.0143911104
  0
LWPOLYLINE
  5
269
100
AcDbEntity
  8
RACCORDO
100
AcDbPolyline
 62
253
  6
CONTINUOUS
 90
10
 70
0
 10
-5.1110718295
 20
1.5868586116
 10
-5.0842999693
 20
1.5556241584
 10
-5.0547311887
 20
1.5248090004
 10
-5.0225707344
 20
1.4945174452
 10
-4.9884106103
 20
1.46515883
 10
-4.9521279852
 20
1.4365007179
 10
-4.9126170947
 20
1.4077140857
 10
-4.8694022638
 20
1.3786335485
 10
-4.8229072406
 20
1.3497122018
 10
-4.7731715312
 20
1.321106059
  0
LWPOLYLINE
  5
26A
100
AcDbEntity
  8
RACCORDO
100
AcDbPolyline
 62
253
  6
CONTINUOUS
 90
10
 70
0
 10
-4.997974864
 20
1.6717027213
 10
-4.977843306
 20
1.648033299
 10
-4.9561994703
 20
1.6247563955
 10
-4.9330433571
 20
1.6018720108
 10
-4.9084751273
 20
1.5794698769
 10
-4.8823946199
 20
1.5574602617
 10
-4.8545013517
 20
1.5355739692
 10
-4.8246951614
 20
1.5137212672
 10
-4.7930762103
 20
1.4919918877
 10
-4.7596444983
 20
1.4703858309
  0
LWPOLYLINE
  5
26B
100
AcDbEntity
  8
RACCORDO
100
AcDbPolyline
 62
7
  6
CONTINUOUS
 90
7
 70
0
 10
-4.7331511676
 20
1.3969487337
 10
-4.7288291578
 20
1.391788396
 10
-4.724392988
 20
1.3865592292
 10
-4.7198428872
 20
1.3812608286
 10
-4.7151788995
 20
1.3758945224
 10
-4.7104014445
 20
1.3704581755
 10
-4.7005174326
 20
1.359365675
  0
LINE
  5
26C
100
AcDbEntity
  8
RACCORDO
100
AcDbLine
 62
253
  6
CONTINUOUS
 10
-5.1942554648
 20
1.6904762844
 11
-5.1110718295
 21
1.5868586116
  0
LINE
  5
26D
100
AcDbEntity
  8
RACCORDO
100
AcDbLine
 62
253
  6
CONTINUOUS
 10
-5.0818802129
 20
1.7762193965
 11
-4.997974864
 21
1.6717027213
  0
LINE
  5
26E
100
AcDbEntity
  8
0
100
AcDbLine
 62
7
  6
CONTINUOUS
 10
15.8792355749
 20
-2.2620254596
 11
16.0012822412
 21
-3.6756214057
  0
LINE
  5
26F
100
AcDbEntity
  8
0
100
AcDbLine
 62
7
  6
CONTINUOUS
 10
16.2484551279
 20
-2.6377094099
 11
16.1549610397
 21
-1.5156440967
  0
LINE
  5
270
100
AcDbEntity
  8
0
100
AcDbLine
 62
7
  6
CONTINUOUS
 10
16.3134070332
 20
-2.7127094099
 11
16.2132589556
 21
-1.510786527
  0
LINE
  5
271
100
AcDbEntity
  8
0
100
AcDbLine
 62
7
  6
CONTINUOUS
 10
12.9230448493
 20
-1.510786527
 11
12.9844056709
 21
-3.6756214057
  0
LINE
  5
272
100
AcDbEntity
  8
0
100
AcDbLine
 62
7
  6
CONTINUOUS
 10
13.3314756663
 20
-2.9259096739
 11
13.3480993541
 21
-1.510786527
  0
LINE
  5
273
100
AcDbEntity
  8
0
100
AcDbLine
 62
7
  6
CONTINUOUS
 10
13.3964275716
 20
-3.0009096739
 11
13.4139322969
 21
-1.510786527
  0
LINE
  5
274
100
AcDbEntity
  8
RACCORDO
100
AcDbLine
 62
7
  6
CONTINUOUS
 10
15.1790683107
 20
1.7623409897
 11
15.1458227868
 21
1.6471751166
  0
LINE
  5
275
100
AcDbEntity
  8
ASSI
100
AcDbLine
 62
7
  6
CONTINUOUS
 10
15.1790683107
 20
1.7623409897
 11
15.1458227868
 21
1.6471751166
  0
LINE
  5
276
100
AcDbEntity
  8
RACCORDO
100
AcDbLine
 62
253
  6
CONTINUOUS
 10
15.5215004881
 20
1.4644939112
 11
15.4663080026
 21
1.273301533
  0
LINE
  5
277
100
AcDbEntity
  8
ASSI
100
AcDbLine
 62
253
  6
CONTINUOUS
 10
15.5215004881
 20
1.4644939112
 11
15.4663080026
 21
1.273301533
  0
LINE
  5
278
100
AcDbEntity
  8
0
100
AcDbLine
 62
7
  6
CONTINUOUS
 10
14.8711623278
 20
-1.5106566232
 11
14.2461908278
 21
-3.6756214057
  0
LINE
  5
279
100
AcDbEntity
  8
RACCORDO
100
AcDbLine
 62
253
  6
CONTINUOUS
 10
-6.341576248
 20
1.9484721007
 11
-6.3882776464
 21
1.9122739685
  0
LWPOLYLINE
  5
27A
100
AcDbEntity
  8
RACCORDO
100
AcDbPolyline
 62
7
  6
CONTINUOUS
 90
10
 70
0
 10
-5.8157999241
 20
1.0339840277
 10
-5.8534814813
 20
1.0051518419
 10
-5.8895082309
 20
0.970836849
 10
-5.9238801731
 20
0.9310390492
 10
-5.9568176155
 20
0.8854233032
 10
-5.9881002504
 20
0.8343247502
 10
-6.0170671544
 20
0.7787488082
 10
-6.0434980194
 20
0.7190306164
 10
-6.0676131535
 20
0.6548350357
 10
-6.0894125565
 20
0.5861620659
  0
LWPOLYLINE
  5
27B
100
AcDbEntity
  8
ASSI
100
AcDbPolyline
 62
7
  6
CONTINUOUS
 90
10
 70
0
 10
-5.8157999241
 20
1.0339840277
 10
-5.8534814813
 20
1.0051518419
 10
-5.8895082309
 20
0.970836849
 10
-5.9238801731
 20
0.9310390492
 10
-5.9568176155
 20
0.8854233032
 10
-5.9881002504
 20
0.8343247502
 10
-6.0170671544
 20
0.7787488082
 10
-6.0434980194
 20
0.7190306164
 10
-6.0676131535
 20
0.6548350357
 10
-6.0894125565
 20
0.5861620659
  0
LWPOLYLINE
  5
27C
100
AcDbEntity
  8
RACCORDO
100
AcDbPolyline
 62
7
  6
CONTINUOUS
 90
4
 70
0
 10
-4.5718704507
 20
1.2257291653
 10
-4.5625264728
 20
1.2165846596
 10
-4.5528189679
 20
1.2071699456
 10
-4.5323665199
 20
1.1875328509
  0
LINE
  5
27D
100
AcDbEntity
  8
RACCORDO
100
AcDbLine
 62
7
  6
CONTINUOUS
 10
-4.5895556099
 20
1.2432424853
 11
-4.5718704507
 21
1.2257291653
  0
LINE
  5
27E
100
AcDbEntity
  8
RACCORDO
100
AcDbLine
 62
7
  6
CONTINUOUS
 10
-4.6060224797
 20
1.2597664053
 11
-4.5895556099
 21
1.2432424853
  0
LWPOLYLINE
  5
27F
100
AcDbEntity
  8
RACCORDO
100
AcDbPolyline
 62
7
  6
CONTINUOUS
 90
3
 70
0
 10
-4.6286700761
 20
1.282845834
 10
-4.6213874556
 20
1.2753741688
 10
-4.6060224797
 20
1.2597664053
  0
LINE
  5
280
100
AcDbEntity
  8
RACCORDO
100
AcDbLine
 62
7
  6
CONTINUOUS
 10
-4.5574050502
 20
2.0405388647
 11
-4.3476268317
 21
1.8230155246
  0
LINE
  5
281
100
AcDbEntity
  8
SCRITTE
100
AcDbLine
 62
253
  6
CONTINUOUS
 10
10.5585203982
 20
2.1562948383
 11
10.2956582082
 21
2.8457140734
  0
LWPOLYLINE
  5
282
100
AcDbEntity
  8
0
100
AcDbPolyline
 62
7
  6
CONTINUOUS
 90
6
 70
0
 10
20.2548818666
 20
-3.0191724712
 10
20.2584426539
 20
-3.0872286802
 10
20.2610670148
 20
-3.1566096066
 10
20.2627549494
 20
-3.2273152504
 10
20.2631448866
 20
-3.2994843879
 10
20.2622001955
 20
-3.4473804859
  0
LINE
  5
283
100
AcDbEntity
  8
0
100
AcDbLine
 62
7
  6
CONTINUOUS
 10
18.923264078
 20
-3.6006214057
 11
18.8853552132
 21
-1.5119402965
  0
LINE
  5
284
100
AcDbEntity
  8
0
100
AcDbLine
 62
7
  6
CONTINUOUS
 10
18.9882159832
 20
-3.6756214057
 11
18.948924953
 21
-1.510786527
  0
LINE
  5
285
100
AcDbEntity
  8
0
100
AcDbLine
 62
7
  6
CONTINUOUS
 10
20.2622001955
 20
-3.4473804859
 11
20.2629800253
 21
-3.6756212158
  0
LINE
  5
286
100
AcDbEntity
  8
0
100
AcDbLine
 62
7
  6
CONTINUOUS
 10
18.5196436586
 20
-3.2434435523
 11
18.5119470445
 21
-3.6756214057
  0
LINE
  5
287
100
AcDbEntity
  8
0
100
AcDbLine
 62
7
  6
CONTINUOUS
 10
18.5501457524
 20
-2.1056281999
 11
18.5258725295
 21
-2.9090261106
  0
LINE
  5
288
100
AcDbEntity
  8
0
100
AcDbLine
 62
7
  6
CONTINUOUS
 10
17.0719052806
 20
-3.6006214057
 11
17.4797659399
 21
-1.510786527
  0
LINE
  5
289
100
AcDbEntity
  8
0
100
AcDbLine
 62
7
  6
CONTINUOUS
 10
17.1368571859
 20
-3.6756214057
 11
17.5593551497
 21
-1.510786527
  0
LINE
  5
28A
100
AcDbEntity
  8
0
100
AcDbLine
 62
7
  6
CONTINUOUS
 10
17.0083203991
 20
-2.2679178965
 11
16.6947927865
 21
-3.6756214057
  0
LINE
  5
28B
100
AcDbEntity
  8
0
100
AcDbLine
 62
7
  6
CONTINUOUS
 10
14.633124916
 20
-3.6006214057
 11
15.2364457809
 21
-1.5106566232
  0
LINE
  5
28C
100
AcDbEntity
  8
0
100
AcDbLine
 62
7
  6
CONTINUOUS
 10
14.6980768213
 20
-3.6756214057
 11
15.3230483213
 21
-1.5106566232
  0
LINE
  5
28D
100
AcDbEntity
  8
RACCORDO
100
AcDbLine
 62
253
  6
CONTINUOUS
 10
16.1259437388
 20
1.2547833005
 11
16.0428613835
 21
0.9669775794
  0
LINE
  5
28E
100
AcDbEntity
  8
ASSI
100
AcDbLine
 62
253
  6
CONTINUOUS
 10
16.1259437388
 20
1.2547833005
 11
16.0428613835
 21
0.9669775794
  0
LINE
  5
28F
100
AcDbEntity
  8
RACCORDO
100
AcDbLine
 62
253
  6
CONTINUOUS
 10
17.7820537894
 20
0.9669775794
 11
17.8651361447
 21
1.2547833005
  0
LINE
  5
290
100
AcDbEntity
  8
ASSI
100
AcDbLine
 62
253
  6
CONTINUOUS
 10
17.7820537894
 20
0.9669775794
 11
17.8651361447
 21
1.2547833005
  0
LINE
  5
291
100
AcDbEntity
  8
DRAFT
100
AcDbLine
 62
7
  6
CONTINUOUS
 10
18.0823155535
 20
1.7623409897
 11
18.0367822665
 21
1.6046090566
  0
LINE
  5
292
100
AcDbEntity
  8
RACCORDO
100
AcDbLine
 62
7
  6
CONTINUOUS
 10
18.0341117427
 20
1.0373563048
 11
18.1295000142
 21
1.3677909702
  0
LINE
  5
293
100
AcDbEntity
  8
ASSI
100
AcDbLine
 62
7
  6
CONTINUOUS
 10
18.0341117427
 20
1.0373563048
 11
18.1295000142
 21
1.3677909702
  0
LINE
  5
294
100
AcDbEntity
  8
RACCORDO
100
AcDbLine
 62
253
  6
CONTINUOUS
 10
18.519297402
 20
0.9819624345
 11
18.5592893785
 21
1.1204987049
  0
LINE
  5
295
100
AcDbEntity
  8
0
100
AcDbLine
 62
7
  6
CONTINUOUS
 10
15.3086966111
 20
-3.6006214057
 11
15.8142836696
 21
-2.1870254596
  0
LINE
  5
296
100
AcDbEntity
  8
0
100
AcDbLine
 62
7
  6
CONTINUOUS
 10
15.3736485164
 20
-3.6756214057
 11
15.8792355749
 21
-2.2620254596
  0
LINE
  5
297
100
AcDbEntity
  8
0
100
AcDbLine
 62
7
  6
CONTINUOUS
 10
15.7617470851
 20
-1.510786527
 11
14.9413407592
 21
-3.6756214057
  0
LINE
  5
298
100
AcDbEntity
  8
0
100
AcDbLine
 62
7
  6
CONTINUOUS
 10
14.2518517122
 20
-1.510786527
 11
13.3964275716
 21
-3.0009096739
  0
LINE
  5
299
100
AcDbEntity
  8
0
100
AcDbLine
 62
7
  6
CONTINUOUS
 10
13.317678227
 20
-3.6006214057
 11
14.5927179984
 21
-1.510786527
  0
LINE
  5
29A
100
AcDbEntity
  8
0
100
AcDbLine
 62
7
  6
CONTINUOUS
 10
13.3826301323
 20
-3.6756214057
 11
14.7034285346
 21
-1.510786527
  0
LWPOLYLINE
  5
29B
100
AcDbEntity
  8
RACCORDO
100
AcDbPolyline
 62
253
  6
CONTINUOUS
 90
5
 70
0
 10
-6.2553811315
 20
-3.4594419584
 10
-6.2972177335
 20
-3.433509283
 10
-6.3370046512
 20
-3.4069309209
 10
-6.3748710089
 20
-3.3795760157
 10
-6.4113971597
 20
-3.3508682165
  0
LWPOLYLINE
  5
29C
100
AcDbEntity
  8
RACCORDO
100
AcDbPolyline
 62
7
  6
CONTINUOUS
 90
11
 70
0
 10
7.0992886342
 20
-5.4573493242
 10
7.1182003827
 20
-5.4753580152
 10
7.1567986407
 20
-5.5073854695
 10
7.1982898193
 20
-5.5359356023
 10
7.2423463136
 20
-5.5607176797
 10
7.2887165708
 20
-5.5815357704
 10
7.3370242837
 20
-5.5981830252
 10
7.3868016938
 20
-5.6104695875
 10
7.4377215351
 20
-5.6182788744
 10
7.4894289903
 20
-5.6215271205
 10
7.5001341775
 20
-5.6216271056
  0
LINE
  5
29D
100
AcDbEntity
  8
RACCORDO
100
AcDbLine
 62
7
  6
CONTINUOUS
 10
5.5543853431
 20
-3.9197569054
 11
7.0998838626
 21
-5.4579617482
  0
LINE
  5
29E
100
AcDbEntity
  8
RACCORDO
100
AcDbLine
 62
253
  6
CONTINUOUS
 10
5.6485619718
 20
-3.6852542745
 11
7.013573609
 21
-5.0438240075
  0
LINE
  5
29F
100
AcDbEntity
  8
DRAFT
100
AcDbLine
 62
7
  6
CONTINUOUS
 10
7.2695240792
 20
1.4703858309
 11
6.9970724559
 21
1.7762193965
  0
LINE
  5
2A0
100
AcDbEntity
  8
RACCORDO
100
AcDbLine
 62
7
  6
CONTINUOUS
 10
6.8426481165
 20
2.0143911104
 11
7.0110012204
 21
1.8244700523
  0
LINE
  5
2A1
100
AcDbEntity
  8
ASSI
100
AcDbLine
 62
7
  6
CONTINUOUS
 10
6.8426481165
 20
2.0143911104
 11
7.0110012204
 21
1.8244700523
  0
LINE
  5
2A2
100
AcDbEntity
  8
RACCORDO
100
AcDbLine
 62
253
  6
CONTINUOUS
 10
7.0674861035
 20
2.0338266072
 11
5.7213202712
 21
3.5839951667
  0
LINE
  5
2A3
100
AcDbEntity
  8
ASSI
100
AcDbLine
 62
253
  6
CONTINUOUS
 10
7.0674861035
 20
2.0338266072
 11
5.7213202712
 21
3.5839951667
  0
LINE
  5
2A4
100
AcDbEntity
  8
RACCORDO
100
AcDbLine
 62
253
  6
CONTINUOUS
 10
8.5578960083
 20
0.3058657101
 11
7.0727591204
 21
2.0384056932
  0
LINE
  5
2A5
100
AcDbEntity
  8
RACCORDO
100
AcDbLine
 62
253
  6
CONTINUOUS
 10
9.227103339
 20
0.8251644168
 11
7.7419664511
 21
2.5577043999
  0
LINE
  5
2A6
100
AcDbEntity
  8
SCRITTE
100
AcDbLine
 62
253
  6
CONTINUOUS
 10
21.5859108942
 20
2.1562948383
 11
21.5841655387
 21
2.550248684
  0
LINE
  5
2A7
100
AcDbEntity
  8
0
100
AcDbLine
 62
7
  6
CONTINUOUS
 10
20.6430143011
 20
-3.2129877142
 11
20.6473514599
 21
-3.0146923749
  0
LINE
  5
2A8
100
AcDbEntity
  8
0
100
AcDbLine
 62
7
  6
CONTINUOUS
 10
20.7079692011
 20
-3.2878734605
 11
20.7123033651
 21
-3.0896923749
  0
LINE
  5
2A9
100
AcDbEntity
  8
0
100
AcDbLine
 62
7
  6
CONTINUOUS
 10
20.6326898194
 20
-3.6006212158
 11
20.6430143011
 21
-3.2129877142
  0
LINE
  5
2AA
100
AcDbEntity
  8
0
100
AcDbLine
 62
7
  6
CONTINUOUS
 10
20.6976417247
 20
-3.6756212158
 11
20.7079692011
 21
-3.2878734605
  0
LWPOLYLINE
  5
2AB
100
AcDbEntity
  8
0
100
AcDbPolyline
 62
7
  6
CONTINUOUS
 90
11
 70
0
 10
20.7123033651
 20
-3.0896923749
 10
20.7141519422
 20
-3.0396105899
 10
20.713868196
 20
-2.9916337354
 10
20.7114521267
 20
-2.9457618114
 10
20.7071238136
 20
-2.9016488994
 10
20.7006631774
 20
-2.8596409179
 10
20.6914099796
 20
-2.8207756218
 10
20.6792006219
 20
-2.7850493029
 10
20.6641987027
 20
-2.7524656694
 10
20.6462347786
 20
-2.7240736015
 10
20.6361956336
 20
-2.7117172689
  0
LWPOLYLINE
  5
2AC
100
AcDbEntity
  8
0
100
AcDbPolyline
 62
7
  6
CONTINUOUS
 90
7
 70
0
 10
20.6473514599
 20
-3.0146923749
 10
20.6493234742
 20
-2.9658497078
 10
20.6490793441
 20
-2.9184962772
 10
20.6466190697
 20
-2.8726320833
 10
20.6421538044
 20
-2.8275855125
 10
20.6354723948
 20
-2.7840281783
 10
20.6259413801
 20
-2.7439749211
  0
LWPOLYLINE
  5
2AD
100
AcDbEntity
  8
RACCORDO
100
AcDbPolyline
 62
253
  6
CONTINUOUS
 90
8
 70
0
 10
21.7542427619
 20
-4.2079878242
 10
21.7469648768
 20
-4.2422069653
 10
21.7442156762
 20
-4.2757960591
 10
21.7460421813
 20
-4.3081806095
 10
21.7524131524
 20
-4.3388067224
 10
21.7632196225
 20
-4.3671505794
 10
21.7782767615
 20
-4.3927273971
 10
21.7924124537
 20
-4.4100497465
  0
LWPOLYLINE
  5
2AE
100
AcDbEntity
  8
RACCORDO
100
AcDbPolyline
 62
253
  6
CONTINUOUS
 90
10
 70
0
 10
22.5470134151
 20
-0.9245016591
 10
22.5397132394
 20
-0.9557330619
 10
22.5352033083
 20
-0.9890079416
 10
22.5336176486
 20
-1.0233375646
 10
22.5350033958
 20
-1.0577018548
 10
22.5393193914
 20
-1.0910796783
 10
22.5464373976
 20
-1.1224791906
 10
22.5561459116
 20
-1.1509673443
 10
22.5681564567
 20
-1.1756976122
 10
22.582112148
 20
-1.1959351192
  0
LWPOLYLINE
  5
2AF
100
AcDbEntity
  8
RACCORDO
100
AcDbPolyline
 62
253
  6
CONTINUOUS
 90
10
 70
0
 10
22.8875616326
 20
-0.9245016591
 10
22.8802614139
 20
-0.9557332986
 10
22.8757514878
 20
-0.9890083694
 10
22.8741658653
 20
-1.0233381128
 10
22.8755516626
 20
-1.0577024306
 10
22.8798677013
 20
-1.0910801974
 10
22.8869857316
 20
-1.1224796027
 10
22.8966942432
 20
-1.1509676227
 10
22.9087047507
 20
-1.1756977442
 10
22.9226603654
 20
-1.1959351192
  0
LWPOLYLINE
  5
2B0
100
AcDbEntity
  8
RACCORDO
100
AcDbPolyline
 62
253
  6
CONTINUOUS
 90
19
 70
0
 10
21.2657778987
 20
-3.863060138
 10
21.2564819607
 20
-3.9013548779
 10
21.2506139669
 20
-3.9387942898
 10
21.2481739173
 20
-3.9753783738
 10
21.2492022842
 20
-4.0113814713
 10
21.2536585953
 20
-4.0465292409
 10
21.2614214337
 20
-4.0799986582
 10
21.2725622112
 20
-4.1117309461
 10
21.287009516
 20
-4.1417848816
 10
21.3044276956
 20
-4.1695137717
 10
21.3248736572
 20
-4.1948675791
 10
21.3482904935
 20
-4.217896341
 10
21.3741718304
 20
-4.238103476
 10
21.4025880591
 20
-4.2554379778
 10
21.4334687884
 20
-4.2699508526
 10
21.4660964708
 20
-4.2812985375
 10
21.5002319237
 20
-4.2893665115
 10
21.5361143297
 20
-4.2942692957
 10
21.5737436888
 20
-4.2960068899
  0
LWPOLYLINE
  5
2B1
100
AcDbEntity
  8
RACCORDO
100
AcDbPolyline
 62
253
  6
CONTINUOUS
 90
19
 70
0
 10
23.1955274226
 20
-1.357448411
 10
23.2048233606
 20
-1.3191536711
 10
23.2106913544
 20
-1.2817142592
 10
23.213131404
 20
-1.2451301752
 10
23.2121030371
 20
-1.2091270777
 10
23.207646726
 20
-1.1739793081
 10
23.1998838876
 20
-1.1405098908
 10
23.1887431101
 20
-1.1087776029
 10
23.1742958053
 20
-1.0787236674
 10
23.1568776257
 20
-1.0509947773
 10
23.1364316642
 20
-1.0256409699
 10
23.1130148278
 20
-1.002612208
 10
23.0871334909
 20
-0.982405073
 10
23.0587172622
 20
-0.9650705712
 10
23.0278365329
 20
-0.9505576964
 10
22.9952088506
 20
-0.9392100115
 10
22.9610733976
 20
-0.9311420375
 10
22.9251909916
 20
-0.9262392533
 10
22.8875616326
 20
-0.9245016591
  0
LWPOLYLINE
  5
2B2
100
AcDbEntity
  8
RACCORDO
100
AcDbPolyline
 62
253
  6
CONTINUOUS
 90
13
 70
0
 10
22.8605153676
 20
-1.8651385858
 10
22.86894794
 20
-1.8311221216
 10
22.8751993472
 20
-1.7949977347
 10
22.8791214487
 20
-1.7573197223
 10
22.8806015573
 20
-1.7186025701
 10
22.879553533
 20
-1.679569622
 10
22.8759764442
 20
-1.6411372459
 10
22.869945303
 20
-1.6040331005
 10
22.8615567092
 20
-1.5688051703
 10
22.850956305
 20
-1.536061601
 10
22.8383268034
 20
-1.5063571145
 10
22.8238820165
 20
-1.4801864937
 10
22.8078672682
 20
-1.4579883955
  0
LWPOLYLINE
  5
2B3
100
AcDbEntity
  8
RACCORDO
100
AcDbPolyline
 62
253
  6
CONTINUOUS
 90
12
 70
0
 10
21.5240496489
 20
-3.9613083231
 10
21.5183644788
 20
-3.9838153
 10
21.5147172625
 20
-4.0061668282
 10
21.5131333232
 20
-4.0281903547
 10
21.513621296
 20
-4.0497167138
 10
21.5161772196
 20
-4.070579573
 10
21.5207826098
 20
-4.0906174573
 10
21.5273988715
 20
-4.109675076
 10
21.5359727709
 20
-4.1276107378
 10
21.5464414771
 20
-4.144294934
 10
21.5587246253
 20
-4.1596003307
 10
21.5603395332
 20
-4.161363835
  0
LINE
  5
2B4
100
AcDbEntity
  8
0
100
AcDbLine
 62
7
  6
CONTINUOUS
 10
19.7385440756
 20
-1.5360791554
 11
19.1209114833
 21
-3.6756212158
  0
LINE
  5
2B5
100
AcDbEntity
  8
0
100
AcDbLine
 62
7
  6
CONTINUOUS
 10
19.8379570337
 20
-2.398876991
 11
20.0095135718
 21
-1.8045877103
  0
LINE
  5
2B6
100
AcDbEntity
  8
0
100
AcDbLine
 62
7
  6
CONTINUOUS
 10
19.506027214
 20
-3.6006212158
 11
19.7505918188
 21
-2.7534245732
  0
LINE
  5
2B7
100
AcDbEntity
  8
0
100
AcDbLine
 62
7
  6
CONTINUOUS
 10
19.902908939
 20
-2.473876991
 11
20.0744654771
 21
-1.8795877103
  0
LINE
  5
2B8
100
AcDbEntity
  8
0
100
AcDbLine
 62
7
  6
CONTINUOUS
 10
19.5709791193
 20
-3.6756212158
 11
19.8155437241
 21
-2.8284245732
  0
LINE
  5
2B9
100
AcDbEntity
  8
0
100
AcDbLine
 62
7
  6
CONTINUOUS
 10
20.5094496282
 20
-2.590095671
 11
20.5131424426
 21
-2.5773033864
  0
LINE
  5
2BA
100
AcDbEntity
  8
0
100
AcDbLine
 62
7
  6
CONTINUOUS
 10
20.5744015334
 20
-2.665095671
 11
20.5780943479
 21
-2.6523033864
  0
LINE
  5
2BB
100
AcDbEntity
  8
RACCORDO
100
AcDbLine
 62
253
  6
CONTINUOUS
 10
21.9890857012
 20
-1.357448411
 11
21.2657778987
 21
-3.863060138
  0
LINE
  5
2BC
100
AcDbEntity
  8
RACCORDO
100
AcDbLine
 62
253
  6
CONTINUOUS
 10
22.2473749272
 20
-1.4556359407
 11
21.5240496229
 21
-3.9613082953
  0
LINE
  5
2BD
100
AcDbEntity
  8
RACCORDO
100
AcDbLine
 62
253
  6
CONTINUOUS
 10
22.4731106399
 20
-1.7177564467
 11
21.7542427619
 21
-4.2079878242
  0
LINE
  5
2BE
100
AcDbEntity
  8
RACCORDO
100
AcDbLine
 62
253
  6
CONTINUOUS
 10
22.8605153676
 20
-1.8651385858
 11
22.1416474895
 21
-4.3553699632
  0
LWPOLYLINE
  5
2BF
100
AcDbEntity
  8
0
100
AcDbPolyline
 62
7
  6
CONTINUOUS
 90
16
 70
0
 10
20.6092965355
 20
-2.1374626345
 10
20.5945496101
 20
-2.1803930903
 10
20.5770527879
 20
-2.2208267332
 10
20.5568060688
 20
-2.2587635632
 10
20.5335168277
 20
-2.2945491363
 10
20.5074776898
 20
-2.3278378964
 10
20.4795665301
 20
-2.3575931763
 10
20.4499206035
 20
-2.3834330268
 10
20.4184026551
 20
-2.405739397
 10
20.3854787948
 20
-2.4246214668
 10
20.3512372245
 20
-2.4398321085
 10
20.3155897423
 20
-2.4516184498
 10
20.2787378526
 20
-2.4608310525
 10
20.2407487233
 20
-2.4677534372
 10
20.2015551864
 20
-2.4721020834
 10
20.161157242
 20
-2.473876991
  0
LINE
  5
2C0
100
AcDbEntity
  8
0
100
AcDbLine
 62
7
  6
CONTINUOUS
 10
18.028271653
 20
-2.8340261106
 11
18.4851938471
 21
-2.0306281999
  0
LINE
  5
2C1
100
AcDbEntity
  8
0
100
AcDbLine
 62
7
  6
CONTINUOUS
 10
18.0932235583
 20
-2.9090261106
 11
18.5501457524
 21
-2.1056281999
  0
LINE
  5
2C2
100
AcDbEntity
  8
0
100
AcDbLine
 62
7
  6
CONTINUOUS
 10
17.5898464958
 20
-3.6006214057
 11
17.8392984315
 21
-3.1684435523
  0
LINE
  5
2C3
100
AcDbEntity
  8
0
100
AcDbLine
 62
7
  6
CONTINUOUS
 10
17.6547984011
 20
-3.6756214057
 11
17.9042503368
 21
-3.2434435523
  0
LWPOLYLINE
  5
2C4
100
AcDbEntity
  8
RACCORDO
100
AcDbPolyline
 62
253
  6
CONTINUOUS
 90
5
 70
0
 10
18.030377899
 20
1.0268937855
 10
18.017434873
 20
1.0050647012
 10
17.9981862603
 20
0.985472919
 10
17.9729173424
 20
0.9684245386
 10
17.9697793594
 20
0.9669775794
  0
LWPOLYLINE
  5
2C5
100
AcDbEntity
  8
ASSI
100
AcDbPolyline
 62
253
  6
CONTINUOUS
 90
5
 70
0
 10
18.030377899
 20
1.0268937855
 10
18.017434873
 20
1.0050647012
 10
17.9981862603
 20
0.985472919
 10
17.9729173424
 20
0.9684245386
 10
17.9697793594
 20
0.9669775794
  0
LINE
  5
2C6
100
AcDbEntity
  8
0
100
AcDbLine
 62
7
  6
CONTINUOUS
 10
18.5117795779
 20
-1.510786527
 11
17.2078158434
 21
-3.6756214057
  0
LINE
  5
2C7
100
AcDbEntity
  8
0
100
AcDbLine
 62
7
  6
CONTINUOUS
 10
17.1122582767
 20
-1.510786527
 11
16.3134070332
 21
-2.7127094099
  0
LINE
  5
2C8
100
AcDbEntity
  8
0
100
AcDbLine
 62
7
  6
CONTINUOUS
 10
15.999707807
 20
-3.6006214057
 11
16.9433684938
 21
-2.1929178965
  0
LINE
  5
2C9
100
AcDbEntity
  8
0
100
AcDbLine
 62
7
  6
CONTINUOUS
 10
16.0646597123
 20
-3.6756214057
 11
17.0083203991
 21
-2.2679178965
  0
LWPOLYLINE
  5
2CA
100
AcDbEntity
  8
RACCORDO
100
AcDbPolyline
 62
7
  6
CONTINUOUS
 90
4
 70
0
 10
18.0008243453
 20
0.9669775794
 10
18.0067151614
 20
0.9752258734
 10
18.023495723
 20
1.0076590212
 10
18.0340715386
 20
1.037217016
  0
LWPOLYLINE
  5
2CB
100
AcDbEntity
  8
ASSI
100
AcDbPolyline
 62
7
  6
CONTINUOUS
 90
4
 70
0
 10
18.0008243453
 20
0.9669775794
 10
18.0067151614
 20
0.9752258734
 10
18.023495723
 20
1.0076590212
 10
18.0340715386
 20
1.037217016
  0
LINE
  5
2CC
100
AcDbEntity
  8
SCRITTE
100
AcDbLine
 62
253
  6
CONTINUOUS
 10
14.4267674771
 20
2.1562948383
 11
14.5129335967
 21
2.2547832946
  0
LINE
  5
2CD
100
AcDbEntity
  8
RACCORDO
100
AcDbLine
 62
253
  6
CONTINUOUS
 10
-5.9242759732
 20
-3.6341829344
 11
-6.1673016821
 21
-3.5084712773
  0
LWPOLYLINE
  5
2CE
100
AcDbEntity
  8
RACCORDO
100
AcDbPolyline
 62
253
  6
CONTINUOUS
 90
3
 70
0
 10
-6.1673016869
 20
-3.5084712945
 10
-6.2120071865
 20
-3.4844490927
 10
-6.2553811315
 20
-3.4594419584
  0
LINE
  5
2CF
100
AcDbEntity
  8
RACCORDO
100
AcDbLine
 62
7
  6
CONTINUOUS
 10
-5.9484338341
 20
-2.750220148
 11
-5.1284563645
 21
-3.2050572046
  0
LINE
  5
2D0
100
AcDbEntity
  8
RACCORDO
100
AcDbLine
 62
7
  6
CONTINUOUS
 10
-6.2144175601
 20
-3.5428070728
 11
-6.1962939918
 21
-3.5529015858
  0
LWPOLYLINE
  5
2D1
100
AcDbEntity
  8
RACCORDO
100
AcDbPolyline
 62
253
  6
CONTINUOUS
 90
23
 70
0
 10
-5.4597912244
 20
1.9858948209
 10
-5.4993277141
 20
2.0099383773
 10
-5.5387865334
 20
2.0314601085
 10
-5.5781676821
 20
2.0504600147
 10
-5.6174243871
 20
2.0668799044
 10
-5.6566034215
 20
2.080777969
 10
-5.695845105
 20
2.0923287825
 10
-5.7353447032
 20
2.101568559
 10
-5.7749069505
 20
2.1084610844
 10
-5.814086369
 20
2.1130722907
 10
-5.8526120963
 20
2.1153863975
 10
-5.890754995
 20
2.1154191851
 10
-5.9288821746
 20
2.1132839259
 10
-5.9668633986
 20
2.1091376095
 10
-6.0048289035
 20
2.1028232464
 10
-6.0435365094
 20
2.0939831403
 10
-6.083127606
 20
2.0827442694
 10
-6.1234608036
 20
2.0689796556
 10
-6.1648697527
 20
2.0519506685
 10
-6.2074876173
 20
2.0317001055
 10
-6.2511812334
 20
2.0081851692
 10
-6.2958847594
 20
1.9805388368
 10
-6.341576248
 20
1.9484721007
  0
LWPOLYLINE
  5
2D2
100
AcDbEntity
  8
RACCORDO
100
AcDbPolyline
 62
253
  6
CONTINUOUS
 90
12
 70
0
 10
-5.3575351199
 20
2.0804719325
 10
-5.3984542521
 20
2.1054528619
 10
-5.4393727938
 20
2.1277214368
 10
-5.4802451525
 20
2.1473246278
 10
-5.5209365116
 20
2.1642771549
 10
-5.5614948707
 20
2.1786763112
 10
-5.6021556636
 20
2.1906482996
 10
-5.6430986815
 20
2.2002450763
 10
-5.6840745141
 20
2.2074072632
 10
-5.7246767343
 20
2.2121145642
 10
-5.7645824943
 20
2.2144374147
 10
-5.7833184706
 20
2.2147427363
  0
LINE
  5
2D3
100
AcDbEntity
  8
RACCORDO
100
AcDbLine
 62
7
  6
CONTINUOUS
 10
8.3181674363
 20
2.1408645855
 11
8.5709977797
 21
1.8971979303
  0
LINE
  5
2D4
100
AcDbEntity
  8
ASSI
100
AcDbLine
 62
7
  6
CONTINUOUS
 10
8.3181674363
 20
2.1408645855
 11
8.5709977797
 21
1.8971979303
  0
LINE
  5
2D5
100
AcDbEntity
  8
SCRITTE
100
AcDbLine
 62
253
  6
CONTINUOUS
 10
11.2513415472
 20
2.1562948383
 11
10.6420693608
 21
2.8457140734
  0
LINE
  5
2D6
100
AcDbEntity
  8
SCRITTE
100
AcDbLine
 62
253
  6
CONTINUOUS
 10
11.8575593298
 20
2.1562948383
 11
11.2482871435
 21
2.8457140734
  0
LINE
  5
2D7
100
AcDbEntity
  8
SCRITTE
100
AcDbLine
 62
253
  6
CONTINUOUS
 10
12.4060411495
 20
2.1562948383
 11
11.7967689632
 21
2.8457140734
  0
LINE
  5
2D8
100
AcDbEntity
  8
RACCORDO
100
AcDbLine
 62
253
  6
CONTINUOUS
 10
7.7337513429
 20
2.5572503774
 11
6.3909100165
 21
4.1035906236
  0
LINE
  5
2D9
100
AcDbEntity
  8
ASSI
100
AcDbLine
 62
253
  6
CONTINUOUS
 10
7.7337513429
 20
2.5572503774
 11
6.3909100165
 21
4.1035906236
  0
LINE
  5
2DA
100
AcDbEntity
  8
0
100
AcDbLine
 62
7
  6
CONTINUOUS
 10
13.3826301323
 20
-3.6756214057
 11
13.317678227
 21
-3.6006214057
  0
LINE
  5
2DB
100
AcDbEntity
  8
0
100
AcDbLine
 62
7
  6
CONTINUOUS
 10
13.3964275716
 20
-3.0009096739
 11
13.3314756663
 21
-2.9259096739
  0
LINE
  5
2DC
100
AcDbEntity
  8
0
100
AcDbLine
 62
7
  6
CONTINUOUS
 10
14.6980768213
 20
-3.6756214057
 11
14.633124916
 21
-3.6006214057
  0
LINE
  5
2DD
100
AcDbEntity
  8
0
100
AcDbLine
 62
7
  6
CONTINUOUS
 10
15.3736485164
 20
-3.6756214057
 11
15.3086966111
 21
-3.6006214057
  0
LINE
  5
2DE
100
AcDbEntity
  8
0
100
AcDbLine
 62
7
  6
CONTINUOUS
 10
16.0646597123
 20
-3.6756214057
 11
15.999707807
 21
-3.6006214057
  0
LINE
  5
2DF
100
AcDbEntity
  8
0
100
AcDbLine
 62
7
  6
CONTINUOUS
 10
15.8792355749
 20
-2.2620254596
 11
15.8142836696
 21
-2.1870254596
  0
LINE
  5
2E0
100
AcDbEntity
  8
0
100
AcDbLine
 62
7
  6
CONTINUOUS
 10
17.1368571859
 20
-3.6756214057
 11
17.0719052806
 21
-3.6006214057
  0
LINE
  5
2E1
100
AcDbEntity
  8
0
100
AcDbLine
 62
7
  6
CONTINUOUS
 10
16.3134070332
 20
-2.7127094099
 11
16.2484551279
 21
-2.6377094099
  0
LINE
  5
2E2
100
AcDbEntity
  8
0
100
AcDbLine
 62
7
  6
CONTINUOUS
 10
17.6547984011
 20
-3.6756214057
 11
17.5898464958
 21
-3.6006214057
  0
LINE
  5
2E3
100
AcDbEntity
  8
0
100
AcDbLine
 62
7
  6
CONTINUOUS
 10
17.0083203991
 20
-2.2679178965
 11
16.9433684938
 21
-2.1929178965
  0
LINE
  5
2E4
100
AcDbEntity
  8
DRAFT
100
AcDbLine
 62
7
  6
CONTINUOUS
 10
7.9608514777
 20
2.5577043999
 11
8.6426386522
 21
1.7623409897
  0
LINE
  5
2E5
100
AcDbEntity
  8
RACCORDO
100
AcDbLine
 62
7
  6
CONTINUOUS
 10
17.9503496029
 20
1.7623409897
 11
18.1135614259
 21
1.4644939112
  0
LINE
  5
2E6
100
AcDbEntity
  8
ASSI
100
AcDbLine
 62
7
  6
CONTINUOUS
 10
17.9503496029
 20
1.7623409897
 11
18.1135614259
 21
1.4644939112
  0
LINE
  5
2E7
100
AcDbEntity
  8
SCRITTE
100
AcDbLine
 62
253
  6
CONTINUOUS
 10
20.8930905402
 20
2.1562948383
 11
20.630228567
 21
2.8457140734
  0
LWPOLYLINE
  5
2E8
100
AcDbEntity
  8
0
100
AcDbPolyline
 62
7
  6
CONTINUOUS
 90
3
 70
0
 10
20.6259413801
 20
-2.7439749211
 10
20.6132828304
 20
-2.7077705025
 10
20.6000319826
 20
-2.6798298959
  0
LWPOLYLINE
  5
2E9
100
AcDbEntity
  8
0
100
AcDbPolyline
 62
7
  6
CONTINUOUS
 90
7
 70
0
 10
25.342394142
 20
-3.4584225354
 10
25.341885174
 20
-3.4507579147
 10
25.3421400687
 20
-3.4423533437
 10
25.3431237822
 20
-3.433201386
 10
25.3447994954
 20
-3.4233005391
 10
25.3471288058
 20
-3.4126558754
 10
25.350071964
 20
-3.4012796783
  0
LWPOLYLINE
  5
2EA
100
AcDbEntity
  8
RACCORDO
100
AcDbPolyline
 62
253
  6
CONTINUOUS
 90
19
 70
0
 10
26.0673173949
 20
0.0645905843
 10
26.0691690043
 20
0.0721748694
 10
26.0703414948
 20
0.0796058438
 10
26.0708348664
 20
0.0868835074
 10
26.0706446874
 20
0.0940652082
 10
26.0697753895
 20
0.1010935982
 10
26.0682402681
 20
0.1077966333
 10
26.0660233181
 20
0.1141631366
 10
26.0631405446
 20
0.120204285
 10
26.0596532586
 20
0.1257815655
 10
26.0555444242
 20
0.1308856282
 10
26.0508310774
 20
0.1355258229
 10
26.0456256363
 20
0.1395916862
 10
26.0399111839
 20
0.1430673083
 10
26.0337046372
 20
0.1459685989
 10
26.0271691666
 20
0.1482328237
 10
26.0203591621
 20
0.1498390712
 10
26.0132202336
 20
0.1508082529
 10
26.0057523811
 20
0.1511403688
  0
LWPOLYLINE
  5
2EB
100
AcDbEntity
  8
RACCORDO
100
AcDbPolyline
 62
253
  6
CONTINUOUS
 90
13
 70
0
 10
26.0057523811
 20
0.1511403688
 10
26.0199366412
 20
0.2084557357
 10
26.0303469652
 20
0.2689232877
 10
26.0368130473
 20
0.3315538183
 10
26.0392291071
 20
0.3953227359
 10
26.0375556196
 20
0.4591868258
 10
26.0318199617
 20
0.5221013166
 10
26.0221159649
 20
0.5830369712
 10
26.0086023796
 20
0.6409969254
 10
25.9915002787
 20
0.6950329949
 10
25.9710894405
 20
0.7442611877
 10
25.947703772
 20
0.7878761651
 10
25.9217258462
 20
0.8251644168
  0
LWPOLYLINE
  5
2EC
100
AcDbEntity
  8
RACCORDO
100
AcDbPolyline
 62
7
  6
CONTINUOUS
 90
10
 70
0
 10
26.3312846511
 20
0.1763001727
 10
26.3396926199
 20
0.2089083255
 10
26.3505264959
 20
0.2721706217
 10
26.3543362596
 20
0.335638452
 10
26.3511915369
 20
0.3987486474
 10
26.3411240914
 20
0.4609641976
 10
26.3243086862
 20
0.5213163576
 10
26.3010437401
 20
0.5791072422
 10
26.2714854545
 20
0.6339868967
 10
26.243420733
 20
0.6754347376
  0
LINE
  5
2ED
100
AcDbEntity
  8
RACCORDO
100
AcDbLine
 62
253
  6
CONTINUOUS
 10
23.1843694416
 20
-1.396100791
 11
23.1955274226
 21
-1.357448411
  0
LINE
  5
2EE
100
AcDbEntity
  8
RACCORDO
100
AcDbLine
 62
253
  6
CONTINUOUS
 10
22.4668153575
 20
-4.3553699632
 11
23.1856832356
 21
-1.8651385858
  0
LINE
  5
2EF
100
AcDbEntity
  8
RACCORDO
100
AcDbLine
 62
7
  6
CONTINUOUS
 10
22.6251422238
 20
-4.2885749927
 11
23.3440101019
 21
-1.7983436152
  0
LINE
  5
2F0
100
AcDbEntity
  8
DRAFT
100
AcDbLine
 62
7
  6
CONTINUOUS
 10
25.2878773859
 20
-0.2729063112
 11
23.9384089101
 21
-4.9476022378
  0
LINE
  5
2F1
100
AcDbEntity
  8
RACCORDO
100
AcDbLine
 62
253
  6
CONTINUOUS
 10
24.5229949956
 20
-5.2850991333
 11
24.6204219573
 21
-4.9476022378
  0
LINE
  5
2F2
100
AcDbEntity
  8
RACCORDO
100
AcDbLine
 62
253
  6
CONTINUOUS
 10
25.9698904331
 20
-0.2729063112
 11
26.0673173949
 21
0.0645905843
  0
LINE
  5
2F3
100
AcDbEntity
  8
RACCORDO
100
AcDbLine
 62
7
  6
CONTINUOUS
 10
24.7868731052
 20
-5.1737741853
 11
24.8872172145
 21
-4.8261719942
  0
LINE
  5
2F4
100
AcDbEntity
  8
RACCORDO
100
AcDbLine
 62
7
  6
CONTINUOUS
 10
26.2308513969
 20
-0.171686653
 11
26.3311954988
 21
0.1759155126
  0
LINE
  5
2F5
100
AcDbEntity
  8
0
100
AcDbLine
 62
7
  6
CONTINUOUS
 10
25.350071964
 20
-3.4012796783
 11
26.1098795852
 21
-0.7692288707
  0
LINE
  5
2F6
100
AcDbEntity
  8
0
100
AcDbLine
 62
7
  6
CONTINUOUS
 10
26.1294948274
 20
-3.4012796783
 11
26.8893024486
 21
-0.7692288707
  0
LINE
  5
2F7
100
AcDbEntity
  8
RACCORDO
100
AcDbLine
 62
7
  6
CONTINUOUS
 10
27.3429763299
 20
-0.7692288707
 11
26.5831687088
 21
-3.4012796783
  0
LINE
  5
2F8
100
AcDbEntity
  8
ASSI
100
AcDbLine
 62
7
  6
CONTINUOUS
 10
27.3429763299
 20
-0.7692288707
 11
26.5831687088
 21
-3.4012796783
  0
LWPOLYLINE
  5
2F9
100
AcDbEntity
  8
0
100
AcDbPolyline
 62
7
  6
CONTINUOUS
 90
7
 70
0
 10
26.1098795852
 20
-0.7692288707
 10
26.1136214411
 20
-0.7574288623
 10
26.1178087032
 20
-0.7454941504
 10
26.1224549251
 20
-0.7334985896
 10
26.1275760924
 20
-0.7215104022
 10
26.1331902482
 20
-0.7095920697
 10
26.1393171376
 20
-0.6978002993
  0
LWPOLYLINE
  5
2FA
100
AcDbEntity
  8
RACCORDO
100
AcDbPolyline
 62
253
  6
CONTINUOUS
 90
10
 70
0
 10
22.4668153575
 20
-4.3553699632
 10
22.4563020827
 20
-4.3869838391
 10
22.4437854679
 20
-4.4158737876
 10
22.4294314607
 20
-4.4415060728
 10
22.4134064963
 20
-4.4634282723
 10
22.3959807218
 20
-4.4811295149
 10
22.3775504704
 20
-4.4941500034
 10
22.3584683336
 20
-4.5022558332
 10
22.3390198954
 20
-4.5053403276
 10
22.336911547
 20
-4.5053699632
  0
LWPOLYLINE
  5
2FB
100
AcDbEntity
  8
RACCORDO
100
AcDbPolyline
 62
253
  6
CONTINUOUS
 90
10
 70
0
 10
24.4114604405
 20
-5.3716489178
 10
24.393734788
 20
-5.4248731873
 10
24.37275728
 20
-5.4731373778
 10
24.3488710375
 20
-5.5156518796
 10
24.3224667742
 20
-5.5517211227
 10
24.2939764033
 20
-5.5807549617
 10
24.2638659724
 20
-5.6022783318
 10
24.2326280383
 20
-5.6159390216
 10
24.2007736293
 20
-5.6215134329
 10
24.1953146045
 20
-5.621648398
  0
LWPOLYLINE
  5
2FC
100
AcDbEntity
  8
RACCORDO
100
AcDbPolyline
 62
253
  6
CONTINUOUS
 90
3
 70
0
 10
21.5737436888
 20
-4.2960068899
 10
21.583617276
 20
-4.2677467206
 10
21.5957708413
 20
-4.243297764
  0
LWPOLYLINE
  5
2FD
100
AcDbEntity
  8
RACCORDO
100
AcDbPolyline
 62
7
  6
CONTINUOUS
 90
5
 70
0
 10
22.6251422238
 20
-4.2885749927
 10
22.6114027282
 20
-4.3264244949
 10
22.5925166489
 20
-4.3624233783
 10
22.5687736145
 20
-4.3957379795
 10
22.5409720277
 20
-4.4252436815
  0
LWPOLYLINE
  5
2FE
100
AcDbEntity
  8
RACCORDO
100
AcDbPolyline
 62
253
  6
CONTINUOUS
 90
9
 70
0
 10
22.6251422238
 20
-4.2885749927
 10
22.6215354586
 20
-4.2978910041
 10
22.6116670668
 20
-4.3123575306
 10
22.5972012762
 20
-4.3250338674
 10
22.5783801385
 20
-4.3357079053
 10
22.5555185818
 20
-4.3442010388
 10
22.5289991415
 20
-4.3503711551
 10
22.4992655591
 20
-4.3541150115
 10
22.4668153575
 20
-4.3553699632
  0
LINE
  5
2FF
100
AcDbEntity
  8
SCRITTE
100
AcDbLine
 62
253
  6
CONTINUOUS
 10
19.1579854322
 20
2.8457140734
 11
19.0718193217
 21
2.7472256069
  0
LWPOLYLINE
  5
300
100
AcDbEntity
  8
RACCORDO
100
AcDbPolyline
 62
7
  6
CONTINUOUS
 90
9
 70
0
 10
-6.166091995
 20
-3.5669032711
 10
-6.1710062404
 20
-3.5648768716
 10
-6.1756870952
 20
-3.5628758106
 10
-6.1801346904
 20
-3.5609011165
 10
-6.1843566595
 20
-3.5589503117
 10
-6.1883456212
 20
-3.5570278109
 10
-6.1920792192
 20
-3.5551451801
 10
-6.1955536522
 20
-3.5533074704
 10
-6.1962972196
 20
-3.5529016679
  0
LINE
  5
301
100
AcDbEntity
  8
RACCORDO
100
AcDbLine
 62
7
  6
CONTINUOUS
 10
-4.9920326947
 20
0.5628505838
 11
-4.1643489976
 21
0.1347086824
  0
LINE
  5
302
100
AcDbEntity
  8
RACCORDO
100
AcDbLine
 62
253
  6
CONTINUOUS
 10
-4.7731715249
 20
1.3211060815
 11
-4.5323665199
 21
1.1875328509
  0
LWPOLYLINE
  5
303
100
AcDbEntity
  8
RACCORDO
100
AcDbPolyline
 62
7
  6
CONTINUOUS
 90
8
 70
0
 10
21.7924124537
 20
-4.4100497465
 10
21.818117156
 20
-4.4345159278
 10
21.8469952323
 20
-4.4560836543
 10
21.8786342168
 20
-4.4742228432
 10
21.9125405903
 20
-4.4884931193
 10
21.948013965
 20
-4.4985225901
 10
21.9843110807
 20
-4.5041130846
 10
22.0121301912
 20
-4.5053689673
  0
LWPOLYLINE
  5
304
100
AcDbEntity
  8
0
100
AcDbPolyline
 62
7
  6
CONTINUOUS
 90
4
 70
0
 10
20.6361956336
 20
-2.7117172689
 10
20.6252523684
 20
-2.7002227258
 10
20.6013079534
 20
-2.6805634156
 10
20.5744015334
 20
-2.665095671
  0
LINE
  5
305
100
AcDbEntity
  8
RACCORDO
100
AcDbLine
 62
7
  6
CONTINUOUS
 10
21.7924124537
 20
-4.4100497465
 11
21.5606103367
 21
-4.1616547095
  0
LINE
  5
306
100
AcDbEntity
  8
RACCORDO
100
AcDbLine
 62
253
  6
CONTINUOUS
 10
21.7542427619
 20
-4.2079878242
 11
21.5240496229
 21
-3.9613082953
  0
LINE
  5
307
100
AcDbEntity
  8
SCRITTE
100
AcDbLine
 62
253
  6
CONTINUOUS
 10
12.3741199206
 20
2.8457140734
 11
12.983392107
 21
2.1562948383
  0
LINE
  5
308
100
AcDbEntity
  8
SCRITTE
100
AcDbLine
 62
253
  6
CONTINUOUS
 10
13.5896098896
 20
2.1562948383
 11
12.9803377033
 21
2.8457140734
  0
LINE
  5
309
100
AcDbEntity
  8
SCRITTE
100
AcDbLine
 62
253
  6
CONTINUOUS
 10
14.5129335967
 20
2.2547832946
 11
14.0777391766
 21
2.7472256069
  0
LINE
  5
30A
100
AcDbEntity
  8
SCRITTE
100
AcDbLine
 62
253
  6
CONTINUOUS
 10
15.8990108287
 20
2.1562948383
 11
15.2897386424
 21
2.8457140734
  0
LINE
  5
30B
100
AcDbEntity
  8
SCRITTE
100
AcDbLine
 62
253
  6
CONTINUOUS
 10
16.5052286114
 20
2.1562948383
 11
15.895956425
 21
2.8457140734
  0
LINE
  5
30C
100
AcDbEntity
  8
SCRITTE
100
AcDbLine
 62
253
  6
CONTINUOUS
 10
17.0537115874
 20
2.1562948383
 11
16.444439401
 21
2.8457140734
  0
LINE
  5
30D
100
AcDbEntity
  8
RACCORDO
100
AcDbLine
 62
7
  6
CONTINUOUS
 10
18.0403755598
 20
1.0590548037
 11
18.1210338073
 21
0.9669775794
  0
LINE
  5
30E
100
AcDbEntity
  8
0
100
AcDbLine
 62
7
  6
CONTINUOUS
 10
17.9042503368
 20
-3.2434435523
 11
17.8392984315
 21
-3.1684435523
  0
LINE
  5
30F
100
AcDbEntity
  8
0
100
AcDbLine
 62
7
  6
CONTINUOUS
 10
18.0932235583
 20
-2.9090261106
 11
18.028271653
 21
-2.8340261106
  0
LINE
  5
310
100
AcDbEntity
  8
0
100
AcDbLine
 62
7
  6
CONTINUOUS
 10
18.5196436586
 20
-3.2434435523
 11
18.4546917533
 21
-3.1684435523
  0
LINE
  5
311
100
AcDbEntity
  8
0
100
AcDbLine
 62
7
  6
CONTINUOUS
 10
18.9882159832
 20
-3.6756214057
 11
18.923264078
 21
-3.6006214057
  0
LINE
  5
312
100
AcDbEntity
  8
0
100
AcDbLine
 62
7
  6
CONTINUOUS
 10
19.5709791193
 20
-3.6756212158
 11
19.506027214
 21
-3.6006212158
  0
LINE
  5
313
100
AcDbEntity
  8
0
100
AcDbLine
 62
7
  6
CONTINUOUS
 10
18.5501457524
 20
-2.1056281999
 11
18.4851938471
 21
-2.0306281999
  0
LINE
  5
314
100
AcDbEntity
  8
0
100
AcDbLine
 62
7
  6
CONTINUOUS
 10
19.8155437241
 20
-2.8284245732
 11
19.7505918188
 21
-2.7534245732
  0
LINE
  5
315
100
AcDbEntity
  8
0
100
AcDbLine
 62
7
  6
CONTINUOUS
 10
20.6976417247
 20
-3.6756212158
 11
20.6326898194
 21
-3.6006212158
  0
LINE
  5
316
100
AcDbEntity
  8
0
100
AcDbLine
 62
253
  6
CONTINUOUS
 10
20.0578341392
 20
-2.8284245732
 11
19.9928822339
 21
-2.7534245732
  0
LINE
  5
317
100
AcDbEntity
  8
0
100
AcDbLine
 62
7
  6
CONTINUOUS
 10
20.2034608737
 20
-2.8874703138
 11
20.1385089684
 21
-2.8124703138
  0
LINE
  5
318
100
AcDbEntity
  8
0
100
AcDbLine
 62
7
  6
CONTINUOUS
 10
19.902908939
 20
-2.473876991
 11
19.8379570337
 21
-2.398876991
  0
LINE
  5
319
100
AcDbEntity
  8
0
100
AcDbLine
 62
253
  6
CONTINUOUS
 10
20.7123033651
 20
-3.0896923749
 11
20.6473514599
 21
-3.0146923749
  0
LINE
  5
31A
100
AcDbEntity
  8
0
100
AcDbLine
 62
7
  6
CONTINUOUS
 10
20.5744015334
 20
-2.665095671
 11
20.5094496282
 21
-2.590095671
  0
LINE
  5
31B
100
AcDbEntity
  8
0
100
AcDbLine
 62
7
  6
CONTINUOUS
 10
20.5780943479
 20
-2.6523033864
 11
20.5131424426
 21
-2.5773033864
  0
LINE
  5
31C
100
AcDbEntity
  8
0
100
AcDbLine
 62
7
  6
CONTINUOUS
 10
20.0744654771
 20
-1.8795877103
 11
20.0095135718
 21
-1.8045877103
  0
LINE
  5
31D
100
AcDbEntity
  8
0
100
AcDbLine
 62
253
  6
CONTINUOUS
 10
20.4321560973
 20
-1.8668441273
 11
20.367204192
 21
-1.7918441273
  0
LINE
  5
31E
100
AcDbEntity
  8
0
100
AcDbLine
 62
7
  6
CONTINUOUS
 10
20.5751056215
 20
-1.9365647545
 11
20.5101537163
 21
-1.8615647545
  0
LINE
  5
31F
100
AcDbEntity
  8
RACCORDO
100
AcDbLine
 62
7
  6
CONTINUOUS
 10
15.0471023601
 20
1.7623409897
 11
15.5972909056
 21
1.1204987049
  0
LWPOLYLINE
  5
320
100
AcDbEntity
  8
0
100
AcDbPolyline
 62
7
  6
CONTINUOUS
 90
7
 70
0
 10
20.2035042051
 20
-2.8874326151
 10
20.2099741304
 20
-2.8952979206
 10
20.2234336393
 20
-2.9152652457
 10
20.2346759032
 20
-2.9376522199
 10
20.2436284693
 20
-2.962405988
 10
20.2503637904
 20
-2.9895794051
 10
20.2548818666
 20
-3.0191724712
  0
LINE
  5
321
100
AcDbEntity
  8
RACCORDO
100
AcDbLine
 62
7
  6
CONTINUOUS
 10
18.0823155535
 20
1.7623409897
 11
18.5592893785
 21
1.1204987049
  0
LWPOLYLINE
  5
322
100
AcDbEntity
  8
0
100
AcDbPolyline
 62
7
  6
CONTINUOUS
 90
8
 70
0
 10
20.5750783976
 20
-1.9365882975
 10
20.590124598
 20
-1.956855164
 10
20.6032687372
 20
-1.9824626446
 10
20.6124991104
 20
-2.0107792497
 10
20.6177260441
 20
-2.0405618629
 10
20.6189196473
 20
-2.071396112
 10
20.6161098111
 20
-2.1036963692
 10
20.6092965355
 20
-2.1374626345
  0
LWPOLYLINE
  5
323
100
AcDbEntity
  8
RACCORDO
100
AcDbPolyline
 62
253
  6
CONTINUOUS
 90
13
 70
0
 10
23.1330351363
 20
-1.4579883955
 10
23.1489857832
 20
-1.4800847639
 10
23.1633768371
 20
-1.5061142148
 10
23.1759674969
 20
-1.5356412056
 10
23.1865470871
 20
-1.5681716703
 10
23.1949385826
 20
-1.6031612867
 10
23.2010015711
 20
-1.6400245845
 10
23.2046346025
 20
-1.6781447416
 10
23.2057768866
 20
-1.7168839052
 10
23.2044093096
 20
-1.7555938648
 10
23.200554755
 20
-1.7936268989
 10
23.1942777198
 20
-1.8303466124
 10
23.1856832356
 20
-1.8651385858
  0
LINE
  5
324
100
AcDbEntity
  8
RACCORDO
100
AcDbLine
 62
7
  6
CONTINUOUS
 10
24.8505428381
 20
-4.6844258603
 11
24.2550008838
 21
-3.8508954702
  0
LWPOLYLINE
  5
325
100
AcDbEntity
  8
RACCORDO
100
AcDbPolyline
 62
7
  6
CONTINUOUS
 90
9
 70
0
 10
23.2892126833
 20
-1.5267018396
 10
23.3134242706
 20
-1.5614534089
 10
23.3313673497
 20
-1.5966006953
 10
23.3445704387
 20
-1.6338997406
 10
23.352790272
 20
-1.6728945712
 10
23.3557713627
 20
-1.7129391905
 10
23.3533497903
 20
-1.7532409269
 10
23.3454756592
 20
-1.7930878763
 10
23.3440248489
 20
-1.7982924392
  0
LWPOLYLINE
  5
326
100
AcDbEntity
  8
0
100
AcDbPolyline
 62
7
  6
CONTINUOUS
 90
7
 70
0
 10
26.8846084791
 20
-0.6978002993
 10
26.8886794254
 20
-0.70965344
 10
26.8914564141
 20
-0.7216071681
 10
26.8929219278
 20
-0.733605388
 10
26.8930601879
 20
-0.7455868239
 10
26.8918574728
 20
-0.7574850972
 10
26.8893024486
 20
-0.7692288707
  0
LWPOLYLINE
  5
327
100
AcDbEntity
  8
0
100
AcDbPolyline
 62
7
  6
CONTINUOUS
 90
7
 70
0
 10
26.1294948274
 20
-3.4012796783
 10
26.1253915555
 20
-3.412590115
 10
26.1200941072
 20
-3.4232001594
 10
26.1136394481
 20
-3.4330942539
 10
26.1060635413
 20
-3.4422635337
 10
26.0974011177
 20
-3.4507053088
 10
26.0876854835
 20
-3.4584225354
  0
LWPOLYLINE
  5
328
100
AcDbEntity
  8
0
100
AcDbPolyline
 62
7
  6
CONTINUOUS
 90
22
 70
0
 10
26.1393171376
 20
-0.6978002993
 10
26.1689752857
 20
-0.6460227724
 10
26.1998017507
 20
-0.5988652372
 10
26.2320076952
 20
-0.5564107019
 10
26.266007182
 20
-0.5185506477
 10
26.3017435983
 20
-0.4854861771
 10
26.3387062551
 20
-0.4577338099
 10
26.3771710236
 20
-0.43536052
 10
26.4171129097
 20
-0.418310128
 10
26.4575507566
 20
-0.4069026324
 10
26.4985755457
 20
-0.4012886439
 10
26.540187162
 20
-0.4013117653
 10
26.5812281833
 20
-0.4068319553
 10
26.6214492178
 20
-0.417797312
 10
26.6610148923
 20
-0.4342651897
 10
26.699345908
 20
-0.4562602404
 10
26.7365273262
 20
-0.4839999411
 10
26.7722131266
 20
-0.5172567242
 10
26.8051539856
 20
-0.5553760169
 10
26.834819366
 20
-0.5981103753
 10
26.8613760799
 20
-0.6456133537
 10
26.8846084791
 20
-0.6978002993
  0
LWPOLYLINE
  5
329
100
AcDbEntity
  8
RACCORDO
100
AcDbPolyline
 62
253
  6
CONTINUOUS
 90
3
 70
0
 10
21.5957708413
 20
-4.243297764
 10
21.609843245
 20
-4.2233865135
 10
21.6142844543
 20
-4.2191709418
  0
LINE
  5
32A
100
AcDbEntity
  8
SCRITTE
100
AcDbLine
 62
253
  6
CONTINUOUS
 10
9.6028382155
 20
2.8457140734
 11
10.5585203982
 21
2.1562948383
  0
LINE
  5
32B
100
AcDbEntity
  8
RACCORDO
100
AcDbLine
 62
7
  6
CONTINUOUS
 10
15.1790683107
 20
1.7623409897
 11
15.5215004881
 21
1.4644939112
  0
LINE
  5
32C
100
AcDbEntity
  8
ASSI
100
AcDbLine
 62
7
  6
CONTINUOUS
 10
15.1790683107
 20
1.7623409897
 11
15.5215004881
 21
1.4644939112
  0
LWPOLYLINE
  5
32D
100
AcDbEntity
  8
RACCORDO
100
AcDbPolyline
 62
253
  6
CONTINUOUS
 90
13
 70
0
 10
22.4731106399
 20
-1.7177564467
 10
22.49261624
 20
-1.7370942043
 10
22.5161041418
 20
-1.7560645853
 10
22.5431813295
 20
-1.7743501642
 10
22.573394729
 20
-1.7916449742
 10
22.6062387889
 20
-1.8076596266
 10
22.6411639396
 20
-1.8221261531
 10
22.6775857896
 20
-1.8348024899
 10
22.7148949033
 20
-1.8454765278
 10
22.7524669988
 20
-1.8539696614
 10
22.789673394
 20
-1.8601397777
 10
22.8258915258
 20
-1.8638836341
 10
22.8605153676
 20
-1.8651385858
  0
LWPOLYLINE
  5
32E
100
AcDbEntity
  8
0
100
AcDbPolyline
 62
7
  6
CONTINUOUS
 90
5
 70
0
 10
20.9709736965
 20
-1.6509762809
 10
20.9459516635
 20
-1.6247323256
 10
20.9159376015
 20
-1.5994934322
 10
20.8830036324
 20
-1.5775398237
 10
20.8471497562
 20
-1.5588714999
  0
LWPOLYLINE
  5
32F
100
AcDbEntity
  8
RACCORDO
100
AcDbPolyline
 62
253
  6
CONTINUOUS
 90
7
 70
0
 10
23.2892126833
 20
-1.5267018396
 10
23.2757746913
 20
-1.5119863922
 10
23.2525812849
 20
-1.4930229306
 10
23.2261590245
 20
-1.4780005305
 10
23.1970901129
 20
-1.4671176175
 10
23.1658619544
 20
-1.4604380897
 10
23.1330351363
 20
-1.4579883955
  0
LINE
  5
330
100
AcDbEntity
  8
SCRITTE
100
AcDbLine
 62
253
  6
CONTINUOUS
 10
19.1033047401
 20
2.1562948383
 11
18.4940325538
 21
2.8457140734
  0
LINE
  5
331
100
AcDbEntity
  8
SCRITTE
100
AcDbLine
 62
253
  6
CONTINUOUS
 10
19.0718193217
 20
2.7472256069
 11
19.5070137418
 21
2.2547832946
  0
LINE
  5
332
100
AcDbEntity
  8
SCRITTE
100
AcDbLine
 62
253
  6
CONTINUOUS
 10
20.2002702585
 20
2.1562948383
 11
19.5909980721
 21
2.8457140734
  0
LINE
  5
333
100
AcDbEntity
  8
SCRITTE
100
AcDbLine
 62
253
  6
CONTINUOUS
 10
20.9766387078
 20
2.8457140734
 11
21.5859108942
 21
2.1562948383
  0
LINE
  5
334
100
AcDbEntity
  8
SCRITTE
100
AcDbLine
 62
253
  6
CONTINUOUS
 10
22.2787312482
 20
2.1562948383
 11
21.6694590618
 21
2.8457140734
  0
LINE
  5
335
100
AcDbEntity
  8
RACCORDO
100
AcDbLine
 62
253
  6
CONTINUOUS
 10
22.8078672682
 20
-1.4579883955
 11
22.5821187499
 21
-1.1959351192
  0
LINE
  5
336
100
AcDbEntity
  8
RACCORDO
100
AcDbLine
 62
253
  6
CONTINUOUS
 10
22.4731106399
 20
-1.7177564467
 11
22.2473749272
 21
-1.4556359407
  0
LWPOLYLINE
  5
337
100
AcDbEntity
  8
RACCORDO
100
AcDbPolyline
 62
253
  6
CONTINUOUS
 90
10
 70
0
 10
23.0778572503
 20
-1.2634239087
 10
23.0715285737
 20
-1.2559924236
 10
23.0575733196
 20
-1.2422376107
 10
23.0420244579
 20
-1.2301102352
 10
23.0249885596
 20
-1.2197015756
 10
23.0066018606
 20
-1.211101742
 10
22.987023574
 20
-1.2043831443
 10
22.9664135338
 20
-1.1995954988
 10
22.9449258774
 20
-1.1967725639
 10
22.9227273513
 20
-1.1959348273
  0
LINE
  5
338
100
AcDbEntity
  8
RACCORDO
100
AcDbLine
 62
253
  6
CONTINUOUS
 10
23.2897208955
 20
-1.5273318011
 11
23.2892126833
 21
-1.5267018396
  0
LINE
  5
339
100
AcDbEntity
  8
RACCORDO
100
AcDbLine
 62
253
  6
CONTINUOUS
 10
23.1330351363
 20
-1.4579883955
 11
22.9227275951
 21
-1.1959351192
  0
LINE
  5
33A
100
AcDbEntity
  8
RACCORDO
100
AcDbLine
 62
7
  6
CONTINUOUS
 10
23.2897208955
 20
-1.5273318011
 11
23.07785707
 21
-1.2634236841
  0
LINE
  5
33B
100
AcDbEntity
  8
RACCORDO
100
AcDbLine
 62
253
  6
CONTINUOUS
 10
25.9217258462
 20
0.8251644168
 11
25.2252795302
 21
1.7623409897
  0
LINE
  5
33C
100
AcDbEntity
  8
RACCORDO
100
AcDbLine
 62
7
  6
CONTINUOUS
 10
26.2437647667
 20
0.6749799036
 11
25.544477401
 21
1.6159795497
  0
LINE
  5
33D
100
AcDbEntity
  8
RACCORDO
100
AcDbLine
 62
7
  6
CONTINUOUS
 10
22.5407207435
 20
-4.4255103683
 11
22.5088736247
 21
-4.4511931148
  0
LWPOLYLINE
  5
33E
100
AcDbEntity
  8
0
100
AcDbPolyline
 62
7
  6
CONTINUOUS
 90
38
 70
0
 10
20.6770539322
 20
-2.6010021453
 10
20.6921228448
 20
-2.590591094
 10
20.7073788507
 20
-2.5797192564
 10
20.7228174321
 20
-2.5684692943
 10
20.7384431068
 20
-2.5567585459
 10
20.7542309213
 20
-2.5443496577
 10
20.7701932948
 20
-2.5312456648
 10
20.786317808
 20
-2.5174435322
 10
20.8025422495
 20
-2.5026968016
 10
20.8188903493
 20
-2.4869497372
 10
20.8353383772
 20
-2.4702580748
 10
20.8517529315
 20
-2.4525425638
 10
20.8681562757
 20
-2.4337811486
 10
20.8845261462
 20
-2.4139958847
 10
20.9006623499
 20
-2.3931736881
 10
20.9165871723
 20
-2.3712981752
 10
20.9322783278
 20
-2.3483857296
 10
20.9474687672
 20
-2.3244724177
 10
20.9621429541
 20
-2.2995889101
 10
20.9763164249
 20
-2.2737045363
 10
20.9897687402
 20
-2.2467633499
 10
21.002503855
 20
-2.2187949117
 10
21.0145178142
 20
-2.189769661
 10
21.0255783129
 20
-2.1595429702
 10
21.0357678268
 20
-2.1280947652
 10
21.0450038801
 20
-2.0954451201
 10
21.0528067414
 20
-2.0615096295
 10
21.0593839356
 20
-2.0261425952
 10
21.0645279378
 20
-1.9894897154
 10
21.0671364411
 20
-1.9519036785
 10
21.0671702679
 20
-1.9130330038
 10
21.0646685958
 20
-1.8732291721
 10
21.058646651
 20
-1.8338993141
 10
21.048800918
 20
-1.794992309
 10
21.0354349123
 20
-1.7565592777
 10
21.0184744067
 20
-1.7201607143
 10
20.9976697946
 20
-1.6858998445
 10
20.9709736965
 20
-1.6509762809
  0
LWPOLYLINE
  5
33F
100
AcDbEntity
  8
0
100
AcDbPolyline
 62
7
  6
CONTINUOUS
 90
35
 70
0
 10
20.5864847273
 20
-2.543249307
 10
20.617943752
 20
-2.5219835819
 10
20.6339620744
 20
-2.5108262909
 10
20.6501841694
 20
-2.4991159119
 10
20.6666133871
 20
-2.4869321205
 10
20.6832463774
 20
-2.474195241
 10
20.7000671605
 20
-2.4605896943
 10
20.7170981039
 20
-2.4460992684
 10
20.7343168402
 20
-2.4307401754
 10
20.7516402871
 20
-2.4142454726
 10
20.7691038951
 20
-2.3965511142
 10
20.7866722137
 20
-2.377721146
 10
20.8041558102
 20
-2.3576807636
 10
20.8215873195
 20
-2.3364060292
 10
20.8389341065
 20
-2.3139208805
 10
20.8559088328
 20
-2.2902223269
 10
20.8725203122
 20
-2.2653190006
 10
20.8887597308
 20
-2.2392022694
 10
20.9043133087
 20
-2.2118432455
 10
20.9191816331
 20
-2.1832519596
 10
20.9333641167
 20
-2.1534183811
 10
20.9465452179
 20
-2.1222835306
 10
20.9587683284
 20
-2.0898016136
 10
20.9699900564
 20
-2.0560184247
 10
20.9797646846
 20
-2.0210123679
 10
20.9882660842
 20
-1.9847364561
 10
20.9953203839
 20
-1.9472376764
 10
20.9999602527
 20
-1.9087353936
 10
21.0023365975
 20
-1.8690892541
 10
21.0022985114
 20
-1.8284396114
 10
20.9984259423
 20
-1.7874268913
 10
20.9905413361
 20
-1.7456178748
 10
20.9788222469
 20
-1.7034457809
 10
20.9623812854
 20
-1.6628506924
 10
20.9402042685
 20
-1.6234573015
  0
LINE
  5
340
100
AcDbEntity
  8
SCRITTE
100
AcDbLine
 62
253
  6
CONTINUOUS
 10
10.6420693608
 20
2.8457140734
 11
11.8575593298
 21
2.1562948383
  0
LINE
  5
341
100
AcDbEntity
  8
SCRITTE
100
AcDbLine
 62
253
  6
CONTINUOUS
 10
19.937408213
 20
2.8457140734
 11
20.8930905402
 21
2.1562948383
  0
LWPOLYLINE
  5
342
100
AcDbEntity
  8
RACCORDO
100
AcDbPolyline
 62
7
  6
CONTINUOUS
 90
4
 70
0
 10
22.6268845865
 20
4.0784995554
 10
22.5971842676
 20
4.1065284112
 10
22.5651918817
 20
4.1296170638
 10
22.5309835114
 20
4.1476181467
  0
LWPOLYLINE
  5
343
100
AcDbEntity
  8
ASSI
100
AcDbPolyline
 62
7
  6
CONTINUOUS
 90
4
 70
0
 10
22.6268845865
 20
4.0784995554
 10
22.5971842676
 20
4.1065284112
 10
22.5651918817
 20
4.1296170638
 10
22.5309835114
 20
4.1476181467
  0
LWPOLYLINE
  5
344
100
AcDbEntity
  8
RACCORDO
100
AcDbPolyline
 62
253
  6
CONTINUOUS
 90
8
 70
0
 10
23.398574892
 20
3.8564893634
 10
23.3793567481
 20
3.8754922829
 10
23.3422055987
 20
3.9049200476
 10
23.3008413737
 20
3.9293001686
 10
23.2559082309
 20
3.9482989011
 10
23.2080064133
 20
3.961759434
 10
23.1576321666
 20
3.9696323999
 10
23.1053553277
 20
3.9719016212
  0
LWPOLYLINE
  5
345
100
AcDbEntity
  8
RACCORDO
100
AcDbPolyline
 62
253
  6
CONTINUOUS
 90
7
 70
0
 10
22.5570470693
 20
4.1035906236
 10
22.5374787341
 20
4.1233055352
 10
22.51713719
 20
4.1395893998
 10
22.4961743585
 20
4.1523213625
 10
22.4747465391
 20
4.161406963
 10
22.4530138768
 20
4.1667806532
 10
22.4326416363
 20
4.1684127757
  0
LWPOLYLINE
  5
346
100
AcDbEntity
  8
ASSI
100
AcDbPolyline
 62
253
  6
CONTINUOUS
 90
7
 70
0
 10
22.5570470693
 20
4.1035906236
 10
22.5374787341
 20
4.1233055352
 10
22.51713719
 20
4.1395893998
 10
22.4961743585
 20
4.1523213625
 10
22.4747465391
 20
4.161406963
 10
22.4530138768
 20
4.1667806532
 10
22.4326416363
 20
4.1684127757
  0
LINE
  5
347
100
AcDbEntity
  8
RACCORDO
100
AcDbLine
 62
253
  6
CONTINUOUS
 10
23.1053553277
 20
3.9719016212
 11
25.167316139
 21
1.7623409897
  0
LINE
  5
348
100
AcDbEntity
  8
RACCORDO
100
AcDbLine
 62
7
  6
CONTINUOUS
 10
23.398574892
 20
3.8564893634
 11
25.3758075077
 21
1.7377219634
  0
LINE
  5
349
100
AcDbEntity
  8
RACCORDO
100
AcDbLine
 62
7
  6
CONTINUOUS
 10
22.6313423212
 20
4.0736485155
 11
22.6268845865
 21
4.0784995554
  0
LINE
  5
34A
100
AcDbEntity
  8
ASSI
100
AcDbLine
 62
7
  6
CONTINUOUS
 10
22.6313423212
 20
4.0736485155
 11
22.6268845865
 21
4.0784995554
  0
LINE
  5
34B
100
AcDbEntity
  8
RACCORDO
100
AcDbLine
 62
253
  6
CONTINUOUS
 10
24.6620514285
 20
1.7623409897
 11
22.5570470693
 21
4.1035906236
  0
LINE
  5
34C
100
AcDbEntity
  8
ASSI
100
AcDbLine
 62
253
  6
CONTINUOUS
 10
24.6620514285
 20
1.7623409897
 11
22.5570470693
 21
4.1035906236
  0
LINE
  5
34D
100
AcDbEntity
  8
RACCORDO
100
AcDbLine
 62
7
  6
CONTINUOUS
 10
24.7094533865
 20
1.7623409897
 11
22.6316596517
 21
4.0733261427
  0
LINE
  5
34E
100
AcDbEntity
  8
ASSI
100
AcDbLine
 62
7
  6
CONTINUOUS
 10
24.7094533865
 20
1.7623409897
 11
22.6316596517
 21
4.0733261427
  0
LINE
  5
34F
100
AcDbEntity
  8
RACCORDO
100
AcDbLine
 62
7
  6
CONTINUOUS
 10
26.5930812284
 20
1.1042156523
 11
27.0525265041
 21
0.5932066946
  0
LINE
  5
350
100
AcDbEntity
  8
ASSI
100
AcDbLine
 62
7
  6
CONTINUOUS
 10
26.5930812284
 20
1.1042156523
 11
27.0525265041
 21
0.5932066946
  0
LINE
  5
351
100
AcDbEntity
  8
RACCORDO
100
AcDbLine
 62
7
  6
CONTINUOUS
 10
24.761419977
 20
1.7623409897
 11
22.8027830865
 21
3.9719016212
  0
LINE
  5
352
100
AcDbEntity
  8
RACCORDO
100
AcDbLine
 62
7
  6
CONTINUOUS
 10
27.0525265041
 20
0.5932066946
 11
27.2341265605
 21
0.3754454847
  0
LINE
  5
353
100
AcDbEntity
  8
ASSI
100
AcDbLine
 62
7
  6
CONTINUOUS
 10
27.0525265041
 20
0.5932066946
 11
27.2341265605
 21
0.3754454847
  0
LWPOLYLINE
  5
354
100
AcDbEntity
  8
RACCORDO
100
AcDbPolyline
 62
253
  6
CONTINUOUS
 90
10
 70
0
 10
26.2433520152
 20
0.675534143
 10
26.2233110432
 20
0.6999288095
 10
26.1952230279
 20
0.7276495864
 10
26.1638587751
 20
0.752231401
 10
26.1294571295
 20
0.7734867508
 10
26.0922796368
 20
0.7912539215
 10
26.052607748
 20
0.8053992212
 10
26.0107429798
 20
0.8158149985
 10
25.9670046359
 20
0.8224204887
 10
25.9217258462
 20
0.8251644168
  0
LWPOLYLINE
  5
355
100
AcDbEntity
  8
0
100
AcDbPolyline
 62
7
  6
CONTINUOUS
 90
22
 70
0
 10
26.0876854835
 20
-3.4584225354
 10
26.0404135217
 20
-3.4901267066
 10
25.9924355549
 20
-3.5176939144
 10
25.9438944948
 20
-3.5414518605
 10
25.8945921001
 20
-3.5617925324
 10
25.8449473218
 20
-3.578902406
 10
25.7960071081
 20
-3.5927881306
 10
25.7478791209
 20
-3.6036513898
 10
25.7005863591
 20
-3.6117219108
 10
25.6550334088
 20
-3.6170187437
 10
25.6110152894
 20
-3.6195848824
 10
25.568779253
 20
-3.619535183
 10
25.5298883557
 20
-3.6169265477
 10
25.4947627737
 20
-3.611723428
 10
25.4629416692
 20
-3.6038095317
 10
25.4346457433
 20
-3.5930470283
 10
25.4096351307
 20
-3.5791316472
 10
25.3880153233
 20
-3.5619229442
 10
25.370509429
 20
-3.5414979467
 10
25.3572900925
 20
-3.517703405
 10
25.3479656599
 20
-3.4901199365
 10
25.342394142
 20
-3.4584225354
  0
LWPOLYLINE
  5
356
100
AcDbEntity
  8
RACCORDO
100
AcDbPolyline
 62
7
  6
CONTINUOUS
 90
6
 70
0
 10
22.5088736247
 20
-4.4511931148
 10
22.4735636017
 20
-4.4724396469
 10
22.4353230658
 20
-4.4887692345
 10
22.3951179812
 20
-4.4996691362
 10
22.35385808
 20
-4.5048909392
 10
22.3367930471
 20
-4.5053698696
  0
LWPOLYLINE
  5
357
100
AcDbEntity
  8
0
100
AcDbPolyline
 62
7
  6
CONTINUOUS
 90
4
 70
0
 10
20.6190727962
 20
-2.6379215393
 10
20.6332169169
 20
-2.6300186039
 10
20.6476009683
 20
-2.6207159003
 10
20.6770539322
 20
-2.6010021453
  0
LWPOLYLINE
  5
358
100
AcDbEntity
  8
RACCORDO
100
AcDbPolyline
 62
7
  6
CONTINUOUS
 90
31
 70
0
 10
-5.9242759732
 20
-3.6341829344
 10
-5.936684205
 20
-3.631748392
 10
-5.9486879397
 20
-3.6293143828
 10
-5.9602874238
 20
-3.6268846572
 10
-5.9714674067
 20
-3.6244639202
 10
-5.9822436568
 20
-3.6220547368
 10
-5.9926629389
 20
-3.619657329
 10
-6.0027265601
 20
-3.6172753961
 10
-6.0124337214
 20
-3.6149116031
 10
-6.0218279889
 20
-3.6125640722
 10
-6.0309103801
 20
-3.610235946
 10
-6.0396803505
 20
-3.6079295064
 10
-6.0481790668
 20
-3.6056409579
 10
-6.0564075957
 20
-3.6033728564
 10
-6.0643652892
 20
-3.6011271374
 10
-6.0720906761
 20
-3.5988984169
 10
-6.0795848483
 20
-3.5966887368
 10
-6.0868470674
 20
-3.5944996688
 10
-6.0939130442
 20
-3.5923244661
 10
-6.1007839512
 20
-3.5901647231
 10
-6.1074588984
 20
-3.5880216528
 10
-6.1139704273
 20
-3.5858872922
 10
-6.1203201018
 20
-3.5837627873
 10
-6.1265065661
 20
-3.5816490617
 10
-6.1325579041
 20
-3.5795371946
 10
-6.1384833436
 20
-3.5774252389
 10
-6.1442737819
 20
-3.5753164889
 10
-6.1499297595
 20
-3.573209517
 10
-6.1554514932
 20
-3.5711042328
 10
-6.1608388846
 20
-3.5690019485
 10
-6.166091995
 20
-3.5669032711
  0
LINE
  5
359
100
AcDbEntity
  8
SCRITTE
100
AcDbLine
 62
253
  6
CONTINUOUS
 10
15.2897386424
 20
2.8457140734
 11
16.5052286114
 21
2.1562948383
  0
LINE
  5
35A
100
AcDbEntity
  8
SCRITTE
100
AcDbLine
 62
253
  6
CONTINUOUS
 10
21.5841655387
 20
2.550248684
 11
22.2787312482
 21
2.1562948383
  0
LWPOLYLINE
  5
35B
100
AcDbEntity
  8
0
100
AcDbPolyline
 62
7
  6
CONTINUOUS
 90
13
 70
0
 10
20.8471497562
 20
-1.5588714999
 10
20.778656946
 20
-1.5362576538
 10
20.7054486142
 20
-1.5177976144
 10
20.6275247607
 20
-1.5034913818
 10
20.5446228773
 20
-1.4936031691
 10
20.4570054722
 20
-1.4878687632
 10
20.3654600705
 20
-1.4854955244
 10
20.2701280955
 20
-1.4863739122
 10
20.1708681239
 20
-1.490613467
 10
20.0680434106
 20
-1.4977501705
 10
19.9617750406
 20
-1.50762935
 10
19.8519419289
 20
-1.5204056783
 10
19.7385440756
 20
-1.5360791554
  0
LINE
  5
35C
100
AcDbEntity
  8
SCRITTE
100
AcDbLine
 62
253
  6
CONTINUOUS
 10
14.0777391766
 20
2.7472256069
 11
13.8174952907
 21
2.8457140734
  0
LINE
  5
35D
100
AcDbEntity
  8
SCRITTE
100
AcDbLine
 62
253
  6
CONTINUOUS
 10
19.5070137418
 20
2.2547832946
 11
19.7672576185
 21
2.1562948383
  0
LWPOLYLINE
  5
35E
100
AcDbEntity
  8
RACCORDO
100
AcDbPolyline
 62
7
  6
CONTINUOUS
 90
6
 70
0
 10
23.1830136985
 20
4.0041089668
 10
23.2358217728
 20
3.9799281086
 10
23.2857647795
 20
3.9509355669
 10
23.3327218398
 20
3.9172501235
 10
23.3762715894
 20
3.8791541601
 10
23.3985903505
 20
3.8564727971
  0
LWPOLYLINE
  5
35F
100
AcDbEntity
  8
RACCORDO
100
AcDbPolyline
 62
253
  6
CONTINUOUS
 90
19
 70
0
 10
24.4114604405
 20
-5.3716489178
 10
24.4191200402
 20
-5.3713168019
 10
24.426818526
 20
-5.3703476202
 10
24.4345558979
 20
-5.3687413727
 10
24.4423986193
 20
-5.3664771479
 10
24.4502802269
 20
-5.3635758573
 10
24.4580013307
 20
-5.3601002352
 10
24.465554199
 20
-5.356034372
 10
24.4729465635
 20
-5.3513941772
 10
24.4800022298
 20
-5.3462901145
 10
24.4867095603
 20
-5.340712834
 10
24.4930801924
 20
-5.3346716856
 10
24.4989728448
 20
-5.3283051823
 10
24.5043779654
 20
-5.3216021472
 10
24.5093051061
 20
-5.3145737572
 10
24.5136416421
 20
-5.3073920564
 10
24.5173500314
 20
-5.3001143928
 10
24.5204678159
 20
-5.2926834184
 10
24.5229949956
 20
-5.2850991333
  0
LWPOLYLINE
  5
360
100
AcDbEntity
  8
RACCORDO
100
AcDbPolyline
 62
253
  6
CONTINUOUS
 90
9
 70
0
 10
24.5229949956
 20
-5.2850991333
 10
24.5764945045
 20
-5.2830542212
 10
24.6255769074
 20
-5.2769529383
 10
24.6694392505
 20
-5.2668950973
 10
24.7073639769
 20
-5.2530452376
 10
24.7387306647
 20
-5.2356299329
 10
24.763026177
 20
-5.2149340854
 10
24.7798530562
 20
-5.1912962648
 10
24.7867971049
 20
-5.1740360287
  0
LWPOLYLINE
  5
361
100
AcDbEntity
  8
RACCORDO
100
AcDbPolyline
 62
7
  6
CONTINUOUS
 90
14
 70
0
 10
24.1953146304
 20
-5.6216284606
 10
24.2142462477
 20
-5.621310046
 10
24.2793106902
 20
-5.6155853474
 10
24.3445169427
 20
-5.6024902316
 10
24.4086616233
 20
-5.5820508786
 10
24.4698565833
 20
-5.5549151371
 10
24.5283880204
 20
-5.5209902654
 10
24.5837244508
 20
-5.4803701911
 10
24.6336377052
 20
-5.4346758752
 10
24.6781731806
 20
-5.3841984825
 10
24.7173716836
 20
-5.3287047431
 10
24.7498757785
 20
-5.2700900577
 10
24.7753586207
 20
-5.209406217
 10
24.7867777577
 20
-5.1740304741
  0
LINE
  5
362
100
AcDbEntity
  8
RACCORDO
100
AcDbLine
 62
7
  6
CONTINUOUS
 10
7.5003315823
 20
-5.6216489178
 11
24.1949541244
 21
-5.6216489178
  0
LINE
  5
363
100
AcDbEntity
  8
RACCORDO
100
AcDbLine
 62
253
  6
CONTINUOUS
 10
7.7168379333
 20
-5.3716489178
 11
24.4114604405
 21
-5.3716489178
  0
LINE
  5
364
100
AcDbEntity
  8
RACCORDO
100
AcDbLine
 62
7
  6
CONTINUOUS
 10
24.6204219573
 20
-4.9476022378
 11
23.9384089101
 21
-4.9476022378
  0
LINE
  5
365
100
AcDbEntity
  8
RACCORDO
100
AcDbLine
 62
7
  6
CONTINUOUS
 10
22.0117436789
 20
-4.5053699632
 11
22.336911547
 21
-4.5053699632
  0
LINE
  5
366
100
AcDbEntity
  8
RACCORDO
100
AcDbLine
 62
253
  6
CONTINUOUS
 10
22.1416474895
 20
-4.3553699632
 11
22.4668153575
 21
-4.3553699632
  0
LINE
  5
367
100
AcDbEntity
  8
RACCORDO
100
AcDbLine
 62
253
  6
CONTINUOUS
 10
21.5737436888
 20
-4.2960068899
 11
21.6859877204
 21
-4.2960068899
  0
LWPOLYLINE
  5
368
100
AcDbEntity
  8
RACCORDO
100
AcDbPolyline
 62
253
  6
CONTINUOUS
 90
13
 70
0
 10
7.6552729195
 20
-5.2850991333
 10
7.5982329787
 20
-5.2830543372
 10
7.5385841323
 20
-5.2769533315
 10
7.4773021246
 20
-5.2668958653
 10
7.4153894408
 20
-5.2530464141
 10
7.3538589024
 20
-5.2356314894
 10
7.2937170987
 20
-5.2149359339
 10
7.235947917
 20
-5.1912982615
 10
7.1814964797
 20
-5.1651051362
 10
7.1312536681
 20
-5.1367850504
 10
7.0860415035
 20
-5.1068012944
 10
7.0465997043
 20
-5.0756443736
 10
7.0135736106
 20
-5.043824002
  0
LWPOLYLINE
  5
369
100
AcDbEntity
  8
RACCORDO
100
AcDbPolyline
 62
253
  6
CONTINUOUS
 90
13
 70
0
 10
22.1416474895
 20
-4.3553699632
 10
22.106880285
 20
-4.3541048761
 10
22.0704953603
 20
-4.3503291957
 10
22.0331055178
 20
-4.3441040533
 10
21.9953361045
 20
-4.3355306707
 10
21.9578310987
 20
-4.3247523582
 10
21.9212414518
 20
-4.3119552926
 10
21.8861157413
 20
-4.2973247539
 10
21.8531264357
 20
-4.2811339643
 10
21.823022886
 20
-4.26377705
 10
21.7963067892
 20
-4.245608881
 10
21.7732805742
 20
-4.2269078458
 10
21.7542427619
 20
-4.2079878242
  0
LWPOLYLINE
  5
36A
100
AcDbEntity
  8
RACCORDO
100
AcDbPolyline
 62
253
  6
CONTINUOUS
 90
10
 70
0
 10
21.2657778987
 20
-3.863060138
 10
21.2968102536
 20
-3.8645458518
 10
21.3294939026
 20
-3.8689588572
 10
21.3628576781
 20
-3.8761680417
 10
21.3959102008
 20
-3.8859592067
 10
21.4276693141
 20
-3.8980414244
 10
21.4571912726
 20
-3.9120556764
 10
21.4835988199
 20
-3.9275855343
 10
21.5061072526
 20
-3.944169538
 10
21.5240477171
 20
-3.9613148973
  0
LWPOLYLINE
  5
36B
100
AcDbEntity
  8
0
100
AcDbPolyline
 62
7
  6
CONTINUOUS
 90
8
 70
0
 10
19.9928822339
 20
-2.7534245732
 10
20.0201614076
 20
-2.7548167215
 10
20.0455318052
 20
-2.758844571
 10
20.0689934266
 20
-2.765508122
 10
20.0905574938
 20
-2.7747695308
 10
20.1102127849
 20
-2.786666641
 10
20.1279256342
 20
-2.8013129827
 10
20.1385183402
 20
-2.8124621872
  0
LWPOLYLINE
  5
36C
100
AcDbEntity
  8
0
100
AcDbPolyline
 62
7
  6
CONTINUOUS
 90
8
 70
0
 10
20.0578341392
 20
-2.8284245732
 10
20.0862698788
 20
-2.830117857
 10
20.1124433623
 20
-2.8344327764
 10
20.1363545897
 20
-2.8413693314
 10
20.1579161044
 20
-2.8509419957
 10
20.177215363
 20
-2.8631362955
 10
20.1945147352
 20
-2.87790881
 10
20.2035042051
 20
-2.8874326151
  0
LWPOLYLINE
  5
36D
100
AcDbEntity
  8
0
100
AcDbPolyline
 62
7
  6
CONTINUOUS
 90
7
 70
0
 10
20.4321560973
 20
-1.8668441273
 10
20.4674613528
 20
-1.8738909337
 10
20.4991757395
 20
-1.8841197532
 10
20.5272992574
 20
-1.897530586
 10
20.5519395388
 20
-1.9142810617
 10
20.5729889514
 20
-1.9342135505
 10
20.5750783976
 20
-1.9365882975
  0
LWPOLYLINE
  5
36E
100
AcDbEntity
  8
0
100
AcDbPolyline
 62
7
  6
CONTINUOUS
 90
7
 70
0
 10
20.367204192
 20
-1.7918441273
 10
20.4025845331
 20
-1.7989863921
 10
20.4343130259
 20
-1.8092233829
 10
20.4623896706
 20
-1.8225550997
 10
20.4868698549
 20
-1.8390920732
 10
20.507698191
 20
-1.8587237727
 10
20.5101784654
 20
-1.8615434003
  0
LWPOLYLINE
  5
36F
100
AcDbEntity
  8
RACCORDO
100
AcDbPolyline
 62
7
  6
CONTINUOUS
 90
3
 70
0
 10
22.5309835114
 20
4.1476181467
 10
22.4951405474
 20
4.1601671876
 10
22.4590174636
 20
4.1669598554
  0
LWPOLYLINE
  5
370
100
AcDbEntity
  8
ASSI
100
AcDbPolyline
 62
7
  6
CONTINUOUS
 90
3
 70
0
 10
22.5309835114
 20
4.1476181467
 10
22.4951405474
 20
4.1601671876
 10
22.4590174636
 20
4.1669598554
  0
LWPOLYLINE
  5
371
100
AcDbEntity
  8
RACCORDO
100
AcDbPolyline
 62
253
  6
CONTINUOUS
 90
9
 70
0
 10
22.0121301912
 20
-4.5053689673
 10
22.0321245042
 20
-4.5025878763
 10
22.0512772069
 20
-4.4947631226
 10
22.0697230456
 20
-4.4820531253
 10
22.0871895225
 20
-4.4646607242
 10
22.1033740345
 20
-4.4428894609
 10
22.1180023982
 20
-4.417115892
 10
22.1308317362
 20
-4.387776483
 10
22.1416474895
 20
-4.3553699632
  0
LWPOLYLINE
  5
372
100
AcDbEntity
  8
RACCORDO
100
AcDbPolyline
 62
253
  6
CONTINUOUS
 90
9
 70
0
 10
23.1856832356
 20
-1.8651385858
 10
23.2174580544
 20
-1.8639372916
 10
23.2468326183
 20
-1.8603200724
 10
23.2732718143
 20
-1.8542972088
 10
23.2963190623
 20
-1.8458997324
 10
23.3154492582
 20
-1.8352338797
 10
23.3301720204
 20
-1.8225279359
 10
23.340220369
 20
-1.8080287781
 10
23.3440101019
 20
-1.7983436152
  0
LINE
  5
373
100
AcDbEntity
  8
RACCORDO
100
AcDbLine
 62
7
  6
CONTINUOUS
 10
24.2694423091
 20
-3.8008689057
 11
26.0867347807
 21
-3.8008689057
  0
LINE
  5
374
100
AcDbEntity
  8
ASSI
100
AcDbLine
 62
7
  6
CONTINUOUS
 10
24.2694423091
 20
-3.8008689057
 11
26.0867347807
 21
-3.8008689057
  0
LINE
  5
375
100
AcDbEntity
  8
0
100
AcDbLine
 62
7
  6
CONTINUOUS
 10
6.3166798093
 20
-3.6852542745
 11
-5.2674705913
 21
-3.6852542745
  0
LINE
  5
376
100
AcDbEntity
  8
0
100
AcDbLine
 62
7
  6
CONTINUOUS
 10
12.9844056709
 20
-3.6756214057
 11
13.3826301323
 21
-3.6756214057
  0
LINE
  5
377
100
AcDbEntity
  8
0
100
AcDbLine
 62
7
  6
CONTINUOUS
 10
14.2461908278
 20
-3.6756214057
 11
14.6980768213
 21
-3.6756214057
  0
LINE
  5
378
100
AcDbEntity
  8
0
100
AcDbLine
 62
7
  6
CONTINUOUS
 10
14.9413407592
 20
-3.6756214057
 11
15.3736485164
 21
-3.6756214057
  0
LINE
  5
379
100
AcDbEntity
  8
0
100
AcDbLine
 62
7
  6
CONTINUOUS
 10
16.0012822412
 20
-3.6756214057
 11
16.0646597123
 21
-3.6756214057
  0
LINE
  5
37A
100
AcDbEntity
  8
0
100
AcDbLine
 62
7
  6
CONTINUOUS
 10
16.6947927865
 20
-3.6756214057
 11
17.1368571859
 21
-3.6756214057
  0
LINE
  5
37B
100
AcDbEntity
  8
0
100
AcDbLine
 62
7
  6
CONTINUOUS
 10
17.2078158434
 20
-3.6756214057
 11
17.6547984011
 21
-3.6756214057
  0
LINE
  5
37C
100
AcDbEntity
  8
0
100
AcDbLine
 62
7
  6
CONTINUOUS
 10
18.5119470445
 20
-3.6756214057
 11
18.9882159832
 21
-3.6756214057
  0
LINE
  5
37D
100
AcDbEntity
  8
0
100
AcDbLine
 62
7
  6
CONTINUOUS
 10
19.1209114833
 20
-3.6756212158
 11
19.5709791193
 21
-3.6756212158
  0
LINE
  5
37E
100
AcDbEntity
  8
0
100
AcDbLine
 62
7
  6
CONTINUOUS
 10
20.2629800253
 20
-3.6756212158
 11
20.6976417247
 21
-3.6756212158
  0
LINE
  5
37F
100
AcDbEntity
  8
RACCORDO
100
AcDbLine
 62
253
  6
CONTINUOUS
 10
-4.8149128932
 20
-3.667876322
 11
-5.10760508
 21
-3.667876322
  0
LINE
  5
380
100
AcDbEntity
  8
0
100
AcDbLine
 62
7
  6
CONTINUOUS
 10
12.9822798452
 20
-3.6006214057
 11
13.317678227
 21
-3.6006214057
  0
LINE
  5
381
100
AcDbEntity
  8
0
100
AcDbLine
 62
7
  6
CONTINUOUS
 10
14.2678414629
 20
-3.6006214057
 11
14.633124916
 21
-3.6006214057
  0
LINE
  5
382
100
AcDbEntity
  8
0
100
AcDbLine
 62
7
  6
CONTINUOUS
 10
14.9697634694
 20
-3.6006214057
 11
15.3086966111
 21
-3.6006214057
  0
LINE
  5
383
100
AcDbEntity
  8
0
100
AcDbLine
 62
7
  6
CONTINUOUS
 10
16.7114969936
 20
-3.6006214057
 11
17.0719052806
 21
-3.6006214057
  0
LINE
  5
384
100
AcDbEntity
  8
0
100
AcDbLine
 62
7
  6
CONTINUOUS
 10
17.2529912427
 20
-3.6006214057
 11
17.5898464958
 21
-3.6006214057
  0
LINE
  5
385
100
AcDbEntity
  8
0
100
AcDbLine
 62
7
  6
CONTINUOUS
 10
18.5132827123
 20
-3.6006214057
 11
18.923264078
 21
-3.6006214057
  0
LINE
  5
386
100
AcDbEntity
  8
0
100
AcDbLine
 62
7
  6
CONTINUOUS
 10
19.1425621184
 20
-3.6006212158
 11
19.506027214
 21
-3.6006212158
  0
LINE
  5
387
100
AcDbEntity
  8
0
100
AcDbLine
 62
7
  6
CONTINUOUS
 10
20.2625823396
 20
-3.6006212158
 11
20.6326898194
 21
-3.6006212158
  0
LINE
  5
388
100
AcDbEntity
  8
0
100
AcDbLine
 62
253
  6
CONTINUOUS
 10
26.5585330928
 20
-3.4584225354
 11
26.0876854835
 21
-3.4584225354
  0
LINE
  5
389
100
AcDbEntity
  8
0
100
AcDbLine
 62
253
  6
CONTINUOUS
 10
25.342394142
 20
-3.4584225354
 11
24.3682980611
 21
-3.4584225354
  0
LINE
  5
38A
100
AcDbEntity
  8
0
100
AcDbLine
 62
253
  6
CONTINUOUS
 10
26.5831687088
 20
-3.4012796783
 11
26.1294948274
 21
-3.4012796783
  0
LINE
  5
38B
100
AcDbEntity
  8
0
100
AcDbLine
 62
253
  6
CONTINUOUS
 10
25.350071964
 20
-3.4012796783
 11
24.3847937831
 21
-3.4012796783
  0
LINE
  5
38C
100
AcDbEntity
  8
0
100
AcDbLine
 62
7
  6
CONTINUOUS
 10
17.9042503368
 20
-3.2434435523
 11
18.5196436586
 21
-3.2434435523
  0
LINE
  5
38D
100
AcDbEntity
  8
RACCORDO
100
AcDbLine
 62
253
  6
CONTINUOUS
 10
-4.7684167795
 20
-3.2050572046
 11
-5.1284563645
 21
-3.2050572046
  0
LINE
  5
38E
100
AcDbEntity
  8
0
100
AcDbLine
 62
7
  6
CONTINUOUS
 10
17.8392984315
 20
-3.1684435523
 11
18.4546917533
 21
-3.1684435523
  0
LINE
  5
38F
100
AcDbEntity
  8
0
100
AcDbLine
 62
7
  6
CONTINUOUS
 10
26.7130725193
 20
-2.9512796783
 11
100.550807419
 21
-2.9512796783
  0
LINE
  5
390
100
AcDbEntity
  8
0
100
AcDbLine
 62
7
  6
CONTINUOUS
 10
18.5258725295
 20
-2.9090261106
 11
18.0932235583
 21
-2.9090261106
  0
LINE
  5
391
100
AcDbEntity
  8
0
100
AcDbLine
 62
7
  6
CONTINUOUS
 10
19.8155437241
 20
-2.8284245732
 11
20.0578341392
 21
-2.8284245732
  0
LINE
  5
392
100
AcDbEntity
  8
0
100
AcDbLine
 62
7
  6
CONTINUOUS
 10
19.7505918188
 20
-2.7534245732
 11
19.9928822339
 21
-2.7534245732
  0
LINE
  5
393
100
AcDbEntity
  8
0
100
AcDbLine
 62
7
  6
CONTINUOUS
 10
100.8646348138
 20
-2.6012796783
 11
109.2110614568
 21
-2.6012796783
  0
LINE
  5
394
100
AcDbEntity
  8
0
100
AcDbLine
 62
7
  6
CONTINUOUS
 10
20.161157242
 20
-2.473876991
 11
19.902908939
 21
-2.473876991
  0
LINE
  5
395
100
AcDbEntity
  8
ASSI
100
AcDbLine
 62
253
  6
CONTINUOUS
 10
-6.3823072408
 20
-2.3638721458
 11
-5.5177859155
 21
-2.3638721458
  0
LINE
  5
396
100
AcDbEntity
  8
RACCORDO
100
AcDbLine
 62
253
  6
CONTINUOUS
 10
23.1856832356
 20
-1.8651385858
 11
22.8605153676
 21
-1.8651385858
  0
LINE
  5
397
100
AcDbEntity
  8
0
100
AcDbLine
 62
7
  6
CONTINUOUS
 10
100.8657771904
 20
-1.8012796783
 11
109.2110614568
 21
-1.8012796783
  0
LINE
  5
398
100
AcDbEntity
  8
0
100
AcDbLine
 62
7
  6
CONTINUOUS
 10
18.948924953
 20
-1.510786527
 11
18.5117795779
 21
-1.510786527
  0
LINE
  5
399
100
AcDbEntity
  8
0
100
AcDbLine
 62
7
  6
CONTINUOUS
 10
17.5593551497
 20
-1.510786527
 11
17.1122582767
 21
-1.510786527
  0
LINE
  5
39A
100
AcDbEntity
  8
0
100
AcDbLine
 62
7
  6
CONTINUOUS
 10
16.2132589556
 20
-1.510786527
 11
15.7617470851
 21
-1.510786527
  0
LINE
  5
39B
100
AcDbEntity
  8
0
100
AcDbLine
 62
7
  6
CONTINUOUS
 10
14.7034285346
 20
-1.510786527
 11
14.2518517122
 21
-1.510786527
  0
LINE
  5
39C
100
AcDbEntity
  8
0
100
AcDbLine
 62
7
  6
CONTINUOUS
 10
13.4139322969
 20
-1.510786527
 11
12.9230448493
 21
-1.510786527
  0
LINE
  5
39D
100
AcDbEntity
  8
0
100
AcDbLine
 62
7
  6
CONTINUOUS
 10
15.3230483213
 20
-1.5106566232
 11
14.8711623278
 21
-1.5106566232
  0
LINE
  5
39E
100
AcDbEntity
  8
RACCORDO
100
AcDbLine
 62
253
  6
CONTINUOUS
 10
23.1330351363
 20
-1.4579883955
 11
22.8078672682
 21
-1.4579883955
  0
LINE
  5
39F
100
AcDbEntity
  8
0
100
AcDbLine
 62
7
  6
CONTINUOUS
 10
27.1460852212
 20
-1.4512796783
 11
100.550807419
 21
-1.4512796783
  0
LINE
  5
3A0
100
AcDbEntity
  8
0
100
AcDbLine
 62
7
  6
CONTINUOUS
 10
27.2130725193
 20
-1.2192288707
 11
101.050807419
 21
-1.2192288707
  0
LINE
  5
3A1
100
AcDbEntity
  8
RACCORDO
100
AcDbLine
 62
253
  6
CONTINUOUS
 10
22.9227275951
 20
-1.1959351192
 11
22.5821187499
 21
-1.1959351192
  0
LINE
  5
3A2
100
AcDbEntity
  8
RACCORDO
100
AcDbLine
 62
253
  6
CONTINUOUS
 10
22.8875616326
 20
-0.9245016591
 11
22.5470134151
 21
-0.9245016591
  0
LINE
  5
3A3
100
AcDbEntity
  8
0
100
AcDbLine
 62
7
  6
CONTINUOUS
 10
101.3646348138
 20
-0.8692288707
 11
109.7110614568
 21
-0.8692288707
  0
LINE
  5
3A4
100
AcDbEntity
  8
0
100
AcDbLine
 62
253
  6
CONTINUOUS
 10
27.3429763299
 20
-0.7692288707
 11
26.8893024486
 21
-0.7692288707
  0
LINE
  5
3A5
100
AcDbEntity
  8
0
100
AcDbLine
 62
253
  6
CONTINUOUS
 10
26.1098795852
 20
-0.7692288707
 11
25.1446014042
 21
-0.7692288707
  0
LINE
  5
3A6
100
AcDbEntity
  8
RACCORDO
100
AcDbLine
 62
253
  6
CONTINUOUS
 10
-6.8187585014
 20
-0.7685040029
 11
-6.4482521625
 21
-0.7685040029
  0
LINE
  5
3A7
100
AcDbEntity
  8
0
100
AcDbLine
 62
253
  6
CONTINUOUS
 10
27.3554560884
 20
-0.6978002993
 11
26.8846084791
 21
-0.6978002993
  0
LINE
  5
3A8
100
AcDbEntity
  8
0
100
AcDbLine
 62
253
  6
CONTINUOUS
 10
26.1393171376
 20
-0.6978002993
 11
25.1652210567
 21
-0.6978002993
  0
LINE
  5
3A9
100
AcDbEntity
  8
RACCORDO
100
AcDbLine
 62
253
  6
CONTINUOUS
 10
-6.7842233838
 20
-0.5097540743
 11
-6.4043219237
 21
-0.5097540743
  0
LINE
  5
3AA
100
AcDbEntity
  8
RACCORDO
100
AcDbLine
 62
7
  6
CONTINUOUS
 10
25.9698904331
 20
-0.2729063112
 11
25.2878773859
 21
-0.2729063112
  0
LWPOLYLINE
  5
3AB
100
AcDbEntity
  8
RACCORDO
100
AcDbPolyline
 62
253
  6
CONTINUOUS
 90
13
 70
0
 10
9.1995953188
 20
0.0645905843
 10
9.1425539181
 20
0.0666354964
 10
9.082903783
 20
0.0727367794
 10
9.0216207477
 20
0.0827946207
 10
8.9597073595
 20
0.0966444809
 10
8.8981764781
 20
0.1140597861
 10
8.8380347052
 20
0.1347556342
 10
8.7802659181
 20
0.1583934557
 10
8.7258151735
 20
0.1845865523
 10
8.6755732473
 20
0.2129064235
 10
8.6303620621
 20
0.2428897761
 10
8.590921241
 20
0.2740461035
 10
8.5578960083
 20
0.3058657101
  0
LWPOLYLINE
  5
3AC
100
AcDbEntity
  8
RACCORDO
100
AcDbPolyline
 62
253
  6
CONTINUOUS
 90
10
 70
0
 10
21.9890857012
 20
-1.357448411
 10
22.02011829
 20
-1.3589341461
 10
22.0528021233
 20
-1.3633472032
 10
22.0861660108
 20
-1.3705564497
 10
22.1192185545
 20
-1.3803476648
 10
22.1509776079
 20
-1.3924299057
 10
22.1804994602
 20
-1.406444152
 10
22.2069068785
 20
-1.4219739748
 10
22.229415174
 20
-1.4385579098
 10
22.2473555196
 20
-1.4557031704
  0
LWPOLYLINE
  5
3AD
100
AcDbEntity
  8
RACCORDO
100
AcDbPolyline
 62
7
  6
CONTINUOUS
 90
10
 70
0
 10
-4.2188677629
 20
1.7762193965
 10
-4.2349996824
 20
1.7770871726
 10
-4.2510095914
 20
1.7791593401
 10
-4.2668974898
 20
1.7824358989
 10
-4.2831091489
 20
1.7870787729
 10
-4.2991987975
 20
1.7929260383
 10
-4.3138291215
 20
1.7994919234
 10
-4.3265543495
 20
1.8066145042
 10
-4.3378202529
 20
1.8144557046
 10
-4.3476268317
 20
1.8230155246
  0
LWPOLYLINE
  5
3AE
100
AcDbEntity
  8
RACCORDO
100
AcDbPolyline
 62
253
  6
CONTINUOUS
 90
5
 70
0
 10
6.2678041233
 20
4.1684127757
 10
6.2988127353
 20
4.1645517319
 10
6.3307510862
 20
4.1523040027
 10
6.3616243149
 20
4.1318683698
 10
6.3909100165
 20
4.1035906236
  0
LWPOLYLINE
  5
3AF
100
AcDbEntity
  8
ASSI
100
AcDbPolyline
 62
253
  6
CONTINUOUS
 90
5
 70
0
 10
6.2678041233
 20
4.1684127757
 10
6.2988127353
 20
4.1645517319
 10
6.3307510862
 20
4.1523040027
 10
6.3616243149
 20
4.1318683698
 10
6.3909100165
 20
4.1035906236
  0
LWPOLYLINE
  5
3B0
100
AcDbEntity
  8
0
100
AcDbPolyline
 62
7
  6
CONTINUOUS
 90
10
 70
0
 10
20.0095135718
 20
-1.8045877103
 10
20.0511529019
 20
-1.7979693982
 10
20.0923144204
 20
-1.7926437608
 10
20.1329981276
 20
-1.7886107981
 10
20.1731989171
 20
-1.785859957
 10
20.2129218953
 20
-1.7844017906
 10
20.25218238
 20
-1.7842679585
 10
20.2909854774
 20
-1.7854690139
 10
20.3293260814
 20
-1.7879944035
 10
20.367204192
 20
-1.7918441273
  0
LWPOLYLINE
  5
3B1
100
AcDbEntity
  8
0
100
AcDbPolyline
 62
7
  6
CONTINUOUS
 90
10
 70
0
 10
20.0744654771
 20
-1.8795877103
 10
20.1166290201
 20
-1.8729186373
 10
20.1581417671
 20
-1.8675630635
 10
20.1990037182
 20
-1.863520989
 10
20.239153859
 20
-1.8607927063
 10
20.2786532038
 20
-1.8593779229
 10
20.3176847958
 20
-1.8592757611
 10
20.3563096492
 20
-1.8604859282
 10
20.3944667497
 20
-1.863008717
 10
20.4321560973
 20
-1.8668441273
  0
LWPOLYLINE
  5
3B2
100
AcDbEntity
  8
RACCORDO
100
AcDbPolyline
 62
253
  6
CONTINUOUS
 90
13
 70
0
 10
22.8078672682
 20
-1.4579883955
 10
22.7734537713
 20
-1.4605592699
 10
22.7382912434
 20
-1.4675235253
 10
22.7029861115
 20
-1.4787646941
 10
22.6681438595
 20
-1.4940944051
 10
22.6343716576
 20
-1.5132499958
 10
22.6022662166
 20
-1.5358943386
 10
22.5723232675
 20
-1.5616909371
 10
22.5451297874
 20
-1.5901482299
 10
22.5213020647
 20
-1.6205659081
 10
22.5012210539
 20
-1.6523140504
 10
22.4850946014
 20
-1.6848963887
 10
22.4731106399
 20
-1.7177564467
  0
LWPOLYLINE
  5
3B3
100
AcDbEntity
  8
RACCORDO
100
AcDbPolyline
 62
253
  6
CONTINUOUS
 90
19
 70
0
 10
9.227103339
 20
0.8251644168
 10
9.1819139686
 20
0.8224206079
 10
9.1358736916
 20
0.8158151972
 10
9.0893314649
 20
0.8053994473
 10
9.0426396996
 20
0.7912540474
 10
8.9961529846
 20
0.7734867002
 10
8.9502253994
 20
0.7522312692
 10
8.9052056206
 20
0.7276495218
 10
8.8614353003
 20
0.6999288687
 10
8.8192478671
 20
0.6692791351
 10
8.7789644648
 20
0.6359326596
 10
8.7408906087
 20
0.6001434226
 10
8.7053148965
 20
0.5621840608
 10
8.6725082688
 20
0.5223423102
 10
8.6427201867
 20
0.4809207226
 10
8.616175847
 20
0.4382352667
 10
8.5930770883
 20
0.394610125
 10
8.5736008328
 20
0.3503752447
 10
8.5578960083
 20
0.3058657101
  0
LWPOLYLINE
  5
3B4
100
AcDbEntity
  8
RACCORDO
100
AcDbPolyline
 62
253
  6
CONTINUOUS
 90
3
 70
0
 10
23.1955274226
 20
-1.357448411
 10
23.1670683989
 20
-1.3589341242
 10
23.156086074
 20
-1.3608696218
  0
LWPOLYLINE
  5
3B5
100
AcDbEntity
  8
RACCORDO
100
AcDbPolyline
 62
253
  6
CONTINUOUS
 90
19
 70
0
 10
22.5470134151
 20
-0.9245016591
 10
22.508210953
 20
-0.9262604602
 10
22.469345534
 20
-0.9312002937
 10
22.430417158
 20
-0.9393211595
 10
22.3911169384
 20
-0.9507427254
 10
22.3517537618
 20
-0.9653453236
 10
22.313254288
 20
-0.9827699506
 10
22.2756615773
 20
-1.0030710506
 10
22.2389325695
 20
-1.0261941793
 10
22.2038647432
 20
-1.0516169999
 10
22.1704958778
 20
-1.0793819753
 10
22.138788194
 20
-1.1094466425
 10
22.1094258327
 20
-1.1411612769
 10
22.0824437305
 20
-1.1745815452
 10
22.0578069507
 20
-1.2096517806
 10
22.0360948248
 20
-1.2455552574
 10
22.0175004632
 20
-1.2820197338
 10
22.0018307553
 20
-1.3193174517
 10
21.9890857012
 20
-1.357448411
  0
LWPOLYLINE
  5
3B6
100
AcDbEntity
  8
RACCORDO
100
AcDbPolyline
 62
253
  6
CONTINUOUS
 90
19
 70
0
 10
9.3111298739
 20
0.1511403688
 10
9.3034480786
 20
0.1508025836
 10
9.2957363253
 20
0.1498299366
 10
9.2879946139
 20
0.1482224278
 10
9.280159538
 20
0.1459590703
 10
9.2722945041
 20
0.143060851
 10
9.2645897314
 20
0.13959073
 10
9.2570527078
 20
0.1355359288
 10
9.2496759453
 20
0.1309092259
 10
9.2426271987
 20
0.1258119177
 10
9.2359116792
 20
0.1202296674
 10
9.2295241755
 20
0.1141768117
 10
9.2236168088
 20
0.107797657
 10
9.2182019313
 20
0.1010798789
 10
9.2132671908
 20
0.0940358018
 10
9.2089276527
 20
0.0868467058
 10
9.2052216723
 20
0.0795730176
 10
9.2021108943
 20
0.0721543104
 10
9.1995953188
 20
0.0645905843
  0
LWPOLYLINE
  5
3B7
100
AcDbEntity
  8
RACCORDO
100
AcDbPolyline
 62
253
  6
CONTINUOUS
 90
9
 70
0
 10
26.0673173949
 20
0.0645905843
 10
26.1208141634
 20
0.0666352696
 10
26.1698947549
 20
0.072735972
 10
26.2137561882
 20
0.0827930035
 10
26.2516807888
 20
0.096641937
 10
26.2830480519
 20
0.114056332
 10
26.3073447315
 20
0.1347514697
 10
26.3241731245
 20
0.1583889599
 10
26.3311954988
 20
0.1759155126
  0
LWPOLYLINE
  5
3B8
100
AcDbEntity
  8
RACCORDO
100
AcDbPolyline
 62
253
  6
CONTINUOUS
 90
19
 70
0
 10
22.5821187753
 20
-1.1959351488
 10
22.5590496155
 20
-1.1967702381
 10
22.5356020041
 20
-1.1995954914
 10
22.5119522761
 20
-1.2043866513
 10
22.4882748679
 20
-1.2111039644
 10
22.4647520488
 20
-1.219695388
 10
22.4415723598
 20
-1.2300952418
 10
22.4189159841
 20
-1.2422200453
 10
22.3969483266
 20
-1.2559759053
 10
22.3758303717
 20
-1.2712624261
 10
22.3557251796
 20
-1.28796235
 10
22.3367823282
 20
-1.3059494596
 10
22.3191343548
 20
-1.3250979279
 10
22.3029101911
 20
-1.3452781441
 10
22.2882469673
 20
-1.3663270166
 10
22.2752708323
 20
-1.3880563871
 10
22.2640819504
 20
-1.4102913093
 10
22.2547600269
 20
-1.4328741809
 10
22.2473746769
 20
-1.4556356401
  0
LINE
  5
3B9
100
AcDbEntity
  8
0
100
AcDbLine
 62
7
  6
CONTINUOUS
 10
101.3657771904
 20
-0.0692288707
 11
109.7110614568
 21
-0.0692288707
  0
LINE
  5
3BA
100
AcDbEntity
  8
RACCORDO
100
AcDbLine
 62
7
  6
CONTINUOUS
 10
-4.0434293459
 20
0.1033636092
 11
-3.7400598759
 21
0.1033636092
  0
LINE
  5
3BB
100
AcDbEntity
  8
RACCORDO
100
AcDbLine
 62
253
  6
CONTINUOUS
 10
26.0057523811
 20
0.1511403688
 11
9.3111298739
 21
0.1511403688
  0
LINE
  5
3BC
100
AcDbEntity
  8
0
100
AcDbLine
 62
7
  6
CONTINUOUS
 10
27.2747928501
 20
0.2807711293
 11
101.050807419
 21
0.2807711293
  0
LINE
  5
3BD
100
AcDbEntity
  8
RACCORDO
100
AcDbLine
 62
253
  6
CONTINUOUS
 10
27.2703139025
 20
0.2991694417
 11
26.3521471457
 21
0.2991694417
  0
LINE
  5
3BE
100
AcDbEntity
  8
ASSI
100
AcDbLine
 62
253
  6
CONTINUOUS
 10
27.2703139025
 20
0.2991694417
 11
26.3521471457
 21
0.2991694417
  0
LINE
  5
3BF
100
AcDbEntity
  8
RACCORDO
100
AcDbLine
 62
253
  6
CONTINUOUS
 10
27.2341265605
 20
0.3754454847
 11
26.352352712
 21
0.3754454847
  0
LINE
  5
3C0
100
AcDbEntity
  8
ASSI
100
AcDbLine
 62
253
  6
CONTINUOUS
 10
27.2341265605
 20
0.3754454847
 11
26.352352712
 21
0.3754454847
  0
LINE
  5
3C1
100
AcDbEntity
  8
RACCORDO
100
AcDbLine
 62
253
  6
CONTINUOUS
 10
-3.9176752393
 20
0.4541615614
 11
-3.6249830524
 21
0.4541615614
  0
LINE
  5
3C2
100
AcDbEntity
  8
DRAFT
100
AcDbLine
 62
7
  6
CONTINUOUS
 10
26.2934497484
 20
0.5932066946
 11
27.0525265041
 21
0.5932066946
  0
LINE
  5
3C3
100
AcDbEntity
  8
ASSI
100
AcDbLine
 62
7
  6
CONTINUOUS
 10
26.2934497484
 20
0.5932066946
 11
27.0525265041
 21
0.5932066946
  0
LINE
  5
3C4
100
AcDbEntity
  8
RACCORDO
100
AcDbLine
 62
253
  6
CONTINUOUS
 10
-6.0345510384
 20
0.7392455253
 11
-6.4236682563
 21
0.7392455253
  0
LINE
  5
3C5
100
AcDbEntity
  8
RACCORDO
100
AcDbLine
 62
253
  6
CONTINUOUS
 10
25.9217258462
 20
0.8251644168
 11
9.227103339
 21
0.8251644168
  0
LINE
  5
3C6
100
AcDbEntity
  8
RACCORDO
100
AcDbLine
 62
253
  6
CONTINUOUS
 10
-5.9271093592
 20
0.9265668824
 11
-6.3294336855
 21
0.9265668824
  0
LINE
  5
3C7
100
AcDbEntity
  8
RACCORDO
100
AcDbLine
 62
7
  6
CONTINUOUS
 10
18.4224826042
 20
0.9669775794
 11
15.979782838
 21
0.9669775794
  0
LINE
  5
3C8
100
AcDbEntity
  8
RACCORDO
100
AcDbLine
 62
253
  6
CONTINUOUS
 10
25.9247857562
 20
1.1042156523
 11
26.5930812284
 21
1.1042156523
  0
LINE
  5
3C9
100
AcDbEntity
  8
ASSI
100
AcDbLine
 62
253
  6
CONTINUOUS
 10
25.9247857562
 20
1.1042156523
 11
26.5930812284
 21
1.1042156523
  0
LINE
  5
3CA
100
AcDbEntity
  8
RACCORDO
100
AcDbLine
 62
7
  6
CONTINUOUS
 10
25.9055171786
 20
1.1301445131
 11
26.5430962939
 21
1.1301445131
  0
LINE
  5
3CB
100
AcDbEntity
  8
ASSI
100
AcDbLine
 62
7
  6
CONTINUOUS
 10
25.9055171786
 20
1.1301445131
 11
26.5430962939
 21
1.1301445131
  0
LINE
  5
3CC
100
AcDbEntity
  8
RACCORDO
100
AcDbLine
 62
7
  6
CONTINUOUS
 10
17.8651361447
 20
1.2547833005
 11
16.1259437388
 21
1.2547833005
  0
LINE
  5
3CD
100
AcDbEntity
  8
ASSI
100
AcDbLine
 62
7
  6
CONTINUOUS
 10
17.8651361447
 20
1.2547833005
 11
16.1259437388
 21
1.2547833005
  0
LINE
  5
3CE
100
AcDbEntity
  8
RACCORDO
100
AcDbLine
 62
7
  6
CONTINUOUS
 10
-4.7596444983
 20
1.4703858309
 11
7.2695240792
 21
1.4703858309
  0
LINE
  5
3CF
100
AcDbEntity
  8
DRAFT
100
AcDbLine
 62
7
  6
CONTINUOUS
 10
17.9503496029
 20
1.7623409897
 11
15.1790683107
 21
1.7623409897
  0
LINE
  5
3D0
100
AcDbEntity
  8
RACCORDO
100
AcDbLine
 62
7
  6
CONTINUOUS
 10
15.1790683107
 20
1.7623409897
 11
8.9489961722
 21
1.7623409897
  0
LINE
  5
3D1
100
AcDbEntity
  8
ASSI
100
AcDbLine
 62
7
  6
CONTINUOUS
 10
24.6620514285
 20
1.7623409897
 11
8.9489961722
 21
1.7623409897
  0
LINE
  5
3D2
100
AcDbEntity
  8
DRAFT
100
AcDbLine
 62
7
  6
CONTINUOUS
 10
8.6426386522
 20
1.7623409897
 11
15.0471023601
 21
1.7623409897
  0
LINE
  5
3D3
100
AcDbEntity
  8
RACCORDO
100
AcDbLine
 62
7
  6
CONTINUOUS
 10
17.9503496029
 20
1.7623409897
 11
25.2252795302
 21
1.7623409897
  0
LINE
  5
3D4
100
AcDbEntity
  8
DRAFT
100
AcDbLine
 62
7
  6
CONTINUOUS
 10
-4.2158943831
 20
1.7762193965
 11
6.9970724559
 21
1.7762193965
  0
LINE
  5
3D5
100
AcDbEntity
  8
ASSI
100
AcDbLine
 62
7
  6
CONTINUOUS
 10
-4.2158943831
 20
1.7762193965
 11
6.9970724559
 21
1.7762193965
  0
LINE
  5
3D6
100
AcDbEntity
  8
RACCORDO
100
AcDbLine
 62
7
  6
CONTINUOUS
 10
6.9970724559
 20
1.7762193965
 11
-5.0819329769
 21
1.7762193965
  0
LINE
  5
3D7
100
AcDbEntity
  8
RACCORDO
100
AcDbLine
 62
253
  6
CONTINUOUS
 10
-4.4233058116
 20
2.0143911104
 11
6.8426481165
 21
2.0143911104
  0
LINE
  5
3D8
100
AcDbEntity
  8
ASSI
100
AcDbLine
 62
253
  6
CONTINUOUS
 10
-4.4233058116
 20
2.0143911104
 11
6.8426481165
 21
2.0143911104
  0
LINE
  5
3D9
100
AcDbEntity
  8
RACCORDO
100
AcDbLine
 62
253
  6
CONTINUOUS
 10
-5.312118238
 20
2.0405424309
 11
-4.5574050502
 21
2.0405388647
  0
LINE
  5
3DA
100
AcDbEntity
  8
RACCORDO
100
AcDbLine
 62
253
  6
CONTINUOUS
 10
-5.3575351199
 20
2.0804719325
 11
-4.6070877656
 21
2.080470498
  0
LINE
  5
3DB
100
AcDbEntity
  8
RACCORDO
100
AcDbLine
 62
253
  6
CONTINUOUS
 10
-4.5249898562
 20
2.1013230328
 11
6.7392596149
 21
2.1013230328
  0
LINE
  5
3DC
100
AcDbEntity
  8
ASSI
100
AcDbLine
 62
253
  6
CONTINUOUS
 10
-4.5249898562
 20
2.1013230328
 11
6.7392596149
 21
2.1013230328
  0
LINE
  5
3DD
100
AcDbEntity
  8
SCRITTE
100
AcDbLine
 62
253
  6
CONTINUOUS
 10
14.0803574808
 20
2.1562948383
 11
14.4267674771
 21
2.1562948383
  0
LINE
  5
3DE
100
AcDbEntity
  8
SCRITTE
100
AcDbLine
 62
253
  6
CONTINUOUS
 10
18.5836894566
 20
2.1562948383
 11
19.1033047401
 21
2.1562948383
  0
LINE
  5
3DF
100
AcDbEntity
  8
SCRITTE
100
AcDbLine
 62
253
  6
CONTINUOUS
 10
19.7672576185
 20
2.1562948383
 11
20.2002702585
 21
2.1562948383
  0
LINE
  5
3E0
100
AcDbEntity
  8
0
100
AcDbLine
 62
7
  6
CONTINUOUS
 10
6.3399199915
 20
2.2147457255
 11
-4.9185975018
 21
2.2147457255
  0
LINE
  5
3E1
100
AcDbEntity
  8
ASSI
100
AcDbLine
 62
7
  6
CONTINUOUS
 10
6.3399199915
 20
2.2147457255
 11
-4.9185975018
 21
2.2147457255
  0
LINE
  5
3E2
100
AcDbEntity
  8
0
100
AcDbLine
 62
7
  6
CONTINUOUS
 10
-5.0721042769
 20
2.2147457255
 11
-5.7853655458
 21
2.2147457255
  0
LINE
  5
3E3
100
AcDbEntity
  8
SCRITTE
100
AcDbLine
 62
253
  6
CONTINUOUS
 10
18.8421881044
 20
2.4517602072
 11
18.4957781081
 21
2.4517602072
  0
LINE
  5
3E4
100
AcDbEntity
  8
SCRITTE
100
AcDbLine
 62
253
  6
CONTINUOUS
 10
12.7222754712
 20
2.4517602072
 11
13.3284932539
 21
2.4517602072
  0
LINE
  5
3E5
100
AcDbEntity
  8
RACCORDO
100
AcDbLine
 62
7
  6
CONTINUOUS
 10
7.7419664511
 20
2.5577043999
 11
7.9608514777
 21
2.5577043999
  0
LINE
  5
3E6
100
AcDbEntity
  8
SCRITTE
100
AcDbLine
 62
253
  6
CONTINUOUS
 10
9.8923867605
 20
2.6487371403
 11
10.3542663702
 21
2.6487371403
  0
LINE
  5
3E7
100
AcDbEntity
  8
SCRITTE
100
AcDbLine
 62
253
  6
CONTINUOUS
 10
20.2269560353
 20
2.6487371403
 11
20.6888362953
 21
2.6487371403
  0
LINE
  5
3E8
100
AcDbEntity
  8
SCRITTE
100
AcDbLine
 62
253
  6
CONTINUOUS
 10
19.5909980721
 20
2.8457140734
 11
19.1579854322
 21
2.8457140734
  0
LINE
  5
3E9
100
AcDbEntity
  8
SCRITTE
100
AcDbLine
 62
253
  6
CONTINUOUS
 10
18.4940325538
 20
2.8457140734
 11
17.9744172702
 21
2.8457140734
  0
LINE
  5
3EA
100
AcDbEntity
  8
SCRITTE
100
AcDbLine
 62
253
  6
CONTINUOUS
 10
13.8174952907
 20
2.8457140734
 11
13.4710852944
 21
2.8457140734
  0
LINE
  5
3EB
100
AcDbEntity
  8
RACCORDO
100
AcDbLine
 62
7
  6
CONTINUOUS
 10
-5.7833184706
 20
2.2147427363
 11
-5.7853650881
 21
2.2147457255
  0
LINE
  5
3EC
100
AcDbEntity
  8
RACCORDO
100
AcDbLine
 62
7
  6
CONTINUOUS
 10
22.9599124416
 20
4.0471297969
 11
23.0164304247
 21
4.0444616869
  0
LINE
  5
3ED
100
AcDbEntity
  8
RACCORDO
100
AcDbLine
 62
7
  6
CONTINUOUS
 10
22.4590174636
 20
4.1669598554
 11
22.4319982517
 21
4.1684061364
  0
LINE
  5
3EE
100
AcDbEntity
  8
ASSI
100
AcDbLine
 62
7
  6
CONTINUOUS
 10
22.4590174636
 20
4.1669598554
 11
22.4319982517
 21
4.1684061364
  0
LWPOLYLINE
  5
3EF
100
AcDbEntity
  8
RACCORDO
100
AcDbPolyline
 62
253
  6
CONTINUOUS
 90
5
 70
0
 10
22.5570470693
 20
4.1035906236
 10
22.5789449205
 20
4.1017189374
 10
22.5990546243
 20
4.0959370862
 10
22.6167652675
 20
4.0864210272
 10
22.6313565196
 20
4.0736614811
  0
LWPOLYLINE
  5
3F0
100
AcDbEntity
  8
ASSI
100
AcDbPolyline
 62
253
  6
CONTINUOUS
 90
5
 70
0
 10
22.5570470693
 20
4.1035906236
 10
22.5789449205
 20
4.1017189374
 10
22.5990546243
 20
4.0959370862
 10
22.6167652675
 20
4.0864210272
 10
22.6313565196
 20
4.0736614811
  0
LWPOLYLINE
  5
3F1
100
AcDbEntity
  8
RACCORDO
100
AcDbPolyline
 62
253
  6
CONTINUOUS
 90
6
 70
0
 10
22.9599124416
 20
4.0471297969
 10
22.9874498259
 20
4.0445967582
 10
23.0181827466
 20
4.0357028903
 10
23.0482913413
 20
4.0205028695
 10
23.0774530174
 20
3.9991595535
 10
23.1053553277
 20
3.9719016212
  0
LWPOLYLINE
  5
3F2
100
AcDbEntity
  8
RACCORDO
100
AcDbPolyline
 62
7
  6
CONTINUOUS
 90
4
 70
0
 10
23.0164304247
 20
4.0444616869
 10
23.0727712301
 20
4.0364197798
 10
23.1283994606
 20
4.0229875263
 10
23.1830136985
 20
4.0041089668
  0
LWPOLYLINE
  5
3F3
100
AcDbEntity
  8
0
100
AcDbPolyline
 62
7
  6
CONTINUOUS
 90
6
 70
0
 10
20.5131424426
 20
-2.5773033864
 10
20.5270493464
 20
-2.5737191419
 10
20.5413263345
 20
-2.5685926585
 10
20.5559734071
 20
-2.5619239363
 10
20.571044025
 20
-2.5533577411
 10
20.5864847273
 20
-2.543249307
  0
LWPOLYLINE
  5
3F4
100
AcDbEntity
  8
0
100
AcDbPolyline
 62
7
  6
CONTINUOUS
 90
4
 70
0
 10
20.5780943479
 20
-2.6523033864
 10
20.5915139
 20
-2.6489092055
 10
20.6051733828
 20
-2.6441152565
 10
20.6190727962
 20
-2.6379215393
  0
LWPOLYLINE
  5
3F5
100
AcDbEntity
  8
RACCORDO
100
AcDbPolyline
 62
7
  6
CONTINUOUS
 90
10
 70
0
 10
-5.0818802129
 20
1.7762193965
 10
-5.0974344253
 20
1.7750544926
 10
-5.1132779643
 20
1.7712939764
 10
-5.1289278891
 20
1.7650519326
 10
-5.1439042372
 20
1.7565138737
 10
-5.1577524467
 20
1.7459406949
 10
-5.170057217
 20
1.7336607607
 10
-5.1804447807
 20
1.7200471838
 10
-5.1885943155
 20
1.7055065715
 10
-5.1942554648
 20
1.6904762844
  0
LWPOLYLINE
  5
3F6
100
AcDbEntity
  8
RACCORDO
100
AcDbPolyline
 62
253
  6
CONTINUOUS
 90
10
 70
0
 10
-4.997974864
 20
1.6717027213
 10
-5.0135342607
 20
1.6705562103
 10
-5.0294036715
 20
1.6668392829
 10
-5.045100766
 20
1.6606648008
 10
-5.0601484422
 20
1.6522203158
 10
-5.0740892475
 20
1.6417624194
 10
-5.0864993086
 20
1.6296089844
 10
-5.0970013288
 20
1.6161294244
 10
-5.1052760368
 20
1.6017334357
 10
-5.1110718299
 20
1.5868586121
  0
LWPOLYLINE
  5
3F7
100
AcDbEntity
  8
RACCORDO
100
AcDbPolyline
 62
7
  6
CONTINUOUS
 90
8
 70
0
 10
-5.7833150431
 20
2.2147423872
 10
-5.8323785984
 20
2.2133209438
 10
-5.9390767788
 20
2.1994848134
 10
-6.0454461661
 20
2.1708285801
 10
-6.1502956073
 20
2.1275657262
 10
-6.2529323053
 20
2.0700256208
 10
-6.3530563015
 20
1.9984151808
 10
-6.4155988209
 20
1.9453483925
  0
LWPOLYLINE
  5
3F8
100
AcDbEntity
  8
RACCORDO
100
AcDbPolyline
 62
7
  6
CONTINUOUS
 90
14
 70
0
 10
6.2673607329
 20
4.1683902525
 10
6.2370497143
 20
4.167592912
 10
6.1719220905
 20
4.1605825496
 10
6.1069439527
 20
4.1462096996
 10
6.0432330517
 20
4.1245688539
 10
5.9825980705
 20
4.0963009184
 10
5.9247102668
 20
4.0613234205
 10
5.8701430648
 20
4.019694391
 10
5.8211269784
 20
3.9731714251
 10
5.7776523686
 20
3.9220698042
 10
5.7396118847
 20
3.8661403503
 10
5.7083269108
 20
3.8073370625
 10
5.6840952699
 20
3.7467895176
 10
5.6759055793
 20
3.7207119792
  0
LWPOLYLINE
  5
3F9
100
AcDbEntity
  8
ASSI
100
AcDbPolyline
 62
7
  6
CONTINUOUS
 90
14
 70
0
 10
6.2673607329
 20
4.1683902525
 10
6.2370497143
 20
4.167592912
 10
6.1719220905
 20
4.1605825496
 10
6.1069439527
 20
4.1462096996
 10
6.0432330517
 20
4.1245688539
 10
5.9825980705
 20
4.0963009184
 10
5.9247102668
 20
4.0613234205
 10
5.8701430648
 20
4.019694391
 10
5.8211269784
 20
3.9731714251
 10
5.7776523686
 20
3.9220698042
 10
5.7396118847
 20
3.8661403503
 10
5.7083269108
 20
3.8073370625
 10
5.6840952699
 20
3.7467895176
 10
5.6759055793
 20
3.7207119792
  0
LINE
  5
3FA
100
AcDbEntity
  8
RACCORDO
100
AcDbLine
 62
253
  6
CONTINUOUS
 10
22.8027830865
 20
3.9719016212
 11
23.1053553277
 21
3.9719016212
  0
LINE
  5
3FB
100
AcDbEntity
  8
RACCORDO
100
AcDbLine
 62
7
  6
CONTINUOUS
 10
22.6595283673
 20
4.0471297969
 11
22.9599124416
 21
4.0471297969
  0
LINE
  5
3FC
100
AcDbEntity
  8
RACCORDO
100
AcDbLine
 62
253
  6
CONTINUOUS
 10
6.3909100165
 20
4.1035906236
 11
22.5570470693
 21
4.1035906236
  0
LINE
  5
3FD
100
AcDbEntity
  8
ASSI
100
AcDbLine
 62
253
  6
CONTINUOUS
 10
6.3909100165
 20
4.1035906236
 11
22.5570470693
 21
4.1035906236
  0
LINE
  5
3FE
100
AcDbEntity
  8
RACCORDO
100
AcDbLine
 62
7
  6
CONTINUOUS
 10
6.2673607663
 20
4.1684119894
 11
22.432641963
 21
4.1684127757
  0
LINE
  5
3FF
100
AcDbEntity
  8
ASSI
100
AcDbLine
 62
7
  6
CONTINUOUS
 10
6.2673607663
 20
4.1684119894
 11
22.432641963
 21
4.1684127757
  0
LWPOLYLINE
  5
400
100
AcDbEntity
  8
0
100
AcDbPolyline
 62
7
  6
CONTINUOUS
 90
21
 70
0
 10
109.2110613961
 20
-1.8013514382
 10
109.2320401678
 20
-1.8035581908
 10
109.252643795
 20
-1.810020638
 10
109.2727804021
 20
-1.820877399
 10
109.292464746
 20
-1.8359896223
 10
109.3110614568
 20
-1.8548695168
 10
109.3285350464
 20
-1.8776400177
 10
109.344921003
 20
-1.9041781897
 10
109.3596904219
 20
-1.9336274357
 10
109.3727905573
 20
-1.9660827412
 10
109.384274155
 20
-2.0014491208
 10
109.3937705484
 20
-2.0385850211
 10
109.401214897
 20
-2.0775481797
 10
109.4066720412
 20
-2.1182808591
 10
109.4099658359
 20
-2.159468293
 10
109.4110256931
 20
-2.2011253194
 10
109.4099222006
 20
-2.2432371002
 10
109.406690977
 20
-2.2844443546
 10
109.401343895
 20
-2.3242939889
 10
109.3938690819
 20
-2.3632390968
 10
109.3842665376
 20
-2.4012796783
  0
LWPOLYLINE
  5
401
100
AcDbEntity
  8
0
100
AcDbPolyline
 62
7
  6
CONTINUOUS
 90
21
 70
0
 10
109.7110613961
 20
-0.0693006306
 10
109.7320401678
 20
-0.0715073832
 10
109.752643795
 20
-0.0779698304
 10
109.7727804021
 20
-0.0888265914
 10
109.792464746
 20
-0.1039388147
 10
109.8110614568
 20
-0.1228187092
 10
109.8285350464
 20
-0.1455892101
 10
109.844921003
 20
-0.1721273821
 10
109.8596904219
 20
-0.2015766282
 10
109.8727905573
 20
-0.2340319337
 10
109.884274155
 20
-0.2693983132
 10
109.8937705484
 20
-0.3065342135
 10
109.901214897
 20
-0.3454973722
 10
109.9066720412
 20
-0.3862300516
 10
109.9099658359
 20
-0.4274174854
 10
109.9110256931
 20
-0.4690745118
 10
109.9099222006
 20
-0.5111862927
 10
109.906690977
 20
-0.552393547
 10
109.901343895
 20
-0.5922431814
 10
109.8938690819
 20
-0.6311882893
 10
109.8842665376
 20
-0.6692288707
  0
LWPOLYLINE
  5
402
100
AcDbEntity
  8
0
100
AcDbPolyline
 62
7
  6
CONTINUOUS
 90
4
 70
0
 10
100.5508052712
 20
-1.451698185
 10
100.5855117065
 20
-1.4558562495
 10
100.6610777644
 20
-1.4879803724
 10
100.738307419
 20
-1.5517606254
  0
LWPOLYLINE
  5
403
100
AcDbEntity
  8
0
100
AcDbPolyline
 62
7
  6
CONTINUOUS
 90
4
 70
0
 10
101.0508052712
 20
0.2803526226
 10
101.0855117065
 20
0.276194558
 10
101.1610777644
 20
0.2440704351
 10
101.238307419
 20
0.1802901821
  0
LWPOLYLINE
  5
404
100
AcDbEntity
  8
RACCORDO
100
AcDbPolyline
 62
253
  6
CONTINUOUS
 90
4
 70
0
 10
-7.276296027
 20
-1.0389648484
 10
-7.2833375808
 20
-1.0408194524
 10
-7.2875624139
 20
-1.0426447586
 10
-7.2888508684
 20
-1.0443096354
  0
LWPOLYLINE
  5
405
100
AcDbEntity
  8
RACCORDO
100
AcDbPolyline
 62
7
  6
CONTINUOUS
 90
19
 70
0
 10
-4.7596444983
 20
1.4703858309
 10
-4.7640563729
 20
1.4694979029
 10
-4.767374259
 20
1.4679409268
 10
-4.7695989537
 20
1.4657131143
 10
-4.7705619857
 20
1.4626617823
 10
-4.7704347331
 20
1.458933127
 10
-4.7697270324
 20
1.4549753371
 10
-4.7685276929
 20
1.4509020248
 10
-4.7667490393
 20
1.4465971385
 10
-4.7646346357
 20
1.4421678267
 10
-4.7622447288
 20
1.4376491999
 10
-4.7595197858
 20
1.4330046849
 10
-4.7565233634
 20
1.4282346603
 10
-4.7532711203
 20
1.4233380895
 10
-4.7497482515
 20
1.4183142893
 10
-4.7459726248
 20
1.4131641667
 10
-4.7419504969
 20
1.4078874344
 10
-4.7376765201
 20
1.4024825956
 10
-4.7331511676
 20
1.3969487337
  0
LWPOLYLINE
  5
406
100
AcDbEntity
  8
0
100
AcDbPolyline
 62
7
  6
CONTINUOUS
 90
14
 70
0
 10
100.738307419
 20
-1.5517606254
 10
100.804539906
 20
-1.6536361845
 10
100.8562330882
 20
-1.7684583747
 10
100.8933869656
 20
-1.896227196
 10
100.916344258
 20
-2.0434641698
 10
100.9247622457
 20
-2.2036477747
 10
100.9176127693
 20
-2.3572134464
 10
100.8929137481
 20
-2.5033185763
 10
100.8526472628
 20
-2.6428057729
 10
100.8017313964
 20
-2.7586382974
 10
100.7388102482
 20
-2.8478043896
 10
100.6652397188
 20
-2.9133158098
 10
100.5900055927
 20
-2.9471710998
 10
100.5508095668
 20
-2.9508611716
  0
LWPOLYLINE
  5
407
100
AcDbEntity
  8
0
100
AcDbPolyline
 62
7
  6
CONTINUOUS
 90
14
 70
0
 10
101.238307419
 20
0.1802901821
 10
101.304539906
 20
0.078414623
 10
101.3562330882
 20
-0.0364075671
 10
101.3933869656
 20
-0.1641763884
 10
101.416344258
 20
-0.3114133622
 10
101.4247622457
 20
-0.4715969672
 10
101.4176127693
 20
-0.6251626388
 10
101.3929137481
 20
-0.7712677687
 10
101.3526472628
 20
-0.9107549653
 10
101.3017313964
 20
-1.0265874898
 10
101.2388102482
 20
-1.115753582
 10
101.1652397188
 20
-1.1812650022
 10
101.0900055927
 20
-1.2151202922
 10
101.0508095668
 20
-1.218810364
  0
LWPOLYLINE
  5
408
100
AcDbEntity
  8
0
100
AcDbPolyline
 62
7
  6
CONTINUOUS
 90
11
 70
0
 10
109.8842665376
 20
-0.6692288707
 10
109.8725957548
 20
-0.704881256
 10
109.859469435
 20
-0.7373005661
 10
109.8448875781
 20
-0.7664868009
 10
109.8286599254
 20
-0.7926870716
 10
109.8109767356
 20
-0.815654267
 10
109.7924087855
 20
-0.8346470538
 10
109.7729272061
 20
-0.849535751
 10
109.7525608664
 20
-0.8604500395
 10
109.7319671495
 20
-0.8670376289
 10
109.7110615176
 20
-0.8691571108
  0
LWPOLYLINE
  5
409
100
AcDbEntity
  8
0
100
AcDbPolyline
 62
7
  6
CONTINUOUS
 90
11
 70
0
 10
109.3842665376
 20
-2.4012796783
 10
109.3725957548
 20
-2.4369320636
 10
109.359469435
 20
-2.4693513737
 10
109.3448875781
 20
-2.4985376085
 10
109.3286599254
 20
-2.5247378792
 10
109.3109767356
 20
-2.5477050746
 10
109.2924087855
 20
-2.5666978613
 10
109.2729272061
 20
-2.5815865585
 10
109.2525608664
 20
-2.5925008471
 10
109.2319671495
 20
-2.5990884364
 10
109.2110615176
 20
-2.6012079184
  0
ELLIPSE
  5
40A
100
AcDbEntity
  8
RACCORDO
100
AcDbEllipse
 62
7
  6
CONTINUOUS
 10
-4.9408943831
 20
-0.7352542745
 30
0.0
 11
1.1485183464
 21
-1.626644674
 31
0.0
 40
0.7672561401
 41
4.4794441267
 42
5.1865242134
  0
ELLIPSE
  5
40B
100
AcDbEntity
  8
RACCORDO
100
AcDbEllipse
 62
7
  6
CONTINUOUS
 10
-5.3196121976
 20
0.0861620659
 30
0.0
 11
0.6208207278
 21
-0.8792673914
 31
0.0
 40
0.7672561401
 41
2.9051875854
 42
2.9695816082
  0
ELLIPSE
  5
40C
100
AcDbEntity
  8
RACCORDO
100
AcDbEllipse
 62
7
  6
CONTINUOUS
 10
-5.6206520621
 20
-0.9566706149
 30
0.0
 11
0.6208207278
 21
-0.8792673914
 31
0.0
 40
0.7672561401
 41
-1.8681352033
 42
-1.8037411805
  0
ELLIPSE
  5
40D
100
AcDbEntity
  8
RACCORDO
100
AcDbEllipse
 62
7
  6
CONTINUOUS
 10
26.5438520629
 20
0.9301445131
 30
0.0
 11
-0.0010166118
 21
0.1999993371
 31
0.0
 40
0.5065354212
 41
-0.5174468816
 42
-0.0025747382
  0
ELLIPSE
  5
40E
100
AcDbEntity
  8
RACCORDO
100
AcDbEllipse
 62
7
  6
CONTINUOUS
 10
27.1833859147
 20
0.2031196526
 30
0.0
 11
0.0009990214
 21
0.1999993925
 31
0.0
 40
0.493445535
 41
-1.0673930033
 42
-0.529860606
  0
ELLIPSE
  5
40F
100
AcDbEntity
  8
RACCORDO
100
AcDbEllipse
 62
7
  6
CONTINUOUS
 10
26.0748900003
 20
-2.2012796783
 30
0.0
 11
0.0079921716
 21
1.5999951397
 31
0.0
 40
0.493445535
 41
-3.1164675697
 42
-2.4721814932
  0
ELLIPSE
  5
410
100
AcDbEntity
  8
RACCORDO
100
AcDbEllipse
 62
7
  6
CONTINUOUS
 10
26.4980777062
 20
-3.3012796783
 30
0.0
 11
0.0009990214
 21
0.1999993925
 31
0.0
 40
0.493445535
 41
-2.4721814932
 42
-2.0919302865
  0
ELLIPSE
  5
411
100
AcDbEntity
  8
RACCORDO
100
AcDbEllipse
 62
7
  6
CONTINUOUS
 10
27.2578853274
 20
-0.6692288707
 30
0.0
 11
0.0009990214
 21
0.1999993925
 31
0.0
 40
0.493445535
 41
-2.0919302865
 42
-1.7116790798
  0
ELLIPSE
  5
412
100
AcDbEntity
  8
RACCORDO
100
AcDbEllipse
 62
7
  6
CONTINUOUS
 10
26.5748900003
 20
-0.4692288707
 30
0.0
 11
0.0079921716
 21
1.5999951397
 31
0.0
 40
0.493445535
 41
-1.7116790798
 42
-1.0673930033
  0
ELLIPSE
  5
413
100
AcDbEntity
  8
RACCORDO
100
AcDbEllipse
 62
7
  6
CONTINUOUS
 10
-4.9408943831
 20
-0.7352542745
 30
0.0
 11
1.1485183464
 21
-1.626644674
 31
0.0
 40
0.7672561401
 41
2.8106542787
 42
2.9051875854
  0
ELLIPSE
  5
414
100
AcDbEntity
  8
RACCORDO
100
AcDbEllipse
 62
7
  6
CONTINUOUS
 10
15.9105282463
 20
1.5085621451
 30
0.0
 11
0.4796331008
 21
-0.1412727446
 31
0.0
 40
0.4395474798
 41
-2.3766798959
 42
-0.9804164943
  0
ELLIPSE
  5
415
100
AcDbEntity
  8
RACCORDO
100
AcDbEllipse
 62
7
  6
CONTINUOUS
 10
17.6497206522
 20
1.5085621451
 30
0.0
 11
0.4796331008
 21
-0.1412727446
 31
0.0
 40
0.4395474798
 41
-0.9804164943
 42
0.4158469073
  0
ELLIPSE
  5
416
100
AcDbEntity
  8
RACCORDO
100
AcDbEllipse
 62
7
  6
CONTINUOUS
 10
6.3287723999
 20
-0.7352542745
 30
0.0
 11
0.0147355663
 21
2.9499910389
 31
0.0
 40
0.493445535
 41
-0.2757340615
 42
0.0024648216
  0
ELLIPSE
  5
417
100
AcDbEntity
  8
DRAFT
100
AcDbEllipse
 62
7
  6
CONTINUOUS
 10
-4.9408943831
 20
-0.7352542745
 30
0.0
 11
0.6208207278
 21
-0.8792673914
 31
0.0
 40
0.7672561401
 41
8.5468838422
 42
11.4041184099
  0
ELLIPSE
  5
418
100
AcDbEntity
  8
DRAFT
100
AcDbEllipse
 62
7
  6
CONTINUOUS
 10
-4.9408943831
 20
-0.7352542745
 30
0.0
 11
-0.0319863755
 21
0.9998514159
 31
0.0
 40
0.5389145921
 41
6.4096225525
 42
8.6482669604
  0
ELLIPSE
  5
419
100
AcDbEntity
  8
RACCORDO
100
AcDbEllipse
 62
7
  6
CONTINUOUS
 10
-4.9408943831
 20
-0.7352542745
 30
0.0
 11
0.0292246966
 21
2.9499656853
 31
0.0
 40
0.4868722452
 41
6.0098097345
 42
6.3407277555
  0
ELLIPSE
  5
41A
100
AcDbEntity
  8
RACCORDO
100
AcDbEllipse
 62
7
  6
CONTINUOUS
 10
-4.6659744416
 20
1.1397714032
 30
0.0
 11
0.0099066768
 21
0.9999883679
 31
0.0
 40
0.4868722452
 41
5.7818631288
 42
6.0098097345
  0
ELLIPSE
  5
41B
100
AcDbEntity
  8
RACCORDO
100
AcDbEllipse
 62
7
  6
CONTINUOUS
 10
6.6001114065
 20
1.1397714032
 30
0.0
 11
0.0049951072
 21
0.9999969623
 31
0.0
 40
0.493445535
 41
-0.5036806672
 42
-0.2757340615
  0
ELLIPSE
  5
41C
100
AcDbEntity
  8
RACCORDO
100
AcDbEllipse
 62
7
  6
CONTINUOUS
 10
8.8184378466
 20
1.9100736829
 30
0.0
 11
0.288673698
 21
-0.0816675612
 31
0.0
 40
0.4264576265
 41
3.8145872435
 42
5.2981171077
  0
ELLIPSE
  5
41D
100
AcDbEntity
  8
ASSI
100
AcDbEllipse
 62
7
  6
CONTINUOUS
 10
-4.9408943831
 20
-0.7352542745
 30
0.0
 11
1.1485183464
 21
-1.626644674
 31
0.0
 40
0.7672561401
 41
4.4794441267
 42
5.1865242134
  0
ELLIPSE
  5
41E
100
AcDbEntity
  8
ASSI
100
AcDbEllipse
 62
7
  6
CONTINUOUS
 10
-5.3196121976
 20
0.0861620659
 30
0.0
 11
0.6208207278
 21
-0.8792673914
 31
0.0
 40
0.7672561401
 41
2.9051875854
 42
2.9695816082
  0
ELLIPSE
  5
41F
100
AcDbEntity
  8
ASSI
100
AcDbEllipse
 62
7
  6
CONTINUOUS
 10
-5.6206520621
 20
-0.9566706149
 30
0.0
 11
0.6208207278
 21
-0.8792673914
 31
0.0
 40
0.7672561401
 41
-1.8681352033
 42
-1.8037411805
  0
ELLIPSE
  5
420
100
AcDbEntity
  8
ASSI
100
AcDbEllipse
 62
7
  6
CONTINUOUS
 10
27.1833859147
 20
0.2031196526
 30
0.0
 11
0.0009990214
 21
0.1999993925
 31
0.0
 40
0.493445535
 41
-1.0673930033
 42
-0.529860606
  0
ELLIPSE
  5
421
100
AcDbEntity
  8
ASSI
100
AcDbEllipse
 62
7
  6
CONTINUOUS
 10
26.0748900003
 20
-2.2012796783
 30
0.0
 11
0.0079921716
 21
1.5999951397
 31
0.0
 40
0.493445535
 41
-3.1164675697
 42
-2.4721814932
  0
ELLIPSE
  5
422
100
AcDbEntity
  8
ASSI
100
AcDbEllipse
 62
7
  6
CONTINUOUS
 10
26.4980777062
 20
-3.3012796783
 30
0.0
 11
0.0009990214
 21
0.1999993925
 31
0.0
 40
0.493445535
 41
-2.4721814932
 42
-2.0919302865
  0
ELLIPSE
  5
423
100
AcDbEntity
  8
ASSI
100
AcDbEllipse
 62
7
  6
CONTINUOUS
 10
27.2578853274
 20
-0.6692288707
 30
0.0
 11
0.0009990214
 21
0.1999993925
 31
0.0
 40
0.493445535
 41
-2.0919302865
 42
-1.7116790798
  0
ELLIPSE
  5
424
100
AcDbEntity
  8
ASSI
100
AcDbEllipse
 62
7
  6
CONTINUOUS
 10
26.5748900003
 20
-0.4692288707
 30
0.0
 11
0.0079921716
 21
1.5999951397
 31
0.0
 40
0.493445535
 41
-1.7116790798
 42
-1.0673930033
  0
ELLIPSE
  5
425
100
AcDbEntity
  8
ASSI
100
AcDbEllipse
 62
7
  6
CONTINUOUS
 10
26.5438520629
 20
0.9301445131
 30
0.0
 11
-0.0010166118
 21
0.1999993371
 31
0.0
 40
0.5065354212
 41
-0.5174468816
 42
-0.0025747382
  0
ELLIPSE
  5
426
100
AcDbEntity
  8
ASSI
100
AcDbEllipse
 62
7
  6
CONTINUOUS
 10
-4.9408943831
 20
-0.7352542745
 30
0.0
 11
1.1485183464
 21
-1.626644674
 31
0.0
 40
0.7672561401
 41
2.8106542787
 42
2.9051875854
  0
ELLIPSE
  5
427
100
AcDbEntity
  8
ASSI
100
AcDbEllipse
 62
7
  6
CONTINUOUS
 10
6.6001114065
 20
1.1397714032
 30
0.0
 11
0.0049951072
 21
0.9999969623
 31
0.0
 40
0.493445535
 41
-0.5036806672
 42
-0.2757340615
  0
ELLIPSE
  5
428
100
AcDbEntity
  8
ASSI
100
AcDbEllipse
 62
7
  6
CONTINUOUS
 10
15.9105282463
 20
1.5085621451
 30
0.0
 11
0.4796331008
 21
-0.1412727446
 31
0.0
 40
0.4395474798
 41
-2.3766798959
 42
-0.9804164943
  0
ELLIPSE
  5
429
100
AcDbEntity
  8
ASSI
100
AcDbEllipse
 62
7
  6
CONTINUOUS
 10
17.6497206522
 20
1.5085621451
 30
0.0
 11
0.4796331008
 21
-0.1412727446
 31
0.0
 40
0.4395474798
 41
-0.9804164943
 42
0.4158469073
  0
ELLIPSE
  5
42A
100
AcDbEntity
  8
ASSI
100
AcDbEllipse
 62
7
  6
CONTINUOUS
 10
6.3287723999
 20
-0.7352542745
 30
0.0
 11
0.0147355663
 21
2.9499910389
 31
0.0
 40
0.493445535
 41
-0.2757340615
 42
0.0024648216
  0
ELLIPSE
  5
42B
100
AcDbEntity
  8
ASSI
100
AcDbEllipse
 62
7
  6
CONTINUOUS
 10
8.8184378466
 20
1.9100736829
 30
0.0
 11
0.288673698
 21
-0.0816675612
 31
0.0
 40
0.4264576265
 41
3.8145872435
 42
5.2981171077
  0
ELLIPSE
  5
42C
100
AcDbEntity
  8
ASSI
100
AcDbEllipse
 62
7
  6
CONTINUOUS
 10
-4.9408943831
 20
-0.7352542745
 30
0.0
 11
0.0292246966
 21
2.9499656853
 31
0.0
 40
0.4868722452
 41
6.0098097345
 42
6.3407277555
  0
ELLIPSE
  5
42D
100
AcDbEntity
  8
ASSI
100
AcDbEllipse
 62
7
  6
CONTINUOUS
 10
-4.6659744416
 20
1.1397714032
 30
0.0
 11
0.0099066768
 21
0.9999883679
 31
0.0
 40
0.4868722452
 41
5.7818631288
 42
6.0098097345
  0
ELLIPSE
  5
42E
100
AcDbEntity
  8
ASSI
100
AcDbEllipse
 62
7
  6
CONTINUOUS
 10
-4.9408943831
 20
-0.7352542745
 30
0.0
 11
-0.0319863755
 21
0.9998514159
 31
0.0
 40
0.5389145921
 41
6.4096225525
 42
8.6482669604
  0
ELLIPSE
  5
42F
100
AcDbEntity
  8
ASSI
100
AcDbEllipse
 62
7
  6
CONTINUOUS
 10
-4.9408943831
 20
-0.7352542745
 30
0.0
 11
0.6208207278
 21
-0.8792673914
 31
0.0
 40
0.7672561401
 41
8.5468838422
 42
11.4041184099
  0
ELLIPSE
  5
430
100
AcDbEntity
  8
RACCORDO
100
AcDbEllipse
 62
7
  6
CONTINUOUS
 10
-5.0274969235
 20
-0.7352542745
 30
0.0
 11
-0.0616758548
 21
2.9498215966
 31
0.0
 40
0.5260242705
 41
5.9693126347
 42
6.2721874693
  0
ELLIPSE
  5
431
100
AcDbEntity
  8
RACCORDO
100
AcDbEllipse
 62
7
  6
CONTINUOUS
 10
-4.4607209287
 20
0.8052923189
 30
0.0
 11
0.963698118
 21
-0.2671673861
 31
0.0
 40
0.4198825747
 41
-2.5754922843
 42
-2.0344402161
  0
ELLIPSE
  5
432
100
AcDbEntity
  8
RACCORDO
100
AcDbEllipse
 62
7
  6
CONTINUOUS
 10
25.7468331098
 20
-0.0455995453
 30
0.0
 11
0.4846481817
 21
-0.1237709985
 31
0.0
 40
0.3933872481
 41
-0.9949905188
 42
-0.0121969803
  0
ELLIPSE
  5
433
100
AcDbEntity
  8
RACCORDO
100
AcDbEllipse
 62
7
  6
CONTINUOUS
 10
7.5925082836
 20
2.0377724292
 30
0.0
 11
0.4534425234
 21
0.3929305216
 31
0.0
 40
0.7509046167
 41
0.7140213679
 42
2.2835997195
  0
ELLIPSE
  5
434
100
AcDbEntity
  8
RACCORDO
100
AcDbEllipse
 62
7
  6
CONTINUOUS
 10
25.0745548345
 20
1.2424090189
 30
0.0
 11
0.4542240827
 21
0.3931335717
 31
0.0
 40
0.7490963921
 41
6.2274555581
 42
6.9966101266
  0
ELLIPSE
  5
435
100
AcDbEntity
  8
RACCORDO
100
AcDbEllipse
 62
7
  6
CONTINUOUS
 10
5.9915005697
 20
-3.5082809782
 30
0.0
 11
0.4542240827
 21
0.3931335717
 31
0.0
 40
0.7490963921
 41
2.6319814844
 42
3.1973225641
  0
ELLIPSE
  5
436
100
AcDbEntity
  8
RACCORDO
100
AcDbEllipse
 62
7
  6
CONTINUOUS
 10
-4.678343555
 20
1.6032290111
 30
0.0
 11
-0.0104535347
 21
0.4999697621
 31
0.0
 40
0.5260242705
 41
-0.5171433307
 42
-0.3138726725
  0
ELLIPSE
  5
437
100
AcDbEntity
  8
RACCORDO
100
AcDbEllipse
 62
7
  6
CONTINUOUS
 10
15.8524980851
 20
1.1260502615
 30
0.0
 11
0.286375101
 21
-0.0895771599
 31
0.0
 40
0.4590259621
 41
-2.5085284289
 42
-0.9726386871
  0
ELLIPSE
  5
438
100
AcDbEntity
  8
RACCORDO
100
AcDbEllipse
 62
7
  6
CONTINUOUS
 10
-5.8935223272
 20
-0.7352542745
 30
0.0
 11
0.018822686
 21
1.899977899
 31
0.0
 40
0.4868722452
 41
-4.6900649253
 42
-3.677821417
  0
ELLIPSE
  5
439
100
AcDbEntity
  8
DRAFT
100
AcDbEllipse
 62
7
  6
CONTINUOUS
 10
6.2720724559
 20
-0.7352542745
 30
0.0
 11
-0.0616758548
 21
2.9498215966
 31
0.0
 40
0.5260242705
 41
-3.1525905245
 42
-0.7372407792
  0
ELLIPSE
  5
43A
100
AcDbEntity
  8
RACCORDO
100
AcDbEllipse
 62
7
  6
CONTINUOUS
 10
-5.4127583019
 20
-2.4926618832
 30
0.0
 11
0.9577356998
 21
-0.2878149084
 31
0.0
 40
0.4460615836
 41
-2.5661832464
 42
-2.0251311783
  0
ELLIPSE
  5
43B
100
AcDbEntity
  8
ASSI
100
AcDbEllipse
 62
7
  6
CONTINUOUS
 10
-5.0274969235
 20
-0.7352542745
 30
0.0
 11
-0.0397234319
 21
1.8998850961
 31
0.0
 40
0.5260242705
 41
2.4100048611
 42
2.5895427378
  0
ELLIPSE
  5
43C
100
AcDbEntity
  8
RACCORDO
100
AcDbEllipse
 62
7
  6
CONTINUOUS
 10
-5.1950176747
 20
-3.4193490298
 30
0.0
 11
0.1817369112
 21
-0.207708802
 31
0.0
 40
0.7655551516
 41
-0.4815928231
 42
2.0103510393
  0
ELLIPSE
  5
43D
100
AcDbEntity
  8
RACCORDO
100
AcDbEllipse
 62
7
  6
CONTINUOUS
 10
-6.1390736971
 20
-0.7352542745
 30
0.0
 11
2.1444955525
 21
-2.4509638639
 31
0.0
 40
0.7655551516
 41
1.3956088333
 42
1.6905520256
  0
ELLIPSE
  5
43E
100
AcDbEntity
  8
RACCORDO
100
AcDbEllipse
 62
7
  6
CONTINUOUS
 10
-4.1059293459
 20
0.3533636092
 30
0.0
 11
0.1817369112
 21
-0.207708802
 31
0.0
 40
0.7655551516
 41
5.186850278
 42
7.6787941405
  0
ELLIPSE
  5
43F
100
AcDbEntity
  8
RACCORDO
100
AcDbEllipse
 62
7
  6
CONTINUOUS
 10
-6.1390736971
 20
-0.7352542745
 30
0.0
 11
2.1444955525
 21
-2.4509638639
 31
0.0
 40
0.7655551516
 41
5.5066492917
 42
5.801592484
  0
ELLIPSE
  5
440
100
AcDbEntity
  8
RACCORDO
100
AcDbEllipse
 62
7
  6
CONTINUOUS
 10
22.6572610605
 20
3.4471297969
 30
0.0
 11
0.0029970643
 21
0.5999981774
 31
0.0
 40
0.493445535
 41
5.77950464
 42
6.2856503747
  0
ELLIPSE
  5
441
100
AcDbEntity
  8
RACCORDO
100
AcDbEllipse
 62
7
  6
CONTINUOUS
 10
-5.0274969235
 20
-0.7352542745
 30
0.0
 11
-0.0616758548
 21
2.9498215966
 31
0.0
 40
0.5260242705
 41
-3.0439937783
 42
-1.1667921218
  0
ELLIPSE
  5
442
100
AcDbEntity
  8
RACCORDO
100
AcDbEllipse
 62
7
  6
CONTINUOUS
 10
24.4104665788
 20
-4.6749090037
 30
0.0
 11
0.4756481843
 21
-0.1548538046
 31
0.0
 40
0.4719015717
 41
-0.9668827465
 42
0.5690069953
  0
ELLIPSE
  5
443
100
AcDbEntity
  8
RACCORDO
100
AcDbEllipse
 62
7
  6
CONTINUOUS
 10
18.2951978513
 20
1.1260502615
 30
0.0
 11
0.286375101
 21
-0.0895771599
 31
0.0
 40
0.4590259621
 41
5.3105466201
 42
6.8464363618
  0
ELLIPSE
  5
444
100
AcDbEntity
  8
RACCORDO
100
AcDbEllipse
 62
7
  6
CONTINUOUS
 10
-4.832928489
 20
-3.4193490298
 30
0.0
 11
-0.0052267674
 21
0.2499848811
 31
0.0
 40
0.5260242705
 41
-3.0439937783
 42
-0.5520499158
  0
ELLIPSE
  5
445
100
AcDbEntity
  8
RACCORDO
100
AcDbEllipse
 62
7
  6
CONTINUOUS
 10
-3.7438401601
 20
0.3533636092
 30
0.0
 11
-0.0052267674
 21
0.2499848811
 31
0.0
 40
0.5260242705
 41
-3.1525921489
 42
-1.1667921218
  0
ELLIPSE
  5
446
100
AcDbEntity
  8
RACCORDO
100
AcDbEllipse
 62
7
  6
CONTINUOUS
 10
-6.2147201702
 20
0.4892455253
 30
0.0
 11
0.0049533384
 21
0.4999941839
 31
0.0
 40
0.4868722452
 41
0.5109213299
 42
1.0520208559
  0
ELLIPSE
  5
447
100
AcDbEntity
  8
RACCORDO
100
AcDbEllipse
 62
7
  6
CONTINUOUS
 10
-6.5752752977
 20
-0.7597540743
 30
0.0
 11
0.0049533384
 21
0.4999941839
 31
0.0
 40
0.4868722452
 41
1.0520208559
 42
1.5931203818
  0
ELLIPSE
  5
448
100
AcDbEntity
  8
RACCORDO
100
AcDbEllipse
 62
7
  6
CONTINUOUS
 10
-5.8935223272
 20
-0.7352542745
 30
0.0
 11
0.018822686
 21
1.899977899
 31
0.0
 40
0.4868722452
 41
5.7818631288
 42
6.7941066371
  0
ENDSEC
  0
SECTION
  2
OBJECTS
  0
DICTIONARY
  5
C
100
AcDbDictionary
280
0
281
1
  3
ACAD_GROUP
350
D
  3
ACAD_MLINESTYLE
350
17
  3
ACAD_LAYOUT
350
1A
  3
ACAD_PLOTSETTINGS
350
19
  3
ACAD_PLOTSTYLENAME
350
E
  0
DICTIONARY
  5
D
102
{ACAD_REACTORS
330
C
102
}
100
AcDbDictionary
280
0
281
1
  0
ACDBDICTIONARYWDFLT
  5
E
102
{ACAD_REACTORS
330
C
102
}
100
AcDbDictionary
281
1
  3
Normal
350
F
100
AcDbDictionaryWithDefault
340
F
  0
DICTIONARY
  5
17
102
{ACAD_REACTORS
330
C
102
}
100
AcDbDictionary
280
0
281
1
  3
Standard
350
18
  0
DICTIONARY
  5
19
102
{ACAD_REACTORS
330
C
102
}
100
AcDbDictionary
281
1
  0
DICTIONARY
  5
1A
102
{ACAD_REACTORS
330
C
102
}
100
AcDbDictionary
281
1
  3
Model
350
449
  3
Layout1
350
44A
  0
ACDBPLACEHOLDER
  5
F
102
{ACAD_REACTORS
330
E
102
}
  0
MLINESTYLE
  5
18
102
{ACAD_REACTORS
330
17
102
}
100
AcDbMlineStyle
  2
STANDARD
 70
0
  3

 62
256
 51
90.0
 52
90.0
 71
2
 49
0.5
 62
256
  6
BYLAYER
 49
-0.5
 62
256
  6
BYLAYER
  0
LAYOUT
  5
449
102
{ACAD_REACTORS
330
1A
102
}
100
AcDbPlotSettings
  1

  2
none_device
  4
ISO_A4_(297.00_x_210.00_MM)
  6

 40
0.0
 41
0.0
 42
0.0
 43
0.0
 44
297.0
 45
210.0
 46
0.0
 47
0.0
 48
0.0
 49
0.0
140
0.0
141
0.0
142
1.0
143
1.0
 70
1024
 72
1
 73
0
 74
0
  7

 75
0
147
1.0
148
0.0
149
0.0
100
AcDbLayout
  1
Model
 70
0
 71
0
 10
0.0
 20
0.0
 11
297.0
 21
210.0
 12
0.0
 22
0.0
 32
0.0
 14
0.0
 24
0.0
 34
0.0
 15
0.0
 25
0.0
 35
0.0
146
0.0
 13
0.0
 23
0.0
 33
0.0
 16
1.0
 26
0.0
 36
0.0
 17
0.0
 27
1.0
 37
0.0
 76
0
330
212
345
0
346
0
  0
LAYOUT
  5
44A
102
{ACAD_REACTORS
330
1A
102
}
100
AcDbPlotSettings
  1

  2
none_device
  4
ISO_A4_(297.00_x_210.00_MM)
  6

 40
0.0
 41
0.0
 42
0.0
 43
0.0
 44
297.0
 45
210.0
 46
0.0
 47
0.0
 48
0.0
 49
0.0
140
0.0
141
0.0
142
1.0
143
1.0
 70
0
 72
1
 73
0
 74
0
  7

 75
0
147
1.0
148
0.0
149
0.0
100
AcDbLayout
  1
Layout1
 70
0
 71
1
 10
0.0
 20
0.0
 11
297.0
 21
210.0
 12
0.0
 22
0.0
 32
0.0
 14
0.0
 24
0.0
 34
0.0
 15
0.0
 25
0.0
 35
0.0
146
0.0
 13
0.0
 23
0.0
 33
0.0
 16
1.0
 26
0.0
 36
0.0
 17
0.0
 27
1.0
 37
0.0
 76
0
330
213
345
0
346
0
  0
ENDSEC
  0
EOF
