  0
SECTION
  2
HEADER
  9
$ACADVER
  1
AC1015
  9
$DWGCODEPAGE
  3
ANSI_1252
  9
$EXTMAX
 10
297.0
 20
210.0
 30
0.0
  9
$EXTMIN
 10
0.0
 20
0.0
 30
0.0
  9
$LIMMIN
 10
0.0
 20
0.0
  9
$LIMMAX
 10
297.0
 20
210.0
  9
$VIEWCTR
 10
148.5
 20
105.0
  9
$VIEWSIZE
 40
210.0
  9
$CLAYER
  8
0
  9
$LTSCALE
 40
16.335
  9
$CELTYPE
  6
BYLAYER
  9
$DIMSCALE
 40
1.0
  9
$DIMASZ
 40
3.0
  9
$DIMEXO
 40
0.5
  9
$DIMDLI
 40
11.286
  9
$DIMEXE
 40
1.5
  9
$DIMCEN
 40
2.673
  9
$DIMLFAC
 40
1.0
  9
$DIMBLK
  1
_FILLED
  9
$DIMTXT
 40
3.0
  9
$DIMTOL
 70
1
  9
$DIMLIM
 70
0
  9
$DIMTFAC
 40
1.0
  9
$DIMTP
 40
0.01
  9
$DIMTM
 40
0.01
  9
$DIMGAP
 40
0.625
  9
$DIMDSEP
 70
44
  9
$PDMODE
 70
3
  9
$PDSIZE
 40
3.0
  9
$HANDSEED
  5
2DC
  9
$TILEMODE
 70
1
  9
$MEASUREMENT
 70
1
  9
$INSUNITS
 70
4
  0
ENDSEC
  0
SECTION
  2
CLASSES
  0
CLASS
  1
ACDBDICTIONARYWDFLT
  2
AcDbDictionaryWithDefault
  3
AutoCAD 2000
 90
0
280
0
281
0
  0
CLASS
  1
ACDBPLACEHOLDER
  2
AcDbPlaceHolder
  3
AutoCAD 2000
 90
0
280
0
281
0
  0
CLASS
  1
LAYOUT
  2
AcDbLayout
  3
AutoCAD 2000
 90
0
280
0
281
0
  0
ENDSEC
  0
SECTION
  2
TABLES
  0
TABLE
  2
VPORT
  5
8
100
AcDbSymbolTable
 70
2
  0
VPORT
  5
1F4
100
AcDbSymbolTableRecord
100
AcDbViewportTableRecord
  2
*ACTIVE
 70
0
 10
0.0
 20
0.0
 11
1.0
 21
1.0
 12
148.5
 22
105.0
 13
0.0
 23
0.0
 14
1.0
 24
1.0
 15
0.0
 25
0.0
 16
0.0
 26
0.0
 36
1.0
 17
0.0
 27
0.0
 37
0.0
 40
210.0
 41
1.4142857143
 42
50.0
 43
0.0
 44
0.0
 50
0.0
 51
0.0
 71
0
 72
100
 73
1
 74
1
 75
0
 76
0
 77
0
 78
0
  0
ENDTAB
  0
TABLE
  2
LTYPE
  5
5
100
AcDbSymbolTable
 70
6
  0
LTYPE
  5
14
100
AcDbSymbolTableRecord
100
AcDbLinetypeTableRecord
  2
BYBLOCK
 70
0
  3

 72
65
 73
0
 40
0.0
  0
LTYPE
  5
15
100
AcDbSymbolTableRecord
100
AcDbLinetypeTableRecord
  2
BYLAYER
 70
0
  3

 72
65
 73
0
 40
0.0
  0
LTYPE
  5
16
100
AcDbSymbolTableRecord
100
AcDbLinetypeTableRecord
  2
CONTINUOUS
 70
64
  3
Solid line
 72
65
 73
0
 40
0.0
  0
LTYPE
  5
1F5
100
AcDbSymbolTableRecord
100
AcDbLinetypeTableRecord
  2
CENTER
 70
64
  3
____ _ ____ _ ____ _ ____ _ ____ _ ____ _ ____
 72
65
 73
4
 40
0.6
 49
0.375
 74
0
 49
-0.075
 74
0
 49
0.075
 74
0
 49
-0.075
 74
0
  0
LTYPE
  5
1F6
100
AcDbSymbolTableRecord
100
AcDbLinetypeTableRecord
  2
HIDDEN
 70
64
  3
- - - - - - - - - - - - - - - - - - - -
 72
65
 73
2
 40
0.2
 49
0.1
 74
0
 49
-0.1
 74
0
  0
LTYPE
  5
1F7
100
AcDbSymbolTableRecord
100
AcDbLinetypeTableRecord
  2
PHANTOM
 70
64
  3
_____ _ _ _____ _ _ _____ _ _ _____
 72
65
 73
6
 40
0.8
 49
0.45
 74
0
 49
-0.05
 74
0
 49
0.1
 74
0
 49
-0.05
 74
0
 49
0.1
 74
0
 49
-0.05
 74
0
  0
LTYPE
  5
1F8
100
AcDbSymbolTableRecord
100
AcDbLinetypeTableRecord
  2
DOT
 70
64
  3
. . . . . . . . . . . . . . . . . . . .
 72
65
 73
2
 40
0.2
 49
0.1
 74
0
 49
-0.1
 74
0
  0
LTYPE
  5
1F9
100
AcDbSymbolTableRecord
100
AcDbLinetypeTableRecord
  2
DASHED
 70
64
  3
- - - - - - - - - - - - - - - - - - - -
 72
65
 73
2
 40
0.2
 49
0.1
 74
0
 49
-0.1
 74
0
  0
ENDTAB
  0
TABLE
  2
LAYER
  5
2
100
AcDbSymbolTable
 70
36
  0
LAYER
  5
10
100
AcDbSymbolTableRecord
100
AcDbLayerTableRecord
  2
0
 70
0
 62
7
  6
CONTINUOUS
370
-3
390
F
  0
LAYER
  5
1FA
100
AcDbSymbolTableRecord
100
AcDbLayerTableRecord
  2
DEFAULT_1
 70
0
 62
7
  6
CENTER
370
-3
390
F
  0
LAYER
  5
1FB
100
AcDbSymbolTableRecord
100
AcDbLayerTableRecord
  2
DEFAULT_2
 70
0
 62
7
  6
HIDDEN
370
-3
390
F
  0
LAYER
  5
1FC
100
AcDbSymbolTableRecord
100
AcDbLayerTableRecord
  2
DEFAULT_3
 70
0
 62
7
  6
PHANTOM
370
-3
390
F
  0
LAYER
  5
1FD
100
AcDbSymbolTableRecord
100
AcDbLayerTableRecord
  2
ASSI
 70
0
 62
7
  6
CONTINUOUS
370
-3
390
F
  0
LAYER
  5
1FE
100
AcDbSymbolTableRecord
100
AcDbLayerTableRecord
  2
COORDINATE
 70
0
 62
7
  6
CONTINUOUS
370
-3
390
F
  0
LAYER
  5
1FF
100
AcDbSymbolTableRecord
100
AcDbLayerTableRecord
  2
COPY_PUBLISH
 70
0
 62
7
  6
CONTINUOUS
370
-3
390
F
  0
LAYER
  5
200
100
AcDbSymbolTableRecord
100
AcDbLayerTableRecord
  2
COSMETICI
 70
0
 62
7
  6
CONTINUOUS
370
-3
390
F
  0
LAYER
  5
201
100
AcDbSymbolTableRecord
100
AcDbLayerTableRecord
  2
CURVE
 70
0
 62
7
  6
CONTINUOUS
370
-3
390
F
  0
LAYER
  5
202
100
AcDbSymbolTableRecord
100
AcDbLayerTableRecord
  2
DRAFT
 70
0
 62
7
  6
CONTINUOUS
370
-3
390
F
  0
LAYER
  5
203
100
AcDbSymbolTableRecord
100
AcDbLayerTableRecord
  2
IMPORT_IGES
 70
0
 62
7
  6
CONTINUOUS
370
-3
390
F
  0
LAYER
  5
204
100
AcDbSymbolTableRecord
100
AcDbLayerTableRecord
  2
NOTE
 70
0
 62
7
  6
CONTINUOUS
370
-3
390
F
  0
LAYER
  5
205
100
AcDbSymbolTableRecord
100
AcDbLayerTableRecord
  2
PIANI
 70
0
 62
7
  6
CONTINUOUS
370
-3
390
F
  0
LAYER
  5
206
100
AcDbSymbolTableRecord
100
AcDbLayerTableRecord
  2
PUNTI
 70
0
 62
7
  6
CONTINUOUS
370
-3
390
F
  0
LAYER
  5
207
100
AcDbSymbolTableRecord
100
AcDbLayerTableRecord
  2
RACCORDO
 70
0
 62
7
  6
CONTINUOUS
370
-3
390
F
  0
LAYER
  5
208
100
AcDbSymbolTableRecord
100
AcDbLayerTableRecord
  2
SIMBOLI
 70
0
 62
7
  6
CONTINUOUS
370
-3
390
F
  0
LAYER
  5
209
100
AcDbSymbolTableRecord
100
AcDbLayerTableRecord
  2
SMUSSO
 70
0
 62
7
  6
CONTINUOUS
370
-3
390
F
  0
LAYER
  5
20A
100
AcDbSymbolTableRecord
100
AcDbLayerTableRecord
  2
SNAPLINE
 70
0
 62
7
  6
CONTINUOUS
370
-3
390
F
  0
LAYER
  5
20B
100
AcDbSymbolTableRecord
100
AcDbLayerTableRecord
  2
SUPERFICI
 70
0
 62
7
  6
CONTINUOUS
370
-3
390
F
  0
LAYER
  5
20C
100
AcDbSymbolTableRecord
100
AcDbLayerTableRecord
  2
TRASH
 70
0
 62
7
  6
CONTINUOUS
370
-3
390
F
  0
ENDTAB
  0
TABLE
  2
STYLE
  5
3
100
AcDbSymbolTable
 70
1
  0
STYLE
  5
11
100
AcDbSymbolTableRecord
100
AcDbTextStyleTableRecord
  2
STANDARD
 70
0
 40
0.0
 41
0.8
 50
0.0
 71
0
 42
0.2
  3
txt
  4

  0
STYLE
  5
20D
100
AcDbSymbolTableRecord
100
AcDbTextStyleTableRecord
  2
TEXTSTYLE_1
 70
0
 40
0.0
 41
0.8
 50
0.0
 71
0
 42
0.2
  3
gdt
  4

  0
ENDTAB
  0
TABLE
  2
VIEW
  5
6
100
AcDbSymbolTable
 70
0
  0
ENDTAB
  0
TABLE
  2
UCS
  5
7
100
AcDbSymbolTable
 70
0
  0
ENDTAB
  0
TABLE
  2
APPID
  5
9
100
AcDbSymbolTable
 70
1
  0
APPID
  5
20E
100
AcDbSymbolTableRecord
100
AcDbRegAppTableRecord
  2
ACAD
 70
0
  0
ENDTAB
  0
TABLE
  2
BLOCK_RECORD
  5
1
100
AcDbSymbolTable
 70
0
  0
BLOCK_RECORD
  5
20F
100
AcDbSymbolTableRecord
100
AcDbBlockTableRecord
  2
*Model_Space
  0
BLOCK_RECORD
  5
210
100
AcDbSymbolTableRecord
100
AcDbBlockTableRecord
  2
*Paper_Space
  0
ENDTAB
  0
TABLE
  2
DIMSTYLE
  5
A
100
AcDbSymbolTable
 70
1
100
AcDbDimStyleTable
 71
0
  0
DIMSTYLE
105
211
100
AcDbSymbolTableRecord
100
AcDbDimStyleTableRecord
  2
STANDARD
 70
0
  3

  4

 40
1.0
 41
3.0
 42
0.5
 43
0.38
 44
1.5
 45
0.0
 46
0.0
 47
0.01
 48
0.01
140
3.0
141
0.09
142
0.0
143
25.4
144
1.0
145
0.0
146
1.0
147
0.625
 71
1.0
 72
0.0
 73
0
 74
0
 75
0
 76
0
 77
1
 78
8
170
0
171
2
172
0
173
0
174
0
175
0
176
0
177
0
178
0
270
2
271
2
272
2
273
2
274
2
275
0
280
0
281
0
282
0
283
1
284
8
285
0
286
0
287
3
288
0
340
11
278
44
  0
ENDTAB
  0
ENDSEC
  0
SECTION
  2
BLOCKS
  0
BLOCK
  5
20
100
AcDbEntity
  8
0
100
AcDbBlockBegin
  2
*Model_Space
 70
0
 10
0.0
 20
0.0
 30
0.0
  3
*Model_Space
  1

  0
ENDBLK
  5
21
100
AcDbEntity
  8
0
100
AcDbBlockEnd
  0
BLOCK
  5
1C
100
AcDbEntity
  8
0
100
AcDbBlockBegin
  2
*Paper_Space
 70
0
 10
0.0
 20
0.0
 30
0.0
  3
*Paper_Space
  1

  0
ENDBLK
  5
1D
100
AcDbEntity
  8
0
100
AcDbBlockEnd
  0
ENDSEC
  0
SECTION
  2
ENTITIES
  0
LINE
  5
212
100
AcDbEntity
  8
0
100
AcDbLine
 62
7
  6
CONTINUOUS
 10
3.5416934168
 20
37.3257204997
 11
6.6416934168
 21
37.3257204997
  0
LINE
  5
213
100
AcDbEntity
  8
0
100
AcDbLine
 62
7
  6
CONTINUOUS
 10
3.0410837513
 20
53.03587842
 11
4.4552973137
 21
53.7429852012
  0
LINE
  5
214
100
AcDbEntity
  8
0
100
AcDbLine
 62
7
  6
CONTINUOUS
 10
4.8088507043
 20
53.5662085059
 11
4.1724546012
 21
53.2480104544
  0
LINE
  5
215
100
AcDbEntity
  8
0
100
AcDbLine
 62
7
  6
CONTINUOUS
 10
5.0916934168
 20
53.4247871497
 11
4.8088507043
 21
53.2833657934
  0
LINE
  5
216
100
AcDbEntity
  8
0
100
AcDbLine
 62
7
  6
CONTINUOUS
 10
2.828951717
 20
50.5915438126
 11
3.0410837513
 21
50.6976098298
  0
LINE
  5
217
100
AcDbEntity
  8
ASSI
100
AcDbLine
 62
7
  6
CONTINUOUS
 10
3.164827438
 20
50.4236059521
 11
3.2355381162
 21
50.4589612911
  0
LINE
  5
218
100
AcDbEntity
  8
ASSI
100
AcDbLine
 62
7
  6
CONTINUOUS
 10
3.3769594724
 20
50.3175399349
 11
3.4476701505
 21
50.352895274
  0
LINE
  5
219
100
AcDbEntity
  8
0
100
AcDbLine
 62
7
  6
CONTINUOUS
 10
7.3544351166
 20
52.2934162998
 11
7.0715924041
 21
52.1519949435
  0
LINE
  5
21A
100
AcDbEntity
  8
ASSI
100
AcDbLine
 62
7
  6
CONTINUOUS
 10
3.5714138372
 20
50.3617341087
 11
3.6421245153
 21
50.3970894478
  0
LINE
  5
21B
100
AcDbEntity
  8
0
100
AcDbLine
 62
7
  6
CONTINUOUS
 10
3.7481905325
 20
50.3440564392
 11
3.8896118888
 21
50.4147671173
  0
LINE
  5
21C
100
AcDbEntity
  8
0
100
AcDbLine
 62
7
  6
CONTINUOUS
 10
7.6372778291
 20
52.1519949435
 11
7.000881726
 21
51.833796892
  0
LINE
  5
21D
100
AcDbEntity
  8
ASSI
100
AcDbLine
 62
7
  6
CONTINUOUS
 10
3.9780002364
 20
50.0170195529
 11
4.0487109145
 21
50.052374892
  0
LINE
  5
21E
100
AcDbEntity
  8
ASSI
100
AcDbLine
 62
7
  6
CONTINUOUS
 10
4.1370992622
 20
50.0788913962
 11
4.2078099403
 21
50.1142467353
  0
LINE
  5
21F
100
AcDbEntity
  8
0
100
AcDbLine
 62
7
  6
CONTINUOUS
 10
6.5766176573
 20
51.268111467
 11
7.9908312196
 21
51.9752182482
  0
LINE
  5
220
100
AcDbEntity
  8
RACCORDO
100
AcDbLine
 62
7
  6
CONTINUOUS
 10
5.8695108761
 20
50.8458136088
 11
5.798800198
 21
50.8104582697
  0
LWPOLYLINE
  5
221
100
AcDbEntity
  8
ASSI
100
AcDbPolyline
 62
7
  6
CONTINUOUS
 90
6
 70
0
 10
5.798800198
 20
50.8104582697
 10
5.7872971293
 20
50.8033720872
 10
5.7786698278
 20
50.7959006249
 10
5.7729182935
 20
50.7880438829
 10
5.7700425263
 20
50.779545008
 10
5.7696830554
 20
50.7751029306
  0
LINE
  5
222
100
AcDbEntity
  8
ASSI
100
AcDbLine
 62
7
  6
CONTINUOUS
 10
4.4552973137
 20
49.9197923705
 11
4.5260079918
 21
49.9551477095
  0
LINE
  5
223
100
AcDbEntity
  8
ASSI
100
AcDbLine
 62
7
  6
CONTINUOUS
 10
4.331553627
 20
49.8402428576
 11
4.4022643051
 21
49.8755981967
  0
LINE
  5
224
100
AcDbEntity
  8
0
100
AcDbLine
 62
7
  6
CONTINUOUS
 10
4.632074009
 20
49.9021147009
 11
4.7734953652
 21
49.9728253791
  0
LINE
  5
225
100
AcDbEntity
  8
0
100
AcDbLine
 62
7
  6
CONTINUOUS
 10
2.6168196826
 20
48.7534269879
 11
2.828951717
 21
48.859493005
  0
LINE
  5
226
100
AcDbEntity
  8
ASSI
100
AcDbLine
 62
7
  6
CONTINUOUS
 10
4.8618837129
 20
49.5750778147
 11
4.932594391
 21
49.6104331537
  0
LINE
  5
227
100
AcDbEntity
  8
ASSI
100
AcDbLine
 62
7
  6
CONTINUOUS
 10
5.0209827387
 20
49.636949658
 11
5.0916934168
 21
49.6723049971
  0
LINE
  5
228
100
AcDbEntity
  8
ASSI
100
AcDbLine
 62
7
  6
CONTINUOUS
 10
3.2355381162
 20
48.7269104836
 11
3.164827438
 21
48.6915551445
  0
LINE
  5
229
100
AcDbEntity
  8
ASSI
100
AcDbLine
 62
7
  6
CONTINUOUS
 10
5.3391807902
 20
49.4778506322
 11
5.4098914683
 21
49.5132059713
  0
LINE
  5
22A
100
AcDbEntity
  8
ASSI
100
AcDbLine
 62
7
  6
CONTINUOUS
 10
5.2154371035
 20
49.3983011194
 11
5.2861477816
 21
49.4336564584
  0
LINE
  5
22B
100
AcDbEntity
  8
0
100
AcDbLine
 62
7
  6
CONTINUOUS
 10
5.5159574855
 20
49.4601729627
 11
5.6195108761
 21
49.511949658
  0
LINE
  5
22C
100
AcDbEntity
  8
ASSI
100
AcDbLine
 62
7
  6
CONTINUOUS
 10
4.0487109145
 20
48.3203240844
 11
3.9780002364
 21
48.2849687453
  0
LINE
  5
22D
100
AcDbEntity
  8
ASSI
100
AcDbLine
 62
7
  6
CONTINUOUS
 10
5.9048662151
 20
49.1950079198
 11
5.9755768933
 21
49.2303632588
  0
LINE
  5
22E
100
AcDbEntity
  8
ASSI
100
AcDbLine
 62
7
  6
CONTINUOUS
 10
5.8164778675
 20
49.0977807373
 11
5.8871885456
 21
49.1331360764
  0
LINE
  5
22F
100
AcDbEntity
  8
0
100
AcDbLine
 62
7
  6
CONTINUOUS
 10
7.9908312196
 20
49.9905030486
 11
8.4150952884
 21
50.202635083
  0
LINE
  5
230
100
AcDbEntity
  8
ASSI
100
AcDbLine
 62
7
  6
CONTINUOUS
 10
6.0286099019
 20
48.9917147202
 11
6.09932058
 21
49.0270700592
  0
LINE
  5
231
100
AcDbEntity
  8
0
100
AcDbLine
 62
7
  6
CONTINUOUS
 10
6.3644856229
 20
48.8237768596
 11
6.5766176573
 21
48.9298428768
  0
LINE
  5
232
100
AcDbEntity
  8
0
100
AcDbLine
 62
7
  6
CONTINUOUS
 10
7.9908312196
 20
49.636949658
 11
8.768648679
 21
50.0258583877
  0
LINE
  5
233
100
AcDbEntity
  8
ASSI
100
AcDbLine
 62
7
  6
CONTINUOUS
 10
4.932594391
 20
47.8783823461
 11
4.8618837129
 21
47.8430270071
  0
LWPOLYLINE
  5
234
100
AcDbEntity
  8
0
100
AcDbPolyline
 62
253
  6
CONTINUOUS
 90
25
 70
0
 10
4.5839634658
 20
46.9038296925
 10
4.580632395
 20
46.9020721576
 10
4.5535442324
 20
46.8873251022
 10
4.5257190491
 20
46.8717365598
 10
4.4972924067
 20
46.8553824764
 10
4.468402797
 20
46.8383425274
 10
4.4391909672
 20
46.8206997297
 10
4.4097992344
 20
46.8025400373
 10
4.3803707922
 20
46.7839519223
 10
4.3510490129
 20
46.7650259442
 10
4.3219767495
 20
46.7458543085
 10
4.2932956389
 20
46.7265304174
 10
4.2651454127
 20
46.7071484149
 10
4.237663216
 20
46.6878027283
 10
4.2109829392
 20
46.6685876078
 10
4.185234566
 20
46.6495966675
 10
4.1605435399
 20
46.6309224294
 10
4.1370301531
 20
46.6126558725
 10
4.1148089604
 20
46.5948859896
 10
4.0939882213
 20
46.5776993538
 10
4.0746693722
 20
46.5611796966
 10
4.0569465327
 20
46.5454075002
 10
4.0409060467
 20
46.5304596052
 10
4.0266260618
 20
46.5164088361
 10
4.0141761487
 20
46.5033236469
  0
LINE
  5
235
100
AcDbEntity
  8
ASSI
100
AcDbLine
 62
7
  6
CONTINUOUS
 10
5.8871885456
 20
47.4010852688
 11
5.8164778675
 21
47.3657299298
  0
LWPOLYLINE
  5
236
100
AcDbEntity
  8
0
100
AcDbPolyline
 62
253
  6
CONTINUOUS
 90
12
 70
0
 10
5.5072492291
 20
46.4421868108
 10
5.5043441951
 20
46.4402162576
 10
5.4828268347
 20
46.422683801
 10
5.462762741
 20
46.4032147138
 10
5.4442496642
 20
46.3819038477
 10
5.4273777981
 20
46.3588550268
 10
5.4122293408
 20
46.3341805429
 10
5.398878094
 20
46.3080006075
 10
5.3873891036
 20
46.2804427666
 10
5.377818343
 20
46.2516412792
 10
5.3702124397
 20
46.2217364633
 10
5.3690764982
 20
46.2154805747
  0
LINE
  5
237
100
AcDbEntity
  8
0
100
AcDbLine
 62
7
  6
CONTINUOUS
 10
6.1523535886
 20
46.9856600349
 11
6.3644856229
 21
47.0917260521
  0
LINE
  5
238
100
AcDbEntity
  8
0
100
AcDbLine
 62
7
  6
CONTINUOUS
 10
8.4858059665
 20
47.9227569231
 11
8.4555392669
 21
47.9076235734
  0
LINE
  5
239
100
AcDbEntity
  8
0
100
AcDbLine
 62
7
  6
CONTINUOUS
 10
8.2736739321
 20
47.1802948029
 11
6.1523535886
 21
46.1196346311
  0
LWPOLYLINE
  5
23A
100
AcDbEntity
  8
0
100
AcDbPolyline
 62
7
  6
CONTINUOUS
 90
9
 70
0
 10
4.0663885841
 20
46.4114063799
 10
4.2718878772
 20
46.3280091321
 10
4.488560283
 20
46.2654611962
 10
4.7164058014
 20
46.2237625722
 10
4.9628731741
 20
46.2029132603
 10
5.2205136594
 20
46.2029132603
 10
5.4669810322
 20
46.2237625722
 10
5.7012773501
 20
46.2673233816
 10
5.7999863943
 20
46.2958182282
  0
LINE
  5
23B
100
AcDbEntity
  8
0
100
AcDbLine
 62
7
  6
CONTINUOUS
 10
2.6168196826
 20
47.8874015841
 11
2.6168196826
 21
48.7534269879
  0
LINE
  5
23C
100
AcDbEntity
  8
0
100
AcDbLine
 62
7
  6
CONTINUOUS
 10
2.828951717
 20
48.859493005
 11
2.828951717
 21
50.5915438126
  0
LINE
  5
23D
100
AcDbEntity
  8
0
100
AcDbLine
 62
7
  6
CONTINUOUS
 10
3.0410837513
 20
50.6976098298
 11
3.0410837513
 21
53.03587842
  0
LINE
  5
23E
100
AcDbEntity
  8
ASSI
100
AcDbLine
 62
7
  6
CONTINUOUS
 10
3.164827438
 20
48.6915551445
 11
3.164827438
 21
50.4236059521
  0
LINE
  5
23F
100
AcDbEntity
  8
ASSI
100
AcDbLine
 62
7
  6
CONTINUOUS
 10
3.2355381162
 20
50.4589612911
 11
3.2355381162
 21
48.7269104836
  0
LINE
  5
240
100
AcDbEntity
  8
ASSI
100
AcDbLine
 62
7
  6
CONTINUOUS
 10
3.3769594724
 20
48.5854891273
 11
3.3769594724
 21
50.3175399349
  0
LWPOLYLINE
  5
241
100
AcDbEntity
  8
0
100
AcDbPolyline
 62
253
  6
CONTINUOUS
 90
5
 70
0
 10
4.0141761487
 20
46.5033236469
 10
4.003616962
 20
46.4912677874
 10
3.9949999452
 20
46.4802999924
 10
3.9883670793
 20
46.470473696
 10
3.983942343
 20
46.4621953589
  0
LINE
  5
242
100
AcDbEntity
  8
0
100
AcDbLine
 62
7
  6
CONTINUOUS
 10
6.1523535886
 20
46.1196346311
 11
2.6168196826
 21
47.8874015841
  0
LWPOLYLINE
  5
243
100
AcDbEntity
  8
0
100
AcDbPolyline
 62
7
  6
CONTINUOUS
 90
6
 70
0
 10
3.6441900167
 20
46.9240587963
 10
3.6494023447
 20
46.859648675
 10
3.6911009687
 20
46.7364149886
 10
3.7744982165
 20
46.6224922294
 10
3.8995940883
 20
46.5141560265
 10
4.0663885841
 20
46.4114063799
  0
LINE
  5
244
100
AcDbEntity
  8
0
100
AcDbLine
 62
7
  6
CONTINUOUS
 10
3.5416934168
 20
46.9240587963
 11
3.5416934168
 21
37.3257204997
  0
LINE
  5
245
100
AcDbEntity
  8
0
100
AcDbLine
 62
7
  6
CONTINUOUS
 10
3.7481905325
 20
50.3440564392
 11
3.7481905325
 21
52.2493123275
  0
LINE
  5
246
100
AcDbEntity
  8
0
100
AcDbLine
 62
7
  6
CONTINUOUS
 10
3.8896118888
 20
52.1786016494
 11
3.8896118888
 21
50.4147671173
  0
LINE
  5
247
100
AcDbEntity
  8
ASSI
100
AcDbLine
 62
7
  6
CONTINUOUS
 10
3.9780002364
 20
48.2849687453
 11
3.9780002364
 21
50.0170195529
  0
LINE
  5
248
100
AcDbEntity
  8
ASSI
100
AcDbLine
 62
7
  6
CONTINUOUS
 10
4.0487109145
 20
50.052374892
 11
4.0487109145
 21
48.3203240844
  0
LINE
  5
249
100
AcDbEntity
  8
0
100
AcDbLine
 62
7
  6
CONTINUOUS
 10
4.1017439231
 20
50.1672797439
 11
4.1017439231
 21
52.0725356322
  0
LINE
  5
24A
100
AcDbEntity
  8
RACCORDO
100
AcDbLine
 62
7
  6
CONTINUOUS
 10
4.1370992622
 20
50.1496020744
 11
4.1370992622
 21
50.0788913962
  0
LINE
  5
24B
100
AcDbEntity
  8
ASSI
100
AcDbLine
 62
7
  6
CONTINUOUS
 10
4.331553627
 20
48.10819205
 11
4.331553627
 21
49.8402428576
  0
LWPOLYLINE
  5
24C
100
AcDbEntity
  8
0
100
AcDbPolyline
 62
7
  6
CONTINUOUS
 90
13
 70
0
 10
6.1713856538
 20
45.6861341972
 10
6.2182455113
 20
45.7253878461
 10
6.2632985789
 20
45.7676259851
 10
6.306541826
 20
45.8129403964
 10
6.3478382643
 20
45.8613096337
 10
6.3870314767
 20
45.91267644
 10
6.4240712907
 20
45.9671244635
 10
6.4588550477
 20
46.0246957873
 10
6.4911929009
 20
46.0852837201
 10
6.5209164437
 20
46.148770018
 10
6.5479429517
 20
46.2151987236
 10
6.5721171203
 20
46.2844384563
 10
6.5876986766
 20
46.3373071751
  0
LINE
  5
24D
100
AcDbEntity
  8
0
100
AcDbLine
 62
7
  6
CONTINUOUS
 10
6.1523535886
 20
46.9856600349
 11
2.6168196826
 21
48.7534269879
  0
LINE
  5
24E
100
AcDbEntity
  8
ASSI
100
AcDbLine
 62
7
  6
CONTINUOUS
 10
6.3644856229
 20
47.0917260521
 11
6.0286099019
 21
47.2596639126
  0
LINE
  5
24F
100
AcDbEntity
  8
ASSI
100
AcDbLine
 62
7
  6
CONTINUOUS
 10
5.8164778675
 20
47.3657299298
 11
5.2154371035
 21
47.6662503118
  0
LINE
  5
250
100
AcDbEntity
  8
ASSI
100
AcDbLine
 62
7
  6
CONTINUOUS
 10
4.8618837129
 20
47.8430270071
 11
4.331553627
 21
48.10819205
  0
LINE
  5
251
100
AcDbEntity
  8
ASSI
100
AcDbLine
 62
7
  6
CONTINUOUS
 10
3.9780002364
 20
48.2849687453
 11
3.3769594724
 21
48.5854891273
  0
LINE
  5
252
100
AcDbEntity
  8
ASSI
100
AcDbLine
 62
7
  6
CONTINUOUS
 10
3.164827438
 20
48.6915551445
 11
2.828951717
 21
48.859493005
  0
LINE
  5
253
100
AcDbEntity
  8
ASSI
100
AcDbLine
 62
7
  6
CONTINUOUS
 10
6.0286099019
 20
47.3303745907
 11
5.8871885456
 21
47.4010852688
  0
LINE
  5
254
100
AcDbEntity
  8
ASSI
100
AcDbLine
 62
7
  6
CONTINUOUS
 10
5.2154371035
 20
47.7369609899
 11
4.932594391
 21
47.8783823461
  0
LINE
  5
255
100
AcDbEntity
  8
ASSI
100
AcDbLine
 62
7
  6
CONTINUOUS
 10
4.331553627
 20
48.1789027281
 11
4.0487109145
 21
48.3203240844
  0
LINE
  5
256
100
AcDbEntity
  8
ASSI
100
AcDbLine
 62
7
  6
CONTINUOUS
 10
3.3769594724
 20
48.6561998054
 11
3.2355381162
 21
48.7269104836
  0
LWPOLYLINE
  5
257
100
AcDbEntity
  8
0
100
AcDbPolyline
 62
7
  6
CONTINUOUS
 90
8
 70
0
 10
3.7405037328
 20
46.9022818335
 10
3.7083131855
 20
46.9825051289
 10
3.6785971393
 20
47.0634750463
 10
3.6514146052
 20
47.1450755181
 10
3.6268254837
 20
47.2271899796
 10
3.6048927503
 20
47.3096927864
 10
3.5856778201
 20
47.3924644192
 10
3.5833660974
 20
47.4041283767
  0
LINE
  5
258
100
AcDbEntity
  8
0
100
AcDbLine
 62
7
  6
CONTINUOUS
 10
4.632074009
 20
49.9021147009
 11
4.632074009
 21
51.8073705893
  0
LINE
  5
259
100
AcDbEntity
  8
0
100
AcDbLine
 62
7
  6
CONTINUOUS
 10
4.7734953652
 20
51.7366599112
 11
4.7734953652
 21
49.9728253791
  0
LINE
  5
25A
100
AcDbEntity
  8
0
100
AcDbLine
 62
7
  6
CONTINUOUS
 10
4.8088507043
 20
52.9298124028
 11
4.8088507043
 21
53.5662085059
  0
LINE
  5
25B
100
AcDbEntity
  8
ASSI
100
AcDbLine
 62
7
  6
CONTINUOUS
 10
4.8618837129
 20
47.8430270071
 11
4.8618837129
 21
49.5750778147
  0
LINE
  5
25C
100
AcDbEntity
  8
ASSI
100
AcDbLine
 62
7
  6
CONTINUOUS
 10
4.932594391
 20
49.6104331537
 11
4.932594391
 21
47.8783823461
  0
LINE
  5
25D
100
AcDbEntity
  8
0
100
AcDbLine
 62
7
  6
CONTINUOUS
 10
4.9856273996
 20
49.7253380057
 11
4.9856273996
 21
51.630593894
  0
LINE
  5
25E
100
AcDbEntity
  8
ASSI
100
AcDbLine
 62
7
  6
CONTINUOUS
 10
5.0209827387
 20
49.636949658
 11
5.0209827387
 21
49.7076603361
  0
LINE
  5
25F
100
AcDbEntity
  8
0
100
AcDbLine
 62
7
  6
CONTINUOUS
 10
5.0260079918
 20
46.3236695526
 11
5.0260079918
 21
46.2029132603
  0
LINE
  5
260
100
AcDbEntity
  8
ASSI
100
AcDbLine
 62
7
  6
CONTINUOUS
 10
5.2154371035
 20
47.6662503118
 11
5.2154371035
 21
49.3983011194
  0
LINE
  5
261
100
AcDbEntity
  8
0
100
AcDbLine
 62
7
  6
CONTINUOUS
 10
5.5159574855
 20
49.4601729627
 11
5.5159574855
 21
51.365428851
  0
LINE
  5
262
100
AcDbEntity
  8
ASSI
100
AcDbLine
 62
7
  6
CONTINUOUS
 10
5.6195108761
 20
50.7751029306
 11
5.6195108761
 21
49.3376855893
  0
LINE
  5
263
100
AcDbEntity
  8
0
100
AcDbLine
 62
7
  6
CONTINUOUS
 10
5.6573788417
 20
51.2947181729
 11
5.6573788417
 21
50.7751029306
  0
LINE
  5
264
100
AcDbEntity
  8
0
100
AcDbLine
 62
253
  6
CONTINUOUS
 10
5.6927341808
 20
49.3010739369
 11
5.6927341808
 21
50.686714583
  0
LWPOLYLINE
  5
265
100
AcDbEntity
  8
0
100
AcDbPolyline
 62
253
  6
CONTINUOUS
 90
9
 70
0
 10
5.0260079918
 20
46.3236695526
 10
5.0259318394
 20
46.3193064509
 10
5.0241053409
 20
46.3018806169
 10
5.0198521621
 20
46.2845609363
 10
5.0131930242
 20
46.267431789
 10
5.0041603698
 20
46.2505766264
 10
4.9927982051
 20
46.2340775652
 10
4.9791618853
 20
46.2180149871
 10
4.963772457
 20
46.2029132603
  0
LWPOLYLINE
  5
266
100
AcDbEntity
  8
ASSI
100
AcDbPolyline
 62
7
  6
CONTINUOUS
 90
5
 70
0
 10
5.7696830554
 20
50.7751029306
 10
5.7700425263
 20
50.7706608533
 10
5.7729182935
 20
50.7621619784
 10
5.7786698278
 20
50.7543052364
 10
5.7872971293
 20
50.7468337741
  0
LINE
  5
267
100
AcDbEntity
  8
0
100
AcDbLine
 62
253
  6
CONTINUOUS
 10
5.798800198
 20
50.7397475916
 11
5.798800198
 21
50.8104582697
  0
LINE
  5
268
100
AcDbEntity
  8
ASSI
100
AcDbLine
 62
7
  6
CONTINUOUS
 10
5.8164778675
 20
47.3657299298
 11
5.8164778675
 21
49.0977807373
  0
LINE
  5
269
100
AcDbEntity
  8
0
100
AcDbLine
 62
7
  6
CONTINUOUS
 10
5.8695108761
 20
50.7043922525
 11
5.8695108761
 21
51.1886521557
  0
LINE
  5
26A
100
AcDbEntity
  8
ASSI
100
AcDbLine
 62
7
  6
CONTINUOUS
 10
5.8871885456
 20
49.1331360764
 11
5.8871885456
 21
47.4010852688
  0
LINE
  5
26B
100
AcDbEntity
  8
0
100
AcDbLine
 62
253
  6
CONTINUOUS
 10
5.9048662151
 20
49.1950079198
 11
5.9048662151
 21
50.5806485658
  0
LINE
  5
26C
100
AcDbEntity
  8
ASSI
100
AcDbLine
 62
7
  6
CONTINUOUS
 10
6.0286099019
 20
47.2596639126
 11
6.0286099019
 21
48.9917147202
  0
LINE
  5
26D
100
AcDbEntity
  8
0
100
AcDbLine
 62
7
  6
CONTINUOUS
 10
6.1523535886
 20
46.1196346311
 11
6.1523535886
 21
46.9856600349
  0
LINE
  5
26E
100
AcDbEntity
  8
0
100
AcDbLine
 62
7
  6
CONTINUOUS
 10
6.3644856229
 20
47.0917260521
 11
6.3644856229
 21
48.8237768596
  0
LINE
  5
26F
100
AcDbEntity
  8
0
100
AcDbLine
 62
7
  6
CONTINUOUS
 10
6.5766176573
 20
48.9298428768
 11
6.5766176573
 21
51.268111467
  0
LINE
  5
270
100
AcDbEntity
  8
0
100
AcDbLine
 62
7
  6
CONTINUOUS
 10
6.6416934168
 20
46.3643045452
 11
6.6416934168
 21
37.3257204997
  0
LINE
  5
271
100
AcDbEntity
  8
ASSI
100
AcDbLine
 62
7
  6
CONTINUOUS
 10
6.3644856229
 20
48.8237768596
 11
6.0286099019
 21
48.9917147202
  0
LINE
  5
272
100
AcDbEntity
  8
ASSI
100
AcDbLine
 62
7
  6
CONTINUOUS
 10
5.8164778675
 20
49.0977807373
 11
5.2154371035
 21
49.3983011194
  0
LINE
  5
273
100
AcDbEntity
  8
ASSI
100
AcDbLine
 62
7
  6
CONTINUOUS
 10
4.8618837129
 20
49.5750778147
 11
4.331553627
 21
49.8402428576
  0
LINE
  5
274
100
AcDbEntity
  8
ASSI
100
AcDbLine
 62
7
  6
CONTINUOUS
 10
3.9780002364
 20
50.0170195529
 11
3.3769594724
 21
50.3175399349
  0
LINE
  5
275
100
AcDbEntity
  8
ASSI
100
AcDbLine
 62
7
  6
CONTINUOUS
 10
3.164827438
 20
50.4236059521
 11
2.828951717
 21
50.5915438126
  0
LINE
  5
276
100
AcDbEntity
  8
ASSI
100
AcDbLine
 62
7
  6
CONTINUOUS
 10
6.09932058
 20
49.0270700592
 11
5.8871885456
 21
49.1331360764
  0
LINE
  5
277
100
AcDbEntity
  8
ASSI
100
AcDbLine
 62
7
  6
CONTINUOUS
 10
5.2861477816
 20
49.4336564584
 11
4.932594391
 21
49.6104331537
  0
LINE
  5
278
100
AcDbEntity
  8
ASSI
100
AcDbLine
 62
7
  6
CONTINUOUS
 10
4.4022643051
 20
49.8755981967
 11
4.0487109145
 21
50.052374892
  0
LINE
  5
279
100
AcDbEntity
  8
ASSI
100
AcDbLine
 62
7
  6
CONTINUOUS
 10
3.4476701505
 20
50.352895274
 11
3.2355381162
 21
50.4589612911
  0
LINE
  5
27A
100
AcDbEntity
  8
ASSI
100
AcDbLine
 62
7
  6
CONTINUOUS
 10
5.9048662151
 20
49.1950079198
 11
5.3391807902
 21
49.4778506322
  0
LINE
  5
27B
100
AcDbEntity
  8
ASSI
100
AcDbLine
 62
7
  6
CONTINUOUS
 10
5.0209827387
 20
49.636949658
 11
4.4552973137
 21
49.9197923705
  0
LINE
  5
27C
100
AcDbEntity
  8
ASSI
100
AcDbLine
 62
7
  6
CONTINUOUS
 10
4.1370992622
 20
50.0788913962
 11
3.5714138372
 21
50.3617341087
  0
LINE
  5
27D
100
AcDbEntity
  8
ASSI
100
AcDbLine
 62
7
  6
CONTINUOUS
 10
6.5766176573
 20
48.9298428768
 11
5.9755768933
 21
49.2303632588
  0
LINE
  5
27E
100
AcDbEntity
  8
0
100
AcDbLine
 62
7
  6
CONTINUOUS
 10
5.5159574855
 20
49.4601729627
 11
5.4098914683
 21
49.5132059713
  0
LINE
  5
27F
100
AcDbEntity
  8
0
100
AcDbLine
 62
7
  6
CONTINUOUS
 10
5.0916934168
 20
49.6723049971
 11
4.9856273996
 21
49.7253380057
  0
LINE
  5
280
100
AcDbEntity
  8
ASSI
100
AcDbLine
 62
7
  6
CONTINUOUS
 10
5.4098914683
 20
49.5132059713
 11
5.0916934168
 21
49.6723049971
  0
LINE
  5
281
100
AcDbEntity
  8
0
100
AcDbLine
 62
7
  6
CONTINUOUS
 10
4.632074009
 20
49.9021147009
 11
4.5260079918
 21
49.9551477095
  0
LINE
  5
282
100
AcDbEntity
  8
0
100
AcDbLine
 62
7
  6
CONTINUOUS
 10
4.2078099403
 20
50.1142467353
 11
4.1017439231
 21
50.1672797439
  0
LINE
  5
283
100
AcDbEntity
  8
ASSI
100
AcDbLine
 62
7
  6
CONTINUOUS
 10
4.5260079918
 20
49.9551477095
 11
4.2078099403
 21
50.1142467353
  0
LINE
  5
284
100
AcDbEntity
  8
0
100
AcDbLine
 62
7
  6
CONTINUOUS
 10
3.7481905325
 20
50.3440564392
 11
3.6421245153
 21
50.3970894478
  0
LINE
  5
285
100
AcDbEntity
  8
ASSI
100
AcDbLine
 62
7
  6
CONTINUOUS
 10
3.6421245153
 20
50.3970894478
 11
3.0410837513
 21
50.6976098298
  0
LINE
  5
286
100
AcDbEntity
  8
0
100
AcDbLine
 62
7
  6
CONTINUOUS
 10
4.9856273996
 20
49.8667593619
 11
4.7734953652
 21
49.9728253791
  0
LINE
  5
287
100
AcDbEntity
  8
0
100
AcDbLine
 62
7
  6
CONTINUOUS
 10
4.1017439231
 20
50.3087011001
 11
3.8896118888
 21
50.4147671173
  0
LINE
  5
288
100
AcDbEntity
  8
0
100
AcDbLine
 62
7
  6
CONTINUOUS
 10
7.0715924041
 20
52.1519949435
 11
7.0715924041
 21
51.869152231
  0
LINE
  5
289
100
AcDbEntity
  8
0
100
AcDbLine
 62
7
  6
CONTINUOUS
 10
8.768648679
 20
49.1598329839
 11
8.2736739321
 21
47.1802948029
  0
LINE
  5
28A
100
AcDbEntity
  8
ASSI
100
AcDbLine
 62
7
  6
CONTINUOUS
 10
5.9048662151
 20
50.5806485658
 11
5.6927341808
 21
50.686714583
  0
LINE
  5
28B
100
AcDbEntity
  8
ASSI
100
AcDbLine
 62
7
  6
CONTINUOUS
 10
5.798800198
 20
50.7397475916
 11
5.8695108761
 21
50.7043922525
  0
LINE
  5
28C
100
AcDbEntity
  8
0
100
AcDbLine
 62
7
  6
CONTINUOUS
 10
5.8695108761
 20
51.1886521557
 11
5.5159574855
 21
51.365428851
  0
LINE
  5
28D
100
AcDbEntity
  8
0
100
AcDbLine
 62
7
  6
CONTINUOUS
 10
4.9856273996
 20
51.630593894
 11
4.632074009
 21
51.8073705893
  0
LINE
  5
28E
100
AcDbEntity
  8
0
100
AcDbLine
 62
7
  6
CONTINUOUS
 10
4.1017439231
 20
52.0725356322
 11
3.7481905325
 21
52.2493123275
  0
LWPOLYLINE
  5
28F
100
AcDbEntity
  8
ASSI
100
AcDbPolyline
 62
7
  6
CONTINUOUS
 90
6
 70
0
 10
5.6927341808
 20
50.686714583
 10
5.6639765091
 20
50.7044300393
 10
5.6424082554
 20
50.723108695
 10
5.6280294195
 20
50.74275055
 10
5.6208400016
 20
50.7639977373
 10
5.6199413244
 20
50.7751029306
  0
LINE
  5
290
100
AcDbEntity
  8
ASSI
100
AcDbLine
 62
7
  6
CONTINUOUS
 10
5.7872971293
 20
50.7468337741
 11
5.798800198
 21
50.7397475916
  0
LINE
  5
291
100
AcDbEntity
  8
0
100
AcDbLine
 62
7
  6
CONTINUOUS
 10
7.3544351166
 20
52.2934162998
 11
7.3827134971
 21
52.0247127775
  0
LINE
  5
292
100
AcDbEntity
  8
0
100
AcDbLine
 62
7
  6
CONTINUOUS
 10
7.9908312196
 20
51.9752182482
 11
7.9908312196
 21
49.636949658
  0
LINE
  5
293
100
AcDbEntity
  8
0
100
AcDbLine
 62
7
  6
CONTINUOUS
 10
8.4858059665
 20
48.028668309
 11
8.4858059665
 21
47.9227569231
  0
LINE
  5
294
100
AcDbEntity
  8
0
100
AcDbLine
 62
7
  6
CONTINUOUS
 10
8.768648679
 20
50.0258583877
 11
8.768648679
 21
49.1598329839
  0
LINE
  5
295
100
AcDbEntity
  8
0
100
AcDbLine
 62
7
  6
CONTINUOUS
 10
8.768648679
 20
50.0258583877
 11
8.4150952884
 21
50.202635083
  0
LINE
  5
296
100
AcDbEntity
  8
0
100
AcDbLine
 62
7
  6
CONTINUOUS
 10
6.5766176573
 20
51.268111467
 11
3.0410837513
 21
53.03587842
  0
LINE
  5
297
100
AcDbEntity
  8
0
100
AcDbLine
 62
7
  6
CONTINUOUS
 10
7.000881726
 20
51.833796892
 11
4.1724546012
 21
53.2480104544
  0
LINE
  5
298
100
AcDbEntity
  8
0
100
AcDbLine
 62
7
  6
CONTINUOUS
 10
4.8088507043
 20
53.2833657934
 11
7.0715924041
 21
52.1519949435
  0
LINE
  5
299
100
AcDbEntity
  8
0
100
AcDbLine
 62
7
  6
CONTINUOUS
 10
7.9908312196
 20
51.9752182482
 11
7.6372778291
 21
52.1519949435
  0
LINE
  5
29A
100
AcDbEntity
  8
0
100
AcDbLine
 62
7
  6
CONTINUOUS
 10
7.3544351166
 20
52.2934162998
 11
5.0916934168
 21
53.4247871497
  0
LINE
  5
29B
100
AcDbEntity
  8
0
100
AcDbLine
 62
7
  6
CONTINUOUS
 10
4.8088507043
 20
53.5662085059
 11
4.4552973137
 21
53.7429852012
  0
LWPOLYLINE
  5
29C
100
AcDbEntity
  8
RACCORDO
100
AcDbPolyline
 62
253
  6
CONTINUOUS
 90
84
 70
0
 10
-3.1721140772
 20
-23.5472675014
 10
-2.9417949591
 20
-23.5575733766
 10
-2.7143154546
 20
-23.5582428169
 10
-2.4896829089
 20
-23.5492503823
 10
-2.2678899768
 20
-23.5306215128
 10
-2.0495221675
 20
-23.5024053745
 10
-1.8345885778
 20
-23.464576641
 10
-1.6230801108
 20
-23.4171606387
 10
-1.4155549852
 20
-23.3602825131
 10
-1.2120237106
 20
-23.2939172664
 10
-1.0124757775
 20
-23.2180898964
 10
-0.8174378758
 20
-23.133000542
 10
-0.626921923
 20
-23.0386247366
 10
-0.4409160017
 20
-22.9349869469
 10
-0.2599110498
 20
-22.8223607112
 10
-0.0839202776
 20
-22.7007222846
 10
0.0870695252
 20
-22.5700954121
 10
0.2526070519
 20
-22.4308248674
 10
0.4126778989
 20
-22.2828878166
 10
0.5672964698
 20
-22.1263070936
 10
0.716054668
 20
-21.9614959738
 10
0.8589370122
 20
-21.788432715
 10
0.9959589836
 20
-21.6071390594
 10
1.1267589298
 20
-21.4180935092
 10
1.251320414
 20
-21.2212755863
 10
1.3696598729
 20
-21.0167057688
 10
1.4814649641
 20
-20.8049239935
 10
1.5867184258
 20
-20.5859112085
 10
1.6854375199
 20
-20.3596864656
 10
1.7773616894
 20
-20.1268468571
 10
1.8624729842
 20
-19.8873749085
 10
1.9407893544
 20
-19.6412880943
 10
2.0121040937
 20
-19.3892359303
 10
2.0763987058
 20
-19.1312026577
 10
2.1336916869
 20
-18.8672040352
 10
2.1838318192
 20
-18.5979368546
 10
2.2268002071
 20
-18.3233871979
 10
2.2626157462
 20
-18.0435689831
 10
2.2911839059
 20
-17.7592207558
 10
2.3124855406
 20
-17.4703305491
 10
2.3265397958
 20
-17.1769103299
 10
2.333309577
 20
-16.8797345448
 10
2.3327756409
 20
-16.5787932726
 10
2.3249572307
 20
-16.2740964346
 10
2.3098749822
 20
-15.9664482404
 10
2.2875097066
 20
-15.6558408934
 10
2.2578805927
 20
-15.3422821903
 10
2.2210658428
 20
-15.0265997302
 10
2.1770464748
 20
-14.7087879031
 10
2.1258414708
 20
-14.388852319
 10
2.06758598
 20
-14.0676374082
 10
2.0022613769
 20
-13.7451397902
 10
1.9298862871
 20
-13.4213628454
 10
1.8506517362
 20
-13.0971611456
 10
1.7645396043
 20
-12.7725335709
 10
1.6715680114
 20
-12.4474812411
 10
1.5719823432
 20
-12.1228620877
 10
1.4657651251
 20
-11.7986772487
 10
1.3529338318
 20
-11.4749255861
 10
1.2337862733
 20
-11.1524616165
 10
1.1083057761
 20
-10.8312887675
 10
0.9765090137
 20
-10.5114036115
 10
0.8387438177
 20
-10.1936503831
 10
0.6949943766
 20
-9.8780346272
 10
0.5452765018
 20
-9.5645507989
 10
0.3899854595
 20
-9.2540264975
 10
0.229106666
 20
-8.9464697817
 10
0.062654705
 20
-8.6418725927
 10
-0.1089314059
 20
-8.3410383543
 10
-0.2856656486
 20
-8.0439763674
 10
-0.4675340412
 20
-7.7506773309
 10
-0.6540556211
 20
-7.4619167654
 10
-0.8452414407
 20
-7.1777083404
 10
-1.0410804476
 20
-6.8980383864
 10
-1.2410585218
 20
-6.623641415
 10
-1.4451904331
 20
-6.3545267772
 10
-1.6534614118
 20
-6.0906851221
 10
-1.8653130285
 20
-5.8328229087
 10
-2.0808298008
 20
-5.5808852761
 10
-2.299927211
 20
-5.3349270853
 10
-2.5217932769
 20
-5.0958193779
 10
-2.7461573376
 20
-4.8638525011
 10
-2.973290054
 20
-4.6387361079
 10
-3.203191426
 20
-4.420470198
  0
LWPOLYLINE
  5
29D
100
AcDbEntity
  8
RACCORDO
100
AcDbPolyline
 62
253
  6
CONTINUOUS
 90
88
 70
0
 10
-5.9391723697
 20
-16.9449207044
 10
-6.066703737
 20
-16.8783425595
 10
-6.1938458887
 20
-16.8063472534
 10
-6.3205988249
 20
-16.7289347863
 10
-6.4471672683
 20
-16.645968019
 10
-6.5733464961
 20
-16.5575840906
 10
-6.6985223403
 20
-16.4641944188
 10
-6.8226434533
 20
-16.365806838
 10
-6.9457611827
 20
-16.2624135138
 10
-7.0674154028
 20
-16.1544023609
 10
-7.1876098877
 20
-16.0417478625
 10
-7.3063408633
 20
-15.9244755354
 10
-7.4231368812
 20
-15.803049844
 10
-7.5379872291
 20
-15.6774572723
 10
-7.6509026194
 20
-15.5477113363
 10
-7.7614437409
 20
-15.4143170485
 10
-7.8696019439
 20
-15.2772594931
 10
-7.9753858781
 20
-15.1365535859
 10
-8.0783821815
 20
-14.9927490869
 10
-8.1785798261
 20
-14.8458340252
 10
-8.2759898398
 20
-14.6958203717
 10
-8.3702319439
 20
-14.5432937998
 10
-8.4612937425
 20
-14.3882445166
 10
-8.5491876313
 20
-14.230682315
 10
-8.6335705189
 20
-14.0712222469
 10
-8.7144287014
 20
-13.9098568616
 10
-8.7917758825
 20
-13.7465936098
 10
-8.8653100816
 20
-13.5820698949
 10
-8.9350163956
 20
-13.4162807795
 10
-9.0009097276
 20
-13.249231201
 10
-9.0627328064
 20
-13.0815733746
 10
-9.1204697161
 20
-12.9133049293
 10
-9.1741363726
 20
-12.7444282361
 10
-9.2235232524
 20
-12.5756026232
 10
-9.2686136232
 20
-12.4068282961
 10
-9.3094242172
 20
-12.2381050492
 10
-9.3457957074
 20
-12.0700915943
 10
-9.3777107413
 20
-11.9027907043
 10
-9.4051866715
 20
-11.7361996062
 10
-9.4281162282
 20
-11.5709686923
 10
-9.4464816389
 20
-11.4071032771
 10
-9.4603006761
 20
-11.2445980461
 10
-9.4695193875
 20
-11.0840874486
 10
-9.4741197888
 20
-10.9255792832
 10
-9.4741198644
 20
-10.7690657514
 10
-9.4695196139
 20
-10.6151579068
 10
-9.4603010535
 20
-10.4638659352
 10
-9.4464821671
 20
-10.3151796508
 10
-9.4281169069
 20
-10.1696795505
 10
-9.4051875005
 20
-10.0273780925
 10
-9.3777117204
 20
-9.8882628186
 10
-9.3457968355
 20
-9.7528768507
 10
-9.3094254936
 20
-9.6212347678
 10
-9.2686150469
 20
-9.4933219908
 10
-9.2235248222
 20
-9.3696379048
 10
-9.1741380872
 20
-9.2501990367
 10
-9.1204715741
 20
-9.1349888596
 10
-9.0627348058
 20
-9.0244571781
 10
-9.0009118657
 20
-8.9186222784
 10
-8.9350186704
 20
-8.8174658744
 10
-8.8653124918
 20
-8.721382912
 10
-8.7917784292
 20
-8.6303932337
 10
-8.7144313834
 20
-8.5444769972
 10
-8.6335733287
 20
-8.4639696206
 10
-8.5491905547
 20
-8.3888922536
 10
-8.4612967719
 20
-8.3192237467
 10
-8.3702350853
 20
-8.25523607
 10
-8.2759931172
 20
-8.1969514204
 10
-8.1785832455
 20
-8.144347601
 10
-8.0783857089
 20
-8.0976299919
 10
-7.9753894301
 20
-8.0568215789
 10
-7.8696054866
 20
-8.0218993762
 10
-7.7614473496
 20
-7.9929998053
 10
-7.6509064834
 20
-7.9701464453
 10
-7.5379914237
 20
-7.9533157172
 10
-7.4231412488
 20
-7.9425733054
 10
-7.3063450511
 20
-7.937943437
 10
-7.1876137383
 20
-7.9394018849
 10
-7.0674191108
 20
-7.9469416523
 10
-6.945765098
 20
-7.9605844911
 10
-6.8226477705
 20
-7.9803086494
 10
-6.6985271414
 20
-8.0060418742
 10
-6.5733521662
 20
-8.0378275053
 10
-6.4471738893
 20
-8.0756222029
 10
-6.3206054566
 20
-8.1192236951
 10
-6.1938512501
 20
-8.1685645577
 10
-6.0667068878
 20
-8.2237122149
 10
-5.9391723697
 20
-8.2846666666
  0
LWPOLYLINE
  5
29E
100
AcDbEntity
  8
RACCORDO
100
AcDbPolyline
 62
253
  6
CONTINUOUS
 90
67
 70
0
 10
-5.5856189791
 20
-16.3351313073
 10
-5.7045970635
 20
-16.2729170302
 10
-5.8234087464
 20
-16.2053392956
 10
-5.9418878588
 20
-16.132492617
 10
-6.0598686968
 20
-16.0544788773
 10
-6.1771862535
 20
-15.9714071856
 10
-6.2936764496
 20
-15.8833937253
 10
-6.4091763644
 20
-15.79056159
 10
-6.5235244593
 20
-15.693040615
 10
-6.6365608041
 20
-15.5909671957
 10
-6.7481273112
 20
-15.4844840879
 10
-6.8580679408
 20
-15.3737402218
 10
-6.9662289165
 20
-15.2588904991
 10
-7.0724589547
 20
-15.140095563
 10
-7.1766094962
 20
-15.0175215483
 10
-7.2785348974
 20
-14.8913398632
 10
-7.3780926107
 20
-14.7617269784
 10
-7.475143391
 20
-14.6288641741
 10
-7.5695515105
 20
-14.492937261
 10
-7.6611849351
 20
-14.3541363368
 10
-7.7499155012
 20
-14.2126555337
 10
-7.8356191022
 20
-14.0686927385
 10
-7.9181758723
 20
-13.9224492993
 10
-7.9974703501
 20
-13.7741297479
 10
-8.0733916327
 20
-13.6239415278
 10
-8.1458335358
 20
-13.4720946949
 10
-8.2146947453
 20
-13.3188016172
 10
-8.2798789558
 20
-13.1642766825
 10
-8.3412950017
 20
-13.008736006
 10
-8.3988569866
 20
-12.8523971272
 10
-8.4524844051
 20
-12.6954786984
 10
-8.5021022549
 20
-12.5382001833
 10
-8.5476411401
 20
-12.380781551
 10
-8.5890373701
 20
-12.2234429675
 10
-8.6262330484
 20
-12.0664044853
 10
-8.6591761535
 20
-11.9098857365
 10
-8.6878206115
 20
-11.7541056278
 10
-8.7121263603
 20
-11.599282032
 10
-8.7320594064
 20
-11.4456314835
 10
-8.7475918717
 20
-11.2933688756
 10
-8.7587020328
 20
-11.142707161
 10
-8.765374351
 20
-10.9938570541
 10
-8.7675994945
 20
-10.847026735
 10
-8.7653743512
 20
-10.7024215594
 10
-8.7587020331
 20
-10.5602437706
 10
-8.7475918722
 20
-10.420692217
 10
-8.732059407
 20
-10.2839620743
 10
-8.712126361
 20
-10.1502445717
 10
-8.6878206123
 20
-10.0197267246
 10
-8.6591761545
 20
-9.8925910736
 10
-8.6262330495
 20
-9.7690154298
 10
-8.5890373714
 20
-9.6491726257
 10
-8.5476411415
 20
-9.5332302722
 10
-8.5021022565
 20
-9.4213505251
 10
-8.452484407
 20
-9.3136898597
 10
-8.3988569886
 20
-9.2103988496
 10
-8.341295004
 20
-9.1116219556
 10
-8.2798789583
 20
-9.017497325
 10
-8.2146947479
 20
-8.9281566003
 10
-8.1458335383
 20
-8.8437247318
 10
-8.073391635
 20
-8.7643198016
 10
-7.9974703521
 20
-8.6900528634
 10
-7.9181758738
 20
-8.6210277892
 10
-7.8356191035
 20
-8.5573411197
 10
-7.7499155028
 20
-8.4990819256
 10
-7.6611849374
 20
-8.4463316888
 10
-7.5980801589
 20
-8.4130946307
  0
LWPOLYLINE
  5
29F
100
AcDbEntity
  8
RACCORDO
100
AcDbPolyline
 62
7
  6
CONTINUOUS
 90
19
 70
0
 10
-5.8092257769
 20
-8.5551035668
 10
-5.9172728381
 20
-8.5033945312
 10
-6.0248053174
 20
-8.4565600063
 10
-6.1316375921
 20
-8.4146660146
 10
-6.2374707909
 20
-8.3778032661
 10
-6.3422456642
 20
-8.3459622526
 10
-6.4461215543
 20
-8.3190914491
 10
-6.5488397546
 20
-8.2972691039
 10
-6.6502862585
 20
-8.2805268606
 10
-6.7507942513
 20
-8.2688562434
 10
-6.8501314843
 20
-8.2623639144
 10
-6.9481343607
 20
-8.261138084
 10
-7.0451841331
 20
-8.2652997907
 10
-7.1412440528
 20
-8.2750382934
 10
-7.2359337616
 20
-8.2905103067
 10
-7.3291121872
 20
-8.3118819621
 10
-7.4206335482
 20
-8.3393234117
 10
-7.5103356552
 20
-8.3730019707
 10
-7.5980801589
 20
-8.4130946307
  0
LWPOLYLINE
  5
2A0
100
AcDbEntity
  8
RACCORDO
100
AcDbPolyline
 62
253
  6
CONTINUOUS
 90
88
 70
0
 10
-5.9391723697
 20
-8.2846666666
 10
-5.8116410025
 20
-8.3512448116
 10
-5.6844988507
 20
-8.4232401176
 10
-5.5577459145
 20
-8.5006525847
 10
-5.4311774712
 20
-8.5836193521
 10
-5.3049982434
 20
-8.6720032804
 10
-5.1798223992
 20
-8.7653929522
 10
-5.0557012861
 20
-8.863780533
 10
-4.9325835567
 20
-8.9671738572
 10
-4.8109293367
 20
-9.0751850102
 10
-4.6907348518
 20
-9.1878395085
 10
-4.5720038762
 20
-9.3051118356
 10
-4.4552078582
 20
-9.426537527
 10
-4.3403575103
 20
-9.5521300987
 10
-4.2274421201
 20
-9.6818760347
 10
-4.1169009986
 20
-9.8152703225
 10
-4.0087427956
 20
-9.952327878
 10
-3.9029588613
 20
-10.0930337852
 10
-3.799962558
 20
-10.2368382841
 10
-3.6997649134
 20
-10.3837533459
 10
-3.6023548996
 20
-10.5337669994
 10
-3.5081127956
 20
-10.6862935712
 10
-3.417050997
 20
-10.8413428544
 10
-3.3291571081
 20
-10.998905056
 10
-3.2447742206
 20
-11.1583651242
 10
-3.1639160381
 20
-11.3197305094
 10
-3.086568857
 20
-11.4829937612
 10
-3.0130346578
 20
-11.6475174762
 10
-2.9433283438
 20
-11.8133065915
 10
-2.8774350119
 20
-11.9803561701
 10
-2.8156119331
 20
-12.1480139965
 10
-2.7578750233
 20
-12.3162824418
 10
-2.7042083668
 20
-12.4851591349
 10
-2.6548214871
 20
-12.6539847478
 10
-2.6097311163
 20
-12.8227590749
 10
-2.5689205223
 20
-12.9914823218
 10
-2.5325490321
 20
-13.1594957768
 10
-2.5006339981
 20
-13.3267966668
 10
-2.473158068
 20
-13.4933877648
 10
-2.4502285113
 20
-13.6586186787
 10
-2.4318631006
 20
-13.8224840939
 10
-2.4180440634
 20
-13.984989325
 10
-2.408825352
 20
-14.1454999224
 10
-2.4042249506
 20
-14.3040080878
 10
-2.4042248751
 20
-14.4605216197
 10
-2.4088251255
 20
-14.6144294642
 10
-2.418043686
 20
-14.7657214359
 10
-2.4318625724
 20
-14.9144077202
 10
-2.4502278326
 20
-15.0599078205
 10
-2.4731572389
 20
-15.2022092785
 10
-2.5006330191
 20
-15.3413245524
 10
-2.5325479039
 20
-15.4767105203
 10
-2.5689192459
 20
-15.6083526033
 10
-2.6097296925
 20
-15.7362653803
 10
-2.6548199173
 20
-15.8599494662
 10
-2.7042066522
 20
-15.9793883343
 10
-2.7578731653
 20
-16.0945985114
 10
-2.8156099337
 20
-16.2051301929
 10
-2.8774328737
 20
-16.3109650926
 10
-2.9433260691
 20
-16.4121214967
 10
-3.0130322476
 20
-16.5082044591
 10
-3.0865663102
 20
-16.5991941373
 10
-3.163913356
 20
-16.6851103739
 10
-3.2447714108
 20
-16.7656177504
 10
-3.3291541847
 20
-16.8406951174
 10
-3.4170479676
 20
-16.9103636244
 10
-3.5081096541
 20
-16.974351301
 10
-3.6023516222
 20
-17.0326359507
 10
-3.699761494
 20
-17.08523977
 10
-3.7999590305
 20
-17.1319573792
 10
-3.9029553093
 20
-17.1727657921
 10
-4.0087392529
 20
-17.2076879948
 10
-4.1168973899
 20
-17.2365875657
 10
-4.2274382561
 20
-17.2594409257
 10
-4.3403533158
 20
-17.2762716539
 10
-4.4552034907
 20
-17.2870140657
 10
-4.5719996883
 20
-17.2916439341
 10
-4.6907310012
 20
-17.2901854861
 10
-4.8109256286
 20
-17.2826457187
 10
-4.9325796415
 20
-17.2690028799
 10
-5.0556969689
 20
-17.2492787216
 10
-5.1798175981
 20
-17.2235454968
 10
-5.3049925733
 20
-17.1917598657
 10
-5.4311708502
 20
-17.1539651681
 10
-5.5577392829
 20
-17.110363676
 10
-5.6844934894
 20
-17.0610228133
 10
-5.8116378517
 20
-17.0058751561
 10
-5.9391723697
 20
-16.9449207044
  0
LWPOLYLINE
  5
2A1
100
AcDbEntity
  8
RACCORDO
100
AcDbPolyline
 62
253
  6
CONTINUOUS
 90
13
 70
0
 10
-8.3483606789
 20
1.7390428025
 10
-8.347296816
 20
1.7227430245
 10
-8.3440953185
 20
1.7064576562
 10
-8.3387698437
 20
1.6903117779
 10
-8.331343109
 20
1.6743744715
 10
-8.3218469155
 20
1.6587141282
 10
-8.3103220114
 20
1.6433979816
 10
-8.2968178329
 20
1.6284917048
 10
-8.2813922103
 20
1.614059111
 10
-8.2641112078
 20
1.6001620106
 10
-8.2450488509
 20
1.5868599405
 10
-8.2242868203
 20
1.5742099054
 10
-8.2019140695
 20
1.5622661075
  0
LINE
  5
2A2
100
AcDbEntity
  8
RACCORDO
100
AcDbLine
 62
7
  6
CONTINUOUS
 10
-8.3483606789
 20
1.7390428028
 11
-8.3483606789
 21
-0.9269785156
  0
LINE
  5
2A3
100
AcDbEntity
  8
RACCORDO
100
AcDbLine
 62
253
  6
CONTINUOUS
 10
-8.2019140695
 20
1.5622627182
 11
-8.2019140695
 21
-1.1037552109
  0
LWPOLYLINE
  5
2A4
100
AcDbEntity
  8
RACCORDO
100
AcDbPolyline
 62
253
  6
CONTINUOUS
 90
25
 70
0
 10
-8.2019140695
 20
-1.1037552109
 10
-8.2028440617
 20
-1.1477607577
 10
-8.2056223473
 20
-1.1905639931
 10
-8.2102489263
 20
-1.2321649169
 10
-8.2167469968
 20
-1.2726937097
 10
-8.2250933608
 20
-1.3120201911
 10
-8.2352184243
 20
-1.3497538191
 10
-8.2471337429
 20
-1.3858511787
 10
-8.2608277611
 20
-1.4203556849
 10
-8.2761962181
 20
-1.453007041
 10
-8.2932543111
 20
-1.4837964484
 10
-8.311986843
 20
-1.5127327056
 10
-8.3322439618
 20
-1.539581912
 10
-8.3540382586
 20
-1.5643262096
 10
-8.3773571424
 20
-1.5869834565
 10
-8.4020129875
 20
-1.6073733259
 10
-8.4280121943
 20
-1.6254760944
 10
-8.4553483625
 20
-1.6413114854
 10
-8.4838146647
 20
-1.6547583431
 10
-8.5134471513
 20
-1.6657894492
 10
-8.5442097719
 20
-1.674432022
 10
-8.5757875489
 20
-1.6806465604
 10
-8.6080754897
 20
-1.6844198975
 10
-8.6411785869
 20
-1.6857652002
 10
-8.6750968404
 20
-1.6846824686
  0
LWPOLYLINE
  5
2A5
100
AcDbEntity
  8
RACCORDO
100
AcDbPolyline
 62
253
  6
CONTINUOUS
 90
25
 70
0
 10
-8.2019140695
 20
1.5622661075
 10
-8.2058444799
 20
1.592679405
 10
-8.2083867787
 20
1.6238131816
 10
-8.2094532493
 20
1.6554892614
 10
-8.2088998333
 20
1.6874766774
 10
-8.2067365133
 20
1.7196358752
 10
-8.2031079004
 20
1.7519249402
 10
-8.1979529362
 20
1.7841635361
 10
-8.1912360571
 20
1.8161602643
 10
-8.1831219605
 20
1.8478655851
 10
-8.1735656619
 20
1.8791165861
 10
-8.162550354
 20
1.9097241002
 10
-8.1502647779
 20
1.9396198679
 10
-8.1366761871
 20
1.9686827713
 10
-8.1217805419
 20
1.9967335242
 10
-8.1057989846
 20
2.0236626688
 10
-8.088705081
 20
2.0494125728
 10
-8.070497071
 20
2.0738314665
 10
-8.0514402316
 20
2.096755215
 10
-8.0315026331
 20
2.1181997042
 10
-8.0106700512
 20
2.1380534591
 10
-7.9892745766
 20
2.1560960913
 10
-7.9674260767
 20
2.172300237
 10
-7.9449636228
 20
2.1867254273
 10
-7.9218263185
 20
2.1993369519
  0
LWPOLYLINE
  5
2A6
100
AcDbEntity
  8
RACCORDO
100
AcDbPolyline
 62
7
  6
CONTINUOUS
 90
15
 70
0
 10
-8.3686300956
 20
-1.0500971388
 10
-8.3686113447
 20
-1.0500652149
 10
-8.3680345622
 20
-1.049012571
 10
-8.3668000056
 20
-1.0464766716
 10
-8.3650777231
 20
-1.0424473702
 10
-8.363048459
 20
-1.037007972
 10
-8.3608384009
 20
-1.0301723144
 10
-8.358556394
 20
-1.0219406412
 10
-8.3563088205
 20
-1.0123413255
 10
-8.354188956
 20
-1.0013900386
 10
-8.3522842377
 20
-0.9891100932
 10
-8.350673472
 20
-0.9755043342
 10
-8.3494335677
 20
-0.9605842318
 10
-8.3486396898
 20
-0.9443942731
 10
-8.3483606789
 20
-0.9269785156
  0
LWPOLYLINE
  5
2A7
100
AcDbEntity
  8
RACCORDO
100
AcDbPolyline
 62
7
  6
CONTINUOUS
 90
19
 70
0
 10
-8.0719674767
 20
2.1862563983
 10
-8.098953958
 20
2.1717124116
 10
-8.1250257871
 20
2.1555237823
 10
-8.1500586479
 20
2.137763677
 10
-8.1738931487
 20
2.1185538176
 10
-8.1964709437
 20
2.0979567797
 10
-8.2178114422
 20
2.0759495162
 10
-8.2378109467
 20
2.0526165396
 10
-8.2563612086
 20
2.0280680036
 10
-8.273446422
 20
2.0022957439
 10
-8.2889479352
 20
1.9754383806
 10
-8.302793678
 20
1.9475869159
 10
-8.314992265
 20
1.9186394699
 10
-8.3254710367
 20
1.8885944831
 10
-8.3340748838
 20
1.8577091837
 10
-8.3406946919
 20
1.8262621794
 10
-8.3452830993
 20
1.7944332958
 10
-8.347817276
 20
1.7623474523
 10
-8.3483606777
 20
1.7390606747
  0
LINE
  5
2A8
100
AcDbEntity
  8
RACCORDO
100
AcDbLine
 62
7
  6
CONTINUOUS
 10
-8.0719674767
 20
2.1862563983
 11
3.3124517004
 21
7.8784659868
  0
LINE
  5
2A9
100
AcDbEntity
  8
RACCORDO
100
AcDbLine
 62
253
  6
CONTINUOUS
 10
-7.9218263185
 20
2.1993369519
 11
3.4625928586
 21
7.8915465404
  0
LWPOLYLINE
  5
2AA
100
AcDbEntity
  8
RACCORDO
100
AcDbPolyline
 62
7
  6
CONTINUOUS
 90
9
 70
0
 10
3.3124682686
 20
7.8784560425
 10
3.3184431211
 20
7.8813157298
 10
3.33692027
 20
7.8886146707
 10
3.3562422958
 20
7.8939731763
 10
3.3763987104
 20
7.897415335
 10
3.3971372048
 20
7.8988980595
 10
3.4183736762
 20
7.8984069874
 10
3.4401922274
 20
7.895956481
 10
3.4625928586
 20
7.8915465404
  0
LWPOLYLINE
  5
2AB
100
AcDbEntity
  8
RACCORDO
100
AcDbPolyline
 62
253
  6
CONTINUOUS
 90
25
 70
0
 10
-3.203191426
 20
-4.420470198
 10
-3.2371414063
 20
-4.3876881801
 10
-3.2702681599
 20
-4.3532797824
 10
-3.3025716868
 20
-4.3172450049
 10
-3.3341543509
 20
-4.2794610755
 10
-3.3649137882
 20
-4.2400507662
 10
-3.3945429071
 20
-4.1993823935
 10
-3.4230080976
 20
-4.1574697419
 10
-3.4503429697
 20
-4.1142990268
 10
-3.4763412606
 20
-4.07019721
 10
-3.5009970194
 20
-4.0251500991
 10
-3.5243161972
 20
-3.9791718866
 10
-3.546110384
 20
-3.9326321113
 10
-3.5663665069
 20
-3.8855265792
 10
-3.585097639
 20
-3.8378594845
 10
-3.6021545893
 20
-3.7900129481
 10
-3.6175225083
 20
-3.7419924651
 10
-3.6312162456
 20
-3.6937925406
 10
-3.6431311593
 20
-3.6457788102
 10
-3.6532555316
 20
-3.5979191109
 10
-3.6616010804
 20
-3.5502456058
 10
-3.6680983174
 20
-3.5032204206
 10
-3.67272408
 20
-3.4569975973
 10
-3.6755015308
 20
-3.411423094
 10
-3.6764306699
 20
-3.3664969107
  0
LINE
  5
2AC
100
AcDbEntity
  8
RACCORDO
100
AcDbLine
 62
253
  6
CONTINUOUS
 10
-3.6764306699
 20
-3.3664969107
 11
-3.6764306699
 21
-0.7004787709
  0
LWPOLYLINE
  5
2AD
100
AcDbEntity
  8
RACCORDO
100
AcDbPolyline
 62
7
  6
CONTINUOUS
 90
109
 70
0
 10
-11.0416248442
 20
-1.52600526
 10
-11.2364195333
 20
-1.6289532592
 10
-11.4271356873
 20
-1.7410216506
 10
-11.6135541641
 20
-1.8621795497
 10
-11.7955122136
 20
-1.9924256207
 10
-11.9727410585
 20
-2.131673428
 10
-12.1448845791
 20
-2.279728394
 10
-12.3117260079
 20
-2.4364696609
 10
-12.4731181755
 20
-2.6018256796
 10
-12.6288426019
 20
-2.7756384035
 10
-12.778716927
 20
-2.9577620255
 10
-12.9226118718
 20
-3.1480992737
 10
-13.0604043959
 20
-3.3465577809
 10
-13.1920263955
 20
-3.5531329904
 10
-13.3172568579
 20
-3.767577066
 10
-13.4357825868
 20
-3.9893982025
 10
-13.5474636009
 20
-4.2183236194
 10
-13.6522622475
 20
-4.4542667761
 10
-13.7500659809
 20
-4.6969705978
 10
-13.8407674155
 20
-4.9461417599
 10
-13.9243407951
 20
-5.2016840018
 10
-14.0007897674
 20
-5.4636401755
 10
-14.0700762504
 20
-5.7319887438
 10
-14.132078208
 20
-6.0063823959
 10
-14.186679632
 20
-6.2863662272
 10
-14.2338373793
 20
-6.571734227
 10
-14.2735094076
 20
-6.8622570857
 10
-14.3056309936
 20
-7.1574039967
 10
-14.3301894377
 20
-7.4568575673
 10
-14.3471908609
 20
-7.7604445327
 10
-14.356635629
 20
-8.0678222771
 10
-14.3585381626
 20
-8.3786401249
 10
-14.3529212837
 20
-8.6927340513
 10
-14.339798646
 20
-9.0100354727
 10
-14.3191725212
 20
-9.3304601698
 10
-14.2910684847
 20
-9.6535781999
 10
-14.2555524875
 20
-9.9787920858
 10
-14.2126957345
 20
-10.3057067485
 10
-14.1625450524
 20
-10.6341710493
 10
-14.1051587308
 20
-10.9639414907
 10
-14.0406109196
 20
-11.2947092065
 10
-13.9689677452
 20
-11.6262356027
 10
-13.8902729383
 20
-11.9583807152
 10
-13.8045879076
 20
-12.2909157343
 10
-13.7120012861
 20
-12.623521979
 10
-13.6125973409
 20
-12.9559230137
 10
-13.5064592292
 20
-13.2878615654
 10
-13.3936855824
 20
-13.619046687
 10
-13.2743951686
 20
-13.9491507855
 10
-13.1487049876
 20
-14.2778754413
 10
-13.0167170245
 20
-14.604976389
 10
-12.8785367417
 20
-14.930208184
 10
-12.7342831354
 20
-15.2533027238
 10
-12.5840797535
 20
-15.5739934332
 10
-12.4280431095
 20
-15.8920384173
 10
-12.2663039923
 20
-16.2071749201
 10
-12.0989976071
 20
-16.5191420296
 10
-11.9262509782
 20
-16.8277028087
 10
-11.7482061817
 20
-17.1326009386
 10
-11.5650091994
 20
-17.4335828926
 10
-11.3767963049
 20
-17.7304189796
 10
-11.183702301
 20
-18.0228870064
 10
-10.9858999699
 20
-18.3107148954
 10
-10.7835890287
 20
-18.5936058334
 10
-10.5769514466
 20
-18.8713029682
 10
-10.3661395189
 20
-19.1435982803
 10
-10.1513141371
 20
-19.4102776178
 10
-9.932671473
 20
-19.6710911491
 10
-9.7103650089
 20
-19.9258485815
 10
-9.4844896096
 20
-20.1744258602
 10
-9.2551996269
 20
-20.4166299457
 10
-9.0226961336
 20
-20.6522245248
 10
-8.7871412554
 20
-20.8810208449
 10
-8.5486237673
 20
-21.1029004096
 10
-8.307421225
 20
-21.3175719626
 10
-8.063986804
 20
-21.524619613
 10
-7.818663012
 20
-21.7237624785
 10
-7.5715013371
 20
-21.9149679517
 10
-7.3225199581
 20
-22.0982115458
 10
-7.0718239526
 20
-22.2733895159
 10
-6.8196941148
 20
-22.4402781086
 10
-6.5664071673
 20
-22.5986747679
 10
-6.3120965676
 20
-22.7484764671
 10
-6.0570208933
 20
-22.8895100384
 10
-5.8016440762
 20
-23.0215146196
 10
-5.5461865394
 20
-23.1443862288
 10
-5.2908215339
 20
-23.2580501393
 10
-5.035939002
 20
-23.3623492964
 10
-4.7818764692
 20
-23.457179043
 10
-4.5286812631
 20
-23.5425539235
 10
-4.2763047052
 20
-23.6185005557
 10
-4.0248410966
 20
-23.6849811261
 10
-3.7745817359
 20
-23.7419079465
 10
-3.5257736966
 20
-23.7892213952
 10
-3.2785058725
 20
-23.826897188
 10
-3.0330786661
 20
-23.854881196
 10
-2.7900500058
 20
-23.873127847
 10
-2.549752153
 20
-23.8816597824
 10
-2.3122254806
 20
-23.8805231334
 10
-2.0775876375
 20
-23.8697531227
 10
-1.8459913312
 20
-23.8493849622
 10
-1.6176662877
 20
-23.8194675684
 10
-1.3928516236
 20
-23.7800674125
 10
-1.1716963267
 20
-23.7312473632
 10
-0.9544288068
 20
-23.6730959765
 10
-0.7413999069
 20
-23.6057618478
 10
-0.5328379833
 20
-23.529390427
 10
-0.3288548844
 20
-23.4440985897
 10
-0.129613114
 20
-23.3500287204
  0
LINE
  5
2AE
100
AcDbEntity
  8
ASSI
100
AcDbLine
 62
7
  6
CONTINUOUS
 10
-8.3483606789
 20
-0.1793731774
 11
-11.0416248442
 21
-1.52600526
  0
LWPOLYLINE
  5
2AF
100
AcDbEntity
  8
RACCORDO
100
AcDbPolyline
 62
253
  6
CONTINUOUS
 90
13
 70
0
 10
-8.2019140695
 20
-1.1037552109
 10
-8.2242805827
 20
-1.0918149694
 10
-8.2450373491
 20
-1.0791688728
 10
-8.2640954851
 20
-1.0658710738
 10
-8.2813733808
 20
-1.0519785156
 10
-8.2967970497
 20
-1.0375506881
 10
-8.3103004452
 20
-1.0226493737
 10
-8.3218257437
 20
-1.0073383819
 10
-8.3313235921
 20
-0.9916832769
 10
-8.3387533191
 20
-0.9757510961
 10
-8.3440831096
 20
-0.9596100636
 10
-8.3472901406
 20
-0.9433292979
 10
-8.3483606789
 20
-0.9269785156
  0
LWPOLYLINE
  5
2B0
100
AcDbEntity
  8
RACCORDO
100
AcDbPolyline
 62
253
  6
CONTINUOUS
 90
74
 70
0
 10
-2.7326936667
 20
-3.8934603534
 10
-2.4961045295
 20
-4.1180719541
 10
-2.2621519976
 20
-4.3497837716
 10
-2.0310357254
 20
-4.5883980618
 10
-1.8029528431
 20
-4.8337113037
 10
-1.5780981022
 20
-5.0855140383
 10
-1.356663694
 20
-5.3435910176
 10
-1.1388388223
 20
-5.6077216669
 10
-0.9248091054
 20
-5.8776808455
 10
-0.7147567473
 20
-6.1532387234
 10
-0.5088608129
 20
-6.4341604302
 10
-0.3072972282
 20
-6.7202059715
 10
-0.1102381846
 20
-7.011130991
 10
0.0821480761
 20
-7.3066870925
 10
0.2696974562
 20
-7.6066221623
 10
0.4522499646
 20
-7.9106803347
 10
0.6296498365
 20
-8.2186021745
 10
0.8017456519
 20
-8.5301248603
 10
0.9683905263
 20
-8.844982507
 10
1.1294422385
 20
-9.1629064008
 10
1.2847633571
 20
-9.483625243
 10
1.4342213388
 20
-9.8068653481
 10
1.5776886398
 20
-10.1323508718
 10
1.7150428228
 20
-10.4598040404
 10
1.846166668
 20
-10.7889454018
 10
1.9709482744
 20
-11.1194940664
 10
2.0892811552
 20
-11.4511679486
 10
2.2010643265
 20
-11.7836840014
 10
2.3062023934
 20
-12.1167584583
 10
2.4046056315
 20
-12.4501070752
 10
2.4961900641
 20
-12.7834453745
 10
2.5808775337
 20
-13.1164888871
 10
2.6585957685
 20
-13.4489533961
 10
2.7292784444
 20
-13.7805551786
 10
2.7928652412
 20
-14.1110112482
 10
2.8493018944
 20
-14.4400395954
 10
2.8985402413
 20
-14.7673594297
 10
2.9405382621
 20
-15.0926914183
 10
2.9752601161
 20
-15.4157579252
 10
3.0026761718
 20
-15.7362832473
 10
3.0227630326
 20
-16.0539938506
 10
3.0355035565
 20
-16.3686186028
 10
3.0408868707
 20
-16.6798890054
 10
3.0389083812
 20
-16.987539422
 10
3.0295697765
 20
-17.291307306
 10
3.012879026
 20
-17.5909334237
 10
2.9888503736
 20
-17.8861620763
 10
2.957504325
 20
-18.1767413174
 10
2.9188676309
 20
-18.4624231687
 10
2.8729732635
 20
-18.7429638312
 10
2.8198603887
 20
-19.0181238933
 10
2.7595743328
 20
-19.2876685352
 10
2.6921665436
 20
-19.5513677292
 10
2.6176945462
 20
-19.8089964361
 10
2.5362218947
 20
-20.0603347975
 10
2.4478181174
 20
-20.3051683226
 10
2.3525586573
 20
-20.5432880722
 10
2.2505248083
 20
-20.7744908365
 10
2.1418036454
 20
-20.9985793084
 10
2.0264879506
 20
-21.2153622525
 10
1.9046761335
 20
-21.4246546675
 10
1.7764721475
 20
-21.6262779446
 10
1.6419854011
 20
-21.82006002
 10
1.5013306644
 20
-22.0058355211
 10
1.3546279711
 20
-22.1834459084
 10
1.2020025165
 20
-22.3527396104
 10
1.0435845501
 20
-22.513572153
 10
0.8795092647
 20
-22.6658062826
 10
0.7099166811
 20
-22.8093120838
 10
0.5349515286
 20
-22.9439670895
 10
0.3547631212
 20
-23.069656386
 10
0.1695052306
 20
-23.186272711
 10
-0.0206640454
 20
-23.2937165449
 10
-0.129613114
 20
-23.3500287204
  0
LWPOLYLINE
  5
2B1
100
AcDbEntity
  8
RACCORDO
100
AcDbPolyline
 62
253
  6
CONTINUOUS
 90
22
 70
0
 10
-2.7326936667
 20
-3.8934603534
 10
-2.7520830821
 20
-3.8746524429
 10
-2.7710021464
 20
-3.8547010996
 10
-2.7893855789
 20
-3.8336751663
 10
-2.8071699504
 20
-3.8116471891
 10
-2.8242938918
 20
-3.7886931804
 10
-2.8406983067
 20
-3.7648923582
 10
-2.85632659
 20
-3.7403268538
 10
-2.8711248204
 20
-3.7150814281
 10
-2.885041937
 20
-3.6892431936
 10
-2.8980299134
 20
-3.6629013216
 10
-2.9100439445
 20
-3.6361466913
 10
-2.9210425949
 20
-3.6090715761
 10
-2.9309879176
 20
-3.5817693778
 10
-2.9398455845
 20
-3.5543343227
 10
-2.9475850246
 20
-3.526861092
 10
-2.9541795311
 20
-3.4994444842
 10
-2.9596063486
 20
-3.4721791001
 10
-2.9638467488
 20
-3.4451590318
 10
-2.9668860998
 20
-3.4184775169
 10
-2.9687139154
 20
-3.3922266167
 10
-2.9693238887
 20
-3.3664969107
  0
LWPOLYLINE
  5
2B2
100
AcDbEntity
  8
RACCORDO
100
AcDbPolyline
 62
253
  6
CONTINUOUS
 90
22
 70
0
 10
-2.9693238887
 20
-0.7004755923
 10
-2.9700675916
 20
-0.672032647
 10
-2.9722955639
 20
-0.6429657312
 10
-2.9759984218
 20
-0.6133971336
 10
-2.9811605849
 20
-0.5834512089
 10
-2.9877603212
 20
-0.5532539829
 10
-2.9957698182
 20
-0.522932625
 10
-3.0051553092
 20
-0.4926148255
 10
-3.0158773155
 20
-0.4624279935
 10
-3.0278908151
 20
-0.4324988555
 10
-3.0411456656
 20
-0.4029524971
 10
-3.055585792
 20
-0.3739140651
 10
-3.0711492371
 20
-0.3455078423
 10
-3.0877694573
 20
-0.3178544964
 10
-3.1053770663
 20
-0.2910687376
 10
-3.1238991691
 20
-0.2652611895
 10
-3.1432661559
 20
-0.2405302418
 10
-3.1633889448
 20
-0.2169909887
 10
-3.1841578358
 20
-0.194768054
 10
-3.2054748541
 20
-0.1739579401
 10
-3.2272569654
 20
-0.1546336129
 10
-3.2494116397
 20
-0.1368703875
  0
LINE
  5
2B3
100
AcDbEntity
  8
RACCORDO
100
AcDbLine
 62
253
  6
CONTINUOUS
 10
-2.9693238887
 20
-3.3664969107
 11
-2.9693238887
 21
-0.7004755923
  0
LWPOLYLINE
  5
2B4
100
AcDbEntity
  8
RACCORDO
100
AcDbPolyline
 62
253
  6
CONTINUOUS
 90
25
 70
0
 10
-8.4385442916
 20
-1.0405350409
 10
-8.4614174482
 20
-1.0530969082
 10
-8.4836919755
 20
-1.0676052199
 10
-8.5052724905
 20
-1.0839978494
 10
-8.5260665822
 20
-1.1022046008
 10
-8.545985207
 20
-1.1221475101
 10
-8.5649430704
 20
-1.1437411786
 10
-8.5828589918
 20
-1.166893139
 10
-8.5996562526
 20
-1.191504251
 10
-8.6152629242
 20
-1.217469126
 10
-8.6296121766
 20
-1.2446765784
 10
-8.6426425641
 20
-1.2730101019
 10
-8.6542982884
 20
-1.3023483678
 10
-8.664529438
 20
-1.3325657452
 10
-8.6732922016
 20
-1.3635328387
 10
-8.6805490556
 20
-1.3951170424
 10
-8.6862689252
 20
-1.4271831078
 10
-8.6904273168
 20
-1.4595937233
 10
-8.6930064237
 20
-1.4922101016
 10
-8.6939952018
 20
-1.5248925742
 10
-8.6933894168
 20
-1.55750119
 10
-8.691191663
 20
-1.5898963136
 10
-8.6874113513
 20
-1.6219392244
 10
-8.6820646698
 20
-1.6534927095
 10
-8.6751745136
 20
-1.6844216522
  0
LINE
  5
2B5
100
AcDbEntity
  8
RACCORDO
100
AcDbLine
 62
253
  6
CONTINUOUS
 10
-8.3536790174
 20
-0.9981024039
 11
-8.4385442916
 21
-1.0405350409
  0
LINE
  5
2B6
100
AcDbEntity
  8
0
100
AcDbLine
 62
7
  6
CONTINUOUS
 10
6.8594603697
 20
6.432254103
 11
6.1523535886
 21
6.0787007124
  0
LWPOLYLINE
  5
2B7
100
AcDbEntity
  8
RACCORDO
100
AcDbPolyline
 62
253
  6
CONTINUOUS
 90
13
 70
0
 10
-11.0416248443
 20
-1.52600526
 10
-10.8639376313
 20
-1.4418828341
 10
-10.6623741537
 20
-1.3574010928
 10
-10.4564782019
 20
-1.282375475
 10
-10.2464254822
 20
-1.2168700065
 10
-10.0323952556
 20
-1.1609405914
 10
-9.8145701812
 20
-1.1146349614
 10
-9.5931361531
 20
-1.0779926337
 10
-9.3682821385
 20
-1.0510448774
 10
-9.1402000239
 20
-1.0338146892
 10
-8.9090844524
 20
-1.026316773
 10
-8.6751326573
 20
-1.0285575277
 10
-8.4385442916
 20
-1.0405350409
  0
LWPOLYLINE
  5
2B8
100
AcDbEntity
  8
RACCORDO
100
AcDbPolyline
 62
253
  6
CONTINUOUS
 90
4
 70
0
 10
-8.3615382283
 20
-1.0323368641
 10
-8.3640680107
 20
-1.0331981612
 10
-8.3818523832
 20
-1.0374417667
 10
-8.4002358161
 20
-1.0400842673
  0
LWPOLYLINE
  5
2B9
100
AcDbEntity
  8
RACCORDO
100
AcDbPolyline
 62
253
  6
CONTINUOUS
 90
107
 70
0
 10
-8.6750968404
 20
-1.6846824686
 10
-8.9033770681
 20
-1.6729418357
 10
-9.1292285127
 20
-1.6707894351
 10
-9.3526511742
 20
-1.6782252666
 10
-9.5739889349
 20
-1.6952558794
 10
-9.7928979125
 20
-1.7218747244
 10
-10.0083464602
 20
-1.7580621543
 10
-10.2202194032
 20
-1.803864762
 10
-10.4286319162
 20
-1.8592359546
 10
-10.6328978771
 20
-1.9240163055
 10
-10.832953251
 20
-1.9982232453
 10
-11.0288620728
 20
-2.0818393433
 10
-11.2201303242
 20
-2.1746528807
 10
-11.40675773
 20
-2.276693194
 10
-11.5887445654
 20
-2.3879309467
 10
-11.7655976379
 20
-2.5080664103
 10
-11.937297695
 20
-2.6371201131
 10
-12.1038639892
 20
-2.7750715268
 10
-12.2648610852
 20
-2.9215593385
 10
-12.4202761075
 20
-3.0766074186
 10
-12.5701219316
 20
-3.2401918967
 10
-12.7140017488
 20
-3.4118798491
 10
-12.8518992336
 20
-3.5916921464
 10
-12.9838307116
 20
-3.7796079179
 10
-13.10944835
 20
-3.9751316278
 10
-13.2287356333
 20
-4.1782835754
 10
-13.3417090772
 20
-4.3890434615
 10
-13.4480703958
 20
-4.6068548521
 10
-13.5478020778
 20
-4.8317363054
 10
-13.6409216346
 20
-5.0636692631
 10
-13.7271833145
 20
-5.3020416173
 10
-13.8065690118
 20
-5.5468704018
 10
-13.8790968322
 20
-5.7981385827
 10
-13.9445753406
 20
-6.0551829504
 10
-14.0029859122
 20
-6.3180187564
 10
-14.0543471717
 20
-6.5866307491
 10
-14.0985235587
 20
-6.8603099638
 10
-14.1354960933
 20
-7.1390697888
 10
-14.1652837552
 20
-7.4228968356
 10
-14.1878079233
 20
-7.7110419746
 10
-14.2030494092
 20
-8.0035166122
 10
-14.2110274012
 20
-8.3003093419
 10
-14.2117208424
 20
-8.6006368142
 10
-14.2051104891
 20
-8.9045083671
 10
-14.1912155848
 20
-9.2119146626
 10
-14.1700728038
 20
-9.5220443374
 10
-14.1416629991
 20
-9.834904586
 10
-14.1060053175
 20
-10.1504882141
 10
-14.0631938734
 20
-10.4679622754
 10
-14.0132097687
 20
-10.787331764
 10
-13.9560719014
 20
-11.1085916859
 10
-13.8919310803
 20
-11.430894113
 10
-13.8207688057
 20
-11.7542417993
 10
-13.7426035774
 20
-12.0786319909
 10
-13.6576417033
 20
-12.4032084976
 10
-13.5658652287
 20
-12.7279718117
 10
-13.4672921084
 20
-13.052921441
 10
-13.3621825146
 20
-13.377199719
 10
-13.2505191799
 20
-13.700804872
 10
-13.1323193717
 20
-14.0237386737
 10
-13.0078950647
 20
-14.345148778
 10
-12.8772298155
 20
-14.6650311597
 10
-12.7403400674
 20
-14.983389844
 10
-12.5975871249
 20
-15.2993845605
 10
-12.4489554992
 20
-15.6130090642
 10
-12.294460679
 20
-15.9242696001
 10
-12.1345104355
 20
-16.2323446324
 10
-11.9690903568
 20
-16.537225746
 10
-11.7982148547
 20
-16.8389213561
 10
-11.6223349353
 20
-17.136635172
 10
-11.441437379
 20
-17.4303566741
 10
-11.2555354054
 20
-17.720096382
 10
-11.0651196796
 20
-18.0050895636
 10
-10.8701782748
 20
-18.2853236833
 10
-10.6707231179
 20
-18.5608112767
 10
-10.4672806541
 20
-18.8308252179
 10
-10.2598403618
 20
-19.0953510342
 10
-10.0484127627
 20
-19.3544031983
 10
-9.833555867
 20
-19.6072980035
 10
-9.6152605716
 20
-19.8540192279
 10
-9.3935359795
 20
-20.0945830933
 10
-9.1689674105
 20
-20.3283545582
 10
-8.9415474958
 20
-20.5553155505
 10
-8.7112836041
 20
-20.7754841423
 10
-8.4787831624
 20
-20.9882795081
 10
-8.2440398828
 20
-21.1936824724
 10
-8.0070600531
 20
-21.3917122108
 10
-7.7684699628
 20
-21.5818454245
 10
-7.5282657799
 20
-21.764060899
 10
-7.2864513363
 20
-21.9383798489
 10
-7.0436644178
 20
-22.1043426192
 10
-6.7999029681
 20
-22.2619269749
 10
-6.5551690435
 20
-22.411155151
 10
-6.3101065988
 20
-22.551634198
 10
-6.0647128137
 20
-22.6833419502
 10
-5.8189905085
 20
-22.8063005732
 10
-5.5735920985
 20
-22.9201836156
 10
-5.3285204098
 20
-23.0249660906
 10
-5.0837726163
 20
-23.120672985
 10
-4.8399926549
 20
-23.2070528062
 10
-4.5971825775
 20
-23.2840812745
 10
-4.3553403324
 20
-23.3517826697
 10
-4.1151037004
 20
-23.4099783395
 10
-3.8764764566
 20
-23.458643252
 10
-3.639454826
 20
-23.4978024391
 10
-3.4046652649
 20
-23.5273523447
 10
-3.1721140772
 20
-23.5472675014
  0
LWPOLYLINE
  5
2BA
100
AcDbEntity
  8
RACCORDO
100
AcDbPolyline
 62
253
  6
CONTINUOUS
 90
25
 70
0
 10
-3.6764306699
 20
-0.7004755923
 10
-3.6526540949
 20
-0.7116132738
 10
-3.6274483934
 20
-0.7219641464
 10
-3.6009163144
 20
-0.7314814125
 10
-3.5731563888
 20
-0.740124616
 10
-3.5442931949
 20
-0.7478500694
 10
-3.514480647
 20
-0.7546145469
 10
-3.483858939
 20
-0.7603869329
 10
-3.4525475136
 20
-0.7651453871
 10
-3.4206776186
 20
-0.7688698036
 10
-3.3883837018
 20
-0.7715440647
 10
-3.3558059972
 20
-0.7731561577
 10
-3.3230871226
 20
-0.773698875
 10
-3.2903684371
 20
-0.773169925
 10
-3.2577890909
 20
-0.7715716102
 10
-3.2254884573
 20
-0.7689107531
 10
-3.1936048197
 20
-0.7651987061
 10
-3.1622750591
 20
-0.7604513663
 10
-3.1316337692
 20
-0.7546891132
 10
-3.1018123936
 20
-0.7479366706
 10
-3.0729386751
 20
-0.7402229685
 10
-3.0451363833
 20
-0.731581072
 10
-3.0185246997
 20
-0.7220480256
 10
-2.9932177059
 20
-0.7116646955
 10
-2.9693238887
 20
-0.7004755923
  0
LWPOLYLINE
  5
2BB
100
AcDbEntity
  8
RACCORDO
100
AcDbPolyline
 62
253
  6
CONTINUOUS
 90
19
 70
0
 10
-3.6764306699
 20
-0.7004787709
 10
-3.9247059536
 20
-0.5154276496
 10
-4.173894556
 20
-0.3370428303
 10
-4.4239964772
 20
-0.165324313
 10
-4.6751826139
 20
-0.0001611215
 10
-4.9272820695
 20
0.1583357681
 10
-5.1797821537
 20
0.3098334271
 10
-5.4326455014
 20
0.4542929158
 10
-5.6859094778
 20
0.5917531739
 10
-5.9391734885
 20
0.7219980921
 10
-6.1924375594
 20
0.8450171435
 10
-6.4457016646
 20
0.960820855
 10
-6.698565131
 20
1.0692246978
 10
-6.9510654045
 20
1.1702271155
 10
-7.2031650393
 20
1.2638296645
 10
-7.4543510242
 20
1.3498524852
 10
-7.7044523558
 20
1.4282356245
 10
-7.9536400375
 20
1.4990390355
 10
-8.2019140695
 20
1.5622627182
  0
LWPOLYLINE
  5
2BC
100
AcDbEntity
  8
RACCORDO
100
AcDbPolyline
 62
253
  6
CONTINUOUS
 90
25
 70
0
 10
-3.2031702258
 20
-4.4204237961
 10
-3.1947660998
 20
-4.3971419945
 10
-3.1848839916
 20
-4.3732029043
 10
-3.173566218
 20
-4.3487090361
 10
-3.1608612434
 20
-4.3237652767
 10
-3.1468234724
 20
-4.2984784389
 10
-3.131513017
 20
-4.2729568049
 10
-3.1149954389
 20
-4.2473096623
 10
-3.0973414688
 20
-4.221646836
 10
-3.0786267038
 20
-4.1960782182
 10
-3.0589312835
 20
-4.1707132977
 10
-3.0383395465
 20
-4.145660691
 10
-3.0169396699
 20
-4.121027677
 10
-2.9948232912
 20
-4.0969197383
 10
-2.9720851162
 20
-4.0734401087
 10
-2.9488225132
 20
-4.0506893315
 10
-2.9251350963
 20
-4.0287648291
 10
-2.9011242986
 20
-4.0077604856
 10
-2.876892938
 20
-3.9877662448
 10
-2.8525447769
 20
-3.9688677251
 10
-2.828184078
 20
-3.9511458529
 10
-2.8039151574
 20
-3.934676516
 10
-2.7798419384
 20
-3.9195302385
 10
-2.7560675063
 20
-3.9057718791
 10
-2.7326936667
 20
-3.8934603534
  0
LWPOLYLINE
  5
2BD
100
AcDbEntity
  8
RACCORDO
100
AcDbPolyline
 62
253
  6
CONTINUOUS
 90
25
 70
0
 10
-3.2494116397
 20
-0.1368703875
 10
-3.2726924334
 20
-0.1492603661
 10
-3.2961881263
 20
-0.1632537479
 10
-3.3197981062
 20
-0.1787906113
 10
-3.3434212716
 20
-0.1958044248
 10
-3.3669564645
 20
-0.2142223328
 10
-3.3903029036
 20
-0.233965467
 10
-3.4133606158
 20
-0.2549492842
 10
-3.4360308644
 20
-0.2770839285
 10
-3.4582165721
 20
-0.300274616
 10
-3.4798227361
 20
-0.3244220405
 10
-3.5007568355
 20
-0.3494227992
 10
-3.5209292274
 20
-0.3751698348
 10
-3.5402535304
 20
-0.4015528947
 10
-3.558646995
 20
-0.4284590025
 10
-3.5760308574
 20
-0.4557729422
 10
-3.5923306774
 20
-0.4833777512
 10
-3.6074766565
 20
-0.5111552216
 10
-3.6214039374
 20
-0.5389864059
 10
-3.6340528814
 20
-0.5667521267
 10
-3.6453693236
 20
-0.594333487
 10
-3.6553048054
 20
-0.6216123792
 10
-3.6638167815
 20
-0.6484719908
 10
-3.6708688023
 20
-0.6747973049
 10
-3.6764306699
 20
-0.7004755923
  0
LINE
  5
2BE
100
AcDbEntity
  8
RACCORDO
100
AcDbLine
 62
253
  6
CONTINUOUS
 10
-3.2494116397
 20
-0.1368703875
 11
8.1350075374
 21
5.555339201
  0
LINE
  5
2BF
100
AcDbEntity
  8
RACCORDO
100
AcDbLine
 62
253
  6
CONTINUOUS
 10
-2.9693238887
 20
-0.7004755923
 11
8.4150952884
 21
4.9917339962
  0
LWPOLYLINE
  5
2C0
100
AcDbEntity
  8
RACCORDO
100
AcDbPolyline
 62
253
  6
CONTINUOUS
 90
3
 70
0
 10
-8.4002358161
 20
-1.0400842673
 10
-8.4191548792
 20
-1.0411165459
 10
-8.4385442916
 20
-1.0405350409
  0
LWPOLYLINE
  5
2C1
100
AcDbEntity
  8
RACCORDO
100
AcDbPolyline
 62
253
  6
CONTINUOUS
 90
19
 70
0
 10
-7.9218263185
 20
2.1993369519
 10
-7.6654411347
 20
2.1340413563
 10
-7.4079310038
 20
2.0608639357
 10
-7.1494352095
 20
1.9798442708
 10
-6.8900935693
 20
1.8910261844
 10
-6.6300463568
 20
1.7944577165
 10
-6.3694342261
 20
1.6901910991
 10
-6.1083981382
 20
1.5782827281
 10
-5.8470792844
 20
1.4587931333
 10
-5.5856190082
 20
1.3317869445
 10
-5.3241587281
 20
1.1973328566
 10
-5.0628398661
 20
1.0555035946
 10
-4.80180377
 20
0.9063758743
 10
-4.5411916329
 20
0.7500303581
 10
-4.281144414
 20
0.5865516103
 10
-4.0218027675
 20
0.4160280531
 10
-3.7633069669
 20
0.2385519198
 10
-3.5057968298
 20
0.0542192052
 10
-3.2494116397
 20
-0.1368703875
  0
LINE
  5
2C2
100
AcDbEntity
  8
RACCORDO
100
AcDbLine
 62
253
  6
CONTINUOUS
 10
8.4150952884
 20
2.3257126779
 11
-2.9693238887
 21
-3.3664969107
  0
LWPOLYLINE
  5
2C3
100
AcDbEntity
  8
RACCORDO
100
AcDbPolyline
 62
253
  6
CONTINUOUS
 90
25
 70
0
 10
-2.9693238887
 20
-3.3664969107
 10
-2.9932043718
 20
-3.3776801673
 10
-3.0184965648
 20
-3.3880585505
 10
-3.0450921628
 20
-3.3975876185
 10
-3.0728772793
 20
-3.4062265663
 10
-3.1017329342
 20
-3.4139384008
 10
-3.1315355632
 20
-3.4206900985
 10
-3.1621575467
 20
-3.4264527478
 10
-3.1934677568
 20
-3.431201672
 10
-3.2253321183
 20
-3.4349165355
 10
-3.2576141832
 20
-3.4375814307
 10
-3.2901757147
 20
-3.4391849462
 10
-3.3228772793
 20
-3.4397202154
 10
-3.355578844
 20
-3.4391849462
 10
-3.3881403754
 20
-3.4375814307
 10
-3.4204224403
 20
-3.4349165355
 10
-3.4522868019
 20
-3.431201672
 10
-3.483597012
 20
-3.4264527478
 10
-3.5142189955
 20
-3.4206900985
 10
-3.5440216244
 20
-3.4139384008
 10
-3.5728772793
 20
-3.4062265663
 10
-3.6006623958
 20
-3.3975876185
 10
-3.6272579938
 20
-3.3880585505
 10
-3.6525501869
 20
-3.3776801673
 10
-3.6764306699
 20
-3.3664969107
  0
LWPOLYLINE
  5
2C4
100
AcDbEntity
  8
RACCORDO
100
AcDbPolyline
 62
253
  6
CONTINUOUS
 90
9
 70
0
 10
-7.9218263185
 20
2.1993369519
 10
-7.9440776511
 20
2.2037434555
 10
-7.965926804
 20
2.2061973988
 10
-7.9872819723
 20
2.206688471
 10
-8.0080534268
 20
2.2052146087
 10
-8.0281538908
 20
2.2017820048
 10
-8.0474989071
 20
2.1964050821
 10
-8.0660071925
 20
2.1891064333
 10
-8.0719674767
 20
2.1862563983
  0
LINE
  5
2C5
100
AcDbEntity
  8
0
100
AcDbLine
 62
7
  6
CONTINUOUS
 10
3.5416934168
 20
23.9991697975
 11
3.5416934168
 21
7.1900583702
  0
LINE
  5
2C6
100
AcDbEntity
  8
RACCORDO
100
AcDbLine
 62
253
  6
CONTINUOUS
 10
8.6517255104
 20
1.7987492352
 11
-2.7326936667
 21
-3.8934603534
  0
LINE
  5
2C7
100
AcDbEntity
  8
0
100
AcDbLine
 62
7
  6
CONTINUOUS
 10
5.1949092935
 20
6.4187702741
 11
5.2006249362
 21
6.3488956752
  0
LWPOLYLINE
  5
2C8
100
AcDbEntity
  8
0
100
AcDbPolyline
 62
7
  6
CONTINUOUS
 90
3
 70
0
 10
6.2269527109
 20
6.1274545594
 10
6.2000263887
 20
6.3988629635
 10
6.181367584
 20
6.6428441532
  0
LINE
  5
2C9
100
AcDbEntity
  8
0
100
AcDbLine
 62
7
  6
CONTINUOUS
 10
6.6416934168
 20
23.9991697975
 11
6.6416934168
 21
7.1900583702
  0
LWPOLYLINE
  5
2CA
100
AcDbEntity
  8
0
100
AcDbPolyline
 62
7
  6
CONTINUOUS
 90
17
 70
0
 10
6.6408800754
 20
7.1889503884
 10
6.6319473421
 20
7.1032859012
 10
6.5882284897
 20
6.9904707082
 10
6.5106133951
 20
6.8795651098
 10
6.4041159256
 20
6.7777335109
 10
6.2668292451
 20
6.6855749837
 10
6.1006601897
 20
6.602490456
 10
5.9163431354
 20
6.5338471158
 10
5.7126799375
 20
6.480598381
 10
5.4908687408
 20
6.4417908337
 10
5.2652383547
 20
6.4199314075
 10
5.0355366337
 20
6.4161390302
 10
4.8020157234
 20
6.4292947739
 10
4.5797608708
 20
6.4585487892
 10
4.3738004915
 20
6.5036177928
 10
4.1791061699
 20
6.564785068
 10
3.9956779059
 20
6.6420506148
  0
LWPOLYLINE
  5
2CB
100
AcDbEntity
  8
0
100
AcDbPolyline
 62
7
  6
CONTINUOUS
 90
7
 70
0
 10
3.9956779059
 20
6.6420506148
 10
3.8411468125
 20
6.7337647467
 10
3.7188122621
 20
6.8311119075
 10
3.6286742548
 20
6.9340920972
 10
3.5701662242
 20
7.0452195235
 10
3.5438547367
 20
7.1619799786
 10
3.5425067582
 20
7.191166352
  0
LINE
  5
2CC
100
AcDbEntity
  8
0
100
AcDbLine
 62
7
  6
CONTINUOUS
 10
6.2282642663
 20
6.1166560513
 11
6.2269527109
 21
6.1274545594
  0
LWPOLYLINE
  5
2CD
100
AcDbEntity
  8
0
100
AcDbPolyline
 62
7
  6
CONTINUOUS
 90
39
 70
0
 10
5.2006628849
 20
6.3488957918
 10
5.2017129641
 20
6.339893788
 10
5.2051049234
 20
6.3236474946
 10
5.2104628634
 20
6.3074676703
 10
5.2177357863
 20
6.2913394095
 10
5.2267887775
 20
6.275491501
 10
5.2376112941
 20
6.2599655464
 10
5.2502135343
 20
6.2447133068
 10
5.2644917638
 20
6.229831363
 10
5.2804407952
 20
6.2153107486
 10
5.2980654603
 20
6.2011550664
 10
5.3172771144
 20
6.1874817005
 10
5.3381782578
 20
6.1742483034
 10
5.360666052
 20
6.1614934233
 10
5.3843440132
 20
6.1494598059
 10
5.409217601
 20
6.1381885656
 10
5.4352813034
 20
6.1276412266
 10
5.4621224282
 20
6.117946268
 10
5.4896357908
 20
6.1091441766
 10
5.5179267861
 20
6.1012013737
 10
5.5468987321
 20
6.0941376798
 10
5.5766351052
 20
6.0879326403
 10
5.6070526816
 20
6.0826132437
 10
5.6378048443
 20
6.0782721642
 10
5.6689599733
 20
6.0749309499
 10
5.70045014
 20
6.0725768004
 10
5.7317244484
 20
6.0712535209
 10
5.7627245425
 20
6.0709951274
 10
5.7935094013
 20
6.0717778918
 10
5.8237042456
 20
6.0735605039
 10
5.8532663939
 20
6.0763545766
 10
5.8822391083
 20
6.0801572727
 10
5.9103765373
 20
6.0849056228
 10
5.9375698784
 20
6.0905550071
 10
5.9639283668
 20
6.0971562258
 10
5.9895331768
 20
6.1047889206
 10
6.0144114472
 20
6.1134807523
 10
6.0385362759
 20
6.1232073314
 10
6.0619077251
 20
6.1339695118
  0
LWPOLYLINE
  5
2CE
100
AcDbEntity
  8
RACCORDO
100
AcDbPolyline
 62
7
  6
CONTINUOUS
 90
22
 70
0
 10
8.4150952884
 20
2.3257126779
 10
8.4157227139
 20
2.2998297636
 10
8.417548424
 20
2.2736090806
 10
8.4205724185
 20
2.2470506289
 10
8.4248133584
 20
2.220060653
 10
8.4302525828
 20
2.1927329084
 10
8.4368341094
 20
2.1653486617
 10
8.4445697355
 20
2.1379073293
 10
8.4534476638
 20
2.1104094947
 10
8.4633765195
 20
2.0831381752
 10
8.4743671565
 20
2.05609571
 10
8.4864087209
 20
2.0292797598
 10
8.4993772769
 20
2.0029663236
 10
8.5132823982
 20
1.9771605912
 10
8.528114511
 20
1.9518573728
 10
8.5437209582
 20
1.9273170977
 10
8.5601097369
 20
1.9035476455
 10
8.5772728499
 20
1.8805411367
 10
8.5950336487
 20
1.8585343622
 10
8.6133332502
 20
1.8376062523
 10
8.6322305375
 20
1.8176778766
 10
9.0834615558
 20
1.3813890595
  0
LINE
  5
2CF
100
AcDbEntity
  8
RACCORDO
100
AcDbLine
 62
7
  6
CONTINUOUS
 10
8.4150952884
 20
2.3257126779
 11
8.4150952884
 21
4.9917339962
  0
LINE
  5
2D0
100
AcDbEntity
  8
RACCORDO
100
AcDbLine
 62
7
  6
CONTINUOUS
 10
3.5416934168
 20
7.8715896783
 11
3.4625928586
 21
7.8915465404
  0
LINE
  5
2D1
100
AcDbEntity
  8
0
100
AcDbLine
 62
7
  6
CONTINUOUS
 10
6.1222094535
 20
6.0972211431
 11
6.0619077251
 21
6.1339695118
  0
LINE
  5
2D2
100
AcDbEntity
  8
0
100
AcDbLine
 62
7
  6
CONTINUOUS
 10
6.1523535886
 20
6.0787007124
 11
6.1222094535
 21
6.0972211431
  0
LWPOLYLINE
  5
2D3
100
AcDbEntity
  8
RACCORDO
100
AcDbPolyline
 62
7
  6
CONTINUOUS
 90
7
 70
0
 10
8.1350075374
 20
5.555339201
 10
7.9232254728
 20
5.7136892095
 10
7.7111197563
 20
5.8671602081
 10
7.4986903877
 20
6.0157521967
 10
7.2859373671
 20
6.1594651754
 10
7.0728606944
 20
6.2982991442
 10
6.8594603697
 20
6.432254103
  0
LWPOLYLINE
  5
2D4
100
AcDbEntity
  8
RACCORDO
100
AcDbPolyline
 62
7
  6
CONTINUOUS
 90
22
 70
0
 10
8.1350075374
 20
5.555339201
 10
8.1574081685
 20
5.5373485105
 10
8.1792267198
 20
5.5179804656
 10
8.2004631911
 20
5.4972350664
 10
8.2212016855
 20
5.4750138474
 10
8.2413581001
 20
5.4514152742
 10
8.2606801259
 20
5.4267347427
 10
8.2791572748
 20
5.4009586529
 10
8.296800035
 20
5.374100605
 10
8.3133875625
 20
5.3464967957
 10
8.328906593
 20
5.3181378509
 10
8.3433703908
 20
5.2890331447
 10
8.3565979046
 20
5.2595469966
 10
8.3685735943
 20
5.2296746119
 10
8.3793130002
 20
5.1994207853
 10
8.388681691
 20
5.1691642204
 10
8.3966624371
 20
5.1389048828
 10
8.4032724682
 20
5.108642807
 10
8.408429043
 20
5.0787567997
 10
8.4121045811
 20
5.0493731299
 10
8.4143266629
 20
5.0203655288
 10
8.4150952884
 20
4.9917339962
  0
LWPOLYLINE
  5
2D5
100
AcDbEntity
  8
RACCORDO
100
AcDbPolyline
 62
7
  6
CONTINUOUS
 90
70
 70
0
 10
-3.5731577994
 20
-16.4629393497
 10
-3.489533372
 20
-16.4174464817
 10
-3.4098018878
 20
-16.3667059046
 10
-3.3339022738
 20
-16.3109344236
 10
-3.2618726932
 20
-16.2504311593
 10
-3.1935763965
 20
-16.1853553403
 10
-3.1287463345
 20
-16.1156725316
 10
-3.0674266355
 20
-16.0416173525
 10
-3.0096058
 20
-15.9633731991
 10
-2.9550277704
 20
-15.8807292215
 10
-2.903685361
 20
-15.7937306899
 10
-2.8557197038
 20
-15.7026831919
 10
-2.811144892
 20
-15.6077008687
 10
-2.7700574361
 20
-15.50909512
 10
-2.7324515
 20
-15.4069763965
 10
-2.6982206093
 20
-15.3010976698
 10
-2.6674112263
 20
-15.1915536258
 10
-2.6401073901
 20
-15.078600978
 10
-2.6163077529
 20
-14.9621582308
 10
-2.5960703238
 20
-14.8423557879
 10
-2.5794590476
 20
-14.7194077964
 10
-2.5665054043
 20
-14.5933178129
 10
-2.5572632937
 20
-14.4642559061
 10
-2.5517792483
 20
-14.3324044259
 10
-2.5500917711
 20
-14.1977587669
 10
-2.5522512099
 20
-14.0603611838
 10
-2.5582999646
 20
-13.9205261282
 10
-2.5682516585
 20
-13.7786540668
 10
-2.5820968177
 20
-13.6350899877
 10
-2.5998427136
 20
-13.4898921396
 10
-2.6215188531
 20
-13.3430289856
 10
-2.6471524514
 20
-13.1945709702
 10
-2.6767228204
 20
-13.044846667
 10
-2.7101852386
 20
-12.8942062846
 10
-2.74749563
 20
-12.7429181001
 10
-2.7886311226
 20
-12.5911323552
 10
-2.833561283
 20
-12.439021991
 10
-2.8822472849
 20
-12.2867770896
 10
-2.9346312763
 20
-12.1346290634
 10
-2.9906466856
 20
-11.9828103968
 10
-3.0502323015
 20
-11.8315195496
 10
-3.1133115602
 20
-11.6809786389
 10
-3.1797809862
 20
-11.5314519158
 10
-3.2495460949
 20
-11.3831597065
 10
-3.3225199259
 20
-11.2362917991
 10
-3.3985976472
 20
-11.0910617324
 10
-3.4776687273
 20
-10.9476789388
 10
-3.559629127
 20
-10.8063283916
 10
-3.6443762953
 20
-10.6671835294
 10
-3.7318189489
 20
-10.5303933535
 10
-3.8218086916
 20
-10.3961871263
 10
-3.9141446498
 20
-10.2648492392
 10
-4.0086462907
 20
-10.1366082908
 10
-4.1052137699
 20
-10.0115703643
 10
-4.2037576572
 20
-9.8898294373
 10
-4.3041715319
 20
-9.7715016711
 10
-4.4062699459
 20
-9.6567885988
 10
-4.509837211
 20
-9.5459057179
 10
-4.6146814399
 20
-9.4390225456
 10
-4.720675304
 20
-9.3362314933
 10
-4.8276901891
 20
-9.2376233278
 10
-4.9355517084
 20
-9.1433247716
 10
-5.0441035208
 20
-9.0534367121
 10
-5.153237449
 20
-8.9680158047
 10
-5.2628570409
 20
-8.8871114613
 10
-5.3727174723
 20
-8.8108759512
 10
-5.4824774263
 20
-8.7394994885
 10
-5.5919030776
 20
-8.6730704698
 10
-5.7008762561
 20
-8.6115945492
 10
-5.8092257769
 20
-8.5551035668
  0
LWPOLYLINE
  5
2D6
100
AcDbEntity
  8
RACCORDO
100
AcDbPolyline
 62
253
  6
CONTINUOUS
 90
20
 70
0
 10
-3.5731578026
 20
-16.4629393513
 10
-3.6016864446
 20
-16.4768697909
 10
-3.6960945625
 20
-16.518388584
 10
-3.7931453409
 20
-16.5542006077
 10
-3.8927030529
 20
-16.5842557794
 10
-3.9946284543
 20
-16.6085120637
 10
-4.0987789966
 20
-16.6269355375
 10
-4.2050090366
 20
-16.639500436
 10
-4.3131700154
 20
-16.6461891834
 10
-4.423110649
 20
-16.6469924199
 10
-4.534677159
 20
-16.6419090203
 10
-4.6477135046
 20
-16.6309460944
 10
-4.762061599
 20
-16.6141189744
 10
-4.8775615131
 20
-16.5914511948
 10
-4.9940517087
 20
-16.5629744589
 10
-5.1113692645
 20
-16.528728594
 10
-5.2293501017
 20
-16.4887614959
 10
-5.3478292133
 20
-16.4431290623
 10
-5.4666408954
 20
-16.3918951143
 10
-5.5856189791
 20
-16.3351313073
  0
LWPOLYLINE
  5
2D7
100
AcDbEntity
  8
RACCORDO
100
AcDbPolyline
 62
7
  6
CONTINUOUS
 90
40
 70
0
 10
11.2552042923
 20
-17.6575157404
 10
11.495173245
 20
-17.528538724
 10
11.8326094805
 20
-17.3136720561
 10
12.153821384
 20
-17.0680948534
 10
12.4560723237
 20
-16.7938996751
 10
12.7392002814
 20
-16.4908420106
 10
13.0033672753
 20
-16.1591663704
 10
13.2463227279
 20
-15.801698846
 10
13.4678853945
 20
-15.4182190772
 10
13.6682365199
 20
-15.0089474242
 10
13.8456692603
 20
-14.5773710588
 10
13.9999877908
 20
-14.1232994191
 10
14.1313879364
 20
-13.646923067
 10
14.2387503288
 20
-13.15230086
 10
14.3218695822
 20
-12.6392769183
 10
14.3809510823
 20
-12.1080071218
 10
14.4154916187
 20
-11.5630179673
 10
14.4252815091
 20
-11.004192252
 10
14.4105304357
 20
-10.4316471787
 10
14.3713642345
 20
-9.8502608536
 10
14.3075743015
 20
-9.2599577536
 10
14.2193692405
 20
-8.6608134017
 10
14.1075006991
 20
-8.0579324723
 10
13.9717664984
 20
-7.4512830577
 10
13.8123688172
 20
-6.8408970655
 10
13.6306658391
 20
-6.2319748935
 10
13.4264669925
 20
-5.6245290659
 10
13.1999628489
 20
-5.0185470584
 10
12.9530833069
 20
-4.4191916953
 10
12.6856542864
 20
-3.8265196114
 10
12.3978498676
 20
-3.2404741718
 10
12.0921221894
 20
-2.6660482969
 10
11.7683181248
 20
-2.1033412791
 10
11.4265908008
 20
-1.552253826
 10
11.0698517381
 20
-1.0174809796
 10
10.6978961982
 20
-0.4990910863
 10
10.3109289194
 20
0.0029842002
 10
9.9124756377
 20
0.484254876
 10
9.5037115983
 20
0.9432242731
 10
9.0834615558
 20
1.3813890595
  0
LINE
  5
2D8
100
AcDbEntity
  8
ASSI
100
AcDbLine
 62
7
  6
CONTINUOUS
 10
11.2548060631
 20
-17.6578191319
 11
-0.129613114
 21
-23.3500287204
  0
LINE
  5
2D9
100
AcDbEntity
  8
0
100
AcDbLine
 62
7
  6
CONTINUOUS
 10
6.6416934168
 20
23.9991697975
 11
3.5416934168
 21
23.9991697975
  0
ENDSEC
  0
SECTION
  2
OBJECTS
  0
DICTIONARY
  5
C
100
AcDbDictionary
280
0
281
1
  3
ACAD_GROUP
350
D
  3
ACAD_MLINESTYLE
350
17
  3
ACAD_LAYOUT
350
1A
  3
ACAD_PLOTSETTINGS
350
19
  3
ACAD_PLOTSTYLENAME
350
E
  0
DICTIONARY
  5
D
102
{ACAD_REACTORS
330
C
102
}
100
AcDbDictionary
280
0
281
1
  0
ACDBDICTIONARYWDFLT
  5
E
102
{ACAD_REACTORS
330
C
102
}
100
AcDbDictionary
281
1
  3
Normal
350
F
100
AcDbDictionaryWithDefault
340
F
  0
DICTIONARY
  5
17
102
{ACAD_REACTORS
330
C
102
}
100
AcDbDictionary
280
0
281
1
  3
Standard
350
18
  0
DICTIONARY
  5
19
102
{ACAD_REACTORS
330
C
102
}
100
AcDbDictionary
281
1
  0
DICTIONARY
  5
1A
102
{ACAD_REACTORS
330
C
102
}
100
AcDbDictionary
281
1
  3
Model
350
2DA
  3
Layout1
350
2DB
  0
ACDBPLACEHOLDER
  5
F
102
{ACAD_REACTORS
330
E
102
}
  0
MLINESTYLE
  5
18
102
{ACAD_REACTORS
330
17
102
}
100
AcDbMlineStyle
  2
STANDARD
 70
0
  3

 62
256
 51
90.0
 52
90.0
 71
2
 49
0.5
 62
256
  6
BYLAYER
 49
-0.5
 62
256
  6
BYLAYER
  0
LAYOUT
  5
2DA
102
{ACAD_REACTORS
330
1A
102
}
100
AcDbPlotSettings
  1

  2
none_device
  4
ISO_A4_(297.00_x_210.00_MM)
  6

 40
0.0
 41
0.0
 42
0.0
 43
0.0
 44
297.0
 45
210.0
 46
0.0
 47
0.0
 48
0.0
 49
0.0
140
0.0
141
0.0
142
1.0
143
1.0
 70
1024
 72
1
 73
0
 74
0
  7

 75
0
147
1.0
148
0.0
149
0.0
100
AcDbLayout
  1
Model
 70
0
 71
0
 10
0.0
 20
0.0
 11
297.0
 21
210.0
 12
0.0
 22
0.0
 32
0.0
 14
0.0
 24
0.0
 34
0.0
 15
0.0
 25
0.0
 35
0.0
146
0.0
 13
0.0
 23
0.0
 33
0.0
 16
1.0
 26
0.0
 36
0.0
 17
0.0
 27
1.0
 37
0.0
 76
0
330
20F
345
0
346
0
  0
LAYOUT
  5
2DB
102
{ACAD_REACTORS
330
1A
102
}
100
AcDbPlotSettings
  1

  2
none_device
  4
ISO_A4_(297.00_x_210.00_MM)
  6

 40
0.0
 41
0.0
 42
0.0
 43
0.0
 44
297.0
 45
210.0
 46
0.0
 47
0.0
 48
0.0
 49
0.0
140
0.0
141
0.0
142
1.0
143
1.0
 70
0
 72
1
 73
0
 74
0
  7

 75
0
147
1.0
148
0.0
149
0.0
100
AcDbLayout
  1
Layout1
 70
0
 71
1
 10
0.0
 20
0.0
 11
297.0
 21
210.0
 12
0.0
 22
0.0
 32
0.0
 14
0.0
 24
0.0
 34
0.0
 15
0.0
 25
0.0
 35
0.0
146
0.0
 13
0.0
 23
0.0
 33
0.0
 16
1.0
 26
0.0
 36
0.0
 17
0.0
 27
1.0
 37
0.0
 76
0
330
210
345
0
346
0
  0
ENDSEC
  0
EOF
