  0
SECTION
  2
HEADER
  9
$ACADVER
  1
AC1024
  9
$DWGCODEPAGE
  3
ANSI_1252
  9
$EXTMAX
 10
297.0
 20
210.0
 30
0.0
  9
$EXTMIN
 10
0.0
 20
0.0
 30
0.0
  9
$LIMMIN
 10
0.0
 20
0.0
  9
$LIMMAX
 10
297.0
 20
210.0
  9
$VIEWCTR
 10
148.5
 20
105.0
  9
$VIEWSIZE
 40
210.0
  9
$CLAYER
  8
0
  9
$LTSCALE
 40
16.335
  9
$CELTYPE
  6
BYLAYER
  9
$DIMSCALE
 40
1.0
  9
$DIMASZ
 40
3.0
  9
$DIMEXO
 40
0.5
  9
$DIMDLI
 40
11.286
  9
$DIMEXE
 40
1.5
  9
$DIMCEN
 40
2.673
  9
$DIMLFAC
 40
1.0
  9
$DIMBLK
  1
_FILLED
  9
$DIMALT
 70
0
  9
$DIMALTF
 40
0.0393700787
  9
$DIMTXT
 40
3.0
  9
$DIMTOL
 70
1
  9
$DIMLIM
 70
0
  9
$DIMTFAC
 40
1.0
  9
$DIMTP
 40
0.01
  9
$DIMTM
 40
0.01
  9
$DIMGAP
 40
0.625
  9
$DIMDSEP
 70
44
  9
$AUNITS
 70
0
  9
$PDMODE
 70
3
  9
$PDSIZE
 40
3.0
  9
$HANDSEED
  5
47D
  9
$TILEMODE
 70
1
  9
$MEASUREMENT
 70
1
  9
$INSUNITS
 70
4
  0
ENDSEC
  0
SECTION
  2
CLASSES
  0
CLASS
  1
ACDBDICTIONARYWDFLT
  2
AcDbDictionaryWithDefault
  3
AutoCAD 2000
 90
0
 91
1
280
0
281
0
  0
CLASS
  1
ACDBPLACEHOLDER
  2
AcDbPlaceHolder
  3
AutoCAD 2000
 90
0
 91
1
280
0
281
0
  0
CLASS
  1
LAYOUT
  2
AcDbLayout
  3
AutoCAD 2000
 90
0
 91
0
280
0
281
0
  0
ENDSEC
  0
SECTION
  2
TABLES
  0
TABLE
  2
VPORT
  5
8
100
AcDbSymbolTable
 70
2
  0
VPORT
  5
1F4
100
AcDbSymbolTableRecord
100
AcDbViewportTableRecord
  2
*ACTIVE
 70
0
 10
0.0
 20
0.0
 11
1.0
 21
1.0
 12
148.5
 22
105.0
 13
0.0
 23
0.0
 14
1.0
 24
1.0
 15
0.0
 25
0.0
 16
0.0
 26
0.0
 36
1.0
 17
0.0
 27
0.0
 37
0.0
 40
210.0
 41
1.4142857143
 42
50.0
 43
0.0
 44
0.0
 50
0.0
 51
0.0
 71
0
 72
100
 73
1
 74
1
 75
0
 76
0
 77
0
 78
0
  0
ENDTAB
  0
TABLE
  2
LTYPE
  5
5
100
AcDbSymbolTable
 70
6
  0
LTYPE
  5
14
100
AcDbSymbolTableRecord
100
AcDbLinetypeTableRecord
  2
BYBLOCK
 70
0
  3

 72
65
 73
0
 40
0.0
  0
LTYPE
  5
15
100
AcDbSymbolTableRecord
100
AcDbLinetypeTableRecord
  2
BYLAYER
 70
0
  3

 72
65
 73
0
 40
0.0
  0
LTYPE
  5
16
100
AcDbSymbolTableRecord
100
AcDbLinetypeTableRecord
  2
CONTINUOUS
 70
64
  3
Solid line
 72
65
 73
0
 40
0.0
  0
LTYPE
  5
1F5
100
AcDbSymbolTableRecord
100
AcDbLinetypeTableRecord
  2
CENTER
 70
64
  3
____ _ ____ _ ____ _ ____ _ ____ _ ____ _ ____
 72
65
 73
4
 40
0.6
 49
0.375
 74
0
 49
-0.075
 74
0
 49
0.075
 74
0
 49
-0.075
 74
0
  0
LTYPE
  5
1F6
100
AcDbSymbolTableRecord
100
AcDbLinetypeTableRecord
  2
HIDDEN
 70
64
  3
- - - - - - - - - - - - - - - - - - - -
 72
65
 73
2
 40
0.2
 49
0.1
 74
0
 49
-0.1
 74
0
  0
LTYPE
  5
1F7
100
AcDbSymbolTableRecord
100
AcDbLinetypeTableRecord
  2
PHANTOM
 70
64
  3
_____ _ _ _____ _ _ _____ _ _ _____
 72
65
 73
6
 40
0.8
 49
0.45
 74
0
 49
-0.05
 74
0
 49
0.1
 74
0
 49
-0.05
 74
0
 49
0.1
 74
0
 49
-0.05
 74
0
  0
LTYPE
  5
1F8
100
AcDbSymbolTableRecord
100
AcDbLinetypeTableRecord
  2
DOT
 70
64
  3
. . . . . . . . . . . . . . . . . . . .
 72
65
 73
2
 40
0.2
 49
0.1
 74
0
 49
-0.1
 74
0
  0
LTYPE
  5
1F9
100
AcDbSymbolTableRecord
100
AcDbLinetypeTableRecord
  2
DASHED
 70
64
  3
- - - - - - - - - - - - - - - - - - - -
 72
65
 73
2
 40
0.2
 49
0.1
 74
0
 49
-0.1
 74
0
  0
ENDTAB
  0
TABLE
  2
LAYER
  5
2
100
AcDbSymbolTable
 70
36
  0
LAYER
  5
10
100
AcDbSymbolTableRecord
100
AcDbLayerTableRecord
  2
0
 70
0
 62
7
  6
CONTINUOUS
370
-3
390
F
  0
LAYER
  5
1FA
100
AcDbSymbolTableRecord
100
AcDbLayerTableRecord
  2
DEFAULT_1
 70
0
 62
7
  6
CENTER
370
-3
390
F
  0
LAYER
  5
1FB
100
AcDbSymbolTableRecord
100
AcDbLayerTableRecord
  2
DEFAULT_2
 70
0
 62
7
  6
HIDDEN
370
-3
390
F
  0
LAYER
  5
1FC
100
AcDbSymbolTableRecord
100
AcDbLayerTableRecord
  2
DEFAULT_3
 70
0
 62
7
  6
PHANTOM
370
-3
390
F
  0
LAYER
  5
1FD
100
AcDbSymbolTableRecord
100
AcDbLayerTableRecord
  2
06___PRT_ALL_SURFS_10
 70
0
 62
7
  6
CONTINUOUS
370
-3
390
F
  0
LAYER
  5
1FE
100
AcDbSymbolTableRecord
100
AcDbLayerTableRecord
  2
06___PRT_ALL_SURFS_12
 70
0
 62
7
  6
CONTINUOUS
370
-3
390
F
  0
LAYER
  5
1FF
100
AcDbSymbolTableRecord
100
AcDbLayerTableRecord
  2
06___PRT_ALL_SURFS_13
 70
0
 62
7
  6
CONTINUOUS
370
-3
390
F
  0
LAYER
  5
200
100
AcDbSymbolTableRecord
100
AcDbLayerTableRecord
  2
06___PRT_ALL_SURFS_5
 70
0
 62
7
  6
CONTINUOUS
370
-3
390
F
  0
LAYER
  5
201
100
AcDbSymbolTableRecord
100
AcDbLayerTableRecord
  2
06___PRT_ALL_SURFS_6
 70
0
 62
7
  6
CONTINUOUS
370
-3
390
F
  0
LAYER
  5
202
100
AcDbSymbolTableRecord
100
AcDbLayerTableRecord
  2
06___PRT_ALL_SURFS_7
 70
0
 62
7
  6
CONTINUOUS
370
-3
390
F
  0
LAYER
  5
203
100
AcDbSymbolTableRecord
100
AcDbLayerTableRecord
  2
06___PRT_ALL_SURFS_8
 70
0
 62
7
  6
CONTINUOUS
370
-3
390
F
  0
LAYER
  5
204
100
AcDbSymbolTableRecord
100
AcDbLayerTableRecord
  2
1210_C_WAVE_250000
 70
0
 62
7
  6
CONTINUOUS
370
-3
390
F
  0
LAYER
  5
205
100
AcDbSymbolTableRecord
100
AcDbLayerTableRecord
  2
43001103A0
 70
0
 62
7
  6
CONTINUOUS
370
-3
390
F
  0
LAYER
  5
206
100
AcDbSymbolTableRecord
100
AcDbLayerTableRecord
  2
43001103B0
 70
0
 62
7
  6
CONTINUOUS
370
-3
390
F
  0
LAYER
  5
207
100
AcDbSymbolTableRecord
100
AcDbLayerTableRecord
  2
43001105A0
 70
0
 62
7
  6
CONTINUOUS
370
-3
390
F
  0
LAYER
  5
208
100
AcDbSymbolTableRecord
100
AcDbLayerTableRecord
  2
43001105C0
 70
0
 62
7
  6
CONTINUOUS
370
-3
390
F
  0
LAYER
  5
209
100
AcDbSymbolTableRecord
100
AcDbLayerTableRecord
  2
43901103A0
 70
0
 62
7
  6
CONTINUOUS
370
-3
390
F
  0
LAYER
  5
20A
100
AcDbSymbolTableRecord
100
AcDbLayerTableRecord
  2
43901103B0
 70
0
 62
7
  6
CONTINUOUS
370
-3
390
F
  0
LAYER
  5
20B
100
AcDbSymbolTableRecord
100
AcDbLayerTableRecord
  2
43901105A0
 70
0
 62
7
  6
CONTINUOUS
370
-3
390
F
  0
LAYER
  5
20C
100
AcDbSymbolTableRecord
100
AcDbLayerTableRecord
  2
43901105C0
 70
0
 62
7
  6
CONTINUOUS
370
-3
390
F
  0
LAYER
  5
20D
100
AcDbSymbolTableRecord
100
AcDbLayerTableRecord
  2
ASSI
 70
0
 62
7
  6
CONTINUOUS
370
-3
390
F
  0
LAYER
  5
20E
100
AcDbSymbolTableRecord
100
AcDbLayerTableRecord
  2
CN_M_THT_P5_R1_P2_SET_1750000
 70
0
 62
7
  6
CONTINUOUS
370
-3
390
F
  0
LAYER
  5
20F
100
AcDbSymbolTableRecord
100
AcDbLayerTableRecord
  2
COLOR1
 70
0
 62
7
  6
CONTINUOUS
370
-3
390
F
  0
LAYER
  5
210
100
AcDbSymbolTableRecord
100
AcDbLayerTableRecord
  2
COLOR14
 70
0
 62
7
  6
CONTINUOUS
370
-3
390
F
  0
LAYER
  5
211
100
AcDbSymbolTableRecord
100
AcDbLayerTableRecord
  2
COLOR2
 70
0
 62
7
  6
CONTINUOUS
370
-3
390
F
  0
LAYER
  5
212
100
AcDbSymbolTableRecord
100
AcDbLayerTableRecord
  2
COLOR26
 70
0
 62
7
  6
CONTINUOUS
370
-3
390
F
  0
LAYER
  5
213
100
AcDbSymbolTableRecord
100
AcDbLayerTableRecord
  2
COLOR27
 70
0
 62
7
  6
CONTINUOUS
370
-3
390
F
  0
LAYER
  5
214
100
AcDbSymbolTableRecord
100
AcDbLayerTableRecord
  2
COORDINATE
 70
0
 62
7
  6
CONTINUOUS
370
-3
390
F
  0
LAYER
  5
215
100
AcDbSymbolTableRecord
100
AcDbLayerTableRecord
  2
COPY_PUBLISH
 70
0
 62
7
  6
CONTINUOUS
370
-3
390
F
  0
LAYER
  5
216
100
AcDbSymbolTableRecord
100
AcDbLayerTableRecord
  2
COSMETIC
 70
0
 62
7
  6
CONTINUOUS
370
-3
390
F
  0
LAYER
  5
217
100
AcDbSymbolTableRecord
100
AcDbLayerTableRecord
  2
COSMETICI
 70
0
 62
7
  6
CONTINUOUS
370
-3
390
F
  0
LAYER
  5
218
100
AcDbSymbolTableRecord
100
AcDbLayerTableRecord
  2
CURVE
 70
0
 62
7
  6
CONTINUOUS
370
-3
390
F
  0
LAYER
  5
219
100
AcDbSymbolTableRecord
100
AcDbLayerTableRecord
  2
DRAFT
 70
0
 62
7
  6
CONTINUOUS
370
-3
390
F
  0
LAYER
  5
21A
100
AcDbSymbolTableRecord
100
AcDbLayerTableRecord
  2
GEOMETRIA_SOLIDA
 70
0
 62
7
  6
CONTINUOUS
370
-3
390
F
  0
LAYER
  5
21B
100
AcDbSymbolTableRecord
100
AcDbLayerTableRecord
  2
GEOMETRIA_SOLIDA_1
 70
0
 62
7
  6
CONTINUOUS
370
-3
390
F
  0
LAYER
  5
21C
100
AcDbSymbolTableRecord
100
AcDbLayerTableRecord
  2
GEOMETRIA_SOLIDA_2
 70
0
 62
7
  6
CONTINUOUS
370
-3
390
F
  0
LAYER
  5
21D
100
AcDbSymbolTableRecord
100
AcDbLayerTableRecord
  2
IGES_HOLGER
 70
0
 62
7
  6
CONTINUOUS
370
-3
390
F
  0
LAYER
  5
21E
100
AcDbSymbolTableRecord
100
AcDbLayerTableRecord
  2
IMPORT_IGES
 70
0
 62
7
  6
CONTINUOUS
370
-3
390
F
  0
LAYER
  5
21F
100
AcDbSymbolTableRecord
100
AcDbLayerTableRecord
  2
IMPORT_IGES_3
 70
0
 62
7
  6
CONTINUOUS
370
-3
390
F
  0
LAYER
  5
220
100
AcDbSymbolTableRecord
100
AcDbLayerTableRecord
  2
INTFCLR_1
 70
0
 62
7
  6
CONTINUOUS
370
-3
390
F
  0
LAYER
  5
221
100
AcDbSymbolTableRecord
100
AcDbLayerTableRecord
  2
INTF_1
 70
0
 62
7
  6
CONTINUOUS
370
-3
390
F
  0
LAYER
  5
222
100
AcDbSymbolTableRecord
100
AcDbLayerTableRecord
  2
INTF_12
 70
0
 62
7
  6
CONTINUOUS
370
-3
390
F
  0
LAYER
  5
223
100
AcDbSymbolTableRecord
100
AcDbLayerTableRecord
  2
INTF_2
 70
0
 62
7
  6
CONTINUOUS
370
-3
390
F
  0
LAYER
  5
224
100
AcDbSymbolTableRecord
100
AcDbLayerTableRecord
  2
INTF_3
 70
0
 62
7
  6
CONTINUOUS
370
-3
390
F
  0
LAYER
  5
225
100
AcDbSymbolTableRecord
100
AcDbLayerTableRecord
  2
INTF_4
 70
0
 62
7
  6
CONTINUOUS
370
-3
390
F
  0
LAYER
  5
226
100
AcDbSymbolTableRecord
100
AcDbLayerTableRecord
  2
INTF_6
 70
0
 62
7
  6
CONTINUOUS
370
-3
390
F
  0
LAYER
  5
227
100
AcDbSymbolTableRecord
100
AcDbLayerTableRecord
  2
INTF_YELLOW
 70
0
 62
7
  6
CONTINUOUS
370
-3
390
F
  0
LAYER
  5
228
100
AcDbSymbolTableRecord
100
AcDbLayerTableRecord
  2
K_THT_TE_RT424F48_1570000
 70
0
 62
7
  6
CONTINUOUS
370
-3
390
F
  0
LAYER
  5
229
100
AcDbSymbolTableRecord
100
AcDbLayerTableRecord
  2
MINIMELF_R_WAVE_140000
 70
0
 62
7
  6
CONTINUOUS
370
-3
390
F
  0
LAYER
  5
22A
100
AcDbSymbolTableRecord
100
AcDbLayerTableRecord
  2
MINIMELF_R_WAVE_140000_1
 70
0
 62
7
  6
CONTINUOUS
370
-3
390
F
  0
LAYER
  5
22B
100
AcDbSymbolTableRecord
100
AcDbLayerTableRecord
  2
NOTE
 70
0
 62
7
  6
CONTINUOUS
370
-3
390
F
  0
LAYER
  5
22C
100
AcDbSymbolTableRecord
100
AcDbLayerTableRecord
  2
PIANI
 70
0
 62
7
  6
CONTINUOUS
370
-3
390
F
  0
LAYER
  5
22D
100
AcDbSymbolTableRecord
100
AcDbLayerTableRecord
  2
PIANI_RIFERIMENTO
 70
0
 62
7
  6
CONTINUOUS
370
-3
390
F
  0
LAYER
  5
22E
100
AcDbSymbolTableRecord
100
AcDbLayerTableRecord
  2
PUNTI
 70
0
 62
7
  6
CONTINUOUS
370
-3
390
F
  0
LAYER
  5
22F
100
AcDbSymbolTableRecord
100
AcDbLayerTableRecord
  2
RACCORDO
 70
0
 62
7
  6
CONTINUOUS
370
-3
390
F
  0
LAYER
  5
230
100
AcDbSymbolTableRecord
100
AcDbLayerTableRecord
  2
RGB__255__255__255__
 70
0
 62
7
  6
CONTINUOUS
370
-3
390
F
  0
LAYER
  5
231
100
AcDbSymbolTableRecord
100
AcDbLayerTableRecord
  2
RGB____0____0____0__
 70
0
 62
7
  6
CONTINUOUS
370
-3
390
F
  0
LAYER
  5
232
100
AcDbSymbolTableRecord
100
AcDbLayerTableRecord
  2
SIMBOLI
 70
0
 62
7
  6
CONTINUOUS
370
-3
390
F
  0
LAYER
  5
233
100
AcDbSymbolTableRecord
100
AcDbLayerTableRecord
  2
SMUSSO
 70
0
 62
7
  6
CONTINUOUS
370
-3
390
F
  0
LAYER
  5
234
100
AcDbSymbolTableRecord
100
AcDbLayerTableRecord
  2
SUB_SMA_143000
 70
0
 62
7
  6
CONTINUOUS
370
-3
390
F
  0
LAYER
  5
235
100
AcDbSymbolTableRecord
100
AcDbLayerTableRecord
  2
SUB_SMA_143000_1
 70
0
 62
7
  6
CONTINUOUS
370
-3
390
F
  0
LAYER
  5
236
100
AcDbSymbolTableRecord
100
AcDbLayerTableRecord
  2
SUB_SMA_143000_2
 70
0
 62
7
  6
CONTINUOUS
370
-3
390
F
  0
LAYER
  5
237
100
AcDbSymbolTableRecord
100
AcDbLayerTableRecord
  2
SUB_SMA_143000_3
 70
0
 62
7
  6
CONTINUOUS
370
-3
390
F
  0
LAYER
  5
238
100
AcDbSymbolTableRecord
100
AcDbLayerTableRecord
  2
SUB_SMA_143000_4
 70
0
 62
7
  6
CONTINUOUS
370
-3
390
F
  0
LAYER
  5
239
100
AcDbSymbolTableRecord
100
AcDbLayerTableRecord
  2
SUB_SMA_143000_5
 70
0
 62
7
  6
CONTINUOUS
370
-3
390
F
  0
LAYER
  5
23A
100
AcDbSymbolTableRecord
100
AcDbLayerTableRecord
  2
SUB_SMA_143000_6
 70
0
 62
7
  6
CONTINUOUS
370
-3
390
F
  0
LAYER
  5
23B
100
AcDbSymbolTableRecord
100
AcDbLayerTableRecord
  2
SUB_SMA_143000_7
 70
0
 62
7
  6
CONTINUOUS
370
-3
390
F
  0
LAYER
  5
23C
100
AcDbSymbolTableRecord
100
AcDbLayerTableRecord
  2
SUB_SMA_143000_8
 70
0
 62
7
  6
CONTINUOUS
370
-3
390
F
  0
LAYER
  5
23D
100
AcDbSymbolTableRecord
100
AcDbLayerTableRecord
  2
SUB_SMA_143000_9
 70
0
 62
7
  6
CONTINUOUS
370
-3
390
F
  0
LAYER
  5
23E
100
AcDbSymbolTableRecord
100
AcDbLayerTableRecord
  2
SUPERFICI
 70
0
 62
7
  6
CONTINUOUS
370
-3
390
F
  0
LAYER
  5
23F
100
AcDbSymbolTableRecord
100
AcDbLayerTableRecord
  2
SUPERFICI_3
 70
0
 62
7
  6
CONTINUOUS
370
-3
390
F
  0
LAYER
  5
240
100
AcDbSymbolTableRecord
100
AcDbLayerTableRecord
  2
SUPERFICI_6
 70
0
 62
7
  6
CONTINUOUS
370
-3
390
F
  0
LAYER
  5
241
100
AcDbSymbolTableRecord
100
AcDbLayerTableRecord
  2
TRASH
 70
0
 62
7
  6
CONTINUOUS
370
-3
390
F
  0
LAYER
  5
242
100
AcDbSymbolTableRecord
100
AcDbLayerTableRecord
  2
VG_CAP-E-6_3-11-2_5_A90_680000
 70
0
 62
7
  6
CONTINUOUS
370
-3
390
F
  0
LAYER
  5
243
100
AcDbSymbolTableRecord
100
AcDbLayerTableRecord
  2
VG_CAP-E-6_3-11-2_5_A90_68000_1
 70
0
 62
7
  6
CONTINUOUS
370
-3
390
F
  0
LAYER
  5
244
100
AcDbSymbolTableRecord
100
AcDbLayerTableRecord
  2
VG_CN-THT-PHOENIX-MKKDSG3_2-R2-
 70
0
 62
7
  6
CONTINUOUS
370
-3
390
F
  0
LAYER
  5
245
100
AcDbSymbolTableRecord
100
AcDbLayerTableRecord
  2
VG_CN_PAD_REC_P1_4X0_9_1_54X1_0
 70
0
 62
7
  6
CONTINUOUS
370
-3
390
F
  0
LAYER
  5
246
100
AcDbSymbolTableRecord
100
AcDbLayerTableRecord
  2
VG_CN_PAD_REC_P1_4X0_9_1_54X1_1
 70
0
 62
7
  6
CONTINUOUS
370
-3
390
F
  0
LAYER
  5
247
100
AcDbSymbolTableRecord
100
AcDbLayerTableRecord
  2
VG_CN_PAD_REC_P1_4X0_9_1_54X1_2
 70
0
 62
7
  6
CONTINUOUS
370
-3
390
F
  0
LAYER
  5
248
100
AcDbSymbolTableRecord
100
AcDbLayerTableRecord
  2
VG_CN_PAD_REC_P1_4X0_9_1_54X1_3
 70
0
 62
7
  6
CONTINUOUS
370
-3
390
F
  0
LAYER
  5
249
100
AcDbSymbolTableRecord
100
AcDbLayerTableRecord
  2
VG_CN_PAD_REC_P1_4X0_9_1_54X1_4
 70
0
 62
7
  6
CONTINUOUS
370
-3
390
F
  0
LAYER
  5
24A
100
AcDbSymbolTableRecord
100
AcDbLayerTableRecord
  2
VG_CN_PAD_REC_P1_4X0_9_1_54X1_5
 70
0
 62
7
  6
CONTINUOUS
370
-3
390
F
  0
LAYER
  5
24B
100
AcDbSymbolTableRecord
100
AcDbLayerTableRecord
  2
VG_CN_PAD_REC_P1_4X0_9_1_54X1_6
 70
0
 62
7
  6
CONTINUOUS
370
-3
390
F
  0
LAYER
  5
24C
100
AcDbSymbolTableRecord
100
AcDbLayerTableRecord
  2
VG_CN_PAD_REC_P1_4X0_9_1_54X1_7
 70
0
 62
7
  6
CONTINUOUS
370
-3
390
F
  0
LAYER
  5
24D
100
AcDbSymbolTableRecord
100
AcDbLayerTableRecord
  2
VG_CN_PAD_REC_P1_4X0_9_1_54X1_8
 70
0
 62
7
  6
CONTINUOUS
370
-3
390
F
  0
LAYER
  5
24E
100
AcDbSymbolTableRecord
100
AcDbLayerTableRecord
  2
VG_CN_PAD_REC_P1_4X0_9_1_54X1_9
 70
0
 62
7
  6
CONTINUOUS
370
-3
390
F
  0
LAYER
  5
24F
100
AcDbSymbolTableRecord
100
AcDbLayerTableRecord
  2
VG_CN_PAD_REC_P1_4X0_9_1_54X_10
 70
0
 62
7
  6
CONTINUOUS
370
-3
390
F
  0
LAYER
  5
250
100
AcDbSymbolTableRecord
100
AcDbLayerTableRecord
  2
VG_CN_PAD_REC_P1_4X0_9_1_54X_11
 70
0
 62
7
  6
CONTINUOUS
370
-3
390
F
  0
LAYER
  5
251
100
AcDbSymbolTableRecord
100
AcDbLayerTableRecord
  2
VG_CN_PAD_REC_P1_4X0_9_1_54X_12
 70
0
 62
7
  6
CONTINUOUS
370
-3
390
F
  0
LAYER
  5
252
100
AcDbSymbolTableRecord
100
AcDbLayerTableRecord
  2
VG_CN_PAD_REC_P1_4X0_9_1_54X_13
 70
0
 62
7
  6
CONTINUOUS
370
-3
390
F
  0
LAYER
  5
253
100
AcDbSymbolTableRecord
100
AcDbLayerTableRecord
  2
VG_CN_PAD_REC_P1_4X0_9_1_54X_14
 70
0
 62
7
  6
CONTINUOUS
370
-3
390
F
  0
LAYER
  5
254
100
AcDbSymbolTableRecord
100
AcDbLayerTableRecord
  2
VG_CN_PAD_REC_P1_4X0_9_1_54X_15
 70
0
 62
7
  6
CONTINUOUS
370
-3
390
F
  0
LAYER
  5
255
100
AcDbSymbolTableRecord
100
AcDbLayerTableRecord
  2
VG_CN_PAD_REC_P1_4X0_9_1_54X_16
 70
0
 62
7
  6
CONTINUOUS
370
-3
390
F
  0
LAYER
  5
256
100
AcDbSymbolTableRecord
100
AcDbLayerTableRecord
  2
VG_CN_PAD_REC_P1_4X0_9_1_54X_17
 70
0
 62
7
  6
CONTINUOUS
370
-3
390
F
  0
LAYER
  5
257
100
AcDbSymbolTableRecord
100
AcDbLayerTableRecord
  2
VG_CN_PAD_REC_P1_5X1_0_1_64X1_1
 70
0
 62
7
  6
CONTINUOUS
370
-3
390
F
  0
LAYER
  5
258
100
AcDbSymbolTableRecord
100
AcDbLayerTableRecord
  2
VG_CN_PAD_REC_P1_5X1_0_1_64X1_2
 70
0
 62
7
  6
CONTINUOUS
370
-3
390
F
  0
LAYER
  5
259
100
AcDbSymbolTableRecord
100
AcDbLayerTableRecord
  2
VG_CN_PAD_REC_P1_5X1_0_1_64X1_3
 70
0
 62
7
  6
CONTINUOUS
370
-3
390
F
  0
LAYER
  5
25A
100
AcDbSymbolTableRecord
100
AcDbLayerTableRecord
  2
VG_CN_PAD_REC_P1_5X1_0_1_64X1_4
 70
0
 62
7
  6
CONTINUOUS
370
-3
390
F
  0
LAYER
  5
25B
100
AcDbSymbolTableRecord
100
AcDbLayerTableRecord
  2
VG_CN_PAD_REC_P1_5X1_0_1_64X1_5
 70
0
 62
7
  6
CONTINUOUS
370
-3
390
F
  0
LAYER
  5
25C
100
AcDbSymbolTableRecord
100
AcDbLayerTableRecord
  2
VG_CN_PAD_REC_P1_5X1_0_1_64X1_6
 70
0
 62
7
  6
CONTINUOUS
370
-3
390
F
  0
LAYER
  5
25D
100
AcDbSymbolTableRecord
100
AcDbLayerTableRecord
  2
VG_CN_PAD_REC_P1_5X1_0_1_64X1_7
 70
0
 62
7
  6
CONTINUOUS
370
-3
390
F
  0
LAYER
  5
25E
100
AcDbSymbolTableRecord
100
AcDbLayerTableRecord
  2
VG_CN_PAD_REC_P1_5X1_0_1_64X1_8
 70
0
 62
7
  6
CONTINUOUS
370
-3
390
F
  0
LAYER
  5
25F
100
AcDbSymbolTableRecord
100
AcDbLayerTableRecord
  2
VG_CN_PAD_REC_P1_5X1_0_1_64X1_9
 70
0
 62
7
  6
CONTINUOUS
370
-3
390
F
  0
LAYER
  5
260
100
AcDbSymbolTableRecord
100
AcDbLayerTableRecord
  2
VG_CN_PAD_REC_P1_5X1_0_1_64X_10
 70
0
 62
7
  6
CONTINUOUS
370
-3
390
F
  0
LAYER
  5
261
100
AcDbSymbolTableRecord
100
AcDbLayerTableRecord
  2
VG_CN_PAD_REC_P1_5X1_0_1_64X_11
 70
0
 62
7
  6
CONTINUOUS
370
-3
390
F
  0
LAYER
  5
262
100
AcDbSymbolTableRecord
100
AcDbLayerTableRecord
  2
VG_CN_PAD_REC_P1_5X1_0_1_64X_12
 70
0
 62
7
  6
CONTINUOUS
370
-3
390
F
  0
LAYER
  5
263
100
AcDbSymbolTableRecord
100
AcDbLayerTableRecord
  2
VG_CN_PAD_REC_P1_5X1_0_1_64X_13
 70
0
 62
7
  6
CONTINUOUS
370
-3
390
F
  0
LAYER
  5
264
100
AcDbSymbolTableRecord
100
AcDbLayerTableRecord
  2
VG_CN_PAD_REC_P1_5X1_0_1_64X_14
 70
0
 62
7
  6
CONTINUOUS
370
-3
390
F
  0
LAYER
  5
265
100
AcDbSymbolTableRecord
100
AcDbLayerTableRecord
  2
VG_CN_PAD_REC_P1_5X1_0_1_64X_15
 70
0
 62
7
  6
CONTINUOUS
370
-3
390
F
  0
LAYER
  5
266
100
AcDbSymbolTableRecord
100
AcDbLayerTableRecord
  2
VG_CN_PAD_REC_P1_5X1_0_1_64X_16
 70
0
 62
7
  6
CONTINUOUS
370
-3
390
F
  0
LAYER
  5
267
100
AcDbSymbolTableRecord
100
AcDbLayerTableRecord
  2
VG_CN_PAD_REC_P1_5X1_0_1_64X_17
 70
0
 62
7
  6
CONTINUOUS
370
-3
390
F
  0
LAYER
  5
268
100
AcDbSymbolTableRecord
100
AcDbLayerTableRecord
  2
VG_CN_PAD_REC_P1_5X1_0_1_64X_18
 70
0
 62
7
  6
CONTINUOUS
370
-3
390
F
  0
LAYER
  5
269
100
AcDbSymbolTableRecord
100
AcDbLayerTableRecord
  2
VG_PTC-5_0-10_0-5_0-5_0-0_0-0_1
 70
0
 62
7
  6
CONTINUOUS
370
-3
390
F
  0
LAYER
  5
26A
100
AcDbSymbolTableRecord
100
AcDbLayerTableRecord
  2
VG_PTC-5_0-10_0-5_0-5_0-0_0-0_2
 70
0
 62
7
  6
CONTINUOUS
370
-3
390
F
  0
LAYER
  5
26B
100
AcDbSymbolTableRecord
100
AcDbLayerTableRecord
  2
VG_PTC-5_0-10_0-5_0-5_0-0_0-0_6
 70
0
 62
7
  6
CONTINUOUS
370
-3
390
F
  0
LAYER
  5
26C
100
AcDbSymbolTableRecord
100
AcDbLayerTableRecord
  2
VG_PTC-5_0-10_0-5_5-5_0-0_0-0_7
 70
0
 62
7
  6
CONTINUOUS
370
-3
390
F
  0
LAYER
  5
26D
100
AcDbSymbolTableRecord
100
AcDbLayerTableRecord
  2
VG_RES-ASS-3_9-10_0-0_8-15_0_39
 70
0
 62
7
  6
CONTINUOUS
370
-3
390
F
  0
LAYER
  5
26E
100
AcDbSymbolTableRecord
100
AcDbLayerTableRecord
  2
VG_RES-ASS-3_9-10_0-0_8-15_0__1
 70
0
 62
7
  6
CONTINUOUS
370
-3
390
F
  0
LAYER
  5
26F
100
AcDbSymbolTableRecord
100
AcDbLayerTableRecord
  2
VG_RES-ASS-3_9-10_0-0_8-15_0__2
 70
0
 62
7
  6
CONTINUOUS
370
-3
390
F
  0
LAYER
  5
270
100
AcDbSymbolTableRecord
100
AcDbLayerTableRecord
  2
VG_RES-RAD-5_0-15_0-5_0-0_7_200
 70
0
 62
7
  6
CONTINUOUS
370
-3
390
F
  0
LAYER
  5
271
100
AcDbSymbolTableRecord
100
AcDbLayerTableRecord
  2
VG_VAR_S05_D7_S4_3_H8_5_850000
 70
0
 62
7
  6
CONTINUOUS
370
-3
390
F
  0
LAYER
  5
272
100
AcDbSymbolTableRecord
100
AcDbLayerTableRecord
  2
VG_VAR_S05_D7_S4_3_H8_5_85000_1
 70
0
 62
7
  6
CONTINUOUS
370
-3
390
F
  0
LAYER
  5
273
100
AcDbSymbolTableRecord
100
AcDbLayerTableRecord
  2
VG_VAR_S05_D7_S4_3_H8_5_85000_2
 70
0
 62
7
  6
CONTINUOUS
370
-3
390
F
  0
LAYER
  5
274
100
AcDbSymbolTableRecord
100
AcDbLayerTableRecord
  2
___SHELL
 70
0
 62
7
  6
CONTINUOUS
370
-3
390
F
  0
ENDTAB
  0
TABLE
  2
STYLE
  5
3
100
AcDbSymbolTable
 70
1
  0
STYLE
  5
11
100
AcDbSymbolTableRecord
100
AcDbTextStyleTableRecord
  2
STANDARD
 70
0
 40
0.0
 41
0.8
 50
0.0
 71
0
 42
0.2
  3
txt
  4

  0
STYLE
  5
275
100
AcDbSymbolTableRecord
100
AcDbTextStyleTableRecord
  2
TEXTSTYLE_1
 70
0
 40
0.0
 41
0.8
 50
0.0
 71
0
 42
0.2
  3
gdt
  4

  0
ENDTAB
  0
TABLE
  2
VIEW
  5
6
100
AcDbSymbolTable
 70
0
  0
ENDTAB
  0
TABLE
  2
UCS
  5
7
100
AcDbSymbolTable
 70
0
  0
ENDTAB
  0
TABLE
  2
APPID
  5
9
100
AcDbSymbolTable
 70
1
  0
APPID
  5
276
100
AcDbSymbolTableRecord
100
AcDbRegAppTableRecord
  2
ACAD
 70
0
  0
ENDTAB
  0
TABLE
  2
BLOCK_RECORD
  5
1
100
AcDbSymbolTable
 70
0
  0
BLOCK_RECORD
  5
277
100
AcDbSymbolTableRecord
100
AcDbBlockTableRecord
  2
*Model_Space
  0
BLOCK_RECORD
  5
278
100
AcDbSymbolTableRecord
100
AcDbBlockTableRecord
  2
*Paper_Space
  0
BLOCK_RECORD
  5
279
100
AcDbSymbolTableRecord
100
AcDbBlockTableRecord
  2
_FILLED
  0
ENDTAB
  0
TABLE
  2
DIMSTYLE
  5
A
100
AcDbSymbolTable
 70
1
100
AcDbDimStyleTable
 71
0
  0
DIMSTYLE
105
27A
100
AcDbSymbolTableRecord
100
AcDbDimStyleTableRecord
  2
STANDARD
 70
0
  3

  4

 40
1.0
 41
3.0
 42
0.5
 43
0.38
 44
1.5
 45
0.0
 46
0.0
 47
0.01
 48
0.01
140
3.0
141
0.0
142
0.0
143
25.4
144
1.0
145
0.0
146
1.0
147
0.625
 71
1
 72
0
 73
0
 74
0
 75
0
 76
0
 77
1
 78
8
 79
2
170
0
171
1
172
0
173
0
174
0
175
0
176
0
177
0
178
0
270
2
179
2
271
2
272
2
273
2
274
2
275
0
280
0
281
0
282
0
283
1
284
8
285
0
286
0
287
3
288
0
340
11
278
44
341
279
342
279
343
279
344
279
  0
ENDTAB
  0
ENDSEC
  0
SECTION
  2
BLOCKS
  0
BLOCK
  5
20
100
AcDbEntity
  8
0
100
AcDbBlockBegin
  2
*Model_Space
 70
0
 10
0.0
 20
0.0
 30
0.0
  3
*Model_Space
  1

  0
ENDBLK
  5
21
100
AcDbEntity
  8
0
100
AcDbBlockEnd
  0
BLOCK
  5
1C
100
AcDbEntity
  8
0
100
AcDbBlockBegin
  2
*Paper_Space
 70
0
 10
0.0
 20
0.0
 30
0.0
  3
*Paper_Space
  1

  0
ENDBLK
  5
1D
100
AcDbEntity
  8
0
100
AcDbBlockEnd
  0
BLOCK
  5
27B
100
AcDbEntity
  8
0
100
AcDbBlockBegin
  2
_FILLED
 70
64
 10
0.0
 20
0.0
 30
0.0
  3
_FILLED
  1

  0
SOLID
  5
27C
100
AcDbEntity
  8
0
  6
BYBLOCK
 62
0
100
AcDbTrace
 10
0.0
 20
0.0
 30
0.0
 11
-1.0
 21
0.3166666667
 31
0.0
 12
-1.0
 22
-0.3166666667
 32
0.0
 13
-1.0
 23
-0.3166666667
 33
0.0
  0
ENDBLK
  5
27D
100
AcDbEntity
  8
0
  6
BYBLOCK
 62
0
100
AcDbBlockEnd
  0
ENDSEC
  0
SECTION
  2
ENTITIES
  0
LINE
  5
27E
100
AcDbEntity
  8
0
100
AcDbLine
 62
7
  6
CONTINUOUS
 10
2.043300034
 20
-23.7180847761
 30
0.0
 11
2.2282115787
 21
-23.6845164406
 31
0.0
  0
LINE
  5
27F
100
AcDbEntity
  8
0
100
AcDbLine
 62
7
  6
CONTINUOUS
 10
0.2755237543
 20
-22.6973929076
 30
0.0
 11
0.4604634662
 21
-22.6638194587
 31
0.0
  0
LINE
  5
280
100
AcDbEntity
  8
ASSI
100
AcDbLine
 62
7
  6
CONTINUOUS
 10
-13.1172569217
 20
-17.9136222302
 30
0.0
 11
-6.8240065691
 21
-21.5472661108
 31
0.0
  0
LINE
  5
281
100
AcDbEntity
  8
ASSI
100
AcDbLine
 62
250
  6
CONTINUOUS
 10
-13.1453439906
 20
-17.8875721935
 30
0.0
 11
-6.852093638
 21
-21.5212160741
 31
0.0
  0
LINE
  5
282
100
AcDbEntity
  8
ASSI
100
AcDbLine
 62
7
  6
CONTINUOUS
 10
-6.6411164769
 20
-21.50265702
 30
0.0
 11
-3.7261214555
 21
-23.1857386119
 31
0.0
  0
LINE
  5
283
100
AcDbEntity
  8
ASSI
100
AcDbLine
 62
250
  6
CONTINUOUS
 10
-6.6376499725
 20
-21.5007253702
 30
0.0
 11
-3.7373562831
 21
-23.1753185972
 31
0.0
  0
LINE
  5
284
100
AcDbEntity
  8
ASSI
100
AcDbLine
 62
250
  6
CONTINUOUS
 10
-6.5586430753
 20
-21.4567001401
 30
0.0
 11
-3.8434223003
 21
-23.0244345859
 31
0.0
  0
LINE
  5
285
100
AcDbEntity
  8
ASSI
100
AcDbLine
 62
250
  6
CONTINUOUS
 10
-6.5323048972
 20
-21.4420236449
 30
0.0
 11
-3.8528957348
 21
-22.9890809144
 31
0.0
  0
LINE
  5
286
100
AcDbEntity
  8
ASSI
100
AcDbLine
 62
250
  6
CONTINUOUS
 10
-13.5989574815
 20
-17.2422851833
 30
0.0
 11
-7.305707129
 21
-20.8759290639
 31
0.0
  0
LINE
  5
287
100
AcDbEntity
  8
ASSI
100
AcDbLine
 62
250
  6
CONTINUOUS
 10
-13.6463246543
 20
-17.065516826
 30
0.0
 11
-7.3530743017
 21
-20.6991607066
 31
0.0
  0
LINE
  5
288
100
AcDbEntity
  8
0
100
AcDbLine
 62
7
  6
CONTINUOUS
 10
-13.155055697
 20
-17.2974517612
 30
0.0
 11
-7.8443432589
 21
-20.3637905641
 31
0.0
  0
LINE
  5
289
100
AcDbEntity
  8
0
100
AcDbLine
 62
7
  6
CONTINUOUS
 10
-13.0806392293
 20
-17.2544850389
 30
0.0
 11
-7.8443432589
 21
-20.277856706
 31
0.0
  0
LINE
  5
28A
100
AcDbEntity
  8
ASSI
100
AcDbLine
 62
7
  6
CONTINUOUS
 10
-13.5989574815
 20
-17.2422851833
 30
0.0
 11
-13.1453439906
 21
-17.8875721935
 31
0.0
  0
LINE
  5
28B
100
AcDbEntity
  8
ASSI
100
AcDbLine
 62
7
  6
CONTINUOUS
 10
3.4337597323
 20
-24.9242384304
 30
0.0
 11
3.8709834963
 21
-25.176685952
 31
0.0
  0
LINE
  5
28C
100
AcDbEntity
  8
0
100
AcDbLine
 62
250
  6
CONTINUOUS
 10
3.4091495974
 20
-24.9001959319
 30
0.0
 11
3.8428964274
 21
-25.1506359154
 31
0.0
  0
LINE
  5
28D
100
AcDbEntity
  8
0
100
AcDbLine
 62
7
  6
CONTINUOUS
 10
0.1858662071
 20
-22.6456257635
 30
0.0
 11
0.2755237543
 21
-22.6973929076
 31
0.0
  0
LINE
  5
28E
100
AcDbEntity
  8
0
100
AcDbLine
 62
7
  6
CONTINUOUS
 10
1.95363316
 20
-23.6663122468
 30
0.0
 11
2.043300034
 21
-23.7180847761
 31
0.0
  0
LINE
  5
28F
100
AcDbEntity
  8
0
100
AcDbLine
 62
7
  6
CONTINUOUS
 10
2.7775292186
 20
-24.0016855613
 30
0.0
 11
2.2282115787
 21
-23.6845164406
 31
0.0
  0
LINE
  5
290
100
AcDbEntity
  8
0
100
AcDbLine
 62
7
  6
CONTINUOUS
 10
-1.1154486577
 20
-21.7539075492
 30
0.0
 11
0.0197968056
 21
-22.4093840517
 31
0.0
  0
LINE
  5
291
100
AcDbEntity
  8
0
100
AcDbLine
 62
7
  6
CONTINUOUS
 10
0.4604634662
 20
-22.6638194587
 30
0.0
 11
1.7875637585
 21
-23.430070535
 31
0.0
  0
LINE
  5
292
100
AcDbEntity
  8
0
100
AcDbLine
 62
250
  6
CONTINUOUS
 10
1.8099694276
 20
-23.3861607649
 30
0.0
 11
1.7203025536
 21
-23.3343882357
 31
0.0
  0
LINE
  5
293
100
AcDbEntity
  8
0
100
AcDbLine
 62
250
  6
CONTINUOUS
 10
0.0421931479
 20
-22.3654688965
 30
0.0
 11
-0.0474643994
 21
-22.3137017524
 31
0.0
  0
LINE
  5
294
100
AcDbEntity
  8
0
100
AcDbLine
 62
250
  6
CONTINUOUS
 10
2.6903710636
 20
-23.8776988933
 30
0.0
 11
3.1241178935
 21
-24.1281388768
 31
0.0
  0
LINE
  5
295
100
AcDbEntity
  8
0
100
AcDbLine
 62
250
  6
CONTINUOUS
 10
2.6430038908
 20
-23.700930536
 30
0.0
 11
3.0767507208
 21
-23.9513705195
 31
0.0
  0
LINE
  5
296
100
AcDbEntity
  8
0
100
AcDbLine
 62
7
  6
CONTINUOUS
 10
2.6430038908
 20
-23.6550472009
 30
0.0
 11
-0.8784133995
 21
-21.6218237419
 31
0.0
  0
LINE
  5
297
100
AcDbEntity
  8
RACCORDO
100
AcDbLine
 62
7
  6
CONTINUOUS
 10
5.3767001729
 20
24.0055847929
 30
0.0
 11
7.5350483008
 21
25.1662745692
 31
0.0
  0
LINE
  5
298
100
AcDbEntity
  8
RACCORDO
100
AcDbLine
 62
250
  6
CONTINUOUS
 10
5.6222812852
 20
23.9783543951
 30
0.0
 11
7.7806294131
 21
25.1390441714
 31
0.0
  0
LINE
  5
299
100
AcDbEntity
  8
0
100
AcDbLine
 62
7
  6
CONTINUOUS
 10
0.1333023996
 20
-21.0580625715
 30
0.0
 11
1.8325194779
 21
-22.0391692163
 31
0.0
  0
LINE
  5
29A
100
AcDbEntity
  8
IMPORT_IGES
100
AcDbLine
 62
7
  6
CONTINUOUS
 10
1.8025442999
 20
-21.6108319928
 30
0.0
 11
0.4955645272
 21
-20.8561982523
 31
0.0
  0
LINE
  5
29B
100
AcDbEntity
  8
0
100
AcDbLine
 62
7
  6
CONTINUOUS
 10
1.8287414193
 20
-21.5957061044
 30
0.0
 11
1.9032193864
 21
-21.6387087492
 31
0.0
  0
LINE
  5
29C
100
AcDbEntity
  8
ASSI
100
AcDbLine
 62
7
  6
CONTINUOUS
 10
-7.305707129
 20
-20.8759290639
 30
0.0
 11
-6.852093638
 21
-21.5212160741
 31
0.0
  0
LINE
  5
29D
100
AcDbEntity
  8
ASSI
100
AcDbLine
 62
7
  6
CONTINUOUS
 10
5.2687817425
 20
20.8553442228
 30
0.0
 11
-2.300345995
 21
16.3324710536
 31
0.0
  0
LINE
  5
29E
100
AcDbEntity
  8
0
100
AcDbLine
 62
7
  6
CONTINUOUS
 10
6.7050575929
 20
22.8020554879
 30
0.0
 11
6.6343469148
 21
22.7612280286
 31
0.0
  0
LINE
  5
29F
100
AcDbEntity
  8
0
100
AcDbLine
 62
7
  6
CONTINUOUS
 10
6.3244360419
 20
22.2174780906
 30
0.0
 11
6.2537253638
 21
22.1766506312
 31
0.0
  0
LINE
  5
2A0
100
AcDbEntity
  8
0
100
AcDbLine
 62
7
  6
CONTINUOUS
 10
6.7050575929
 20
22.3870167286
 30
0.0
 11
6.6343469148
 21
22.3461892692
 31
0.0
  0
LINE
  5
2A1
100
AcDbEntity
  8
0
100
AcDbLine
 62
250
  6
CONTINUOUS
 10
6.7050575929
 20
22.179496902
 30
0.0
 11
6.6343469148
 21
22.1386694427
 31
0.0
  0
LINE
  5
2A2
100
AcDbEntity
  8
0
100
AcDbLine
 62
7
  6
CONTINUOUS
 10
6.2412420661
 20
21.1905118595
 30
0.0
 11
6.170531388
 21
21.1496844002
 31
0.0
  0
LINE
  5
2A3
100
AcDbEntity
  8
RACCORDO
100
AcDbLine
 62
7
  6
CONTINUOUS
 10
12.6615798049
 20
-14.4669782998
 30
0.0
 11
11.8095194685
 21
-14.5899705396
 31
0.0
  0
LINE
  5
2A4
100
AcDbEntity
  8
0
100
AcDbLine
 62
7
  6
CONTINUOUS
 10
2.535941846
 20
-19.7192332011
 30
0.0
 11
2.6430038908
 21
-19.7797895122
 31
0.0
  0
LINE
  5
2A5
100
AcDbEntity
  8
RACCORDO
100
AcDbLine
 62
7
  6
CONTINUOUS
 10
8.6296708107
 20
-22.5822928214
 30
0.0
 11
11.2085325523
 21
-24.0712952703
 31
0.0
  0
LINE
  5
2A6
100
AcDbEntity
  8
ASSI
100
AcDbLine
 62
7
  6
CONTINUOUS
 10
-3.8434223003
 20
-23.0244345859
 30
0.0
 11
-3.7373562831
 21
-23.1753185972
 31
0.0
  0
LINE
  5
2A7
100
AcDbEntity
  8
ASSI
100
AcDbLine
 62
7
  6
CONTINUOUS
 10
-13.6463246543
 20
-1.2364709116
 30
0.0
 11
-13.6463246543
 21
-17.065516826
 31
0.0
  0
LINE
  5
2A8
100
AcDbEntity
  8
0
100
AcDbLine
 62
7
  6
CONTINUOUS
 10
-13.155055697
 20
-1.5718410541
 30
0.0
 11
-13.155055697
 21
-17.2974517612
 31
0.0
  0
LINE
  5
2A9
100
AcDbEntity
  8
0
100
AcDbLine
 62
7
  6
CONTINUOUS
 10
1.8741146936
 20
17.9966469343
 30
0.0
 11
0.4882243537
 21
16.9305729923
 31
0.0
  0
LINE
  5
2AA
100
AcDbEntity
  8
0
100
AcDbLine
 62
7
  6
CONTINUOUS
 10
3.7743747407
 20
18.3949931829
 30
0.0
 11
3.0456288281
 21
17.9090233605
 31
0.0
  0
LINE
  5
2AB
100
AcDbEntity
  8
0
100
AcDbLine
 62
7
  6
CONTINUOUS
 10
5.2782645038
 20
20.3513885582
 30
0.0
 11
-1.866599165
 21
16.0820310701
 31
0.0
  0
LINE
  5
2AC
100
AcDbEntity
  8
0
100
AcDbLine
 62
7
  6
CONTINUOUS
 10
5.2776411864
 20
20.1566257158
 30
0.0
 11
2.2678113688
 21
18.3581254132
 31
0.0
  0
LINE
  5
2AD
100
AcDbEntity
  8
0
100
AcDbLine
 62
7
  6
CONTINUOUS
 10
6.1785377967
 20
19.8315820419
 30
0.0
 11
3.7743747407
 21
18.3949931829
 31
0.0
  0
LINE
  5
2AE
100
AcDbEntity
  8
0
100
AcDbLine
 62
7
  6
CONTINUOUS
 10
6.2682046707
 20
19.7798095127
 30
0.0
 11
3.8640416147
 21
18.3432206536
 31
0.0
  0
LINE
  5
2AF
100
AcDbEntity
  8
0
100
AcDbLine
 62
7
  6
CONTINUOUS
 10
6.2675812584
 20
19.5850170024
 30
0.0
 11
3.9252788582
 21
18.1853924952
 31
0.0
  0
LINE
  5
2B0
100
AcDbEntity
  8
0
100
AcDbLine
 62
7
  6
CONTINUOUS
 10
-2.285889724
 20
14.7343773432
 30
0.0
 11
-0.0156850124
 21
16.0678443778
 31
0.0
  0
LINE
  5
2B1
100
AcDbEntity
  8
0
100
AcDbLine
 62
7
  6
CONTINUOUS
 10
5.9861654409
 20
20.7269004631
 30
0.0
 11
5.9154547628
 21
20.6860730037
 31
0.0
  0
LINE
  5
2B2
100
AcDbEntity
  8
0
100
AcDbLine
 62
7
  6
CONTINUOUS
 10
6.7050575929
 20
20.7268603506
 30
0.0
 11
6.6343469148
 21
20.6860328912
 31
0.0
  0
LINE
  5
2B3
100
AcDbEntity
  8
0
100
AcDbLine
 62
7
  6
CONTINUOUS
 10
7.015598043
 20
20.855767158
 30
0.0
 11
7.0863087211
 21
20.8965946174
 31
0.0
  0
LINE
  5
2B4
100
AcDbEntity
  8
0
100
AcDbLine
 62
7
  6
CONTINUOUS
 10
6.7050575929
 20
20.3118211443
 30
0.0
 11
6.6343469148
 21
20.270993685
 31
0.0
  0
LINE
  5
2B5
100
AcDbEntity
  8
ASSI
100
AcDbLine
 62
7
  6
CONTINUOUS
 10
8.991429401
 20
20.9728777763
 30
0.0
 11
8.9207187228
 21
20.9320503169
 31
0.0
  0
LINE
  5
2B6
100
AcDbEntity
  8
ASSI
100
AcDbLine
 62
7
  6
CONTINUOUS
 10
9.6643151791
 20
20.8884983117
 30
0.0
 11
9.593604501
 21
20.8476720771
 31
0.0
  0
LINE
  5
2B7
100
AcDbEntity
  8
IMPORT_IGES
100
AcDbLine
 62
7
  6
CONTINUOUS
 10
3.9344712452
 20
17.5742089984
 30
0.0
 11
3.9641229265
 21
17.5913295076
 31
0.0
  0
LINE
  5
2B8
100
AcDbEntity
  8
0
100
AcDbLine
 62
7
  6
CONTINUOUS
 10
1.8741146936
 20
17.9966469343
 30
0.0
 11
-1.8280023616
 21
15.8861615849
 31
0.0
  0
LINE
  5
2B9
100
AcDbEntity
  8
0
100
AcDbLine
 62
7
  6
CONTINUOUS
 10
3.9252788582
 20
18.1853924952
 30
0.0
 11
3.310339464
 21
17.834830759
 31
0.0
  0
LINE
  5
2BA
100
AcDbEntity
  8
RACCORDO
100
AcDbLine
 62
7
  6
CONTINUOUS
 10
12.6615798049
 20
-12.4258026078
 30
0.0
 11
12.5873505945
 21
-12.4365173617
 31
0.0
  0
LINE
  5
2BB
100
AcDbEntity
  8
0
100
AcDbLine
 62
7
  6
CONTINUOUS
 10
8.9534898482
 20
-22.4018502507
 30
0.0
 11
10.0063971764
 21
-23.009785746
 31
0.0
  0
LINE
  5
2BC
100
AcDbEntity
  8
0
100
AcDbLine
 62
7
  6
CONTINUOUS
 10
-13.0806392293
 20
-1.6148081899
 30
0.0
 11
-13.0806392293
 21
-17.2544850389
 31
0.0
  0
LINE
  5
2BD
100
AcDbEntity
  8
ASSI
100
AcDbLine
 62
7
  6
CONTINUOUS
 10
-13.1453439906
 20
0.1641043688
 30
0.0
 11
-13.5989574815
 21
-1.0050041305
 31
0.0
  0
LINE
  5
2BE
100
AcDbEntity
  8
ASSI
100
AcDbLine
 62
7
  6
CONTINUOUS
 10
-10.0306066357
 20
5.4150275157
 30
0.0
 11
-10.1366726528
 21
5.1416611264
 31
0.0
  0
LINE
  5
2BF
100
AcDbEntity
  8
0
100
AcDbLine
 62
7
  6
CONTINUOUS
 10
2.2678113688
 20
18.3581254132
 30
0.0
 11
1.8741146936
 21
17.9966469343
 31
0.0
  0
LINE
  5
2C0
100
AcDbEntity
  8
0
100
AcDbLine
 62
7
  6
CONTINUOUS
 10
3.310339464
 20
17.834830759
 30
0.0
 11
1.4288072282
 21
16.3874922288
 31
0.0
  0
LINE
  5
2C1
100
AcDbEntity
  8
0
100
AcDbLine
 62
7
  6
CONTINUOUS
 10
1.4288072282
 20
15.8207486084
 30
0.0
 11
3.9252788582
 21
17.6137575858
 31
0.0
  0
LINE
  5
2C2
100
AcDbEntity
  8
0
100
AcDbLine
 62
250
  6
CONTINUOUS
 10
-1.8308847237
 20
12.2292791474
 30
0.0
 11
-1.7614700534
 21
12.2722062207
 31
0.0
  0
LINE
  5
2C3
100
AcDbEntity
  8
0
100
AcDbLine
 62
7
  6
CONTINUOUS
 10
7.9463140764
 20
18.8108901735
 30
0.0
 11
5.5421510204
 21
17.3743013144
 31
0.0
  0
LINE
  5
2C4
100
AcDbEntity
  8
0
100
AcDbLine
 62
7
  6
CONTINUOUS
 10
8.0359716237
 20
18.7591230294
 30
0.0
 11
5.6318085676
 21
17.3225341703
 31
0.0
  0
LINE
  5
2C5
100
AcDbEntity
  8
0
100
AcDbLine
 62
7
  6
CONTINUOUS
 10
8.0353482114
 20
18.5643305191
 30
0.0
 11
5.6930458112
 21
17.1647060118
 31
0.0
  0
LINE
  5
2C6
100
AcDbEntity
  8
0
100
AcDbLine
 62
7
  6
CONTINUOUS
 10
1.4288072282
 20
15.8207486084
 30
0.0
 11
0.9248978621
 21
15.5247636143
 31
0.0
  0
LINE
  5
2C7
100
AcDbEntity
  8
ASSI
100
AcDbLine
 62
7
  6
CONTINUOUS
 10
9.6643151791
 20
20.5819884298
 30
0.0
 11
9.593604501
 21
20.5411609705
 31
0.0
  0
LINE
  5
2C8
100
AcDbEntity
  8
RACCORDO
100
AcDbLine
 62
250
  6
CONTINUOUS
 10
13.2928251116
 20
21.9563714591
 30
0.0
 11
11.2085325523
 21
20.7529229256
 31
0.0
  0
LINE
  5
2C9
100
AcDbEntity
  8
IMPORT_IGES
100
AcDbLine
 62
7
  6
CONTINUOUS
 10
4.6415780264
 20
16.7576992666
 30
0.0
 11
2.2238218306
 21
15.3617171408
 31
0.0
  0
LINE
  5
2CA
100
AcDbEntity
  8
ASSI
100
AcDbLine
 62
7
  6
CONTINUOUS
 10
10.5417998802
 20
20.0777133262
 30
0.0
 11
10.471089202
 21
20.0368858669
 31
0.0
  0
LINE
  5
2CB
100
AcDbEntity
  8
IMPORT_IGES
100
AcDbLine
 62
7
  6
CONTINUOUS
 10
2.4718982416
 20
15.2184809302
 30
0.0
 11
4.5663795875
 21
16.4278082094
 31
0.0
  0
LINE
  5
2CC
100
AcDbEntity
  8
ASSI
100
AcDbLine
 62
7
  6
CONTINUOUS
 10
9.6643151791
 20
19.114611719
 30
0.0
 11
9.593604501
 21
19.0737842596
 31
0.0
  0
LINE
  5
2CD
100
AcDbEntity
  8
ASSI
100
AcDbLine
 62
7
  6
CONTINUOUS
 10
11.2146856878
 20
19.9933338588
 30
0.0
 11
11.1439750096
 21
19.9525075761
 31
0.0
  0
LINE
  5
2CE
100
AcDbEntity
  8
RACCORDO
100
AcDbLine
 62
250
  6
CONTINUOUS
 10
13.6463246543
 20
21.3440922914
 30
0.0
 11
11.562032095
 21
20.1406437579
 31
0.0
  0
LINE
  5
2CF
100
AcDbEntity
  8
ASSI
100
AcDbLine
 62
7
  6
CONTINUOUS
 10
10.556899251
 20
19.4860213949
 30
0.0
 11
10.4861889265
 21
19.4451937314
 31
0.0
  0
LINE
  5
2D0
100
AcDbEntity
  8
ASSI
100
AcDbLine
 62
7
  6
CONTINUOUS
 10
9.6643151791
 20
18.808101837
 30
0.0
 11
9.593604501
 21
18.767273153
 31
0.0
  0
LINE
  5
2D1
100
AcDbEntity
  8
ASSI
100
AcDbLine
 62
7
  6
CONTINUOUS
 10
11.2146856878
 20
19.6868226844
 30
0.0
 11
11.1439750096
 21
19.6459964695
 31
0.0
  0
LINE
  5
2D2
100
AcDbEntity
  8
IMPORT_IGES
100
AcDbLine
 62
7
  6
CONTINUOUS
 10
3.0546278817
 20
14.8820201394
 30
0.0
 11
4.203171822
 21
15.5451750159
 31
0.0
  0
LINE
  5
2D3
100
AcDbEntity
  8
0
100
AcDbLine
 62
7
  6
CONTINUOUS
 10
-0.0474643994
 20
-22.3137017524
 30
0.0
 11
0.1858662071
 21
-22.6456257635
 31
0.0
  0
LINE
  5
2D4
100
AcDbEntity
  8
0
100
AcDbLine
 62
7
  6
CONTINUOUS
 10
0.0421931479
 20
-22.3654688965
 30
0.0
 11
0.2755237543
 21
-22.6973929076
 31
0.0
  0
LINE
  5
2D5
100
AcDbEntity
  8
0
100
AcDbLine
 62
7
  6
CONTINUOUS
 10
0.4604634662
 20
-22.6638194587
 30
0.0
 11
0.1422414245
 21
-22.2111332975
 31
0.0
  0
LINE
  5
2D6
100
AcDbEntity
  8
0
100
AcDbLine
 62
7
  6
CONTINUOUS
 10
1.7203025536
 20
-23.3343882357
 30
0.0
 11
1.95363316
 21
-23.6663122468
 31
0.0
  0
LINE
  5
2D7
100
AcDbEntity
  8
0
100
AcDbLine
 62
7
  6
CONTINUOUS
 10
1.8099694276
 20
-23.3861607649
 30
0.0
 11
2.043300034
 21
-23.7180847761
 31
0.0
  0
LINE
  5
2D8
100
AcDbEntity
  8
0
100
AcDbLine
 62
7
  6
CONTINUOUS
 10
2.2282115787
 20
-23.6845164406
 30
0.0
 11
1.9099922256
 21
-23.231834104
 31
0.0
  0
LINE
  5
2D9
100
AcDbEntity
  8
0
100
AcDbLine
 62
7
  6
CONTINUOUS
 10
2.6903710636
 20
-23.8776988933
 30
0.0
 11
3.4091495974
 21
-24.9001959319
 31
0.0
  0
LINE
  5
2DA
100
AcDbEntity
  8
ASSI
100
AcDbLine
 62
7
  6
CONTINUOUS
 10
3.1241178935
 20
-24.1281388768
 30
0.0
 11
3.8428964274
 21
-25.1506359154
 31
0.0
  0
LINE
  5
2DB
100
AcDbEntity
  8
ASSI
100
AcDbLine
 62
7
  6
CONTINUOUS
 10
-10.1461460874
 20
5.0953677701
 30
0.0
 11
-10.1461460874
 21
2.0552559821
 31
0.0
  0
LINE
  5
2DC
100
AcDbEntity
  8
0
100
AcDbLine
 62
7
  6
CONTINUOUS
 10
3.8640416147
 20
18.3432206536
 30
0.0
 11
3.310339464
 21
17.834830759
 31
0.0
  0
LINE
  5
2DD
100
AcDbEntity
  8
0
100
AcDbLine
 62
7
  6
CONTINUOUS
 10
7.3099179734
 20
16.3536148311
 30
0.0
 11
6.6443814701
 21
15.9097966901
 31
0.0
  0
LINE
  5
2DE
100
AcDbEntity
  8
0
100
AcDbLine
 62
7
  6
CONTINUOUS
 10
9.7140810294
 20
17.7902036902
 30
0.0
 11
7.3099179734
 21
16.3536148311
 31
0.0
  0
LINE
  5
2DF
100
AcDbEntity
  8
0
100
AcDbLine
 62
7
  6
CONTINUOUS
 10
9.8037479033
 20
17.7384311609
 30
0.0
 11
7.3995848473
 21
16.3018423019
 31
0.0
  0
LINE
  5
2E0
100
AcDbEntity
  8
0
100
AcDbLine
 62
7
  6
CONTINUOUS
 10
9.803124586
 20
17.5436683185
 30
0.0
 11
6.7932947684
 21
15.7451680159
 31
0.0
  0
LINE
  5
2E1
100
AcDbEntity
  8
ASSI
100
AcDbLine
 62
7
  6
CONTINUOUS
 10
-3.2164996318
 20
9.5263456731
 30
0.0
 11
-9.9706034636
 21
5.4904836738
 31
0.0
  0
LINE
  5
2E2
100
AcDbEntity
  8
ASSI
100
AcDbLine
 62
7
  6
CONTINUOUS
 10
11.0732643315
 20
19.187878669
 30
0.0
 11
11.0025536534
 21
19.1470512096
 31
0.0
  0
LINE
  5
2E3
100
AcDbEntity
  8
ASSI
100
AcDbLine
 62
7
  6
CONTINUOUS
 10
11.0732643315
 20
18.8817023152
 30
0.0
 11
11.0025536534
 21
18.8408748558
 31
0.0
  0
LINE
  5
2E4
100
AcDbEntity
  8
IMPORT_IGES
100
AcDbLine
 62
7
  6
CONTINUOUS
 10
4.203171822
 20
14.9124105514
 30
0.0
 11
3.6025826786
 21
14.5656379071
 31
0.0
  0
LINE
  5
2E5
100
AcDbEntity
  8
IMPORT_IGES
100
AcDbLine
 62
7
  6
CONTINUOUS
 10
3.6556156872
 20
14.5350173126
 30
0.0
 11
4.2526692967
 21
14.8797485839
 31
0.0
  0
LINE
  5
2E6
100
AcDbEntity
  8
IMPORT_IGES
100
AcDbLine
 62
7
  6
CONTINUOUS
 10
5.8379937185
 20
15.6935941472
 30
0.0
 11
3.7435123726
 21
14.4842668681
 31
0.0
  0
LINE
  5
2E7
100
AcDbEntity
  8
IMPORT_IGES
100
AcDbLine
 62
7
  6
CONTINUOUS
 10
4.2396651945
 20
14.1977944469
 30
0.0
 11
5.1433901086
 21
14.719593886
 31
0.0
  0
LINE
  5
2E8
100
AcDbEntity
  8
ASSI
100
AcDbLine
 62
7
  6
CONTINUOUS
 10
11.2146856878
 20
18.219447218
 30
0.0
 11
11.1439750096
 21
18.1786197586
 31
0.0
  0
LINE
  5
2E9
100
AcDbEntity
  8
IMPORT_IGES
100
AcDbLine
 62
7
  6
CONTINUOUS
 10
-0.930278482
 20
10.9725914658
 30
0.0
 11
-0.6827911086
 21
11.1154875735
 31
0.0
  0
LINE
  5
2EA
100
AcDbEntity
  8
ASSI
100
AcDbLine
 62
7
  6
CONTINUOUS
 10
11.2146856878
 20
17.912937288
 30
0.0
 11
11.1439750096
 21
17.872108652
 31
0.0
  0
LINE
  5
2EB
100
AcDbEntity
  8
0
100
AcDbLine
 62
7
  6
CONTINUOUS
 10
-2.7827528018
 20
9.8882583972
 30
0.0
 11
-2.615491174
 21
9.9848155644
 31
0.0
  0
LINE
  5
2EC
100
AcDbEntity
  8
0
100
AcDbLine
 62
7
  6
CONTINUOUS
 10
-7.8443432589
 20
-20.3637905641
 30
0.0
 11
-7.8443432589
 21
-4.638179857
 31
0.0
  0
LINE
  5
2ED
100
AcDbEntity
  8
ASSI
100
AcDbLine
 62
7
  6
CONTINUOUS
 10
-2.4503539251
 20
16.1438306582
 30
0.0
 11
-3.169132459
 21
14.2913061855
 31
0.0
  0
LINE
  5
2EE
100
AcDbEntity
  8
0
100
AcDbLine
 62
7
  6
CONTINUOUS
 10
-2.0166070952
 20
15.8933906747
 30
0.0
 11
-2.735385629
 21
14.040866202
 31
0.0
  0
LINE
  5
2EF
100
AcDbEntity
  8
0
100
AcDbLine
 62
7
  6
CONTINUOUS
 10
-2.2972718209
 20
14.7320041823
 30
0.0
 11
-2.615491174
 21
13.9118501131
 31
0.0
  0
LINE
  5
2F0
100
AcDbEntity
  8
0
100
AcDbLine
 62
7
  6
CONTINUOUS
 10
-2.285889724
 20
14.7343773432
 30
0.0
 11
-1.8280023616
 21
15.8861615849
 31
0.0
  0
LINE
  5
2F1
100
AcDbEntity
  8
0
100
AcDbLine
 62
7
  6
CONTINUOUS
 10
-1.5819100726
 20
14.1736437119
 30
0.0
 11
-1.5194543616
 21
14.2829021296
 31
0.0
  0
LINE
  5
2F2
100
AcDbEntity
  8
0
100
AcDbLine
 62
7
  6
CONTINUOUS
 10
0.4882243537
 20
16.9305729923
 30
0.0
 11
-0.0156850124
 21
16.0678443778
 31
0.0
  0
LINE
  5
2F3
100
AcDbEntity
  8
0
100
AcDbLine
 62
7
  6
CONTINUOUS
 10
6.6443814701
 20
15.9097966901
 30
0.0
 11
4.7954048915
 21
14.4436609314
 31
0.0
  0
LINE
  5
2F4
100
AcDbEntity
  8
0
100
AcDbLine
 62
7
  6
CONTINUOUS
 10
10.7040211963
 20
17.2186246446
 30
0.0
 11
3.5591575276
 21
12.9492671565
 31
0.0
  0
LINE
  5
2F5
100
AcDbEntity
  8
ASSI
100
AcDbLine
 62
7
  6
CONTINUOUS
 10
11.562032095
 20
17.2217003421
 30
0.0
 11
3.9929043576
 21
12.698827173
 31
0.0
  0
LINE
  5
2F6
100
AcDbEntity
  8
0
100
AcDbLine
 62
250
  6
CONTINUOUS
 10
-1.8308847237
 20
9.5505803616
 30
0.0
 11
-1.545606309
 21
9.7152971084
 31
0.0
  0
LINE
  5
2F7
100
AcDbEntity
  8
0
100
AcDbLine
 62
250
  6
CONTINUOUS
 10
-1.8500957914
 20
9.3762108789
 30
0.0
 11
-1.5102683464
 21
9.5724236604
 31
0.0
  0
LINE
  5
2F8
100
AcDbEntity
  8
IMPORT_IGES
100
AcDbLine
 62
7
  6
CONTINUOUS
 10
1.0849758444
 20
10.0948010902
 30
0.0
 11
0.8374884709
 21
9.9519049825
 31
0.0
  0
LINE
  5
2F9
100
AcDbEntity
  8
0
100
AcDbLine
 62
7
  6
CONTINUOUS
 10
-7.8443432589
 20
-4.638179857
 30
0.0
 11
-13.155055697
 21
-1.5718410541
 31
0.0
  0
LINE
  5
2FA
100
AcDbEntity
  8
ASSI
100
AcDbLine
 62
250
  6
CONTINUOUS
 10
-13.6463246543
 20
-1.2364709116
 30
0.0
 11
-7.3530743017
 21
-4.8701147922
 31
0.0
  0
LINE
  5
2FB
100
AcDbEntity
  8
ASSI
100
AcDbLine
 62
250
  6
CONTINUOUS
 10
-13.5989574815
 20
-1.0050041305
 30
0.0
 11
-7.305707129
 21
-4.6386480111
 31
0.0
  0
LINE
  5
2FC
100
AcDbEntity
  8
ASSI
100
AcDbLine
 62
7
  6
CONTINUOUS
 10
-7.3530743017
 20
-4.8701147922
 30
0.0
 11
-7.3530743017
 21
-20.6991607066
 31
0.0
  0
LINE
  5
2FD
100
AcDbEntity
  8
0
100
AcDbLine
 62
7
  6
CONTINUOUS
 10
-1.5819100726
 20
14.1736437119
 30
0.0
 11
-1.8152406791
 21
13.572275365
 31
0.0
  0
LINE
  5
2FE
100
AcDbEntity
  8
0
100
AcDbLine
 62
7
  6
CONTINUOUS
 10
-1.4922431987
 20
14.1218711826
 30
0.0
 11
-1.7255738051
 21
13.5205028358
 31
0.0
  0
LINE
  5
2FF
100
AcDbEntity
  8
0
100
AcDbLine
 62
7
  6
CONTINUOUS
 10
-1.3073034867
 20
14.1604310096
 30
0.0
 11
-1.6255255285
 21
13.3402700111
 31
0.0
  0
LINE
  5
300
100
AcDbEntity
  8
0
100
AcDbLine
 62
7
  6
CONTINUOUS
 10
0.1858662071
 20
13.1529518434
 30
0.0
 11
0.2483314319
 21
13.2622269043
 31
0.0
  0
LINE
  5
301
100
AcDbEntity
  8
0
100
AcDbLine
 62
7
  6
CONTINUOUS
 10
1.4288072282
 20
16.3874922288
 30
0.0
 11
0.9248978621
 21
15.5247636143
 31
0.0
  0
LINE
  5
302
100
AcDbEntity
  8
0
100
AcDbLine
 62
7
  6
CONTINUOUS
 10
7.3995848473
 20
16.3018423019
 30
0.0
 11
6.7932947684
 21
15.7451680159
 31
0.0
  0
LINE
  5
303
100
AcDbEntity
  8
ASSI
100
AcDbLine
 62
7
  6
CONTINUOUS
 10
-10.1461460874
 20
2.0552559821
 30
0.0
 11
-12.9953360604
 21
0.3527447642
 31
0.0
  0
LINE
  5
304
100
AcDbEntity
  8
0
100
AcDbLine
 62
7
  6
CONTINUOUS
 10
13.4389502439
 20
13.83822934
 30
0.0
 11
11.562032095
 21
12.7923490905
 31
0.0
  0
LINE
  5
305
100
AcDbEntity
  8
0
100
AcDbLine
 62
250
  6
CONTINUOUS
 10
1.7393977845
 20
7.3036822751
 30
0.0
 11
1.904384806
 21
7.3924069561
 31
0.0
  0
LINE
  5
306
100
AcDbEntity
  8
0
100
AcDbLine
 62
250
  6
CONTINUOUS
 10
12.9342755861
 20
-12.2362072195
 30
0.0
 11
12.9762456574
 21
-12.2526423944
 31
0.0
  0
LINE
  5
307
100
AcDbEntity
  8
DRAFT
100
AcDbLine
 62
7
  6
CONTINUOUS
 10
13.6463246543
 20
-15.3563088267
 30
0.0
 11
13.5423697396
 21
-15.2962865618
 31
0.0
  0
LINE
  5
308
100
AcDbEntity
  8
ASSI
100
AcDbLine
 62
250
  6
CONTINUOUS
 10
-13.1453439906
 20
0.1641043688
 30
0.0
 11
-6.852093638
 21
-3.4695395118
 31
0.0
  0
LINE
  5
309
100
AcDbEntity
  8
ASSI
100
AcDbLine
 62
250
  6
CONTINUOUS
 10
-12.9953360604
 20
0.3527447642
 30
0.0
 11
-6.7020857078
 21
-3.2808991164
 31
0.0
  0
LINE
  5
30A
100
AcDbEntity
  8
0
100
AcDbLine
 62
250
  6
CONTINUOUS
 10
12.8879965602
 20
-14.3653391118
 30
0.0
 11
12.9410248561
 21
-14.3959565091
 31
0.0
  0
LINE
  5
30B
100
AcDbEntity
  8
0
100
AcDbLine
 62
250
  6
CONTINUOUS
 10
12.9055349793
 20
-14.2941254673
 30
0.0
 11
12.9762456574
 21
-14.3349522918
 31
0.0
  0
LINE
  5
30C
100
AcDbEntity
  8
ASSI
100
AcDbLine
 62
7
  6
CONTINUOUS
 10
-3.8528957348
 20
1.4617238895
 30
0.0
 11
-3.8528957348
 21
-1.5783878985
 31
0.0
  0
LINE
  5
30D
100
AcDbEntity
  8
ASSI
100
AcDbLine
 62
7
  6
CONTINUOUS
 10
-3.8528957348
 20
-19.9489691264
 30
0.0
 11
-3.8528957348
 21
-22.9890809144
 31
0.0
  0
LINE
  5
30E
100
AcDbEntity
  8
ASSI
100
AcDbLine
 62
7
  6
CONTINUOUS
 10
-6.852093638
 20
-3.4695395118
 30
0.0
 11
-7.305707129
 21
-4.6386480111
 31
0.0
  0
LINE
  5
30F
100
AcDbEntity
  8
0
100
AcDbLine
 62
7
  6
CONTINUOUS
 10
0.1858662071
 20
13.1529518434
 30
0.0
 11
-0.0474643994
 21
12.5515834966
 31
0.0
  0
LINE
  5
310
100
AcDbEntity
  8
0
100
AcDbLine
 62
7
  6
CONTINUOUS
 10
0.2755237543
 20
13.1011846993
 30
0.0
 11
0.0421931479
 21
12.4998163525
 31
0.0
  0
LINE
  5
311
100
AcDbEntity
  8
0
100
AcDbLine
 62
7
  6
CONTINUOUS
 10
0.4604634662
 20
13.1397445263
 30
0.0
 11
0.1422414245
 21
12.3195835278
 31
0.0
  0
LINE
  5
312
100
AcDbEntity
  8
ASSI
100
AcDbLine
 62
7
  6
CONTINUOUS
 10
-3.7373562831
 20
1.7813836351
 30
0.0
 11
-3.8434223003
 21
1.5080172457
 31
0.0
  0
LINE
  5
313
100
AcDbEntity
  8
0
100
AcDbLine
 62
7
  6
CONTINUOUS
 10
6.1426535801
 20
22.0558237794
 30
0.0
 11
5.9471535774
 21
21.6685157211
 31
0.0
  0
LINE
  5
314
100
AcDbEntity
  8
0
100
AcDbLine
 62
7
  6
CONTINUOUS
 10
5.7586301074
 20
21.2950286223
 30
0.0
 11
5.5560090738
 21
20.8936124397
 31
0.0
  0
LINE
  5
315
100
AcDbEntity
  8
0
100
AcDbLine
 62
7
  6
CONTINUOUS
 10
6.170531388
 20
21.1496844002
 30
0.0
 11
6.2520297381
 21
21.2978100752
 31
0.0
  0
LINE
  5
316
100
AcDbEntity
  8
0
100
AcDbLine
 62
7
  6
CONTINUOUS
 10
5.9154547628
 20
20.6860730037
 30
0.0
 11
6.0110511807
 21
20.8598229473
 31
0.0
  0
LINE
  5
317
100
AcDbEntity
  8
0
100
AcDbLine
 62
7
  6
CONTINUOUS
 10
6.2412420661
 20
21.1905118595
 30
0.0
 11
6.2772921019
 21
21.2560338717
 31
0.0
  0
LINE
  5
318
100
AcDbEntity
  8
0
100
AcDbLine
 62
7
  6
CONTINUOUS
 10
5.9861654409
 20
20.7269004631
 30
0.0
 11
6.0385757657
 21
20.822158122
 31
0.0
  0
LINE
  5
319
100
AcDbEntity
  8
0
100
AcDbLine
 62
7
  6
CONTINUOUS
 10
1.95363316
 20
12.1322653601
 30
0.0
 11
2.0160983848
 21
12.241540421
 31
0.0
  0
LINE
  5
31A
100
AcDbEntity
  8
IMPORT_IGES
100
AcDbLine
 62
7
  6
CONTINUOUS
 10
4.5663795875
 20
16.4278082094
 30
0.0
 11
4.1552577003
 21
15.7793145451
 31
0.0
  0
LINE
  5
31B
100
AcDbEntity
  8
0
100
AcDbLine
 62
7
  6
CONTINUOUS
 10
5.5421510204
 20
17.3743013144
 30
0.0
 11
5.4809137768
 21
17.2871883898
 31
0.0
  0
LINE
  5
31C
100
AcDbEntity
  8
DRAFT
100
AcDbLine
 62
7
  6
CONTINUOUS
 10
13.6463246543
 20
14.122130388
 30
0.0
 11
11.562032095
 21
12.8331726044
 31
0.0
  0
LINE
  5
31D
100
AcDbEntity
  8
0
100
AcDbLine
 62
7
  6
CONTINUOUS
 10
11.8447402698
 20
11.6288170477
 30
0.0
 11
12.9410248561
 21
12.2617980281
 31
0.0
  0
LINE
  5
31E
100
AcDbEntity
  8
RACCORDO
100
AcDbLine
 62
7
  6
CONTINUOUS
 10
12.9055349793
 20
12.1800713473
 30
0.0
 11
12.777722594
 21
12.1062740779
 31
0.0
  0
LINE
  5
31F
100
AcDbEntity
  8
0
100
AcDbLine
 62
7
  6
CONTINUOUS
 10
10.324595228
 20
-11.0482140185
 30
0.0
 11
10.3556700025
 21
-11.0661562039
 31
0.0
  0
LINE
  5
320
100
AcDbEntity
  8
DRAFT
100
AcDbLine
 62
7
  6
CONTINUOUS
 10
12.8525070957
 20
-12.2834193211
 30
0.0
 11
12.9055349793
 21
-12.3140369565
 31
0.0
  0
LINE
  5
321
100
AcDbEntity
  8
0
100
AcDbLine
 62
250
  6
CONTINUOUS
 10
11.8095194685
 20
-15.0008027962
 30
0.0
 11
11.8447402698
 21
-15.0289374896
 31
0.0
  0
LINE
  5
322
100
AcDbEntity
  8
ASSI
100
AcDbLine
 62
7
  6
CONTINUOUS
 10
-3.2164996318
 20
14.0598394045
 30
0.0
 11
-3.2164996318
 21
9.5263456731
 31
0.0
  0
LINE
  5
323
100
AcDbEntity
  8
0
100
AcDbLine
 62
7
  6
CONTINUOUS
 10
-2.7827528018
 20
13.8093994209
 30
0.0
 11
-2.7827528018
 21
9.8882583972
 31
0.0
  0
LINE
  5
324
100
AcDbEntity
  8
0
100
AcDbLine
 62
7
  6
CONTINUOUS
 10
-2.6154750221
 20
13.911859439
 30
0.0
 11
-2.6154750221
 21
9.9848248903
 31
0.0
  0
LINE
  5
325
100
AcDbEntity
  8
0
100
AcDbLine
 62
7
  6
CONTINUOUS
 10
-1.8308685718
 20
9.5505896875
 30
0.0
 11
-1.8308685718
 21
12.2292884733
 31
0.0
  0
LINE
  5
326
100
AcDbEntity
  8
0
100
AcDbLine
 62
7
  6
CONTINUOUS
 10
1.95363316
 20
12.1322653601
 30
0.0
 11
1.7203025536
 21
11.5308970133
 31
0.0
  0
LINE
  5
327
100
AcDbEntity
  8
0
100
AcDbLine
 62
7
  6
CONTINUOUS
 10
2.043300034
 20
12.0804928309
 30
0.0
 11
1.8099694276
 21
11.479124484
 31
0.0
  0
LINE
  5
328
100
AcDbEntity
  8
0
100
AcDbLine
 62
7
  6
CONTINUOUS
 10
2.2282115787
 20
12.119046785
 30
0.0
 11
1.9099922256
 21
11.2988927158
 31
0.0
  0
LINE
  5
329
100
AcDbEntity
  8
0
100
AcDbLine
 62
7
  6
CONTINUOUS
 10
4.7954048915
 20
14.4436609314
 30
0.0
 11
4.3002145366
 21
13.5758980691
 31
0.0
  0
LINE
  5
32A
100
AcDbEntity
  8
ASSI
100
AcDbLine
 62
7
  6
CONTINUOUS
 10
3.0767507208
 20
5.8927017925
 30
0.0
 11
-3.677353111
 21
1.8568397932
 31
0.0
  0
LINE
  5
32B
100
AcDbEntity
  8
RACCORDO
100
AcDbLine
 62
7
  6
CONTINUOUS
 10
12.9055349793
 20
10.1388956553
 30
0.0
 11
12.777722594
 21
10.0650983859
 31
0.0
  0
LINE
  5
32C
100
AcDbEntity
  8
0
100
AcDbLine
 62
7
  6
CONTINUOUS
 10
12.9410248561
 20
10.0981517946
 30
0.0
 11
11.8447402698
 21
9.4651708142
 31
0.0
  0
LINE
  5
32D
100
AcDbEntity
  8
ASSI
100
AcDbLine
 62
7
  6
CONTINUOUS
 10
-10.1461460874
 20
2.0552559821
 30
0.0
 11
-3.8528957348
 21
-1.5783878985
 31
0.0
  0
LINE
  5
32E
100
AcDbEntity
  8
0
100
AcDbLine
 62
250
  6
CONTINUOUS
 10
13.4389502439
 20
-10.6558789638
 30
0.0
 11
13.3087802482
 21
-10.5807204397
 31
0.0
  0
LINE
  5
32F
100
AcDbEntity
  8
0
100
AcDbLine
 62
7
  6
CONTINUOUS
 10
13.5608711052
 20
-10.6452439248
 30
0.0
 11
13.3765427914
 21
-10.5388150666
 31
0.0
  0
LINE
  5
330
100
AcDbEntity
  8
IMPORT_IGES
100
AcDbLine
 62
7
  6
CONTINUOUS
 10
-1.545606309
 20
12.1462162104
 30
0.0
 11
-1.545606309
 21
9.5928273571
 31
0.0
  0
LINE
  5
331
100
AcDbEntity
  8
0
100
AcDbLine
 62
7
  6
CONTINUOUS
 10
3.4091495974
 20
12.7606267611
 30
0.0
 11
2.6903710636
 21
10.9081022884
 31
0.0
  0
LINE
  5
332
100
AcDbEntity
  8
ASSI
100
AcDbLine
 62
7
  6
CONTINUOUS
 10
3.8428964274
 20
12.5101867776
 30
0.0
 11
3.1241178935
 21
10.6576623049
 31
0.0
  0
LINE
  5
333
100
AcDbEntity
  8
0
100
AcDbLine
 62
7
  6
CONTINUOUS
 10
11.562032095
 20
7.9751744575
 30
0.0
 11
13.4389502439
 21
9.0967122397
 31
0.0
  0
LINE
  5
334
100
AcDbEntity
  8
ASSI
100
AcDbLine
 62
7
  6
CONTINUOUS
 10
-3.8528957348
 20
-1.5783878985
 30
0.0
 11
-6.7020857078
 21
-3.2808991164
 31
0.0
  0
LINE
  5
335
100
AcDbEntity
  8
DRAFT
100
AcDbLine
 62
7
  6
CONTINUOUS
 10
13.6463246543
 20
9.1377994771
 30
0.0
 11
11.562032095
 21
7.9343509436
 31
0.0
  0
LINE
  5
336
100
AcDbEntity
  8
SMUSSO
100
AcDbLine
 62
7
  6
CONTINUOUS
 10
11.562032095
 20
-8.4280600865
 30
0.0
 11
12.430487328
 21
-8.9294661078
 31
0.0
  0
LINE
  5
337
100
AcDbEntity
  8
DRAFT
100
AcDbLine
 62
7
  6
CONTINUOUS
 10
12.12771752
 20
-8.1353942273
 30
0.0
 11
13.6463246543
 21
-9.012218954
 31
0.0
  0
LINE
  5
338
100
AcDbEntity
  8
ASSI
100
AcDbLine
 62
250
  6
CONTINUOUS
 10
-10.1461460874
 20
5.0953677701
 30
0.0
 11
-3.8528957348
 21
1.4617238895
 31
0.0
  0
LINE
  5
339
100
AcDbEntity
  8
ASSI
100
AcDbLine
 62
250
  6
CONTINUOUS
 10
-10.1366726528
 20
5.1416611264
 30
0.0
 11
-3.8434223003
 21
1.5080172457
 31
0.0
  0
LINE
  5
33A
100
AcDbEntity
  8
ASSI
100
AcDbLine
 62
250
  6
CONTINUOUS
 10
-10.0306066357
 20
5.4150275157
 30
0.0
 11
-3.7373562831
 21
1.7813836351
 31
0.0
  0
LINE
  5
33B
100
AcDbEntity
  8
ASSI
100
AcDbLine
 62
250
  6
CONTINUOUS
 10
-9.9706034636
 20
5.4904836738
 30
0.0
 11
-3.677353111
 21
1.8568397932
 31
0.0
  0
LINE
  5
33C
100
AcDbEntity
  8
IMPORT_IGES
100
AcDbLine
 62
7
  6
CONTINUOUS
 10
1.8025442999
 20
-20.1279063278
 30
0.0
 11
1.8025442999
 21
-21.6108319928
 31
0.0
  0
LINE
  5
33D
100
AcDbEntity
  8
0
100
AcDbLine
 62
7
  6
CONTINUOUS
 10
1.9032193864
 20
-20.0718068732
 30
0.0
 11
1.9032193864
 21
-21.998355865
 31
0.0
  0
LINE
  5
33E
100
AcDbEntity
  8
0
100
AcDbLine
 62
7
  6
CONTINUOUS
 10
1.9032193864
 20
7.3945740996
 30
0.0
 11
1.9032193864
 21
10.0732728853
 31
0.0
  0
LINE
  5
33F
100
AcDbEntity
  8
DRAFT
100
AcDbLine
 62
7
  6
CONTINUOUS
 10
13.6463246543
 20
6.7574526694
 30
0.0
 11
11.562032095
 21
5.3828813286
 31
0.0
  0
LINE
  5
340
100
AcDbEntity
  8
0
100
AcDbLine
 62
7
  6
CONTINUOUS
 10
12.1415875908
 20
5.1459959966
 30
0.0
 11
12.4951409814
 21
5.3501332932
 31
0.0
  0
LINE
  5
341
100
AcDbEntity
  8
0
100
AcDbLine
 62
7
  6
CONTINUOUS
 10
2.6430038908
 20
10.6766355074
 30
0.0
 11
2.6430038908
 21
6.7554944836
 31
0.0
  0
LINE
  5
342
100
AcDbEntity
  8
0
100
AcDbLine
 62
7
  6
CONTINUOUS
 10
2.6430038908
 20
-19.7797895122
 30
0.0
 11
2.6430038908
 21
-23.700930536
 31
0.0
  0
LINE
  5
343
100
AcDbEntity
  8
ASSI
100
AcDbLine
 62
7
  6
CONTINUOUS
 10
3.0767507208
 20
10.4261955238
 30
0.0
 11
3.0767507208
 21
5.8927017925
 31
0.0
  0
LINE
  5
344
100
AcDbEntity
  8
ASSI
100
AcDbLine
 62
7
  6
CONTINUOUS
 10
3.0767507208
 20
-19.4178767881
 30
0.0
 11
3.0767507208
 21
-23.9513705195
 31
0.0
  0
LINE
  5
345
100
AcDbEntity
  8
0
100
AcDbLine
 62
7
  6
CONTINUOUS
 10
3.9252788582
 20
17.6137575858
 30
0.0
 11
3.9252788582
 21
18.1853924952
 31
0.0
  0
LINE
  5
346
100
AcDbEntity
  8
IMPORT_IGES
100
AcDbLine
 62
7
  6
CONTINUOUS
 10
3.9344712452
 20
16.3494246733
 30
0.0
 11
3.9344712452
 21
17.5742089984
 31
0.0
  0
LINE
  5
347
100
AcDbEntity
  8
IMPORT_IGES
100
AcDbLine
 62
7
  6
CONTINUOUS
 10
4.203171822
 20
15.5451750159
 30
0.0
 11
4.203171822
 21
14.9124105514
 31
0.0
  0
LINE
  5
348
100
AcDbEntity
  8
IMPORT_IGES
100
AcDbLine
 62
7
  6
CONTINUOUS
 10
4.2526692967
 20
14.8797485839
 30
0.0
 11
4.2526692967
 21
14.7782476948
 31
0.0
  0
LINE
  5
349
100
AcDbEntity
  8
RACCORDO
100
AcDbLine
 62
7
  6
CONTINUOUS
 10
5.2687817425
 20
20.8553442228
 30
0.0
 11
5.2687817425
 21
23.7742876385
 31
0.0
  0
LINE
  5
34A
100
AcDbEntity
  8
0
100
AcDbLine
 62
7
  6
CONTINUOUS
 10
5.2776411864
 20
20.1566257158
 30
0.0
 11
5.2782645038
 21
20.3513885582
 31
0.0
  0
LINE
  5
34B
100
AcDbEntity
  8
0
100
AcDbLine
 62
7
  6
CONTINUOUS
 10
6.6343469148
 20
20.270993685
 30
0.0
 11
6.6343469148
 21
20.6860328912
 31
0.0
  0
LINE
  5
34C
100
AcDbEntity
  8
0
100
AcDbLine
 62
7
  6
CONTINUOUS
 10
6.6343469148
 20
22.3461892692
 30
0.0
 11
6.6343469148
 21
22.7612280286
 31
0.0
  0
LINE
  5
34D
100
AcDbEntity
  8
0
100
AcDbLine
 62
7
  6
CONTINUOUS
 10
6.7050575929
 20
20.3118211443
 30
0.0
 11
6.7050575929
 21
20.7268603506
 31
0.0
  0
LINE
  5
34E
100
AcDbEntity
  8
0
100
AcDbLine
 62
7
  6
CONTINUOUS
 10
6.7050575929
 20
22.3870167286
 30
0.0
 11
6.7050575929
 21
22.8020554879
 31
0.0
  0
LINE
  5
34F
100
AcDbEntity
  8
0
100
AcDbLine
 62
7
  6
CONTINUOUS
 10
6.2675812584
 20
19.5850170024
 30
0.0
 11
6.2682046707
 21
19.7798095127
 31
0.0
  0
LINE
  5
350
100
AcDbEntity
  8
ASSI
100
AcDbLine
 62
7
  6
CONTINUOUS
 10
10.324595228
 20
5.5869298517
 30
0.0
 11
11.562032095
 21
7.7302333744
 31
0.0
  0
LINE
  5
351
100
AcDbEntity
  8
0
100
AcDbLine
 62
7
  6
CONTINUOUS
 10
-1.9313264591
 20
9.4034697041
 30
0.0
 11
-2.7827528018
 21
9.8882583972
 31
0.0
  0
LINE
  5
352
100
AcDbEntity
  8
0
100
AcDbLine
 62
7
  6
CONTINUOUS
 10
3.0767507208
 20
5.8927017925
 30
0.0
 11
-3.2164996318
 21
9.5263456731
 31
0.0
  0
LINE
  5
353
100
AcDbEntity
  8
0
100
AcDbLine
 62
7
  6
CONTINUOUS
 10
-1.9350676093
 20
9.4087916702
 30
0.0
 11
1.7953186983
 21
7.2549133689
 31
0.0
  0
LINE
  5
354
100
AcDbEntity
  8
0
100
AcDbLine
 62
7
  6
CONTINUOUS
 10
2.6430038908
 20
6.9486450702
 30
0.0
 11
1.901322218
 21
7.3768827726
 31
0.0
  0
LINE
  5
355
100
AcDbEntity
  8
0
100
AcDbLine
 62
7
  6
CONTINUOUS
 10
-1.8289714034
 20
9.530707558
 30
0.0
 11
-2.6154750221
 21
9.9848248903
 31
0.0
  0
LINE
  5
356
100
AcDbEntity
  8
IMPORT_IGES
100
AcDbLine
 62
7
  6
CONTINUOUS
 10
-1.545606309
 20
9.5928273571
 30
0.0
 11
1.9032193864
 21
7.6015186245
 31
0.0
  0
LINE
  5
357
100
AcDbEntity
  8
0
100
AcDbLine
 62
7
  6
CONTINUOUS
 10
1.7990598485
 20
7.2495914028
 30
0.0
 11
2.6430038908
 21
6.7554944836
 31
0.0
  0
LINE
  5
358
100
AcDbEntity
  8
0
100
AcDbLine
 62
7
  6
CONTINUOUS
 10
1.7393977845
 20
7.3036822751
 30
0.0
 11
1.7953186983
 21
7.2549133689
 31
0.0
  0
LINE
  5
359
100
AcDbEntity
  8
IMPORT_IGES
100
AcDbLine
 62
7
  6
CONTINUOUS
 10
4.203171822
 20
15.5451750159
 30
0.0
 11
4.1552577003
 21
15.7793145451
 31
0.0
  0
LINE
  5
35A
100
AcDbEntity
  8
ASSI
100
AcDbLine
 62
7
  6
CONTINUOUS
 10
9.593604501
 20
18.7672743777
 30
0.0
 11
9.593604501
 21
19.0737842596
 31
0.0
  0
LINE
  5
35B
100
AcDbEntity
  8
ASSI
100
AcDbLine
 62
7
  6
CONTINUOUS
 10
9.593604501
 20
20.5411609751
 30
0.0
 11
9.593604501
 21
20.8476708569
 31
0.0
  0
LINE
  5
35C
100
AcDbEntity
  8
ASSI
100
AcDbLine
 62
7
  6
CONTINUOUS
 10
9.6643151791
 20
18.808101837
 30
0.0
 11
9.6643151791
 21
19.114611719
 31
0.0
  0
LINE
  5
35D
100
AcDbEntity
  8
ASSI
100
AcDbLine
 62
7
  6
CONTINUOUS
 10
9.6643151791
 20
20.5819884298
 30
0.0
 11
9.6643151791
 21
20.8884983117
 31
0.0
  0
LINE
  5
35E
100
AcDbEntity
  8
0
100
AcDbLine
 62
7
  6
CONTINUOUS
 10
8.0353482114
 20
18.5643305191
 30
0.0
 11
8.0359716237
 21
18.7591230294
 31
0.0
  0
LINE
  5
35F
100
AcDbEntity
  8
0
100
AcDbLine
 62
7
  6
CONTINUOUS
 10
9.803124586
 20
17.5436683185
 30
0.0
 11
9.8037479033
 21
17.7384311609
 31
0.0
  0
LINE
  5
360
100
AcDbEntity
  8
DRAFT
100
AcDbLine
 62
7
  6
CONTINUOUS
 10
13.0994190108
 20
6.396773541
 30
0.0
 11
12.4951409814
 21
5.3501332932
 31
0.0
  0
LINE
  5
361
100
AcDbEntity
  8
0
100
AcDbLine
 62
7
  6
CONTINUOUS
 10
-13.155055697
 20
-17.2974517612
 30
0.0
 11
-13.0806392293
 21
-17.2544850389
 31
0.0
  0
LINE
  5
362
100
AcDbEntity
  8
RACCORDO
100
AcDbLine
 62
7
  6
CONTINUOUS
 10
12.6615798049
 20
10.027130004
 30
0.0
 11
11.8095194685
 21
9.9041377642
 31
0.0
  0
LINE
  5
363
100
AcDbEntity
  8
0
100
AcDbLine
 62
7
  6
CONTINUOUS
 10
-1.8500957914
 20
9.3762108789
 30
0.0
 11
-1.9350676093
 21
9.4087916702
 31
0.0
  0
LINE
  5
364
100
AcDbEntity
  8
IMPORT_IGES
100
AcDbLine
 62
7
  6
CONTINUOUS
 10
-0.9302790869
 20
10.972591815
 30
0.0
 11
-0.0140285624
 21
10.4435602455
 31
0.0
  0
LINE
  5
365
100
AcDbEntity
  8
IMPORT_IGES
100
AcDbLine
 62
7
  6
CONTINUOUS
 10
0.8374878661
 20
9.9519053317
 30
0.0
 11
1.7537383906
 21
9.4228737622
 31
0.0
  0
LINE
  5
366
100
AcDbEntity
  8
IMPORT_IGES
100
AcDbLine
 62
7
  6
CONTINUOUS
 10
1.5736767169
 20
9.81262791
 30
0.0
 11
1.0849758444
 21
10.094797669
 31
0.0
  0
LINE
  5
367
100
AcDbEntity
  8
IMPORT_IGES
100
AcDbLine
 62
7
  6
CONTINUOUS
 10
-0.6827911086
 20
11.1154875735
 30
0.0
 11
-0.1940933854
 21
10.8333196329
 31
0.0
  0
LINE
  5
368
100
AcDbEntity
  8
IMPORT_IGES
100
AcDbLine
 62
7
  6
CONTINUOUS
 10
-0.930278482
 20
11.2991795765
 30
0.0
 11
-0.2379261899
 21
10.8994240403
 31
0.0
  0
LINE
  5
369
100
AcDbEntity
  8
IMPORT_IGES
100
AcDbLine
 62
7
  6
CONTINUOUS
 10
0.8374884709
 20
10.2784930932
 30
0.0
 11
1.529840763
 21
9.878737557
 31
0.0
  0
LINE
  5
36A
100
AcDbEntity
  8
0
100
AcDbLine
 62
7
  6
CONTINUOUS
 10
1.8325194779
 20
10.1957287189
 30
0.0
 11
-1.7601686632
 21
12.2701018246
 31
0.0
  0
LINE
  5
36B
100
AcDbEntity
  8
0
100
AcDbLine
 62
7
  6
CONTINUOUS
 10
10.0063971764
 20
-21.8151358115
 30
0.0
 11
10.0063971764
 21
-23.009785746
 31
0.0
  0
LINE
  5
36C
100
AcDbEntity
  8
ASSI
100
AcDbLine
 62
7
  6
CONTINUOUS
 10
10.324595228
 20
-11.1507108225
 30
0.0
 11
10.324595228
 21
5.5869298517
 31
0.0
  0
LINE
  5
36D
100
AcDbEntity
  8
ASSI
100
AcDbLine
 62
7
  6
CONTINUOUS
 10
11.0025536534
 20
18.8408748558
 30
0.0
 11
11.0025536534
 21
19.1470512096
 31
0.0
  0
LINE
  5
36E
100
AcDbEntity
  8
ASSI
100
AcDbLine
 62
7
  6
CONTINUOUS
 10
11.0732643315
 20
18.8817023152
 30
0.0
 11
11.0732643315
 21
19.187878669
 31
0.0
  0
LINE
  5
36F
100
AcDbEntity
  8
ASSI
100
AcDbLine
 62
7
  6
CONTINUOUS
 10
11.1439750096
 20
17.8721099448
 30
0.0
 11
11.1439750096
 21
18.1786197586
 31
0.0
  0
LINE
  5
370
100
AcDbEntity
  8
ASSI
100
AcDbLine
 62
7
  6
CONTINUOUS
 10
11.1439750096
 20
19.6459951107
 30
0.0
 11
11.1439750096
 21
19.9525064038
 31
0.0
  0
LINE
  5
371
100
AcDbEntity
  8
ASSI
100
AcDbLine
 62
7
  6
CONTINUOUS
 10
11.2146856878
 20
17.912937288
 30
0.0
 11
11.2146856878
 21
18.219447218
 31
0.0
  0
LINE
  5
372
100
AcDbEntity
  8
ASSI
100
AcDbLine
 62
7
  6
CONTINUOUS
 10
11.2146856878
 20
19.6868226844
 30
0.0
 11
11.2146856878
 21
19.9933338588
 31
0.0
  0
LINE
  5
373
100
AcDbEntity
  8
RACCORDO
100
AcDbLine
 62
7
  6
CONTINUOUS
 10
11.562032095
 20
20.1406437579
 30
0.0
 11
11.562032095
 21
12.8331726044
 31
0.0
  0
LINE
  5
374
100
AcDbEntity
  8
RACCORDO
100
AcDbLine
 62
7
  6
CONTINUOUS
 10
11.562032095
 20
-16.5597573602
 30
0.0
 11
11.562032095
 21
-23.8672285136
 31
0.0
  0
LINE
  5
375
100
AcDbEntity
  8
0
100
AcDbLine
 62
7
  6
CONTINUOUS
 10
11.562032095
 20
-20.9482850979
 30
0.0
 11
11.562032095
 21
-16.5189338463
 31
0.0
  0
LINE
  5
376
100
AcDbEntity
  8
0
100
AcDbLine
 62
7
  6
CONTINUOUS
 10
11.562032095
 20
-11.7017592132
 30
0.0
 11
11.562032095
 21
-10.5612360975
 31
0.0
  0
LINE
  5
377
100
AcDbEntity
  8
DRAFT
100
AcDbLine
 62
7
  6
CONTINUOUS
 10
11.562032095
 20
-11.6609356994
 30
0.0
 11
11.562032095
 21
7.9343509436
 31
0.0
  0
LINE
  5
378
100
AcDbEntity
  8
0
100
AcDbLine
 62
7
  6
CONTINUOUS
 10
11.562032095
 20
7.7302333744
 30
0.0
 11
11.562032095
 21
7.9751744575
 31
0.0
  0
LINE
  5
379
100
AcDbEntity
  8
0
100
AcDbLine
 62
7
  6
CONTINUOUS
 10
11.562032095
 20
12.7923490905
 30
0.0
 11
11.562032095
 21
17.2217003421
 31
0.0
  0
LINE
  5
37A
100
AcDbEntity
  8
0
100
AcDbLine
 62
7
  6
CONTINUOUS
 10
2.043300034
 20
12.0804928309
 30
0.0
 11
2.2282115787
 21
12.119046785
 31
0.0
  0
LINE
  5
37B
100
AcDbEntity
  8
RACCORDO
100
AcDbLine
 62
7
  6
CONTINUOUS
 10
12.6615798049
 20
12.068305696
 30
0.0
 11
12.5873505945
 21
12.0575909421
 31
0.0
  0
LINE
  5
37C
100
AcDbEntity
  8
0
100
AcDbLine
 62
7
  6
CONTINUOUS
 10
11.641055849
 20
5.4349967512
 30
0.0
 11
12.1415875908
 21
5.1459959966
 31
0.0
  0
LINE
  5
37D
100
AcDbEntity
  8
0
100
AcDbLine
 62
250
  6
CONTINUOUS
 10
-3.2164996318
 20
14.0598394045
 30
0.0
 11
-2.7827528018
 21
13.8093994209
 31
0.0
  0
LINE
  5
37E
100
AcDbEntity
  8
0
100
AcDbLine
 62
250
  6
CONTINUOUS
 10
2.6430038908
 20
10.6766355074
 30
0.0
 11
3.0767507208
 21
10.4261955238
 31
0.0
  0
LINE
  5
37F
100
AcDbEntity
  8
0
100
AcDbLine
 62
7
  6
CONTINUOUS
 10
-1.8437803716
 20
13.4603835353
 30
0.0
 11
-1.6633296299
 21
13.3561935386
 31
0.0
  0
LINE
  5
380
100
AcDbEntity
  8
0
100
AcDbLine
 62
7
  6
CONTINUOUS
 10
-0.0760040919
 20
12.4396916668
 30
0.0
 11
0.104437323
 21
12.3355070553
 31
0.0
  0
LINE
  5
381
100
AcDbEntity
  8
0
100
AcDbLine
 62
7
  6
CONTINUOUS
 10
1.6917628611
 20
11.4190051835
 30
0.0
 11
1.8722136027
 21
11.3148151868
 31
0.0
  0
LINE
  5
382
100
AcDbEntity
  8
0
100
AcDbLine
 62
7
  6
CONTINUOUS
 10
-1.6255278601
 20
13.3402751053
 30
0.0
 11
-0.0780159741
 21
12.4467611372
 31
0.0
  0
LINE
  5
383
100
AcDbEntity
  8
0
100
AcDbLine
 62
7
  6
CONTINUOUS
 10
0.1422390928
 20
12.319588622
 30
0.0
 11
1.6897509788
 21
11.4260746539
 31
0.0
  0
LINE
  5
384
100
AcDbEntity
  8
0
100
AcDbLine
 62
7
  6
CONTINUOUS
 10
-2.6154750221
 20
13.911859439
 30
0.0
 11
-1.8457921523
 21
13.4674541964
 31
0.0
  0
LINE
  5
385
100
AcDbEntity
  8
0
100
AcDbLine
 62
7
  6
CONTINUOUS
 10
2.6717615958
 20
10.8590752805
 30
0.0
 11
1.9100083777
 21
11.2989020416
 31
0.0
  0
LINE
  5
386
100
AcDbEntity
  8
0
100
AcDbLine
 62
250
  6
CONTINUOUS
 10
-3.169132459
 20
14.2913061855
 30
0.0
 11
-2.735385629
 21
14.040866202
 31
0.0
  0
LINE
  5
387
100
AcDbEntity
  8
0
100
AcDbLine
 62
250
  6
CONTINUOUS
 10
2.6903710636
 20
10.9081022884
 30
0.0
 11
3.1241178935
 21
10.6576623049
 31
0.0
  0
LINE
  5
388
100
AcDbEntity
  8
0
100
AcDbLine
 62
250
  6
CONTINUOUS
 10
-1.8152406791
 20
13.572275365
 30
0.0
 11
-1.7255738051
 21
13.5205028358
 31
0.0
  0
LINE
  5
389
100
AcDbEntity
  8
0
100
AcDbLine
 62
250
  6
CONTINUOUS
 10
-0.0474643994
 20
12.5515834966
 30
0.0
 11
0.0421931479
 21
12.4998163525
 31
0.0
  0
LINE
  5
38A
100
AcDbEntity
  8
0
100
AcDbLine
 62
250
  6
CONTINUOUS
 10
1.7203025536
 20
11.5308970133
 30
0.0
 11
1.8099694276
 21
11.479124484
 31
0.0
  0
LINE
  5
38B
100
AcDbEntity
  8
0
100
AcDbLine
 62
7
  6
CONTINUOUS
 10
-1.5819100726
 20
14.1736437119
 30
0.0
 11
-1.4922431987
 21
14.1218711826
 31
0.0
  0
LINE
  5
38C
100
AcDbEntity
  8
0
100
AcDbLine
 62
7
  6
CONTINUOUS
 10
0.1858662071
 20
13.1529518434
 30
0.0
 11
0.2755237543
 21
13.1011846993
 31
0.0
  0
LINE
  5
38D
100
AcDbEntity
  8
0
100
AcDbLine
 62
7
  6
CONTINUOUS
 10
1.95363316
 20
12.1322653601
 30
0.0
 11
2.043300034
 21
12.0804928309
 31
0.0
  0
LINE
  5
38E
100
AcDbEntity
  8
0
100
AcDbLine
 62
7
  6
CONTINUOUS
 10
-2.2972718209
 20
14.7320041823
 30
0.0
 11
-1.5194543616
 21
14.2829021296
 31
0.0
  0
LINE
  5
38F
100
AcDbEntity
  8
0
100
AcDbLine
 62
7
  6
CONTINUOUS
 10
2.989637637
 20
11.6794089219
 30
0.0
 11
2.2282115787
 21
12.119046785
 31
0.0
  0
LINE
  5
390
100
AcDbEntity
  8
0
100
AcDbLine
 62
7
  6
CONTINUOUS
 10
-1.3073034867
 20
14.1604310096
 30
0.0
 11
0.2483314319
 21
13.2622269043
 31
0.0
  0
LINE
  5
391
100
AcDbEntity
  8
0
100
AcDbLine
 62
7
  6
CONTINUOUS
 10
0.4604634662
 20
13.1397445263
 30
0.0
 11
2.0160983848
 21
12.241540421
 31
0.0
  0
LINE
  5
392
100
AcDbEntity
  8
0
100
AcDbLine
 62
7
  6
CONTINUOUS
 10
-1.9400011588
 20
15.9961548077
 30
0.0
 11
-1.8280023616
 21
15.8861615849
 31
0.0
  0
LINE
  5
393
100
AcDbEntity
  8
0
100
AcDbLine
 62
7
  6
CONTINUOUS
 10
5.6318085676
 20
17.3225341703
 30
0.0
 11
5.6930458112
 21
17.1647060118
 31
0.0
  0
LINE
  5
394
100
AcDbEntity
  8
0
100
AcDbLine
 62
7
  6
CONTINUOUS
 10
11.8095194685
 20
-15.0086053708
 30
0.0
 11
11.8095194685
 21
-12.9262954734
 31
0.0
  0
LINE
  5
395
100
AcDbEntity
  8
0
100
AcDbLine
 62
7
  6
CONTINUOUS
 10
11.8095194685
 20
9.485502933
 30
0.0
 11
11.8095194685
 21
11.5678128304
 31
0.0
  0
LINE
  5
396
100
AcDbEntity
  8
SMUSSO
100
AcDbLine
 62
7
  6
CONTINUOUS
 10
12.430487328
 20
-9.6642893569
 30
0.0
 11
12.430487328
 21
-8.9294661078
 31
0.0
  0
LINE
  5
397
100
AcDbEntity
  8
RACCORDO
100
AcDbLine
 62
250
  6
CONTINUOUS
 10
12.6615798049
 20
-14.4669782998
 30
0.0
 11
12.6615798049
 21
-12.4258026078
 31
0.0
  0
LINE
  5
398
100
AcDbEntity
  8
RACCORDO
100
AcDbLine
 62
250
  6
CONTINUOUS
 10
12.6615798049
 20
10.027130004
 30
0.0
 11
12.6615798049
 21
12.068305696
 31
0.0
  0
LINE
  5
399
100
AcDbEntity
  8
RACCORDO
100
AcDbLine
 62
250
  6
CONTINUOUS
 10
12.777722594
 20
-14.4290099179
 30
0.0
 11
12.777722594
 21
-12.3878342259
 31
0.0
  0
LINE
  5
39A
100
AcDbEntity
  8
RACCORDO
100
AcDbLine
 62
250
  6
CONTINUOUS
 10
12.777722594
 20
10.0650983859
 30
0.0
 11
12.777722594
 21
12.1062740779
 31
0.0
  0
LINE
  5
39B
100
AcDbEntity
  8
0
100
AcDbLine
 62
7
  6
CONTINUOUS
 10
12.9055349793
 20
12.1800713473
 30
0.0
 11
12.9055349793
 21
10.1388956553
 31
0.0
  0
LINE
  5
39C
100
AcDbEntity
  8
0
100
AcDbLine
 62
7
  6
CONTINUOUS
 10
12.9055349793
 20
-14.3552126485
 30
0.0
 11
12.9055349793
 21
-12.3140369565
 31
0.0
  0
LINE
  5
39D
100
AcDbEntity
  8
0
100
AcDbLine
 62
7
  6
CONTINUOUS
 10
12.9762456574
 20
12.2414659094
 30
0.0
 11
12.9762456574
 21
10.1591560119
 31
0.0
  0
LINE
  5
39E
100
AcDbEntity
  8
0
100
AcDbLine
 62
7
  6
CONTINUOUS
 10
12.9762456574
 20
-12.2526423944
 30
0.0
 11
12.9762456574
 21
-14.3349522918
 31
0.0
  0
LINE
  5
39F
100
AcDbEntity
  8
0
100
AcDbLine
 62
7
  6
CONTINUOUS
 10
13.6126417605
 20
-15.0930222782
 30
0.0
 11
13.6126417605
 21
-10.7596781401
 31
0.0
  0
LINE
  5
3A0
100
AcDbEntity
  8
0
100
AcDbLine
 62
7
  6
CONTINUOUS
 10
13.6126417605
 20
9.4010860256
 30
0.0
 11
13.6126417605
 21
13.7344301637
 31
0.0
  0
LINE
  5
3A1
100
AcDbEntity
  8
SMUSSO
100
AcDbLine
 62
7
  6
CONTINUOUS
 10
12.1738711804
 20
-8.7813283062
 30
0.0
 11
11.562032095
 21
-9.1094660844
 31
0.0
  0
LINE
  5
3A2
100
AcDbEntity
  8
DRAFT
100
AcDbLine
 62
7
  6
CONTINUOUS
 10
12.12771752
 20
-8.1353942273
 30
0.0
 11
11.562032095
 21
-8.4277823867
 31
0.0
  0
LINE
  5
3A3
100
AcDbEntity
  8
0
100
AcDbLine
 62
7
  6
CONTINUOUS
 10
0.2755237543
 20
13.1011846993
 30
0.0
 11
0.4604634662
 21
13.1397445263
 31
0.0
  0
LINE
  5
3A4
100
AcDbEntity
  8
0
100
AcDbLine
 62
250
  6
CONTINUOUS
 10
-2.4503539251
 20
16.1438306582
 30
0.0
 11
-2.0166070952
 21
15.8933906747
 31
0.0
  0
LINE
  5
3A5
100
AcDbEntity
  8
0
100
AcDbLine
 62
250
  6
CONTINUOUS
 10
3.4091495974
 20
12.7606267611
 30
0.0
 11
3.8428964274
 21
12.5101867776
 31
0.0
  0
LINE
  5
3A6
100
AcDbEntity
  8
0
100
AcDbLine
 62
250
  6
CONTINUOUS
 10
-2.300345995
 20
16.3324710536
 30
0.0
 11
-1.866599165
 21
16.0820310701
 31
0.0
  0
LINE
  5
3A7
100
AcDbEntity
  8
0
100
AcDbLine
 62
250
  6
CONTINUOUS
 10
3.5591575276
 20
12.9492671565
 30
0.0
 11
3.9929043576
 21
12.698827173
 31
0.0
  0
LINE
  5
3A8
100
AcDbEntity
  8
DRAFT
100
AcDbLine
 62
7
  6
CONTINUOUS
 10
12.1415875908
 20
5.1459959966
 30
0.0
 11
11.8442363783
 21
5.5689923994
 31
0.0
  0
LINE
  5
3A9
100
AcDbEntity
  8
RACCORDO
100
AcDbLine
 62
7
  6
CONTINUOUS
 10
13.6463246543
 20
-22.57827073
 30
0.0
 11
13.6463246543
 21
-15.3563088267
 31
0.0
  0
LINE
  5
3AA
100
AcDbEntity
  8
DRAFT
100
AcDbLine
 62
7
  6
CONTINUOUS
 10
13.6463246543
 20
-10.3719779157
 30
0.0
 11
13.6463246543
 21
-9.012218954
 31
0.0
  0
LINE
  5
3AB
100
AcDbEntity
  8
DRAFT
100
AcDbLine
 62
7
  6
CONTINUOUS
 10
13.6463246543
 20
6.7574526694
 30
0.0
 11
13.6463246543
 21
9.1377994771
 31
0.0
  0
LINE
  5
3AC
100
AcDbEntity
  8
RACCORDO
100
AcDbLine
 62
7
  6
CONTINUOUS
 10
13.6463246543
 20
14.122130388
 30
0.0
 11
13.6463246543
 21
21.3440922914
 31
0.0
  0
LINE
  5
3AD
100
AcDbEntity
  8
DRAFT
100
AcDbLine
 62
7
  6
CONTINUOUS
 10
13.6463246543
 20
-9.012218954
 30
0.0
 11
12.430487328
 21
-9.6642893569
 31
0.0
  0
LINE
  5
3AE
100
AcDbEntity
  8
ASSI
100
AcDbLine
 62
7
  6
CONTINUOUS
 10
11.562032095
 20
-10.5612360975
 30
0.0
 11
10.324595228
 21
-11.1507108225
 31
0.0
  0
LINE
  5
3AF
100
AcDbEntity
  8
0
100
AcDbLine
 62
7
  6
CONTINUOUS
 10
11.562032095
 20
-10.5612360975
 30
0.0
 11
10.4671819949
 21
-11.0629946242
 31
0.0
  0
LINE
  5
3B0
100
AcDbEntity
  8
0
100
AcDbLine
 62
7
  6
CONTINUOUS
 10
-1.4922431987
 20
14.1218711826
 30
0.0
 11
-1.3073034867
 21
14.1604310096
 31
0.0
  0
LINE
  5
3B1
100
AcDbEntity
  8
0
100
AcDbLine
 62
7
  6
CONTINUOUS
 10
-2.285889724
 20
14.7343773432
 30
0.0
 11
-2.2972718209
 21
14.7320041823
 31
0.0
  0
LINE
  5
3B2
100
AcDbEntity
  8
0
100
AcDbLine
 62
7
  6
CONTINUOUS
 10
-2.763749341
 20
13.917997709
 30
0.0
 11
-2.615491174
 21
13.9118501131
 31
0.0
  0
LINE
  5
3B3
100
AcDbEntity
  8
0
100
AcDbLine
 62
7
  6
CONTINUOUS
 10
-0.0156850124
 20
16.0678443778
 30
0.0
 11
0.9248978621
 21
15.5247636143
 31
0.0
  0
LINE
  5
3B4
100
AcDbEntity
  8
0
100
AcDbLine
 62
7
  6
CONTINUOUS
 10
4.4566648253
 20
13.4855656332
 30
0.0
 11
4.3002145366
 21
13.5758980691
 31
0.0
  0
LINE
  5
3B5
100
AcDbEntity
  8
0
100
AcDbLine
 62
7
  6
CONTINUOUS
 10
1.4288072282
 20
15.8207486084
 30
0.0
 11
4.5521432593
 21
14.0173735286
 31
0.0
  0
LINE
  5
3B6
100
AcDbEntity
  8
DRAFT
100
AcDbLine
 62
7
  6
CONTINUOUS
 10
13.6463246543
 20
9.1377994771
 30
0.0
 11
13.5423697396
 21
9.197821742
 31
0.0
  0
LINE
  5
3B7
100
AcDbEntity
  8
0
100
AcDbLine
 62
7
  6
CONTINUOUS
 10
0.4882243537
 20
16.9305729923
 30
0.0
 11
1.4288072282
 21
16.3874922288
 31
0.0
  0
LINE
  5
3B8
100
AcDbEntity
  8
0
100
AcDbLine
 62
7
  6
CONTINUOUS
 10
5.438578559
 20
14.0723005166
 30
0.0
 11
4.7954048915
 21
14.4436609314
 31
0.0
  0
LINE
  5
3B9
100
AcDbEntity
  8
IMPORT_IGES
100
AcDbLine
 62
7
  6
CONTINUOUS
 10
4.2526692967
 20
14.8797485839
 30
0.0
 11
4.3405659821
 21
14.8289981394
 31
0.0
  0
LINE
  5
3BA
100
AcDbEntity
  8
IMPORT_IGES
100
AcDbLine
 62
7
  6
CONTINUOUS
 10
4.203171822
 20
14.9124105514
 30
0.0
 11
4.344101516
 21
14.8310395123
 31
0.0
  0
LINE
  5
3BB
100
AcDbEntity
  8
0
100
AcDbLine
 62
250
  6
CONTINUOUS
 10
12.8879965602
 20
10.128769192
 30
0.0
 11
12.9410248561
 21
10.0981517946
 31
0.0
  0
LINE
  5
3BC
100
AcDbEntity
  8
0
100
AcDbLine
 62
250
  6
CONTINUOUS
 10
12.9055349793
 20
10.1999828364
 30
0.0
 11
12.9762456574
 21
10.1591560119
 31
0.0
  0
LINE
  5
3BD
100
AcDbEntity
  8
0
100
AcDbLine
 62
250
  6
CONTINUOUS
 10
11.8095194685
 20
9.4933055076
 30
0.0
 11
11.8447402698
 21
9.4651708142
 31
0.0
  0
LINE
  5
3BE
100
AcDbEntity
  8
DRAFT
100
AcDbLine
 62
7
  6
CONTINUOUS
 10
13.6463246543
 20
-10.3719779157
 30
0.0
 11
11.562032095
 21
-11.6609356994
 31
0.0
  0
LINE
  5
3BF
100
AcDbEntity
  8
0
100
AcDbLine
 62
7
  6
CONTINUOUS
 10
11.8447402698
 20
-12.8652912561
 30
0.0
 11
12.9410248561
 21
-12.2323102756
 31
0.0
  0
LINE
  5
3C0
100
AcDbEntity
  8
RACCORDO
100
AcDbLine
 62
7
  6
CONTINUOUS
 10
12.9055349793
 20
-12.3140369565
 30
0.0
 11
12.777722594
 21
-12.3878342259
 31
0.0
  0
LINE
  5
3C1
100
AcDbEntity
  8
ASSI
100
AcDbLine
 62
7
  6
CONTINUOUS
 10
-6.7020857078
 20
-21.5366310718
 30
0.0
 11
-3.8528957348
 21
-19.9489691264
 31
0.0
  0
LINE
  5
3C2
100
AcDbEntity
  8
0
100
AcDbLine
 62
7
  6
CONTINUOUS
 10
13.4389502439
 20
-10.6558789638
 30
0.0
 11
11.562032095
 21
-11.7017592132
 31
0.0
  0
LINE
  5
3C3
100
AcDbEntity
  8
0
100
AcDbLine
 62
250
  6
CONTINUOUS
 10
12.9342755861
 20
12.2579010842
 30
0.0
 11
12.9762456574
 21
12.2414659094
 31
0.0
  0
LINE
  5
3C4
100
AcDbEntity
  8
IMPORT_IGES
100
AcDbLine
 62
7
  6
CONTINUOUS
 10
4.1552577003
 20
15.7793145451
 30
0.0
 11
5.070856969
 21
15.2506590025
 31
0.0
  0
LINE
  5
3C5
100
AcDbEntity
  8
IMPORT_IGES
100
AcDbLine
 62
7
  6
CONTINUOUS
 10
4.5663795875
 20
16.4278082094
 30
0.0
 11
5.8379937185
 21
15.6935941472
 31
0.0
  0
LINE
  5
3C6
100
AcDbEntity
  8
IMPORT_IGES
100
AcDbLine
 62
7
  6
CONTINUOUS
 10
4.6415780264
 20
16.7576992666
 30
0.0
 11
6.4192600803
 21
15.7312879283
 31
0.0
  0
LINE
  5
3C7
100
AcDbEntity
  8
DRAFT
100
AcDbLine
 62
7
  6
CONTINUOUS
 10
12.8525070957
 20
12.2106889827
 30
0.0
 11
12.9055349793
 21
12.1800713473
 31
0.0
  0
LINE
  5
3C8
100
AcDbEntity
  8
0
100
AcDbLine
 62
7
  6
CONTINUOUS
 10
2.2678113688
 20
18.3581254132
 30
0.0
 11
3.0456288281
 21
17.9090233605
 31
0.0
  0
LINE
  5
3C9
100
AcDbEntity
  8
0
100
AcDbLine
 62
7
  6
CONTINUOUS
 10
7.5281195319
 20
15.3208894069
 30
0.0
 11
6.7932947684
 21
15.7451680159
 31
0.0
  0
LINE
  5
3CA
100
AcDbEntity
  8
0
100
AcDbLine
 62
7
  6
CONTINUOUS
 10
5.0704673209
 20
16.9180512944
 30
0.0
 11
5.4024466711
 21
16.7263705783
 31
0.0
  0
LINE
  5
3CB
100
AcDbEntity
  8
IMPORT_IGES
100
AcDbLine
 62
7
  6
CONTINUOUS
 10
3.9344712452
 20
17.5742089984
 30
0.0
 11
5.0675304213
 21
16.9199948307
 31
0.0
  0
LINE
  5
3CC
100
AcDbEntity
  8
IMPORT_IGES
100
AcDbLine
 62
7
  6
CONTINUOUS
 10
5.4053249677
 20
16.7249564931
 30
0.0
 11
6.7245458222
 21
15.9632549054
 31
0.0
  0
LINE
  5
3CD
100
AcDbEntity
  8
0
100
AcDbLine
 62
7
  6
CONTINUOUS
 10
6.7520653331
 20
15.9816065031
 30
0.0
 11
3.9252788582
 21
17.6137575858
 31
0.0
  0
LINE
  5
3CE
100
AcDbEntity
  8
RACCORDO
100
AcDbLine
 62
7
  6
CONTINUOUS
 10
12.9055349793
 20
-14.3552126485
 30
0.0
 11
12.777722594
 21
-14.4290099179
 31
0.0
  0
LINE
  5
3CF
100
AcDbEntity
  8
0
100
AcDbLine
 62
7
  6
CONTINUOUS
 10
12.9410248561
 20
-14.3959565091
 30
0.0
 11
11.8447402698
 21
-15.0289374896
 31
0.0
  0
LINE
  5
3D0
100
AcDbEntity
  8
ASSI
100
AcDbLine
 62
7
  6
CONTINUOUS
 10
-3.677353111
 20
-23.1814845963
 30
0.0
 11
3.0767507208
 21
-19.4178767881
 31
0.0
  0
LINE
  5
3D1
100
AcDbEntity
  8
0
100
AcDbLine
 62
7
  6
CONTINUOUS
 10
3.9252788582
 20
18.1853924952
 30
0.0
 11
5.4809137768
 21
17.2871883898
 31
0.0
  0
LINE
  5
3D2
100
AcDbEntity
  8
0
100
AcDbLine
 62
7
  6
CONTINUOUS
 10
7.2114883834
 20
16.2879763012
 30
0.0
 11
5.6930458112
 21
17.1647060118
 31
0.0
  0
LINE
  5
3D3
100
AcDbEntity
  8
0
100
AcDbLine
 62
7
  6
CONTINUOUS
 10
3.7743747407
 20
18.3949931829
 30
0.0
 11
3.8640416147
 21
18.3432206536
 31
0.0
  0
LINE
  5
3D4
100
AcDbEntity
  8
0
100
AcDbLine
 62
7
  6
CONTINUOUS
 10
5.5421510204
 20
17.3743013144
 30
0.0
 11
5.6318085676
 21
17.3225341703
 31
0.0
  0
LINE
  5
3D5
100
AcDbEntity
  8
0
100
AcDbLine
 62
7
  6
CONTINUOUS
 10
7.3995848473
 20
16.3018423019
 30
0.0
 11
7.3099179734
 21
16.3536148311
 31
0.0
  0
LINE
  5
3D6
100
AcDbEntity
  8
0
100
AcDbLine
 62
250
  6
CONTINUOUS
 10
13.4389502439
 20
13.83822934
 30
0.0
 11
13.3087802482
 21
13.9133878641
 31
0.0
  0
LINE
  5
3D7
100
AcDbEntity
  8
0
100
AcDbLine
 62
7
  6
CONTINUOUS
 10
13.5608711052
 20
13.848864379
 30
0.0
 11
13.3765427914
 21
13.9552932372
 31
0.0
  0
LINE
  5
3D8
100
AcDbEntity
  8
0
100
AcDbLine
 62
7
  6
CONTINUOUS
 10
11.562032095
 20
-16.5189338463
 30
0.0
 11
13.4389502439
 21
-15.3973960641
 31
0.0
  0
LINE
  5
3D9
100
AcDbEntity
  8
IMPORT_IGES
100
AcDbLine
 62
7
  6
CONTINUOUS
 10
1.8025442999
 20
-21.6108319928
 30
0.0
 11
1.9032193864
 21
-21.5527034595
 31
0.0
  0
LINE
  5
3DA
100
AcDbEntity
  8
DRAFT
100
AcDbLine
 62
7
  6
CONTINUOUS
 10
13.6463246543
 20
-15.3563088267
 30
0.0
 11
11.562032095
 21
-16.5597573602
 31
0.0
  0
LINE
  5
3DB
100
AcDbEntity
  8
0
100
AcDbLine
 62
250
  6
CONTINUOUS
 10
1.832503326
 20
-22.0391785422
 30
0.0
 11
1.904384806
 21
-22.0005230084
 31
0.0
  0
LINE
  5
3DC
100
AcDbEntity
  8
0
100
AcDbLine
 62
7
  6
CONTINUOUS
 10
6.2675812584
 20
19.5850170024
 30
0.0
 11
7.7802169323
 21
18.7116401221
 31
0.0
  0
LINE
  5
3DD
100
AcDbEntity
  8
0
100
AcDbLine
 62
7
  6
CONTINUOUS
 10
8.0353482114
 20
18.5643305191
 30
0.0
 11
9.5479838852
 21
17.6909536388
 31
0.0
  0
LINE
  5
3DE
100
AcDbEntity
  8
0
100
AcDbLine
 62
7
  6
CONTINUOUS
 10
5.2776411864
 20
20.1566257158
 30
0.0
 11
6.01246595
 21
19.7323471068
 31
0.0
  0
LINE
  5
3DF
100
AcDbEntity
  8
0
100
AcDbLine
 62
7
  6
CONTINUOUS
 10
10.5379493496
 20
17.1193897095
 30
0.0
 11
9.803124586
 21
17.5436683185
 31
0.0
  0
LINE
  5
3E0
100
AcDbEntity
  8
0
100
AcDbLine
 62
7
  6
CONTINUOUS
 10
6.2682046707
 20
19.7798095127
 30
0.0
 11
7.9463140764
 21
18.8108901735
 31
0.0
  0
LINE
  5
3E1
100
AcDbEntity
  8
0
100
AcDbLine
 62
7
  6
CONTINUOUS
 10
8.0359716237
 20
18.7591230294
 30
0.0
 11
9.7140810294
 21
17.7902036902
 31
0.0
  0
LINE
  5
3E2
100
AcDbEntity
  8
0
100
AcDbLine
 62
7
  6
CONTINUOUS
 10
9.8037479033
 20
17.7384311609
 30
0.0
 11
10.7040211963
 21
17.2186246446
 31
0.0
  0
LINE
  5
3E3
100
AcDbEntity
  8
0
100
AcDbLine
 62
7
  6
CONTINUOUS
 10
6.1785377967
 20
19.8315820419
 30
0.0
 11
5.2782645038
 21
20.3513885582
 31
0.0
  0
LINE
  5
3E4
100
AcDbEntity
  8
0
100
AcDbLine
 62
7
  6
CONTINUOUS
 10
11.562032095
 20
17.2217003421
 30
0.0
 11
5.2687817425
 21
20.8553442228
 31
0.0
  0
LINE
  5
3E5
100
AcDbEntity
  8
0
100
AcDbLine
 62
7
  6
CONTINUOUS
 10
5.5560090738
 20
20.8936124397
 30
0.0
 11
5.9154547628
 21
20.6860730037
 31
0.0
  0
LINE
  5
3E6
100
AcDbEntity
  8
ASSI
100
AcDbLine
 62
7
  6
CONTINUOUS
 10
10.4861874928
 20
19.1390182054
 30
0.0
 11
11.0025536534
 21
18.8408748558
 31
0.0
  0
LINE
  5
3E7
100
AcDbEntity
  8
ASSI
100
AcDbLine
 62
7
  6
CONTINUOUS
 10
11.0025536534
 20
19.1470512096
 30
0.0
 11
10.4861885729
 21
19.4451939356
 31
0.0
  0
LINE
  5
3E8
100
AcDbEntity
  8
ASSI
100
AcDbLine
 62
7
  6
CONTINUOUS
 10
11.0732643315
 20
19.187878669
 30
0.0
 11
10.556899251
 21
19.4860213949
 31
0.0
  0
LINE
  5
3E9
100
AcDbEntity
  8
ASSI
100
AcDbLine
 62
7
  6
CONTINUOUS
 10
3.9929043576
 20
-25.166050913
 30
0.0
 11
11.562032095
 21
-20.9482850979
 31
0.0
  0
LINE
  5
3EA
100
AcDbEntity
  8
RACCORDO
100
AcDbLine
 62
7
  6
CONTINUOUS
 10
5.6222812852
 20
23.9783543951
 30
0.0
 11
11.2085325523
 21
20.7529229256
 31
0.0
  0
LINE
  5
3EB
100
AcDbEntity
  8
RACCORDO
100
AcDbLine
 62
250
  6
CONTINUOUS
 10
11.562032095
 20
-23.8672285136
 30
0.0
 11
13.6463246543
 21
-22.57827073
 31
0.0
  0
LINE
  5
3EC
100
AcDbEntity
  8
RACCORDO
100
AcDbLine
 62
7
  6
CONTINUOUS
 10
11.4628363684
 20
-24.0934892885
 30
0.0
 11
13.5471289276
 21
-22.8045315048
 31
0.0
  0
LINE
  5
3ED
100
AcDbEntity
  8
RACCORDO
100
AcDbLine
 62
7
  6
CONTINUOUS
 10
7.7806294131
 20
25.1390441714
 30
0.0
 11
13.2928251116
 21
21.9563714591
 31
0.0
  0
ARC
  5
3EE
100
AcDbEntity
  8
IMPORT_IGES
100
AcDbCircle
 62
7
  6
CONTINUOUS
 10
2.2349021673
 20
10.279410041
 30
0.0
 40
1.1646511392
100
AcDbArc
 50
186.9150320119
 51
189.1205972565
  0
ARC
  5
3EF
100
AcDbEntity
  8
IMPORT_IGES
100
AcDbCircle
 62
7
  6
CONTINUOUS
 10
0.4671352143
 20
11.3000965244
 30
0.0
 40
1.1646511392
100
AcDbArc
 50
186.9150320119
 51
189.1205972565
  0
SPLINE
  5
3F0
100
AcDbEntity
  8
0
100
AcDbSpline
 62
7
  6
CONTINUOUS
 70
0
 71
3
 72
14
 73
10
 74
0
 42
0.0000001
 43
0.0000001
 44
0.0000000001
 40
0.0
 40
0.0
 40
0.0
 40
0.0
 40
0.0932913
 40
0.1919669421
 40
0.3002123563
 40
0.419972391
 40
0.5512369824
 40
0.6930772922
 40
1.0
 40
1.0
 40
1.0
 40
1.0
 10
5.8716977641
 20
22.8367136626
 30
0.0
 10
5.8266288123
 20
22.8106980356
 30
0.0
 10
5.7418571203
 20
22.7421863701
 30
0.0
 10
5.6461775121
 20
22.6023475969
 30
0.0
 10
5.5834658548
 20
22.4295844868
 30
0.0
 10
5.5534094096
 20
22.2304133499
 30
0.0
 10
5.55608751
 20
22.01044625
 30
0.0
 10
5.6045198181
 20
21.6898244458
 30
0.0
 10
5.6872796859
 20
21.4506562202
 30
0.0
 10
5.7586301074
 20
21.2950286223
 30
0.0
  0
SPLINE
  5
3F1
100
AcDbEntity
  8
0
100
AcDbSpline
 62
7
  6
CONTINUOUS
 70
0
 71
3
 72
11
 73
7
 74
0
 42
0.0000001
 43
0.0000001
 44
0.0000000001
 40
0.0
 40
0.0
 40
0.0
 40
0.0
 40
0.2176261495
 40
0.4508164956
 40
0.7107715228
 40
1.0
 40
1.0
 40
1.0
 40
1.0
 10
6.1258889989
 20
22.3964984742
 30
0.0
 10
6.1594062776
 20
22.4158586349
 30
0.0
 10
6.2364309751
 20
22.4438797711
 30
0.0
 10
6.3645636871
 20
22.4472652585
 30
0.0
 10
6.5009607737
 20
22.4139968093
 30
0.0
 10
6.5897975051
 20
22.3719115401
 30
0.0
 10
6.6343469148
 20
22.3461892692
 30
0.0
  0
SPLINE
  5
3F2
100
AcDbEntity
  8
0
100
AcDbSpline
 62
7
  6
CONTINUOUS
 70
0
 71
3
 72
9
 73
5
 74
0
 42
0.0000001
 43
0.0000001
 44
0.0000000001
 40
0.0
 40
0.0
 40
0.0
 40
0.0
 40
0.4875911201
 40
1.0
 40
1.0
 40
1.0
 40
1.0
 10
6.2536921518
 20
22.1766314517
 30
0.0
 10
6.2303507883
 20
22.1631498121
 30
0.0
 10
6.1866739836
 20
22.1276591579
 30
0.0
 10
6.1554182328
 20
22.08111172
 30
0.0
 10
6.1426536874
 20
22.0558236615
 30
0.0
  0
SPLINE
  5
3F3
100
AcDbEntity
  8
0
100
AcDbSpline
 62
7
  6
CONTINUOUS
 70
0
 71
3
 72
15
 73
11
 74
0
 42
0.0000001
 43
0.0000001
 44
0.0000000001
 40
0.0
 40
0.0
 40
0.0
 40
0.0
 40
0.086935658
 40
0.1864051152
 40
0.3038015042
 40
0.4376166892
 40
0.5821217734
 40
0.7294379973
 40
0.8711752722
 40
1.0
 40
1.0
 40
1.0
 40
1.0
 10
6.5072586955
 20
21.7362232793
 30
0.0
 10
6.5199549406
 20
21.7435538287
 30
0.0
 10
6.5518531627
 20
21.7517497636
 30
0.0
 10
6.6031957146
 20
21.7414640805
 30
0.0
 10
6.6556476781
 20
21.7128109269
 30
0.0
 10
6.7059446221
 20
21.6682724326
 30
0.0
 10
6.7503470109
 20
21.6114287133
 30
0.0
 10
6.7853075392
 20
21.5468145962
 30
0.0
 10
6.8079920715
 20
21.479745235
 30
0.0
 10
6.8140695676
 20
21.4340662396
 30
0.0
 10
6.8140695676
 20
21.4123416581
 30
0.0
  0
SPLINE
  5
3F4
100
AcDbEntity
  8
ASSI
100
AcDbSpline
 62
7
  6
CONTINUOUS
 70
0
 71
3
 72
11
 73
7
 74
0
 42
0.0000001
 43
0.0000001
 44
0.0000000001
 40
0.0
 40
0.0
 40
0.0
 40
0.0
 40
0.2147294447
 40
0.4466716011
 40
0.7071161737
 40
1.0
 40
1.0
 40
1.0
 40
1.0
 10
9.1081737273
 20
20.6072644045
 30
0.0
 10
9.1399953964
 20
20.6256514465
 30
0.0
 10
9.2140366066
 20
20.6514492183
 30
0.0
 10
9.3368814218
 20
20.6504623799
 30
0.0
 10
9.4672975877
 20
20.6131313299
 30
0.0
 10
9.5514141517
 20
20.5682317624
 30
0.0
 10
9.593604501
 20
20.5411609751
 30
0.0
  0
SPLINE
  5
3F5
100
AcDbEntity
  8
ASSI
100
AcDbSpline
 62
7
  6
CONTINUOUS
 70
0
 71
3
 72
17
 73
13
 74
0
 42
0.0000001
 43
0.0000001
 44
0.0000000001
 40
0.0
 40
0.0
 40
0.0
 40
0.0
 40
0.042900123
 40
0.0876288402
 40
0.1356580944
 40
0.1879223504
 40
0.3060199077
 40
0.4405930486
 40
0.5855377196
 40
0.7326294216
 40
0.8732397824
 40
1.0
 40
1.0
 40
1.0
 40
1.0
 10
8.9206723397
 20
20.9320190979
 30
0.0
 10
8.8887172004
 20
20.9135601592
 30
0.0
 10
8.8281760393
 20
20.8670014119
 30
0.0
 10
8.7557238137
 20
20.7741905652
 30
0.0
 10
8.7020531831
 20
20.6605939723
 30
0.0
 10
8.6547513876
 20
20.477867572
 30
0.0
 10
8.6515889391
 20
20.2119552532
 30
0.0
 10
8.7243623045
 20
19.8756848661
 30
0.0
 10
8.8669890938
 20
19.5354728238
 30
0.0
 10
9.0676897164
 20
19.2198738755
 30
0.0
 10
9.3093535574
 20
18.9553409523
 30
0.0
 10
9.4973411652
 20
18.8184933713
 30
0.0
 10
9.593604501
 20
18.7672743777
 30
0.0
  0
SPLINE
  5
3F6
100
AcDbEntity
  8
ASSI
100
AcDbSpline
 62
7
  6
CONTINUOUS
 70
0
 71
3
 72
11
 73
7
 74
0
 42
0.0000001
 43
0.0000001
 44
0.0000000001
 40
0.0
 40
0.0
 40
0.0
 40
0.0
 40
0.2147301433
 40
0.4466721152
 40
0.7071156783
 40
1.0
 40
1.0
 40
1.0
 40
1.0
 10
10.6585431811
 20
19.7120965894
 30
0.0
 10
10.6903641051
 20
19.7304853937
 30
0.0
 10
10.7644062701
 20
19.7562830151
 30
0.0
 10
10.8872510706
 20
19.755296512
 30
0.0
 10
11.017667804
 20
19.7179659075
 30
0.0
 10
11.1017844923
 20
19.6730660886
 30
0.0
 10
11.1439750096
 20
19.6459951107
 30
0.0
  0
SPLINE
  5
3F7
100
AcDbEntity
  8
ASSI
100
AcDbSpline
 62
7
  6
CONTINUOUS
 70
0
 71
3
 72
17
 73
13
 74
0
 42
0.0000001
 43
0.0000001
 44
0.0000000001
 40
0.0
 40
0.0
 40
0.0
 40
0.0
 40
0.042900124
 40
0.0876288423
 40
0.1356580978
 40
0.187922355
 40
0.3060199151
 40
0.4405930592
 40
0.5855377337
 40
0.7326294394
 40
0.8732398047
 40
1.0
 40
1.0
 40
1.0
 40
1.0
 10
10.4710428184
 20
20.0368546476
 30
0.0
 10
10.4390876778
 20
20.018395708
 30
0.0
 10
10.378546514
 20
19.9718369586
 30
0.0
 10
10.3060942853
 20
19.8790261078
 30
0.0
 10
10.2524236523
 20
19.7654295099
 30
0.0
 10
10.2051218546
 20
19.5827031017
 30
0.0
 10
10.2019594057
 20
19.3167907714
 30
0.0
 10
10.2747327742
 20
18.9805203694
 30
0.0
 10
10.4173595688
 20
18.6403083127
 30
0.0
 10
10.6180602019
 20
18.3247093465
 30
0.0
 10
10.8597240324
 20
18.0601764366
 30
0.0
 10
11.0477116346
 20
17.9233288284
 30
0.0
 10
11.1439750096
 20
17.8721099448
 30
0.0
  0
SPLINE
  5
3F8
100
AcDbEntity
  8
0
100
AcDbSpline
 62
7
  6
CONTINUOUS
 70
0
 71
3
 72
11
 73
7
 74
0
 42
0.0000001
 43
0.0000001
 44
0.0000000001
 40
0.0
 40
0.0
 40
0.0
 40
0.0
 40
0.2649225527
 40
0.5230304449
 40
0.7697454795
 40
1.0
 40
1.0
 40
1.0
 40
1.0
 10
6.0110511807
 20
20.8598229473
 30
0.0
 10
6.0554319933
 20
20.797838276
 30
0.0
 10
6.1484218881
 20
20.6791658277
 30
0.0
 10
6.3017780739
 20
20.5188269318
 30
0.0
 10
6.4629089462
 20
20.381238704
 30
0.0
 10
6.5769661203
 20
20.3041246366
 30
0.0
 10
6.6343469148
 20
20.270993685
 30
0.0
  0
SPLINE
  5
3F9
100
AcDbEntity
  8
0
100
AcDbSpline
 62
7
  6
CONTINUOUS
 70
0
 71
3
 72
14
 73
10
 74
0
 42
0.0000001
 43
0.0000001
 44
0.0000000001
 40
0.0
 40
0.0
 40
0.0
 40
0.0
 40
0.3059384598
 40
0.4498086578
 40
0.5831153057
 40
0.7040160674
 40
0.8121621094
 40
0.9092741888
 40
1.0
 40
1.0
 40
1.0
 40
1.0
 10
6.2520297381
 20
21.2978100752
 30
0.0
 10
6.30106693
 20
21.2128751675
 30
0.0
 10
6.387057576
 20
21.0949533184
 30
0.0
 10
6.5236823173
 20
20.9667792205
 30
0.0
 10
6.6284446489
 20
20.8929997542
 30
0.0
 10
6.7338610104
 20
20.8427159874
 30
0.0
 10
6.8363659071
 20
20.81763041
 30
0.0
 10
6.9325289957
 20
20.8201982262
 30
0.0
 10
6.9903819826
 20
20.8412118967
 30
0.0
 10
7.0155707646
 20
20.8557514101
 30
0.0
  0
SPLINE
  5
3FA
100
AcDbEntity
  8
0
100
AcDbSpline
 62
7
  6
CONTINUOUS
 70
0
 71
3
 72
11
 73
7
 74
0
 42
0.0000001
 43
0.0000001
 44
0.0000000001
 40
0.0
 40
0.0
 40
0.0
 40
0.0
 40
0.2897004605
 40
0.5490906429
 40
0.7822237353
 40
1.0
 40
1.0
 40
1.0
 40
1.0
 10
6.8140695676
 20
21.4123416581
 30
0.0
 10
6.8140695676
 20
21.3994649018
 30
0.0
 10
6.8121180109
 20
21.3749756293
 30
0.0
 10
6.8021996061
 20
21.341328827
 30
0.0
 10
6.7855025534
 20
21.3140254359
 30
0.0
 10
6.7698176035
 20
21.3008395846
 30
0.0
 10
6.7614347282
 20
21.2959994858
 30
0.0
  0
SPLINE
  5
3FB
100
AcDbEntity
  8
RACCORDO
100
AcDbSpline
 62
7
  6
CONTINUOUS
 70
0
 71
3
 72
9
 73
5
 74
0
 42
0.0000001
 43
0.0000001
 44
0.0000000001
 40
0.0
 40
0.0
 40
0.0
 40
0.0
 40
0.2321689836
 40
1.0
 40
1.0
 40
1.0
 40
1.0
 10
12.777722594
 20
10.0650983859
 30
0.0
 10
12.7695050338
 20
10.0603536697
 30
0.0
 10
12.7328796736
 20
10.0420612029
 30
0.0
 10
12.6926398953
 20
10.0316134308
 30
0.0
 10
12.6615798049
 20
10.027130004
 30
0.0
  0
SPLINE
  5
3FC
100
AcDbEntity
  8
RACCORDO
100
AcDbSpline
 62
7
  6
CONTINUOUS
 70
0
 71
3
 72
9
 73
5
 74
0
 42
0.0000001
 43
0.0000001
 44
0.0000000001
 40
0.0
 40
0.0
 40
0.0
 40
0.0
 40
0.2321689836
 40
1.0
 40
1.0
 40
1.0
 40
1.0
 10
12.777722594
 20
-14.4290099179
 30
0.0
 10
12.7695050338
 20
-14.4337546341
 30
0.0
 10
12.7328796736
 20
-14.4520471009
 30
0.0
 10
12.6926398953
 20
-14.462494873
 30
0.0
 10
12.6615798049
 20
-14.4669782998
 30
0.0
  0
SPLINE
  5
3FD
100
AcDbEntity
  8
RACCORDO
100
AcDbSpline
 62
7
  6
CONTINUOUS
 70
0
 71
3
 72
9
 73
5
 74
0
 42
0.0000001
 43
0.0000001
 44
0.0000000001
 40
0.0
 40
0.0
 40
0.0
 40
0.0
 40
0.2664896965
 40
1.0
 40
1.0
 40
1.0
 40
1.0
 10
12.6615798049
 20
12.068305696
 30
0.0
 10
12.6723564817
 20
12.0698612755
 30
0.0
 10
12.7125019487
 20
12.0773153739
 30
0.0
 10
12.751768117
 20
12.0912882882
 30
0.0
 10
12.777722594
 20
12.1062740779
 30
0.0
  0
SPLINE
  5
3FE
100
AcDbEntity
  8
0
100
AcDbSpline
 62
7
  6
CONTINUOUS
 70
0
 71
3
 72
16
 73
12
 74
0
 42
0.0000001
 43
0.0000001
 44
0.0000000001
 40
0.0
 40
0.0
 40
0.0
 40
0.0
 40
0.0426042681
 40
0.0869232099
 40
0.1855496879
 40
0.3019618723
 40
0.434522423
 40
0.5775433711
 40
0.7256901258
 40
0.8703163456
 40
1.0
 40
1.0
 40
1.0
 40
1.0
 10
7.0862847231
 20
20.896580763
 30
0.0
 10
7.1049603032
 20
20.9073610865
 30
0.0
 10
7.1403509082
 20
20.9344048603
 30
0.0
 10
7.1994860376
 20
21.0084036629
 30
0.0
 10
7.243657047
 20
21.135778405
 30
0.0
 10
7.2481563008
 20
21.3133548428
 30
0.0
 10
7.2093858271
 20
21.5092660088
 30
0.0
 10
7.1302867721
 20
21.7098039789
 30
0.0
 10
7.0134985343
 20
21.8983200263
 30
0.0
 10
6.87184115
 20
22.0595224539
 30
0.0
 10
6.7619008323
 20
22.1466763281
 30
0.0
 10
6.7050575929
 20
22.179496902
 30
0.0
  0
SPLINE
  5
3FF
100
AcDbEntity
  8
ASSI
100
AcDbSpline
 62
7
  6
CONTINUOUS
 70
0
 71
3
 72
9
 73
5
 74
0
 42
0.0000001
 43
0.0000001
 44
0.0000000001
 40
0.0
 40
0.0
 40
0.0
 40
0.0
 40
0.2469997866
 40
1.0
 40
1.0
 40
1.0
 40
1.0
 10
10.6853338307
 20
19.7220309293
 30
0.0
 10
10.6813726639
 20
19.7186858317
 30
0.0
 10
10.6656763787
 20
19.7047427544
 30
0.0
 10
10.6513812505
 20
19.689235298
 30
0.0
 10
10.6414974954
 20
19.6769009676
 30
0.0
  0
SPLINE
  5
400
100
AcDbEntity
  8
ASSI
100
AcDbSpline
 62
7
  6
CONTINUOUS
 70
0
 71
3
 72
9
 73
5
 74
0
 42
0.0000001
 43
0.0000001
 44
0.0000000001
 40
0.0
 40
0.0
 40
0.0
 40
0.0
 40
0.2336354273
 40
1.0
 40
1.0
 40
1.0
 40
1.0
 10
10.6414974954
 20
19.6769009676
 30
0.0
 10
10.631273977
 20
19.6641426333
 30
0.0
 10
10.5914009893
 20
19.6064033865
 30
0.0
 10
10.5677430013
 20
19.5385417449
 30
0.0
 10
10.556899251
 20
19.4860213949
 30
0.0
  0
SPLINE
  5
401
100
AcDbEntity
  8
RACCORDO
100
AcDbSpline
 62
7
  6
CONTINUOUS
 70
0
 71
3
 72
9
 73
5
 74
0
 42
0.0000001
 43
0.0000001
 44
0.0000000001
 40
0.0
 40
0.0
 40
0.0
 40
0.0
 40
0.2664896965
 40
1.0
 40
1.0
 40
1.0
 40
1.0
 10
12.6615798049
 20
-12.4258026078
 30
0.0
 10
12.6723564817
 20
-12.4242470282
 30
0.0
 10
12.7125019487
 20
-12.4167929299
 30
0.0
 10
12.751768117
 20
-12.4028200156
 30
0.0
 10
12.777722594
 20
-12.3878342259
 30
0.0
  0
SPLINE
  5
402
100
AcDbEntity
  8
0
100
AcDbSpline
 62
7
  6
CONTINUOUS
 70
0
 71
3
 72
16
 73
12
 74
0
 42
0.0000001
 43
0.0000001
 44
0.0000000001
 40
0.0
 40
0.0
 40
0.0
 40
0.0
 40
0.0426042688
 40
0.0869231319
 40
0.1855493329
 40
0.3019612933
 40
0.4345217783
 40
0.5775427989
 40
0.725689713
 40
0.8703161554
 40
1.0
 40
1.0
 40
1.0
 40
1.0
 10
7.0155707646
 20
20.8557514101
 30
0.0
 10
7.0342465519
 20
20.8665314812
 30
0.0
 10
7.0696376074
 20
20.8935747914
 30
0.0
 10
7.1287736973
 20
20.9675729138
 30
0.0
 10
7.1729458501
 20
21.094947375
 30
0.0
 10
7.1774459898
 20
21.2725239761
 30
0.0
 10
7.1386760523
 20
21.4684356516
 30
0.0
 10
7.0595772181
 20
21.6689743782
 30
0.0
 10
6.9427888708
 20
21.8574912818
 30
0.0
 10
6.8011310915
 20
22.0186944577
 30
0.0
 10
6.6911903772
 20
22.10584874
 30
0.0
 10
6.6343469148
 20
22.1386694427
 30
0.0
  0
SPLINE
  5
403
100
AcDbEntity
  8
ASSI
100
AcDbSpline
 62
7
  6
CONTINUOUS
 70
0
 71
3
 72
11
 73
7
 74
0
 42
0.0000001
 43
0.0000001
 44
0.0000000001
 40
0.0
 40
0.0
 40
0.0
 40
0.0
 40
0.2920048394
 40
0.5520849991
 40
0.7843849251
 40
1.0
 40
1.0
 40
1.0
 40
1.0
 10
11.2146856878
 20
19.9933338588
 30
0.0
 10
11.1560251429
 20
20.0298619716
 30
0.0
 10
11.0391756331
 20
20.0902599504
 30
0.0
 10
10.8584610605
 20
20.1396114527
 30
0.0
 10
10.6884540833
 20
20.13935757
 30
0.0
 10
10.5860258883
 20
20.1032373069
 30
0.0
 10
10.5418333373
 20
20.0777288815
 30
0.0
  0
SPLINE
  5
404
100
AcDbEntity
  8
ASSI
100
AcDbSpline
 62
7
  6
CONTINUOUS
 70
0
 71
3
 72
11
 73
7
 74
0
 42
0.0000001
 43
0.0000001
 44
0.0000000001
 40
0.0
 40
0.0
 40
0.0
 40
0.0
 40
0.256273411
 40
0.5201385967
 40
0.7733355835
 40
1.0
 40
1.0
 40
1.0
 40
1.0
 10
10.5762903689
 20
19.0869724238
 30
0.0
 10
10.5991562654
 20
18.9954469635
 30
0.0
 10
10.6661433853
 20
18.8144861883
 30
0.0
 10
10.8131183192
 20
18.5688916806
 30
0.0
 10
10.9957784191
 20
18.362860716
 30
0.0
 10
11.1404498781
 20
18.257540602
 30
0.0
 10
11.2146856878
 20
18.219447218
 30
0.0
  0
SPLINE
  5
405
100
AcDbEntity
  8
ASSI
100
AcDbSpline
 62
7
  6
CONTINUOUS
 70
0
 71
3
 72
11
 73
7
 74
0
 42
0.0000001
 43
0.0000001
 44
0.0000000001
 40
0.0
 40
0.0
 40
0.0
 40
0.0
 40
0.2920048395
 40
0.5520849992
 40
0.7843849252
 40
1.0
 40
1.0
 40
1.0
 40
1.0
 10
9.6643151791
 20
20.8884983117
 30
0.0
 10
9.6056546369
 20
20.925026423
 30
0.0
 10
9.4888051324
 20
20.9854243994
 30
0.0
 10
9.3080905677
 20
21.0347758998
 30
0.0
 10
9.138083598
 20
21.0345220174
 30
0.0
 10
9.0356554076
 20
20.998401756
 30
0.0
 10
8.9914628585
 20
20.9728933318
 30
0.0
  0
SPLINE
  5
406
100
AcDbEntity
  8
0
100
AcDbSpline
 62
7
  6
CONTINUOUS
 70
0
 71
3
 72
12
 73
8
 74
0
 42
0.0000001
 43
0.0000001
 44
0.0000000001
 40
0.0
 40
0.0
 40
0.0
 40
0.0
 40
0.2571312323
 40
0.5390529822
 40
0.6744924974
 40
0.7985809595
 40
1.0
 40
1.0
 40
1.0
 40
1.0
 10
6.5253345343
 20
21.6607085663
 30
0.0
 10
6.5253345343
 20
21.621091032
 30
0.0
 10
6.5447899527
 20
21.5381475475
 30
0.0
 10
6.5969678477
 20
21.4468201225
 30
0.0
 10
6.6539629959
 20
21.3851681945
 30
0.0
 10
6.7101471231
 20
21.3421298592
 30
0.0
 10
6.7607446898
 20
21.3233029778
 30
0.0
 10
6.791726167
 20
21.3251020695
 30
0.0
  0
SPLINE
  5
407
100
AcDbEntity
  8
0
100
AcDbSpline
 62
7
  6
CONTINUOUS
 70
0
 71
3
 72
11
 73
7
 74
0
 42
0.0000001
 43
0.0000001
 44
0.0000000001
 40
0.0
 40
0.0
 40
0.0
 40
0.0
 40
0.2872662793
 40
0.5471357721
 40
0.7815981133
 40
1.0
 40
1.0
 40
1.0
 40
1.0
 10
6.7050575929
 20
22.179496902
 30
0.0
 10
6.671939315
 20
22.1986189807
 30
0.0
 10
6.6056351171
 20
22.2299334689
 30
0.0
 10
6.5037228494
 20
22.2547239273
 30
0.0
 10
6.4075021376
 20
22.2532098807
 30
0.0
 10
6.3495759506
 20
22.2319990805
 30
0.0
 10
6.3243992854
 20
22.2174568638
 30
0.0
  0
SPLINE
  5
408
100
AcDbEntity
  8
0
100
AcDbSpline
 62
7
  6
CONTINUOUS
 70
0
 71
3
 72
12
 73
8
 74
0
 42
0.0000001
 43
0.0000001
 44
0.0000000001
 40
0.0
 40
0.0
 40
0.0
 40
0.0
 40
0.2894475453
 40
0.4896691354
 40
0.6742468304
 40
0.8435740802
 40
1.0
 40
1.0
 40
1.0
 40
1.0
 10
6.0034308399
 20
21.7806451134
 30
0.0
 10
5.9934988646
 20
21.8378469119
 30
0.0
 10
5.9831415625
 20
21.936006192
 30
0.0
 10
5.9888749213
 20
22.0714964304
 30
0.0
 10
6.0096757831
 20
22.1811621906
 30
0.0
 10
6.0460129887
 20
22.2774888773
 30
0.0
 10
6.0818125506
 20
22.332943843
 30
0.0
 10
6.1019198391
 20
22.3570302159
 30
0.0
  0
SPLINE
  5
409
100
AcDbEntity
  8
0
100
AcDbSpline
 62
7
  6
CONTINUOUS
 70
0
 71
3
 72
9
 73
5
 74
0
 42
0.0000001
 43
0.0000001
 44
0.0000000001
 40
0.0
 40
0.0
 40
0.0
 40
0.0
 40
0.2535942141
 40
1.0
 40
1.0
 40
1.0
 40
1.0
 10
6.1019198391
 20
22.3570302159
 30
0.0
 10
6.1059675002
 20
22.3618788794
 30
0.0
 10
6.1223942271
 20
22.3806037406
 30
0.0
 10
6.1407119117
 20
22.3976809187
 30
0.0
 10
6.1552833056
 20
22.4092252149
 30
0.0
  0
SPLINE
  5
40A
100
AcDbEntity
  8
0
100
AcDbSpline
 62
7
  6
CONTINUOUS
 70
0
 71
3
 72
11
 73
7
 74
0
 42
0.0000001
 43
0.0000001
 44
0.0000000001
 40
0.0
 40
0.0
 40
0.0
 40
0.0
 40
0.2892208866
 40
0.5491721088
 40
0.7823707051
 40
1.0
 40
1.0
 40
1.0
 40
1.0
 10
6.7050575929
 20
22.8020554879
 30
0.0
 10
6.6382407219
 20
22.8406347119
 30
0.0
 10
6.5049952241
 20
22.9037500262
 30
0.0
 10
6.3004140777
 20
22.9536304473
 30
0.0
 10
6.1082319079
 20
22.9485665145
 30
0.0
 10
5.9926929179
 20
22.9065668226
 30
0.0
 10
5.9424119679
 20
22.8775431571
 30
0.0
  0
SPLINE
  5
40B
100
AcDbEntity
  8
0
100
AcDbSpline
 62
7
  6
CONTINUOUS
 70
0
 71
3
 72
10
 73
6
 74
0
 42
0.0000001
 43
0.0000001
 44
0.0000000001
 40
0.0
 40
0.0
 40
0.0
 40
0.0
 40
0.473148464
 40
0.7336018238
 40
1.0
 40
1.0
 40
1.0
 40
1.0
 10
6.7050575929
 20
20.7268603506
 30
0.0
 10
6.6148213497
 20
20.7789616265
 30
0.0
 10
6.4874835626
 20
20.8822579433
 30
0.0
 10
6.3410614009
 20
21.0468499329
 30
0.0
 10
6.27299784
 20
21.1411829131
 30
0.0
 10
6.2412420661
 20
21.1905118595
 30
0.0
  0
SPLINE
  5
40C
100
AcDbEntity
  8
0
100
AcDbSpline
 62
7
  6
CONTINUOUS
 70
0
 71
3
 72
15
 73
11
 74
0
 42
0.0000001
 43
0.0000001
 44
0.0000000001
 40
0.0
 40
0.0
 40
0.0
 40
0.0
 40
0.086935658
 40
0.1864051152
 40
0.3038015042
 40
0.4376166892
 40
0.5821217734
 40
0.7294379973
 40
0.8711752722
 40
1.0
 40
1.0
 40
1.0
 40
1.0
 10
6.7614347282
 20
21.2959994858
 30
0.0
 10
6.7487384831
 20
21.2886689364
 30
0.0
 10
6.716840261
 20
21.2804730014
 30
0.0
 10
6.6654977091
 20
21.2907586846
 30
0.0
 10
6.6130457456
 20
21.3194118381
 30
0.0
 10
6.5627488016
 20
21.3639503325
 30
0.0
 10
6.5183464128
 20
21.4207940518
 30
0.0
 10
6.4833858845
 20
21.4854081688
 30
0.0
 10
6.4607013522
 20
21.5524775301
 30
0.0
 10
6.4546238562
 20
21.5981565255
 30
0.0
 10
6.4546238562
 20
21.619881107
 30
0.0
  0
SPLINE
  5
40D
100
AcDbEntity
  8
0
100
AcDbSpline
 62
7
  6
CONTINUOUS
 70
0
 71
3
 72
12
 73
8
 74
0
 42
0.0000001
 43
0.0000001
 44
0.0000000001
 40
0.0
 40
0.0
 40
0.0
 40
0.0
 40
0.3021493749
 40
0.5682087233
 40
0.7962260189
 40
0.8998718213
 40
1.0
 40
1.0
 40
1.0
 40
1.0
 10
5.9471535774
 20
21.6685157211
 30
0.0
 10
5.9290789035
 20
21.7467951441
 30
0.0
 10
5.9077105755
 20
21.897545101
 30
0.0
 10
5.9242699753
 20
22.1105562598
 30
0.0
 10
5.9844257608
 20
22.2619262778
 30
0.0
 10
6.0590161511
 20
22.3503421883
 30
0.0
 10
6.1028352436
 20
22.3831822259
 30
0.0
 10
6.1258889989
 20
22.3964984742
 30
0.0
  0
SPLINE
  5
40E
100
AcDbEntity
  8
0
100
AcDbSpline
 62
7
  6
CONTINUOUS
 70
0
 71
3
 72
11
 73
7
 74
0
 42
0.0000001
 43
0.0000001
 44
0.0000000001
 40
0.0
 40
0.0
 40
0.0
 40
0.0
 40
0.2892210454
 40
0.5491722256
 40
0.78237069
 40
1.0
 40
1.0
 40
1.0
 40
1.0
 10
6.6343469148
 20
22.7612280286
 30
0.0
 10
6.5675296711
 20
22.7998074677
 30
0.0
 10
6.4342834378
 20
22.8629230608
 30
0.0
 10
6.2297011438
 20
22.9128033565
 30
0.0
 10
6.037518024
 20
22.90773859
 30
0.0
 10
5.9219787374
 20
22.8657378799
 30
0.0
 10
5.8716977641
 20
22.8367136626
 30
0.0
  0
SPLINE
  5
40F
100
AcDbEntity
  8
0
100
AcDbSpline
 62
7
  6
CONTINUOUS
 70
0
 71
3
 72
10
 73
6
 74
0
 42
0.0000001
 43
0.0000001
 44
0.0000000001
 40
0.0
 40
0.0
 40
0.0
 40
0.0
 40
0.473148464
 40
0.7336018238
 40
1.0
 40
1.0
 40
1.0
 40
1.0
 10
6.6343469148
 20
20.6860328912
 30
0.0
 10
6.5441106716
 20
20.7381341671
 30
0.0
 10
6.4167728845
 20
20.841430484
 30
0.0
 10
6.2703507228
 20
21.0060224736
 30
0.0
 10
6.2022871618
 20
21.1003554538
 30
0.0
 10
6.170531388
 20
21.1496844002
 30
0.0
  0
SPLINE
  5
410
100
AcDbEntity
  8
0
100
AcDbSpline
 62
7
  6
CONTINUOUS
 70
0
 71
3
 72
9
 73
5
 74
0
 42
0.0000001
 43
0.0000001
 44
0.0000000001
 40
0.0
 40
0.0
 40
0.0
 40
0.0
 40
0.233815528
 40
1.0
 40
1.0
 40
1.0
 40
1.0
 10
6.5476204153
 20
21.7479309222
 30
0.0
 10
6.545206361
 20
21.7442624454
 30
0.0
 10
6.5358658552
 20
21.727923472
 30
0.0
 10
6.5304838582
 20
21.7095192913
 30
0.0
 10
6.5280967871
 20
21.6953282142
 30
0.0
  0
SPLINE
  5
411
100
AcDbEntity
  8
0
100
AcDbSpline
 62
7
  6
CONTINUOUS
 70
0
 71
3
 72
9
 73
5
 74
0
 42
0.0000001
 43
0.0000001
 44
0.0000000001
 40
0.0
 40
0.0
 40
0.0
 40
0.0
 40
0.2415615744
 40
1.0
 40
1.0
 40
1.0
 40
1.0
 10
6.5280967871
 20
21.6953282142
 30
0.0
 10
6.5276326076
 20
21.6925686786
 30
0.0
 10
6.5259754106
 20
21.6811010956
 30
0.0
 10
6.5253345343
 20
21.6694944855
 30
0.0
 10
6.5253345343
 20
21.6607085663
 30
0.0
  0
SPLINE
  5
412
100
AcDbEntity
  8
ASSI
100
AcDbSpline
 62
7
  6
CONTINUOUS
 70
0
 71
3
 72
10
 73
6
 74
0
 42
0.0000001
 43
0.0000001
 44
0.0000000001
 40
0.0
 40
0.0
 40
0.0
 40
0.0
 40
0.5306828236
 40
0.7698709272
 40
1.0
 40
1.0
 40
1.0
 40
1.0
 10
10.4861885729
 20
19.4451939356
 30
0.0
 10
10.4978550784
 20
19.501699198
 30
0.0
 10
10.5270836684
 20
19.5829646396
 30
0.0
 10
10.5957702724
 20
19.6682945335
 30
0.0
 10
10.6368800885
 20
19.6995778339
 30
0.0
 10
10.6585431811
 20
19.7120965894
 30
0.0
  0
SPLINE
  5
413
100
AcDbEntity
  8
0
100
AcDbSpline
 62
7
  6
CONTINUOUS
 70
0
 71
3
 72
11
 73
7
 74
0
 42
0.0000001
 43
0.0000001
 44
0.0000000001
 40
0.0
 40
0.0
 40
0.0
 40
0.0
 40
0.2872659616
 40
0.5471355079
 40
0.7815981224
 40
1.0
 40
1.0
 40
1.0
 40
1.0
 10
6.6343469148
 20
22.1386694427
 30
0.0
 10
6.6012290091
 20
22.1577913064
 30
0.0
 10
6.5349255542
 20
22.1891055185
 30
0.0
 10
6.4330144336
 20
22.2138960873
 30
0.0
 10
6.3367946961
 20
22.2123828664
 30
0.0
 10
6.2788687915
 20
22.1911731209
 30
0.0
 10
6.2536921518
 20
22.1766314517
 30
0.0
  0
SPLINE
  5
414
100
AcDbEntity
  8
ASSI
100
AcDbSpline
 62
7
  6
CONTINUOUS
 70
0
 71
3
 72
11
 73
7
 74
0
 42
0.0000001
 43
0.0000001
 44
0.0000000001
 40
0.0
 40
0.0
 40
0.0
 40
0.0
 40
0.2286007377
 40
0.4847823743
 40
0.7491128054
 40
1.0
 40
1.0
 40
1.0
 40
1.0
 10
11.1439750096
 20
18.1786197586
 30
0.0
 10
11.0627126564
 20
18.2203187452
 30
0.0
 10
10.9053578232
 20
18.3382011088
 30
0.0
 10
10.7117018657
 20
18.5689288141
 30
0.0
 10
10.5632018441
 20
18.8411940328
 30
0.0
 10
10.5026719232
 20
19.04014183
 30
0.0
 10
10.4861874928
 20
19.1390182054
 30
0.0
  0
SPLINE
  5
415
100
AcDbEntity
  8
ASSI
100
AcDbSpline
 62
7
  6
CONTINUOUS
 70
0
 71
3
 72
11
 73
7
 74
0
 42
0.0000001
 43
0.0000001
 44
0.0000000001
 40
0.0
 40
0.0
 40
0.0
 40
0.0
 40
0.2920070602
 40
0.5520891075
 40
0.7843851739
 40
1.0
 40
1.0
 40
1.0
 40
1.0
 10
11.1439750096
 20
19.9525064038
 30
0.0
 10
11.0853064322
 20
19.9890395156
 30
0.0
 10
10.968440121
 20
20.0494440606
 30
0.0
 10
10.7876988931
 20
20.0987957792
 30
0.0
 10
10.6176707663
 20
20.0985197972
 30
0.0
 10
10.5152325992
 20
20.0623809473
 30
0.0
 10
10.4710428184
 20
20.0368546476
 30
0.0
  0
SPLINE
  5
416
100
AcDbEntity
  8
ASSI
100
AcDbSpline
 62
7
  6
CONTINUOUS
 70
0
 71
3
 72
11
 73
7
 74
0
 42
0.0000001
 43
0.0000001
 44
0.0000000001
 40
0.0
 40
0.0
 40
0.0
 40
0.0
 40
0.2920070602
 40
0.5520891076
 40
0.7843851739
 40
1.0
 40
1.0
 40
1.0
 40
1.0
 10
9.593604501
 20
20.8476708569
 30
0.0
 10
9.5349359261
 20
20.884203967
 30
0.0
 10
9.4180696202
 20
20.9446085095
 30
0.0
 10
9.2373284004
 20
20.9939602262
 30
0.0
 10
9.0673002811
 20
20.9936842446
 30
0.0
 10
8.9648621185
 20
20.9575453964
 30
0.0
 10
8.9206723397
 20
20.9320190979
 30
0.0
  0
SPLINE
  5
417
100
AcDbEntity
  8
ASSI
100
AcDbSpline
 62
7
  6
CONTINUOUS
 70
0
 71
3
 72
17
 73
13
 74
0
 42
0.0000001
 43
0.0000001
 44
0.0000000001
 40
0.0
 40
0.0
 40
0.0
 40
0.0
 40
0.1259479583
 40
0.2661334182
 40
0.4131892401
 40
0.5583831985
 40
0.6933373778
 40
0.8117942483
 40
0.8641882099
 40
0.912303471
 40
0.9570786379
 40
1.0
 40
1.0
 40
1.0
 40
1.0
 10
9.593604501
 20
19.0737842596
 30
0.0
 10
9.5251279853
 20
19.1089223179
 30
0.0
 10
9.3910504674
 20
19.2042174867
 30
0.0
 10
9.2183782441
 20
19.3901964348
 30
0.0
 10
9.0744494321
 20
19.6134001232
 30
0.0
 10
8.9716766351
 20
19.8548792238
 30
0.0
 10
8.9186864397
 20
20.0941058184
 30
0.0
 10
8.9200405777
 20
20.2835632786
 30
0.0
 10
8.9531870196
 20
20.413855947
 30
0.0
 10
8.9910921737
 20
20.4948413032
 30
0.0
 10
9.0424479004
 20
20.5609925463
 30
0.0
 10
9.085463437
 20
20.594142055
 30
0.0
 10
9.1081737273
 20
20.6072644045
 30
0.0
  0
SPLINE
  5
418
100
AcDbEntity
  8
0
100
AcDbSpline
 62
7
  6
CONTINUOUS
 70
0
 71
3
 72
11
 73
7
 74
0
 42
0.0000001
 43
0.0000001
 44
0.0000000001
 40
0.0
 40
0.0
 40
0.0
 40
0.0
 40
0.2897004605
 40
0.5490906429
 40
0.7822237353
 40
1.0
 40
1.0
 40
1.0
 40
1.0
 10
6.4546238562
 20
21.619881107
 30
0.0
 10
6.4546238562
 20
21.6327578632
 30
0.0
 10
6.4565754128
 20
21.6572471358
 30
0.0
 10
6.4664938176
 20
21.6908939381
 30
0.0
 10
6.4831908703
 20
21.7181973292
 30
0.0
 10
6.4988758203
 20
21.7313831805
 30
0.0
 10
6.5072586955
 20
21.7362232793
 30
0.0
  0
SPLINE
  5
419
100
AcDbEntity
  8
ASSI
100
AcDbSpline
 62
7
  6
CONTINUOUS
 70
0
 71
3
 72
9
 73
5
 74
0
 42
0.0000001
 43
0.0000001
 44
0.0000000001
 40
0.0
 40
0.0
 40
0.0
 40
0.0
 40
0.2460210552
 40
1.0
 40
1.0
 40
1.0
 40
1.0
 10
9.1451211992
 20
20.6254131398
 30
0.0
 10
9.1394161855
 20
20.6209982617
 30
0.0
 10
9.1168643619
 20
20.6022371534
 30
0.0
 10
9.0970111225
 20
20.5802896473
 30
0.0
 10
9.0837875203
 20
20.5625724769
 30
0.0
  0
SPLINE
  5
41A
100
AcDbEntity
  8
ASSI
100
AcDbSpline
 62
7
  6
CONTINUOUS
 70
0
 71
3
 72
15
 73
11
 74
0
 42
0.0000001
 43
0.0000001
 44
0.0000000001
 40
0.0
 40
0.0
 40
0.0
 40
0.0
 40
0.1993239775
 40
0.2597859989
 40
0.3238290502
 40
0.4601646452
 40
0.6026231303
 40
0.744368415
 40
0.8786657101
 40
1.0
 40
1.0
 40
1.0
 40
1.0
 10
9.0837875203
 20
20.5625724769
 30
0.0
 10
9.0162047662
 20
20.4720241407
 30
0.0
 10
8.9855919324
 20
20.3135435204
 30
0.0
 10
8.9968480117
 20
20.131409205
 30
0.0
 10
9.0208596658
 20
19.9850059301
 30
0.0
 10
9.0793076734
 20
19.7986948313
 30
0.0
 10
9.186113511
 20
19.5845252047
 30
0.0
 10
9.3238147052
 20
19.3901142251
 30
0.0
 10
9.4826618988
 20
19.2290092032
 30
0.0
 10
9.6031219648
 20
19.1460124219
 30
0.0
 10
9.6643151791
 20
19.114611719
 30
0.0
  0
SPLINE
  5
41B
100
AcDbEntity
  8
IMPORT_IGES
100
AcDbSpline
 62
7
  6
CONTINUOUS
 70
0
 71
3
 72
11
 73
7
 74
0
 42
0.0000001
 43
0.0000001
 44
0.0000000001
 40
0.0
 40
0.0
 40
0.0
 40
0.0
 40
0.2898055092
 40
0.5490583925
 40
0.7822358227
 40
1.0
 40
1.0
 40
1.0
 40
1.0
 10
1.1060441204
 20
10.2866791364
 30
0.0
 10
1.0621469329
 20
10.3120243665
 30
0.0
 10
0.9748661843
 20
10.3535806551
 30
0.0
 10
0.8406806176
 20
10.3859441715
 30
0.0
 10
0.7148007643
 20
10.3827929974
 30
0.0
 10
0.6390041363
 20
10.3552648744
 30
0.0
 10
0.60601977
 20
10.3362189922
 30
0.0
  0
SPLINE
  5
41C
100
AcDbEntity
  8
IMPORT_IGES
100
AcDbSpline
 62
7
  6
CONTINUOUS
 70
0
 71
3
 72
11
 73
7
 74
0
 42
0.0000001
 43
0.0000001
 44
0.0000000001
 40
0.0
 40
0.0
 40
0.0
 40
0.0
 40
0.2898055092
 40
0.5490583925
 40
0.7822358227
 40
1.0
 40
1.0
 40
1.0
 40
1.0
 10
-0.6617228325
 20
11.3073656197
 30
0.0
 10
-0.70562002
 20
11.3327108498
 30
0.0
 10
-0.7929007687
 20
11.3742671384
 30
0.0
 10
-0.9270863353
 20
11.4066306548
 30
0.0
 10
-1.0529661887
 20
11.4034794807
 30
0.0
 10
-1.1287628167
 20
11.3759513577
 30
0.0
 10
-1.1617471829
 20
11.3569054755
 30
0.0
  0
SPLINE
  5
41D
100
AcDbEntity
  8
IMPORT_IGES
100
AcDbSpline
 62
7
  6
CONTINUOUS
 70
0
 71
3
 72
17
 73
13
 74
0
 42
0.0000001
 43
0.0000001
 44
0.0000000001
 40
0.0
 40
0.0
 40
0.0
 40
0.0
 40
0.0428592534
 40
0.0874882282
 40
0.1353210285
 40
0.1872846575
 40
0.3045484074
 40
0.4382164126
 40
0.5825628135
 40
0.7297179228
 40
0.8713091625
 40
1.0
 40
1.0
 40
1.0
 40
1.0
 10
-0.1616984821
 20
9.6248852104
 30
0.0
 10
-0.1370465247
 20
9.6391197807
 30
0.0
 10
-0.0903161814
 20
9.6748922232
 30
0.0
 10
-0.0340848291
 20
9.74600877
 30
0.0
 10
0.0079459302
 20
9.8329793047
 30
0.0
 10
0.0456771994
 20
9.9728188358
 30
0.0
 10
0.0504002288
 20
10.1766994065
 30
0.0
 10
-0.0023802213
 20
10.4354480308
 30
0.0
 10
-0.1087301219
 20
10.6986167888
 30
0.0
 10
-0.2601050511
 20
10.9448255328
 30
0.0
 10
-0.4440171137
 20
11.1540522306
 30
0.0
 10
-0.5877011617
 20
11.2646256661
 30
0.0
 10
-0.6617228325
 20
11.3073656197
 30
0.0
  0
SPLINE
  5
41E
100
AcDbEntity
  8
IMPORT_IGES
100
AcDbSpline
 62
7
  6
CONTINUOUS
 70
0
 71
3
 72
17
 73
13
 74
0
 42
0.0000001
 43
0.0000001
 44
0.0000000001
 40
0.0
 40
0.0
 40
0.0
 40
0.0
 40
0.0428592534
 40
0.0874882282
 40
0.1353210285
 40
0.1872846575
 40
0.3045484074
 40
0.4382164126
 40
0.5825628135
 40
0.7297179228
 40
0.8713091625
 40
1.0
 40
1.0
 40
1.0
 40
1.0
 10
1.6060684708
 20
8.6041987271
 30
0.0
 10
1.6307204283
 20
8.6184332974
 30
0.0
 10
1.6774507716
 20
8.6542057399
 30
0.0
 10
1.7336821239
 20
8.7253222867
 30
0.0
 10
1.7757128832
 20
8.8122928214
 30
0.0
 10
1.8134441523
 20
8.9521323525
 30
0.0
 10
1.8181671818
 20
9.1560129232
 30
0.0
 10
1.7653867317
 20
9.4147615475
 30
0.0
 10
1.6590368311
 20
9.6779303054
 30
0.0
 10
1.5076619019
 20
9.9241390495
 30
0.0
 10
1.3237498392
 20
10.1333657473
 30
0.0
 10
1.1800657912
 20
10.2439391828
 30
0.0
 10
1.1060441204
 20
10.2866791364
 30
0.0
  0
SPLINE
  5
41F
100
AcDbEntity
  8
IMPORT_IGES
100
AcDbSpline
 62
7
  6
CONTINUOUS
 70
0
 71
3
 72
17
 73
13
 74
0
 42
0.0000001
 43
0.0000001
 44
0.0000000001
 40
0.0
 40
0.0
 40
0.0
 40
0.0
 40
0.0428592534
 40
0.0874882282
 40
0.1353210285
 40
0.1872846575
 40
0.3045484074
 40
0.4382164126
 40
0.5825628135
 40
0.7297179228
 40
0.8713091625
 40
1.0
 40
1.0
 40
1.0
 40
1.0
 10
0.60601977
 20
10.3362189922
 30
0.0
 10
0.5813678126
 20
10.3219844219
 30
0.0
 10
0.5346374693
 20
10.2862119794
 30
0.0
 10
0.478406117
 20
10.2150954326
 30
0.0
 10
0.4363753576
 20
10.1281248979
 30
0.0
 10
0.3986440885
 20
9.9882853668
 30
0.0
 10
0.3939210591
 20
9.7844047961
 30
0.0
 10
0.4467015091
 20
9.5256561717
 30
0.0
 10
0.5530514098
 20
9.2624874138
 30
0.0
 10
0.704426339
 20
9.0162786698
 30
0.0
 10
0.8883384016
 20
8.807051972
 30
0.0
 10
1.0320224496
 20
8.6964785364
 30
0.0
 10
1.1060441204
 20
8.6537385828
 30
0.0
  0
SPLINE
  5
420
100
AcDbEntity
  8
IMPORT_IGES
100
AcDbSpline
 62
7
  6
CONTINUOUS
 70
0
 71
3
 72
17
 73
13
 74
0
 42
0.0000001
 43
0.0000001
 44
0.0000000001
 40
0.0
 40
0.0
 40
0.0
 40
0.0
 40
0.0428592534
 40
0.0874882282
 40
0.1353210285
 40
0.1872846575
 40
0.3045484074
 40
0.4382164126
 40
0.5825628135
 40
0.7297179228
 40
0.8713091625
 40
1.0
 40
1.0
 40
1.0
 40
1.0
 10
-1.1617471829
 20
11.3569054755
 30
0.0
 10
-1.1863991404
 20
11.3426709052
 30
0.0
 10
-1.2331294837
 20
11.3068984627
 30
0.0
 10
-1.289360836
 20
11.2357819159
 30
0.0
 10
-1.3313915953
 20
11.1488113812
 30
0.0
 10
-1.3691228644
 20
11.0089718501
 30
0.0
 10
-1.3738458939
 20
10.8050912794
 30
0.0
 10
-1.3210654438
 20
10.5463426551
 30
0.0
 10
-1.2147155432
 20
10.2831738971
 30
0.0
 10
-1.063340614
 20
10.0369651531
 30
0.0
 10
-0.8794285513
 20
9.8277384553
 30
0.0
 10
-0.7357445033
 20
9.7171650198
 30
0.0
 10
-0.6617228325
 20
9.6744250662
 30
0.0
  0
SPLINE
  5
421
100
AcDbEntity
  8
IMPORT_IGES
100
AcDbSpline
 62
7
  6
CONTINUOUS
 70
0
 71
3
 72
11
 73
7
 74
0
 42
0.0000001
 43
0.0000001
 44
0.0000000001
 40
0.0
 40
0.0
 40
0.0
 40
0.0
 40
0.2321387534
 40
0.4888081191
 40
0.7514394736
 40
1.0
 40
1.0
 40
1.0
 40
1.0
 10
-0.2374587638
 20
9.9193898222
 30
0.0
 10
-0.3242404265
 20
9.9694973676
 30
0.0
 10
-0.4907921563
 20
10.103448189
 30
0.0
 10
-0.6951252601
 20
10.3578750469
 30
0.0
 10
-0.8504562256
 20
10.6528812121
 30
0.0
 10
-0.9132834815
 20
10.866648594
 30
0.0
 10
-0.9302790869
 20
10.972591815
 30
0.0
  0
SPLINE
  5
422
100
AcDbEntity
  8
IMPORT_IGES
100
AcDbSpline
 62
7
  6
CONTINUOUS
 70
0
 71
3
 72
9
 73
5
 74
0
 42
0.0000001
 43
0.0000001
 44
0.0000000001
 40
0.0
 40
0.0
 40
0.0
 40
0.0
 40
0.232302132
 40
1.0
 40
1.0
 40
1.0
 40
1.0
 10
0.0030470759
 20
9.8292035365
 30
0.0
 10
-0.0166572458
 20
9.832351627
 30
0.0
 10
-0.1007134493
 20
9.8507089781
 30
0.0
 10
-0.1803507029
 20
9.8864169365
 30
0.0
 10
-0.2374587638
 20
9.9193898222
 30
0.0
  0
SPLINE
  5
423
100
AcDbEntity
  8
IMPORT_IGES
100
AcDbSpline
 62
7
  6
CONTINUOUS
 70
0
 71
3
 72
9
 73
5
 74
0
 42
0.0000001
 43
0.0000001
 44
0.0000000001
 40
0.0
 40
0.0
 40
0.0
 40
0.0
 40
0.232302132
 40
1.0
 40
1.0
 40
1.0
 40
1.0
 10
1.7708140289
 20
8.8085170532
 30
0.0
 10
1.7511097072
 20
8.8116651437
 30
0.0
 10
1.6670535037
 20
8.8300224948
 30
0.0
 10
1.58741625
 20
8.8657304532
 30
0.0
 10
1.5303081891
 20
8.8987033388
 30
0.0
  0
SPLINE
  5
424
100
AcDbEntity
  8
IMPORT_IGES
100
AcDbSpline
 62
7
  6
CONTINUOUS
 70
0
 71
3
 72
9
 73
5
 74
0
 42
0.0000001
 43
0.0000001
 44
0.0000000001
 40
0.0
 40
0.0
 40
0.0
 40
0.0
 40
0.2577874708
 40
1.0
 40
1.0
 40
1.0
 40
1.0
 10
0.8374884709
 20
10.2784965144
 30
0.0
 10
0.8391840191
 20
10.2871080581
 30
0.0
 10
0.8464108589
 20
10.320379517
 30
0.0
 10
0.856306261
 20
10.3530943389
 30
0.0
 10
0.8653237687
 20
10.3767007175
 30
0.0
  0
SPLINE
  5
425
100
AcDbEntity
  8
IMPORT_IGES
100
AcDbSpline
 62
7
  6
CONTINUOUS
 70
0
 71
3
 72
9
 73
5
 74
0
 42
0.0000001
 43
0.0000001
 44
0.0000000001
 40
0.0
 40
0.0
 40
0.0
 40
0.0
 40
0.2577874708
 40
1.0
 40
1.0
 40
1.0
 40
1.0
 10
-0.930278482
 20
11.2991829977
 30
0.0
 10
-0.9285829339
 20
11.3077945414
 30
0.0
 10
-0.9213560941
 20
11.3410660003
 30
0.0
 10
-0.911460692
 20
11.3737808223
 30
0.0
 10
-0.9024431842
 20
11.3973872008
 30
0.0
  0
SPLINE
  5
426
100
AcDbEntity
  8
IMPORT_IGES
100
AcDbSpline
 62
7
  6
CONTINUOUS
 70
0
 71
3
 72
11
 73
7
 74
0
 42
0.0000001
 43
0.0000001
 44
0.0000000001
 40
0.0
 40
0.0
 40
0.0
 40
0.0
 40
0.2898055092
 40
0.5490583925
 40
0.7822358227
 40
1.0
 40
1.0
 40
1.0
 40
1.0
 10
1.1060441204
 20
8.6537385828
 30
0.0
 10
1.1499413079
 20
8.6283933527
 30
0.0
 10
1.2372220566
 20
8.5868370642
 30
0.0
 10
1.3714076232
 20
8.5544735478
 30
0.0
 10
1.4972874766
 20
8.5576247219
 30
0.0
 10
1.5730841046
 20
8.5851528448
 30
0.0
 10
1.6060684708
 20
8.6041987271
 30
0.0
  0
SPLINE
  5
427
100
AcDbEntity
  8
IMPORT_IGES
100
AcDbSpline
 62
7
  6
CONTINUOUS
 70
0
 71
3
 72
11
 73
7
 74
0
 42
0.0000001
 43
0.0000001
 44
0.0000000001
 40
0.0
 40
0.0
 40
0.0
 40
0.0
 40
0.2898055092
 40
0.5490583925
 40
0.7822358227
 40
1.0
 40
1.0
 40
1.0
 40
1.0
 10
-0.6617228325
 20
9.6744250662
 30
0.0
 10
-0.617825645
 20
9.6490798361
 30
0.0
 10
-0.5305448964
 20
9.6075235475
 30
0.0
 10
-0.3963593298
 20
9.5751600311
 30
0.0
 10
-0.2704794764
 20
9.5783112052
 30
0.0
 10
-0.1946828484
 20
9.6058393282
 30
0.0
 10
-0.1616984821
 20
9.6248852104
 30
0.0
  0
SPLINE
  5
428
100
AcDbEntity
  8
IMPORT_IGES
100
AcDbSpline
 62
7
  6
CONTINUOUS
 70
0
 71
3
 72
11
 73
7
 74
0
 42
0.0000001
 43
0.0000001
 44
0.0000000001
 40
0.0
 40
0.0
 40
0.0
 40
0.0
 40
0.2321387534
 40
0.4888081191
 40
0.7514394736
 40
1.0
 40
1.0
 40
1.0
 40
1.0
 10
1.5303081891
 20
8.8987033388
 30
0.0
 10
1.4435265265
 20
8.9488108843
 30
0.0
 10
1.2769747966
 20
9.0827617056
 30
0.0
 10
1.0726416929
 20
9.3371885635
 30
0.0
 10
0.9173107274
 20
9.6321947287
 30
0.0
 10
0.8544834715
 20
9.8459621106
 30
0.0
 10
0.8374878661
 20
9.9519053317
 30
0.0
  0
SPLINE
  5
429
100
AcDbEntity
  8
IMPORT_IGES
100
AcDbSpline
 62
7
  6
CONTINUOUS
 70
0
 71
3
 72
12
 73
8
 74
0
 42
0.0000001
 43
0.0000001
 44
0.0000000001
 40
0.0
 40
0.0
 40
0.0
 40
0.0
 40
0.1002830912
 40
0.2040463689
 40
0.4319111903
 40
0.697403203
 40
1.0
 40
1.0
 40
1.0
 40
1.0
 10
1.423925376
 20
-20.9490078775
 30
0.0
 10
1.4464293756
 20
-20.9360232947
 30
0.0
 10
1.4892287044
 20
-20.90404045
 30
0.0
 10
1.5619826801
 20
-20.8179352363
 30
0.0
 10
1.6214672829
 20
-20.6710607808
 30
0.0
 10
1.6388231838
 20
-20.4636209967
 30
0.0
 10
1.6186589555
 20
-20.3166774123
 30
0.0
 10
1.6014252887
 20
-20.2401983421
 30
0.0
  0
SPLINE
  5
42A
100
AcDbEntity
  8
IMPORT_IGES
100
AcDbSpline
 62
7
  6
CONTINUOUS
 70
0
 71
3
 72
11
 73
7
 74
0
 42
0.0000001
 43
0.0000001
 44
0.0000000001
 40
0.0
 40
0.0
 40
0.0
 40
0.0
 40
0.2870727028
 40
0.5453731938
 40
0.7796573406
 40
1.0
 40
1.0
 40
1.0
 40
1.0
 10
0.9566447146
 20
-20.9174301311
 30
0.0
 10
0.997969748
 20
-20.9390825688
 30
0.0
 10
1.079984483
 20
-20.9741607766
 30
0.0
 10
1.2052086744
 20
-20.9995867753
 30
0.0
 10
1.3223612145
 20
-20.9933875534
 30
0.0
 10
1.3929088595
 20
-20.9669040973
 30
0.0
 10
1.423925376
 20
-20.9490078775
 30
0.0
  0
SPLINE
  5
42B
100
AcDbEntity
  8
IMPORT_IGES
100
AcDbSpline
 62
7
  6
CONTINUOUS
 70
0
 71
3
 72
9
 73
5
 74
0
 42
0.0000001
 43
0.0000001
 44
0.0000000001
 40
0.0
 40
0.0
 40
0.0
 40
0.0
 40
0.2640109775
 40
1.0
 40
1.0
 40
1.0
 40
1.0
 10
0.7095851298
 20
-20.7372255016
 30
0.0
 10
0.7291799584
 20
-20.7557373789
 30
0.0
 10
0.8054068416
 20
-20.8236337918
 30
0.0
 10
0.890081758
 20
-20.8825527843
 30
0.0
 10
0.9566447146
 20
-20.9174301311
 30
0.0
  0
SPLINE
  5
42C
100
AcDbEntity
  8
0
100
AcDbSpline
 62
7
  6
CONTINUOUS
 70
0
 71
3
 72
12
 73
8
 74
0
 42
0.0000001
 43
0.0000001
 44
0.0000000001
 40
0.0
 40
0.0
 40
0.0
 40
0.0
 40
0.0296602876
 40
0.083599919
 40
0.2795810954
 40
0.5933618561
 40
1.0
 40
1.0
 40
1.0
 40
1.0
 10
1.691763288
 20
11.4190062188
 30
0.0
 10
1.6907595162
 20
11.4195818923
 30
0.0
 10
1.6895052321
 20
11.4230698037
 30
0.0
 10
1.6898250042
 20
11.433738255
 30
0.0
 10
1.6944838217
 20
11.4556058178
 30
0.0
 10
1.7049034857
 20
11.4896424657
 30
0.0
 10
1.7145640874
 20
11.5161071322
 30
0.0
 10
1.7203025536
 20
11.5308970133
 30
0.0
  0
SPLINE
  5
42D
100
AcDbEntity
  8
0
100
AcDbSpline
 62
7
  6
CONTINUOUS
 70
0
 71
3
 72
8
 73
4
 74
0
 42
0.0000001
 43
0.0000001
 44
0.0000000001
 40
0.0
 40
0.0
 40
0.0
 40
0.0
 40
1.0
 40
1.0
 40
1.0
 40
1.0
 10
0.104437904
 20
12.3355080017
 30
0.0
 10
0.1162817088
 20
12.3286749642
 30
0.0
 10
0.1290909043
 20
12.3233291831
 30
0.0
 10
0.1422414245
 20
12.3195835278
 30
0.0
  0
SPLINE
  5
42E
100
AcDbEntity
  8
0
100
AcDbSpline
 62
7
  6
CONTINUOUS
 70
0
 71
3
 72
12
 73
8
 74
0
 42
0.0000001
 43
0.0000001
 44
0.0000000001
 40
0.0
 40
0.0
 40
0.0
 40
0.0
 40
0.0296602876
 40
0.083599919
 40
0.2795810954
 40
0.5933618561
 40
1.0
 40
1.0
 40
1.0
 40
1.0
 10
-0.0760036649
 20
12.4396927021
 30
0.0
 10
-0.0770074368
 20
12.4402683756
 30
0.0
 10
-0.0782617209
 20
12.443756287
 30
0.0
 10
-0.0779419488
 20
12.4544247383
 30
0.0
 10
-0.0732831312
 20
12.4762923011
 30
0.0
 10
-0.0628634672
 20
12.510328949
 30
0.0
 10
-0.0532028655
 20
12.5367936155
 30
0.0
 10
-0.0474643994
 20
12.5515834966
 30
0.0
  0
SPLINE
  5
42F
100
AcDbEntity
  8
0
100
AcDbSpline
 62
7
  6
CONTINUOUS
 70
0
 71
3
 72
8
 73
4
 74
0
 42
0.0000001
 43
0.0000001
 44
0.0000000001
 40
0.0
 40
0.0
 40
0.0
 40
0.0
 40
1.0
 40
1.0
 40
1.0
 40
1.0
 10
-1.663329049
 20
13.356194485
 30
0.0
 10
-1.6514852442
 20
13.3493614475
 30
0.0
 10
-1.6386760487
 20
13.3440156664
 30
0.0
 10
-1.6255255285
 20
13.3402700111
 30
0.0
  0
SPLINE
  5
430
100
AcDbEntity
  8
0
100
AcDbSpline
 62
7
  6
CONTINUOUS
 70
0
 71
3
 72
9
 73
5
 74
0
 42
0.0000001
 43
0.0000001
 44
0.0000000001
 40
0.0
 40
0.0
 40
0.0
 40
0.0
 40
0.4486626094
 40
1.0
 40
1.0
 40
1.0
 40
1.0
 10
-1.8110271091
 20
12.2745367038
 30
0.0
 10
-1.8042884917
 20
12.2787022699
 30
0.0
 10
-1.7854785639
 20
12.2819643629
 30
0.0
 10
-1.7685994053
 20
12.2749696294
 30
0.0
 10
-1.7601686632
 20
12.2701018246
 30
0.0
  0
SPLINE
  5
431
100
AcDbEntity
  8
ASSI
100
AcDbSpline
 62
7
  6
CONTINUOUS
 70
0
 71
3
 72
9
 73
5
 74
0
 42
0.0000001
 43
0.0000001
 44
0.0000000001
 40
0.0
 40
0.0
 40
0.0
 40
0.0
 40
0.4783433166
 40
1.0
 40
1.0
 40
1.0
 40
1.0
 10
-2.300345995
 20
16.3324710536
 30
0.0
 10
-2.3337478197
 20
16.312512054
 30
0.0
 10
-2.3939967384
 20
16.2549480644
 30
0.0
 10
-2.4350044385
 20
16.1833912437
 30
0.0
 10
-2.4503539251
 20
16.1438306582
 30
0.0
  0
SPLINE
  5
432
100
AcDbEntity
  8
ASSI
100
AcDbSpline
 62
7
  6
CONTINUOUS
 70
0
 71
3
 72
9
 73
5
 74
0
 42
0.0000001
 43
0.0000001
 44
0.0000000001
 40
0.0
 40
0.0
 40
0.0
 40
0.0
 40
0.2662849962
 40
1.0
 40
1.0
 40
1.0
 40
1.0
 10
-3.169132459
 20
14.2913061855
 30
0.0
 10
-3.1767409093
 20
14.2716967515
 30
0.0
 10
-3.2023916761
 20
14.197038441
 30
0.0
 10
-3.2164996318
 20
14.1177952576
 30
0.0
 10
-3.2164996318
 20
14.0598394045
 30
0.0
  0
SPLINE
  5
433
100
AcDbEntity
  8
ASSI
100
AcDbSpline
 62
7
  6
CONTINUOUS
 70
0
 71
3
 72
9
 73
5
 74
0
 42
0.0000001
 43
0.0000001
 44
0.0000000001
 40
0.0
 40
0.0
 40
0.0
 40
0.0
 40
0.4783433166
 40
1.0
 40
1.0
 40
1.0
 40
1.0
 10
-9.9706034636
 20
5.4904836738
 30
0.0
 10
-9.9839641935
 20
5.482500074
 30
0.0
 10
-10.008063761
 20
5.4594744782
 30
0.0
 10
-10.024466841
 20
5.4308517499
 30
0.0
 10
-10.0306066357
 20
5.4150275157
 30
0.0
  0
SPLINE
  5
434
100
AcDbEntity
  8
ASSI
100
AcDbSpline
 62
7
  6
CONTINUOUS
 70
0
 71
3
 72
9
 73
5
 74
0
 42
0.0000001
 43
0.0000001
 44
0.0000000001
 40
0.0
 40
0.0
 40
0.0
 40
0.0
 40
0.2662849962
 40
1.0
 40
1.0
 40
1.0
 40
1.0
 10
-10.1366726528
 20
5.1416611264
 30
0.0
 10
-10.1381943429
 20
5.1377392395
 30
0.0
 10
-10.1433244963
 20
5.1228075774
 30
0.0
 10
-10.1461460874
 20
5.1069589408
 30
0.0
 10
-10.1461460874
 20
5.0953677701
 30
0.0
  0
SPLINE
  5
435
100
AcDbEntity
  8
ASSI
100
AcDbSpline
 62
7
  6
CONTINUOUS
 70
0
 71
3
 72
9
 73
5
 74
0
 42
0.0000001
 43
0.0000001
 44
0.0000000001
 40
0.0
 40
0.0
 40
0.0
 40
0.0
 40
0.4783433166
 40
1.0
 40
1.0
 40
1.0
 40
1.0
 10
-12.9953360604
 20
0.3527447642
 30
0.0
 10
-13.0287378852
 20
0.3327857646
 30
0.0
 10
-13.0889868039
 20
0.275221775
 30
0.0
 10
-13.1299945039
 20
0.2036649543
 30
0.0
 10
-13.1453439906
 20
0.1641043688
 30
0.0
  0
SPLINE
  5
436
100
AcDbEntity
  8
ASSI
100
AcDbSpline
 62
7
  6
CONTINUOUS
 70
0
 71
3
 72
9
 73
5
 74
0
 42
0.0000001
 43
0.0000001
 44
0.0000000001
 40
0.0
 40
0.0
 40
0.0
 40
0.0
 40
0.2662849962
 40
1.0
 40
1.0
 40
1.0
 40
1.0
 10
-13.5989574815
 20
-1.0050041305
 30
0.0
 10
-13.6065659318
 20
-1.0246135646
 30
0.0
 10
-13.6322166986
 20
-1.0992718751
 30
0.0
 10
-13.6463246543
 20
-1.1785150584
 30
0.0
 10
-13.6463246543
 20
-1.2364709116
 30
0.0
  0
SPLINE
  5
437
100
AcDbEntity
  8
ASSI
100
AcDbSpline
 62
7
  6
CONTINUOUS
 70
0
 71
3
 72
9
 73
5
 74
0
 42
0.0000001
 43
0.0000001
 44
0.0000000001
 40
0.0
 40
0.0
 40
0.0
 40
0.0
 40
0.2798224874
 40
1.0
 40
1.0
 40
1.0
 40
1.0
 10
-13.6463246543
 20
-17.065516826
 30
0.0
 10
-13.6463246543
 20
-17.0827235998
 30
0.0
 10
-13.6430723677
 20
-17.1439273765
 30
0.0
 10
-13.6244252638
 20
-17.2060560379
 30
0.0
 10
-13.5989574815
 20
-17.2422851833
 30
0.0
  0
SPLINE
  5
438
100
AcDbEntity
  8
ASSI
100
AcDbSpline
 62
7
  6
CONTINUOUS
 70
0
 71
3
 72
9
 73
5
 74
0
 42
0.0000001
 43
0.0000001
 44
0.0000000001
 40
0.0
 40
0.0
 40
0.0
 40
0.0
 40
0.2569670725
 40
1.0
 40
1.0
 40
1.0
 40
1.0
 10
-13.1453439906
 20
-17.8875721935
 30
0.0
 10
-13.1434595451
 20
-17.8902529079
 30
0.0
 10
-13.1356197182
 20
-17.9003162627
 30
0.0
 10
-13.1256260265
 20
-17.9087285915
 30
0.0
 10
-13.1174389213
 20
-17.913497975
 30
0.0
  0
SPLINE
  5
439
100
AcDbEntity
  8
0
100
AcDbSpline
 62
7
  6
CONTINUOUS
 70
0
 71
3
 72
11
 73
7
 74
0
 42
0.0000001
 43
0.0000001
 44
0.0000000001
 40
0.0
 40
0.0
 40
0.0
 40
0.0
 40
0.2897106706
 40
0.5490851736
 40
0.7822135495
 40
1.0
 40
1.0
 40
1.0
 40
1.0
 10
13.6126417605
 20
13.7344301637
 30
0.0
 10
13.6126417605
 20
13.7470973429
 30
0.0
 10
13.6107219333
 20
13.7711869036
 30
0.0
 10
13.6009647312
 20
13.8042845871
 30
0.0
 10
13.5845374771
 20
13.831140271
 30
0.0
 10
13.5691077295
 20
13.8441112463
 30
0.0
 10
13.5608600732
 20
13.8488706801
 30
0.0
  0
SPLINE
  5
43A
100
AcDbEntity
  8
0
100
AcDbSpline
 62
7
  6
CONTINUOUS
 70
0
 71
3
 72
11
 73
7
 74
0
 42
0.0000001
 43
0.0000001
 44
0.0000000001
 40
0.0
 40
0.0
 40
0.0
 40
0.0
 40
0.2383163517
 40
0.5010977464
 40
0.7632829374
 40
1.0
 40
1.0
 40
1.0
 40
1.0
 10
13.4389502439
 20
9.0967122397
 30
0.0
 10
13.4636986664
 20
9.1115004663
 30
0.0
 10
13.5104069835
 20
9.1516078603
 30
0.0
 10
13.5648835463
 20
9.2269927695
 30
0.0
 10
13.6020193293
 20
9.312053977
 30
0.0
 10
13.6126417605
 20
9.3724493742
 30
0.0
 10
13.6126417605
 20
9.4010860256
 30
0.0
  0
SPLINE
  5
43B
100
AcDbEntity
  8
0
100
AcDbSpline
 62
7
  6
CONTINUOUS
 70
0
 71
3
 72
11
 73
7
 74
0
 42
0.0000001
 43
0.0000001
 44
0.0000000001
 40
0.0
 40
0.0
 40
0.0
 40
0.0
 40
0.2897106706
 40
0.5490851736
 40
0.7822135495
 40
1.0
 40
1.0
 40
1.0
 40
1.0
 10
13.6126417605
 20
-10.7596781401
 30
0.0
 10
13.6126417605
 20
-10.7470109608
 30
0.0
 10
13.6107219333
 20
-10.7229214002
 30
0.0
 10
13.6009647312
 20
-10.6898237167
 30
0.0
 10
13.5845374771
 20
-10.6629680327
 30
0.0
 10
13.5691077295
 20
-10.6499970575
 30
0.0
 10
13.5608600732
 20
-10.6452376237
 30
0.0
  0
SPLINE
  5
43C
100
AcDbEntity
  8
0
100
AcDbSpline
 62
7
  6
CONTINUOUS
 70
0
 71
3
 72
11
 73
7
 74
0
 42
0.0000001
 43
0.0000001
 44
0.0000000001
 40
0.0
 40
0.0
 40
0.0
 40
0.0
 40
0.2383163517
 40
0.5010977464
 40
0.7632829374
 40
1.0
 40
1.0
 40
1.0
 40
1.0
 10
13.4389502439
 20
-15.3973960641
 30
0.0
 10
13.4636986664
 20
-15.3826078375
 30
0.0
 10
13.5104069835
 20
-15.3425004435
 30
0.0
 10
13.5648835463
 20
-15.2671155343
 30
0.0
 10
13.6020193293
 20
-15.1820543267
 30
0.0
 10
13.6126417605
 20
-15.1216589296
 30
0.0
 10
13.6126417605
 20
-15.0930222782
 30
0.0
  0
SPLINE
  5
43D
100
AcDbEntity
  8
ASSI
100
AcDbSpline
 62
7
  6
CONTINUOUS
 70
0
 71
3
 72
9
 73
5
 74
0
 42
0.0000001
 43
0.0000001
 44
0.0000000001
 40
0.0
 40
0.0
 40
0.0
 40
0.0
 40
0.4506794043
 40
1.0
 40
1.0
 40
1.0
 40
1.0
 10
-3.7261942554
 20
-23.1856889098
 30
0.0
 10
-3.7196108442
 20
-23.1895240642
 30
0.0
 10
-3.7016801266
 20
-23.1924387926
 30
0.0
 10
-3.6854653048
 20
-23.1860049762
 30
0.0
 10
-3.677353111
 20
-23.1814845963
 30
0.0
  0
SPLINE
  5
43E
100
AcDbEntity
  8
ASSI
100
AcDbSpline
 62
7
  6
CONTINUOUS
 70
0
 71
3
 72
11
 73
7
 74
0
 42
0.0000001
 43
0.0000001
 44
0.0000000001
 40
0.0
 40
0.0
 40
0.0
 40
0.0
 40
0.2188489072
 40
0.4523300138
 40
0.7115978636
 40
1.0
 40
1.0
 40
1.0
 40
1.0
 10
3.8708014967
 20
-25.1765616968
 30
0.0
 10
3.8788614436
 20
-25.1812570045
 30
0.0
 10
3.8973267068
 20
-25.1881141622
 30
0.0
 10
3.9280449787
 20
-25.189243806
 30
0.0
 10
3.9607908837
 20
-25.1817831301
 30
0.0
 10
3.9821665546
 20
-25.1720343685
 30
0.0
 10
3.9929043576
 20
-25.166050913
 30
0.0
  0
SPLINE
  5
43F
100
AcDbEntity
  8
ASSI
100
AcDbSpline
 62
7
  6
CONTINUOUS
 70
0
 71
3
 72
11
 73
7
 74
0
 42
0.0000001
 43
0.0000001
 44
0.0000000001
 40
0.0
 40
0.0
 40
0.0
 40
0.0
 40
0.2188489072
 40
0.4523300138
 40
0.7115978636
 40
1.0
 40
1.0
 40
1.0
 40
1.0
 10
-6.8241885687
 20
-21.5471418556
 30
0.0
 10
-6.8161286218
 20
-21.5518371632
 30
0.0
 10
-6.7976633587
 20
-21.558694321
 30
0.0
 10
-6.7669450868
 20
-21.5598239647
 30
0.0
 10
-6.7341991817
 20
-21.5523632889
 30
0.0
 10
-6.7128235109
 20
-21.5426145272
 30
0.0
 10
-6.7020857078
 20
-21.5366310718
 30
0.0
  0
SPLINE
  5
440
100
AcDbEntity
  8
0
100
AcDbSpline
 62
7
  6
CONTINUOUS
 70
0
 71
3
 72
9
 73
5
 74
0
 42
0.0000001
 43
0.0000001
 44
0.0000000001
 40
0.0
 40
0.0
 40
0.0
 40
0.0
 40
0.2620627004
 40
1.0
 40
1.0
 40
1.0
 40
1.0
 10
1.9032193864
 20
7.3945740996
 30
0.0
 10
1.9032193864
 20
7.3930180012
 30
0.0
 10
1.9030723941
 20
7.3870824868
 30
0.0
 10
1.9023133579
 20
7.3811509926
 30
0.0
 10
1.901322218
 20
7.3768827726
 30
0.0
  0
SPLINE
  5
441
100
AcDbEntity
  8
0
100
AcDbSpline
 62
7
  6
CONTINUOUS
 70
0
 71
3
 72
9
 73
5
 74
0
 42
0.0000001
 43
0.0000001
 44
0.0000000001
 40
0.0
 40
0.0
 40
0.0
 40
0.0
 40
0.5000063117
 40
1.0
 40
1.0
 40
1.0
 40
1.0
 10
1.8325194779
 20
10.1957287189
 30
0.0
 10
1.8535040947
 20
10.1836124641
 30
0.0
 10
1.886659319
 20
10.1453489198
 30
0.0
 10
1.9032193864
 20
10.0975036122
 30
0.0
 10
1.9032193864
 20
10.0732728853
 30
0.0
  0
SPLINE
  5
442
100
AcDbEntity
  8
0
100
AcDbSpline
 62
7
  6
CONTINUOUS
 70
0
 71
3
 72
9
 73
5
 74
0
 42
0.0000001
 43
0.0000001
 44
0.0000000001
 40
0.0
 40
0.0
 40
0.0
 40
0.0
 40
0.5513291531
 40
1.0
 40
1.0
 40
1.0
 40
1.0
 10
1.9032193864
 20
-21.998355865
 30
0.0
 10
1.9032193864
 20
-22.0080894453
 30
0.0
 10
1.9008371644
 20
-22.0262018454
 30
0.0
 10
1.888609164
 20
-22.0408583893
 30
0.0
 10
1.8816334596
 20
-22.044611326
 30
0.0
  0
SPLINE
  5
443
100
AcDbEntity
  8
0
100
AcDbSpline
 62
7
  6
CONTINUOUS
 70
0
 71
3
 72
10
 73
6
 74
0
 42
0.0000001
 43
0.0000001
 44
0.0000000001
 40
0.0
 40
0.0
 40
0.0
 40
0.0
 40
0.2072539376
 40
0.4681600838
 40
1.0
 40
1.0
 40
1.0
 40
1.0
 10
-0.0474643994
 20
-22.3137017524
 30
0.0
 10
-0.0566030211
 20
-22.3007016234
 30
0.0
 10
-0.0692767732
 20
-22.2661824142
 30
0.0
 10
-0.0810556974
 20
-22.1905096123
 30
0.0
 10
-0.0780575527
 20
-22.1286025453
 30
0.0
 10
-0.0698906099
 20
-22.0886509195
 30
0.0
  0
SPLINE
  5
444
100
AcDbEntity
  8
0
100
AcDbSpline
 62
7
  6
CONTINUOUS
 70
0
 71
3
 72
10
 73
6
 74
0
 42
0.0000001
 43
0.0000001
 44
0.0000000001
 40
0.0
 40
0.0
 40
0.0
 40
0.0
 40
0.2072539376
 40
0.4681600838
 40
1.0
 40
1.0
 40
1.0
 40
1.0
 10
1.7203025536
 20
-23.3343882357
 30
0.0
 10
1.7111639319
 20
-23.3213881067
 30
0.0
 10
1.6984901798
 20
-23.2868688976
 30
0.0
 10
1.6867112555
 20
-23.2111960956
 30
0.0
 10
1.6897094003
 20
-23.1492890286
 30
0.0
 10
1.6978763431
 20
-23.1093374028
 30
0.0
  0
SPLINE
  5
445
100
AcDbEntity
  8
0
100
AcDbSpline
 62
7
  6
CONTINUOUS
 70
0
 71
3
 72
9
 73
5
 74
0
 42
0.0000001
 43
0.0000001
 44
0.0000000001
 40
0.0
 40
0.0
 40
0.0
 40
0.0
 40
0.4497294586
 40
1.0
 40
1.0
 40
1.0
 40
1.0
 10
1.8816334596
 20
-22.044611326
 30
0.0
 10
1.874893914
 20
-22.0482372091
 30
0.0
 10
1.8568028998
 20
-22.0505993824
 30
0.0
 10
1.8406287267
 20
-22.0438513949
 30
0.0
 10
1.8325194779
 20
-22.0391692163
 30
0.0
  0
SPLINE
  5
446
100
AcDbEntity
  8
0
100
AcDbSpline
 62
7
  6
CONTINUOUS
 70
0
 71
3
 72
10
 73
6
 74
0
 42
0.0000001
 43
0.0000001
 44
0.0000000001
 40
0.0
 40
0.0
 40
0.0
 40
0.0
 40
0.219400766
 40
0.4536396152
 40
1.0
 40
1.0
 40
1.0
 40
1.0
 10
13.5608600732
 20
-10.6452376237
 30
0.0
 10
13.5527990852
 20
-10.6405859097
 30
0.0
 10
13.5343441296
 20
-10.6338032219
 30
0.0
 10
13.4914307489
 20
-10.6322849023
 30
0.0
 10
13.4591955885
 20
-10.6445975949
 30
0.0
 10
13.4389502439
 20
-10.6558789638
 30
0.0
  0
SPLINE
  5
447
100
AcDbEntity
  8
0
100
AcDbSpline
 62
7
  6
CONTINUOUS
 70
0
 71
3
 72
10
 73
6
 74
0
 42
0.0000001
 43
0.0000001
 44
0.0000000001
 40
0.0
 40
0.0
 40
0.0
 40
0.0
 40
0.219400766
 40
0.4536396152
 40
1.0
 40
1.0
 40
1.0
 40
1.0
 10
13.5608600732
 20
13.8488706801
 30
0.0
 10
13.5527990852
 20
13.8535223941
 30
0.0
 10
13.5343441296
 20
13.8603050819
 30
0.0
 10
13.4914307489
 20
13.8618234015
 30
0.0
 10
13.4591955885
 20
13.8495107089
 30
0.0
 10
13.4389502439
 20
13.83822934
 30
0.0
  0
SPLINE
  5
448
100
AcDbEntity
  8
ASSI
100
AcDbSpline
 62
7
  6
CONTINUOUS
 70
0
 71
3
 72
9
 73
5
 74
0
 42
0.0000001
 43
0.0000001
 44
0.0000000001
 40
0.0
 40
0.0
 40
0.0
 40
0.0
 40
0.2569670725
 40
1.0
 40
1.0
 40
1.0
 40
1.0
 10
3.8428964274
 20
-25.1506359154
 30
0.0
 10
3.8447808729
 20
-25.1533166297
 30
0.0
 10
3.8526206998
 20
-25.1633799846
 30
0.0
 10
3.8626143915
 20
-25.1717923133
 30
0.0
 10
3.8708014967
 20
-25.1765616968
 30
0.0
  0
SPLINE
  5
449
100
AcDbEntity
  8
ASSI
100
AcDbSpline
 62
7
  6
CONTINUOUS
 70
0
 71
3
 72
9
 73
5
 74
0
 42
0.0000001
 43
0.0000001
 44
0.0000000001
 40
0.0
 40
0.0
 40
0.0
 40
0.0
 40
0.2798224874
 40
1.0
 40
1.0
 40
1.0
 40
1.0
 10
3.0767507208
 20
-23.9513705195
 30
0.0
 10
3.0767507208
 20
-23.9685772933
 30
0.0
 10
3.0800030074
 20
-24.02978107
 30
0.0
 10
3.0986501112
 20
-24.0919097314
 30
0.0
 10
3.1241178935
 20
-24.1281388768
 30
0.0
  0
SPLINE
  5
44A
100
AcDbEntity
  8
ASSI
100
AcDbSpline
 62
7
  6
CONTINUOUS
 70
0
 71
3
 72
8
 73
4
 74
0
 42
0.0000001
 43
0.0000001
 44
0.0000000001
 40
0.0
 40
0.0
 40
0.0
 40
0.0
 40
1.0
 40
1.0
 40
1.0
 40
1.0
 10
-3.7373562831
 20
-23.1753185972
 30
0.0
 10
-3.7344356091
 20
-23.1794733965
 30
0.0
 10
-3.7305825856
 20
-23.1831324959
 30
0.0
 10
-3.7261942554
 20
-23.1856889098
 30
0.0
  0
SPLINE
  5
44B
100
AcDbEntity
  8
ASSI
100
AcDbSpline
 62
7
  6
CONTINUOUS
 70
0
 71
3
 72
9
 73
5
 74
0
 42
0.0000001
 43
0.0000001
 44
0.0000000001
 40
0.0
 40
0.0
 40
0.0
 40
0.0
 40
0.2798224874
 40
1.0
 40
1.0
 40
1.0
 40
1.0
 10
-3.8528957348
 20
-22.9890809144
 30
0.0
 10
-3.8528957348
 20
-22.9925222692
 30
0.0
 10
-3.8522452775
 20
-23.0047630245
 30
0.0
 10
-3.8485158567
 20
-23.0171887568
 30
0.0
 10
-3.8434223003
 20
-23.0244345859
 30
0.0
  0
SPLINE
  5
44C
100
AcDbEntity
  8
ASSI
100
AcDbSpline
 62
7
  6
CONTINUOUS
 70
0
 71
3
 72
9
 73
5
 74
0
 42
0.0000001
 43
0.0000001
 44
0.0000000001
 40
0.0
 40
0.0
 40
0.0
 40
0.0
 40
0.2569670725
 40
1.0
 40
1.0
 40
1.0
 40
1.0
 10
-6.852093638
 20
-21.5212160741
 30
0.0
 10
-6.8502091925
 20
-21.5238967885
 30
0.0
 10
-6.8423693656
 20
-21.5339601434
 30
0.0
 10
-6.8323756739
 20
-21.5423724721
 30
0.0
 10
-6.8241885687
 20
-21.5471418556
 30
0.0
  0
SPLINE
  5
44D
100
AcDbEntity
  8
ASSI
100
AcDbSpline
 62
7
  6
CONTINUOUS
 70
0
 71
3
 72
9
 73
5
 74
0
 42
0.0000001
 43
0.0000001
 44
0.0000000001
 40
0.0
 40
0.0
 40
0.0
 40
0.0
 40
0.2798224874
 40
1.0
 40
1.0
 40
1.0
 40
1.0
 10
-7.3530743017
 20
-20.6991607066
 30
0.0
 10
-7.3530743017
 20
-20.7163674804
 30
0.0
 10
-7.3498220151
 20
-20.7775712571
 30
0.0
 10
-7.3311749113
 20
-20.8396999185
 30
0.0
 10
-7.305707129
 20
-20.8759290639
 30
0.0
  0
SPLINE
  5
44E
100
AcDbEntity
  8
ASSI
100
AcDbSpline
 62
7
  6
CONTINUOUS
 70
0
 71
3
 72
9
 73
5
 74
0
 42
0.0000001
 43
0.0000001
 44
0.0000000001
 40
0.0
 40
0.0
 40
0.0
 40
0.0
 40
0.2662849962
 40
1.0
 40
1.0
 40
1.0
 40
1.0
 10
-7.305707129
 20
-4.6386480111
 30
0.0
 10
-7.3133155792
 20
-4.6582574452
 30
0.0
 10
-7.338966346
 20
-4.7329157557
 30
0.0
 10
-7.3530743017
 20
-4.8121589391
 30
0.0
 10
-7.3530743017
 20
-4.8701147922
 30
0.0
  0
SPLINE
  5
44F
100
AcDbEntity
  8
ASSI
100
AcDbSpline
 62
7
  6
CONTINUOUS
 70
0
 71
3
 72
9
 73
5
 74
0
 42
0.0000001
 43
0.0000001
 44
0.0000000001
 40
0.0
 40
0.0
 40
0.0
 40
0.0
 40
0.4783433166
 40
1.0
 40
1.0
 40
1.0
 40
1.0
 10
-6.7020857078
 20
-3.2808991164
 30
0.0
 10
-6.7354875326
 20
-3.300858116
 30
0.0
 10
-6.7957364513
 20
-3.3584221056
 30
0.0
 10
-6.8367441514
 20
-3.4299789263
 30
0.0
 10
-6.852093638
 20
-3.4695395118
 30
0.0
  0
SPLINE
  5
450
100
AcDbEntity
  8
0
100
AcDbSpline
 62
7
  6
CONTINUOUS
 70
0
 71
3
 72
9
 73
5
 74
0
 42
0.0000001
 43
0.0000001
 44
0.0000000001
 40
0.0
 40
0.0
 40
0.0
 40
0.0
 40
0.2593869922
 40
1.0
 40
1.0
 40
1.0
 40
1.0
 10
-1.8289714034
 20
9.530707558
 30
0.0
 10
-1.8292826723
 20
9.5324074442
 30
0.0
 10
-1.8303491659
 20
9.538983826
 30
0.0
 10
-1.8308685718
 20
9.5456553994
 30
0.0
 10
-1.8308685718
 20
9.5505896875
 30
0.0
  0
SPLINE
  5
451
100
AcDbEntity
  8
0
100
AcDbSpline
 62
7
  6
CONTINUOUS
 70
0
 71
3
 72
9
 73
5
 74
0
 42
0.0000001
 43
0.0000001
 44
0.0000000001
 40
0.0
 40
0.0
 40
0.0
 40
0.0
 40
0.5502625434
 40
1.0
 40
1.0
 40
1.0
 40
1.0
 10
-1.8308685718
 20
12.2292884733
 30
0.0
 10
-1.8308685718
 20
12.2386508276
 30
0.0
 10
-1.8286252
 20
12.2560293367
 30
0.0
 10
-1.8175359009
 20
12.2705132075
 30
0.0
 10
-1.8110271091
 20
12.2745367038
 30
0.0
  0
SPLINE
  5
452
100
AcDbEntity
  8
ASSI
100
AcDbSpline
 62
7
  6
CONTINUOUS
 70
0
 71
3
 72
9
 73
5
 74
0
 42
0.0000001
 43
0.0000001
 44
0.0000000001
 40
0.0
 40
0.0
 40
0.0
 40
0.0
 40
0.2662849962
 40
1.0
 40
1.0
 40
1.0
 40
1.0
 10
-3.8434223003
 20
1.5080172457
 30
0.0
 10
-3.8449439903
 20
1.5040953589
 30
0.0
 10
-3.8500741437
 20
1.4891636968
 30
0.0
 10
-3.8528957348
 20
1.4733150602
 30
0.0
 10
-3.8528957348
 20
1.4617238895
 30
0.0
  0
SPLINE
  5
453
100
AcDbEntity
  8
ASSI
100
AcDbSpline
 62
7
  6
CONTINUOUS
 70
0
 71
3
 72
9
 73
5
 74
0
 42
0.0000001
 43
0.0000001
 44
0.0000000001
 40
0.0
 40
0.0
 40
0.0
 40
0.0
 40
0.4783433166
 40
1.0
 40
1.0
 40
1.0
 40
1.0
 10
-3.677353111
 20
1.8568397932
 30
0.0
 10
-3.6907138409
 20
1.8488561934
 30
0.0
 10
-3.7148134084
 20
1.8258305976
 30
0.0
 10
-3.7312164884
 20
1.7972078693
 30
0.0
 10
-3.7373562831
 20
1.7813836351
 30
0.0
  0
SPLINE
  5
454
100
AcDbEntity
  8
ASSI
100
AcDbSpline
 62
7
  6
CONTINUOUS
 70
0
 71
3
 72
9
 73
5
 74
0
 42
0.0000001
 43
0.0000001
 44
0.0000000001
 40
0.0
 40
0.0
 40
0.0
 40
0.0
 40
0.2662849962
 40
1.0
 40
1.0
 40
1.0
 40
1.0
 10
3.1241178935
 20
10.6576623049
 30
0.0
 10
3.1165094433
 20
10.6380528709
 30
0.0
 10
3.0908586765
 20
10.5633945603
 30
0.0
 10
3.0767507208
 20
10.484151377
 30
0.0
 10
3.0767507208
 20
10.4261955238
 30
0.0
  0
SPLINE
  5
455
100
AcDbEntity
  8
ASSI
100
AcDbSpline
 62
7
  6
CONTINUOUS
 70
0
 71
3
 72
9
 73
5
 74
0
 42
0.0000001
 43
0.0000001
 44
0.0000000001
 40
0.0
 40
0.0
 40
0.0
 40
0.0
 40
0.4783433166
 40
1.0
 40
1.0
 40
1.0
 40
1.0
 10
3.9929043576
 20
12.698827173
 30
0.0
 10
3.9595025328
 20
12.6788681734
 30
0.0
 10
3.8992536141
 20
12.6213041838
 30
0.0
 10
3.8582459141
 20
12.5497473631
 30
0.0
 10
3.8428964274
 20
12.5101867776
 30
0.0
  0
SPLINE
  5
456
100
AcDbEntity
  8
0
100
AcDbSpline
 62
7
  6
CONTINUOUS
 70
0
 71
3
 72
11
 73
7
 74
0
 42
0.0000001
 43
0.0000001
 44
0.0000000001
 40
0.0
 40
0.0
 40
0.0
 40
0.0
 40
0.2606664248
 40
0.5110425003
 40
0.7556167552
 40
1.0
 40
1.0
 40
1.0
 40
1.0
 10
-1.7255738051
 20
13.5205028358
 30
0.0
 10
-1.7315734121
 20
13.5050399106
 30
0.0
 10
-1.7377396677
 20
13.4721269087
 30
0.0
 10
-1.7276540859
 20
13.4239450867
 30
0.0
 10
-1.7016561366
 20
13.3836246806
 30
0.0
 10
-1.676798172
 20
13.3639652161
 30
0.0
 10
-1.663329049
 20
13.356194485
 30
0.0
  0
SPLINE
  5
457
100
AcDbEntity
  8
0
100
AcDbSpline
 62
7
  6
CONTINUOUS
 70
0
 71
3
 72
11
 73
7
 74
0
 42
0.0000001
 43
0.0000001
 44
0.0000000001
 40
0.0
 40
0.0
 40
0.0
 40
0.0
 40
0.2606664248
 40
0.5110425003
 40
0.7556167552
 40
1.0
 40
1.0
 40
1.0
 40
1.0
 10
0.0421931479
 20
12.4998163525
 30
0.0
 10
0.0361935409
 20
12.4843534273
 30
0.0
 10
0.0300272853
 20
12.4514404254
 30
0.0
 10
0.0401128671
 20
12.4032586034
 30
0.0
 10
0.0661108163
 20
12.3629381973
 30
0.0
 10
0.090968781
 20
12.3432787328
 30
0.0
 10
0.104437904
 20
12.3355080017
 30
0.0
  0
SPLINE
  5
458
100
AcDbEntity
  8
0
100
AcDbSpline
 62
7
  6
CONTINUOUS
 70
0
 71
3
 72
13
 73
9
 74
0
 42
0.0000001
 43
0.0000001
 44
0.0000000001
 40
0.0
 40
0.0
 40
0.0
 40
0.0
 40
0.3025961417
 40
0.5769804063
 40
0.6982898266
 40
0.807157989
 40
0.9056182257
 40
1.0
 40
1.0
 40
1.0
 40
1.0
 10
0.1422414245
 20
-22.2111332975
 30
0.0
 10
0.1240048081
 20
-22.2205361426
 30
0.0
 10
0.0908227993
 20
-22.241720312
 30
0.0
 10
0.0568862985
 20
-22.2757027705
 30
0.0
 10
0.0395588978
 20
-22.3054413326
 30
0.0
 10
0.0328815214
 20
-22.32697569
 30
0.0
 10
0.0330990232
 20
-22.3478608592
 30
0.0
 10
0.038512755
 20
-22.3602333606
 30
0.0
 10
0.0421931479
 20
-22.3654688965
 30
0.0
  0
SPLINE
  5
459
100
AcDbEntity
  8
IMPORT_IGES
100
AcDbSpline
 62
7
  6
CONTINUOUS
 70
0
 71
3
 72
9
 73
5
 74
0
 42
0.0000001
 43
0.0000001
 44
0.0000000001
 40
0.0
 40
0.0
 40
0.0
 40
0.0
 40
0.4716396153
 40
1.0
 40
1.0
 40
1.0
 40
1.0
 10
1.6243615335
 20
-20.5973964321
 30
0.0
 10
1.5689665388
 20
-20.5785481247
 30
0.0
 10
1.4567557964
 20
-20.5228286933
 30
0.0
 10
1.3578630779
 20
-20.4468568499
 30
0.0
 10
1.3090637748
 20
-20.4030899667
 30
0.0
  0
ELLIPSE
  5
45A
100
AcDbEntity
  8
0
100
AcDbEllipse
 62
7
  6
CONTINUOUS
 10
5.1195969415
 20
17.005156381
 30
0.0
 11
0.0487138911
 21
0.0873410232
 31
0.0
 40
0.5671693725
 41
-3.9353697913
 42
-3.1500198821
  0
ELLIPSE
  5
45B
100
AcDbEntity
  8
RACCORDO
100
AcDbEllipse
 62
7
  6
CONTINUOUS
 10
13.2927174076
 20
21.548136322
 30
0.0
 11
-0.2500120911
 21
0.4330057209
 31
0.0
 40
0.5775075436
 41
-2.3560905478
 42
-0.7855988075
  0
ELLIPSE
  5
45C
100
AcDbEntity
  8
RACCORDO
100
AcDbEllipse
 62
7
  6
CONTINUOUS
 10
7.7807371171
 20
24.7306846604
 30
0.0
 11
-0.2500882309
 21
0.4331376414
 31
0.0
 40
0.5771558487
 41
-0.7852941622
 42
-0.0174471532
  0
ELLIPSE
  5
45D
100
AcDbEntity
  8
RACCORDO
100
AcDbEllipse
 62
7
  6
CONTINUOUS
 10
13.2927174076
 20
-22.3739779756
 30
0.0
 11
-0.2500882309
 21
0.4331376414
 31
0.0
 40
0.5771558487
 41
-3.1241455003
 42
-2.3563950755
  0
ELLIPSE
  5
45E
100
AcDbEntity
  8
0
100
AcDbEllipse
 62
7
  6
CONTINUOUS
 10
10.4828580311
 20
-10.8509131931
 30
0.0
 11
0.1283320592
 21
0.214570675
 31
0.0
 40
0.5873179545
 41
-3.4228301918
 42
-2.4343760068
  0
ELLIPSE
  5
45F
100
AcDbEntity
  8
0
100
AcDbEllipse
 62
7
  6
CONTINUOUS
 10
5.4533218825
 20
16.8124677826
 30
0.0
 11
0.0513328237
 21
0.08582827
 31
0.0
 40
0.5873179545
 41
-3.917905871
 42
-2.3645628367
  0
ELLIPSE
  5
460
100
AcDbEntity
  8
RACCORDO
100
AcDbEllipse
 62
7
  6
CONTINUOUS
 10
5.6223889892
 20
23.5699948841
 30
0.0
 11
-0.2500882309
 21
0.4331376414
 31
0.0
 40
0.5771558487
 41
-0.7852941622
 42
0.7851975781
  0
ELLIPSE
  5
461
100
AcDbEntity
  8
RACCORDO
100
AcDbEllipse
 62
7
  6
CONTINUOUS
 10
11.2084248483
 20
20.3446877885
 30
0.0
 11
-0.2500120911
 21
0.4330057209
 31
0.0
 40
0.5775075436
 41
-2.3560905478
 42
-0.7855988075
  0
ELLIPSE
  5
462
100
AcDbEntity
  8
RACCORDO
100
AcDbEllipse
 62
7
  6
CONTINUOUS
 10
11.2084248483
 20
-23.6629357593
 30
0.0
 11
-0.2500882309
 21
0.4331376414
 31
0.0
 40
0.5771558487
 41
2.3562984914
 42
3.9267902317
  0
ELLIPSE
  5
463
100
AcDbEntity
  8
0
100
AcDbEllipse
 62
7
  6
CONTINUOUS
 10
-1.7846313854
 20
13.5994395226
 30
0.0
 11
0.0589068604
 21
0.1391766244
 31
0.0
 40
0.1201033671
 41
-4.465416749
 42
-3.1564683433
  0
ELLIPSE
  5
464
100
AcDbEntity
  8
0
100
AcDbEllipse
 62
7
  6
CONTINUOUS
 10
3.4601650868
 20
12.8059003571
 30
0.0
 11
0.1991766816
 21
0.1728938614
 31
0.0
 40
0.2139755587
 41
0.8766067679
 42
1.3914788973
  0
ELLIPSE
  5
465
100
AcDbEntity
  8
0
100
AcDbEllipse
 62
7
  6
CONTINUOUS
 10
3.4601650868
 20
12.8059003571
 30
0.0
 11
0.0981781007
 21
0.2319610407
 31
0.0
 40
0.1201033671
 41
1.3028964289
 42
1.8177685582
  0
ELLIPSE
  5
466
100
AcDbEntity
  8
0
100
AcDbEllipse
 62
7
  6
CONTINUOUS
 10
3.4601650868
 20
-24.6508047667
 30
0.0
 11
0.0066452686
 21
0.2792844312
 31
0.0
 40
0.3646380014
 41
-3.5998983694
 42
-3.3381473261
  0
ELLIPSE
  5
467
100
AcDbEntity
  8
0
100
AcDbEllipse
 62
7
  6
CONTINUOUS
 10
2.7924020423
 20
10.9986494804
 30
0.0
 11
0.0972367358
 21
0.519517325
 31
0.0
 40
0.2183242136
 41
-4.2654765119
 42
-4.0036771241
  0
ELLIPSE
  5
468
100
AcDbEntity
  8
0
100
AcDbEllipse
 62
7
  6
CONTINUOUS
 10
2.7924020423
 20
10.9986494804
 30
0.0
 11
0.1963562013
 21
0.4639220813
 31
0.0
 40
0.1201033671
 41
-4.465416749
 42
-4.2036173612
  0
ELLIPSE
  5
469
100
AcDbEntity
  8
0
100
AcDbEllipse
 62
7
  6
CONTINUOUS
 10
2.7924020423
 20
-23.378916563
 30
0.0
 11
0.0972367358
 21
0.519517325
 31
0.0
 40
0.2183242136
 41
-4.0036771241
 42
-3.7418777363
  0
ELLIPSE
  5
46A
100
AcDbEntity
  8
0
100
AcDbEllipse
 62
7
  6
CONTINUOUS
 10
2.7924020423
 20
-23.378916563
 30
0.0
 11
0.0132905371
 21
0.5585688623
 31
0.0
 40
0.3646380014
 41
-3.8616977572
 42
-3.5998983694
  0
ELLIPSE
  5
46B
100
AcDbEntity
  8
0
100
AcDbEllipse
 62
7
  6
CONTINUOUS
 10
11.8450098592
 20
-12.9061150516
 30
0.0
 11
0.025001236
 21
0.0433005566
 31
0.0
 40
0.5817339356
 41
0.7892453271
 42
2.3524454573
  0
ELLIPSE
  5
46C
100
AcDbEntity
  8
0
100
AcDbEllipse
 62
7
  6
CONTINUOUS
 10
11.8450098592
 20
11.5879932522
 30
0.0
 11
0.025001236
 21
0.0433005566
 31
0.0
 40
0.5817339356
 41
0.7892453271
 42
2.3524454573
  0
ELLIPSE
  5
46D
100
AcDbEntity
  8
0
100
AcDbEllipse
 62
7
  6
CONTINUOUS
 10
-2.2250441721
 20
13.8956600412
 30
0.0
 11
0.5446085198
 21
0.1721961618
 31
0.0
 40
0.6978583568
 41
2.6626218964
 42
2.9244212842
  0
ELLIPSE
  5
46E
100
AcDbEntity
  8
0
100
AcDbEllipse
 62
7
  6
CONTINUOUS
 10
-2.2250441721
 20
13.8956600412
 30
0.0
 11
0.53795225
 21
0.0543722921
 31
0.0
 40
0.8831434163
 41
2.7191125688
 42
2.9809119566
  0
ELLIPSE
  5
46F
100
AcDbEntity
  8
0
100
AcDbEllipse
 62
7
  6
CONTINUOUS
 10
12.9407552667
 20
-14.3551327136
 30
0.0
 11
0.025001236
 21
0.0433005566
 31
0.0
 40
0.5817339356
 41
-2.3523473265
 42
-0.7891471962
  0
ELLIPSE
  5
470
100
AcDbEntity
  8
0
100
AcDbEllipse
 62
7
  6
CONTINUOUS
 10
11.8450098592
 20
-14.987802379
 30
0.0
 11
0.0251918198
 21
0.0436307638
 31
0.0
 40
0.5729627172
 41
2.3600401854
 42
3.9232403157
  0
ELLIPSE
  5
471
100
AcDbEntity
  8
0
100
AcDbEllipse
 62
7
  6
CONTINUOUS
 10
12.9407552667
 20
-12.2734453862
 30
0.0
 11
0.0251918198
 21
0.0436307638
 31
0.0
 40
0.5729627172
 41
-0.7815524681
 42
0.7816476621
  0
ELLIPSE
  5
472
100
AcDbEntity
  8
0
100
AcDbEllipse
 62
7
  6
CONTINUOUS
 10
12.9407552667
 20
10.1389755901
 30
0.0
 11
0.025001236
 21
0.0433005566
 31
0.0
 40
0.5817339356
 41
-2.3523473265
 42
-0.7891471962
  0
ELLIPSE
  5
473
100
AcDbEntity
  8
0
100
AcDbEllipse
 62
7
  6
CONTINUOUS
 10
-1.7614363667
 20
15.8207875943
 30
0.0
 11
-0.0626980536
 21
0.2783082421
 31
0.0
 40
0.7038209512
 41
0.2269406977
 42
0.741812827
  0
ELLIPSE
  5
474
100
AcDbEntity
  8
0
100
AcDbEllipse
 62
7
  6
CONTINUOUS
 10
11.8450098592
 20
9.5063059247
 30
0.0
 11
0.0251918198
 21
0.0436307638
 31
0.0
 40
0.5729627172
 41
2.3600401854
 42
3.9232403157
  0
ELLIPSE
  5
475
100
AcDbEntity
  8
0
100
AcDbEllipse
 62
7
  6
CONTINUOUS
 10
-1.7614363667
 20
15.8207875943
 30
0.0
 11
0.268976125
 21
0.027186146
 31
0.0
 40
0.8831434163
 41
2.2042404395
 42
2.7191125688
  0
ELLIPSE
  5
476
100
AcDbEntity
  8
0
100
AcDbEllipse
 62
7
  6
CONTINUOUS
 10
12.9407552667
 20
12.2206629176
 30
0.0
 11
0.0251918198
 21
0.0436307638
 31
0.0
 40
0.5729627172
 41
-0.7815524681
 42
0.7816476621
  0
ELLIPSE
  5
477
100
AcDbEntity
  8
0
100
AcDbEllipse
 62
7
  6
CONTINUOUS
 10
-1.7332511526
 20
9.5253103306
 30
0.0
 11
0.1217479901
 21
0.1456770545
 31
0.0
 40
0.4249130148
 41
-4.4060233764
 42
-3.0676812887
  0
ELLIPSE
  5
478
100
AcDbEntity
  8
0
100
AcDbEllipse
 62
7
  6
CONTINUOUS
 10
1.8603501031
 20
7.450410004
 30
0.0
 11
0.1265819933
 21
0.1426762048
 31
0.0
 40
0.4209987725
 41
-3.0555571809
 42
-1.7172150931
  0
ELLIPSE
  5
479
100
AcDbEntity
  8
0
100
AcDbEllipse
 62
7
  6
CONTINUOUS
 10
1.9630718646
 20
-23.3072520716
 30
0.0
 11
0.1576684871
 21
0.0709019718
 31
0.0
 40
0.5264969525
 41
1.6720755577
 42
3.242567298
  0
ELLIPSE
  5
47A
100
AcDbEntity
  8
0
100
AcDbEllipse
 62
7
  6
CONTINUOUS
 10
1.9630718646
 20
11.4355626358
 30
0.0
 11
0.161385675
 21
0.0163116876
 31
0.0
 40
0.8831434163
 41
2.7191125688
 42
4.2896043091
  0
ENDSEC
  0
SECTION
  2
OBJECTS
  0
DICTIONARY
  5
C
100
AcDbDictionary
280
0
281
1
  3
ACAD_GROUP
350
D
  3
ACAD_MLINESTYLE
350
17
  3
ACAD_LAYOUT
350
1A
  3
ACAD_PLOTSETTINGS
350
19
  3
ACAD_PLOTSTYLENAME
350
E
  0
DICTIONARY
  5
D
102
{ACAD_REACTORS
330
C
102
}
100
AcDbDictionary
280
0
281
1
  0
ACDBDICTIONARYWDFLT
  5
E
102
{ACAD_REACTORS
330
C
102
}
100
AcDbDictionary
281
1
  3
Normal
350
F
100
AcDbDictionaryWithDefault
340
F
  0
DICTIONARY
  5
17
102
{ACAD_REACTORS
330
C
102
}
100
AcDbDictionary
280
0
281
1
  3
Standard
350
18
  0
DICTIONARY
  5
19
102
{ACAD_REACTORS
330
C
102
}
100
AcDbDictionary
281
1
  0
DICTIONARY
  5
1A
102
{ACAD_REACTORS
330
C
102
}
100
AcDbDictionary
281
1
  3
Model
350
47B
  3
Layout1
350
47C
  0
ACDBPLACEHOLDER
  5
F
102
{ACAD_REACTORS
330
E
102
}
  0
MLINESTYLE
  5
18
102
{ACAD_REACTORS
330
17
102
}
100
AcDbMlineStyle
  2
STANDARD
 70
0
  3

 62
256
 51
90.0
 52
90.0
 71
2
 49
0.5
 62
256
  6
BYLAYER
 49
-0.5
 62
256
  6
BYLAYER
  0
LAYOUT
  5
47B
102
{ACAD_REACTORS
330
1A
102
}
100
AcDbPlotSettings
  1

  2
none_device
  4
ISO_A4_(297.00_x_210.00_MM)
  6

 40
0.0
 41
0.0
 42
0.0
 43
0.0
 44
297.0
 45
210.0
 46
0.0
 47
0.0
 48
0.0
 49
0.0
140
0.0
141
0.0
142
1.0
143
1.0
 70
1024
 72
1
 73
0
 74
0
  7

 75
0
147
1.0
148
0.0
149
0.0
100
AcDbLayout
  1
Model
 70
0
 71
0
 10
0.0
 20
0.0
 11
297.0
 21
210.0
 12
0.0
 22
0.0
 32
0.0
 14
0.0
 24
0.0
 34
0.0
 15
0.0
 25
0.0
 35
0.0
146
0.0
 13
0.0
 23
0.0
 33
0.0
 16
1.0
 26
0.0
 36
0.0
 17
0.0
 27
1.0
 37
0.0
 76
0
330
277
345
0
346
0
  0
LAYOUT
  5
47C
102
{ACAD_REACTORS
330
1A
102
}
100
AcDbPlotSettings
  1

  2
none_device
  4
ISO_A4_(297.00_x_210.00_MM)
  6

 40
0.0
 41
0.0
 42
0.0
 43
0.0
 44
297.0
 45
210.0
 46
0.0
 47
0.0
 48
0.0
 49
0.0
140
0.0
141
0.0
142
1.0
143
1.0
 70
0
 72
1
 73
0
 74
0
  7

 75
0
147
1.0
148
0.0
149
0.0
100
AcDbLayout
  1
Layout1
 70
0
 71
1
 10
0.0
 20
0.0
 11
297.0
 21
210.0
 12
0.0
 22
0.0
 32
0.0
 14
0.0
 24
0.0
 34
0.0
 15
0.0
 25
0.0
 35
0.0
146
0.0
 13
0.0
 23
0.0
 33
0.0
 16
1.0
 26
0.0
 36
0.0
 17
0.0
 27
1.0
 37
0.0
 76
0
330
278
345
0
346
0
  0
ENDSEC
  0
EOF
